999
DXF file: CB2_assy_2.dxf
999
Pro/ENGINEER 2014200 by Parametric Technology Corporation
  0
SECTION
  2
HEADER
  9
$ACADVER
  1
AC1021
  9
$DWGCODEPAGE
  3
ANSI_1252
  9
$EXTMAX
 10
22.0
 20
17.0
 30
0.0
  9
$EXTMIN
 10
0.0
 20
0.0
 30
0.0
  9
$LIMMIN
 10
0.0
 20
0.0
  9
$LIMMAX
 10
22.0
 20
17.0
  9
$VIEWCTR
 10
11.0
 20
8.5
  9
$VIEWSIZE
 40
17.0
  9
$CLAYER
  8
0
  9
$LTSCALE
 40
1.21
  9
$CELTYPE
  6
BYLAYER
  9
$DIMSCALE
 40
1.0
  9
$DIMASZ
 40
0.1875
  9
$DIMEXO
 40
0.0625
  9
$DIMDLI
 40
0.836
  9
$DIMEXE
 40
0.125
  9
$DIMCEN
 40
0.198
  9
$DIMLFAC
 40
1.0
  9
$DIMBLK
  1
_FILLED
  9
$DIMTXT
 40
0.1
  9
$DIMTOL
 70
0
  9
$DIMLIM
 70
0
  9
$DIMTFAC
 40
1.0
  9
$DIMGAP
 40
0.09
  9
$DIMDSEP
 70
46
  9
$AUNITS
 70
0
  9
$PDMODE
 70
3
  9
$PDSIZE
 40
0.3125
  9
$HANDSEED
  5
324
  9
$TILEMODE
 70
1
  9
$MEASUREMENT
 70
0
  9
$INSUNITS
 70
1
  0
ENDSEC
  0
SECTION
  2
CLASSES
  0
CLASS
  1
ACDBDICTIONARYWDFLT
  2
AcDbDictionaryWithDefault
  3
AutoCAD 2000
 90
0
 91
1
280
0
281
0
  0
CLASS
  1
ACDBPLACEHOLDER
  2
AcDbPlaceHolder
  3
AutoCAD 2000
 90
0
 91
1
280
0
281
0
  0
CLASS
  1
LAYOUT
  2
AcDbLayout
  3
AutoCAD 2000
 90
0
 91
0
280
0
281
0
  0
CLASS
  1
RASTERVARIABLES
  2
AcDbRasterVariables
  3
ISM
 90
0
 91
1
280
0
281
0
  0
CLASS
  1
IMAGEDEF
  2
AcDbRasterImageDef
  3
ISM
 90
0
 91
1
280
0
281
0
  0
CLASS
  1
IMAGEDEF_REACTOR
  2
AcDbRasterImageDefReactor
  3
ISM
 90
0
 91
1
280
0
281
0
  0
CLASS
  1
IMAGE
  2
AcDbRasterImage
  3
ISM
 90
127
 91
1
280
0
281
1
  0
CLASS
  1
TABLESTYLE
  2
AcDbTableStyle
  3
ObjectDBX Classes
 90
2047
 91
1
280
0
281
0
  0
CLASS
  1
ACAD_TABLE
  2
AcDbTable
  3
ObjectDBX Classes
 90
1025
 91
2
280
0
281
1
  0
ENDSEC
  0
SECTION
  2
TABLES
  0
TABLE
  2
VPORT
  5
8
100
AcDbSymbolTable
 70
2
  0
VPORT
  5
1F4
100
AcDbSymbolTableRecord
100
AcDbViewportTableRecord
  2
*ACTIVE
 70
0
 10
0.0
 20
0.0
 11
1.0
 21
1.0
 12
11.0
 22
8.5
 13
0.0
 23
0.0
 14
1.0
 24
1.0
 15
0.0
 25
0.0
 16
0.0
 26
0.0
 36
1.0
 17
0.0
 27
0.0
 37
0.0
 40
17.0
 41
1.2941176471
 42
50.0
 43
0.0
 44
0.0
 50
0.0
 51
0.0
 71
0
 72
100
 73
1
 74
1
 75
0
 76
0
 77
0
 78
0
  0
ENDTAB
  0
TABLE
  2
LTYPE
  5
5
100
AcDbSymbolTable
 70
6
  0
LTYPE
  5
14
100
AcDbSymbolTableRecord
100
AcDbLinetypeTableRecord
  2
BYBLOCK
 70
0
  3

 72
65
 73
0
 40
0.0
  0
LTYPE
  5
15
100
AcDbSymbolTableRecord
100
AcDbLinetypeTableRecord
  2
BYLAYER
 70
0
  3

 72
65
 73
0
 40
0.0
  0
LTYPE
  5
16
100
AcDbSymbolTableRecord
100
AcDbLinetypeTableRecord
  2
CONTINUOUS
 70
64
  3
Solid line
 72
65
 73
0
 40
0.0
  0
LTYPE
  5
1F5
100
AcDbSymbolTableRecord
100
AcDbLinetypeTableRecord
  2
CENTER
 70
64
  3
____ _ ____ _ ____ _ ____ _ ____ _ ____ _ ____
 72
65
 73
4
 40
0.6
 49
0.375
 74
0
 49
-0.075
 74
0
 49
0.075
 74
0
 49
-0.075
 74
0
  0
LTYPE
  5
1F6
100
AcDbSymbolTableRecord
100
AcDbLinetypeTableRecord
  2
HIDDEN
 70
64
  3
- - - - - - - - - - - - - - - - - - - -
 72
65
 73
2
 40
0.2
 49
0.1
 74
0
 49
-0.1
 74
0
  0
LTYPE
  5
1F7
100
AcDbSymbolTableRecord
100
AcDbLinetypeTableRecord
  2
PHANTOM
 70
64
  3
_____ _ _ _____ _ _ _____ _ _ _____
 72
65
 73
6
 40
0.8
 49
0.45
 74
0
 49
-0.05
 74
0
 49
0.1
 74
0
 49
-0.05
 74
0
 49
0.1
 74
0
 49
-0.05
 74
0
  0
LTYPE
  5
1F8
100
AcDbSymbolTableRecord
100
AcDbLinetypeTableRecord
  2
DOT
 70
64
  3
. . . . . . . . . . . . . . . . . . . .
 72
65
 73
2
 40
0.2
 49
0.1
 74
0
 49
-0.1
 74
0
  0
LTYPE
  5
1F9
100
AcDbSymbolTableRecord
100
AcDbLinetypeTableRecord
  2
DASHED
 70
64
  3
- - - - - - - - - - - - - - - - - - - -
 72
65
 73
2
 40
0.2
 49
0.1
 74
0
 49
-0.1
 74
0
  0
ENDTAB
  0
TABLE
  2
LAYER
  5
2
100
AcDbSymbolTable
 70
36
  0
LAYER
  5
10
100
AcDbSymbolTableRecord
100
AcDbLayerTableRecord
  2
0
 70
0
 62
7
  6
CONTINUOUS
370
-3
390
F
  0
LAYER
  5
1FA
100
AcDbSymbolTableRecord
100
AcDbLayerTableRecord
  2
DEFAULT_1
 70
0
 62
7
  6
CENTER
370
-3
390
F
  0
LAYER
  5
1FB
100
AcDbSymbolTableRecord
100
AcDbLayerTableRecord
  2
DEFAULT_2
 70
0
 62
8
  6
HIDDEN
370
-3
390
F
  0
LAYER
  5
1FC
100
AcDbSymbolTableRecord
100
AcDbLayerTableRecord
  2
DEFAULT_3
 70
0
 62
7
  6
PHANTOM
370
-3
390
F
  0
LAYER
  5
1FD
100
AcDbSymbolTableRecord
100
AcDbLayerTableRecord
  2
01___PRT_ALL_DTM_PLN
 70
0
 62
7
  6
CONTINUOUS
370
-3
390
F
  0
LAYER
  5
1FE
100
AcDbSymbolTableRecord
100
AcDbLayerTableRecord
  2
01___PRT_DEF_DTM_PLN
 70
0
 62
7
  6
CONTINUOUS
370
-3
390
F
  0
LAYER
  5
1FF
100
AcDbSymbolTableRecord
100
AcDbLayerTableRecord
  2
02___PRT_ALL_AXES
 70
0
 62
7
  6
CONTINUOUS
370
-3
390
F
  0
LAYER
  5
200
100
AcDbSymbolTableRecord
100
AcDbLayerTableRecord
  2
03___PRT_ALL_CURVES
 70
0
 62
7
  6
CONTINUOUS
370
-3
390
F
  0
LAYER
  5
201
100
AcDbSymbolTableRecord
100
AcDbLayerTableRecord
  2
04___PRT_ALL_DTM_PNT
 70
0
 62
7
  6
CONTINUOUS
370
-3
390
F
  0
LAYER
  5
202
100
AcDbSymbolTableRecord
100
AcDbLayerTableRecord
  2
05___PRT_ALL_DTM_CSYS
 70
0
 62
7
  6
CONTINUOUS
370
-3
390
F
  0
LAYER
  5
203
100
AcDbSymbolTableRecord
100
AcDbLayerTableRecord
  2
05___PRT_DEF_DTM_CSYS
 70
0
 62
7
  6
CONTINUOUS
370
-3
390
F
  0
LAYER
  5
204
100
AcDbSymbolTableRecord
100
AcDbLayerTableRecord
  2
06___PRT_ALL_SURFS
 70
0
 62
7
  6
CONTINUOUS
370
-3
390
F
  0
LAYER
  5
205
100
AcDbSymbolTableRecord
100
AcDbLayerTableRecord
  2
DATUM_PLANES
 70
0
 62
7
  6
CONTINUOUS
370
-3
390
F
  0
LAYER
  5
206
100
AcDbSymbolTableRecord
100
AcDbLayerTableRecord
  2
DIMENSIONS
 70
0
 62
7
  6
CONTINUOUS
370
-3
390
F
  0
LAYER
  5
207
100
AcDbSymbolTableRecord
100
AcDbLayerTableRecord
  2
DTM_500001
 70
0
 62
7
  6
CONTINUOUS
370
-3
390
F
  0
LAYER
  5
208
100
AcDbSymbolTableRecord
100
AcDbLayerTableRecord
  2
PARAMETERDIMENSIONS
 70
0
 62
7
  6
CONTINUOUS
370
-3
390
F
  0
LAYER
  5
209
100
AcDbSymbolTableRecord
100
AcDbLayerTableRecord
  2
PORT_AREAS
 70
0
 62
7
  6
CONTINUOUS
370
-3
390
F
  0
LAYER
  5
20A
100
AcDbSymbolTableRecord
100
AcDbLayerTableRecord
  2
SUNNBOMCOSMETIC
 70
0
 62
7
  6
CONTINUOUS
370
-3
390
F
  0
LAYER
  5
20B
100
AcDbSymbolTableRecord
100
AcDbLayerTableRecord
  2
SUNNBOMSTAMPING
 70
0
 62
7
  6
CONTINUOUS
370
-3
390
F
  0
LAYER
  5
20C
100
AcDbSymbolTableRecord
100
AcDbLayerTableRecord
  2
THREADS
 70
0
 62
7
  6
CONTINUOUS
370
-3
390
F
  0
ENDTAB
  0
TABLE
  2
STYLE
  5
3
100
AcDbSymbolTable
 70
1
  0
STYLE
  5
11
100
AcDbSymbolTableRecord
100
AcDbTextStyleTableRecord
  2
STANDARD
 70
0
 40
0.0
 41
0.8
 50
0.0
 71
0
 42
0.2
  3
txt
  4

  0
STYLE
  5
20D
100
AcDbSymbolTableRecord
100
AcDbTextStyleTableRecord
  2
TEXTSTYLE_1
 70
0
 40
0.0
 41
0.8
 50
0.0
 71
0
 42
0.2
  3
gdt
  4

  0
ENDTAB
  0
TABLE
  2
VIEW
  5
6
100
AcDbSymbolTable
 70
0
  0
ENDTAB
  0
TABLE
  2
UCS
  5
7
100
AcDbSymbolTable
 70
0
  0
ENDTAB
  0
TABLE
  2
APPID
  5
9
100
AcDbSymbolTable
 70
1
  0
APPID
  5
20E
100
AcDbSymbolTableRecord
100
AcDbRegAppTableRecord
  2
ACAD
 70
0
  0
ENDTAB
  0
TABLE
  2
BLOCK_RECORD
  5
1
100
AcDbSymbolTable
 70
0
  0
BLOCK_RECORD
  5
20F
100
AcDbSymbolTableRecord
100
AcDbBlockTableRecord
  2
*Model_Space
  0
BLOCK_RECORD
  5
210
100
AcDbSymbolTableRecord
100
AcDbBlockTableRecord
  2
*Paper_Space
  0
BLOCK_RECORD
  5
211
100
AcDbSymbolTableRecord
100
AcDbBlockTableRecord
  2
SUN_FIRST_THIRD_ANGLE_BL0
  0
BLOCK_RECORD
  5
212
100
AcDbSymbolTableRecord
100
AcDbBlockTableRecord
  2
*T1
  0
BLOCK_RECORD
  5
213
100
AcDbSymbolTableRecord
100
AcDbBlockTableRecord
  2
*T2
  0
ENDTAB
  0
TABLE
  2
DIMSTYLE
  5
A
100
AcDbSymbolTable
 70
1
100
AcDbDimStyleTable
 71
0
  0
DIMSTYLE
105
214
100
AcDbSymbolTableRecord
100
AcDbDimStyleTableRecord
  2
STANDARD
 70
0
  3

  4

 40
1.0
 41
0.1875
 42
0.0625
 43
0.38
 44
0.125
 45
0.0
 46
0.0
 47
0.001
 48
0.001
140
0.1
141
0.09
142
0.0
143
25.4
144
1.0
145
0.0
146
1.0
147
0.09
 71
0.0
 72
0.0
 73
1
 74
1
 75
0
 76
0
 77
0
 78
4
170
0
171
2
172
0
173
0
174
0
175
0
176
0
177
0
178
0
270
2
271
3
272
3
273
2
274
2
275
0
280
0
281
0
282
0
283
1
284
4
285
0
286
0
287
3
288
0
340
11
278
46
  0
ENDTAB
  0
ENDSEC
  0
SECTION
  2
BLOCKS
  0
BLOCK
  5
20
100
AcDbEntity
  8
0
100
AcDbBlockBegin
  2
*Model_Space
 70
0
 10
0.0
 20
0.0
 30
0.0
  3
*Model_Space
  1

  0
ENDBLK
  5
21
100
AcDbEntity
  8
0
100
AcDbBlockEnd
  0
BLOCK
  5
1C
100
AcDbEntity
  8
0
100
AcDbBlockBegin
  2
*Paper_Space
 70
0
 10
0.0
 20
0.0
 30
0.0
  3
*Paper_Space
  1

  0
ENDBLK
  5
1D
100
AcDbEntity
  8
0
100
AcDbBlockEnd
  0
BLOCK
  5
215
100
AcDbEntity
  8
0
100
AcDbBlockBegin
 62
2
  6
CONTINUOUS
  2
SUN_FIRST_THIRD_ANGLE_BL0
 70
64
 10
20.4816717061
 20
1.2289683772
  3
SUN_FIRST_THIRD_ANGLE_BL0
  1

  0
TEXT
  5
216
100
AcDbEntity
  8
0
100
AcDbText
 62
2
  6
CONTINUOUS
 10
19.4750896608
 20
1.4136269581
  7
STANDARD
 40
0.08
  1
FIRST ANGLE
 41
0.8
 72
0
100
AcDbText
  0
TEXT
  5
217
100
AcDbEntity
  8
0
100
AcDbText
 62
2
  6
CONTINUOUS
 10
20.7842537513
 20
1.4047600029
  7
STANDARD
 40
0.08
  1
THIRD ANGLE
 41
0.8
 72
0
100
AcDbText
  0
LINE
  5
218
100
AcDbEntity
  8
0
100
AcDbLine
 62
7
  6
CONTINUOUS
 10
19.4767170086
 20
1.1727031207
 11
19.6334271527
 21
1.1717972817
  0
LINE
  5
219
100
AcDbEntity
  8
0
100
AcDbLine
 62
7
  6
CONTINUOUS
 10
19.6596964832
 20
1.1717972817
 11
19.6950230232
 21
1.171593082
  0
LINE
  5
21A
100
AcDbEntity
  8
0
100
AcDbLine
 62
7
  6
CONTINUOUS
 10
19.7194818561
 20
1.1708914427
 11
19.8852396156
 21
1.1699333054
  0
LINE
  5
21B
100
AcDbEntity
  8
0
100
AcDbLine
 62
7
  6
CONTINUOUS
 10
19.4758111696
 20
1.2723454088
 11
19.88525039
 21
1.3511534004
  0
LINE
  5
21C
100
AcDbEntity
  8
0
100
AcDbLine
 62
7
  6
CONTINUOUS
 10
19.88525039
 20
1.3511534004
 11
19.8831348489
 21
0.9851647912
  0
LINE
  5
21D
100
AcDbEntity
  8
0
100
AcDbLine
 62
7
  6
CONTINUOUS
 10
19.8831348489
 20
0.9851647912
 11
19.4767170086
 21
1.0658141206
  0
LINE
  5
21E
100
AcDbEntity
  8
0
100
AcDbLine
 62
7
  6
CONTINUOUS
 10
19.4767170086
 20
1.0658141206
 11
19.4779056764
 21
1.2714536432
  0
CIRCLE
  5
21F
100
AcDbEntity
  8
0
100
AcDbCircle
 62
7
  6
CONTINUOUS
 10
20.2068232291
 20
1.1717972817
 40
0.175742101
  0
CIRCLE
  5
220
100
AcDbEntity
  8
0
100
AcDbCircle
 62
7
  6
CONTINUOUS
 10
20.2068232291
 20
1.1717972817
 40
0.1005522074
  0
LINE
  5
221
100
AcDbEntity
  8
0
100
AcDbLine
 62
7
  6
CONTINUOUS
 10
20.2077290681
 20
1.3756110529
 11
20.2071171714
 21
1.2379342989
  0
LINE
  5
222
100
AcDbEntity
  8
0
100
AcDbLine
 62
7
  6
CONTINUOUS
 10
20.2077290681
 20
1.2016899681
 11
20.2074674401
 21
1.1428236749
  0
LINE
  5
223
100
AcDbEntity
  8
0
100
AcDbLine
 62
7
  6
CONTINUOUS
 10
20.208634907
 20
1.101141841
 11
20.2080230104
 21
0.963465087
  0
LINE
  5
224
100
AcDbEntity
  8
0
100
AcDbLine
 62
7
  6
CONTINUOUS
 10
20.0066328138
 20
1.1745147986
 11
20.1443095678
 21
1.1739029019
  0
LINE
  5
225
100
AcDbEntity
  8
0
100
AcDbLine
 62
7
  6
CONTINUOUS
 10
20.1832714155
 20
1.1727031207
 11
20.238153505
 21
1.172335442
  0
LINE
  5
226
100
AcDbEntity
  8
0
100
AcDbLine
 62
7
  6
CONTINUOUS
 10
20.2756669918
 20
1.1717972817
 11
20.407916871
 21
1.1712095044
  0
CIRCLE
  5
227
100
AcDbEntity
  8
0
100
AcDbCircle
 62
7
  6
CONTINUOUS
 10
20.7509457401
 20
1.1693297793
 40
0.1722024983
  0
CIRCLE
  5
228
100
AcDbEntity
  8
0
100
AcDbCircle
 62
7
  6
CONTINUOUS
 10
20.7509457401
 20
1.1693297793
 40
0.0985164967
  0
LINE
  5
229
100
AcDbEntity
  8
0
100
AcDbLine
 62
7
  6
CONTINUOUS
 10
20.7169767782
 20
1.170462078
 11
20.7825395137
 21
1.1682766535
  0
LINE
  5
22A
100
AcDbEntity
  8
0
100
AcDbLine
 62
7
  6
CONTINUOUS
 10
20.8177513651
 20
1.1693297793
 11
20.947965719
 21
1.1693297793
  0
LINE
  5
22B
100
AcDbEntity
  8
0
100
AcDbLine
 62
7
  6
CONTINUOUS
 10
20.6875370113
 20
1.170462078
 11
20.5573226574
 21
1.170462078
  0
LINE
  5
22C
100
AcDbEntity
  8
0
100
AcDbLine
 62
7
  6
CONTINUOUS
 10
20.7486811426
 20
1.1987695462
 11
20.7486811426
 21
1.1432869085
  0
LINE
  5
22D
100
AcDbEntity
  8
0
100
AcDbLine
 62
7
  6
CONTINUOUS
 10
20.7498134414
 20
1.1059210505
 11
20.7498134414
 21
0.9757066966
  0
LINE
  5
22E
100
AcDbEntity
  8
0
100
AcDbLine
 62
7
  6
CONTINUOUS
 10
20.7486811426
 20
1.2338708068
 11
20.7486811426
 21
1.3640851607
  0
LINE
  5
22F
100
AcDbEntity
  8
0
100
AcDbLine
 62
7
  6
CONTINUOUS
 10
21.0702539817
 20
1.2701043662
 11
21.4790138229
 21
1.3448360823
  0
LINE
  5
230
100
AcDbEntity
  8
0
100
AcDbLine
 62
7
  6
CONTINUOUS
 10
21.4790138229
 20
1.3448360823
 11
21.4790138229
 21
0.9779712941
  0
LINE
  5
231
100
AcDbEntity
  8
0
100
AcDbLine
 62
7
  6
CONTINUOUS
 10
21.4790138229
 20
0.9779712941
 11
21.069121683
 21
1.0617614
  0
LINE
  5
232
100
AcDbEntity
  8
0
100
AcDbLine
 62
7
  6
CONTINUOUS
 10
21.0702539817
 20
1.2701043662
 11
21.069121683
 21
1.0617614
  0
LINE
  5
233
100
AcDbEntity
  8
0
100
AcDbLine
 62
7
  6
CONTINUOUS
 10
21.4790138229
 20
1.1693297793
 11
21.3159628059
 21
1.1693297793
  0
LINE
  5
234
100
AcDbEntity
  8
0
100
AcDbLine
 62
7
  6
CONTINUOUS
 10
21.2876553377
 20
1.1693297793
 11
21.2502894796
 21
1.1693297793
  0
LINE
  5
235
100
AcDbEntity
  8
0
100
AcDbLine
 62
7
  6
CONTINUOUS
 10
21.2208497126
 20
1.1659328831
 11
21.0713862804
 21
1.1659328831
  0
LINE
  5
236
100
AcDbEntity
  8
0
100
AcDbLine
 62
7
  6
CONTINUOUS
 10
20.4796138713
 20
1.5284908897
 11
20.4766766948
 21
0.9294458646
  0
ENDBLK
  5
237
100
AcDbEntity
  8
0
  6
BYBLOCK
 62
0
100
AcDbBlockEnd
  0
BLOCK
  5
238
100
AcDbEntity
  8
0
100
AcDbBlockBegin
  2
*T1
 70
1
 10
0.0
 20
0.0
  3
*T1
  1

  0
LINE
  5
239
100
AcDbEntity
  8
0
100
AcDbLine
 62
2
  6
CONTINUOUS
 10
9.275
 20
0.0
 11
-0.0
 21
0.0
  0
LINE
  5
23A
100
AcDbEntity
  8
0
100
AcDbLine
 62
2
  6
CONTINUOUS
 10
9.275
 20
0.0
 11
9.275
 21
1.25
  0
LINE
  5
23B
100
AcDbEntity
  8
0
100
AcDbLine
 62
2
  6
CONTINUOUS
 10
9.275
 20
0.625
 11
-0.0
 21
0.625
  0
LINE
  5
23C
100
AcDbEntity
  8
0
100
AcDbLine
 62
2
  6
CONTINUOUS
 10
9.275
 20
1.25
 11
-0.0
 21
1.25
  0
LINE
  5
23D
100
AcDbEntity
  8
0
100
AcDbLine
 62
2
  6
CONTINUOUS
 10
6.8
 20
0.0
 11
6.8
 21
1.25
  0
LINE
  5
23E
100
AcDbEntity
  8
0
100
AcDbLine
 62
2
  6
CONTINUOUS
 10
6.4
 20
0.0
 11
6.4
 21
0.625
  0
LINE
  5
23F
100
AcDbEntity
  8
0
100
AcDbLine
 62
2
  6
CONTINUOUS
 10
5.9
 20
0.0
 11
5.9
 21
0.625
  0
LINE
  5
240
100
AcDbEntity
  8
0
100
AcDbLine
 62
2
  6
CONTINUOUS
 10
5.2
 20
0.0
 11
5.2
 21
0.625
  0
LINE
  5
241
100
AcDbEntity
  8
0
100
AcDbLine
 62
2
  6
CONTINUOUS
 10
4.1
 20
0.0
 11
4.1
 21
1.25
  0
LINE
  5
242
100
AcDbEntity
  8
0
100
AcDbLine
 62
2
  6
CONTINUOUS
 10
-0.0
 20
0.0
 11
-0.0
 21
1.25
  0
MTEXT
  5
243
100
AcDbEntity
  8
0
100
AcDbMText
 62
2
  6
CONTINUOUS
  7
STANDARD
 71
2
 72
1
 10
6.6
 20
0.325
 30
0.0
 11
1.0
 21
0.0
 31
0.0
 44
0.9
  1
2
 40
0.125
 41
0.2
  0
MTEXT
  5
244
100
AcDbEntity
  8
0
100
AcDbMText
 62
2
  6
CONTINUOUS
  7
STANDARD
 71
2
 72
1
 10
6.15
 20
0.325
 30
0.0
 11
1.0
 21
0.0
 31
0.0
 44
0.9
  1
C
 40
0.125
 41
0.2
  0
MTEXT
  5
245
100
AcDbEntity
  8
0
100
AcDbMText
 62
2
  6
CONTINUOUS
  7
STANDARD
 71
2
 72
1
 10
5.55
 20
0.325
 30
0.0
 11
1.0
 21
0.0
 31
0.0
 44
0.9
  1
1.000
 40
0.125
 41
1.0
  0
MTEXT
  5
246
100
AcDbEntity
  8
0
100
AcDbMText
 62
2
  6
CONTINUOUS
  7
STANDARD
 71
2
 72
1
 10
4.65
 20
0.325
 30
0.0
 11
1.0
 21
0.0
 31
0.0
 44
0.9
  1
Aug-20-19
 40
0.125
 41
1.8
  0
MTEXT
  5
247
100
AcDbEntity
  8
0
100
AcDbMText
 62
2
  6
CONTINUOUS
  7
STANDARD
 71
2
 72
1
 10
2.05
 20
0.4625
 30
0.0
 11
1.0
 21
0.0
 31
0.0
 44
0.9
  1
T-3A Sandwich ISO 05\PA to T, check T to B
 40
0.125
 41
4.0
  0
MTEXT
  5
248
100
AcDbEntity
  8
0
100
AcDbMText
 62
2
  6
CONTINUOUS
  7
STANDARD
 71
1
 72
1
 10
6.45
 20
0.5625
 30
0.0
 11
1.0
 21
0.0
 31
0.0
 44
0.9
  1
SHEET
 40
0.06
 41
0.48
  0
MTEXT
  5
249
100
AcDbEntity
  8
0
100
AcDbMText
 62
2
  6
CONTINUOUS
  7
STANDARD
 71
1
 72
1
 10
5.95
 20
0.5625
 30
0.0
 11
1.0
 21
0.0
 31
0.0
 44
0.9
  1
DWG SIZE
 40
0.06
 41
0.768
  0
MTEXT
  5
24A
100
AcDbEntity
  8
0
100
AcDbMText
 62
2
  6
CONTINUOUS
  7
STANDARD
 71
1
 72
1
 10
5.25
 20
0.5625
 30
0.0
 11
1.0
 21
0.0
 31
0.0
 44
0.9
  1
SCALE
 40
0.06
 41
0.48
  0
MTEXT
  5
24B
100
AcDbEntity
  8
0
100
AcDbMText
 62
2
  6
CONTINUOUS
  7
STANDARD
 71
1
 72
1
 10
4.15
 20
0.5625
 30
0.0
 11
1.0
 21
0.0
 31
0.0
 44
0.9
  1
DATE
 40
0.06
 41
0.384
  0
MTEXT
  5
24C
100
AcDbEntity
  8
0
100
AcDbMText
 62
2
  6
CONTINUOUS
  7
STANDARD
 71
1
 72
1
 10
0.05
 20
0.5625
 30
0.0
 11
1.0
 21
0.0
 31
0.0
 44
0.9
  1
DESCRIPTION
 40
0.06
 41
1.056
  0
MTEXT
  5
24D
100
AcDbEntity
  8
0
100
AcDbMText
 62
2
  6
CONTINUOUS
  7
STANDARD
 71
2
 72
1
 10
5.45
 20
1.0375
 30
0.0
 11
1.0
 21
0.0
 31
0.0
 44
0.9
  1
ALL DIMENSIONS IN INCH\PVIEWS ARE THIRD ANGLE
 40
0.12
 41
4.224
  0
MTEXT
  5
24E
100
AcDbEntity
  8
0
100
AcDbMText
 62
2
  6
CONTINUOUS
  7
STANDARD
 71
2
 72
1
 10
2.05
 20
0.95
 30
0.0
 11
1.0
 21
0.0
 31
0.0
 44
0.9
  1
CB2
 40
0.125
 41
0.6
  0
MTEXT
  5
24F
100
AcDbEntity
  8
0
100
AcDbMText
 62
2
  6
CONTINUOUS
  7
STANDARD
 71
1
 72
1
 10
0.05
 20
1.1875
 30
0.0
 11
1.0
 21
0.0
 31
0.0
 44
0.9
  1
MODEL
 40
0.06
 41
0.48
  0
ENDBLK
  5
250
100
AcDbEntity
  8
0
  6
BYBLOCK
 62
0
100
AcDbBlockEnd
  0
BLOCK
  5
251
100
AcDbEntity
  8
0
100
AcDbBlockBegin
  2
*T2
 70
1
 10
0.0
 20
0.0
  3
*T2
  1

  0
LINE
  5
252
100
AcDbEntity
  8
0
100
AcDbLine
 62
2
  6
CONTINUOUS
 10
0.0
 20
0.0
 11
9.055
 21
0.0
  0
LINE
  5
253
100
AcDbEntity
  8
0
100
AcDbLine
 62
2
  6
CONTINUOUS
 10
0.0
 20
0.0
 11
0.0
 21
-2.094
  0
LINE
  5
254
100
AcDbEntity
  8
0
100
AcDbLine
 62
2
  6
CONTINUOUS
 10
0.0
 20
-0.344
 11
9.055
 21
-0.344
  0
LINE
  5
255
100
AcDbEntity
  8
0
100
AcDbLine
 62
2
  6
CONTINUOUS
 10
0.0
 20
-0.594
 11
9.055
 21
-0.594
  0
LINE
  5
256
100
AcDbEntity
  8
0
100
AcDbLine
 62
2
  6
CONTINUOUS
 10
0.0
 20
-0.844
 11
9.055
 21
-0.844
  0
LINE
  5
257
100
AcDbEntity
  8
0
100
AcDbLine
 62
2
  6
CONTINUOUS
 10
0.0
 20
-1.094
 11
9.055
 21
-1.094
  0
LINE
  5
258
100
AcDbEntity
  8
0
100
AcDbLine
 62
2
  6
CONTINUOUS
 10
0.0
 20
-1.344
 11
9.055
 21
-1.344
  0
LINE
  5
259
100
AcDbEntity
  8
0
100
AcDbLine
 62
2
  6
CONTINUOUS
 10
0.0
 20
-1.594
 11
9.055
 21
-1.594
  0
LINE
  5
25A
100
AcDbEntity
  8
0
100
AcDbLine
 62
2
  6
CONTINUOUS
 10
0.0
 20
-1.844
 11
9.055
 21
-1.844
  0
LINE
  5
25B
100
AcDbEntity
  8
0
100
AcDbLine
 62
2
  6
CONTINUOUS
 10
0.0
 20
-2.094
 11
9.055
 21
-2.094
  0
LINE
  5
25C
100
AcDbEntity
  8
0
100
AcDbLine
 62
2
  6
CONTINUOUS
 10
3.055
 20
0.0
 11
3.055
 21
-2.094
  0
LINE
  5
25D
100
AcDbEntity
  8
0
100
AcDbLine
 62
2
  6
CONTINUOUS
 10
9.055
 20
0.0
 11
9.055
 21
-2.094
  0
MTEXT
  5
25E
100
AcDbEntity
  8
0
100
AcDbMText
 62
2
  6
CONTINUOUS
  7
STANDARD
 71
2
 72
1
 10
1.5275
 20
-0.0995
 30
0.0
 11
1.0
 21
0.0
 31
0.0
 44
0.9
  1
Technical Data
 40
0.145
 41
3.248
  0
MTEXT
  5
25F
100
AcDbEntity
  8
0
100
AcDbMText
 62
2
  6
CONTINUOUS
  7
STANDARD
 71
2
 72
1
 10
4.555
 20
-0.0995
 30
0.0
 11
1.0
 21
0.0
 31
0.0
 44
0.9
  1
U.S. Units
 40
0.145
 41
2.32
  0
MTEXT
  5
260
100
AcDbEntity
  8
0
100
AcDbMText
 62
2
  6
CONTINUOUS
  7
STANDARD
 71
2
 72
1
 10
7.555
 20
-0.0995
 30
0.0
 11
1.0
 21
0.0
 31
0.0
 44
0.9
  1
Metric Units
 40
0.145
 41
2.784
  0
MTEXT
  5
261
100
AcDbEntity
  8
0
100
AcDbMText
 62
2
  6
CONTINUOUS
  7
STANDARD
 71
2
 72
1
 10
1.5275
 20
-0.4065
 30
0.0
 11
1.0
 21
0.0
 31
0.0
 44
0.9
  1
Cavity
 40
0.125
 41
1.2
  0
MTEXT
  5
262
100
AcDbEntity
  8
0
100
AcDbMText
 62
2
  6
CONTINUOUS
  7
STANDARD
 71
2
 72
1
 10
6.055
 20
-0.4065
 30
0.0
 11
1.0
 21
0.0
 31
0.0
 44
0.9
  1
T-3A
 40
0.125
 41
0.8
  0
MTEXT
  5
263
100
AcDbEntity
  8
0
100
AcDbMText
 62
2
  6
CONTINUOUS
  7
STANDARD
 71
2
 72
1
 10
1.5275
 20
-0.6565
 30
0.0
 11
1.0
 21
0.0
 31
0.0
 44
0.9
  1
Body Features
 40
0.125
 41
2.6
  0
MTEXT
  5
264
100
AcDbEntity
  8
0
100
AcDbMText
 62
2
  6
CONTINUOUS
  7
STANDARD
 71
2
 72
1
 10
6.055
 20
-0.6565
 30
0.0
 11
1.0
 21
0.0
 31
0.0
 44
0.9
  1
A to T, check T to B
 40
0.125
 41
4.0
  0
MTEXT
  5
265
100
AcDbEntity
  8
0
100
AcDbMText
 62
2
  6
CONTINUOUS
  7
STANDARD
 71
2
 72
1
 10
1.5275
 20
-0.9065
 30
0.0
 11
1.0
 21
0.0
 31
0.0
 44
0.9
  1
Body Type
 40
0.125
 41
1.8
  0
MTEXT
  5
266
100
AcDbEntity
  8
0
100
AcDbMText
 62
2
  6
CONTINUOUS
  7
STANDARD
 71
2
 72
1
 10
6.055
 20
-0.9065
 30
0.0
 11
1.0
 21
0.0
 31
0.0
 44
0.9
  1
Sandwich
 40
0.125
 41
1.6
  0
MTEXT
  5
267
100
AcDbEntity
  8
0
100
AcDbMText
 62
2
  6
CONTINUOUS
  7
STANDARD
 71
2
 72
1
 10
1.5275
 20
-1.1565
 30
0.0
 11
1.0
 21
0.0
 31
0.0
 44
0.9
  1
Interface
 40
0.125
 41
1.8
  0
MTEXT
  5
268
100
AcDbEntity
  8
0
100
AcDbMText
 62
2
  6
CONTINUOUS
  7
STANDARD
 71
2
 72
1
 10
6.055
 20
-1.1565
 30
0.0
 11
1.0
 21
0.0
 31
0.0
 44
0.9
  1
ISO 05
 40
0.125
 41
1.2
  0
MTEXT
  5
269
100
AcDbEntity
  8
0
100
AcDbMText
 62
2
  6
CONTINUOUS
  7
STANDARD
 71
2
 72
1
 10
1.5275
 20
-1.4065
 30
0.0
 11
1.0
 21
0.0
 31
0.0
 44
0.9
  1
Open Cavity Quantity
 40
0.125
 41
4.0
  0
MTEXT
  5
26A
100
AcDbEntity
  8
0
100
AcDbMText
 62
2
  6
CONTINUOUS
  7
STANDARD
 71
2
 72
1
 10
6.055
 20
-1.4065
 30
0.0
 11
1.0
 21
0.0
 31
0.0
 44
0.9
  1
1
 40
0.125
 41
0.2
  0
MTEXT
  5
26B
100
AcDbEntity
  8
0
100
AcDbMText
 62
2
  6
CONTINUOUS
  7
STANDARD
 71
2
 72
1
 10
1.5275
 20
-1.6565
 30
0.0
 11
1.0
 21
0.0
 31
0.0
 44
0.9
  1
Stack Height
 40
0.125
 41
2.4
  0
MTEXT
  5
26C
100
AcDbEntity
  8
0
100
AcDbMText
 62
2
  6
CONTINUOUS
  7
STANDARD
 71
2
 72
1
 10
4.555
 20
-1.6565
 30
0.0
 11
1.0
 21
0.0
 31
0.0
 44
0.9
  1
1.94 in.
 40
0.125
 41
1.6
  0
MTEXT
  5
26D
100
AcDbEntity
  8
0
100
AcDbMText
 62
2
  6
CONTINUOUS
  7
STANDARD
 71
2
 72
1
 10
7.555
 20
-1.6565
 30
0.0
 11
1.0
 21
0.0
 31
0.0
 44
0.9
  1
49 mm
 40
0.125
 41
1.0
  0
MTEXT
  5
26E
100
AcDbEntity
  8
0
100
AcDbMText
 62
2
  6
CONTINUOUS
  7
STANDARD
 71
2
 72
1
 10
1.5275
 20
-1.9065
 30
0.0
 11
1.0
 21
0.0
 31
0.0
 44
0.9
  1
Weight
 40
0.125
 41
1.2
  0
MTEXT
  5
26F
100
AcDbEntity
  8
0
100
AcDbMText
 62
2
  6
CONTINUOUS
  7
STANDARD
 71
2
 72
1
 10
4.555
 20
-1.9065
 30
0.0
 11
1.0
 21
0.0
 31
0.0
 44
0.9
  1
2.019 lb.
 40
0.125
 41
1.8
  0
MTEXT
  5
270
100
AcDbEntity
  8
0
100
AcDbMText
 62
2
  6
CONTINUOUS
  7
STANDARD
 71
2
 72
1
 10
7.555
 20
-1.9065
 30
0.0
 11
1.0
 21
0.0
 31
0.0
 44
0.9
  1
0,916 kg.
 40
0.125
 41
1.8
  0
ENDBLK
  5
271
100
AcDbEntity
  8
0
  6
BYBLOCK
 62
0
100
AcDbBlockEnd
  0
ENDSEC
  0
SECTION
  2
ENTITIES
  0
IMAGE
  5
272
100
AcDbEntity
  8
0
100
AcDbRasterImage
 62
7
  6
CONTINUOUS
 10
19.2297077316
 20
0.3094318264
 30
0.0
 11
0.0066666667
 21
0.0
 31
0.0
 12
0.0
 22
0.0066666667
 32
0.0
 13
369.0
 23
92.0
340
       321
 70
9
280
0
281
50
282
50
283
0
360
       31B
 71
1
 91
2
 14
-0.5
 24
-0.5
 14
368.5
 24
91.5
  0
INSERT
  5
273
100
AcDbEntity
  8
0
100
AcDbBlockReference
 62
2
  6
CONTINUOUS
  2
SUN_FIRST_THIRD_ANGLE_BL0
 10
20.4816717061
 20
1.2289683772
  0
ACAD_TABLE
  5
274
100
AcDbEntity
  8
0
 62
2
  6
CONTINUOUS
100
AcDbBlockReference
  2
*T1
 10
12.42375
 20
0.30125
 30
0.0
100
AcDbTable
342
       323
343
212
 11
1.0
 21
0.0
 31
0.0
 90
6
 91
4
 92
6
 93
20
 94
0
 95
0
 96
0
 70
1
 41
0.0
141
0.525
141
0.1
141
0.525
141
0.1
142
4.1
142
1.1
142
0.7
142
0.5
142
0.4
142
2.475
171
1
172
0
173
0
174
0
175
1
176
1
 91
33
178
0
145
0.0
301
CELL_VALUE
 90
4
  1
T-3A Sandwich ISO 05\PA to T, check T to B
304
ACVALUE_END
170
2
140
0.125
171
1
172
0
173
0
174
0
175
1
176
1
 91
33
178
0
145
0.0
301
CELL_VALUE
 90
4
  1
Aug-20-19
304
ACVALUE_END
170
5
140
0.125
171
1
172
0
173
0
174
0
175
1
176
1
 91
33
178
0
145
0.0
301
CELL_VALUE
 90
4
  1
1.000
304
ACVALUE_END
170
5
140
0.125
171
1
172
0
173
0
174
0
175
1
176
1
 91
33
178
0
145
0.0
301
CELL_VALUE
 90
4
  1
C
304
ACVALUE_END
170
5
140
0.125
171
1
172
0
173
0
174
0
175
1
176
1
 91
33
178
0
145
0.0
301
CELL_VALUE
 90
4
  1
2
304
ACVALUE_END
170
5
140
0.125
171
1
172
0
173
0
174
0
175
1
176
1
 91
33
178
0
145
0.0
301
CELL_VALUE
 90
4
  1
 
304
ACVALUE_END
170
1
140
0.125
171
1
172
0
173
0
174
0
175
1
176
1
 91
33
178
0
145
0.0
301
CELL_VALUE
 90
4
  1
DESCRIPTION
304
ACVALUE_END
170
1
140
0.06
171
1
172
0
173
0
174
0
175
1
176
1
 91
33
178
0
145
0.0
301
CELL_VALUE
 90
4
  1
DATE
304
ACVALUE_END
170
1
140
0.06
171
1
172
0
173
0
174
0
175
1
176
1
 91
33
178
0
145
0.0
301
CELL_VALUE
 90
4
  1
SCALE
304
ACVALUE_END
170
1
140
0.06
171
1
172
0
173
0
174
0
175
1
176
1
 91
33
178
0
145
0.0
301
CELL_VALUE
 90
4
  1
DWG SIZE
304
ACVALUE_END
170
1
140
0.06
171
1
172
0
173
0
174
0
175
1
176
1
 91
33
178
0
145
0.0
301
CELL_VALUE
 90
4
  1
SHEET
304
ACVALUE_END
170
1
140
0.06
171
1
172
0
173
0
174
0
175
1
176
1
 91
33
178
0
145
0.0
301
CELL_VALUE
 90
4
  1
 
304
ACVALUE_END
170
1
140
0.125
171
1
172
0
173
0
174
0
175
1
176
1
 91
33
178
0
145
0.0
301
CELL_VALUE
 90
4
  1
CB2
304
ACVALUE_END
170
5
140
0.125
171
1
172
0
173
0
174
0
175
4
176
1
 91
33
178
0
145
0.0
301
CELL_VALUE
 90
4
  1
ALL DIMENSIONS IN INCH\PVIEWS ARE THIRD ANGLE
304
ACVALUE_END
170
5
140
0.12
171
1
172
0
173
1
174
0
175
1
176
1
 91
1
178
0
145
0.0
170
1
171
1
172
0
173
1
174
0
175
1
176
1
 91
1
178
0
145
0.0
170
1
171
1
172
0
173
1
174
0
175
1
176
1
 91
1
178
0
145
0.0
170
5
171
1
172
0
173
0
174
0
175
1
176
1
 91
33
178
0
145
0.0
301
CELL_VALUE
 90
4
  1
 
304
ACVALUE_END
170
1
140
0.125
171
1
172
0
173
0
174
0
175
1
176
1
 91
33
178
0
145
0.0
301
CELL_VALUE
 90
4
  1
MODEL
304
ACVALUE_END
170
1
140
0.06
171
1
172
0
173
0
174
0
175
1
176
1
 91
33
178
0
145
0.0
301
CELL_VALUE
 90
4
  1
 
304
ACVALUE_END
170
1
140
0.125
171
1
172
0
173
0
174
0
175
1
176
1
 91
33
178
0
145
0.0
301
CELL_VALUE
 90
4
  1
 
304
ACVALUE_END
170
1
140
0.125
171
1
172
0
173
0
174
0
175
1
176
1
 91
33
178
0
145
0.0
301
CELL_VALUE
 90
4
  1
 
304
ACVALUE_END
170
1
140
0.125
171
1
172
0
173
0
174
0
175
1
176
1
 91
33
178
0
145
0.0
301
CELL_VALUE
 90
4
  1
 
304
ACVALUE_END
170
1
140
0.125
171
1
172
0
173
0
174
0
175
1
176
1
 91
33
178
0
145
0.0
301
CELL_VALUE
 90
4
  1
 
304
ACVALUE_END
170
1
140
0.125
  0
ACAD_TABLE
  5
275
100
AcDbEntity
  8
0
 62
2
  6
CONTINUOUS
100
AcDbBlockReference
  2
*T2
 10
12.4237499994
 20
16.47875
 30
0.0
100
AcDbTable
342
       322
343
213
 11
1.0
 21
0.0
 31
0.0
 90
22
 91
8
 92
3
 93
16
 94
0
 95
0
 96
0
 41
0.028
141
0.344
141
0.25
141
0.25
141
0.25
141
0.25
141
0.25
141
0.25
141
0.25
142
3.055
142
3.0
142
3.0
171
1
172
0
173
0
174
0
175
1
176
1
 91
33
178
0
145
0.0
301
CELL_VALUE
 90
4
  1
Technical Data
304
ACVALUE_END
170
5
140
0.145
171
1
172
0
173
0
174
0
175
1
176
1
 91
33
178
0
145
0.0
301
CELL_VALUE
 90
4
  1
U.S. Units
304
ACVALUE_END
170
5
140
0.145
171
1
172
0
173
0
174
0
175
1
176
1
 91
33
178
0
145
0.0
301
CELL_VALUE
 90
4
  1
Metric Units
304
ACVALUE_END
170
5
140
0.145
171
1
172
0
173
0
174
0
175
1
176
1
 91
33
178
0
145
0.0
301
CELL_VALUE
 90
4
  1
Cavity
304
ACVALUE_END
170
5
140
0.125
171
1
172
0
173
0
174
0
175
2
176
1
 91
33
178
0
145
0.0
301
CELL_VALUE
 90
4
  1
T-3A
304
ACVALUE_END
170
5
140
0.125
171
1
172
0
173
1
174
0
175
1
176
1
 91
1
178
0
145
0.0
170
1
171
1
172
0
173
0
174
0
175
1
176
1
 91
33
178
0
145
0.0
301
CELL_VALUE
 90
4
  1
Body Features
304
ACVALUE_END
170
5
140
0.125
171
1
172
0
173
0
174
0
175
2
176
1
 91
33
178
0
145
0.0
301
CELL_VALUE
 90
4
  1
A to T, check T to B
304
ACVALUE_END
170
5
140
0.125
171
1
172
0
173
1
174
0
175
1
176
1
 91
1
178
0
145
0.0
170
1
171
1
172
0
173
0
174
0
175
1
176
1
 91
33
178
0
145
0.0
301
CELL_VALUE
 90
4
  1
Body Type
304
ACVALUE_END
170
5
140
0.125
171
1
172
0
173
0
174
0
175
2
176
1
 91
33
178
0
145
0.0
301
CELL_VALUE
 90
4
  1
Sandwich
304
ACVALUE_END
170
5
140
0.125
171
1
172
0
173
1
174
0
175
1
176
1
 91
1
178
0
145
0.0
170
1
171
1
172
0
173
0
174
0
175
1
176
1
 91
33
178
0
145
0.0
301
CELL_VALUE
 90
4
  1
Interface
304
ACVALUE_END
170
5
140
0.125
171
1
172
0
173
0
174
0
175
2
176
1
 91
33
178
0
145
0.0
301
CELL_VALUE
 90
4
  1
ISO 05
304
ACVALUE_END
170
5
140
0.125
171
1
172
0
173
1
174
0
175
1
176
1
 91
1
178
0
145
0.0
170
1
171
1
172
0
173
0
174
0
175
1
176
1
 91
33
178
0
145
0.0
301
CELL_VALUE
 90
4
  1
Open Cavity Quantity
304
ACVALUE_END
170
5
140
0.125
171
1
172
0
173
0
174
0
175
2
176
1
 91
33
178
0
145
0.0
301
CELL_VALUE
 90
4
  1
1
304
ACVALUE_END
170
5
140
0.125
171
1
172
0
173
1
174
0
175
1
176
1
 91
1
178
0
145
0.0
170
1
171
1
172
0
173
0
174
0
175
1
176
1
 91
33
178
0
145
0.0
301
CELL_VALUE
 90
4
  1
Stack Height
304
ACVALUE_END
170
5
140
0.125
171
1
172
0
173
0
174
0
175
1
176
1
 91
33
178
0
145
0.0
301
CELL_VALUE
 90
4
  1
1.94 in.
304
ACVALUE_END
170
5
140
0.125
171
1
172
0
173
0
174
0
175
1
176
1
 91
33
178
0
145
0.0
301
CELL_VALUE
 90
4
  1
49 mm
304
ACVALUE_END
170
5
140
0.125
171
1
172
0
173
0
174
0
175
1
176
1
 91
33
178
0
145
0.0
301
CELL_VALUE
 90
4
  1
Weight
304
ACVALUE_END
170
5
140
0.125
171
1
172
0
173
0
174
0
175
1
176
1
 91
33
178
0
145
0.0
301
CELL_VALUE
 90
4
  1
2.019 lb.
304
ACVALUE_END
170
5
140
0.125
171
1
172
0
173
0
174
0
175
1
176
1
 91
33
178
0
145
0.0
301
CELL_VALUE
 90
4
  1
0,916 kg.
304
ACVALUE_END
170
5
140
0.125
  0
MTEXT
  5
276
100
AcDbEntity
  8
0
100
AcDbMText
 62
2
  6
CONTINUOUS
  7
STANDARD
 71
1
 72
1
 10
0.52125
 20
5.75995
 30
0.0
 11
1.0
 21
0.0
 31
0.0
 44
0.6
  3
Notes\P \P1. Important: Carefully consider\P   the maximum system pressure. The\P   pressure rating of the manifold is\P   dependent on the manifold material,\P   with the port type/size a secondary\P   consideration. Manifolds\P   constructed of alu
  1
minum are not\P   rated for pressures higher than\P   3000 psi (210 bar), regardless of\P   the port type/size specified.
 40
0.1
 41
3.04
  0
LINE
  5
277
100
AcDbEntity
  8
0
100
AcDbLine
 62
7
  6
CONTINUOUS
 10
0.30125
 20
0.30125
 11
0.30125
 21
16.69875
  0
LINE
  5
278
100
AcDbEntity
  8
0
100
AcDbLine
 62
7
  6
CONTINUOUS
 10
0.30125
 20
0.30125
 11
21.69875
 21
0.30125
  0
LINE
  5
279
100
AcDbEntity
  8
0
100
AcDbLine
 62
7
  6
CONTINUOUS
 10
0.30125
 20
16.69875
 11
21.69875
 21
16.69875
  0
LINE
  5
27A
100
AcDbEntity
  8
0
100
AcDbLine
 62
7
  6
CONTINUOUS
 10
21.69875
 20
0.30125
 11
21.69875
 21
16.69875
  0
LINE
  5
27B
100
AcDbEntity
  8
0
100
AcDbLine
 62
7
  6
CONTINUOUS
 10
9.7038486916
 20
10.7651458987
 11
10.0030432609
 21
11.0541456773
  0
LINE
  5
27C
100
AcDbEntity
  8
0
100
AcDbLine
 62
7
  6
CONTINUOUS
 10
9.733792394
 20
10.7930129983
 11
10.0329869633
 21
11.0820127769
  0
LINE
  5
27D
100
AcDbEntity
  8
0
100
AcDbLine
 62
7
  6
CONTINUOUS
 10
10.0030432609
 20
11.0541456773
 11
10.003978051
 21
11.0550318203
  0
LINE
  5
27E
100
AcDbEntity
  8
0
100
AcDbLine
 62
7
  6
CONTINUOUS
 10
10.0329869633
 20
11.0820127769
 11
10.0338455078
 21
11.0828264943
  0
LINE
  5
27F
100
AcDbEntity
  8
0
100
AcDbLine
 62
7
  6
CONTINUOUS
 10
10.0329795417
 20
11.082020752
 11
10.0030432609
 21
11.0541456773
  0
LINE
  5
280
100
AcDbEntity
  8
0
100
AcDbLine
 62
7
  6
CONTINUOUS
 10
9.733792394
 20
10.7930129983
 11
9.7038486916
 21
10.7651458987
  0
LINE
  5
281
100
AcDbEntity
  8
0
100
AcDbLine
 62
7
  6
CONTINUOUS
 10
10.6547623833
 20
5.9382773945
 11
10.6739802727
 21
5.9287841251
  0
LINE
  5
282
100
AcDbEntity
  8
0
100
AcDbLine
 62
7
  6
CONTINUOUS
 10
9.7038175559
 20
6.5480480166
 11
9.7336839823
 21
6.5202541715
  0
LINE
  5
283
100
AcDbEntity
  8
0
100
AcDbLine
 62
7
  6
CONTINUOUS
 10
9.976071294
 20
6.4581107184
 11
11.5457008548
 21
6.3492565387
  0
LINE
  5
284
100
AcDbEntity
  8
0
100
AcDbLine
 62
7
  6
CONTINUOUS
 10
9.9680479103
 20
6.4803044268
 11
11.537677471
 21
6.371450247
  0
LINE
  5
285
100
AcDbEntity
  8
0
100
AcDbLine
 62
7
  6
CONTINUOUS
 10
9.5417972026
 20
9.7056902699
 11
9.691070898
 21
9.8498775961
  0
LINE
  5
286
100
AcDbEntity
  8
0
100
AcDbLine
 62
7
  6
CONTINUOUS
 10
9.5417972026
 20
6.8079126481
 11
11.9566119114
 21
6.6404446793
  0
LINE
  5
287
100
AcDbEntity
  8
0
100
AcDbLine
 62
7
  6
CONTINUOUS
 10
9.976071294
 20
6.4581107184
 11
9.9680479103
 21
6.4803044268
  0
LINE
  5
288
100
AcDbEntity
  8
0
100
AcDbLine
 62
7
  6
CONTINUOUS
 10
9.5417972026
 20
9.7056902699
 11
9.5417972026
 21
6.8079126481
  0
LINE
  5
289
100
AcDbEntity
  8
0
100
AcDbLine
 62
7
  6
CONTINUOUS
 10
9.9770372199
 20
10.6839694717
 11
9.9690138362
 21
10.6462757752
  0
LINE
  5
28A
100
AcDbEntity
  8
0
100
AcDbLine
 62
7
  6
CONTINUOUS
 10
9.6901049721
 20
6.7976274694
 11
9.6901049721
 21
6.574054355
  0
LINE
  5
28B
100
AcDbEntity
  8
0
100
AcDbLine
 62
7
  6
CONTINUOUS
 10
9.691070898
 20
9.7740998024
 11
9.691070898
 21
10.7400257034
  0
LINE
  5
28C
100
AcDbEntity
  8
0
100
AcDbLine
 62
7
  6
CONTINUOUS
 10
9.9680479103
 20
6.4803044268
 11
9.9680479103
 21
6.7783520612
  0
LINE
  5
28D
100
AcDbEntity
  8
0
100
AcDbLine
 62
7
  6
CONTINUOUS
 10
9.9690138362
 20
10.6462757752
 11
9.9690138362
 21
9.6803498742
  0
LINE
  5
28E
100
AcDbEntity
  8
0
100
AcDbLine
 62
7
  6
CONTINUOUS
 10
12.2671735318
 20
10.9270714121
 11
11.9679789626
 21
10.6380716335
  0
LINE
  5
28F
100
AcDbEntity
  8
0
100
AcDbLine
 62
7
  6
CONTINUOUS
 10
12.2971172342
 20
10.8950511069
 11
11.997922665
 21
10.6060513283
  0
LINE
  5
290
100
AcDbEntity
  8
0
100
AcDbLine
 62
7
  6
CONTINUOUS
 10
10.5465621062
 20
6.4185470462
 11
10.5465621062
 21
6.0749570562
  0
LINE
  5
291
100
AcDbEntity
  8
0
100
AcDbLine
 62
7
  6
CONTINUOUS
 10
10.6979820457
 20
6.3131003174
 11
10.6979820457
 21
5.9286968761
  0
LINE
  5
292
100
AcDbEntity
  8
0
100
AcDbLine
 62
7
  6
CONTINUOUS
 10
10.7374548236
 20
6.3028840237
 11
10.7374548236
 21
5.9184805824
  0
LINE
  5
293
100
AcDbEntity
  8
0
100
AcDbLine
 62
7
  6
CONTINUOUS
 10
10.7915893831
 20
7.7548786317
 11
10.7915893831
 21
7.6097066582
  0
LINE
  5
294
100
AcDbEntity
  8
0
100
AcDbLine
 62
7
  6
CONTINUOUS
 10
11.5457008548
 20
6.3492565387
 11
11.537677471
 21
6.371450247
  0
LINE
  5
295
100
AcDbEntity
  8
0
100
AcDbLine
 62
7
  6
CONTINUOUS
 10
12.2971172342
 20
9.9291252059
 11
11.997922665
 21
9.6401254273
  0
LINE
  5
296
100
AcDbEntity
  8
0
100
AcDbLine
 62
7
  6
CONTINUOUS
 10
11.9566119114
 20
9.5382223011
 11
12.4582027974
 21
10.0227219209
  0
LINE
  5
297
100
AcDbEntity
  8
0
100
AcDbLine
 62
7
  6
CONTINUOUS
 10
11.5466667807
 20
10.5751152919
 11
11.5386433969
 21
10.5374215955
  0
LINE
  5
298
100
AcDbEntity
  8
0
100
AcDbLine
 62
7
  6
CONTINUOUS
 10
11.3025612982
 20
6.2636937566
 11
11.3025612982
 21
5.8792903152
  0
LINE
  5
299
100
AcDbEntity
  8
0
100
AcDbLine
 62
7
  6
CONTINUOUS
 10
11.3564821004
 20
6.2674331835
 11
11.3564821004
 21
5.8830297422
  0
LINE
  5
29A
100
AcDbEntity
  8
0
100
AcDbLine
 62
7
  6
CONTINUOUS
 10
11.537677471
 20
6.371450247
 11
11.537677471
 21
6.6694978814
  0
LINE
  5
29B
100
AcDbEntity
  8
0
100
AcDbLine
 62
7
  6
CONTINUOUS
 10
11.5386433969
 20
10.5374215955
 11
11.5386433969
 21
9.5714956944
  0
LINE
  5
29C
100
AcDbEntity
  8
0
100
AcDbLine
 62
7
  6
CONTINUOUS
 10
11.7701686355
 20
6.3534588639
 11
11.7701686355
 21
5.9900996552
  0
LINE
  5
29D
100
AcDbEntity
  8
0
100
AcDbLine
 62
7
  6
CONTINUOUS
 10
11.7846166599
 20
6.355162273
 11
11.7846166599
 21
6.0040553759
  0
LINE
  5
29E
100
AcDbEntity
  8
0
100
AcDbLine
 62
7
  6
CONTINUOUS
 10
11.9566119114
 20
9.5382223011
 11
11.9566119114
 21
6.6404446793
  0
LINE
  5
29F
100
AcDbEntity
  8
0
100
AcDbLine
 62
7
  6
CONTINUOUS
 10
11.9969567391
 20
6.4400799799
 11
11.9969567391
 21
6.6794147927
  0
LINE
  5
2A0
100
AcDbEntity
  8
0
100
AcDbLine
 62
7
  6
CONTINUOUS
 10
11.997922665
 20
10.6060513283
 11
11.997922665
 21
9.6401254273
  0
LINE
  5
2A1
100
AcDbEntity
  8
0
100
AcDbLine
 62
7
  6
CONTINUOUS
 10
9.5417972026
 20
9.7056902699
 11
11.9566119114
 21
9.5382223011
  0
LINE
  5
2A2
100
AcDbEntity
  8
0
100
AcDbLine
 62
7
  6
CONTINUOUS
 10
11.5386433969
 20
9.5714956944
 11
9.9690138362
 21
9.6803498742
  0
LINE
  5
2A3
100
AcDbEntity
  8
0
100
AcDbLine
 62
7
  6
CONTINUOUS
 10
12.2961513084
 20
6.7290797585
 11
12.2961513084
 21
6.9684145713
  0
LINE
  5
2A4
100
AcDbEntity
  8
0
100
AcDbLine
 62
7
  6
CONTINUOUS
 10
12.2971172342
 20
10.8950511069
 11
12.2971172342
 21
9.9291252059
  0
LINE
  5
2A5
100
AcDbEntity
  8
0
100
AcDbLine
 62
7
  6
CONTINUOUS
 10
12.308929102
 20
6.980756973
 11
12.308929102
 21
6.7541999538
  0
LINE
  5
2A6
100
AcDbEntity
  8
0
100
AcDbLine
 62
7
  6
CONTINUOUS
 10
12.3098950279
 20
9.9542454012
 11
12.3098950279
 21
10.9201713023
  0
LINE
  5
2A7
100
AcDbEntity
  8
0
100
AcDbLine
 62
7
  6
CONTINUOUS
 10
12.4582027974
 20
7.1249442991
 11
12.4582027974
 21
10.0227219209
  0
LINE
  5
2A8
100
AcDbEntity
  8
0
100
AcDbLine
 62
7
  6
CONTINUOUS
 10
12.3098950279
 20
10.0330070996
 11
12.4582027974
 21
10.0227219209
  0
LINE
  5
2A9
100
AcDbEntity
  8
0
100
AcDbLine
 62
7
  6
CONTINUOUS
 10
11.9566119114
 20
6.6404446793
 11
12.4582027974
 21
7.1249442991
  0
LINE
  5
2AA
100
AcDbEntity
  8
0
100
AcDbLine
 62
7
  6
CONTINUOUS
 10
11.9969567391
 20
6.4400799799
 11
12.2961513084
 21
6.7290797585
  0
LINE
  5
2AB
100
AcDbEntity
  8
0
100
AcDbLine
 62
7
  6
CONTINUOUS
 10
11.996021949
 20
6.4391938369
 11
11.9969567391
 21
6.4400799799
  0
LINE
  5
2AC
100
AcDbEntity
  8
0
100
AcDbLine
 62
7
  6
CONTINUOUS
 10
11.996021949
 20
6.4391938369
 11
11.9661555226
 21
6.4113999918
  0
LINE
  5
2AD
100
AcDbEntity
  8
0
100
AcDbLine
 62
7
  6
CONTINUOUS
 10
11.5386433969
 20
10.5374215955
 11
9.9690138362
 21
10.6462757752
  0
LINE
  5
2AE
100
AcDbEntity
  8
0
100
AcDbLine
 62
7
  6
CONTINUOUS
 10
11.5466667807
 20
10.5751152919
 11
9.9770372199
 21
10.6839694717
  0
LINE
  5
2AF
100
AcDbEntity
  8
0
100
AcDbLine
 62
7
  6
CONTINUOUS
 10
11.9679789626
 20
10.6380716335
 11
11.997922665
 21
10.6060513283
  0
LINE
  5
2B0
100
AcDbEntity
  8
0
100
AcDbLine
 62
7
  6
CONTINUOUS
 10
11.6878725039
 20
5.943936499
 11
11.6571984934
 21
5.9287841251
  0
LINE
  5
2B1
100
AcDbEntity
  8
0
100
AcDbLine
 62
7
  6
CONTINUOUS
 10
10.4542991452
 20
11.1449691185
 11
12.023928706
 21
11.0361149388
  0
LINE
  5
2B2
100
AcDbEntity
  8
0
100
AcDbLine
 62
7
  6
CONTINUOUS
 10
12.2671735318
 20
10.9270714121
 11
12.2971172342
 21
10.8950511069
  0
LINE
  5
2B3
100
AcDbEntity
  8
0
100
AcDbLine
 62
7
  6
CONTINUOUS
 10
12.2961824441
 20
10.9461776406
 11
12.2663160177
 21
10.9739714857
  0
ARC
  5
2B4
100
AcDbEntity
  8
0
100
AcDbCircle
 62
7
  6
CONTINUOUS
 10
11.174943463
 20
8.4945099428
 40
2.234463508
100
AcDbArc
 50
273.2741391254
 51
274.6601229449
  0
ARC
  5
2B5
100
AcDbEntity
  8
0
100
AcDbCircle
 62
7
  6
CONTINUOUS
 10
11.1766289056
 20
8.0858031999
 40
2.210103635
100
AcDbArc
 50
273.2665005552
 51
274.6677615151
  0
ARC
  5
2B6
100
AcDbEntity
  8
0
100
AcDbCircle
 62
7
  6
CONTINUOUS
 10
10.9566543321
 20
7.2311707573
 40
0.9538158545
100
AcDbArc
 50
254.2644742826
 51
256.7139235525
  0
ARC
  5
2B7
100
AcDbEntity
  8
0
100
AcDbCircle
 62
7
  6
CONTINUOUS
 10
10.9566543321
 20
6.846767316
 40
0.9538158545
100
AcDbArc
 50
254.2644742826
 51
256.7139235525
  0
ARC
  5
2B8
100
AcDbEntity
  8
0
100
AcDbCircle
 62
7
  6
CONTINUOUS
 10
11.3489915022
 20
6.6288317001
 40
0.7641475746
100
AcDbArc
 50
293.7608747297
 51
296.3085175792
  0
ARC
  5
2B9
100
AcDbEntity
  8
0
100
AcDbCircle
 62
7
  6
CONTINUOUS
 10
10.8685437045
 20
8.746653792
 40
0.1899033817
100
AcDbArc
 50
175.1121218348
 51
180.0241890641
  0
ARC
  5
2BA
100
AcDbEntity
  8
0
100
AcDbCircle
 62
7
  6
CONTINUOUS
 10
11.3001992716
 20
10.9115985899
 40
0.0982161418
100
AcDbArc
 50
313.4691777495
 51
314.0064521302
  0
ARC
  5
2BB
100
AcDbEntity
  8
0
100
AcDbCircle
 62
7
  6
CONTINUOUS
 10
10.3734949466
 20
10.8692024583
 40
0.0553038397
100
AcDbArc
 50
211.1763128799
 51
212.5868497347
  0
ARC
  5
2BC
100
AcDbEntity
  8
0
100
AcDbCircle
 62
7
  6
CONTINUOUS
 10
11.3201904841
 20
10.8691916527
 40
0.0552832003
100
AcDbArc
 50
327.4276695255
 51
328.8240307937
  0
ARC
  5
2BD
100
AcDbEntity
  8
0
100
AcDbCircle
 62
7
  6
CONTINUOUS
 10
11.3217298355
 20
10.8682612218
 40
0.0534845053
100
AcDbArc
 50
328.8231589276
 51
329.7843128852
  0
SPLINE
  5
2BE
100
AcDbEntity
  8
0
100
AcDbSpline
 62
7
  6
CONTINUOUS
 70
0
 71
3
 72
56
 73
52
 74
0
 42
0.0000001
 43
0.0000001
 44
0.0000000001
 40
0.0
 40
0.0
 40
0.0
 40
0.0
 40
0.0314490832
 40
0.0472849053
 40
0.0631822688
 40
0.0951458114
 40
0.1112167178
 40
0.127338339
 40
0.1435054354
 40
0.1597127686
 40
0.175954892
 40
0.1922261879
 40
0.2085208122
 40
0.2248325014
 40
0.2574732833
 40
0.2737981108
 40
0.2901144962
 40
0.322688419
 40
0.3551544646
 40
0.3713370075
 40
0.3874758424
 40
0.4195946949
 40
0.4514854697
 40
0.4673413555
 40
0.4831310165
 40
0.5144959062
 40
0.5455817839
 40
0.5610255482
 40
0.5764016574
 40
0.6069506298
 40
0.6372633477
 40
0.6523468329
 40
0.6673852231
 40
0.6823844167
 40
0.6973505166
 40
0.7122901825
 40
0.727210385
 40
0.7421182012
 40
0.7570209777
 40
0.7719260624
 40
0.7868407993
 40
0.8167175482
 40
0.8317035856
 40
0.846726677
 40
0.8617927689
 40
0.8769075777
 40
0.9072911306
 40
0.9379178985
 40
0.9533373822
 40
0.9688287985
 40
1.0
 40
1.0
 40
1.0
 40
1.0
 10
10.1167591511
 20
8.4666794546
 30
0.0
 10
10.1248504988
 20
8.4661181809
 30
0.0
 10
10.1369849717
 20
8.4646752856
 30
0.0
 10
10.1529900102
 20
8.4615920768
 30
0.0
 10
10.168958776
 20
8.4577144579
 30
0.0
 10
10.1846908727
 20
8.4526820606
 30
0.0
 10
10.2000609256
 20
8.4465436755
 30
0.0
 10
10.2114197087
 20
8.4413812693
 30
0.0
 10
10.2225572227
 20
8.4356806229
 30
0.0
 10
10.2334458398
 20
8.4294548965
 30
0.0
 10
10.2440591058
 20
8.4227203313
 30
0.0
 10
10.2543700225
 20
8.4154922604
 30
0.0
 10
10.2643532434
 20
8.4077879918
 30
0.0
 10
10.2771953759
 20
8.396907349
 30
0.0
 10
10.2892841092
 20
8.3851503256
 30
0.0
 10
10.3005269367
 20
8.372611685
 30
0.0
 10
10.3111748272
 20
8.3595854962
 30
0.0
 10
10.3233300363
 20
8.3424449228
 30
0.0
 10
10.3338448446
 20
8.3242912116
 30
0.0
 10
10.3412007333
 20
8.3092828234
 30
0.0
 10
10.3478159654
 20
8.294031202
 30
0.0
 10
10.3547108668
 20
8.2745105797
 30
0.0
 10
10.3597189051
 20
8.2544972186
 30
0.0
 10
10.3625498914
 20
8.2383518237
 30
0.0
 10
10.3645843987
 20
8.222223672
 30
0.0
 10
10.3656589526
 20
8.2020400983
 30
0.0
 10
10.3647529003
 20
8.1819363802
 30
0.0
 10
10.3628441354
 20
8.1660793229
 30
0.0
 10
10.3601660584
 20
8.1504745269
 30
0.0
 10
10.3553800575
 20
8.131367113
 30
0.0
 10
10.3486914047
 20
8.1129187338
 30
0.0
 10
10.3422555811
 20
8.0987168466
 30
0.0
 10
10.3369052884
 20
8.0883767411
 30
0.0
 10
10.3310388264
 20
8.0783558605
 30
0.0
 10
10.3246692808
 20
8.0686773048
 30
0.0
 10
10.3178118352
 20
8.0593633935
 30
0.0
 10
10.3104835345
 20
8.0504346594
 30
0.0
 10
10.3027005608
 20
8.0419121453
 30
0.0
 10
10.2944811667
 20
8.0338154543
 30
0.0
 10
10.2858444667
 20
8.0261621027
 30
0.0
 10
10.2737945463
 20
8.0165705163
 30
0.0
 10
10.2609828427
 20
8.0079339787
 30
0.0
 10
10.2475328228
 20
8.0003314308
 30
0.0
 10
10.2371226031
 20
7.995145139
 30
0.0
 10
10.2264265674
 20
7.9904939033
 30
0.0
 10
10.2117933911
 20
7.9850140015
 30
0.0
 10
10.1928947791
 20
7.9795606123
 30
0.0
 10
10.1734633116
 20
7.9760452686
 30
0.0
 10
10.1576720433
 20
7.9744004064
 30
0.0
 10
10.1416792976
 20
7.9735390368
 30
0.0
 10
10.129621879
 20
7.9737868572
 30
0.0
 10
10.1216020065
 20
7.9743428916
 30
0.0
  0
SPLINE
  5
2BF
100
AcDbEntity
  8
0
100
AcDbSpline
 62
7
  6
CONTINUOUS
 70
0
 71
3
 72
56
 73
52
 74
0
 42
0.0000001
 43
0.0000001
 44
0.0000000001
 40
0.0
 40
0.0
 40
0.0
 40
0.0
 40
0.0314490833
 40
0.0472849055
 40
0.0631822691
 40
0.0951458118
 40
0.1112167181
 40
0.1273383393
 40
0.1435054358
 40
0.1597127689
 40
0.1759548923
 40
0.1922261882
 40
0.2085208125
 40
0.2248325017
 40
0.2574732836
 40
0.2737981111
 40
0.2901144966
 40
0.3226884195
 40
0.3551544653
 40
0.3713370083
 40
0.3874758434
 40
0.4195946961
 40
0.451485471
 40
0.4673413568
 40
0.4831310177
 40
0.5144959071
 40
0.5455817842
 40
0.5610255482
 40
0.5764016572
 40
0.6069506292
 40
0.6372633472
 40
0.6523468328
 40
0.6673852237
 40
0.6823844181
 40
0.697350519
 40
0.712290186
 40
0.7272103893
 40
0.7421182058
 40
0.757020982
 40
0.771926066
 40
0.7868408021
 40
0.8167175492
 40
0.8317035856
 40
0.8467266761
 40
0.8617927671
 40
0.8769075752
 40
0.9072911269
 40
0.9379178942
 40
0.9533373788
 40
0.968828797
 40
1.0
 40
1.0
 40
1.0
 40
1.0
 10
10.1216020959
 20
7.9743428833
 30
0.0
 10
10.1135107482
 20
7.974904157
 30
0.0
 10
10.1013762752
 20
7.9763470523
 30
0.0
 10
10.0853712367
 20
7.9794302611
 30
0.0
 10
10.0694024708
 20
7.98330788
 30
0.0
 10
10.053670374
 20
7.9883402773
 30
0.0
 10
10.0383003212
 20
7.9944786624
 30
0.0
 10
10.0269415381
 20
7.9996410687
 30
0.0
 10
10.0158040241
 20
8.0053417151
 30
0.0
 10
10.004915407
 20
8.0115674415
 30
0.0
 10
9.994302141
 20
8.0183020067
 30
0.0
 10
9.9839912243
 20
8.0255300776
 30
0.0
 10
9.9740080034
 20
8.0332343463
 30
0.0
 10
9.9611658709
 20
8.044114989
 30
0.0
 10
9.9490771376
 20
8.0558720124
 30
0.0
 10
9.9378343101
 20
8.0684106531
 30
0.0
 10
9.9271864197
 20
8.0814368419
 30
0.0
 10
9.9150312105
 20
8.0985774154
 30
0.0
 10
9.9045164022
 20
8.1167311268
 30
0.0
 10
9.8971605134
 20
8.1317395151
 30
0.0
 10
9.8905452814
 20
8.1469911366
 30
0.0
 10
9.8836503799
 20
8.1665117591
 30
0.0
 10
9.8786423417
 20
8.1865251203
 30
0.0
 10
9.8758113555
 20
8.2026705151
 30
0.0
 10
9.8737768482
 20
8.2187986668
 30
0.0
 10
9.8727022944
 20
8.2389822403
 30
0.0
 10
9.8736083467
 20
8.259085958
 30
0.0
 10
9.8755171116
 20
8.274943015
 30
0.0
 10
9.8781951885
 20
8.2905478108
 30
0.0
 10
9.8829811895
 20
8.3096552246
 30
0.0
 10
9.8896698422
 20
8.3281036038
 30
0.0
 10
9.8961056659
 20
8.3423054913
 30
0.0
 10
9.9014559589
 20
8.3526455972
 30
0.0
 10
9.9073224212
 20
8.3626664783
 30
0.0
 10
9.9136919673
 20
8.3723450346
 30
0.0
 10
9.9205494136
 20
8.3816589464
 30
0.0
 10
9.9278777147
 20
8.3905876808
 30
0.0
 10
9.9356606885
 20
8.3991101951
 30
0.0
 10
9.9438800827
 20
8.4072068858
 30
0.0
 10
9.9525167825
 20
8.4148602369
 30
0.0
 10
9.9645667023
 20
8.4244518228
 30
0.0
 10
9.9773784053
 20
8.4330883596
 30
0.0
 10
9.9908284243
 20
8.4406909071
 30
0.0
 10
10.0012386434
 20
8.4458771986
 30
0.0
 10
10.0119346784
 20
8.4505284341
 30
0.0
 10
10.0265678541
 20
8.4560083356
 30
0.0
 10
10.0454664653
 20
8.461461725
 30
0.0
 10
10.0648979326
 20
8.464977069
 30
0.0
 10
10.0806892014
 20
8.4666219313
 30
0.0
 10
10.0966819482
 20
8.4674833008
 30
0.0
 10
10.1087393677
 20
8.4672354806
 30
0.0
 10
10.1167592406
 20
8.4666794462
 30
0.0
  0
SPLINE
  5
2C0
100
AcDbEntity
  8
0
100
AcDbSpline
 62
7
  6
CONTINUOUS
 70
0
 71
3
 72
56
 73
52
 74
0
 42
0.0000001
 43
0.0000001
 44
0.0000000001
 40
0.0
 40
0.0
 40
0.0
 40
0.0
 40
0.0314490832
 40
0.0472849053
 40
0.0631822688
 40
0.0951458114
 40
0.1112167178
 40
0.127338339
 40
0.1435054354
 40
0.1597127686
 40
0.175954892
 40
0.1922261879
 40
0.2085208122
 40
0.2248325014
 40
0.2574732833
 40
0.2737981108
 40
0.2901144962
 40
0.322688419
 40
0.3551544646
 40
0.3713370075
 40
0.3874758424
 40
0.4195946949
 40
0.4514854697
 40
0.4673413555
 40
0.4831310165
 40
0.5144959062
 40
0.5455817839
 40
0.5610255482
 40
0.5764016574
 40
0.6069506298
 40
0.6372633477
 40
0.6523468329
 40
0.6673852231
 40
0.6823844167
 40
0.6973505166
 40
0.7122901825
 40
0.727210385
 40
0.7421182012
 40
0.7570209777
 40
0.7719260624
 40
0.7868407993
 40
0.8167175482
 40
0.8317035856
 40
0.846726677
 40
0.8617927689
 40
0.8769075777
 40
0.9072911306
 40
0.9379178985
 40
0.9533373822
 40
0.9688287985
 40
1.0
 40
1.0
 40
1.0
 40
1.0
 10
11.1126287545
 20
7.491576989
 30
0.0
 10
11.1207201022
 20
7.4910157153
 30
0.0
 10
11.1328545752
 20
7.48957282
 30
0.0
 10
11.1488596136
 20
7.4864896112
 30
0.0
 10
11.1648283794
 20
7.4826119923
 30
0.0
 10
11.1805604761
 20
7.477579595
 30
0.0
 10
11.195930529
 20
7.4714412099
 30
0.0
 10
11.2072893121
 20
7.4662788037
 30
0.0
 10
11.2184268261
 20
7.4605781573
 30
0.0
 10
11.2293154432
 20
7.4543524309
 30
0.0
 10
11.2399287092
 20
7.4476178657
 30
0.0
 10
11.2502396259
 20
7.4403897948
 30
0.0
 10
11.2602228468
 20
7.4326855262
 30
0.0
 10
11.2730649793
 20
7.4218048834
 30
0.0
 10
11.2851537126
 20
7.41004786
 30
0.0
 10
11.2963965402
 20
7.3975092194
 30
0.0
 10
11.3070444306
 20
7.3844830306
 30
0.0
 10
11.3191996397
 20
7.3673424572
 30
0.0
 10
11.329714448
 20
7.349188746
 30
0.0
 10
11.3370703367
 20
7.3341803578
 30
0.0
 10
11.3436855688
 20
7.3189287364
 30
0.0
 10
11.3505804702
 20
7.299408114
 30
0.0
 10
11.3555885085
 20
7.279394753
 30
0.0
 10
11.3584194948
 20
7.2632493581
 30
0.0
 10
11.3604540021
 20
7.2471212064
 30
0.0
 10
11.361528556
 20
7.2269376326
 30
0.0
 10
11.3606225037
 20
7.2068339146
 30
0.0
 10
11.3587137388
 20
7.1909768573
 30
0.0
 10
11.3560356619
 20
7.1753720613
 30
0.0
 10
11.3512496609
 20
7.1562646474
 30
0.0
 10
11.3445610081
 20
7.1378162682
 30
0.0
 10
11.3381251845
 20
7.123614381
 30
0.0
 10
11.3327748918
 20
7.1132742755
 30
0.0
 10
11.3269084298
 20
7.1032533949
 30
0.0
 10
11.3205388842
 20
7.0935748392
 30
0.0
 10
11.3136814386
 20
7.0842609279
 30
0.0
 10
11.3063531379
 20
7.0753321938
 30
0.0
 10
11.2985701643
 20
7.0668096797
 30
0.0
 10
11.2903507701
 20
7.0587129887
 30
0.0
 10
11.2817140701
 20
7.0510596371
 30
0.0
 10
11.2696641497
 20
7.0414680507
 30
0.0
 10
11.2568524461
 20
7.0328315131
 30
0.0
 10
11.2434024262
 20
7.0252289652
 30
0.0
 10
11.2329922065
 20
7.0200426734
 30
0.0
 10
11.2222961708
 20
7.0153914377
 30
0.0
 10
11.2076629945
 20
7.0099115359
 30
0.0
 10
11.1887643826
 20
7.0044581467
 30
0.0
 10
11.169332915
 20
7.000942803
 30
0.0
 10
11.1535416467
 20
6.9992979408
 30
0.0
 10
11.1375489011
 20
6.9984365712
 30
0.0
 10
11.1254914825
 20
6.9986843916
 30
0.0
 10
11.1174716099
 20
6.999240426
 30
0.0
  0
SPLINE
  5
2C1
100
AcDbEntity
  8
0
100
AcDbSpline
 62
7
  6
CONTINUOUS
 70
0
 71
3
 72
56
 73
52
 74
0
 42
0.0000001
 43
0.0000001
 44
0.0000000001
 40
0.0
 40
0.0
 40
0.0
 40
0.0
 40
0.0314490833
 40
0.0472849055
 40
0.0631822691
 40
0.0951458118
 40
0.1112167181
 40
0.1273383393
 40
0.1435054358
 40
0.1597127689
 40
0.1759548923
 40
0.1922261882
 40
0.2085208125
 40
0.2248325017
 40
0.2574732836
 40
0.2737981111
 40
0.2901144966
 40
0.3226884195
 40
0.3551544653
 40
0.3713370083
 40
0.3874758434
 40
0.4195946961
 40
0.451485471
 40
0.4673413568
 40
0.4831310177
 40
0.5144959071
 40
0.5455817842
 40
0.5610255482
 40
0.5764016572
 40
0.6069506292
 40
0.6372633472
 40
0.6523468328
 40
0.6673852237
 40
0.6823844181
 40
0.697350519
 40
0.712290186
 40
0.7272103893
 40
0.7421182058
 40
0.757020982
 40
0.771926066
 40
0.7868408021
 40
0.8167175492
 40
0.8317035856
 40
0.8467266761
 40
0.8617927671
 40
0.8769075752
 40
0.9072911269
 40
0.9379178942
 40
0.9533373788
 40
0.968828797
 40
1.0
 40
1.0
 40
1.0
 40
1.0
 10
11.1174716993
 20
6.9992404177
 30
0.0
 10
11.1093803516
 20
6.9998016914
 30
0.0
 10
11.0972458786
 20
7.0012445867
 30
0.0
 10
11.0812408401
 20
7.0043277955
 30
0.0
 10
11.0652720742
 20
7.0082054144
 30
0.0
 10
11.0495399775
 20
7.0132378117
 30
0.0
 10
11.0341699246
 20
7.0193761968
 30
0.0
 10
11.0228111415
 20
7.0245386031
 30
0.0
 10
11.0116736275
 20
7.0302392495
 30
0.0
 10
11.0007850104
 20
7.0364649759
 30
0.0
 10
10.9901717444
 20
7.0431995411
 30
0.0
 10
10.9798608277
 20
7.050427612
 30
0.0
 10
10.9698776068
 20
7.0581318807
 30
0.0
 10
10.9570354743
 20
7.0690125234
 30
0.0
 10
10.944946741
 20
7.0807695468
 30
0.0
 10
10.9337039135
 20
7.0933081875
 30
0.0
 10
10.9230560231
 20
7.1063343763
 30
0.0
 10
10.9109008139
 20
7.1234749498
 30
0.0
 10
10.9003860056
 20
7.1416286612
 30
0.0
 10
10.8930301169
 20
7.1566370495
 30
0.0
 10
10.8864148848
 20
7.171888671
 30
0.0
 10
10.8795199833
 20
7.1914092935
 30
0.0
 10
10.8745119451
 20
7.2114226546
 30
0.0
 10
10.8716809589
 20
7.2275680495
 30
0.0
 10
10.8696464517
 20
7.2436962012
 30
0.0
 10
10.8685718979
 20
7.2638797747
 30
0.0
 10
10.8694779502
 20
7.2839834924
 30
0.0
 10
10.8713867151
 20
7.2998405494
 30
0.0
 10
10.8740647919
 20
7.3154453451
 30
0.0
 10
10.8788507929
 20
7.334552759
 30
0.0
 10
10.8855394456
 20
7.3530011382
 30
0.0
 10
10.8919752693
 20
7.3672030257
 30
0.0
 10
10.8973255623
 20
7.3775431316
 30
0.0
 10
10.9031920247
 20
7.3875640127
 30
0.0
 10
10.9095615707
 20
7.397242569
 30
0.0
 10
10.916419017
 20
7.4065564808
 30
0.0
 10
10.9237473182
 20
7.4154852152
 30
0.0
 10
10.9315302919
 20
7.4240077295
 30
0.0
 10
10.9397496861
 20
7.4321044202
 30
0.0
 10
10.9483863859
 20
7.4397577713
 30
0.0
 10
10.9604363057
 20
7.4493493572
 30
0.0
 10
10.9732480087
 20
7.457985894
 30
0.0
 10
10.9866980277
 20
7.4655884415
 30
0.0
 10
10.9971082468
 20
7.470774733
 30
0.0
 10
11.0078042818
 20
7.4754259685
 30
0.0
 10
11.0224374575
 20
7.48090587
 30
0.0
 10
11.0413360687
 20
7.4863592594
 30
0.0
 10
11.060767536
 20
7.4898746034
 30
0.0
 10
11.0765588048
 20
7.4915194657
 30
0.0
 10
11.0925515516
 20
7.4923808352
 30
0.0
 10
11.1046089711
 20
7.492133015
 30
0.0
 10
11.112628844
 20
7.4915769806
 30
0.0
  0
SPLINE
  5
2C2
100
AcDbEntity
  8
0
100
AcDbSpline
 62
7
  6
CONTINUOUS
 70
0
 71
3
 72
56
 73
52
 74
0
 42
0.0000001
 43
0.0000001
 44
0.0000000001
 40
0.0
 40
0.0
 40
0.0
 40
0.0
 40
0.0314490832
 40
0.0472849053
 40
0.0631822688
 40
0.0951458114
 40
0.1112167178
 40
0.127338339
 40
0.1435054354
 40
0.1597127686
 40
0.175954892
 40
0.1922261879
 40
0.2085208122
 40
0.2248325014
 40
0.2574732833
 40
0.2737981108
 40
0.2901144962
 40
0.322688419
 40
0.3551544646
 40
0.3713370075
 40
0.3874758424
 40
0.4195946949
 40
0.4514854697
 40
0.4673413555
 40
0.4831310165
 40
0.5144959062
 40
0.5455817839
 40
0.5610255482
 40
0.5764016574
 40
0.6069506298
 40
0.6372633477
 40
0.6523468329
 40
0.6673852231
 40
0.6823844167
 40
0.6973505166
 40
0.7122901825
 40
0.727210385
 40
0.7421182012
 40
0.7570209777
 40
0.7719260624
 40
0.7868407993
 40
0.8167175482
 40
0.8317035856
 40
0.846726677
 40
0.8617927689
 40
0.8769075777
 40
0.9072911306
 40
0.9379178985
 40
0.9533373822
 40
0.9688287985
 40
1.0
 40
1.0
 40
1.0
 40
1.0
 10
10.6905191084
 20
8.0337571691
 30
0.0
 10
10.6986104561
 20
8.0331958955
 30
0.0
 10
10.7107449291
 20
8.0317530002
 30
0.0
 10
10.7267499675
 20
8.0286697913
 30
0.0
 10
10.7427187333
 20
8.0247921725
 30
0.0
 10
10.75845083
 20
8.0197597752
 30
0.0
 10
10.7738208829
 20
8.0136213901
 30
0.0
 10
10.785179666
 20
8.0084589838
 30
0.0
 10
10.79631718
 20
8.0027583374
 30
0.0
 10
10.8072057971
 20
7.9965326111
 30
0.0
 10
10.8178190631
 20
7.9897980459
 30
0.0
 10
10.8281299798
 20
7.982569975
 30
0.0
 10
10.8381132007
 20
7.9748657063
 30
0.0
 10
10.8509553332
 20
7.9639850636
 30
0.0
 10
10.8630440665
 20
7.9522280402
 30
0.0
 10
10.8742868941
 20
7.9396893996
 30
0.0
 10
10.8849347845
 20
7.9266632108
 30
0.0
 10
10.8970899936
 20
7.9095226374
 30
0.0
 10
10.9076048019
 20
7.8913689261
 30
0.0
 10
10.9149606906
 20
7.876360538
 30
0.0
 10
10.9215759227
 20
7.8611089166
 30
0.0
 10
10.9284708241
 20
7.8415882942
 30
0.0
 10
10.9334788624
 20
7.8215749332
 30
0.0
 10
10.9363098487
 20
7.8054295383
 30
0.0
 10
10.938344356
 20
7.7893013866
 30
0.0
 10
10.9394189099
 20
7.7691178128
 30
0.0
 10
10.9385128576
 20
7.7490140948
 30
0.0
 10
10.9366040927
 20
7.7331570375
 30
0.0
 10
10.9339260158
 20
7.7175522415
 30
0.0
 10
10.9291400148
 20
7.6984448276
 30
0.0
 10
10.922451362
 20
7.6799964484
 30
0.0
 10
10.9160155384
 20
7.6657945612
 30
0.0
 10
10.9106652457
 20
7.6554544557
 30
0.0
 10
10.9047987837
 20
7.6454335751
 30
0.0
 10
10.8984292381
 20
7.6357550194
 30
0.0
 10
10.8915717925
 20
7.6264411081
 30
0.0
 10
10.8842434918
 20
7.617512374
 30
0.0
 10
10.8764605182
 20
7.6089898599
 30
0.0
 10
10.868241124
 20
7.6008931689
 30
0.0
 10
10.859604424
 20
7.5932398173
 30
0.0
 10
10.8475545036
 20
7.5836482309
 30
0.0
 10
10.8347428
 20
7.5750116933
 30
0.0
 10
10.8212927801
 20
7.5674091453
 30
0.0
 10
10.8108825604
 20
7.5622228536
 30
0.0
 10
10.8001865247
 20
7.5575716179
 30
0.0
 10
10.7855533484
 20
7.5520917161
 30
0.0
 10
10.7666547365
 20
7.5466383269
 30
0.0
 10
10.7472232689
 20
7.5431229832
 30
0.0
 10
10.7314320006
 20
7.541478121
 30
0.0
 10
10.715439255
 20
7.5406167513
 30
0.0
 10
10.7033818364
 20
7.5408645718
 30
0.0
 10
10.6953619638
 20
7.5414206062
 30
0.0
  0
SPLINE
  5
2C3
100
AcDbEntity
  8
0
100
AcDbSpline
 62
7
  6
CONTINUOUS
 70
0
 71
3
 72
56
 73
52
 74
0
 42
0.0000001
 43
0.0000001
 44
0.0000000001
 40
0.0
 40
0.0
 40
0.0
 40
0.0
 40
0.0314490833
 40
0.0472849055
 40
0.0631822691
 40
0.0951458118
 40
0.1112167181
 40
0.1273383393
 40
0.1435054358
 40
0.1597127689
 40
0.1759548923
 40
0.1922261882
 40
0.2085208125
 40
0.2248325017
 40
0.2574732836
 40
0.2737981111
 40
0.2901144966
 40
0.3226884195
 40
0.3551544653
 40
0.3713370083
 40
0.3874758434
 40
0.4195946961
 40
0.451485471
 40
0.4673413568
 40
0.4831310177
 40
0.5144959071
 40
0.5455817842
 40
0.5610255482
 40
0.5764016572
 40
0.6069506292
 40
0.6372633472
 40
0.6523468328
 40
0.6673852237
 40
0.6823844181
 40
0.697350519
 40
0.712290186
 40
0.7272103893
 40
0.7421182058
 40
0.757020982
 40
0.771926066
 40
0.7868408021
 40
0.8167175492
 40
0.8317035856
 40
0.8467266761
 40
0.8617927671
 40
0.8769075752
 40
0.9072911269
 40
0.9379178942
 40
0.9533373788
 40
0.968828797
 40
1.0
 40
1.0
 40
1.0
 40
1.0
 10
10.6953620532
 20
7.5414205979
 30
0.0
 10
10.6872707055
 20
7.5419818715
 30
0.0
 10
10.6751362325
 20
7.5434247669
 30
0.0
 10
10.659131194
 20
7.5465079757
 30
0.0
 10
10.6431624281
 20
7.5503855946
 30
0.0
 10
10.6274303314
 20
7.5554179919
 30
0.0
 10
10.6120602785
 20
7.561556377
 30
0.0
 10
10.6007014954
 20
7.5667187833
 30
0.0
 10
10.5895639814
 20
7.5724194297
 30
0.0
 10
10.5786753643
 20
7.5786451561
 30
0.0
 10
10.5680620983
 20
7.5853797213
 30
0.0
 10
10.5577511816
 20
7.5926077922
 30
0.0
 10
10.5477679607
 20
7.6003120608
 30
0.0
 10
10.5349258282
 20
7.6111927036
 30
0.0
 10
10.5228370949
 20
7.622949727
 30
0.0
 10
10.5115942674
 20
7.6354883676
 30
0.0
 10
10.500946377
 20
7.6485145565
 30
0.0
 10
10.4887911678
 20
7.66565513
 30
0.0
 10
10.4782763595
 20
7.6838088414
 30
0.0
 10
10.4709204708
 20
7.6988172296
 30
0.0
 10
10.4643052387
 20
7.7140688512
 30
0.0
 10
10.4574103372
 20
7.7335894737
 30
0.0
 10
10.452402299
 20
7.7536028348
 30
0.0
 10
10.4495713128
 20
7.7697482297
 30
0.0
 10
10.4475368056
 20
7.7858763814
 30
0.0
 10
10.4464622518
 20
7.8060599549
 30
0.0
 10
10.447368304
 20
7.8261636726
 30
0.0
 10
10.449277069
 20
7.8420207296
 30
0.0
 10
10.4519551458
 20
7.8576255253
 30
0.0
 10
10.4567411468
 20
7.8767329392
 30
0.0
 10
10.4634297995
 20
7.8951813184
 30
0.0
 10
10.4698656232
 20
7.9093832059
 30
0.0
 10
10.4752159162
 20
7.9197233118
 30
0.0
 10
10.4810823786
 20
7.9297441929
 30
0.0
 10
10.4874519246
 20
7.9394227492
 30
0.0
 10
10.4943093709
 20
7.948736661
 30
0.0
 10
10.5016376721
 20
7.9576653954
 30
0.0
 10
10.5094206458
 20
7.9661879097
 30
0.0
 10
10.51764004
 20
7.9742846004
 30
0.0
 10
10.5262767398
 20
7.9819379515
 30
0.0
 10
10.5383266596
 20
7.9915295374
 30
0.0
 10
10.5511383626
 20
8.0001660742
 30
0.0
 10
10.5645883816
 20
8.0077686217
 30
0.0
 10
10.5749986007
 20
8.0129549132
 30
0.0
 10
10.5856946357
 20
8.0176061486
 30
0.0
 10
10.6003278114
 20
8.0230860502
 30
0.0
 10
10.6192264226
 20
8.0285394396
 30
0.0
 10
10.6386578899
 20
8.0320547835
 30
0.0
 10
10.6544491587
 20
8.0336996459
 30
0.0
 10
10.6704419055
 20
8.0345610153
 30
0.0
 10
10.682499325
 20
8.0343131952
 30
0.0
 10
10.6905191979
 20
8.0337571608
 30
0.0
  0
SPLINE
  5
2C4
100
AcDbEntity
  8
0
100
AcDbSpline
 62
7
  6
CONTINUOUS
 70
0
 71
3
 72
56
 73
52
 74
0
 42
0.0000001
 43
0.0000001
 44
0.0000000001
 40
0.0
 40
0.0
 40
0.0
 40
0.0
 40
0.0314490832
 40
0.0472849053
 40
0.0631822688
 40
0.0951458114
 40
0.1112167178
 40
0.127338339
 40
0.1435054354
 40
0.1597127686
 40
0.175954892
 40
0.1922261879
 40
0.2085208122
 40
0.2248325014
 40
0.2574732833
 40
0.2737981108
 40
0.2901144962
 40
0.322688419
 40
0.3551544646
 40
0.3713370075
 40
0.3874758424
 40
0.4195946949
 40
0.4514854697
 40
0.4673413555
 40
0.4831310165
 40
0.5144959062
 40
0.5455817839
 40
0.5610255482
 40
0.5764016574
 40
0.6069506298
 40
0.6372633477
 40
0.6523468329
 40
0.6673852231
 40
0.6823844167
 40
0.6973505166
 40
0.7122901825
 40
0.727210385
 40
0.7421182012
 40
0.7570209777
 40
0.7719260624
 40
0.7868407993
 40
0.8167175482
 40
0.8317035856
 40
0.846726677
 40
0.8617927689
 40
0.8769075777
 40
0.9072911306
 40
0.9379178985
 40
0.9533373822
 40
0.9688287985
 40
1.0
 40
1.0
 40
1.0
 40
1.0
 10
10.6905191084
 20
8.8190548774
 30
0.0
 10
10.6986104561
 20
8.8184936038
 30
0.0
 10
10.7107449291
 20
8.8170507085
 30
0.0
 10
10.7267499675
 20
8.8139674996
 30
0.0
 10
10.7427187333
 20
8.8100898808
 30
0.0
 10
10.75845083
 20
8.8050574835
 30
0.0
 10
10.7738208829
 20
8.7989190984
 30
0.0
 10
10.785179666
 20
8.7937566921
 30
0.0
 10
10.79631718
 20
8.7880560457
 30
0.0
 10
10.8072057971
 20
8.7818303194
 30
0.0
 10
10.8178190631
 20
8.7750957542
 30
0.0
 10
10.8281299798
 20
8.7678676833
 30
0.0
 10
10.8381132007
 20
8.7601634146
 30
0.0
 10
10.8509553332
 20
8.7492827719
 30
0.0
 10
10.8630440665
 20
8.7375257485
 30
0.0
 10
10.8742868941
 20
8.7249871079
 30
0.0
 10
10.8849347845
 20
8.7119609191
 30
0.0
 10
10.8970899936
 20
8.6948203457
 30
0.0
 10
10.9076048019
 20
8.6766666344
 30
0.0
 10
10.9149606906
 20
8.6616582463
 30
0.0
 10
10.9215759227
 20
8.6464066249
 30
0.0
 10
10.9284708241
 20
8.6268860025
 30
0.0
 10
10.9334788624
 20
8.6068726415
 30
0.0
 10
10.9363098487
 20
8.5907272466
 30
0.0
 10
10.938344356
 20
8.5745990948
 30
0.0
 10
10.9394189099
 20
8.5544155211
 30
0.0
 10
10.9385128576
 20
8.5343118031
 30
0.0
 10
10.9366040927
 20
8.5184547458
 30
0.0
 10
10.9339260158
 20
8.5028499498
 30
0.0
 10
10.9291400148
 20
8.4837425359
 30
0.0
 10
10.922451362
 20
8.4652941567
 30
0.0
 10
10.9160155384
 20
8.4510922694
 30
0.0
 10
10.9106652457
 20
8.440752164
 30
0.0
 10
10.9047987837
 20
8.4307312834
 30
0.0
 10
10.8984292381
 20
8.4210527277
 30
0.0
 10
10.8915717925
 20
8.4117388164
 30
0.0
 10
10.8842434918
 20
8.4028100823
 30
0.0
 10
10.8764605182
 20
8.3942875682
 30
0.0
 10
10.868241124
 20
8.3861908772
 30
0.0
 10
10.859604424
 20
8.3785375256
 30
0.0
 10
10.8475545036
 20
8.3689459392
 30
0.0
 10
10.8347428
 20
8.3603094016
 30
0.0
 10
10.8212927801
 20
8.3527068536
 30
0.0
 10
10.8108825604
 20
8.3475205619
 30
0.0
 10
10.8001865247
 20
8.3428693262
 30
0.0
 10
10.7855533484
 20
8.3373894244
 30
0.0
 10
10.7666547365
 20
8.3319360352
 30
0.0
 10
10.7472232689
 20
8.3284206915
 30
0.0
 10
10.7314320006
 20
8.3267758293
 30
0.0
 10
10.715439255
 20
8.3259144596
 30
0.0
 10
10.7033818364
 20
8.3261622801
 30
0.0
 10
10.6953619638
 20
8.3267183145
 30
0.0
  0
SPLINE
  5
2C5
100
AcDbEntity
  8
0
100
AcDbSpline
 62
7
  6
CONTINUOUS
 70
0
 71
3
 72
56
 73
52
 74
0
 42
0.0000001
 43
0.0000001
 44
0.0000000001
 40
0.0
 40
0.0
 40
0.0
 40
0.0
 40
0.0314490833
 40
0.0472849055
 40
0.0631822691
 40
0.0951458118
 40
0.1112167181
 40
0.1273383393
 40
0.1435054358
 40
0.1597127689
 40
0.1759548923
 40
0.1922261882
 40
0.2085208125
 40
0.2248325017
 40
0.2574732836
 40
0.2737981111
 40
0.2901144966
 40
0.3226884195
 40
0.3551544653
 40
0.3713370083
 40
0.3874758434
 40
0.4195946961
 40
0.451485471
 40
0.4673413568
 40
0.4831310177
 40
0.5144959071
 40
0.5455817842
 40
0.5610255482
 40
0.5764016572
 40
0.6069506292
 40
0.6372633472
 40
0.6523468328
 40
0.6673852237
 40
0.6823844181
 40
0.697350519
 40
0.712290186
 40
0.7272103893
 40
0.7421182058
 40
0.757020982
 40
0.771926066
 40
0.7868408021
 40
0.8167175492
 40
0.8317035856
 40
0.8467266761
 40
0.8617927671
 40
0.8769075752
 40
0.9072911269
 40
0.9379178942
 40
0.9533373788
 40
0.968828797
 40
1.0
 40
1.0
 40
1.0
 40
1.0
 10
10.6953620532
 20
8.3267183062
 30
0.0
 10
10.6872707055
 20
8.3272795798
 30
0.0
 10
10.6751362325
 20
8.3287224752
 30
0.0
 10
10.659131194
 20
8.331805684
 30
0.0
 10
10.6431624281
 20
8.3356833029
 30
0.0
 10
10.6274303314
 20
8.3407157002
 30
0.0
 10
10.6120602785
 20
8.3468540853
 30
0.0
 10
10.6007014954
 20
8.3520164916
 30
0.0
 10
10.5895639814
 20
8.357717138
 30
0.0
 10
10.5786753643
 20
8.3639428644
 30
0.0
 10
10.5680620983
 20
8.3706774296
 30
0.0
 10
10.5577511816
 20
8.3779055005
 30
0.0
 10
10.5477679607
 20
8.3856097691
 30
0.0
 10
10.5349258282
 20
8.3964904119
 30
0.0
 10
10.5228370949
 20
8.4082474353
 30
0.0
 10
10.5115942674
 20
8.4207860759
 30
0.0
 10
10.500946377
 20
8.4338122648
 30
0.0
 10
10.4887911678
 20
8.4509528383
 30
0.0
 10
10.4782763595
 20
8.4691065497
 30
0.0
 10
10.4709204708
 20
8.4841149379
 30
0.0
 10
10.4643052387
 20
8.4993665595
 30
0.0
 10
10.4574103372
 20
8.518887182
 30
0.0
 10
10.452402299
 20
8.5389005431
 30
0.0
 10
10.4495713128
 20
8.555045938
 30
0.0
 10
10.4475368056
 20
8.5711740897
 30
0.0
 10
10.4464622518
 20
8.5913576632
 30
0.0
 10
10.447368304
 20
8.6114613809
 30
0.0
 10
10.449277069
 20
8.6273184379
 30
0.0
 10
10.4519551458
 20
8.6429232336
 30
0.0
 10
10.4567411468
 20
8.6620306475
 30
0.0
 10
10.4634297995
 20
8.6804790267
 30
0.0
 10
10.4698656232
 20
8.6946809142
 30
0.0
 10
10.4752159162
 20
8.7050210201
 30
0.0
 10
10.4810823786
 20
8.7150419012
 30
0.0
 10
10.4874519246
 20
8.7247204575
 30
0.0
 10
10.4943093709
 20
8.7340343693
 30
0.0
 10
10.5016376721
 20
8.7429631037
 30
0.0
 10
10.5094206458
 20
8.751485618
 30
0.0
 10
10.51764004
 20
8.7595823087
 30
0.0
 10
10.5262767398
 20
8.7672356598
 30
0.0
 10
10.5383266596
 20
8.7768272457
 30
0.0
 10
10.5511383626
 20
8.7854637825
 30
0.0
 10
10.5645883816
 20
8.79306633
 30
0.0
 10
10.5749986007
 20
8.7982526215
 30
0.0
 10
10.5856946357
 20
8.8029038569
 30
0.0
 10
10.6003278114
 20
8.8083837585
 30
0.0
 10
10.6192264226
 20
8.8138371479
 30
0.0
 10
10.6386578899
 20
8.8173524918
 30
0.0
 10
10.6544491587
 20
8.8189973542
 30
0.0
 10
10.6704419055
 20
8.8198587236
 30
0.0
 10
10.682499325
 20
8.8196109035
 30
0.0
 10
10.6905191979
 20
8.8190548691
 30
0.0
  0
SPLINE
  5
2C6
100
AcDbEntity
  8
0
100
AcDbSpline
 62
7
  6
CONTINUOUS
 70
0
 71
3
 72
56
 73
52
 74
0
 42
0.0000001
 43
0.0000001
 44
0.0000000001
 40
0.0
 40
0.0
 40
0.0
 40
0.0
 40
0.0314490832
 40
0.0472849053
 40
0.0631822688
 40
0.0951458114
 40
0.1112167178
 40
0.127338339
 40
0.1435054354
 40
0.1597127686
 40
0.175954892
 40
0.1922261879
 40
0.2085208122
 40
0.2248325014
 40
0.2574732833
 40
0.2737981108
 40
0.2901144962
 40
0.322688419
 40
0.3551544646
 40
0.3713370075
 40
0.3874758424
 40
0.4195946949
 40
0.4514854697
 40
0.4673413555
 40
0.4831310165
 40
0.5144959062
 40
0.5455817839
 40
0.5610255482
 40
0.5764016574
 40
0.6069506298
 40
0.6372633477
 40
0.6523468329
 40
0.6673852231
 40
0.6823844167
 40
0.6973505166
 40
0.7122901825
 40
0.727210385
 40
0.7421182012
 40
0.7570209777
 40
0.7719260624
 40
0.7868407993
 40
0.8167175482
 40
0.8317035856
 40
0.846726677
 40
0.8617927689
 40
0.8769075777
 40
0.9072911306
 40
0.9379178985
 40
0.9533373822
 40
0.9688287985
 40
1.0
 40
1.0
 40
1.0
 40
1.0
 10
11.1126287545
 20
9.3026881357
 30
0.0
 10
11.1207201022
 20
9.302126862
 30
0.0
 10
11.1328545752
 20
9.3006839667
 30
0.0
 10
11.1488596136
 20
9.2976007579
 30
0.0
 10
11.1648283794
 20
9.2937231391
 30
0.0
 10
11.1805604761
 20
9.2886907417
 30
0.0
 10
11.195930529
 20
9.2825523567
 30
0.0
 10
11.2072893121
 20
9.2773899504
 30
0.0
 10
11.2184268261
 20
9.271689304
 30
0.0
 10
11.2293154432
 20
9.2654635776
 30
0.0
 10
11.2399287092
 20
9.2587290125
 30
0.0
 10
11.2502396259
 20
9.2515009416
 30
0.0
 10
11.2602228468
 20
9.2437966729
 30
0.0
 10
11.2730649793
 20
9.2329160302
 30
0.0
 10
11.2851537126
 20
9.2211590068
 30
0.0
 10
11.2963965402
 20
9.2086203662
 30
0.0
 10
11.3070444306
 20
9.1955941773
 30
0.0
 10
11.3191996397
 20
9.178453604
 30
0.0
 10
11.329714448
 20
9.1602998927
 30
0.0
 10
11.3370703367
 20
9.1452915045
 30
0.0
 10
11.3436855688
 20
9.1300398832
 30
0.0
 10
11.3505804702
 20
9.1105192608
 30
0.0
 10
11.3555885085
 20
9.0905058997
 30
0.0
 10
11.3584194948
 20
9.0743605049
 30
0.0
 10
11.3604540021
 20
9.0582323531
 30
0.0
 10
11.361528556
 20
9.0380487794
 30
0.0
 10
11.3606225037
 20
9.0179450614
 30
0.0
 10
11.3587137388
 20
9.0020880041
 30
0.0
 10
11.3560356619
 20
8.9864832081
 30
0.0
 10
11.3512496609
 20
8.9673757941
 30
0.0
 10
11.3445610081
 20
8.948927415
 30
0.0
 10
11.3381251845
 20
8.9347255277
 30
0.0
 10
11.3327748918
 20
8.9243854222
 30
0.0
 10
11.3269084298
 20
8.9143645417
 30
0.0
 10
11.3205388842
 20
8.904685986
 30
0.0
 10
11.3136814386
 20
8.8953720747
 30
0.0
 10
11.3063531379
 20
8.8864433406
 30
0.0
 10
11.2985701643
 20
8.8779208265
 30
0.0
 10
11.2903507701
 20
8.8698241355
 30
0.0
 10
11.2817140701
 20
8.8621707838
 30
0.0
 10
11.2696641497
 20
8.8525791974
 30
0.0
 10
11.2568524461
 20
8.8439426599
 30
0.0
 10
11.2434024262
 20
8.8363401119
 30
0.0
 10
11.2329922065
 20
8.8311538202
 30
0.0
 10
11.2222961708
 20
8.8265025845
 30
0.0
 10
11.2076629945
 20
8.8210226827
 30
0.0
 10
11.1887643826
 20
8.8155692934
 30
0.0
 10
11.169332915
 20
8.8120539497
 30
0.0
 10
11.1535416467
 20
8.8104090875
 30
0.0
 10
11.1375489011
 20
8.8095477179
 30
0.0
 10
11.1254914825
 20
8.8097955384
 30
0.0
 10
11.1174716099
 20
8.8103515728
 30
0.0
  0
SPLINE
  5
2C7
100
AcDbEntity
  8
0
100
AcDbSpline
 62
7
  6
CONTINUOUS
 70
0
 71
3
 72
56
 73
52
 74
0
 42
0.0000001
 43
0.0000001
 44
0.0000000001
 40
0.0
 40
0.0
 40
0.0
 40
0.0
 40
0.0314490833
 40
0.0472849055
 40
0.0631822691
 40
0.0951458118
 40
0.1112167181
 40
0.1273383393
 40
0.1435054358
 40
0.1597127689
 40
0.1759548923
 40
0.1922261882
 40
0.2085208125
 40
0.2248325017
 40
0.2574732836
 40
0.2737981111
 40
0.2901144966
 40
0.3226884195
 40
0.3551544653
 40
0.3713370083
 40
0.3874758434
 40
0.4195946961
 40
0.451485471
 40
0.4673413568
 40
0.4831310177
 40
0.5144959071
 40
0.5455817842
 40
0.5610255482
 40
0.5764016572
 40
0.6069506292
 40
0.6372633472
 40
0.6523468328
 40
0.6673852237
 40
0.6823844181
 40
0.697350519
 40
0.712290186
 40
0.7272103893
 40
0.7421182058
 40
0.757020982
 40
0.771926066
 40
0.7868408021
 40
0.8167175492
 40
0.8317035856
 40
0.8467266761
 40
0.8617927671
 40
0.8769075752
 40
0.9072911269
 40
0.9379178942
 40
0.9533373788
 40
0.968828797
 40
1.0
 40
1.0
 40
1.0
 40
1.0
 10
11.1174716993
 20
8.8103515644
 30
0.0
 10
11.1093803516
 20
8.8109128381
 30
0.0
 10
11.0972458786
 20
8.8123557334
 30
0.0
 10
11.0812408401
 20
8.8154389423
 30
0.0
 10
11.0652720742
 20
8.8193165612
 30
0.0
 10
11.0495399775
 20
8.8243489585
 30
0.0
 10
11.0341699246
 20
8.8304873436
 30
0.0
 10
11.0228111415
 20
8.8356497499
 30
0.0
 10
11.0116736275
 20
8.8413503963
 30
0.0
 10
11.0007850104
 20
8.8475761227
 30
0.0
 10
10.9901717444
 20
8.8543106878
 30
0.0
 10
10.9798608277
 20
8.8615387587
 30
0.0
 10
10.9698776068
 20
8.8692430274
 30
0.0
 10
10.9570354743
 20
8.8801236702
 30
0.0
 10
10.944946741
 20
8.8918806935
 30
0.0
 10
10.9337039135
 20
8.9044193342
 30
0.0
 10
10.9230560231
 20
8.9174455231
 30
0.0
 10
10.9109008139
 20
8.9345860966
 30
0.0
 10
10.9003860056
 20
8.9527398079
 30
0.0
 10
10.8930301169
 20
8.9677481962
 30
0.0
 10
10.8864148848
 20
8.9829998177
 30
0.0
 10
10.8795199833
 20
9.0025204402
 30
0.0
 10
10.8745119451
 20
9.0225338014
 30
0.0
 10
10.8716809589
 20
9.0386791963
 30
0.0
 10
10.8696464517
 20
9.054807348
 30
0.0
 10
10.8685718979
 20
9.0749909214
 30
0.0
 10
10.8694779502
 20
9.0950946392
 30
0.0
 10
10.8713867151
 20
9.1109516962
 30
0.0
 10
10.8740647919
 20
9.1265564919
 30
0.0
 10
10.8788507929
 20
9.1456639057
 30
0.0
 10
10.8855394456
 20
9.164112285
 30
0.0
 10
10.8919752693
 20
9.1783141725
 30
0.0
 10
10.8973255623
 20
9.1886542784
 30
0.0
 10
10.9031920247
 20
9.1986751595
 30
0.0
 10
10.9095615707
 20
9.2083537158
 30
0.0
 10
10.916419017
 20
9.2176676276
 30
0.0
 10
10.9237473182
 20
9.226596362
 30
0.0
 10
10.9315302919
 20
9.2351188763
 30
0.0
 10
10.9397496861
 20
9.243215567
 30
0.0
 10
10.9483863859
 20
9.2508689181
 30
0.0
 10
10.9604363057
 20
9.2604605039
 30
0.0
 10
10.9732480087
 20
9.2690970408
 30
0.0
 10
10.9866980277
 20
9.2766995883
 30
0.0
 10
10.9971082468
 20
9.2818858797
 30
0.0
 10
11.0078042818
 20
9.2865371152
 30
0.0
 10
11.0224374575
 20
9.2920170168
 30
0.0
 10
11.0413360687
 20
9.2974704062
 30
0.0
 10
11.060767536
 20
9.3009857501
 30
0.0
 10
11.0765588048
 20
9.3026306125
 30
0.0
 10
11.0925515516
 20
9.3034919819
 30
0.0
 10
11.1046089711
 20
9.3032441618
 30
0.0
 10
11.112628844
 20
9.3026881274
 30
0.0
  0
SPLINE
  5
2C8
100
AcDbEntity
  8
0
100
AcDbSpline
 62
7
  6
CONTINUOUS
 70
0
 71
3
 72
9
 73
5
 74
0
 42
0.0000001
 43
0.0000001
 44
0.0000000001
 40
0.0
 40
0.0
 40
0.0
 40
0.0
 40
0.2426666479
 40
1.0
 40
1.0
 40
1.0
 40
1.0
 10
11.7846166599
 20
6.0040553759
 30
0.0
 10
11.7841090321
 20
6.0034616029
 30
0.0
 10
11.7819853363
 20
6.0010420184
 30
0.0
 10
11.7797399278
 20
5.9987301236
 30
0.0
 10
11.7779863932
 20
5.9970363391
 30
0.0
  0
SPLINE
  5
2C9
100
AcDbEntity
  8
0
100
AcDbSpline
 62
7
  6
CONTINUOUS
 70
0
 71
3
 72
9
 73
5
 74
0
 42
0.0000001
 43
0.0000001
 44
0.0000000001
 40
0.0
 40
0.0
 40
0.0
 40
0.0
 40
0.2426770998
 40
1.0
 40
1.0
 40
1.0
 40
1.0
 10
11.7779863932
 20
5.9970363391
 30
0.0
 10
11.7773782027
 20
5.9964488722
 30
0.0
 10
11.7748451513
 20
5.9940559911
 30
0.0
 10
11.7722094376
 20
5.9917725215
 30
0.0
 10
11.7701686355
 20
5.9900996552
 30
0.0
  0
SPLINE
  5
2CA
100
AcDbEntity
  8
0
100
AcDbSpline
 62
7
  6
CONTINUOUS
 70
0
 71
3
 72
9
 73
5
 74
0
 42
0.0000001
 43
0.0000001
 44
0.0000000001
 40
0.0
 40
0.0
 40
0.0
 40
0.0
 40
0.504378312
 40
1.0
 40
1.0
 40
1.0
 40
1.0
 10
11.7701686355
 20
5.9900996552
 30
0.0
 10
11.7566648853
 20
5.9816908014
 30
0.0
 10
11.7295520479
 20
5.9655561454
 30
0.0
 10
11.7016792514
 20
5.9507589506
 30
0.0
 10
11.6876651134
 20
5.9438341083
 30
0.0
  0
SPLINE
  5
2CB
100
AcDbEntity
  8
0
100
AcDbSpline
 62
7
  6
CONTINUOUS
 70
0
 71
3
 72
47
 73
43
 74
0
 42
0.0000001
 43
0.0000001
 44
0.0000000001
 40
0.0
 40
0.0
 40
0.0
 40
0.0
 40
0.0099874638
 40
0.0204476834
 40
0.0313771515
 40
0.0427708334
 40
0.0546218702
 40
0.0669225517
 40
0.0796641282
 40
0.0928362942
 40
0.1204271347
 40
0.1495984091
 40
0.1802407165
 40
0.2122338314
 40
0.2454489836
 40
0.2797497839
 40
0.3149929168
 40
0.3510298084
 40
0.3877071885
 40
0.4248680172
 40
0.4623527228
 40
0.4999997959
 40
0.5376468789
 40
0.575131606
 40
0.6122924455
 40
0.6489698269
 40
0.6850067267
 40
0.7202498875
 40
0.7545507276
 40
0.7877659112
 40
0.8197590481
 40
0.8504013805
 40
0.8795726993
 40
0.9071635849
 40
0.9203357726
 40
0.933077377
 40
0.9453780958
 40
0.9572291635
 40
0.968622847
 40
0.9795522717
 40
0.9900124597
 40
1.0
 40
1.0
 40
1.0
 40
1.0
 10
11.6572023788
 20
5.9287860798
 30
0.0
 10
11.6542118445
 20
5.927308802
 30
0.0
 10
11.6480381381
 20
5.9243868862
 30
0.0
 10
11.6384359396
 20
5.9201874425
 30
0.0
 10
11.6282877616
 20
5.9160746078
 30
0.0
 10
11.6176053136
 20
5.912053398
 30
0.0
 10
11.6064009379
 20
5.9081280928
 30
0.0
 10
11.5946874372
 20
5.9043033736
 30
0.0
 10
11.5824781813
 20
5.9005838029
 30
0.0
 10
11.5652903525
 20
5.8956942711
 30
0.0
 10
11.5426600402
 20
5.8898987896
 30
0.0
 10
11.5141687619
 20
5.8835301173
 30
0.0
 10
11.4840687129
 20
5.8776745934
 30
0.0
 10
11.4524987067
 20
5.8723592517
 30
0.0
 10
11.4196040487
 20
5.8676090954
 30
0.0
 10
11.3855363976
 20
5.8634465632
 30
0.0
 10
11.350452939
 20
5.8598908352
 30
0.0
 10
11.3145156182
 20
5.8569586648
 30
0.0
 10
11.2778903573
 20
5.8546638802
 30
0.0
 10
11.2407463248
 20
5.8530169328
 30
0.0
 10
11.2032551009
 20
5.8520256967
 30
0.0
 10
11.1655898606
 20
5.8516948402
 30
0.0
 10
11.127924613
 20
5.85202568
 30
0.0
 10
11.0904333746
 20
5.8530169
 30
0.0
 10
11.0532893301
 20
5.8546638307
 30
0.0
 10
11.0166640614
 20
5.8569585993
 30
0.0
 10
10.9807267266
 20
5.8598907527
 30
0.0
 10
10.9456432411
 20
5.8634464662
 30
0.0
 10
10.9115755549
 20
5.8676089836
 30
0.0
 10
10.8786808636
 20
5.8723591266
 30
0.0
 10
10.8471108282
 20
5.8776744525
 30
0.0
 10
10.8170107453
 20
5.8835299621
 30
0.0
 10
10.7885194256
 20
5.8898986248
 30
0.0
 10
10.7658890717
 20
5.8956940928
 30
0.0
 10
10.7487012072
 20
5.9005836151
 30
0.0
 10
10.7364919205
 20
5.9043031844
 30
0.0
 10
10.7247783884
 20
5.9081279108
 30
0.0
 10
10.713573989
 20
5.9120532186
 30
0.0
 10
10.7028915382
 20
5.91607441
 30
0.0
 10
10.6927433661
 20
5.9201871938
 30
0.0
 10
10.6831411502
 20
5.9243865992
 30
0.0
 10
10.676967429
 20
5.9273085198
 30
0.0
 10
10.673976876
 20
5.9287858175
 30
0.0
  0
SPLINE
  5
2CC
100
AcDbEntity
  8
0
100
AcDbSpline
 62
7
  6
CONTINUOUS
 70
0
 71
3
 72
23
 73
19
 74
0
 42
0.0000001
 43
0.0000001
 44
0.0000000001
 40
0.0
 40
0.0
 40
0.0
 40
0.0
 40
0.0436203086
 40
0.0892268542
 40
0.137068591
 40
0.187353676
 40
0.2402538462
 40
0.2958872461
 40
0.3543311569
 40
0.4156094827
 40
0.4797102731
 40
0.5465788188
 40
0.6161346312
 40
0.6882694307
 40
0.7628606873
 40
0.8397744221
 40
0.9188692703
 40
1.0
 40
1.0
 40
1.0
 40
1.0
 10
10.6549706165
 20
5.9381745676
 30
0.0
 10
10.6526606808
 20
5.9393151362
 30
0.0
 10
10.6480235571
 20
5.9418302326
 30
0.0
 10
10.6411962677
 20
5.9461912847
 30
0.0
 10
10.6343598788
 20
5.9512335712
 30
0.0
 10
10.6275183291
 20
5.9569645035
 30
0.0
 10
10.6206772309
 20
5.9633881543
 30
0.0
 10
10.6138396904
 20
5.9704997268
 30
0.0
 10
10.6070114312
 20
5.9782905388
 30
0.0
 10
10.6001951871
 20
5.9867439412
 30
0.0
 10
10.5933960186
 20
5.9958398471
 30
0.0
 10
10.5866161684
 20
6.005552229
 30
0.0
 10
10.5798595015
 20
6.0158527772
 30
0.0
 10
10.5731276145
 20
6.0267097312
 30
0.0
 10
10.5664228975
 20
6.0380905848
 30
0.0
 10
10.5597462483
 20
6.0499616672
 30
0.0
 10
10.5530987558
 20
6.0622895062
 30
0.0
 10
10.5487396378
 20
6.0706889233
 30
0.0
 10
10.5465621062
 20
6.0749570562
 30
0.0
  0
SPLINE
  5
2CD
100
AcDbEntity
  8
0
100
AcDbSpline
 62
7
  6
CONTINUOUS
 70
0
 71
3
 72
21
 73
17
 74
0
 42
0.0000001
 43
0.0000001
 44
0.0000000001
 40
0.0
 40
0.0
 40
0.0
 40
0.0
 40
0.1230212981
 40
0.1847065752
 40
0.2465215318
 40
0.3084771567
 40
0.3705832678
 40
0.432847904
 40
0.4952752623
 40
0.5578663069
 40
0.6206183946
 40
0.6835249868
 40
0.7465773451
 40
0.8097643485
 40
0.8730733734
 40
1.0
 40
1.0
 40
1.0
 40
1.0
 10
11.3025612982
 20
5.8792903152
 30
0.0
 10
11.2794821172
 20
5.8747429591
 30
0.0
 10
11.2446496757
 20
5.8687705527
 30
0.0
 10
11.1978784607
 20
5.8628604054
 30
0.0
 10
11.1625671521
 20
5.8595331914
 30
0.0
 10
11.1270827093
 20
5.8573987838
 30
0.0
 10
11.0914579882
 20
5.8565280474
 30
0.0
 10
11.0557347767
 20
5.8569769426
 30
0.0
 10
11.019961155
 20
5.8587789414
 30
0.0
 10
10.9841886288
 20
5.8619422273
 30
0.0
 10
10.9484686889
 20
5.8664511779
 30
0.0
 10
10.9128490755
 20
5.8722654197
 30
0.0
 10
10.877370936
 20
5.8793231337
 30
0.0
 10
10.8420667452
 20
5.8875488234
 30
0.0
 10
10.7952228191
 20
5.8999683755
 30
0.0
 10
10.7604624094
 20
5.9107561698
 30
0.0
 10
10.7374548236
 20
5.9184805824
 30
0.0
  0
SPLINE
  5
2CE
100
AcDbEntity
  8
0
100
AcDbSpline
 62
7
  6
CONTINUOUS
 70
0
 71
3
 72
21
 73
17
 74
0
 42
0.0000001
 43
0.0000001
 44
0.0000000001
 40
0.0
 40
0.0
 40
0.0
 40
0.0
 40
0.1269266266
 40
0.1902356515
 40
0.253422655
 40
0.3164750132
 40
0.3793816055
 40
0.4421336932
 40
0.5047247377
 40
0.567152096
 40
0.6294167323
 40
0.6915228434
 40
0.7534784683
 40
0.8152934248
 40
0.8769787019
 40
1.0
 40
1.0
 40
1.0
 40
1.0
 10
11.3025612982
 20
6.2636937566
 30
0.0
 10
11.2795537124
 20
6.2714181691
 30
0.0
 10
11.2447933027
 20
6.2822059635
 30
0.0
 10
11.1979493765
 20
6.2946255155
 30
0.0
 10
11.1626451858
 20
6.3028512052
 30
0.0
 10
11.1271670463
 20
6.3099089193
 30
0.0
 10
11.0915474329
 20
6.3157231611
 30
0.0
 10
11.055827493
 20
6.3202321117
 30
0.0
 10
11.0200549668
 20
6.3233953976
 30
0.0
 10
10.984281345
 20
6.3251973963
 30
0.0
 10
10.9485581335
 20
6.3256462915
 30
0.0
 10
10.9129334125
 20
6.3247755552
 30
0.0
 10
10.8774489697
 20
6.3226411476
 30
0.0
 10
10.8421376611
 20
6.3193139336
 30
0.0
 10
10.7953664461
 20
6.3134037862
 30
0.0
 10
10.7605340046
 20
6.3074313798
 30
0.0
 10
10.7374548236
 20
6.3028840237
 30
0.0
  0
SPLINE
  5
2CF
100
AcDbEntity
  8
0
100
AcDbSpline
 62
7
  6
CONTINUOUS
 70
0
 71
3
 72
11
 73
7
 74
0
 42
0.0000001
 43
0.0000001
 44
0.0000000001
 40
0.0
 40
0.0
 40
0.0
 40
0.0
 40
0.2465919593
 40
0.494712682
 40
0.7454424776
 40
1.0
 40
1.0
 40
1.0
 40
1.0
 10
10.6979820457
 20
5.9286968761
 30
0.0
 10
10.6960396328
 20
5.9286420415
 30
0.0
 10
10.6921383231
 20
5.9286493879
 30
0.0
 10
10.6862726319
 20
5.9290329098
 30
0.0
 10
10.6803825599
 20
5.9298111921
 30
0.0
 10
10.6764761028
 20
5.93060074
 30
0.0
 10
10.6745246577
 20
5.9310652013
 30
0.0
  0
SPLINE
  5
2D0
100
AcDbEntity
  8
0
100
AcDbSpline
 62
7
  6
CONTINUOUS
 70
0
 71
3
 72
10
 73
6
 74
0
 42
0.0000001
 43
0.0000001
 44
0.0000000001
 40
0.0
 40
0.0
 40
0.0
 40
0.0
 40
0.2418255986
 40
0.4885199497
 40
1.0
 40
1.0
 40
1.0
 40
1.0
 10
10.6745246577
 20
5.9310652013
 30
0.0
 10
10.6728901402
 20
5.9314542311
 30
0.0
 10
10.6696098298
 20
5.9323350917
 30
0.0
 10
10.6630109295
 20
5.934517397
 30
0.0
 10
10.6581570511
 20
5.9366012133
 30
0.0
 10
10.6549706165
 20
5.9381745676
 30
0.0
  0
SPLINE
  5
2D1
100
AcDbEntity
  8
0
100
AcDbSpline
 62
7
  6
CONTINUOUS
 70
0
 71
3
 72
15
 73
11
 74
0
 42
0.0000001
 43
0.0000001
 44
0.0000000001
 40
0.0
 40
0.0
 40
0.0
 40
0.0
 40
0.1420156698
 40
0.2798006134
 40
0.4130081501
 40
0.5413052015
 40
0.6643857695
 40
0.7819812239
 40
0.8938925711
 40
1.0
 40
1.0
 40
1.0
 40
1.0
 10
10.6979820457
 20
6.3131003174
 30
0.0
 10
10.6954389837
 20
6.3180849186
 30
0.0
 10
10.6903487988
 20
6.3278652401
 30
0.0
 10
10.6825641413
 20
6.3421574995
 30
0.0
 10
10.674740317
 20
6.3558090845
 30
0.0
 10
10.6668787601
 20
6.3687662504
 30
0.0
 10
10.6589822469
 20
6.380976212
 30
0.0
 10
10.6510535218
 20
6.3923882017
 30
0.0
 10
10.643098143
 20
6.4029561244
 30
0.0
 10
10.6376331175
 20
6.4095891587
 30
0.0
 10
10.6348924371
 20
6.4127465302
 30
0.0
  0
SPLINE
  5
2D2
100
AcDbEntity
  8
0
100
AcDbSpline
 62
7
  6
CONTINUOUS
 70
0
 71
3
 72
30
 73
26
 74
0
 42
0.0000001
 43
0.0000001
 44
0.0000000001
 40
0.0
 40
0.0
 40
0.0
 40
0.0
 40
0.020102342
 40
0.0414721484
 40
0.064083714
 40
0.0879053711
 40
0.1128983455
 40
0.1390192795
 40
0.166219474
 40
0.194446324
 40
0.2236432812
 40
0.2537502888
 40
0.2847044478
 40
0.3164396838
 40
0.3488879076
 40
0.3819782157
 40
0.4497920122
 40
0.5192830365
 40
0.5898315537
 40
0.6608053768
 40
0.7315674997
 40
0.8014833425
 40
0.8699281207
 40
0.9362944757
 40
1.0
 40
1.0
 40
1.0
 40
1.0
 10
10.6997603486
 20
6.4077830159
 30
0.0
 10
10.7043069105
 20
6.4057464657
 30
0.0
 10
10.713778604
 20
6.4017481725
 30
0.0
 10
10.7286314145
 20
6.3961170311
 30
0.0
 10
10.7445334786
 20
6.3906795602
 30
0.0
 10
10.7614468004
 20
6.385449737
 30
0.0
 10
10.7793311246
 20
6.3804395681
 30
0.0
 10
10.798143761
 20
6.3756616795
 30
0.0
 10
10.8178396634
 20
6.3711273072
 30
0.0
 10
10.8383716479
 20
6.36684766
 30
0.0
 10
10.8596904422
 20
6.3628330356
 30
0.0
 10
10.8817448773
 20
6.3590931238
 30
0.0
 10
10.9044819714
 20
6.3556371418
 30
0.0
 10
10.9278470955
 20
6.3524732215
 30
0.0
 10
10.951784114
 20
6.3496093054
 30
0.0
 10
10.9846537677
 20
6.3461717614
 30
0.0
 10
11.0267439551
 20
6.3426892259
 30
0.0
 10
11.0781812035
 20
6.339826915
 30
0.0
 10
11.1304581791
 20
6.338276577
 30
0.0
 10
11.1830724972
 20
6.3380532843
 30
0.0
 10
11.2355189189
 20
6.3391592657
 30
0.0
 10
11.2872936648
 20
6.3415836548
 30
0.0
 10
11.3378998418
 20
6.3453026616
 30
0.0
 10
11.3868510549
 20
6.3502796967
 30
0.0
 10
11.4188146806
 20
6.3545021109
 30
0.0
 10
11.4344293448
 20
6.356833548
 30
0.0
  0
LINE
  5
2D3
100
AcDbEntity
  8
0
100
AcDbLine
 62
7
  6
CONTINUOUS
 10
11.6568821552
 20
5.9294570784
 11
11.6561530412
 21
5.9291371907
  0
SPLINE
  5
2D4
100
AcDbEntity
  8
0
100
AcDbSpline
 62
7
  6
CONTINUOUS
 70
0
 71
3
 72
15
 73
11
 74
0
 42
0.0000001
 43
0.0000001
 44
0.0000000001
 40
0.0
 40
0.0
 40
0.0
 40
0.0
 40
0.1321602046
 40
0.2618009952
 40
0.3890353631
 40
0.5141096583
 40
0.6373677171
 40
0.75919507
 40
0.8799649792
 40
1.0
 40
1.0
 40
1.0
 40
1.0
 10
11.6561530412
 20
5.9291371907
 30
0.0
 10
11.6437719378
 20
5.9237134486
 30
0.0
 10
11.6189311739
 20
5.9136664594
 30
0.0
 10
11.5811371108
 20
5.9011330221
 30
0.0
 10
11.5432663413
 20
5.8914157325
 30
0.0
 10
11.5054399657
 20
5.8845472283
 30
0.0
 10
11.4677725798
 20
5.8804473998
 30
0.0
 10
11.4303569978
 20
5.878940712
 30
0.0
 10
11.3932561612
 20
5.8797875597
 30
0.0
 10
11.3686917417
 20
5.8817469096
 30
0.0
 10
11.3564821004
 20
5.8830297422
 30
0.0
  0
SPLINE
  5
2D5
100
AcDbEntity
  8
0
100
AcDbSpline
 62
7
  6
CONTINUOUS
 70
0
 71
3
 72
13
 73
9
 74
0
 42
0.0000001
 43
0.0000001
 44
0.0000000001
 40
0.0
 40
0.0
 40
0.0
 40
0.0
 40
0.1204517424
 40
0.2422546145
 40
0.3654076306
 40
0.4898877249
 40
0.7426205741
 40
1.0
 40
1.0
 40
1.0
 40
1.0
 10
11.5288459347
 20
6.350750644
 30
0.0
 10
11.5215226896
 20
6.3483563684
 30
0.0
 10
11.5068862265
 20
6.3432542293
 30
0.0
 10
11.4851108201
 20
6.3347474643
 30
0.0
 10
11.4634082367
 20
6.325385756
 30
0.0
 10
11.4344444958
 20
6.3117553551
 30
0.0
 10
11.3985198156
 20
6.2928089321
 30
0.0
 10
11.3704573415
 20
6.276135637
 30
0.0
 10
11.3564821004
 20
6.2674331835
 30
0.0
  0
SPLINE
  5
2D6
100
AcDbEntity
  8
0
100
AcDbSpline
 62
7
  6
CONTINUOUS
 70
0
 71
3
 72
67
 73
63
 74
0
 42
0.0000001
 43
0.0000001
 44
0.0000000001
 40
0.0
 40
0.0
 40
0.0
 40
0.0
 40
0.0037761971
 40
0.0076926834
 40
0.0117526348
 40
0.0159588153
 40
0.0203136123
 40
0.024818979
 40
0.0294763406
 40
0.0342867514
 40
0.0443687206
 40
0.055067861
 40
0.066382281
 40
0.0783066121
 40
0.0908325268
 40
0.103949105
 40
0.1176431581
 40
0.1318995031
 40
0.1467011694
 40
0.1620295534
 40
0.177864571
 40
0.1941848045
 40
0.2109676134
 40
0.2281892196
 40
0.2458248022
 40
0.2638485996
 40
0.2822339866
 40
0.3009535384
 40
0.3199791045
 40
0.3392818923
 40
0.3786005001
 40
0.4186692727
 40
0.459241331
 40
0.50006573
 40
0.5408895103
 40
0.5814597146
 40
0.6215254161
 40
0.6608397565
 40
0.6801399781
 40
0.699162687
 40
0.717879101
 40
0.7362610854
 40
0.7542812189
 40
0.7719128724
 40
0.7891302993
 40
0.8059087001
 40
0.8222243027
 40
0.8380544627
 40
0.8533777825
 40
0.8681742056
 40
0.882425139
 40
0.8961136102
 40
0.9092244632
 40
0.9217445455
 40
0.9336629571
 40
0.9449713749
 40
0.9556644746
 40
0.965740414
 40
0.9752014783
 40
0.9840549345
 40
0.9923141536
 40
1.0
 40
1.0
 40
1.0
 40
1.0
 10
11.3677684671
 20
10.8403187587
 30
0.0
 10
11.3667843624
 20
10.8393858277
 30
0.0
 10
11.3647406867
 20
10.8375259896
 30
0.0
 10
11.3615152958
 20
10.8348028454
 30
0.0
 10
11.3580763339
 20
10.8320973983
 30
0.0
 10
11.3544253542
 20
10.8294108563
 30
0.0
 10
11.3505638384
 20
10.8267442311
 30
0.0
 10
11.3464933181
 20
10.8240986175
 30
0.0
 10
11.3422154629
 20
10.8214750102
 30
0.0
 10
11.3361421751
 20
10.8179524832
 30
0.0
 10
11.3280332971
 20
10.8136212476
 30
0.0
 10
11.3176526665
 20
10.8086071231
 30
0.0
 10
11.3064917983
 20
10.80370619
 30
0.0
 10
11.2945690548
 20
10.7989265442
 30
0.0
 10
11.281903856
 20
10.7942760801
 30
0.0
 10
11.2685170061
 20
10.7897625206
 30
0.0
 10
11.25443054
 20
10.7853933707
 30
0.0
 10
11.2396676942
 20
10.7811759167
 30
0.0
 10
11.2242528534
 20
10.7771172048
 30
0.0
 10
11.2082115183
 20
10.7732240112
 30
0.0
 10
11.1915702548
 20
10.7695028306
 30
0.0
 10
11.1743566358
 20
10.7659598786
 30
0.0
 10
11.1565991939
 20
10.762601079
 30
0.0
 10
11.1383273804
 20
10.7594320406
 30
0.0
 10
11.1195715135
 20
10.7564580472
 30
0.0
 10
11.1003627188
 20
10.753684064
 30
0.0
 10
11.080732874
 20
10.7511147254
 30
0.0
 10
11.0607145739
 20
10.7487543262
 30
0.0
 10
11.0403410294
 20
10.746606773
 30
0.0
 10
11.0125780683
 20
10.7440162194
 30
0.0
 10
10.9772359657
 20
10.7413438253
 30
0.0
 10
10.9342162217
 20
10.7390520768
 30
0.0
 10
10.8906165805
 20
10.7376717661
 30
0.0
 10
10.8467264741
 20
10.7372121247
 30
0.0
 10
10.8028370809
 20
10.737676281
 30
0.0
 10
10.7592395733
 20
10.7390610778
 30
0.0
 10
10.7162233701
 20
10.7413572479
 30
0.0
 10
10.6808851103
 20
10.7440333021
 30
0.0
 10
10.6531259125
 20
10.7466267311
 30
0.0
 10
10.632755681
 20
10.7487763882
 30
0.0
 10
10.6127410227
 20
10.7511388551
 30
0.0
 10
10.5931151378
 20
10.7537102139
 30
0.0
 10
10.5739106174
 20
10.7564861709
 30
0.0
 10
10.5551593374
 20
10.7594621002
 30
0.0
 10
10.5368924128
 20
10.7626330256
 30
0.0
 10
10.5191401469
 20
10.7659936517
 30
0.0
 10
10.5019319857
 20
10.7695383698
 30
0.0
 10
10.4852964603
 20
10.773261267
 30
0.0
 10
10.4692611303
 20
10.7771561167
 30
0.0
 10
10.453852543
 20
10.7812164126
 30
0.0
 10
10.4390961915
 20
10.7854353777
 30
0.0
 10
10.4250164604
 20
10.7898059792
 30
0.0
 10
10.411636569
 20
10.7943209204
 30
0.0
 10
10.3989785344
 20
10.7989726837
 30
0.0
 10
10.3870631338
 20
10.8037535484
 30
0.0
 10
10.3759098491
 20
10.8086556235
 30
0.0
 10
10.3655368125
 20
10.8136708487
 30
0.0
 10
10.3559607514
 20
10.8187910955
 30
0.0
 10
10.3471970502
 20
10.8240081481
 30
0.0
 10
10.3392594204
 20
10.8293140866
 30
0.0
 10
10.3321609237
 20
10.8347004305
 30
0.0
 10
10.3278442606
 20
10.8384720425
 30
0.0
 10
10.3258427716
 20
10.8403724544
 30
0.0
  0
SPLINE
  5
2D7
100
AcDbEntity
  8
0
100
AcDbSpline
 62
7
  6
CONTINUOUS
 70
0
 71
3
 72
18
 73
14
 74
0
 42
0.0000001
 43
0.0000001
 44
0.0000000001
 40
0.0
 40
0.0
 40
0.0
 40
0.0
 40
0.1485915365
 40
0.2885755585
 40
0.4206580807
 40
0.484021042
 40
0.5457536933
 40
0.6648537886
 40
0.7792572913
 40
0.8351688175
 40
0.8904607573
 40
0.9453353869
 40
1.0
 40
1.0
 40
1.0
 40
1.0
 10
10.3258427716
 20
10.8403724544
 30
0.0
 10
10.324314639
 20
10.8418234149
 30
0.0
 10
10.3214347974
 20
10.8447365161
 30
0.0
 10
10.3175605201
 20
10.8492801294
 30
0.0
 10
10.3147804015
 20
10.8531484691
 30
0.0
 10
10.3128657066
 20
10.8562541592
 30
0.0
 10
10.3111944781
 20
10.8592885881
 30
0.0
 10
10.3094573535
 20
10.8631073825
 30
0.0
 10
10.3081880607
 20
10.8670213355
 30
0.0
 10
10.3074836766
 20
10.870144062
 30
0.0
 10
10.3071088994
 20
10.8724709214
 30
0.0
 10
10.3068839588
 20
10.8747991206
 30
0.0
 10
10.3068339227
 20
10.8763530086
 30
0.0
 10
10.3068339192
 20
10.8771282321
 30
0.0
  0
SPLINE
  5
2D8
100
AcDbEntity
  8
0
100
AcDbSpline
 62
7
  6
CONTINUOUS
 70
0
 71
3
 72
15
 73
11
 74
0
 42
0.0000001
 43
0.0000001
 44
0.0000000001
 40
0.0
 40
0.0
 40
0.0
 40
0.0
 40
0.127348315
 40
0.2538606239
 40
0.3795878599
 40
0.5046051181
 40
0.6290174391
 40
0.7529533757
 40
0.8765605793
 40
1.0
 40
1.0
 40
1.0
 40
1.0
 10
10.0097883044
 20
9.2501594748
 30
0.0
 10
10.0097883044
 20
9.2458323638
 30
0.0
 10
10.0093751509
 20
9.237200566
 30
0.0
 10
10.007506719
 20
9.2244188883
 30
0.0
 10
10.0044085406
 20
9.211958365
 30
0.0
 10
10.0001086085
 20
9.1999355257
 30
0.0
 10
9.9946463455
 20
9.1884612545
 30
0.0
 10
9.9880715746
 20
9.1776414965
 30
0.0
 10
9.9804461175
 20
9.1675776228
 30
0.0
 10
9.9747045346
 20
9.1614300311
 30
0.0
 10
9.9716877732
 20
9.158516058
 30
0.0
  0
SPLINE
  5
2D9
100
AcDbEntity
  8
0
100
AcDbSpline
 62
7
  6
CONTINUOUS
 70
0
 71
3
 72
15
 73
11
 74
0
 42
0.0000001
 43
0.0000001
 44
0.0000000001
 40
0.0
 40
0.0
 40
0.0
 40
0.0
 40
0.127348315
 40
0.2538606239
 40
0.3795878599
 40
0.5046051181
 40
0.6290174391
 40
0.7529533757
 40
0.8765605793
 40
1.0
 40
1.0
 40
1.0
 40
1.0
 10
11.7600458964
 20
9.1287786985
 30
0.0
 10
11.7600458964
 20
9.1244515876
 30
0.0
 10
11.7596327429
 20
9.1158197898
 30
0.0
 10
11.757764311
 20
9.1030381121
 30
0.0
 10
11.7546661326
 20
9.0905775888
 30
0.0
 10
11.7503662005
 20
9.0785547494
 30
0.0
 10
11.7449039375
 20
9.0670804782
 30
0.0
 10
11.7383291666
 20
9.0562607203
 30
0.0
 10
11.7307037095
 20
9.0461968465
 30
0.0
 10
11.7249621266
 20
9.0400492549
 30
0.0
 10
11.7219453652
 20
9.0371352817
 30
0.0
  0
SPLINE
  5
2DA
100
AcDbEntity
  8
0
100
AcDbSpline
 62
7
  6
CONTINUOUS
 70
0
 71
3
 72
15
 73
11
 74
0
 42
0.0000001
 43
0.0000001
 44
0.0000000001
 40
0.0
 40
0.0
 40
0.0
 40
0.0
 40
0.127348315
 40
0.2538606239
 40
0.3795878599
 40
0.5046051181
 40
0.6290174391
 40
0.7529533757
 40
0.8765605793
 40
1.0
 40
1.0
 40
1.0
 40
1.0
 10
11.7600458964
 20
7.0761860809
 30
0.0
 10
11.7600458964
 20
7.0718589699
 30
0.0
 10
11.7596327429
 20
7.0632271721
 30
0.0
 10
11.757764311
 20
7.0504454944
 30
0.0
 10
11.7546661326
 20
7.0379849711
 30
0.0
 10
11.7503662005
 20
7.0259621318
 30
0.0
 10
11.7449039375
 20
7.0144878606
 30
0.0
 10
11.7383291666
 20
7.0036681026
 30
0.0
 10
11.7307037095
 20
6.9936042289
 30
0.0
 10
11.7249621266
 20
6.9874566372
 30
0.0
 10
11.7219453652
 20
6.9845426641
 30
0.0
  0
SPLINE
  5
2DB
100
AcDbEntity
  8
0
100
AcDbSpline
 62
7
  6
CONTINUOUS
 70
0
 71
3
 72
15
 73
11
 74
0
 42
0.0000001
 43
0.0000001
 44
0.0000000001
 40
0.0
 40
0.0
 40
0.0
 40
0.0
 40
0.127348315
 40
0.2538606239
 40
0.3795878599
 40
0.5046051181
 40
0.6290174391
 40
0.7529533757
 40
0.8765605793
 40
1.0
 40
1.0
 40
1.0
 40
1.0
 10
10.0097883044
 20
7.1975668572
 30
0.0
 10
10.0097883044
 20
7.1932397462
 30
0.0
 10
10.0093751509
 20
7.1846079484
 30
0.0
 10
10.007506719
 20
7.1718262707
 30
0.0
 10
10.0044085406
 20
7.1593657474
 30
0.0
 10
10.0001086085
 20
7.1473429081
 30
0.0
 10
9.9946463455
 20
7.1358686368
 30
0.0
 10
9.9880715746
 20
7.1250488789
 30
0.0
 10
9.9804461175
 20
7.1149850052
 30
0.0
 10
9.9747045346
 20
7.1088374135
 30
0.0
 10
9.9716877732
 20
7.1059234404
 30
0.0
  0
SPLINE
  5
2DC
100
AcDbEntity
  8
0
100
AcDbSpline
 62
7
  6
CONTINUOUS
 70
0
 71
3
 72
31
 73
27
 74
0
 42
0.0000001
 43
0.0000001
 44
0.0000000001
 40
0.0
 40
0.0
 40
0.0
 40
0.0
 40
0.0845018904
 40
0.167301158
 40
0.2480799795
 40
0.3265304606
 40
0.4023579462
 40
0.475282401
 40
0.5450409099
 40
0.6113901015
 40
0.6432172375
 40
0.6741112302
 40
0.7040486061
 40
0.7330077048
 40
0.7609690412
 40
0.7879152504
 40
0.8138316265
 40
0.8387060317
 40
0.8625296419
 40
0.8852968756
 40
0.9070063887
 40
0.927661115
 40
0.9472695745
 40
0.9658461645
 40
0.9834128737
 40
1.0
 40
1.0
 40
1.0
 40
1.0
 10
12.023928706
 20
11.0361149388
 30
0.0
 10
12.0310497101
 20
11.0356210955
 30
0.0
 10
12.0451399341
 20
11.034518376
 30
0.0
 10
12.0659993565
 20
11.0324963509
 30
0.0
 10
12.0863080978
 20
11.0301296351
 30
0.0
 10
12.1059808586
 20
11.0274282787
 30
0.0
 10
12.1249351004
 20
11.0244037728
 30
0.0
 10
12.1430914201
 20
11.0210689904
 30
0.0
 10
12.1603736384
 20
11.0174380997
 30
0.0
 10
12.1741718636
 20
11.0141343963
 30
0.0
 10
12.1847125162
 20
11.0113455899
 30
0.0
 10
12.192245548
 20
11.0092187851
 30
0.0
 10
12.1995081624
 20
11.0070300403
 30
0.0
 10
12.2064927624
 20
11.004781618
 30
0.0
 10
12.2131920415
 20
11.0024759195
 30
0.0
 10
12.2195989956
 20
11.0001153369
 30
0.0
 10
12.225706947
 20
10.9977023915
 30
0.0
 10
12.231509526
 20
10.9952395669
 30
0.0
 10
12.2370007181
 20
10.9927294923
 30
0.0
 10
12.2421748201
 20
10.9901747189
 30
0.0
 10
12.2470265143
 20
10.9875779589
 30
0.0
 10
12.2515507947
 20
10.9849417952
 30
0.0
 10
12.2557430563
 20
10.9822689908
 30
0.0
 10
12.2595990485
 20
10.9795620684
 30
0.0
 10
12.2631147315
 20
10.9768239126
 30
0.0
 10
12.2652903147
 20
10.9749259972
 30
0.0
 10
12.2663160348
 20
10.9739714563
 30
0.0
  0
SPLINE
  5
2DD
100
AcDbEntity
  8
0
100
AcDbSpline
 62
7
  6
CONTINUOUS
 70
0
 71
3
 72
31
 73
27
 74
0
 42
0.0000001
 43
0.0000001
 44
0.0000000001
 40
0.0
 40
0.0
 40
0.0
 40
0.0
 40
0.0312386107
 40
0.0618506998
 40
0.0919705804
 40
0.121719586
 40
0.1511997378
 40
0.1804985823
 40
0.2388122038
 40
0.2679627132
 40
0.2971615392
 40
0.3558318822
 40
0.3853742752
 40
0.4150821973
 40
0.4449773777
 40
0.4750775205
 40
0.5054014357
 40
0.5359653544
 40
0.5978741638
 40
0.6609450442
 40
0.6929640297
 40
0.7253295959
 40
0.791191214
 40
0.8587407008
 40
0.928235551
 40
1.0
 40
1.0
 40
1.0
 40
1.0
 10
10.8402516597
 20
7.7809261152
 30
0.0
 10
10.8377624467
 20
7.7804142118
 30
0.0
 10
10.8328750018
 20
7.7791883197
 30
0.0
 10
10.8257862041
 20
7.7767711238
 30
0.0
 10
10.8190200762
 20
7.7738545375
 30
0.0
 10
10.8125696602
 20
7.7704909153
 30
0.0
 10
10.8064238321
 20
7.7667258763
 30
0.0
 10
10.798633819
 20
7.7612348543
 30
0.0
 10
10.7913743105
 20
7.7550721682
 30
0.0
 10
10.7846383608
 20
7.7483826165
 30
0.0
 10
10.7782143644
 20
7.7413527193
 30
0.0
 10
10.7722560434
 20
7.7338700374
 30
0.0
 10
10.766733784
 20
7.7260240921
 30
0.0
 10
10.7627813144
 20
7.7199416378
 30
0.0
 10
10.7590204147
 20
7.7136863606
 30
0.0
 10
10.7554418747
 20
7.7072676785
 30
0.0
 10
10.7520390653
 20
7.7006929215
 30
0.0
 10
10.747708139
 20
7.6916895656
 30
0.0
 10
10.7427006636
 20
7.6800618943
 30
0.0
 10
10.738239052
 20
7.6680891648
 30
0.0
 10
10.7349503799
 20
7.6582551105
 30
0.0
 10
10.7318090982
 20
7.6481349821
 30
0.0
 10
10.7282180821
 20
7.635131571
 30
0.0
 10
10.7244412115
 20
7.6190589559
 30
0.0
 10
10.7211550226
 20
7.6023895336
 30
0.0
 10
10.719319324
 20
7.5910429006
 30
0.0
 10
10.718480399
 20
7.5852653536
 30
0.0
  0
SPLINE
  5
2DE
100
AcDbEntity
  8
0
100
AcDbSpline
 62
7
  6
CONTINUOUS
 70
0
 71
3
 72
39
 73
35
 74
0
 42
0.0000001
 43
0.0000001
 44
0.0000000001
 40
0.0
 40
0.0
 40
0.0
 40
0.0
 40
0.0761045193
 40
0.1533639203
 40
0.2310946074
 40
0.3086064043
 40
0.385211887
 40
0.4229634241
 40
0.4602358098
 40
0.4969473753
 40
0.533018102
 40
0.5683699075
 40
0.6029269209
 40
0.6366157387
 40
0.6693657101
 40
0.7011092592
 40
0.7317822604
 40
0.7613243728
 40
0.7896794417
 40
0.8167959766
 40
0.8426277652
 40
0.8671345517
 40
0.8902828581
 40
0.9120470578
 40
0.9224052234
 40
0.9324121753
 40
0.9420676392
 40
0.9513721659
 40
0.9603273168
 40
0.9689355961
 40
0.9772009945
 40
0.9851289013
 40
0.9927259391
 40
1.0
 40
1.0
 40
1.0
 40
1.0
 10
11.5457008548
 20
6.3492565387
 30
0.0
 10
11.5566240216
 20
6.3484990145
 30
0.0
 10
11.578657836
 20
6.3472712664
 30
0.0
 10
11.6118947238
 20
6.346278369
 30
0.0
 10
11.6453487846
 20
6.346124539
 30
0.0
 10
11.6787018725
 20
6.3468113135
 30
0.0
 10
11.7062806999
 20
6.3480845334
 30
0.0
 10
11.7280490883
 20
6.3495244379
 30
0.0
 10
11.7440744551
 20
6.3508027526
 30
0.0
 10
11.7598396968
 20
6.3522815277
 30
0.0
 10
11.775307349
 20
6.3539572553
 30
0.0
 10
11.7904406239
 20
6.355825916
 30
0.0
 10
11.805203549
 20
6.3578830315
 30
0.0
 10
11.8195610368
 20
6.3601236737
 30
0.0
 10
11.8334789701
 20
6.3625424771
 30
0.0
 10
11.846924291
 20
6.3651336508
 30
0.0
 10
11.8598650886
 20
6.3678909762
 30
0.0
 10
11.8722706749
 20
6.3708078403
 30
0.0
 10
11.8841116548
 20
6.3738772492
 30
0.0
 10
11.8953600143
 20
6.3770918531
 30
0.0
 10
11.9059891824
 20
6.3804439506
 30
0.0
 10
11.9159741961
 20
6.3839255222
 30
0.0
 10
11.9252914713
 20
6.3875282644
 30
0.0
 10
11.9325973174
 20
6.3906741684
 30
0.0
 10
11.938083541
 20
6.39325213
 30
0.0
 10
11.9419497374
 20
6.3951785911
 30
0.0
 10
11.9456333307
 20
6.3971288517
 30
0.0
 10
11.9491321446
 20
6.3991018113
 30
0.0
 10
11.9524441401
 20
6.4010962478
 30
0.0
 10
11.9555673641
 20
6.4031110584
 30
0.0
 10
11.9585000295
 20
6.4051450792
 30
0.0
 10
11.961240475
 20
6.4071971996
 30
0.0
 10
11.9637869437
 20
6.4092661823
 30
0.0
 10
11.9653884736
 20
6.4106862171
 30
0.0
 10
11.9661546147
 20
6.4113991541
 30
0.0
  0
SPLINE
  5
2DF
100
AcDbEntity
  8
0
100
AcDbSpline
 62
7
  6
CONTINUOUS
 70
0
 71
3
 72
17
 73
13
 74
0
 42
0.0000001
 43
0.0000001
 44
0.0000000001
 40
0.0
 40
0.0
 40
0.0
 40
0.0
 40
0.1480475465
 40
0.2876832517
 40
0.4195860392
 40
0.482920882
 40
0.5446651876
 40
0.6639007805
 40
0.7785650961
 40
0.8900650781
 40
0.9451345358
 40
1.0
 40
1.0
 40
1.0
 40
1.0
 10
12.2961513084
 20
6.7290797585
 30
0.0
 10
12.2971791733
 20
6.7300725999
 30
0.0
 10
12.2991162595
 20
6.7320660042
 30
0.0
 10
12.3017207504
 20
6.7351726221
 30
0.0
 10
12.3035888617
 20
6.7378162297
 30
0.0
 10
12.3048754152
 20
6.7399381392
 30
0.0
 10
12.3059990031
 20
6.7420124411
 30
0.0
 10
12.3071666516
 20
6.7446228575
 30
0.0
 10
12.3081821791
 20
6.7478060085
 30
0.0
 10
12.3086932271
 20
6.7504798393
 30
0.0
 10
12.3088954737
 20
6.7526088336
 30
0.0
 10
12.3089291008
 20
6.7536703498
 30
0.0
 10
12.3089290967
 20
6.7541999538
 30
0.0
  0
SPLINE
  5
2E0
100
AcDbEntity
  8
0
100
AcDbSpline
 62
7
  6
CONTINUOUS
 70
0
 71
3
 72
36
 73
32
 74
0
 42
0.0000001
 43
0.0000001
 44
0.0000000001
 40
0.0
 40
0.0
 40
0.0
 40
0.0
 40
0.0378322169
 40
0.0576763104
 40
0.0781591267
 40
0.1211163599
 40
0.1668717995
 40
0.2156195767
 40
0.2675874136
 40
0.3230491306
 40
0.3823300493
 40
0.445804925
 40
0.5138771398
 40
0.5497567062
 40
0.5869108165
 40
0.6253501347
 40
0.6650528794
 40
0.7059491548
 40
0.7479029028
 40
0.7692116118
 40
0.7906936127
 40
0.8123041195
 40
0.8339899282
 40
0.8556883681
 40
0.8773260224
 40
0.8988171882
 40
0.9200620856
 40
0.9409450163
 40
0.9613327034
 40
0.9810738293
 40
1.0
 40
1.0
 40
1.0
 40
1.0
 10
10.6786403397
 20
8.7465736188
 30
0.0
 10
10.6804491281
 20
8.7445420832
 30
0.0
 10
10.6832937397
 20
8.7415214755
 30
0.0
 10
10.6872886029
 20
8.7375688543
 30
0.0
 10
10.6916393346
 20
8.7334538444
 30
0.0
 10
10.697516712
 20
8.728245066
 30
0.0
 10
10.7051590722
 20
8.721975037
 30
0.0
 10
10.7135285625
 20
8.7155800522
 30
0.0
 10
10.7226643493
 20
8.709048189
 30
0.0
 10
10.7326176511
 20
8.7023667914
 30
0.0
 10
10.7434531132
 20
8.6955241314
 30
0.0
 10
10.7552490614
 20
8.6885137635
 30
0.0
 10
10.7657618112
 20
8.6826460338
 30
0.0
 10
10.7747239988
 20
8.6778907376
 30
0.0
 10
10.7818610455
 20
8.6742432086
 30
0.0
 10
10.7893047204
 20
8.670594018
 30
0.0
 10
10.797058596
 20
8.6669693515
 30
0.0
 10
10.8051186105
 20
8.6634071776
 30
0.0
 10
10.8120418936
 20
8.6605494645
 30
0.0
 10
10.8177238834
 20
8.6583489316
 30
0.0
 10
10.8220684878
 20
8.6567468299
 30
0.0
 10
10.826466623
 20
8.6552135485
 30
0.0
 10
10.8309089593
 20
8.653762345
 30
0.0
 10
10.8353837996
 20
8.6524076882
 30
0.0
 10
10.8398766401
 20
8.6511651597
 30
0.0
 10
10.844369617
 20
8.6500512751
 30
0.0
 10
10.8488408951
 20
8.6490832227
 30
0.0
 10
10.8532639821
 20
8.6482785118
 30
0.0
 10
10.8576072092
 20
8.6476544586
 30
0.0
 10
10.8618329806
 20
8.6472276418
 30
0.0
 10
10.8646107322
 20
8.6470809762
 30
0.0
 10
10.8659710966
 20
8.6470479569
 30
0.0
  0
SPLINE
  5
2E1
100
AcDbEntity
  8
0
100
AcDbSpline
 62
7
  6
CONTINUOUS
 70
0
 71
3
 72
42
 73
38
 74
0
 42
0.0000001
 43
0.0000001
 44
0.0000000001
 40
0.0
 40
0.0
 40
0.0
 40
0.0
 40
0.0310747366
 40
0.0466742
 40
0.0623120792
 40
0.0936967488
 40
0.1252253682
 40
0.1568865883
 40
0.1886662066
 40
0.2205476241
 40
0.252512164
 40
0.2845394778
 40
0.3166079598
 40
0.3486951849
 40
0.3807783552
 40
0.4128347537
 40
0.4448421953
 40
0.4767794716
 40
0.5086267812
 40
0.5403661404
 40
0.5719817657
 40
0.6034604225
 40
0.6347917325
 40
0.6659684304
 40
0.6969865646
 40
0.7278456325
 40
0.7585486449
 40
0.7891021123
 40
0.8195159494
 40
0.8498032954
 40
0.8649073374
 40
0.8799860228
 40
0.9100712971
 40
0.9400857983
 40
0.9550764701
 40
0.9700580366
 40
1.0
 40
1.0
 40
1.0
 40
1.0
 10
10.8831103428
 20
8.5690764871
 30
0.0
 10
10.8831103428
 20
8.573564793
 30
0.0
 10
10.8828594562
 20
8.5803096087
 30
0.0
 10
10.8820308744
 20
8.5892728991
 30
0.0
 10
10.8808698681
 20
8.5982447749
 30
0.0
 10
10.8788002286
 20
8.6094109369
 30
0.0
 10
10.8753480806
 20
8.6226392874
 30
0.0
 10
10.8709432149
 20
8.6356420608
 30
0.0
 10
10.8656099654
 20
8.6483474557
 30
0.0
 10
10.8593776955
 20
8.6606858641
 30
0.0
 10
10.8522806913
 20
8.6725895511
 30
0.0
 10
10.8443579639
 20
8.6839932107
 30
0.0
 10
10.8356530368
 20
8.694834268
 30
0.0
 10
10.8262137098
 20
8.7050532329
 30
0.0
 10
10.8160917979
 20
8.714594019
 30
0.0
 10
10.8053428505
 20
8.7234042494
 30
0.0
 10
10.7940258492
 20
8.7314355413
 30
0.0
 10
10.782202888
 20
8.7386437689
 30
0.0
 10
10.7699388367
 20
8.7449893047
 30
0.0
 10
10.7573009893
 20
8.7504372352
 30
0.0
 10
10.7443586999
 20
8.754957553
 30
0.0
 10
10.7311830072
 20
8.758525322
 30
0.0
 10
10.7178462503
 20
8.7611208161
 30
0.0
 10
10.7044216764
 20
8.7627296307
 30
0.0
 10
10.6909830476
 20
8.7633427679
 30
0.0
 10
10.6776042255
 20
8.762956686
 30
0.0
 10
10.6643588243
 20
8.7615733498
 30
0.0
 10
10.6513196039
 20
8.7592001417
 30
0.0
 10
10.6385588256
 20
8.7558501544
 30
0.0
 10
10.6282039795
 20
8.7522556508
 30
0.0
 10
10.6201328866
 20
8.7489128053
 30
0.0
 10
10.6122251445
 20
8.7452691723
 30
0.0
 10
10.6026369906
 20
8.7401474013
 30
0.0
 10
10.5934934035
 20
8.734292012
 30
0.0
 10
10.5864859403
 20
8.7291929377
 30
0.0
 10
10.5796947427
 20
8.7238268381
 30
0.0
 10
10.5748455412
 20
8.7195020666
 30
0.0
 10
10.5717349768
 20
8.7164975104
 30
0.0
  0
SPLINE
  5
2E2
100
AcDbEntity
  8
0
100
AcDbSpline
 62
7
  6
CONTINUOUS
 70
0
 71
3
 72
21
 73
17
 74
0
 42
0.0000001
 43
0.0000001
 44
0.0000000001
 40
0.0
 40
0.0
 40
0.0
 40
0.0
 40
0.1273176984
 40
0.2537999461
 40
0.3167619614
 40
0.3795355204
 40
0.4421314992
 40
0.5045621453
 40
0.5668413456
 40
0.6289845231
 40
0.6910084433
 40
0.7529310869
 40
0.8147714401
 40
0.8765493236
 40
0.9382852134
 40
1.0
 40
1.0
 40
1.0
 40
1.0
 10
10.8831103428
 20
8.5690764871
 30
0.0
 10
10.8831103428
 20
8.5633018226
 30
0.0
 10
10.8825591124
 20
8.5517829533
 30
0.0
 10
10.8804772706
 20
8.5375431442
 30
0.0
 10
10.8779890282
 20
8.5263732609
 30
0.0
 10
10.875719881
 20
8.5181343495
 30
0.0
 10
10.8730503651
 20
8.5100418395
 30
0.0
 10
10.869986635
 20
8.5021141558
 30
0.0
 10
10.8665357543
 20
8.4943696341
 30
0.0
 10
10.8627056105
 20
8.4868261481
 30
0.0
 10
10.8585050642
 20
8.4795010869
 30
0.0
 10
10.8539438025
 20
8.4724113318
 30
0.0
 10
10.8490323004
 20
8.4655732885
 30
0.0
 10
10.8437818542
 20
8.4590026614
 30
0.0
 10
10.838204805
 20
8.4527147862
 30
0.0
 10
10.8342768146
 20
8.4487203576
 30
0.0
 10
10.8322635024
 20
8.4467756591
 30
0.0
  0
SPLINE
  5
2E3
100
AcDbEntity
  8
0
100
AcDbSpline
 62
7
  6
CONTINUOUS
 70
0
 71
3
 72
42
 73
38
 74
0
 42
0.0000001
 43
0.0000001
 44
0.0000000001
 40
0.0
 40
0.0
 40
0.0
 40
0.0
 40
0.0310747366
 40
0.0466742
 40
0.0623120792
 40
0.0936967488
 40
0.1252253682
 40
0.1568865883
 40
0.1886662066
 40
0.2205476241
 40
0.252512164
 40
0.2845394778
 40
0.3166079598
 40
0.3486951849
 40
0.3807783552
 40
0.4128347537
 40
0.4448421953
 40
0.4767794716
 40
0.5086267812
 40
0.5403661404
 40
0.5719817657
 40
0.6034604225
 40
0.6347917325
 40
0.6659684304
 40
0.6969865646
 40
0.7278456325
 40
0.7585486449
 40
0.7891021123
 40
0.8195159494
 40
0.8498032954
 40
0.8649073374
 40
0.8799860228
 40
0.9100712971
 40
0.9400857983
 40
0.9550764701
 40
0.9700580366
 40
1.0
 40
1.0
 40
1.0
 40
1.0
 10
10.3093503854
 20
8.2167010642
 30
0.0
 10
10.3093503854
 20
8.2211893701
 30
0.0
 10
10.3090994989
 20
8.2279341858
 30
0.0
 10
10.3082709171
 20
8.2368974762
 30
0.0
 10
10.3071099108
 20
8.245869352
 30
0.0
 10
10.3050402713
 20
8.257035514
 30
0.0
 10
10.3015881232
 20
8.2702638646
 30
0.0
 10
10.2971832576
 20
8.283266638
 30
0.0
 10
10.2918500081
 20
8.2959720328
 30
0.0
 10
10.2856177382
 20
8.3083104412
 30
0.0
 10
10.278520734
 20
8.3202141283
 30
0.0
 10
10.2705980066
 20
8.3316177879
 30
0.0
 10
10.2618930795
 20
8.3424588451
 30
0.0
 10
10.2524537524
 20
8.35267781
 30
0.0
 10
10.2423318406
 20
8.3622185961
 30
0.0
 10
10.2315828932
 20
8.3710288265
 30
0.0
 10
10.2202658919
 20
8.3790601184
 30
0.0
 10
10.2084429307
 20
8.386268346
 30
0.0
 10
10.1961788794
 20
8.3926138818
 30
0.0
 10
10.183541032
 20
8.3980618123
 30
0.0
 10
10.1705987426
 20
8.4025821301
 30
0.0
 10
10.1574230498
 20
8.4061498991
 30
0.0
 10
10.144086293
 20
8.4087453932
 30
0.0
 10
10.1306617191
 20
8.4103542078
 30
0.0
 10
10.1172230903
 20
8.4109673451
 30
0.0
 10
10.1038442682
 20
8.4105812631
 30
0.0
 10
10.090598867
 20
8.4091979269
 30
0.0
 10
10.0775596466
 20
8.4068247188
 30
0.0
 10
10.0647988683
 20
8.4034747316
 30
0.0
 10
10.0544440222
 20
8.3998802279
 30
0.0
 10
10.0463729293
 20
8.3965373824
 30
0.0
 10
10.0384651872
 20
8.3928937494
 30
0.0
 10
10.0288770333
 20
8.3877719784
 30
0.0
 10
10.0197334462
 20
8.3819165891
 30
0.0
 10
10.012725983
 20
8.3768175148
 30
0.0
 10
10.0059347854
 20
8.3714514152
 30
0.0
 10
10.0010855838
 20
8.3671266437
 30
0.0
 10
9.9979750195
 20
8.3641220875
 30
0.0
  0
SPLINE
  5
2E4
100
AcDbEntity
  8
0
100
AcDbSpline
 62
7
  6
CONTINUOUS
 70
0
 71
3
 72
21
 73
17
 74
0
 42
0.0000001
 43
0.0000001
 44
0.0000000001
 40
0.0
 40
0.0
 40
0.0
 40
0.0
 40
0.1273175725
 40
0.2538000026
 40
0.3167619332
 40
0.3795354925
 40
0.4421314982
 40
0.5045621433
 40
0.5668413429
 40
0.6289845306
 40
0.6910084612
 40
0.7529311022
 40
0.8147714553
 40
0.8765493457
 40
0.9382852283
 40
1.0
 40
1.0
 40
1.0
 40
1.0
 10
11.3356466542
 20
7.2394885022
 30
0.0
 10
11.3356466542
 20
7.2327437939
 30
0.0
 10
11.335002828
 20
7.2192899384
 30
0.0
 10
11.3325713269
 20
7.2026580645
 30
0.0
 10
11.3296651246
 20
7.1896118096
 30
0.0
 10
11.3270148225
 20
7.1799888909
 30
0.0
 10
11.3238969414
 20
7.170536945
 30
0.0
 10
11.32031859
 20
7.1612775221
 30
0.0
 10
11.3162880513
 20
7.1522320307
 30
0.0
 10
11.3118145951
 20
7.1434213143
 30
0.0
 10
11.3069084825
 20
7.1348657255
 30
0.0
 10
11.3015810441
 20
7.1265849793
 30
0.0
 10
11.2958445853
 20
7.1185981865
 30
0.0
 10
11.2897122321
 20
7.1109237313
 30
0.0
 10
11.2831983655
 20
7.1035795647
 30
0.0
 10
11.2786106267
 20
7.0989140486
 30
0.0
 10
11.2762591241
 20
7.0966426592
 30
0.0
  0
SPLINE
  5
2E5
100
AcDbEntity
  8
0
100
AcDbSpline
 62
7
  6
CONTINUOUS
 70
0
 71
3
 72
41
 73
37
 74
0
 42
0.0000001
 43
0.0000001
 44
0.0000000001
 40
0.0
 40
0.0
 40
0.0
 40
0.0
 40
0.0299421238
 40
0.0449237703
 40
0.059914519
 40
0.0899291762
 40
0.1200146048
 40
0.1350933663
 40
0.1501974853
 40
0.1804849834
 40
0.2108989722
 40
0.2414525913
 40
0.2721557558
 40
0.3030149766
 40
0.3340332647
 40
0.365210118
 40
0.396541585
 40
0.4280204007
 40
0.4596361866
 40
0.4913757084
 40
0.5232231826
 40
0.5551606251
 40
0.5871682346
 40
0.6192248024
 40
0.6513081434
 40
0.68339554
 40
0.7154641944
 40
0.7474916807
 40
0.7794563937
 40
0.8113379827
 40
0.8431177771
 40
0.8747791563
 40
0.9063079829
 40
0.9376927254
 40
0.9689252285
 40
1.0
 40
1.0
 40
1.0
 40
1.0
 10
9.7764636623
 20
9.3606262913
 30
0.0
 10
9.7787945102
 20
9.3628777216
 30
0.0
 10
9.7824281489
 20
9.3661184732
 30
0.0
 10
9.7875170218
 20
9.3701395
 30
0.0
 10
9.7927679209
 20
9.3739604753
 30
0.0
 10
9.7996195115
 20
9.3783481656
 30
0.0
 10
9.8068042273
 20
9.3821861427
 30
0.0
 10
9.8127297617
 20
9.384916484
 30
0.0
 10
9.8187777009
 20
9.3874214367
 30
0.0
 10
9.8265369373
 20
9.3901149738
 30
0.0
 10
9.8360990251
 20
9.3926252954
 30
0.0
 10
9.8458697641
 20
9.3944036804
 30
0.0
 10
9.8557950061
 20
9.3954403177
 30
0.0
 10
9.8658202292
 20
9.3957296749
 30
0.0
 10
9.8758902716
 20
9.3952702795
 30
0.0
 10
9.8859497856
 20
9.394064785
 30
0.0
 10
9.8959434986
 20
9.3921199338
 30
0.0
 10
9.9058165233
 20
9.3894465194
 30
0.0
 10
9.9155146531
 20
9.3860593231
 30
0.0
 10
9.9249846558
 20
9.3819770302
 30
0.0
 10
9.9341745616
 20
9.3772221265
 30
0.0
 10
9.9430339442
 20
9.3718207737
 30
0.0
 10
9.951514194
 20
9.3658026661
 30
0.0
 10
9.9595687813
 20
9.3592008688
 30
0.0
 10
9.9671535086
 20
9.3520516369
 30
0.0
 10
9.9742267507
 20
9.3443942184
 30
0.0
 10
9.9807496801
 20
9.3362706408
 30
0.0
 10
9.9866864787
 20
9.327725483
 30
0.0
 10
9.9920045318
 20
9.318805633
 30
0.0
 10
9.996674608
 20
9.309560033
 30
0.0
 10
10.0006710132
 20
9.3000394196
 30
0.0
 10
10.0039717453
 20
9.2902960247
 30
0.0
 10
10.0065585839
 20
9.2803833866
 30
0.0
 10
10.0084172537
 20
9.2703557152
 30
0.0
 10
10.0095374043
 20
9.2602688338
 30
0.0
 10
10.0097883044
 20
9.2535227083
 30
0.0
 10
10.0097883044
 20
9.2501594748
 30
0.0
  0
SPLINE
  5
2E6
100
AcDbEntity
  8
0
100
AcDbSpline
 62
7
  6
CONTINUOUS
 70
0
 71
3
 72
41
 73
37
 74
0
 42
0.0000001
 43
0.0000001
 44
0.0000000001
 40
0.0
 40
0.0
 40
0.0
 40
0.0
 40
0.0299421238
 40
0.0449237703
 40
0.059914519
 40
0.0899291762
 40
0.1200146048
 40
0.1350933663
 40
0.1501974853
 40
0.1804849834
 40
0.2108989722
 40
0.2414525913
 40
0.2721557558
 40
0.3030149766
 40
0.3340332647
 40
0.365210118
 40
0.396541585
 40
0.4280204007
 40
0.4596361866
 40
0.4913757084
 40
0.5232231826
 40
0.5551606251
 40
0.5871682346
 40
0.6192248024
 40
0.6513081434
 40
0.68339554
 40
0.7154641944
 40
0.7474916807
 40
0.7794563937
 40
0.8113379827
 40
0.8431177771
 40
0.8747791563
 40
0.9063079829
 40
0.9376927254
 40
0.9689252285
 40
1.0
 40
1.0
 40
1.0
 40
1.0
 10
11.5267212544
 20
9.239245515
 30
0.0
 10
11.5290521022
 20
9.2414969454
 30
0.0
 10
11.5326857409
 20
9.2447376969
 30
0.0
 10
11.5377746138
 20
9.2487587237
 30
0.0
 10
11.5430255129
 20
9.252579699
 30
0.0
 10
11.5498771036
 20
9.2569673893
 30
0.0
 10
11.5570618194
 20
9.2608053664
 30
0.0
 10
11.5629873537
 20
9.2635357077
 30
0.0
 10
11.569035293
 20
9.2660406605
 30
0.0
 10
11.5767945293
 20
9.2687341975
 30
0.0
 10
11.5863566171
 20
9.2712445192
 30
0.0
 10
11.5961273561
 20
9.2730229041
 30
0.0
 10
11.6060525981
 20
9.2740595414
 30
0.0
 10
11.6160778212
 20
9.2743488987
 30
0.0
 10
11.6261478636
 20
9.2738895032
 30
0.0
 10
11.6362073777
 20
9.2726840088
 30
0.0
 10
11.6462010906
 20
9.2707391575
 30
0.0
 10
11.6560741153
 20
9.2680657431
 30
0.0
 10
11.6657722451
 20
9.2646785468
 30
0.0
 10
11.6752422479
 20
9.260596254
 30
0.0
 10
11.6844321536
 20
9.2558413502
 30
0.0
 10
11.6932915362
 20
9.2504399974
 30
0.0
 10
11.701771786
 20
9.2444218898
 30
0.0
 10
11.7098263733
 20
9.2378200925
 30
0.0
 10
11.7174111007
 20
9.2306708606
 30
0.0
 10
11.7244843427
 20
9.2230134421
 30
0.0
 10
11.7310072721
 20
9.2148898645
 30
0.0
 10
11.7369440707
 20
9.2063447067
 30
0.0
 10
11.7422621238
 20
9.1974248567
 30
0.0
 10
11.7469322001
 20
9.1881792568
 30
0.0
 10
11.7509286052
 20
9.1786586433
 30
0.0
 10
11.7542293373
 20
9.1689152484
 30
0.0
 10
11.7568161759
 20
9.1590026103
 30
0.0
 10
11.7586748457
 20
9.1489749389
 30
0.0
 10
11.7597949963
 20
9.1388880575
 30
0.0
 10
11.7600458964
 20
9.132141932
 30
0.0
 10
11.7600458964
 20
9.1287786985
 30
0.0
  0
SPLINE
  5
2E7
100
AcDbEntity
  8
0
100
AcDbSpline
 62
7
  6
CONTINUOUS
 70
0
 71
3
 72
41
 73
37
 74
0
 42
0.0000001
 43
0.0000001
 44
0.0000000001
 40
0.0
 40
0.0
 40
0.0
 40
0.0
 40
0.0299421238
 40
0.0449237703
 40
0.059914519
 40
0.0899291762
 40
0.1200146048
 40
0.1350933663
 40
0.1501974853
 40
0.1804849834
 40
0.2108989722
 40
0.2414525913
 40
0.2721557558
 40
0.3030149766
 40
0.3340332647
 40
0.365210118
 40
0.396541585
 40
0.4280204007
 40
0.4596361866
 40
0.4913757084
 40
0.5232231826
 40
0.5551606251
 40
0.5871682346
 40
0.6192248024
 40
0.6513081434
 40
0.68339554
 40
0.7154641944
 40
0.7474916807
 40
0.7794563937
 40
0.8113379827
 40
0.8431177771
 40
0.8747791563
 40
0.9063079829
 40
0.9376927254
 40
0.9689252285
 40
1.0
 40
1.0
 40
1.0
 40
1.0
 10
11.5267212544
 20
7.1866528974
 30
0.0
 10
11.5290521022
 20
7.1889043277
 30
0.0
 10
11.5326857409
 20
7.1921450793
 30
0.0
 10
11.5377746138
 20
7.1961661061
 30
0.0
 10
11.5430255129
 20
7.1999870814
 30
0.0
 10
11.5498771036
 20
7.2043747717
 30
0.0
 10
11.5570618194
 20
7.2082127488
 30
0.0
 10
11.5629873537
 20
7.2109430901
 30
0.0
 10
11.569035293
 20
7.2134480428
 30
0.0
 10
11.5767945293
 20
7.2161415799
 30
0.0
 10
11.5863566171
 20
7.2186519015
 30
0.0
 10
11.5961273561
 20
7.2204302865
 30
0.0
 10
11.6060525981
 20
7.2214669238
 30
0.0
 10
11.6160778212
 20
7.221756281
 30
0.0
 10
11.6261478636
 20
7.2212968856
 30
0.0
 10
11.6362073777
 20
7.2200913911
 30
0.0
 10
11.6462010906
 20
7.2181465399
 30
0.0
 10
11.6560741153
 20
7.2154731255
 30
0.0
 10
11.6657722451
 20
7.2120859291
 30
0.0
 10
11.6752422479
 20
7.2080036363
 30
0.0
 10
11.6844321536
 20
7.2032487326
 30
0.0
 10
11.6932915362
 20
7.1978473798
 30
0.0
 10
11.701771786
 20
7.1918292722
 30
0.0
 10
11.7098263733
 20
7.1852274749
 30
0.0
 10
11.7174111007
 20
7.178078243
 30
0.0
 10
11.7244843427
 20
7.1704208245
 30
0.0
 10
11.7310072721
 20
7.1622972469
 30
0.0
 10
11.7369440707
 20
7.1537520891
 30
0.0
 10
11.7422621238
 20
7.1448322391
 30
0.0
 10
11.7469322001
 20
7.1355866391
 30
0.0
 10
11.7509286052
 20
7.1260660257
 30
0.0
 10
11.7542293373
 20
7.1163226308
 30
0.0
 10
11.7568161759
 20
7.1064099927
 30
0.0
 10
11.7586748457
 20
7.0963823213
 30
0.0
 10
11.7597949963
 20
7.0862954399
 30
0.0
 10
11.7600458964
 20
7.0795493144
 30
0.0
 10
11.7600458964
 20
7.0761860809
 30
0.0
  0
SPLINE
  5
2E8
100
AcDbEntity
  8
0
100
AcDbSpline
 62
7
  6
CONTINUOUS
 70
0
 71
3
 72
41
 73
37
 74
0
 42
0.0000001
 43
0.0000001
 44
0.0000000001
 40
0.0
 40
0.0
 40
0.0
 40
0.0
 40
0.0299421238
 40
0.0449237703
 40
0.059914519
 40
0.0899291762
 40
0.1200146048
 40
0.1350933663
 40
0.1501974853
 40
0.1804849834
 40
0.2108989722
 40
0.2414525913
 40
0.2721557558
 40
0.3030149766
 40
0.3340332647
 40
0.365210118
 40
0.396541585
 40
0.4280204007
 40
0.4596361866
 40
0.4913757084
 40
0.5232231826
 40
0.5551606251
 40
0.5871682346
 40
0.6192248024
 40
0.6513081434
 40
0.68339554
 40
0.7154641944
 40
0.7474916807
 40
0.7794563937
 40
0.8113379827
 40
0.8431177771
 40
0.8747791563
 40
0.9063079829
 40
0.9376927254
 40
0.9689252285
 40
1.0
 40
1.0
 40
1.0
 40
1.0
 10
9.7764636623
 20
7.3080336737
 30
0.0
 10
9.7787945102
 20
7.310285104
 30
0.0
 10
9.7824281489
 20
7.3135258555
 30
0.0
 10
9.7875170218
 20
7.3175468824
 30
0.0
 10
9.7927679209
 20
7.3213678577
 30
0.0
 10
9.7996195115
 20
7.325755548
 30
0.0
 10
9.8068042273
 20
7.329593525
 30
0.0
 10
9.8127297617
 20
7.3323238664
 30
0.0
 10
9.8187777009
 20
7.3348288191
 30
0.0
 10
9.8265369373
 20
7.3375223561
 30
0.0
 10
9.8360990251
 20
7.3400326778
 30
0.0
 10
9.8458697641
 20
7.3418110628
 30
0.0
 10
9.8557950061
 20
7.3428477
 30
0.0
 10
9.8658202292
 20
7.3431370573
 30
0.0
 10
9.8758902716
 20
7.3426776618
 30
0.0
 10
9.8859497856
 20
7.3414721674
 30
0.0
 10
9.8959434986
 20
7.3395273161
 30
0.0
 10
9.9058165233
 20
7.3368539017
 30
0.0
 10
9.9155146531
 20
7.3334667054
 30
0.0
 10
9.9249846558
 20
7.3293844126
 30
0.0
 10
9.9341745616
 20
7.3246295089
 30
0.0
 10
9.9430339442
 20
7.319228156
 30
0.0
 10
9.951514194
 20
7.3132100485
 30
0.0
 10
9.9595687813
 20
7.3066082512
 30
0.0
 10
9.9671535086
 20
7.2994590192
 30
0.0
 10
9.9742267507
 20
7.2918016007
 30
0.0
 10
9.9807496801
 20
7.2836780232
 30
0.0
 10
9.9866864787
 20
7.2751328653
 30
0.0
 10
9.9920045318
 20
7.2662130154
 30
0.0
 10
9.996674608
 20
7.2569674154
 30
0.0
 10
10.0006710132
 20
7.247446802
 30
0.0
 10
10.0039717453
 20
7.2377034071
 30
0.0
 10
10.0065585839
 20
7.227790769
 30
0.0
 10
10.0084172537
 20
7.2177630975
 30
0.0
 10
10.0095374043
 20
7.2076762161
 30
0.0
 10
10.0097883044
 20
7.2009300906
 30
0.0
 10
10.0097883044
 20
7.1975668572
 30
0.0
  0
SPLINE
  5
2E9
100
AcDbEntity
  8
0
100
AcDbSpline
 62
7
  6
CONTINUOUS
 70
0
 71
3
 72
21
 73
17
 74
0
 42
0.0000001
 43
0.0000001
 44
0.0000000001
 40
0.0
 40
0.0
 40
0.0
 40
0.0
 40
0.0617147866
 40
0.1234506764
 40
0.1852285599
 40
0.2470689131
 40
0.3089915567
 40
0.3710154769
 40
0.4331586544
 40
0.4954378547
 40
0.5578685008
 40
0.6204644796
 40
0.6832380386
 40
0.7462000539
 40
0.8726823016
 40
1.0
 40
1.0
 40
1.0
 40
1.0
 10
10.2585035451
 20
8.0944002363
 30
0.0
 10
10.2605168573
 20
8.0963449347
 30
0.0
 10
10.2644448477
 20
8.1003393633
 30
0.0
 10
10.2700218969
 20
8.1066272385
 30
0.0
 10
10.2752723431
 20
8.1131978656
 30
0.0
 10
10.2801838452
 20
8.120035909
 30
0.0
 10
10.2847451069
 20
8.127125664
 30
0.0
 10
10.2889456532
 20
8.1344507252
 30
0.0
 10
10.292775797
 20
8.1419942112
 30
0.0
 10
10.2962266777
 20
8.1497387329
 30
0.0
 10
10.2992904077
 20
8.1576664166
 30
0.0
 10
10.3019599237
 20
8.1657589267
 30
0.0
 10
10.3042290709
 20
8.173997838
 30
0.0
 10
10.3067173133
 20
8.1851677213
 30
0.0
 10
10.3087991551
 20
8.1994075304
 30
0.0
 10
10.3093503854
 20
8.2109263998
 30
0.0
 10
10.3093503854
 20
8.2167010642
 30
0.0
  0
SPLINE
  5
2EA
100
AcDbEntity
  8
0
100
AcDbSpline
 62
7
  6
CONTINUOUS
 70
0
 71
3
 72
17
 73
13
 74
0
 42
0.0000001
 43
0.0000001
 44
0.0000000001
 40
0.0
 40
0.0
 40
0.0
 40
0.0
 40
0.0548647409
 40
0.1099334006
 40
0.1654074856
 40
0.2214837901
 40
0.3361456859
 40
0.4553801965
 40
0.5804212901
 40
0.7123203437
 40
0.8519511008
 40
1.0
 40
1.0
 40
1.0
 40
1.0
 10
11.3868339112
 20
10.8771289177
 30
0.0
 10
11.3868339146
 20
10.87636628
 30
0.0
 10
11.3867855155
 20
10.8748377295
 30
0.0
 10
11.3865679068
 20
10.8725474038
 30
0.0
 10
11.3862052697
 20
10.8702583434
 30
0.0
 10
11.3855237979
 20
10.8671869644
 30
0.0
 10
11.3842960493
 20
10.8633373113
 30
0.0
 10
11.3822548751
 20
10.8587744801
 30
0.0
 10
11.3796394275
 20
10.8542370575
 30
0.0
 10
11.3764540645
 20
10.8497294984
 30
0.0
 10
11.3727034928
 20
10.8452556958
 30
0.0
 10
11.3699140661
 20
10.8423852318
 30
0.0
 10
11.3684338923
 20
10.8409554936
 30
0.0
  0
SPLINE
  5
2EB
100
AcDbEntity
  8
0
100
AcDbSpline
 62
7
  6
CONTINUOUS
 70
0
 71
3
 72
11
 73
7
 74
0
 42
0.0000001
 43
0.0000001
 44
0.0000000001
 40
0.0
 40
0.0
 40
0.0
 40
0.0
 40
0.2477190248
 40
0.4963568729
 40
0.746821716
 40
1.0
 40
1.0
 40
1.0
 40
1.0
 10
11.3633339041
 20
10.8441069166
 30
0.0
 10
11.3633339008
 20
10.8433782436
 30
0.0
 10
11.363287702
 20
10.8419177815
 30
0.0
 10
11.3630799843
 20
10.8397294326
 30
0.0
 10
11.3627338728
 20
10.8375424287
 30
0.0
 10
11.3624130116
 20
10.8360950264
 30
0.0
 10
11.3622303684
 20
10.8353730385
 30
0.0
  0
SPLINE
  5
2EC
100
AcDbEntity
  8
0
100
AcDbSpline
 62
7
  6
CONTINUOUS
 70
0
 71
3
 72
11
 73
7
 74
0
 42
0.0000001
 43
0.0000001
 44
0.0000000001
 40
0.0
 40
0.0
 40
0.0
 40
0.0
 40
0.2477910203
 40
0.4964718889
 40
0.7469219449
 40
1.0
 40
1.0
 40
1.0
 40
1.0
 10
10.3303339263
 20
10.8441069166
 30
0.0
 10
10.3303339231
 20
10.8433900835
 30
0.0
 10
10.3303786137
 20
10.8419534484
 30
0.0
 10
10.3305796492
 20
10.8398007284
 30
0.0
 10
10.3309145832
 20
10.837649283
 30
0.0
 10
10.3312251324
 20
10.8362250841
 30
0.0
 10
10.33140193
 20
10.8355146238
 30
0.0
  0
SPLINE
  5
2ED
100
AcDbEntity
  8
0
100
AcDbSpline
 62
7
  6
CONTINUOUS
 70
0
 71
3
 72
17
 73
13
 74
0
 42
0.0000001
 43
0.0000001
 44
0.0000000001
 40
0.0
 40
0.0
 40
0.0
 40
0.0
 40
0.0548654642
 40
0.1099349219
 40
0.2214349039
 40
0.3360992195
 40
0.4553348124
 40
0.517079118
 40
0.5804139608
 40
0.7123167483
 40
0.8519524535
 40
1.0
 40
1.0
 40
1.0
 40
1.0
 10
9.6910709033
 20
10.7400257034
 30
0.0
 10
9.6910708992
 20
10.7405553074
 30
0.0
 10
9.6911045263
 20
10.7416168236
 30
0.0
 10
9.6913067729
 20
10.7437458179
 30
0.0
 10
9.6918178209
 20
10.7464196488
 30
0.0
 10
9.6928333484
 20
10.7496027997
 30
0.0
 10
9.6940009969
 20
10.7522132161
 30
0.0
 10
9.6951245848
 20
10.754287518
 30
0.0
 10
9.6964111383
 20
10.7564094275
 30
0.0
 10
9.6982792496
 20
10.7590530351
 30
0.0
 10
9.7008837405
 20
10.7621596531
 30
0.0
 10
9.7028208267
 20
10.7641530573
 30
0.0
 10
9.7038486916
 20
10.7651458987
 30
0.0
  0
SPLINE
  5
2EE
100
AcDbEntity
  8
0
100
AcDbSpline
 62
7
  6
CONTINUOUS
 70
0
 71
3
 72
18
 73
14
 74
0
 42
0.0000001
 43
0.0000001
 44
0.0000000001
 40
0.0
 40
0.0
 40
0.0
 40
0.0
 40
0.1492378719
 40
0.2896551254
 40
0.4219619721
 40
0.4853618993
 40
0.5470839706
 40
0.6660306019
 40
0.7801313525
 40
0.8358490322
 40
0.8909261152
 40
0.9455716555
 40
1.0
 40
1.0
 40
1.0
 40
1.0
 10
12.2961824295
 20
10.9461776395
 30
0.0
 10
12.2972839296
 20
10.9451525787
 30
0.0
 10
12.2993597964
 20
10.9430944593
 30
0.0
 10
12.3021544942
 20
10.9398814043
 30
0.0
 10
12.3041609308
 20
10.9371441232
 30
0.0
 10
12.3055428197
 20
10.9349459467
 30
0.0
 10
12.3067481446
 20
10.9327995867
 30
0.0
 10
12.3080013308
 20
10.930097952
 30
0.0
 10
12.3089177291
 20
10.9273265422
 30
0.0
 10
12.3094261805
 20
10.9251154764
 30
0.0
 10
12.3096966115
 20
10.9234683019
 30
0.0
 10
12.3098589092
 20
10.9218201378
 30
0.0
 10
12.3098950183
 20
10.9207200709
 30
0.0
 10
12.3098950226
 20
10.9201713023
 30
0.0
  0
SPLINE
  5
2EF
100
AcDbEntity
  8
0
100
AcDbSpline
 62
7
  6
CONTINUOUS
 70
0
 71
3
 72
39
 73
35
 74
0
 42
0.0000001
 43
0.0000001
 44
0.0000000001
 40
0.0
 40
0.0
 40
0.0
 40
0.0
 40
0.0072740609
 40
0.0148710987
 40
0.0227990055
 40
0.0310644039
 40
0.0396726832
 40
0.0486278341
 40
0.0579323608
 40
0.0675878247
 40
0.0775947766
 40
0.0879529422
 40
0.1097171419
 40
0.1328654483
 40
0.1573722348
 40
0.1832040234
 40
0.2103205583
 40
0.2386756272
 40
0.2682177396
 40
0.2988907408
 40
0.3306342899
 40
0.3633842613
 40
0.3970730791
 40
0.4316300925
 40
0.466981898
 40
0.5030526247
 40
0.5397641902
 40
0.5770365759
 40
0.614788113
 40
0.6913935957
 40
0.7689053926
 40
0.8466360797
 40
0.9238954807
 40
1.0
 40
1.0
 40
1.0
 40
1.0
 10
10.0338453853
 20
11.0828265031
 30
0.0
 10
10.0346115264
 20
11.0835394402
 30
0.0
 10
10.0362130563
 20
11.0849594749
 30
0.0
 10
10.038759525
 20
11.0870284577
 30
0.0
 10
10.0414999705
 20
11.089080578
 30
0.0
 10
10.0444326359
 20
11.0911145988
 30
0.0
 10
10.0475558599
 20
11.0931294095
 30
0.0
 10
10.0508678554
 20
11.095123846
 30
0.0
 10
10.0543666693
 20
11.0970968055
 30
0.0
 10
10.0580502626
 20
11.0990470661
 30
0.0
 10
10.061916459
 20
11.1009735272
 30
0.0
 10
10.0674026826
 20
11.1035514888
 30
0.0
 10
10.0747085287
 20
11.1066973928
 30
0.0
 10
10.0840258039
 20
11.110300135
 30
0.0
 10
10.0940108176
 20
11.1137817066
 30
0.0
 10
10.1046399857
 20
11.1171338041
 30
0.0
 10
10.1158883452
 20
11.120348408
 30
0.0
 10
10.1277293251
 20
11.1234178169
 30
0.0
 10
10.1401349114
 20
11.126334681
 30
0.0
 10
10.153075709
 20
11.1290920064
 30
0.0
 10
10.1665210299
 20
11.1316831802
 30
0.0
 10
10.1804389632
 20
11.1341019835
 30
0.0
 10
10.194796451
 20
11.1363426257
 30
0.0
 10
10.2095593761
 20
11.1383997412
 30
0.0
 10
10.224692651
 20
11.140268402
 30
0.0
 10
10.2401603032
 20
11.1419441295
 30
0.0
 10
10.2559255449
 20
11.1434229046
 30
0.0
 10
10.2719509117
 20
11.1447012194
 30
0.0
 10
10.2937193001
 20
11.1461411238
 30
0.0
 10
10.3212981275
 20
11.1474143437
 30
0.0
 10
10.3546512154
 20
11.1481011182
 30
0.0
 10
10.3881052762
 20
11.1479472883
 30
0.0
 10
10.421342164
 20
11.1469543908
 30
0.0
 10
10.4433759784
 20
11.1457266427
 30
0.0
 10
10.4542991452
 20
11.1449691185
 30
0.0
  0
SPLINE
  5
2F0
100
AcDbEntity
  8
0
100
AcDbSpline
 62
7
  6
CONTINUOUS
 70
0
 71
3
 72
11
 73
7
 74
0
 42
0.0000001
 43
0.0000001
 44
0.0000000001
 40
0.0
 40
0.0
 40
0.0
 40
0.0
 40
0.263754515
 40
0.5175437657
 40
0.7625200318
 40
1.0
 40
1.0
 40
1.0
 40
1.0
 10
10.875232905
 20
7.7810672043
 30
0.0
 10
10.8721946582
 20
7.781653976
 30
0.0
 10
10.8661714649
 20
7.7825120895
 30
0.0
 10
10.8572184152
 20
7.7828760807
 30
0.0
 10
10.8485822086
 20
7.7823668839
 30
0.0
 10
10.8429806843
 20
7.7814873356
 30
0.0
 10
10.8402516597
 20
7.7809261152
 30
0.0
  0
SPLINE
  5
2F1
100
AcDbEntity
  8
0
100
AcDbSpline
 62
7
  6
CONTINUOUS
 70
0
 71
3
 72
41
 73
37
 74
0
 42
0.0000001
 43
0.0000001
 44
0.0000000001
 40
0.0
 40
0.0
 40
0.0
 40
0.0
 40
0.0299421722
 40
0.0599087187
 40
0.0899234222
 40
0.1200088965
 40
0.1501860486
 40
0.1804735921
 40
0.2108876267
 40
0.2414412921
 40
0.2721445039
 40
0.3030037728
 40
0.3340221097
 40
0.3651990124
 40
0.3965305293
 40
0.4280093954
 40
0.4596252325
 40
0.4913648061
 40
0.523212333
 40
0.5551498293
 40
0.5871574933
 40
0.6192141165
 40
0.6512975132
 40
0.6833849656
 40
0.7154536753
 40
0.7314763803
 40
0.7474860474
 40
0.7794508144
 40
0.8113324582
 40
0.8431123019
 40
0.8747737477
 40
0.9063025846
 40
0.9376874998
 40
0.9533255315
 40
0.9689249968
 40
1.0
 40
1.0
 40
1.0
 40
1.0
 10
10.9719586472
 20
7.4116747334
 30
0.0
 10
10.9755917824
 20
7.4151840915
 30
0.0
 10
10.9831437071
 20
7.4219196203
 30
0.0
 10
10.9952431006
 20
7.4310955713
 30
0.0
 10
11.0080521255
 20
7.4392982887
 30
0.0
 10
11.0214992189
 20
7.446481749
 30
0.0
 10
11.0355104472
 20
7.4526067093
 30
0.0
 10
11.0500084848
 20
7.4576394994
 30
0.0
 10
11.0649134386
 20
7.4615525824
 30
0.0
 10
11.0801431929
 20
7.4643245933
 30
0.0
 10
11.095613895
 20
7.4659404734
 30
0.0
 10
11.1112404119
 20
7.4663915346
 30
0.0
 10
11.1269368007
 20
7.4656754998
 30
0.0
 10
11.142616779
 20
7.4637965015
 30
0.0
 10
11.1581941944
 20
7.4607650508
 30
0.0
 10
11.1735834924
 20
7.456597972
 30
0.0
 10
11.1887001802
 20
7.4513183051
 30
0.0
 10
11.2034612832
 20
7.4449551753
 30
0.0
 10
11.2177857953
 20
7.4375436306
 30
0.0
 10
11.2315951141
 20
7.4291244514
 30
0.0
 10
11.2448134756
 20
7.4197439148
 30
0.0
 10
11.2573683317
 20
7.4094535879
 30
0.0
 10
11.2691908653
 20
7.3983098741
 30
0.0
 10
11.280215911
 20
7.3863743521
 30
0.0
 10
11.2886920458
 20
7.3758181946
 30
0.0
 10
11.2950160344
 20
7.3670439081
 30
0.0
 10
11.3010218315
 20
7.3580699394
 30
0.0
 10
11.3079268093
 20
7.3464885072
 30
0.0
 10
11.3152059909
 20
7.3320774428
 30
0.0
 10
11.3214353257
 20
7.3172374174
 30
0.0
 10
11.326580241
 20
7.302050134
 30
0.0
 10
11.3306123946
 20
7.2865993476
 30
0.0
 10
11.3330297512
 20
7.2735572031
 30
0.0
 10
11.3343858253
 20
7.2630780131
 30
0.0
 10
11.3353536169
 20
7.2526088457
 30
0.0
 10
11.3356466542
 20
7.2447308753
 30
0.0
 10
11.3356466542
 20
7.2394885022
 30
0.0
  0
SPLINE
  5
2F2
100
AcDbEntity
  8
0
100
AcDbSpline
 62
7
  6
CONTINUOUS
 70
0
 71
3
 72
31
 73
27
 74
0
 42
0.0000001
 43
0.0000001
 44
0.0000000001
 40
0.0
 40
0.0
 40
0.0
 40
0.0
 40
0.0165871263
 40
0.0341538355
 40
0.0527304255
 40
0.072338885
 40
0.0929936113
 40
0.1147031244
 40
0.1374703581
 40
0.1612939683
 40
0.1861683735
 40
0.2120847496
 40
0.2390309588
 40
0.2669922952
 40
0.2959513939
 40
0.3258887698
 40
0.3567827625
 40
0.3886098985
 40
0.4549590901
 40
0.524717599
 40
0.5976420538
 40
0.6734695394
 40
0.7519200205
 40
0.832698842
 40
0.9154981096
 40
1.0
 40
1.0
 40
1.0
 40
1.0
 10
9.7336839652
 20
6.5202542009
 30
0.0
 10
9.7347096853
 20
6.51929966
 30
0.0
 10
9.7368852685
 20
6.5174017446
 30
0.0
 10
9.7404009515
 20
6.5146635888
 30
0.0
 10
9.7442569437
 20
6.5119566664
 30
0.0
 10
9.7484492053
 20
6.5092838621
 30
0.0
 10
9.7529734857
 20
6.5066476983
 30
0.0
 10
9.7578251799
 20
6.5040509383
 30
0.0
 10
9.7629992819
 20
6.501496165
 30
0.0
 10
9.768490474
 20
6.4989860904
 30
0.0
 10
9.774293053
 20
6.4965232657
 30
0.0
 10
9.7804010044
 20
6.4941103203
 30
0.0
 10
9.7868079585
 20
6.4917497378
 30
0.0
 10
9.7935072376
 20
6.4894440392
 30
0.0
 10
9.8004918376
 20
6.4871956169
 30
0.0
 10
9.807754452
 20
6.4850068721
 30
0.0
 10
9.8152874838
 20
6.4828800673
 30
0.0
 10
9.8258281364
 20
6.4800912609
 30
0.0
 10
9.8396263616
 20
6.4767875575
 30
0.0
 10
9.8569085799
 20
6.4731566668
 30
0.0
 10
9.8750648996
 20
6.4698218845
 30
0.0
 10
9.8940191414
 20
6.4667973785
 30
0.0
 10
9.9136919022
 20
6.4640960221
 30
0.0
 10
9.9340006435
 20
6.4617293064
 30
0.0
 10
9.9548600659
 20
6.4597072812
 30
0.0
 10
9.9689502899
 20
6.4586045618
 30
0.0
 10
9.976071294
 20
6.4581107184
 30
0.0
  0
SPLINE
  5
2F3
100
AcDbEntity
  8
0
100
AcDbSpline
 62
7
  6
CONTINUOUS
 70
0
 71
3
 72
18
 73
14
 74
0
 42
0.0000001
 43
0.0000001
 44
0.0000000001
 40
0.0
 40
0.0
 40
0.0
 40
0.0
 40
0.0544283445
 40
0.1090738848
 40
0.1641509678
 40
0.2198686475
 40
0.3339693981
 40
0.4529160294
 40
0.5146381007
 40
0.5780380279
 40
0.7103448746
 40
0.8507621281
 40
1.0
 40
1.0
 40
1.0
 40
1.0
 10
9.6901049774
 20
6.574054355
 30
0.0
 10
9.6901049817
 20
6.5735055863
 30
0.0
 10
9.6901410908
 20
6.5724055194
 30
0.0
 10
9.6903033885
 20
6.5707573553
 30
0.0
 10
9.6905738195
 20
6.5691101808
 30
0.0
 10
9.6910822709
 20
6.566899115
 30
0.0
 10
9.6919986692
 20
6.5641277052
 30
0.0
 10
9.6932518554
 20
6.5614260706
 30
0.0
 10
9.6944571803
 20
6.5592797105
 30
0.0
 10
9.6958390692
 20
6.557081534
 30
0.0
 10
9.6978455058
 20
6.5543442529
 30
0.0
 10
9.7006402036
 20
6.5511311979
 30
0.0
 10
9.7027160704
 20
6.5490730785
 30
0.0
 10
9.7038175705
 20
6.5480480177
 30
0.0
  0
SPLINE
  5
2F4
100
AcDbEntity
  8
0
100
AcDbSpline
 62
7
  6
CONTINUOUS
 70
0
 71
3
 72
39
 73
35
 74
0
 42
0.0000001
 43
0.0000001
 44
0.0000000001
 40
0.0
 40
0.0
 40
0.0
 40
0.0
 40
0.0071758079
 40
0.0146741357
 40
0.022503624
 40
0.030671441
 40
0.0391835297
 40
0.0480445027
 40
0.0572573755
 40
0.0668240442
 40
0.0767454363
 40
0.0870215068
 40
0.1086328144
 40
0.1316444976
 40
0.1560319006
 40
0.1817621503
 40
0.2087952904
 40
0.2370851496
 40
0.2665801077
 40
0.2972237102
 40
0.3289551658
 40
0.3617097536
 40
0.3954191975
 40
0.4300120549
 40
0.4654140374
 40
0.501548304
 40
0.5383357251
 40
0.5756951818
 40
0.6135438486
 40
0.6903688691
 40
0.7681254643
 40
0.846115686
 40
0.9236386402
 40
1.0
 40
1.0
 40
1.0
 40
1.0
 10
11.9679789626
 20
10.6380716335
 30
0.0
 10
11.9672343651
 20
10.6373524075
 30
0.0
 10
11.9656746731
 20
10.6359195845
 30
0.0
 10
11.9631871247
 20
10.6338319668
 30
0.0
 10
11.9605026344
 20
10.6317609002
 30
0.0
 10
11.9576229482
 20
10.6297077455
 30
0.0
 10
11.9545497701
 20
10.6276736049
 30
0.0
 10
11.9512848564
 20
10.6256596808
 30
0.0
 10
11.9478301464
 20
10.6236670915
 30
0.0
 10
11.9441876863
 20
10.6216970481
 30
0.0
 10
11.9403596352
 20
10.6197507227
 30
0.0
 10
11.9349194087
 20
10.617144899
 30
0.0
 10
11.9276631659
 20
10.6139643808
 30
0.0
 10
11.9183952715
 20
10.6103217994
 30
0.0
 10
11.9084480839
 20
10.6068005596
 30
0.0
 10
11.8978453684
 20
10.6034091562
 30
0.0
 10
11.8866123117
 20
10.6001558009
 30
0.0
 10
11.8747757646
 20
10.5970483738
 30
0.0
 10
11.8623640619
 20
10.5940944114
 30
0.0
 10
11.8494069618
 20
10.5913010834
 30
0.0
 10
11.8359355592
 20
10.5886751741
 30
0.0
 10
11.8219822151
 20
10.5862230588
 30
0.0
 10
11.8075804733
 20
10.5839506793
 30
0.0
 10
11.7927649693
 20
10.5818635464
 30
0.0
 10
11.7775713411
 20
10.579966722
 30
0.0
 10
11.7620361439
 20
10.5782648088
 30
0.0
 10
11.7461967759
 20
10.5767619344
 30
0.0
 10
11.730091335
 20
10.5754617101
 30
0.0
 10
11.7082064218
 20
10.5739953662
 30
0.0
 10
11.6804719745
 20
10.5726953807
 30
0.0
 10
11.6469234241
 20
10.571986583
 30
0.0
 10
11.61326682
 20
10.5721284947
 30
0.0
 10
11.5798261245
 20
10.5731196709
 30
0.0
 10
11.5576568377
 20
10.5743531289
 30
0.0
 10
11.5466667807
 20
10.5751152919
 30
0.0
  0
SPLINE
  5
2F5
100
AcDbEntity
  8
0
100
AcDbSpline
 62
7
  6
CONTINUOUS
 70
0
 71
3
 72
41
 73
37
 74
0
 42
0.0000001
 43
0.0000001
 44
0.0000000001
 40
0.0
 40
0.0
 40
0.0
 40
0.0
 40
0.0071757878
 40
0.0146740945
 40
0.0225035609
 40
0.0306713549
 40
0.0391834197
 40
0.0480443679
 40
0.0572572149
 40
0.0668238567
 40
0.076745221
 40
0.0870212626
 40
0.0976512706
 40
0.1086336674
 40
0.131645286
 40
0.1560326206
 40
0.1817627982
 40
0.2087958624
 40
0.2370856423
 40
0.2665805176
 40
0.2972240341
 40
0.3289554007
 40
0.3617098966
 40
0.3954192459
 40
0.4300120062
 40
0.4654138894
 40
0.5015480547
 40
0.5383353725
 40
0.5756947244
 40
0.6135432851
 40
0.6517967806
 40
0.6903697378
 40
0.7681261148
 40
0.8461161177
 40
0.9236388544
 40
1.0
 40
1.0
 40
1.0
 40
1.0
 10
11.997922665
 20
10.6060513283
 30
0.0
 10
11.9971109671
 20
10.6052672883
 30
0.0
 10
11.9954107215
 20
10.6037053447
 30
0.0
 10
11.9926990045
 20
10.6014295986
 30
0.0
 10
11.9897725979
 20
10.5991718952
 30
0.0
 10
11.9866334051
 20
10.5969337178
 30
0.0
 10
11.9832832836
 20
10.5947162681
 30
0.0
 10
11.979724148
 20
10.5925208564
 30
0.0
 10
11.9759581126
 20
10.5903487035
 30
0.0
 10
11.9719874068
 20
10.5882011227
 30
0.0
 10
11.9678143891
 20
10.5860794192
 30
0.0
 10
11.9634415657
 20
10.5839848097
 30
0.0
 10
11.9588715158
 20
10.5819185756
 30
0.0
 10
11.952417981
 20
10.5791600397
 30
0.0
 10
11.9438705723
 20
10.5758007814
 30
0.0
 10
11.9330271152
 20
10.5719622218
 30
0.0
 10
11.9214688835
 20
10.5682651975
 30
0.0
 10
11.9092235567
 20
10.564718662
 30
0.0
 10
11.8963203408
 20
10.5613312051
 30
0.0
 10
11.8827901427
 20
10.5581110426
 30
0.0
 10
11.8686653966
 20
10.5550659903
 30
0.0
 10
11.8539800014
 20
10.5522034438
 30
0.0
 10
11.8387692338
 20
10.5495303529
 30
0.0
 10
11.8230696607
 20
10.5470531951
 30
0.0
 10
11.8069190386
 20
10.5447779776
 30
0.0
 10
11.7903562169
 20
10.5427102182
 30
0.0
 10
11.7734210468
 20
10.540854936
 30
0.0
 10
11.7561542887
 20
10.5392166238
 30
0.0
 10
11.7385975053
 20
10.5377992447
 30
0.0
 10
11.7207929712
 20
10.5366062384
 30
0.0
 10
11.7027835148
 20
10.5356404733
 30
0.0
 10
11.6784918344
 20
10.5346564374
 30
0.0
 10
11.6479346863
 20
10.5340109694
 30
0.0
 10
11.6112452133
 20
10.534165631
 30
0.0
 10
11.5747909292
 20
10.5352461388
 30
0.0
 10
11.550623837
 20
10.5365907491
 30
0.0
 10
11.5386433969
 20
10.5374215955
 30
0.0
  0
SPLINE
  5
2F6
100
AcDbEntity
  8
0
100
AcDbSpline
 62
7
  6
CONTINUOUS
 70
0
 71
3
 72
15
 73
11
 74
0
 42
0.0000001
 43
0.0000001
 44
0.0000000001
 40
0.0
 40
0.0
 40
0.0
 40
0.0
 40
0.127238256
 40
0.2537079987
 40
0.3794488115
 40
0.5045188445
 40
0.6290000311
 40
0.7529935108
 40
0.8766168055
 40
1.0
 40
1.0
 40
1.0
 40
1.0
 10
10.9309472539
 20
7.2865788764
 30
0.0
 10
10.9309472539
 20
7.2927698663
 30
0.0
 10
10.9314898543
 20
7.3051216367
 30
0.0
 10
10.9339431783
 20
7.3234444669
 30
0.0
 10
10.9380147244
 20
7.3413706373
 30
0.0
 10
10.9436734958
 20
7.358759076
 30
0.0
 10
10.9508758072
 20
7.3754748473
 30
0.0
 10
10.9595663779
 20
7.3913881391
 30
0.0
 10
10.9696764681
 20
7.4063734662
 30
0.0
 10
10.9773186241
 20
7.4156766482
 30
0.0
 10
10.9813440061
 20
7.4201305562
 30
0.0
  0
SPLINE
  5
2F7
100
AcDbEntity
  8
0
100
AcDbSpline
 62
7
  6
CONTINUOUS
 70
0
 71
3
 72
43
 73
39
 74
0
 42
0.0000001
 43
0.0000001
 44
0.0000000001
 40
0.0
 40
0.0
 40
0.0
 40
0.0
 40
0.0310352619
 40
0.0466131591
 40
0.0622284044
 40
0.0935650949
 40
0.1250423756
 40
0.1566497911
 40
0.1883742437
 40
0.2202003907
 40
0.2521109249
 40
0.2680942665
 40
0.2840914983
 40
0.3161128243
 40
0.3481584603
 40
0.3802069407
 40
0.412236747
 40
0.444226711
 40
0.4761564148
 40
0.50800658
 40
0.5397594422
 40
0.5713991036
 40
0.6029118597
 40
0.6342864913
 40
0.6655145185
 40
0.6965904075
 40
0.7275117257
 40
0.7582792372
 40
0.7888969353
 40
0.8193720053
 40
0.8497147149
 40
0.8648431368
 40
0.8799436387
 40
0.9100637771
 40
0.9400986689
 40
0.9550931214
 40
0.9700739222
 40
1.0
 40
1.0
 40
1.0
 40
1.0
 10
10.9309472539
 20
7.2865788764
 30
0.0
 10
10.9309472539
 20
7.2814825735
 30
0.0
 10
10.9312241631
 20
7.2738245832
 30
0.0
 10
10.9321389721
 20
7.2636455634
 30
0.0
 10
10.933420826
 20
7.253455891
 30
0.0
 10
10.9357061608
 20
7.2407696858
 30
0.0
 10
10.9395194287
 20
7.2257282943
 30
0.0
 10
10.9443870849
 20
7.210927064
 30
0.0
 10
10.9502837752
 20
7.1964431586
 30
0.0
 10
10.9571785647
 20
7.1823519623
 30
0.0
 10
10.9637235302
 20
7.1710021111
 30
0.0
 10
10.9694198444
 20
7.1621895636
 30
0.0
 10
10.9754209951
 20
7.1535595272
 30
0.0
 10
10.9834701685
 20
7.1431504782
 30
0.0
 10
10.9939509002
 20
7.1313340211
 30
0.0
 10
11.0052033352
 20
7.1202474471
 30
0.0
 10
11.0171688412
 20
7.1099486577
 30
0.0
 10
11.0297854171
 20
7.100491008
 30
0.0
 10
11.042987605
 20
7.0919236332
 30
0.0
 10
11.0567069342
 20
7.0842910338
 30
0.0
 10
11.0708722436
 20
7.0776328898
 30
0.0
 10
11.0854100536
 20
7.0719838431
 30
0.0
 10
11.100244941
 20
7.0673733213
 30
0.0
 10
11.1152999244
 20
7.063825382
 30
0.0
 10
11.1304968602
 20
7.061358587
 30
0.0
 10
11.1457568379
 20
7.0599858998
 30
0.0
 10
11.1610006016
 20
7.0597146197
 30
0.0
 10
11.176148897
 20
7.0605463154
 30
0.0
 10
11.1911231029
 20
7.0624768891
 30
0.0
 10
11.2058448139
 20
7.0654962924
 30
0.0
 10
11.2178526279
 20
7.0689109667
 30
0.0
 10
11.2272525177
 20
7.0721690538
 30
0.0
 10
11.236488486
 20
7.0757669014
 30
0.0
 10
11.2477411612
 20
7.0809054225
 30
0.0
 10
11.2585534125
 20
7.0868799219
 30
0.0
 10
11.2668915248
 20
7.0921360131
 30
0.0
 10
11.2750062653
 20
7.0976983487
 30
0.0
 10
11.2808452525
 20
7.1022179499
 30
0.0
 10
11.2846121687
 20
7.1053737934
 30
0.0
  0
SPLINE
  5
2F8
100
AcDbEntity
  8
0
100
AcDbSpline
 62
7
  6
CONTINUOUS
 70
0
 71
3
 72
42
 73
38
 74
0
 42
0.0000001
 43
0.0000001
 44
0.0000000001
 40
0.0
 40
0.0
 40
0.0
 40
0.0
 40
0.0310747366
 40
0.0466742
 40
0.0623120792
 40
0.0936967488
 40
0.1252253682
 40
0.1568865883
 40
0.1886662066
 40
0.2205476241
 40
0.252512164
 40
0.2845394778
 40
0.3166079598
 40
0.3486951849
 40
0.3807783552
 40
0.4128347537
 40
0.4448421953
 40
0.4767794716
 40
0.5086267812
 40
0.5403661404
 40
0.5719817657
 40
0.6034604225
 40
0.6347917325
 40
0.6659684304
 40
0.6969865646
 40
0.7278456325
 40
0.7585486449
 40
0.7891021123
 40
0.8195159494
 40
0.8498032954
 40
0.8649073374
 40
0.8799860228
 40
0.9100712971
 40
0.9400857983
 40
0.9550764701
 40
0.9700580366
 40
1.0
 40
1.0
 40
1.0
 40
1.0
 10
9.9471281791
 20
8.2418212596
 30
0.0
 10
9.9471281791
 20
8.2373329537
 30
0.0
 10
9.9473790657
 20
8.230588138
 30
0.0
 10
9.9482076474
 20
8.2216248476
 30
0.0
 10
9.9493686538
 20
8.2126529718
 30
0.0
 10
9.9514382932
 20
8.2014868098
 30
0.0
 10
9.9548904413
 20
8.1882584592
 30
0.0
 10
9.959295307
 20
8.1752556859
 30
0.0
 10
9.9646285565
 20
8.162550291
 30
0.0
 10
9.9708608264
 20
8.1502118826
 30
0.0
 10
9.9779578305
 20
8.1383081955
 30
0.0
 10
9.985880558
 20
8.1269045359
 30
0.0
 10
9.9945854851
 20
8.1160634787
 30
0.0
 10
10.0040248121
 20
8.1058445138
 30
0.0
 10
10.014146724
 20
8.0963037277
 30
0.0
 10
10.0248956714
 20
8.0874934973
 30
0.0
 10
10.0362126727
 20
8.0794622054
 30
0.0
 10
10.0480356339
 20
8.0722539778
 30
0.0
 10
10.0602996852
 20
8.065908442
 30
0.0
 10
10.0729375326
 20
8.0604605115
 30
0.0
 10
10.085879822
 20
8.0559401937
 30
0.0
 10
10.0990555147
 20
8.0523724247
 30
0.0
 10
10.1123922716
 20
8.0497769306
 30
0.0
 10
10.1258168455
 20
8.048168116
 30
0.0
 10
10.1392554743
 20
8.0475549787
 30
0.0
 10
10.1526342964
 20
8.0479410607
 30
0.0
 10
10.1658796975
 20
8.0493243969
 30
0.0
 10
10.178918918
 20
8.051697605
 30
0.0
 10
10.1916796963
 20
8.0550475922
 30
0.0
 10
10.2020345424
 20
8.0586420959
 30
0.0
 10
10.2101056352
 20
8.0619849414
 30
0.0
 10
10.2180133774
 20
8.0656285744
 30
0.0
 10
10.2276015313
 20
8.0707503454
 30
0.0
 10
10.2367451184
 20
8.0766057347
 30
0.0
 10
10.2437525815
 20
8.081704809
 30
0.0
 10
10.2505437791
 20
8.0870709086
 30
0.0
 10
10.2553929807
 20
8.0913956801
 30
0.0
 10
10.2585035451
 20
8.0944002363
 30
0.0
  0
SPLINE
  5
2F9
100
AcDbEntity
  8
0
100
AcDbSpline
 62
7
  6
CONTINUOUS
 70
0
 71
3
 72
21
 73
17
 74
0
 42
0.0000001
 43
0.0000001
 44
0.0000000001
 40
0.0
 40
0.0
 40
0.0
 40
0.0
 40
0.1273175725
 40
0.2538000026
 40
0.3167619332
 40
0.3795354925
 40
0.4421314982
 40
0.5045621433
 40
0.5668413429
 40
0.6289845306
 40
0.6910084612
 40
0.7529311022
 40
0.8147714553
 40
0.8765493457
 40
0.9382852283
 40
1.0
 40
1.0
 40
1.0
 40
1.0
 10
10.9125711172
 20
7.2688288904
 30
0.0
 10
10.9125711172
 20
7.2755735987
 30
0.0
 10
10.9132149434
 20
7.2890274542
 30
0.0
 10
10.9156464445
 20
7.3056593281
 30
0.0
 10
10.9185526468
 20
7.318705583
 30
0.0
 10
10.9212029489
 20
7.3283285017
 30
0.0
 10
10.9243208299
 20
7.3377804476
 30
0.0
 10
10.9278991813
 20
7.3470398705
 30
0.0
 10
10.9319297201
 20
7.3560853619
 30
0.0
 10
10.9364031763
 20
7.3648960783
 30
0.0
 10
10.9413092889
 20
7.3734516671
 30
0.0
 10
10.9466367273
 20
7.3817324133
 30
0.0
 10
10.9523731861
 20
7.3897192061
 30
0.0
 10
10.9585055393
 20
7.3973936613
 30
0.0
 10
10.9650194058
 20
7.4047378279
 30
0.0
 10
10.9696071446
 20
7.409403344
 30
0.0
 10
10.9719586472
 20
7.4116747334
 30
0.0
  0
SPLINE
  5
2FA
100
AcDbEntity
  8
0
100
AcDbSpline
 62
7
  6
CONTINUOUS
 70
0
 71
3
 72
53
 73
49
 74
0
 42
0.0000001
 43
0.0000001
 44
0.0000000001
 40
0.0
 40
0.0
 40
0.0
 40
0.0
 40
0.0527850893
 40
0.1048062875
 40
0.1559447948
 40
0.2060909053
 40
0.2551345071
 40
0.302970028
 40
0.3494956453
 40
0.394613795
 40
0.4382317369
 40
0.4802620127
 40
0.5206231205
 40
0.5592401462
 40
0.5960455205
 40
0.630979967
 40
0.6639937254
 40
0.6950480956
 40
0.724117325
 40
0.7379046975
 40
0.7511934988
 40
0.763985398
 40
0.7762837369
 40
0.7880933299
 40
0.7994209949
 40
0.8102757033
 40
0.8206687266
 40
0.8306143016
 40
0.8401296535
 40
0.8492356228
 40
0.8579570947
 40
0.8663232304
 40
0.8743681253
 40
0.8821308248
 40
0.8896554973
 40
0.8969912634
 40
0.904191506
 40
0.911313045
 40
0.9184147508
 40
0.9255560501
 40
0.9327952929
 40
0.9401883194
 40
0.9477871408
 40
0.9637757361
 40
0.9722567854
 40
0.9811038243
 40
0.9903441174
 40
1.0
 40
1.0
 40
1.0
 40
1.0
 10
9.9770372199
 20
10.6839694717
 30
0.0
 10
9.9716356614
 20
10.684344071
 30
0.0
 10
9.9609155646
 20
10.6851600152
 30
0.0
 10
9.9449832748
 20
10.6865956988
 30
0.0
 10
9.9293424011
 20
10.6882317249
 30
0.0
 10
9.9140308501
 20
10.690064047
 30
0.0
 10
9.8990852787
 20
10.692088283
 30
0.0
 10
9.8845417176
 20
10.6942995059
 30
0.0
 10
9.8704351251
 20
10.6966923506
 30
0.0
 10
9.8567994129
 20
10.6992610135
 30
0.0
 10
9.8436673497
 20
10.7019992611
 30
0.0
 10
9.8310704689
 20
10.704900456
 30
0.0
 10
9.8190389825
 20
10.7079575512
 30
0.0
 10
9.8076017046
 20
10.7111631247
 30
0.0
 10
9.7967859705
 20
10.7145094031
 30
0.0
 10
9.7866175887
 20
10.7179882868
 30
0.0
 10
9.7771206447
 20
10.721591388
 30
0.0
 10
9.7683177746
 20
10.7253100282
 30
0.0
 10
9.7614613845
 20
10.7285525446
 30
0.0
 10
9.7563488624
 20
10.7312052863
 30
0.0
 10
9.7527687376
 20
10.7331829727
 30
0.0
 10
9.7493770711
 20
10.7351828198
 30
0.0
 10
9.7461758405
 20
10.7372036216
 30
0.0
 10
9.7431669599
 20
10.7392442346
 30
0.0
 10
9.7403522009
 20
10.7413034676
 30
0.0
 10
9.7377332027
 20
10.7433801144
 30
0.0
 10
9.7353115524
 20
10.7454730618
 30
0.0
 10
9.7330886435
 20
10.7475810901
 30
0.0
 10
9.7310658352
 20
10.749703089
 30
0.0
 10
9.7292443812
 20
10.7518379309
 30
0.0
 10
9.7276253964
 20
10.7539844553
 30
0.0
 10
9.7262100507
 20
10.7561416012
 30
0.0
 10
9.7249993271
 20
10.7583081824
 30
0.0
 10
9.7239942448
 20
10.760483036
 30
0.0
 10
9.7231957899
 20
10.7626649043
 30
0.0
 10
9.7226047389
 20
10.7648523677
 30
0.0
 10
9.722221922
 20
10.7670439177
 30
0.0
 10
9.7220477907
 20
10.7692378502
 30
0.0
 10
9.7220825988
 20
10.7714323894
 30
0.0
 10
9.7223263682
 20
10.7736257226
 30
0.0
 10
9.7227786277
 20
10.7758160776
 30
0.0
 10
9.7234389596
 20
10.7780019209
 30
0.0
 10
9.724615113
 20
10.7809575349
 30
0.0
 10
9.7262029756
 20
10.7838552533
 30
0.0
 10
9.7281423642
 20
10.7866708957
 30
0.0
 10
9.7298291492
 20
10.7888139352
 30
0.0
 10
9.7317178094
 20
10.7909445071
 30
0.0
 10
9.7330799934
 20
10.7923248721
 30
0.0
 10
9.733792394
 20
10.7930129983
 30
0.0
  0
SPLINE
  5
2FB
100
AcDbEntity
  8
0
100
AcDbSpline
 62
7
  6
CONTINUOUS
 70
0
 71
3
 72
41
 73
37
 74
0
 42
0.0000001
 43
0.0000001
 44
0.0000000001
 40
0.0
 40
0.0
 40
0.0
 40
0.0
 40
0.0299421238
 40
0.0449237703
 40
0.059914519
 40
0.0899291762
 40
0.1200146048
 40
0.1350933663
 40
0.1501974853
 40
0.1804849834
 40
0.2108989722
 40
0.2414525913
 40
0.2721557558
 40
0.3030149766
 40
0.3340332647
 40
0.365210118
 40
0.396541585
 40
0.4280204007
 40
0.4596361866
 40
0.4913757084
 40
0.5232231826
 40
0.5551606251
 40
0.5871682346
 40
0.6192248024
 40
0.6513081434
 40
0.68339554
 40
0.7154641944
 40
0.7474916807
 40
0.7794563937
 40
0.8113379827
 40
0.8431177771
 40
0.8747791563
 40
0.9063079829
 40
0.9376927254
 40
0.9689252285
 40
1.0
 40
1.0
 40
1.0
 40
1.0
 10
9.9716877732
 20
9.158516058
 30
0.0
 10
9.9693569253
 20
9.1562646277
 30
0.0
 10
9.9657232866
 20
9.1530238761
 30
0.0
 10
9.9606344137
 20
9.1490028493
 30
0.0
 10
9.9553835146
 20
9.145181874
 30
0.0
 10
9.948531924
 20
9.1407941837
 30
0.0
 10
9.9413472082
 20
9.1369562066
 30
0.0
 10
9.9354216738
 20
9.1342258653
 30
0.0
 10
9.9293737346
 20
9.1317209126
 30
0.0
 10
9.9216144982
 20
9.1290273755
 30
0.0
 10
9.9120524105
 20
9.1265170539
 30
0.0
 10
9.9022816714
 20
9.1247386689
 30
0.0
 10
9.8923564295
 20
9.1237020316
 30
0.0
 10
9.8823312063
 20
9.1234126744
 30
0.0
 10
9.872261164
 20
9.1238720698
 30
0.0
 10
9.8622016499
 20
9.1250775643
 30
0.0
 10
9.852207937
 20
9.1270224155
 30
0.0
 10
9.8423349123
 20
9.1296958299
 30
0.0
 10
9.8326367824
 20
9.1330830263
 30
0.0
 10
9.8231667797
 20
9.1371653191
 30
0.0
 10
9.8139768739
 20
9.1419202228
 30
0.0
 10
9.8051174913
 20
9.1473215757
 30
0.0
 10
9.7966372416
 20
9.1533396832
 30
0.0
 10
9.7885826543
 20
9.1599414805
 30
0.0
 10
9.7809979269
 20
9.1670907124
 30
0.0
 10
9.7739246848
 20
9.174748131
 30
0.0
 10
9.7674017555
 20
9.1828717085
 30
0.0
 10
9.7614649569
 20
9.1914168663
 30
0.0
 10
9.7561469038
 20
9.2003367163
 30
0.0
 10
9.7514768275
 20
9.2095823163
 30
0.0
 10
9.7474804223
 20
9.2191029297
 30
0.0
 10
9.7441796902
 20
9.2288463246
 30
0.0
 10
9.7415928516
 20
9.2387589627
 30
0.0
 10
9.7397341819
 20
9.2487866341
 30
0.0
 10
9.7386140312
 20
9.2588735155
 30
0.0
 10
9.7383631311
 20
9.265619641
 30
0.0
 10
9.7383631311
 20
9.2689828745
 30
0.0
  0
SPLINE
  5
2FC
100
AcDbEntity
  8
0
100
AcDbSpline
 62
7
  6
CONTINUOUS
 70
0
 71
3
 72
40
 73
36
 74
0
 42
0.0000001
 43
0.0000001
 44
0.0000000001
 40
0.0
 40
0.0
 40
0.0
 40
0.0
 40
0.0958313241
 40
0.1890999997
 40
0.2345965946
 40
0.2792415226
 40
0.3229681534
 40
0.3657118216
 40
0.4074099467
 40
0.4480024597
 40
0.4874320406
 40
0.5256441383
 40
0.5625874389
 40
0.5982141646
 40
0.6324801981
 40
0.6653457469
 40
0.6967757223
 40
0.7267401371
 40
0.7552151195
 40
0.7821835957
 40
0.807636302
 40
0.8315735259
 40
0.854006673
 40
0.8749606539
 40
0.8944772516
 40
0.9126187723
 40
0.9294730441
 40
0.945159307
 40
0.9598338401
 40
0.9668558655
 40
0.9737029019
 40
0.9804063157
 40
0.9869997191
 40
0.9935186517
 40
1.0
 40
1.0
 40
1.0
 40
1.0
 10
9.9690138362
 20
10.6462757752
 30
0.0
 10
9.9592465609
 20
10.6469531381
 30
0.0
 10
9.9399873573
 20
10.6485045918
 30
0.0
 10
9.9161464326
 20
10.65099253
 30
0.0
 10
9.8975491264
 20
10.6532909623
 30
0.0
 10
9.8839981956
 20
10.6551454042
 30
0.0
 10
9.8707517621
 20
10.6571415153
 30
0.0
 10
9.8578319276
 20
10.6592759394
 30
0.0
 10
9.8452602865
 20
10.6615451002
 30
0.0
 10
9.8330578398
 20
10.6639451901
 30
0.0
 10
9.8212449576
 20
10.6664721474
 30
0.0
 10
9.8098413581
 20
10.6691217454
 30
0.0
 10
9.7988660613
 20
10.6718895271
 30
0.0
 10
9.7883373534
 20
10.6747708147
 30
0.0
 10
9.7782727685
 20
10.6777607939
 30
0.0
 10
9.7686890358
 20
10.6808544315
 30
0.0
 10
9.7596020514
 20
10.684046517
 30
0.0
 10
9.7510268655
 20
10.6873317413
 30
0.0
 10
9.7429776155
 20
10.6907046016
 30
0.0
 10
9.7354675104
 20
10.6941594876
 30
0.0
 10
9.7285088221
 20
10.6976907571
 30
0.0
 10
9.7221128022
 20
10.7012926495
 30
0.0
 10
9.7162896987
 20
10.7049594471
 30
0.0
 10
9.711048778
 20
10.7086855603
 30
0.0
 10
9.7063982633
 20
10.7124655348
 30
0.0
 10
9.7023455542
 20
10.7162942146
 30
0.0
 10
9.698897347
 20
10.7201671553
 30
0.0
 10
9.6960603034
 20
10.7240793955
 30
0.0
 10
9.6941837438
 20
10.7274182534
 30
0.0
 10
9.6930139756
 20
10.7300917017
 30
0.0
 10
9.6923057416
 20
10.7320725082
 30
0.0
 10
9.6917543352
 20
10.7340572108
 30
0.0
 10
9.6913601759
 20
10.7360450114
 30
0.0
 10
9.6911235692
 20
10.7380347451
 30
0.0
 10
9.6910709085
 20
10.7393635278
 30
0.0
 10
9.6910709033
 20
10.7400257034
 30
0.0
  0
SPLINE
  5
2FD
100
AcDbEntity
  8
0
100
AcDbSpline
 62
7
  6
CONTINUOUS
 70
0
 71
3
 72
41
 73
37
 74
0
 42
0.0000001
 43
0.0000001
 44
0.0000000001
 40
0.0
 40
0.0
 40
0.0
 40
0.0
 40
0.0299421238
 40
0.0449237703
 40
0.059914519
 40
0.0899291762
 40
0.1200146048
 40
0.1350933663
 40
0.1501974853
 40
0.1804849834
 40
0.2108989722
 40
0.2414525913
 40
0.2721557558
 40
0.3030149766
 40
0.3340332647
 40
0.365210118
 40
0.396541585
 40
0.4280204007
 40
0.4596361866
 40
0.4913757084
 40
0.5232231826
 40
0.5551606251
 40
0.5871682346
 40
0.6192248024
 40
0.6513081434
 40
0.68339554
 40
0.7154641944
 40
0.7474916807
 40
0.7794563937
 40
0.8113379827
 40
0.8431177771
 40
0.8747791563
 40
0.9063079829
 40
0.9376927254
 40
0.9689252285
 40
1.0
 40
1.0
 40
1.0
 40
1.0
 10
11.7219453652
 20
9.0371352817
 30
0.0
 10
11.7196145173
 20
9.0348838514
 30
0.0
 10
11.7159808786
 20
9.0316430999
 30
0.0
 10
11.7108920057
 20
9.0276220731
 30
0.0
 10
11.7056411066
 20
9.0238010977
 30
0.0
 10
11.698789516
 20
9.0194134074
 30
0.0
 10
11.6916048002
 20
9.0155754304
 30
0.0
 10
11.6856792658
 20
9.012845089
 30
0.0
 10
11.6796313266
 20
9.0103401363
 30
0.0
 10
11.6718720902
 20
9.0076465993
 30
0.0
 10
11.6623100025
 20
9.0051362776
 30
0.0
 10
11.6525392634
 20
9.0033578926
 30
0.0
 10
11.6426140215
 20
9.0023212554
 30
0.0
 10
11.6325887984
 20
9.0020318981
 30
0.0
 10
11.622518756
 20
9.0024912936
 30
0.0
 10
11.6124592419
 20
9.003696788
 30
0.0
 10
11.602465529
 20
9.0056416393
 30
0.0
 10
11.5925925043
 20
9.0083150537
 30
0.0
 10
11.5828943745
 20
9.01170225
 30
0.0
 10
11.5734243717
 20
9.0157845428
 30
0.0
 10
11.5642344659
 20
9.0205394465
 30
0.0
 10
11.5553750834
 20
9.0259407994
 30
0.0
 10
11.5468948336
 20
9.0319589069
 30
0.0
 10
11.5388402463
 20
9.0385607042
 30
0.0
 10
11.5312555189
 20
9.0457099362
 30
0.0
 10
11.5241822769
 20
9.0533673547
 30
0.0
 10
11.5176593475
 20
9.0614909322
 30
0.0
 10
11.5117225489
 20
9.0700360901
 30
0.0
 10
11.5064044958
 20
9.07895594
 30
0.0
 10
11.5017344195
 20
9.08820154
 30
0.0
 10
11.4977380144
 20
9.0977221534
 30
0.0
 10
11.4944372822
 20
9.1074655483
 30
0.0
 10
11.4918504436
 20
9.1173781865
 30
0.0
 10
11.4899917739
 20
9.1274058579
 30
0.0
 10
11.4888716232
 20
9.1374927393
 30
0.0
 10
11.4886207232
 20
9.1442388648
 30
0.0
 10
11.4886207232
 20
9.1476020982
 30
0.0
  0
SPLINE
  5
2FE
100
AcDbEntity
  8
0
100
AcDbSpline
 62
7
  6
CONTINUOUS
 70
0
 71
3
 72
15
 73
11
 74
0
 42
0.0000001
 43
0.0000001
 44
0.0000000001
 40
0.0
 40
0.0
 40
0.0
 40
0.0
 40
0.127348315
 40
0.2538606239
 40
0.3795878599
 40
0.5046051181
 40
0.6290174391
 40
0.7529533757
 40
0.8765605793
 40
1.0
 40
1.0
 40
1.0
 40
1.0
 10
9.7383631311
 20
7.2163902569
 30
0.0
 10
9.7383631311
 20
7.2207173678
 30
0.0
 10
9.7387762847
 20
7.2293491656
 30
0.0
 10
9.7406447166
 20
7.2421308433
 30
0.0
 10
9.743742895
 20
7.2545913667
 30
0.0
 10
9.7480428271
 20
7.266614206
 30
0.0
 10
9.75350509
 20
7.2780884772
 30
0.0
 10
9.7600798609
 20
7.2889082351
 30
0.0
 10
9.767705318
 20
7.2989721089
 30
0.0
 10
9.7734469009
 20
7.3051197006
 30
0.0
 10
9.7764636623
 20
7.3080336737
 30
0.0
  0
SPLINE
  5
2FF
100
AcDbEntity
  8
0
100
AcDbSpline
 62
7
  6
CONTINUOUS
 70
0
 71
3
 72
41
 73
37
 74
0
 42
0.0000001
 43
0.0000001
 44
0.0000000001
 40
0.0
 40
0.0
 40
0.0
 40
0.0
 40
0.0299421238
 40
0.0449237703
 40
0.059914519
 40
0.0899291762
 40
0.1200146048
 40
0.1350933663
 40
0.1501974853
 40
0.1804849834
 40
0.2108989722
 40
0.2414525913
 40
0.2721557558
 40
0.3030149766
 40
0.3340332647
 40
0.365210118
 40
0.396541585
 40
0.4280204007
 40
0.4596361866
 40
0.4913757084
 40
0.5232231826
 40
0.5551606251
 40
0.5871682346
 40
0.6192248024
 40
0.6513081434
 40
0.68339554
 40
0.7154641944
 40
0.7474916807
 40
0.7794563937
 40
0.8113379827
 40
0.8431177771
 40
0.8747791563
 40
0.9063079829
 40
0.9376927254
 40
0.9689252285
 40
1.0
 40
1.0
 40
1.0
 40
1.0
 10
11.7219453652
 20
6.9845426641
 30
0.0
 10
11.7196145173
 20
6.9822912338
 30
0.0
 10
11.7159808786
 20
6.9790504822
 30
0.0
 10
11.7108920057
 20
6.9750294554
 30
0.0
 10
11.7056411066
 20
6.9712084801
 30
0.0
 10
11.698789516
 20
6.9668207898
 30
0.0
 10
11.6916048002
 20
6.9629828127
 30
0.0
 10
11.6856792658
 20
6.9602524714
 30
0.0
 10
11.6796313266
 20
6.9577475187
 30
0.0
 10
11.6718720902
 20
6.9550539816
 30
0.0
 10
11.6623100025
 20
6.95254366
 30
0.0
 10
11.6525392634
 20
6.950765275
 30
0.0
 10
11.6426140215
 20
6.9497286377
 30
0.0
 10
11.6325887984
 20
6.9494392805
 30
0.0
 10
11.622518756
 20
6.9498986759
 30
0.0
 10
11.6124592419
 20
6.9511041704
 30
0.0
 10
11.602465529
 20
6.9530490216
 30
0.0
 10
11.5925925043
 20
6.955722436
 30
0.0
 10
11.5828943745
 20
6.9591096324
 30
0.0
 10
11.5734243717
 20
6.9631919252
 30
0.0
 10
11.5642344659
 20
6.9679468289
 30
0.0
 10
11.5553750834
 20
6.9733481818
 30
0.0
 10
11.5468948336
 20
6.9793662893
 30
0.0
 10
11.5388402463
 20
6.9859680866
 30
0.0
 10
11.5312555189
 20
6.9931173185
 30
0.0
 10
11.5241822769
 20
7.000774737
 30
0.0
 10
11.5176593475
 20
7.0088983146
 30
0.0
 10
11.5117225489
 20
7.0174434724
 30
0.0
 10
11.5064044958
 20
7.0263633224
 30
0.0
 10
11.5017344195
 20
7.0356089224
 30
0.0
 10
11.4977380144
 20
7.0451295358
 30
0.0
 10
11.4944372822
 20
7.0548729307
 30
0.0
 10
11.4918504436
 20
7.0647855688
 30
0.0
 10
11.4899917739
 20
7.0748132402
 30
0.0
 10
11.4888716232
 20
7.0849001216
 30
0.0
 10
11.4886207232
 20
7.0916462471
 30
0.0
 10
11.4886207232
 20
7.0950094806
 30
0.0
  0
SPLINE
  5
300
100
AcDbEntity
  8
0
100
AcDbSpline
 62
7
  6
CONTINUOUS
 70
0
 71
3
 72
41
 73
37
 74
0
 42
0.0000001
 43
0.0000001
 44
0.0000000001
 40
0.0
 40
0.0
 40
0.0
 40
0.0
 40
0.0299421238
 40
0.0449237703
 40
0.059914519
 40
0.0899291762
 40
0.1200146048
 40
0.1350933663
 40
0.1501974853
 40
0.1804849834
 40
0.2108989722
 40
0.2414525913
 40
0.2721557558
 40
0.3030149766
 40
0.3340332647
 40
0.365210118
 40
0.396541585
 40
0.4280204007
 40
0.4596361866
 40
0.4913757084
 40
0.5232231826
 40
0.5551606251
 40
0.5871682346
 40
0.6192248024
 40
0.6513081434
 40
0.68339554
 40
0.7154641944
 40
0.7474916807
 40
0.7794563937
 40
0.8113379827
 40
0.8431177771
 40
0.8747791563
 40
0.9063079829
 40
0.9376927254
 40
0.9689252285
 40
1.0
 40
1.0
 40
1.0
 40
1.0
 10
9.9716877732
 20
7.1059234404
 30
0.0
 10
9.9693569253
 20
7.10367201
 30
0.0
 10
9.9657232866
 20
7.1004312585
 30
0.0
 10
9.9606344137
 20
7.0964102317
 30
0.0
 10
9.9553835146
 20
7.0925892564
 30
0.0
 10
9.948531924
 20
7.0882015661
 30
0.0
 10
9.9413472082
 20
7.084363589
 30
0.0
 10
9.9354216738
 20
7.0816332477
 30
0.0
 10
9.9293737346
 20
7.0791282949
 30
0.0
 10
9.9216144982
 20
7.0764347579
 30
0.0
 10
9.9120524105
 20
7.0739244362
 30
0.0
 10
9.9022816714
 20
7.0721460513
 30
0.0
 10
9.8923564295
 20
7.071109414
 30
0.0
 10
9.8823312063
 20
7.0708200568
 30
0.0
 10
9.872261164
 20
7.0712794522
 30
0.0
 10
9.8622016499
 20
7.0724849466
 30
0.0
 10
9.852207937
 20
7.0744297979
 30
0.0
 10
9.8423349123
 20
7.0771032123
 30
0.0
 10
9.8326367824
 20
7.0804904086
 30
0.0
 10
9.8231667797
 20
7.0845727014
 30
0.0
 10
9.8139768739
 20
7.0893276052
 30
0.0
 10
9.8051174913
 20
7.094728958
 30
0.0
 10
9.7966372416
 20
7.1007470656
 30
0.0
 10
9.7885826543
 20
7.1073488629
 30
0.0
 10
9.7809979269
 20
7.1144980948
 30
0.0
 10
9.7739246848
 20
7.1221555133
 30
0.0
 10
9.7674017555
 20
7.1302790909
 30
0.0
 10
9.7614649569
 20
7.1388242487
 30
0.0
 10
9.7561469038
 20
7.1477440987
 30
0.0
 10
9.7514768275
 20
7.1569896987
 30
0.0
 10
9.7474804223
 20
7.1665103121
 30
0.0
 10
9.7441796902
 20
7.176253707
 30
0.0
 10
9.7415928516
 20
7.1861663451
 30
0.0
 10
9.7397341819
 20
7.1961940165
 30
0.0
 10
9.7386140312
 20
7.2062808979
 30
0.0
 10
9.7383631311
 20
7.2130270234
 30
0.0
 10
9.7383631311
 20
7.2163902569
 30
0.0
  0
SPLINE
  5
301
100
AcDbEntity
  8
0
100
AcDbSpline
 62
7
  6
CONTINUOUS
 70
0
 71
3
 72
21
 73
17
 74
0
 42
0.0000001
 43
0.0000001
 44
0.0000000001
 40
0.0
 40
0.0
 40
0.0
 40
0.0
 40
0.0617147866
 40
0.1234506764
 40
0.1852285599
 40
0.2470689131
 40
0.3089915567
 40
0.3710154769
 40
0.4331586544
 40
0.4954378547
 40
0.5578685008
 40
0.6204644796
 40
0.6832380386
 40
0.7462000539
 40
0.8726823016
 40
1.0
 40
1.0
 40
1.0
 40
1.0
 10
9.9979750195
 20
8.3641220875
 30
0.0
 10
9.9959617073
 20
8.3621773891
 30
0.0
 10
9.9920337169
 20
8.3581829605
 30
0.0
 10
9.9864566677
 20
8.3518950853
 30
0.0
 10
9.9812062214
 20
8.3453244582
 30
0.0
 10
9.9762947194
 20
8.3384864149
 30
0.0
 10
9.9717334577
 20
8.3313966598
 30
0.0
 10
9.9675329113
 20
8.3240715986
 30
0.0
 10
9.9637027676
 20
8.3165281126
 30
0.0
 10
9.9602518869
 20
8.3087835909
 30
0.0
 10
9.9571881568
 20
8.3008559072
 30
0.0
 10
9.9545186408
 20
8.2927633971
 30
0.0
 10
9.9522494936
 20
8.2845244858
 30
0.0
 10
9.9497612513
 20
8.2733546025
 30
0.0
 10
9.9476794094
 20
8.2591147934
 30
0.0
 10
9.9471281791
 20
8.247595924
 30
0.0
 10
9.9471281791
 20
8.2418212596
 30
0.0
  0
SPLINE
  5
302
100
AcDbEntity
  8
0
100
AcDbSpline
 62
7
  6
CONTINUOUS
 70
0
 71
3
 72
21
 73
17
 74
0
 42
0.0000001
 43
0.0000001
 44
0.0000000001
 40
0.0
 40
0.0
 40
0.0
 40
0.0
 40
0.0617147866
 40
0.1234506764
 40
0.1852285599
 40
0.2470689131
 40
0.3089915567
 40
0.3710154769
 40
0.4331586544
 40
0.4954378547
 40
0.5578685008
 40
0.6204644796
 40
0.6832380386
 40
0.7462000539
 40
0.8726823016
 40
1.0
 40
1.0
 40
1.0
 40
1.0
 10
10.5717349768
 20
8.7164975104
 30
0.0
 10
10.5697216646
 20
8.714552812
 30
0.0
 10
10.5657936742
 20
8.7105583834
 30
0.0
 10
10.560216625
 20
8.7042705082
 30
0.0
 10
10.5549661787
 20
8.697699881
 30
0.0
 10
10.5500546767
 20
8.6908618377
 30
0.0
 10
10.545493415
 20
8.6837720827
 30
0.0
 10
10.5412928687
 20
8.6764470214
 30
0.0
 10
10.5374627249
 20
8.6689035355
 30
0.0
 10
10.5340118442
 20
8.6611590137
 30
0.0
 10
10.5309481141
 20
8.6532313301
 30
0.0
 10
10.5282785981
 20
8.64513882
 30
0.0
 10
10.5260094509
 20
8.6368999087
 30
0.0
 10
10.5235212086
 20
8.6257300254
 30
0.0
 10
10.5214393668
 20
8.6114902163
 30
0.0
 10
10.5208881364
 20
8.5999713469
 30
0.0
 10
10.5208881364
 20
8.5941966824
 30
0.0
  0
SPLINE
  5
303
100
AcDbEntity
  8
0
100
AcDbSpline
 62
7
  6
CONTINUOUS
 70
0
 71
3
 72
17
 73
13
 74
0
 42
0.0000001
 43
0.0000001
 44
0.0000000001
 40
0.0
 40
0.0
 40
0.0
 40
0.0
 40
0.0548647409
 40
0.1099334006
 40
0.1654074856
 40
0.2214837901
 40
0.3361456859
 40
0.4553801965
 40
0.5804212901
 40
0.7123203437
 40
0.8519511008
 40
1.0
 40
1.0
 40
1.0
 40
1.0
 10
10.3068339192
 20
10.8771282321
 30
0.0
 10
10.3068339157
 20
10.8778908697
 30
0.0
 10
10.3068823149
 20
10.8794194203
 30
0.0
 10
10.3070999236
 20
10.8817097459
 30
0.0
 10
10.3074625607
 20
10.8839988063
 30
0.0
 10
10.3081440325
 20
10.8870701853
 30
0.0
 10
10.3093717811
 20
10.8909198384
 30
0.0
 10
10.3114129552
 20
10.8954826697
 30
0.0
 10
10.3140284029
 20
10.9000200923
 30
0.0
 10
10.3172137658
 20
10.9045276513
 30
0.0
 10
10.3209643376
 20
10.9090014539
 30
0.0
 10
10.3237537643
 20
10.9118719179
 30
0.0
 10
10.3252339381
 20
10.9133016561
 30
0.0
  0
SPLINE
  5
304
100
AcDbEntity
  8
0
100
AcDbSpline
 62
7
  6
CONTINUOUS
 70
0
 71
3
 72
15
 73
11
 74
0
 42
0.0000001
 43
0.0000001
 44
0.0000000001
 40
0.0
 40
0.0
 40
0.0
 40
0.0
 40
0.127348315
 40
0.2538606239
 40
0.3795878599
 40
0.5046051181
 40
0.6290174391
 40
0.7529533757
 40
0.8765605793
 40
1.0
 40
1.0
 40
1.0
 40
1.0
 10
9.7383631311
 20
9.2689828745
 30
0.0
 10
9.7383631311
 20
9.2733099855
 30
0.0
 10
9.7387762847
 20
9.2819417833
 30
0.0
 10
9.7406447166
 20
9.294723461
 30
0.0
 10
9.743742895
 20
9.3071839843
 30
0.0
 10
9.7480428271
 20
9.3192068236
 30
0.0
 10
9.75350509
 20
9.3306810948
 30
0.0
 10
9.7600798609
 20
9.3415008528
 30
0.0
 10
9.767705318
 20
9.3515647265
 30
0.0
 10
9.7734469009
 20
9.3577123182
 30
0.0
 10
9.7764636623
 20
9.3606262913
 30
0.0
  0
SPLINE
  5
305
100
AcDbEntity
  8
0
100
AcDbSpline
 62
7
  6
CONTINUOUS
 70
0
 71
3
 72
15
 73
11
 74
0
 42
0.0000001
 43
0.0000001
 44
0.0000000001
 40
0.0
 40
0.0
 40
0.0
 40
0.0
 40
0.127348315
 40
0.2538606239
 40
0.3795878599
 40
0.5046051181
 40
0.6290174391
 40
0.7529533757
 40
0.8765605793
 40
1.0
 40
1.0
 40
1.0
 40
1.0
 10
11.4886207232
 20
7.0950094806
 30
0.0
 10
11.4886207232
 20
7.0993365916
 30
0.0
 10
11.4890338767
 20
7.1079683894
 30
0.0
 10
11.4909023086
 20
7.1207500671
 30
0.0
 10
11.494000487
 20
7.1332105904
 30
0.0
 10
11.4983004191
 20
7.1452334297
 30
0.0
 10
11.503762682
 20
7.1567077009
 30
0.0
 10
11.5103374529
 20
7.1675274589
 30
0.0
 10
11.51796291
 20
7.1775913326
 30
0.0
 10
11.5237044929
 20
7.1837389243
 30
0.0
 10
11.5267212544
 20
7.1866528974
 30
0.0
  0
SPLINE
  5
306
100
AcDbEntity
  8
0
100
AcDbSpline
 62
7
  6
CONTINUOUS
 70
0
 71
3
 72
18
 73
14
 74
0
 42
0.0000001
 43
0.0000001
 44
0.0000000001
 40
0.0
 40
0.0
 40
0.0
 40
0.0
 40
0.1480426091
 40
0.2876688212
 40
0.4195632622
 40
0.4828949635
 40
0.5446365251
 40
0.663866667
 40
0.7785244683
 40
0.8345987131
 40
0.8900707647
 40
0.9451373429
 40
1.0
 40
1.0
 40
1.0
 40
1.0
 10
10.3479331963
 20
10.8787057989
 30
0.0
 10
10.3465174569
 20
10.8773382996
 30
0.0
 10
10.3438494212
 20
10.8745927269
 30
0.0
 10
10.3402622046
 20
10.870313866
 30
0.0
 10
10.3376892124
 20
10.8666727744
 30
0.0
 10
10.3359172068
 20
10.8637502184
 30
0.0
 10
10.3343696579
 20
10.8608931394
 30
0.0
 10
10.3327613615
 20
10.8572981013
 30
0.0
 10
10.3315870911
 20
10.8536161348
 30
0.0
 10
10.3309352606
 20
10.8506784275
 30
0.0
 10
10.3305883752
 20
10.8484890102
 30
0.0
 10
10.3303802287
 20
10.8462983749
 30
0.0
 10
10.3303339295
 20
10.8448363586
 30
0.0
 10
10.3303339263
 20
10.8441069166
 30
0.0
  0
SPLINE
  5
307
100
AcDbEntity
  8
0
100
AcDbSpline
 62
7
  6
CONTINUOUS
 70
0
 71
3
 72
40
 73
36
 74
0
 42
0.0000001
 43
0.0000001
 44
0.0000000001
 40
0.0
 40
0.0
 40
0.0
 40
0.0
 40
0.0958313936
 40
0.1891002636
 40
0.2345968559
 40
0.2792418231
 40
0.3229685191
 40
0.3657121987
 40
0.4074103657
 40
0.4480029213
 40
0.4874324913
 40
0.5256446262
 40
0.5625879545
 40
0.5982146421
 40
0.632480706
 40
0.6653462654
 40
0.6967761768
 40
0.726740613
 40
0.7552155871
 40
0.7821839784
 40
0.8076366943
 40
0.8315738914
 40
0.8540069425
 40
0.8749609194
 40
0.8944774765
 40
0.9126189061
 40
0.9294731629
 40
0.9451593854
 40
0.9598338584
 40
0.9668558876
 40
0.9737029112
 40
0.9804063068
 40
0.9869997133
 40
0.9935186461
 40
1.0
 40
1.0
 40
1.0
 40
1.0
 10
9.9690138362
 20
9.6803498742
 30
0.0
 10
9.9592465453
 20
9.6810272381
 30
0.0
 10
9.9399872984
 20
9.6825786981
 30
0.0
 10
9.916146326
 20
9.685066636
 30
0.0
 10
9.8975489812
 20
9.6873650819
 30
0.0
 10
9.8839980286
 20
9.6892195276
 30
0.0
 10
9.8707515715
 20
9.6912156397
 30
0.0
 10
9.8578317157
 20
9.6933500787
 30
0.0
 10
9.845260054
 20
9.6956192425
 30
0.0
 10
9.8330575891
 20
9.6980193346
 30
0.0
 10
9.821244693
 20
9.7005463111
 30
0.0
 10
9.8098410779
 20
9.7031959108
 30
0.0
 10
9.7988657688
 20
9.7059636955
 30
0.0
 10
9.7883370556
 20
9.7088450068
 30
0.0
 10
9.7782724609
 20
9.7118349858
 30
0.0
 10
9.7686887223
 20
9.7149286268
 30
0.0
 10
9.7596017425
 20
9.7181207403
 30
0.0
 10
9.7510265529
 20
9.7214059619
 30
0.0
 10
9.7429773038
 20
9.7247788262
 30
0.0
 10
9.7354672148
 20
9.7282337435
 30
0.0
 10
9.7285085283
 20
9.7317650076
 30
0.0
 10
9.7221125163
 20
9.735366905
 30
0.0
 10
9.7162894422
 20
9.7390337356
 30
0.0
 10
9.7110485277
 20
9.7427598414
 30
0.0
 10
9.706398028
 20
9.7465398226
 30
0.0
 10
9.7023453628
 20
9.7503685336
 30
0.0
 10
9.6988971656
 20
9.7542414675
 30
0.0
 10
9.6960601422
 20
9.7581537165
 30
0.0
 10
9.6941836417
 20
9.7614925984
 30
0.0
 10
9.6930138703
 20
9.7641660398
 30
0.0
 10
9.6923056537
 20
9.7661468526
 30
0.0
 10
9.6917542898
 20
9.7681315654
 30
0.0
 10
9.6913601251
 20
9.7701193647
 30
0.0
 10
9.6911235402
 20
9.7721091046
 30
0.0
 10
9.6910709056
 20
9.77343789
 30
0.0
 10
9.691070909
 20
9.7741000667
 30
0.0
  0
SPLINE
  5
308
100
AcDbEntity
  8
0
100
AcDbSpline
 62
7
  6
CONTINUOUS
 70
0
 71
3
 72
41
 73
37
 74
0
 42
0.0000001
 43
0.0000001
 44
0.0000000001
 40
0.0
 40
0.0
 40
0.0
 40
0.0
 40
0.0071758425
 40
0.0146741453
 40
0.0225035656
 40
0.0306713257
 40
0.0391834036
 40
0.0480443729
 40
0.0572572157
 40
0.0668238661
 40
0.0767452117
 40
0.087021259
 40
0.0976512753
 40
0.1086336553
 40
0.1316452786
 40
0.1560326285
 40
0.1817628121
 40
0.2087958578
 40
0.2370856249
 40
0.2665805114
 40
0.2972240455
 40
0.3289554128
 40
0.3617098907
 40
0.3954192316
 40
0.4300120033
 40
0.4654138991
 40
0.5015480605
 40
0.5383353682
 40
0.5756947176
 40
0.6135432851
 40
0.6517967846
 40
0.6903697386
 40
0.7681261117
 40
0.8461161118
 40
0.923638923
 40
1.0
 40
1.0
 40
1.0
 40
1.0
 10
11.997922665
 20
9.6401254273
 30
0.0
 10
11.9971109609
 20
9.6393413813
 30
0.0
 10
11.995410711
 20
9.6377794307
 30
0.0
 10
11.9926989945
 20
9.6355036826
 30
0.0
 10
11.9897725931
 20
9.6332459942
 30
0.0
 10
11.9866334113
 20
9.6310078195
 30
0.0
 10
11.983283288
 20
9.6287903723
 30
0.0
 10
11.9797241492
 20
9.6265949569
 30
0.0
 10
11.9759581146
 20
9.6244227944
 30
0.0
 10
11.971987404
 20
9.6222752272
 30
0.0
 10
11.9678143918
 20
9.6201535145
 30
0.0
 10
11.963441567
 20
9.6180589096
 30
0.0
 10
11.9588715165
 20
9.615992678
 30
0.0
 10
11.9524179867
 20
9.6132341317
 30
0.0
 10
11.9438705747
 20
9.60987488
 30
0.0
 10
11.9330271129
 20
9.6060363218
 30
0.0
 10
11.9214688797
 20
9.6023393008
 30
0.0
 10
11.9092235587
 20
9.5987927598
 30
0.0
 10
11.8963203469
 20
9.5954052994
 30
0.0
 10
11.8827901454
 20
9.5921851398
 30
0.0
 10
11.8686653935
 20
9.5891400923
 30
0.0
 10
11.8539799981
 20
9.5862775468
 30
0.0
 10
11.8387692357
 20
9.5836044501
 30
0.0
 10
11.8230696654
 20
9.5811272889
 30
0.0
 10
11.8069190403
 20
9.578852075
 30
0.0
 10
11.7903562147
 20
9.5767843212
 30
0.0
 10
11.773421045
 20
9.5749290377
 30
0.0
 10
11.7561542899
 20
9.5732907208
 30
0.0
 10
11.7385975076
 20
9.5718733392
 30
0.0
 10
11.7207929719
 20
9.5706803364
 30
0.0
 10
11.7027835141
 20
9.5697145759
 30
0.0
 10
11.6784918343
 20
9.5687305368
 30
0.0
 10
11.6479346878
 20
9.5680850638
 30
0.0
 10
11.6112452041
 20
9.5682397329
 30
0.0
 10
11.5747909194
 20
9.5693202373
 30
0.0
 10
11.5506238262
 20
9.5706648488
 30
0.0
 10
11.5386433969
 20
9.5714956944
 30
0.0
  0
SPLINE
  5
309
100
AcDbEntity
  8
0
100
AcDbSpline
 62
7
  6
CONTINUOUS
 70
0
 71
3
 72
15
 73
11
 74
0
 42
0.0000001
 43
0.0000001
 44
0.0000000001
 40
0.0
 40
0.0
 40
0.0
 40
0.0
 40
0.127348315
 40
0.2538606239
 40
0.3795878599
 40
0.5046051181
 40
0.6290174391
 40
0.7529533757
 40
0.8765605793
 40
1.0
 40
1.0
 40
1.0
 40
1.0
 10
11.4886207232
 20
9.1476020982
 30
0.0
 10
11.4886207232
 20
9.1519292092
 30
0.0
 10
11.4890338767
 20
9.160561007
 30
0.0
 10
11.4909023086
 20
9.1733426847
 30
0.0
 10
11.494000487
 20
9.185803208
 30
0.0
 10
11.4983004191
 20
9.1978260473
 30
0.0
 10
11.503762682
 20
9.2093003186
 30
0.0
 10
11.5103374529
 20
9.2201200765
 30
0.0
 10
11.51796291
 20
9.2301839502
 30
0.0
 10
11.5237044929
 20
9.2363315419
 30
0.0
 10
11.5267212544
 20
9.239245515
 30
0.0
  0
SPLINE
  5
30A
100
AcDbEntity
  8
0
100
AcDbSpline
 62
7
  6
CONTINUOUS
 70
0
 71
3
 72
17
 73
13
 74
0
 42
0.0000001
 43
0.0000001
 44
0.0000000001
 40
0.0
 40
0.0
 40
0.0
 40
0.0
 40
0.0548654278
 40
0.1099348511
 40
0.2214348476
 40
0.336099037
 40
0.4553350807
 40
0.5170795749
 40
0.5804144754
 40
0.7123166389
 40
0.8519515296
 40
1.0
 40
1.0
 40
1.0
 40
1.0
 10
12.3098950169
 20
9.9542451369
 30
0.0
 10
12.3098950141
 20
9.9537155381
 30
0.0
 10
12.3098613847
 20
9.9526540326
 30
0.0
 10
12.3096591295
 20
9.9505250585
 30
0.0
 10
12.3091480401
 20
9.947851263
 30
0.0
 10
12.3081325293
 20
9.9446681356
 30
0.0
 10
12.3069648531
 20
9.942057754
 30
0.0
 10
12.3058412727
 20
9.9399834652
 30
0.0
 10
12.3045547236
 20
9.9378615834
 30
0.0
 10
12.3026866317
 20
9.935218015
 30
0.0
 10
12.3000821706
 20
9.9321114266
 30
0.0
 10
12.2981450963
 20
9.9301180445
 30
0.0
 10
12.2971172342
 20
9.9291252059
 30
0.0
  0
SPLINE
  5
30B
100
AcDbEntity
  8
0
100
AcDbSpline
 62
7
  6
CONTINUOUS
 70
0
 71
3
 72
17
 73
13
 74
0
 42
0.0000001
 43
0.0000001
 44
0.0000000001
 40
0.0
 40
0.0
 40
0.0
 40
0.0
 40
0.0548654642
 40
0.1099349219
 40
0.2214349039
 40
0.3360992195
 40
0.4553348124
 40
0.517079118
 40
0.5804139608
 40
0.7123167483
 40
0.8519524535
 40
1.0
 40
1.0
 40
1.0
 40
1.0
 10
12.3098950226
 20
10.9201713023
 30
0.0
 10
12.3098950267
 20
10.9196416982
 30
0.0
 10
12.3098613996
 20
10.918580182
 30
0.0
 10
12.309659153
 20
10.9164511878
 30
0.0
 10
12.309148105
 20
10.9137773569
 30
0.0
 10
12.3081325775
 20
10.910594206
 30
0.0
 10
12.306964929
 20
10.9079837896
 30
0.0
 10
12.3058413411
 20
10.9059094877
 30
0.0
 10
12.3045547876
 20
10.9037875782
 30
0.0
 10
12.3026866762
 20
10.9011439705
 30
0.0
 10
12.3000821854
 20
10.8980373526
 30
0.0
 10
12.2981450992
 20
10.8960439483
 30
0.0
 10
12.2971172342
 20
10.8950511069
 30
0.0
  0
SPLINE
  5
30C
100
AcDbEntity
  8
0
100
AcDbSpline
 62
7
  6
CONTINUOUS
 70
0
 71
3
 72
23
 73
19
 74
0
 42
0.0000001
 43
0.0000001
 44
0.0000000001
 40
0.0
 40
0.0
 40
0.0
 40
0.0
 40
0.0749625009
 40
0.1455684839
 40
0.2121600745
 40
0.2751631548
 40
0.3350982506
 40
0.3925832742
 40
0.4483295117
 40
0.5031237972
 40
0.5577983643
 40
0.613191491
 40
0.670106811
 40
0.729278715
 40
0.7913522906
 40
0.8568775564
 40
0.9263090861
 40
1.0
 40
1.0
 40
1.0
 40
1.0
 10
12.2663160348
 20
10.9739714563
 30
0.0
 10
12.2673093799
 20
10.9730470438
 30
0.0
 10
12.2691832736
 20
10.9711911518
 30
0.0
 10
12.2717117214
 20
10.9682956866
 30
0.0
 10
12.2738678324
 20
10.9653773004
 30
0.0
 10
12.2756483634
 20
10.9624385031
 30
0.0
 10
12.2770503737
 20
10.9594819133
 30
0.0
 10
12.2780706901
 20
10.9565105422
 30
0.0
 10
12.2787064585
 20
10.9535282206
 30
0.0
 10
12.2789554141
 20
10.9505396703
 30
0.0
 10
12.2788165771
 20
10.9475503266
 30
0.0
 10
12.2782905235
 20
10.9445657077
 30
0.0
 10
12.2773791308
 20
10.9415908085
 30
0.0
 10
12.2760852674
 20
10.9386296807
 30
0.0
 10
12.274411944
 20
10.9356855713
 30
0.0
 10
12.2723621944
 20
10.9327610529
 30
0.0
 10
12.2699391738
 20
10.9298589119
 30
0.0
 10
12.268132958
 20
10.9279981467
 30
0.0
 10
12.2671735318
 20
10.9270714121
 30
0.0
  0
SPLINE
  5
30D
100
AcDbEntity
  8
0
100
AcDbSpline
 62
7
  6
CONTINUOUS
 70
0
 71
3
 72
40
 73
36
 74
0
 42
0.0000001
 43
0.0000001
 44
0.0000000001
 40
0.0
 40
0.0
 40
0.0
 40
0.0
 40
0.0761046989
 40
0.1533642853
 40
0.231095153
 40
0.3086071158
 40
0.3852127395
 40
0.4229643348
 40
0.4602367688
 40
0.4969483719
 40
0.5330191242
 40
0.5683709424
 40
0.6029279546
 40
0.6366167566
 40
0.6693666968
 40
0.7011101988
 40
0.7317831362
 40
0.7613251678
 40
0.7896801387
 40
0.8167965582
 40
0.8426282142
 40
0.8671348513
 40
0.8902829918
 40
0.901339782
 40
0.9120481155
 40
0.9224061853
 40
0.9324130382
 40
0.9420684001
 40
0.9513728221
 40
0.9603278661
 40
0.9689360367
 40
0.9772013253
 40
0.9851291216
 40
0.9927260489
 40
1.0
 40
1.0
 40
1.0
 40
1.0
 10
11.537677471
 20
6.371450247
 30
0.0
 10
11.5495850682
 20
6.3706244523
 30
0.0
 10
11.5736046403
 20
6.3692860577
 30
0.0
 10
11.6098369419
 20
6.3682036859
 30
0.0
 10
11.6463059859
 20
6.3680360067
 30
0.0
 10
11.6826649498
 20
6.3687846954
 30
0.0
 10
11.7127292537
 20
6.3701726832
 30
0.0
 10
11.7364594595
 20
6.371742376
 30
0.0
 10
11.753929063
 20
6.3731359123
 30
0.0
 10
11.7711150932
 20
6.3747479761
 30
0.0
 10
11.787976709
 20
6.3765747433
 30
0.0
 10
11.8044738065
 20
6.3786118324
 30
0.0
 10
11.820567171
 20
6.3808543612
 30
0.0
 10
11.8362185524
 20
6.3832969573
 30
0.0
 10
11.8513907584
 20
6.3859337716
 30
0.0
 10
11.8660477515
 20
6.3887584913
 30
0.0
 10
11.8801547448
 20
6.391764337
 30
0.0
 10
11.8936782831
 20
6.3949440996
 30
0.0
 10
11.906586327
 20
6.3982901549
 30
0.0
 10
11.9188483197
 20
6.4017944905
 30
0.0
 10
11.9304353571
 20
6.4054487104
 30
0.0
 10
11.9413200139
 20
6.4092440738
 30
0.0
 10
11.9499106375
 20
6.4125657495
 30
0.0
 10
11.9564054523
 20
6.4152939639
 30
0.0
 10
11.96101058
 20
6.4173384078
 30
0.0
 10
11.9654217115
 20
6.4194112887
 30
0.0
 10
11.9696362699
 20
6.4215113607
 30
0.0
 10
11.97365177
 20
6.4236373981
 30
0.0
 10
11.9774658348
 20
6.4257881744
 30
0.0
 10
11.9810762427
 20
6.4279623643
 30
0.0
 10
11.9844808643
 20
6.4301587639
 30
0.0
 10
11.9876777517
 20
6.4323761047
 30
0.0
 10
11.9906650936
 20
6.4346131758
 30
0.0
 10
11.993440975
 20
6.4368686286
 30
0.0
 10
11.9951867823
 20
6.438416646
 30
0.0
 10
11.9960219412
 20
6.4391938374
 30
0.0
  0
SPLINE
  5
30E
100
AcDbEntity
  8
0
100
AcDbSpline
 62
7
  6
CONTINUOUS
 70
0
 71
3
 72
85
 73
81
 74
0
 42
0.0000001
 43
0.0000001
 44
0.0000000001
 40
0.0
 40
0.0
 40
0.0
 40
0.0
 40
0.0039801755
 40
0.0081241211
 40
0.0124359992
 40
0.0169193694
 40
0.0215772468
 40
0.0264119948
 40
0.0314252716
 40
0.036618263
 40
0.0419916661
 40
0.0475457929
 40
0.0532805805
 40
0.0591955875
 40
0.0715626143
 40
0.0846383153
 40
0.0984096556
 40
0.1128602549
 40
0.1279708112
 40
0.1437194381
 40
0.1600819386
 40
0.1770320333
 40
0.1945415658
 40
0.2125806771
 40
0.2311179593
 40
0.2501205956
 40
0.2695544871
 40
0.2893843733
 40
0.3095739538
 40
0.3300859996
 40
0.3508824608
 40
0.3719245709
 40
0.3931729488
 40
0.4145877017
 40
0.457754079
 40
0.5010989561
 40
0.5442950696
 40
0.5657357599
 40
0.5870173776
 40
0.6080999494
 40
0.6289439925
 40
0.6495106191
 40
0.6697616414
 40
0.689659674
 40
0.709168241
 40
0.7282518859
 40
0.7468762864
 40
0.7650083809
 40
0.7826164962
 40
0.7996704822
 40
0.8161418627
 40
0.8320040043
 40
0.8472323103
 40
0.861804453
 40
0.8757006387
 40
0.8889039295
 40
0.9014006481
 40
0.9073810513
 40
0.9131814645
 40
0.9188013272
 40
0.9242404634
 40
0.9294990094
 40
0.9345775386
 40
0.9394770609
 40
0.9441990652
 40
0.9487456382
 40
0.9531194389
 40
0.9573238773
 40
0.961363122
 40
0.9652422377
 40
0.9689673054
 40
0.9725454842
 40
0.9759852134
 40
0.9824864129
 40
0.9855752855
 40
0.9885737661
 40
0.9914977029
 40
0.9943643139
 40
0.9971920003
 40
1.0
 40
1.0
 40
1.0
 40
1.0
 10
10.3252339381
 20
10.9133016561
 30
0.0
 10
10.3263034377
 20
10.9143347135
 30
0.0
 10
10.3285350129
 20
10.9163935262
 30
0.0
 10
10.3320780735
 20
10.9194005847
 30
0.0
 10
10.3358813183
 20
10.9223860853
 30
0.0
 10
10.3399426592
 20
10.9253484195
 30
0.0
 10
10.3442601021
 20
10.9282862183
 30
0.0
 10
10.3488315467
 20
10.9311980373
 30
0.0
 10
10.3536547013
 20
10.9340825013
 30
0.0
 10
10.3587271756
 20
10.9369381085
 30
0.0
 10
10.3640464111
 20
10.9397634729
 30
0.0
 10
10.3696097503
 20
10.9425571648
 30
0.0
 10
10.3754144183
 20
10.9453177973
 30
0.0
 10
10.3835936371
 20
10.9490075712
 30
0.0
 10
10.3944091173
 20
10.9535165398
 30
0.0
 10
10.4081153204
 20
10.9586964827
 30
0.0
 10
10.4227078619
 20
10.9637124418
 30
0.0
 10
10.4381573666
 20
10.9685542384
 30
0.0
 10
10.4544329023
 20
10.9732120333
 30
0.0
 10
10.4715017361
 20
10.9776763442
 30
0.0
 10
10.4893295016
 20
10.9819380775
 30
0.0
 10
10.5078802518
 20
10.9859885549
 30
0.0
 10
10.5271165504
 20
10.9898195257
 30
0.0
 10
10.5469995536
 20
10.9934231869
 30
0.0
 10
10.5674890938
 20
10.9967921993
 30
0.0
 10
10.5885437623
 20
10.9999197013
 30
0.0
 10
10.6101209936
 20
11.0027993252
 30
0.0
 10
10.6321771537
 20
11.0054252136
 30
0.0
 10
10.6546676328
 20
11.0077920244
 30
0.0
 10
10.6775469372
 20
11.0098949426
 30
0.0
 10
10.7007687862
 20
11.0117296922
 30
0.0
 10
10.7242861884
 20
11.0132925327
 30
0.0
 10
10.7480516018
 20
11.0145803112
 30
0.0
 10
10.7800888743
 20
11.0159305106
 30
0.0
 10
10.8204011522
 20
11.0169112375
 30
0.0
 10
10.8688626782
 20
11.0169623716
 30
0.0
 10
10.9091977339
 20
11.0160668844
 30
0.0
 10
10.9412710428
 20
11.0147847413
 30
0.0
 10
10.9650764017
 20
11.01354729
 30
0.0
 10
10.9886424615
 20
11.0120342613
 30
0.0
 10
11.0119215804
 20
11.0102487037
 30
0.0
 10
11.0348666492
 20
11.0081942555
 30
0.0
 10
11.057431253
 20
11.0058750957
 30
0.0
 10
11.0795697486
 20
11.0032959434
 30
0.0
 10
11.1012373603
 20
11.0004620458
 30
0.0
 10
11.12239027
 20
10.9973791693
 30
0.0
 10
11.1429857093
 20
10.9940535864
 30
0.0
 10
11.162982051
 20
10.9904920685
 30
0.0
 10
11.1823388955
 20
10.9867018709
 30
0.0
 10
11.201017154
 20
10.9826907139
 30
0.0
 10
11.2189791304
 20
10.9784667684
 30
0.0
 10
11.2361886003
 20
10.9740386387
 30
0.0
 10
11.2526109021
 20
10.9694153401
 30
0.0
 10
11.2682129941
 20
10.9646062856
 30
0.0
 10
11.282963623
 20
10.9596212533
 30
0.0
 10
11.2968330885
 20
10.9544703634
 30
0.0
 10
11.3077887124
 20
10.9499851308
 30
0.0
 10
11.3160826998
 20
10.946313491
 30
0.0
 10
11.3219744325
 20
10.9435652359
 30
0.0
 10
11.3276258769
 20
10.940783399
 30
0.0
 10
11.3330342247
 20
10.9379694047
 30
0.0
 10
11.3381967498
 20
10.9351246257
 30
0.0
 10
11.3431108781
 20
10.9322505012
 30
0.0
 10
11.3477741616
 20
10.9293484685
 30
0.0
 10
11.3521842567
 20
10.9264199245
 30
0.0
 10
11.3563389987
 20
10.9234663624
 30
0.0
 10
11.3602362876
 20
10.9204891597
 30
0.0
 10
11.3638742148
 20
10.9174897956
 30
0.0
 10
11.3672509507
 20
10.9144696845
 30
0.0
 10
11.370364809
 20
10.9114302026
 30
0.0
 10
11.3732141801
 20
10.9083729007
 30
0.0
 10
11.3757977703
 20
10.9052987467
 30
0.0
 10
11.378828627
 20
10.9012566421
 30
0.0
 10
11.3814022802
 20
10.8971055461
 30
0.0
 10
11.383445683
 20
10.8928658343
 30
0.0
 10
11.38468028
 20
10.8897302403
 30
0.0
 10
11.3856417542
 20
10.886587032
 30
0.0
 10
11.3863292109
 20
10.8834377045
 30
0.0
 10
11.3867420103
 20
10.8802845318
 30
0.0
 10
11.3868339065
 20
10.8781779595
 30
0.0
 10
11.3868339112
 20
10.8771289177
 30
0.0
  0
SPLINE
  5
30F
100
AcDbEntity
  8
0
100
AcDbSpline
 62
7
  6
CONTINUOUS
 70
0
 71
3
 72
42
 73
38
 74
0
 42
0.0000001
 43
0.0000001
 44
0.0000000001
 40
0.0
 40
0.0
 40
0.0
 40
0.0
 40
0.0299419634
 40
0.0449235299
 40
0.0599142017
 40
0.0899287029
 40
0.1200139772
 40
0.1350926626
 40
0.1501967046
 40
0.1804840506
 40
0.2108978877
 40
0.2414513551
 40
0.2721543675
 40
0.3030134354
 40
0.3340315696
 40
0.3652082675
 40
0.3965395775
 40
0.4280182343
 40
0.4596338596
 40
0.4913732188
 40
0.5232205284
 40
0.5551578047
 40
0.5871652463
 40
0.6192216448
 40
0.6513048151
 40
0.6833920402
 40
0.7154605222
 40
0.747487836
 40
0.7794523759
 40
0.8113337934
 40
0.8431134117
 40
0.8747746318
 40
0.9063032512
 40
0.9376879208
 40
0.9533258
 40
0.9689252634
 40
1.0
 40
1.0
 40
1.0
 40
1.0
 10
10.8322635024
 20
8.4467756591
 30
0.0
 10
10.829152938
 20
8.443771103
 30
0.0
 10
10.8243037364
 20
8.4394463315
 30
0.0
 10
10.8175125388
 20
8.4340802319
 30
0.0
 10
10.8105050757
 20
8.4289811575
 30
0.0
 10
10.8013614886
 20
8.4231257683
 30
0.0
 10
10.7917733347
 20
8.4180039972
 30
0.0
 10
10.7838655926
 20
8.4143603643
 30
0.0
 10
10.7757944997
 20
8.4110175188
 30
0.0
 10
10.7654396536
 20
8.4074230151
 30
0.0
 10
10.7526788753
 20
8.4040730279
 30
0.0
 10
10.7396396548
 20
8.4016998198
 30
0.0
 10
10.7263942537
 20
8.4003164836
 30
0.0
 10
10.7130154316
 20
8.3999304016
 30
0.0
 10
10.6995768028
 20
8.4005435389
 30
0.0
 10
10.6861522289
 20
8.4021523535
 30
0.0
 10
10.672815472
 20
8.4047478476
 30
0.0
 10
10.6596397793
 20
8.4083156165
 30
0.0
 10
10.6466974899
 20
8.4128359344
 30
0.0
 10
10.6340596425
 20
8.4182838649
 30
0.0
 10
10.6217955912
 20
8.4246294007
 30
0.0
 10
10.60997263
 20
8.4318376283
 30
0.0
 10
10.5986556287
 20
8.4398689201
 30
0.0
 10
10.5879066813
 20
8.4486791506
 30
0.0
 10
10.5777847694
 20
8.4582199367
 30
0.0
 10
10.5683454424
 20
8.4684389015
 30
0.0
 10
10.5596405153
 20
8.4792799588
 30
0.0
 10
10.5517177878
 20
8.4906836184
 30
0.0
 10
10.5446207837
 20
8.5025873055
 30
0.0
 10
10.5383885138
 20
8.5149257139
 30
0.0
 10
10.5330552643
 20
8.5276311087
 30
0.0
 10
10.5286503986
 20
8.5406338821
 30
0.0
 10
10.5251982506
 20
8.5538622327
 30
0.0
 10
10.5231286111
 20
8.5650283947
 30
0.0
 10
10.5219676047
 20
8.5740002705
 30
0.0
 10
10.521139023
 20
8.5829635609
 30
0.0
 10
10.5208881364
 20
8.5897083766
 30
0.0
 10
10.5208881364
 20
8.5941966824
 30
0.0
  0
SPLINE
  5
310
100
AcDbEntity
  8
0
100
AcDbSpline
 62
7
  6
CONTINUOUS
 70
0
 71
3
 72
41
 73
37
 74
0
 42
0.0000001
 43
0.0000001
 44
0.0000000001
 40
0.0
 40
0.0
 40
0.0
 40
0.0
 40
0.0299421722
 40
0.0599087187
 40
0.0899234222
 40
0.1200088965
 40
0.1501860486
 40
0.1804735921
 40
0.2108876267
 40
0.2414412921
 40
0.2721445039
 40
0.3030037728
 40
0.3340221097
 40
0.3651990124
 40
0.3965305293
 40
0.4280093954
 40
0.4596252325
 40
0.4913648061
 40
0.523212333
 40
0.5551498293
 40
0.5871574933
 40
0.6192141165
 40
0.6512975132
 40
0.6833849656
 40
0.7154536753
 40
0.7314763803
 40
0.7474860474
 40
0.7794508144
 40
0.8113324582
 40
0.8431123019
 40
0.8747737477
 40
0.9063025846
 40
0.9376874998
 40
0.9533255315
 40
0.9689249968
 40
1.0
 40
1.0
 40
1.0
 40
1.0
 10
11.2762591241
 20
7.0966426592
 30
0.0
 10
11.272625989
 20
7.0931333011
 30
0.0
 10
11.2650740643
 20
7.0863977723
 30
0.0
 10
11.2529746708
 20
7.0772218213
 30
0.0
 10
11.2401656458
 20
7.0690191039
 30
0.0
 10
11.2267185525
 20
7.0618356436
 30
0.0
 10
11.2127073242
 20
7.0557106833
 30
0.0
 10
11.1982092866
 20
7.0506778932
 30
0.0
 10
11.1833043328
 20
7.0467648102
 30
0.0
 10
11.1680745785
 20
7.0439927993
 30
0.0
 10
11.1526038764
 20
7.0423769192
 30
0.0
 10
11.1369773595
 20
7.041925858
 30
0.0
 10
11.1212809707
 20
7.0426418928
 30
0.0
 10
11.1056009924
 20
7.0445208911
 30
0.0
 10
11.090023577
 20
7.0475523418
 30
0.0
 10
11.074634279
 20
7.0517194206
 30
0.0
 10
11.0595175912
 20
7.0569990875
 30
0.0
 10
11.0447564881
 20
7.0633622173
 30
0.0
 10
11.0304319761
 20
7.070773762
 30
0.0
 10
11.0166226572
 20
7.0791929412
 30
0.0
 10
11.0034042958
 20
7.0885734778
 30
0.0
 10
10.9908494397
 20
7.0988638047
 30
0.0
 10
10.9790269061
 20
7.1100075185
 30
0.0
 10
10.9680018604
 20
7.1219430405
 30
0.0
 10
10.9595257256
 20
7.132499198
 30
0.0
 10
10.953201737
 20
7.1412734845
 30
0.0
 10
10.9471959398
 20
7.1502474532
 30
0.0
 10
10.9402909621
 20
7.1618288854
 30
0.0
 10
10.9330117805
 20
7.1762399498
 30
0.0
 10
10.9267824457
 20
7.1910799752
 30
0.0
 10
10.9216375304
 20
7.2062672586
 30
0.0
 10
10.9176053768
 20
7.221718045
 30
0.0
 10
10.9151880202
 20
7.2347601895
 30
0.0
 10
10.913831946
 20
7.2452393795
 30
0.0
 10
10.9128641545
 20
7.2557085469
 30
0.0
 10
10.9125711172
 20
7.2635865173
 30
0.0
 10
10.9125711172
 20
7.2688288904
 30
0.0
  0
SPLINE
  5
311
100
AcDbEntity
  8
0
100
AcDbSpline
 62
7
  6
CONTINUOUS
 70
0
 71
3
 72
15
 73
11
 74
0
 42
0.0000001
 43
0.0000001
 44
0.0000000001
 40
0.0
 40
0.0
 40
0.0
 40
0.0
 40
0.1445224294
 40
0.2824783701
 40
0.4142496275
 40
0.5403111124
 40
0.6612248667
 40
0.7776390074
 40
0.8902894506
 40
1.0
 40
1.0
 40
1.0
 40
1.0
 10
10.3252339381
 20
10.8978468413
 30
0.0
 10
10.3240537207
 20
10.8967068387
 30
0.0
 10
10.3218026667
 20
10.894419739
 30
0.0
 10
10.3186972852
 20
10.8908837637
 30
0.0
 10
10.3159462183
 20
10.8873264973
 30
0.0
 10
10.3135516876
 20
10.8837502367
 30
0.0
 10
10.3115156721
 20
10.8801569803
 30
0.0
 10
10.3098399661
 20
10.8765487734
 30
0.0
 10
10.3085265647
 20
10.8729283834
 30
0.0
 10
10.3078866584
 20
10.8704815583
 30
0.0
 10
10.3076305353
 20
10.8692625342
 30
0.0
  0
SPLINE
  5
312
100
AcDbEntity
  8
0
100
AcDbSpline
 62
7
  6
CONTINUOUS
 70
0
 71
3
 72
83
 73
79
 74
0
 42
0.0000001
 43
0.0000001
 44
0.0000000001
 40
0.0
 40
0.0
 40
0.0
 40
0.0
 40
0.0039299241
 40
0.0080184624
 40
0.012269587
 40
0.0166866932
 40
0.0212726784
 40
0.0260298589
 40
0.030959872
 40
0.0360638926
 40
0.0413426546
 40
0.0467964943
 40
0.0524254347
 40
0.0582291118
 40
0.0703574449
 40
0.0831738641
 40
0.0966664754
 40
0.1108201985
 40
0.125617166
 40
0.1410370332
 40
0.157057254
 40
0.1736533048
 40
0.1907988711
 40
0.2084660075
 40
0.2266252741
 40
0.2452458787
 40
0.2642958018
 40
0.2837419086
 40
0.303550054
 40
0.3236851799
 40
0.3441114229
 40
0.3647922139
 40
0.3856903714
 40
0.4067681935
 40
0.4493092609
 40
0.492107648
 40
0.5348524312
 40
0.5772331893
 40
0.5981912813
 40
0.6189436793
 40
0.6394530285
 40
0.6596825605
 40
0.6795961848
 40
0.6991585838
 40
0.7183353123
 40
0.7370929084
 40
0.7553989965
 40
0.7732223938
 40
0.7905332283
 40
0.8073030672
 40
0.8235050706
 40
0.8391141426
 40
0.8541071049
 40
0.8684629045
 40
0.8821628629
 40
0.8951909926
 40
0.9075343635
 40
0.9191835678
 40
0.9247463325
 40
0.9301339799
 40
0.9353466066
 40
0.9403847339
 40
0.9452492416
 40
0.9499414993
 40
0.9544633856
 40
0.9588173186
 40
0.9630064074
 40
0.9670344304
 40
0.9709060042
 40
0.9746266481
 40
0.9782028651
 40
0.9816423217
 40
0.984953872
 40
0.9881477256
 40
0.991235497
 40
0.9942302347
 40
0.9971464537
 40
1.0
 40
1.0
 40
1.0
 40
1.0
 10
10.3252339381
 20
10.8978468413
 30
0.0
 10
10.3262826709
 20
10.8988598394
 30
0.0
 10
10.3284691483
 20
10.9008788401
 30
0.0
 10
10.3319372842
 20
10.9038292757
 30
0.0
 10
10.3356558799
 20
10.9067590421
 30
0.0
 10
10.3396229692
 20
10.9096665928
 30
0.0
 10
10.3438366597
 20
10.9125506454
 30
0.0
 10
10.3482949915
 20
10.9154098251
 30
0.0
 10
10.3529958138
 20
10.9182428403
 30
0.0
 10
10.3579368783
 20
10.9210482882
 30
0.0
 10
10.3631157983
 20
10.9238248213
 30
0.0
 10
10.368530066
 20
10.9265711279
 30
0.0
 10
10.3741770978
 20
10.9292858617
 30
0.0
 10
10.3821302776
 20
10.9329150496
 30
0.0
 10
10.3926428708
 20
10.9373530762
 30
0.0
 10
10.4059617482
 20
10.9424570311
 30
0.0
 10
10.4201377492
 20
10.947404675
 30
0.0
 10
10.4351434178
 20
10.9521863478
 30
0.0
 10
10.4509498496
 20
10.9567926989
 30
0.0
 10
10.4675264497
 20
10.9612147147
 30
0.0
 10
10.4848411002
 20
10.9654437339
 30
0.0
 10
10.5028602107
 20
10.9694714684
 30
0.0
 10
10.5215487978
 20
10.9732900228
 30
0.0
 10
10.5408705516
 20
10.976891909
 30
0.0
 10
10.5607879079
 20
10.9802700739
 30
0.0
 10
10.5812621285
 20
10.9834179018
 30
0.0
 10
10.6022533836
 20
10.9863292275
 30
0.0
 10
10.6237208306
 20
10.9889983484
 30
0.0
 10
10.6456226914
 20
10.9914200347
 30
0.0
 10
10.6679163324
 20
10.9935895495
 30
0.0
 10
10.6905583554
 20
10.9955026512
 30
0.0
 10
10.7135046698
 20
10.9971555898
 30
0.0
 10
10.736710638
 20
10.998545154
 30
0.0
 10
10.7680327985
 20
11.0000475491
 30
0.0
 10
10.8075014615
 20
11.001245915
 30
0.0
 10
10.8550260672
 20
11.0016006577
 30
0.0
 10
10.902486958
 20
11.0008734015
 30
0.0
 10
10.9418211669
 20
10.9993651782
 30
0.0
 10
10.9729723056
 20
10.9976160828
 30
0.0
 10
10.9960041991
 20
10.9960447119
 30
0.0
 10
11.018745596
 20
10.9942121398
 30
0.0
 10
11.0411522592
 20
10.9921219294
 30
0.0
 10
11.06318056
 20
10.989778178
 30
0.0
 10
11.0847876199
 20
10.9871854701
 30
0.0
 10
11.1059313826
 20
10.9843488767
 30
0.0
 10
11.1265707043
 20
10.981273955
 30
0.0
 10
11.1466654335
 20
10.9779667298
 30
0.0
 10
11.1661764877
 20
10.9744336797
 30
0.0
 10
11.1850659292
 20
10.970681726
 30
0.0
 10
11.2032970456
 20
10.9667182158
 30
0.0
 10
11.2208344307
 20
10.9625509201
 30
0.0
 10
11.2376440572
 20
10.958188009
 30
0.0
 10
11.2536933417
 20
10.9536380315
 30
0.0
 10
11.2689512227
 20
10.9489098968
 30
0.0
 10
11.2833882066
 20
10.9440128489
 30
0.0
 10
11.2969765494
 20
10.938956444
 30
0.0
 10
11.3096899722
 20
10.9337505389
 30
0.0
 10
11.3196834515
 20
10.9292292218
 30
0.0
 10
11.3272120941
 20
10.9255365515
 30
0.0
 10
11.3325377038
 20
10.9227786584
 30
0.0
 10
11.3376269785
 20
10.9199910238
 30
0.0
 10
11.3424774981
 20
10.9171750143
 30
0.0
 10
11.3470869109
 20
10.9143319422
 30
0.0
 10
11.3514530101
 20
10.9114631748
 30
0.0
 10
11.3555737161
 20
10.9085700912
 30
0.0
 10
11.3594470252
 20
10.9056540003
 30
0.0
 10
11.3630711207
 20
10.9027163194
 30
0.0
 10
11.3664442344
 20
10.8997583526
 30
0.0
 10
11.3695647505
 20
10.8967814614
 30
0.0
 10
11.3724311723
 20
10.893787
 30
0.0
 10
11.375042033
 20
10.8907762423
 30
0.0
 10
11.3773960681
 20
10.8877505638
 30
0.0
 10
11.3794919811
 20
10.8847112318
 30
0.0
 10
11.3813286147
 20
10.8816595835
 30
0.0
 10
11.3829048825
 20
10.8785970073
 30
0.0
 10
11.3842196774
 20
10.8755247949
 30
0.0
 10
11.3852720608
 20
10.8724447663
 30
0.0
 10
11.3858029414
 20
10.8703680993
 30
0.0
 10
11.3860225465
 20
10.8693324009
 30
0.0
  0
SPLINE
  5
313
100
AcDbEntity
  8
0
100
AcDbSpline
 62
7
  6
CONTINUOUS
 70
0
 71
3
 72
91
 73
87
 74
0
 42
0.0000001
 43
0.0000001
 44
0.0000000001
 40
0.0
 40
0.0
 40
0.0
 40
0.0
 40
0.0041108433
 40
0.0083997117
 40
0.0128712861
 40
0.0175295285
 40
0.0223777456
 40
0.0274184636
 40
0.0326533994
 40
0.0380837257
 40
0.0437100432
 40
0.0495325235
 40
0.0555508843
 40
0.0617644343
 40
0.0681721678
 40
0.0747726975
 40
0.0885448748
 40
0.1030650677
 40
0.1183130495
 40
0.1342652832
 40
0.1508953078
 40
0.1681740548
 40
0.1860701116
 40
0.2045499476
 40
0.2235781224
 40
0.2431174679
 40
0.2631292547
 40
0.2835733463
 40
0.3044083459
 40
0.3255917343
 40
0.3470800097
 40
0.3688288232
 40
0.3907931083
 40
0.4129272093
 40
0.4351850088
 40
0.4798848405
 40
0.5245200734
 40
0.5466972937
 40
0.5687188897
 40
0.5905390474
 40
0.6121125042
 40
0.6333946769
 40
0.6543417905
 40
0.6749110105
 40
0.6950605771
 40
0.7147499448
 40
0.7339399319
 40
0.7525928735
 40
0.7706727809
 40
0.7881455175
 40
0.804978993
 40
0.821143383
 40
0.8366113856
 40
0.8513585261
 40
0.865363514
 40
0.8786086923
 40
0.8849422554
 40
0.8910812137
 40
0.8970246647
 40
0.9027720968
 40
0.9083233568
 40
0.9136788036
 40
0.9188392363
 40
0.9238060589
 40
0.9285812845
 40
0.9331676243
 40
0.9375686272
 40
0.9417886945
 40
0.9458333125
 40
0.9497090806
 40
0.9534239306
 40
0.9569872502
 40
0.9604100136
 40
0.9637049718
 40
0.9668866724
 40
0.9699715685
 40
0.9729779064
 40
0.9759255815
 40
0.9788358299
 40
0.9817307897
 40
0.9846329858
 40
0.9875647615
 40
0.9905477308
 40
0.9936023166
 40
0.996747386
 40
1.0
 40
1.0
 40
1.0
 40
1.0
 10
10.3377909746
 20
10.8969760078
 30
0.0
 10
10.3388900971
 20
10.8980376787
 30
0.0
 10
10.3411885618
 20
10.9001530511
 30
0.0
 10
10.3448473066
 20
10.9032383755
 30
0.0
 10
10.3487867797
 20
10.9063002236
 30
0.0
 10
10.3530045933
 20
10.9093367893
 30
0.0
 10
10.3574984674
 20
10.9123465181
 30
0.0
 10
10.3622659783
 20
10.9153277809
 30
0.0
 10
10.3673044867
 20
10.9182790138
 30
0.0
 10
10.3726112316
 20
10.9211985136
 30
0.0
 10
10.3781832501
 20
10.9240847252
 30
0.0
 10
10.3840174721
 20
10.9269360191
 30
0.0
 10
10.390110661
 20
10.9297508208
 30
0.0
 10
10.3964594253
 20
10.9325275788
 30
0.0
 10
10.4030602536
 20
10.9352647223
 30
0.0
 10
10.412324099
 20
10.9389111349
 30
0.0
 10
10.4245150484
 20
10.9433484597
 30
0.0
 10
10.4398880114
 20
10.9484189913
 30
0.0
 10
10.4561709983
 20
10.9532965125
 30
0.0
 10
10.4733276795
 20
10.9579700452
 30
0.0
 10
10.4913199273
 20
10.9624290509
 30
0.0
 10
10.5101076266
 20
10.9666634712
 30
0.0
 10
10.5296488566
 20
10.9706637525
 30
0.0
 10
10.5498999697
 20
10.9744208746
 30
0.0
 10
10.5708157055
 20
10.9779263659
 30
0.0
 10
10.5923492975
 20
10.9811723234
 30
0.0
 10
10.6144525824
 20
10.9841514306
 30
0.0
 10
10.6370761096
 20
10.9868569737
 30
0.0
 10
10.6601692527
 20
10.989282855
 30
0.0
 10
10.6836803246
 20
10.9914236124
 30
0.0
 10
10.7075566943
 20
10.9932744266
 30
0.0
 10
10.7317449131
 20
10.994831133
 30
0.0
 10
10.756190817
 20
10.9960902202
 30
0.0
 10
10.7808397153
 20
10.9970488801
 30
0.0
 10
10.8139472873
 20
10.9979247129
 30
0.0
 10
10.8554332668
 20
10.9982558457
 30
0.0
 10
10.8968850472
 20
10.9975745555
 30
0.0
 10
10.9298881747
 20
10.996418294
 30
0.0
 10
10.9544026202
 20
10.9952516508
 30
0.0
 10
10.9786761753
 20
10.9937864653
 30
0.0
 10
11.0026545354
 20
10.9920260103
 30
0.0
 10
11.0262840098
 20
10.9899742578
 30
0.0
 10
11.0495117073
 20
10.9876358262
 30
0.0
 10
11.0722856375
 20
10.9850159824
 30
0.0
 10
11.0945548326
 20
10.9821206269
 30
0.0
 10
11.1162694636
 20
10.978956281
 30
0.0
 10
11.1373809559
 20
10.9755300768
 30
0.0
 10
11.1578421022
 20
10.9718497404
 30
0.0
 10
11.1776071693
 20
10.9679235712
 30
0.0
 10
11.1966320047
 20
10.9637604244
 30
0.0
 10
11.2148741386
 20
10.9593696906
 30
0.0
 10
11.2322928959
 20
10.954761272
 30
0.0
 10
11.2488494737
 20
10.9499455585
 30
0.0
 10
11.2645071401
 20
10.9449334014
 30
0.0
 10
11.2792310043
 20
10.9397360778
 30
0.0
 10
11.2908631535
 20
10.9351951965
 30
0.0
 10
11.2996680217
 20
10.9314695289
 30
0.0
 10
11.3059193963
 20
10.9286780165
 30
0.0
 10
11.3119138659
 20
10.9258490531
 30
0.0
 10
11.3176481246
 20
10.9229842239
 30
0.0
 10
11.3231189708
 20
10.9200850671
 30
0.0
 10
11.3283234018
 20
10.9171532491
 30
0.0
 10
11.333258522
 20
10.9141903291
 30
0.0
 10
11.3379216236
 20
10.9111979616
 30
0.0
 10
11.3423101437
 20
10.9081777721
 30
0.0
 10
11.3464216513
 20
10.9051313553
 30
0.0
 10
11.3502539256
 20
10.9020603929
 30
0.0
 10
11.3538048106
 20
10.8989664266
 30
0.0
 10
11.3570723921
 20
10.8958511262
 30
0.0
 10
11.3600548085
 20
10.8927160287
 30
0.0
 10
11.3627503665
 20
10.8895627187
 30
0.0
 10
11.3651574978
 20
10.8863927686
 30
0.0
 10
11.3672746413
 20
10.8832076858
 30
0.0
 10
11.3691004594
 20
10.8800091052
 30
0.0
 10
11.3706335002
 20
10.8767985929
 30
0.0
 10
11.371872563
 20
10.8735779207
 30
0.0
 10
11.3728164297
 20
10.8703489321
 30
0.0
 10
11.3734640744
 20
10.8671136789
 30
0.0
 10
11.3738147919
 20
10.8638743978
 30
0.0
 10
11.3738680201
 20
10.8606334563
 30
0.0
 10
11.3736238216
 20
10.8573933008
 30
0.0
 10
11.3730823968
 20
10.8541563423
 30
0.0
 10
11.3722444916
 20
10.850924873
 30
0.0
 10
11.3711109866
 20
10.8477009558
 30
0.0
 10
11.3696830916
 20
10.8444867405
 30
0.0
 10
11.3685562496
 20
10.8423896402
 30
0.0
 10
11.367947778
 20
10.8413447937
 30
0.0
  0
SPLINE
  5
314
100
AcDbEntity
  8
0
100
AcDbSpline
 62
7
  6
CONTINUOUS
 70
0
 71
3
 72
84
 73
80
 74
0
 42
0.0000001
 43
0.0000001
 44
0.0000000001
 40
0.0
 40
0.0
 40
0.0
 40
0.0
 40
0.0039801479
 40
0.0081240898
 40
0.0124359806
 40
0.0169193565
 40
0.02157722
 40
0.0264119554
 40
0.0314252266
 40
0.0366182096
 40
0.0419916129
 40
0.0475457265
 40
0.0532805091
 40
0.0591955113
 40
0.0715625255
 40
0.0846382074
 40
0.0984095264
 40
0.1128601077
 40
0.1279706534
 40
0.1437192678
 40
0.1600817473
 40
0.1770318164
 40
0.1945413254
 40
0.2125804203
 40
0.2311176869
 40
0.2501203017
 40
0.2695541654
 40
0.2893840238
 40
0.309573581
 40
0.3300856047
 40
0.3508820407
 40
0.3719241217
 40
0.393172469
 40
0.4145871928
 40
0.4577535096
 40
0.5010983204
 40
0.5442943644
 40
0.5870158302
 40
0.6080983639
 40
0.6289423673
 40
0.6495089527
 40
0.6697599337
 40
0.6896579253
 40
0.7091664503
 40
0.7282500485
 40
0.7468744006
 40
0.7650064498
 40
0.7826145224
 40
0.7996684649
 40
0.8161397946
 40
0.8320018799
 40
0.8472301349
 40
0.8618022338
 40
0.875698377
 40
0.8889016174
 40
0.9013982771
 40
0.9131784643
 40
0.9187983181
 40
0.9242374175
 40
0.929495943
 40
0.9345744528
 40
0.9394739389
 40
0.944195934
 40
0.9487424702
 40
0.9531162547
 40
0.9573206718
 40
0.9613598866
 40
0.9652389921
 40
0.9689640276
 40
0.9725421936
 40
0.9759819028
 40
0.9792929158
 40
0.9824864781
 40
0.9855753294
 40
0.9885738007
 40
0.9914977247
 40
0.9943643259
 40
0.9971920059
 40
1.0
 40
1.0
 40
1.0
 40
1.0
 10
10.3479331963
 20
10.8787057989
 30
0.0
 10
10.3489561482
 20
10.8796938947
 30
0.0
 10
10.3510906068
 20
10.8816631066
 30
0.0
 10
10.3544794825
 20
10.8845393037
 30
0.0
 10
10.3581172243
 20
10.887394895
 30
0.0
 10
10.362001835
 20
10.8902283168
 30
0.0
 10
10.3661313908
 20
10.8930382724
 30
0.0
 10
10.3705038961
 20
10.8958233699
 30
0.0
 10
10.3751171596
 20
10.8985823033
 30
0.0
 10
10.3799688897
 20
10.9013136514
 30
0.0
 10
10.3850566509
 20
10.9040160523
 30
0.0
 10
10.3903778846
 20
10.9066881786
 30
0.0
 10
10.395929951
 20
10.9093286685
 30
0.0
 10
10.4037532346
 20
10.9128578716
 30
0.0
 10
10.414098055
 20
10.9171706182
 30
0.0
 10
10.4272077979
 20
10.9221251425
 30
0.0
 10
10.4411653067
 20
10.9269228199
 30
0.0
 10
10.4559424902
 20
10.931553913
 30
0.0
 10
10.4715097641
 20
10.9360090057
 30
0.0
 10
10.4878358128
 20
10.940279035
 30
0.0
 10
10.5048877607
 20
10.9443553069
 30
0.0
 10
10.5226312272
 20
10.9482295176
 30
0.0
 10
10.5410304114
 20
10.9518937736
 30
0.0
 10
10.5600481628
 20
10.9553406062
 30
0.0
 10
10.5796460577
 20
10.9585629995
 30
0.0
 10
10.5997844838
 20
10.9615543953
 30
0.0
 10
10.6204227277
 20
10.9643087043
 30
0.0
 10
10.6415190585
 20
10.9668203199
 30
0.0
 10
10.663030811
 20
10.969084127
 30
0.0
 10
10.6849144695
 20
10.9710955229
 30
0.0
 10
10.707125764
 20
10.972850421
 30
0.0
 10
10.7296197473
 20
10.9743452464
 30
0.0
 10
10.7523509464
 20
10.9755769824
 30
0.0
 10
10.782994039
 20
10.9768684179
 30
0.0
 10
10.8215519867
 20
10.9778064405
 30
0.0
 10
10.8679047266
 20
10.9778553779
 30
0.0
 10
10.9140871787
 20
10.9768299071
 30
0.0
 10
10.9522857781
 20
10.9750796635
 30
0.0
 10
10.9824718139
 20
10.9731416735
 30
0.0
 10
11.004737891
 20
10.9714337949
 30
0.0
 10
11.0266844264
 20
10.9694687471
 30
0.0
 10
11.04826706
 20
10.967250503
 30
0.0
 10
11.0694421258
 20
10.9647835828
 30
0.0
 10
11.0901667972
 20
10.9620730032
 30
0.0
 10
11.1103991612
 20
10.9591242762
 30
0.0
 10
11.1300983126
 20
10.9559434046
 30
0.0
 10
11.1492244386
 20
10.9525368687
 30
0.0
 10
11.1677388978
 20
10.9489116059
 30
0.0
 10
11.1856042987
 20
10.9450750001
 30
0.0
 10
11.202784581
 20
10.941034862
 30
0.0
 10
11.2192451005
 20
10.936799422
 30
0.0
 10
11.2349527054
 20
10.9323773111
 30
0.0
 10
11.2498758143
 20
10.9277775306
 30
0.0
 10
11.263984459
 20
10.923009435
 30
0.0
 10
11.2772504655
 20
10.9180826852
 30
0.0
 10
11.28964718
 20
10.9130072642
 30
0.0
 10
11.2993802669
 20
10.9085957606
 30
0.0
 10
11.3067030044
 20
10.9049913604
 30
0.0
 10
11.3118759695
 20
10.902299784
 30
0.0
 10
11.3168138122
 20
10.8995788112
 30
0.0
 10
11.3215140726
 20
10.8968297692
 30
0.0
 10
11.3259743856
 20
10.8940539996
 30
0.0
 10
11.3301925563
 20
10.8912529271
 30
0.0
 10
11.334166455
 20
10.8884278685
 30
0.0
 10
11.3378941269
 20
10.8855802381
 30
0.0
 10
11.3413737189
 20
10.8827114024
 30
0.0
 10
11.3446034703
 20
10.8798226941
 30
0.0
 10
11.3475818078
 20
10.8769155264
 30
0.0
 10
11.3503071692
 20
10.8739911818
 30
0.0
 10
11.3527781807
 20
10.8710510368
 30
0.0
 10
11.3549935194
 20
10.8680964077
 30
0.0
 10
11.3569519019
 20
10.8651285944
 30
0.0
 10
11.358652225
 20
10.8621489889
 30
0.0
 10
11.3600932909
 20
10.8591589231
 30
0.0
 10
11.3612741132
 20
10.8561598818
 30
0.0
 10
11.3621937194
 20
10.85315343
 30
0.0
 10
11.3628512217
 20
10.8501411594
 30
0.0
 10
11.3632460538
 20
10.8471252057
 30
0.0
 10
11.3633339085
 20
10.8451103061
 30
0.0
 10
11.3633339041
 20
10.8441069166
 30
0.0
  0
SPLINE
  5
315
100
AcDbEntity
  8
0
100
AcDbSpline
 62
7
  6
CONTINUOUS
 70
0
 71
3
 72
46
 73
42
 74
0
 42
0.0000001
 43
0.0000001
 44
0.0000000001
 40
0.0
 40
0.0
 40
0.0
 40
0.0
 40
0.0113607559
 40
0.0230952133
 40
0.0351968652
 40
0.0476586317
 40
0.0604727428
 40
0.0736309404
 40
0.1009431552
 40
0.1295197063
 40
0.159277429
 40
0.1901270832
 40
0.2219740682
 40
0.2547190654
 40
0.288258633
 40
0.3224857661
 40
0.3572904339
 40
0.3925601014
 40
0.4281802398
 40
0.4640348305
 40
0.5000068638
 40
0.5359788351
 40
0.5718332403
 40
0.6074530704
 40
0.6427223082
 40
0.6775264272
 40
0.7117528951
 40
0.7452916841
 40
0.778035793
 40
0.8098817837
 40
0.8407303423
 40
0.8704868726
 40
0.8990621404
 40
0.9128808365
 40
0.9263735907
 40
0.9395310574
 40
0.9523444539
 40
0.9648054544
 40
0.9769063586
 40
0.9886400219
 40
1.0
 40
1.0
 40
1.0
 40
1.0
 10
10.4276353292
 20
10.7890843532
 30
0.0
 10
10.4306618959
 20
10.7901726269
 30
0.0
 10
10.4368370407
 20
10.7923229573
 30
0.0
 10
10.4463069166
 20
10.7954246335
 30
0.0
 10
10.4561272746
 20
10.7984526209
 30
0.0
 10
10.4662895008
 20
10.8014041784
 30
0.0
 10
10.4767847462
 20
10.8042768025
 30
0.0
 10
10.4913920448
 20
10.8080450835
 30
0.0
 10
10.5104213507
 20
10.8125272599
 30
0.0
 10
10.5341575988
 20
10.8174883024
 30
0.0
 10
10.558987296
 20
10.8220787807
 30
0.0
 10
10.5848236467
 20
10.8262824787
 30
0.0
 10
10.6115764767
 20
10.8300845232
 30
0.0
 10
10.6391522918
 20
10.8334714773
 30
0.0
 10
10.6674546952
 20
10.8364313747
 30
0.0
 10
10.6963847131
 20
10.838953763
 30
0.0
 10
10.7258411542
 20
10.8410297383
 30
0.0
 10
10.7557209679
 20
10.8426519745
 30
0.0
 10
10.7859196099
 20
10.8438147486
 30
0.0
 10
10.8163314116
 20
10.8445139589
 30
0.0
 10
10.846849953
 20
10.8447471393
 30
0.0
 10
10.8773684381
 20
10.8445134677
 30
0.0
 10
10.9077800712
 20
10.8438137681
 30
0.0
 10
10.9379784328
 20
10.8426505083
 30
0.0
 10
10.9678578557
 20
10.8410277917
 30
0.0
 10
10.997313797
 20
10.8389513433
 30
0.0
 10
11.0262432085
 20
10.8364284907
 30
0.0
 10
11.0545448999
 20
10.8334681395
 30
0.0
 10
11.0821199043
 20
10.8300807442
 30
0.0
 10
11.1088718129
 20
10.8262782697
 30
0.0
 10
11.1347071875
 20
10.8220741646
 30
0.0
 10
11.159535669
 20
10.8174832671
 30
0.0
 10
11.1795318411
 20
10.813303533
 30
0.0
 10
11.1949542474
 20
10.8097694199
 30
0.0
 10
11.2060870748
 20
10.807062102
 30
0.0
 10
11.2169054811
 20
10.8042708277
 30
0.0
 10
11.2274000305
 20
10.801398075
 30
0.0
 10
11.237561547
 20
10.7984463254
 30
0.0
 10
11.24738118
 20
10.7954182061
 30
0.0
 10
11.256850307
 20
10.7923163525
 30
0.0
 10
11.2630249515
 20
10.7901659383
 30
0.0
 10
11.2660512643
 20
10.7890776093
 30
0.0
  0
SPLINE
  5
316
100
AcDbEntity
  8
0
100
AcDbSpline
 62
7
  6
CONTINUOUS
 70
0
 71
3
 72
39
 73
35
 74
0
 42
0.0000001
 43
0.0000001
 44
0.0000000001
 40
0.0
 40
0.0
 40
0.0
 40
0.0
 40
0.0253786173
 40
0.0518402443
 40
0.0793309402
 40
0.1077927277
 40
0.1371640029
 40
0.1673799013
 40
0.1983726295
 40
0.2300717732
 40
0.2624045874
 40
0.2952962788
 40
0.3286702757
 40
0.3624484906
 40
0.3965515779
 40
0.4308991892
 40
0.4654102247
 40
0.5000030842
 40
0.5345959174
 40
0.5691068747
 40
0.603454357
 40
0.6375572652
 40
0.6713352513
 40
0.70470897
 40
0.7376003337
 40
0.7699327704
 40
0.8016314878
 40
0.8326237455
 40
0.8628391321
 40
0.8922098555
 40
0.9206710525
 40
0.9481611204
 40
0.9746220828
 40
1.0
 40
1.0
 40
1.0
 40
1.0
 10
10.5088480436
 20
10.7681905775
 30
0.0
 10
10.5144173425
 20
10.7696922288
 30
0.0
 10
10.525833618
 20
10.772612728
 30
0.0
 10
10.5434019692
 20
10.7766762026
 30
0.0
 10
10.5617391017
 20
10.7805064256
 30
0.0
 10
10.5807985142
 20
10.7840935765
 30
0.0
 10
10.6005320454
 20
10.7874284965
 30
0.0
 10
10.6208897421
 20
10.7905026627
 30
0.0
 10
10.6418200648
 20
10.7933082237
 30
0.0
 10
10.6632700013
 20
10.7958380155
 30
0.0
 10
10.6851852102
 20
10.7980855819
 30
0.0
 10
10.7075101603
 20
10.8000451883
 30
0.0
 10
10.7301882751
 20
10.8017118359
 30
0.0
 10
10.7531620773
 20
10.8030812736
 30
0.0
 10
10.7763733354
 20
10.804150009
 30
0.0
 10
10.7997632127
 20
10.8049153165
 30
0.0
 10
10.823272417
 20
10.8053752444
 30
0.0
 10
10.8468413514
 20
10.8055286188
 30
0.0
 10
10.8704102668
 20
10.8053750493
 30
0.0
 10
10.8939194143
 20
10.8049149282
 30
0.0
 10
10.9173091975
 20
10.8041494291
 30
0.0
 10
10.9405203247
 20
10.803080504
 30
0.0
 10
10.9634939594
 20
10.8017108787
 30
0.0
 10
10.9861718704
 20
10.8000440457
 30
0.0
 10
11.0084965801
 20
10.7980842562
 30
0.0
 10
11.0304115119
 20
10.795836509
 30
0.0
 10
11.0518611359
 20
10.7933065393
 30
0.0
 10
11.0727911125
 20
10.7905008059
 30
0.0
 10
11.0931484314
 20
10.7874264729
 30
0.0
 10
11.1128815542
 20
10.7840913918
 30
0.0
 10
11.1319405281
 20
10.7805040857
 30
0.0
 10
11.1502771921
 20
10.7766737126
 30
0.0
 10
11.167845046
 20
10.7726100968
 30
0.0
 10
11.1792609752
 20
10.7696894949
 30
0.0
 10
11.1848300972
 20
10.7681877992
 30
0.0
  0
SPLINE
  5
317
100
AcDbEntity
  8
0
100
AcDbSpline
 62
7
  6
CONTINUOUS
 70
0
 71
3
 72
32
 73
28
 74
0
 42
0.0000001
 43
0.0000001
 44
0.0000000001
 40
0.0
 40
0.0
 40
0.0
 40
0.0
 40
0.0165871034
 40
0.0341537877
 40
0.0527303508
 40
0.0723387813
 40
0.0929934762
 40
0.1147029556
 40
0.1374701532
 40
0.1612937248
 40
0.186168089
 40
0.2120844216
 40
0.2390305848
 40
0.2669918729
 40
0.2959509208
 40
0.3258882436
 40
0.3567821809
 40
0.3886092592
 40
0.4213442018
 40
0.4549601395
 40
0.5247185182
 40
0.5976428349
 40
0.6734701755
 40
0.7519205052
 40
0.8326991697
 40
0.9154982754
 40
1.0
 40
1.0
 40
1.0
 40
1.0
 10
9.7038175705
 20
6.5480480177
 30
0.0
 10
9.7049357257
 20
6.5470074575
 30
0.0
 10
9.7073073662
 20
6.5449385099
 30
0.0
 10
9.7111398718
 20
6.541953603
 30
0.0
 10
9.7153433539
 20
6.5390027441
 30
0.0
 10
9.7199134083
 20
6.5360890779
 30
0.0
 10
9.7248454016
 20
6.5332153541
 30
0.0
 10
9.7301343137
 20
6.530384585
 30
0.0
 10
9.7357746876
 20
6.5275995863
 30
0.0
 10
9.7417607263
 20
6.5248633144
 30
0.0
 10
9.7480862126
 20
6.5221785504
 30
0.0
 10
9.7547445901
 20
6.5195481606
 30
0.0
 10
9.761728915
 20
6.5169748524
 30
0.0
 10
9.769031908
 20
6.5144613737
 30
0.0
 10
9.7766459333
 20
6.5120103343
 30
0.0
 10
9.7845630283
 20
6.5096243448
 30
0.0
 10
9.7927749016
 20
6.5073058982
 30
0.0
 10
9.8012729454
 20
6.5050574592
 30
0.0
 10
9.8100482596
 20
6.5028813695
 30
0.0
 10
9.8222570333
 20
6.5000444779
 30
0.0
 10
9.838146822
 20
6.4967062717
 30
0.0
 10
9.8579392021
 20
6.4930709487
 30
0.0
 10
9.8786015569
 20
6.4897738939
 30
0.0
 10
9.9000471385
 20
6.4868291008
 30
0.0
 10
9.922186024
 20
6.484249107
 30
0.0
 10
9.9449252122
 20
6.4820448652
 30
0.0
 10
9.9602851902
 20
6.4808427732
 30
0.0
 10
9.9680479103
 20
6.4803044268
 30
0.0
  0
SPLINE
  5
318
100
AcDbEntity
  8
0
100
AcDbSpline
 62
7
  6
CONTINUOUS
 70
0
 71
3
 72
23
 73
19
 74
0
 42
0.0000001
 43
0.0000001
 44
0.0000000001
 40
0.0
 40
0.0
 40
0.0
 40
0.0
 40
0.0766410313
 40
0.1497824243
 40
0.219628975
 40
0.2864355725
 40
0.3505043558
 40
0.4121839028
 40
0.4718700401
 40
0.5300056718
 40
0.5870744821
 40
0.643590389
 40
0.7000838371
 40
0.7570860027
 40
0.8151126311
 40
0.8746504358
 40
0.9361459096
 40
1.0
 40
1.0
 40
1.0
 40
1.0
 10
10.3377909746
 20
10.8969760078
 30
0.0
 10
10.3366332828
 20
10.8958577634
 30
0.0
 10
10.3344257247
 20
10.8936142765
 30
0.0
 10
10.3313818541
 20
10.8901451742
 30
0.0
 10
10.3286874088
 20
10.8866550748
 30
0.0
 10
10.3263446022
 20
10.8831462644
 30
0.0
 10
10.3243553862
 20
10.8796206892
 30
0.0
 10
10.3227215757
 20
10.8760805002
 30
0.0
 10
10.3214450466
 20
10.8725279897
 30
0.0
 10
10.3205274629
 20
10.8689657732
 30
0.0
 10
10.3199701805
 20
10.8653967721
 30
0.0
 10
10.3197741767
 20
10.8618242061
 30
0.0
 10
10.3199397269
 20
10.8582514927
 30
0.0
 10
10.3204666416
 20
10.8546820639
 30
0.0
 10
10.321353898
 20
10.851119162
 30
0.0
 10
10.3226003156
 20
10.8475657089
 30
0.0
 10
10.3242039738
 20
10.8440245182
 30
0.0
 10
10.3254840133
 20
10.8417205185
 30
0.0
 10
10.3261781787
 20
10.8405731348
 30
0.0
  0
ELLIPSE
  5
319
100
AcDbEntity
  8
0
100
AcDbEllipse
 62
7
  6
CONTINUOUS
 10
11.1242602494
 20
9.0651079823
 30
0.0
 11
-0.1361465482
 21
0.1438383595
 31
0.0
 40
0.8456173891
 41
0.0
 42
6.2831853072
  0
ELLIPSE
  5
31A
100
AcDbEntity
  8
0
100
AcDbEllipse
 62
7
  6
CONTINUOUS
 10
10.7019992396
 20
7.7970050552
 30
0.0
 11
-0.0289557365
 21
0.2106979638
 31
0.0
 40
0.8113449983
 41
0.0
 42
6.2831853072
  0
ENDSEC
  0
SECTION
  2
OBJECTS
  0
DICTIONARY
  5
C
100
AcDbDictionary
280
0
281
1
  3
ACAD_GROUP
350
D
  3
ACAD_MLINESTYLE
350
17
  3
ACAD_LAYOUT
350
1A
  3
ACAD_PLOTSETTINGS
350
19
  3
ACAD_PLOTSTYLENAME
350
E
  3
ACAD_IMAGE_DICT
350
       31C
  3
ACAD_IMAGE_VARS
350
       31D
  3
ACAD_TABLESTYLE
350
       31E
  0
IMAGEDEF_REACTOR
  5
31B
100
AcDbRasterImageDefReactor
 90
2
330
272
  0
DICTIONARY
  5
D
102
{ACAD_REACTORS
330
C
102
}
100
AcDbDictionary
280
0
281
1
  0
ACDBDICTIONARYWDFLT
  5
E
102
{ACAD_REACTORS
330
C
102
}
100
AcDbDictionary
281
1
  3
Normal
350
F
100
AcDbDictionaryWithDefault
340
F
  0
DICTIONARY
  5
31C
330
C
100
AcDbDictionary
281
1
  3
CB2_assy_2_img_1
350
       321
  0
RASTERVARIABLES
  5
31D
330
C
100
AcDbRasterVariables
 90
0
 70
0
 71
1
 72
5
  0
DICTIONARY
  5
17
102
{ACAD_REACTORS
330
C
102
}
100
AcDbDictionary
280
0
281
1
  3
Standard
350
18
  0
DICTIONARY
  5
31E
330
C
100
AcDbDictionary
281
1
  3
Standard
350
       322
  3
Standard1
350
       323
  0
DICTIONARY
  5
19
102
{ACAD_REACTORS
330
C
102
}
100
AcDbDictionary
281
1
  0
DICTIONARY
  5
1A
102
{ACAD_REACTORS
330
C
102
}
100
AcDbDictionary
281
1
  3
Model
350
31F
  3
Layout1
350
320
  0
ACDBPLACEHOLDER
  5
F
102
{ACAD_REACTORS
330
E
102
}
  0
MLINESTYLE
  5
18
102
{ACAD_REACTORS
330
17
102
}
100
AcDbMlineStyle
  2
STANDARD
 70
0
  3

 62
256
 51
90.0
 52
90.0
 71
2
 49
0.5
 62
256
  6
BYLAYER
 49
-0.5
 62
256
  6
BYLAYER
  0
LAYOUT
  5
31F
102
{ACAD_REACTORS
330
1A
102
}
100
AcDbPlotSettings
  1

  2
none_device
  4
ANSI_C_(22.00_x_17.00_Inches)
  6

 40
0.0
 41
0.0
 42
0.0
 43
0.0
 44
558.8
 45
431.8
 46
0.0
 47
0.0
 48
0.0
 49
0.0
140
0.0
141
0.0
142
1.0
143
1.0
 70
1024
 72
0
 73
0
 74
0
  7

 75
0
147
1.0
148
0.0
149
0.0
100
AcDbLayout
  1
Model
 70
0
 71
0
 10
0.0
 20
0.0
 11
22.0
 21
17.0
 12
0.0
 22
0.0
 32
0.0
 14
0.0
 24
0.0
 34
0.0
 15
0.0
 25
0.0
 35
0.0
146
0.0
 13
0.0
 23
0.0
 33
0.0
 16
1.0
 26
0.0
 36
0.0
 17
0.0
 27
1.0
 37
0.0
 76
0
330
20F
345
0
346
0
  0
LAYOUT
  5
320
102
{ACAD_REACTORS
330
1A
102
}
100
AcDbPlotSettings
  1

  2
none_device
  4
ANSI_C_(22.00_x_17.00_Inches)
  6

 40
0.0
 41
0.0
 42
0.0
 43
0.0
 44
558.8
 45
431.8
 46
0.0
 47
0.0
 48
0.0
 49
0.0
140
0.0
141
0.0
142
1.0
143
1.0
 70
0
 72
0
 73
0
 74
0
  7

 75
0
147
1.0
148
0.0
149
0.0
100
AcDbLayout
  1
Layout1
 70
0
 71
1
 10
0.0
 20
0.0
 11
22.0
 21
17.0
 12
0.0
 22
0.0
 32
0.0
 14
0.0
 24
0.0
 34
0.0
 15
0.0
 25
0.0
 35
0.0
146
0.0
 13
0.0
 23
0.0
 33
0.0
 16
1.0
 26
0.0
 36
0.0
 17
0.0
 27
1.0
 37
0.0
 76
0
330
210
345
0
346
0
  0
IMAGEDEF
  5
321
102
{ACAD_REACTORS
330
31C
330
31B
102
}
100
AcDbRasterImageDef
 90
0
  1
CB2_assy_2_img_1.png
 10
369.0
 20
92.0
 11
0.0066666667
 21
0.0066666667
280
1
281
0
  0
TABLESTYLE
  5
322
102
{ACAD_REACTORS
330
31E
330
275
102
}
330
31E
100
AcDbTableStyle
  3
Standard
 70
0
 71
0
 40
0.06
 41
0.06
280
1
281
1
  7
Standard
140
0.18
170
1
 62
0
 63
7
283
0
  7
Standard
140
0.18
170
1
 62
0
 63
7
283
0
  7
Standard
140
0.18
170
1
 62
0
 63
7
283
0
  0
TABLESTYLE
  5
323
102
{ACAD_REACTORS
330
31E
330
274
102
}
330
31E
100
AcDbTableStyle
  3
Standard1
 70
1
 71
0
 40
0.06
 41
0.06
280
1
281
1
  7
Standard
140
0.18
170
1
 62
0
 63
7
283
0
  7
Standard
140
0.18
170
1
 62
0
 63
7
283
0
  7
Standard
140
0.18
170
1
 62
0
 63
7
283
0
  0
ENDSEC
  0
EOF
