999
DXF file: BQV_assy_2.dxf
999
Pro/ENGINEER 2014200 by Parametric Technology Corporation
  0
SECTION
  2
HEADER
  9
$ACADVER
  1
AC1021
  9
$DWGCODEPAGE
  3
ANSI_1252
  9
$EXTMAX
 10
22.0
 20
17.0
 30
0.0
  9
$EXTMIN
 10
0.0
 20
0.0
 30
0.0
  9
$LIMMIN
 10
0.0
 20
0.0
  9
$LIMMAX
 10
22.0
 20
17.0
  9
$VIEWCTR
 10
11.0
 20
8.5
  9
$VIEWSIZE
 40
17.0
  9
$CLAYER
  8
0
  9
$LTSCALE
 40
1.21
  9
$CELTYPE
  6
BYLAYER
  9
$DIMSCALE
 40
1.0
  9
$DIMASZ
 40
0.1875
  9
$DIMEXO
 40
0.0625
  9
$DIMDLI
 40
0.836
  9
$DIMEXE
 40
0.125
  9
$DIMCEN
 40
0.198
  9
$DIMLFAC
 40
1.0
  9
$DIMBLK
  1
_FILLED
  9
$DIMTXT
 40
0.1
  9
$DIMTOL
 70
0
  9
$DIMLIM
 70
0
  9
$DIMTFAC
 40
1.0
  9
$DIMGAP
 40
0.09
  9
$DIMDSEP
 70
46
  9
$AUNITS
 70
0
  9
$PDMODE
 70
3
  9
$PDSIZE
 40
0.3125
  9
$HANDSEED
  5
431
  9
$TILEMODE
 70
1
  9
$MEASUREMENT
 70
0
  9
$INSUNITS
 70
1
  0
ENDSEC
  0
SECTION
  2
CLASSES
  0
CLASS
  1
ACDBDICTIONARYWDFLT
  2
AcDbDictionaryWithDefault
  3
AutoCAD 2000
 90
0
 91
1
280
0
281
0
  0
CLASS
  1
ACDBPLACEHOLDER
  2
AcDbPlaceHolder
  3
AutoCAD 2000
 90
0
 91
1
280
0
281
0
  0
CLASS
  1
LAYOUT
  2
AcDbLayout
  3
AutoCAD 2000
 90
0
 91
0
280
0
281
0
  0
CLASS
  1
RASTERVARIABLES
  2
AcDbRasterVariables
  3
ISM
 90
0
 91
1
280
0
281
0
  0
CLASS
  1
IMAGEDEF
  2
AcDbRasterImageDef
  3
ISM
 90
0
 91
1
280
0
281
0
  0
CLASS
  1
IMAGEDEF_REACTOR
  2
AcDbRasterImageDefReactor
  3
ISM
 90
0
 91
1
280
0
281
0
  0
CLASS
  1
IMAGE
  2
AcDbRasterImage
  3
ISM
 90
127
 91
1
280
0
281
1
  0
CLASS
  1
TABLESTYLE
  2
AcDbTableStyle
  3
ObjectDBX Classes
 90
2047
 91
1
280
0
281
0
  0
CLASS
  1
ACAD_TABLE
  2
AcDbTable
  3
ObjectDBX Classes
 90
1025
 91
3
280
0
281
1
  0
ENDSEC
  0
SECTION
  2
TABLES
  0
TABLE
  2
VPORT
  5
8
100
AcDbSymbolTable
 70
2
  0
VPORT
  5
1F4
100
AcDbSymbolTableRecord
100
AcDbViewportTableRecord
  2
*ACTIVE
 70
0
 10
0.0
 20
0.0
 11
1.0
 21
1.0
 12
11.0
 22
8.5
 13
0.0
 23
0.0
 14
1.0
 24
1.0
 15
0.0
 25
0.0
 16
0.0
 26
0.0
 36
1.0
 17
0.0
 27
0.0
 37
0.0
 40
17.0
 41
1.2941176471
 42
50.0
 43
0.0
 44
0.0
 50
0.0
 51
0.0
 71
0
 72
100
 73
1
 74
1
 75
0
 76
0
 77
0
 78
0
  0
ENDTAB
  0
TABLE
  2
LTYPE
  5
5
100
AcDbSymbolTable
 70
6
  0
LTYPE
  5
14
100
AcDbSymbolTableRecord
100
AcDbLinetypeTableRecord
  2
BYBLOCK
 70
0
  3

 72
65
 73
0
 40
0.0
  0
LTYPE
  5
15
100
AcDbSymbolTableRecord
100
AcDbLinetypeTableRecord
  2
BYLAYER
 70
0
  3

 72
65
 73
0
 40
0.0
  0
LTYPE
  5
16
100
AcDbSymbolTableRecord
100
AcDbLinetypeTableRecord
  2
CONTINUOUS
 70
64
  3
Solid line
 72
65
 73
0
 40
0.0
  0
LTYPE
  5
1F5
100
AcDbSymbolTableRecord
100
AcDbLinetypeTableRecord
  2
CENTER
 70
64
  3
____ _ ____ _ ____ _ ____ _ ____ _ ____ _ ____
 72
65
 73
4
 40
0.6
 49
0.375
 74
0
 49
-0.075
 74
0
 49
0.075
 74
0
 49
-0.075
 74
0
  0
LTYPE
  5
1F6
100
AcDbSymbolTableRecord
100
AcDbLinetypeTableRecord
  2
HIDDEN
 70
64
  3
- - - - - - - - - - - - - - - - - - - -
 72
65
 73
2
 40
0.2
 49
0.1
 74
0
 49
-0.1
 74
0
  0
LTYPE
  5
1F7
100
AcDbSymbolTableRecord
100
AcDbLinetypeTableRecord
  2
PHANTOM
 70
64
  3
_____ _ _ _____ _ _ _____ _ _ _____
 72
65
 73
6
 40
0.8
 49
0.45
 74
0
 49
-0.05
 74
0
 49
0.1
 74
0
 49
-0.05
 74
0
 49
0.1
 74
0
 49
-0.05
 74
0
  0
LTYPE
  5
1F8
100
AcDbSymbolTableRecord
100
AcDbLinetypeTableRecord
  2
DOT
 70
64
  3
. . . . . . . . . . . . . . . . . . . .
 72
65
 73
2
 40
0.2
 49
0.1
 74
0
 49
-0.1
 74
0
  0
LTYPE
  5
1F9
100
AcDbSymbolTableRecord
100
AcDbLinetypeTableRecord
  2
DASHED
 70
64
  3
- - - - - - - - - - - - - - - - - - - -
 72
65
 73
2
 40
0.2
 49
0.1
 74
0
 49
-0.1
 74
0
  0
ENDTAB
  0
TABLE
  2
LAYER
  5
2
100
AcDbSymbolTable
 70
36
  0
LAYER
  5
10
100
AcDbSymbolTableRecord
100
AcDbLayerTableRecord
  2
0
 70
0
 62
7
  6
CONTINUOUS
370
-3
390
F
  0
LAYER
  5
1FA
100
AcDbSymbolTableRecord
100
AcDbLayerTableRecord
  2
DEFAULT_1
 70
0
 62
7
  6
CENTER
370
-3
390
F
  0
LAYER
  5
1FB
100
AcDbSymbolTableRecord
100
AcDbLayerTableRecord
  2
DEFAULT_2
 70
0
 62
8
  6
HIDDEN
370
-3
390
F
  0
LAYER
  5
1FC
100
AcDbSymbolTableRecord
100
AcDbLayerTableRecord
  2
DEFAULT_3
 70
0
 62
7
  6
PHANTOM
370
-3
390
F
  0
LAYER
  5
1FD
100
AcDbSymbolTableRecord
100
AcDbLayerTableRecord
  2
01___PRT_ALL_DTM_PLN
 70
0
 62
7
  6
CONTINUOUS
370
-3
390
F
  0
LAYER
  5
1FE
100
AcDbSymbolTableRecord
100
AcDbLayerTableRecord
  2
01___PRT_DEF_DTM_PLN
 70
0
 62
7
  6
CONTINUOUS
370
-3
390
F
  0
LAYER
  5
1FF
100
AcDbSymbolTableRecord
100
AcDbLayerTableRecord
  2
02___PRT_ALL_AXES
 70
0
 62
7
  6
CONTINUOUS
370
-3
390
F
  0
LAYER
  5
200
100
AcDbSymbolTableRecord
100
AcDbLayerTableRecord
  2
03___PRT_ALL_CURVES
 70
0
 62
7
  6
CONTINUOUS
370
-3
390
F
  0
LAYER
  5
201
100
AcDbSymbolTableRecord
100
AcDbLayerTableRecord
  2
04___PRT_ALL_DTM_PNT
 70
0
 62
7
  6
CONTINUOUS
370
-3
390
F
  0
LAYER
  5
202
100
AcDbSymbolTableRecord
100
AcDbLayerTableRecord
  2
05___PRT_ALL_DTM_CSYS
 70
0
 62
7
  6
CONTINUOUS
370
-3
390
F
  0
LAYER
  5
203
100
AcDbSymbolTableRecord
100
AcDbLayerTableRecord
  2
05___PRT_DEF_DTM_CSYS
 70
0
 62
7
  6
CONTINUOUS
370
-3
390
F
  0
LAYER
  5
204
100
AcDbSymbolTableRecord
100
AcDbLayerTableRecord
  2
06___PRT_ALL_SURFS
 70
0
 62
7
  6
CONTINUOUS
370
-3
390
F
  0
LAYER
  5
205
100
AcDbSymbolTableRecord
100
AcDbLayerTableRecord
  2
DATUM_PLANES
 70
0
 62
7
  6
CONTINUOUS
370
-3
390
F
  0
LAYER
  5
206
100
AcDbSymbolTableRecord
100
AcDbLayerTableRecord
  2
DIMENSIONS
 70
0
 62
7
  6
CONTINUOUS
370
-3
390
F
  0
LAYER
  5
207
100
AcDbSymbolTableRecord
100
AcDbLayerTableRecord
  2
PARAMETERDIMENSIONS
 70
0
 62
7
  6
CONTINUOUS
370
-3
390
F
  0
LAYER
  5
208
100
AcDbSymbolTableRecord
100
AcDbLayerTableRecord
  2
PORT_AREAS
 70
0
 62
7
  6
CONTINUOUS
370
-3
390
F
  0
LAYER
  5
209
100
AcDbSymbolTableRecord
100
AcDbLayerTableRecord
  2
SUNNBOMCOSMETIC
 70
0
 62
7
  6
CONTINUOUS
370
-3
390
F
  0
LAYER
  5
20A
100
AcDbSymbolTableRecord
100
AcDbLayerTableRecord
  2
SUNNBOMSTAMPING
 70
0
 62
7
  6
CONTINUOUS
370
-3
390
F
  0
LAYER
  5
20B
100
AcDbSymbolTableRecord
100
AcDbLayerTableRecord
  2
THREADS
 70
0
 62
7
  6
CONTINUOUS
370
-3
390
F
  0
ENDTAB
  0
TABLE
  2
STYLE
  5
3
100
AcDbSymbolTable
 70
1
  0
STYLE
  5
11
100
AcDbSymbolTableRecord
100
AcDbTextStyleTableRecord
  2
STANDARD
 70
0
 40
0.0
 41
0.8
 50
0.0
 71
0
 42
0.2
  3
txt
  4

  0
STYLE
  5
20C
100
AcDbSymbolTableRecord
100
AcDbTextStyleTableRecord
  2
TEXTSTYLE_1
 70
0
 40
0.0
 41
0.8
 50
0.0
 71
0
 42
0.2
  3
gdt
  4

  0
ENDTAB
  0
TABLE
  2
VIEW
  5
6
100
AcDbSymbolTable
 70
0
  0
ENDTAB
  0
TABLE
  2
UCS
  5
7
100
AcDbSymbolTable
 70
0
  0
ENDTAB
  0
TABLE
  2
APPID
  5
9
100
AcDbSymbolTable
 70
1
  0
APPID
  5
20D
100
AcDbSymbolTableRecord
100
AcDbRegAppTableRecord
  2
ACAD
 70
0
  0
ENDTAB
  0
TABLE
  2
BLOCK_RECORD
  5
1
100
AcDbSymbolTable
 70
0
  0
BLOCK_RECORD
  5
20E
100
AcDbSymbolTableRecord
100
AcDbBlockTableRecord
  2
*Model_Space
  0
BLOCK_RECORD
  5
20F
100
AcDbSymbolTableRecord
100
AcDbBlockTableRecord
  2
*Paper_Space
  0
BLOCK_RECORD
  5
210
100
AcDbSymbolTableRecord
100
AcDbBlockTableRecord
  2
SUN_FIRST_THIRD_ANGLE_BL0
  0
BLOCK_RECORD
  5
211
100
AcDbSymbolTableRecord
100
AcDbBlockTableRecord
  2
*T1
  0
BLOCK_RECORD
  5
212
100
AcDbSymbolTableRecord
100
AcDbBlockTableRecord
  2
*T2
  0
BLOCK_RECORD
  5
213
100
AcDbSymbolTableRecord
100
AcDbBlockTableRecord
  2
*T3
  0
ENDTAB
  0
TABLE
  2
DIMSTYLE
  5
A
100
AcDbSymbolTable
 70
1
100
AcDbDimStyleTable
 71
0
  0
DIMSTYLE
105
214
100
AcDbSymbolTableRecord
100
AcDbDimStyleTableRecord
  2
STANDARD
 70
0
  3

  4

 40
1.0
 41
0.1875
 42
0.0625
 43
0.38
 44
0.125
 45
0.0
 46
0.0
 47
0.001
 48
0.001
140
0.1
141
0.09
142
0.0
143
25.4
144
1.0
145
0.0
146
1.0
147
0.09
 71
0.0
 72
0.0
 73
1
 74
1
 75
0
 76
0
 77
0
 78
4
170
0
171
2
172
0
173
0
174
0
175
0
176
0
177
0
178
0
270
2
271
3
272
3
273
2
274
2
275
0
280
0
281
0
282
0
283
1
284
4
285
0
286
0
287
3
288
0
340
11
278
46
  0
ENDTAB
  0
ENDSEC
  0
SECTION
  2
BLOCKS
  0
BLOCK
  5
20
100
AcDbEntity
  8
0
100
AcDbBlockBegin
  2
*Model_Space
 70
0
 10
0.0
 20
0.0
 30
0.0
  3
*Model_Space
  1

  0
ENDBLK
  5
21
100
AcDbEntity
  8
0
100
AcDbBlockEnd
  0
BLOCK
  5
1C
100
AcDbEntity
  8
0
100
AcDbBlockBegin
  2
*Paper_Space
 70
0
 10
0.0
 20
0.0
 30
0.0
  3
*Paper_Space
  1

  0
ENDBLK
  5
1D
100
AcDbEntity
  8
0
100
AcDbBlockEnd
  0
BLOCK
  5
215
100
AcDbEntity
  8
0
100
AcDbBlockBegin
 62
2
  6
CONTINUOUS
  2
SUN_FIRST_THIRD_ANGLE_BL0
 70
64
 10
20.4816717061
 20
1.2289683772
  3
SUN_FIRST_THIRD_ANGLE_BL0
  1

  0
TEXT
  5
216
100
AcDbEntity
  8
0
100
AcDbText
 62
2
  6
CONTINUOUS
 10
19.4750896608
 20
1.4136269581
  7
STANDARD
 40
0.08
  1
FIRST ANGLE
 41
0.8
 72
0
100
AcDbText
  0
TEXT
  5
217
100
AcDbEntity
  8
0
100
AcDbText
 62
2
  6
CONTINUOUS
 10
20.7842537513
 20
1.4047600029
  7
STANDARD
 40
0.08
  1
THIRD ANGLE
 41
0.8
 72
0
100
AcDbText
  0
LINE
  5
218
100
AcDbEntity
  8
0
100
AcDbLine
 62
7
  6
CONTINUOUS
 10
19.4767170086
 20
1.1727031207
 11
19.6334271527
 21
1.1717972817
  0
LINE
  5
219
100
AcDbEntity
  8
0
100
AcDbLine
 62
7
  6
CONTINUOUS
 10
19.6596964832
 20
1.1717972817
 11
19.6950230232
 21
1.171593082
  0
LINE
  5
21A
100
AcDbEntity
  8
0
100
AcDbLine
 62
7
  6
CONTINUOUS
 10
19.7194818561
 20
1.1708914427
 11
19.8852396156
 21
1.1699333054
  0
LINE
  5
21B
100
AcDbEntity
  8
0
100
AcDbLine
 62
7
  6
CONTINUOUS
 10
19.4758111696
 20
1.2723454088
 11
19.88525039
 21
1.3511534004
  0
LINE
  5
21C
100
AcDbEntity
  8
0
100
AcDbLine
 62
7
  6
CONTINUOUS
 10
19.88525039
 20
1.3511534004
 11
19.8831348489
 21
0.9851647912
  0
LINE
  5
21D
100
AcDbEntity
  8
0
100
AcDbLine
 62
7
  6
CONTINUOUS
 10
19.8831348489
 20
0.9851647912
 11
19.4767170086
 21
1.0658141206
  0
LINE
  5
21E
100
AcDbEntity
  8
0
100
AcDbLine
 62
7
  6
CONTINUOUS
 10
19.4767170086
 20
1.0658141206
 11
19.4779056764
 21
1.2714536432
  0
CIRCLE
  5
21F
100
AcDbEntity
  8
0
100
AcDbCircle
 62
7
  6
CONTINUOUS
 10
20.2068232291
 20
1.1717972817
 40
0.175742101
  0
CIRCLE
  5
220
100
AcDbEntity
  8
0
100
AcDbCircle
 62
7
  6
CONTINUOUS
 10
20.2068232291
 20
1.1717972817
 40
0.1005522074
  0
LINE
  5
221
100
AcDbEntity
  8
0
100
AcDbLine
 62
7
  6
CONTINUOUS
 10
20.2077290681
 20
1.3756110529
 11
20.2071171714
 21
1.2379342989
  0
LINE
  5
222
100
AcDbEntity
  8
0
100
AcDbLine
 62
7
  6
CONTINUOUS
 10
20.2077290681
 20
1.2016899681
 11
20.2074674401
 21
1.1428236749
  0
LINE
  5
223
100
AcDbEntity
  8
0
100
AcDbLine
 62
7
  6
CONTINUOUS
 10
20.208634907
 20
1.101141841
 11
20.2080230104
 21
0.963465087
  0
LINE
  5
224
100
AcDbEntity
  8
0
100
AcDbLine
 62
7
  6
CONTINUOUS
 10
20.0066328138
 20
1.1745147986
 11
20.1443095678
 21
1.1739029019
  0
LINE
  5
225
100
AcDbEntity
  8
0
100
AcDbLine
 62
7
  6
CONTINUOUS
 10
20.1832714155
 20
1.1727031207
 11
20.238153505
 21
1.172335442
  0
LINE
  5
226
100
AcDbEntity
  8
0
100
AcDbLine
 62
7
  6
CONTINUOUS
 10
20.2756669918
 20
1.1717972817
 11
20.407916871
 21
1.1712095044
  0
CIRCLE
  5
227
100
AcDbEntity
  8
0
100
AcDbCircle
 62
7
  6
CONTINUOUS
 10
20.7509457401
 20
1.1693297793
 40
0.1722024983
  0
CIRCLE
  5
228
100
AcDbEntity
  8
0
100
AcDbCircle
 62
7
  6
CONTINUOUS
 10
20.7509457401
 20
1.1693297793
 40
0.0985164967
  0
LINE
  5
229
100
AcDbEntity
  8
0
100
AcDbLine
 62
7
  6
CONTINUOUS
 10
20.7169767782
 20
1.170462078
 11
20.7825395137
 21
1.1682766535
  0
LINE
  5
22A
100
AcDbEntity
  8
0
100
AcDbLine
 62
7
  6
CONTINUOUS
 10
20.8177513651
 20
1.1693297793
 11
20.947965719
 21
1.1693297793
  0
LINE
  5
22B
100
AcDbEntity
  8
0
100
AcDbLine
 62
7
  6
CONTINUOUS
 10
20.6875370113
 20
1.170462078
 11
20.5573226574
 21
1.170462078
  0
LINE
  5
22C
100
AcDbEntity
  8
0
100
AcDbLine
 62
7
  6
CONTINUOUS
 10
20.7486811426
 20
1.1987695462
 11
20.7486811426
 21
1.1432869085
  0
LINE
  5
22D
100
AcDbEntity
  8
0
100
AcDbLine
 62
7
  6
CONTINUOUS
 10
20.7498134414
 20
1.1059210505
 11
20.7498134414
 21
0.9757066966
  0
LINE
  5
22E
100
AcDbEntity
  8
0
100
AcDbLine
 62
7
  6
CONTINUOUS
 10
20.7486811426
 20
1.2338708068
 11
20.7486811426
 21
1.3640851607
  0
LINE
  5
22F
100
AcDbEntity
  8
0
100
AcDbLine
 62
7
  6
CONTINUOUS
 10
21.0702539817
 20
1.2701043662
 11
21.4790138229
 21
1.3448360823
  0
LINE
  5
230
100
AcDbEntity
  8
0
100
AcDbLine
 62
7
  6
CONTINUOUS
 10
21.4790138229
 20
1.3448360823
 11
21.4790138229
 21
0.9779712941
  0
LINE
  5
231
100
AcDbEntity
  8
0
100
AcDbLine
 62
7
  6
CONTINUOUS
 10
21.4790138229
 20
0.9779712941
 11
21.069121683
 21
1.0617614
  0
LINE
  5
232
100
AcDbEntity
  8
0
100
AcDbLine
 62
7
  6
CONTINUOUS
 10
21.0702539817
 20
1.2701043662
 11
21.069121683
 21
1.0617614
  0
LINE
  5
233
100
AcDbEntity
  8
0
100
AcDbLine
 62
7
  6
CONTINUOUS
 10
21.4790138229
 20
1.1693297793
 11
21.3159628059
 21
1.1693297793
  0
LINE
  5
234
100
AcDbEntity
  8
0
100
AcDbLine
 62
7
  6
CONTINUOUS
 10
21.2876553377
 20
1.1693297793
 11
21.2502894796
 21
1.1693297793
  0
LINE
  5
235
100
AcDbEntity
  8
0
100
AcDbLine
 62
7
  6
CONTINUOUS
 10
21.2208497126
 20
1.1659328831
 11
21.0713862804
 21
1.1659328831
  0
LINE
  5
236
100
AcDbEntity
  8
0
100
AcDbLine
 62
7
  6
CONTINUOUS
 10
20.4796138713
 20
1.5284908897
 11
20.4766766948
 21
0.9294458646
  0
ENDBLK
  5
237
100
AcDbEntity
  8
0
  6
BYBLOCK
 62
0
100
AcDbBlockEnd
  0
BLOCK
  5
238
100
AcDbEntity
  8
0
100
AcDbBlockBegin
  2
*T1
 70
1
 10
0.0
 20
0.0
  3
*T1
  1

  0
LINE
  5
239
100
AcDbEntity
  8
0
100
AcDbLine
 62
2
  6
CONTINUOUS
 10
9.275
 20
0.0
 11
-0.0
 21
0.0
  0
LINE
  5
23A
100
AcDbEntity
  8
0
100
AcDbLine
 62
2
  6
CONTINUOUS
 10
9.275
 20
0.0
 11
9.275
 21
1.25
  0
LINE
  5
23B
100
AcDbEntity
  8
0
100
AcDbLine
 62
2
  6
CONTINUOUS
 10
9.275
 20
0.625
 11
-0.0
 21
0.625
  0
LINE
  5
23C
100
AcDbEntity
  8
0
100
AcDbLine
 62
2
  6
CONTINUOUS
 10
9.275
 20
1.25
 11
-0.0
 21
1.25
  0
LINE
  5
23D
100
AcDbEntity
  8
0
100
AcDbLine
 62
2
  6
CONTINUOUS
 10
6.8
 20
0.0
 11
6.8
 21
1.25
  0
LINE
  5
23E
100
AcDbEntity
  8
0
100
AcDbLine
 62
2
  6
CONTINUOUS
 10
6.4
 20
0.0
 11
6.4
 21
0.625
  0
LINE
  5
23F
100
AcDbEntity
  8
0
100
AcDbLine
 62
2
  6
CONTINUOUS
 10
5.9
 20
0.0
 11
5.9
 21
0.625
  0
LINE
  5
240
100
AcDbEntity
  8
0
100
AcDbLine
 62
2
  6
CONTINUOUS
 10
5.2
 20
0.0
 11
5.2
 21
0.625
  0
LINE
  5
241
100
AcDbEntity
  8
0
100
AcDbLine
 62
2
  6
CONTINUOUS
 10
4.1
 20
0.0
 11
4.1
 21
1.25
  0
LINE
  5
242
100
AcDbEntity
  8
0
100
AcDbLine
 62
2
  6
CONTINUOUS
 10
-0.0
 20
0.0
 11
-0.0
 21
1.25
  0
MTEXT
  5
243
100
AcDbEntity
  8
0
100
AcDbMText
 62
2
  6
CONTINUOUS
  7
STANDARD
 71
2
 72
1
 10
6.6
 20
0.325
 30
0.0
 11
1.0
 21
0.0
 31
0.0
 44
0.9
  1
2
 40
0.125
 41
0.2
  0
MTEXT
  5
244
100
AcDbEntity
  8
0
100
AcDbMText
 62
2
  6
CONTINUOUS
  7
STANDARD
 71
2
 72
1
 10
6.15
 20
0.325
 30
0.0
 11
1.0
 21
0.0
 31
0.0
 44
0.9
  1
C
 40
0.125
 41
0.2
  0
MTEXT
  5
245
100
AcDbEntity
  8
0
100
AcDbMText
 62
2
  6
CONTINUOUS
  7
STANDARD
 71
2
 72
1
 10
5.55
 20
0.325
 30
0.0
 11
1.0
 21
0.0
 31
0.0
 44
0.9
  1
1.000
 40
0.125
 41
1.0
  0
MTEXT
  5
246
100
AcDbEntity
  8
0
100
AcDbMText
 62
2
  6
CONTINUOUS
  7
STANDARD
 71
2
 72
1
 10
4.65
 20
0.325
 30
0.0
 11
1.0
 21
0.0
 31
0.0
 44
0.9
  1
Dec-22-22
 40
0.125
 41
1.8
  0
MTEXT
  5
247
100
AcDbEntity
  8
0
100
AcDbMText
 62
2
  6
CONTINUOUS
  7
STANDARD
 71
2
 72
1
 10
2.05
 20
0.4625
 30
0.0
 11
1.0
 21
0.0
 31
0.0
 44
0.9
  1
T-2A Line mount\P(See Technical Data for Body Features)
 40
0.125
 41
7.6
  0
MTEXT
  5
248
100
AcDbEntity
  8
0
100
AcDbMText
 62
2
  6
CONTINUOUS
  7
STANDARD
 71
1
 72
1
 10
6.45
 20
0.5625
 30
0.0
 11
1.0
 21
0.0
 31
0.0
 44
0.9
  1
SHEET
 40
0.06
 41
0.48
  0
MTEXT
  5
249
100
AcDbEntity
  8
0
100
AcDbMText
 62
2
  6
CONTINUOUS
  7
STANDARD
 71
1
 72
1
 10
5.95
 20
0.5625
 30
0.0
 11
1.0
 21
0.0
 31
0.0
 44
0.9
  1
DWG SIZE
 40
0.06
 41
0.768
  0
MTEXT
  5
24A
100
AcDbEntity
  8
0
100
AcDbMText
 62
2
  6
CONTINUOUS
  7
STANDARD
 71
1
 72
1
 10
5.25
 20
0.5625
 30
0.0
 11
1.0
 21
0.0
 31
0.0
 44
0.9
  1
SCALE
 40
0.06
 41
0.48
  0
MTEXT
  5
24B
100
AcDbEntity
  8
0
100
AcDbMText
 62
2
  6
CONTINUOUS
  7
STANDARD
 71
1
 72
1
 10
4.15
 20
0.5625
 30
0.0
 11
1.0
 21
0.0
 31
0.0
 44
0.9
  1
DATE
 40
0.06
 41
0.384
  0
MTEXT
  5
24C
100
AcDbEntity
  8
0
100
AcDbMText
 62
2
  6
CONTINUOUS
  7
STANDARD
 71
1
 72
1
 10
0.05
 20
0.5625
 30
0.0
 11
1.0
 21
0.0
 31
0.0
 44
0.9
  1
DESCRIPTION
 40
0.06
 41
1.056
  0
MTEXT
  5
24D
100
AcDbEntity
  8
0
100
AcDbMText
 62
2
  6
CONTINUOUS
  7
STANDARD
 71
2
 72
1
 10
5.45
 20
1.0375
 30
0.0
 11
1.0
 21
0.0
 31
0.0
 44
0.9
  1
ALL DIMENSIONS IN INCH\PVIEWS ARE THIRD ANGLE
 40
0.12
 41
4.224
  0
MTEXT
  5
24E
100
AcDbEntity
  8
0
100
AcDbMText
 62
2
  6
CONTINUOUS
  7
STANDARD
 71
2
 72
1
 10
2.05
 20
0.95
 30
0.0
 11
1.0
 21
0.0
 31
0.0
 44
0.9
  1
BQV
 40
0.125
 41
0.6
  0
MTEXT
  5
24F
100
AcDbEntity
  8
0
100
AcDbMText
 62
2
  6
CONTINUOUS
  7
STANDARD
 71
1
 72
1
 10
0.05
 20
1.1875
 30
0.0
 11
1.0
 21
0.0
 31
0.0
 44
0.9
  1
MODEL
 40
0.06
 41
0.48
  0
ENDBLK
  5
250
100
AcDbEntity
  8
0
  6
BYBLOCK
 62
0
100
AcDbBlockEnd
  0
BLOCK
  5
251
100
AcDbEntity
  8
0
100
AcDbBlockBegin
  2
*T2
 70
1
 10
0.0
 20
0.0
  3
*T2
  1

  0
LINE
  5
252
100
AcDbEntity
  8
0
100
AcDbLine
 62
2
  6
CONTINUOUS
 10
0.0
 20
0.0
 11
9.055
 21
0.0
  0
LINE
  5
253
100
AcDbEntity
  8
0
100
AcDbLine
 62
2
  6
CONTINUOUS
 10
0.0
 20
0.0
 11
0.0
 21
-2.594
  0
LINE
  5
254
100
AcDbEntity
  8
0
100
AcDbLine
 62
2
  6
CONTINUOUS
 10
0.0
 20
-0.344
 11
9.055
 21
-0.344
  0
LINE
  5
255
100
AcDbEntity
  8
0
100
AcDbLine
 62
2
  6
CONTINUOUS
 10
0.0
 20
-0.594
 11
9.055
 21
-0.594
  0
LINE
  5
256
100
AcDbEntity
  8
0
100
AcDbLine
 62
2
  6
CONTINUOUS
 10
0.0
 20
-0.844
 11
9.055
 21
-0.844
  0
LINE
  5
257
100
AcDbEntity
  8
0
100
AcDbLine
 62
2
  6
CONTINUOUS
 10
0.0
 20
-1.094
 11
9.055
 21
-1.094
  0
LINE
  5
258
100
AcDbEntity
  8
0
100
AcDbLine
 62
2
  6
CONTINUOUS
 10
0.0
 20
-1.344
 11
9.055
 21
-1.344
  0
LINE
  5
259
100
AcDbEntity
  8
0
100
AcDbLine
 62
2
  6
CONTINUOUS
 10
0.0
 20
-1.594
 11
9.055
 21
-1.594
  0
LINE
  5
25A
100
AcDbEntity
  8
0
100
AcDbLine
 62
2
  6
CONTINUOUS
 10
0.0
 20
-1.844
 11
9.055
 21
-1.844
  0
LINE
  5
25B
100
AcDbEntity
  8
0
100
AcDbLine
 62
2
  6
CONTINUOUS
 10
0.0
 20
-2.094
 11
9.055
 21
-2.094
  0
LINE
  5
25C
100
AcDbEntity
  8
0
100
AcDbLine
 62
2
  6
CONTINUOUS
 10
0.0
 20
-2.344
 11
9.055
 21
-2.344
  0
LINE
  5
25D
100
AcDbEntity
  8
0
100
AcDbLine
 62
2
  6
CONTINUOUS
 10
0.0
 20
-2.594
 11
9.055
 21
-2.594
  0
LINE
  5
25E
100
AcDbEntity
  8
0
100
AcDbLine
 62
2
  6
CONTINUOUS
 10
3.055
 20
0.0
 11
3.055
 21
-2.594
  0
LINE
  5
25F
100
AcDbEntity
  8
0
100
AcDbLine
 62
2
  6
CONTINUOUS
 10
9.055
 20
0.0
 11
9.055
 21
-2.594
  0
MTEXT
  5
260
100
AcDbEntity
  8
0
100
AcDbMText
 62
2
  6
CONTINUOUS
  7
STANDARD
 71
2
 72
1
 10
1.5275
 20
-0.0995
 30
0.0
 11
1.0
 21
0.0
 31
0.0
 44
0.9
  1
Technical Data
 40
0.145
 41
3.248
  0
MTEXT
  5
261
100
AcDbEntity
  8
0
100
AcDbMText
 62
2
  6
CONTINUOUS
  7
STANDARD
 71
2
 72
1
 10
4.555
 20
-0.0995
 30
0.0
 11
1.0
 21
0.0
 31
0.0
 44
0.9
  1
U.S. Units
 40
0.145
 41
2.32
  0
MTEXT
  5
262
100
AcDbEntity
  8
0
100
AcDbMText
 62
2
  6
CONTINUOUS
  7
STANDARD
 71
2
 72
1
 10
7.555
 20
-0.0995
 30
0.0
 11
1.0
 21
0.0
 31
0.0
 44
0.9
  1
Metric Units
 40
0.145
 41
2.784
  0
MTEXT
  5
263
100
AcDbEntity
  8
0
100
AcDbMText
 62
2
  6
CONTINUOUS
  7
STANDARD
 71
2
 72
1
 10
1.5275
 20
-0.4065
 30
0.0
 11
1.0
 21
0.0
 31
0.0
 44
0.9
  1
Cavity
 40
0.125
 41
1.2
  0
MTEXT
  5
264
100
AcDbEntity
  8
0
100
AcDbMText
 62
2
  6
CONTINUOUS
  7
STANDARD
 71
2
 72
1
 10
6.055
 20
-0.4065
 30
0.0
 11
1.0
 21
0.0
 31
0.0
 44
0.9
  1
T-2A
 40
0.125
 41
0.8
  0
MTEXT
  5
265
100
AcDbEntity
  8
0
100
AcDbMText
 62
2
  6
CONTINUOUS
  7
STANDARD
 71
2
 72
1
 10
1.5275
 20
-0.6565
 30
0.0
 11
1.0
 21
0.0
 31
0.0
 44
0.9
  1
Body Features
 40
0.125
 41
2.6
  0
MTEXT
  5
266
100
AcDbEntity
  8
0
100
AcDbMText
 62
2
  6
CONTINUOUS
  7
STANDARD
 71
2
 72
1
 10
6.055
 20
-0.6565
 30
0.0
 11
1.0
 21
0.0
 31
0.0
 44
0.9
  1
Cushion lock with make up checks and shuttle
 40
0.125
 41
8.8
  0
MTEXT
  5
267
100
AcDbEntity
  8
0
100
AcDbMText
 62
2
  6
CONTINUOUS
  7
STANDARD
 71
2
 72
1
 10
1.5275
 20
-0.9065
 30
0.0
 11
1.0
 21
0.0
 31
0.0
 44
0.9
  1
Body Type
 40
0.125
 41
1.8
  0
MTEXT
  5
268
100
AcDbEntity
  8
0
100
AcDbMText
 62
2
  6
CONTINUOUS
  7
STANDARD
 71
2
 72
1
 10
6.055
 20
-0.9065
 30
0.0
 11
1.0
 21
0.0
 31
0.0
 44
0.9
  1
Line mount
 40
0.125
 41
2.0
  0
MTEXT
  5
269
100
AcDbEntity
  8
0
100
AcDbMText
 62
2
  6
CONTINUOUS
  7
STANDARD
 71
2
 72
1
 10
1.5275
 20
-1.1565
 30
0.0
 11
1.0
 21
0.0
 31
0.0
 44
0.9
  1
Interface
 40
0.125
 41
1.8
  0
MTEXT
  5
26A
100
AcDbEntity
  8
0
100
AcDbMText
 62
2
  6
CONTINUOUS
  7
STANDARD
 71
2
 72
1
 10
6.055
 20
-1.1565
 30
0.0
 11
1.0
 21
0.0
 31
0.0
 44
0.9
  1
None
 40
0.125
 41
0.8
  0
MTEXT
  5
26B
100
AcDbEntity
  8
0
100
AcDbMText
 62
2
  6
CONTINUOUS
  7
STANDARD
 71
2
 72
1
 10
1.5275
 20
-1.4065
 30
0.0
 11
1.0
 21
0.0
 31
0.0
 44
0.9
  1
Open Cavity Quantity
 40
0.125
 41
4.0
  0
MTEXT
  5
26C
100
AcDbEntity
  8
0
100
AcDbMText
 62
2
  6
CONTINUOUS
  7
STANDARD
 71
2
 72
1
 10
6.055
 20
-1.4065
 30
0.0
 11
1.0
 21
0.0
 31
0.0
 44
0.9
  1
2
 40
0.125
 41
0.2
  0
MTEXT
  5
26D
100
AcDbEntity
  8
0
100
AcDbMText
 62
2
  6
CONTINUOUS
  7
STANDARD
 71
2
 72
1
 10
1.5275
 20
-1.6565
 30
0.0
 11
1.0
 21
0.0
 31
0.0
 44
0.9
  1
Weight
 40
0.125
 41
1.2
  0
MTEXT
  5
26E
100
AcDbEntity
  8
0
100
AcDbMText
 62
2
  6
CONTINUOUS
  7
STANDARD
 71
2
 72
1
 10
4.555
 20
-1.6565
 30
0.0
 11
1.0
 21
0.0
 31
0.0
 44
0.9
  1
4.659 lb.
 40
0.125
 41
1.8
  0
MTEXT
  5
26F
100
AcDbEntity
  8
0
100
AcDbMText
 62
2
  6
CONTINUOUS
  7
STANDARD
 71
2
 72
1
 10
7.555
 20
-1.6565
 30
0.0
 11
1.0
 21
0.0
 31
0.0
 44
0.9
  1
2,113 kg.
 40
0.125
 41
1.8
  0
MTEXT
  5
270
100
AcDbEntity
  8
0
100
AcDbMText
 62
2
  6
CONTINUOUS
  7
STANDARD
 71
2
 72
1
 10
1.5275
 20
-1.9065
 30
0.0
 11
1.0
 21
0.0
 31
0.0
 44
0.9
  1
Mounting Hole Diameter
 40
0.125
 41
4.4
  0
MTEXT
  5
271
100
AcDbEntity
  8
0
100
AcDbMText
 62
2
  6
CONTINUOUS
  7
STANDARD
 71
2
 72
1
 10
4.555
 20
-1.9065
 30
0.0
 11
1.0
 21
0.0
 31
0.0
 44
0.9
  1
.42 in.
 40
0.125
 41
1.4
  0
MTEXT
  5
272
100
AcDbEntity
  8
0
100
AcDbMText
 62
2
  6
CONTINUOUS
  7
STANDARD
 71
2
 72
1
 10
7.555
 20
-1.9065
 30
0.0
 11
1.0
 21
0.0
 31
0.0
 44
0.9
  1
10,7 mm
 40
0.125
 41
1.4
  0
MTEXT
  5
273
100
AcDbEntity
  8
0
100
AcDbMText
 62
2
  6
CONTINUOUS
  7
STANDARD
 71
2
 72
1
 10
1.5275
 20
-2.1565
 30
0.0
 11
1.0
 21
0.0
 31
0.0
 44
0.9
  1
Mounting Hole Depth
 40
0.125
 41
3.8
  0
MTEXT
  5
274
100
AcDbEntity
  8
0
100
AcDbMText
 62
2
  6
CONTINUOUS
  7
STANDARD
 71
2
 72
1
 10
6.055
 20
-2.1565
 30
0.0
 11
1.0
 21
0.0
 31
0.0
 44
0.9
  1
Through
 40
0.125
 41
1.4
  0
MTEXT
  5
275
100
AcDbEntity
  8
0
100
AcDbMText
 62
2
  6
CONTINUOUS
  7
STANDARD
 71
2
 72
1
 10
1.5275
 20
-2.4065
 30
0.0
 11
1.0
 21
0.0
 31
0.0
 44
0.9
  1
Mounting Hole Quantity
 40
0.125
 41
4.4
  0
MTEXT
  5
276
100
AcDbEntity
  8
0
100
AcDbMText
 62
2
  6
CONTINUOUS
  7
STANDARD
 71
2
 72
1
 10
6.055
 20
-2.4065
 30
0.0
 11
1.0
 21
0.0
 31
0.0
 44
0.9
  1
2
 40
0.125
 41
0.2
  0
ENDBLK
  5
277
100
AcDbEntity
  8
0
  6
BYBLOCK
 62
0
100
AcDbBlockEnd
  0
BLOCK
  5
278
100
AcDbEntity
  8
0
100
AcDbBlockBegin
  2
*T3
 70
1
 10
0.0
 20
0.0
  3
*T3
  1

  0
LINE
  5
279
100
AcDbEntity
  8
0
100
AcDbLine
 62
2
  6
CONTINUOUS
 10
0.0
 20
0.0
 11
4.6
 21
0.0
  0
LINE
  5
27A
100
AcDbEntity
  8
0
100
AcDbLine
 62
2
  6
CONTINUOUS
 10
0.0
 20
0.0
 11
0.0
 21
-1.43775
  0
LINE
  5
27B
100
AcDbEntity
  8
0
100
AcDbLine
 62
2
  6
CONTINUOUS
 10
0.0
 20
-0.34375
 11
4.6
 21
-0.34375
  0
LINE
  5
27C
100
AcDbEntity
  8
0
100
AcDbLine
 62
2
  6
CONTINUOUS
 10
0.0
 20
-0.68775
 11
4.6
 21
-0.68775
  0
LINE
  5
27D
100
AcDbEntity
  8
0
100
AcDbLine
 62
2
  6
CONTINUOUS
 10
0.0
 20
-0.93775
 11
4.6
 21
-0.93775
  0
LINE
  5
27E
100
AcDbEntity
  8
0
100
AcDbLine
 62
2
  6
CONTINUOUS
 10
0.0
 20
-1.18775
 11
4.6
 21
-1.18775
  0
LINE
  5
27F
100
AcDbEntity
  8
0
100
AcDbLine
 62
2
  6
CONTINUOUS
 10
0.0
 20
-1.43775
 11
4.6
 21
-1.43775
  0
LINE
  5
280
100
AcDbEntity
  8
0
100
AcDbLine
 62
2
  6
CONTINUOUS
 10
1.3
 20
-0.34375
 11
1.3
 21
-1.43775
  0
LINE
  5
281
100
AcDbEntity
  8
0
100
AcDbLine
 62
2
  6
CONTINUOUS
 10
3.3
 20
-0.34375
 11
3.3
 21
-1.43775
  0
LINE
  5
282
100
AcDbEntity
  8
0
100
AcDbLine
 62
2
  6
CONTINUOUS
 10
4.6
 20
0.0
 11
4.6
 21
-1.43775
  0
MTEXT
  5
283
100
AcDbEntity
  8
0
100
AcDbMText
 62
2
  6
CONTINUOUS
  7
STANDARD
 71
2
 72
1
 10
2.3
 20
-0.099375
 30
0.0
 11
1.0
 21
0.0
 31
0.0
 44
0.9
  1
Port Headings
 40
0.145
 41
3.016
  0
MTEXT
  5
284
100
AcDbEntity
  8
0
100
AcDbMText
 62
2
  6
CONTINUOUS
  7
STANDARD
 71
2
 72
1
 10
0.65
 20
-0.44325
 30
0.0
 11
1.0
 21
0.0
 31
0.0
 44
0.9
  1
Product
 40
0.145
 41
1.624
  0
MTEXT
  5
285
100
AcDbEntity
  8
0
100
AcDbMText
 62
2
  6
CONTINUOUS
  7
STANDARD
 71
2
 72
1
 10
2.3
 20
-0.44325
 30
0.0
 11
1.0
 21
0.0
 31
0.0
 44
0.9
  1
Port
 40
0.145
 41
0.928
  0
MTEXT
  5
286
100
AcDbEntity
  8
0
100
AcDbMText
 62
2
  6
CONTINUOUS
  7
STANDARD
 71
2
 72
1
 10
3.95
 20
-0.44325
 30
0.0
 11
1.0
 21
0.0
 31
0.0
 44
0.9
  1
Size
 40
0.145
 41
0.928
  0
MTEXT
  5
287
100
AcDbEntity
  8
0
100
AcDbMText
 62
2
  6
CONTINUOUS
  7
STANDARD
 71
2
 72
1
 10
0.65
 20
-0.75025
 30
0.0
 11
1.0
 21
0.0
 31
0.0
 44
0.9
  1
BQV
 40
0.125
 41
0.6
  0
MTEXT
  5
288
100
AcDbEntity
  8
0
100
AcDbMText
 62
2
  6
CONTINUOUS
  7
STANDARD
 71
2
 72
1
 10
2.3
 20
-0.75025
 30
0.0
 11
1.0
 21
0.0
 31
0.0
 44
0.9
  1
Ports C1, C2, V1, V2
 40
0.125
 41
4.0
  0
MTEXT
  5
289
100
AcDbEntity
  8
0
100
AcDbMText
 62
2
  6
CONTINUOUS
  7
STANDARD
 71
2
 72
1
 10
3.95
 20
-0.75025
 30
0.0
 11
1.0
 21
0.0
 31
0.0
 44
0.9
  1
1/2" BSPP
 40
0.125
 41
1.8
  0
MTEXT
  5
28A
100
AcDbEntity
  8
0
100
AcDbMText
 62
2
  6
CONTINUOUS
  7
STANDARD
 71
2
 72
1
 10
0.65
 20
-1.00025
 30
0.0
 11
1.0
 21
0.0
 31
0.0
 44
0.9
  1
BQV
 40
0.125
 41
0.6
  0
MTEXT
  5
28B
100
AcDbEntity
  8
0
100
AcDbMText
 62
2
  6
CONTINUOUS
  7
STANDARD
 71
2
 72
1
 10
2.3
 20
-1.00025
 30
0.0
 11
1.0
 21
0.0
 31
0.0
 44
0.9
  1
Port T
 40
0.125
 41
1.2
  0
MTEXT
  5
28C
100
AcDbEntity
  8
0
100
AcDbMText
 62
2
  6
CONTINUOUS
  7
STANDARD
 71
2
 72
1
 10
3.95
 20
-1.00025
 30
0.0
 11
1.0
 21
0.0
 31
0.0
 44
0.9
  1
3/4" BSPP
 40
0.125
 41
1.8
  0
MTEXT
  5
28D
100
AcDbEntity
  8
0
100
AcDbMText
 62
2
  6
CONTINUOUS
  7
STANDARD
 71
2
 72
1
 10
0.65
 20
-1.25025
 30
0.0
 11
1.0
 21
0.0
 31
0.0
 44
0.9
  1
BQV
 40
0.125
 41
0.6
  0
MTEXT
  5
28E
100
AcDbEntity
  8
0
100
AcDbMText
 62
2
  6
CONTINUOUS
  7
STANDARD
 71
2
 72
1
 10
2.3
 20
-1.25025
 30
0.0
 11
1.0
 21
0.0
 31
0.0
 44
0.9
  1
Port S
 40
0.125
 41
1.2
  0
MTEXT
  5
28F
100
AcDbEntity
  8
0
100
AcDbMText
 62
2
  6
CONTINUOUS
  7
STANDARD
 71
2
 72
1
 10
3.95
 20
-1.25025
 30
0.0
 11
1.0
 21
0.0
 31
0.0
 44
0.9
  1
1/4" BSPP
 40
0.125
 41
1.8
  0
ENDBLK
  5
290
100
AcDbEntity
  8
0
  6
BYBLOCK
 62
0
100
AcDbBlockEnd
  0
ENDSEC
  0
SECTION
  2
ENTITIES
  0
IMAGE
  5
291
100
AcDbEntity
  8
0
100
AcDbRasterImage
 62
7
  6
CONTINUOUS
 10
19.2297077316
 20
0.3094318264
 30
0.0
 11
0.0066666667
 21
0.0
 31
0.0
 12
0.0
 22
0.0066666667
 32
0.0
 13
369.0
 23
92.0
340
       42E
 70
9
280
0
281
50
282
50
283
0
360
       428
 71
1
 91
2
 14
-0.5
 24
-0.5
 14
368.5
 24
91.5
  0
INSERT
  5
292
100
AcDbEntity
  8
0
100
AcDbBlockReference
 62
2
  6
CONTINUOUS
  2
SUN_FIRST_THIRD_ANGLE_BL0
 10
20.4816717061
 20
1.2289683772
  0
ACAD_TABLE
  5
293
100
AcDbEntity
  8
0
 62
2
  6
CONTINUOUS
100
AcDbBlockReference
  2
*T1
 10
12.42375
 20
0.30125
 30
0.0
100
AcDbTable
342
       430
343
211
 11
1.0
 21
0.0
 31
0.0
 90
6
 91
4
 92
6
 93
20
 94
0
 95
0
 96
0
 70
1
 41
0.0
141
0.525
141
0.1
141
0.525
141
0.1
142
4.1
142
1.1
142
0.7
142
0.5
142
0.4
142
2.475
171
1
172
0
173
0
174
0
175
1
176
1
 91
33
178
0
145
0.0
301
CELL_VALUE
 90
4
  1
T-2A Line mount\P(See Technical Data for Body Features)
304
ACVALUE_END
170
2
140
0.125
171
1
172
0
173
0
174
0
175
1
176
1
 91
33
178
0
145
0.0
301
CELL_VALUE
 90
4
  1
Dec-22-22
304
ACVALUE_END
170
5
140
0.125
171
1
172
0
173
0
174
0
175
1
176
1
 91
33
178
0
145
0.0
301
CELL_VALUE
 90
4
  1
1.000
304
ACVALUE_END
170
5
140
0.125
171
1
172
0
173
0
174
0
175
1
176
1
 91
33
178
0
145
0.0
301
CELL_VALUE
 90
4
  1
C
304
ACVALUE_END
170
5
140
0.125
171
1
172
0
173
0
174
0
175
1
176
1
 91
33
178
0
145
0.0
301
CELL_VALUE
 90
4
  1
2
304
ACVALUE_END
170
5
140
0.125
171
1
172
0
173
0
174
0
175
1
176
1
 91
33
178
0
145
0.0
301
CELL_VALUE
 90
4
  1
 
304
ACVALUE_END
170
1
140
0.125
171
1
172
0
173
0
174
0
175
1
176
1
 91
33
178
0
145
0.0
301
CELL_VALUE
 90
4
  1
DESCRIPTION
304
ACVALUE_END
170
1
140
0.06
171
1
172
0
173
0
174
0
175
1
176
1
 91
33
178
0
145
0.0
301
CELL_VALUE
 90
4
  1
DATE
304
ACVALUE_END
170
1
140
0.06
171
1
172
0
173
0
174
0
175
1
176
1
 91
33
178
0
145
0.0
301
CELL_VALUE
 90
4
  1
SCALE
304
ACVALUE_END
170
1
140
0.06
171
1
172
0
173
0
174
0
175
1
176
1
 91
33
178
0
145
0.0
301
CELL_VALUE
 90
4
  1
DWG SIZE
304
ACVALUE_END
170
1
140
0.06
171
1
172
0
173
0
174
0
175
1
176
1
 91
33
178
0
145
0.0
301
CELL_VALUE
 90
4
  1
SHEET
304
ACVALUE_END
170
1
140
0.06
171
1
172
0
173
0
174
0
175
1
176
1
 91
33
178
0
145
0.0
301
CELL_VALUE
 90
4
  1
 
304
ACVALUE_END
170
1
140
0.125
171
1
172
0
173
0
174
0
175
1
176
1
 91
33
178
0
145
0.0
301
CELL_VALUE
 90
4
  1
BQV
304
ACVALUE_END
170
5
140
0.125
171
1
172
0
173
0
174
0
175
4
176
1
 91
33
178
0
145
0.0
301
CELL_VALUE
 90
4
  1
ALL DIMENSIONS IN INCH\PVIEWS ARE THIRD ANGLE
304
ACVALUE_END
170
5
140
0.12
171
1
172
0
173
1
174
0
175
1
176
1
 91
1
178
0
145
0.0
170
1
171
1
172
0
173
1
174
0
175
1
176
1
 91
1
178
0
145
0.0
170
1
171
1
172
0
173
1
174
0
175
1
176
1
 91
1
178
0
145
0.0
170
5
171
1
172
0
173
0
174
0
175
1
176
1
 91
33
178
0
145
0.0
301
CELL_VALUE
 90
4
  1
 
304
ACVALUE_END
170
1
140
0.125
171
1
172
0
173
0
174
0
175
1
176
1
 91
33
178
0
145
0.0
301
CELL_VALUE
 90
4
  1
MODEL
304
ACVALUE_END
170
1
140
0.06
171
1
172
0
173
0
174
0
175
1
176
1
 91
33
178
0
145
0.0
301
CELL_VALUE
 90
4
  1
 
304
ACVALUE_END
170
1
140
0.125
171
1
172
0
173
0
174
0
175
1
176
1
 91
33
178
0
145
0.0
301
CELL_VALUE
 90
4
  1
 
304
ACVALUE_END
170
1
140
0.125
171
1
172
0
173
0
174
0
175
1
176
1
 91
33
178
0
145
0.0
301
CELL_VALUE
 90
4
  1
 
304
ACVALUE_END
170
1
140
0.125
171
1
172
0
173
0
174
0
175
1
176
1
 91
33
178
0
145
0.0
301
CELL_VALUE
 90
4
  1
 
304
ACVALUE_END
170
1
140
0.125
171
1
172
0
173
0
174
0
175
1
176
1
 91
33
178
0
145
0.0
301
CELL_VALUE
 90
4
  1
 
304
ACVALUE_END
170
1
140
0.125
  0
ACAD_TABLE
  5
294
100
AcDbEntity
  8
0
 62
2
  6
CONTINUOUS
100
AcDbBlockReference
  2
*T2
 10
12.4237499994
 20
16.47875
 30
0.0
100
AcDbTable
342
       42F
343
212
 11
1.0
 21
0.0
 31
0.0
 90
22
 91
10
 92
3
 93
16
 94
0
 95
0
 96
0
 41
0.028
141
0.344
141
0.25
141
0.25
141
0.25
141
0.25
141
0.25
141
0.25
141
0.25
141
0.25
141
0.25
142
3.055
142
3.0
142
3.0
171
1
172
0
173
0
174
0
175
1
176
1
 91
33
178
0
145
0.0
301
CELL_VALUE
 90
4
  1
Technical Data
304
ACVALUE_END
170
5
140
0.145
171
1
172
0
173
0
174
0
175
1
176
1
 91
33
178
0
145
0.0
301
CELL_VALUE
 90
4
  1
U.S. Units
304
ACVALUE_END
170
5
140
0.145
171
1
172
0
173
0
174
0
175
1
176
1
 91
33
178
0
145
0.0
301
CELL_VALUE
 90
4
  1
Metric Units
304
ACVALUE_END
170
5
140
0.145
171
1
172
0
173
0
174
0
175
1
176
1
 91
33
178
0
145
0.0
301
CELL_VALUE
 90
4
  1
Cavity
304
ACVALUE_END
170
5
140
0.125
171
1
172
0
173
0
174
0
175
2
176
1
 91
33
178
0
145
0.0
301
CELL_VALUE
 90
4
  1
T-2A
304
ACVALUE_END
170
5
140
0.125
171
1
172
0
173
1
174
0
175
1
176
1
 91
1
178
0
145
0.0
170
1
171
1
172
0
173
0
174
0
175
1
176
1
 91
33
178
0
145
0.0
301
CELL_VALUE
 90
4
  1
Body Features
304
ACVALUE_END
170
5
140
0.125
171
1
172
0
173
0
174
0
175
2
176
1
 91
33
178
0
145
0.0
301
CELL_VALUE
 90
4
  1
Cushion lock with make up checks and shuttle
304
ACVALUE_END
170
5
140
0.125
171
1
172
0
173
1
174
0
175
1
176
1
 91
1
178
0
145
0.0
170
1
171
1
172
0
173
0
174
0
175
1
176
1
 91
33
178
0
145
0.0
301
CELL_VALUE
 90
4
  1
Body Type
304
ACVALUE_END
170
5
140
0.125
171
1
172
0
173
0
174
0
175
2
176
1
 91
33
178
0
145
0.0
301
CELL_VALUE
 90
4
  1
Line mount
304
ACVALUE_END
170
5
140
0.125
171
1
172
0
173
1
174
0
175
1
176
1
 91
1
178
0
145
0.0
170
1
171
1
172
0
173
0
174
0
175
1
176
1
 91
33
178
0
145
0.0
301
CELL_VALUE
 90
4
  1
Interface
304
ACVALUE_END
170
5
140
0.125
171
1
172
0
173
0
174
0
175
2
176
1
 91
33
178
0
145
0.0
301
CELL_VALUE
 90
4
  1
None
304
ACVALUE_END
170
5
140
0.125
171
1
172
0
173
1
174
0
175
1
176
1
 91
1
178
0
145
0.0
170
1
171
1
172
0
173
0
174
0
175
1
176
1
 91
33
178
0
145
0.0
301
CELL_VALUE
 90
4
  1
Open Cavity Quantity
304
ACVALUE_END
170
5
140
0.125
171
1
172
0
173
0
174
0
175
2
176
1
 91
33
178
0
145
0.0
301
CELL_VALUE
 90
4
  1
2
304
ACVALUE_END
170
5
140
0.125
171
1
172
0
173
1
174
0
175
1
176
1
 91
1
178
0
145
0.0
170
1
171
1
172
0
173
0
174
0
175
1
176
1
 91
33
178
0
145
0.0
301
CELL_VALUE
 90
4
  1
Weight
304
ACVALUE_END
170
5
140
0.125
171
1
172
0
173
0
174
0
175
1
176
1
 91
33
178
0
145
0.0
301
CELL_VALUE
 90
4
  1
4.659 lb.
304
ACVALUE_END
170
5
140
0.125
171
1
172
0
173
0
174
0
175
1
176
1
 91
33
178
0
145
0.0
301
CELL_VALUE
 90
4
  1
2,113 kg.
304
ACVALUE_END
170
5
140
0.125
171
1
172
0
173
0
174
0
175
1
176
1
 91
33
178
0
145
0.0
301
CELL_VALUE
 90
4
  1
Mounting Hole Diameter
304
ACVALUE_END
170
5
140
0.125
171
1
172
0
173
0
174
0
175
1
176
1
 91
33
178
0
145
0.0
301
CELL_VALUE
 90
4
  1
.42 in.
304
ACVALUE_END
170
5
140
0.125
171
1
172
0
173
0
174
0
175
1
176
1
 91
33
178
0
145
0.0
301
CELL_VALUE
 90
4
  1
10,7 mm
304
ACVALUE_END
170
5
140
0.125
171
1
172
0
173
0
174
0
175
1
176
1
 91
33
178
0
145
0.0
301
CELL_VALUE
 90
4
  1
Mounting Hole Depth
304
ACVALUE_END
170
5
140
0.125
171
1
172
0
173
0
174
0
175
2
176
1
 91
33
178
0
145
0.0
301
CELL_VALUE
 90
4
  1
Through
304
ACVALUE_END
170
5
140
0.125
171
1
172
0
173
1
174
0
175
1
176
1
 91
1
178
0
145
0.0
170
1
171
1
172
0
173
0
174
0
175
1
176
1
 91
33
178
0
145
0.0
301
CELL_VALUE
 90
4
  1
Mounting Hole Quantity
304
ACVALUE_END
170
5
140
0.125
171
1
172
0
173
0
174
0
175
2
176
1
 91
33
178
0
145
0.0
301
CELL_VALUE
 90
4
  1
2
304
ACVALUE_END
170
5
140
0.125
171
1
172
0
173
1
174
0
175
1
176
1
 91
1
178
0
145
0.0
170
1
  0
ACAD_TABLE
  5
295
100
AcDbEntity
  8
0
 62
2
  6
CONTINUOUS
100
AcDbBlockReference
  2
*T3
 10
0.52125
 20
1.959
 30
0.0
100
AcDbTable
342
       42F
343
213
 11
1.0
 21
0.0
 31
0.0
 90
22
 91
5
 92
3
 93
16
 94
0
 95
0
 96
0
 41
0.05
141
0.34375
141
0.344
141
0.25
141
0.25
141
0.25
142
1.3
142
2.0
142
1.3
171
1
172
0
173
0
174
0
175
3
176
1
 91
33
178
0
145
0.0
301
CELL_VALUE
 90
4
  1
Port Headings
304
ACVALUE_END
170
5
140
0.145
171
1
172
0
173
1
174
0
175
1
176
1
 91
1
178
0
145
0.0
170
1
171
1
172
0
173
1
174
0
175
1
176
1
 91
1
178
0
145
0.0
170
1
171
1
172
0
173
0
174
0
175
1
176
1
 91
33
178
0
145
0.0
301
CELL_VALUE
 90
4
  1
Product
304
ACVALUE_END
170
5
140
0.145
171
1
172
0
173
0
174
0
175
1
176
1
 91
33
178
0
145
0.0
301
CELL_VALUE
 90
4
  1
Port
304
ACVALUE_END
170
5
140
0.145
171
1
172
0
173
0
174
0
175
1
176
1
 91
33
178
0
145
0.0
301
CELL_VALUE
 90
4
  1
Size
304
ACVALUE_END
170
5
140
0.145
171
1
172
0
173
0
174
0
175
1
176
1
 91
33
178
0
145
0.0
301
CELL_VALUE
 90
4
  1
BQV
304
ACVALUE_END
170
5
140
0.125
171
1
172
0
173
0
174
0
175
1
176
1
 91
33
178
0
145
0.0
301
CELL_VALUE
 90
4
  1
Ports C1, C2, V1, V2
304
ACVALUE_END
170
5
140
0.125
171
1
172
0
173
0
174
0
175
1
176
1
 91
33
178
0
145
0.0
301
CELL_VALUE
 90
4
  1
1/2" BSPP
304
ACVALUE_END
170
5
140
0.125
171
1
172
0
173
0
174
0
175
1
176
1
 91
33
178
0
145
0.0
301
CELL_VALUE
 90
4
  1
BQV
304
ACVALUE_END
170
5
140
0.125
171
1
172
0
173
0
174
0
175
1
176
1
 91
33
178
0
145
0.0
301
CELL_VALUE
 90
4
  1
Port T
304
ACVALUE_END
170
5
140
0.125
171
1
172
0
173
0
174
0
175
1
176
1
 91
33
178
0
145
0.0
301
CELL_VALUE
 90
4
  1
3/4" BSPP
304
ACVALUE_END
170
5
140
0.125
171
1
172
0
173
0
174
0
175
1
176
1
 91
33
178
0
145
0.0
301
CELL_VALUE
 90
4
  1
BQV
304
ACVALUE_END
170
5
140
0.125
171
1
172
0
173
0
174
0
175
1
176
1
 91
33
178
0
145
0.0
301
CELL_VALUE
 90
4
  1
Port S
304
ACVALUE_END
170
5
140
0.125
171
1
172
0
173
0
174
0
175
1
176
1
 91
33
178
0
145
0.0
301
CELL_VALUE
 90
4
  1
1/4" BSPP
304
ACVALUE_END
170
5
140
0.125
  0
MTEXT
  5
296
100
AcDbEntity
  8
0
100
AcDbMText
 62
2
  6
CONTINUOUS
  7
STANDARD
 71
1
 72
1
 10
0.52125
 20
5.75995
 30
0.0
 11
1.0
 21
0.0
 31
0.0
 44
0.6
  3
Notes\P \P1. Important: Carefully consider\P   the maximum system pressure. The\P   pressure rating of the manifold is\P   dependent on the manifold material,\P   with the port type/size a secondary\P   consideration. Manifolds\P   constructed of alu
  1
minum are not\P   rated for pressures higher than\P   3000 psi (210 bar), regardless of\P   the port type/size specified.
 40
0.1
 41
3.04
  0
LINE
  5
297
100
AcDbEntity
  8
0
100
AcDbLine
 62
7
  6
CONTINUOUS
 10
0.30125
 20
0.30125
 11
0.30125
 21
16.69875
  0
LINE
  5
298
100
AcDbEntity
  8
0
100
AcDbLine
 62
7
  6
CONTINUOUS
 10
0.30125
 20
0.30125
 11
21.69875
 21
0.30125
  0
LINE
  5
299
100
AcDbEntity
  8
0
100
AcDbLine
 62
7
  6
CONTINUOUS
 10
0.30125
 20
16.69875
 11
21.69875
 21
16.69875
  0
LINE
  5
29A
100
AcDbEntity
  8
0
100
AcDbLine
 62
7
  6
CONTINUOUS
 10
21.69875
 20
0.30125
 11
21.69875
 21
16.69875
  0
LINE
  5
29B
100
AcDbEntity
  8
0
100
AcDbLine
 62
7
  6
CONTINUOUS
 10
8.5828629239
 20
9.6141135594
 11
8.5828629239
 21
6.7163359089
  0
LINE
  5
29C
100
AcDbEntity
  8
0
100
AcDbLine
 62
7
  6
CONTINUOUS
 10
8.5828629239
 20
9.6141135594
 11
9.553433542
 21
10.5516128413
  0
LINE
  5
29D
100
AcDbEntity
  8
0
100
AcDbLine
 62
4
  6
CONTINUOUS
 10
9.1257132479
 20
8.5409942265
 11
9.1257132479
 21
8.4830386747
  0
LINE
  5
29E
100
AcDbEntity
  8
0
100
AcDbLine
 62
4
  6
CONTINUOUS
 10
9.1257132479
 20
7.6354386697
 11
9.1257132479
 21
7.6499275577
  0
LINE
  5
29F
100
AcDbEntity
  8
0
100
AcDbLine
 62
4
  6
CONTINUOUS
 10
9.1257132479
 20
9.0843275238
 11
9.1257132479
 21
9.0988164117
  0
LINE
  5
2A0
100
AcDbEntity
  8
0
100
AcDbLine
 62
4
  6
CONTINUOUS
 10
9.1257132479
 20
9.0988164117
 11
9.1353725068
 21
9.1126354278
  0
LINE
  5
2A1
100
AcDbEntity
  8
0
100
AcDbLine
 62
7
  6
CONTINUOUS
 10
12.446566458
 20
6.4483871587
 11
11.3224162785
 21
6.5263472384
  0
LINE
  5
2A2
100
AcDbEntity
  8
0
100
AcDbLine
 62
7
  6
CONTINUOUS
 10
11.0679221665
 20
6.5439964651
 11
9.9643339754
 21
6.6205305661
  0
LINE
  5
2A3
100
AcDbEntity
  8
0
100
AcDbLine
 62
7
  6
CONTINUOUS
 10
9.7097968796
 20
6.6381827736
 11
8.5828629239
 21
6.7163359089
  0
LINE
  5
2A4
100
AcDbEntity
  8
0
100
AcDbLine
 62
4
  6
CONTINUOUS
 10
9.1353725068
 20
7.6202799099
 11
9.1257132479
 21
7.6354386697
  0
LINE
  5
2A5
100
AcDbEntity
  8
0
100
AcDbLine
 62
4
  6
CONTINUOUS
 10
9.231965095
 20
7.657047855
 11
9.2416243513
 21
7.6418890953
  0
LINE
  5
2A6
100
AcDbEntity
  8
0
100
AcDbLine
 62
4
  6
CONTINUOUS
 10
9.1643502835
 20
8.7628925018
 11
9.1643502835
 21
8.7194258381
  0
LINE
  5
2A7
100
AcDbEntity
  8
0
100
AcDbLine
 62
4
  6
CONTINUOUS
 10
9.1643502835
 20
7.3140036478
 11
9.1643502835
 21
7.270536984
  0
LINE
  5
2A8
100
AcDbEntity
  8
0
100
AcDbLine
 62
4
  6
CONTINUOUS
 10
9.1836687996
 20
8.8847083056
 11
9.1836687996
 21
8.8484860858
  0
LINE
  5
2A9
100
AcDbEntity
  8
0
100
AcDbLine
 62
4
  6
CONTINUOUS
 10
9.1836687996
 20
8.6456416548
 11
9.1836687996
 21
8.602174991
  0
LINE
  5
2AA
100
AcDbEntity
  8
0
100
AcDbLine
 62
4
  6
CONTINUOUS
 10
9.1836687996
 20
7.4358194515
 11
9.1836687996
 21
7.3995972317
  0
LINE
  5
2AB
100
AcDbEntity
  8
0
100
AcDbLine
 62
4
  6
CONTINUOUS
 10
9.1836687996
 20
7.1967528007
 11
9.1836687996
 21
7.1532861369
  0
LINE
  5
2AC
100
AcDbEntity
  8
0
100
AcDbLine
 62
4
  6
CONTINUOUS
 10
9.2416243513
 20
9.0907779494
 11
9.2416243513
 21
9.0762890615
  0
LINE
  5
2AD
100
AcDbEntity
  8
0
100
AcDbLine
 62
4
  6
CONTINUOUS
 10
9.2416243513
 20
8.8806890744
 11
9.2416243513
 21
8.8227335227
  0
LINE
  5
2AE
100
AcDbEntity
  8
0
100
AcDbLine
 62
4
  6
CONTINUOUS
 10
9.2416243513
 20
8.5112224322
 11
9.2416243513
 21
8.4967335443
  0
LINE
  5
2AF
100
AcDbEntity
  8
0
100
AcDbLine
 62
4
  6
CONTINUOUS
 10
9.2416243513
 20
7.6418890953
 11
9.2416243513
 21
7.6274002074
  0
LINE
  5
2B0
100
AcDbEntity
  8
0
100
AcDbLine
 62
4
  6
CONTINUOUS
 10
9.2416243513
 20
7.4318002204
 11
9.2416243513
 21
7.3738446686
  0
LINE
  5
2B1
100
AcDbEntity
  8
0
100
AcDbLine
 62
4
  6
CONTINUOUS
 10
9.2416243513
 20
9.0762890615
 11
9.231965095
 21
9.0624700452
  0
LINE
  5
2B2
100
AcDbEntity
  8
0
100
AcDbLine
 62
4
  6
CONTINUOUS
 10
12.206050816
 20
6.9137394628
 11
12.1770730401
 21
6.9085046344
  0
LINE
  5
2B3
100
AcDbEntity
  8
0
100
AcDbLine
 62
4
  6
CONTINUOUS
 10
9.1257132479
 20
7.3311720232
 11
9.2416243513
 21
7.2869113411
  0
LINE
  5
2B4
100
AcDbEntity
  8
0
100
AcDbLine
 62
4
  6
CONTINUOUS
 10
9.1257132479
 20
7.5557497861
 11
9.2416243513
 21
7.4897557721
  0
LINE
  5
2B5
100
AcDbEntity
  8
0
100
AcDbLine
 62
4
  6
CONTINUOUS
 10
9.1450317657
 20
7.6123655941
 11
9.1353725068
 21
7.6202799099
  0
LINE
  5
2B6
100
AcDbEntity
  8
0
100
AcDbLine
 62
4
  6
CONTINUOUS
 10
9.2126465754
 20
7.6728764868
 11
9.231965095
 21
7.657047855
  0
LINE
  5
2B7
100
AcDbEntity
  8
0
100
AcDbLine
 62
7
  6
CONTINUOUS
 10
9.4304713099
 20
9.1032181084
 11
9.3274708093
 21
9.0037272589
  0
LINE
  5
2B8
100
AcDbEntity
  8
0
100
AcDbLine
 62
4
  6
CONTINUOUS
 10
9.1353725068
 20
9.1126354278
 11
9.1546910237
 21
9.125784572
  0
LINE
  5
2B9
100
AcDbEntity
  8
0
100
AcDbLine
 62
4
  6
CONTINUOUS
 10
9.231965095
 20
9.0624700452
 11
9.2223058317
 21
9.0558954735
  0
LINE
  5
2BA
100
AcDbEntity
  8
0
100
AcDbLine
 62
4
  6
CONTINUOUS
 10
9.2416243513
 20
7.0550891342
 11
9.1257132479
 21
7.0631275965
  0
LINE
  5
2BB
100
AcDbEntity
  8
0
100
AcDbLine
 62
4
  6
CONTINUOUS
 10
9.1933280559
 20
8.4855940158
 11
9.1740095398
 21
8.5159115353
  0
LINE
  5
2BC
100
AcDbEntity
  8
0
100
AcDbLine
 62
4
  6
CONTINUOUS
 10
9.231965095
 20
8.5263811919
 11
9.2416243513
 21
8.5112224322
  0
LINE
  5
2BD
100
AcDbEntity
  8
0
100
AcDbLine
 62
4
  6
CONTINUOUS
 10
9.2416243513
 20
8.4967335443
 11
9.231965095
 21
8.4829145281
  0
LINE
  5
2BE
100
AcDbEntity
  8
0
100
AcDbLine
 62
7
  6
CONTINUOUS
 10
9.9198678727
 20
9.3518315788
 11
9.8168673721
 21
9.2523407293
  0
LINE
  5
2BF
100
AcDbEntity
  8
0
100
AcDbLine
 62
7
  6
CONTINUOUS
 10
9.9737886813
 20
9.348092158
 11
9.8707881808
 21
9.2486013085
  0
LINE
  5
2C0
100
AcDbEntity
  8
0
100
AcDbLine
 62
4
  6
CONTINUOUS
 10
12.1480952643
 20
7.3306919999
 11
12.1770730401
 21
7.3359268283
  0
LINE
  5
2C1
100
AcDbEntity
  8
0
100
AcDbLine
 62
4
  6
CONTINUOUS
 10
12.2350285918
 20
7.150796498
 11
12.1191174884
 21
7.1588349604
  0
LINE
  5
2C2
100
AcDbEntity
  8
0
100
AcDbLine
 62
4
  6
CONTINUOUS
 10
9.1836687996
 20
7.6821305463
 11
9.2126465754
 21
7.6728764868
  0
LINE
  5
2C3
100
AcDbEntity
  8
0
100
AcDbLine
 62
4
  6
CONTINUOUS
 10
9.1353725068
 20
9.069168764
 11
9.1257132479
 21
9.0843275238
  0
LINE
  5
2C4
100
AcDbEntity
  8
0
100
AcDbLine
 62
4
  6
CONTINUOUS
 10
9.1257132479
 20
7.6499275577
 11
9.1353725068
 21
7.6637465737
  0
LINE
  5
2C5
100
AcDbEntity
  8
0
100
AcDbLine
 62
7
  6
CONTINUOUS
 10
10.7071744584
 20
9.7514269785
 11
10.7078761742
 21
9.7520921765
  0
LINE
  5
2C6
100
AcDbEntity
  8
0
100
AcDbLine
 62
7
  6
CONTINUOUS
 10
10.7226292725
 20
9.7658099976
 11
10.7232973442
 21
9.7664414737
  0
LINE
  5
2C7
100
AcDbEntity
  8
0
100
AcDbLine
 62
7
  6
CONTINUOUS
 10
10.7232911039
 20
9.7664373869
 11
10.7078761742
 21
9.7520921765
  0
LINE
  5
2C8
100
AcDbEntity
  8
0
100
AcDbLine
 62
4
  6
CONTINUOUS
 10
9.2416243513
 20
8.9966001779
 11
9.1257132479
 21
8.9466830885
  0
LINE
  5
2C9
100
AcDbEntity
  8
0
100
AcDbLine
 62
4
  6
CONTINUOUS
 10
9.1257132479
 20
7.4398386827
 11
9.2416243513
 21
7.4318002204
  0
LINE
  5
2CA
100
AcDbEntity
  8
0
100
AcDbLine
 62
4
  6
CONTINUOUS
 10
12.2350285918
 20
7.2667076015
 11
12.1191174884
 21
7.2747460638
  0
LINE
  5
2CB
100
AcDbEntity
  8
0
100
AcDbLine
 62
4
  6
CONTINUOUS
 10
12.1770730401
 20
6.9085046344
 11
12.1480952643
 21
6.917758694
  0
LINE
  5
2CC
100
AcDbEntity
  8
0
100
AcDbLine
 62
4
  6
CONTINUOUS
 10
9.2029873191
 20
8.4776796997
 11
9.1933280559
 21
8.4855940158
  0
LINE
  5
2CD
100
AcDbEntity
  8
0
100
AcDbLine
 62
4
  6
CONTINUOUS
 10
9.1740095398
 20
8.5159115353
 11
9.1546910237
 21
8.5317401669
  0
LINE
  5
2CE
100
AcDbEntity
  8
0
100
AcDbLine
 62
4
  6
CONTINUOUS
 10
9.2223058317
 20
8.534295508
 11
9.231965095
 21
8.5263811919
  0
LINE
  5
2CF
100
AcDbEntity
  8
0
100
AcDbLine
 62
4
  6
CONTINUOUS
 10
9.231965095
 20
9.105936709
 11
9.2416243513
 21
9.0907779494
  0
LINE
  5
2D0
100
AcDbEntity
  8
0
100
AcDbLine
 62
4
  6
CONTINUOUS
 10
9.2416243513
 20
7.6274002074
 11
9.231965095
 21
7.6135811912
  0
LINE
  5
2D1
100
AcDbEntity
  8
0
100
AcDbLine
 62
7
  6
CONTINUOUS
 10
11.0845748014
 20
9.7404287403
 11
11.0848514789
 21
9.7406898023
  0
LINE
  5
2D2
100
AcDbEntity
  8
0
100
AcDbLine
 62
4
  6
CONTINUOUS
 10
9.231965095
 20
8.4829145281
 11
9.2223058317
 21
8.4763399563
  0
LINE
  5
2D3
100
AcDbEntity
  8
0
100
AcDbLine
 62
4
  6
CONTINUOUS
 10
12.8759468951
 20
7.5421826976
 11
12.8681823303
 21
7.5419271475
  0
LINE
  5
2D4
100
AcDbEntity
  8
0
100
AcDbLine
 62
4
  6
CONTINUOUS
 10
12.1191174884
 20
7.5355460465
 11
12.2350285918
 21
7.5275075842
  0
LINE
  5
2D5
100
AcDbEntity
  8
0
100
AcDbLine
 62
7
  6
CONTINUOUS
 10
10.4631852442
 20
9.0315991538
 11
10.3601847436
 21
8.9321083043
  0
LINE
  5
2D6
100
AcDbEntity
  8
0
100
AcDbLine
 62
7
  6
CONTINUOUS
 10
10.4901456485
 20
8.9830326533
 11
10.3871451479
 21
8.8835418038
  0
LINE
  5
2D7
100
AcDbEntity
  8
0
100
AcDbLine
 62
4
  6
CONTINUOUS
 10
9.2416243513
 20
7.2869113411
 11
9.1257132479
 21
7.2587275836
  0
LINE
  5
2D8
100
AcDbEntity
  8
0
100
AcDbLine
 62
4
  6
CONTINUOUS
 10
12.1770730401
 20
7.3359268283
 11
12.206050816
 21
7.3266727688
  0
LINE
  5
2D9
100
AcDbEntity
  8
0
100
AcDbLine
 62
4
  6
CONTINUOUS
 10
12.2350285918
 20
7.0348853946
 11
12.1191174884
 21
7.1008794087
  0
LINE
  5
2DA
100
AcDbEntity
  8
0
100
AcDbLine
 62
4
  6
CONTINUOUS
 10
9.1450317657
 20
9.0612544481
 11
9.1353725068
 21
9.069168764
  0
LINE
  5
2DB
100
AcDbEntity
  8
0
100
AcDbLine
 62
4
  6
CONTINUOUS
 10
9.2126465754
 20
9.1217653408
 11
9.231965095
 21
9.105936709
  0
LINE
  5
2DC
100
AcDbEntity
  8
0
100
AcDbLine
 62
7
  6
CONTINUOUS
 10
10.7885631196
 20
9.0090341215
 11
10.685562619
 21
8.909543272
  0
LINE
  5
2DD
100
AcDbEntity
  8
0
100
AcDbLine
 62
7
  6
CONTINUOUS
 10
9.4304713099
 20
7.6543292831
 11
9.3274708093
 21
7.5548384336
  0
LINE
  5
2DE
100
AcDbEntity
  8
0
100
AcDbLine
 62
4
  6
CONTINUOUS
 10
9.1546910237
 20
7.6768957179
 11
9.1836687996
 21
7.6821305463
  0
LINE
  5
2DF
100
AcDbEntity
  8
0
100
AcDbLine
 62
4
  6
CONTINUOUS
 10
9.1546910237
 20
8.5317401669
 11
9.1257132479
 21
8.5409942265
  0
LINE
  5
2E0
100
AcDbEntity
  8
0
100
AcDbLine
 62
4
  6
CONTINUOUS
 10
9.1257132479
 20
8.7800608773
 11
9.2416243513
 21
8.7358001951
  0
LINE
  5
2E1
100
AcDbEntity
  8
0
100
AcDbLine
 62
4
  6
CONTINUOUS
 10
9.1257132479
 20
9.0046386402
 11
9.2416243513
 21
8.9386446261
  0
LINE
  5
2E2
100
AcDbEntity
  8
0
100
AcDbLine
 62
4
  6
CONTINUOUS
 10
12.1480952643
 20
6.917758694
 11
12.1287767447
 21
6.9335873258
  0
LINE
  5
2E3
100
AcDbEntity
  8
0
100
AcDbLine
 62
4
  6
CONTINUOUS
 10
12.215710074
 20
6.9782695867
 11
12.2253693329
 21
6.9703552708
  0
LINE
  5
2E4
100
AcDbEntity
  8
0
100
AcDbLine
 62
7
  6
CONTINUOUS
 10
10.6975825946
 20
9.7325700852
 11
10.6975825946
 21
9.7102753093
  0
LINE
  5
2E5
100
AcDbEntity
  8
0
100
AcDbLine
 62
7
  6
CONTINUOUS
 10
11.2779596824
 20
9.2576475919
 11
11.1749591819
 21
9.1581567424
  0
LINE
  5
2E6
100
AcDbEntity
  8
0
100
AcDbLine
 62
7
  6
CONTINUOUS
 10
9.9198678727
 20
7.9029427535
 11
9.8168673721
 21
7.803451904
  0
LINE
  5
2E7
100
AcDbEntity
  8
0
100
AcDbLine
 62
7
  6
CONTINUOUS
 10
11.3318804911
 20
9.2539081711
 11
11.2288799905
 21
9.1544173216
  0
LINE
  5
2E8
100
AcDbEntity
  8
0
100
AcDbLine
 62
7
  6
CONTINUOUS
 10
10.4901456485
 20
8.4179261788
 11
10.3871451479
 21
8.3184353292
  0
LINE
  5
2E9
100
AcDbEntity
  8
0
100
AcDbLine
 62
7
  6
CONTINUOUS
 10
10.4631852442
 20
8.3730990991
 11
10.3601847436
 21
8.2736082496
  0
LINE
  5
2EA
100
AcDbEntity
  8
0
100
AcDbLine
 62
7
  6
CONTINUOUS
 10
9.9737886813
 20
7.8992033327
 11
9.8707881808
 21
7.7997124832
  0
LINE
  5
2EB
100
AcDbEntity
  8
0
100
AcDbLine
 62
4
  6
CONTINUOUS
 10
9.1353725068
 20
7.6637465737
 11
9.1546910237
 21
7.6768957179
  0
LINE
  5
2EC
100
AcDbEntity
  8
0
100
AcDbLine
 62
4
  6
CONTINUOUS
 10
9.231965095
 20
7.6135811912
 11
9.2223058317
 21
7.6070066194
  0
LINE
  5
2ED
100
AcDbEntity
  8
0
100
AcDbLine
 62
4
  6
CONTINUOUS
 10
12.206050816
 20
8.3626284032
 11
12.1770730401
 21
8.3573935748
  0
LINE
  5
2EE
100
AcDbEntity
  8
0
100
AcDbLine
 62
7
  6
CONTINUOUS
 10
10.902331899
 20
9.7669639146
 11
10.902331899
 21
9.7278378891
  0
LINE
  5
2EF
100
AcDbEntity
  8
0
100
AcDbLine
 62
7
  6
CONTINUOUS
 10
11.0071752695
 20
9.7742348399
 11
11.0071752695
 21
9.7206386041
  0
LINE
  5
2F0
100
AcDbEntity
  8
0
100
AcDbLine
 62
4
  6
CONTINUOUS
 10
9.2223058317
 20
8.4763399563
 11
9.2029873191
 21
8.4776796997
  0
LINE
  5
2F1
100
AcDbEntity
  8
0
100
AcDbLine
 62
4
  6
CONTINUOUS
 10
12.206050816
 20
7.3266727688
 11
12.2253693329
 21
7.3108441371
  0
LINE
  5
2F2
100
AcDbEntity
  8
0
100
AcDbLine
 62
4
  6
CONTINUOUS
 10
12.1287767447
 20
9.0054984471
 11
12.1384360079
 21
9.0120730189
  0
LINE
  5
2F3
100
AcDbEntity
  8
0
100
AcDbLine
 62
4
  6
CONTINUOUS
 10
9.2416243513
 20
7.5477113238
 11
9.1257132479
 21
7.4977942344
  0
LINE
  5
2F4
100
AcDbEntity
  8
0
100
AcDbLine
 62
4
  6
CONTINUOUS
 10
12.1480952643
 20
8.7795809404
 11
12.1770730401
 21
8.7848157687
  0
LINE
  5
2F5
100
AcDbEntity
  8
0
100
AcDbLine
 62
4
  6
CONTINUOUS
 10
12.2350285918
 20
8.5996854385
 11
12.1191174884
 21
8.6077239008
  0
LINE
  5
2F6
100
AcDbEntity
  8
0
100
AcDbLine
 62
4
  6
CONTINUOUS
 10
9.1836687996
 20
9.1310194004
 11
9.2126465754
 21
9.1217653408
  0
LINE
  5
2F7
100
AcDbEntity
  8
0
100
AcDbLine
 62
4
  6
CONTINUOUS
 10
12.1770730401
 20
8.3573935748
 11
12.1480952643
 21
8.3666476344
  0
LINE
  5
2F8
100
AcDbEntity
  8
0
100
AcDbLine
 62
4
  6
CONTINUOUS
 10
12.1287767447
 20
6.9335873258
 11
12.1191174884
 21
6.9487460854
  0
LINE
  5
2F9
100
AcDbEntity
  8
0
100
AcDbLine
 62
4
  6
CONTINUOUS
 10
12.2253693329
 20
6.9703552708
 11
12.2350285918
 21
6.955196511
  0
LINE
  5
2FA
100
AcDbEntity
  8
0
100
AcDbLine
 62
7
  6
CONTINUOUS
 10
11.2605825946
 20
9.7325700852
 11
11.2605825946
 21
9.7102114189
  0
LINE
  5
2FB
100
AcDbEntity
  8
0
100
AcDbLine
 62
7
  6
CONTINUOUS
 10
11.8212770539
 20
8.9374151669
 11
11.7182765533
 21
8.8379243174
  0
LINE
  5
2FC
100
AcDbEntity
  8
0
100
AcDbLine
 62
7
  6
CONTINUOUS
 10
10.4631852442
 20
7.5827103285
 11
10.3601847436
 21
7.483219479
  0
LINE
  5
2FD
100
AcDbEntity
  8
0
100
AcDbLine
 62
7
  6
CONTINUOUS
 10
11.8482374582
 20
8.8888486664
 11
11.7452369577
 21
8.7893578169
  0
LINE
  5
2FE
100
AcDbEntity
  8
0
100
AcDbLine
 62
7
  6
CONTINUOUS
 10
10.4901456485
 20
7.5341438281
 11
10.3871451479
 21
7.4346529785
  0
LINE
  5
2FF
100
AcDbEntity
  8
0
100
AcDbLine
 62
7
  6
CONTINUOUS
 10
13.4171370761
 20
10.2836640911
 11
12.446566458
 21
9.3461648093
  0
LINE
  5
300
100
AcDbEntity
  8
0
100
AcDbLine
 62
4
  6
CONTINUOUS
 10
12.1287767447
 20
8.7664317963
 11
12.1480952643
 21
8.7795809404
  0
LINE
  5
301
100
AcDbEntity
  8
0
100
AcDbLine
 62
4
  6
CONTINUOUS
 10
12.1191174884
 20
8.4918127974
 11
12.2350285918
 21
8.5417298868
  0
LINE
  5
302
100
AcDbEntity
  8
0
100
AcDbLine
 62
4
  6
CONTINUOUS
 10
12.8759468951
 20
8.9910715804
 11
12.8681823303
 21
8.9908160303
  0
LINE
  5
303
100
AcDbEntity
  8
0
100
AcDbLine
 62
4
  6
CONTINUOUS
 10
9.1257132479
 20
8.8887275368
 11
9.2416243513
 21
8.8806890744
  0
LINE
  5
304
100
AcDbEntity
  8
0
100
AcDbLine
 62
4
  6
CONTINUOUS
 10
12.2350285918
 20
8.7155965419
 11
12.1191174884
 21
8.7236350042
  0
LINE
  5
305
100
AcDbEntity
  8
0
100
AcDbLine
 62
4
  6
CONTINUOUS
 10
12.2253693329
 20
7.3108441371
 11
12.2350285918
 21
7.2956853773
  0
LINE
  5
306
100
AcDbEntity
  8
0
100
AcDbLine
 62
4
  6
CONTINUOUS
 10
12.1191174884
 20
8.9916794309
 11
12.1287767447
 21
9.0054984471
  0
LINE
  5
307
100
AcDbEntity
  8
0
100
AcDbLine
 62
7
  6
CONTINUOUS
 10
10.7885631196
 20
7.5601452962
 11
10.685562619
 21
7.4606544467
  0
LINE
  5
308
100
AcDbEntity
  8
0
100
AcDbLine
 62
4
  6
CONTINUOUS
 10
9.2416243513
 20
8.7358001951
 11
9.1257132479
 21
8.7076164376
  0
LINE
  5
309
100
AcDbEntity
  8
0
100
AcDbLine
 62
4
  6
CONTINUOUS
 10
12.8837114599
 20
9.1362160099
 11
12.8914760246
 21
9.13647156
  0
LINE
  5
30A
100
AcDbEntity
  8
0
100
AcDbLine
 62
4
  6
CONTINUOUS
 10
12.1384360079
 20
9.0120730189
 11
12.1577545206
 21
9.0107332755
  0
LINE
  5
30B
100
AcDbEntity
  8
0
100
AcDbLine
 62
4
  6
CONTINUOUS
 10
12.1770730401
 20
8.7848157687
 11
12.206050816
 21
8.7755617092
  0
LINE
  5
30C
100
AcDbEntity
  8
0
100
AcDbLine
 62
4
  6
CONTINUOUS
 10
12.2350285918
 20
8.483774335
 11
12.1191174884
 21
8.5497683491
  0
LINE
  5
30D
100
AcDbEntity
  8
0
100
AcDbLine
 62
4
  6
CONTINUOUS
 10
12.1480952643
 20
8.3666476344
 11
12.1287767447
 21
8.3824762662
  0
LINE
  5
30E
100
AcDbEntity
  8
0
100
AcDbLine
 62
4
  6
CONTINUOUS
 10
12.1191174884
 20
8.7526127801
 11
12.1287767447
 21
8.7664317963
  0
LINE
  5
30F
100
AcDbEntity
  8
0
100
AcDbLine
 62
7
  6
CONTINUOUS
 10
11.2779596824
 20
7.8087587666
 11
11.1749591819
 21
7.7092679171
  0
LINE
  5
310
100
AcDbEntity
  8
0
100
AcDbLine
 62
7
  6
CONTINUOUS
 10
11.8482374582
 20
8.3237421919
 11
11.7452369577
 21
8.2242513424
  0
LINE
  5
311
100
AcDbEntity
  8
0
100
AcDbLine
 62
7
  6
CONTINUOUS
 10
11.8212770539
 20
8.2789151122
 11
11.7182765533
 21
8.1794242627
  0
LINE
  5
312
100
AcDbEntity
  8
0
100
AcDbLine
 62
7
  6
CONTINUOUS
 10
11.3318804911
 20
7.8050193458
 11
11.2288799905
 21
7.7055284963
  0
LINE
  5
313
100
AcDbEntity
  8
0
100
AcDbLine
 62
7
  6
CONTINUOUS
 10
10.4901456485
 20
6.9690373535
 11
10.3871451479
 21
6.869546504
  0
LINE
  5
314
100
AcDbEntity
  8
0
100
AcDbLine
 62
7
  6
CONTINUOUS
 10
10.4631852442
 20
6.9242102738
 11
10.3601847436
 21
6.8247194243
  0
LINE
  5
315
100
AcDbEntity
  8
0
100
AcDbLine
 62
4
  6
CONTINUOUS
 10
12.8655941427
 20
9.169427132
 11
12.870770518
 21
9.1744271269
  0
LINE
  5
316
100
AcDbEntity
  8
0
100
AcDbLine
 62
4
  6
CONTINUOUS
 10
12.1287767447
 20
8.42594293
 11
12.1384360079
 21
8.4325175018
  0
LINE
  5
317
100
AcDbEntity
  8
0
100
AcDbLine
 62
4
  6
CONTINUOUS
 10
12.2253693329
 20
8.3757775475
 11
12.206050816
 21
8.3626284032
  0
LINE
  5
318
100
AcDbEntity
  8
0
100
AcDbLine
 62
4
  6
CONTINUOUS
 10
12.206050816
 20
8.9566728083
 11
12.2350285918
 21
8.9474187488
  0
LINE
  5
319
100
AcDbEntity
  8
0
100
AcDbLine
 62
4
  6
CONTINUOUS
 10
12.215710074
 20
8.4271585271
 11
12.2253693329
 21
8.4192442112
  0
LINE
  5
31A
100
AcDbEntity
  8
0
100
AcDbLine
 62
4
  6
CONTINUOUS
 10
12.1191174884
 20
8.4121239138
 11
12.1287767447
 21
8.42594293
  0
LINE
  5
31B
100
AcDbEntity
  8
0
100
AcDbLine
 62
4
  6
CONTINUOUS
 10
12.2350285918
 20
8.3895965635
 11
12.2253693329
 21
8.3757775475
  0
LINE
  5
31C
100
AcDbEntity
  8
0
100
AcDbLine
 62
4
  6
CONTINUOUS
 10
9.1546910237
 20
9.125784572
 11
9.1836687996
 21
9.1310194004
  0
LINE
  5
31D
100
AcDbEntity
  8
0
100
AcDbLine
 62
7
  6
CONTINUOUS
 10
12.446566458
 20
9.3461648093
 11
8.5828629239
 21
9.6141135594
  0
LINE
  5
31E
100
AcDbEntity
  8
0
100
AcDbLine
 62
4
  6
CONTINUOUS
 10
12.206050816
 20
8.7755617092
 11
12.2253693329
 21
8.7597330776
  0
LINE
  5
31F
100
AcDbEntity
  8
0
100
AcDbLine
 62
4
  6
CONTINUOUS
 10
12.1384360079
 20
8.9541174672
 11
12.1287767447
 21
8.9620317834
  0
LINE
  5
320
100
AcDbEntity
  8
0
100
AcDbLine
 62
4
  6
CONTINUOUS
 10
12.1287767447
 20
8.3824762662
 11
12.1191174884
 21
8.3976350258
  0
LINE
  5
321
100
AcDbEntity
  8
0
100
AcDbLine
 62
4
  6
CONTINUOUS
 10
12.2253693329
 20
8.4192442112
 11
12.2350285918
 21
8.4040854514
  0
LINE
  5
322
100
AcDbEntity
  8
0
100
AcDbLine
 62
4
  6
CONTINUOUS
 10
12.1191174884
 20
6.9487460854
 11
12.1191174884
 21
6.9632349733
  0
LINE
  5
323
100
AcDbEntity
  8
0
100
AcDbLine
 62
4
  6
CONTINUOUS
 10
12.1191174884
 20
7.1588349604
 11
12.1191174884
 21
7.2167905121
  0
LINE
  5
324
100
AcDbEntity
  8
0
100
AcDbLine
 62
4
  6
CONTINUOUS
 10
12.1191174884
 20
7.2747460638
 11
12.1191174884
 21
7.3037238397
  0
LINE
  5
325
100
AcDbEntity
  8
0
100
AcDbLine
 62
4
  6
CONTINUOUS
 10
12.1191174884
 20
8.3976350258
 11
12.1191174884
 21
8.4121239138
  0
LINE
  5
326
100
AcDbEntity
  8
0
100
AcDbLine
 62
4
  6
CONTINUOUS
 10
12.1191174884
 20
8.6077239008
 11
12.1191174884
 21
8.6656794525
  0
LINE
  5
327
100
AcDbEntity
  8
0
100
AcDbLine
 62
4
  6
CONTINUOUS
 10
12.1191174884
 20
8.7236350042
 11
12.1191174884
 21
8.7526127801
  0
LINE
  5
328
100
AcDbEntity
  8
0
100
AcDbLine
 62
4
  6
CONTINUOUS
 10
12.1191174884
 20
8.977190543
 11
12.1191174884
 21
8.9916794309
  0
LINE
  5
329
100
AcDbEntity
  8
0
100
AcDbLine
 62
4
  6
CONTINUOUS
 10
12.1770730401
 20
7.1548157292
 11
12.1770730401
 21
7.191037949
  0
LINE
  5
32A
100
AcDbEntity
  8
0
100
AcDbLine
 62
4
  6
CONTINUOUS
 10
12.1770730401
 20
7.39388238
 11
12.1770730401
 21
7.4373490438
  0
LINE
  5
32B
100
AcDbEntity
  8
0
100
AcDbLine
 62
4
  6
CONTINUOUS
 10
12.1770730401
 20
8.6037046696
 11
12.1770730401
 21
8.6399268895
  0
LINE
  5
32C
100
AcDbEntity
  8
0
100
AcDbLine
 62
4
  6
CONTINUOUS
 10
12.1770730401
 20
8.8427713205
 11
12.1770730401
 21
8.8862379842
  0
LINE
  5
32D
100
AcDbEntity
  8
0
100
AcDbLine
 62
4
  6
CONTINUOUS
 10
12.2350285918
 20
8.7445743178
 11
12.2350285918
 21
8.7155965419
  0
LINE
  5
32E
100
AcDbEntity
  8
0
100
AcDbLine
 62
4
  6
CONTINUOUS
 10
12.2350285918
 20
8.6576409902
 11
12.2350285918
 21
8.5996854385
  0
LINE
  5
32F
100
AcDbEntity
  8
0
100
AcDbLine
 62
4
  6
CONTINUOUS
 10
12.2350285918
 20
8.4040854514
 11
12.2350285918
 21
8.3895965635
  0
LINE
  5
330
100
AcDbEntity
  8
0
100
AcDbLine
 62
4
  6
CONTINUOUS
 10
12.2350285918
 20
7.2956853773
 11
12.2350285918
 21
7.2667076015
  0
LINE
  5
331
100
AcDbEntity
  8
0
100
AcDbLine
 62
4
  6
CONTINUOUS
 10
12.2350285918
 20
7.2087520498
 11
12.2350285918
 21
7.150796498
  0
LINE
  5
332
100
AcDbEntity
  8
0
100
AcDbLine
 62
4
  6
CONTINUOUS
 10
12.2350285918
 20
6.955196511
 11
12.2350285918
 21
6.9407076231
  0
LINE
  5
333
100
AcDbEntity
  8
0
100
AcDbLine
 62
4
  6
CONTINUOUS
 10
12.2350285918
 20
8.9474187488
 11
12.2350285918
 21
9.0053743005
  0
LINE
  5
334
100
AcDbEntity
  8
0
100
AcDbLine
 62
4
  6
CONTINUOUS
 10
12.792089598
 20
8.6801812622
 11
12.7972659746
 21
8.6851812584
  0
LINE
  5
335
100
AcDbEntity
  8
0
100
AcDbLine
 62
4
  6
CONTINUOUS
 10
12.7765604693
 20
8.6072257232
 11
12.779148657
 21
8.6097257206
  0
LINE
  5
336
100
AcDbEntity
  8
0
100
AcDbLine
 62
4
  6
CONTINUOUS
 10
12.1867322999
 20
8.9725014399
 11
12.206050816
 21
8.9566728083
  0
LINE
  5
337
100
AcDbEntity
  8
0
100
AcDbLine
 62
4
  6
CONTINUOUS
 10
12.1577545206
 20
9.0107332755
 11
12.1674137838
 21
9.0028189594
  0
LINE
  5
338
100
AcDbEntity
  8
0
100
AcDbLine
 62
7
  6
CONTINUOUS
 10
11.2348740853
 20
9.7664373869
 11
11.250289015
 21
9.7520921765
  0
LINE
  5
339
100
AcDbEntity
  8
0
100
AcDbLine
 62
4
  6
CONTINUOUS
 10
12.2253693329
 20
8.7597330776
 11
12.2350285918
 21
8.7445743178
  0
LINE
  5
33A
100
AcDbEntity
  8
0
100
AcDbLine
 62
4
  6
CONTINUOUS
 10
12.1287767447
 20
8.9620317834
 11
12.1191174884
 21
8.977190543
  0
LINE
  5
33B
100
AcDbEntity
  8
0
100
AcDbLine
 62
4
  6
CONTINUOUS
 10
12.1674137838
 20
9.0028189594
 11
12.1867322999
 21
8.9725014399
  0
LINE
  5
33C
100
AcDbEntity
  8
0
100
AcDbLine
 62
4
  6
CONTINUOUS
 10
12.8681823303
 20
7.5419271475
 11
12.8630059532
 21
7.5514160387
  0
LINE
  5
33D
100
AcDbEntity
  8
0
100
AcDbLine
 62
4
  6
CONTINUOUS
 10
12.886299648
 20
7.6246271292
 11
12.8888878363
 21
7.6198826833
  0
LINE
  5
33E
100
AcDbEntity
  8
0
100
AcDbLine
 62
7
  6
CONTINUOUS
 10
12.446566458
 20
9.3461648093
 11
12.446566458
 21
6.4483871587
  0
LINE
  5
33F
100
AcDbEntity
  8
0
100
AcDbLine
 62
4
  6
CONTINUOUS
 10
12.8837114599
 20
9.0058160185
 11
12.8759468951
 21
8.9910715804
  0
LINE
  5
340
100
AcDbEntity
  8
0
100
AcDbLine
 62
7
  6
CONTINUOUS
 10
11.8212770539
 20
7.4885263416
 11
11.7182765533
 21
7.3890354921
  0
LINE
  5
341
100
AcDbEntity
  8
0
100
AcDbLine
 62
7
  6
CONTINUOUS
 10
11.8482374582
 20
7.4399598412
 11
11.7452369577
 21
7.3404689916
  0
LINE
  5
342
100
AcDbEntity
  8
0
100
AcDbLine
 62
4
  6
CONTINUOUS
 10
12.8630059532
 20
9.1596826888
 11
12.8655941427
 21
9.169427132
  0
LINE
  5
343
100
AcDbEntity
  8
0
100
AcDbLine
 62
4
  6
CONTINUOUS
 10
12.8630059532
 20
9.0437715854
 11
12.8655941427
 21
9.0535160286
  0
LINE
  5
344
100
AcDbEntity
  8
0
100
AcDbLine
 62
4
  6
CONTINUOUS
 10
12.7765604693
 20
8.6651812749
 11
12.7739722798
 21
8.6554368317
  0
LINE
  5
345
100
AcDbEntity
  8
0
100
AcDbLine
 62
4
  6
CONTINUOUS
 10
12.7895014103
 20
8.6704368208
 11
12.792089598
 21
8.6801812622
  0
LINE
  5
346
100
AcDbEntity
  8
0
100
AcDbLine
 62
4
  6
CONTINUOUS
 10
12.8888878363
 20
9.0253049024
 11
12.8837114599
 21
9.0058160185
  0
LINE
  5
347
100
AcDbEntity
  8
0
100
AcDbLine
 62
4
  6
CONTINUOUS
 10
12.779148657
 20
8.6097257206
 11
12.7817368446
 21
8.619470162
  0
LINE
  5
348
100
AcDbEntity
  8
0
100
AcDbLine
 62
4
  6
CONTINUOUS
 10
12.799854163
 20
8.6369701487
 11
12.7946777865
 21
8.6174812648
  0
LINE
  5
349
100
AcDbEntity
  8
0
100
AcDbLine
 62
4
  6
CONTINUOUS
 10
12.1191174884
 20
7.3037238397
 11
12.1287767447
 21
7.3175428559
  0
LINE
  5
34A
100
AcDbEntity
  8
0
100
AcDbLine
 62
4
  6
CONTINUOUS
 10
12.1287767447
 20
7.3175428559
 11
12.1480952643
 21
7.3306919999
  0
LINE
  5
34B
100
AcDbEntity
  8
0
100
AcDbLine
 62
4
  6
CONTINUOUS
 10
12.7739722798
 20
8.6119701679
 11
12.7765604693
 21
8.6072257232
  0
LINE
  5
34C
100
AcDbEntity
  8
0
100
AcDbLine
 62
4
  6
CONTINUOUS
 10
12.7972659746
 20
8.6851812584
 11
12.799854163
 21
8.6804368125
  0
LINE
  5
34D
100
AcDbEntity
  8
0
100
AcDbLine
 62
4
  6
CONTINUOUS
 10
12.8630059532
 20
7.5514160387
 11
12.8604177656
 21
7.5634049292
  0
LINE
  5
34E
100
AcDbEntity
  8
0
100
AcDbLine
 62
4
  6
CONTINUOUS
 10
12.8888878363
 20
7.6198826833
 11
12.8914760246
 21
7.6078937935
  0
LINE
  5
34F
100
AcDbEntity
  8
0
100
AcDbLine
 62
4
  6
CONTINUOUS
 10
12.7713840922
 20
8.6384479463
 11
12.7713840922
 21
8.6239590584
  0
LINE
  5
350
100
AcDbEntity
  8
0
100
AcDbLine
 62
4
  6
CONTINUOUS
 10
12.8024423513
 20
8.6684479227
 11
12.8024423513
 21
8.6539590347
  0
LINE
  5
351
100
AcDbEntity
  8
0
100
AcDbLine
 62
4
  6
CONTINUOUS
 10
12.8604177656
 20
7.5634049292
 11
12.8604177656
 21
7.5778938172
  0
LINE
  5
352
100
AcDbEntity
  8
0
100
AcDbLine
 62
4
  6
CONTINUOUS
 10
12.8604177656
 20
9.0122938121
 11
12.8604177656
 21
9.0267827
  0
LINE
  5
353
100
AcDbEntity
  8
0
100
AcDbLine
 62
4
  6
CONTINUOUS
 10
12.8604177656
 20
9.1282049155
 11
12.8604177656
 21
9.1426938035
  0
LINE
  5
354
100
AcDbEntity
  8
0
100
AcDbLine
 62
4
  6
CONTINUOUS
 10
12.8914760246
 20
9.0567826764
 11
12.8914760246
 21
9.0422937884
  0
LINE
  5
355
100
AcDbEntity
  8
0
100
AcDbLine
 62
4
  6
CONTINUOUS
 10
12.8914760246
 20
7.6078937935
 11
12.8914760246
 21
7.5934049056
  0
LINE
  5
356
100
AcDbEntity
  8
0
100
AcDbLine
 62
4
  6
CONTINUOUS
 10
12.8914760246
 20
9.13647156
 11
12.8914760246
 21
9.1944271117
  0
LINE
  5
357
100
AcDbEntity
  8
0
100
AcDbLine
 62
4
  6
CONTINUOUS
 10
12.7739722798
 20
8.6554368317
 11
12.7713840922
 21
8.6384479463
  0
LINE
  5
358
100
AcDbEntity
  8
0
100
AcDbLine
 62
4
  6
CONTINUOUS
 10
12.8604177656
 20
9.1426938035
 11
12.8630059532
 21
9.1596826888
  0
LINE
  5
359
100
AcDbEntity
  8
0
100
AcDbLine
 62
4
  6
CONTINUOUS
 10
12.7817368446
 20
8.619470162
 11
12.7895014103
 21
8.6704368208
  0
LINE
  5
35A
100
AcDbEntity
  8
0
100
AcDbLine
 62
4
  6
CONTINUOUS
 10
12.8024423513
 20
8.6539590347
 11
12.799854163
 21
8.6369701487
  0
LINE
  5
35B
100
AcDbEntity
  8
0
100
AcDbLine
 62
4
  6
CONTINUOUS
 10
12.8604177656
 20
9.0267827
 11
12.8630059532
 21
9.0437715854
  0
LINE
  5
35C
100
AcDbEntity
  8
0
100
AcDbLine
 62
4
  6
CONTINUOUS
 10
12.8914760246
 20
9.0422937884
 11
12.8888878363
 21
9.0253049024
  0
LINE
  5
35D
100
AcDbEntity
  8
0
100
AcDbLine
 62
4
  6
CONTINUOUS
 10
12.1191174884
 20
6.9632349733
 11
12.1287767447
 21
6.9770539896
  0
LINE
  5
35E
100
AcDbEntity
  8
0
100
AcDbLine
 62
4
  6
CONTINUOUS
 10
12.2350285918
 20
6.9407076231
 11
12.2253693329
 21
6.926888607
  0
LINE
  5
35F
100
AcDbEntity
  8
0
100
AcDbLine
 62
7
  6
CONTINUOUS
 10
11.8482374582
 20
6.8748533666
 11
11.7452369577
 21
6.7753625171
  0
LINE
  5
360
100
AcDbEntity
  8
0
100
AcDbLine
 62
7
  6
CONTINUOUS
 10
11.8212770539
 20
6.8300262869
 11
11.7182765533
 21
6.7305354374
  0
LINE
  5
361
100
AcDbEntity
  8
0
100
AcDbLine
 62
4
  6
CONTINUOUS
 10
12.8604177656
 20
7.6865604766
 11
12.8914760246
 21
7.716560453
  0
LINE
  5
362
100
AcDbEntity
  8
0
100
AcDbLine
 62
4
  6
CONTINUOUS
 10
12.1287767447
 20
6.9770539896
 11
12.1384360079
 21
6.9836285613
  0
LINE
  5
363
100
AcDbEntity
  8
0
100
AcDbLine
 62
4
  6
CONTINUOUS
 10
12.1191174884
 20
7.0429238569
 11
12.2350285918
 21
7.0928409463
  0
LINE
  5
364
100
AcDbEntity
  8
0
100
AcDbLine
 62
4
  6
CONTINUOUS
 10
12.8681823303
 20
8.9908160303
 11
12.8630059532
 21
9.0003049216
  0
LINE
  5
365
100
AcDbEntity
  8
0
100
AcDbLine
 62
4
  6
CONTINUOUS
 10
12.8655941427
 20
9.1114715803
 11
12.8630059532
 21
9.116216025
  0
LINE
  5
366
100
AcDbEntity
  8
0
100
AcDbLine
 62
4
  6
CONTINUOUS
 10
12.886299648
 20
9.0735160121
 11
12.8888878363
 21
9.0687715662
  0
LINE
  5
367
100
AcDbEntity
  8
0
100
AcDbLine
 62
4
  6
CONTINUOUS
 10
12.7713840922
 20
8.6239590584
 11
12.7739722798
 21
8.6119701679
  0
LINE
  5
368
100
AcDbEntity
  8
0
100
AcDbLine
 62
4
  6
CONTINUOUS
 10
12.799854163
 20
8.6804368125
 11
12.8024423513
 21
8.6684479227
  0
LINE
  5
369
100
AcDbEntity
  8
0
100
AcDbLine
 62
4
  6
CONTINUOUS
 10
12.8630059532
 20
9.0003049216
 11
12.8604177656
 21
9.0122938121
  0
LINE
  5
36A
100
AcDbEntity
  8
0
100
AcDbLine
 62
4
  6
CONTINUOUS
 10
12.8604177656
 20
7.5778938172
 11
12.8630059532
 21
7.5948827025
  0
LINE
  5
36B
100
AcDbEntity
  8
0
100
AcDbLine
 62
4
  6
CONTINUOUS
 10
12.8914760246
 20
7.5934049056
 11
12.8888878363
 21
7.5764160196
  0
LINE
  5
36C
100
AcDbEntity
  8
0
100
AcDbLine
 62
4
  6
CONTINUOUS
 10
12.8630059532
 20
7.5948827025
 11
12.8655941427
 21
7.6046271457
  0
LINE
  5
36D
100
AcDbEntity
  8
0
100
AcDbLine
 62
4
  6
CONTINUOUS
 10
12.8888878363
 20
7.5764160196
 11
12.8837114599
 21
7.5569271356
  0
LINE
  5
36E
100
AcDbEntity
  8
0
100
AcDbLine
 62
4
  6
CONTINUOUS
 10
12.8837114599
 20
7.5569271356
 11
12.8759468951
 21
7.5421826976
  0
LINE
  5
36F
100
AcDbEntity
  8
0
100
AcDbLine
 62
4
  6
CONTINUOUS
 10
12.2253693329
 20
6.926888607
 11
12.206050816
 21
6.9137394628
  0
LINE
  5
370
100
AcDbEntity
  8
0
100
AcDbLine
 62
7
  6
CONTINUOUS
 10
9.553433542
 20
10.5516128413
 11
13.4171370761
 21
10.2836640911
  0
LINE
  5
371
100
AcDbEntity
  8
0
100
AcDbLine
 62
4
  6
CONTINUOUS
 10
12.8785350837
 20
9.145704902
 11
12.8837114599
 21
9.1362160099
  0
LINE
  5
372
100
AcDbEntity
  8
0
100
AcDbLine
 62
4
  6
CONTINUOUS
 10
12.870770518
 20
9.1744271269
 11
12.8733587075
 21
9.1696826821
  0
LINE
  5
373
100
AcDbEntity
  8
0
100
AcDbLine
 62
4
  6
CONTINUOUS
 10
12.8630059532
 20
9.116216025
 11
12.8604177656
 21
9.1282049155
  0
LINE
  5
374
100
AcDbEntity
  8
0
100
AcDbLine
 62
4
  6
CONTINUOUS
 10
12.8888878363
 20
9.0687715662
 11
12.8914760246
 21
9.0567826764
  0
LINE
  5
375
100
AcDbEntity
  8
0
100
AcDbLine
 62
4
  6
CONTINUOUS
 10
12.8733587075
 20
9.1696826821
 11
12.8785350837
 21
9.145704902
  0
LINE
  5
376
100
AcDbEntity
  8
0
100
AcDbLine
 62
7
  6
CONTINUOUS
 10
13.4171370761
 20
10.2836640911
 11
13.4171370761
 21
7.3858864406
  0
LINE
  5
377
100
AcDbEntity
  8
0
100
AcDbLine
 62
7
  6
CONTINUOUS
 10
13.4171370761
 20
7.3858864406
 11
12.446566458
 21
6.4483871587
  0
ARC
  5
378
100
AcDbEntity
  8
0
100
AcDbCircle
 62
7
  6
CONTINUOUS
 10
9.8913827308
 20
7.2335229056
 40
0.6699925153
100
AcDbArc
 50
26.6598562642
 51
31.4115094164
  0
ARC
  5
379
100
AcDbEntity
  8
0
100
AcDbCircle
 62
7
  6
CONTINUOUS
 10
9.8983805073
 20
7.245030179
 40
0.6689722376
100
AcDbArc
 50
206.6562307081
 51
211.4151349724
  0
ARC
  5
37A
100
AcDbEntity
  8
0
100
AcDbCircle
 62
7
  6
CONTINUOUS
 10
9.7892750456
 20
7.1345276789
 40
0.6689722376
100
AcDbArc
 50
26.6562307081
 51
31.4151349725
  0
ARC
  5
37B
100
AcDbEntity
  8
0
100
AcDbCircle
 62
7
  6
CONTINUOUS
 10
11.1473668554
 20
7.040343692
 40
0.6689722376
100
AcDbArc
 50
26.6562307081
 51
31.4151349725
  0
ARC
  5
37C
100
AcDbEntity
  8
0
100
AcDbCircle
 62
7
  6
CONTINUOUS
 10
9.8867594171
 20
7.1959927109
 40
0.6200987324
100
AcDbArc
 50
263.5283744339
 51
266.0300335618
  0
ARC
  5
37D
100
AcDbEntity
  8
0
100
AcDbCircle
 62
7
  6
CONTINUOUS
 10
9.8008961358
 20
7.183565147
 40
0.6200987324
100
AcDbArc
 50
83.5283744339
 51
86.0300335618
  0
ARC
  5
37E
100
AcDbEntity
  8
0
100
AcDbCircle
 62
7
  6
CONTINUOUS
 10
11.1589879455
 20
7.0893811601
 40
0.6200987324
100
AcDbArc
 50
83.5283744339
 51
86.0300335618
  0
ARC
  5
37F
100
AcDbEntity
  8
0
100
AcDbCircle
 62
7
  6
CONTINUOUS
 10
9.903981849
 20
7.2839885755
 40
0.6191624918
100
AcDbArc
 50
83.5264827433
 51
86.0319252524
  0
ARC
  5
380
100
AcDbEntity
  8
0
100
AcDbCircle
 62
7
  6
CONTINUOUS
 10
9.9043060066
 20
7.2886625721
 40
0.614477268
100
AcDbArc
 50
86.031919382
 51
88.5488078505
  0
ARC
  5
381
100
AcDbEntity
  8
0
100
AcDbCircle
 62
7
  6
CONTINUOUS
 10
9.8863500469
 20
7.1903861353
 40
0.614477268
100
AcDbArc
 50
266.031919382
 51
268.5488078505
  0
ARC
  5
382
100
AcDbEntity
  8
0
100
AcDbCircle
 62
7
  6
CONTINUOUS
 10
9.801305506
 20
7.1891717226
 40
0.614477268
100
AcDbArc
 50
86.031919382
 51
88.5488078504
  0
ARC
  5
383
100
AcDbEntity
  8
0
100
AcDbCircle
 62
7
  6
CONTINUOUS
 10
11.1593973158
 20
7.0949877357
 40
0.614477268
100
AcDbArc
 50
86.031919382
 51
88.5488078504
  0
ARC
  5
384
100
AcDbEntity
  8
0
100
AcDbCircle
 62
7
  6
CONTINUOUS
 10
9.9980096837
 20
7.2345023233
 40
0.5591685417
100
AcDbArc
 50
326.2950117378
 51
331.6569605865
  0
ARC
  5
385
100
AcDbEntity
  8
0
100
AcDbCircle
 62
7
  6
CONTINUOUS
 10
9.7926463698
 20
7.2445463841
 40
0.5591685417
100
AcDbArc
 50
146.2950117378
 51
151.6569605865
  0
ARC
  5
386
100
AcDbEntity
  8
0
100
AcDbCircle
 62
7
  6
CONTINUOUS
 10
9.8950091831
 20
7.1350114738
 40
0.5591685417
100
AcDbArc
 50
326.2950117378
 51
331.6569605865
  0
ARC
  5
387
100
AcDbEntity
  8
0
100
AcDbCircle
 62
7
  6
CONTINUOUS
 10
11.1507381795
 20
7.1503623972
 40
0.5591685417
100
AcDbArc
 50
146.2950117378
 51
151.6569605865
  0
ARC
  5
388
100
AcDbEntity
  8
0
100
AcDbCircle
 62
7
  6
CONTINUOUS
 10
9.8913827308
 20
8.6824117309
 40
0.6699925153
100
AcDbArc
 50
26.6598562642
 51
31.4115094164
  0
ARC
  5
389
100
AcDbEntity
  8
0
100
AcDbCircle
 62
7
  6
CONTINUOUS
 10
9.8983805073
 20
8.6939190043
 40
0.6689722376
100
AcDbArc
 50
206.6562307081
 51
211.4151349725
  0
ARC
  5
38A
100
AcDbEntity
  8
0
100
AcDbCircle
 62
7
  6
CONTINUOUS
 10
9.7892750456
 20
8.5834165042
 40
0.6689722376
100
AcDbArc
 50
26.6562307081
 51
31.4151349724
  0
ARC
  5
38B
100
AcDbEntity
  8
0
100
AcDbCircle
 62
7
  6
CONTINUOUS
 10
11.1473668554
 20
8.4892325173
 40
0.6689722376
100
AcDbArc
 50
26.6562307081
 51
31.4151349724
  0
ARC
  5
38C
100
AcDbEntity
  8
0
100
AcDbCircle
 62
7
  6
CONTINUOUS
 10
9.8867594171
 20
8.6448815362
 40
0.6200987324
100
AcDbArc
 50
263.5283744339
 51
266.0300335618
  0
ARC
  5
38D
100
AcDbEntity
  8
0
100
AcDbCircle
 62
7
  6
CONTINUOUS
 10
9.8008961358
 20
8.6324539722
 40
0.6200987324
100
AcDbArc
 50
83.5283744338
 51
86.0300335618
  0
ARC
  5
38E
100
AcDbEntity
  8
0
100
AcDbCircle
 62
7
  6
CONTINUOUS
 10
11.1589879455
 20
8.5382699853
 40
0.6200987324
100
AcDbArc
 50
83.5283744339
 51
86.0300335618
  0
ARC
  5
38F
100
AcDbEntity
  8
0
100
AcDbCircle
 62
7
  6
CONTINUOUS
 10
9.903981849
 20
8.7328774008
 40
0.6191624918
100
AcDbArc
 50
83.5264827433
 51
86.0319252524
  0
ARC
  5
390
100
AcDbEntity
  8
0
100
AcDbCircle
 62
7
  6
CONTINUOUS
 10
9.9043060066
 20
8.7375513974
 40
0.614477268
100
AcDbArc
 50
86.031919382
 51
88.5488078505
  0
ARC
  5
391
100
AcDbEntity
  8
0
100
AcDbCircle
 62
7
  6
CONTINUOUS
 10
9.8863500469
 20
8.6392749605
 40
0.614477268
100
AcDbArc
 50
266.031919382
 51
268.5488078504
  0
ARC
  5
392
100
AcDbEntity
  8
0
100
AcDbCircle
 62
7
  6
CONTINUOUS
 10
9.801305506
 20
8.6380605479
 40
0.614477268
100
AcDbArc
 50
86.031919382
 51
88.5488078504
  0
ARC
  5
393
100
AcDbEntity
  8
0
100
AcDbCircle
 62
7
  6
CONTINUOUS
 10
11.1593973158
 20
8.543876561
 40
0.614477268
100
AcDbArc
 50
86.031919382
 51
88.5488078504
  0
ARC
  5
394
100
AcDbEntity
  8
0
100
AcDbCircle
 62
7
  6
CONTINUOUS
 10
9.9980096837
 20
8.6833911486
 40
0.5591685417
100
AcDbArc
 50
326.2950117378
 51
331.6569605865
  0
ARC
  5
395
100
AcDbEntity
  8
0
100
AcDbCircle
 62
7
  6
CONTINUOUS
 10
9.7926463698
 20
8.6934352094
 40
0.5591685417
100
AcDbArc
 50
146.2950117378
 51
151.6569605865
  0
ARC
  5
396
100
AcDbEntity
  8
0
100
AcDbCircle
 62
7
  6
CONTINUOUS
 10
9.8950091831
 20
8.5839002991
 40
0.5591685417
100
AcDbArc
 50
326.2950117378
 51
331.6569605865
  0
ARC
  5
397
100
AcDbEntity
  8
0
100
AcDbCircle
 62
7
  6
CONTINUOUS
 10
11.1507381795
 20
8.5992512225
 40
0.5591685417
100
AcDbArc
 50
146.2950117378
 51
151.6569605865
  0
ARC
  5
398
100
AcDbEntity
  8
0
100
AcDbCircle
 62
7
  6
CONTINUOUS
 10
10.8900182359
 20
9.7582221656
 40
0.0242194822
100
AcDbArc
 50
229.1034048405
 51
231.4837942293
  0
ARC
  5
399
100
AcDbEntity
  8
0
100
AcDbCircle
 62
7
  6
CONTINUOUS
 10
10.8883113057
 20
9.7562591506
 40
0.0216181345
100
AcDbArc
 50
227.0641361958
 51
229.1168625789
  0
ARC
  5
39A
100
AcDbEntity
  8
0
100
AcDbCircle
 62
7
  6
CONTINUOUS
 10
11.2494745405
 20
7.1393389187
 40
0.6699925153
100
AcDbArc
 50
26.6598562642
 51
31.4115094164
  0
ARC
  5
39B
100
AcDbEntity
  8
0
100
AcDbCircle
 62
7
  6
CONTINUOUS
 10
11.256472317
 20
7.1508461921
 40
0.6689722376
100
AcDbArc
 50
206.6562307081
 51
211.4151349725
  0
ARC
  5
39C
100
AcDbEntity
  8
0
100
AcDbCircle
 62
7
  6
CONTINUOUS
 10
11.2448512268
 20
7.101808724
 40
0.6200987324
100
AcDbArc
 50
263.5283744339
 51
266.0300335618
  0
ARC
  5
39D
100
AcDbEntity
  8
0
100
AcDbCircle
 62
7
  6
CONTINUOUS
 10
11.2620736587
 20
7.1898045886
 40
0.6191624918
100
AcDbArc
 50
83.5264827432
 51
86.0319252524
  0
ARC
  5
39E
100
AcDbEntity
  8
0
100
AcDbCircle
 62
7
  6
CONTINUOUS
 10
11.2623978163
 20
7.1944785852
 40
0.614477268
100
AcDbArc
 50
86.031919382
 51
88.5488078505
  0
ARC
  5
39F
100
AcDbEntity
  8
0
100
AcDbCircle
 62
7
  6
CONTINUOUS
 10
11.2444418566
 20
7.0962021484
 40
0.614477268
100
AcDbArc
 50
266.031919382
 51
268.5488078505
  0
ARC
  5
3A0
100
AcDbEntity
  8
0
100
AcDbCircle
 62
7
  6
CONTINUOUS
 10
11.3561014934
 20
7.1403183364
 40
0.5591685417
100
AcDbArc
 50
326.2950117378
 51
331.6569605865
  0
ARC
  5
3A1
100
AcDbEntity
  8
0
100
AcDbCircle
 62
7
  6
CONTINUOUS
 10
11.2531009928
 20
7.0408274869
 40
0.5591685417
100
AcDbArc
 50
326.2950117378
 51
331.6569605865
  0
ARC
  5
3A2
100
AcDbEntity
  8
0
100
AcDbCircle
 62
7
  6
CONTINUOUS
 10
12.6133684077
 20
7.8994231692
 40
0.0147885046
100
AcDbArc
 50
259.6707697512
 51
266.0204897698
  0
ARC
  5
3A3
100
AcDbEntity
  8
0
100
AcDbCircle
 62
7
  6
CONTINUOUS
 10
12.6438387676
 20
8.3388000773
 40
0.0147792846
100
AcDbArc
 50
86.0432119351
 51
92.225530306
  0
ARC
  5
3A4
100
AcDbEntity
  8
0
100
AcDbCircle
 62
7
  6
CONTINUOUS
 10
11.2494745405
 20
8.588227744
 40
0.6699925153
100
AcDbArc
 50
26.6598562642
 51
31.4115094164
  0
ARC
  5
3A5
100
AcDbEntity
  8
0
100
AcDbCircle
 62
7
  6
CONTINUOUS
 10
11.256472317
 20
8.5997350174
 40
0.6689722376
100
AcDbArc
 50
206.6562307081
 51
211.4151349725
  0
ARC
  5
3A6
100
AcDbEntity
  8
0
100
AcDbCircle
 62
7
  6
CONTINUOUS
 10
11.2448512268
 20
8.5506975493
 40
0.6200987324
100
AcDbArc
 50
263.5283744339
 51
266.0300335618
  0
ARC
  5
3A7
100
AcDbEntity
  8
0
100
AcDbCircle
 62
7
  6
CONTINUOUS
 10
11.2620736587
 20
8.6386934139
 40
0.6191624918
100
AcDbArc
 50
83.5264827432
 51
86.0319252524
  0
ARC
  5
3A8
100
AcDbEntity
  8
0
100
AcDbCircle
 62
7
  6
CONTINUOUS
 10
11.2623978163
 20
8.6433674105
 40
0.614477268
100
AcDbArc
 50
86.031919382
 51
88.5488078505
  0
ARC
  5
3A9
100
AcDbEntity
  8
0
100
AcDbCircle
 62
7
  6
CONTINUOUS
 10
11.2444418566
 20
8.5450909736
 40
0.614477268
100
AcDbArc
 50
266.031919382
 51
268.5488078504
  0
ARC
  5
3AA
100
AcDbEntity
  8
0
100
AcDbCircle
 62
7
  6
CONTINUOUS
 10
11.3561014934
 20
8.5892071617
 40
0.5591685417
100
AcDbArc
 50
326.2950117378
 51
331.6569605865
  0
ARC
  5
3AB
100
AcDbEntity
  8
0
100
AcDbCircle
 62
7
  6
CONTINUOUS
 10
11.2531009928
 20
8.4897163122
 40
0.5591685417
100
AcDbArc
 50
326.2950117378
 51
331.6569605865
  0
SPLINE
  5
3AC
100
AcDbEntity
  8
0
100
AcDbSpline
 62
7
  6
CONTINUOUS
 70
0
 71
3
 72
43
 73
39
 74
0
 42
0.0000001
 43
0.0000001
 44
0.0000000001
 40
0.0
 40
0.0
 40
0.0
 40
0.0
 40
0.0082696068
 40
0.0171172409
 40
0.0265552136
 40
0.0365908081
 40
0.0472249764
 40
0.058454919
 40
0.0826774554
 40
0.1091907135
 40
0.1378846773
 40
0.1686279574
 40
0.2012610832
 40
0.2356115281
 40
0.2714864256
 40
0.3086831827
 40
0.3469860717
 40
0.3861713179
 40
0.4260083167
 40
0.5066850534
 40
0.5871054243
 40
0.6653618452
 40
0.7031023334
 40
0.7396196885
 40
0.7747062184
 40
0.8081630395
 40
0.839808699
 40
0.8694772798
 40
0.8970230353
 40
0.9223253659
 40
0.9341058691
 40
0.9452955589
 40
0.955890046
 40
0.9658872687
 40
0.9752885245
 40
0.9840997213
 40
0.9923314068
 40
1.0
 40
1.0
 40
1.0
 40
1.0
 10
10.8749358932
 20
9.7392720665
 30
0.0
 10
10.875402098
 20
9.7389005195
 30
0.0
 10
10.8763935114
 20
9.7381642442
 30
0.0
 10
10.8779940181
 20
9.7371124277
 30
0.0
 10
10.8797551254
 20
9.7360780036
 30
0.0
 10
10.8816742075
 20
9.7350627947
 30
0.0
 10
10.8837481775
 20
9.73406811
 30
0.0
 10
10.8867930738
 20
9.73273755
 30
0.0
 10
10.8909708427
 20
9.7311482645
 30
0.0
 10
10.8964229631
 20
9.729391948
 30
0.0
 10
10.9023998848
 20
9.7277519026
 30
0.0
 10
10.9088640166
 20
9.726239699
 30
0.0
 10
10.9157746664
 20
9.7248641585
 30
0.0
 10
10.9230881159
 20
9.7236352052
 30
0.0
 10
10.930757963
 20
9.722559943
 30
0.0
 10
10.9387354853
 20
9.7216460629
 30
0.0
 10
10.9469699224
 20
9.7208989646
 30
0.0
 10
10.9554089274
 20
9.7203237689
 30
0.0
 10
10.9669097802
 20
9.7197888209
 30
0.0
 10
10.9813979022
 20
9.7195717196
 30
0.0
 10
10.9986514694
 20
9.7200198006
 30
0.0
 10
11.0127832625
 20
9.7209840789
 30
0.0
 10
11.0237206698
 20
9.7221130613
 30
0.0
 10
11.0315402794
 20
9.7231140024
 30
0.0
 10
11.0390259006
 20
9.7242720924
 30
0.0
 10
11.0461300838
 20
9.7255803296
 30
0.0
 10
11.0528077829
 20
9.7270299479
 30
0.0
 10
11.0590169353
 20
9.7286115941
 30
0.0
 10
11.0647181842
 20
9.7303152426
 30
0.0
 10
11.0691157726
 20
9.7318613454
 30
0.0
 10
11.0723449485
 20
9.7331597085
 30
0.0
 10
11.0745603818
 20
9.7341337736
 30
0.0
 10
11.0766241788
 20
9.7351299166
 30
0.0
 10
11.0785330578
 20
9.736146745
 30
0.0
 10
11.0802838372
 20
9.7371828172
 30
0.0
 10
11.0818738811
 20
9.7382361517
 30
0.0
 10
11.0833005007
 20
9.7393047775
 30
0.0
 10
11.0841711402
 20
9.7400521494
 30
0.0
 10
11.0845759283
 20
9.7404286591
 30
0.0
  0
SPLINE
  5
3AD
100
AcDbEntity
  8
0
100
AcDbSpline
 62
7
  6
CONTINUOUS
 70
0
 71
3
 72
52
 73
48
 74
0
 42
0.0000001
 43
0.0000001
 44
0.0000000001
 40
0.0
 40
0.0
 40
0.0
 40
0.0
 40
0.0077387223
 40
0.0160539521
 40
0.024962965
 40
0.0344768859
 40
0.0446016061
 40
0.0553386983
 40
0.0666866828
 40
0.0786412572
 40
0.091193383
 40
0.1043314041
 40
0.1180424256
 40
0.1323116939
 40
0.1471215533
 40
0.1624533379
 40
0.1946023933
 40
0.2285843148
 40
0.264207331
 40
0.3012625655
 40
0.3395308301
 40
0.378780781
 40
0.4187745662
 40
0.4592671292
 40
0.500010293
 40
0.540753239
 40
0.581245724
 40
0.6212388443
 40
0.6604885582
 40
0.6987556413
 40
0.7358105213
 40
0.7714319254
 40
0.8054132247
 40
0.8375605374
 40
0.8676997949
 40
0.881967701
 40
0.8956782168
 40
0.9088158324
 40
0.9213666357
 40
0.9333203307
 40
0.9446687486
 40
0.9554056403
 40
0.9655284678
 40
0.9750398662
 40
0.9839464413
 40
0.9922598492
 40
1.0
 40
1.0
 40
1.0
 40
1.0
 10
10.7232956672
 20
9.7664415945
 30
0.0
 10
10.7242942209
 20
9.7673705185
 30
0.0
 10
10.7264443523
 20
9.7692140495
 30
0.0
 10
10.7299715539
 20
9.7718476765
 30
0.0
 10
10.7339078591
 20
9.7744424247
 30
0.0
 10
10.7382466524
 20
9.7769930415
 30
0.0
 10
10.7429808049
 20
9.7794954374
 30
0.0
 10
10.7481024902
 20
9.7819460599
 30
0.0
 10
10.7536038304
 20
9.7843410645
 30
0.0
 10
10.7594763021
 20
9.7866763541
 30
0.0
 10
10.765710253
 20
9.7889484459
 30
0.0
 10
10.7722953606
 20
9.7911536583
 30
0.0
 10
10.7792209757
 20
9.7932881148
 30
0.0
 10
10.7864758337
 20
9.7953480135
 30
0.0
 10
10.7940478626
 20
9.7973303485
 30
0.0
 10
10.8047196078
 20
9.7999064266
 30
0.0
 10
10.8187650071
 20
9.8028934566
 30
0.0
 10
10.8364170483
 20
9.8060668911
 30
0.0
 10
10.8550077374
 20
9.8088609185
 30
0.0
 10
10.874414817
 20
9.8112580551
 30
0.0
 10
10.8945107926
 20
9.8132410774
 30
0.0
 10
10.9151635153
 20
9.8147977446
 30
0.0
 10
10.936237035
 20
9.815916776
 30
0.0
 10
10.9575926843
 20
9.8165913395
 30
0.0
 10
10.9790898064
 20
9.8168165271
 30
0.0
 10
11.0005869079
 20
9.8165909686
 30
0.0
 10
11.0219423878
 20
9.8159163081
 30
0.0
 10
11.0430156981
 20
9.8147966514
 30
0.0
 10
11.063668068
 20
9.8132401339
 30
0.0
 10
11.0837636429
 20
9.811256303
 30
0.0
 10
11.1031702193
 20
9.8088594759
 30
0.0
 10
11.1217602616
 20
9.8060645738
 30
0.0
 10
11.1394118447
 20
9.8028915494
 30
0.0
 10
11.1560090172
 20
9.7993604993
 30
0.0
 10
11.1691002579
 20
9.796083406
 30
0.0
 10
11.1789536037
 20
9.7932851393
 30
0.0
 10
11.1858788289
 20
9.7911507441
 30
0.0
 10
11.1924635896
 20
9.7889457381
 30
0.0
 10
11.1986969495
 20
9.7866733508
 30
0.0
 10
11.2045689214
 20
9.784337657
 30
0.0
 10
11.2100701193
 20
9.7819426198
 30
0.0
 10
11.2151914603
 20
9.77949194
 30
0.0
 10
11.2199245779
 20
9.7769893242
 30
0.0
 10
11.2242622307
 20
9.7744391787
 30
0.0
 10
11.2281977683
 20
9.7718454374
 30
0.0
 10
11.2317243777
 20
9.7692118125
 30
0.0
 10
11.2338739825
 20
9.767367774
 30
0.0
 10
11.2348725725
 20
9.7664385194
 30
0.0
  0
SPLINE
  5
3AE
100
AcDbEntity
  8
0
100
AcDbSpline
 62
7
  6
CONTINUOUS
 70
0
 71
3
 72
12
 73
8
 74
0
 42
0.0000001
 43
0.0000001
 44
0.0000000001
 40
0.0
 40
0.0
 40
0.0
 40
0.0
 40
0.1083355434
 40
0.2222560855
 40
0.4652071899
 40
0.7254801538
 40
1.0
 40
1.0
 40
1.0
 40
1.0
 10
11.0755273691
 20
9.7346262113
 30
0.0
 10
11.0759024885
 20
9.7353050716
 30
0.0
 10
11.0766463672
 20
9.73671209
 30
0.0
 10
11.0781121989
 20
9.739703161
 30
0.0
 10
11.0798992861
 20
9.7437457998
 30
0.0
 10
11.0819582119
 20
9.7489201461
 30
0.0
 10
11.0832715669
 20
9.7525170983
 30
0.0
 10
11.0839259651
 20
9.7543703234
 30
0.0
  0
SPLINE
  5
3AF
100
AcDbEntity
  8
0
100
AcDbSpline
 62
7
  6
CONTINUOUS
 70
0
 71
3
 72
15
 73
11
 74
0
 42
0.0000001
 43
0.0000001
 44
0.0000000001
 40
0.0
 40
0.0
 40
0.0
 40
0.0
 40
0.1492632538
 40
0.2897091991
 40
0.4220366375
 40
0.5471358952
 40
0.666101153
 40
0.7802218941
 40
0.8909758692
 40
1.0
 40
1.0
 40
1.0
 40
1.0
 10
11.2502887239
 20
9.7520921556
 30
0.0
 10
11.2511155897
 20
9.75132265
 30
0.0
 10
11.2526739146
 20
9.7497776687
 30
0.0
 10
11.2547721366
 20
9.747365731
 30
0.0
 10
11.2565544132
 20
9.7449341527
 30
0.0
 10
11.2580179272
 20
9.7424851739
 30
0.0
 10
11.2591605719
 20
9.7400213111
 30
0.0
 10
11.2599797771
 20
9.7375450592
 30
0.0
 10
11.2604727795
 20
9.7350602742
 30
0.0
 10
11.2605826356
 20
9.7333951135
 30
0.0
 10
11.2605826165
 20
9.7325700852
 30
0.0
  0
SPLINE
  5
3B0
100
AcDbEntity
  8
0
100
AcDbSpline
 62
7
  6
CONTINUOUS
 70
0
 71
3
 72
15
 73
11
 74
0
 42
0.0000001
 43
0.0000001
 44
0.0000000001
 40
0.0
 40
0.0
 40
0.0
 40
0.0
 40
0.1098818339
 40
0.2213890443
 40
0.3360729859
 40
0.4553559627
 40
0.5804641769
 40
0.712410792
 40
0.8520301999
 40
1.0
 40
1.0
 40
1.0
 40
1.0
 10
10.6975825727
 20
9.7325700852
 30
0.0
 10
10.697582591
 20
9.7333662131
 30
0.0
 10
10.6976848593
 20
9.7349720413
 30
0.0
 10
10.6981431785
 20
9.7373694005
 30
0.0
 10
10.6989054678
 20
9.7397595656
 30
0.0
 10
10.6999702217
 20
9.7421387588
 30
0.0
 10
10.7013346266
 20
9.7445044681
 30
0.0
 10
10.7029955036
 20
9.7468544711
 30
0.0
 10
10.7049500001
 20
9.7491863041
 30
0.0
 10
10.7064033549
 20
9.7506821497
 30
0.0
 10
10.7071744584
 20
9.7514269785
 30
0.0
  0
SPLINE
  5
3B1
100
AcDbEntity
  8
0
100
AcDbSpline
 62
7
  6
CONTINUOUS
 70
0
 71
3
 72
23
 73
19
 74
0
 42
0.0000001
 43
0.0000001
 44
0.0000000001
 40
0.0
 40
0.0
 40
0.0
 40
0.0
 40
0.0719239477
 40
0.1428113719
 40
0.212491903
 40
0.2807797608
 40
0.3475230255
 40
0.3802797571
 40
0.4126065476
 40
0.475950319
 40
0.5376181003
 40
0.5977670933
 40
0.6566680559
 40
0.7146308556
 40
0.7719846613
 40
0.8290066672
 40
0.8859329587
 40
1.0
 40
1.0
 40
1.0
 40
1.0
 10
11.0071752695
 20
9.7742348399
 30
0.0
 10
11.0086593826
 20
9.7728370558
 30
0.0
 10
11.0116498138
 20
9.7701072925
 30
0.0
 10
11.0162485198
 20
9.7662149944
 30
0.0
 10
11.0209333298
 20
9.7625917824
 30
0.0
 10
11.0257042238
 20
9.7592836558
 30
0.0
 10
11.0297749493
 20
9.7568166797
 30
0.0
 10
11.0330704486
 20
9.7550535529
 30
0.0
 10
11.036343857
 20
9.7534591046
 30
0.0
 10
11.040470361
 20
9.7517520279
 30
0.0
 10
11.0454875921
 20
9.7501854303
 30
0.0
 10
11.0505110462
 20
9.7491406672
 30
0.0
 10
11.0555087765
 20
9.7486097553
 30
0.0
 10
11.0604547006
 20
9.7485773981
 30
0.0
 10
11.0653278953
 20
9.7490008683
 30
0.0
 10
11.0701165719
 20
9.7498375966
 30
0.0
 10
11.0763838829
 20
9.7514358898
 30
0.0
 10
11.0809494036
 20
9.7531076842
 30
0.0
 10
11.0839259651
 20
9.7543703234
 30
0.0
  0
SPLINE
  5
3B2
100
AcDbEntity
  8
0
100
AcDbSpline
 62
7
  6
CONTINUOUS
 70
0
 71
3
 72
20
 73
16
 74
0
 42
0.0000001
 43
0.0000001
 44
0.0000000001
 40
0.0
 40
0.0
 40
0.0
 40
0.0
 40
0.1216807891
 40
0.1827585594
 40
0.2440173838
 40
0.3055084682
 40
0.3672634655
 40
0.4293200376
 40
0.4916939649
 40
0.5543929972
 40
0.617403959
 40
0.7441725392
 40
0.8079134832
 40
0.8718304955
 40
1.0
 40
1.0
 40
1.0
 40
1.0
 10
10.902331899
 20
9.7669639146
 30
0.0
 10
10.9064200602
 20
9.7652033492
 30
0.0
 10
10.9126634017
 20
9.7627827266
 30
0.0
 10
10.9212003277
 20
9.7601641499
 30
0.0
 10
10.9277308566
 20
9.7585443899
 30
0.0
 10
10.9343733626
 20
9.7573231055
 30
0.0
 10
10.9411124309
 20
9.756543826
 30
0.0
 10
10.947923091
 20
9.7562519611
 30
0.0
 10
10.9547714405
 20
9.7564672864
 30
0.0
 10
10.9616186896
 20
9.7572044103
 30
0.0
 10
10.970711992
 20
9.7588586223
 30
0.0
 10
10.9796426789
 20
9.7614661881
 30
0.0
 10
10.9883249653
 20
9.7648256296
 30
0.0
 10
10.9968761304
 20
9.7686358942
 30
0.0
 10
11.0031008685
 20
9.771915078
 30
0.0
 10
11.0071752695
 20
9.7742348399
 30
0.0
  0
SPLINE
  5
3B3
100
AcDbEntity
  8
0
100
AcDbSpline
 62
7
  6
CONTINUOUS
 70
0
 71
3
 72
18
 73
14
 74
0
 42
0.0000001
 43
0.0000001
 44
0.0000000001
 40
0.0
 40
0.0
 40
0.0
 40
0.0
 40
0.1550963014
 40
0.3038910165
 40
0.4452739039
 40
0.5779907
 40
0.7007785033
 40
0.7580935764
 40
0.8125153529
 40
0.8639422921
 40
0.912327377
 40
0.9576691577
 40
1.0
 40
1.0
 40
1.0
 40
1.0
 10
10.902331899
 20
9.7669639146
 30
0.0
 10
10.9017948649
 20
9.7654430592
 30
0.0
 10
10.9007164469
 20
9.7624722524
 30
0.0
 10
10.8990394353
 20
9.7581555926
 30
0.0
 10
10.8973329734
 20
9.754101571
 30
0.0
 10
10.8955976048
 20
9.75035569
 30
0.0
 10
10.8940955422
 20
9.7474681601
 30
0.0
 10
10.8928711456
 20
9.7453584287
 30
0.0
 10
10.8919684551
 20
9.7439212064
 30
0.0
 10
10.8910604881
 20
9.7425984193
 30
0.0
 10
10.8901484528
 20
9.7413947891
 30
0.0
 10
10.8892340427
 20
9.7403141245
 30
0.0
 10
10.8886021844
 20
9.739655678
 30
0.0
 10
10.8882855616
 20
9.7393498438
 30
0.0
  0
SPLINE
  5
3B4
100
AcDbEntity
  8
0
100
AcDbSpline
 62
7
  6
CONTINUOUS
 70
0
 71
3
 72
15
 73
11
 74
0
 42
0.0000001
 43
0.0000001
 44
0.0000000001
 40
0.0
 40
0.0
 40
0.0
 40
0.0
 40
0.1541890973
 40
0.2943218369
 40
0.4226841637
 40
0.542293048
 40
0.6566789558
 40
0.7692311516
 40
0.8829178391
 40
1.0
 40
1.0
 40
1.0
 40
1.0
 10
10.8882855616
 20
9.7393498438
 30
0.0
 10
10.887880829
 20
9.7389589021
 30
0.0
 10
10.8870711397
 20
9.7382492303
 30
0.0
 10
10.8857933612
 20
9.7373773744
 30
0.0
 10
10.8845161657
 20
9.736752016
 30
0.0
 10
10.8832431133
 20
9.7363710607
 30
0.0
 10
10.8819805531
 20
9.7362230561
 30
0.0
 10
10.8807335184
 20
9.7362950156
 30
0.0
 10
10.879506129
 20
9.7365692677
 30
0.0
 10
10.8787159346
 20
9.7368685728
 30
0.0
 10
10.8783259717
 20
9.7370432312
 30
0.0
  0
SPLINE
  5
3B5
100
AcDbEntity
  8
0
100
AcDbSpline
 62
7
  6
CONTINUOUS
 70
0
 71
3
 72
23
 73
19
 74
0
 42
0.0000001
 43
0.0000001
 44
0.0000000001
 40
0.0
 40
0.0
 40
0.0
 40
0.0
 40
0.0749650755
 40
0.1455758403
 40
0.2121687193
 40
0.2751706844
 40
0.3351061761
 40
0.3925926274
 40
0.4483378715
 40
0.5031275476
 40
0.5577974487
 40
0.613188277
 40
0.6701067998
 40
0.7292949901
 40
0.7913951851
 40
0.856936773
 40
0.9263544307
 40
1.0
 40
1.0
 40
1.0
 40
1.0
 10
11.2348725725
 20
9.7664385194
 30
0.0
 10
11.2356393096
 20
9.7657250194
 30
0.0
 10
11.2370857668
 20
9.7642925692
 30
0.0
 10
11.2390376531
 20
9.7620578989
 30
0.0
 10
11.2407019098
 20
9.7598053671
 30
0.0
 10
11.2420759885
 20
9.7575369789
 30
0.0
 10
11.2431580526
 20
9.7552549637
 30
0.0
 10
11.2439458582
 20
9.7529616669
 30
0.0
 10
11.2444370159
 20
9.7506599622
 30
0.0
 10
11.2446292211
 20
9.7483534388
 30
0.0
 10
11.2445221195
 20
9.746046331
 30
0.0
 10
11.2441162776
 20
9.7437427338
 30
0.0
 10
11.2434129863
 20
9.7414463008
 30
0.0
 10
11.2424137677
 20
9.7391603297
 30
0.0
 10
11.2411213299
 20
9.736887542
 30
0.0
 10
11.2395389126
 20
9.7346300763
 30
0.0
 10
11.2376693779
 20
9.732390373
 30
0.0
 10
11.2362759772
 20
9.7309546447
 30
0.0
 10
11.2355359167
 20
9.7302398011
 30
0.0
  0
SPLINE
  5
3B6
100
AcDbEntity
  8
0
100
AcDbSpline
 62
7
  6
CONTINUOUS
 70
0
 71
3
 72
54
 73
50
 74
0
 42
0.0000001
 43
0.0000001
 44
0.0000000001
 40
0.0
 40
0.0
 40
0.0
 40
0.0
 40
0.0078439085
 40
0.0150417694
 40
0.0216901491
 40
0.0279174114
 40
0.0338877893
 40
0.0397917412
 40
0.0458258134
 40
0.0521737182
 40
0.0589898551
 40
0.0663949559
 40
0.0744798335
 40
0.0833086858
 40
0.0929226568
 40
0.1033479798
 40
0.1145998044
 40
0.1266810266
 40
0.1395863631
 40
0.1533060296
 40
0.1678248694
 40
0.1831207474
 40
0.2159400176
 40
0.2515324755
 40
0.2896167215
 40
0.3298767915
 40
0.3719684783
 40
0.4155229506
 40
0.4601556579
 40
0.5054672561
 40
0.5510520906
 40
0.5965001291
 40
0.6414039436
 40
0.6853612513
 40
0.727982695
 40
0.7688924464
 40
0.80773916
 40
0.8441945664
 40
0.8779676196
 40
0.8937680542
 40
0.9088075779
 40
0.9230617934
 40
0.936510441
 40
0.9491413812
 40
0.960947106
 40
0.9719251961
 40
0.9820812601
 40
0.9914305534
 40
1.0
 40
1.0
 40
1.0
 40
1.0
 10
11.0848514789
 20
9.7406898023
 30
0.0
 10
11.0852947397
 20
9.7411179595
 30
0.0
 10
11.0861072419
 20
9.7419797222
 30
0.0
 10
11.087127051
 20
9.7433505243
 30
0.0
 10
11.0878884413
 20
9.7447383984
 30
0.0
 10
11.0883854795
 20
9.7461409029
 30
0.0
 10
11.0886124087
 20
9.7475533517
 30
0.0
 10
11.0885668553
 20
9.748968275
 30
0.0
 10
11.0882495499
 20
9.7503777425
 30
0.0
 10
11.0876641219
 20
9.751775242
 30
0.0
 10
11.0868164022
 20
9.7531574458
 30
0.0
 10
11.0857108567
 20
9.7545226516
 30
0.0
 10
11.0843505993
 20
9.7558689846
 30
0.0
 10
11.0827389376
 20
9.7571943932
 30
0.0
 10
11.0808799059
 20
9.7584970194
 30
0.0
 10
11.0787774937
 20
9.7597742263
 30
0.0
 10
11.0764361536
 20
9.7610229097
 30
0.0
 10
11.0738614181
 20
9.7622405009
 30
0.0
 10
11.0710593718
 20
9.7634242914
 30
0.0
 10
11.0680364183
 20
9.7645712663
 30
0.0
 10
11.0647996097
 20
9.7656785393
 30
0.0
 10
11.060097858
 20
9.7671330906
 30
0.0
 10
11.0537378727
 20
9.7688191554
 30
0.0
 10
11.0455605599
 20
9.7706017885
 30
0.0
 10
11.0367453525
 20
9.772170727
 30
0.0
 10
11.0273766696
 20
9.7735106862
 30
0.0
 10
11.0175440887
 20
9.7746079791
 30
0.0
 10
11.0073419528
 20
9.7754524304
 30
0.0
 10
10.9968682239
 20
9.776034985
 30
0.0
 10
10.9862235202
 20
9.7763506489
 30
0.0
 10
10.9755101906
 20
9.7763957152
 30
0.0
 10
10.9648311805
 20
9.7761701385
 30
0.0
 10
10.9542891879
 20
9.7756760036
 30
0.0
 10
10.9439854713
 20
9.7749180095
 30
0.0
 10
10.9340190327
 20
9.773904048
 30
0.0
 10
10.9244855024
 20
9.7726434209
 30
0.0
 10
10.9154761552
 20
9.7711494421
 30
0.0
 10
10.9070773078
 20
9.7694359268
 30
0.0
 10
10.9005149171
 20
9.7678058624
 30
0.0
 10
10.8956383119
 20
9.7663934111
 30
0.0
 10
10.8922632954
 20
9.7653139099
 30
0.0
 10
10.8890970134
 20
9.7641932411
 30
0.0
 10
10.8861470575
 20
9.7630337864
 30
0.0
 10
10.8834201244
 20
9.761838493
 30
0.0
 10
10.880922339
 20
9.7606101302
 30
0.0
 10
10.8786597359
 20
9.7593511738
 30
0.0
 10
10.8766376194
 20
9.7580646695
 30
0.0
 10
10.8748608817
 20
9.7567543951
 30
0.0
 10
10.8737979716
 20
9.7558277568
 30
0.0
 10
10.8733137104
 20
9.7553599964
 30
0.0
  0
SPLINE
  5
3B7
100
AcDbEntity
  8
0
100
AcDbSpline
 62
7
  6
CONTINUOUS
 70
0
 71
3
 72
63
 73
59
 74
0
 42
0.0000001
 43
0.0000001
 44
0.0000000001
 40
0.0
 40
0.0
 40
0.0
 40
0.0
 40
0.008571002
 40
0.0179203037
 40
0.0280753657
 40
0.0390518509
 40
0.0508556907
 40
0.063485848
 40
0.0769355137
 40
0.0911894353
 40
0.1062278646
 40
0.1220282917
 40
0.1385630343
 40
0.1558016512
 40
0.173712137
 40
0.1922584298
 40
0.231103165
 40
0.2720118649
 40
0.3146315966
 40
0.3585875008
 40
0.4034896149
 40
0.4489361941
 40
0.4945192807
 40
0.5398295298
 40
0.5844603158
 40
0.6280136454
 40
0.6701036404
 40
0.7103622766
 40
0.7296971775
 40
0.7484470144
 40
0.7665730973
 40
0.7840398815
 40
0.8008128899
 40
0.8168606864
 40
0.8321561393
 40
0.8466740298
 40
0.8603932387
 40
0.873298736
 40
0.8853792569
 40
0.8966299801
 40
0.9070557169
 40
0.9166695976
 40
0.9254972075
 40
0.9335821302
 40
0.9409875524
 40
0.9478029947
 40
0.9541507289
 40
0.9571992795
 40
0.960191379
 40
0.9631506421
 40
0.9661016595
 40
0.9690692003
 40
0.9720775799
 40
0.9751501025
 40
0.9783086148
 40
0.9849558097
 40
0.9921541706
 40
1.0
 40
1.0
 40
1.0
 40
1.0
 10
11.2355359167
 20
9.7302398011
 30
0.0
 10
11.2343614942
 20
9.729105396
 30
0.0
 10
11.2317841068
 20
9.726858208
 30
0.0
 10
11.2274760192
 20
9.7236808717
 30
0.0
 10
11.2225731991
 20
9.7205618656
 30
0.0
 10
11.2170874212
 20
9.7175101743
 30
0.0
 10
11.2110317696
 20
9.7145318741
 30
0.0
 10
11.2044199771
 20
9.711633619
 30
0.0
 10
11.1972669659
 20
9.7088225943
 30
0.0
 10
11.189589745
 20
9.7061049061
 30
0.0
 10
11.1814065729
 20
9.7034871337
 30
0.0
 10
11.1727367963
 20
9.7009763143
 30
0.0
 10
11.1636013062
 20
9.6985780424
 30
0.0
 10
11.1540219946
 20
9.6962980068
 30
0.0
 10
11.1440216485
 20
9.6941422307
 30
0.0
 10
11.1299404124
 20
9.6913976449
 30
0.0
 10
11.1114617898
 20
9.6883331452
 30
0.0
 10
11.0883464084
 20
9.6852769419
 30
0.0
 10
11.0641811236
 20
9.6828181948
 30
0.0
 10
11.0391981638
 20
9.6809804716
 30
0.0
 10
11.0136374064
 20
9.6797822205
 30
0.0
 10
10.9877444729
 20
9.6792353418
 30
0.0
 10
10.9617682679
 20
9.6793447491
 30
0.0
 10
10.9359585235
 20
9.6801097264
 30
0.0
 10
10.9105633028
 20
9.6815228317
 30
0.0
 10
10.8858265442
 20
9.6835697135
 30
0.0
 10
10.8619860679
 20
9.6862307345
 30
0.0
 10
10.8428060084
 20
9.6889736252
 30
0.0
 10
10.8280905553
 20
9.6914694989
 30
0.0
 10
10.8175664686
 20
9.6934519614
 30
0.0
 10
10.8074311628
 20
9.6955655162
 30
0.0
 10
10.7977088358
 20
9.6978045583
 30
0.0
 10
10.7884228904
 20
9.700163942
 30
0.0
 10
10.7795956375
 20
9.7026382069
 30
0.0
 10
10.7712480061
 20
9.7052207751
 30
0.0
 10
10.7633999788
 20
9.7079056644
 30
0.0
 10
10.7560703358
 20
9.7106867632
 30
0.0
 10
10.7492761253
 20
9.7135567344
 30
0.0
 10
10.7430333415
 20
9.7165089963
 30
0.0
 10
10.7373567209
 20
9.7195371484
 30
0.0
 10
10.732258802
 20
9.7226335479
 30
0.0
 10
10.7277510394
 20
9.725791701
 30
0.0
 10
10.7238439174
 20
9.7290060196
 30
0.0
 10
10.7205455504
 20
9.7322700597
 30
0.0
 10
10.7178640755
 20
9.7355798344
 30
0.0
 10
10.7158093877
 20
9.7389311795
 30
0.0
 10
10.7146112872
 20
9.7417945359
 30
0.0
 10
10.7139948025
 20
9.7440755614
 30
0.0
 10
10.7136990865
 20
9.7457669576
 30
0.0
 10
10.7135647243
 20
9.7474601171
 30
0.0
 10
10.7135916257
 20
9.74915374
 30
0.0
 10
10.7137796971
 20
9.750846473
 30
0.0
 10
10.71412867
 20
9.75253701
 30
0.0
 10
10.7146382435
 20
9.7542242123
 30
0.0
 10
10.7155464307
 20
9.7565060709
 30
0.0
 10
10.7171105959
 20
9.7593583844
 30
0.0
 10
10.7195836506
 20
9.7626816548
 30
0.0
 10
10.7215542152
 20
9.7647715719
 30
0.0
 10
10.7226292725
 20
9.7658099976
 30
0.0
  0
SPLINE
  5
3B8
100
AcDbEntity
  8
0
100
AcDbSpline
 62
7
  6
CONTINUOUS
 70
0
 71
3
 72
11
 73
7
 74
0
 42
0.0000001
 43
0.0000001
 44
0.0000000001
 40
0.0
 40
0.0
 40
0.0
 40
0.0
 40
0.2182406451
 40
0.4572176599
 40
0.7176700917
 40
1.0
 40
1.0
 40
1.0
 40
1.0
 10
11.2509907308
 20
9.7137131919
 30
0.0
 10
11.2496850286
 20
9.7124519804
 30
0.0
 10
11.2468072755
 20
9.7099552246
 30
0.0
 10
11.2419792626
 20
9.7064350595
 30
0.0
 10
11.2364625224
 20
9.7029836965
 30
0.0
 10
11.2324951687
 20
9.7008229372
 30
0.0
 10
11.2304055926
 20
9.6997510578
 30
0.0
  0
SPLINE
  5
3B9
100
AcDbEntity
  8
0
100
AcDbSpline
 62
7
  6
CONTINUOUS
 70
0
 71
3
 72
22
 73
18
 74
0
 42
0.0000001
 43
0.0000001
 44
0.0000000001
 40
0.0
 40
0.0
 40
0.0
 40
0.0
 40
0.1702623705
 40
0.2497633061
 40
0.3255521646
 40
0.397686937
 40
0.4662547394
 40
0.5313724382
 40
0.5931851146
 40
0.651871449
 40
0.7076500781
 40
0.7607905016
 40
0.8116163824
 40
0.8605022876
 40
0.9078736335
 40
0.9542026286
 40
1.0
 40
1.0
 40
1.0
 40
1.0
 10
10.7272486441
 20
9.7000145736
 30
0.0
 10
10.7249246462
 20
9.7012189047
 30
0.0
 10
10.7215631409
 20
9.7030820939
 30
0.0
 10
10.7173217886
 20
9.7057407813
 30
0.0
 10
10.7144326938
 20
9.7077116156
 30
0.0
 10
10.7117649888
 20
9.7097035274
 30
0.0
 10
10.7093207887
 20
9.7117149988
 30
0.0
 10
10.707101868
 20
9.7137443703
 30
0.0
 10
10.7051099798
 20
9.7157901689
 30
0.0
 10
10.7033468904
 20
9.7178509444
 30
0.0
 10
10.7018145004
 20
9.7199254334
 30
0.0
 10
10.7005144252
 20
9.7220122161
 30
0.0
 10
10.699447799
 20
9.7241096552
 30
0.0
 10
10.6986159412
 20
9.7262161185
 30
0.0
 10
10.6980202538
 20
9.7283298699
 30
0.0
 10
10.6976622303
 20
9.7304484664
 30
0.0
 10
10.6975825564
 20
9.7318660232
 30
0.0
 10
10.6975825727
 20
9.7325700852
 30
0.0
  0
SPLINE
  5
3BA
100
AcDbEntity
  8
0
100
AcDbSpline
 62
7
  6
CONTINUOUS
 70
0
 71
3
 72
15
 73
11
 74
0
 42
0.0000001
 43
0.0000001
 44
0.0000000001
 40
0.0
 40
0.0
 40
0.0
 40
0.0
 40
0.1098818339
 40
0.2213890443
 40
0.3360729859
 40
0.4553559627
 40
0.5804641769
 40
0.712410792
 40
0.8520301999
 40
1.0
 40
1.0
 40
1.0
 40
1.0
 10
11.2605826165
 20
9.7325700852
 30
0.0
 10
11.2605825982
 20
9.7317739573
 30
0.0
 10
11.26048033
 20
9.7301681291
 30
0.0
 10
11.2600220107
 20
9.7277707699
 30
0.0
 10
11.2592597214
 20
9.7253806048
 30
0.0
 10
11.2581949675
 20
9.7230014116
 30
0.0
 10
11.2568305626
 20
9.7206357023
 30
0.0
 10
11.2551696856
 20
9.7182856994
 30
0.0
 10
11.2532151891
 20
9.7159538663
 30
0.0
 10
11.2517618343
 20
9.7144580207
 30
0.0
 10
11.2509907308
 20
9.7137131919
 30
0.0
  0
SPLINE
  5
3BB
100
AcDbEntity
  8
0
100
AcDbSpline
 62
7
  6
CONTINUOUS
 70
0
 71
3
 72
21
 73
17
 74
0
 42
0.0000001
 43
0.0000001
 44
0.0000000001
 40
0.0
 40
0.0
 40
0.0
 40
0.0
 40
0.1429603741
 40
0.2085141546
 40
0.2706367519
 40
0.3298565278
 40
0.3868029358
 40
0.4422139972
 40
0.4968996533
 40
0.5517008014
 40
0.6074520327
 40
0.6649453631
 40
0.7248938616
 40
0.7879105525
 40
0.8545117361
 40
1.0
 40
1.0
 40
1.0
 40
1.0
 10
10.8733137104
 20
9.7553599964
 30
0.0
 10
10.8727214157
 20
9.7547878837
 30
0.0
 10
10.8719067341
 20
9.7538969237
 30
0.0
 10
10.8710108918
 20
9.7526189768
 30
0.0
 10
10.870477779
 20
9.7516815768
 30
0.0
 10
10.8700653274
 20
9.750738816
 30
0.0
 10
10.8697749812
 20
9.749791647
 30
0.0
 10
10.8696075583
 20
9.7488415376
 30
0.0
 10
10.8695633855
 20
9.7478900703
 30
0.0
 10
10.8696425474
 20
9.7469389268
 30
0.0
 10
10.8698447554
 20
9.7459897558
 30
0.0
 10
10.8701695288
 20
9.7450440694
 30
0.0
 10
10.8706158621
 20
9.7441031116
 30
0.0
 10
10.8711825686
 20
9.7431676936
 30
0.0
 10
10.8721250378
 20
9.74189168
 30
0.0
 10
10.8729720227
 20
9.7410031086
 30
0.0
 10
10.8735854807
 20
9.7404321541
 30
0.0
  0
SPLINE
  5
3BC
100
AcDbEntity
  8
0
100
AcDbSpline
 62
7
  6
CONTINUOUS
 70
0
 71
3
 72
15
 73
11
 74
0
 42
0.0000001
 43
0.0000001
 44
0.0000000001
 40
0.0
 40
0.0
 40
0.0
 40
0.0
 40
0.130853243
 40
0.2612478082
 40
0.3906112907
 40
0.5182255703
 40
0.6433665409
 40
0.7654878953
 40
0.8843462897
 40
1.0
 40
1.0
 40
1.0
 40
1.0
 10
10.4901456485
 20
6.9690373535
 30
0.0
 10
10.4917893776
 20
6.9936538878
 30
0.0
 10
10.4947775776
 20
7.0428210221
 30
0.0
 10
10.4981861734
 20
7.1163917138
 30
0.0
 10
10.5003325171
 20
7.189400185
 30
0.0
 10
10.5010756164
 20
7.2614466067
 30
0.0
 10
10.5003605194
 20
7.3321280988
 30
0.0
 10
10.4982358134
 20
7.4011294
 30
0.0
 10
10.4948395015
 20
7.4682879051
 30
0.0
 10
10.4918124307
 20
7.512402025
 30
0.0
 10
10.4901456485
 20
7.5341438281
 30
0.0
  0
SPLINE
  5
3BD
100
AcDbEntity
  8
0
100
AcDbSpline
 62
7
  6
CONTINUOUS
 70
0
 71
3
 72
18
 73
14
 74
0
 42
0.0000001
 43
0.0000001
 44
0.0000000001
 40
0.0
 40
0.0
 40
0.0
 40
0.0
 40
0.1209533837
 40
0.2437778942
 40
0.3058582232
 40
0.3683347693
 40
0.4311529717
 40
0.4942444779
 40
0.5575323574
 40
0.6209360738
 40
0.7477793722
 40
0.8742481621
 40
1.0
 40
1.0
 40
1.0
 40
1.0
 10
10.4631852442
 20
7.5827103285
 30
0.0
 10
10.4447314575
 20
7.5973174262
 30
0.0
 10
10.4072598678
 20
7.6264080892
 30
0.0
 10
10.3594608408
 20
7.6618749006
 30
0.0
 10
10.3202842496
 20
7.6898455894
 30
0.0
 10
10.2903423656
 20
7.7106511431
 30
0.0
 10
10.2599660834
 20
7.7311708174
 30
0.0
 10
10.2291861267
 20
7.7513690939
 30
0.0
 10
10.1980425458
 20
7.771214951
 30
0.0
 10
10.1560911284
 20
7.797175686
 30
0.0
 10
10.1030649687
 20
7.8285918275
 30
0.0
 10
10.0387413323
 20
7.8646977895
 30
0.0
 10
9.9954631781
 20
7.8878478567
 30
0.0
 10
9.9737886813
 20
7.8992033327
 30
0.0
  0
SPLINE
  5
3BE
100
AcDbEntity
  8
0
100
AcDbSpline
 62
7
  6
CONTINUOUS
 70
0
 71
3
 72
15
 73
11
 74
0
 42
0.0000001
 43
0.0000001
 44
0.0000000001
 40
0.0
 40
0.0
 40
0.0
 40
0.0
 40
0.112346891
 40
0.2287649619
 40
0.3494215021
 40
0.4741363415
 40
0.6023573719
 40
0.7332837662
 40
0.866070494
 40
1.0
 40
1.0
 40
1.0
 40
1.0
 10
9.9198678727
 20
7.9029427535
 30
0.0
 10
9.9012381935
 20
7.8942451501
 30
0.0
 10
9.8633675731
 20
7.8763975944
 30
0.0
 10
9.8057419151
 20
7.8486770231
 30
0.0
 10
9.746325284
 20
7.819463592
 30
0.0
 10
9.6852391074
 20
7.7887563567
 30
0.0
 10
9.6227468593
 20
7.7566675832
 30
0.0
 10
9.5592010429
 20
7.7234019162
 30
0.0
 10
9.4949641291
 20
7.6892080553
 30
0.0
 10
9.4520116521
 20
7.6660228476
 30
0.0
 10
9.4304713099
 20
7.6543292831
 30
0.0
  0
SPLINE
  5
3BF
100
AcDbEntity
  8
0
100
AcDbSpline
 62
7
  6
CONTINUOUS
 70
0
 71
3
 72
15
 73
11
 74
0
 42
0.0000001
 43
0.0000001
 44
0.0000000001
 40
0.0
 40
0.0
 40
0.0
 40
0.0
 40
0.130853243
 40
0.2612478082
 40
0.3906112907
 40
0.5182255703
 40
0.6433665409
 40
0.7654878953
 40
0.8843462897
 40
1.0
 40
1.0
 40
1.0
 40
1.0
 10
9.300510405
 20
7.5100113539
 30
0.0
 10
9.2988666759
 20
7.4853948196
 30
0.0
 10
9.2958784758
 20
7.4362276853
 30
0.0
 10
9.29246988
 20
7.3626569936
 30
0.0
 10
9.2903235363
 20
7.2896485224
 30
0.0
 10
9.2895804371
 20
7.2176021007
 30
0.0
 10
9.2902955341
 20
7.1469206086
 30
0.0
 10
9.2924202401
 20
7.0779193074
 30
0.0
 10
9.295816552
 20
7.0107608023
 30
0.0
 10
9.2988436227
 20
6.9666466824
 30
0.0
 10
9.300510405
 20
6.9449048793
 30
0.0
  0
SPLINE
  5
3C0
100
AcDbEntity
  8
0
100
AcDbSpline
 62
7
  6
CONTINUOUS
 70
0
 71
3
 72
18
 73
14
 74
0
 42
0.0000001
 43
0.0000001
 44
0.0000000001
 40
0.0
 40
0.0
 40
0.0
 40
0.0
 40
0.1209533837
 40
0.2437778942
 40
0.3058582232
 40
0.3683347693
 40
0.4311529717
 40
0.4942444779
 40
0.5575323574
 40
0.6209360738
 40
0.7477793722
 40
0.8742481621
 40
1.0
 40
1.0
 40
1.0
 40
1.0
 10
9.3274708093
 20
6.8963383789
 30
0.0
 10
9.345924596
 20
6.8817312812
 30
0.0
 10
9.3833961856
 20
6.8526406182
 30
0.0
 10
9.4311952126
 20
6.8171738068
 30
0.0
 10
9.4703718038
 20
6.789203118
 30
0.0
 10
9.5003136879
 20
6.7683975643
 30
0.0
 10
9.53068997
 20
6.74787789
 30
0.0
 10
9.5614699268
 20
6.7276796135
 30
0.0
 10
9.5926135077
 20
6.7078337564
 30
0.0
 10
9.634564925
 20
6.6818730214
 30
0.0
 10
9.6875910848
 20
6.6504568799
 30
0.0
 10
9.7519147212
 20
6.6143509179
 30
0.0
 10
9.7951928754
 20
6.5912008507
 30
0.0
 10
9.8168673721
 20
6.5798453747
 30
0.0
  0
SPLINE
  5
3C1
100
AcDbEntity
  8
0
100
AcDbSpline
 62
7
  6
CONTINUOUS
 70
0
 71
3
 72
15
 73
11
 74
0
 42
0.0000001
 43
0.0000001
 44
0.0000000001
 40
0.0
 40
0.0
 40
0.0
 40
0.0
 40
0.112346891
 40
0.2287649619
 40
0.3494215021
 40
0.4741363415
 40
0.6023573719
 40
0.7332837662
 40
0.866070494
 40
1.0
 40
1.0
 40
1.0
 40
1.0
 10
9.8707881808
 20
6.5761059539
 30
0.0
 10
9.88941786
 20
6.5848035573
 30
0.0
 10
9.9272884804
 20
6.602651113
 30
0.0
 10
9.9849141383
 20
6.6303716843
 30
0.0
 10
10.0443307695
 20
6.6595851154
 30
0.0
 10
10.1054169461
 20
6.6902923506
 30
0.0
 10
10.1679091941
 20
6.7223811242
 30
0.0
 10
10.2314550105
 20
6.7556467912
 30
0.0
 10
10.2956919244
 20
6.7898406521
 30
0.0
 10
10.3386444013
 20
6.8130258598
 30
0.0
 10
10.3601847436
 20
6.8247194243
 30
0.0
  0
SPLINE
  5
3C2
100
AcDbEntity
  8
0
100
AcDbSpline
 62
7
  6
CONTINUOUS
 70
0
 71
3
 72
49
 73
45
 74
0
 42
0.0000001
 43
0.0000001
 44
0.0000000001
 40
0.0
 40
0.0
 40
0.0
 40
0.0
 40
0.031187151
 40
0.0621645213
 40
0.0929401585
 40
0.1082629014
 40
0.1235424257
 40
0.1387821476
 40
0.1539858757
 40
0.1691576791
 40
0.1843020069
 40
0.1994235946
 40
0.2145274341
 40
0.2296186839
 40
0.2447026442
 40
0.2597846952
 40
0.2748702365
 40
0.2899646369
 40
0.3050731598
 40
0.3202009317
 40
0.3353528523
 40
0.3505335935
 40
0.3657474896
 40
0.3809985718
 40
0.3962904382
 40
0.4269990655
 40
0.4579035252
 40
0.4890160735
 40
0.5203408316
 40
0.5518737651
 40
0.5836029699
 40
0.6155093002
 40
0.6475671858
 40
0.6797456153
 40
0.7120093051
 40
0.7443199991
 40
0.776637812
 40
0.8089225842
 40
0.8411353274
 40
0.8732395264
 40
0.9052026864
 40
0.9369967424
 40
0.9686011451
 40
1.0
 40
1.0
 40
1.0
 40
1.0
 10
9.8320228758
 20
7.7144651352
 30
0.0
 10
9.8145461268
 20
7.7156771519
 30
0.0
 10
9.7795669026
 20
7.7163965264
 30
0.0
 10
9.7274403757
 20
7.7122969844
 30
0.0
 10
9.6847553482
 20
7.7045784149
 30
0.0
 10
9.6513828163
 20
7.6958702624
 30
0.0
 10
9.6268197399
 20
7.6881006863
 30
0.0
 10
9.6027515076
 20
7.6791028584
 30
0.0
 10
9.579235312
 20
7.6688981415
 30
0.0
 10
9.5563278557
 20
7.6575115931
 30
0.0
 10
9.534084799
 20
7.6449698091
 30
0.0
 10
9.5125591792
 20
7.6313040776
 30
0.0
 10
9.4918037508
 20
7.6165460617
 30
0.0
 10
9.4718675616
 20
7.6007327518
 30
0.0
 10
9.4527999105
 20
7.5839007845
 30
0.0
 10
9.4346454708
 20
7.5660922508
 30
0.0
 10
9.4174494227
 20
7.5473486788
 30
0.0
 10
9.4012518342
 20
7.527716584
 30
0.0
 10
9.3860930975
 20
7.5072422003
 30
0.0
 10
9.3720085411
 20
7.4859758476
 30
0.0
 10
9.3590331283
 20
7.4639681377
 30
0.0
 10
9.347197332
 20
7.4412726023
 30
0.0
 10
9.3365301762
 20
7.4179439171
 30
0.0
 10
9.3270570072
 20
7.3940376386
 30
0.0
 10
9.3160347188
 20
7.3614310379
 30
0.0
 10
9.3053558994
 20
7.3194882341
 30
0.0
 10
9.2976404257
 20
7.2678902229
 30
0.0
 10
9.2950721668
 20
7.2154342547
 30
0.0
 10
9.2976750882
 20
7.1626290205
 30
0.0
 10
9.3054218347
 20
7.1099816485
 30
0.0
 10
9.3182362293
 20
7.0579984282
 30
0.0
 10
9.3359935536
 20
7.007178552
 30
0.0
 10
9.3585219703
 20
6.9580098364
 30
0.0
 10
9.3856041561
 20
6.9109640557
 30
0.0
 10
9.4169794047
 20
6.8664925504
 30
0.0
 10
9.4523461118
 20
6.8250219695
 30
0.0
 10
9.4913646358
 20
6.7869502862
 30
0.0
 10
9.5336604862
 20
6.7526429986
 30
0.0
 10
9.5788278579
 20
6.7224298321
 30
0.0
 10
9.6264335816
 20
6.696601226
 30
0.0
 10
9.6760204414
 20
6.675406483
 30
0.0
 10
9.7271145453
 20
6.659049499
 30
0.0
 10
9.7792184574
 20
6.6476902986
 30
0.0
 10
9.8144274915
 20
6.6435076486
 30
0.0
 10
9.8320228758
 20
6.6422874045
 30
0.0
  0
SPLINE
  5
3C3
100
AcDbEntity
  8
0
100
AcDbSpline
 62
7
  6
CONTINUOUS
 70
0
 71
3
 72
49
 73
45
 74
0
 42
0.0000001
 43
0.0000001
 44
0.0000000001
 40
0.0
 40
0.0
 40
0.0
 40
0.0
 40
0.031187151
 40
0.0621645213
 40
0.0929401585
 40
0.1082629014
 40
0.1235424257
 40
0.1387821476
 40
0.1539858757
 40
0.1691576791
 40
0.1843020069
 40
0.1994235946
 40
0.2145274341
 40
0.2296186839
 40
0.2447026442
 40
0.2597846952
 40
0.2748702365
 40
0.2899646369
 40
0.3050731598
 40
0.3202009317
 40
0.3353528523
 40
0.3505335935
 40
0.3657474896
 40
0.3809985718
 40
0.3962904382
 40
0.4269990655
 40
0.4579035252
 40
0.4890160735
 40
0.5203408316
 40
0.5518737651
 40
0.5836029699
 40
0.6155093002
 40
0.6475671858
 40
0.6797456153
 40
0.7120093051
 40
0.7443199991
 40
0.776637812
 40
0.8089225842
 40
0.8411353274
 40
0.8732395264
 40
0.9052026864
 40
0.9369967424
 40
0.9686011451
 40
1.0
 40
1.0
 40
1.0
 40
1.0
 10
9.8320228758
 20
6.6422874045
 30
0.0
 10
9.8494996248
 20
6.6410753878
 30
0.0
 10
9.884478849
 20
6.6403560133
 30
0.0
 10
9.9366053759
 20
6.6444555553
 30
0.0
 10
9.9792904034
 20
6.6521741248
 30
0.0
 10
10.0126629353
 20
6.6608822773
 30
0.0
 10
10.0372260117
 20
6.6686518534
 30
0.0
 10
10.061294244
 20
6.6776496813
 30
0.0
 10
10.0848104396
 20
6.6878543982
 30
0.0
 10
10.1077178959
 20
6.6992409466
 30
0.0
 10
10.1299609527
 20
6.7117827306
 30
0.0
 10
10.1514865724
 20
6.7254484621
 30
0.0
 10
10.1722420008
 20
6.740206478
 30
0.0
 10
10.19217819
 20
6.7560197879
 30
0.0
 10
10.2112458411
 20
6.7728517552
 30
0.0
 10
10.2294002808
 20
6.790660289
 30
0.0
 10
10.2465963289
 20
6.809403861
 30
0.0
 10
10.2627939174
 20
6.8290359557
 30
0.0
 10
10.2779526541
 20
6.8495103394
 30
0.0
 10
10.2920372105
 20
6.8707766921
 30
0.0
 10
10.3050126233
 20
6.892784402
 30
0.0
 10
10.3168484196
 20
6.9154799374
 30
0.0
 10
10.3275155754
 20
6.9388086226
 30
0.0
 10
10.3369887444
 20
6.9627149011
 30
0.0
 10
10.3480110328
 20
6.9953215018
 30
0.0
 10
10.3586898522
 20
7.0372643056
 30
0.0
 10
10.3664053259
 20
7.0888623168
 30
0.0
 10
10.3689735848
 20
7.141318285
 30
0.0
 10
10.3663706635
 20
7.1941235192
 30
0.0
 10
10.3586239169
 20
7.2467708912
 30
0.0
 10
10.3458095223
 20
7.2987541116
 30
0.0
 10
10.328052198
 20
7.3495739878
 30
0.0
 10
10.3055237813
 20
7.3987427033
 30
0.0
 10
10.2784415955
 20
7.445788484
 30
0.0
 10
10.2470663469
 20
7.4902599893
 30
0.0
 10
10.2116996398
 20
7.5317305702
 30
0.0
 10
10.1726811158
 20
7.5698022535
 30
0.0
 10
10.1303852655
 20
7.6041095412
 30
0.0
 10
10.0852178937
 20
7.6343227076
 30
0.0
 10
10.03761217
 20
7.6601513137
 30
0.0
 10
9.9880253102
 20
7.6813460567
 30
0.0
 10
9.9369312063
 20
7.6977030407
 30
0.0
 10
9.8848272942
 20
7.7090622411
 30
0.0
 10
9.8496182601
 20
7.7132448912
 30
0.0
 10
9.8320228758
 20
7.7144651352
 30
0.0
  0
SPLINE
  5
3C4
100
AcDbEntity
  8
0
100
AcDbSpline
 62
7
  6
CONTINUOUS
 70
0
 71
3
 72
15
 73
11
 74
0
 42
0.0000001
 43
0.0000001
 44
0.0000000001
 40
0.0
 40
0.0
 40
0.0
 40
0.0
 40
0.1156537103
 40
0.2345121048
 40
0.3566334592
 40
0.4817744298
 40
0.6093887094
 40
0.7387521918
 40
0.869146757
 40
1.0
 40
1.0
 40
1.0
 40
1.0
 10
10.3871451479
 20
6.869546504
 30
0.0
 10
10.3854783657
 20
6.891288307
 30
0.0
 10
10.3824512949
 20
6.9354024269
 30
0.0
 10
10.379054983
 20
7.002560932
 30
0.0
 10
10.376930277
 20
7.0715622332
 30
0.0
 10
10.37621518
 20
7.1422437253
 30
0.0
 10
10.3769582793
 20
7.214290147
 30
0.0
 10
10.379104623
 20
7.2872986183
 30
0.0
 10
10.3825132188
 20
7.3608693099
 30
0.0
 10
10.3855014188
 20
7.4100364442
 30
0.0
 10
10.3871451479
 20
7.4346529785
 30
0.0
  0
SPLINE
  5
3C5
100
AcDbEntity
  8
0
100
AcDbSpline
 62
7
  6
CONTINUOUS
 70
0
 71
3
 72
18
 73
14
 74
0
 42
0.0000001
 43
0.0000001
 44
0.0000000001
 40
0.0
 40
0.0
 40
0.0
 40
0.0
 40
0.1257518379
 40
0.2522206279
 40
0.3790639262
 40
0.4424676427
 40
0.5057555221
 40
0.5688470283
 40
0.6316652308
 40
0.6941417768
 40
0.7562221058
 40
0.8790466163
 40
1.0
 40
1.0
 40
1.0
 40
1.0
 10
10.3601847436
 20
7.483219479
 30
0.0
 10
10.3385102469
 20
7.4945749551
 30
0.0
 10
10.2952320926
 20
7.5177250222
 30
0.0
 10
10.2309084562
 20
7.5538309843
 30
0.0
 10
10.1778822965
 20
7.5852471257
 30
0.0
 10
10.1359308791
 20
7.6112078607
 30
0.0
 10
10.1047872982
 20
7.6310537178
 30
0.0
 10
10.0740073415
 20
7.6512519943
 30
0.0
 10
10.0436310593
 20
7.6717716686
 30
0.0
 10
10.0136891753
 20
7.6925772223
 30
0.0
 10
9.9745125841
 20
7.7205479111
 30
0.0
 10
9.9267135571
 20
7.7560147226
 30
0.0
 10
9.8892419675
 20
7.7851053855
 30
0.0
 10
9.8707881808
 20
7.7997124832
 30
0.0
  0
SPLINE
  5
3C6
100
AcDbEntity
  8
0
100
AcDbSpline
 62
7
  6
CONTINUOUS
 70
0
 71
3
 72
15
 73
11
 74
0
 42
0.0000001
 43
0.0000001
 44
0.0000000001
 40
0.0
 40
0.0
 40
0.0
 40
0.0
 40
0.1339295061
 40
0.2667162338
 40
0.3976426282
 40
0.5258636586
 40
0.6505784979
 40
0.7712350381
 40
0.887653109
 40
1.0
 40
1.0
 40
1.0
 40
1.0
 10
9.8168673721
 20
7.803451904
 30
0.0
 10
9.7953270299
 20
7.7917583395
 30
0.0
 10
9.7523745529
 20
7.7685731318
 30
0.0
 10
9.688137639
 20
7.7343792709
 30
0.0
 10
9.6245918226
 20
7.7011136039
 30
0.0
 10
9.5620995746
 20
7.6690248303
 30
0.0
 10
9.501013398
 20
7.6383175951
 30
0.0
 10
9.4415967668
 20
7.609104164
 30
0.0
 10
9.3839711089
 20
7.5813835927
 30
0.0
 10
9.3461004885
 20
7.563536037
 30
0.0
 10
9.3274708093
 20
7.5548384336
 30
0.0
  0
SPLINE
  5
3C7
100
AcDbEntity
  8
0
100
AcDbSpline
 62
7
  6
CONTINUOUS
 70
0
 71
3
 72
15
 73
11
 74
0
 42
0.0000001
 43
0.0000001
 44
0.0000000001
 40
0.0
 40
0.0
 40
0.0
 40
0.0
 40
0.1308537488
 40
0.2612484863
 40
0.3906118221
 40
0.5182256991
 40
0.6433659131
 40
0.7654873328
 40
0.8843458508
 40
1.0
 40
1.0
 40
1.0
 40
1.0
 10
11.8482374582
 20
6.8748533666
 30
0.0
 10
11.8498811936
 20
6.8994699961
 30
0.0
 10
11.8528693908
 20
6.9486372583
 30
0.0
 10
11.8562780548
 20
7.0222080485
 30
0.0
 10
11.8584242222
 20
7.0952164523
 30
0.0
 10
11.8591675919
 20
7.1672626261
 30
0.0
 10
11.8584522224
 20
7.2379439098
 30
0.0
 10
11.8563276959
 20
7.306945108
 30
0.0
 10
11.8529313154
 20
7.3741037297
 30
0.0
 10
11.8499042468
 20
7.4182179556
 30
0.0
 10
11.8482374582
 20
7.4399598412
 30
0.0
  0
SPLINE
  5
3C8
100
AcDbEntity
  8
0
100
AcDbSpline
 62
7
  6
CONTINUOUS
 70
0
 71
3
 72
19
 73
15
 74
0
 42
0.0000001
 43
0.0000001
 44
0.0000000001
 40
0.0
 40
0.0
 40
0.0
 40
0.0
 40
0.120953556
 40
0.2437779128
 40
0.3058580643
 40
0.3683344807
 40
0.431152153
 40
0.4942432529
 40
0.5575308052
 40
0.6209340224
 40
0.6843741804
 40
0.7477793373
 40
0.8742479802
 40
1.0
 40
1.0
 40
1.0
 40
1.0
 10
11.8212770539
 20
7.4885263416
 30
0.0
 10
11.8028231966
 20
7.5031334952
 30
0.0
 10
11.7653515189
 20
7.5322242367
 30
0.0
 10
11.7175523961
 20
7.5676911057
 30
0.0
 10
11.6783758198
 20
7.5956618606
 30
0.0
 10
11.6484339039
 20
7.6164672377
 30
0.0
 10
11.6180577616
 20
7.6369868984
 30
0.0
 10
11.5872780202
 20
7.6571852362
 30
0.0
 10
11.5561345219
 20
7.6770308712
 30
0.0
 10
11.5246740044
 20
7.6964993033
 30
0.0
 10
11.492946584
 20
7.7155740429
 30
0.0
 10
11.4503925984
 20
7.7404496842
 30
0.0
 10
11.3968332095
 20
7.7705138803
 30
0.0
 10
11.3535550712
 20
7.7936638261
 30
0.0
 10
11.3318804911
 20
7.8050193458
 30
0.0
  0
SPLINE
  5
3C9
100
AcDbEntity
  8
0
100
AcDbSpline
 62
7
  6
CONTINUOUS
 70
0
 71
3
 72
15
 73
11
 74
0
 42
0.0000001
 43
0.0000001
 44
0.0000000001
 40
0.0
 40
0.0
 40
0.0
 40
0.0
 40
0.1123473152
 40
0.228765499
 40
0.3494221518
 40
0.4741361587
 40
0.6023568587
 40
0.7332830648
 40
0.8660699745
 40
1.0
 40
1.0
 40
1.0
 40
1.0
 10
11.2779596824
 20
7.8087587666
 30
0.0
 10
11.2593299329
 20
7.8000611303
 30
0.0
 10
11.2214592252
 20
7.7822135294
 30
0.0
 10
11.1638334488
 20
7.7544929295
 30
0.0
 10
11.1044169495
 20
7.7252794826
 30
0.0
 10
11.043330894
 20
7.6945724341
 30
0.0
 10
10.9808389166
 20
7.6624836742
 30
0.0
 10
10.9172931221
 20
7.6292180989
 30
0.0
 10
10.8530561374
 20
7.5950241708
 30
0.0
 10
10.8101035454
 20
7.571838906
 30
0.0
 10
10.7885631196
 20
7.5601452962
 30
0.0
  0
SPLINE
  5
3CA
100
AcDbEntity
  8
0
100
AcDbSpline
 62
7
  6
CONTINUOUS
 70
0
 71
3
 72
15
 73
11
 74
0
 42
0.0000001
 43
0.0000001
 44
0.0000000001
 40
0.0
 40
0.0
 40
0.0
 40
0.0
 40
0.1308537488
 40
0.2612484863
 40
0.3906118221
 40
0.5182256991
 40
0.6433659131
 40
0.7654873328
 40
0.8843458508
 40
1.0
 40
1.0
 40
1.0
 40
1.0
 10
10.6586022147
 20
7.415827367
 30
0.0
 10
10.6569584793
 20
7.3912107375
 30
0.0
 10
10.6539702821
 20
7.3420434753
 30
0.0
 10
10.6505616182
 20
7.2684726851
 30
0.0
 10
10.6484154507
 20
7.1954642813
 30
0.0
 10
10.647672081
 20
7.1234181075
 30
0.0
 10
10.6483874506
 20
7.0527368238
 30
0.0
 10
10.6505119771
 20
6.9837356256
 30
0.0
 10
10.6539083575
 20
6.9165770039
 30
0.0
 10
10.6569354261
 20
6.872462778
 30
0.0
 10
10.6586022147
 20
6.8507208924
 30
0.0
  0
SPLINE
  5
3CB
100
AcDbEntity
  8
0
100
AcDbSpline
 62
7
  6
CONTINUOUS
 70
0
 71
3
 72
19
 73
15
 74
0
 42
0.0000001
 43
0.0000001
 44
0.0000000001
 40
0.0
 40
0.0
 40
0.0
 40
0.0
 40
0.120953556
 40
0.2437779128
 40
0.3058580643
 40
0.3683344807
 40
0.431152153
 40
0.4942432529
 40
0.5575308052
 40
0.6209340224
 40
0.6843741804
 40
0.7477793373
 40
0.8742479802
 40
1.0
 40
1.0
 40
1.0
 40
1.0
 10
10.685562619
 20
6.802154392
 30
0.0
 10
10.7040164763
 20
6.7875472384
 30
0.0
 10
10.741488154
 20
6.7584564969
 30
0.0
 10
10.7892872768
 20
6.7229896279
 30
0.0
 10
10.8284638531
 20
6.695018873
 30
0.0
 10
10.858405769
 20
6.6742134959
 30
0.0
 10
10.8887819113
 20
6.6536938352
 30
0.0
 10
10.9195616527
 20
6.6334954974
 30
0.0
 10
10.950705151
 20
6.6136498624
 30
0.0
 10
10.9821656685
 20
6.5941814303
 30
0.0
 10
11.0138930889
 20
6.5751066907
 30
0.0
 10
11.0564470745
 20
6.5502310494
 30
0.0
 10
11.1100064634
 20
6.5201668533
 30
0.0
 10
11.1532846018
 20
6.4970169075
 30
0.0
 10
11.1749591819
 20
6.4856613878
 30
0.0
  0
SPLINE
  5
3CC
100
AcDbEntity
  8
0
100
AcDbSpline
 62
7
  6
CONTINUOUS
 70
0
 71
3
 72
15
 73
11
 74
0
 42
0.0000001
 43
0.0000001
 44
0.0000000001
 40
0.0
 40
0.0
 40
0.0
 40
0.0
 40
0.1123473152
 40
0.228765499
 40
0.3494221518
 40
0.4741361587
 40
0.6023568587
 40
0.7332830648
 40
0.8660699745
 40
1.0
 40
1.0
 40
1.0
 40
1.0
 10
11.2288799905
 20
6.481921967
 30
0.0
 10
11.2475097401
 20
6.4906196033
 30
0.0
 10
11.2853804477
 20
6.5084672042
 30
0.0
 10
11.3430062241
 20
6.5361878041
 30
0.0
 10
11.4024227235
 20
6.565401251
 30
0.0
 10
11.4635087789
 20
6.5961082995
 30
0.0
 10
11.5260007563
 20
6.6281970594
 30
0.0
 10
11.5895465508
 20
6.6614626347
 30
0.0
 10
11.6537835356
 20
6.6956565628
 30
0.0
 10
11.6967361275
 20
6.7188418276
 30
0.0
 10
11.7182765533
 20
6.7305354374
 30
0.0
  0
SPLINE
  5
3CD
100
AcDbEntity
  8
0
100
AcDbSpline
 62
7
  6
CONTINUOUS
 70
0
 71
3
 72
15
 73
11
 74
0
 42
0.0000001
 43
0.0000001
 44
0.0000000001
 40
0.0
 40
0.0
 40
0.0
 40
0.0
 40
0.1339300255
 40
0.2667169353
 40
0.3976431413
 40
0.5258638413
 40
0.6505778483
 40
0.771234501
 40
0.8876526848
 40
1.0
 40
1.0
 40
1.0
 40
1.0
 10
11.1749591819
 20
7.7092679171
 30
0.0
 10
11.153418756
 20
7.6975743073
 30
0.0
 10
11.1104661641
 20
7.6743890425
 30
0.0
 10
11.0462291793
 20
7.6401951144
 30
0.0
 10
10.9826833848
 20
7.6069295391
 30
0.0
 10
10.9201914074
 20
7.5748407792
 30
0.0
 10
10.859105352
 20
7.5441337307
 30
0.0
 10
10.7996888526
 20
7.5149202838
 30
0.0
 10
10.7420630762
 20
7.4871996839
 30
0.0
 10
10.7041923686
 20
7.469352083
 30
0.0
 10
10.685562619
 20
7.4606544467
 30
0.0
  0
SPLINE
  5
3CE
100
AcDbEntity
  8
0
100
AcDbSpline
 62
7
  6
CONTINUOUS
 70
0
 71
3
 72
15
 73
11
 74
0
 42
0.0000001
 43
0.0000001
 44
0.0000000001
 40
0.0
 40
0.0
 40
0.0
 40
0.0
 40
0.1156541492
 40
0.2345126673
 40
0.3566340869
 40
0.481774301
 40
0.609388178
 40
0.7387515137
 40
0.8691462512
 40
1.0
 40
1.0
 40
1.0
 40
1.0
 10
11.7452369577
 20
6.7753625171
 30
0.0
 10
11.7435701691
 20
6.7971044027
 30
0.0
 10
11.7405431005
 20
6.8412186286
 30
0.0
 10
11.73714672
 20
6.9083772502
 30
0.0
 10
11.7350221935
 20
6.9773784484
 30
0.0
 10
11.7343068239
 20
7.0480597322
 30
0.0
 10
11.7350501937
 20
7.1201059059
 30
0.0
 10
11.7371963611
 20
7.1931143097
 30
0.0
 10
11.7406050251
 20
7.2666851
 30
0.0
 10
11.7435932222
 20
7.3158523621
 30
0.0
 10
11.7452369577
 20
7.3404689916
 30
0.0
  0
SPLINE
  5
3CF
100
AcDbEntity
  8
0
100
AcDbSpline
 62
7
  6
CONTINUOUS
 70
0
 71
3
 72
19
 73
15
 74
0
 42
0.0000001
 43
0.0000001
 44
0.0000000001
 40
0.0
 40
0.0
 40
0.0
 40
0.0
 40
0.1257520198
 40
0.2522206628
 40
0.3156258197
 40
0.3790659776
 40
0.4424691949
 40
0.5057567472
 40
0.5688478471
 40
0.6316655194
 40
0.6941419357
 40
0.7562220872
 40
0.879046444
 40
1.0
 40
1.0
 40
1.0
 40
1.0
 10
11.7182765533
 20
7.3890354921
 30
0.0
 10
11.6966019732
 20
7.4003910119
 30
0.0
 10
11.6533238349
 20
7.4235409576
 30
0.0
 10
11.599764446
 20
7.4536051537
 30
0.0
 10
11.5572104604
 20
7.478480795
 30
0.0
 10
11.5254830399
 20
7.4975555347
 30
0.0
 10
11.4940225225
 20
7.5170239667
 30
0.0
 10
11.4628790241
 20
7.5368696017
 30
0.0
 10
11.4320992828
 20
7.5570679396
 30
0.0
 10
11.4017231405
 20
7.5775876002
 30
0.0
 10
11.3717812245
 20
7.5983929773
 30
0.0
 10
11.3326046483
 20
7.6263637323
 30
0.0
 10
11.2848055254
 20
7.6618306012
 30
0.0
 10
11.2473338478
 20
7.6909213428
 30
0.0
 10
11.2288799905
 20
7.7055284963
 30
0.0
  0
SPLINE
  5
3D0
100
AcDbEntity
  8
0
100
AcDbSpline
 62
7
  6
CONTINUOUS
 70
0
 71
3
 72
60
 73
56
 74
0
 42
0.0000001
 43
0.0000001
 44
0.0000000001
 40
0.0
 40
0.0
 40
0.0
 40
0.0
 40
0.031184371
 40
0.0621580432
 40
0.0775734646
 40
0.0929406781
 40
0.1082617819
 40
0.1235397404
 40
0.1387779589
 40
0.1539801548
 40
0.1691504309
 40
0.1842932276
 40
0.1994132951
 40
0.2145156006
 40
0.2296053272
 40
0.2446877625
 40
0.2597683001
 40
0.2748523191
 40
0.2899451975
 40
0.3050521937
 40
0.3201784387
 40
0.335328832
 40
0.3505080379
 40
0.3657204023
 40
0.3809699397
 40
0.3962602754
 40
0.4115946071
 40
0.4269756878
 40
0.4424057885
 40
0.4578867094
 40
0.4734197236
 40
0.4890056207
 40
0.5046446352
 40
0.5203365277
 40
0.5360805209
 40
0.551875389
 40
0.5677193852
 40
0.5836103502
 40
0.5995456448
 40
0.6155222731
 40
0.6315368291
 40
0.6475856077
 40
0.6636645528
 40
0.6797693807
 40
0.6958955413
 40
0.7120383375
 40
0.7443457853
 40
0.7766603396
 40
0.8089418551
 40
0.8411513533
 40
0.8732523515
 40
0.9052121693
 40
0.9370033076
 40
0.9686039471
 40
1.0
 40
1.0
 40
1.0
 40
1.0
 10
11.1901146855
 20
7.6202811483
 30
0.0
 10
11.1726377303
 20
7.6214931793
 30
0.0
 10
11.1376608792
 20
7.6222131495
 30
0.0
 10
11.0941401258
 20
7.6187891064
 30
0.0
 10
11.0598440362
 20
7.613468291
 30
0.0
 10
11.0344714905
 20
7.6082088801
 30
0.0
 10
11.009474221
 20
7.6016861362
 30
0.0
 10
10.9849116364
 20
7.5939168448
 30
0.0
 10
10.9608433479
 20
7.5849187687
 30
0.0
 10
10.9373270267
 20
7.5747143623
 30
0.0
 10
10.914419749
 20
7.5633274352
 30
0.0
 10
10.892176466
 20
7.5507860441
 30
0.0
 10
10.8706511156
 20
7.5371198963
 30
0.0
 10
10.8498953851
 20
7.5223623072
 30
0.0
 10
10.8299595344
 20
7.5065485809
 30
0.0
 10
10.8108915371
 20
7.4897170021
 30
0.0
 10
10.792737434
 20
7.4719081163
 30
0.0
 10
10.7755410624
 20
7.4531648373
 30
0.0
 10
10.7593437477
 20
7.4335325112
 30
0.0
 10
10.7441847946
 20
7.4130582931
 30
0.0
 10
10.7301003737
 20
7.3917918467
 30
0.0
 10
10.7171249116
 20
7.3697841622
 30
0.0
 10
10.7052890638
 20
7.3470886856
 30
0.0
 10
10.6946220462
 20
7.3237597957
 30
0.0
 10
10.6851487001
 20
7.2998541322
 30
0.0
 10
10.6768927497
 20
7.2754289796
 30
0.0
 10
10.6698729996
 20
7.2505435807
 30
0.0
 10
10.6641074407
 20
7.2252576258
 30
0.0
 10
10.6596086998
 20
7.1996323368
 30
0.0
 10
10.6563888197
 20
7.173729259
 30
0.0
 10
10.6544541781
 20
7.1476109632
 30
0.0
 10
10.6538107194
 20
7.1213402873
 30
0.0
 10
10.6544585654
 20
7.0949805454
 30
0.0
 10
10.6563974528
 20
7.0685952754
 30
0.0
 10
10.6596213169
 20
7.0422479145
 30
0.0
 10
10.6641236297
 20
7.0160020708
 30
0.0
 10
10.6698922585
 20
6.9899207158
 30
0.0
 10
10.6769144333
 20
6.9640669098
 30
0.0
 10
10.6851721074
 20
6.9385025918
 30
0.0
 10
10.6946463579
 20
6.9132896305
 30
0.0
 10
10.7053134414
 20
6.8884883647
 30
0.0
 10
10.7171484304
 20
6.8641588425
 30
0.0
 10
10.7301221566
 20
6.8403592447
 30
0.0
 10
10.7442038037
 20
6.8171473191
 30
0.0
 10
10.7593594966
 20
6.7945781004
 30
0.0
 10
10.7809523408
 20
6.7654129277
 30
0.0
 10
10.810438706
 20
6.7308366923
 30
0.0
 10
10.8494561474
 20
6.6927665355
 30
0.0
 10
10.8917523067
 20
6.6584588501
 30
0.0
 10
10.9369196092
 20
6.6282457503
 30
0.0
 10
10.9845253711
 20
6.6024172407
 30
0.0
 10
11.0341122777
 20
6.5812223037
 30
0.0
 10
11.0852062657
 20
6.5648656917
 30
0.0
 10
11.1373101511
 20
6.5535061779
 30
0.0
 10
11.1725190954
 20
6.5493236759
 30
0.0
 10
11.1901146855
 20
6.5481034176
 30
0.0
  0
SPLINE
  5
3D1
100
AcDbEntity
  8
0
100
AcDbSpline
 62
7
  6
CONTINUOUS
 70
0
 71
3
 72
60
 73
56
 74
0
 42
0.0000001
 43
0.0000001
 44
0.0000000001
 40
0.0
 40
0.0
 40
0.0
 40
0.0
 40
0.031184371
 40
0.0621580432
 40
0.0775734646
 40
0.0929406781
 40
0.1082617819
 40
0.1235397404
 40
0.1387779589
 40
0.1539801548
 40
0.1691504309
 40
0.1842932276
 40
0.1994132951
 40
0.2145156006
 40
0.2296053272
 40
0.2446877625
 40
0.2597683001
 40
0.2748523191
 40
0.2899451975
 40
0.3050521937
 40
0.3201784387
 40
0.335328832
 40
0.3505080379
 40
0.3657204023
 40
0.3809699397
 40
0.3962602754
 40
0.4115946071
 40
0.4269756878
 40
0.4424057885
 40
0.4578867094
 40
0.4734197236
 40
0.4890056207
 40
0.5046446352
 40
0.5203365277
 40
0.5360805209
 40
0.551875389
 40
0.5677193852
 40
0.5836103502
 40
0.5995456448
 40
0.6155222731
 40
0.6315368291
 40
0.6475856077
 40
0.6636645528
 40
0.6797693807
 40
0.6958955413
 40
0.7120383375
 40
0.7443457853
 40
0.7766603396
 40
0.8089418551
 40
0.8411513533
 40
0.8732523515
 40
0.9052121693
 40
0.9370033076
 40
0.9686039471
 40
1.0
 40
1.0
 40
1.0
 40
1.0
 10
11.1901146855
 20
6.5481034176
 30
0.0
 10
11.2075916408
 20
6.5468913866
 30
0.0
 10
11.2425684919
 20
6.5461714165
 30
0.0
 10
11.2860892453
 20
6.5495954596
 30
0.0
 10
11.3203853349
 20
6.554916275
 30
0.0
 10
11.3457578806
 20
6.5601756859
 30
0.0
 10
11.37075515
 20
6.5666984297
 30
0.0
 10
11.3953177347
 20
6.5744677212
 30
0.0
 10
11.4193860232
 20
6.5834657973
 30
0.0
 10
11.4429023444
 20
6.5936702036
 30
0.0
 10
11.4658096221
 20
6.6050571307
 30
0.0
 10
11.4880529051
 20
6.6175985219
 30
0.0
 10
11.5095782554
 20
6.6312646696
 30
0.0
 10
11.530333986
 20
6.6460222588
 30
0.0
 10
11.5502698367
 20
6.661835985
 30
0.0
 10
11.569337834
 20
6.6786675638
 30
0.0
 10
11.587491937
 20
6.6964764496
 30
0.0
 10
11.6046883087
 20
6.7152197286
 30
0.0
 10
11.6208856234
 20
6.7348520547
 30
0.0
 10
11.6360445765
 20
6.7553262729
 30
0.0
 10
11.6501289974
 20
6.7765927193
 30
0.0
 10
11.6631044595
 20
6.7986004037
 30
0.0
 10
11.6749403073
 20
6.8212958803
 30
0.0
 10
11.6856073249
 20
6.8446247702
 30
0.0
 10
11.695080671
 20
6.8685304338
 30
0.0
 10
11.7033366214
 20
6.8929555863
 30
0.0
 10
11.7103563715
 20
6.9178409852
 30
0.0
 10
11.7161219304
 20
6.9431269401
 30
0.0
 10
11.7206206713
 20
6.9687522291
 30
0.0
 10
11.7238405513
 20
6.9946553069
 30
0.0
 10
11.725775193
 20
7.0207736027
 30
0.0
 10
11.7264186516
 20
7.0470442786
 30
0.0
 10
11.7257708056
 20
7.0734040205
 30
0.0
 10
11.7238319183
 20
7.0997892905
 30
0.0
 10
11.7206080542
 20
7.1261366515
 30
0.0
 10
11.7161057414
 20
7.1523824951
 30
0.0
 10
11.7103371126
 20
7.1784638501
 30
0.0
 10
11.7033149378
 20
7.2043176561
 30
0.0
 10
11.6950572637
 20
7.2298819742
 30
0.0
 10
11.6855830132
 20
7.2550949354
 30
0.0
 10
11.6749159297
 20
7.2798962012
 30
0.0
 10
11.6630809406
 20
7.3042257234
 30
0.0
 10
11.6501072145
 20
7.3280253212
 30
0.0
 10
11.6360255674
 20
7.3512372468
 30
0.0
 10
11.6208698745
 20
7.3738064656
 30
0.0
 10
11.5992770303
 20
7.4029716383
 30
0.0
 10
11.5697906651
 20
7.4375478736
 30
0.0
 10
11.5307732237
 20
7.4756180305
 30
0.0
 10
11.4884770644
 20
7.5099257158
 30
0.0
 10
11.4433097619
 20
7.5401388157
 30
0.0
 10
11.395704
 20
7.5659673252
 30
0.0
 10
11.3461170934
 20
7.5871622622
 30
0.0
 10
11.2950231054
 20
7.6035188743
 30
0.0
 10
11.24291922
 20
7.614878388
 30
0.0
 10
11.2077102757
 20
7.61906089
 30
0.0
 10
11.1901146855
 20
7.6202811483
 30
0.0
  0
SPLINE
  5
3D2
100
AcDbEntity
  8
0
100
AcDbSpline
 62
7
  6
CONTINUOUS
 70
0
 71
3
 72
15
 73
11
 74
0
 42
0.0000001
 43
0.0000001
 44
0.0000000001
 40
0.0
 40
0.0
 40
0.0
 40
0.0
 40
0.130853243
 40
0.2612478082
 40
0.3906112907
 40
0.5182255703
 40
0.6433665409
 40
0.7654878953
 40
0.8843462897
 40
1.0
 40
1.0
 40
1.0
 40
1.0
 10
10.4901456485
 20
8.4179261788
 30
0.0
 10
10.4917893776
 20
8.4425427131
 30
0.0
 10
10.4947775776
 20
8.4917098474
 30
0.0
 10
10.4981861734
 20
8.5652805391
 30
0.0
 10
10.5003325171
 20
8.6382890103
 30
0.0
 10
10.5010756164
 20
8.710335432
 30
0.0
 10
10.5003605194
 20
8.7810169241
 30
0.0
 10
10.4982358134
 20
8.8500182253
 30
0.0
 10
10.4948395015
 20
8.9171767304
 30
0.0
 10
10.4918124307
 20
8.9612908503
 30
0.0
 10
10.4901456485
 20
8.9830326533
 30
0.0
  0
SPLINE
  5
3D3
100
AcDbEntity
  8
0
100
AcDbSpline
 62
7
  6
CONTINUOUS
 70
0
 71
3
 72
18
 73
14
 74
0
 42
0.0000001
 43
0.0000001
 44
0.0000000001
 40
0.0
 40
0.0
 40
0.0
 40
0.0
 40
0.1209533837
 40
0.2437778942
 40
0.3058582232
 40
0.3683347693
 40
0.4311529717
 40
0.4942444779
 40
0.5575323574
 40
0.6209360738
 40
0.7477793722
 40
0.8742481621
 40
1.0
 40
1.0
 40
1.0
 40
1.0
 10
10.4631852442
 20
9.0315991538
 30
0.0
 10
10.4447314575
 20
9.0462062515
 30
0.0
 10
10.4072598678
 20
9.0752969145
 30
0.0
 10
10.3594608408
 20
9.1107637259
 30
0.0
 10
10.3202842496
 20
9.1387344147
 30
0.0
 10
10.2903423656
 20
9.1595399684
 30
0.0
 10
10.2599660834
 20
9.1800596427
 30
0.0
 10
10.2291861267
 20
9.2002579192
 30
0.0
 10
10.1980425458
 20
9.2201037763
 30
0.0
 10
10.1560911284
 20
9.2460645113
 30
0.0
 10
10.1030649687
 20
9.2774806527
 30
0.0
 10
10.0387413323
 20
9.3135866148
 30
0.0
 10
9.9954631781
 20
9.3367366819
 30
0.0
 10
9.9737886813
 20
9.348092158
 30
0.0
  0
SPLINE
  5
3D4
100
AcDbEntity
  8
0
100
AcDbSpline
 62
7
  6
CONTINUOUS
 70
0
 71
3
 72
15
 73
11
 74
0
 42
0.0000001
 43
0.0000001
 44
0.0000000001
 40
0.0
 40
0.0
 40
0.0
 40
0.0
 40
0.112346891
 40
0.2287649619
 40
0.3494215021
 40
0.4741363415
 40
0.6023573719
 40
0.7332837662
 40
0.866070494
 40
1.0
 40
1.0
 40
1.0
 40
1.0
 10
9.9198678727
 20
9.3518315788
 30
0.0
 10
9.9012381935
 20
9.3431339754
 30
0.0
 10
9.8633675731
 20
9.3252864196
 30
0.0
 10
9.8057419151
 20
9.2975658484
 30
0.0
 10
9.746325284
 20
9.2683524172
 30
0.0
 10
9.6852391074
 20
9.237645182
 30
0.0
 10
9.6227468593
 20
9.2055564084
 30
0.0
 10
9.5592010429
 20
9.1722907415
 30
0.0
 10
9.4949641291
 20
9.1380968806
 30
0.0
 10
9.4520116521
 20
9.1149116729
 30
0.0
 10
9.4304713099
 20
9.1032181084
 30
0.0
  0
SPLINE
  5
3D5
100
AcDbEntity
  8
0
100
AcDbSpline
 62
7
  6
CONTINUOUS
 70
0
 71
3
 72
15
 73
11
 74
0
 42
0.0000001
 43
0.0000001
 44
0.0000000001
 40
0.0
 40
0.0
 40
0.0
 40
0.0
 40
0.130853243
 40
0.2612478082
 40
0.3906112907
 40
0.5182255703
 40
0.6433665409
 40
0.7654878953
 40
0.8843462897
 40
1.0
 40
1.0
 40
1.0
 40
1.0
 10
9.300510405
 20
8.9589001792
 30
0.0
 10
9.2988666759
 20
8.9342836449
 30
0.0
 10
9.2958784758
 20
8.8851165106
 30
0.0
 10
9.29246988
 20
8.8115458189
 30
0.0
 10
9.2903235363
 20
8.7385373477
 30
0.0
 10
9.2895804371
 20
8.666490926
 30
0.0
 10
9.2902955341
 20
8.5958094339
 30
0.0
 10
9.2924202401
 20
8.5268081327
 30
0.0
 10
9.295816552
 20
8.4596496276
 30
0.0
 10
9.2988436227
 20
8.4155355077
 30
0.0
 10
9.300510405
 20
8.3937937046
 30
0.0
  0
SPLINE
  5
3D6
100
AcDbEntity
  8
0
100
AcDbSpline
 62
7
  6
CONTINUOUS
 70
0
 71
3
 72
18
 73
14
 74
0
 42
0.0000001
 43
0.0000001
 44
0.0000000001
 40
0.0
 40
0.0
 40
0.0
 40
0.0
 40
0.1209533837
 40
0.2437778942
 40
0.3058582232
 40
0.3683347693
 40
0.4311529717
 40
0.4942444779
 40
0.5575323574
 40
0.6209360738
 40
0.7477793722
 40
0.8742481621
 40
1.0
 40
1.0
 40
1.0
 40
1.0
 10
9.3274708093
 20
8.3452272042
 30
0.0
 10
9.345924596
 20
8.3306201065
 30
0.0
 10
9.3833961856
 20
8.3015294435
 30
0.0
 10
9.4311952126
 20
8.2660626321
 30
0.0
 10
9.4703718038
 20
8.2380919433
 30
0.0
 10
9.5003136879
 20
8.2172863896
 30
0.0
 10
9.53068997
 20
8.1967667152
 30
0.0
 10
9.5614699268
 20
8.1765684388
 30
0.0
 10
9.5926135077
 20
8.1567225817
 30
0.0
 10
9.634564925
 20
8.1307618467
 30
0.0
 10
9.6875910848
 20
8.0993457052
 30
0.0
 10
9.7519147212
 20
8.0632397431
 30
0.0
 10
9.7951928754
 20
8.040089676
 30
0.0
 10
9.8168673721
 20
8.0287342
 30
0.0
  0
SPLINE
  5
3D7
100
AcDbEntity
  8
0
100
AcDbSpline
 62
7
  6
CONTINUOUS
 70
0
 71
3
 72
15
 73
11
 74
0
 42
0.0000001
 43
0.0000001
 44
0.0000000001
 40
0.0
 40
0.0
 40
0.0
 40
0.0
 40
0.112346891
 40
0.2287649619
 40
0.3494215021
 40
0.4741363415
 40
0.6023573719
 40
0.7332837662
 40
0.866070494
 40
1.0
 40
1.0
 40
1.0
 40
1.0
 10
9.8707881808
 20
8.0249947792
 30
0.0
 10
9.88941786
 20
8.0336923826
 30
0.0
 10
9.9272884804
 20
8.0515399383
 30
0.0
 10
9.9849141383
 20
8.0792605096
 30
0.0
 10
10.0443307695
 20
8.1084739407
 30
0.0
 10
10.1054169461
 20
8.1391811759
 30
0.0
 10
10.1679091941
 20
8.1712699495
 30
0.0
 10
10.2314550105
 20
8.2045356164
 30
0.0
 10
10.2956919244
 20
8.2387294774
 30
0.0
 10
10.3386444013
 20
8.2619146851
 30
0.0
 10
10.3601847436
 20
8.2736082496
 30
0.0
  0
SPLINE
  5
3D8
100
AcDbEntity
  8
0
100
AcDbSpline
 62
7
  6
CONTINUOUS
 70
0
 71
3
 72
49
 73
45
 74
0
 42
0.0000001
 43
0.0000001
 44
0.0000000001
 40
0.0
 40
0.0
 40
0.0
 40
0.0
 40
0.031187151
 40
0.0621645213
 40
0.0929401585
 40
0.1082629014
 40
0.1235424257
 40
0.1387821476
 40
0.1539858757
 40
0.1691576791
 40
0.1843020069
 40
0.1994235946
 40
0.2145274341
 40
0.2296186839
 40
0.2447026442
 40
0.2597846952
 40
0.2748702365
 40
0.2899646369
 40
0.3050731598
 40
0.3202009317
 40
0.3353528523
 40
0.3505335935
 40
0.3657474896
 40
0.3809985718
 40
0.3962904382
 40
0.4269990655
 40
0.4579035252
 40
0.4890160735
 40
0.5203408316
 40
0.5518737651
 40
0.5836029699
 40
0.6155093002
 40
0.6475671858
 40
0.6797456153
 40
0.7120093051
 40
0.7443199991
 40
0.776637812
 40
0.8089225842
 40
0.8411353274
 40
0.8732395264
 40
0.9052026864
 40
0.9369967424
 40
0.9686011451
 40
1.0
 40
1.0
 40
1.0
 40
1.0
 10
9.8320228758
 20
9.1633539605
 30
0.0
 10
9.8145461268
 20
9.1645659772
 30
0.0
 10
9.7795669026
 20
9.1652853517
 30
0.0
 10
9.7274403757
 20
9.1611858097
 30
0.0
 10
9.6847553482
 20
9.1534672402
 30
0.0
 10
9.6513828163
 20
9.1447590877
 30
0.0
 10
9.6268197399
 20
9.1369895116
 30
0.0
 10
9.6027515076
 20
9.1279916837
 30
0.0
 10
9.579235312
 20
9.1177869668
 30
0.0
 10
9.5563278557
 20
9.1064004184
 30
0.0
 10
9.534084799
 20
9.0938586344
 30
0.0
 10
9.5125591792
 20
9.0801929029
 30
0.0
 10
9.4918037508
 20
9.065434887
 30
0.0
 10
9.4718675616
 20
9.0496215771
 30
0.0
 10
9.4527999105
 20
9.0327896098
 30
0.0
 10
9.4346454708
 20
9.014981076
 30
0.0
 10
9.4174494227
 20
8.9962375041
 30
0.0
 10
9.4012518342
 20
8.9766054093
 30
0.0
 10
9.3860930975
 20
8.9561310256
 30
0.0
 10
9.3720085411
 20
8.9348646729
 30
0.0
 10
9.3590331283
 20
8.912856963
 30
0.0
 10
9.347197332
 20
8.8901614276
 30
0.0
 10
9.3365301762
 20
8.8668327424
 30
0.0
 10
9.3270570072
 20
8.8429264639
 30
0.0
 10
9.3160347188
 20
8.8103198632
 30
0.0
 10
9.3053558994
 20
8.7683770594
 30
0.0
 10
9.2976404257
 20
8.7167790482
 30
0.0
 10
9.2950721668
 20
8.66432308
 30
0.0
 10
9.2976750882
 20
8.6115178458
 30
0.0
 10
9.3054218347
 20
8.5588704738
 30
0.0
 10
9.3182362293
 20
8.5068872534
 30
0.0
 10
9.3359935536
 20
8.4560673772
 30
0.0
 10
9.3585219703
 20
8.4068986617
 30
0.0
 10
9.3856041561
 20
8.359852881
 30
0.0
 10
9.4169794047
 20
8.3153813757
 30
0.0
 10
9.4523461118
 20
8.2739107948
 30
0.0
 10
9.4913646358
 20
8.2358391115
 30
0.0
 10
9.5336604862
 20
8.2015318238
 30
0.0
 10
9.5788278579
 20
8.1713186574
 30
0.0
 10
9.6264335816
 20
8.1454900513
 30
0.0
 10
9.6760204414
 20
8.1242953083
 30
0.0
 10
9.7271145453
 20
8.1079383243
 30
0.0
 10
9.7792184574
 20
8.0965791239
 30
0.0
 10
9.8144274915
 20
8.0923964738
 30
0.0
 10
9.8320228758
 20
8.0911762298
 30
0.0
  0
SPLINE
  5
3D9
100
AcDbEntity
  8
0
100
AcDbSpline
 62
7
  6
CONTINUOUS
 70
0
 71
3
 72
49
 73
45
 74
0
 42
0.0000001
 43
0.0000001
 44
0.0000000001
 40
0.0
 40
0.0
 40
0.0
 40
0.0
 40
0.031187151
 40
0.0621645213
 40
0.0929401585
 40
0.1082629014
 40
0.1235424257
 40
0.1387821476
 40
0.1539858757
 40
0.1691576791
 40
0.1843020069
 40
0.1994235946
 40
0.2145274341
 40
0.2296186839
 40
0.2447026442
 40
0.2597846952
 40
0.2748702365
 40
0.2899646369
 40
0.3050731598
 40
0.3202009317
 40
0.3353528523
 40
0.3505335935
 40
0.3657474896
 40
0.3809985718
 40
0.3962904382
 40
0.4269990655
 40
0.4579035252
 40
0.4890160735
 40
0.5203408316
 40
0.5518737651
 40
0.5836029699
 40
0.6155093002
 40
0.6475671858
 40
0.6797456153
 40
0.7120093051
 40
0.7443199991
 40
0.776637812
 40
0.8089225842
 40
0.8411353274
 40
0.8732395264
 40
0.9052026864
 40
0.9369967424
 40
0.9686011451
 40
1.0
 40
1.0
 40
1.0
 40
1.0
 10
9.8320228758
 20
8.0911762298
 30
0.0
 10
9.8494996248
 20
8.0899642131
 30
0.0
 10
9.884478849
 20
8.0892448386
 30
0.0
 10
9.9366053759
 20
8.0933443806
 30
0.0
 10
9.9792904034
 20
8.1010629501
 30
0.0
 10
10.0126629353
 20
8.1097711026
 30
0.0
 10
10.0372260117
 20
8.1175406787
 30
0.0
 10
10.061294244
 20
8.1265385066
 30
0.0
 10
10.0848104396
 20
8.1367432235
 30
0.0
 10
10.1077178959
 20
8.1481297719
 30
0.0
 10
10.1299609527
 20
8.1606715559
 30
0.0
 10
10.1514865724
 20
8.1743372874
 30
0.0
 10
10.1722420008
 20
8.1890953033
 30
0.0
 10
10.19217819
 20
8.2049086132
 30
0.0
 10
10.2112458411
 20
8.2217405805
 30
0.0
 10
10.2294002808
 20
8.2395491142
 30
0.0
 10
10.2465963289
 20
8.2582926862
 30
0.0
 10
10.2627939174
 20
8.277924781
 30
0.0
 10
10.2779526541
 20
8.2983991647
 30
0.0
 10
10.2920372105
 20
8.3196655174
 30
0.0
 10
10.3050126233
 20
8.3416732273
 30
0.0
 10
10.3168484196
 20
8.3643687627
 30
0.0
 10
10.3275155754
 20
8.3876974479
 30
0.0
 10
10.3369887444
 20
8.4116037264
 30
0.0
 10
10.3480110328
 20
8.4442103271
 30
0.0
 10
10.3586898522
 20
8.4861531309
 30
0.0
 10
10.3664053259
 20
8.5377511421
 30
0.0
 10
10.3689735848
 20
8.5902071103
 30
0.0
 10
10.3663706635
 20
8.6430123445
 30
0.0
 10
10.3586239169
 20
8.6956597165
 30
0.0
 10
10.3458095223
 20
8.7476429368
 30
0.0
 10
10.328052198
 20
8.798462813
 30
0.0
 10
10.3055237813
 20
8.8476315286
 30
0.0
 10
10.2784415955
 20
8.8946773093
 30
0.0
 10
10.2470663469
 20
8.9391488146
 30
0.0
 10
10.2116996398
 20
8.9806193955
 30
0.0
 10
10.1726811158
 20
9.0186910788
 30
0.0
 10
10.1303852655
 20
9.0529983664
 30
0.0
 10
10.0852178937
 20
9.0832115329
 30
0.0
 10
10.03761217
 20
9.109040139
 30
0.0
 10
9.9880253102
 20
9.130234882
 30
0.0
 10
9.9369312063
 20
9.146591866
 30
0.0
 10
9.8848272942
 20
9.1579510664
 30
0.0
 10
9.8496182601
 20
9.1621337164
 30
0.0
 10
9.8320228758
 20
9.1633539605
 30
0.0
  0
SPLINE
  5
3DA
100
AcDbEntity
  8
0
100
AcDbSpline
 62
7
  6
CONTINUOUS
 70
0
 71
3
 72
15
 73
11
 74
0
 42
0.0000001
 43
0.0000001
 44
0.0000000001
 40
0.0
 40
0.0
 40
0.0
 40
0.0
 40
0.1156537103
 40
0.2345121048
 40
0.3566334592
 40
0.4817744298
 40
0.6093887094
 40
0.7387521918
 40
0.869146757
 40
1.0
 40
1.0
 40
1.0
 40
1.0
 10
10.3871451479
 20
8.3184353292
 30
0.0
 10
10.3854783657
 20
8.3401771323
 30
0.0
 10
10.3824512949
 20
8.3842912522
 30
0.0
 10
10.379054983
 20
8.4514497573
 30
0.0
 10
10.376930277
 20
8.5204510585
 30
0.0
 10
10.37621518
 20
8.5911325506
 30
0.0
 10
10.3769582793
 20
8.6631789723
 30
0.0
 10
10.379104623
 20
8.7361874436
 30
0.0
 10
10.3825132188
 20
8.8097581352
 30
0.0
 10
10.3855014188
 20
8.8589252695
 30
0.0
 10
10.3871451479
 20
8.8835418038
 30
0.0
  0
SPLINE
  5
3DB
100
AcDbEntity
  8
0
100
AcDbSpline
 62
7
  6
CONTINUOUS
 70
0
 71
3
 72
18
 73
14
 74
0
 42
0.0000001
 43
0.0000001
 44
0.0000000001
 40
0.0
 40
0.0
 40
0.0
 40
0.0
 40
0.1257518379
 40
0.2522206279
 40
0.3790639262
 40
0.4424676427
 40
0.5057555221
 40
0.5688470283
 40
0.6316652308
 40
0.6941417768
 40
0.7562221058
 40
0.8790466163
 40
1.0
 40
1.0
 40
1.0
 40
1.0
 10
10.3601847436
 20
8.9321083043
 30
0.0
 10
10.3385102469
 20
8.9434637804
 30
0.0
 10
10.2952320926
 20
8.9666138475
 30
0.0
 10
10.2309084562
 20
9.0027198096
 30
0.0
 10
10.1778822965
 20
9.034135951
 30
0.0
 10
10.1359308791
 20
9.060096686
 30
0.0
 10
10.1047872982
 20
9.0799425431
 30
0.0
 10
10.0740073415
 20
9.1001408196
 30
0.0
 10
10.0436310593
 20
9.1206604939
 30
0.0
 10
10.0136891753
 20
9.1414660476
 30
0.0
 10
9.9745125841
 20
9.1694367364
 30
0.0
 10
9.9267135571
 20
9.2049035478
 30
0.0
 10
9.8892419675
 20
9.2339942108
 30
0.0
 10
9.8707881808
 20
9.2486013085
 30
0.0
  0
SPLINE
  5
3DC
100
AcDbEntity
  8
0
100
AcDbSpline
 62
7
  6
CONTINUOUS
 70
0
 71
3
 72
15
 73
11
 74
0
 42
0.0000001
 43
0.0000001
 44
0.0000000001
 40
0.0
 40
0.0
 40
0.0
 40
0.0
 40
0.1339295061
 40
0.2667162338
 40
0.3976426282
 40
0.5258636586
 40
0.6505784979
 40
0.7712350381
 40
0.887653109
 40
1.0
 40
1.0
 40
1.0
 40
1.0
 10
9.8168673721
 20
9.2523407293
 30
0.0
 10
9.7953270299
 20
9.2406471648
 30
0.0
 10
9.7523745529
 20
9.2174619571
 30
0.0
 10
9.688137639
 20
9.1832680961
 30
0.0
 10
9.6245918226
 20
9.1500024292
 30
0.0
 10
9.5620995746
 20
9.1179136556
 30
0.0
 10
9.501013398
 20
9.0872064204
 30
0.0
 10
9.4415967668
 20
9.0579929893
 30
0.0
 10
9.3839711089
 20
9.030272418
 30
0.0
 10
9.3461004885
 20
9.0124248623
 30
0.0
 10
9.3274708093
 20
9.0037272589
 30
0.0
  0
SPLINE
  5
3DD
100
AcDbEntity
  8
0
100
AcDbSpline
 62
7
  6
CONTINUOUS
 70
0
 71
3
 72
15
 73
11
 74
0
 42
0.0000001
 43
0.0000001
 44
0.0000000001
 40
0.0
 40
0.0
 40
0.0
 40
0.0
 40
0.1308537488
 40
0.2612484863
 40
0.3906118221
 40
0.5182256991
 40
0.6433659131
 40
0.7654873328
 40
0.8843458508
 40
1.0
 40
1.0
 40
1.0
 40
1.0
 10
11.8482374582
 20
8.3237421919
 30
0.0
 10
11.8498811936
 20
8.3483588214
 30
0.0
 10
11.8528693908
 20
8.3975260835
 30
0.0
 10
11.8562780548
 20
8.4710968738
 30
0.0
 10
11.8584242222
 20
8.5441052776
 30
0.0
 10
11.8591675919
 20
8.6161514513
 30
0.0
 10
11.8584522224
 20
8.6868327351
 30
0.0
 10
11.8563276959
 20
8.7558339333
 30
0.0
 10
11.8529313154
 20
8.822992555
 30
0.0
 10
11.8499042468
 20
8.8671067809
 30
0.0
 10
11.8482374582
 20
8.8888486664
 30
0.0
  0
SPLINE
  5
3DE
100
AcDbEntity
  8
0
100
AcDbSpline
 62
7
  6
CONTINUOUS
 70
0
 71
3
 72
19
 73
15
 74
0
 42
0.0000001
 43
0.0000001
 44
0.0000000001
 40
0.0
 40
0.0
 40
0.0
 40
0.0
 40
0.120953556
 40
0.2437779128
 40
0.3058580643
 40
0.3683344807
 40
0.431152153
 40
0.4942432529
 40
0.5575308052
 40
0.6209340224
 40
0.6843741804
 40
0.7477793373
 40
0.8742479802
 40
1.0
 40
1.0
 40
1.0
 40
1.0
 10
11.8212770539
 20
8.9374151669
 30
0.0
 10
11.8028231966
 20
8.9520223205
 30
0.0
 10
11.7653515189
 20
8.981113062
 30
0.0
 10
11.7175523961
 20
9.0165799309
 30
0.0
 10
11.6783758198
 20
9.0445506859
 30
0.0
 10
11.6484339039
 20
9.065356063
 30
0.0
 10
11.6180577616
 20
9.0858757236
 30
0.0
 10
11.5872780202
 20
9.1060740615
 30
0.0
 10
11.5561345219
 20
9.1259196965
 30
0.0
 10
11.5246740044
 20
9.1453881286
 30
0.0
 10
11.492946584
 20
9.1644628682
 30
0.0
 10
11.4503925984
 20
9.1893385095
 30
0.0
 10
11.3968332095
 20
9.2194027056
 30
0.0
 10
11.3535550712
 20
9.2425526514
 30
0.0
 10
11.3318804911
 20
9.2539081711
 30
0.0
  0
SPLINE
  5
3DF
100
AcDbEntity
  8
0
100
AcDbSpline
 62
7
  6
CONTINUOUS
 70
0
 71
3
 72
15
 73
11
 74
0
 42
0.0000001
 43
0.0000001
 44
0.0000000001
 40
0.0
 40
0.0
 40
0.0
 40
0.0
 40
0.1123473152
 40
0.228765499
 40
0.3494221518
 40
0.4741361587
 40
0.6023568587
 40
0.7332830648
 40
0.8660699745
 40
1.0
 40
1.0
 40
1.0
 40
1.0
 10
11.2779596824
 20
9.2576475919
 30
0.0
 10
11.2593299329
 20
9.2489499556
 30
0.0
 10
11.2214592252
 20
9.2311023547
 30
0.0
 10
11.1638334488
 20
9.2033817548
 30
0.0
 10
11.1044169495
 20
9.1741683079
 30
0.0
 10
11.043330894
 20
9.1434612594
 30
0.0
 10
10.9808389166
 20
9.1113724995
 30
0.0
 10
10.9172931221
 20
9.0781069242
 30
0.0
 10
10.8530561374
 20
9.0439129961
 30
0.0
 10
10.8101035454
 20
9.0207277313
 30
0.0
 10
10.7885631196
 20
9.0090341215
 30
0.0
  0
SPLINE
  5
3E0
100
AcDbEntity
  8
0
100
AcDbSpline
 62
7
  6
CONTINUOUS
 70
0
 71
3
 72
15
 73
11
 74
0
 42
0.0000001
 43
0.0000001
 44
0.0000000001
 40
0.0
 40
0.0
 40
0.0
 40
0.0
 40
0.1308537488
 40
0.2612484863
 40
0.3906118221
 40
0.5182256991
 40
0.6433659131
 40
0.7654873328
 40
0.8843458508
 40
1.0
 40
1.0
 40
1.0
 40
1.0
 10
10.6586022147
 20
8.8647161923
 30
0.0
 10
10.6569584793
 20
8.8400995628
 30
0.0
 10
10.6539702821
 20
8.7909323006
 30
0.0
 10
10.6505616182
 20
8.7173615104
 30
0.0
 10
10.6484154507
 20
8.6443531066
 30
0.0
 10
10.647672081
 20
8.5723069328
 30
0.0
 10
10.6483874506
 20
8.5016256491
 30
0.0
 10
10.6505119771
 20
8.4326244508
 30
0.0
 10
10.6539083575
 20
8.3654658292
 30
0.0
 10
10.6569354261
 20
8.3213516033
 30
0.0
 10
10.6586022147
 20
8.2996097177
 30
0.0
  0
SPLINE
  5
3E1
100
AcDbEntity
  8
0
100
AcDbSpline
 62
7
  6
CONTINUOUS
 70
0
 71
3
 72
19
 73
15
 74
0
 42
0.0000001
 43
0.0000001
 44
0.0000000001
 40
0.0
 40
0.0
 40
0.0
 40
0.0
 40
0.120953556
 40
0.2437779128
 40
0.3058580643
 40
0.3683344807
 40
0.431152153
 40
0.4942432529
 40
0.5575308052
 40
0.6209340224
 40
0.6843741804
 40
0.7477793373
 40
0.8742479802
 40
1.0
 40
1.0
 40
1.0
 40
1.0
 10
10.685562619
 20
8.2510432173
 30
0.0
 10
10.7040164763
 20
8.2364360637
 30
0.0
 10
10.741488154
 20
8.2073453221
 30
0.0
 10
10.7892872768
 20
8.1718784532
 30
0.0
 10
10.8284638531
 20
8.1439076983
 30
0.0
 10
10.858405769
 20
8.1231023212
 30
0.0
 10
10.8887819113
 20
8.1025826605
 30
0.0
 10
10.9195616527
 20
8.0823843227
 30
0.0
 10
10.950705151
 20
8.0625386877
 30
0.0
 10
10.9821656685
 20
8.0430702556
 30
0.0
 10
11.0138930889
 20
8.0239955159
 30
0.0
 10
11.0564470745
 20
7.9991198747
 30
0.0
 10
11.1100064634
 20
7.9690556786
 30
0.0
 10
11.1532846018
 20
7.9459057328
 30
0.0
 10
11.1749591819
 20
7.9345502131
 30
0.0
  0
SPLINE
  5
3E2
100
AcDbEntity
  8
0
100
AcDbSpline
 62
7
  6
CONTINUOUS
 70
0
 71
3
 72
15
 73
11
 74
0
 42
0.0000001
 43
0.0000001
 44
0.0000000001
 40
0.0
 40
0.0
 40
0.0
 40
0.0
 40
0.1123473152
 40
0.228765499
 40
0.3494221518
 40
0.4741361587
 40
0.6023568587
 40
0.7332830648
 40
0.8660699745
 40
1.0
 40
1.0
 40
1.0
 40
1.0
 10
11.2288799905
 20
7.9308107923
 30
0.0
 10
11.2475097401
 20
7.9395084286
 30
0.0
 10
11.2853804477
 20
7.9573560295
 30
0.0
 10
11.3430062241
 20
7.9850766294
 30
0.0
 10
11.4024227235
 20
8.0142900762
 30
0.0
 10
11.4635087789
 20
8.0449971248
 30
0.0
 10
11.5260007563
 20
8.0770858847
 30
0.0
 10
11.5895465508
 20
8.1103514599
 30
0.0
 10
11.6537835356
 20
8.1445453881
 30
0.0
 10
11.6967361275
 20
8.1677306528
 30
0.0
 10
11.7182765533
 20
8.1794242627
 30
0.0
  0
SPLINE
  5
3E3
100
AcDbEntity
  8
0
100
AcDbSpline
 62
7
  6
CONTINUOUS
 70
0
 71
3
 72
15
 73
11
 74
0
 42
0.0000001
 43
0.0000001
 44
0.0000000001
 40
0.0
 40
0.0
 40
0.0
 40
0.0
 40
0.1339300255
 40
0.2667169353
 40
0.3976431413
 40
0.5258638413
 40
0.6505778483
 40
0.771234501
 40
0.8876526848
 40
1.0
 40
1.0
 40
1.0
 40
1.0
 10
11.1749591819
 20
9.1581567424
 30
0.0
 10
11.153418756
 20
9.1464631326
 30
0.0
 10
11.1104661641
 20
9.1232778678
 30
0.0
 10
11.0462291793
 20
9.0890839396
 30
0.0
 10
10.9826833848
 20
9.0558183644
 30
0.0
 10
10.9201914074
 20
9.0237296045
 30
0.0
 10
10.859105352
 20
8.9930225559
 30
0.0
 10
10.7996888526
 20
8.9638091091
 30
0.0
 10
10.7420630762
 20
8.9360885092
 30
0.0
 10
10.7041923686
 20
8.9182409083
 30
0.0
 10
10.685562619
 20
8.909543272
 30
0.0
  0
SPLINE
  5
3E4
100
AcDbEntity
  8
0
100
AcDbSpline
 62
7
  6
CONTINUOUS
 70
0
 71
3
 72
15
 73
11
 74
0
 42
0.0000001
 43
0.0000001
 44
0.0000000001
 40
0.0
 40
0.0
 40
0.0
 40
0.0
 40
0.1156541492
 40
0.2345126673
 40
0.3566340869
 40
0.481774301
 40
0.609388178
 40
0.7387515137
 40
0.8691462512
 40
1.0
 40
1.0
 40
1.0
 40
1.0
 10
11.7452369577
 20
8.2242513424
 30
0.0
 10
11.7435701691
 20
8.2459932279
 30
0.0
 10
11.7405431005
 20
8.2901074538
 30
0.0
 10
11.73714672
 20
8.3572660755
 30
0.0
 10
11.7350221935
 20
8.4262672737
 30
0.0
 10
11.7343068239
 20
8.4969485575
 30
0.0
 10
11.7350501937
 20
8.5689947312
 30
0.0
 10
11.7371963611
 20
8.642003135
 30
0.0
 10
11.7406050251
 20
8.7155739253
 30
0.0
 10
11.7435932222
 20
8.7647411874
 30
0.0
 10
11.7452369577
 20
8.7893578169
 30
0.0
  0
SPLINE
  5
3E5
100
AcDbEntity
  8
0
100
AcDbSpline
 62
7
  6
CONTINUOUS
 70
0
 71
3
 72
19
 73
15
 74
0
 42
0.0000001
 43
0.0000001
 44
0.0000000001
 40
0.0
 40
0.0
 40
0.0
 40
0.0
 40
0.1257520198
 40
0.2522206628
 40
0.3156258197
 40
0.3790659776
 40
0.4424691949
 40
0.5057567472
 40
0.5688478471
 40
0.6316655194
 40
0.6941419357
 40
0.7562220872
 40
0.879046444
 40
1.0
 40
1.0
 40
1.0
 40
1.0
 10
11.7182765533
 20
8.8379243174
 30
0.0
 10
11.6966019732
 20
8.8492798371
 30
0.0
 10
11.6533238349
 20
8.8724297829
 30
0.0
 10
11.599764446
 20
8.902493979
 30
0.0
 10
11.5572104604
 20
8.9273696203
 30
0.0
 10
11.5254830399
 20
8.9464443599
 30
0.0
 10
11.4940225225
 20
8.965912792
 30
0.0
 10
11.4628790241
 20
8.985758427
 30
0.0
 10
11.4320992828
 20
9.0059567649
 30
0.0
 10
11.4017231405
 20
9.0264764255
 30
0.0
 10
11.3717812245
 20
9.0472818026
 30
0.0
 10
11.3326046483
 20
9.0752525576
 30
0.0
 10
11.2848055254
 20
9.1107194265
 30
0.0
 10
11.2473338478
 20
9.139810168
 30
0.0
 10
11.2288799905
 20
9.1544173216
 30
0.0
  0
SPLINE
  5
3E6
100
AcDbEntity
  8
0
100
AcDbSpline
 62
7
  6
CONTINUOUS
 70
0
 71
3
 72
60
 73
56
 74
0
 42
0.0000001
 43
0.0000001
 44
0.0000000001
 40
0.0
 40
0.0
 40
0.0
 40
0.0
 40
0.031184371
 40
0.0621580432
 40
0.0775734646
 40
0.0929406781
 40
0.1082617819
 40
0.1235397404
 40
0.1387779589
 40
0.1539801548
 40
0.1691504309
 40
0.1842932276
 40
0.1994132951
 40
0.2145156006
 40
0.2296053272
 40
0.2446877625
 40
0.2597683001
 40
0.2748523191
 40
0.2899451975
 40
0.3050521937
 40
0.3201784387
 40
0.335328832
 40
0.3505080379
 40
0.3657204023
 40
0.3809699397
 40
0.3962602754
 40
0.4115946071
 40
0.4269756878
 40
0.4424057885
 40
0.4578867094
 40
0.4734197236
 40
0.4890056207
 40
0.5046446352
 40
0.5203365277
 40
0.5360805209
 40
0.551875389
 40
0.5677193852
 40
0.5836103502
 40
0.5995456448
 40
0.6155222731
 40
0.6315368291
 40
0.6475856077
 40
0.6636645528
 40
0.6797693807
 40
0.6958955413
 40
0.7120383375
 40
0.7443457853
 40
0.7766603396
 40
0.8089418551
 40
0.8411513533
 40
0.8732523515
 40
0.9052121693
 40
0.9370033076
 40
0.9686039471
 40
1.0
 40
1.0
 40
1.0
 40
1.0
 10
11.1901146855
 20
9.0691699736
 30
0.0
 10
11.1726377303
 20
9.0703820046
 30
0.0
 10
11.1376608792
 20
9.0711019748
 30
0.0
 10
11.0941401258
 20
9.0676779316
 30
0.0
 10
11.0598440362
 20
9.0623571162
 30
0.0
 10
11.0344714905
 20
9.0570977053
 30
0.0
 10
11.009474221
 20
9.0505749615
 30
0.0
 10
10.9849116364
 20
9.04280567
 30
0.0
 10
10.9608433479
 20
9.0338075939
 30
0.0
 10
10.9373270267
 20
9.0236031876
 30
0.0
 10
10.914419749
 20
9.0122162605
 30
0.0
 10
10.892176466
 20
8.9996748693
 30
0.0
 10
10.8706511156
 20
8.9860087216
 30
0.0
 10
10.8498953851
 20
8.9712511325
 30
0.0
 10
10.8299595344
 20
8.9554374062
 30
0.0
 10
10.8108915371
 20
8.9386058274
 30
0.0
 10
10.792737434
 20
8.9207969416
 30
0.0
 10
10.7755410624
 20
8.9020536626
 30
0.0
 10
10.7593437477
 20
8.8824213365
 30
0.0
 10
10.7441847946
 20
8.8619471184
 30
0.0
 10
10.7301003737
 20
8.840680672
 30
0.0
 10
10.7171249116
 20
8.8186729875
 30
0.0
 10
10.7052890638
 20
8.7959775109
 30
0.0
 10
10.6946220462
 20
8.772648621
 30
0.0
 10
10.6851487001
 20
8.7487429574
 30
0.0
 10
10.6768927497
 20
8.7243178049
 30
0.0
 10
10.6698729996
 20
8.699432406
 30
0.0
 10
10.6641074407
 20
8.6741464511
 30
0.0
 10
10.6596086998
 20
8.6485211621
 30
0.0
 10
10.6563888197
 20
8.6226180843
 30
0.0
 10
10.6544541781
 20
8.5964997885
 30
0.0
 10
10.6538107194
 20
8.5702291126
 30
0.0
 10
10.6544585654
 20
8.5438693707
 30
0.0
 10
10.6563974528
 20
8.5174841007
 30
0.0
 10
10.6596213169
 20
8.4911367397
 30
0.0
 10
10.6641236297
 20
8.4648908961
 30
0.0
 10
10.6698922585
 20
8.4388095411
 30
0.0
 10
10.6769144333
 20
8.4129557351
 30
0.0
 10
10.6851721074
 20
8.3873914171
 30
0.0
 10
10.6946463579
 20
8.3621784558
 30
0.0
 10
10.7053134414
 20
8.33737719
 30
0.0
 10
10.7171484304
 20
8.3130476678
 30
0.0
 10
10.7301221566
 20
8.28924807
 30
0.0
 10
10.7442038037
 20
8.2660361444
 30
0.0
 10
10.7593594966
 20
8.2434669257
 30
0.0
 10
10.7809523408
 20
8.214301753
 30
0.0
 10
10.810438706
 20
8.1797255176
 30
0.0
 10
10.8494561474
 20
8.1416553607
 30
0.0
 10
10.8917523067
 20
8.1073476754
 30
0.0
 10
10.9369196092
 20
8.0771345755
 30
0.0
 10
10.9845253711
 20
8.051306066
 30
0.0
 10
11.0341122777
 20
8.030111129
 30
0.0
 10
11.0852062657
 20
8.0137545169
 30
0.0
 10
11.1373101511
 20
8.0023950032
 30
0.0
 10
11.1725190954
 20
7.9982125012
 30
0.0
 10
11.1901146855
 20
7.9969922429
 30
0.0
  0
SPLINE
  5
3E7
100
AcDbEntity
  8
0
100
AcDbSpline
 62
7
  6
CONTINUOUS
 70
0
 71
3
 72
60
 73
56
 74
0
 42
0.0000001
 43
0.0000001
 44
0.0000000001
 40
0.0
 40
0.0
 40
0.0
 40
0.0
 40
0.031184371
 40
0.0621580432
 40
0.0775734646
 40
0.0929406781
 40
0.1082617819
 40
0.1235397404
 40
0.1387779589
 40
0.1539801548
 40
0.1691504309
 40
0.1842932276
 40
0.1994132951
 40
0.2145156006
 40
0.2296053272
 40
0.2446877625
 40
0.2597683001
 40
0.2748523191
 40
0.2899451975
 40
0.3050521937
 40
0.3201784387
 40
0.335328832
 40
0.3505080379
 40
0.3657204023
 40
0.3809699397
 40
0.3962602754
 40
0.4115946071
 40
0.4269756878
 40
0.4424057885
 40
0.4578867094
 40
0.4734197236
 40
0.4890056207
 40
0.5046446352
 40
0.5203365277
 40
0.5360805209
 40
0.551875389
 40
0.5677193852
 40
0.5836103502
 40
0.5995456448
 40
0.6155222731
 40
0.6315368291
 40
0.6475856077
 40
0.6636645528
 40
0.6797693807
 40
0.6958955413
 40
0.7120383375
 40
0.7443457853
 40
0.7766603396
 40
0.8089418551
 40
0.8411513533
 40
0.8732523515
 40
0.9052121693
 40
0.9370033076
 40
0.9686039471
 40
1.0
 40
1.0
 40
1.0
 40
1.0
 10
11.1901146855
 20
7.9969922429
 30
0.0
 10
11.2075916408
 20
7.9957802119
 30
0.0
 10
11.2425684919
 20
7.9950602417
 30
0.0
 10
11.2860892453
 20
7.9984842848
 30
0.0
 10
11.3203853349
 20
8.0038051002
 30
0.0
 10
11.3457578806
 20
8.0090645111
 30
0.0
 10
11.37075515
 20
8.015587255
 30
0.0
 10
11.3953177347
 20
8.0233565465
 30
0.0
 10
11.4193860232
 20
8.0323546225
 30
0.0
 10
11.4429023444
 20
8.0425590289
 30
0.0
 10
11.4658096221
 20
8.053945956
 30
0.0
 10
11.4880529051
 20
8.0664873472
 30
0.0
 10
11.5095782554
 20
8.0801534949
 30
0.0
 10
11.530333986
 20
8.094911084
 30
0.0
 10
11.5502698367
 20
8.1107248103
 30
0.0
 10
11.569337834
 20
8.1275563891
 30
0.0
 10
11.587491937
 20
8.1453652749
 30
0.0
 10
11.6046883087
 20
8.1641085539
 30
0.0
 10
11.6208856234
 20
8.18374088
 30
0.0
 10
11.6360445765
 20
8.2042150981
 30
0.0
 10
11.6501289974
 20
8.2254815445
 30
0.0
 10
11.6631044595
 20
8.247489229
 30
0.0
 10
11.6749403073
 20
8.2701847056
 30
0.0
 10
11.6856073249
 20
8.2935135955
 30
0.0
 10
11.695080671
 20
8.317419259
 30
0.0
 10
11.7033366214
 20
8.3418444116
 30
0.0
 10
11.7103563715
 20
8.3667298105
 30
0.0
 10
11.7161219304
 20
8.3920157654
 30
0.0
 10
11.7206206713
 20
8.4176410544
 30
0.0
 10
11.7238405513
 20
8.4435441322
 30
0.0
 10
11.725775193
 20
8.469662428
 30
0.0
 10
11.7264186516
 20
8.4959331039
 30
0.0
 10
11.7257708056
 20
8.5222928458
 30
0.0
 10
11.7238319183
 20
8.5486781158
 30
0.0
 10
11.7206080542
 20
8.5750254767
 30
0.0
 10
11.7161057414
 20
8.6012713204
 30
0.0
 10
11.7103371126
 20
8.6273526754
 30
0.0
 10
11.7033149378
 20
8.6532064814
 30
0.0
 10
11.6950572637
 20
8.6787707994
 30
0.0
 10
11.6855830132
 20
8.7039837607
 30
0.0
 10
11.6749159297
 20
8.7287850265
 30
0.0
 10
11.6630809406
 20
8.7531145487
 30
0.0
 10
11.6501072145
 20
8.7769141465
 30
0.0
 10
11.6360255674
 20
8.8001260721
 30
0.0
 10
11.6208698745
 20
8.8226952908
 30
0.0
 10
11.5992770303
 20
8.8518604635
 30
0.0
 10
11.5697906651
 20
8.8864366989
 30
0.0
 10
11.5307732237
 20
8.9245068557
 30
0.0
 10
11.4884770644
 20
8.9588145411
 30
0.0
 10
11.4433097619
 20
8.989027641
 30
0.0
 10
11.395704
 20
9.0148561505
 30
0.0
 10
11.3461170934
 20
9.0360510875
 30
0.0
 10
11.2950231054
 20
9.0524076996
 30
0.0
 10
11.24291922
 20
9.0637672133
 30
0.0
 10
11.2077102757
 20
9.0679497153
 30
0.0
 10
11.1901146855
 20
9.0691699736
 30
0.0
  0
SPLINE
  5
3E8
100
AcDbEntity
  8
0
100
AcDbSpline
 62
7
  6
CONTINUOUS
 70
0
 71
3
 72
36
 73
32
 74
0
 42
0.0000001
 43
0.0000001
 44
0.0000000001
 40
0.0
 40
0.0
 40
0.0
 40
0.0
 40
0.0958325634
 40
0.1891023555
 40
0.2792432641
 40
0.3657124907
 40
0.4480017797
 40
0.4874318797
 40
0.5256445484
 40
0.5625883581
 40
0.5982156304
 40
0.6324821329
 40
0.6653482299
 40
0.6967786463
 40
0.7267435444
 40
0.7552190339
 40
0.7821878748
 40
0.8076411027
 40
0.8315786922
 40
0.8540122486
 40
0.8749666358
 40
0.8944835825
 40
0.9126254693
 40
0.9294800532
 40
0.9451666526
 40
0.9598414247
 40
0.9737025134
 40
0.9804060178
 40
0.9869995332
 40
0.9935185676
 40
1.0
 40
1.0
 40
1.0
 40
1.0
 10
9.7660584637
 20
10.3819927567
 30
0.0
 10
9.7607711299
 20
10.3823594345
 30
0.0
 10
9.7503454794
 20
10.3831992715
 30
0.0
 10
9.7349838719
 20
10.3848024137
 30
0.0
 10
9.7201805479
 20
10.3867235646
 30
0.0
 10
9.7060343621
 20
10.3889497294
 30
0.0
 10
9.6947162536
 20
10.3910754201
 30
0.0
 10
9.6860664879
 20
10.3929256654
 30
0.0
 10
9.6798933451
 20
10.3943599819
 30
0.0
 10
9.6739520628
 20
10.3958582697
 30
0.0
 10
9.6682525298
 20
10.3974179913
 30
0.0
 10
9.6628042419
 20
10.3990365689
 30
0.0
 10
9.6576162497
 20
10.4007112371
 30
0.0
 10
9.6526971661
 20
10.4024392203
 30
0.0
 10
9.6480551309
 20
10.4042176121
 30
0.0
 10
9.6436977964
 20
10.4060434323
 30
0.0
 10
9.6396323278
 20
10.40791369
 30
0.0
 10
9.6358653409
 20
10.409825251
 30
0.0
 10
9.6324029574
 20
10.4117750821
 30
0.0
 10
9.6292507042
 20
10.4137600276
 30
0.0
 10
9.626413599
 20
10.4157770857
 30
0.0
 10
9.6238961095
 20
10.417823302
 30
0.0
 10
9.6217022082
 20
10.4198959023
 30
0.0
 10
9.6198355905
 20
10.4219923699
 30
0.0
 10
9.6182996747
 20
10.4241104577
 30
0.0
 10
9.6170982772
 20
10.4262475845
 30
0.0
 10
9.6163710557
 20
10.4280631869
 30
0.0
 10
9.6159687401
 20
10.4295115327
 30
0.0
 10
9.6157553209
 20
10.4305876126
 30
0.0
 10
9.6156272022
 20
10.4316647099
 30
0.0
 10
9.6155987005
 20
10.4323840251
 30
0.0
 10
9.6155986974
 20
10.4327424816
 30
0.0
  0
SPLINE
  5
3E9
100
AcDbEntity
  8
0
100
AcDbSpline
 62
7
  6
CONTINUOUS
 70
0
 71
3
 72
36
 73
32
 74
0
 42
0.0000001
 43
0.0000001
 44
0.0000000001
 40
0.0
 40
0.0
 40
0.0
 40
0.0
 40
0.0958325634
 40
0.1891023555
 40
0.2792432641
 40
0.3657124907
 40
0.4480017797
 40
0.4874318797
 40
0.5256445484
 40
0.5625883581
 40
0.5982156304
 40
0.6324821329
 40
0.6653482299
 40
0.6967786463
 40
0.7267435444
 40
0.7552190339
 40
0.7821878748
 40
0.8076411027
 40
0.8315786922
 40
0.8540122486
 40
0.8749666358
 40
0.8944835825
 40
0.9126254693
 40
0.9294800532
 40
0.9451666526
 40
0.9598414247
 40
0.9737025134
 40
0.9804060178
 40
0.9869995332
 40
0.9935185676
 40
1.0
 40
1.0
 40
1.0
 40
1.0
 10
12.9053175852
 20
10.1642843971
 30
0.0
 10
12.9000302513
 20
10.164651075
 30
0.0
 10
12.8896046008
 20
10.165490912
 30
0.0
 10
12.8742429934
 20
10.1670940542
 30
0.0
 10
12.8594396693
 20
10.1690152051
 30
0.0
 10
12.8452934836
 20
10.1712413699
 30
0.0
 10
12.8339753751
 20
10.1733670606
 30
0.0
 10
12.8253256094
 20
10.1752173059
 30
0.0
 10
12.8191524665
 20
10.1766516224
 30
0.0
 10
12.8132111843
 20
10.1781499102
 30
0.0
 10
12.8075116513
 20
10.1797096318
 30
0.0
 10
12.8020633633
 20
10.1813282094
 30
0.0
 10
12.7968753712
 20
10.1830028776
 30
0.0
 10
12.7919562876
 20
10.1847308607
 30
0.0
 10
12.7873142523
 20
10.1865092526
 30
0.0
 10
12.7829569179
 20
10.1883350728
 30
0.0
 10
12.7788914493
 20
10.1902053305
 30
0.0
 10
12.7751244623
 20
10.1921168915
 30
0.0
 10
12.7716620789
 20
10.1940667226
 30
0.0
 10
12.7685098256
 20
10.1960516681
 30
0.0
 10
12.7656727204
 20
10.1980687262
 30
0.0
 10
12.763155231
 20
10.2001149425
 30
0.0
 10
12.7609613296
 20
10.2021875428
 30
0.0
 10
12.7590947119
 20
10.2042840103
 30
0.0
 10
12.7575587962
 20
10.2064020982
 30
0.0
 10
12.7563573987
 20
10.208539225
 30
0.0
 10
12.7556301771
 20
10.2103548274
 30
0.0
 10
12.7552278616
 20
10.2118031732
 30
0.0
 10
12.7550144423
 20
10.2128792531
 30
0.0
 10
12.7548863237
 20
10.2139563504
 30
0.0
 10
12.754857822
 20
10.2146756656
 30
0.0
 10
12.7548578189
 20
10.2150341221
 30
0.0
  0
SPLINE
  5
3EA
100
AcDbEntity
  8
0
100
AcDbSpline
 62
7
  6
CONTINUOUS
 70
0
 71
3
 72
39
 73
35
 74
0
 42
0.0000001
 43
0.0000001
 44
0.0000000001
 40
0.0
 40
0.0
 40
0.0
 40
0.0
 40
0.0958316692
 40
0.1891006713
 40
0.2792405779
 40
0.3229673496
 40
0.365711151
 40
0.4074094009
 40
0.44800203
 40
0.4874317177
 40
0.5256439125
 40
0.5625873001
 40
0.5982141024
 40
0.6324802019
 40
0.6653458058
 40
0.6967758253
 40
0.7267402733
 40
0.755215278
 40
0.7821837659
 40
0.8076364736
 40
0.8315736893
 40
0.8540068195
 40
0.8749607761
 40
0.8944773435
 40
0.9126188304
 40
0.9294730678
 40
0.9451592994
 40
0.9598338091
 40
0.9668558277
 40
0.9737028614
 40
0.9804062769
 40
0.9869996865
 40
0.993518631
 40
1.0
 40
1.0
 40
1.0
 40
1.0
 10
10.8921194672
 20
9.6736842225
 30
0.0
 10
10.8833679632
 20
9.6742911414
 30
0.0
 10
10.8661115789
 20
9.6756812235
 30
0.0
 10
10.840685405
 20
9.6783347433
 30
0.0
 10
10.8200634717
 20
9.6810109208
 30
0.0
 10
10.8040764175
 20
9.6834199513
 30
0.0
 10
10.7925002077
 20
9.6853324187
 30
0.0
 10
10.7812359952
 20
9.6873655918
 30
0.0
 10
10.7703025797
 20
9.6895160828
 30
0.0
 10
10.7597182174
 20
9.6917802464
 30
0.0
 10
10.7495005749
 20
9.6941542968
 30
0.0
 10
10.7396666946
 20
9.6966342403
 30
0.0
 10
10.7302329609
 20
9.6992158854
 30
0.0
 10
10.7212150844
 20
9.7018949187
 30
0.0
 10
10.7126280546
 20
9.7046668302
 30
0.0
 10
10.7044861146
 20
9.7075269513
 30
0.0
 10
10.6968027493
 20
9.710470525
 30
0.0
 10
10.6895906261
 20
9.7134926207
 30
0.0
 10
10.6828615801
 20
9.7165882116
 30
0.0
 10
10.676626607
 20
9.7197522423
 30
0.0
 10
10.6708957884
 20
9.7229795511
 30
0.0
 10
10.6656783065
 20
9.7262650151
 30
0.0
 10
10.6609824638
 20
9.7296036257
 30
0.0
 10
10.6568156286
 20
9.732990496
 30
0.0
 10
10.6531844307
 20
9.7364210063
 30
0.0
 10
10.6500948702
 20
9.7398911743
 30
0.0
 10
10.6475529159
 20
9.7433965545
 30
0.0
 10
10.6458715529
 20
9.7463881816
 30
0.0
 10
10.6448234703
 20
9.748783599
 30
0.0
 10
10.6441889154
 20
9.7505584076
 30
0.0
 10
10.6436948788
 20
9.7523367069
 30
0.0
 10
10.6433417359
 20
9.7541177815
 30
0.0
 10
10.6431297609
 20
9.7559005881
 30
0.0
 10
10.6430825944
 20
9.7570911803
 30
0.0
 10
10.6430825988
 20
9.7576844911
 30
0.0
  0
SPLINE
  5
3EB
100
AcDbEntity
  8
0
100
AcDbSpline
 62
7
  6
CONTINUOUS
 70
0
 71
3
 72
53
 73
49
 74
0
 42
0.0000001
 43
0.0000001
 44
0.0000000001
 40
0.0
 40
0.0
 40
0.0
 40
0.0
 40
0.0417740113
 40
0.0840369498
 40
0.1266584959
 40
0.1695064843
 40
0.2124480935
 40
0.2553500426
 40
0.298079237
 40
0.3405032536
 40
0.382490879
 40
0.4239126346
 40
0.4646413116
 40
0.5045525112
 40
0.543525196
 40
0.5814422576
 40
0.6181911067
 40
0.6536642972
 40
0.6877601986
 40
0.720383738
 40
0.7361160079
 40
0.7514479787
 40
0.7663699923
 40
0.7808730391
 40
0.7949486907
 40
0.8085892839
 40
0.8217878242
 40
0.8345382246
 40
0.8468351953
 40
0.858674535
 40
0.8700530305
 40
0.8809687964
 40
0.8914212207
 40
0.9014113515
 40
0.9109419335
 40
0.9200178526
 40
0.9286463131
 40
0.9368373658
 40
0.9446042772
 40
0.9519641672
 40
0.9589385932
 40
0.9655542738
 40
0.9718437889
 40
0.9778461802
 40
0.9836073652
 40
0.9891800467
 40
0.99462308
 40
1.0
 40
1.0
 40
1.0
 40
1.0
 10
12.939616332
 20
9.0979700318
 30
0.0
 10
12.939616332
 20
9.1090702725
 30
0.0
 10
12.9397895075
 20
9.1314010212
 30
0.0
 10
12.9405550851
 20
9.1650493296
 30
0.0
 10
12.9418257558
 20
9.1989679852
 30
0.0
 10
12.9435973543
 20
9.233044709
 30
0.0
 10
12.9458640261
 20
9.2671667577
 30
0.0
 10
12.948618279
 20
9.3012212473
 30
0.0
 10
12.951850989
 20
9.3350955103
 30
0.0
 10
12.9555514398
 20
9.3686774831
 30
0.0
 10
12.959707354
 20
9.4018560743
 30
0.0
 10
12.9643049347
 20
9.4345215372
 30
0.0
 10
12.96932891
 20
9.4665658353
 30
0.0
 10
12.9747625825
 20
9.497883005
 30
0.0
 10
12.9805878841
 20
9.5283695096
 30
0.0
 10
12.986785433
 20
9.5579245948
 30
0.0
 10
12.9933346001
 20
9.5864506094
 30
0.0
 10
13.0002135658
 20
9.6138534181
 30
0.0
 10
13.0073994279
 20
9.6400424558
 30
0.0
 10
13.0136971442
 20
9.6610296151
 30
0.0
 10
13.0188810791
 20
9.6771397458
 30
0.0
 10
13.0227836472
 20
9.6887197666
 30
0.0
 10
13.0267446605
 20
9.6999341153
 30
0.0
 10
13.0307608276
 20
9.710773551
 30
0.0
 10
13.0348288553
 20
9.7212291225
 30
0.0
 10
13.0389453247
 20
9.73129222
 30
0.0
 10
13.0431068832
 20
9.7409545433
 30
0.0
 10
13.0473100248
 20
9.7502081561
 30
0.0
 10
13.0515513436
 20
9.7590454375
 30
0.0
 10
13.055827268
 20
9.7674591571
 30
0.0
 10
13.0601343526
 20
9.7754424026
 30
0.0
 10
13.0644689877
 20
9.7829886789
 30
0.0
 10
13.0688277073
 20
9.7900918115
 30
0.0
 10
13.0732069002
 20
9.7967460652
 30
0.0
 10
13.0776031101
 20
9.8029460277
 30
0.0
 10
13.0820127765
 20
9.8086867378
 30
0.0
 10
13.086432501
 20
9.813963555
 30
0.0
 10
13.090858846
 20
9.8187722771
 30
0.0
 10
13.0952885413
 20
9.8231090041
 30
0.0
 10
13.0997183568
 20
9.8269702074
 30
0.0
 10
13.1041452131
 20
9.8303526009
 30
0.0
 10
13.1085661125
 20
9.8332531112
 30
0.0
 10
13.1129780858
 20
9.8356687953
 30
0.0
 10
13.1173781262
 20
9.8375967027
 30
0.0
 10
13.1217628336
 20
9.8390339947
 30
0.0
 10
13.1261286038
 20
9.8399778268
 30
0.0
 10
13.130470127
 20
9.8404260033
 30
0.0
 10
13.1333525357
 20
9.8403930887
 30
0.0
 10
13.1347778742
 20
9.8402942446
 30
0.0
  0
SPLINE
  5
3EC
100
AcDbEntity
  8
0
100
AcDbSpline
 62
7
  6
CONTINUOUS
 70
0
 71
3
 72
53
 73
49
 74
0
 42
0.0000001
 43
0.0000001
 44
0.0000000001
 40
0.0
 40
0.0
 40
0.0
 40
0.0
 40
0.0417740113
 40
0.0840369498
 40
0.1266584959
 40
0.1695064843
 40
0.2124480935
 40
0.2553500426
 40
0.298079237
 40
0.3405032536
 40
0.382490879
 40
0.4239126346
 40
0.4646413116
 40
0.5045525112
 40
0.543525196
 40
0.5814422576
 40
0.6181911067
 40
0.6536642972
 40
0.6877601986
 40
0.720383738
 40
0.7361160079
 40
0.7514479787
 40
0.7663699923
 40
0.7808730391
 40
0.7949486907
 40
0.8085892839
 40
0.8217878242
 40
0.8345382246
 40
0.8468351953
 40
0.858674535
 40
0.8700530305
 40
0.8809687964
 40
0.8914212207
 40
0.9014113515
 40
0.9109419335
 40
0.9200178526
 40
0.9286463131
 40
0.9368373658
 40
0.9446042772
 40
0.9519641672
 40
0.9589385932
 40
0.9655542738
 40
0.9718437889
 40
0.9778461802
 40
0.9836073652
 40
0.9891800467
 40
0.99462308
 40
1.0
 40
1.0
 40
1.0
 40
1.0
 10
12.939616332
 20
7.6490812065
 30
0.0
 10
12.939616332
 20
7.6601814473
 30
0.0
 10
12.9397895075
 20
7.6825121959
 30
0.0
 10
12.9405550851
 20
7.7161605043
 30
0.0
 10
12.9418257558
 20
7.75007916
 30
0.0
 10
12.9435973543
 20
7.7841558837
 30
0.0
 10
12.9458640261
 20
7.8182779324
 30
0.0
 10
12.948618279
 20
7.852332422
 30
0.0
 10
12.951850989
 20
7.886206685
 30
0.0
 10
12.9555514398
 20
7.9197886578
 30
0.0
 10
12.959707354
 20
7.9529672491
 30
0.0
 10
12.9643049347
 20
7.9856327119
 30
0.0
 10
12.96932891
 20
8.0176770101
 30
0.0
 10
12.9747625825
 20
8.0489941798
 30
0.0
 10
12.9805878841
 20
8.0794806843
 30
0.0
 10
12.986785433
 20
8.1090357695
 30
0.0
 10
12.9933346001
 20
8.1375617841
 30
0.0
 10
13.0002135658
 20
8.1649645928
 30
0.0
 10
13.0073994279
 20
8.1911536305
 30
0.0
 10
13.0136971442
 20
8.2121407898
 30
0.0
 10
13.0188810791
 20
8.2282509205
 30
0.0
 10
13.0227836472
 20
8.2398309413
 30
0.0
 10
13.0267446605
 20
8.25104529
 30
0.0
 10
13.0307608276
 20
8.2618847257
 30
0.0
 10
13.0348288553
 20
8.2723402972
 30
0.0
 10
13.0389453247
 20
8.2824033947
 30
0.0
 10
13.0431068832
 20
8.292065718
 30
0.0
 10
13.0473100248
 20
8.3013193308
 30
0.0
 10
13.0515513436
 20
8.3101566122
 30
0.0
 10
13.055827268
 20
8.3185703318
 30
0.0
 10
13.0601343526
 20
8.3265535773
 30
0.0
 10
13.0644689877
 20
8.3340998536
 30
0.0
 10
13.0688277073
 20
8.3412029862
 30
0.0
 10
13.0732069002
 20
8.3478572399
 30
0.0
 10
13.0776031101
 20
8.3540572024
 30
0.0
 10
13.0820127765
 20
8.3597979125
 30
0.0
 10
13.086432501
 20
8.3650747297
 30
0.0
 10
13.090858846
 20
8.3698834518
 30
0.0
 10
13.0952885413
 20
8.3742201788
 30
0.0
 10
13.0997183568
 20
8.3780813821
 30
0.0
 10
13.1041452131
 20
8.3814637756
 30
0.0
 10
13.1085661125
 20
8.3843642859
 30
0.0
 10
13.1129780858
 20
8.38677997
 30
0.0
 10
13.1173781262
 20
8.3887078774
 30
0.0
 10
13.1217628336
 20
8.3901451694
 30
0.0
 10
13.1261286038
 20
8.3910890015
 30
0.0
 10
13.130470127
 20
8.391537178
 30
0.0
 10
13.1333525357
 20
8.3915042634
 30
0.0
 10
13.1347778742
 20
8.3914054193
 30
0.0
  0
SPLINE
  5
3ED
100
AcDbEntity
  8
0
100
AcDbSpline
 62
7
  6
CONTINUOUS
 70
0
 71
3
 72
50
 73
46
 74
0
 42
0.0000001
 43
0.0000001
 44
0.0000000001
 40
0.0
 40
0.0
 40
0.0
 40
0.0
 40
0.0417744591
 40
0.0840381198
 40
0.1266601534
 40
0.1695087396
 40
0.2124509082
 40
0.2553534299
 40
0.2980831906
 40
0.3405077712
 40
0.3824959546
 40
0.4239182613
 40
0.4646474805
 40
0.5045592119
 40
0.5435324166
 40
0.5814499846
 40
0.6181993253
 40
0.6536729913
 40
0.6877693505
 40
0.7203933294
 40
0.751457256
 40
0.7808818522
 40
0.7949577198
 40
0.8085984755
 40
0.8217972213
 40
0.8345477729
 40
0.8468449369
 40
0.8586844179
 40
0.8700630925
 40
0.8809789914
 40
0.8914315785
 40
0.9014218354
 40
0.9109525628
 40
0.9200286018
 40
0.9286571898
 40
0.9368483568
 40
0.9446153781
 40
0.9519753766
 40
0.9589498962
 40
0.965565679
 40
0.9778458808
 40
0.9836071375
 40
0.9891799038
 40
0.9946230061
 40
1.0
 40
1.0
 40
1.0
 40
1.0
 10
12.5591526497
 20
8.0060259007
 30
0.0
 10
12.5591526497
 20
8.0142344584
 30
0.0
 10
12.5592807142
 20
8.0307479586
 30
0.0
 10
12.55984685
 20
8.0556307287
 30
0.0
 10
12.5607865102
 20
8.0807134459
 30
0.0
 10
12.5620965955
 20
8.1059130202
 30
0.0
 10
12.5637727904
 20
8.1311461279
 30
0.0
 10
12.5658095467
 20
8.1563292702
 30
0.0
 10
12.5682001209
 20
8.181379138
 30
0.0
 10
12.5709365869
 20
8.206212858
 30
0.0
 10
12.5740098661
 20
8.2307482795
 30
0.0
 10
12.5774097557
 20
8.2549042451
 30
0.0
 10
12.5811249621
 20
8.2786008625
 30
0.0
 10
12.5851431379
 20
8.3017597717
 30
0.0
 10
12.5894509214
 20
8.3243044087
 30
0.0
 10
12.5940339805
 20
8.3461602636
 30
0.0
 10
12.5988770586
 20
8.3672551326
 30
0.0
 10
12.6039640247
 20
8.3875193724
 30
0.0
 10
12.6092779276
 20
8.4068861184
 30
0.0
 10
12.6148010479
 20
8.4252916092
 30
0.0
 10
12.6205149818
 20
8.4426751186
 30
0.0
 10
12.6254904897
 20
8.4564588414
 30
0.0
 10
12.6295618434
 20
8.4669232722
 30
0.0
 10
12.632605995
 20
8.4743648921
 30
0.0
 10
12.6356834203
 20
8.4815101452
 30
0.0
 10
12.6387916494
 20
8.4883531496
 30
0.0
 10
12.6419280614
 20
8.4948882906
 30
0.0
 10
12.6450901111
 20
8.5011101967
 30
0.0
 10
12.6482751588
 20
8.5070137834
 30
0.0
 10
12.6514806222
 20
8.5125942188
 30
0.0
 10
12.6547038572
 20
8.5178469667
 30
0.0
 10
12.6579422666
 20
8.522767756
 30
0.0
 10
12.6611932312
 20
8.5273526132
 30
0.0
 10
12.6644541686
 20
8.5315978427
 30
0.0
 10
12.6677225322
 20
8.5355000372
 30
0.0
 10
12.6709957851
 20
8.5390560647
 30
0.0
 10
12.6742715677
 20
8.5422630804
 30
0.0
 10
12.6775472495
 20
8.5451183642
 30
0.0
 10
12.680821387
 20
8.5476198707
 30
0.0
 10
12.6850735667
 20
8.5504100607
 30
0.0
 10
12.6894331885
 20
8.5525921482
 30
0.0
 10
12.6938490495
 20
8.5540394923
 30
0.0
 10
12.6970776488
 20
8.5547375749
 30
0.0
 10
12.7002881552
 20
8.5550689336
 30
0.0
 10
12.702419691
 20
8.5550446443
 30
0.0
 10
12.703473723
 20
8.5549715508
 30
0.0
  0
SPLINE
  5
3EE
100
AcDbEntity
  8
0
100
AcDbSpline
 62
7
  6
CONTINUOUS
 70
0
 71
3
 72
13
 73
9
 74
0
 42
0.0000001
 43
0.0000001
 44
0.0000000001
 40
0.0
 40
0.0
 40
0.0
 40
0.0
 40
0.2519031819
 40
0.5024835328
 40
0.627316677
 40
0.7518395577
 40
0.8760632036
 40
1.0
 40
1.0
 40
1.0
 40
1.0
 10
10.5234080064
 20
8.7550918882
 30
0.0
 10
10.5234080064
 20
8.7418545447
 30
0.0
 10
10.5224020492
 20
8.7154386843
 30
0.0
 10
10.5186069711
 20
8.6826580108
 30
0.0
 10
10.5140628783
 20
8.6567768701
 30
0.0
 10
10.5099121499
 20
8.6375838962
 30
0.0
 10
10.505020929
 20
8.6186153305
 30
0.0
 10
10.5012666961
 20
8.6061225123
 30
0.0
 10
10.4992686348
 20
8.5999237819
 30
0.0
  0
SPLINE
  5
3EF
100
AcDbEntity
  8
0
100
AcDbSpline
 62
7
  6
CONTINUOUS
 70
0
 71
3
 72
13
 73
9
 74
0
 42
0.0000001
 43
0.0000001
 44
0.0000000001
 40
0.0
 40
0.0
 40
0.0
 40
0.0
 40
0.2519031819
 40
0.5024835328
 40
0.627316677
 40
0.7518395577
 40
0.8760632036
 40
1.0
 40
1.0
 40
1.0
 40
1.0
 10
10.5234080064
 20
7.306203063
 30
0.0
 10
10.5234080064
 20
7.2929657194
 30
0.0
 10
10.5224020492
 20
7.266549859
 30
0.0
 10
10.5186069711
 20
7.2337691856
 30
0.0
 10
10.5140628783
 20
7.2078880448
 30
0.0
 10
10.5099121499
 20
7.1886950709
 30
0.0
 10
10.505020929
 20
7.1697265052
 30
0.0
 10
10.5012666961
 20
7.157233687
 30
0.0
 10
10.4992686348
 20
7.1510349566
 30
0.0
  0
SPLINE
  5
3F0
100
AcDbEntity
  8
0
100
AcDbSpline
 62
7
  6
CONTINUOUS
 70
0
 71
3
 72
13
 73
9
 74
0
 42
0.0000001
 43
0.0000001
 44
0.0000000001
 40
0.0
 40
0.0
 40
0.0
 40
0.0
 40
0.2519026687
 40
0.5024828895
 40
0.6273160874
 40
0.7518390994
 40
0.8760629453
 40
1.0
 40
1.0
 40
1.0
 40
1.0
 10
11.8814998161
 20
8.6609079013
 30
0.0
 10
11.8814998161
 20
8.6476744605
 30
0.0
 10
11.8804944518
 20
8.6212663747
 30
0.0
 10
11.876701615
 20
8.5884952205
 30
0.0
 10
11.8721601981
 20
8.5626214219
 30
0.0
 10
11.868011907
 20
8.5434337859
 30
0.0
 10
11.8631235493
 20
8.5244703761
 30
0.0
 10
11.8593715079
 20
8.5119808649
 30
0.0
 10
11.85737461
 20
8.5057837487
 30
0.0
  0
SPLINE
  5
3F1
100
AcDbEntity
  8
0
100
AcDbSpline
 62
7
  6
CONTINUOUS
 70
0
 71
3
 72
13
 73
9
 74
0
 42
0.0000001
 43
0.0000001
 44
0.0000000001
 40
0.0
 40
0.0
 40
0.0
 40
0.0
 40
0.2519026687
 40
0.5024828895
 40
0.6273160874
 40
0.7518390994
 40
0.8760629453
 40
1.0
 40
1.0
 40
1.0
 40
1.0
 10
11.8814998161
 20
7.2120190761
 30
0.0
 10
11.8814998161
 20
7.1987856353
 30
0.0
 10
11.8804944518
 20
7.1723775494
 30
0.0
 10
11.876701615
 20
7.1396063952
 30
0.0
 10
11.8721601981
 20
7.1137325966
 30
0.0
 10
11.868011907
 20
7.0945449606
 30
0.0
 10
11.8631235493
 20
7.0755815508
 30
0.0
 10
11.8593715079
 20
7.0630920396
 30
0.0
 10
11.85737461
 20
7.0568949234
 30
0.0
  0
SPLINE
  5
3F2
100
AcDbEntity
  8
0
100
AcDbSpline
 62
7
  6
CONTINUOUS
 70
0
 71
3
 72
40
 73
36
 74
0
 42
0.0000001
 43
0.0000001
 44
0.0000000001
 40
0.0
 40
0.0
 40
0.0
 40
0.0
 40
0.0762761317
 40
0.1537857997
 40
0.231822979
 40
0.309674562
 40
0.3483090976
 40
0.3866313403
 40
0.4245541437
 40
0.4619915438
 40
0.4988590213
 40
0.5350737621
 40
0.5705549259
 40
0.6052239269
 40
0.6390047474
 40
0.671824231
 40
0.7036123918
 40
0.734302758
 40
0.7638327558
 40
0.792144171
 40
0.8191836281
 40
0.8449031615
 40
0.8692609275
 40
0.8922221036
 40
0.913760079
 40
0.9239903214
 40
0.9338593177
 40
0.9433668923
 40
0.9525136372
 40
0.9613012431
 40
0.9697325418
 40
0.9778115818
 40
0.9855440229
 40
0.9929370836
 40
1.0
 40
1.0
 40
1.0
 40
1.0
 10
12.9707489068
 20
9.1440417924
 30
0.0
 10
12.9707489068
 20
9.1573870166
 30
0.0
 10
12.9711079328
 20
9.1842944396
 30
0.0
 10
12.9726742839
 20
9.22482779
 30
0.0
 10
12.9752595129
 20
9.2655852032
 30
0.0
 10
12.9782493724
 20
9.2994911088
 30
0.0
 10
12.9811350839
 20
9.326422718
 30
0.0
 10
12.9835300013
 20
9.346379362
 30
0.0
 10
12.9861550154
 20
9.3660957536
 30
0.0
 10
12.9890037363
 20
9.3855238871
 30
0.0
 10
12.9920691895
 20
9.4046164207
 30
0.0
 10
12.9953438802
 20
9.4233268458
 30
0.0
 10
12.9988197986
 20
9.4416095856
 30
0.0
 10
13.0024884439
 20
9.4594201134
 30
0.0
 10
13.0063408312
 20
9.4767150685
 30
0.0
 10
13.0103675238
 20
9.4934523621
 30
0.0
 10
13.0145586574
 20
9.5095912787
 30
0.0
 10
13.0189039627
 20
9.5250925774
 30
0.0
 10
13.0233927948
 20
9.539918598
 30
0.0
 10
13.0280141462
 20
9.554033366
 30
0.0
 10
13.0327566884
 20
9.5674026975
 30
0.0
 10
13.0376088037
 20
9.5799942586
 30
0.0
 10
13.0425586347
 20
9.5917777667
 30
0.0
 10
13.0475940952
 20
9.6027247326
 30
0.0
 10
13.0519226365
 20
9.6112692426
 30
0.0
 10
13.0554274061
 20
9.6176561986
 30
0.0
 10
13.0580246142
 20
9.6221386219
 30
0.0
 10
13.0606340135
 20
9.6263931375
 30
0.0
 10
13.0632541151
 20
9.6304171725
 30
0.0
 10
13.0658833275
 20
9.6342083184
 30
0.0
 10
13.0685200701
 20
9.6377643261
 30
0.0
 10
13.0711628386
 20
9.6410830305
 30
0.0
 10
13.0738100545
 20
9.6441625247
 30
0.0
 10
13.0764601555
 20
9.6470008486
 30
0.0
 10
13.0782683696
 20
9.6487708569
 30
0.0
 10
13.0791729438
 20
9.6496127344
 30
0.0
  0
SPLINE
  5
3F3
100
AcDbEntity
  8
0
100
AcDbSpline
 62
7
  6
CONTINUOUS
 70
0
 71
3
 72
31
 73
27
 74
0
 42
0.0000001
 43
0.0000001
 44
0.0000000001
 40
0.0
 40
0.0
 40
0.0
 40
0.0
 40
0.0851790638
 40
0.1685811616
 40
0.249883982
 40
0.3287750363
 40
0.4049556396
 40
0.4781420033
 40
0.548067852
 40
0.6144868421
 40
0.6463114893
 40
0.677177638
 40
0.707061675
 40
0.7359416445
 40
0.7637979746
 40
0.7906131296
 40
0.8163723781
 40
0.8410635897
 40
0.8646780143
 40
0.8872103367
 40
0.9086594764
 40
0.9290290292
 40
0.9483281557
 40
0.9665725592
 40
0.9837856062
 40
1.0
 40
1.0
 40
1.0
 40
1.0
 10
12.9707489068
 20
9.1440417924
 30
0.0
 10
12.9707489068
 20
9.1354431292
 30
0.0
 10
12.9708954298
 20
9.1184247695
 30
0.0
 10
12.9715674642
 20
9.0932070474
 30
0.0
 10
12.9726867467
 20
9.0686404294
 30
0.0
 10
12.9742484322
 20
9.0448283513
 30
0.0
 10
12.9762457529
 20
9.0218710013
 30
0.0
 10
12.9786700687
 20
8.9998648114
 30
0.0
 10
12.9815109575
 20
8.9789023604
 30
0.0
 10
12.9842527686
 20
8.9621461379
 30
0.0
 10
12.9866572762
 20
8.9493359829
 30
0.0
 10
12.9885312342
 20
8.9401800839
 30
0.0
 10
12.9904993787
 20
8.9313482486
 30
0.0
 10
12.9925597223
 20
8.9228497373
 30
0.0
 10
12.9947100054
 20
8.914693463
 30
0.0
 10
12.9969480235
 20
8.9068879725
 30
0.0
 10
12.9992713471
 20
8.8994414221
 30
0.0
 10
13.001677587
 20
8.8923615892
 30
0.0
 10
13.0041641649
 20
8.8856558339
 30
0.0
 10
13.0067285242
 20
8.8793311176
 30
0.0
 10
13.0093679748
 20
8.8733939665
 30
0.0
 10
13.0120798294
 20
8.8678504759
 30
0.0
 10
13.014861331
 20
8.8627063247
 30
0.0
 10
13.0177097749
 20
8.8579666501
 30
0.0
 10
13.0206222633
 20
8.8536364847
 30
0.0
 10
13.0226645032
 20
8.8509470458
 30
0.0
 10
13.023697284
 20
8.8496771964
 30
0.0
  0
SPLINE
  5
3F4
100
AcDbEntity
  8
0
100
AcDbSpline
 62
7
  6
CONTINUOUS
 70
0
 71
3
 72
40
 73
36
 74
0
 42
0.0000001
 43
0.0000001
 44
0.0000000001
 40
0.0
 40
0.0
 40
0.0
 40
0.0
 40
0.0762761317
 40
0.1537857997
 40
0.231822979
 40
0.309674562
 40
0.3483090976
 40
0.3866313403
 40
0.4245541437
 40
0.4619915438
 40
0.4988590213
 40
0.5350737621
 40
0.5705549259
 40
0.6052239269
 40
0.6390047474
 40
0.671824231
 40
0.7036123918
 40
0.734302758
 40
0.7638327558
 40
0.792144171
 40
0.8191836281
 40
0.8449031615
 40
0.8692609275
 40
0.8922221036
 40
0.913760079
 40
0.9239903214
 40
0.9338593177
 40
0.9433668923
 40
0.9525136372
 40
0.9613012431
 40
0.9697325418
 40
0.9778115818
 40
0.9855440229
 40
0.9929370836
 40
1.0
 40
1.0
 40
1.0
 40
1.0
 10
12.9707489068
 20
7.6951529671
 30
0.0
 10
12.9707489068
 20
7.7084981913
 30
0.0
 10
12.9711079328
 20
7.7354056143
 30
0.0
 10
12.9726742839
 20
7.7759389647
 30
0.0
 10
12.9752595129
 20
7.816696378
 30
0.0
 10
12.9782493724
 20
7.8506022835
 30
0.0
 10
12.9811350839
 20
7.8775338928
 30
0.0
 10
12.9835300013
 20
7.8974905367
 30
0.0
 10
12.9861550154
 20
7.9172069283
 30
0.0
 10
12.9890037363
 20
7.9366350618
 30
0.0
 10
12.9920691895
 20
7.9557275954
 30
0.0
 10
12.9953438802
 20
7.9744380205
 30
0.0
 10
12.9988197986
 20
7.9927207603
 30
0.0
 10
13.0024884439
 20
8.0105312882
 30
0.0
 10
13.0063408312
 20
8.0278262432
 30
0.0
 10
13.0103675238
 20
8.0445635368
 30
0.0
 10
13.0145586574
 20
8.0607024535
 30
0.0
 10
13.0189039627
 20
8.0762037521
 30
0.0
 10
13.0233927948
 20
8.0910297727
 30
0.0
 10
13.0280141462
 20
8.1051445407
 30
0.0
 10
13.0327566884
 20
8.1185138722
 30
0.0
 10
13.0376088037
 20
8.1311054333
 30
0.0
 10
13.0425586347
 20
8.1428889414
 30
0.0
 10
13.0475940952
 20
8.1538359073
 30
0.0
 10
13.0519226365
 20
8.1623804173
 30
0.0
 10
13.0554274061
 20
8.1687673733
 30
0.0
 10
13.0580246142
 20
8.1732497966
 30
0.0
 10
13.0606340135
 20
8.1775043123
 30
0.0
 10
13.0632541151
 20
8.1815283472
 30
0.0
 10
13.0658833275
 20
8.1853194931
 30
0.0
 10
13.0685200701
 20
8.1888755008
 30
0.0
 10
13.0711628386
 20
8.1921942053
 30
0.0
 10
13.0738100545
 20
8.1952736994
 30
0.0
 10
13.0764601555
 20
8.1981120233
 30
0.0
 10
13.0782683696
 20
8.1998820316
 30
0.0
 10
13.0791729438
 20
8.2007239091
 30
0.0
  0
SPLINE
  5
3F5
100
AcDbEntity
  8
0
100
AcDbSpline
 62
7
  6
CONTINUOUS
 70
0
 71
3
 72
31
 73
27
 74
0
 42
0.0000001
 43
0.0000001
 44
0.0000000001
 40
0.0
 40
0.0
 40
0.0
 40
0.0
 40
0.0851790638
 40
0.1685811616
 40
0.249883982
 40
0.3287750363
 40
0.4049556396
 40
0.4781420033
 40
0.548067852
 40
0.6144868421
 40
0.6463114893
 40
0.677177638
 40
0.707061675
 40
0.7359416445
 40
0.7637979746
 40
0.7906131296
 40
0.8163723781
 40
0.8410635897
 40
0.8646780143
 40
0.8872103367
 40
0.9086594764
 40
0.9290290292
 40
0.9483281557
 40
0.9665725592
 40
0.9837856062
 40
1.0
 40
1.0
 40
1.0
 40
1.0
 10
12.9707489068
 20
7.6951529671
 30
0.0
 10
12.9707489068
 20
7.6865543039
 30
0.0
 10
12.9708954298
 20
7.6695359442
 30
0.0
 10
12.9715674642
 20
7.6443182222
 30
0.0
 10
12.9726867467
 20
7.6197516041
 30
0.0
 10
12.9742484322
 20
7.595939526
 30
0.0
 10
12.9762457529
 20
7.572982176
 30
0.0
 10
12.9786700687
 20
7.5509759861
 30
0.0
 10
12.9815109575
 20
7.5300135351
 30
0.0
 10
12.9842527686
 20
7.5132573126
 30
0.0
 10
12.9866572762
 20
7.5004471577
 30
0.0
 10
12.9885312342
 20
7.4912912586
 30
0.0
 10
12.9904993787
 20
7.4824594233
 30
0.0
 10
12.9925597223
 20
7.473960912
 30
0.0
 10
12.9947100054
 20
7.4658046377
 30
0.0
 10
12.9969480235
 20
7.4579991472
 30
0.0
 10
12.9992713471
 20
7.4505525968
 30
0.0
 10
13.001677587
 20
7.4434727639
 30
0.0
 10
13.0041641649
 20
7.4367670086
 30
0.0
 10
13.0067285242
 20
7.4304422923
 30
0.0
 10
13.0093679748
 20
7.4245051412
 30
0.0
 10
13.0120798294
 20
7.4189616506
 30
0.0
 10
13.014861331
 20
7.4138174994
 30
0.0
 10
13.0177097749
 20
7.4090778248
 30
0.0
 10
13.0206222633
 20
7.4047476594
 30
0.0
 10
13.0226645032
 20
7.4020582205
 30
0.0
 10
13.023697284
 20
7.4007883711
 30
0.0
  0
SPLINE
  5
3F6
100
AcDbEntity
  8
0
100
AcDbSpline
 62
7
  6
CONTINUOUS
 70
0
 71
3
 72
33
 73
29
 74
0
 42
0.0000001
 43
0.0000001
 44
0.0000000001
 40
0.0
 40
0.0
 40
0.0
 40
0.0
 40
0.0762772567
 40
0.1537876442
 40
0.2318258193
 40
0.3096783835
 40
0.3866345757
 40
0.4619941081
 40
0.4988620728
 40
0.5350773103
 40
0.5705589572
 40
0.6052284352
 40
0.6390097547
 40
0.6718297424
 40
0.7036183654
 40
0.7343091905
 40
0.7638396857
 40
0.7921515928
 40
0.8191914981
 40
0.8449114848
 40
0.8692697201
 40
0.8922313402
 40
0.9137697483
 40
0.9338680718
 40
0.9525211146
 40
0.9697382213
 40
0.985547287
 40
1.0
 40
1.0
 40
1.0
 40
1.0
 10
12.5889911303
 20
8.0508476622
 30
0.0
 10
12.5889911303
 20
8.0593692927
 30
0.0
 10
12.5892203853
 20
8.07655106
 30
0.0
 10
12.5902205801
 20
8.1024336628
 30
0.0
 10
12.5918713632
 20
8.1284594065
 30
0.0
 10
12.5941566821
 20
8.1543749667
 30
0.0
 10
12.5970542482
 20
8.1799280717
 30
0.0
 10
12.5999761629
 20
8.2008633121
 30
0.0
 10
12.6026051551
 20
8.2172379565
 30
0.0
 10
12.6046962173
 20
8.2291855515
 30
0.0
 10
12.6069157591
 20
8.2408600327
 30
0.0
 10
12.6092583729
 20
8.2522329901
 30
0.0
 10
12.6117183079
 20
8.2632767344
 30
0.0
 10
12.6142895436
 20
8.273964387
 30
0.0
 10
12.616965794
 20
8.2842699425
 30
0.0
 10
12.6197404902
 20
8.2941683505
 30
0.0
 10
12.6226068262
 20
8.3036355702
 30
0.0
 10
12.6255577841
 20
8.3126486238
 30
0.0
 10
12.6285861381
 20
8.3211856728
 30
0.0
 10
12.6316844576
 20
8.3292260897
 30
0.0
 10
12.6348451643
 20
8.3367505004
 30
0.0
 10
12.6380605706
 20
8.343740846
 30
0.0
 10
12.641322872
 20
8.3501804664
 30
0.0
 10
12.6446242502
 20
8.3560541841
 30
0.0
 10
12.6479568889
 20
8.3613482613
 30
0.0
 10
12.6513133905
 20
8.366050735
 30
0.0
 10
12.6546859739
 20
8.3701505329
 30
0.0
 10
12.6570433127
 20
8.3725816201
 30
0.0
 10
12.658225257
 20
8.373681659
 30
0.0
  0
SPLINE
  5
3F7
100
AcDbEntity
  8
0
100
AcDbSpline
 62
7
  6
CONTINUOUS
 70
0
 71
3
 72
30
 73
26
 74
0
 42
0.0000001
 43
0.0000001
 44
0.0000000001
 40
0.0
 40
0.0
 40
0.0
 40
0.0
 40
0.0851784903
 40
0.1685810969
 40
0.2498834953
 40
0.3287745917
 40
0.4049551107
 40
0.4781414856
 40
0.5480673724
 40
0.6144864538
 40
0.6771752937
 40
0.7070594378
 40
0.735939494
 40
0.7637959642
 40
0.790611226
 40
0.8163706451
 40
0.8410619855
 40
0.8646766072
 40
0.8872090812
 40
0.9086584391
 40
0.9290281656
 40
0.9483275241
 40
0.96657212
 40
0.9837854028
 40
1.0
 40
1.0
 40
1.0
 40
1.0
 10
12.5889911303
 20
8.0508476622
 30
0.0
 10
12.5889911303
 20
8.0453570205
 30
0.0
 10
12.589084695
 20
8.0344899466
 30
0.0
 10
12.5895138106
 20
8.0183871946
 30
0.0
 10
12.59022853
 20
8.0027001653
 30
0.0
 10
12.5912257302
 20
7.9874949877
 30
0.0
 10
12.5925011084
 20
7.972835559
 30
0.0
 10
12.5940491477
 20
7.9587835287
 30
0.0
 10
12.5958631549
 20
7.9453978425
 30
0.0
 10
12.5979353327
 20
7.9327347555
 30
0.0
 10
12.5998998005
 20
7.9226740185
 30
0.0
 10
12.6016026671
 20
7.9150321577
 30
0.0
 10
12.6029183083
 20
7.9096054026
 30
0.0
 10
12.6042913496
 20
7.9043971854
 30
0.0
 10
12.6057204332
 20
7.8994129579
 30
0.0
 10
12.6072039707
 20
7.8946579271
 30
0.0
 10
12.6087404723
 20
7.890137063
 30
0.0
 10
12.6103282546
 20
7.8858550599
 30
0.0
 10
12.6119657238
 20
7.88181637
 30
0.0
 10
12.6136511225
 20
7.8780251519
 30
0.0
 10
12.6153827743
 20
7.874485308
 30
0.0
 10
12.6171588806
 20
7.8712004531
 30
0.0
 10
12.6189777492
 20
7.8681738792
 30
0.0
 10
12.6208375026
 20
7.8654087913
 30
0.0
 10
12.62214156
 20
7.8636914016
 30
0.0
 10
12.6228010439
 20
7.8628805232
 30
0.0
  0
SPLINE
  5
3F8
100
AcDbEntity
  8
0
100
AcDbSpline
 62
7
  6
CONTINUOUS
 70
0
 71
3
 72
44
 73
40
 74
0
 42
0.0000001
 43
0.0000001
 44
0.0000000001
 40
0.0
 40
0.0
 40
0.0
 40
0.0
 40
0.0055576246
 40
0.0111781252
 40
0.0169221424
 40
0.0228460823
 40
0.0290009394
 40
0.0354314054
 40
0.0421759115
 40
0.0492668554
 40
0.0567309544
 40
0.064590169
 40
0.0728619349
 40
0.0815600558
 40
0.0906951257
 40
0.1002748158
 40
0.110304631
 40
0.1207877759
 40
0.1317257866
 40
0.1431186256
 40
0.1672598102
 40
0.1931873598
 40
0.2208591117
 40
0.2502195474
 40
0.2812018198
 40
0.3137293806
 40
0.3477172232
 40
0.3830728887
 40
0.4196972996
 40
0.4574854911
 40
0.4963273377
 40
0.5361081807
 40
0.5767094102
 40
0.6180090134
 40
0.6598821151
 40
0.7448359269
 40
0.830537715
 40
0.9159396375
 40
1.0
 40
1.0
 40
1.0
 40
1.0
 10
10.0215986757
 20
10.432742954
 30
0.0
 10
10.02159868
 20
10.4322407708
 30
0.0
 10
10.0215424769
 20
10.4312298485
 30
0.0
 10
10.0212901687
 20
10.4297188533
 30
0.0
 10
10.0208702299
 20
10.4282112412
 30
0.0
 10
10.0202835702
 20
10.4267087269
 30
0.0
 10
10.0195310486
 20
10.4252125724
 30
0.0
 10
10.0186137609
 20
10.4237238865
 30
0.0
 10
10.017532716
 20
10.4222437042
 30
0.0
 10
10.0162889596
 20
10.4207730439
 30
0.0
 10
10.0148836515
 20
10.4193128451
 30
0.0
 10
10.0133179119
 20
10.4178641855
 30
0.0
 10
10.0115930595
 20
10.4164280494
 30
0.0
 10
10.0097104554
 20
10.415005517
 30
0.0
 10
10.0076715913
 20
10.4135976844
 30
0.0
 10
10.005478117
 20
10.4122055909
 30
0.0
 10
10.0031317535
 20
10.4108303906
 30
0.0
 10
10.0006344074
 20
10.4094731328
 30
0.0
 10
9.9979880739
 20
10.4081349037
 30
0.0
 10
9.9941900572
 20
10.406342741
 30
0.0
 10
9.9890782013
 20
10.4041662993
 30
0.0
 10
9.9825006923
 20
10.4016952257
 30
0.0
 10
9.9753874725
 20
10.3993248382
 30
0.0
 10
9.9677616248
 20
10.3970629464
 30
0.0
 10
9.9596477919
 20
10.3949170178
 30
0.0
 10
9.9510723612
 20
10.3928941557
 30
0.0
 10
9.9420632647
 20
10.3910010597
 30
0.0
 10
9.9326499008
 20
10.3892440028
 30
0.0
 10
9.9228630248
 20
10.3876288056
 30
0.0
 10
9.9127346439
 20
10.3861608083
 30
0.0
 10
9.9022979016
 20
10.384844866
 30
0.0
 10
9.8915869591
 20
10.3836853281
 30
0.0
 10
9.8806368943
 20
10.3826860365
 30
0.0
 10
9.8694835423
 20
10.3818502702
 30
0.0
 10
9.8543177229
 20
10.3809534695
 30
0.0
 10
9.8351230291
 20
10.3802624371
 30
0.0
 10
9.8119829932
 20
10.3801162691
 30
0.0
 10
9.7889295222
 20
10.3806513941
 30
0.0
 10
9.773635901
 20
10.3814672596
 30
0.0
 10
9.7660584637
 20
10.3819927567
 30
0.0
  0
SPLINE
  5
3F9
100
AcDbEntity
  8
0
100
AcDbSpline
 62
7
  6
CONTINUOUS
 70
0
 71
3
 72
44
 73
40
 74
0
 42
0.0000001
 43
0.0000001
 44
0.0000000001
 40
0.0
 40
0.0
 40
0.0
 40
0.0
 40
0.0055576246
 40
0.0111781252
 40
0.0169221424
 40
0.0228460823
 40
0.0290009394
 40
0.0354314054
 40
0.0421759115
 40
0.0492668554
 40
0.0567309544
 40
0.064590169
 40
0.0728619349
 40
0.0815600558
 40
0.0906951257
 40
0.1002748158
 40
0.110304631
 40
0.1207877759
 40
0.1317257866
 40
0.1431186256
 40
0.1672598102
 40
0.1931873598
 40
0.2208591117
 40
0.2502195474
 40
0.2812018198
 40
0.3137293806
 40
0.3477172232
 40
0.3830728887
 40
0.4196972996
 40
0.4574854911
 40
0.4963273377
 40
0.5361081807
 40
0.5767094102
 40
0.6180090134
 40
0.6598821151
 40
0.7448359269
 40
0.830537715
 40
0.9159396375
 40
1.0
 40
1.0
 40
1.0
 40
1.0
 10
13.1608577971
 20
10.2150345945
 30
0.0
 10
13.1608578015
 20
10.2145324113
 30
0.0
 10
13.1608015984
 20
10.213521489
 30
0.0
 10
13.1605492902
 20
10.2120104938
 30
0.0
 10
13.1601293513
 20
10.2105028817
 30
0.0
 10
13.1595426917
 20
10.2090003674
 30
0.0
 10
13.15879017
 20
10.2075042129
 30
0.0
 10
13.1578728823
 20
10.206015527
 30
0.0
 10
13.1567918374
 20
10.2045353447
 30
0.0
 10
13.155548081
 20
10.2030646844
 30
0.0
 10
13.154142773
 20
10.2016044856
 30
0.0
 10
13.1525770333
 20
10.200155826
 30
0.0
 10
13.150852181
 20
10.1987196899
 30
0.0
 10
13.1489695768
 20
10.1972971574
 30
0.0
 10
13.1469307127
 20
10.1958893249
 30
0.0
 10
13.1447372384
 20
10.1944972314
 30
0.0
 10
13.1423908749
 20
10.1931220311
 30
0.0
 10
13.1398935288
 20
10.1917647732
 30
0.0
 10
13.1372471953
 20
10.1904265442
 30
0.0
 10
13.1334491786
 20
10.1886343815
 30
0.0
 10
13.1283373227
 20
10.1864579398
 30
0.0
 10
13.1217598138
 20
10.1839868662
 30
0.0
 10
13.114646594
 20
10.1816164787
 30
0.0
 10
13.1070207463
 20
10.1793545869
 30
0.0
 10
13.0989069134
 20
10.1772086583
 30
0.0
 10
13.0903314827
 20
10.1751857962
 30
0.0
 10
13.0813223862
 20
10.1732927002
 30
0.0
 10
13.0719090222
 20
10.1715356433
 30
0.0
 10
13.0621221462
 20
10.1699204461
 30
0.0
 10
13.0519937653
 20
10.1684524488
 30
0.0
 10
13.041557023
 20
10.1671365065
 30
0.0
 10
13.0308460806
 20
10.1659769686
 30
0.0
 10
13.0198960158
 20
10.164977677
 30
0.0
 10
13.0087426638
 20
10.1641419107
 30
0.0
 10
12.9935768443
 20
10.16324511
 30
0.0
 10
12.9743821505
 20
10.1625540776
 30
0.0
 10
12.9512421146
 20
10.1624079096
 30
0.0
 10
12.9281886436
 20
10.1629430346
 30
0.0
 10
12.9128950224
 20
10.1637589001
 30
0.0
 10
12.9053175852
 20
10.1642843971
 30
0.0
  0
SPLINE
  5
3FA
100
AcDbEntity
  8
0
100
AcDbSpline
 62
7
  6
CONTINUOUS
 70
0
 71
3
 72
23
 73
19
 74
0
 42
0.0000001
 43
0.0000001
 44
0.0000000001
 40
0.0
 40
0.0
 40
0.0
 40
0.0
 40
0.0614460382
 40
0.1231087196
 40
0.1849779291
 40
0.2470411737
 40
0.3092837474
 40
0.3716889165
 40
0.4342381239
 40
0.4969112087
 40
0.559686639
 40
0.6225417561
 40
0.685453028
 40
0.7483963087
 40
0.8113471035
 40
0.8742808354
 40
0.9371731138
 40
1.0
 40
1.0
 40
1.0
 40
1.0
 10
10.0497264173
 20
9.3073360347
 30
0.0
 10
10.0592543401
 20
9.3057962508
 30
0.0
 10
10.0782642271
 20
9.3021941018
 30
0.0
 10
10.106493246
 20
9.2952597084
 30
0.0
 10
10.1344067757
 20
9.2868047237
 30
0.0
 10
10.1619195609
 20
9.2768549092
 30
0.0
 10
10.1889489597
 20
9.2654402876
 30
0.0
 10
10.2154134176
 20
9.2525953514
 30
0.0
 10
10.241233189
 20
9.2383588777
 30
0.0
 10
10.2663304473
 20
9.2227738332
 30
0.0
 10
10.2906295518
 20
9.2058872391
 30
0.0
 10
10.3140572667
 20
9.1877500299
 30
0.0
 10
10.3365429772
 20
9.1684169066
 30
0.0
 10
10.3580189189
 20
9.1479461464
 30
0.0
 10
10.3784203144
 20
9.1263995269
 30
0.0
 10
10.3976858149
 20
9.1038417702
 30
0.0
 10
10.4157567604
 20
9.0803417325
 30
0.0
 10
10.4269800062
 20
9.0640814767
 30
0.0
 10
10.4323745695
 20
9.0558180203
 30
0.0
  0
SPLINE
  5
3FB
100
AcDbEntity
  8
0
100
AcDbSpline
 62
7
  6
CONTINUOUS
 70
0
 71
3
 72
15
 73
11
 74
0
 42
0.0000001
 43
0.0000001
 44
0.0000000001
 40
0.0
 40
0.0
 40
0.0
 40
0.0
 40
0.1261461477
 40
0.2519904361
 40
0.3775171813
 40
0.5027130884
 40
0.6275671243
 40
0.7520688843
 40
0.8762172262
 40
1.0
 40
1.0
 40
1.0
 40
1.0
 10
10.4938418696
 20
8.9302585565
 30
0.0
 10
10.4962791994
 20
8.9231621177
 30
0.0
 10
10.500861755
 20
8.9088859953
 30
0.0
 10
10.5068508718
 20
8.8872380633
 30
0.0
 10
10.5119372243
 20
8.8654180106
 30
0.0
 10
10.5161115314
 20
8.8434652651
 30
0.0
 10
10.5193662826
 20
8.8214190504
 30
0.0
 10
10.5216957824
 20
8.7993184595
 30
0.0
 10
10.5230956248
 20
8.7772037706
 30
0.0
 10
10.5234080064
 20
8.7624546457
 30
0.0
 10
10.5234080064
 20
8.7550918882
 30
0.0
  0
SPLINE
  5
3FC
100
AcDbEntity
  8
0
100
AcDbSpline
 62
7
  6
CONTINUOUS
 70
0
 71
3
 72
23
 73
19
 74
0
 42
0.0000001
 43
0.0000001
 44
0.0000000001
 40
0.0
 40
0.0
 40
0.0
 40
0.0
 40
0.0614460382
 40
0.1231087196
 40
0.1849779291
 40
0.2470411737
 40
0.3092837474
 40
0.3716889165
 40
0.4342381239
 40
0.4969112087
 40
0.559686639
 40
0.6225417561
 40
0.685453028
 40
0.7483963087
 40
0.8113471035
 40
0.8742808354
 40
0.9371731138
 40
1.0
 40
1.0
 40
1.0
 40
1.0
 10
10.0497264173
 20
7.8584472094
 30
0.0
 10
10.0592543401
 20
7.8569074256
 30
0.0
 10
10.0782642271
 20
7.8533052765
 30
0.0
 10
10.106493246
 20
7.8463708831
 30
0.0
 10
10.1344067757
 20
7.8379158984
 30
0.0
 10
10.1619195609
 20
7.8279660839
 30
0.0
 10
10.1889489597
 20
7.8165514623
 30
0.0
 10
10.2154134176
 20
7.8037065261
 30
0.0
 10
10.241233189
 20
7.7894700524
 30
0.0
 10
10.2663304473
 20
7.7738850079
 30
0.0
 10
10.2906295518
 20
7.7569984139
 30
0.0
 10
10.3140572667
 20
7.7388612046
 30
0.0
 10
10.3365429772
 20
7.7195280813
 30
0.0
 10
10.3580189189
 20
7.6990573211
 30
0.0
 10
10.3784203144
 20
7.6775107016
 30
0.0
 10
10.3976858149
 20
7.6549529449
 30
0.0
 10
10.4157567604
 20
7.6314529072
 30
0.0
 10
10.4269800062
 20
7.6151926514
 30
0.0
 10
10.4323745695
 20
7.606929195
 30
0.0
  0
SPLINE
  5
3FD
100
AcDbEntity
  8
0
100
AcDbSpline
 62
7
  6
CONTINUOUS
 70
0
 71
3
 72
15
 73
11
 74
0
 42
0.0000001
 43
0.0000001
 44
0.0000000001
 40
0.0
 40
0.0
 40
0.0
 40
0.0
 40
0.1261461477
 40
0.2519904361
 40
0.3775171813
 40
0.5027130884
 40
0.6275671243
 40
0.7520688843
 40
0.8762172262
 40
1.0
 40
1.0
 40
1.0
 40
1.0
 10
10.4938418696
 20
7.4813697312
 30
0.0
 10
10.4962791994
 20
7.4742732925
 30
0.0
 10
10.500861755
 20
7.45999717
 30
0.0
 10
10.5068508718
 20
7.438349238
 30
0.0
 10
10.5119372243
 20
7.4165291853
 30
0.0
 10
10.5161115314
 20
7.3945764398
 30
0.0
 10
10.5193662826
 20
7.3725302251
 30
0.0
 10
10.5216957824
 20
7.3504296342
 30
0.0
 10
10.5230956248
 20
7.3283149453
 30
0.0
 10
10.5234080064
 20
7.3135658204
 30
0.0
 10
10.5234080064
 20
7.306203063
 30
0.0
  0
SPLINE
  5
3FE
100
AcDbEntity
  8
0
100
AcDbSpline
 62
7
  6
CONTINUOUS
 70
0
 71
3
 72
23
 73
19
 74
0
 42
0.0000001
 43
0.0000001
 44
0.0000000001
 40
0.0
 40
0.0
 40
0.0
 40
0.0
 40
0.0614464852
 40
0.1231095159
 40
0.184978978
 40
0.2470423822
 40
0.3092850289
 40
0.3716901933
 40
0.4342393291
 40
0.496912288
 40
0.5596875524
 40
0.6225424793
 40
0.6854535529
 40
0.7483966442
 40
0.8113472752
 40
0.8742808861
 40
0.9371731021
 40
1.0
 40
1.0
 40
1.0
 40
1.0
 10
11.4079022918
 20
9.2131384554
 30
0.0
 10
11.4174268091
 20
9.2115976674
 30
0.0
 10
11.4364298295
 20
9.2079938816
 30
0.0
 10
11.4646485291
 20
9.2010581356
 30
0.0
 10
11.4925517638
 20
9.19260289
 30
0.0
 10
11.5200543679
 20
9.1826538895
 30
0.0
 10
11.5470737866
 20
9.1712411339
 30
0.0
 10
11.5735285511
 20
9.1583990863
 30
0.0
 10
11.5993389994
 20
9.1441664886
 30
0.0
 10
11.6244273861
 20
9.1285862665
 30
0.0
 10
11.6487181489
 20
9.1117053945
 30
0.0
 10
11.6721381269
 20
9.093574755
 30
0.0
 10
11.694616777
 20
9.0742489919
 30
0.0
 10
11.7160864023
 20
9.0537863204
 30
0.0
 10
11.7364822886
 20
9.0322484516
 30
0.0
 10
11.7557431455
 20
9.0097000372
 30
0.0
 10
11.7738103672
 20
8.9862098578
 30
0.0
 10
11.7850317663
 20
8.969956484
 30
0.0
 10
11.7904255755
 20
8.9616965282
 30
0.0
  0
SPLINE
  5
3FF
100
AcDbEntity
  8
0
100
AcDbSpline
 62
7
  6
CONTINUOUS
 70
0
 71
3
 72
15
 73
11
 74
0
 42
0.0000001
 43
0.0000001
 44
0.0000000001
 40
0.0
 40
0.0
 40
0.0
 40
0.0
 40
0.1261464425
 40
0.251990966
 40
0.3775178719
 40
0.5027138514
 40
0.6275678626
 40
0.7520694914
 40
0.8762175851
 40
1.0
 40
1.0
 40
1.0
 40
1.0
 10
11.8519144039
 20
8.8361306813
 30
0.0
 10
11.8543533068
 20
8.829032127
 30
0.0
 10
11.8589388274
 20
8.8147516854
 30
0.0
 10
11.8649318374
 20
8.7930970371
 30
0.0
 10
11.8700215083
 20
8.7712700778
 30
0.0
 10
11.8741985472
 20
8.7493102737
 30
0.0
 10
11.8774554336
 20
8.7272568868
 30
0.0
 10
11.8797864646
 20
8.7051490491
 30
0.0
 10
11.8811872285
 20
8.6830270778
 30
0.0
 10
11.8814998161
 20
8.6682730849
 30
0.0
 10
11.8814998161
 20
8.6609079013
 30
0.0
  0
SPLINE
  5
400
100
AcDbEntity
  8
0
100
AcDbSpline
 62
7
  6
CONTINUOUS
 70
0
 71
3
 72
23
 73
19
 74
0
 42
0.0000001
 43
0.0000001
 44
0.0000000001
 40
0.0
 40
0.0
 40
0.0
 40
0.0
 40
0.0614464852
 40
0.1231095159
 40
0.184978978
 40
0.2470423822
 40
0.3092850289
 40
0.3716901933
 40
0.4342393291
 40
0.496912288
 40
0.5596875524
 40
0.6225424793
 40
0.6854535529
 40
0.7483966442
 40
0.8113472752
 40
0.8742808861
 40
0.9371731021
 40
1.0
 40
1.0
 40
1.0
 40
1.0
 10
11.4079022918
 20
7.7642496301
 30
0.0
 10
11.4174268091
 20
7.7627088421
 30
0.0
 10
11.4364298295
 20
7.7591050563
 30
0.0
 10
11.4646485291
 20
7.7521693103
 30
0.0
 10
11.4925517638
 20
7.7437140647
 30
0.0
 10
11.5200543679
 20
7.7337650642
 30
0.0
 10
11.5470737866
 20
7.7223523086
 30
0.0
 10
11.5735285511
 20
7.709510261
 30
0.0
 10
11.5993389994
 20
7.6952776634
 30
0.0
 10
11.6244273861
 20
7.6796974412
 30
0.0
 10
11.6487181489
 20
7.6628165692
 30
0.0
 10
11.6721381269
 20
7.6446859297
 30
0.0
 10
11.694616777
 20
7.6253601666
 30
0.0
 10
11.7160864023
 20
7.6048974951
 30
0.0
 10
11.7364822886
 20
7.5833596263
 30
0.0
 10
11.7557431455
 20
7.5608112119
 30
0.0
 10
11.7738103672
 20
7.5373210326
 30
0.0
 10
11.7850317663
 20
7.5210676587
 30
0.0
 10
11.7904255755
 20
7.5128077029
 30
0.0
  0
SPLINE
  5
401
100
AcDbEntity
  8
0
100
AcDbSpline
 62
7
  6
CONTINUOUS
 70
0
 71
3
 72
15
 73
11
 74
0
 42
0.0000001
 43
0.0000001
 44
0.0000000001
 40
0.0
 40
0.0
 40
0.0
 40
0.0
 40
0.1261464425
 40
0.251990966
 40
0.3775178719
 40
0.5027138514
 40
0.6275678626
 40
0.7520694914
 40
0.8762175851
 40
1.0
 40
1.0
 40
1.0
 40
1.0
 10
11.8519144039
 20
7.387241856
 30
0.0
 10
11.8543533068
 20
7.3801433018
 30
0.0
 10
11.8589388274
 20
7.3658628601
 30
0.0
 10
11.8649318374
 20
7.3442082118
 30
0.0
 10
11.8700215083
 20
7.3223812525
 30
0.0
 10
11.8741985472
 20
7.3004214484
 30
0.0
 10
11.8774554336
 20
7.2783680616
 30
0.0
 10
11.8797864646
 20
7.2562602238
 30
0.0
 10
11.8811872285
 20
7.2341382525
 30
0.0
 10
11.8814998161
 20
7.2193842596
 30
0.0
 10
11.8814998161
 20
7.2120190761
 30
0.0
  0
SPLINE
  5
402
100
AcDbEntity
  8
0
100
AcDbSpline
 62
7
  6
CONTINUOUS
 70
0
 71
3
 72
9
 73
5
 74
0
 42
0.0000001
 43
0.0000001
 44
0.0000000001
 40
0.0
 40
0.0
 40
0.0
 40
0.0
 40
0.503895258
 40
1.0
 40
1.0
 40
1.0
 40
1.0
 10
13.059324472
 20
9.6242017632
 30
0.0
 10
13.0603421405
 20
9.6243931831
 30
0.0
 10
13.0623870578
 20
9.6246509043
 30
0.0
 10
13.0644486488
 20
9.6246431968
 30
0.0
 10
13.0654657106
 20
9.6245726564
 30
0.0
  0
SPLINE
  5
403
100
AcDbEntity
  8
0
100
AcDbSpline
 62
7
  6
CONTINUOUS
 70
0
 71
3
 72
47
 73
43
 74
0
 42
0.0000001
 43
0.0000001
 44
0.0000000001
 40
0.0
 40
0.0
 40
0.0
 40
0.0
 40
0.0063158967
 40
0.0126706977
 40
0.0191025471
 40
0.0256480963
 40
0.0323419829
 40
0.0392163382
 40
0.053614168
 40
0.0611948929
 40
0.0690566412
 40
0.077217773
 40
0.0856941569
 40
0.0944995551
 40
0.1036456891
 40
0.1131424521
 40
0.122998232
 40
0.1332198706
 40
0.1438129644
 40
0.1547820179
 40
0.1661303832
 40
0.1899727563
 40
0.2153522396
 40
0.2422681077
 40
0.2707104459
 40
0.3006614883
 40
0.3320967939
 40
0.3649861265
 40
0.3992940928
 40
0.4349806571
 40
0.4720016811
 40
0.5103093127
 40
0.5498522596
 40
0.5905760756
 40
0.6324234754
 40
0.6753345639
 40
0.7192469999
 40
0.7640961586
 40
0.8098155359
 40
0.8563366993
 40
0.9035889296
 40
1.0
 40
1.0
 40
1.0
 40
1.0
 10
13.0524491993
 20
8.6531455911
 30
0.0
 10
13.051443537
 20
8.6532153316
 30
0.0
 10
13.0494307694
 20
8.6534375475
 30
0.0
 10
13.0464341705
 20
8.6540167762
 30
0.0
 10
13.0434576101
 20
8.6548419176
 30
0.0
 10
13.0405028096
 20
8.6559122539
 30
0.0
 10
13.0375709478
 20
8.6572272278
 30
0.0
 10
13.0336342443
 20
8.6593374972
 30
0.0
 10
13.0298044404
 20
8.6619207811
 30
0.0
 10
13.0260981727
 20
8.6649144142
 30
0.0
 10
13.0232986815
 20
8.6674383958
 30
0.0
 10
13.0205291036
 20
8.6702009173
 30
0.0
 10
13.0177900927
 20
8.6732009585
 30
0.0
 10
13.0150828017
 20
8.6764372539
 30
0.0
 10
13.0124082208
 20
8.6799084811
 30
0.0
 10
13.0097673477
 20
8.6836132016
 30
0.0
 10
13.0071612617
 20
8.6875499479
 30
0.0
 10
13.0045909442
 20
8.6917170982
 30
0.0
 10
13.0020574228
 20
8.6961129634
 30
0.0
 10
12.999561718
 20
8.7007357873
 30
0.0
 10
12.9962309235
 20
8.7073082088
 30
0.0
 10
12.9921805135
 20
8.716090502
 30
0.0
 10
12.987563597
 20
8.7273349432
 30
0.0
 10
12.9831208554
 20
8.7394343316
 30
0.0
 10
12.9788595754
 20
8.7523689334
 30
0.0
 10
12.9747867369
 20
8.7661178628
 30
0.0
 10
12.9709090758
 20
8.7806587136
 30
0.0
 10
12.9672330331
 20
8.7959677477
 30
0.0
 10
12.9637647288
 20
8.8120198964
 30
0.0
 10
12.9605099228
 20
8.8287888175
 30
0.0
 10
12.9574740367
 20
8.8462469597
 30
0.0
 10
12.9546621381
 20
8.8643656169
 30
0.0
 10
12.9520789149
 20
8.8831149682
 30
0.0
 10
12.9497286614
 20
8.9024641307
 30
0.0
 10
12.947615295
 20
8.922381225
 30
0.0
 10
12.945742348
 20
8.94283343
 30
0.0
 10
12.9441129413
 20
8.9637870207
 30
0.0
 10
12.942729778
 20
8.9852074535
 30
0.0
 10
12.9415951773
 20
9.0070593935
 30
0.0
 10
12.9407110257
 20
9.0293067802
 30
0.0
 10
12.9398624764
 20
9.0596506619
 30
0.0
 10
12.939616332
 20
9.0825819027
 30
0.0
 10
12.939616332
 20
9.0979700318
 30
0.0
  0
SPLINE
  5
404
100
AcDbEntity
  8
0
100
AcDbSpline
 62
7
  6
CONTINUOUS
 70
0
 71
3
 72
9
 73
5
 74
0
 42
0.0000001
 43
0.0000001
 44
0.0000000001
 40
0.0
 40
0.0
 40
0.0
 40
0.0
 40
0.5039782777
 40
1.0
 40
1.0
 40
1.0
 40
1.0
 10
13.0074818605
 20
8.8776066086
 30
0.0
 10
13.0084734619
 20
8.8772702113
 30
0.0
 10
13.0104841593
 20
8.8767225275
 30
0.0
 10
13.0125495549
 20
8.876441051
 30
0.0
 10
13.0135776624
 20
8.8763697445
 30
0.0
  0
SPLINE
  5
405
100
AcDbEntity
  8
0
100
AcDbSpline
 62
7
  6
CONTINUOUS
 70
0
 71
3
 72
9
 73
5
 74
0
 42
0.0000001
 43
0.0000001
 44
0.0000000001
 40
0.0
 40
0.0
 40
0.0
 40
0.0
 40
0.503895258
 40
1.0
 40
1.0
 40
1.0
 40
1.0
 10
13.059324472
 20
8.175312938
 30
0.0
 10
13.0603421405
 20
8.1755043578
 30
0.0
 10
13.0623870578
 20
8.175762079
 30
0.0
 10
13.0644486488
 20
8.1757543715
 30
0.0
 10
13.0654657106
 20
8.1756838311
 30
0.0
  0
SPLINE
  5
406
100
AcDbEntity
  8
0
100
AcDbSpline
 62
7
  6
CONTINUOUS
 70
0
 71
3
 72
47
 73
43
 74
0
 42
0.0000001
 43
0.0000001
 44
0.0000000001
 40
0.0
 40
0.0
 40
0.0
 40
0.0
 40
0.0063158967
 40
0.0126706977
 40
0.0191025471
 40
0.0256480963
 40
0.0323419829
 40
0.0392163382
 40
0.053614168
 40
0.0611948929
 40
0.0690566412
 40
0.077217773
 40
0.0856941569
 40
0.0944995551
 40
0.1036456891
 40
0.1131424521
 40
0.122998232
 40
0.1332198706
 40
0.1438129644
 40
0.1547820179
 40
0.1661303832
 40
0.1899727563
 40
0.2153522396
 40
0.2422681077
 40
0.2707104459
 40
0.3006614883
 40
0.3320967939
 40
0.3649861265
 40
0.3992940928
 40
0.4349806571
 40
0.4720016811
 40
0.5103093127
 40
0.5498522596
 40
0.5905760756
 40
0.6324234754
 40
0.6753345639
 40
0.7192469999
 40
0.7640961586
 40
0.8098155359
 40
0.8563366993
 40
0.9035889296
 40
1.0
 40
1.0
 40
1.0
 40
1.0
 10
13.0524491993
 20
7.2042567658
 30
0.0
 10
13.051443537
 20
7.2043265063
 30
0.0
 10
13.0494307694
 20
7.2045487222
 30
0.0
 10
13.0464341705
 20
7.205127951
 30
0.0
 10
13.0434576101
 20
7.2059530923
 30
0.0
 10
13.0405028096
 20
7.2070234286
 30
0.0
 10
13.0375709478
 20
7.2083384026
 30
0.0
 10
13.0336342443
 20
7.2104486719
 30
0.0
 10
13.0298044404
 20
7.2130319558
 30
0.0
 10
13.0260981727
 20
7.2160255889
 30
0.0
 10
13.0232986815
 20
7.2185495706
 30
0.0
 10
13.0205291036
 20
7.221312092
 30
0.0
 10
13.0177900927
 20
7.2243121332
 30
0.0
 10
13.0150828017
 20
7.2275484286
 30
0.0
 10
13.0124082208
 20
7.2310196559
 30
0.0
 10
13.0097673477
 20
7.2347243763
 30
0.0
 10
13.0071612617
 20
7.2386611226
 30
0.0
 10
13.0045909442
 20
7.242828273
 30
0.0
 10
13.0020574228
 20
7.2472241381
 30
0.0
 10
12.999561718
 20
7.251846962
 30
0.0
 10
12.9962309235
 20
7.2584193835
 30
0.0
 10
12.9921805135
 20
7.2672016767
 30
0.0
 10
12.987563597
 20
7.278446118
 30
0.0
 10
12.9831208554
 20
7.2905455063
 30
0.0
 10
12.9788595754
 20
7.3034801082
 30
0.0
 10
12.9747867369
 20
7.3172290375
 30
0.0
 10
12.9709090758
 20
7.3317698883
 30
0.0
 10
12.9672330331
 20
7.3470789224
 30
0.0
 10
12.9637647288
 20
7.3631310711
 30
0.0
 10
12.9605099228
 20
7.3798999922
 30
0.0
 10
12.9574740367
 20
7.3973581344
 30
0.0
 10
12.9546621381
 20
7.4154767917
 30
0.0
 10
12.9520789149
 20
7.4342261429
 30
0.0
 10
12.9497286614
 20
7.4535753054
 30
0.0
 10
12.947615295
 20
7.4734923997
 30
0.0
 10
12.945742348
 20
7.4939446047
 30
0.0
 10
12.9441129413
 20
7.5148981954
 30
0.0
 10
12.942729778
 20
7.5363186283
 30
0.0
 10
12.9415951773
 20
7.5581705682
 30
0.0
 10
12.9407110257
 20
7.580417955
 30
0.0
 10
12.9398624764
 20
7.6107618367
 30
0.0
 10
12.939616332
 20
7.6336930775
 30
0.0
 10
12.939616332
 20
7.6490812065
 30
0.0
  0
SPLINE
  5
407
100
AcDbEntity
  8
0
100
AcDbSpline
 62
7
  6
CONTINUOUS
 70
0
 71
3
 72
9
 73
5
 74
0
 42
0.0000001
 43
0.0000001
 44
0.0000000001
 40
0.0
 40
0.0
 40
0.0
 40
0.0
 40
0.5039782777
 40
1.0
 40
1.0
 40
1.0
 40
1.0
 10
13.0074818605
 20
7.4287177834
 30
0.0
 10
13.0084734619
 20
7.428381386
 30
0.0
 10
13.0104841593
 20
7.4278337022
 30
0.0
 10
13.0125495549
 20
7.4275522257
 30
0.0
 10
13.0135776624
 20
7.4274809192
 30
0.0
  0
SPLINE
  5
408
100
AcDbEntity
  8
0
100
AcDbSpline
 62
7
  6
CONTINUOUS
 70
0
 71
3
 72
50
 73
46
 74
0
 42
0.0000001
 43
0.0000001
 44
0.0000000001
 40
0.0
 40
0.0
 40
0.0
 40
0.0
 40
0.0055575475
 40
0.0111779905
 40
0.0169219494
 40
0.022845874
 40
0.0290006802
 40
0.0354311413
 40
0.0421756235
 40
0.0492665445
 40
0.0567306363
 40
0.0645898203
 40
0.072861554
 40
0.081559664
 40
0.0906946644
 40
0.1002743405
 40
0.1103040801
 40
0.1207871571
 40
0.1317251254
 40
0.1431178344
 40
0.1549638891
 40
0.1672604853
 40
0.1800038776
 40
0.1931891613
 40
0.2208606557
 40
0.2502207678
 40
0.2812026806
 40
0.3137298604
 40
0.3477172945
 40
0.3830725052
 40
0.4196964085
 40
0.4574840669
 40
0.4963253675
 40
0.5361056481
 40
0.5767062875
 40
0.6180052701
 40
0.6598777364
 40
0.7021965195
 40
0.744832668
 40
0.7876559879
 40
0.8305354945
 40
0.8733401402
 40
0.9159387341
 40
0.9582019299
 40
1.0
 40
1.0
 40
1.0
 40
1.0
 10
11.3150825904
 20
9.7576838253
 30
0.0
 10
11.3150825842
 20
9.7568526279
 30
0.0
 10
11.3149894774
 20
9.7551793813
 30
0.0
 10
11.3145717758
 20
9.7526784433
 30
0.0
 10
11.3138766748
 20
9.7501830822
 30
0.0
 10
11.3129055216
 20
9.7476962019
 30
0.0
 10
11.3116599552
 20
9.7452197942
 30
0.0
 10
11.310141586
 20
9.7427557983
 30
0.0
 10
11.3083522216
 20
9.7403058474
 30
0.0
 10
11.306293532
 20
9.7378716636
 30
0.0
 10
11.3039674399
 20
9.7354548072
 30
0.0
 10
11.3013758232
 20
9.7330570361
 30
0.0
 10
11.2985208469
 20
9.7306799935
 30
0.0
 10
11.2954047537
 20
9.7283254919
 30
0.0
 10
11.2920300515
 20
9.7259952759
 30
0.0
 10
11.2883994174
 20
9.7236911643
 30
0.0
 10
11.2845157517
 20
9.7214149725
 30
0.0
 10
11.2803821764
 20
9.7191684853
 30
0.0
 10
11.2760020019
 20
9.716953549
 30
0.0
 10
11.2713787813
 20
9.7147718963
 30
0.0
 10
11.2665162362
 20
9.7126253631
 30
0.0
 10
11.2614183304
 20
9.7105156362
 30
0.0
 10
11.2560891845
 20
9.7084444778
 30
0.0
 10
11.2485594298
 20
9.7056921897
 30
0.0
 10
11.2385938862
 20
9.7023714726
 30
0.0
 10
11.2259718754
 20
9.6986276673
 30
0.0
 10
11.2125420534
 20
9.6950758198
 30
0.0
 10
11.1983482484
 20
9.6917276658
 30
0.0
 10
11.1834366492
 20
9.6885943006
 30
0.0
 10
11.1678559342
 20
9.6856860998
 30
0.0
 10
11.1516570061
 20
9.6830126924
 30
0.0
 10
11.1348928373
 20
9.6805829261
 30
0.0
 10
11.1176182794
 20
9.6784048383
 30
0.0
 10
11.0998898797
 20
9.6764856312
 30
0.0
 10
11.0817656891
 20
9.6748316479
 30
0.0
 10
11.063305069
 20
9.6734483527
 30
0.0
 10
11.0445684923
 20
9.672340314
 30
0.0
 10
11.0256173438
 20
9.6715111907
 30
0.0
 10
11.0065137143
 20
9.6709637192
 30
0.0
 10
10.987320204
 20
9.6706997089
 30
0.0
 10
10.9680996897
 20
9.670720026
 30
0.0
 10
10.948915193
 20
9.6710246139
 30
0.0
 10
10.9298294819
 20
9.6716124508
 30
0.0
 10
10.9109052476
 20
9.6724816172
 30
0.0
 10
10.8983558872
 20
9.6732517253
 30
0.0
 10
10.8921194672
 20
9.6736842225
 30
0.0
  0
SPLINE
  5
409
100
AcDbEntity
  8
0
100
AcDbSpline
 62
7
  6
CONTINUOUS
 70
0
 71
3
 72
40
 73
36
 74
0
 42
0.0000001
 43
0.0000001
 44
0.0000000001
 40
0.0
 40
0.0
 40
0.0
 40
0.0
 40
0.0063160423
 40
0.0126709865
 40
0.0191029724
 40
0.0256486827
 40
0.0323427081
 40
0.0392172067
 40
0.0536153583
 40
0.0690524996
 40
0.0856858071
 40
0.1036340937
 40
0.1229841962
 40
0.143797065
 40
0.1661130709
 40
0.1899559871
 40
0.2153360382
 40
0.2422525011
 40
0.2706954866
 40
0.3006471939
 40
0.3320831972
 40
0.3649732978
 40
0.3992820311
 40
0.4349693787
 40
0.4719912661
 40
0.5102997798
 40
0.5498435954
 40
0.5905683418
 40
0.6324167182
 40
0.6753287759
 40
0.7192421939
 40
0.7640923801
 40
0.8098128754
 40
0.9035866165
 40
1.0
 40
1.0
 40
1.0
 40
1.0
 10
12.642592148
 20
7.6770800821
 30
0.0
 10
12.6418484645
 20
7.6771316539
 30
0.0
 10
12.6403600327
 20
7.6772960009
 30
0.0
 10
12.63814406
 20
7.6777243272
 30
0.0
 10
12.6359428957
 20
7.6783344814
 30
0.0
 10
12.6337578422
 20
7.6791260302
 30
0.0
 10
12.6315897501
 20
7.6800984076
 30
0.0
 10
12.6286784736
 20
7.6816589895
 30
0.0
 10
12.6250760213
 20
7.6840889856
 30
0.0
 10
12.620909221
 20
7.6876709658
 30
0.0
 10
12.6168352311
 20
7.6919554972
 30
0.0
 10
12.6128588009
 20
7.6969346867
 30
0.0
 10
12.6089842301
 20
7.7026007368
 30
0.0
 10
12.6052165886
 20
7.7089448966
 30
0.0
 10
12.6015612305
 20
7.7159574316
 30
0.0
 10
12.5980236902
 20
7.7236274242
 30
0.0
 10
12.5946094802
 20
7.7319427569
 30
0.0
 10
12.5913240901
 20
7.7408901673
 30
0.0
 10
12.5881728919
 20
7.750455261
 30
0.0
 10
12.5851610407
 20
7.7606225317
 30
0.0
 10
12.5822935192
 20
7.7713754309
 30
0.0
 10
12.5795751076
 20
7.7826964014
 30
0.0
 10
12.5770103065
 20
7.7945668983
 30
0.0
 10
12.5746033811
 20
7.8069674449
 30
0.0
 10
12.5723583612
 20
7.8198776736
 30
0.0
 10
12.5702789765
 20
7.8332763495
 30
0.0
 10
12.5683686823
 20
7.8471414172
 30
0.0
 10
12.5666306791
 20
7.8614500462
 30
0.0
 10
12.5650678607
 20
7.8761786619
 30
0.0
 10
12.563682817
 20
7.8913029868
 30
0.0
 10
12.5624778755
 20
7.9067980794
 30
0.0
 10
12.5614550221
 20
7.9226384229
 30
0.0
 10
12.5603268791
 20
7.9443674437
 30
0.0
 10
12.5593937361
 20
7.9721982267
 30
0.0
 10
12.5591526497
 20
7.9946464259
 30
0.0
 10
12.5591526497
 20
8.0060259007
 30
0.0
  0
SPLINE
  5
40A
100
AcDbEntity
  8
0
100
AcDbSpline
 62
7
  6
CONTINUOUS
 70
0
 71
3
 72
44
 73
40
 74
0
 42
0.0000001
 43
0.0000001
 44
0.0000000001
 40
0.0
 40
0.0
 40
0.0
 40
0.0
 40
0.0055576246
 40
0.0111781252
 40
0.0169221424
 40
0.0228460823
 40
0.0290009394
 40
0.0354314054
 40
0.0421759115
 40
0.0492668554
 40
0.0567309544
 40
0.064590169
 40
0.0728619349
 40
0.0815600558
 40
0.0906951257
 40
0.1002748158
 40
0.110304631
 40
0.1207877759
 40
0.1317257866
 40
0.1431186256
 40
0.1672598102
 40
0.1931873598
 40
0.2208591117
 40
0.2502195474
 40
0.2812018198
 40
0.3137293806
 40
0.3477172232
 40
0.3830728887
 40
0.4196972996
 40
0.4574854911
 40
0.4963273377
 40
0.5361081807
 40
0.5767094102
 40
0.6180090134
 40
0.6598821151
 40
0.7448359269
 40
0.830537715
 40
0.9159396375
 40
1.0
 40
1.0
 40
1.0
 40
1.0
 10
9.6155986974
 20
10.4327424816
 30
0.0
 10
9.615598693
 20
10.4332446648
 30
0.0
 10
9.6156548961
 20
10.4342555871
 30
0.0
 10
9.6159072043
 20
10.4357665822
 30
0.0
 10
9.6163271432
 20
10.4372741944
 30
0.0
 10
9.6169138029
 20
10.4387767086
 30
0.0
 10
9.6176663245
 20
10.4402728631
 30
0.0
 10
9.6185836122
 20
10.4417615491
 30
0.0
 10
9.6196646571
 20
10.4432417314
 30
0.0
 10
9.6209084135
 20
10.4447123917
 30
0.0
 10
9.6223137215
 20
10.4461725905
 30
0.0
 10
9.6238794612
 20
10.44762125
 30
0.0
 10
9.6256043136
 20
10.4490573862
 30
0.0
 10
9.6274869177
 20
10.4504799186
 30
0.0
 10
9.6295257818
 20
10.4518877512
 30
0.0
 10
9.6317192561
 20
10.4532798446
 30
0.0
 10
9.6340656196
 20
10.4546550449
 30
0.0
 10
9.6365629657
 20
10.4560123028
 30
0.0
 10
9.6392092992
 20
10.4573505318
 30
0.0
 10
9.6430073159
 20
10.4591426945
 30
0.0
 10
9.6481191718
 20
10.4613191362
 30
0.0
 10
9.6546966808
 20
10.4637902098
 30
0.0
 10
9.6618099006
 20
10.4661605974
 30
0.0
 10
9.6694357482
 20
10.4684224892
 30
0.0
 10
9.6775495811
 20
10.4705684177
 30
0.0
 10
9.6861250118
 20
10.4725912799
 30
0.0
 10
9.6951341083
 20
10.4744843758
 30
0.0
 10
9.7045474723
 20
10.4762414328
 30
0.0
 10
9.7143343483
 20
10.47785663
 30
0.0
 10
9.7244627292
 20
10.4793246273
 30
0.0
 10
9.7348994715
 20
10.4806405696
 30
0.0
 10
9.7456104139
 20
10.4818001074
 30
0.0
 10
9.7565604787
 20
10.482799399
 30
0.0
 10
9.7677138307
 20
10.4836351653
 30
0.0
 10
9.7828796502
 20
10.484531966
 30
0.0
 10
9.802074344
 20
10.4852229985
 30
0.0
 10
9.8252143799
 20
10.4853691664
 30
0.0
 10
9.8482678509
 20
10.4848340414
 30
0.0
 10
9.8635614721
 20
10.484018176
 30
0.0
 10
9.8711389093
 20
10.4834926789
 30
0.0
  0
SPLINE
  5
40B
100
AcDbEntity
  8
0
100
AcDbSpline
 62
7
  6
CONTINUOUS
 70
0
 71
3
 72
44
 73
40
 74
0
 42
0.0000001
 43
0.0000001
 44
0.0000000001
 40
0.0
 40
0.0
 40
0.0
 40
0.0
 40
0.0055576246
 40
0.0111781252
 40
0.0169221424
 40
0.0228460823
 40
0.0290009394
 40
0.0354314054
 40
0.0421759115
 40
0.0492668554
 40
0.0567309544
 40
0.064590169
 40
0.0728619349
 40
0.0815600558
 40
0.0906951257
 40
0.1002748158
 40
0.110304631
 40
0.1207877759
 40
0.1317257866
 40
0.1431186256
 40
0.1672598102
 40
0.1931873598
 40
0.2208591117
 40
0.2502195474
 40
0.2812018198
 40
0.3137293806
 40
0.3477172232
 40
0.3830728887
 40
0.4196972996
 40
0.4574854911
 40
0.4963273377
 40
0.5361081807
 40
0.5767094102
 40
0.6180090134
 40
0.6598821151
 40
0.7448359269
 40
0.830537715
 40
0.9159396375
 40
1.0
 40
1.0
 40
1.0
 40
1.0
 10
12.7548578189
 20
10.2150341221
 30
0.0
 10
12.7548578145
 20
10.2155363052
 30
0.0
 10
12.7549140176
 20
10.2165472276
 30
0.0
 10
12.7551663258
 20
10.2180582227
 30
0.0
 10
12.7555862647
 20
10.2195658349
 30
0.0
 10
12.7561729243
 20
10.2210683491
 30
0.0
 10
12.756925446
 20
10.2225645036
 30
0.0
 10
12.7578427336
 20
10.2240531896
 30
0.0
 10
12.7589237785
 20
10.2255333719
 30
0.0
 10
12.7601675349
 20
10.2270040322
 30
0.0
 10
12.761572843
 20
10.228464231
 30
0.0
 10
12.7631385826
 20
10.2299128905
 30
0.0
 10
12.764863435
 20
10.2313490266
 30
0.0
 10
12.7667460391
 20
10.2327715591
 30
0.0
 10
12.7687849032
 20
10.2341793917
 30
0.0
 10
12.7709783775
 20
10.2355714851
 30
0.0
 10
12.773324741
 20
10.2369466854
 30
0.0
 10
12.7758220871
 20
10.2383039433
 30
0.0
 10
12.7784684206
 20
10.2396421723
 30
0.0
 10
12.7822664373
 20
10.241434335
 30
0.0
 10
12.7873782933
 20
10.2436107767
 30
0.0
 10
12.7939558022
 20
10.2460818503
 30
0.0
 10
12.801069022
 20
10.2484522379
 30
0.0
 10
12.8086948697
 20
10.2507141297
 30
0.0
 10
12.8168087026
 20
10.2528600582
 30
0.0
 10
12.8253841333
 20
10.2548829204
 30
0.0
 10
12.8343932298
 20
10.2567760163
 30
0.0
 10
12.8438065938
 20
10.2585330733
 30
0.0
 10
12.8535934698
 20
10.2601482704
 30
0.0
 10
12.8637218507
 20
10.2616162678
 30
0.0
 10
12.8741585929
 20
10.2629322101
 30
0.0
 10
12.8848695354
 20
10.2640917479
 30
0.0
 10
12.8958196002
 20
10.2650910395
 30
0.0
 10
12.9069729522
 20
10.2659268058
 30
0.0
 10
12.9221387716
 20
10.2668236065
 30
0.0
 10
12.9413334655
 20
10.267514639
 30
0.0
 10
12.9644735014
 20
10.2676608069
 30
0.0
 10
12.9875269724
 20
10.2671256819
 30
0.0
 10
13.0028205935
 20
10.2663098165
 30
0.0
 10
13.0103980308
 20
10.2657843194
 30
0.0
  0
SPLINE
  5
40C
100
AcDbEntity
  8
0
100
AcDbSpline
 62
7
  6
CONTINUOUS
 70
0
 71
3
 72
36
 73
32
 74
0
 42
0.0000001
 43
0.0000001
 44
0.0000000001
 40
0.0
 40
0.0
 40
0.0
 40
0.0
 40
0.0958325634
 40
0.1891023555
 40
0.2792432641
 40
0.3657124907
 40
0.4480017797
 40
0.4874318797
 40
0.5256445484
 40
0.5625883581
 40
0.5982156304
 40
0.6324821329
 40
0.6653482299
 40
0.6967786463
 40
0.7267435444
 40
0.7552190339
 40
0.7821878748
 40
0.8076411027
 40
0.8315786922
 40
0.8540122486
 40
0.8749666358
 40
0.8944835825
 40
0.9126254693
 40
0.9294800532
 40
0.9451666526
 40
0.9598414247
 40
0.9737025134
 40
0.9804060178
 40
0.9869995332
 40
0.9935185676
 40
1.0
 40
1.0
 40
1.0
 40
1.0
 10
9.8711389093
 20
10.4834926789
 30
0.0
 10
9.8764262432
 20
10.4831260011
 30
0.0
 10
9.8868518937
 20
10.4822861641
 30
0.0
 10
9.9022135011
 20
10.4806830219
 30
0.0
 10
9.9170168252
 20
10.4787618709
 30
0.0
 10
9.9311630109
 20
10.4765357062
 30
0.0
 10
9.9424811194
 20
10.4744100155
 30
0.0
 10
9.9511308852
 20
10.4725597702
 30
0.0
 10
9.957304028
 20
10.4711254537
 30
0.0
 10
9.9632453103
 20
10.4696271659
 30
0.0
 10
9.9689448433
 20
10.4680674442
 30
0.0
 10
9.9743931312
 20
10.4664488666
 30
0.0
 10
9.9795811233
 20
10.4647741984
 30
0.0
 10
9.9845002069
 20
10.4630462153
 30
0.0
 10
9.9891422422
 20
10.4612678235
 30
0.0
 10
9.9934995766
 20
10.4594420032
 30
0.0
 10
9.9975650452
 20
10.4575717456
 30
0.0
 10
10.0013320322
 20
10.4556601845
 30
0.0
 10
10.0047944156
 20
10.4537103535
 30
0.0
 10
10.0079466689
 20
10.451725408
 30
0.0
 10
10.0107837741
 20
10.4497083499
 30
0.0
 10
10.0133012636
 20
10.4476621336
 30
0.0
 10
10.0154951649
 20
10.4455895333
 30
0.0
 10
10.0173617826
 20
10.4434930657
 30
0.0
 10
10.0188976983
 20
10.4413749778
 30
0.0
 10
10.0200990958
 20
10.439237851
 30
0.0
 10
10.0208263174
 20
10.4374222486
 30
0.0
 10
10.0212286329
 20
10.4359739029
 30
0.0
 10
10.0214420522
 20
10.4348978229
 30
0.0
 10
10.0215701709
 20
10.4338207257
 30
0.0
 10
10.0215986726
 20
10.4331014105
 30
0.0
 10
10.0215986757
 20
10.432742954
 30
0.0
  0
SPLINE
  5
40D
100
AcDbEntity
  8
0
100
AcDbSpline
 62
7
  6
CONTINUOUS
 70
0
 71
3
 72
36
 73
32
 74
0
 42
0.0000001
 43
0.0000001
 44
0.0000000001
 40
0.0
 40
0.0
 40
0.0
 40
0.0
 40
0.0958325634
 40
0.1891023555
 40
0.2792432641
 40
0.3657124907
 40
0.4480017797
 40
0.4874318797
 40
0.5256445484
 40
0.5625883581
 40
0.5982156304
 40
0.6324821329
 40
0.6653482299
 40
0.6967786463
 40
0.7267435444
 40
0.7552190339
 40
0.7821878748
 40
0.8076411027
 40
0.8315786922
 40
0.8540122486
 40
0.8749666358
 40
0.8944835825
 40
0.9126254693
 40
0.9294800532
 40
0.9451666526
 40
0.9598414247
 40
0.9737025134
 40
0.9804060178
 40
0.9869995332
 40
0.9935185676
 40
1.0
 40
1.0
 40
1.0
 40
1.0
 10
13.0103980308
 20
10.2657843194
 30
0.0
 10
13.0156853646
 20
10.2654176415
 30
0.0
 10
13.0261110152
 20
10.2645778045
 30
0.0
 10
13.0414726226
 20
10.2629746624
 30
0.0
 10
13.0562759466
 20
10.2610535114
 30
0.0
 10
13.0704221324
 20
10.2588273467
 30
0.0
 10
13.0817402409
 20
10.256701656
 30
0.0
 10
13.0903900066
 20
10.2548514107
 30
0.0
 10
13.0965631494
 20
10.2534170942
 30
0.0
 10
13.1025044317
 20
10.2519188064
 30
0.0
 10
13.1082039647
 20
10.2503590847
 30
0.0
 10
13.1136522527
 20
10.2487405071
 30
0.0
 10
13.1188402448
 20
10.2470658389
 30
0.0
 10
13.1237593284
 20
10.2453378558
 30
0.0
 10
13.1284013636
 20
10.243559464
 30
0.0
 10
13.1327586981
 20
10.2417336437
 30
0.0
 10
13.1368241667
 20
10.239863386
 30
0.0
 10
13.1405911536
 20
10.237951825
 30
0.0
 10
13.1440535371
 20
10.2360019939
 30
0.0
 10
13.1472057904
 20
10.2340170485
 30
0.0
 10
13.1500428956
 20
10.2319999904
 30
0.0
 10
13.152560385
 20
10.2299537741
 30
0.0
 10
13.1547542863
 20
10.2278811738
 30
0.0
 10
13.156620904
 20
10.2257847062
 30
0.0
 10
13.1581568198
 20
10.2236666183
 30
0.0
 10
13.1593582173
 20
10.2215294915
 30
0.0
 10
13.1600854389
 20
10.2197138891
 30
0.0
 10
13.1604877544
 20
10.2182655434
 30
0.0
 10
13.1607011736
 20
10.2171894634
 30
0.0
 10
13.1608292923
 20
10.2161123662
 30
0.0
 10
13.160857794
 20
10.215393051
 30
0.0
 10
13.1608577971
 20
10.2150345945
 30
0.0
  0
SPLINE
  5
40E
100
AcDbEntity
  8
0
100
AcDbSpline
 62
7
  6
CONTINUOUS
 70
0
 71
3
 72
53
 73
49
 74
0
 42
0.0000001
 43
0.0000001
 44
0.0000000001
 40
0.0
 40
0.0
 40
0.0
 40
0.0
 40
0.0417740113
 40
0.0840369498
 40
0.1266584959
 40
0.1695064843
 40
0.2124480935
 40
0.2553500426
 40
0.298079237
 40
0.3405032536
 40
0.382490879
 40
0.4239126346
 40
0.4646413116
 40
0.5045525112
 40
0.543525196
 40
0.5814422576
 40
0.6181911067
 40
0.6536642972
 40
0.6877601986
 40
0.720383738
 40
0.7361160079
 40
0.7514479787
 40
0.7663699923
 40
0.7808730391
 40
0.7949486907
 40
0.8085892839
 40
0.8217878242
 40
0.8345382246
 40
0.8468351953
 40
0.858674535
 40
0.8700530305
 40
0.8809687964
 40
0.8914212207
 40
0.9014113515
 40
0.9109419335
 40
0.9200178526
 40
0.9286463131
 40
0.9368373658
 40
0.9446042772
 40
0.9519641672
 40
0.9589385932
 40
0.9655542738
 40
0.9718437889
 40
0.9778461802
 40
0.9836073652
 40
0.9891800467
 40
0.99462308
 40
1.0
 40
1.0
 40
1.0
 40
1.0
 10
13.2476107415
 20
9.3954698039
 30
0.0
 10
13.2476107415
 20
9.3843695632
 30
0.0
 10
13.2474375659
 20
9.3620388146
 30
0.0
 10
13.2466719884
 20
9.3283905062
 30
0.0
 10
13.2454013177
 20
9.2944718505
 30
0.0
 10
13.2436297192
 20
9.2603951268
 30
0.0
 10
13.2413630474
 20
9.226273078
 30
0.0
 10
13.2386087945
 20
9.1922185885
 30
0.0
 10
13.2353760844
 20
9.1583443254
 30
0.0
 10
13.2316756336
 20
9.1247623526
 30
0.0
 10
13.2275197194
 20
9.0915837614
 30
0.0
 10
13.2229221388
 20
9.0589182985
 30
0.0
 10
13.2178981635
 20
9.0268740004
 30
0.0
 10
13.2124644909
 20
8.9955568307
 30
0.0
 10
13.2066391894
 20
8.9650703261
 30
0.0
 10
13.2004416404
 20
8.935515241
 30
0.0
 10
13.1938924734
 20
8.9069892263
 30
0.0
 10
13.1870135077
 20
8.8795864176
 30
0.0
 10
13.1798276456
 20
8.85339738
 30
0.0
 10
13.1735299293
 20
8.8324102206
 30
0.0
 10
13.1683459944
 20
8.81630009
 30
0.0
 10
13.1644434263
 20
8.8047200692
 30
0.0
 10
13.160482413
 20
8.7935057205
 30
0.0
 10
13.1564662459
 20
8.7826662847
 30
0.0
 10
13.1523982182
 20
8.7722107132
 30
0.0
 10
13.1482817488
 20
8.7621476157
 30
0.0
 10
13.1441201902
 20
8.7524852925
 30
0.0
 10
13.1399170487
 20
8.7432316796
 30
0.0
 10
13.1356757299
 20
8.7343943982
 30
0.0
 10
13.1313998055
 20
8.7259806787
 30
0.0
 10
13.1270927209
 20
8.7179974332
 30
0.0
 10
13.1227580858
 20
8.7104511569
 30
0.0
 10
13.1183993662
 20
8.7033480243
 30
0.0
 10
13.1140201733
 20
8.6966937705
 30
0.0
 10
13.1096239633
 20
8.6904938081
 30
0.0
 10
13.105214297
 20
8.684753098
 30
0.0
 10
13.1007945725
 20
8.6794762807
 30
0.0
 10
13.0963682275
 20
8.6746675586
 30
0.0
 10
13.0919385322
 20
8.6703308316
 30
0.0
 10
13.0875087167
 20
8.6664696283
 30
0.0
 10
13.0830818604
 20
8.6630872348
 30
0.0
 10
13.078660961
 20
8.6601867246
 30
0.0
 10
13.0742489877
 20
8.6577710404
 30
0.0
 10
13.0698489472
 20
8.655843133
 30
0.0
 10
13.0654642399
 20
8.6544058411
 30
0.0
 10
13.0610984696
 20
8.6534620089
 30
0.0
 10
13.0567569465
 20
8.6530138325
 30
0.0
 10
13.0538745378
 20
8.653046747
 30
0.0
 10
13.0524491993
 20
8.6531455911
 30
0.0
  0
SPLINE
  5
40F
100
AcDbEntity
  8
0
100
AcDbSpline
 62
7
  6
CONTINUOUS
 70
0
 71
3
 72
53
 73
49
 74
0
 42
0.0000001
 43
0.0000001
 44
0.0000000001
 40
0.0
 40
0.0
 40
0.0
 40
0.0
 40
0.0417740113
 40
0.0840369498
 40
0.1266584959
 40
0.1695064843
 40
0.2124480935
 40
0.2553500426
 40
0.298079237
 40
0.3405032536
 40
0.382490879
 40
0.4239126346
 40
0.4646413116
 40
0.5045525112
 40
0.543525196
 40
0.5814422576
 40
0.6181911067
 40
0.6536642972
 40
0.6877601986
 40
0.720383738
 40
0.7361160079
 40
0.7514479787
 40
0.7663699923
 40
0.7808730391
 40
0.7949486907
 40
0.8085892839
 40
0.8217878242
 40
0.8345382246
 40
0.8468351953
 40
0.858674535
 40
0.8700530305
 40
0.8809687964
 40
0.8914212207
 40
0.9014113515
 40
0.9109419335
 40
0.9200178526
 40
0.9286463131
 40
0.9368373658
 40
0.9446042772
 40
0.9519641672
 40
0.9589385932
 40
0.9655542738
 40
0.9718437889
 40
0.9778461802
 40
0.9836073652
 40
0.9891800467
 40
0.99462308
 40
1.0
 40
1.0
 40
1.0
 40
1.0
 10
13.2476107415
 20
7.9465809786
 30
0.0
 10
13.2476107415
 20
7.9354807379
 30
0.0
 10
13.2474375659
 20
7.9131499893
 30
0.0
 10
13.2466719884
 20
7.8795016809
 30
0.0
 10
13.2454013177
 20
7.8455830252
 30
0.0
 10
13.2436297192
 20
7.8115063015
 30
0.0
 10
13.2413630474
 20
7.7773842528
 30
0.0
 10
13.2386087945
 20
7.7433297632
 30
0.0
 10
13.2353760844
 20
7.7094555001
 30
0.0
 10
13.2316756336
 20
7.6758735274
 30
0.0
 10
13.2275197194
 20
7.6426949361
 30
0.0
 10
13.2229221388
 20
7.6100294732
 30
0.0
 10
13.2178981635
 20
7.5779851751
 30
0.0
 10
13.2124644909
 20
7.5466680054
 30
0.0
 10
13.2066391894
 20
7.5161815008
 30
0.0
 10
13.2004416404
 20
7.4866264157
 30
0.0
 10
13.1938924734
 20
7.458100401
 30
0.0
 10
13.1870135077
 20
7.4306975923
 30
0.0
 10
13.1798276456
 20
7.4045085547
 30
0.0
 10
13.1735299293
 20
7.3835213953
 30
0.0
 10
13.1683459944
 20
7.3674112647
 30
0.0
 10
13.1644434263
 20
7.3558312439
 30
0.0
 10
13.160482413
 20
7.3446168952
 30
0.0
 10
13.1564662459
 20
7.3337774594
 30
0.0
 10
13.1523982182
 20
7.3233218879
 30
0.0
 10
13.1482817488
 20
7.3132587904
 30
0.0
 10
13.1441201902
 20
7.3035964672
 30
0.0
 10
13.1399170487
 20
7.2943428543
 30
0.0
 10
13.1356757299
 20
7.2855055729
 30
0.0
 10
13.1313998055
 20
7.2770918534
 30
0.0
 10
13.1270927209
 20
7.2691086079
 30
0.0
 10
13.1227580858
 20
7.2615623316
 30
0.0
 10
13.1183993662
 20
7.254459199
 30
0.0
 10
13.1140201733
 20
7.2478049452
 30
0.0
 10
13.1096239633
 20
7.2416049828
 30
0.0
 10
13.105214297
 20
7.2358642727
 30
0.0
 10
13.1007945725
 20
7.2305874554
 30
0.0
 10
13.0963682275
 20
7.2257787334
 30
0.0
 10
13.0919385322
 20
7.2214420063
 30
0.0
 10
13.0875087167
 20
7.217580803
 30
0.0
 10
13.0830818604
 20
7.2141984096
 30
0.0
 10
13.078660961
 20
7.2112978993
 30
0.0
 10
13.0742489877
 20
7.2088822151
 30
0.0
 10
13.0698489472
 20
7.2069543078
 30
0.0
 10
13.0654642399
 20
7.2055170158
 30
0.0
 10
13.0610984696
 20
7.2045731836
 30
0.0
 10
13.0567569465
 20
7.2041250072
 30
0.0
 10
13.0538745378
 20
7.2041579218
 30
0.0
 10
13.0524491993
 20
7.2042567658
 30
0.0
  0
SPLINE
  5
410
100
AcDbEntity
  8
0
100
AcDbSpline
 62
7
  6
CONTINUOUS
 70
0
 71
3
 72
39
 73
35
 74
0
 42
0.0000001
 43
0.0000001
 44
0.0000000001
 40
0.0
 40
0.0
 40
0.0
 40
0.0
 40
0.0958316692
 40
0.1891006713
 40
0.2792405779
 40
0.3229673496
 40
0.365711151
 40
0.4074094009
 40
0.44800203
 40
0.4874317177
 40
0.5256439125
 40
0.5625873001
 40
0.5982141024
 40
0.6324802019
 40
0.6653458058
 40
0.6967758253
 40
0.7267402733
 40
0.755215278
 40
0.7821837659
 40
0.8076364736
 40
0.8315736893
 40
0.8540068195
 40
0.8749607761
 40
0.8944773435
 40
0.9126188304
 40
0.9294730678
 40
0.9451592994
 40
0.9598338091
 40
0.9668558277
 40
0.9737028614
 40
0.9804062769
 40
0.9869996865
 40
0.993518631
 40
1.0
 40
1.0
 40
1.0
 40
1.0
 10
11.066045722
 20
9.8416840938
 30
0.0
 10
11.074797226
 20
9.841077175
 30
0.0
 10
11.0920536103
 20
9.8396870929
 30
0.0
 10
11.1174797842
 20
9.837033573
 30
0.0
 10
11.1381017175
 20
9.8343573956
 30
0.0
 10
11.1540887717
 20
9.8319483651
 30
0.0
 10
11.1656649815
 20
9.8300358977
 30
0.0
 10
11.176929194
 20
9.8280027246
 30
0.0
 10
11.1878626095
 20
9.8258522335
 30
0.0
 10
11.1984469718
 20
9.82358807
 30
0.0
 10
11.2086646143
 20
9.8212140196
 30
0.0
 10
11.2184984946
 20
9.8187340761
 30
0.0
 10
11.2279322283
 20
9.8161524309
 30
0.0
 10
11.2369501048
 20
9.8134733977
 30
0.0
 10
11.2455371346
 20
9.8107014862
 30
0.0
 10
11.2536790746
 20
9.8078413651
 30
0.0
 10
11.2613624399
 20
9.8048977914
 30
0.0
 10
11.2685745631
 20
9.8018756957
 30
0.0
 10
11.2753036091
 20
9.7987801048
 30
0.0
 10
11.2815385822
 20
9.7956160741
 30
0.0
 10
11.2872694008
 20
9.7923887652
 30
0.0
 10
11.2924868827
 20
9.7891033013
 30
0.0
 10
11.2971827254
 20
9.7857646906
 30
0.0
 10
11.3013495606
 20
9.7823778203
 30
0.0
 10
11.3049807585
 20
9.7789473101
 30
0.0
 10
11.308070319
 20
9.7754771421
 30
0.0
 10
11.3106122733
 20
9.7719717619
 30
0.0
 10
11.3122936363
 20
9.7689801348
 30
0.0
 10
11.3133417189
 20
9.7665847174
 30
0.0
 10
11.3139762738
 20
9.7648099088
 30
0.0
 10
11.3144703104
 20
9.7630316095
 30
0.0
 10
11.3148234533
 20
9.7612505349
 30
0.0
 10
11.3150354283
 20
9.7594677282
 30
0.0
 10
11.3150825948
 20
9.758277136
 30
0.0
 10
11.3150825904
 20
9.7576838253
 30
0.0
  0
SPLINE
  5
411
100
AcDbEntity
  8
0
100
AcDbSpline
 62
7
  6
CONTINUOUS
 70
0
 71
3
 72
50
 73
46
 74
0
 42
0.0000001
 43
0.0000001
 44
0.0000000001
 40
0.0
 40
0.0
 40
0.0
 40
0.0
 40
0.0417744591
 40
0.0840381198
 40
0.1266601534
 40
0.1695087396
 40
0.2124509082
 40
0.2553534299
 40
0.2980831906
 40
0.3405077712
 40
0.3824959546
 40
0.4239182613
 40
0.4646474805
 40
0.5045592119
 40
0.5435324166
 40
0.5814499846
 40
0.6181993253
 40
0.6536729913
 40
0.6877693505
 40
0.7203933294
 40
0.751457256
 40
0.7808818522
 40
0.7949577198
 40
0.8085984755
 40
0.8217972213
 40
0.8345477729
 40
0.8468449369
 40
0.8586844179
 40
0.8700630925
 40
0.8809789914
 40
0.8914315785
 40
0.9014218354
 40
0.9109525628
 40
0.9200286018
 40
0.9286571898
 40
0.9368483568
 40
0.9446153781
 40
0.9519753766
 40
0.9589498962
 40
0.965565679
 40
0.9778458808
 40
0.9836071375
 40
0.9891799038
 40
0.9946230061
 40
1.0
 40
1.0
 40
1.0
 40
1.0
 10
12.7869132214
 20
8.2260257322
 30
0.0
 10
12.7869132214
 20
8.2178171744
 30
0.0
 10
12.7867851568
 20
8.2013036742
 30
0.0
 10
12.7862190211
 20
8.1764209041
 30
0.0
 10
12.7852793609
 20
8.151338187
 30
0.0
 10
12.7839692755
 20
8.1261386127
 30
0.0
 10
12.7822930807
 20
8.100905505
 30
0.0
 10
12.7802563244
 20
8.0757223626
 30
0.0
 10
12.7778657502
 20
8.0506724949
 30
0.0
 10
12.7751292842
 20
8.0258387749
 30
0.0
 10
12.772056005
 20
8.0013033533
 30
0.0
 10
12.7686561154
 20
7.9771473877
 30
0.0
 10
12.764940909
 20
7.9534507704
 30
0.0
 10
12.7609227332
 20
7.9302918611
 30
0.0
 10
12.7566149497
 20
7.9077472242
 30
0.0
 10
12.7520318906
 20
7.8858913693
 30
0.0
 10
12.7471888124
 20
7.8647965003
 30
0.0
 10
12.7421018464
 20
7.8445322605
 30
0.0
 10
12.7367879435
 20
7.8251655144
 30
0.0
 10
12.7312648231
 20
7.8067600237
 30
0.0
 10
12.7255508893
 20
7.7893765143
 30
0.0
 10
12.7205753814
 20
7.7755927914
 30
0.0
 10
12.7165040277
 20
7.7651283607
 30
0.0
 10
12.7134598761
 20
7.7576867407
 30
0.0
 10
12.7103824508
 20
7.7505414876
 30
0.0
 10
12.7072742217
 20
7.7436984833
 30
0.0
 10
12.7041378097
 20
7.7371633422
 30
0.0
 10
12.7009757599
 20
7.7309414362
 30
0.0
 10
12.6977907123
 20
7.7250378494
 30
0.0
 10
12.6945852489
 20
7.719457414
 30
0.0
 10
12.6913620138
 20
7.7142046662
 30
0.0
 10
12.6881236045
 20
7.7092838769
 30
0.0
 10
12.6848726399
 20
7.7046990197
 30
0.0
 10
12.6816117025
 20
7.7004537901
 30
0.0
 10
12.6783433389
 20
7.6965515957
 30
0.0
 10
12.675070086
 20
7.6929955681
 30
0.0
 10
12.6717943034
 20
7.6897885525
 30
0.0
 10
12.6685186216
 20
7.6869332686
 30
0.0
 10
12.6652444841
 20
7.6844317621
 30
0.0
 10
12.6609923044
 20
7.6816415721
 30
0.0
 10
12.6566326826
 20
7.6794594847
 30
0.0
 10
12.6522168216
 20
7.6780121405
 30
0.0
 10
12.6489882223
 20
7.6773140579
 30
0.0
 10
12.6457777159
 20
7.6769826992
 30
0.0
 10
12.6436461801
 20
7.6770069886
 30
0.0
 10
12.642592148
 20
7.6770800821
 30
0.0
  0
SPLINE
  5
412
100
AcDbEntity
  8
0
100
AcDbSpline
 62
7
  6
CONTINUOUS
 70
0
 71
3
 72
47
 73
43
 74
0
 42
0.0000001
 43
0.0000001
 44
0.0000000001
 40
0.0
 40
0.0
 40
0.0
 40
0.0
 40
0.0063158967
 40
0.0126706977
 40
0.0191025471
 40
0.0256480963
 40
0.0323419829
 40
0.0392163382
 40
0.053614168
 40
0.0611948929
 40
0.0690566412
 40
0.077217773
 40
0.0856941569
 40
0.0944995551
 40
0.1036456891
 40
0.1131424521
 40
0.122998232
 40
0.1332198706
 40
0.1438129644
 40
0.1547820179
 40
0.1661303832
 40
0.1899727563
 40
0.2153522396
 40
0.2422681077
 40
0.2707104459
 40
0.3006614883
 40
0.3320967939
 40
0.3649861265
 40
0.3992940928
 40
0.4349806571
 40
0.4720016811
 40
0.5103093127
 40
0.5498522596
 40
0.5905760756
 40
0.6324234754
 40
0.6753345639
 40
0.7192469999
 40
0.7640961586
 40
0.8098155359
 40
0.8563366993
 40
0.9035889296
 40
1.0
 40
1.0
 40
1.0
 40
1.0
 10
13.1347778742
 20
9.8402942446
 30
0.0
 10
13.1357835364
 20
9.8402245042
 30
0.0
 10
13.1377963041
 20
9.8400022883
 30
0.0
 10
13.1407929029
 20
9.8394230595
 30
0.0
 10
13.1437694633
 20
9.8385979182
 30
0.0
 10
13.1467242639
 20
9.8375275819
 30
0.0
 10
13.1496561256
 20
9.8362126079
 30
0.0
 10
13.1535928291
 20
9.8341023386
 30
0.0
 10
13.1574226331
 20
9.8315190546
 30
0.0
 10
13.1611289008
 20
9.8285254216
 30
0.0
 10
13.163928392
 20
9.8260014399
 30
0.0
 10
13.1666979699
 20
9.8232389185
 30
0.0
 10
13.1694369807
 20
9.8202388773
 30
0.0
 10
13.1721442717
 20
9.8170025818
 30
0.0
 10
13.1748188527
 20
9.8135313546
 30
0.0
 10
13.1774597258
 20
9.8098266341
 30
0.0
 10
13.1800658118
 20
9.8058898878
 30
0.0
 10
13.1826361293
 20
9.8017227375
 30
0.0
 10
13.1851696507
 20
9.7973268723
 30
0.0
 10
13.1876653554
 20
9.7927040485
 30
0.0
 10
13.19099615
 20
9.7861316269
 30
0.0
 10
13.1950465599
 20
9.7773493337
 30
0.0
 10
13.1996634765
 20
9.7661048925
 30
0.0
 10
13.2041062181
 20
9.7540055041
 30
0.0
 10
13.2083674981
 20
9.7410709023
 30
0.0
 10
13.2124403366
 20
9.727321973
 30
0.0
 10
13.2163179976
 20
9.7127811222
 30
0.0
 10
13.2199940404
 20
9.697472088
 30
0.0
 10
13.2234623447
 20
9.6814199394
 30
0.0
 10
13.2267171506
 20
9.6646510182
 30
0.0
 10
13.2297530368
 20
9.647192876
 30
0.0
 10
13.2325649353
 20
9.6290742188
 30
0.0
 10
13.2351481585
 20
9.6103248675
 30
0.0
 10
13.2374984121
 20
9.590975705
 30
0.0
 10
13.2396117785
 20
9.5710586107
 30
0.0
 10
13.2414847255
 20
9.5506064058
 30
0.0
 10
13.2431141322
 20
9.529652815
 30
0.0
 10
13.2444972955
 20
9.5082323822
 30
0.0
 10
13.2456318961
 20
9.4863804422
 30
0.0
 10
13.2465160478
 20
9.4641330555
 30
0.0
 10
13.247364597
 20
9.4337891738
 30
0.0
 10
13.2476107415
 20
9.410857933
 30
0.0
 10
13.2476107415
 20
9.3954698039
 30
0.0
  0
SPLINE
  5
413
100
AcDbEntity
  8
0
100
AcDbSpline
 62
7
  6
CONTINUOUS
 70
0
 71
3
 72
41
 73
37
 74
0
 42
0.0000001
 43
0.0000001
 44
0.0000000001
 40
0.0
 40
0.0
 40
0.0
 40
0.0
 40
0.006334968
 40
0.0127951175
 40
0.0194103025
 40
0.026208152
 40
0.0404440498
 40
0.0556821039
 40
0.0720573042
 40
0.0807062493
 40
0.0896755725
 40
0.0989740311
 40
0.1086089145
 40
0.1289092012
 40
0.150615177
 40
0.173748721
 40
0.1983199057
 40
0.224329151
 40
0.2517688287
 40
0.2806243369
 40
0.3108751068
 40
0.3424954441
 40
0.3754550283
 40
0.4097193742
 40
0.4452503629
 40
0.4820065292
 40
0.5199432612
 40
0.5590131824
 40
0.5991663669
 40
0.6403504322
 40
0.682510825
 40
0.725590998
 40
0.7695324668
 40
0.8142752046
 40
0.9059138908
 40
1.0
 40
1.0
 40
1.0
 40
1.0
 10
13.1271374695
 20
9.839984274
 30
0.0
 10
13.1280934525
 20
9.8397108082
 30
0.0
 10
13.1300041493
 20
9.8390853446
 30
0.0
 10
13.1328256659
 20
9.8379297084
 30
0.0
 10
13.1356257025
 20
9.8365494891
 30
0.0
 10
13.1393859669
 20
9.83437771
 30
0.0
 10
13.144037018
 20
9.8310693809
 30
0.0
 10
13.1494214933
 20
9.8262774477
 30
0.0
 10
13.1537313681
 20
9.8216437152
 30
0.0
 10
13.1571245113
 20
9.8175248712
 30
0.0
 10
13.159685485
 20
9.8141634439
 30
0.0
 10
13.1622152669
 20
9.8105873936
 30
0.0
 10
13.1656047226
 20
9.8054449417
 30
0.0
 10
13.1697471032
 20
9.7984720909
 30
0.0
 10
13.1744953618
 20
9.7894127607
 30
0.0
 10
13.1790975574
 20
9.7795340131
 30
0.0
 10
13.1835469551
 20
9.7688505799
 30
0.0
 10
13.1878370223
 20
9.7573780737
 30
0.0
 10
13.1919612994
 20
9.7451335163
 30
0.0
 10
13.1959135684
 20
9.732135163
 30
0.0
 10
13.1996878372
 20
9.7184024926
 30
0.0
 10
13.2032783334
 20
9.7039561349
 30
0.0
 10
13.2066795656
 20
9.6888178536
 30
0.0
 10
13.20988635
 20
9.6730105041
 30
0.0
 10
13.212893768
 20
9.6565579743
 30
0.0
 10
13.2156971976
 20
9.6394851521
 30
0.0
 10
13.2182923642
 20
9.6218178934
 30
0.0
 10
13.2206752915
 20
9.6035829647
 30
0.0
 10
13.2228423097
 20
9.5848080017
 30
0.0
 10
13.2247901124
 20
9.5655214744
 30
0.0
 10
13.2265157232
 20
9.5457526354
 30
0.0
 10
13.2280164741
 20
9.5255314829
 30
0.0
 10
13.2292900994
 20
9.5048886605
 30
0.0
 10
13.2306938606
 20
9.4766196945
 30
0.0
 10
13.231855419
 20
9.4404612651
 30
0.0
 10
13.2321559266
 20
9.4113092178
 30
0.0
 10
13.2321559266
 20
9.396541599
 30
0.0
  0
SPLINE
  5
414
100
AcDbEntity
  8
0
100
AcDbSpline
 62
7
  6
CONTINUOUS
 70
0
 71
3
 72
54
 73
50
 74
0
 42
0.0000001
 43
0.0000001
 44
0.0000000001
 40
0.0
 40
0.0
 40
0.0
 40
0.0
 40
0.0095825953
 40
0.0187371537
 40
0.0274870243
 40
0.035859807
 40
0.0515982317
 40
0.0590560536
 40
0.0662988366
 40
0.0733800607
 40
0.0803573583
 40
0.0872911985
 40
0.0942432848
 40
0.1012747896
 40
0.1084446854
 40
0.1158082997
 40
0.1234162585
 40
0.1313140244
 40
0.1395414975
 40
0.1481333348
 40
0.1571191521
 40
0.1665238956
 40
0.1763685401
 40
0.1866702341
 40
0.1974430336
 40
0.2086981775
 40
0.220444339
 40
0.2326882258
 40
0.2454344676
 40
0.2586861416
 40
0.2724448681
 40
0.286710824
 40
0.3014832095
 40
0.3325367855
 40
0.3655807006
 40
0.4005754523
 40
0.4374706589
 40
0.4762065926
 40
0.516715338
 40
0.558921716
 40
0.6027440096
 40
0.6480946346
 40
0.6948807674
 40
0.7430047955
 40
0.7923648274
 40
0.8428552681
 40
0.8943660075
 40
0.9467870937
 40
1.0
 40
1.0
 40
1.0
 40
1.0
 10
13.0791729438
 20
9.6496127344
 30
0.0
 10
13.0800266149
 20
9.650407237
 30
0.0
 10
13.0817331891
 20
9.6519213838
 30
0.0
 10
13.0843515472
 20
9.6540057739
 30
0.0
 10
13.0869674941
 20
9.655849152
 30
0.0
 10
13.0903784151
 20
9.657940019
 30
0.0
 10
13.0938581936
 20
9.6596096042
 30
0.0
 10
13.0973750004
 20
9.6607855886
 30
0.0
 10
13.0999561083
 20
9.6614052953
 30
0.0
 10
13.1025254357
 20
9.6617772314
 30
0.0
 10
13.1050811667
 20
9.6619008499
 30
0.0
 10
13.1076211693
 20
9.6617758849
 30
0.0
 10
13.1101432901
 20
9.6614022884
 30
0.0
 10
13.1126454502
 20
9.6607806396
 30
0.0
 10
13.1151257077
 20
9.6599116455
 30
0.0
 10
13.1175823319
 20
9.6587963366
 30
0.0
 10
13.1200138467
 20
9.657435937
 30
0.0
 10
13.1224188423
 20
9.6558315907
 30
0.0
 10
13.1247961401
 20
9.6539846704
 30
0.0
 10
13.1271445235
 20
9.6518964446
 30
0.0
 10
13.1294628211
 20
9.6495682849
 30
0.0
 10
13.1317499204
 20
9.6470016736
 30
0.0
 10
13.1340045699
 20
9.6441980885
 30
0.0
 10
13.1362256469
 20
9.6411592253
 30
0.0
 10
13.1384119177
 20
9.6378868269
 30
0.0
 10
13.1405621594
 20
9.6343827867
 30
0.0
 10
13.1426752165
 20
9.6306491614
 30
0.0
 10
13.1447498136
 20
9.62668809
 30
0.0
 10
13.1467848119
 20
9.6225019071
 30
0.0
 10
13.148779008
 20
9.618093049
 30
0.0
 10
13.1507312066
 20
9.6134640974
 30
0.0
 10
13.152640339
 20
9.6086177776
 30
0.0
 10
13.1551689892
 20
9.6017552355
 30
0.0
 10
13.1582027031
 20
9.5926460941
 30
0.0
 10
13.1615959803
 20
9.5810716602
 30
0.0
 10
13.1647920336
 20
9.5687057226
 30
0.0
 10
13.1677832039
 20
9.55557751
 30
0.0
 10
13.1705622887
 20
9.5417179021
 30
0.0
 10
13.1731225871
 20
9.5271596587
 30
0.0
 10
13.1754579156
 20
9.5119372335
 30
0.0
 10
13.1775626412
 20
9.4960867143
 30
0.0
 10
13.1794316907
 20
9.4796457142
 30
0.0
 10
13.1810605524
 20
9.4626532747
 30
0.0
 10
13.1824452938
 20
9.4451497627
 30
0.0
 10
13.1835825691
 20
9.4271767539
 30
0.0
 10
13.1844696157
 20
9.4087770609
 30
0.0
 10
13.1851043347
 20
9.3899942239
 30
0.0
 10
13.1854851163
 20
9.3708732027
 30
0.0
 10
13.1855685369
 20
9.3580175536
 30
0.0
 10
13.1855685369
 20
9.3515416334
 30
0.0
  0
SPLINE
  5
415
100
AcDbEntity
  8
0
100
AcDbSpline
 62
7
  6
CONTINUOUS
 70
0
 71
3
 72
39
 73
35
 74
0
 42
0.0000001
 43
0.0000001
 44
0.0000000001
 40
0.0
 40
0.0
 40
0.0
 40
0.0
 40
0.0063160494
 40
0.0126710015
 40
0.0191030109
 40
0.0256487339
 40
0.0323427721
 40
0.039217307
 40
0.0536154974
 40
0.0690527072
 40
0.0856860748
 40
0.1036344292
 40
0.1229846028
 40
0.1437975254
 40
0.166113625
 40
0.1899566025
 40
0.2153366968
 40
0.2422532711
 40
0.2706963053
 40
0.3006480482
 40
0.332084169
 40
0.3649743085
 40
0.3992830754
 40
0.4349705349
 40
0.4719924557
 40
0.5103010057
 40
0.5498449199
 40
0.5905696967
 40
0.6324181156
 40
0.67533026
 40
0.7192436925
 40
0.809812751
 40
0.9035864554
 40
1.0
 40
1.0
 40
1.0
 40
1.0
 10
13.0654657106
 20
9.6245726564
 30
0.0
 10
13.0660995306
 20
9.6245286965
 30
0.0
 10
13.0673680784
 20
9.6243886293
 30
0.0
 10
13.0692566922
 20
9.6240235802
 30
0.0
 10
13.0711326731
 20
9.6235035219
 30
0.0
 10
13.0729949341
 20
9.6228289074
 30
0.0
 10
13.0748427412
 20
9.6220001742
 30
0.0
 10
13.0773239251
 20
9.620670096
 30
0.0
 10
13.0803942049
 20
9.6185990802
 30
0.0
 10
13.0839454367
 20
9.615546224
 30
0.0
 10
13.087417584
 20
9.6118946225
 30
0.0
 10
13.0908065783
 20
9.6076509782
 30
0.0
 10
13.0941087583
 20
9.6028219447
 30
0.0
 10
13.0973198175
 20
9.5974149826
 30
0.0
 10
13.1004351618
 20
9.5914383753
 30
0.0
 10
13.1034501058
 20
9.5849014448
 30
0.0
 10
13.1063599473
 20
9.5778145109
 30
0.0
 10
13.1091599728
 20
9.5701888673
 30
0.0
 10
13.1118456524
 20
9.5620367997
 30
0.0
 10
13.1144125748
 20
9.5533715143
 30
0.0
 10
13.1168564612
 20
9.5442071086
 30
0.0
 10
13.1191732912
 20
9.5345585595
 30
0.0
 10
13.1213592044
 20
9.5244416655
 30
0.0
 10
13.1234105392
 20
9.5138730212
 30
0.0
 10
13.1253239115
 20
9.5028699946
 30
0.0
 10
13.1270961164
 20
9.4914506794
 30
0.0
 10
13.1287241894
 20
9.4796338698
 30
0.0
 10
13.1302054468
 20
9.4674390273
 30
0.0
 10
13.1315373909
 20
9.4548862471
 30
0.0
 10
13.1327178272
 20
9.4419962004
 30
0.0
 10
13.1341012522
 20
9.4242050048
 30
0.0
 10
13.1354266724
 20
9.4012798685
 30
0.0
 10
13.1363733148
 20
9.3730515829
 30
0.0
 10
13.1365787483
 20
9.3539195377
 30
0.0
 10
13.1365787483
 20
9.3442211286
 30
0.0
  0
SPLINE
  5
416
100
AcDbEntity
  8
0
100
AcDbSpline
 62
7
  6
CONTINUOUS
 70
0
 71
3
 72
52
 73
48
 74
0
 42
0.0000001
 43
0.0000001
 44
0.0000000001
 40
0.0
 40
0.0
 40
0.0
 40
0.0
 40
0.0054423575
 40
0.0110552658
 40
0.0168885731
 40
0.0229860413
 40
0.0293852933
 40
0.0361179689
 40
0.043210343
 40
0.0506837961
 40
0.0585555729
 40
0.0668392078
 40
0.0755451979
 40
0.0846812809
 40
0.0942529821
 40
0.1042637521
 40
0.1147154086
 40
0.1256081694
 40
0.1369410189
 40
0.1487116701
 40
0.1609168785
 40
0.1735523579
 40
0.1866130593
 40
0.2000930565
 40
0.2139857999
 40
0.228283985
 40
0.2429797871
 40
0.2580647198
 40
0.289365053
 40
0.3221081108
 40
0.3562092463
 40
0.3915775575
 40
0.4281165762
 40
0.4657248845
 40
0.5042966807
 40
0.5437223105
 40
0.5838887726
 40
0.6246802086
 40
0.6659783797
 40
0.707663136
 40
0.7496128805
 40
0.7917050297
 40
0.8338164699
 40
0.8758240201
 40
0.9176048732
 40
0.9590370936
 40
1.0
 40
1.0
 40
1.0
 40
1.0
 10
13.0450025552
 20
8.6545183808
 30
0.0
 10
13.0464197114
 20
8.6547211874
 30
0.0
 10
13.0492780295
 20
8.6552900709
 30
0.0
 10
13.0535306621
 20
8.6565981275
 30
0.0
 10
13.057799105
 20
8.6583692257
 30
0.0
 10
13.0620795957
 20
8.6606006241
 30
0.0
 10
13.0663694191
 20
8.6632898254
 30
0.0
 10
13.0706658326
 20
8.6664340801
 30
0.0
 10
13.074966027
 20
8.6700307145
 30
0.0
 10
13.0792672361
 20
8.6740767364
 30
0.0
 10
13.0835664669
 20
8.6785690571
 30
0.0
 10
13.0878607784
 20
8.6835041898
 30
0.0
 10
13.0921470081
 20
8.6888784433
 30
0.0
 10
13.0964220789
 20
8.6946877023
 30
0.0
 10
13.1006827257
 20
8.7009275958
 30
0.0
 10
13.1049257979
 20
8.707593335
 30
0.0
 10
13.1091479874
 20
8.7146798546
 30
0.0
 10
13.1133461195
 20
8.722181691
 30
0.0
 10
13.117516885
 20
8.7300930965
 30
0.0
 10
13.1216571186
 20
8.7384079478
 30
0.0
 10
13.1257635384
 20
8.7471198376
 30
0.0
 10
13.1298330123
 20
8.7562220047
 30
0.0
 10
13.1338623055
 20
8.7657074075
 30
0.0
 10
13.1378483359
 20
8.7755686713
 30
0.0
 10
13.1417879326
 20
8.7857981478
 30
0.0
 10
13.145678071
 20
8.7963878722
 30
0.0
 10
13.1495156814
 20
8.8073296257
 30
0.0
 10
13.1546213513
 20
8.8225644617
 30
0.0
 10
13.1608380954
 20
8.8424314179
 30
0.0
 10
13.1679536949
 20
8.8672503194
 30
0.0
 10
13.1747911966
 20
8.8932551535
 30
0.0
 10
13.181329146
 20
8.920364915
 30
0.0
 10
13.1875470112
 20
8.9484952974
 30
0.0
 10
13.1934252827
 20
8.9775587017
 30
0.0
 10
13.1989455236
 20
9.0074645978
 30
0.0
 10
13.2040904293
 20
9.0381197941
 30
0.0
 10
13.2088438796
 20
9.0694287407
 30
0.0
 10
13.2131909878
 20
9.1012938314
 30
0.0
 10
13.2171181469
 20
9.133615712
 30
0.0
 10
13.2206130705
 20
9.1662935935
 30
0.0
 10
13.2236648316
 20
9.1992255696
 30
0.0
 10
13.2262638953
 20
9.2323089356
 30
0.0
 10
13.2284021491
 20
9.265440515
 30
0.0
 10
13.2300729272
 20
9.2985169683
 30
0.0
 10
13.2312710341
 20
9.3314351681
 30
0.0
 10
13.2319927553
 20
9.3640923511
 30
0.0
 10
13.2321559266
 20
9.3857664402
 30
0.0
 10
13.2321559266
 20
9.396541599
 30
0.0
  0
SPLINE
  5
417
100
AcDbEntity
  8
0
100
AcDbSpline
 62
7
  6
CONTINUOUS
 70
0
 71
3
 72
56
 73
52
 74
0
 42
0.0000001
 43
0.0000001
 44
0.0000000001
 40
0.0
 40
0.0
 40
0.0
 40
0.0
 40
0.0079607314
 40
0.0154476017
 40
0.0224993146
 40
0.0291643262
 40
0.0355016677
 40
0.0415815314
 40
0.0474844011
 40
0.0532989482
 40
0.0591182467
 40
0.0650351269
 40
0.0711375735
 40
0.0775051163
 40
0.0842067961
 40
0.0913005878
 40
0.0988338416
 40
0.1068444422
 40
0.1153619516
 40
0.1244090672
 40
0.1340025182
 40
0.1441543014
 40
0.1548721813
 40
0.1661606345
 40
0.1780210773
 40
0.1904525486
 40
0.2034518151
 40
0.2170138249
 40
0.2311318
 40
0.2457974871
 40
0.2610012974
 40
0.2767323845
 40
0.2929788537
 40
0.3097277016
 40
0.3269650874
 40
0.3446761801
 40
0.3814557477
 40
0.4199338823
 40
0.4599665999
 40
0.501400727
 40
0.5440751156
 40
0.5878217651
 40
0.6324668852
 40
0.677831918
 40
0.7237345369
 40
0.7699896234
 40
0.8164102569
 40
0.862808617
 40
0.9089971555
 40
0.9547889703
 40
1.0
 40
1.0
 40
1.0
 40
1.0
 10
13.023697284
 20
8.8496771964
 30
0.0
 10
13.0246803164
 20
8.8484685148
 30
0.0
 10
13.0266632017
 20
8.8461826628
 30
0.0
 10
13.0297899474
 20
8.843076081
 30
0.0
 10
13.0329722851
 20
8.8404043444
 30
0.0
 10
13.0362075781
 20
8.8381711591
 30
0.0
 10
13.0394933599
 20
8.8363803669
 30
0.0
 10
13.0428263404
 20
8.8350357388
 30
0.0
 10
13.0462023476
 20
8.8341411414
 30
0.0
 10
13.04961587
 20
8.8336993292
 30
0.0
 10
13.0530605609
 20
8.833711741
 30
0.0
 10
13.0565299591
 20
8.8341776616
 30
0.0
 10
13.0600183474
 20
8.835094913
 30
0.0
 10
13.063521132
 20
8.8364602956
 30
0.0
 10
13.0670346916
 20
8.8382703899
 30
0.0
 10
13.0705559563
 20
8.8405218613
 30
0.0
 10
13.074082104
 20
8.8432114115
 30
0.0
 10
13.077610182
 20
8.8463358165
 30
0.0
 10
13.081137209
 20
8.8498915595
 30
0.0
 10
13.0846598836
 20
8.8538749536
 30
0.0
 10
13.088174925
 20
8.8582818014
 30
0.0
 10
13.0916787535
 20
8.8631075972
 30
0.0
 10
13.0951678914
 20
8.8683472733
 30
0.0
 10
13.098638632
 20
8.8739953922
 30
0.0
 10
13.1020874
 20
8.8800459808
 30
0.0
 10
13.1055104721
 20
8.8864926674
 30
0.0
 10
13.1089042398
 20
8.8933285918
 30
0.0
 10
13.1122650296
 20
8.9005464832
 30
0.0
 10
13.115589242
 20
8.9081386279
 30
0.0
 10
13.1188732914
 20
8.9160969014
 30
0.0
 10
13.1221136198
 20
8.9244127749
 30
0.0
 10
13.1253067513
 20
8.9330773174
 30
0.0
 10
13.1284491983
 20
8.9420812257
 30
0.0
 10
13.1315376018
 20
8.9514148084
 30
0.0
 10
13.1345685954
 20
8.9610680384
 30
0.0
 10
13.1385795051
 20
8.9745209118
 30
0.0
 10
13.1434143648
 20
8.9920637733
 30
0.0
 10
13.1488668082
 20
9.0139602709
 30
0.0
 10
13.1540166081
 20
9.0368644129
 30
0.0
 10
13.1588413971
 20
9.060677519
 30
0.0
 10
13.1633201987
 20
9.0852971165
 30
0.0
 10
13.1674335668
 20
9.1106171459
 30
0.0
 10
13.1711636534
 20
9.1365285036
 30
0.0
 10
13.1744942869
 20
9.1629195034
 30
0.0
 10
13.1774110391
 20
9.1896763705
 30
0.0
 10
13.1799012881
 20
9.2166837388
 30
0.0
 10
13.1819542663
 20
9.2438251479
 30
0.0
 10
13.1835611198
 20
9.2709835675
 30
0.0
 10
13.1847149189
 20
9.2980418688
 30
0.0
 10
13.1854107361
 20
9.3248833175
 30
0.0
 10
13.1855685369
 20
9.3426935354
 30
0.0
 10
13.1855685369
 20
9.3515416334
 30
0.0
  0
SPLINE
  5
418
100
AcDbEntity
  8
0
100
AcDbSpline
 62
7
  6
CONTINUOUS
 70
0
 71
3
 72
50
 73
46
 74
0
 42
0.0000001
 43
0.0000001
 44
0.0000000001
 40
0.0
 40
0.0
 40
0.0
 40
0.0
 40
0.0053769933
 40
0.0108200994
 40
0.0163928479
 40
0.0221541113
 40
0.0344342856
 40
0.0410500323
 40
0.0480245543
 40
0.0553845215
 40
0.0631515343
 40
0.071342681
 40
0.079971247
 40
0.0890472795
 40
0.0985779726
 40
0.1085682355
 40
0.1190207803
 40
0.1299366934
 40
0.1413153252
 40
0.1531548213
 40
0.1654519486
 40
0.1782025106
 40
0.1914012296
 40
0.2050419884
 40
0.2191178401
 40
0.248542426
 40
0.2796063444
 40
0.3122303172
 40
0.3463266729
 40
0.3818003385
 40
0.4185496829
 40
0.4564672594
 40
0.495440478
 40
0.5353522284
 40
0.5760814701
 40
0.6175038009
 40
0.6594920093
 40
0.7019166155
 40
0.7446464005
 40
0.7875489534
 40
0.8304911332
 40
0.8733397932
 40
0.9159617415
 40
0.9582256501
 40
1.0
 40
1.0
 40
1.0
 40
1.0
 10
13.0135776624
 20
8.8763697445
 30
0.0
 10
13.0144759848
 20
8.8763074395
 30
0.0
 10
13.0162926369
 20
8.8762866931
 30
0.0
 10
13.0190288583
 20
8.8765691366
 30
0.0
 10
13.0217805203
 20
8.8771640191
 30
0.0
 10
13.0255440247
 20
8.8783975858
 30
0.0
 10
13.029259614
 20
8.8802572801
 30
0.0
 10
13.0328836544
 20
8.882635235
 30
0.0
 10
13.0356740938
 20
8.884767209
 30
0.0
 10
13.0384658885
 20
8.8872006578
 30
0.0
 10
13.04125774
 20
8.889933907
 30
0.0
 10
13.0440474513
 20
8.8929645954
 30
0.0
 10
13.0468329947
 20
8.8962903158
 30
0.0
 10
13.0496121957
 20
8.899908403
 30
0.0
 10
13.0523829237
 20
8.9038159329
 30
0.0
 10
13.055142914
 20
8.9080097869
 30
0.0
 10
13.057890017
 20
8.9124865413
 30
0.0
 10
13.0606219237
 20
8.9172425956
 30
0.0
 10
13.0633364823
 20
8.9222740452
 30
0.0
 10
13.0660313903
 20
8.9275768069
 30
0.0
 10
13.0687044941
 20
8.9331465173
 30
0.0
 10
13.0713535383
 20
8.9389786227
 30
0.0
 10
13.0739763622
 20
8.945068319
 30
0.0
 10
13.0765708029
 20
8.9514106069
 30
0.0
 10
13.0800407201
 20
8.9603291498
 30
0.0
 10
13.0842812111
 20
8.9720766389
 30
0.0
 10
13.0891510501
 20
8.986892128
 30
0.0
 10
13.0938582622
 20
9.0025786262
 30
0.0
 10
13.0983871648
 20
9.0190843777
 30
0.0
 10
13.1027226552
 20
9.0363550408
 30
0.0
 10
13.1068502866
 20
9.0543336289
 30
0.0
 10
13.1107563105
 20
9.0729607873
 30
0.0
 10
13.114427724
 20
9.0921749789
 30
0.0
 10
13.1178523115
 20
9.1119127009
 30
0.0
 10
13.1210186856
 20
9.1321086989
 30
0.0
 10
13.1239163231
 20
9.1526961881
 30
0.0
 10
13.1265355991
 20
9.1736070781
 30
0.0
 10
13.1288678179
 20
9.1947721997
 30
0.0
 10
13.1309052429
 20
9.2161215394
 30
0.0
 10
13.132641117
 20
9.237584463
 30
0.0
 10
13.1340696975
 20
9.259089979
 30
0.0
 10
13.1351862461
 20
9.2805668961
 30
0.0
 10
13.1359871017
 20
9.3019442584
 30
0.0
 10
13.1364695995
 20
9.3231511809
 30
0.0
 10
13.1365787483
 20
9.3372252146
 30
0.0
 10
13.1365787483
 20
9.3442211286
 30
0.0
  0
SPLINE
  5
419
100
AcDbEntity
  8
0
100
AcDbSpline
 62
7
  6
CONTINUOUS
 70
0
 71
3
 72
47
 73
43
 74
0
 42
0.0000001
 43
0.0000001
 44
0.0000000001
 40
0.0
 40
0.0
 40
0.0
 40
0.0
 40
0.0063158967
 40
0.0126706977
 40
0.0191025471
 40
0.0256480963
 40
0.0323419829
 40
0.0392163382
 40
0.053614168
 40
0.0611948929
 40
0.0690566412
 40
0.077217773
 40
0.0856941569
 40
0.0944995551
 40
0.1036456891
 40
0.1131424521
 40
0.122998232
 40
0.1332198706
 40
0.1438129644
 40
0.1547820179
 40
0.1661303832
 40
0.1899727563
 40
0.2153522396
 40
0.2422681077
 40
0.2707104459
 40
0.3006614883
 40
0.3320967939
 40
0.3649861265
 40
0.3992940928
 40
0.4349806571
 40
0.4720016811
 40
0.5103093127
 40
0.5498522596
 40
0.5905760756
 40
0.6324234754
 40
0.6753345639
 40
0.7192469999
 40
0.7640961586
 40
0.8098155359
 40
0.8563366993
 40
0.9035889296
 40
1.0
 40
1.0
 40
1.0
 40
1.0
 10
13.1347778742
 20
8.3914054193
 30
0.0
 10
13.1357835364
 20
8.3913356789
 30
0.0
 10
13.1377963041
 20
8.391113463
 30
0.0
 10
13.1407929029
 20
8.3905342342
 30
0.0
 10
13.1437694634
 20
8.3897090929
 30
0.0
 10
13.1467242639
 20
8.3886387566
 30
0.0
 10
13.1496561256
 20
8.3873237826
 30
0.0
 10
13.1535928291
 20
8.3852135133
 30
0.0
 10
13.1574226331
 20
8.3826302293
 30
0.0
 10
13.1611289008
 20
8.3796365963
 30
0.0
 10
13.163928392
 20
8.3771126146
 30
0.0
 10
13.1666979699
 20
8.3743500932
 30
0.0
 10
13.1694369807
 20
8.371350052
 30
0.0
 10
13.1721442717
 20
8.3681137565
 30
0.0
 10
13.1748188527
 20
8.3646425293
 30
0.0
 10
13.1774597258
 20
8.3609378088
 30
0.0
 10
13.1800658118
 20
8.3570010625
 30
0.0
 10
13.1826361293
 20
8.3528339122
 30
0.0
 10
13.1851696507
 20
8.348438047
 30
0.0
 10
13.1876653554
 20
8.3438152232
 30
0.0
 10
13.19099615
 20
8.3372428016
 30
0.0
 10
13.1950465599
 20
8.3284605085
 30
0.0
 10
13.1996634765
 20
8.3172160672
 30
0.0
 10
13.2041062181
 20
8.3051166788
 30
0.0
 10
13.2083674981
 20
8.292182077
 30
0.0
 10
13.2124403366
 20
8.2784331477
 30
0.0
 10
13.2163179976
 20
8.2638922969
 30
0.0
 10
13.2199940404
 20
8.2485832627
 30
0.0
 10
13.2234623447
 20
8.2325311141
 30
0.0
 10
13.2267171506
 20
8.215762193
 30
0.0
 10
13.2297530368
 20
8.1983040507
 30
0.0
 10
13.2325649353
 20
8.1801853935
 30
0.0
 10
13.2351481585
 20
8.1614360422
 30
0.0
 10
13.2374984121
 20
8.1420868797
 30
0.0
 10
13.2396117785
 20
8.1221697855
 30
0.0
 10
13.2414847255
 20
8.1017175805
 30
0.0
 10
13.2431141322
 20
8.0807639897
 30
0.0
 10
13.2444972955
 20
8.0593435569
 30
0.0
 10
13.2456318961
 20
8.0374916169
 30
0.0
 10
13.2465160478
 20
8.0152442302
 30
0.0
 10
13.247364597
 20
7.9849003485
 30
0.0
 10
13.2476107415
 20
7.9619691077
 30
0.0
 10
13.2476107415
 20
7.9465809786
 30
0.0
  0
SPLINE
  5
41A
100
AcDbEntity
  8
0
100
AcDbSpline
 62
7
  6
CONTINUOUS
 70
0
 71
3
 72
41
 73
37
 74
0
 42
0.0000001
 43
0.0000001
 44
0.0000000001
 40
0.0
 40
0.0
 40
0.0
 40
0.0
 40
0.006334968
 40
0.0127951175
 40
0.0194103025
 40
0.026208152
 40
0.0404440498
 40
0.0556821039
 40
0.0720573042
 40
0.0807062493
 40
0.0896755725
 40
0.0989740311
 40
0.1086089145
 40
0.1289092012
 40
0.150615177
 40
0.173748721
 40
0.1983199057
 40
0.224329151
 40
0.2517688287
 40
0.2806243369
 40
0.3108751068
 40
0.3424954441
 40
0.3754550283
 40
0.4097193742
 40
0.4452503629
 40
0.4820065292
 40
0.5199432612
 40
0.5590131824
 40
0.5991663669
 40
0.6403504322
 40
0.682510825
 40
0.725590998
 40
0.7695324668
 40
0.8142752046
 40
0.9059138908
 40
1.0
 40
1.0
 40
1.0
 40
1.0
 10
13.1271374695
 20
8.3910954488
 30
0.0
 10
13.1280934525
 20
8.3908219829
 30
0.0
 10
13.1300041493
 20
8.3901965193
 30
0.0
 10
13.1328256659
 20
8.3890408831
 30
0.0
 10
13.1356257025
 20
8.3876606638
 30
0.0
 10
13.1393859669
 20
8.3854888847
 30
0.0
 10
13.144037018
 20
8.3821805556
 30
0.0
 10
13.1494214933
 20
8.3773886224
 30
0.0
 10
13.1537313681
 20
8.3727548899
 30
0.0
 10
13.1571245113
 20
8.3686360459
 30
0.0
 10
13.159685485
 20
8.3652746186
 30
0.0
 10
13.1622152669
 20
8.3616985683
 30
0.0
 10
13.1656047226
 20
8.3565561164
 30
0.0
 10
13.1697471032
 20
8.3495832656
 30
0.0
 10
13.1744953618
 20
8.3405239355
 30
0.0
 10
13.1790975574
 20
8.3306451878
 30
0.0
 10
13.1835469551
 20
8.3199617546
 30
0.0
 10
13.1878370223
 20
8.3084892484
 30
0.0
 10
13.1919612994
 20
8.296244691
 30
0.0
 10
13.1959135684
 20
8.2832463377
 30
0.0
 10
13.1996878372
 20
8.2695136673
 30
0.0
 10
13.2032783334
 20
8.2550673097
 30
0.0
 10
13.2066795656
 20
8.2399290283
 30
0.0
 10
13.20988635
 20
8.2241216789
 30
0.0
 10
13.212893768
 20
8.207669149
 30
0.0
 10
13.2156971976
 20
8.1905963268
 30
0.0
 10
13.2182923642
 20
8.1729290681
 30
0.0
 10
13.2206752915
 20
8.1546941395
 30
0.0
 10
13.2228423097
 20
8.1359191764
 30
0.0
 10
13.2247901124
 20
8.1166326491
 30
0.0
 10
13.2265157232
 20
8.0968638101
 30
0.0
 10
13.2280164741
 20
8.0766426576
 30
0.0
 10
13.2292900994
 20
8.0559998352
 30
0.0
 10
13.2306938606
 20
8.0277308693
 30
0.0
 10
13.231855419
 20
7.9915724399
 30
0.0
 10
13.2321559266
 20
7.9624203925
 30
0.0
 10
13.2321559266
 20
7.9476527737
 30
0.0
  0
SPLINE
  5
41B
100
AcDbEntity
  8
0
100
AcDbSpline
 62
7
  6
CONTINUOUS
 70
0
 71
3
 72
54
 73
50
 74
0
 42
0.0000001
 43
0.0000001
 44
0.0000000001
 40
0.0
 40
0.0
 40
0.0
 40
0.0
 40
0.0095825953
 40
0.0187371537
 40
0.0274870243
 40
0.035859807
 40
0.0515982317
 40
0.0590560536
 40
0.0662988366
 40
0.0733800607
 40
0.0803573583
 40
0.0872911985
 40
0.0942432848
 40
0.1012747896
 40
0.1084446854
 40
0.1158082997
 40
0.1234162585
 40
0.1313140244
 40
0.1395414975
 40
0.1481333348
 40
0.1571191521
 40
0.1665238956
 40
0.1763685401
 40
0.1866702341
 40
0.1974430336
 40
0.2086981775
 40
0.220444339
 40
0.2326882258
 40
0.2454344676
 40
0.2586861416
 40
0.2724448681
 40
0.286710824
 40
0.3014832095
 40
0.3325367855
 40
0.3655807006
 40
0.4005754523
 40
0.4374706589
 40
0.4762065926
 40
0.516715338
 40
0.558921716
 40
0.6027440096
 40
0.6480946346
 40
0.6948807674
 40
0.7430047955
 40
0.7923648274
 40
0.8428552681
 40
0.8943660075
 40
0.9467870937
 40
1.0
 40
1.0
 40
1.0
 40
1.0
 10
13.0791729438
 20
8.2007239091
 30
0.0
 10
13.0800266149
 20
8.2015184117
 30
0.0
 10
13.0817331891
 20
8.2030325586
 30
0.0
 10
13.0843515472
 20
8.2051169486
 30
0.0
 10
13.0869674941
 20
8.2069603267
 30
0.0
 10
13.0903784151
 20
8.2090511937
 30
0.0
 10
13.0938581936
 20
8.2107207789
 30
0.0
 10
13.0973750004
 20
8.2118967633
 30
0.0
 10
13.0999561083
 20
8.21251647
 30
0.0
 10
13.1025254357
 20
8.2128884061
 30
0.0
 10
13.1050811667
 20
8.2130120246
 30
0.0
 10
13.1076211693
 20
8.2128870596
 30
0.0
 10
13.1101432901
 20
8.2125134632
 30
0.0
 10
13.1126454502
 20
8.2118918144
 30
0.0
 10
13.1151257077
 20
8.2110228202
 30
0.0
 10
13.1175823319
 20
8.2099075114
 30
0.0
 10
13.1200138467
 20
8.2085471117
 30
0.0
 10
13.1224188423
 20
8.2069427654
 30
0.0
 10
13.1247961401
 20
8.2050958451
 30
0.0
 10
13.1271445235
 20
8.2030076193
 30
0.0
 10
13.1294628211
 20
8.2006794597
 30
0.0
 10
13.1317499204
 20
8.1981128483
 30
0.0
 10
13.1340045699
 20
8.1953092632
 30
0.0
 10
13.1362256469
 20
8.1922704
 30
0.0
 10
13.1384119177
 20
8.1889980016
 30
0.0
 10
13.1405621594
 20
8.1854939615
 30
0.0
 10
13.1426752165
 20
8.1817603361
 30
0.0
 10
13.1447498136
 20
8.1777992647
 30
0.0
 10
13.1467848119
 20
8.1736130818
 30
0.0
 10
13.148779008
 20
8.1692042237
 30
0.0
 10
13.1507312066
 20
8.1645752721
 30
0.0
 10
13.152640339
 20
8.1597289523
 30
0.0
 10
13.1551689892
 20
8.1528664102
 30
0.0
 10
13.1582027031
 20
8.1437572688
 30
0.0
 10
13.1615959803
 20
8.1321828349
 30
0.0
 10
13.1647920336
 20
8.1198168973
 30
0.0
 10
13.1677832039
 20
8.1066886847
 30
0.0
 10
13.1705622887
 20
8.0928290769
 30
0.0
 10
13.1731225871
 20
8.0782708334
 30
0.0
 10
13.1754579156
 20
8.0630484082
 30
0.0
 10
13.1775626412
 20
8.047197889
 30
0.0
 10
13.1794316907
 20
8.0307568889
 30
0.0
 10
13.1810605524
 20
8.0137644494
 30
0.0
 10
13.1824452938
 20
7.9962609374
 30
0.0
 10
13.1835825691
 20
7.9782879286
 30
0.0
 10
13.1844696157
 20
7.9598882356
 30
0.0
 10
13.1851043347
 20
7.9411053986
 30
0.0
 10
13.1854851163
 20
7.9219843774
 30
0.0
 10
13.1855685369
 20
7.9091287283
 30
0.0
 10
13.1855685369
 20
7.9026528082
 30
0.0
  0
SPLINE
  5
41C
100
AcDbEntity
  8
0
100
AcDbSpline
 62
7
  6
CONTINUOUS
 70
0
 71
3
 72
39
 73
35
 74
0
 42
0.0000001
 43
0.0000001
 44
0.0000000001
 40
0.0
 40
0.0
 40
0.0
 40
0.0
 40
0.0063160494
 40
0.0126710015
 40
0.0191030109
 40
0.0256487339
 40
0.0323427721
 40
0.039217307
 40
0.0536154974
 40
0.0690527072
 40
0.0856860748
 40
0.1036344292
 40
0.1229846028
 40
0.1437975254
 40
0.166113625
 40
0.1899566025
 40
0.2153366968
 40
0.2422532711
 40
0.2706963053
 40
0.3006480482
 40
0.332084169
 40
0.3649743085
 40
0.3992830754
 40
0.4349705349
 40
0.4719924557
 40
0.5103010057
 40
0.5498449199
 40
0.5905696967
 40
0.6324181156
 40
0.67533026
 40
0.7192436925
 40
0.809812751
 40
0.9035864554
 40
1.0
 40
1.0
 40
1.0
 40
1.0
 10
13.0654657106
 20
8.1756838311
 30
0.0
 10
13.0660995306
 20
8.1756398712
 30
0.0
 10
13.0673680784
 20
8.175499804
 30
0.0
 10
13.0692566922
 20
8.1751347549
 30
0.0
 10
13.0711326731
 20
8.1746146966
 30
0.0
 10
13.0729949341
 20
8.1739400821
 30
0.0
 10
13.0748427412
 20
8.1731113489
 30
0.0
 10
13.0773239251
 20
8.1717812707
 30
0.0
 10
13.0803942049
 20
8.1697102549
 30
0.0
 10
13.0839454367
 20
8.1666573987
 30
0.0
 10
13.087417584
 20
8.1630057972
 30
0.0
 10
13.0908065783
 20
8.1587621529
 30
0.0
 10
13.0941087583
 20
8.1539331194
 30
0.0
 10
13.0973198175
 20
8.1485261573
 30
0.0
 10
13.1004351618
 20
8.14254955
 30
0.0
 10
13.1034501058
 20
8.1360126195
 30
0.0
 10
13.1063599473
 20
8.1289256856
 30
0.0
 10
13.1091599728
 20
8.1213000421
 30
0.0
 10
13.1118456524
 20
8.1131479744
 30
0.0
 10
13.1144125748
 20
8.1044826891
 30
0.0
 10
13.1168564612
 20
8.0953182833
 30
0.0
 10
13.1191732912
 20
8.0856697342
 30
0.0
 10
13.1213592044
 20
8.0755528402
 30
0.0
 10
13.1234105392
 20
8.064984196
 30
0.0
 10
13.1253239115
 20
8.0539811693
 30
0.0
 10
13.1270961164
 20
8.0425618541
 30
0.0
 10
13.1287241894
 20
8.0307450446
 30
0.0
 10
13.1302054468
 20
8.018550202
 30
0.0
 10
13.1315373909
 20
8.0059974218
 30
0.0
 10
13.1327178272
 20
7.9931073751
 30
0.0
 10
13.1341012522
 20
7.9753161795
 30
0.0
 10
13.1354266724
 20
7.9523910432
 30
0.0
 10
13.1363733148
 20
7.9241627576
 30
0.0
 10
13.1365787483
 20
7.9050307124
 30
0.0
 10
13.1365787483
 20
7.8953323033
 30
0.0
  0
SPLINE
  5
41D
100
AcDbEntity
  8
0
100
AcDbSpline
 62
7
  6
CONTINUOUS
 70
0
 71
3
 72
52
 73
48
 74
0
 42
0.0000001
 43
0.0000001
 44
0.0000000001
 40
0.0
 40
0.0
 40
0.0
 40
0.0
 40
0.0054423575
 40
0.0110552658
 40
0.0168885731
 40
0.0229860413
 40
0.0293852933
 40
0.0361179689
 40
0.043210343
 40
0.0506837961
 40
0.0585555729
 40
0.0668392078
 40
0.0755451979
 40
0.0846812809
 40
0.0942529821
 40
0.1042637521
 40
0.1147154086
 40
0.1256081694
 40
0.1369410189
 40
0.1487116701
 40
0.1609168785
 40
0.1735523579
 40
0.1866130593
 40
0.2000930565
 40
0.2139857999
 40
0.228283985
 40
0.2429797871
 40
0.2580647198
 40
0.289365053
 40
0.3221081108
 40
0.3562092463
 40
0.3915775575
 40
0.4281165762
 40
0.4657248845
 40
0.5042966807
 40
0.5437223105
 40
0.5838887726
 40
0.6246802086
 40
0.6659783797
 40
0.707663136
 40
0.7496128805
 40
0.7917050297
 40
0.8338164699
 40
0.8758240201
 40
0.9176048732
 40
0.9590370936
 40
1.0
 40
1.0
 40
1.0
 40
1.0
 10
13.0450025552
 20
7.2056295555
 30
0.0
 10
13.0464197114
 20
7.2058323621
 30
0.0
 10
13.0492780295
 20
7.2064012456
 30
0.0
 10
13.0535306621
 20
7.2077093022
 30
0.0
 10
13.057799105
 20
7.2094804004
 30
0.0
 10
13.0620795957
 20
7.2117117989
 30
0.0
 10
13.0663694191
 20
7.2144010002
 30
0.0
 10
13.0706658326
 20
7.2175452549
 30
0.0
 10
13.074966027
 20
7.2211418892
 30
0.0
 10
13.0792672361
 20
7.2251879111
 30
0.0
 10
13.0835664669
 20
7.2296802318
 30
0.0
 10
13.0878607784
 20
7.2346153645
 30
0.0
 10
13.0921470081
 20
7.239989618
 30
0.0
 10
13.0964220789
 20
7.245798877
 30
0.0
 10
13.1006827257
 20
7.2520387705
 30
0.0
 10
13.1049257979
 20
7.2587045097
 30
0.0
 10
13.1091479874
 20
7.2657910294
 30
0.0
 10
13.1133461195
 20
7.2732928657
 30
0.0
 10
13.117516885
 20
7.2812042712
 30
0.0
 10
13.1216571186
 20
7.2895191225
 30
0.0
 10
13.1257635384
 20
7.2982310123
 30
0.0
 10
13.1298330123
 20
7.3073331794
 30
0.0
 10
13.1338623055
 20
7.3168185823
 30
0.0
 10
13.1378483359
 20
7.326679846
 30
0.0
 10
13.1417879326
 20
7.3369093225
 30
0.0
 10
13.145678071
 20
7.3474990469
 30
0.0
 10
13.1495156814
 20
7.3584408004
 30
0.0
 10
13.1546213513
 20
7.3736756364
 30
0.0
 10
13.1608380954
 20
7.3935425926
 30
0.0
 10
13.1679536949
 20
7.4183614941
 30
0.0
 10
13.1747911966
 20
7.4443663282
 30
0.0
 10
13.181329146
 20
7.4714760897
 30
0.0
 10
13.1875470112
 20
7.4996064721
 30
0.0
 10
13.1934252827
 20
7.5286698764
 30
0.0
 10
13.1989455236
 20
7.5585757725
 30
0.0
 10
13.2040904293
 20
7.5892309688
 30
0.0
 10
13.2088438796
 20
7.6205399155
 30
0.0
 10
13.2131909878
 20
7.6524050061
 30
0.0
 10
13.2171181469
 20
7.6847268867
 30
0.0
 10
13.2206130705
 20
7.7174047682
 30
0.0
 10
13.2236648316
 20
7.7503367443
 30
0.0
 10
13.2262638953
 20
7.7834201104
 30
0.0
 10
13.2284021491
 20
7.8165516897
 30
0.0
 10
13.2300729272
 20
7.849628143
 30
0.0
 10
13.2312710341
 20
7.8825463428
 30
0.0
 10
13.2319927553
 20
7.9152035258
 30
0.0
 10
13.2321559266
 20
7.9368776149
 30
0.0
 10
13.2321559266
 20
7.9476527737
 30
0.0
  0
SPLINE
  5
41E
100
AcDbEntity
  8
0
100
AcDbSpline
 62
7
  6
CONTINUOUS
 70
0
 71
3
 72
56
 73
52
 74
0
 42
0.0000001
 43
0.0000001
 44
0.0000000001
 40
0.0
 40
0.0
 40
0.0
 40
0.0
 40
0.0079607314
 40
0.0154476017
 40
0.0224993146
 40
0.0291643262
 40
0.0355016677
 40
0.0415815314
 40
0.0474844011
 40
0.0532989482
 40
0.0591182467
 40
0.0650351269
 40
0.0711375735
 40
0.0775051163
 40
0.0842067961
 40
0.0913005878
 40
0.0988338416
 40
0.1068444422
 40
0.1153619516
 40
0.1244090672
 40
0.1340025182
 40
0.1441543014
 40
0.1548721813
 40
0.1661606345
 40
0.1780210773
 40
0.1904525486
 40
0.2034518151
 40
0.2170138249
 40
0.2311318
 40
0.2457974871
 40
0.2610012974
 40
0.2767323845
 40
0.2929788537
 40
0.3097277016
 40
0.3269650874
 40
0.3446761801
 40
0.3814557477
 40
0.4199338823
 40
0.4599665999
 40
0.501400727
 40
0.5440751156
 40
0.5878217651
 40
0.6324668852
 40
0.677831918
 40
0.7237345369
 40
0.7699896234
 40
0.8164102569
 40
0.862808617
 40
0.9089971555
 40
0.9547889703
 40
1.0
 40
1.0
 40
1.0
 40
1.0
 10
13.023697284
 20
7.4007883711
 30
0.0
 10
13.0246803164
 20
7.3995796895
 30
0.0
 10
13.0266632017
 20
7.3972938375
 30
0.0
 10
13.0297899474
 20
7.3941872557
 30
0.0
 10
13.0329722851
 20
7.3915155192
 30
0.0
 10
13.0362075781
 20
7.3892823338
 30
0.0
 10
13.0394933599
 20
7.3874915416
 30
0.0
 10
13.0428263404
 20
7.3861469136
 30
0.0
 10
13.0462023476
 20
7.3852523161
 30
0.0
 10
13.04961587
 20
7.3848105039
 30
0.0
 10
13.0530605609
 20
7.3848229158
 30
0.0
 10
13.0565299591
 20
7.3852888363
 30
0.0
 10
13.0600183474
 20
7.3862060877
 30
0.0
 10
13.063521132
 20
7.3875714704
 30
0.0
 10
13.0670346916
 20
7.3893815646
 30
0.0
 10
13.0705559563
 20
7.3916330361
 30
0.0
 10
13.074082104
 20
7.3943225862
 30
0.0
 10
13.077610182
 20
7.3974469912
 30
0.0
 10
13.081137209
 20
7.4010027343
 30
0.0
 10
13.0846598836
 20
7.4049861283
 30
0.0
 10
13.088174925
 20
7.4093929761
 30
0.0
 10
13.0916787535
 20
7.4142187719
 30
0.0
 10
13.0951678914
 20
7.419458448
 30
0.0
 10
13.098638632
 20
7.4251065669
 30
0.0
 10
13.1020874
 20
7.4311571555
 30
0.0
 10
13.1055104721
 20
7.4376038421
 30
0.0
 10
13.1089042398
 20
7.4444397666
 30
0.0
 10
13.1122650296
 20
7.4516576579
 30
0.0
 10
13.115589242
 20
7.4592498026
 30
0.0
 10
13.1188732914
 20
7.4672080761
 30
0.0
 10
13.1221136198
 20
7.4755239496
 30
0.0
 10
13.1253067513
 20
7.4841884921
 30
0.0
 10
13.1284491983
 20
7.4931924004
 30
0.0
 10
13.1315376018
 20
7.5025259831
 30
0.0
 10
13.1345685954
 20
7.5121792131
 30
0.0
 10
13.1385795051
 20
7.5256320865
 30
0.0
 10
13.1434143648
 20
7.543174948
 30
0.0
 10
13.1488668082
 20
7.5650714456
 30
0.0
 10
13.1540166081
 20
7.5879755876
 30
0.0
 10
13.1588413971
 20
7.6117886937
 30
0.0
 10
13.1633201987
 20
7.6364082913
 30
0.0
 10
13.1674335668
 20
7.6617283206
 30
0.0
 10
13.1711636534
 20
7.6876396784
 30
0.0
 10
13.1744942869
 20
7.7140306781
 30
0.0
 10
13.1774110391
 20
7.7407875452
 30
0.0
 10
13.1799012881
 20
7.7677949135
 30
0.0
 10
13.1819542663
 20
7.7949363226
 30
0.0
 10
13.1835611198
 20
7.8220947422
 30
0.0
 10
13.1847149189
 20
7.8491530436
 30
0.0
 10
13.1854107361
 20
7.8759944922
 30
0.0
 10
13.1855685369
 20
7.8938047101
 30
0.0
 10
13.1855685369
 20
7.9026528082
 30
0.0
  0
SPLINE
  5
41F
100
AcDbEntity
  8
0
100
AcDbSpline
 62
7
  6
CONTINUOUS
 70
0
 71
3
 72
50
 73
46
 74
0
 42
0.0000001
 43
0.0000001
 44
0.0000000001
 40
0.0
 40
0.0
 40
0.0
 40
0.0
 40
0.0053769933
 40
0.0108200994
 40
0.0163928479
 40
0.0221541113
 40
0.0344342856
 40
0.0410500323
 40
0.0480245543
 40
0.0553845215
 40
0.0631515343
 40
0.071342681
 40
0.079971247
 40
0.0890472795
 40
0.0985779726
 40
0.1085682355
 40
0.1190207803
 40
0.1299366934
 40
0.1413153252
 40
0.1531548213
 40
0.1654519486
 40
0.1782025106
 40
0.1914012296
 40
0.2050419884
 40
0.2191178401
 40
0.248542426
 40
0.2796063444
 40
0.3122303172
 40
0.3463266729
 40
0.3818003385
 40
0.4185496829
 40
0.4564672594
 40
0.495440478
 40
0.5353522284
 40
0.5760814701
 40
0.6175038009
 40
0.6594920093
 40
0.7019166155
 40
0.7446464005
 40
0.7875489534
 40
0.8304911332
 40
0.8733397932
 40
0.9159617415
 40
0.9582256501
 40
1.0
 40
1.0
 40
1.0
 40
1.0
 10
13.0135776624
 20
7.4274809192
 30
0.0
 10
13.0144759848
 20
7.4274186142
 30
0.0
 10
13.0162926369
 20
7.4273978678
 30
0.0
 10
13.0190288583
 20
7.4276803114
 30
0.0
 10
13.0217805203
 20
7.4282751938
 30
0.0
 10
13.0255440247
 20
7.4295087606
 30
0.0
 10
13.029259614
 20
7.4313684548
 30
0.0
 10
13.0328836544
 20
7.4337464097
 30
0.0
 10
13.0356740938
 20
7.4358783838
 30
0.0
 10
13.0384658885
 20
7.4383118325
 30
0.0
 10
13.04125774
 20
7.4410450817
 30
0.0
 10
13.0440474513
 20
7.4440757701
 30
0.0
 10
13.0468329947
 20
7.4474014906
 30
0.0
 10
13.0496121957
 20
7.4510195777
 30
0.0
 10
13.0523829237
 20
7.4549271076
 30
0.0
 10
13.055142914
 20
7.4591209616
 30
0.0
 10
13.057890017
 20
7.463597716
 30
0.0
 10
13.0606219237
 20
7.4683537703
 30
0.0
 10
13.0633364823
 20
7.4733852199
 30
0.0
 10
13.0660313903
 20
7.4786879816
 30
0.0
 10
13.0687044941
 20
7.484257692
 30
0.0
 10
13.0713535383
 20
7.4900897974
 30
0.0
 10
13.0739763622
 20
7.4961794937
 30
0.0
 10
13.0765708029
 20
7.5025217816
 30
0.0
 10
13.0800407201
 20
7.5114403245
 30
0.0
 10
13.0842812111
 20
7.5231878136
 30
0.0
 10
13.0891510501
 20
7.5380033027
 30
0.0
 10
13.0938582622
 20
7.5536898009
 30
0.0
 10
13.0983871648
 20
7.5701955524
 30
0.0
 10
13.1027226552
 20
7.5874662155
 30
0.0
 10
13.1068502866
 20
7.6054448036
 30
0.0
 10
13.1107563105
 20
7.6240719621
 30
0.0
 10
13.114427724
 20
7.6432861537
 30
0.0
 10
13.1178523115
 20
7.6630238756
 30
0.0
 10
13.1210186856
 20
7.6832198736
 30
0.0
 10
13.1239163231
 20
7.7038073629
 30
0.0
 10
13.1265355991
 20
7.7247182528
 30
0.0
 10
13.1288678179
 20
7.7458833745
 30
0.0
 10
13.1309052429
 20
7.7672327141
 30
0.0
 10
13.132641117
 20
7.7886956377
 30
0.0
 10
13.1340696975
 20
7.8102011537
 30
0.0
 10
13.1351862461
 20
7.8316780709
 30
0.0
 10
13.1359871017
 20
7.8530554331
 30
0.0
 10
13.1364695995
 20
7.8742623556
 30
0.0
 10
13.1365787483
 20
7.8883363893
 30
0.0
 10
13.1365787483
 20
7.8953323033
 30
0.0
  0
SPLINE
  5
420
100
AcDbEntity
  8
0
100
AcDbSpline
 62
7
  6
CONTINUOUS
 70
0
 71
3
 72
40
 73
36
 74
0
 42
0.0000001
 43
0.0000001
 44
0.0000000001
 40
0.0
 40
0.0
 40
0.0
 40
0.0
 40
0.0063160423
 40
0.0126709865
 40
0.0191029724
 40
0.0256486827
 40
0.0323427081
 40
0.0392172067
 40
0.0536153583
 40
0.0690524996
 40
0.0856858071
 40
0.1036340937
 40
0.1229841962
 40
0.143797065
 40
0.1661130709
 40
0.1899559871
 40
0.2153360382
 40
0.2422525011
 40
0.2706954866
 40
0.3006471939
 40
0.3320831972
 40
0.3649732978
 40
0.3992820311
 40
0.4349693787
 40
0.4719912661
 40
0.5102997798
 40
0.5498435954
 40
0.5905683418
 40
0.6324167182
 40
0.6753287759
 40
0.7192421939
 40
0.7640923801
 40
0.8098128754
 40
0.9035866165
 40
1.0
 40
1.0
 40
1.0
 40
1.0
 10
12.703473723
 20
8.5549715508
 30
0.0
 10
12.7042174066
 20
8.5549199789
 30
0.0
 10
12.7057058384
 20
8.5547556319
 30
0.0
 10
12.7079218111
 20
8.5543273056
 30
0.0
 10
12.7101229754
 20
8.5537171515
 30
0.0
 10
12.7123080289
 20
8.5529256026
 30
0.0
 10
12.714476121
 20
8.5519532252
 30
0.0
 10
12.7173873974
 20
8.5503926433
 30
0.0
 10
12.7209898498
 20
8.5479626472
 30
0.0
 10
12.72515665
 20
8.544380667
 30
0.0
 10
12.7292306399
 20
8.5400961357
 30
0.0
 10
12.7332070702
 20
8.5351169461
 30
0.0
 10
12.737081641
 20
8.5294508961
 30
0.0
 10
12.7408492825
 20
8.5231067362
 30
0.0
 10
12.7445046406
 20
8.5160942012
 30
0.0
 10
12.7480421808
 20
8.5084242087
 30
0.0
 10
12.7514563909
 20
8.5001088759
 30
0.0
 10
12.754741781
 20
8.4911614655
 30
0.0
 10
12.7578929792
 20
8.4815963718
 30
0.0
 10
12.7609048304
 20
8.4714291011
 30
0.0
 10
12.7637723519
 20
8.460676202
 30
0.0
 10
12.7664907635
 20
8.4493552315
 30
0.0
 10
12.7690555646
 20
8.4374847346
 30
0.0
 10
12.77146249
 20
8.425084188
 30
0.0
 10
12.7737075099
 20
8.4121739593
 30
0.0
 10
12.7757868946
 20
8.3987752834
 30
0.0
 10
12.7776971888
 20
8.3849102157
 30
0.0
 10
12.779435192
 20
8.3706015866
 30
0.0
 10
12.7809980104
 20
8.355872971
 30
0.0
 10
12.782383054
 20
8.3407486461
 30
0.0
 10
12.7835879956
 20
8.3252535534
 30
0.0
 10
12.784610849
 20
8.3094132099
 30
0.0
 10
12.785738992
 20
8.2876841892
 30
0.0
 10
12.786672135
 20
8.2598534061
 30
0.0
 10
12.7869132214
 20
8.2374052069
 30
0.0
 10
12.7869132214
 20
8.2260257322
 30
0.0
  0
SPLINE
  5
421
100
AcDbEntity
  8
0
100
AcDbSpline
 62
7
  6
CONTINUOUS
 70
0
 71
3
 72
37
 73
33
 74
0
 42
0.0000001
 43
0.0000001
 44
0.0000000001
 40
0.0
 40
0.0
 40
0.0
 40
0.0
 40
0.0063851473
 40
0.0129167088
 40
0.0265187755
 40
0.0410033343
 40
0.056522763
 40
0.0731956979
 40
0.0911116987
 40
0.1103362954
 40
0.1309156774
 40
0.1528800925
 40
0.1762469838
 40
0.2010233449
 40
0.2272072034
 40
0.2547893107
 40
0.2837540951
 40
0.3140803551
 40
0.3457422332
 40
0.3787095099
 40
0.4129480813
 40
0.4484205218
 40
0.4850861091
 40
0.5229012785
 40
0.5618198979
 40
0.6017932457
 40
0.642770458
 40
0.6846985987
 40
0.7275226691
 40
0.8156292054
 40
0.9066189143
 40
1.0
 40
1.0
 40
1.0
 40
1.0
 10
12.6955163962
 20
8.5544727502
 30
0.0
 10
12.6962116956
 20
8.5542275202
 30
0.0
 10
12.6976007134
 20
8.5536801758
 30
0.0
 10
12.7003671493
 20
8.5523629991
 30
0.0
 10
12.7037967997
 20
8.5502873875
 30
0.0
 10
12.7077784671
 20
8.5471898392
 30
0.0
 10
12.7116793084
 20
8.5434588218
 30
0.0
 10
12.7154951125
 20
8.5391009529
 30
0.0
 10
12.7192223116
 20
8.5341226581
 30
0.0
 10
12.7228566916
 20
8.5285309632
 30
0.0
 10
12.7263937271
 20
8.5223335763
 30
0.0
 10
12.7298287809
 20
8.5155391586
 30
0.0
 10
12.7331571218
 20
8.5081572822
 30
0.0
 10
12.7363739814
 20
8.5001984489
 30
0.0
 10
12.7394747532
 20
8.4916741168
 30
0.0
 10
12.7424548787
 20
8.4825966213
 30
0.0
 10
12.7453099429
 20
8.4729791728
 30
0.0
 10
12.7480357534
 20
8.4628358357
 30
0.0
 10
12.7506282249
 20
8.4521814731
 30
0.0
 10
12.7530835008
 20
8.4410317395
 30
0.0
 10
12.7553979439
 20
8.4294030455
 30
0.0
 10
12.7575680655
 20
8.4173125215
 30
0.0
 10
12.759590649
 20
8.4047780014
 30
0.0
 10
12.7614626812
 20
8.3918179849
 30
0.0
 10
12.7631813379
 20
8.3784516091
 30
0.0
 10
12.7647440861
 20
8.3646986204
 30
0.0
 10
12.7661485757
 20
8.3505793479
 30
0.0
 10
12.7673927174
 20
8.3361146448
 30
0.0
 10
12.7688490183
 20
8.316207798
 30
0.0
 10
12.7702445874
 20
8.2906185329
 30
0.0
 10
12.7712417476
 20
8.2591696555
 30
0.0
 10
12.7714584065
 20
8.2378800239
 30
0.0
 10
12.7714584065
 20
8.2270975272
 30
0.0
  0
SPLINE
  5
422
100
AcDbEntity
  8
0
100
AcDbSpline
 62
7
  6
CONTINUOUS
 70
0
 71
3
 72
49
 73
45
 74
0
 42
0.0000001
 43
0.0000001
 44
0.0000000001
 40
0.0
 40
0.0
 40
0.0
 40
0.0
 40
0.0095828778
 40
0.0187378095
 40
0.0274879556
 40
0.0358610088
 40
0.0515999392
 40
0.0590579963
 40
0.0663009924
 40
0.0733823939
 40
0.0803598639
 40
0.0872938561
 40
0.0942460814
 40
0.1012777098
 40
0.1084477168
 40
0.1158114475
 40
0.1234195063
 40
0.1395344502
 40
0.148126363
 40
0.1571122951
 40
0.1665171879
 40
0.1763618947
 40
0.1866637666
 40
0.197436709
 40
0.2086919547
 40
0.2204383516
 40
0.2454259717
 40
0.2724345441
 40
0.3014715988
 40
0.3325257008
 40
0.3655701647
 40
0.4005655616
 40
0.4374614559
 40
0.4761981047
 40
0.5167076547
 40
0.5589148917
 40
0.6027380339
 40
0.6480895627
 40
0.6948766994
 40
0.7430017013
 40
0.7923628524
 40
0.8428542672
 40
0.8943658782
 40
1.0
 40
1.0
 40
1.0
 40
1.0
 10
12.658225257
 20
8.373681659
 30
0.0
 10
12.6587703755
 20
8.3741890023
 30
0.0
 10
12.6598601334
 20
8.3751558859
 30
0.0
 10
12.6615320816
 20
8.3764869597
 30
0.0
 10
12.6632025266
 20
8.3776640918
 30
0.0
 10
12.6653805932
 20
8.3789992826
 30
0.0
 10
12.6676026326
 20
8.3800654636
 30
0.0
 10
12.669848317
 20
8.3808164613
 30
0.0
 10
12.6714965019
 20
8.3812122358
 30
0.0
 10
12.6731371701
 20
8.3814497551
 30
0.0
 10
12.6747691509
 20
8.3815287493
 30
0.0
 10
12.6763910918
 20
8.3814489895
 30
0.0
 10
12.6780016111
 20
8.3812104597
 30
0.0
 10
12.6795993903
 20
8.3808135404
 30
0.0
 10
12.6811831696
 20
8.3802586897
 30
0.0
 10
12.6827519158
 20
8.3795464948
 30
0.0
 10
12.6848621785
 20
8.3783659026
 30
0.0
 10
12.6869004983
 20
8.3768812289
 30
0.0
 10
12.6888577936
 20
8.3751407768
 30
0.0
 10
12.6903383032
 20
8.3736540314
 30
0.0
 10
12.6917986938
 20
8.3720151537
 30
0.0
 10
12.6932384593
 20
8.3702249452
 30
0.0
 10
12.6946567251
 20
8.3682844738
 30
0.0
 10
12.6960527855
 20
8.3661948901
 30
0.0
 10
12.6974258806
 20
8.3639573945
 30
0.0
 10
12.6992629144
 20
8.360711271
 30
0.0
 10
12.7014872244
 20
8.3562816058
 30
0.0
 10
12.7039998917
 20
8.350504765
 30
0.0
 10
12.7064028162
 20
8.3441747762
 30
0.0
 10
12.7086903851
 20
8.3373063854
 30
0.0
 10
12.7108571998
 20
8.3299154053
 30
0.0
 10
12.7128980667
 20
8.3220191013
 30
0.0
 10
12.7148081068
 20
8.3136360081
 30
0.0
 10
12.7165827236
 20
8.3047858834
 30
0.0
 10
12.7182176246
 20
8.295489631
 30
0.0
 10
12.7197088669
 20
8.2857692589
 30
0.0
 10
12.7210528652
 20
8.2756478142
 30
0.0
 10
12.722246371
 20
8.2651493097
 30
0.0
 10
12.7232864891
 20
8.2542986761
 30
0.0
 10
12.7241707296
 20
8.2431216816
 30
0.0
 10
12.7248969471
 20
8.2316449047
 30
0.0
 10
12.7254633971
 20
8.2198956421
 30
0.0
 10
12.7260082844
 20
8.2037690467
 30
0.0
 10
12.726165111
 20
8.1915563515
 30
0.0
 10
12.726165111
 20
8.1833475607
 30
0.0
  0
SPLINE
  5
423
100
AcDbEntity
  8
0
100
AcDbSpline
 62
7
  6
CONTINUOUS
 70
0
 71
3
 72
36
 73
32
 74
0
 42
0.0000001
 43
0.0000001
 44
0.0000000001
 40
0.0
 40
0.0
 40
0.0
 40
0.0
 40
0.0063161301
 40
0.0126711618
 40
0.0191032555
 40
0.0256490674
 40
0.0392093961
 40
0.0536077993
 40
0.0690451818
 40
0.085678762
 40
0.1036273866
 40
0.1229777329
 40
0.1437910022
 40
0.1661073464
 40
0.1899506197
 40
0.2153310931
 40
0.2422479442
 40
0.2706913918
 40
0.300643501
 40
0.3320800296
 40
0.3649705882
 40
0.3992798002
 40
0.4349677221
 40
0.471990086
 40
0.5102991832
 40
0.5498435491
 40
0.632415476
 40
0.7192400745
 40
0.8098103956
 40
0.9035852046
 40
1.0
 40
1.0
 40
1.0
 40
1.0
 10
12.6448585988
 20
8.3535441336
 30
0.0
 10
12.6452557927
 20
8.3535165855
 30
0.0
 10
12.6460507509
 20
8.3534288112
 30
0.0
 10
12.647234276
 20
8.3532000579
 30
0.0
 10
12.648409917
 20
8.3528741276
 30
0.0
 10
12.6499841226
 20
8.3523039311
 30
0.0
 10
12.6519402003
 20
8.3513345868
 30
0.0
 10
12.6542135285
 20
8.3498007803
 30
0.0
 10
12.6564393059
 20
8.3478875484
 30
0.0
 10
12.6586150884
 20
8.3455992467
 30
0.0
 10
12.6607388701
 20
8.3429398755
 30
0.0
 10
12.6628082561
 20
8.3399137007
 30
0.0
 10
12.6648204943
 20
8.3365253222
 30
0.0
 10
12.6667727916
 20
8.3327799891
 30
0.0
 10
12.6686621581
 20
8.3286835124
 30
0.0
 10
12.6704856438
 20
8.3242423632
 30
0.0
 10
12.672240346
 20
8.3194636316
 30
0.0
 10
12.6739233567
 20
8.314355
 30
0.0
 10
12.6755319691
 20
8.3089247548
 30
0.0
 10
12.6770634683
 20
8.3031817274
 30
0.0
 10
12.6785153496
 20
8.2971353034
 30
0.0
 10
12.6798851882
 20
8.2907953828
 30
0.0
 10
12.6811706891
 20
8.2841723663
 30
0.0
 10
12.6823697409
 20
8.2772771381
 30
0.0
 10
12.6834803257
 20
8.2701210262
 30
0.0
 10
12.6848605621
 20
8.2601025616
 30
0.0
 10
12.6863402599
 20
8.2470127315
 30
0.0
 10
12.687713998
 20
8.2306810114
 30
0.0
 10
12.6887008177
 20
8.2136140308
 30
0.0
 10
12.6892940277
 20
8.1959242494
 30
0.0
 10
12.6894227696
 20
8.1839348526
 30
0.0
 10
12.6894227696
 20
8.1778571821
 30
0.0
  0
SPLINE
  5
424
100
AcDbEntity
  8
0
100
AcDbSpline
 62
7
  6
CONTINUOUS
 70
0
 71
3
 72
50
 73
46
 74
0
 42
0.0000001
 43
0.0000001
 44
0.0000000001
 40
0.0
 40
0.0
 40
0.0
 40
0.0
 40
0.0055024549
 40
0.0112021236
 40
0.0171442382
 40
0.0233681201
 40
0.0299071201
 40
0.0367892169
 40
0.0440373364
 40
0.051670174
 40
0.0597025578
 40
0.068146144
 40
0.0770097575
 40
0.0862998338
 40
0.096020771
 40
0.106175109
 40
0.1167639236
 40
0.1277867928
 40
0.139242224
 40
0.151127492
 40
0.163439047
 40
0.176172332
 40
0.189322098
 40
0.2028822918
 40
0.2312057912
 40
0.2610830105
 40
0.2924445493
 40
0.3252134588
 40
0.3593061142
 40
0.3946329552
 40
0.4310991327
 40
0.4686050911
 40
0.5070471051
 40
0.5463177842
 40
0.5863065545
 40
0.6269001277
 40
0.6679829567
 40
0.7094376864
 40
0.7511455917
 40
0.7929870363
 40
0.8348418525
 40
0.8765899591
 40
0.9181112927
 40
0.9592874873
 40
1.0
 40
1.0
 40
1.0
 40
1.0
 10
12.6348978443
 20
7.6786968548
 30
0.0
 10
12.6359425257
 20
7.6789135783
 30
0.0
 10
12.6380475019
 20
7.679466673
 30
0.0
 10
12.6411698434
 20
7.6806207837
 30
0.0
 10
12.6443024041
 20
7.6821098834
 30
0.0
 10
12.647442526
 20
7.6839321406
 30
0.0
 10
12.6505884153
 20
7.6860855801
 30
0.0
 10
12.653737968
 20
7.688568366
 30
0.0
 10
12.6568892627
 20
7.6913783694
 30
0.0
 10
12.6600401437
 20
7.6945134816
 30
0.0
 10
12.663188531
 20
7.6979712797
 30
0.0
 10
12.6663321818
 20
7.7017492174
 30
0.0
 10
12.6694688677
 20
7.7058444682
 30
0.0
 10
12.672596307
 20
7.7102539838
 30
0.0
 10
12.675712166
 20
7.7149744818
 30
0.0
 10
12.6788141636
 20
7.7200024055
 30
0.0
 10
12.6818999078
 20
7.7253339985
 30
0.0
 10
12.6849671359
 20
7.7309652124
 30
0.0
 10
12.6880134424
 20
7.7368918149
 30
0.0
 10
12.6910365829
 20
7.7431092894
 30
0.0
 10
12.6940341809
 20
7.7496129357
 30
0.0
 10
12.6970039978
 20
7.7563977894
 30
0.0
 10
12.6999437409
 20
7.7634587027
 30
0.0
 10
12.7038774949
 20
7.7733786024
 30
0.0
 10
12.7086920649
 20
7.7864360466
 30
0.0
 10
12.7142340993
 20
7.8028962249
 30
0.0
 10
12.7196042906
 20
7.8203172209
 30
0.0
 10
12.7247860917
 20
7.8386458456
 30
0.0
 10
12.7297635202
 20
7.8578262699
 30
0.0
 10
12.7345212335
 20
7.8777999364
 30
0.0
 10
12.7390445716
 20
7.898505833
 30
0.0
 10
12.7433196034
 20
7.9198806671
 30
0.0
 10
12.7473331691
 20
7.9418590739
 30
0.0
 10
12.7510729193
 20
7.96437382
 30
0.0
 10
12.7545273536
 20
7.9873560144
 30
0.0
 10
12.7576858537
 20
8.0107353229
 30
0.0
 10
12.760538716
 20
8.034440187
 30
0.0
 10
12.7630771799
 20
8.0583980443
 30
0.0
 10
12.7652934562
 20
8.0825355549
 30
0.0
 10
12.7671807454
 20
8.106778819
 30
0.0
 10
12.7687332717
 20
8.1310536321
 30
0.0
 10
12.7699462713
 20
8.1552856328
 30
0.0
 10
12.7708160641
 20
8.1794007369
 30
0.0
 10
12.7713399722
 20
8.2033249494
 30
0.0
 10
12.7714584065
 20
8.2192033807
 30
0.0
 10
12.7714584065
 20
8.2270975272
 30
0.0
  0
SPLINE
  5
425
100
AcDbEntity
  8
0
100
AcDbSpline
 62
7
  6
CONTINUOUS
 70
0
 71
3
 72
54
 73
50
 74
0
 42
0.0000001
 43
0.0000001
 44
0.0000000001
 40
0.0
 40
0.0
 40
0.0
 40
0.0
 40
0.0079608929
 40
0.0154479011
 40
0.0224997463
 40
0.029164869
 40
0.0355023053
 40
0.0415822454
 40
0.0474851672
 40
0.0532997474
 40
0.0591190586
 40
0.0650359256
 40
0.0711383575
 40
0.0775058463
 40
0.0842074985
 40
0.0913012076
 40
0.098834431
 40
0.1068449334
 40
0.1153624144
 40
0.1244094283
 40
0.1340028531
 40
0.1441545414
 40
0.1548723952
 40
0.1661607691
 40
0.1780211837
 40
0.1904525971
 40
0.2034518319
 40
0.2170138085
 40
0.2311317488
 40
0.2457974277
 40
0.2610012017
 40
0.276732304
 40
0.309726529
 40
0.3446741089
 40
0.3814537156
 40
0.419931909
 40
0.4599647045
 40
0.5013989284
 40
0.5440734312
 40
0.5878202113
 40
0.6324654762
 40
0.6778306669
 40
0.7237334516
 40
0.7699887192
 40
0.8164095151
 40
0.8628081129
 40
0.9089966902
 40
0.954788995
 40
1.0
 40
1.0
 40
1.0
 40
1.0
 10
12.6228010439
 20
7.8628805232
 30
0.0
 10
12.6234287697
 20
7.8621086935
 30
0.0
 10
12.6246949357
 20
7.8606489918
 30
0.0
 10
12.6266915395
 20
7.8586652007
 30
0.0
 10
12.62872363
 20
7.8569590728
 30
0.0
 10
12.6307895422
 20
7.8555329907
 30
0.0
 10
12.6328876931
 20
7.8543894022
 30
0.0
 10
12.6350159819
 20
7.8535307075
 30
0.0
 10
12.6371717506
 20
7.8529594016
 30
0.0
 10
12.6393514721
 20
7.8526771955
 30
0.0
 10
12.6415510979
 20
7.8526850813
 30
0.0
 10
12.643766508
 20
7.8529825049
 30
0.0
 10
12.6459940293
 20
7.8535681948
 30
0.0
 10
12.6482307706
 20
7.854439973
 30
0.0
 10
12.6504743553
 20
7.8555957998
 30
0.0
 10
12.6527229078
 20
7.8570333999
 30
0.0
 10
12.6549745235
 20
7.858750809
 30
0.0
 10
12.657227433
 20
7.8607458354
 30
0.0
 10
12.659479608
 20
7.863016354
 30
0.0
 10
12.6617290681
 20
7.8655599042
 30
0.0
 10
12.6639735926
 20
7.8683738969
 30
0.0
 10
12.6662110146
 20
7.871455379
 30
0.0
 10
12.6684390054
 20
7.8748011757
 30
0.0
 10
12.6706552919
 20
7.8784077676
 30
0.0
 10
12.6728575136
 20
7.8822713755
 30
0.0
 10
12.6750433524
 20
7.8863879065
 30
0.0
 10
12.6772104636
 20
7.8907529952
 30
0.0
 10
12.6793565223
 20
7.8953619908
 30
0.0
 10
12.6814792292
 20
7.9002099703
 30
0.0
 10
12.6835762731
 20
7.9052917465
 30
0.0
 10
12.6856454382
 20
7.9106018731
 30
0.0
 10
12.6884081116
 20
7.91809858
 30
0.0
 10
12.6917654861
 20
7.9280036502
 30
0.0
 10
12.6955874205
 20
7.9405218996
 30
0.0
 10
12.6992471939
 20
7.9538006638
 30
0.0
 10
12.7027288876
 20
7.9677828353
 30
0.0
 10
12.7060173405
 20
7.9824083827
 30
0.0
 10
12.7090982515
 20
7.9976143798
 30
0.0
 10
12.7119582307
 20
8.0133353674
 30
0.0
 10
12.7145848592
 20
8.0295036267
 30
0.0
 10
12.7169667401
 20
8.0460494868
 30
0.0
 10
12.7190935467
 20
8.0629016294
 30
0.0
 10
12.7209560661
 20
8.0799874029
 30
0.0
 10
12.7225462366
 20
8.0972331361
 30
0.0
 10
12.723857187
 20
8.1145644707
 30
0.0
 10
12.7248832536
 20
8.1319066502
 30
0.0
 10
12.7256200297
 20
8.1491849395
 30
0.0
 10
12.726064343
 20
8.1663247242
 30
0.0
 10
12.726165111
 20
8.177697573
 30
0.0
 10
12.726165111
 20
8.1833475607
 30
0.0
  0
SPLINE
  5
426
100
AcDbEntity
  8
0
100
AcDbSpline
 62
7
  6
CONTINUOUS
 70
0
 71
3
 72
50
 73
46
 74
0
 42
0.0000001
 43
0.0000001
 44
0.0000000001
 40
0.0
 40
0.0
 40
0.0
 40
0.0
 40
0.0055575475
 40
0.0111779905
 40
0.0169219494
 40
0.022845874
 40
0.0290006802
 40
0.0354311413
 40
0.0421756235
 40
0.0492665445
 40
0.0567306363
 40
0.0645898203
 40
0.072861554
 40
0.081559664
 40
0.0906946644
 40
0.1002743405
 40
0.1103040801
 40
0.1207871571
 40
0.1317251254
 40
0.1431178344
 40
0.1549638891
 40
0.1672604853
 40
0.1800038776
 40
0.1931891613
 40
0.2208606557
 40
0.2502207678
 40
0.2812026806
 40
0.3137298604
 40
0.3477172945
 40
0.3830725052
 40
0.4196964085
 40
0.4574840669
 40
0.4963253675
 40
0.5361056481
 40
0.5767062875
 40
0.6180052701
 40
0.6598777364
 40
0.7021965195
 40
0.744832668
 40
0.7876559879
 40
0.8305354945
 40
0.8733401402
 40
0.9159387341
 40
0.9582019299
 40
1.0
 40
1.0
 40
1.0
 40
1.0
 10
10.6430825988
 20
9.7576844911
 30
0.0
 10
10.643082605
 20
9.7585156885
 30
0.0
 10
10.6431757118
 20
9.7601889351
 30
0.0
 10
10.6435934135
 20
9.7626898731
 30
0.0
 10
10.6442885144
 20
9.7651852342
 30
0.0
 10
10.6452596676
 20
9.7676721145
 30
0.0
 10
10.646505234
 20
9.7701485221
 30
0.0
 10
10.6480236032
 20
9.772612518
 30
0.0
 10
10.6498129676
 20
9.7750624689
 30
0.0
 10
10.6518716572
 20
9.7774966527
 30
0.0
 10
10.6541977493
 20
9.7799135091
 30
0.0
 10
10.656789366
 20
9.7823112803
 30
0.0
 10
10.6596443423
 20
9.7846883229
 30
0.0
 10
10.6627604355
 20
9.7870428245
 30
0.0
 10
10.6661351377
 20
9.7893730405
 30
0.0
 10
10.6697657718
 20
9.7916771521
 30
0.0
 10
10.6736494376
 20
9.7939533438
 30
0.0
 10
10.6777830128
 20
9.7961998311
 30
0.0
 10
10.6821631873
 20
9.7984147673
 30
0.0
 10
10.6867864079
 20
9.8005964201
 30
0.0
 10
10.691648953
 20
9.8027429532
 30
0.0
 10
10.6967468588
 20
9.8048526802
 30
0.0
 10
10.7020760047
 20
9.8069238386
 30
0.0
 10
10.7096057594
 20
9.8096761266
 30
0.0
 10
10.719571303
 20
9.8129968437
 30
0.0
 10
10.7321933138
 20
9.816740649
 30
0.0
 10
10.7456231358
 20
9.8202924965
 30
0.0
 10
10.7598169408
 20
9.8236406505
 30
0.0
 10
10.77472854
 20
9.8267740157
 30
0.0
 10
10.790309255
 20
9.8296822166
 30
0.0
 10
10.8065081831
 20
9.8323556239
 30
0.0
 10
10.823272352
 20
9.8347853903
 30
0.0
 10
10.8405469098
 20
9.836963478
 30
0.0
 10
10.8582753095
 20
9.8388826852
 30
0.0
 10
10.8763995001
 20
9.8405366684
 30
0.0
 10
10.8948601202
 20
9.8419199637
 30
0.0
 10
10.9135966969
 20
9.8430280024
 30
0.0
 10
10.9325478454
 20
9.8438571256
 30
0.0
 10
10.9516514749
 20
9.8444045972
 30
0.0
 10
10.9708449852
 20
9.8446686075
 30
0.0
 10
10.9900654995
 20
9.8446482903
 30
0.0
 10
11.0092499962
 20
9.8443437025
 30
0.0
 10
11.0283357073
 20
9.8437558656
 30
0.0
 10
11.0472599416
 20
9.8428866991
 30
0.0
 10
11.059809302
 20
9.842116591
 30
0.0
 10
11.066045722
 20
9.8416840938
 30
0.0
  0
SPLINE
  5
427
100
AcDbEntity
  8
0
100
AcDbSpline
 62
7
  6
CONTINUOUS
 70
0
 71
3
 72
45
 73
41
 74
0
 42
0.0000001
 43
0.0000001
 44
0.0000000001
 40
0.0
 40
0.0
 40
0.0
 40
0.0
 40
0.0053769894
 40
0.0108200967
 40
0.0163928407
 40
0.0221540974
 40
0.0281565646
 40
0.0344461353
 40
0.0410619157
 40
0.0480363962
 40
0.0553963894
 40
0.0631633876
 40
0.07135452
 40
0.0799831108
 40
0.089059096
 40
0.0985898313
 40
0.1085800533
 40
0.1190326168
 40
0.129948517
 40
0.1413271349
 40
0.1531666395
 40
0.1654637496
 40
0.1914117705
 40
0.219127337
 40
0.2485518986
 40
0.2796157864
 40
0.3122397384
 40
0.3463360926
 40
0.3818097572
 40
0.4185590894
 40
0.4564766425
 40
0.4954498341
 40
0.5353615645
 40
0.5760907922
 40
0.6175131049
 40
0.659501291
 40
0.7446533626
 40
0.8304958184
 40
0.9159639269
 40
1.0
 40
1.0
 40
1.0
 40
1.0
 10
12.6123420895
 20
7.8846703206
 30
0.0
 10
12.612905038
 20
7.8846312763
 30
0.0
 10
12.6140434694
 20
7.8846182578
 30
0.0
 10
12.6157581866
 20
7.8847952849
 30
0.0
 10
12.6174824866
 20
7.8851680324
 30
0.0
 10
12.6192142617
 20
7.8857357025
 30
0.0
 10
12.6209520886
 20
7.8864971443
 30
0.0
 10
12.6226946459
 20
7.8874512129
 30
0.0
 10
12.6244406993
 20
7.8885968087
 30
0.0
 10
12.6261891401
 20
7.889932685
 30
0.0
 10
12.6279387199
 20
7.891457706
 30
0.0
 10
12.629688267
 20
7.8931705219
 30
0.0
 10
12.6314364973
 20
7.8950697541
 30
0.0
 10
12.6331820858
 20
7.8971538815
 30
0.0
 10
12.6349237437
 20
7.8994212017
 30
0.0
 10
12.6366600399
 20
7.9018699351
 30
0.0
 10
12.638389656
 20
7.904498073
 30
0.0
 10
12.6401111591
 20
7.9073035125
 30
0.0
 10
12.6418231607
 20
7.9102839705
 30
0.0
 10
12.6435242819
 20
7.9134370109
 30
0.0
 10
12.645213101
 20
7.9167600779
 30
0.0
 10
12.6474875015
 20
7.9214991968
 30
0.0
 10
12.6502813904
 20
7.9278349363
 30
0.0
 10
12.6535061559
 20
7.9359383614
 30
0.0
 10
12.6566496491
 20
7.9446465971
 30
0.0
 10
12.6597014122
 20
7.9539310168
 30
0.0
 10
12.6626512679
 20
7.9637612065
 30
0.0
 10
12.6654893776
 20
7.9741048181
 30
0.0
 10
12.6682062829
 20
7.98492777
 30
0.0
 10
12.6707929309
 20
7.9961943539
 30
0.0
 10
12.6732407067
 20
8.0078673719
 30
0.0
 10
12.6755414606
 20
8.0199082628
 30
0.0
 10
12.6776875374
 20
8.0322772358
 30
0.0
 10
12.6796717915
 20
8.0449333904
 30
0.0
 10
12.6814876633
 20
8.0578349024
 30
0.0
 10
12.6836863195
 20
8.075388502
 30
0.0
 10
12.6859683931
 20
8.0976271677
 30
0.0
 10
12.6879449971
 20
8.1244732093
 30
0.0
 10
12.6891460096
 20
8.1512477869
 30
0.0
 10
12.6894227696
 20
8.1690378174
 30
0.0
 10
12.6894227696
 20
8.1778571821
 30
0.0
  0
ENDSEC
  0
SECTION
  2
OBJECTS
  0
DICTIONARY
  5
C
100
AcDbDictionary
280
0
281
1
  3
ACAD_GROUP
350
D
  3
ACAD_MLINESTYLE
350
17
  3
ACAD_LAYOUT
350
1A
  3
ACAD_PLOTSETTINGS
350
19
  3
ACAD_PLOTSTYLENAME
350
E
  3
ACAD_IMAGE_DICT
350
       429
  3
ACAD_IMAGE_VARS
350
       42A
  3
ACAD_TABLESTYLE
350
       42B
  0
IMAGEDEF_REACTOR
  5
428
100
AcDbRasterImageDefReactor
 90
2
330
291
  0
DICTIONARY
  5
D
102
{ACAD_REACTORS
330
C
102
}
100
AcDbDictionary
280
0
281
1
  0
ACDBDICTIONARYWDFLT
  5
E
102
{ACAD_REACTORS
330
C
102
}
100
AcDbDictionary
281
1
  3
Normal
350
F
100
AcDbDictionaryWithDefault
340
F
  0
DICTIONARY
  5
429
330
C
100
AcDbDictionary
281
1
  3
BQV_assy_2_img_1
350
       42E
  0
RASTERVARIABLES
  5
42A
330
C
100
AcDbRasterVariables
 90
0
 70
0
 71
1
 72
5
  0
DICTIONARY
  5
17
102
{ACAD_REACTORS
330
C
102
}
100
AcDbDictionary
280
0
281
1
  3
Standard
350
18
  0
DICTIONARY
  5
42B
330
C
100
AcDbDictionary
281
1
  3
Standard
350
       42F
  3
Standard1
350
       430
  0
DICTIONARY
  5
19
102
{ACAD_REACTORS
330
C
102
}
100
AcDbDictionary
281
1
  0
DICTIONARY
  5
1A
102
{ACAD_REACTORS
330
C
102
}
100
AcDbDictionary
281
1
  3
Model
350
42C
  3
Layout1
350
42D
  0
ACDBPLACEHOLDER
  5
F
102
{ACAD_REACTORS
330
E
102
}
  0
MLINESTYLE
  5
18
102
{ACAD_REACTORS
330
17
102
}
100
AcDbMlineStyle
  2
STANDARD
 70
0
  3

 62
256
 51
90.0
 52
90.0
 71
2
 49
0.5
 62
256
  6
BYLAYER
 49
-0.5
 62
256
  6
BYLAYER
  0
LAYOUT
  5
42C
102
{ACAD_REACTORS
330
1A
102
}
100
AcDbPlotSettings
  1

  2
none_device
  4
ANSI_C_(22.00_x_17.00_Inches)
  6

 40
0.0
 41
0.0
 42
0.0
 43
0.0
 44
558.8
 45
431.8
 46
0.0
 47
0.0
 48
0.0
 49
0.0
140
0.0
141
0.0
142
1.0
143
1.0
 70
1024
 72
0
 73
0
 74
0
  7

 75
0
147
1.0
148
0.0
149
0.0
100
AcDbLayout
  1
Model
 70
0
 71
0
 10
0.0
 20
0.0
 11
22.0
 21
17.0
 12
0.0
 22
0.0
 32
0.0
 14
0.0
 24
0.0
 34
0.0
 15
0.0
 25
0.0
 35
0.0
146
0.0
 13
0.0
 23
0.0
 33
0.0
 16
1.0
 26
0.0
 36
0.0
 17
0.0
 27
1.0
 37
0.0
 76
0
330
20E
345
0
346
0
  0
LAYOUT
  5
42D
102
{ACAD_REACTORS
330
1A
102
}
100
AcDbPlotSettings
  1

  2
none_device
  4
ANSI_C_(22.00_x_17.00_Inches)
  6

 40
0.0
 41
0.0
 42
0.0
 43
0.0
 44
558.8
 45
431.8
 46
0.0
 47
0.0
 48
0.0
 49
0.0
140
0.0
141
0.0
142
1.0
143
1.0
 70
0
 72
0
 73
0
 74
0
  7

 75
0
147
1.0
148
0.0
149
0.0
100
AcDbLayout
  1
Layout1
 70
0
 71
1
 10
0.0
 20
0.0
 11
22.0
 21
17.0
 12
0.0
 22
0.0
 32
0.0
 14
0.0
 24
0.0
 34
0.0
 15
0.0
 25
0.0
 35
0.0
146
0.0
 13
0.0
 23
0.0
 33
0.0
 16
1.0
 26
0.0
 36
0.0
 17
0.0
 27
1.0
 37
0.0
 76
0
330
20F
345
0
346
0
  0
IMAGEDEF
  5
42E
102
{ACAD_REACTORS
330
429
330
428
102
}
100
AcDbRasterImageDef
 90
0
  1
BQV_assy_2_img_1.png
 10
369.0
 20
92.0
 11
0.0066666667
 21
0.0066666667
280
1
281
0
  0
TABLESTYLE
  5
42F
102
{ACAD_REACTORS
330
42B
330
294
330
295
102
}
330
42B
100
AcDbTableStyle
  3
Standard
 70
0
 71
0
 40
0.06
 41
0.06
280
1
281
1
  7
Standard
140
0.18
170
1
 62
0
 63
7
283
0
  7
Standard
140
0.18
170
1
 62
0
 63
7
283
0
  7
Standard
140
0.18
170
1
 62
0
 63
7
283
0
  0
TABLESTYLE
  5
430
102
{ACAD_REACTORS
330
42B
330
293
102
}
330
42B
100
AcDbTableStyle
  3
Standard1
 70
1
 71
0
 40
0.06
 41
0.06
280
1
281
1
  7
Standard
140
0.18
170
1
 62
0
 63
7
283
0
  7
Standard
140
0.18
170
1
 62
0
 63
7
283
0
  7
Standard
140
0.18
170
1
 62
0
 63
7
283
0
  0
ENDSEC
  0
EOF
