999
DXF file: BQK_assy_2.dxf
999
Pro/ENGINEER 2014200 by Parametric Technology Corporation
  0
SECTION
  2
HEADER
  9
$ACADVER
  1
AC1021
  9
$DWGCODEPAGE
  3
ANSI_1252
  9
$EXTMAX
 10
22.0
 20
17.0
 30
0.0
  9
$EXTMIN
 10
0.0
 20
0.0
 30
0.0
  9
$LIMMIN
 10
0.0
 20
0.0
  9
$LIMMAX
 10
22.0
 20
17.0
  9
$VIEWCTR
 10
11.0
 20
8.5
  9
$VIEWSIZE
 40
17.0
  9
$CLAYER
  8
0
  9
$LTSCALE
 40
1.21
  9
$CELTYPE
  6
BYLAYER
  9
$DIMSCALE
 40
1.0
  9
$DIMASZ
 40
0.1875
  9
$DIMEXO
 40
0.0625
  9
$DIMDLI
 40
0.836
  9
$DIMEXE
 40
0.125
  9
$DIMCEN
 40
0.198
  9
$DIMLFAC
 40
1.0
  9
$DIMBLK
  1
_FILLED
  9
$DIMTXT
 40
0.1
  9
$DIMTOL
 70
0
  9
$DIMLIM
 70
0
  9
$DIMTFAC
 40
1.0
  9
$DIMGAP
 40
0.09
  9
$DIMDSEP
 70
46
  9
$AUNITS
 70
0
  9
$PDMODE
 70
3
  9
$PDSIZE
 40
0.3125
  9
$HANDSEED
  5
432
  9
$TILEMODE
 70
1
  9
$MEASUREMENT
 70
0
  9
$INSUNITS
 70
1
  0
ENDSEC
  0
SECTION
  2
CLASSES
  0
CLASS
  1
ACDBDICTIONARYWDFLT
  2
AcDbDictionaryWithDefault
  3
AutoCAD 2000
 90
0
 91
1
280
0
281
0
  0
CLASS
  1
ACDBPLACEHOLDER
  2
AcDbPlaceHolder
  3
AutoCAD 2000
 90
0
 91
1
280
0
281
0
  0
CLASS
  1
LAYOUT
  2
AcDbLayout
  3
AutoCAD 2000
 90
0
 91
0
280
0
281
0
  0
CLASS
  1
RASTERVARIABLES
  2
AcDbRasterVariables
  3
ISM
 90
0
 91
1
280
0
281
0
  0
CLASS
  1
IMAGEDEF
  2
AcDbRasterImageDef
  3
ISM
 90
0
 91
1
280
0
281
0
  0
CLASS
  1
IMAGEDEF_REACTOR
  2
AcDbRasterImageDefReactor
  3
ISM
 90
0
 91
1
280
0
281
0
  0
CLASS
  1
IMAGE
  2
AcDbRasterImage
  3
ISM
 90
127
 91
1
280
0
281
1
  0
CLASS
  1
TABLESTYLE
  2
AcDbTableStyle
  3
ObjectDBX Classes
 90
2047
 91
1
280
0
281
0
  0
CLASS
  1
ACAD_TABLE
  2
AcDbTable
  3
ObjectDBX Classes
 90
1025
 91
3
280
0
281
1
  0
ENDSEC
  0
SECTION
  2
TABLES
  0
TABLE
  2
VPORT
  5
8
100
AcDbSymbolTable
 70
2
  0
VPORT
  5
1F4
100
AcDbSymbolTableRecord
100
AcDbViewportTableRecord
  2
*ACTIVE
 70
0
 10
0.0
 20
0.0
 11
1.0
 21
1.0
 12
11.0
 22
8.5
 13
0.0
 23
0.0
 14
1.0
 24
1.0
 15
0.0
 25
0.0
 16
0.0
 26
0.0
 36
1.0
 17
0.0
 27
0.0
 37
0.0
 40
17.0
 41
1.2941176471
 42
50.0
 43
0.0
 44
0.0
 50
0.0
 51
0.0
 71
0
 72
100
 73
1
 74
1
 75
0
 76
0
 77
0
 78
0
  0
ENDTAB
  0
TABLE
  2
LTYPE
  5
5
100
AcDbSymbolTable
 70
6
  0
LTYPE
  5
14
100
AcDbSymbolTableRecord
100
AcDbLinetypeTableRecord
  2
BYBLOCK
 70
0
  3

 72
65
 73
0
 40
0.0
  0
LTYPE
  5
15
100
AcDbSymbolTableRecord
100
AcDbLinetypeTableRecord
  2
BYLAYER
 70
0
  3

 72
65
 73
0
 40
0.0
  0
LTYPE
  5
16
100
AcDbSymbolTableRecord
100
AcDbLinetypeTableRecord
  2
CONTINUOUS
 70
64
  3
Solid line
 72
65
 73
0
 40
0.0
  0
LTYPE
  5
1F5
100
AcDbSymbolTableRecord
100
AcDbLinetypeTableRecord
  2
CENTER
 70
64
  3
____ _ ____ _ ____ _ ____ _ ____ _ ____ _ ____
 72
65
 73
4
 40
0.6
 49
0.375
 74
0
 49
-0.075
 74
0
 49
0.075
 74
0
 49
-0.075
 74
0
  0
LTYPE
  5
1F6
100
AcDbSymbolTableRecord
100
AcDbLinetypeTableRecord
  2
HIDDEN
 70
64
  3
- - - - - - - - - - - - - - - - - - - -
 72
65
 73
2
 40
0.2
 49
0.1
 74
0
 49
-0.1
 74
0
  0
LTYPE
  5
1F7
100
AcDbSymbolTableRecord
100
AcDbLinetypeTableRecord
  2
PHANTOM
 70
64
  3
_____ _ _ _____ _ _ _____ _ _ _____
 72
65
 73
6
 40
0.8
 49
0.45
 74
0
 49
-0.05
 74
0
 49
0.1
 74
0
 49
-0.05
 74
0
 49
0.1
 74
0
 49
-0.05
 74
0
  0
LTYPE
  5
1F8
100
AcDbSymbolTableRecord
100
AcDbLinetypeTableRecord
  2
DOT
 70
64
  3
. . . . . . . . . . . . . . . . . . . .
 72
65
 73
2
 40
0.2
 49
0.1
 74
0
 49
-0.1
 74
0
  0
LTYPE
  5
1F9
100
AcDbSymbolTableRecord
100
AcDbLinetypeTableRecord
  2
DASHED
 70
64
  3
- - - - - - - - - - - - - - - - - - - -
 72
65
 73
2
 40
0.2
 49
0.1
 74
0
 49
-0.1
 74
0
  0
ENDTAB
  0
TABLE
  2
LAYER
  5
2
100
AcDbSymbolTable
 70
36
  0
LAYER
  5
10
100
AcDbSymbolTableRecord
100
AcDbLayerTableRecord
  2
0
 70
0
 62
7
  6
CONTINUOUS
370
-3
390
F
  0
LAYER
  5
1FA
100
AcDbSymbolTableRecord
100
AcDbLayerTableRecord
  2
DEFAULT_1
 70
0
 62
7
  6
CENTER
370
-3
390
F
  0
LAYER
  5
1FB
100
AcDbSymbolTableRecord
100
AcDbLayerTableRecord
  2
DEFAULT_2
 70
0
 62
8
  6
HIDDEN
370
-3
390
F
  0
LAYER
  5
1FC
100
AcDbSymbolTableRecord
100
AcDbLayerTableRecord
  2
DEFAULT_3
 70
0
 62
7
  6
PHANTOM
370
-3
390
F
  0
LAYER
  5
1FD
100
AcDbSymbolTableRecord
100
AcDbLayerTableRecord
  2
01___PRT_ALL_DTM_PLN
 70
0
 62
7
  6
CONTINUOUS
370
-3
390
F
  0
LAYER
  5
1FE
100
AcDbSymbolTableRecord
100
AcDbLayerTableRecord
  2
01___PRT_DEF_DTM_PLN
 70
0
 62
7
  6
CONTINUOUS
370
-3
390
F
  0
LAYER
  5
1FF
100
AcDbSymbolTableRecord
100
AcDbLayerTableRecord
  2
02___PRT_ALL_AXES
 70
0
 62
7
  6
CONTINUOUS
370
-3
390
F
  0
LAYER
  5
200
100
AcDbSymbolTableRecord
100
AcDbLayerTableRecord
  2
03___PRT_ALL_CURVES
 70
0
 62
7
  6
CONTINUOUS
370
-3
390
F
  0
LAYER
  5
201
100
AcDbSymbolTableRecord
100
AcDbLayerTableRecord
  2
04___PRT_ALL_DTM_PNT
 70
0
 62
7
  6
CONTINUOUS
370
-3
390
F
  0
LAYER
  5
202
100
AcDbSymbolTableRecord
100
AcDbLayerTableRecord
  2
05___PRT_ALL_DTM_CSYS
 70
0
 62
7
  6
CONTINUOUS
370
-3
390
F
  0
LAYER
  5
203
100
AcDbSymbolTableRecord
100
AcDbLayerTableRecord
  2
05___PRT_DEF_DTM_CSYS
 70
0
 62
7
  6
CONTINUOUS
370
-3
390
F
  0
LAYER
  5
204
100
AcDbSymbolTableRecord
100
AcDbLayerTableRecord
  2
06___PRT_ALL_SURFS
 70
0
 62
7
  6
CONTINUOUS
370
-3
390
F
  0
LAYER
  5
205
100
AcDbSymbolTableRecord
100
AcDbLayerTableRecord
  2
DATUM_PLANES
 70
0
 62
7
  6
CONTINUOUS
370
-3
390
F
  0
LAYER
  5
206
100
AcDbSymbolTableRecord
100
AcDbLayerTableRecord
  2
DIMENSIONS
 70
0
 62
7
  6
CONTINUOUS
370
-3
390
F
  0
LAYER
  5
207
100
AcDbSymbolTableRecord
100
AcDbLayerTableRecord
  2
PARAMETERDIMENSIONS
 70
0
 62
7
  6
CONTINUOUS
370
-3
390
F
  0
LAYER
  5
208
100
AcDbSymbolTableRecord
100
AcDbLayerTableRecord
  2
PORT_AREAS
 70
0
 62
7
  6
CONTINUOUS
370
-3
390
F
  0
LAYER
  5
209
100
AcDbSymbolTableRecord
100
AcDbLayerTableRecord
  2
SUNNBOMCOSMETIC
 70
0
 62
7
  6
CONTINUOUS
370
-3
390
F
  0
LAYER
  5
20A
100
AcDbSymbolTableRecord
100
AcDbLayerTableRecord
  2
SUNNBOMSTAMPING
 70
0
 62
7
  6
CONTINUOUS
370
-3
390
F
  0
LAYER
  5
20B
100
AcDbSymbolTableRecord
100
AcDbLayerTableRecord
  2
THREADS
 70
0
 62
7
  6
CONTINUOUS
370
-3
390
F
  0
ENDTAB
  0
TABLE
  2
STYLE
  5
3
100
AcDbSymbolTable
 70
1
  0
STYLE
  5
11
100
AcDbSymbolTableRecord
100
AcDbTextStyleTableRecord
  2
STANDARD
 70
0
 40
0.0
 41
0.8
 50
0.0
 71
0
 42
0.2
  3
txt
  4

  0
STYLE
  5
20C
100
AcDbSymbolTableRecord
100
AcDbTextStyleTableRecord
  2
TEXTSTYLE_1
 70
0
 40
0.0
 41
0.8
 50
0.0
 71
0
 42
0.2
  3
gdt
  4

  0
ENDTAB
  0
TABLE
  2
VIEW
  5
6
100
AcDbSymbolTable
 70
0
  0
ENDTAB
  0
TABLE
  2
UCS
  5
7
100
AcDbSymbolTable
 70
0
  0
ENDTAB
  0
TABLE
  2
APPID
  5
9
100
AcDbSymbolTable
 70
1
  0
APPID
  5
20D
100
AcDbSymbolTableRecord
100
AcDbRegAppTableRecord
  2
ACAD
 70
0
  0
ENDTAB
  0
TABLE
  2
BLOCK_RECORD
  5
1
100
AcDbSymbolTable
 70
0
  0
BLOCK_RECORD
  5
20E
100
AcDbSymbolTableRecord
100
AcDbBlockTableRecord
  2
*Model_Space
  0
BLOCK_RECORD
  5
20F
100
AcDbSymbolTableRecord
100
AcDbBlockTableRecord
  2
*Paper_Space
  0
BLOCK_RECORD
  5
210
100
AcDbSymbolTableRecord
100
AcDbBlockTableRecord
  2
SUN_FIRST_THIRD_ANGLE_BL0
  0
BLOCK_RECORD
  5
211
100
AcDbSymbolTableRecord
100
AcDbBlockTableRecord
  2
*T1
  0
BLOCK_RECORD
  5
212
100
AcDbSymbolTableRecord
100
AcDbBlockTableRecord
  2
*T2
  0
BLOCK_RECORD
  5
213
100
AcDbSymbolTableRecord
100
AcDbBlockTableRecord
  2
*T3
  0
ENDTAB
  0
TABLE
  2
DIMSTYLE
  5
A
100
AcDbSymbolTable
 70
1
100
AcDbDimStyleTable
 71
0
  0
DIMSTYLE
105
214
100
AcDbSymbolTableRecord
100
AcDbDimStyleTableRecord
  2
STANDARD
 70
0
  3

  4

 40
1.0
 41
0.1875
 42
0.0625
 43
0.38
 44
0.125
 45
0.0
 46
0.0
 47
0.001
 48
0.001
140
0.1
141
0.09
142
0.0
143
25.4
144
1.0
145
0.0
146
1.0
147
0.09
 71
0.0
 72
0.0
 73
1
 74
1
 75
0
 76
0
 77
0
 78
4
170
0
171
2
172
0
173
0
174
0
175
0
176
0
177
0
178
0
270
2
271
3
272
3
273
2
274
2
275
0
280
0
281
0
282
0
283
1
284
4
285
0
286
0
287
3
288
0
340
11
278
46
  0
ENDTAB
  0
ENDSEC
  0
SECTION
  2
BLOCKS
  0
BLOCK
  5
20
100
AcDbEntity
  8
0
100
AcDbBlockBegin
  2
*Model_Space
 70
0
 10
0.0
 20
0.0
 30
0.0
  3
*Model_Space
  1

  0
ENDBLK
  5
21
100
AcDbEntity
  8
0
100
AcDbBlockEnd
  0
BLOCK
  5
1C
100
AcDbEntity
  8
0
100
AcDbBlockBegin
  2
*Paper_Space
 70
0
 10
0.0
 20
0.0
 30
0.0
  3
*Paper_Space
  1

  0
ENDBLK
  5
1D
100
AcDbEntity
  8
0
100
AcDbBlockEnd
  0
BLOCK
  5
215
100
AcDbEntity
  8
0
100
AcDbBlockBegin
 62
2
  6
CONTINUOUS
  2
SUN_FIRST_THIRD_ANGLE_BL0
 70
64
 10
20.4816717061
 20
1.2289683772
  3
SUN_FIRST_THIRD_ANGLE_BL0
  1

  0
TEXT
  5
216
100
AcDbEntity
  8
0
100
AcDbText
 62
2
  6
CONTINUOUS
 10
19.4750896608
 20
1.4136269581
  7
STANDARD
 40
0.08
  1
FIRST ANGLE
 41
0.8
 72
0
100
AcDbText
  0
TEXT
  5
217
100
AcDbEntity
  8
0
100
AcDbText
 62
2
  6
CONTINUOUS
 10
20.7842537513
 20
1.4047600029
  7
STANDARD
 40
0.08
  1
THIRD ANGLE
 41
0.8
 72
0
100
AcDbText
  0
LINE
  5
218
100
AcDbEntity
  8
0
100
AcDbLine
 62
7
  6
CONTINUOUS
 10
19.4767170086
 20
1.1727031207
 11
19.6334271527
 21
1.1717972817
  0
LINE
  5
219
100
AcDbEntity
  8
0
100
AcDbLine
 62
7
  6
CONTINUOUS
 10
19.6596964832
 20
1.1717972817
 11
19.6950230232
 21
1.171593082
  0
LINE
  5
21A
100
AcDbEntity
  8
0
100
AcDbLine
 62
7
  6
CONTINUOUS
 10
19.7194818561
 20
1.1708914427
 11
19.8852396156
 21
1.1699333054
  0
LINE
  5
21B
100
AcDbEntity
  8
0
100
AcDbLine
 62
7
  6
CONTINUOUS
 10
19.4758111696
 20
1.2723454088
 11
19.88525039
 21
1.3511534004
  0
LINE
  5
21C
100
AcDbEntity
  8
0
100
AcDbLine
 62
7
  6
CONTINUOUS
 10
19.88525039
 20
1.3511534004
 11
19.8831348489
 21
0.9851647912
  0
LINE
  5
21D
100
AcDbEntity
  8
0
100
AcDbLine
 62
7
  6
CONTINUOUS
 10
19.8831348489
 20
0.9851647912
 11
19.4767170086
 21
1.0658141206
  0
LINE
  5
21E
100
AcDbEntity
  8
0
100
AcDbLine
 62
7
  6
CONTINUOUS
 10
19.4767170086
 20
1.0658141206
 11
19.4779056764
 21
1.2714536432
  0
CIRCLE
  5
21F
100
AcDbEntity
  8
0
100
AcDbCircle
 62
7
  6
CONTINUOUS
 10
20.2068232291
 20
1.1717972817
 40
0.175742101
  0
CIRCLE
  5
220
100
AcDbEntity
  8
0
100
AcDbCircle
 62
7
  6
CONTINUOUS
 10
20.2068232291
 20
1.1717972817
 40
0.1005522074
  0
LINE
  5
221
100
AcDbEntity
  8
0
100
AcDbLine
 62
7
  6
CONTINUOUS
 10
20.2077290681
 20
1.3756110529
 11
20.2071171714
 21
1.2379342989
  0
LINE
  5
222
100
AcDbEntity
  8
0
100
AcDbLine
 62
7
  6
CONTINUOUS
 10
20.2077290681
 20
1.2016899681
 11
20.2074674401
 21
1.1428236749
  0
LINE
  5
223
100
AcDbEntity
  8
0
100
AcDbLine
 62
7
  6
CONTINUOUS
 10
20.208634907
 20
1.101141841
 11
20.2080230104
 21
0.963465087
  0
LINE
  5
224
100
AcDbEntity
  8
0
100
AcDbLine
 62
7
  6
CONTINUOUS
 10
20.0066328138
 20
1.1745147986
 11
20.1443095678
 21
1.1739029019
  0
LINE
  5
225
100
AcDbEntity
  8
0
100
AcDbLine
 62
7
  6
CONTINUOUS
 10
20.1832714155
 20
1.1727031207
 11
20.238153505
 21
1.172335442
  0
LINE
  5
226
100
AcDbEntity
  8
0
100
AcDbLine
 62
7
  6
CONTINUOUS
 10
20.2756669918
 20
1.1717972817
 11
20.407916871
 21
1.1712095044
  0
CIRCLE
  5
227
100
AcDbEntity
  8
0
100
AcDbCircle
 62
7
  6
CONTINUOUS
 10
20.7509457401
 20
1.1693297793
 40
0.1722024983
  0
CIRCLE
  5
228
100
AcDbEntity
  8
0
100
AcDbCircle
 62
7
  6
CONTINUOUS
 10
20.7509457401
 20
1.1693297793
 40
0.0985164967
  0
LINE
  5
229
100
AcDbEntity
  8
0
100
AcDbLine
 62
7
  6
CONTINUOUS
 10
20.7169767782
 20
1.170462078
 11
20.7825395137
 21
1.1682766535
  0
LINE
  5
22A
100
AcDbEntity
  8
0
100
AcDbLine
 62
7
  6
CONTINUOUS
 10
20.8177513651
 20
1.1693297793
 11
20.947965719
 21
1.1693297793
  0
LINE
  5
22B
100
AcDbEntity
  8
0
100
AcDbLine
 62
7
  6
CONTINUOUS
 10
20.6875370113
 20
1.170462078
 11
20.5573226574
 21
1.170462078
  0
LINE
  5
22C
100
AcDbEntity
  8
0
100
AcDbLine
 62
7
  6
CONTINUOUS
 10
20.7486811426
 20
1.1987695462
 11
20.7486811426
 21
1.1432869085
  0
LINE
  5
22D
100
AcDbEntity
  8
0
100
AcDbLine
 62
7
  6
CONTINUOUS
 10
20.7498134414
 20
1.1059210505
 11
20.7498134414
 21
0.9757066966
  0
LINE
  5
22E
100
AcDbEntity
  8
0
100
AcDbLine
 62
7
  6
CONTINUOUS
 10
20.7486811426
 20
1.2338708068
 11
20.7486811426
 21
1.3640851607
  0
LINE
  5
22F
100
AcDbEntity
  8
0
100
AcDbLine
 62
7
  6
CONTINUOUS
 10
21.0702539817
 20
1.2701043662
 11
21.4790138229
 21
1.3448360823
  0
LINE
  5
230
100
AcDbEntity
  8
0
100
AcDbLine
 62
7
  6
CONTINUOUS
 10
21.4790138229
 20
1.3448360823
 11
21.4790138229
 21
0.9779712941
  0
LINE
  5
231
100
AcDbEntity
  8
0
100
AcDbLine
 62
7
  6
CONTINUOUS
 10
21.4790138229
 20
0.9779712941
 11
21.069121683
 21
1.0617614
  0
LINE
  5
232
100
AcDbEntity
  8
0
100
AcDbLine
 62
7
  6
CONTINUOUS
 10
21.0702539817
 20
1.2701043662
 11
21.069121683
 21
1.0617614
  0
LINE
  5
233
100
AcDbEntity
  8
0
100
AcDbLine
 62
7
  6
CONTINUOUS
 10
21.4790138229
 20
1.1693297793
 11
21.3159628059
 21
1.1693297793
  0
LINE
  5
234
100
AcDbEntity
  8
0
100
AcDbLine
 62
7
  6
CONTINUOUS
 10
21.2876553377
 20
1.1693297793
 11
21.2502894796
 21
1.1693297793
  0
LINE
  5
235
100
AcDbEntity
  8
0
100
AcDbLine
 62
7
  6
CONTINUOUS
 10
21.2208497126
 20
1.1659328831
 11
21.0713862804
 21
1.1659328831
  0
LINE
  5
236
100
AcDbEntity
  8
0
100
AcDbLine
 62
7
  6
CONTINUOUS
 10
20.4796138713
 20
1.5284908897
 11
20.4766766948
 21
0.9294458646
  0
ENDBLK
  5
237
100
AcDbEntity
  8
0
  6
BYBLOCK
 62
0
100
AcDbBlockEnd
  0
BLOCK
  5
238
100
AcDbEntity
  8
0
100
AcDbBlockBegin
  2
*T1
 70
1
 10
0.0
 20
0.0
  3
*T1
  1

  0
LINE
  5
239
100
AcDbEntity
  8
0
100
AcDbLine
 62
2
  6
CONTINUOUS
 10
9.275
 20
0.0
 11
-0.0
 21
0.0
  0
LINE
  5
23A
100
AcDbEntity
  8
0
100
AcDbLine
 62
2
  6
CONTINUOUS
 10
9.275
 20
0.0
 11
9.275
 21
1.25
  0
LINE
  5
23B
100
AcDbEntity
  8
0
100
AcDbLine
 62
2
  6
CONTINUOUS
 10
9.275
 20
0.625
 11
-0.0
 21
0.625
  0
LINE
  5
23C
100
AcDbEntity
  8
0
100
AcDbLine
 62
2
  6
CONTINUOUS
 10
9.275
 20
1.25
 11
-0.0
 21
1.25
  0
LINE
  5
23D
100
AcDbEntity
  8
0
100
AcDbLine
 62
2
  6
CONTINUOUS
 10
6.8
 20
0.0
 11
6.8
 21
1.25
  0
LINE
  5
23E
100
AcDbEntity
  8
0
100
AcDbLine
 62
2
  6
CONTINUOUS
 10
6.4
 20
0.0
 11
6.4
 21
0.625
  0
LINE
  5
23F
100
AcDbEntity
  8
0
100
AcDbLine
 62
2
  6
CONTINUOUS
 10
5.9
 20
0.0
 11
5.9
 21
0.625
  0
LINE
  5
240
100
AcDbEntity
  8
0
100
AcDbLine
 62
2
  6
CONTINUOUS
 10
5.2
 20
0.0
 11
5.2
 21
0.625
  0
LINE
  5
241
100
AcDbEntity
  8
0
100
AcDbLine
 62
2
  6
CONTINUOUS
 10
4.1
 20
0.0
 11
4.1
 21
1.25
  0
LINE
  5
242
100
AcDbEntity
  8
0
100
AcDbLine
 62
2
  6
CONTINUOUS
 10
-0.0
 20
0.0
 11
-0.0
 21
1.25
  0
MTEXT
  5
243
100
AcDbEntity
  8
0
100
AcDbMText
 62
2
  6
CONTINUOUS
  7
STANDARD
 71
2
 72
1
 10
6.6
 20
0.325
 30
0.0
 11
1.0
 21
0.0
 31
0.0
 44
0.9
  1
2
 40
0.125
 41
0.2
  0
MTEXT
  5
244
100
AcDbEntity
  8
0
100
AcDbMText
 62
2
  6
CONTINUOUS
  7
STANDARD
 71
2
 72
1
 10
6.15
 20
0.325
 30
0.0
 11
1.0
 21
0.0
 31
0.0
 44
0.9
  1
C
 40
0.125
 41
0.2
  0
MTEXT
  5
245
100
AcDbEntity
  8
0
100
AcDbMText
 62
2
  6
CONTINUOUS
  7
STANDARD
 71
2
 72
1
 10
5.55
 20
0.325
 30
0.0
 11
1.0
 21
0.0
 31
0.0
 44
0.9
  1
1.000
 40
0.125
 41
1.0
  0
MTEXT
  5
246
100
AcDbEntity
  8
0
100
AcDbMText
 62
2
  6
CONTINUOUS
  7
STANDARD
 71
2
 72
1
 10
4.65
 20
0.325
 30
0.0
 11
1.0
 21
0.0
 31
0.0
 44
0.9
  1
Apr-24-24
 40
0.125
 41
1.8
  0
MTEXT
  5
247
100
AcDbEntity
  8
0
100
AcDbMText
 62
2
  6
CONTINUOUS
  7
STANDARD
 71
2
 72
1
 10
2.05
 20
0.4625
 30
0.0
 11
1.0
 21
0.0
 31
0.0
 44
0.9
  1
T-2A Line mount\P(See Technical Data for Body Features)
 40
0.125
 41
7.6
  0
MTEXT
  5
248
100
AcDbEntity
  8
0
100
AcDbMText
 62
2
  6
CONTINUOUS
  7
STANDARD
 71
1
 72
1
 10
6.45
 20
0.5625
 30
0.0
 11
1.0
 21
0.0
 31
0.0
 44
0.9
  1
SHEET
 40
0.06
 41
0.48
  0
MTEXT
  5
249
100
AcDbEntity
  8
0
100
AcDbMText
 62
2
  6
CONTINUOUS
  7
STANDARD
 71
1
 72
1
 10
5.95
 20
0.5625
 30
0.0
 11
1.0
 21
0.0
 31
0.0
 44
0.9
  1
DWG SIZE
 40
0.06
 41
0.768
  0
MTEXT
  5
24A
100
AcDbEntity
  8
0
100
AcDbMText
 62
2
  6
CONTINUOUS
  7
STANDARD
 71
1
 72
1
 10
5.25
 20
0.5625
 30
0.0
 11
1.0
 21
0.0
 31
0.0
 44
0.9
  1
SCALE
 40
0.06
 41
0.48
  0
MTEXT
  5
24B
100
AcDbEntity
  8
0
100
AcDbMText
 62
2
  6
CONTINUOUS
  7
STANDARD
 71
1
 72
1
 10
4.15
 20
0.5625
 30
0.0
 11
1.0
 21
0.0
 31
0.0
 44
0.9
  1
DATE
 40
0.06
 41
0.384
  0
MTEXT
  5
24C
100
AcDbEntity
  8
0
100
AcDbMText
 62
2
  6
CONTINUOUS
  7
STANDARD
 71
1
 72
1
 10
0.05
 20
0.5625
 30
0.0
 11
1.0
 21
0.0
 31
0.0
 44
0.9
  1
DESCRIPTION
 40
0.06
 41
1.056
  0
MTEXT
  5
24D
100
AcDbEntity
  8
0
100
AcDbMText
 62
2
  6
CONTINUOUS
  7
STANDARD
 71
2
 72
1
 10
5.45
 20
1.0375
 30
0.0
 11
1.0
 21
0.0
 31
0.0
 44
0.9
  1
ALL DIMENSIONS IN INCH\PVIEWS ARE THIRD ANGLE
 40
0.12
 41
4.224
  0
MTEXT
  5
24E
100
AcDbEntity
  8
0
100
AcDbMText
 62
2
  6
CONTINUOUS
  7
STANDARD
 71
2
 72
1
 10
2.05
 20
0.95
 30
0.0
 11
1.0
 21
0.0
 31
0.0
 44
0.9
  1
BQK
 40
0.125
 41
0.6
  0
MTEXT
  5
24F
100
AcDbEntity
  8
0
100
AcDbMText
 62
2
  6
CONTINUOUS
  7
STANDARD
 71
1
 72
1
 10
0.05
 20
1.1875
 30
0.0
 11
1.0
 21
0.0
 31
0.0
 44
0.9
  1
MODEL
 40
0.06
 41
0.48
  0
ENDBLK
  5
250
100
AcDbEntity
  8
0
  6
BYBLOCK
 62
0
100
AcDbBlockEnd
  0
BLOCK
  5
251
100
AcDbEntity
  8
0
100
AcDbBlockBegin
  2
*T2
 70
1
 10
0.0
 20
0.0
  3
*T2
  1

  0
LINE
  5
252
100
AcDbEntity
  8
0
100
AcDbLine
 62
2
  6
CONTINUOUS
 10
0.0
 20
0.0
 11
9.055
 21
0.0
  0
LINE
  5
253
100
AcDbEntity
  8
0
100
AcDbLine
 62
2
  6
CONTINUOUS
 10
0.0
 20
0.0
 11
0.0
 21
-2.844
  0
LINE
  5
254
100
AcDbEntity
  8
0
100
AcDbLine
 62
2
  6
CONTINUOUS
 10
0.0
 20
-0.344
 11
9.055
 21
-0.344
  0
LINE
  5
255
100
AcDbEntity
  8
0
100
AcDbLine
 62
2
  6
CONTINUOUS
 10
0.0
 20
-0.594
 11
9.055
 21
-0.594
  0
LINE
  5
256
100
AcDbEntity
  8
0
100
AcDbLine
 62
2
  6
CONTINUOUS
 10
0.0
 20
-0.844
 11
9.055
 21
-0.844
  0
LINE
  5
257
100
AcDbEntity
  8
0
100
AcDbLine
 62
2
  6
CONTINUOUS
 10
0.0
 20
-1.094
 11
9.055
 21
-1.094
  0
LINE
  5
258
100
AcDbEntity
  8
0
100
AcDbLine
 62
2
  6
CONTINUOUS
 10
0.0
 20
-1.344
 11
9.055
 21
-1.344
  0
LINE
  5
259
100
AcDbEntity
  8
0
100
AcDbLine
 62
2
  6
CONTINUOUS
 10
0.0
 20
-1.594
 11
9.055
 21
-1.594
  0
LINE
  5
25A
100
AcDbEntity
  8
0
100
AcDbLine
 62
2
  6
CONTINUOUS
 10
0.0
 20
-1.844
 11
9.055
 21
-1.844
  0
LINE
  5
25B
100
AcDbEntity
  8
0
100
AcDbLine
 62
2
  6
CONTINUOUS
 10
0.0
 20
-2.094
 11
9.055
 21
-2.094
  0
LINE
  5
25C
100
AcDbEntity
  8
0
100
AcDbLine
 62
2
  6
CONTINUOUS
 10
0.0
 20
-2.344
 11
9.055
 21
-2.344
  0
LINE
  5
25D
100
AcDbEntity
  8
0
100
AcDbLine
 62
2
  6
CONTINUOUS
 10
0.0
 20
-2.594
 11
9.055
 21
-2.594
  0
LINE
  5
25E
100
AcDbEntity
  8
0
100
AcDbLine
 62
2
  6
CONTINUOUS
 10
0.0
 20
-2.844
 11
9.055
 21
-2.844
  0
LINE
  5
25F
100
AcDbEntity
  8
0
100
AcDbLine
 62
2
  6
CONTINUOUS
 10
3.055
 20
0.0
 11
3.055
 21
-2.844
  0
LINE
  5
260
100
AcDbEntity
  8
0
100
AcDbLine
 62
2
  6
CONTINUOUS
 10
9.055
 20
0.0
 11
9.055
 21
-2.844
  0
MTEXT
  5
261
100
AcDbEntity
  8
0
100
AcDbMText
 62
2
  6
CONTINUOUS
  7
STANDARD
 71
2
 72
1
 10
1.5275
 20
-0.0995
 30
0.0
 11
1.0
 21
0.0
 31
0.0
 44
0.9
  1
Technical Data
 40
0.145
 41
3.248
  0
MTEXT
  5
262
100
AcDbEntity
  8
0
100
AcDbMText
 62
2
  6
CONTINUOUS
  7
STANDARD
 71
2
 72
1
 10
4.555
 20
-0.0995
 30
0.0
 11
1.0
 21
0.0
 31
0.0
 44
0.9
  1
U.S. Units
 40
0.145
 41
2.32
  0
MTEXT
  5
263
100
AcDbEntity
  8
0
100
AcDbMText
 62
2
  6
CONTINUOUS
  7
STANDARD
 71
2
 72
1
 10
7.555
 20
-0.0995
 30
0.0
 11
1.0
 21
0.0
 31
0.0
 44
0.9
  1
Metric Units
 40
0.145
 41
2.784
  0
MTEXT
  5
264
100
AcDbEntity
  8
0
100
AcDbMText
 62
2
  6
CONTINUOUS
  7
STANDARD
 71
2
 72
1
 10
1.5275
 20
-0.4065
 30
0.0
 11
1.0
 21
0.0
 31
0.0
 44
0.9
  1
Cavity
 40
0.125
 41
1.2
  0
MTEXT
  5
265
100
AcDbEntity
  8
0
100
AcDbMText
 62
2
  6
CONTINUOUS
  7
STANDARD
 71
2
 72
1
 10
6.055
 20
-0.4065
 30
0.0
 11
1.0
 21
0.0
 31
0.0
 44
0.9
  1
T-2A
 40
0.125
 41
0.8
  0
MTEXT
  5
266
100
AcDbEntity
  8
0
100
AcDbMText
 62
2
  6
CONTINUOUS
  7
STANDARD
 71
2
 72
1
 10
1.5275
 20
-0.6565
 30
0.0
 11
1.0
 21
0.0
 31
0.0
 44
0.9
  1
Body Features
 40
0.125
 41
2.6
  0
MTEXT
  5
267
100
AcDbEntity
  8
0
100
AcDbMText
 62
2
  6
CONTINUOUS
  7
STANDARD
 71
2
 72
1
 10
6.055
 20
-0.6565
 30
0.0
 11
1.0
 21
0.0
 31
0.0
 44
0.9
  1
Cushion lock with make up checks and shuttle
 40
0.125
 41
8.8
  0
MTEXT
  5
268
100
AcDbEntity
  8
0
100
AcDbMText
 62
2
  6
CONTINUOUS
  7
STANDARD
 71
2
 72
1
 10
1.5275
 20
-0.9065
 30
0.0
 11
1.0
 21
0.0
 31
0.0
 44
0.9
  1
Body Type
 40
0.125
 41
1.8
  0
MTEXT
  5
269
100
AcDbEntity
  8
0
100
AcDbMText
 62
2
  6
CONTINUOUS
  7
STANDARD
 71
2
 72
1
 10
6.055
 20
-0.9065
 30
0.0
 11
1.0
 21
0.0
 31
0.0
 44
0.9
  1
Line mount
 40
0.125
 41
2.0
  0
MTEXT
  5
26A
100
AcDbEntity
  8
0
100
AcDbMText
 62
2
  6
CONTINUOUS
  7
STANDARD
 71
2
 72
1
 10
1.5275
 20
-1.1565
 30
0.0
 11
1.0
 21
0.0
 31
0.0
 44
0.9
  1
Interface
 40
0.125
 41
1.8
  0
MTEXT
  5
26B
100
AcDbEntity
  8
0
100
AcDbMText
 62
2
  6
CONTINUOUS
  7
STANDARD
 71
2
 72
1
 10
6.055
 20
-1.1565
 30
0.0
 11
1.0
 21
0.0
 31
0.0
 44
0.9
  1
None
 40
0.125
 41
0.8
  0
MTEXT
  5
26C
100
AcDbEntity
  8
0
100
AcDbMText
 62
2
  6
CONTINUOUS
  7
STANDARD
 71
2
 72
1
 10
1.5275
 20
-1.4065
 30
0.0
 11
1.0
 21
0.0
 31
0.0
 44
0.9
  1
Open Cavity Quantity
 40
0.125
 41
4.0
  0
MTEXT
  5
26D
100
AcDbEntity
  8
0
100
AcDbMText
 62
2
  6
CONTINUOUS
  7
STANDARD
 71
2
 72
1
 10
6.055
 20
-1.4065
 30
0.0
 11
1.0
 21
0.0
 31
0.0
 44
0.9
  1
2
 40
0.125
 41
0.2
  0
MTEXT
  5
26E
100
AcDbEntity
  8
0
100
AcDbMText
 62
2
  6
CONTINUOUS
  7
STANDARD
 71
2
 72
1
 10
1.5275
 20
-1.6565
 30
0.0
 11
1.0
 21
0.0
 31
0.0
 44
0.9
  1
Weight
 40
0.125
 41
1.2
  0
MTEXT
  5
26F
100
AcDbEntity
  8
0
100
AcDbMText
 62
2
  6
CONTINUOUS
  7
STANDARD
 71
2
 72
1
 10
4.555
 20
-1.6565
 30
0.0
 11
1.0
 21
0.0
 31
0.0
 44
0.9
  1
4.617 lb.
 40
0.125
 41
1.8
  0
MTEXT
  5
270
100
AcDbEntity
  8
0
100
AcDbMText
 62
2
  6
CONTINUOUS
  7
STANDARD
 71
2
 72
1
 10
7.555
 20
-1.6565
 30
0.0
 11
1.0
 21
0.0
 31
0.0
 44
0.9
  1
2,094 kg.
 40
0.125
 41
1.8
  0
MTEXT
  5
271
100
AcDbEntity
  8
0
100
AcDbMText
 62
2
  6
CONTINUOUS
  7
STANDARD
 71
2
 72
1
 10
1.5275
 20
-1.9065
 30
0.0
 11
1.0
 21
0.0
 31
0.0
 44
0.9
  1
Mounting Hole Diameter
 40
0.125
 41
4.4
  0
MTEXT
  5
272
100
AcDbEntity
  8
0
100
AcDbMText
 62
2
  6
CONTINUOUS
  7
STANDARD
 71
2
 72
1
 10
4.555
 20
-1.9065
 30
0.0
 11
1.0
 21
0.0
 31
0.0
 44
0.9
  1
.42 in.
 40
0.125
 41
1.4
  0
MTEXT
  5
273
100
AcDbEntity
  8
0
100
AcDbMText
 62
2
  6
CONTINUOUS
  7
STANDARD
 71
2
 72
1
 10
7.555
 20
-1.9065
 30
0.0
 11
1.0
 21
0.0
 31
0.0
 44
0.9
  1
10,7 mm
 40
0.125
 41
1.4
  0
MTEXT
  5
274
100
AcDbEntity
  8
0
100
AcDbMText
 62
2
  6
CONTINUOUS
  7
STANDARD
 71
2
 72
1
 10
1.5275
 20
-2.1565
 30
0.0
 11
1.0
 21
0.0
 31
0.0
 44
0.9
  1
Mounting Hole Depth
 40
0.125
 41
3.8
  0
MTEXT
  5
275
100
AcDbEntity
  8
0
100
AcDbMText
 62
2
  6
CONTINUOUS
  7
STANDARD
 71
2
 72
1
 10
6.055
 20
-2.1565
 30
0.0
 11
1.0
 21
0.0
 31
0.0
 44
0.9
  1
Through
 40
0.125
 41
1.4
  0
MTEXT
  5
276
100
AcDbEntity
  8
0
100
AcDbMText
 62
2
  6
CONTINUOUS
  7
STANDARD
 71
2
 72
1
 10
1.5275
 20
-2.4065
 30
0.0
 11
1.0
 21
0.0
 31
0.0
 44
0.9
  1
Mounting Hole Quantity
 40
0.125
 41
4.4
  0
MTEXT
  5
277
100
AcDbEntity
  8
0
100
AcDbMText
 62
2
  6
CONTINUOUS
  7
STANDARD
 71
2
 72
1
 10
6.055
 20
-2.4065
 30
0.0
 11
1.0
 21
0.0
 31
0.0
 44
0.9
  1
2
 40
0.125
 41
0.2
  0
MTEXT
  5
278
100
AcDbEntity
  8
0
100
AcDbMText
 62
2
  6
CONTINUOUS
  7
STANDARD
 71
2
 72
1
 10
1.5275
 20
-2.6565
 30
0.0
 11
1.0
 21
0.0
 31
0.0
 44
0.9
  1
Includes integral cartridge(s)
 40
0.125
 41
6.0
  0
MTEXT
  5
279
100
AcDbEntity
  8
0
100
AcDbMText
 62
2
  6
CONTINUOUS
  7
STANDARD
 71
2
 72
1
 10
6.055
 20
-2.6565
 30
0.0
 11
1.0
 21
0.0
 31
0.0
 44
0.9
  1
Yes (see Included Components)
 40
0.125
 41
5.8
  0
ENDBLK
  5
27A
100
AcDbEntity
  8
0
  6
BYBLOCK
 62
0
100
AcDbBlockEnd
  0
BLOCK
  5
27B
100
AcDbEntity
  8
0
100
AcDbBlockBegin
  2
*T3
 70
1
 10
0.0
 20
0.0
  3
*T3
  1

  0
LINE
  5
27C
100
AcDbEntity
  8
0
100
AcDbLine
 62
2
  6
CONTINUOUS
 10
0.0
 20
0.0
 11
4.6
 21
0.0
  0
LINE
  5
27D
100
AcDbEntity
  8
0
100
AcDbLine
 62
2
  6
CONTINUOUS
 10
0.0
 20
0.0
 11
0.0
 21
-1.43775
  0
LINE
  5
27E
100
AcDbEntity
  8
0
100
AcDbLine
 62
2
  6
CONTINUOUS
 10
0.0
 20
-0.34375
 11
4.6
 21
-0.34375
  0
LINE
  5
27F
100
AcDbEntity
  8
0
100
AcDbLine
 62
2
  6
CONTINUOUS
 10
0.0
 20
-0.68775
 11
4.6
 21
-0.68775
  0
LINE
  5
280
100
AcDbEntity
  8
0
100
AcDbLine
 62
2
  6
CONTINUOUS
 10
0.0
 20
-0.93775
 11
4.6
 21
-0.93775
  0
LINE
  5
281
100
AcDbEntity
  8
0
100
AcDbLine
 62
2
  6
CONTINUOUS
 10
0.0
 20
-1.18775
 11
4.6
 21
-1.18775
  0
LINE
  5
282
100
AcDbEntity
  8
0
100
AcDbLine
 62
2
  6
CONTINUOUS
 10
0.0
 20
-1.43775
 11
4.6
 21
-1.43775
  0
LINE
  5
283
100
AcDbEntity
  8
0
100
AcDbLine
 62
2
  6
CONTINUOUS
 10
1.3
 20
-0.34375
 11
1.3
 21
-1.43775
  0
LINE
  5
284
100
AcDbEntity
  8
0
100
AcDbLine
 62
2
  6
CONTINUOUS
 10
3.3
 20
-0.34375
 11
3.3
 21
-1.43775
  0
LINE
  5
285
100
AcDbEntity
  8
0
100
AcDbLine
 62
2
  6
CONTINUOUS
 10
4.6
 20
0.0
 11
4.6
 21
-1.43775
  0
MTEXT
  5
286
100
AcDbEntity
  8
0
100
AcDbMText
 62
2
  6
CONTINUOUS
  7
STANDARD
 71
2
 72
1
 10
2.3
 20
-0.099375
 30
0.0
 11
1.0
 21
0.0
 31
0.0
 44
0.9
  1
Port Headings
 40
0.145
 41
3.016
  0
MTEXT
  5
287
100
AcDbEntity
  8
0
100
AcDbMText
 62
2
  6
CONTINUOUS
  7
STANDARD
 71
2
 72
1
 10
0.65
 20
-0.44325
 30
0.0
 11
1.0
 21
0.0
 31
0.0
 44
0.9
  1
Product
 40
0.145
 41
1.624
  0
MTEXT
  5
288
100
AcDbEntity
  8
0
100
AcDbMText
 62
2
  6
CONTINUOUS
  7
STANDARD
 71
2
 72
1
 10
2.3
 20
-0.44325
 30
0.0
 11
1.0
 21
0.0
 31
0.0
 44
0.9
  1
Port
 40
0.145
 41
0.928
  0
MTEXT
  5
289
100
AcDbEntity
  8
0
100
AcDbMText
 62
2
  6
CONTINUOUS
  7
STANDARD
 71
2
 72
1
 10
3.95
 20
-0.44325
 30
0.0
 11
1.0
 21
0.0
 31
0.0
 44
0.9
  1
Size
 40
0.145
 41
0.928
  0
MTEXT
  5
28A
100
AcDbEntity
  8
0
100
AcDbMText
 62
2
  6
CONTINUOUS
  7
STANDARD
 71
2
 72
1
 10
0.65
 20
-0.75025
 30
0.0
 11
1.0
 21
0.0
 31
0.0
 44
0.9
  1
BQK
 40
0.125
 41
0.6
  0
MTEXT
  5
28B
100
AcDbEntity
  8
0
100
AcDbMText
 62
2
  6
CONTINUOUS
  7
STANDARD
 71
2
 72
1
 10
2.3
 20
-0.75025
 30
0.0
 11
1.0
 21
0.0
 31
0.0
 44
0.9
  1
Ports C1, C2, V1, V2
 40
0.125
 41
4.0
  0
MTEXT
  5
28C
100
AcDbEntity
  8
0
100
AcDbMText
 62
2
  6
CONTINUOUS
  7
STANDARD
 71
2
 72
1
 10
3.95
 20
-0.75025
 30
0.0
 11
1.0
 21
0.0
 31
0.0
 44
0.9
  1
SAE 10
 40
0.125
 41
1.2
  0
MTEXT
  5
28D
100
AcDbEntity
  8
0
100
AcDbMText
 62
2
  6
CONTINUOUS
  7
STANDARD
 71
2
 72
1
 10
0.65
 20
-1.00025
 30
0.0
 11
1.0
 21
0.0
 31
0.0
 44
0.9
  1
BQK
 40
0.125
 41
0.6
  0
MTEXT
  5
28E
100
AcDbEntity
  8
0
100
AcDbMText
 62
2
  6
CONTINUOUS
  7
STANDARD
 71
2
 72
1
 10
2.3
 20
-1.00025
 30
0.0
 11
1.0
 21
0.0
 31
0.0
 44
0.9
  1
Port T
 40
0.125
 41
1.2
  0
MTEXT
  5
28F
100
AcDbEntity
  8
0
100
AcDbMText
 62
2
  6
CONTINUOUS
  7
STANDARD
 71
2
 72
1
 10
3.95
 20
-1.00025
 30
0.0
 11
1.0
 21
0.0
 31
0.0
 44
0.9
  1
SAE 12
 40
0.125
 41
1.2
  0
MTEXT
  5
290
100
AcDbEntity
  8
0
100
AcDbMText
 62
2
  6
CONTINUOUS
  7
STANDARD
 71
2
 72
1
 10
0.65
 20
-1.25025
 30
0.0
 11
1.0
 21
0.0
 31
0.0
 44
0.9
  1
BQK
 40
0.125
 41
0.6
  0
MTEXT
  5
291
100
AcDbEntity
  8
0
100
AcDbMText
 62
2
  6
CONTINUOUS
  7
STANDARD
 71
2
 72
1
 10
2.3
 20
-1.25025
 30
0.0
 11
1.0
 21
0.0
 31
0.0
 44
0.9
  1
Port S
 40
0.125
 41
1.2
  0
MTEXT
  5
292
100
AcDbEntity
  8
0
100
AcDbMText
 62
2
  6
CONTINUOUS
  7
STANDARD
 71
2
 72
1
 10
3.95
 20
-1.25025
 30
0.0
 11
1.0
 21
0.0
 31
0.0
 44
0.9
  1
SAE 4
 40
0.125
 41
1.0
  0
ENDBLK
  5
293
100
AcDbEntity
  8
0
  6
BYBLOCK
 62
0
100
AcDbBlockEnd
  0
ENDSEC
  0
SECTION
  2
ENTITIES
  0
IMAGE
  5
294
100
AcDbEntity
  8
0
100
AcDbRasterImage
 62
7
  6
CONTINUOUS
 10
19.2297077316
 20
0.3094318264
 30
0.0
 11
0.0066666667
 21
0.0
 31
0.0
 12
0.0
 22
0.0066666667
 32
0.0
 13
369.0
 23
92.0
340
       42F
 70
9
280
0
281
50
282
50
283
0
360
       429
 71
1
 91
2
 14
-0.5
 24
-0.5
 14
368.5
 24
91.5
  0
INSERT
  5
295
100
AcDbEntity
  8
0
100
AcDbBlockReference
 62
2
  6
CONTINUOUS
  2
SUN_FIRST_THIRD_ANGLE_BL0
 10
20.4816717061
 20
1.2289683772
  0
ACAD_TABLE
  5
296
100
AcDbEntity
  8
0
 62
2
  6
CONTINUOUS
100
AcDbBlockReference
  2
*T1
 10
12.42375
 20
0.30125
 30
0.0
100
AcDbTable
342
       431
343
211
 11
1.0
 21
0.0
 31
0.0
 90
6
 91
4
 92
6
 93
20
 94
0
 95
0
 96
0
 70
1
 41
0.0
141
0.525
141
0.1
141
0.525
141
0.1
142
4.1
142
1.1
142
0.7
142
0.5
142
0.4
142
2.475
171
1
172
0
173
0
174
0
175
1
176
1
 91
33
178
0
145
0.0
301
CELL_VALUE
 90
4
  1
T-2A Line mount\P(See Technical Data for Body Features)
304
ACVALUE_END
170
2
140
0.125
171
1
172
0
173
0
174
0
175
1
176
1
 91
33
178
0
145
0.0
301
CELL_VALUE
 90
4
  1
Apr-24-24
304
ACVALUE_END
170
5
140
0.125
171
1
172
0
173
0
174
0
175
1
176
1
 91
33
178
0
145
0.0
301
CELL_VALUE
 90
4
  1
1.000
304
ACVALUE_END
170
5
140
0.125
171
1
172
0
173
0
174
0
175
1
176
1
 91
33
178
0
145
0.0
301
CELL_VALUE
 90
4
  1
C
304
ACVALUE_END
170
5
140
0.125
171
1
172
0
173
0
174
0
175
1
176
1
 91
33
178
0
145
0.0
301
CELL_VALUE
 90
4
  1
2
304
ACVALUE_END
170
5
140
0.125
171
1
172
0
173
0
174
0
175
1
176
1
 91
33
178
0
145
0.0
301
CELL_VALUE
 90
4
  1
 
304
ACVALUE_END
170
1
140
0.125
171
1
172
0
173
0
174
0
175
1
176
1
 91
33
178
0
145
0.0
301
CELL_VALUE
 90
4
  1
DESCRIPTION
304
ACVALUE_END
170
1
140
0.06
171
1
172
0
173
0
174
0
175
1
176
1
 91
33
178
0
145
0.0
301
CELL_VALUE
 90
4
  1
DATE
304
ACVALUE_END
170
1
140
0.06
171
1
172
0
173
0
174
0
175
1
176
1
 91
33
178
0
145
0.0
301
CELL_VALUE
 90
4
  1
SCALE
304
ACVALUE_END
170
1
140
0.06
171
1
172
0
173
0
174
0
175
1
176
1
 91
33
178
0
145
0.0
301
CELL_VALUE
 90
4
  1
DWG SIZE
304
ACVALUE_END
170
1
140
0.06
171
1
172
0
173
0
174
0
175
1
176
1
 91
33
178
0
145
0.0
301
CELL_VALUE
 90
4
  1
SHEET
304
ACVALUE_END
170
1
140
0.06
171
1
172
0
173
0
174
0
175
1
176
1
 91
33
178
0
145
0.0
301
CELL_VALUE
 90
4
  1
 
304
ACVALUE_END
170
1
140
0.125
171
1
172
0
173
0
174
0
175
1
176
1
 91
33
178
0
145
0.0
301
CELL_VALUE
 90
4
  1
BQK
304
ACVALUE_END
170
5
140
0.125
171
1
172
0
173
0
174
0
175
4
176
1
 91
33
178
0
145
0.0
301
CELL_VALUE
 90
4
  1
ALL DIMENSIONS IN INCH\PVIEWS ARE THIRD ANGLE
304
ACVALUE_END
170
5
140
0.12
171
1
172
0
173
1
174
0
175
1
176
1
 91
1
178
0
145
0.0
170
1
171
1
172
0
173
1
174
0
175
1
176
1
 91
1
178
0
145
0.0
170
1
171
1
172
0
173
1
174
0
175
1
176
1
 91
1
178
0
145
0.0
170
5
171
1
172
0
173
0
174
0
175
1
176
1
 91
33
178
0
145
0.0
301
CELL_VALUE
 90
4
  1
 
304
ACVALUE_END
170
1
140
0.125
171
1
172
0
173
0
174
0
175
1
176
1
 91
33
178
0
145
0.0
301
CELL_VALUE
 90
4
  1
MODEL
304
ACVALUE_END
170
1
140
0.06
171
1
172
0
173
0
174
0
175
1
176
1
 91
33
178
0
145
0.0
301
CELL_VALUE
 90
4
  1
 
304
ACVALUE_END
170
1
140
0.125
171
1
172
0
173
0
174
0
175
1
176
1
 91
33
178
0
145
0.0
301
CELL_VALUE
 90
4
  1
 
304
ACVALUE_END
170
1
140
0.125
171
1
172
0
173
0
174
0
175
1
176
1
 91
33
178
0
145
0.0
301
CELL_VALUE
 90
4
  1
 
304
ACVALUE_END
170
1
140
0.125
171
1
172
0
173
0
174
0
175
1
176
1
 91
33
178
0
145
0.0
301
CELL_VALUE
 90
4
  1
 
304
ACVALUE_END
170
1
140
0.125
171
1
172
0
173
0
174
0
175
1
176
1
 91
33
178
0
145
0.0
301
CELL_VALUE
 90
4
  1
 
304
ACVALUE_END
170
1
140
0.125
  0
ACAD_TABLE
  5
297
100
AcDbEntity
  8
0
 62
2
  6
CONTINUOUS
100
AcDbBlockReference
  2
*T2
 10
12.4237499994
 20
16.47875
 30
0.0
100
AcDbTable
342
       430
343
212
 11
1.0
 21
0.0
 31
0.0
 90
22
 91
11
 92
3
 93
16
 94
0
 95
0
 96
0
 41
0.028
141
0.344
141
0.25
141
0.25
141
0.25
141
0.25
141
0.25
141
0.25
141
0.25
141
0.25
141
0.25
141
0.25
142
3.055
142
3.0
142
3.0
171
1
172
0
173
0
174
0
175
1
176
1
 91
33
178
0
145
0.0
301
CELL_VALUE
 90
4
  1
Technical Data
304
ACVALUE_END
170
5
140
0.145
171
1
172
0
173
0
174
0
175
1
176
1
 91
33
178
0
145
0.0
301
CELL_VALUE
 90
4
  1
U.S. Units
304
ACVALUE_END
170
5
140
0.145
171
1
172
0
173
0
174
0
175
1
176
1
 91
33
178
0
145
0.0
301
CELL_VALUE
 90
4
  1
Metric Units
304
ACVALUE_END
170
5
140
0.145
171
1
172
0
173
0
174
0
175
1
176
1
 91
33
178
0
145
0.0
301
CELL_VALUE
 90
4
  1
Cavity
304
ACVALUE_END
170
5
140
0.125
171
1
172
0
173
0
174
0
175
2
176
1
 91
33
178
0
145
0.0
301
CELL_VALUE
 90
4
  1
T-2A
304
ACVALUE_END
170
5
140
0.125
171
1
172
0
173
1
174
0
175
1
176
1
 91
1
178
0
145
0.0
170
1
171
1
172
0
173
0
174
0
175
1
176
1
 91
33
178
0
145
0.0
301
CELL_VALUE
 90
4
  1
Body Features
304
ACVALUE_END
170
5
140
0.125
171
1
172
0
173
0
174
0
175
2
176
1
 91
33
178
0
145
0.0
301
CELL_VALUE
 90
4
  1
Cushion lock with make up checks and shuttle
304
ACVALUE_END
170
5
140
0.125
171
1
172
0
173
1
174
0
175
1
176
1
 91
1
178
0
145
0.0
170
1
171
1
172
0
173
0
174
0
175
1
176
1
 91
33
178
0
145
0.0
301
CELL_VALUE
 90
4
  1
Body Type
304
ACVALUE_END
170
5
140
0.125
171
1
172
0
173
0
174
0
175
2
176
1
 91
33
178
0
145
0.0
301
CELL_VALUE
 90
4
  1
Line mount
304
ACVALUE_END
170
5
140
0.125
171
1
172
0
173
1
174
0
175
1
176
1
 91
1
178
0
145
0.0
170
1
171
1
172
0
173
0
174
0
175
1
176
1
 91
33
178
0
145
0.0
301
CELL_VALUE
 90
4
  1
Interface
304
ACVALUE_END
170
5
140
0.125
171
1
172
0
173
0
174
0
175
2
176
1
 91
33
178
0
145
0.0
301
CELL_VALUE
 90
4
  1
None
304
ACVALUE_END
170
5
140
0.125
171
1
172
0
173
1
174
0
175
1
176
1
 91
1
178
0
145
0.0
170
1
171
1
172
0
173
0
174
0
175
1
176
1
 91
33
178
0
145
0.0
301
CELL_VALUE
 90
4
  1
Open Cavity Quantity
304
ACVALUE_END
170
5
140
0.125
171
1
172
0
173
0
174
0
175
2
176
1
 91
33
178
0
145
0.0
301
CELL_VALUE
 90
4
  1
2
304
ACVALUE_END
170
5
140
0.125
171
1
172
0
173
1
174
0
175
1
176
1
 91
1
178
0
145
0.0
170
1
171
1
172
0
173
0
174
0
175
1
176
1
 91
33
178
0
145
0.0
301
CELL_VALUE
 90
4
  1
Weight
304
ACVALUE_END
170
5
140
0.125
171
1
172
0
173
0
174
0
175
1
176
1
 91
33
178
0
145
0.0
301
CELL_VALUE
 90
4
  1
4.617 lb.
304
ACVALUE_END
170
5
140
0.125
171
1
172
0
173
0
174
0
175
1
176
1
 91
33
178
0
145
0.0
301
CELL_VALUE
 90
4
  1
2,094 kg.
304
ACVALUE_END
170
5
140
0.125
171
1
172
0
173
0
174
0
175
1
176
1
 91
33
178
0
145
0.0
301
CELL_VALUE
 90
4
  1
Mounting Hole Diameter
304
ACVALUE_END
170
5
140
0.125
171
1
172
0
173
0
174
0
175
1
176
1
 91
33
178
0
145
0.0
301
CELL_VALUE
 90
4
  1
.42 in.
304
ACVALUE_END
170
5
140
0.125
171
1
172
0
173
0
174
0
175
1
176
1
 91
33
178
0
145
0.0
301
CELL_VALUE
 90
4
  1
10,7 mm
304
ACVALUE_END
170
5
140
0.125
171
1
172
0
173
0
174
0
175
1
176
1
 91
33
178
0
145
0.0
301
CELL_VALUE
 90
4
  1
Mounting Hole Depth
304
ACVALUE_END
170
5
140
0.125
171
1
172
0
173
0
174
0
175
2
176
1
 91
33
178
0
145
0.0
301
CELL_VALUE
 90
4
  1
Through
304
ACVALUE_END
170
5
140
0.125
171
1
172
0
173
1
174
0
175
1
176
1
 91
1
178
0
145
0.0
170
1
171
1
172
0
173
0
174
0
175
1
176
1
 91
33
178
0
145
0.0
301
CELL_VALUE
 90
4
  1
Mounting Hole Quantity
304
ACVALUE_END
170
5
140
0.125
171
1
172
0
173
0
174
0
175
2
176
1
 91
33
178
0
145
0.0
301
CELL_VALUE
 90
4
  1
2
304
ACVALUE_END
170
5
140
0.125
171
1
172
0
173
1
174
0
175
1
176
1
 91
1
178
0
145
0.0
170
1
171
1
172
0
173
0
174
0
175
1
176
1
 91
33
178
0
145
0.0
301
CELL_VALUE
 90
4
  1
Includes integral cartridge(s)
304
ACVALUE_END
170
5
140
0.125
171
1
172
0
173
0
174
0
175
2
176
1
 91
33
178
0
145
0.0
301
CELL_VALUE
 90
4
  1
Yes (see Included Components)
304
ACVALUE_END
170
5
140
0.125
171
1
172
0
173
1
174
0
175
1
176
1
 91
1
178
0
145
0.0
170
1
  0
ACAD_TABLE
  5
298
100
AcDbEntity
  8
0
 62
2
  6
CONTINUOUS
100
AcDbBlockReference
  2
*T3
 10
0.52125
 20
1.959
 30
0.0
100
AcDbTable
342
       430
343
213
 11
1.0
 21
0.0
 31
0.0
 90
22
 91
5
 92
3
 93
16
 94
0
 95
0
 96
0
 41
0.05
141
0.34375
141
0.344
141
0.25
141
0.25
141
0.25
142
1.3
142
2.0
142
1.3
171
1
172
0
173
0
174
0
175
3
176
1
 91
33
178
0
145
0.0
301
CELL_VALUE
 90
4
  1
Port Headings
304
ACVALUE_END
170
5
140
0.145
171
1
172
0
173
1
174
0
175
1
176
1
 91
1
178
0
145
0.0
170
1
171
1
172
0
173
1
174
0
175
1
176
1
 91
1
178
0
145
0.0
170
1
171
1
172
0
173
0
174
0
175
1
176
1
 91
33
178
0
145
0.0
301
CELL_VALUE
 90
4
  1
Product
304
ACVALUE_END
170
5
140
0.145
171
1
172
0
173
0
174
0
175
1
176
1
 91
33
178
0
145
0.0
301
CELL_VALUE
 90
4
  1
Port
304
ACVALUE_END
170
5
140
0.145
171
1
172
0
173
0
174
0
175
1
176
1
 91
33
178
0
145
0.0
301
CELL_VALUE
 90
4
  1
Size
304
ACVALUE_END
170
5
140
0.145
171
1
172
0
173
0
174
0
175
1
176
1
 91
33
178
0
145
0.0
301
CELL_VALUE
 90
4
  1
BQK
304
ACVALUE_END
170
5
140
0.125
171
1
172
0
173
0
174
0
175
1
176
1
 91
33
178
0
145
0.0
301
CELL_VALUE
 90
4
  1
Ports C1, C2, V1, V2
304
ACVALUE_END
170
5
140
0.125
171
1
172
0
173
0
174
0
175
1
176
1
 91
33
178
0
145
0.0
301
CELL_VALUE
 90
4
  1
SAE 10
304
ACVALUE_END
170
5
140
0.125
171
1
172
0
173
0
174
0
175
1
176
1
 91
33
178
0
145
0.0
301
CELL_VALUE
 90
4
  1
BQK
304
ACVALUE_END
170
5
140
0.125
171
1
172
0
173
0
174
0
175
1
176
1
 91
33
178
0
145
0.0
301
CELL_VALUE
 90
4
  1
Port T
304
ACVALUE_END
170
5
140
0.125
171
1
172
0
173
0
174
0
175
1
176
1
 91
33
178
0
145
0.0
301
CELL_VALUE
 90
4
  1
SAE 12
304
ACVALUE_END
170
5
140
0.125
171
1
172
0
173
0
174
0
175
1
176
1
 91
33
178
0
145
0.0
301
CELL_VALUE
 90
4
  1
BQK
304
ACVALUE_END
170
5
140
0.125
171
1
172
0
173
0
174
0
175
1
176
1
 91
33
178
0
145
0.0
301
CELL_VALUE
 90
4
  1
Port S
304
ACVALUE_END
170
5
140
0.125
171
1
172
0
173
0
174
0
175
1
176
1
 91
33
178
0
145
0.0
301
CELL_VALUE
 90
4
  1
SAE 4
304
ACVALUE_END
170
5
140
0.125
  0
MTEXT
  5
299
100
AcDbEntity
  8
0
100
AcDbMText
 62
2
  6
CONTINUOUS
  7
STANDARD
 71
1
 72
1
 10
0.52125
 20
5.75995
 30
0.0
 11
1.0
 21
0.0
 31
0.0
 44
0.6
  3
Notes\P \P1. Important: Carefully consider\P   the maximum system pressure. The\P   pressure rating of the manifold is\P   dependent on the manifold material,\P   with the port type/size a secondary\P   consideration. Manifolds\P   constructed of alu
  3
minum are not\P   rated for pressures higher than\P   3000 psi (210 bar), regardless of\P   the port type/size specified.\P2. This drawing is for reference\P   only. It is generated by an\P   automated process and does not fall\P   under Sun's docume
  1
nt control\P   process.
 40
0.1
 41
3.04
  0
LINE
  5
29A
100
AcDbEntity
  8
0
100
AcDbLine
 62
7
  6
CONTINUOUS
 10
0.30125
 20
0.30125
 11
0.30125
 21
16.69875
  0
LINE
  5
29B
100
AcDbEntity
  8
0
100
AcDbLine
 62
7
  6
CONTINUOUS
 10
0.30125
 20
0.30125
 11
21.69875
 21
0.30125
  0
LINE
  5
29C
100
AcDbEntity
  8
0
100
AcDbLine
 62
7
  6
CONTINUOUS
 10
0.30125
 20
16.69875
 11
21.69875
 21
16.69875
  0
LINE
  5
29D
100
AcDbEntity
  8
0
100
AcDbLine
 62
7
  6
CONTINUOUS
 10
21.69875
 20
0.30125
 11
21.69875
 21
16.69875
  0
LINE
  5
29E
100
AcDbEntity
  8
0
100
AcDbLine
 62
7
  6
CONTINUOUS
 10
8.5828629239
 20
9.6141135594
 11
8.5828629239
 21
6.7163359089
  0
LINE
  5
29F
100
AcDbEntity
  8
0
100
AcDbLine
 62
7
  6
CONTINUOUS
 10
8.5828629239
 20
9.6141135594
 11
9.553433542
 21
10.5516128413
  0
LINE
  5
2A0
100
AcDbEntity
  8
0
100
AcDbLine
 62
4
  6
CONTINUOUS
 10
9.1257132479
 20
8.5912223878
 11
9.1257132479
 21
8.5332668361
  0
LINE
  5
2A1
100
AcDbEntity
  8
0
100
AcDbLine
 62
4
  6
CONTINUOUS
 10
9.1257132479
 20
7.6856668599
 11
9.1257132479
 21
7.7001557478
  0
LINE
  5
2A2
100
AcDbEntity
  8
0
100
AcDbLine
 62
4
  6
CONTINUOUS
 10
9.1257132479
 20
9.1345556852
 11
9.1257132479
 21
9.1490445731
  0
LINE
  5
2A3
100
AcDbEntity
  8
0
100
AcDbLine
 62
4
  6
CONTINUOUS
 10
9.1257132479
 20
9.1490445731
 11
9.1353725068
 21
9.1628635891
  0
LINE
  5
2A4
100
AcDbEntity
  8
0
100
AcDbLine
 62
7
  6
CONTINUOUS
 10
12.446566458
 20
6.4483871587
 11
11.3224162785
 21
6.5263472384
  0
LINE
  5
2A5
100
AcDbEntity
  8
0
100
AcDbLine
 62
7
  6
CONTINUOUS
 10
11.0679221665
 20
6.5439964651
 11
9.9643339754
 21
6.6205305661
  0
LINE
  5
2A6
100
AcDbEntity
  8
0
100
AcDbLine
 62
7
  6
CONTINUOUS
 10
9.7097968796
 20
6.6381827736
 11
8.5828629239
 21
6.7163359089
  0
LINE
  5
2A7
100
AcDbEntity
  8
0
100
AcDbLine
 62
4
  6
CONTINUOUS
 10
9.1353725068
 20
7.6705081001
 11
9.1257132479
 21
7.6856668599
  0
LINE
  5
2A8
100
AcDbEntity
  8
0
100
AcDbLine
 62
4
  6
CONTINUOUS
 10
9.231965095
 20
7.7072760451
 11
9.2416243513
 21
7.6921172855
  0
LINE
  5
2A9
100
AcDbEntity
  8
0
100
AcDbLine
 62
4
  6
CONTINUOUS
 10
9.1643502835
 20
8.8131206632
 11
9.1643502835
 21
8.7696539994
  0
LINE
  5
2AA
100
AcDbEntity
  8
0
100
AcDbLine
 62
4
  6
CONTINUOUS
 10
9.1643502835
 20
7.3642318379
 11
9.1643502835
 21
7.3207651741
  0
LINE
  5
2AB
100
AcDbEntity
  8
0
100
AcDbLine
 62
4
  6
CONTINUOUS
 10
9.1836687996
 20
8.934936467
 11
9.1836687996
 21
8.8987142471
  0
LINE
  5
2AC
100
AcDbEntity
  8
0
100
AcDbLine
 62
4
  6
CONTINUOUS
 10
9.1836687996
 20
8.6958698161
 11
9.1836687996
 21
8.6524031524
  0
LINE
  5
2AD
100
AcDbEntity
  8
0
100
AcDbLine
 62
4
  6
CONTINUOUS
 10
9.1836687996
 20
7.4860476417
 11
9.1836687996
 21
7.4498254219
  0
LINE
  5
2AE
100
AcDbEntity
  8
0
100
AcDbLine
 62
4
  6
CONTINUOUS
 10
9.1836687996
 20
7.2469809909
 11
9.1836687996
 21
7.2035143271
  0
LINE
  5
2AF
100
AcDbEntity
  8
0
100
AcDbLine
 62
4
  6
CONTINUOUS
 10
9.2416243513
 20
9.1410061108
 11
9.2416243513
 21
9.1265172228
  0
LINE
  5
2B0
100
AcDbEntity
  8
0
100
AcDbLine
 62
4
  6
CONTINUOUS
 10
9.2416243513
 20
8.9309172358
 11
9.2416243513
 21
8.8729616841
  0
LINE
  5
2B1
100
AcDbEntity
  8
0
100
AcDbLine
 62
4
  6
CONTINUOUS
 10
9.2416243513
 20
8.5614505936
 11
9.2416243513
 21
8.5469617057
  0
LINE
  5
2B2
100
AcDbEntity
  8
0
100
AcDbLine
 62
4
  6
CONTINUOUS
 10
9.2416243513
 20
7.6921172855
 11
9.2416243513
 21
7.6776283976
  0
LINE
  5
2B3
100
AcDbEntity
  8
0
100
AcDbLine
 62
4
  6
CONTINUOUS
 10
9.2416243513
 20
7.4820284105
 11
9.2416243513
 21
7.4240728588
  0
LINE
  5
2B4
100
AcDbEntity
  8
0
100
AcDbLine
 62
4
  6
CONTINUOUS
 10
9.2416243513
 20
9.1265172228
 11
9.231965095
 21
9.1126982066
  0
LINE
  5
2B5
100
AcDbEntity
  8
0
100
AcDbLine
 62
4
  6
CONTINUOUS
 10
12.206050816
 20
6.8635115029
 11
12.1770730401
 21
6.8582766745
  0
LINE
  5
2B6
100
AcDbEntity
  8
0
100
AcDbLine
 62
4
  6
CONTINUOUS
 10
9.1257132479
 20
7.3814002134
 11
9.2416243513
 21
7.3371395312
  0
LINE
  5
2B7
100
AcDbEntity
  8
0
100
AcDbLine
 62
4
  6
CONTINUOUS
 10
9.1257132479
 20
7.6059779763
 11
9.2416243513
 21
7.5399839622
  0
LINE
  5
2B8
100
AcDbEntity
  8
0
100
AcDbLine
 62
4
  6
CONTINUOUS
 10
9.1450317657
 20
7.6625937842
 11
9.1353725068
 21
7.6705081001
  0
LINE
  5
2B9
100
AcDbEntity
  8
0
100
AcDbLine
 62
4
  6
CONTINUOUS
 10
9.2126465754
 20
7.7231046769
 11
9.231965095
 21
7.7072760451
  0
LINE
  5
2BA
100
AcDbEntity
  8
0
100
AcDbLine
 62
4
  6
CONTINUOUS
 10
9.2416243513
 20
8.5469617057
 11
9.231965095
 21
8.5331426895
  0
LINE
  5
2BB
100
AcDbEntity
  8
0
100
AcDbLine
 62
7
  6
CONTINUOUS
 10
9.4304713099
 20
9.1032181084
 11
9.3274708093
 21
9.0037272589
  0
LINE
  5
2BC
100
AcDbEntity
  8
0
100
AcDbLine
 62
4
  6
CONTINUOUS
 10
9.1353725068
 20
9.1628635891
 11
9.1546910237
 21
9.1760127334
  0
LINE
  5
2BD
100
AcDbEntity
  8
0
100
AcDbLine
 62
4
  6
CONTINUOUS
 10
9.231965095
 20
9.1126982066
 11
9.2223058317
 21
9.1061236348
  0
LINE
  5
2BE
100
AcDbEntity
  8
0
100
AcDbLine
 62
4
  6
CONTINUOUS
 10
9.2416243513
 20
7.1053173244
 11
9.1257132479
 21
7.1133557867
  0
LINE
  5
2BF
100
AcDbEntity
  8
0
100
AcDbLine
 62
4
  6
CONTINUOUS
 10
9.1933280559
 20
8.5358221772
 11
9.1740095398
 21
8.5661396967
  0
LINE
  5
2C0
100
AcDbEntity
  8
0
100
AcDbLine
 62
7
  6
CONTINUOUS
 10
9.9198678727
 20
9.3518315788
 11
9.8168673721
 21
9.2523407293
  0
LINE
  5
2C1
100
AcDbEntity
  8
0
100
AcDbLine
 62
7
  6
CONTINUOUS
 10
9.9737886813
 20
9.348092158
 11
9.8707881808
 21
9.2486013085
  0
LINE
  5
2C2
100
AcDbEntity
  8
0
100
AcDbLine
 62
4
  6
CONTINUOUS
 10
12.1480952643
 20
7.2804640401
 11
12.1770730401
 21
7.2856988685
  0
LINE
  5
2C3
100
AcDbEntity
  8
0
100
AcDbLine
 62
4
  6
CONTINUOUS
 10
12.2350285918
 20
7.1005685382
 11
12.1191174884
 21
7.1086070005
  0
LINE
  5
2C4
100
AcDbEntity
  8
0
100
AcDbLine
 62
4
  6
CONTINUOUS
 10
9.1836687996
 20
7.7323587365
 11
9.2126465754
 21
7.7231046769
  0
LINE
  5
2C5
100
AcDbEntity
  8
0
100
AcDbLine
 62
4
  6
CONTINUOUS
 10
9.231965095
 20
8.5766093532
 11
9.2416243513
 21
8.5614505936
  0
LINE
  5
2C6
100
AcDbEntity
  8
0
100
AcDbLine
 62
4
  6
CONTINUOUS
 10
9.1257132479
 20
7.7001557478
 11
9.1353725068
 21
7.7139747639
  0
LINE
  5
2C7
100
AcDbEntity
  8
0
100
AcDbLine
 62
7
  6
CONTINUOUS
 10
10.7081403143
 20
9.7513599962
 11
10.70884203
 21
9.7520251942
  0
LINE
  5
2C8
100
AcDbEntity
  8
0
100
AcDbLine
 62
7
  6
CONTINUOUS
 10
10.7235951284
 20
9.7657430153
 11
10.7242632
 21
9.7663744914
  0
LINE
  5
2C9
100
AcDbEntity
  8
0
100
AcDbLine
 62
7
  6
CONTINUOUS
 10
10.7242569598
 20
9.7663704046
 11
10.70884203
 21
9.7520251942
  0
LINE
  5
2CA
100
AcDbEntity
  8
0
100
AcDbLine
 62
4
  6
CONTINUOUS
 10
9.2416243513
 20
9.0468283392
 11
9.1257132479
 21
8.9969112498
  0
LINE
  5
2CB
100
AcDbEntity
  8
0
100
AcDbLine
 62
4
  6
CONTINUOUS
 10
12.2350285918
 20
7.2164796416
 11
12.1191174884
 21
7.2245181039
  0
LINE
  5
2CC
100
AcDbEntity
  8
0
100
AcDbLine
 62
4
  6
CONTINUOUS
 10
9.1257132479
 20
7.4900668728
 11
9.2416243513
 21
7.4820284105
  0
LINE
  5
2CD
100
AcDbEntity
  8
0
100
AcDbLine
 62
4
  6
CONTINUOUS
 10
12.1770730401
 20
6.8582766745
 11
12.1480952643
 21
6.8675307341
  0
LINE
  5
2CE
100
AcDbEntity
  8
0
100
AcDbLine
 62
4
  6
CONTINUOUS
 10
9.2029873191
 20
8.5279078611
 11
9.1933280559
 21
8.5358221772
  0
LINE
  5
2CF
100
AcDbEntity
  8
0
100
AcDbLine
 62
4
  6
CONTINUOUS
 10
9.1740095398
 20
8.5661396967
 11
9.1546910237
 21
8.5819683283
  0
LINE
  5
2D0
100
AcDbEntity
  8
0
100
AcDbLine
 62
4
  6
CONTINUOUS
 10
9.2223058317
 20
8.5845236694
 11
9.231965095
 21
8.5766093532
  0
LINE
  5
2D1
100
AcDbEntity
  8
0
100
AcDbLine
 62
4
  6
CONTINUOUS
 10
9.1353725068
 20
9.1193969254
 11
9.1257132479
 21
9.1345556852
  0
LINE
  5
2D2
100
AcDbEntity
  8
0
100
AcDbLine
 62
4
  6
CONTINUOUS
 10
9.231965095
 20
9.1561648704
 11
9.2416243513
 21
9.1410061108
  0
LINE
  5
2D3
100
AcDbEntity
  8
0
100
AcDbLine
 62
4
  6
CONTINUOUS
 10
9.2416243513
 20
7.6776283976
 11
9.231965095
 21
7.6638093813
  0
LINE
  5
2D4
100
AcDbEntity
  8
0
100
AcDbLine
 62
7
  6
CONTINUOUS
 10
11.0855406572
 20
9.7403617579
 11
11.0858173347
 21
9.74062282
  0
LINE
  5
2D5
100
AcDbEntity
  8
0
100
AcDbLine
 62
4
  6
CONTINUOUS
 10
9.231965095
 20
8.5331426895
 11
9.2223058317
 21
8.5265681177
  0
LINE
  5
2D6
100
AcDbEntity
  8
0
100
AcDbLine
 62
4
  6
CONTINUOUS
 10
12.8759468951
 20
7.5421826976
 11
12.8681823303
 21
7.5419271475
  0
LINE
  5
2D7
100
AcDbEntity
  8
0
100
AcDbLine
 62
4
  6
CONTINUOUS
 10
12.1191174884
 20
7.4853180867
 11
12.2350285918
 21
7.4772796243
  0
LINE
  5
2D8
100
AcDbEntity
  8
0
100
AcDbLine
 62
7
  6
CONTINUOUS
 10
10.4631852442
 20
9.0315991538
 11
10.3601847436
 21
8.9321083043
  0
LINE
  5
2D9
100
AcDbEntity
  8
0
100
AcDbLine
 62
7
  6
CONTINUOUS
 10
10.4901456485
 20
8.9830326533
 11
10.3871451479
 21
8.8835418038
  0
LINE
  5
2DA
100
AcDbEntity
  8
0
100
AcDbLine
 62
4
  6
CONTINUOUS
 10
9.2416243513
 20
7.3371395312
 11
9.1257132479
 21
7.3089557737
  0
LINE
  5
2DB
100
AcDbEntity
  8
0
100
AcDbLine
 62
4
  6
CONTINUOUS
 10
12.1770730401
 20
7.2856988685
 11
12.206050816
 21
7.2764448089
  0
LINE
  5
2DC
100
AcDbEntity
  8
0
100
AcDbLine
 62
4
  6
CONTINUOUS
 10
12.2350285918
 20
6.9846574347
 11
12.1191174884
 21
7.0506514488
  0
LINE
  5
2DD
100
AcDbEntity
  8
0
100
AcDbLine
 62
4
  6
CONTINUOUS
 10
9.1450317657
 20
9.1114826095
 11
9.1353725068
 21
9.1193969254
  0
LINE
  5
2DE
100
AcDbEntity
  8
0
100
AcDbLine
 62
4
  6
CONTINUOUS
 10
9.2126465754
 20
9.1719935022
 11
9.231965095
 21
9.1561648704
  0
LINE
  5
2DF
100
AcDbEntity
  8
0
100
AcDbLine
 62
7
  6
CONTINUOUS
 10
10.7885631196
 20
9.0090341215
 11
10.685562619
 21
8.909543272
  0
LINE
  5
2E0
100
AcDbEntity
  8
0
100
AcDbLine
 62
7
  6
CONTINUOUS
 10
9.4304713099
 20
7.6543292831
 11
9.3274708093
 21
7.5548384336
  0
LINE
  5
2E1
100
AcDbEntity
  8
0
100
AcDbLine
 62
4
  6
CONTINUOUS
 10
9.1353725068
 20
7.7139747639
 11
9.1546910237
 21
7.7271239081
  0
LINE
  5
2E2
100
AcDbEntity
  8
0
100
AcDbLine
 62
4
  6
CONTINUOUS
 10
9.1546910237
 20
7.7271239081
 11
9.1836687996
 21
7.7323587365
  0
LINE
  5
2E3
100
AcDbEntity
  8
0
100
AcDbLine
 62
4
  6
CONTINUOUS
 10
12.206050816
 20
8.3124002131
 11
12.1770730401
 21
8.3071653847
  0
LINE
  5
2E4
100
AcDbEntity
  8
0
100
AcDbLine
 62
4
  6
CONTINUOUS
 10
9.1546910237
 20
8.5819683283
 11
9.1257132479
 21
8.5912223878
  0
LINE
  5
2E5
100
AcDbEntity
  8
0
100
AcDbLine
 62
4
  6
CONTINUOUS
 10
9.1257132479
 20
9.0548668016
 11
9.2416243513
 21
8.9888727875
  0
LINE
  5
2E6
100
AcDbEntity
  8
0
100
AcDbLine
 62
4
  6
CONTINUOUS
 10
12.1480952643
 20
6.8675307341
 11
12.1287767447
 21
6.8833593659
  0
LINE
  5
2E7
100
AcDbEntity
  8
0
100
AcDbLine
 62
4
  6
CONTINUOUS
 10
12.215710074
 20
6.9280416268
 11
12.2253693329
 21
6.9201273109
  0
LINE
  5
2E8
100
AcDbEntity
  8
0
100
AcDbLine
 62
7
  6
CONTINUOUS
 10
10.6985484505
 20
9.7325031029
 11
10.6985484505
 21
9.710208327
  0
LINE
  5
2E9
100
AcDbEntity
  8
0
100
AcDbLine
 62
7
  6
CONTINUOUS
 10
11.2779596824
 20
9.2576475919
 11
11.1749591819
 21
9.1581567424
  0
LINE
  5
2EA
100
AcDbEntity
  8
0
100
AcDbLine
 62
7
  6
CONTINUOUS
 10
9.9198678727
 20
7.9029427535
 11
9.8168673721
 21
7.803451904
  0
LINE
  5
2EB
100
AcDbEntity
  8
0
100
AcDbLine
 62
7
  6
CONTINUOUS
 10
11.3318804911
 20
9.2539081711
 11
11.2288799905
 21
9.1544173216
  0
LINE
  5
2EC
100
AcDbEntity
  8
0
100
AcDbLine
 62
7
  6
CONTINUOUS
 10
10.4901456485
 20
8.4179261788
 11
10.3871451479
 21
8.3184353292
  0
LINE
  5
2ED
100
AcDbEntity
  8
0
100
AcDbLine
 62
7
  6
CONTINUOUS
 10
10.4631852442
 20
8.3730990991
 11
10.3601847436
 21
8.2736082496
  0
LINE
  5
2EE
100
AcDbEntity
  8
0
100
AcDbLine
 62
7
  6
CONTINUOUS
 10
9.9737886813
 20
7.8992033327
 11
9.8707881808
 21
7.7997124832
  0
LINE
  5
2EF
100
AcDbEntity
  8
0
100
AcDbLine
 62
4
  6
CONTINUOUS
 10
9.231965095
 20
7.6638093813
 11
9.2223058317
 21
7.6572348095
  0
LINE
  5
2F0
100
AcDbEntity
  8
0
100
AcDbLine
 62
4
  6
CONTINUOUS
 10
9.1257132479
 20
8.8302890387
 11
9.2416243513
 21
8.7860283565
  0
LINE
  5
2F1
100
AcDbEntity
  8
0
100
AcDbLine
 62
7
  6
CONTINUOUS
 10
10.9032977549
 20
9.7668969323
 11
10.9032977549
 21
9.7277709068
  0
LINE
  5
2F2
100
AcDbEntity
  8
0
100
AcDbLine
 62
7
  6
CONTINUOUS
 10
11.0081411254
 20
9.7741678576
 11
11.0081411254
 21
9.7205716218
  0
LINE
  5
2F3
100
AcDbEntity
  8
0
100
AcDbLine
 62
4
  6
CONTINUOUS
 10
12.1480952643
 20
8.7293527502
 11
12.1770730401
 21
8.7345875786
  0
LINE
  5
2F4
100
AcDbEntity
  8
0
100
AcDbLine
 62
4
  6
CONTINUOUS
 10
9.2223058317
 20
8.5265681177
 11
9.2029873191
 21
8.5279078611
  0
LINE
  5
2F5
100
AcDbEntity
  8
0
100
AcDbLine
 62
4
  6
CONTINUOUS
 10
12.206050816
 20
7.2764448089
 11
12.2253693329
 21
7.2606161773
  0
LINE
  5
2F6
100
AcDbEntity
  8
0
100
AcDbLine
 62
4
  6
CONTINUOUS
 10
9.2416243513
 20
7.597939514
 11
9.1257132479
 21
7.5480224246
  0
LINE
  5
2F7
100
AcDbEntity
  8
0
100
AcDbLine
 62
4
  6
CONTINUOUS
 10
12.2350285918
 20
8.5494572483
 11
12.1191174884
 21
8.5574957106
  0
LINE
  5
2F8
100
AcDbEntity
  8
0
100
AcDbLine
 62
4
  6
CONTINUOUS
 10
9.1836687996
 20
9.1812475618
 11
9.2126465754
 21
9.1719935022
  0
LINE
  5
2F9
100
AcDbEntity
  8
0
100
AcDbLine
 62
4
  6
CONTINUOUS
 10
12.1770730401
 20
8.3071653847
 11
12.1480952643
 21
8.3164194442
  0
LINE
  5
2FA
100
AcDbEntity
  8
0
100
AcDbLine
 62
4
  6
CONTINUOUS
 10
12.1287767447
 20
6.8833593659
 11
12.1191174884
 21
6.8985181255
  0
LINE
  5
2FB
100
AcDbEntity
  8
0
100
AcDbLine
 62
4
  6
CONTINUOUS
 10
12.2253693329
 20
6.9201273109
 11
12.2350285918
 21
6.9049685511
  0
LINE
  5
2FC
100
AcDbEntity
  8
0
100
AcDbLine
 62
7
  6
CONTINUOUS
 10
11.2615484505
 20
9.7325031029
 11
11.2615484505
 21
9.7101444366
  0
LINE
  5
2FD
100
AcDbEntity
  8
0
100
AcDbLine
 62
7
  6
CONTINUOUS
 10
11.8212770539
 20
8.9374151669
 11
11.7182765533
 21
8.8379243174
  0
LINE
  5
2FE
100
AcDbEntity
  8
0
100
AcDbLine
 62
7
  6
CONTINUOUS
 10
10.4631852442
 20
7.5827103285
 11
10.3601847436
 21
7.483219479
  0
LINE
  5
2FF
100
AcDbEntity
  8
0
100
AcDbLine
 62
7
  6
CONTINUOUS
 10
11.8482374582
 20
8.8888486664
 11
11.7452369577
 21
8.7893578169
  0
LINE
  5
300
100
AcDbEntity
  8
0
100
AcDbLine
 62
7
  6
CONTINUOUS
 10
10.4901456485
 20
7.5341438281
 11
10.3871451479
 21
7.4346529785
  0
LINE
  5
301
100
AcDbEntity
  8
0
100
AcDbLine
 62
7
  6
CONTINUOUS
 10
13.4171370761
 20
10.2836640911
 11
12.446566458
 21
9.3461648093
  0
LINE
  5
302
100
AcDbEntity
  8
0
100
AcDbLine
 62
4
  6
CONTINUOUS
 10
12.1287767447
 20
8.955270257
 11
12.1384360079
 21
8.9618448288
  0
LINE
  5
303
100
AcDbEntity
  8
0
100
AcDbLine
 62
4
  6
CONTINUOUS
 10
12.8759468951
 20
8.9910715804
 11
12.8681823303
 21
8.9908160303
  0
LINE
  5
304
100
AcDbEntity
  8
0
100
AcDbLine
 62
4
  6
CONTINUOUS
 10
12.2350285918
 20
8.6653683517
 11
12.1191174884
 21
8.6734068141
  0
LINE
  5
305
100
AcDbEntity
  8
0
100
AcDbLine
 62
4
  6
CONTINUOUS
 10
9.1257132479
 20
8.9389556981
 11
9.2416243513
 21
8.9309172358
  0
LINE
  5
306
100
AcDbEntity
  8
0
100
AcDbLine
 62
4
  6
CONTINUOUS
 10
12.2253693329
 20
7.2606161773
 11
12.2350285918
 21
7.2454574175
  0
LINE
  5
307
100
AcDbEntity
  8
0
100
AcDbLine
 62
7
  6
CONTINUOUS
 10
10.7885631196
 20
7.5601452962
 11
10.685562619
 21
7.4606544467
  0
LINE
  5
308
100
AcDbEntity
  8
0
100
AcDbLine
 62
4
  6
CONTINUOUS
 10
12.1287767447
 20
8.7162036062
 11
12.1480952643
 21
8.7293527502
  0
LINE
  5
309
100
AcDbEntity
  8
0
100
AcDbLine
 62
4
  6
CONTINUOUS
 10
12.1191174884
 20
8.4415846072
 11
12.2350285918
 21
8.4915016966
  0
LINE
  5
30A
100
AcDbEntity
  8
0
100
AcDbLine
 62
4
  6
CONTINUOUS
 10
12.8837114599
 20
9.1362160099
 11
12.8914760246
 21
9.13647156
  0
LINE
  5
30B
100
AcDbEntity
  8
0
100
AcDbLine
 62
4
  6
CONTINUOUS
 10
12.1384360079
 20
8.9618448288
 11
12.1577545206
 21
8.9605050854
  0
LINE
  5
30C
100
AcDbEntity
  8
0
100
AcDbLine
 62
4
  6
CONTINUOUS
 10
12.1770730401
 20
8.7345875786
 11
12.206050816
 21
8.725333519
  0
LINE
  5
30D
100
AcDbEntity
  8
0
100
AcDbLine
 62
4
  6
CONTINUOUS
 10
12.2350285918
 20
8.4335461449
 11
12.1191174884
 21
8.4995401589
  0
LINE
  5
30E
100
AcDbEntity
  8
0
100
AcDbLine
 62
4
  6
CONTINUOUS
 10
12.1480952643
 20
8.3164194442
 11
12.1287767447
 21
8.332248076
  0
LINE
  5
30F
100
AcDbEntity
  8
0
100
AcDbLine
 62
4
  6
CONTINUOUS
 10
12.1191174884
 20
8.9414512408
 11
12.1287767447
 21
8.955270257
  0
LINE
  5
310
100
AcDbEntity
  8
0
100
AcDbLine
 62
4
  6
CONTINUOUS
 10
12.1191174884
 20
8.7023845899
 11
12.1287767447
 21
8.7162036062
  0
LINE
  5
311
100
AcDbEntity
  8
0
100
AcDbLine
 62
7
  6
CONTINUOUS
 10
11.2779596824
 20
7.8087587666
 11
11.1749591819
 21
7.7092679171
  0
LINE
  5
312
100
AcDbEntity
  8
0
100
AcDbLine
 62
7
  6
CONTINUOUS
 10
11.8482374582
 20
8.3237421919
 11
11.7452369577
 21
8.2242513424
  0
LINE
  5
313
100
AcDbEntity
  8
0
100
AcDbLine
 62
7
  6
CONTINUOUS
 10
11.8212770539
 20
8.2789151122
 11
11.7182765533
 21
8.1794242627
  0
LINE
  5
314
100
AcDbEntity
  8
0
100
AcDbLine
 62
7
  6
CONTINUOUS
 10
11.3318804911
 20
7.8050193458
 11
11.2288799905
 21
7.7055284963
  0
LINE
  5
315
100
AcDbEntity
  8
0
100
AcDbLine
 62
7
  6
CONTINUOUS
 10
10.4901456485
 20
6.9690373535
 11
10.3871451479
 21
6.869546504
  0
LINE
  5
316
100
AcDbEntity
  8
0
100
AcDbLine
 62
7
  6
CONTINUOUS
 10
10.4631852442
 20
6.9242102738
 11
10.3601847436
 21
6.8247194243
  0
LINE
  5
317
100
AcDbEntity
  8
0
100
AcDbLine
 62
4
  6
CONTINUOUS
 10
12.8655941427
 20
9.169427132
 11
12.870770518
 21
9.1744271269
  0
LINE
  5
318
100
AcDbEntity
  8
0
100
AcDbLine
 62
4
  6
CONTINUOUS
 10
12.1287767447
 20
8.3757147398
 11
12.1384360079
 21
8.3822893116
  0
LINE
  5
319
100
AcDbEntity
  8
0
100
AcDbLine
 62
4
  6
CONTINUOUS
 10
12.2253693329
 20
8.3255493573
 11
12.206050816
 21
8.3124002131
  0
LINE
  5
31A
100
AcDbEntity
  8
0
100
AcDbLine
 62
4
  6
CONTINUOUS
 10
9.2416243513
 20
8.7860283565
 11
9.1257132479
 21
8.757844599
  0
LINE
  5
31B
100
AcDbEntity
  8
0
100
AcDbLine
 62
4
  6
CONTINUOUS
 10
12.206050816
 20
8.9064446182
 11
12.2350285918
 21
8.8971905586
  0
LINE
  5
31C
100
AcDbEntity
  8
0
100
AcDbLine
 62
4
  6
CONTINUOUS
 10
12.215710074
 20
8.3769303369
 11
12.2253693329
 21
8.3690160211
  0
LINE
  5
31D
100
AcDbEntity
  8
0
100
AcDbLine
 62
4
  6
CONTINUOUS
 10
12.1287767447
 20
8.332248076
 11
12.1191174884
 21
8.3474068357
  0
LINE
  5
31E
100
AcDbEntity
  8
0
100
AcDbLine
 62
4
  6
CONTINUOUS
 10
12.1191174884
 20
8.3618957236
 11
12.1287767447
 21
8.3757147398
  0
LINE
  5
31F
100
AcDbEntity
  8
0
100
AcDbLine
 62
4
  6
CONTINUOUS
 10
9.1546910237
 20
9.1760127334
 11
9.1836687996
 21
9.1812475618
  0
LINE
  5
320
100
AcDbEntity
  8
0
100
AcDbLine
 62
7
  6
CONTINUOUS
 10
12.446566458
 20
9.3461648093
 11
8.5828629239
 21
9.6141135594
  0
LINE
  5
321
100
AcDbEntity
  8
0
100
AcDbLine
 62
4
  6
CONTINUOUS
 10
12.206050816
 20
8.725333519
 11
12.2253693329
 21
8.7095048874
  0
LINE
  5
322
100
AcDbEntity
  8
0
100
AcDbLine
 62
4
  6
CONTINUOUS
 10
12.1384360079
 20
8.9038892771
 11
12.1287767447
 21
8.9118035932
  0
LINE
  5
323
100
AcDbEntity
  8
0
100
AcDbLine
 62
4
  6
CONTINUOUS
 10
12.1867322999
 20
8.9222732497
 11
12.206050816
 21
8.9064446182
  0
LINE
  5
324
100
AcDbEntity
  8
0
100
AcDbLine
 62
4
  6
CONTINUOUS
 10
12.2253693329
 20
8.3690160211
 11
12.2350285918
 21
8.3538572613
  0
LINE
  5
325
100
AcDbEntity
  8
0
100
AcDbLine
 62
4
  6
CONTINUOUS
 10
12.1191174884
 20
6.8985181255
 11
12.1191174884
 21
6.9130070135
  0
LINE
  5
326
100
AcDbEntity
  8
0
100
AcDbLine
 62
4
  6
CONTINUOUS
 10
12.1191174884
 20
7.1086070005
 11
12.1191174884
 21
7.1665625522
  0
LINE
  5
327
100
AcDbEntity
  8
0
100
AcDbLine
 62
4
  6
CONTINUOUS
 10
12.1191174884
 20
7.2245181039
 11
12.1191174884
 21
7.2534958798
  0
LINE
  5
328
100
AcDbEntity
  8
0
100
AcDbLine
 62
4
  6
CONTINUOUS
 10
12.1191174884
 20
8.3474068357
 11
12.1191174884
 21
8.3618957236
  0
LINE
  5
329
100
AcDbEntity
  8
0
100
AcDbLine
 62
4
  6
CONTINUOUS
 10
12.1191174884
 20
8.5574957106
 11
12.1191174884
 21
8.6154512624
  0
LINE
  5
32A
100
AcDbEntity
  8
0
100
AcDbLine
 62
4
  6
CONTINUOUS
 10
12.1191174884
 20
8.6734068141
 11
12.1191174884
 21
8.7023845899
  0
LINE
  5
32B
100
AcDbEntity
  8
0
100
AcDbLine
 62
4
  6
CONTINUOUS
 10
12.1191174884
 20
8.9269623528
 11
12.1191174884
 21
8.9414512408
  0
LINE
  5
32C
100
AcDbEntity
  8
0
100
AcDbLine
 62
4
  6
CONTINUOUS
 10
12.1770730401
 20
7.1045877693
 11
12.1770730401
 21
7.1408099892
  0
LINE
  5
32D
100
AcDbEntity
  8
0
100
AcDbLine
 62
4
  6
CONTINUOUS
 10
12.1770730401
 20
7.3436544202
 11
12.1770730401
 21
7.387121084
  0
LINE
  5
32E
100
AcDbEntity
  8
0
100
AcDbLine
 62
4
  6
CONTINUOUS
 10
12.1770730401
 20
8.5534764795
 11
12.1770730401
 21
8.5896986993
  0
LINE
  5
32F
100
AcDbEntity
  8
0
100
AcDbLine
 62
4
  6
CONTINUOUS
 10
12.1770730401
 20
8.7925431303
 11
12.1770730401
 21
8.8360097941
  0
LINE
  5
330
100
AcDbEntity
  8
0
100
AcDbLine
 62
4
  6
CONTINUOUS
 10
12.2350285918
 20
8.6943461276
 11
12.2350285918
 21
8.6653683517
  0
LINE
  5
331
100
AcDbEntity
  8
0
100
AcDbLine
 62
4
  6
CONTINUOUS
 10
12.2350285918
 20
8.6074128
 11
12.2350285918
 21
8.5494572483
  0
LINE
  5
332
100
AcDbEntity
  8
0
100
AcDbLine
 62
4
  6
CONTINUOUS
 10
12.2350285918
 20
8.3538572613
 11
12.2350285918
 21
8.3393683733
  0
LINE
  5
333
100
AcDbEntity
  8
0
100
AcDbLine
 62
4
  6
CONTINUOUS
 10
12.2350285918
 20
7.2454574175
 11
12.2350285918
 21
7.2164796416
  0
LINE
  5
334
100
AcDbEntity
  8
0
100
AcDbLine
 62
4
  6
CONTINUOUS
 10
12.2350285918
 20
7.1585240899
 11
12.2350285918
 21
7.1005685382
  0
LINE
  5
335
100
AcDbEntity
  8
0
100
AcDbLine
 62
4
  6
CONTINUOUS
 10
12.2350285918
 20
6.9049685511
 11
12.2350285918
 21
6.8904796632
  0
LINE
  5
336
100
AcDbEntity
  8
0
100
AcDbLine
 62
4
  6
CONTINUOUS
 10
12.2350285918
 20
8.8971905586
 11
12.2350285918
 21
8.9551461103
  0
LINE
  5
337
100
AcDbEntity
  8
0
100
AcDbLine
 62
4
  6
CONTINUOUS
 10
12.2350285918
 20
8.3393683733
 11
12.2253693329
 21
8.3255493573
  0
LINE
  5
338
100
AcDbEntity
  8
0
100
AcDbLine
 62
4
  6
CONTINUOUS
 10
12.8244419519
 20
8.5906905028
 11
12.8296183286
 21
8.595690499
  0
LINE
  5
339
100
AcDbEntity
  8
0
100
AcDbLine
 62
4
  6
CONTINUOUS
 10
12.8089128233
 20
8.5177349638
 11
12.8115010109
 21
8.5202349612
  0
LINE
  5
33A
100
AcDbEntity
  8
0
100
AcDbLine
 62
4
  6
CONTINUOUS
 10
12.1577545206
 20
8.9605050854
 11
12.1674137838
 21
8.9525907692
  0
LINE
  5
33B
100
AcDbEntity
  8
0
100
AcDbLine
 62
7
  6
CONTINUOUS
 10
11.2358399412
 20
9.7663704046
 11
11.2512548709
 21
9.7520251942
  0
LINE
  5
33C
100
AcDbEntity
  8
0
100
AcDbLine
 62
4
  6
CONTINUOUS
 10
12.2253693329
 20
8.7095048874
 11
12.2350285918
 21
8.6943461276
  0
LINE
  5
33D
100
AcDbEntity
  8
0
100
AcDbLine
 62
4
  6
CONTINUOUS
 10
12.1287767447
 20
8.9118035932
 11
12.1191174884
 21
8.9269623528
  0
LINE
  5
33E
100
AcDbEntity
  8
0
100
AcDbLine
 62
4
  6
CONTINUOUS
 10
12.1674137838
 20
8.9525907692
 11
12.1867322999
 21
8.9222732497
  0
LINE
  5
33F
100
AcDbEntity
  8
0
100
AcDbLine
 62
4
  6
CONTINUOUS
 10
12.8681823303
 20
7.5419271475
 11
12.8630059532
 21
7.5514160387
  0
LINE
  5
340
100
AcDbEntity
  8
0
100
AcDbLine
 62
4
  6
CONTINUOUS
 10
12.886299648
 20
7.6246271292
 11
12.8888878363
 21
7.6198826833
  0
LINE
  5
341
100
AcDbEntity
  8
0
100
AcDbLine
 62
7
  6
CONTINUOUS
 10
12.446566458
 20
9.3461648093
 11
12.446566458
 21
6.4483871587
  0
LINE
  5
342
100
AcDbEntity
  8
0
100
AcDbLine
 62
4
  6
CONTINUOUS
 10
12.8837114599
 20
9.0058160185
 11
12.8759468951
 21
8.9910715804
  0
LINE
  5
343
100
AcDbEntity
  8
0
100
AcDbLine
 62
7
  6
CONTINUOUS
 10
11.8212770539
 20
7.4885263416
 11
11.7182765533
 21
7.3890354921
  0
LINE
  5
344
100
AcDbEntity
  8
0
100
AcDbLine
 62
7
  6
CONTINUOUS
 10
11.8482374582
 20
7.4399598412
 11
11.7452369577
 21
7.3404689916
  0
LINE
  5
345
100
AcDbEntity
  8
0
100
AcDbLine
 62
4
  6
CONTINUOUS
 10
12.8630059532
 20
9.1596826888
 11
12.8655941427
 21
9.169427132
  0
LINE
  5
346
100
AcDbEntity
  8
0
100
AcDbLine
 62
4
  6
CONTINUOUS
 10
12.8630059532
 20
9.0437715854
 11
12.8655941427
 21
9.0535160286
  0
LINE
  5
347
100
AcDbEntity
  8
0
100
AcDbLine
 62
4
  6
CONTINUOUS
 10
12.8888878363
 20
9.0253049024
 11
12.8837114599
 21
9.0058160185
  0
LINE
  5
348
100
AcDbEntity
  8
0
100
AcDbLine
 62
4
  6
CONTINUOUS
 10
12.1191174884
 20
7.2534958798
 11
12.1287767447
 21
7.267314896
  0
LINE
  5
349
100
AcDbEntity
  8
0
100
AcDbLine
 62
4
  6
CONTINUOUS
 10
12.1287767447
 20
7.267314896
 11
12.1480952643
 21
7.2804640401
  0
LINE
  5
34A
100
AcDbEntity
  8
0
100
AcDbLine
 62
4
  6
CONTINUOUS
 10
12.8063246338
 20
8.5224794085
 11
12.8089128233
 21
8.5177349638
  0
LINE
  5
34B
100
AcDbEntity
  8
0
100
AcDbLine
 62
4
  6
CONTINUOUS
 10
12.8296183286
 20
8.595690499
 11
12.8322065169
 21
8.5909460531
  0
LINE
  5
34C
100
AcDbEntity
  8
0
100
AcDbLine
 62
4
  6
CONTINUOUS
 10
12.8630059532
 20
7.5514160387
 11
12.8604177656
 21
7.5634049292
  0
LINE
  5
34D
100
AcDbEntity
  8
0
100
AcDbLine
 62
4
  6
CONTINUOUS
 10
12.8888878363
 20
7.6198826833
 11
12.8914760246
 21
7.6078937935
  0
LINE
  5
34E
100
AcDbEntity
  8
0
100
AcDbLine
 62
4
  6
CONTINUOUS
 10
12.8037364461
 20
8.5489571869
 11
12.8037364461
 21
8.534468299
  0
LINE
  5
34F
100
AcDbEntity
  8
0
100
AcDbLine
 62
4
  6
CONTINUOUS
 10
12.8347947052
 20
8.5789571633
 11
12.8347947052
 21
8.5644682754
  0
LINE
  5
350
100
AcDbEntity
  8
0
100
AcDbLine
 62
4
  6
CONTINUOUS
 10
12.8604177656
 20
7.5634049292
 11
12.8604177656
 21
7.5778938172
  0
LINE
  5
351
100
AcDbEntity
  8
0
100
AcDbLine
 62
4
  6
CONTINUOUS
 10
12.8604177656
 20
9.0122938121
 11
12.8604177656
 21
9.0267827
  0
LINE
  5
352
100
AcDbEntity
  8
0
100
AcDbLine
 62
4
  6
CONTINUOUS
 10
12.8604177656
 20
9.1282049155
 11
12.8604177656
 21
9.1426938035
  0
LINE
  5
353
100
AcDbEntity
  8
0
100
AcDbLine
 62
4
  6
CONTINUOUS
 10
12.8914760246
 20
9.0567826764
 11
12.8914760246
 21
9.0422937884
  0
LINE
  5
354
100
AcDbEntity
  8
0
100
AcDbLine
 62
4
  6
CONTINUOUS
 10
12.8914760246
 20
7.6078937935
 11
12.8914760246
 21
7.5934049056
  0
LINE
  5
355
100
AcDbEntity
  8
0
100
AcDbLine
 62
4
  6
CONTINUOUS
 10
12.8914760246
 20
9.13647156
 11
12.8914760246
 21
9.1944271117
  0
LINE
  5
356
100
AcDbEntity
  8
0
100
AcDbLine
 62
4
  6
CONTINUOUS
 10
12.8604177656
 20
9.1426938035
 11
12.8630059532
 21
9.1596826888
  0
LINE
  5
357
100
AcDbEntity
  8
0
100
AcDbLine
 62
4
  6
CONTINUOUS
 10
12.8604177656
 20
9.0267827
 11
12.8630059532
 21
9.0437715854
  0
LINE
  5
358
100
AcDbEntity
  8
0
100
AcDbLine
 62
4
  6
CONTINUOUS
 10
12.8063246338
 20
8.5659460723
 11
12.8037364461
 21
8.5489571869
  0
LINE
  5
359
100
AcDbEntity
  8
0
100
AcDbLine
 62
4
  6
CONTINUOUS
 10
12.8914760246
 20
9.0422937884
 11
12.8888878363
 21
9.0253049024
  0
LINE
  5
35A
100
AcDbEntity
  8
0
100
AcDbLine
 62
4
  6
CONTINUOUS
 10
12.8140891986
 20
8.5299794026
 11
12.8218537643
 21
8.5809460614
  0
LINE
  5
35B
100
AcDbEntity
  8
0
100
AcDbLine
 62
4
  6
CONTINUOUS
 10
12.8347947052
 20
8.5644682754
 11
12.8322065169
 21
8.5474793893
  0
LINE
  5
35C
100
AcDbEntity
  8
0
100
AcDbLine
 62
4
  6
CONTINUOUS
 10
12.8089128233
 20
8.5756905155
 11
12.8063246338
 21
8.5659460723
  0
LINE
  5
35D
100
AcDbEntity
  8
0
100
AcDbLine
 62
4
  6
CONTINUOUS
 10
12.8218537643
 20
8.5809460614
 11
12.8244419519
 21
8.5906905028
  0
LINE
  5
35E
100
AcDbEntity
  8
0
100
AcDbLine
 62
4
  6
CONTINUOUS
 10
12.8115010109
 20
8.5202349612
 11
12.8140891986
 21
8.5299794026
  0
LINE
  5
35F
100
AcDbEntity
  8
0
100
AcDbLine
 62
4
  6
CONTINUOUS
 10
12.8322065169
 20
8.5474793893
 11
12.8270301405
 21
8.5279905054
  0
LINE
  5
360
100
AcDbEntity
  8
0
100
AcDbLine
 62
4
  6
CONTINUOUS
 10
12.1191174884
 20
6.9130070135
 11
12.1287767447
 21
6.9268260297
  0
LINE
  5
361
100
AcDbEntity
  8
0
100
AcDbLine
 62
7
  6
CONTINUOUS
 10
11.8482374582
 20
6.8748533666
 11
11.7452369577
 21
6.7753625171
  0
LINE
  5
362
100
AcDbEntity
  8
0
100
AcDbLine
 62
7
  6
CONTINUOUS
 10
11.8212770539
 20
6.8300262869
 11
11.7182765533
 21
6.7305354374
  0
LINE
  5
363
100
AcDbEntity
  8
0
100
AcDbLine
 62
4
  6
CONTINUOUS
 10
12.8604177656
 20
7.6865604766
 11
12.8914760246
 21
7.716560453
  0
LINE
  5
364
100
AcDbEntity
  8
0
100
AcDbLine
 62
4
  6
CONTINUOUS
 10
12.1191174884
 20
6.9926958971
 11
12.2350285918
 21
7.0426129865
  0
LINE
  5
365
100
AcDbEntity
  8
0
100
AcDbLine
 62
4
  6
CONTINUOUS
 10
12.8681823303
 20
8.9908160303
 11
12.8630059532
 21
9.0003049216
  0
LINE
  5
366
100
AcDbEntity
  8
0
100
AcDbLine
 62
4
  6
CONTINUOUS
 10
12.8655941427
 20
9.1114715803
 11
12.8630059532
 21
9.116216025
  0
LINE
  5
367
100
AcDbEntity
  8
0
100
AcDbLine
 62
4
  6
CONTINUOUS
 10
12.886299648
 20
9.0735160121
 11
12.8888878363
 21
9.0687715662
  0
LINE
  5
368
100
AcDbEntity
  8
0
100
AcDbLine
 62
4
  6
CONTINUOUS
 10
12.8037364461
 20
8.534468299
 11
12.8063246338
 21
8.5224794085
  0
LINE
  5
369
100
AcDbEntity
  8
0
100
AcDbLine
 62
4
  6
CONTINUOUS
 10
12.8322065169
 20
8.5909460531
 11
12.8347947052
 21
8.5789571633
  0
LINE
  5
36A
100
AcDbEntity
  8
0
100
AcDbLine
 62
4
  6
CONTINUOUS
 10
12.8630059532
 20
9.0003049216
 11
12.8604177656
 21
9.0122938121
  0
LINE
  5
36B
100
AcDbEntity
  8
0
100
AcDbLine
 62
4
  6
CONTINUOUS
 10
12.8604177656
 20
7.5778938172
 11
12.8630059532
 21
7.5948827025
  0
LINE
  5
36C
100
AcDbEntity
  8
0
100
AcDbLine
 62
4
  6
CONTINUOUS
 10
12.8914760246
 20
7.5934049056
 11
12.8888878363
 21
7.5764160196
  0
LINE
  5
36D
100
AcDbEntity
  8
0
100
AcDbLine
 62
4
  6
CONTINUOUS
 10
12.8630059532
 20
7.5948827025
 11
12.8655941427
 21
7.6046271457
  0
LINE
  5
36E
100
AcDbEntity
  8
0
100
AcDbLine
 62
4
  6
CONTINUOUS
 10
12.8888878363
 20
7.5764160196
 11
12.8837114599
 21
7.5569271356
  0
LINE
  5
36F
100
AcDbEntity
  8
0
100
AcDbLine
 62
4
  6
CONTINUOUS
 10
12.8837114599
 20
7.5569271356
 11
12.8759468951
 21
7.5421826976
  0
LINE
  5
370
100
AcDbEntity
  8
0
100
AcDbLine
 62
4
  6
CONTINUOUS
 10
12.2350285918
 20
6.8904796632
 11
12.2253693329
 21
6.8766606472
  0
LINE
  5
371
100
AcDbEntity
  8
0
100
AcDbLine
 62
4
  6
CONTINUOUS
 10
12.1287767447
 20
6.9268260297
 11
12.1384360079
 21
6.9334006015
  0
LINE
  5
372
100
AcDbEntity
  8
0
100
AcDbLine
 62
4
  6
CONTINUOUS
 10
12.2253693329
 20
6.8766606472
 11
12.206050816
 21
6.8635115029
  0
LINE
  5
373
100
AcDbEntity
  8
0
100
AcDbLine
 62
7
  6
CONTINUOUS
 10
9.553433542
 20
10.5516128413
 11
13.4171370761
 21
10.2836640911
  0
LINE
  5
374
100
AcDbEntity
  8
0
100
AcDbLine
 62
4
  6
CONTINUOUS
 10
12.8785350837
 20
9.145704902
 11
12.8837114599
 21
9.1362160099
  0
LINE
  5
375
100
AcDbEntity
  8
0
100
AcDbLine
 62
4
  6
CONTINUOUS
 10
12.870770518
 20
9.1744271269
 11
12.8733587075
 21
9.1696826821
  0
LINE
  5
376
100
AcDbEntity
  8
0
100
AcDbLine
 62
4
  6
CONTINUOUS
 10
12.8630059532
 20
9.116216025
 11
12.8604177656
 21
9.1282049155
  0
LINE
  5
377
100
AcDbEntity
  8
0
100
AcDbLine
 62
4
  6
CONTINUOUS
 10
12.8888878363
 20
9.0687715662
 11
12.8914760246
 21
9.0567826764
  0
LINE
  5
378
100
AcDbEntity
  8
0
100
AcDbLine
 62
4
  6
CONTINUOUS
 10
12.8733587075
 20
9.1696826821
 11
12.8785350837
 21
9.145704902
  0
LINE
  5
379
100
AcDbEntity
  8
0
100
AcDbLine
 62
7
  6
CONTINUOUS
 10
13.4171370761
 20
10.2836640911
 11
13.4171370761
 21
7.3858864406
  0
LINE
  5
37A
100
AcDbEntity
  8
0
100
AcDbLine
 62
7
  6
CONTINUOUS
 10
13.4171370761
 20
7.3858864406
 11
12.446566458
 21
6.4483871587
  0
ARC
  5
37B
100
AcDbEntity
  8
0
100
AcDbCircle
 62
7
  6
CONTINUOUS
 10
9.8913827308
 20
7.2335229056
 40
0.6699925153
100
AcDbArc
 50
26.6598562642
 51
31.4115094164
  0
ARC
  5
37C
100
AcDbEntity
  8
0
100
AcDbCircle
 62
7
  6
CONTINUOUS
 10
9.8983805073
 20
7.245030179
 40
0.6689722376
100
AcDbArc
 50
206.6562307081
 51
211.4151349724
  0
ARC
  5
37D
100
AcDbEntity
  8
0
100
AcDbCircle
 62
7
  6
CONTINUOUS
 10
9.7892750456
 20
7.1345276789
 40
0.6689722376
100
AcDbArc
 50
26.6562307081
 51
31.4151349725
  0
ARC
  5
37E
100
AcDbEntity
  8
0
100
AcDbCircle
 62
7
  6
CONTINUOUS
 10
9.8867594171
 20
7.1959927109
 40
0.6200987324
100
AcDbArc
 50
263.5283744339
 51
266.0300335618
  0
ARC
  5
37F
100
AcDbEntity
  8
0
100
AcDbCircle
 62
7
  6
CONTINUOUS
 10
9.8008961358
 20
7.183565147
 40
0.6200987324
100
AcDbArc
 50
83.5283744339
 51
86.0300335618
  0
ARC
  5
380
100
AcDbEntity
  8
0
100
AcDbCircle
 62
7
  6
CONTINUOUS
 10
9.903981849
 20
7.2839885755
 40
0.6191624918
100
AcDbArc
 50
83.5264827433
 51
86.0319252524
  0
ARC
  5
381
100
AcDbEntity
  8
0
100
AcDbCircle
 62
7
  6
CONTINUOUS
 10
9.9043060066
 20
7.2886625721
 40
0.614477268
100
AcDbArc
 50
86.031919382
 51
88.5488078505
  0
ARC
  5
382
100
AcDbEntity
  8
0
100
AcDbCircle
 62
7
  6
CONTINUOUS
 10
9.8863500469
 20
7.1903861353
 40
0.614477268
100
AcDbArc
 50
266.031919382
 51
268.5488078505
  0
ARC
  5
383
100
AcDbEntity
  8
0
100
AcDbCircle
 62
7
  6
CONTINUOUS
 10
9.801305506
 20
7.1891717226
 40
0.614477268
100
AcDbArc
 50
86.031919382
 51
88.5488078504
  0
ARC
  5
384
100
AcDbEntity
  8
0
100
AcDbCircle
 62
7
  6
CONTINUOUS
 10
9.9980096837
 20
7.2345023233
 40
0.5591685417
100
AcDbArc
 50
326.2950117378
 51
331.6569605865
  0
ARC
  5
385
100
AcDbEntity
  8
0
100
AcDbCircle
 62
7
  6
CONTINUOUS
 10
9.7926463698
 20
7.2445463841
 40
0.5591685417
100
AcDbArc
 50
146.2950117378
 51
151.6569605865
  0
ARC
  5
386
100
AcDbEntity
  8
0
100
AcDbCircle
 62
7
  6
CONTINUOUS
 10
9.8950091831
 20
7.1350114738
 40
0.5591685417
100
AcDbArc
 50
326.2950117378
 51
331.6569605865
  0
ARC
  5
387
100
AcDbEntity
  8
0
100
AcDbCircle
 62
7
  6
CONTINUOUS
 10
9.8913827308
 20
8.6824117309
 40
0.6699925153
100
AcDbArc
 50
26.6598562642
 51
31.4115094164
  0
ARC
  5
388
100
AcDbEntity
  8
0
100
AcDbCircle
 62
7
  6
CONTINUOUS
 10
9.8983805073
 20
8.6939190043
 40
0.6689722376
100
AcDbArc
 50
206.6562307081
 51
211.4151349725
  0
ARC
  5
389
100
AcDbEntity
  8
0
100
AcDbCircle
 62
7
  6
CONTINUOUS
 10
9.7892750456
 20
8.5834165042
 40
0.6689722376
100
AcDbArc
 50
26.6562307081
 51
31.4151349724
  0
ARC
  5
38A
100
AcDbEntity
  8
0
100
AcDbCircle
 62
7
  6
CONTINUOUS
 10
9.8867594171
 20
8.6448815362
 40
0.6200987324
100
AcDbArc
 50
263.5283744339
 51
266.0300335618
  0
ARC
  5
38B
100
AcDbEntity
  8
0
100
AcDbCircle
 62
7
  6
CONTINUOUS
 10
9.8008961358
 20
8.6324539722
 40
0.6200987324
100
AcDbArc
 50
83.5283744338
 51
86.0300335618
  0
ARC
  5
38C
100
AcDbEntity
  8
0
100
AcDbCircle
 62
7
  6
CONTINUOUS
 10
9.903981849
 20
8.7328774008
 40
0.6191624918
100
AcDbArc
 50
83.5264827433
 51
86.0319252524
  0
ARC
  5
38D
100
AcDbEntity
  8
0
100
AcDbCircle
 62
7
  6
CONTINUOUS
 10
9.9043060066
 20
8.7375513974
 40
0.614477268
100
AcDbArc
 50
86.031919382
 51
88.5488078505
  0
ARC
  5
38E
100
AcDbEntity
  8
0
100
AcDbCircle
 62
7
  6
CONTINUOUS
 10
9.8863500469
 20
8.6392749605
 40
0.614477268
100
AcDbArc
 50
266.031919382
 51
268.5488078504
  0
ARC
  5
38F
100
AcDbEntity
  8
0
100
AcDbCircle
 62
7
  6
CONTINUOUS
 10
9.801305506
 20
8.6380605479
 40
0.614477268
100
AcDbArc
 50
86.031919382
 51
88.5488078504
  0
ARC
  5
390
100
AcDbEntity
  8
0
100
AcDbCircle
 62
7
  6
CONTINUOUS
 10
9.9980096837
 20
8.6833911486
 40
0.5591685417
100
AcDbArc
 50
326.2950117378
 51
331.6569605865
  0
ARC
  5
391
100
AcDbEntity
  8
0
100
AcDbCircle
 62
7
  6
CONTINUOUS
 10
9.7926463698
 20
8.6934352094
 40
0.5591685417
100
AcDbArc
 50
146.2950117378
 51
151.6569605865
  0
ARC
  5
392
100
AcDbEntity
  8
0
100
AcDbCircle
 62
7
  6
CONTINUOUS
 10
9.8950091831
 20
8.5839002991
 40
0.5591685417
100
AcDbArc
 50
326.2950117378
 51
331.6569605865
  0
ARC
  5
393
100
AcDbEntity
  8
0
100
AcDbCircle
 62
7
  6
CONTINUOUS
 10
11.2494745405
 20
7.1393389187
 40
0.6699925153
100
AcDbArc
 50
26.6598562642
 51
31.4115094164
  0
ARC
  5
394
100
AcDbEntity
  8
0
100
AcDbCircle
 62
7
  6
CONTINUOUS
 10
11.256472317
 20
7.1508461921
 40
0.6689722376
100
AcDbArc
 50
206.6562307081
 51
211.4151349725
  0
ARC
  5
395
100
AcDbEntity
  8
0
100
AcDbCircle
 62
7
  6
CONTINUOUS
 10
11.1473668554
 20
7.040343692
 40
0.6689722376
100
AcDbArc
 50
26.6562307081
 51
31.4151349725
  0
ARC
  5
396
100
AcDbEntity
  8
0
100
AcDbCircle
 62
7
  6
CONTINUOUS
 10
11.2448512268
 20
7.101808724
 40
0.6200987324
100
AcDbArc
 50
263.5283744339
 51
266.0300335618
  0
ARC
  5
397
100
AcDbEntity
  8
0
100
AcDbCircle
 62
7
  6
CONTINUOUS
 10
11.1589879455
 20
7.0893811601
 40
0.6200987324
100
AcDbArc
 50
83.5283744339
 51
86.0300335618
  0
ARC
  5
398
100
AcDbEntity
  8
0
100
AcDbCircle
 62
7
  6
CONTINUOUS
 10
11.2620736587
 20
7.1898045886
 40
0.6191624918
100
AcDbArc
 50
83.5264827432
 51
86.0319252524
  0
ARC
  5
399
100
AcDbEntity
  8
0
100
AcDbCircle
 62
7
  6
CONTINUOUS
 10
11.2623978163
 20
7.1944785852
 40
0.614477268
100
AcDbArc
 50
86.031919382
 51
88.5488078505
  0
ARC
  5
39A
100
AcDbEntity
  8
0
100
AcDbCircle
 62
7
  6
CONTINUOUS
 10
11.2444418566
 20
7.0962021484
 40
0.614477268
100
AcDbArc
 50
266.031919382
 51
268.5488078505
  0
ARC
  5
39B
100
AcDbEntity
  8
0
100
AcDbCircle
 62
7
  6
CONTINUOUS
 10
11.1593973158
 20
7.0949877357
 40
0.614477268
100
AcDbArc
 50
86.031919382
 51
88.5488078504
  0
ARC
  5
39C
100
AcDbEntity
  8
0
100
AcDbCircle
 62
7
  6
CONTINUOUS
 10
11.3561014934
 20
7.1403183364
 40
0.5591685417
100
AcDbArc
 50
326.2950117378
 51
331.6569605865
  0
ARC
  5
39D
100
AcDbEntity
  8
0
100
AcDbCircle
 62
7
  6
CONTINUOUS
 10
11.1507381795
 20
7.1503623972
 40
0.5591685417
100
AcDbArc
 50
146.2950117378
 51
151.6569605865
  0
ARC
  5
39E
100
AcDbEntity
  8
0
100
AcDbCircle
 62
7
  6
CONTINUOUS
 10
11.2531009928
 20
7.0408274869
 40
0.5591685417
100
AcDbArc
 50
326.2950117378
 51
331.6569605865
  0
ARC
  5
39F
100
AcDbEntity
  8
0
100
AcDbCircle
 62
7
  6
CONTINUOUS
 10
11.2494745405
 20
8.588227744
 40
0.6699925153
100
AcDbArc
 50
26.6598562642
 51
31.4115094164
  0
ARC
  5
3A0
100
AcDbEntity
  8
0
100
AcDbCircle
 62
7
  6
CONTINUOUS
 10
11.256472317
 20
8.5997350174
 40
0.6689722376
100
AcDbArc
 50
206.6562307081
 51
211.4151349725
  0
ARC
  5
3A1
100
AcDbEntity
  8
0
100
AcDbCircle
 62
7
  6
CONTINUOUS
 10
11.1473668554
 20
8.4892325173
 40
0.6689722376
100
AcDbArc
 50
26.6562307081
 51
31.4151349724
  0
ARC
  5
3A2
100
AcDbEntity
  8
0
100
AcDbCircle
 62
7
  6
CONTINUOUS
 10
11.2448512268
 20
8.5506975493
 40
0.6200987324
100
AcDbArc
 50
263.5283744339
 51
266.0300335618
  0
ARC
  5
3A3
100
AcDbEntity
  8
0
100
AcDbCircle
 62
7
  6
CONTINUOUS
 10
11.1589879455
 20
8.5382699853
 40
0.6200987324
100
AcDbArc
 50
83.5283744339
 51
86.0300335618
  0
ARC
  5
3A4
100
AcDbEntity
  8
0
100
AcDbCircle
 62
7
  6
CONTINUOUS
 10
11.2620736587
 20
8.6386934139
 40
0.6191624918
100
AcDbArc
 50
83.5264827432
 51
86.0319252524
  0
ARC
  5
3A5
100
AcDbEntity
  8
0
100
AcDbCircle
 62
7
  6
CONTINUOUS
 10
11.2623978163
 20
8.6433674105
 40
0.614477268
100
AcDbArc
 50
86.031919382
 51
88.5488078505
  0
ARC
  5
3A6
100
AcDbEntity
  8
0
100
AcDbCircle
 62
7
  6
CONTINUOUS
 10
11.2444418566
 20
8.5450909736
 40
0.614477268
100
AcDbArc
 50
266.031919382
 51
268.5488078504
  0
ARC
  5
3A7
100
AcDbEntity
  8
0
100
AcDbCircle
 62
7
  6
CONTINUOUS
 10
11.1593973158
 20
8.543876561
 40
0.614477268
100
AcDbArc
 50
86.031919382
 51
88.5488078504
  0
ARC
  5
3A8
100
AcDbEntity
  8
0
100
AcDbCircle
 62
7
  6
CONTINUOUS
 10
11.3561014934
 20
8.5892071617
 40
0.5591685417
100
AcDbArc
 50
326.2950117378
 51
331.6569605865
  0
ARC
  5
3A9
100
AcDbEntity
  8
0
100
AcDbCircle
 62
7
  6
CONTINUOUS
 10
11.1507381795
 20
8.5992512225
 40
0.5591685417
100
AcDbArc
 50
146.2950117378
 51
151.6569605865
  0
ARC
  5
3AA
100
AcDbEntity
  8
0
100
AcDbCircle
 62
7
  6
CONTINUOUS
 10
11.2531009928
 20
8.4897163122
 40
0.5591685417
100
AcDbArc
 50
326.2950117378
 51
331.6569605865
  0
ARC
  5
3AB
100
AcDbEntity
  8
0
100
AcDbCircle
 62
7
  6
CONTINUOUS
 10
10.8909840918
 20
9.7581551833
 40
0.0242194822
100
AcDbArc
 50
229.1034048405
 51
231.4837942292
  0
ARC
  5
3AC
100
AcDbEntity
  8
0
100
AcDbCircle
 62
7
  6
CONTINUOUS
 10
10.8892771615
 20
9.7561921683
 40
0.0216181345
100
AcDbArc
 50
227.0641361955
 51
229.1168625789
  0
SPLINE
  5
3AD
100
AcDbEntity
  8
0
100
AcDbSpline
 62
7
  6
CONTINUOUS
 70
0
 71
3
 72
43
 73
39
 74
0
 42
0.0000001
 43
0.0000001
 44
0.0000000001
 40
0.0
 40
0.0
 40
0.0
 40
0.0
 40
0.0082696068
 40
0.0171172409
 40
0.0265552136
 40
0.0365908081
 40
0.0472249764
 40
0.058454919
 40
0.0826774554
 40
0.1091907135
 40
0.1378846773
 40
0.1686279574
 40
0.2012610832
 40
0.2356115281
 40
0.2714864256
 40
0.3086831827
 40
0.3469860717
 40
0.3861713179
 40
0.4260083167
 40
0.5066850534
 40
0.5871054243
 40
0.6653618452
 40
0.7031023334
 40
0.7396196885
 40
0.7747062184
 40
0.8081630395
 40
0.839808699
 40
0.8694772798
 40
0.8970230353
 40
0.9223253659
 40
0.9341058691
 40
0.9452955589
 40
0.955890046
 40
0.9658872687
 40
0.9752885245
 40
0.9840997213
 40
0.9923314068
 40
1.0
 40
1.0
 40
1.0
 40
1.0
 10
10.8759017491
 20
9.7392050841
 30
0.0
 10
10.8763679539
 20
9.7388335372
 30
0.0
 10
10.8773593673
 20
9.7380972619
 30
0.0
 10
10.878959874
 20
9.7370454453
 30
0.0
 10
10.8807209813
 20
9.7360110212
 30
0.0
 10
10.8826400634
 20
9.7349958123
 30
0.0
 10
10.8847140334
 20
9.7340011277
 30
0.0
 10
10.8877589297
 20
9.7326705677
 30
0.0
 10
10.8919366986
 20
9.7310812822
 30
0.0
 10
10.8973888189
 20
9.7293249657
 30
0.0
 10
10.9033657406
 20
9.7276849203
 30
0.0
 10
10.9098298725
 20
9.7261727167
 30
0.0
 10
10.9167405223
 20
9.7247971762
 30
0.0
 10
10.9240539718
 20
9.7235682229
 30
0.0
 10
10.9317238189
 20
9.7224929607
 30
0.0
 10
10.9397013412
 20
9.7215790806
 30
0.0
 10
10.9479357783
 20
9.7208319822
 30
0.0
 10
10.9563747833
 20
9.7202567866
 30
0.0
 10
10.9678756361
 20
9.7197218385
 30
0.0
 10
10.9823637581
 20
9.7195047373
 30
0.0
 10
10.9996173253
 20
9.7199528182
 30
0.0
 10
11.0137491184
 20
9.7209170966
 30
0.0
 10
11.0246865257
 20
9.722046079
 30
0.0
 10
11.0325061353
 20
9.7230470201
 30
0.0
 10
11.0399917565
 20
9.7242051101
 30
0.0
 10
11.0470959397
 20
9.7255133473
 30
0.0
 10
11.0537736388
 20
9.7269629656
 30
0.0
 10
11.0599827911
 20
9.7285446118
 30
0.0
 10
11.0656840401
 20
9.7302482603
 30
0.0
 10
11.0700816285
 20
9.731794363
 30
0.0
 10
11.0733108044
 20
9.7330927261
 30
0.0
 10
11.0755262376
 20
9.7340667913
 30
0.0
 10
11.0775900347
 20
9.7350629343
 30
0.0
 10
11.0794989137
 20
9.7360797626
 30
0.0
 10
11.081249693
 20
9.7371158349
 30
0.0
 10
11.082839737
 20
9.7381691694
 30
0.0
 10
11.0842663566
 20
9.7392377952
 30
0.0
 10
11.0851369961
 20
9.7399851671
 30
0.0
 10
11.0855417842
 20
9.7403616768
 30
0.0
  0
SPLINE
  5
3AE
100
AcDbEntity
  8
0
100
AcDbSpline
 62
7
  6
CONTINUOUS
 70
0
 71
3
 72
52
 73
48
 74
0
 42
0.0000001
 43
0.0000001
 44
0.0000000001
 40
0.0
 40
0.0
 40
0.0
 40
0.0
 40
0.0077387223
 40
0.0160539521
 40
0.024962965
 40
0.0344768859
 40
0.0446016061
 40
0.0553386983
 40
0.0666866828
 40
0.0786412572
 40
0.091193383
 40
0.1043314041
 40
0.1180424256
 40
0.1323116939
 40
0.1471215533
 40
0.1624533379
 40
0.1946023933
 40
0.2285843148
 40
0.264207331
 40
0.3012625655
 40
0.3395308301
 40
0.378780781
 40
0.4187745662
 40
0.4592671292
 40
0.500010293
 40
0.540753239
 40
0.581245724
 40
0.6212388443
 40
0.6604885582
 40
0.6987556413
 40
0.7358105213
 40
0.7714319254
 40
0.8054132247
 40
0.8375605374
 40
0.8676997949
 40
0.881967701
 40
0.8956782168
 40
0.9088158324
 40
0.9213666357
 40
0.9333203307
 40
0.9446687486
 40
0.9554056403
 40
0.9655284678
 40
0.9750398662
 40
0.9839464413
 40
0.9922598492
 40
1.0
 40
1.0
 40
1.0
 40
1.0
 10
10.7242615231
 20
9.7663746122
 30
0.0
 10
10.7252600767
 20
9.7673035362
 30
0.0
 10
10.7274102082
 20
9.7691470671
 30
0.0
 10
10.7309374097
 20
9.7717806941
 30
0.0
 10
10.734873715
 20
9.7743754423
 30
0.0
 10
10.7392125082
 20
9.7769260591
 30
0.0
 10
10.7439466608
 20
9.779428455
 30
0.0
 10
10.7490683461
 20
9.7818790776
 30
0.0
 10
10.7545696863
 20
9.7842740821
 30
0.0
 10
10.760442158
 20
9.7866093718
 30
0.0
 10
10.7666761089
 20
9.7888814635
 30
0.0
 10
10.7732612164
 20
9.791086676
 30
0.0
 10
10.7801868315
 20
9.7932211325
 30
0.0
 10
10.7874416896
 20
9.7952810312
 30
0.0
 10
10.7950137185
 20
9.7972633661
 30
0.0
 10
10.8056854637
 20
9.7998394443
 30
0.0
 10
10.819730863
 20
9.8028264742
 30
0.0
 10
10.8373829042
 20
9.8059999088
 30
0.0
 10
10.8559735932
 20
9.8087939362
 30
0.0
 10
10.8753806729
 20
9.8111910728
 30
0.0
 10
10.8954766485
 20
9.813174095
 30
0.0
 10
10.9161293712
 20
9.8147307623
 30
0.0
 10
10.9372028909
 20
9.8158497936
 30
0.0
 10
10.9585585402
 20
9.8165243572
 30
0.0
 10
10.9800556622
 20
9.8167495447
 30
0.0
 10
11.0015527637
 20
9.8165239863
 30
0.0
 10
11.0229082436
 20
9.8158493257
 30
0.0
 10
11.0439815539
 20
9.8147296691
 30
0.0
 10
11.0646339239
 20
9.8131731516
 30
0.0
 10
11.0847294988
 20
9.8111893207
 30
0.0
 10
11.1041360752
 20
9.8087924936
 30
0.0
 10
11.1227261175
 20
9.8059975915
 30
0.0
 10
11.1403777006
 20
9.8028245671
 30
0.0
 10
11.1569748731
 20
9.7992935169
 30
0.0
 10
11.1700661138
 20
9.7960164236
 30
0.0
 10
11.1799194596
 20
9.7932181569
 30
0.0
 10
11.1868446848
 20
9.7910837617
 30
0.0
 10
11.1934294455
 20
9.7888787558
 30
0.0
 10
11.1996628054
 20
9.7866063685
 30
0.0
 10
11.2055347772
 20
9.7842706747
 30
0.0
 10
11.2110359752
 20
9.7818756375
 30
0.0
 10
11.2161573162
 20
9.7794249577
 30
0.0
 10
11.2208904337
 20
9.7769223419
 30
0.0
 10
11.2252280865
 20
9.7743721963
 30
0.0
 10
11.2291636242
 20
9.7717784551
 30
0.0
 10
11.2326902336
 20
9.7691448301
 30
0.0
 10
11.2348398384
 20
9.7673007916
 30
0.0
 10
11.2358384283
 20
9.7663715371
 30
0.0
  0
SPLINE
  5
3AF
100
AcDbEntity
  8
0
100
AcDbSpline
 62
7
  6
CONTINUOUS
 70
0
 71
3
 72
12
 73
8
 74
0
 42
0.0000001
 43
0.0000001
 44
0.0000000001
 40
0.0
 40
0.0
 40
0.0
 40
0.0
 40
0.1083355434
 40
0.2222560855
 40
0.4652071899
 40
0.7254801538
 40
1.0
 40
1.0
 40
1.0
 40
1.0
 10
11.0764932249
 20
9.734559229
 30
0.0
 10
11.0768683444
 20
9.7352380893
 30
0.0
 10
11.0776122231
 20
9.7366451077
 30
0.0
 10
11.0790780547
 20
9.7396361787
 30
0.0
 10
11.080865142
 20
9.7436788174
 30
0.0
 10
11.0829240677
 20
9.7488531637
 30
0.0
 10
11.0842374227
 20
9.752450116
 30
0.0
 10
11.084891821
 20
9.754303341
 30
0.0
  0
SPLINE
  5
3B0
100
AcDbEntity
  8
0
100
AcDbSpline
 62
7
  6
CONTINUOUS
 70
0
 71
3
 72
15
 73
11
 74
0
 42
0.0000001
 43
0.0000001
 44
0.0000000001
 40
0.0
 40
0.0
 40
0.0
 40
0.0
 40
0.1492632538
 40
0.2897091991
 40
0.4220366375
 40
0.5471358952
 40
0.666101153
 40
0.7802218941
 40
0.8909758692
 40
1.0
 40
1.0
 40
1.0
 40
1.0
 10
11.2512545798
 20
9.7520251732
 30
0.0
 10
11.2520814456
 20
9.7512556677
 30
0.0
 10
11.2536397705
 20
9.7497106864
 30
0.0
 10
11.2557379924
 20
9.7472987487
 30
0.0
 10
11.2575202691
 20
9.7448671704
 30
0.0
 10
11.2589837831
 20
9.7424181916
 30
0.0
 10
11.2601264277
 20
9.7399543288
 30
0.0
 10
11.2609456329
 20
9.7374780769
 30
0.0
 10
11.2614386354
 20
9.7349932918
 30
0.0
 10
11.2615484914
 20
9.7333281311
 30
0.0
 10
11.2615484724
 20
9.7325031029
 30
0.0
  0
SPLINE
  5
3B1
100
AcDbEntity
  8
0
100
AcDbSpline
 62
7
  6
CONTINUOUS
 70
0
 71
3
 72
15
 73
11
 74
0
 42
0.0000001
 43
0.0000001
 44
0.0000000001
 40
0.0
 40
0.0
 40
0.0
 40
0.0
 40
0.1098818339
 40
0.2213890443
 40
0.3360729859
 40
0.4553559627
 40
0.5804641769
 40
0.712410792
 40
0.8520301999
 40
1.0
 40
1.0
 40
1.0
 40
1.0
 10
10.6985484286
 20
9.7325031029
 30
0.0
 10
10.6985484469
 20
9.7332992308
 30
0.0
 10
10.6986507151
 20
9.734905059
 30
0.0
 10
10.6991090344
 20
9.7373024181
 30
0.0
 10
10.6998713237
 20
9.7396925833
 30
0.0
 10
10.7009360776
 20
9.7420717765
 30
0.0
 10
10.7023004825
 20
9.7444374858
 30
0.0
 10
10.7039613595
 20
9.7467874887
 30
0.0
 10
10.705915856
 20
9.7491193218
 30
0.0
 10
10.7073692108
 20
9.7506151674
 30
0.0
 10
10.7081403143
 20
9.7513599962
 30
0.0
  0
SPLINE
  5
3B2
100
AcDbEntity
  8
0
100
AcDbSpline
 62
7
  6
CONTINUOUS
 70
0
 71
3
 72
23
 73
19
 74
0
 42
0.0000001
 43
0.0000001
 44
0.0000000001
 40
0.0
 40
0.0
 40
0.0
 40
0.0
 40
0.0719239477
 40
0.1428113719
 40
0.212491903
 40
0.2807797608
 40
0.3475230255
 40
0.3802797571
 40
0.4126065476
 40
0.475950319
 40
0.5376181003
 40
0.5977670933
 40
0.6566680559
 40
0.7146308556
 40
0.7719846613
 40
0.8290066672
 40
0.8859329587
 40
1.0
 40
1.0
 40
1.0
 40
1.0
 10
11.0081411254
 20
9.7741678576
 30
0.0
 10
11.0096252385
 20
9.7727700735
 30
0.0
 10
11.0126156696
 20
9.7700403102
 30
0.0
 10
11.0172143757
 20
9.7661480121
 30
0.0
 10
11.0218991857
 20
9.7625248
 30
0.0
 10
11.0266700796
 20
9.7592166735
 30
0.0
 10
11.0307408052
 20
9.7567496974
 30
0.0
 10
11.0340363045
 20
9.7549865706
 30
0.0
 10
11.0373097128
 20
9.7533921223
 30
0.0
 10
11.0414362169
 20
9.7516850456
 30
0.0
 10
11.046453448
 20
9.750118448
 30
0.0
 10
11.0514769021
 20
9.7490736849
 30
0.0
 10
11.0564746324
 20
9.748542773
 30
0.0
 10
11.0614205565
 20
9.7485104158
 30
0.0
 10
11.0662937512
 20
9.748933886
 30
0.0
 10
11.0710824278
 20
9.7497706142
 30
0.0
 10
11.0773497387
 20
9.7513689075
 30
0.0
 10
11.0819152595
 20
9.7530407018
 30
0.0
 10
11.084891821
 20
9.754303341
 30
0.0
  0
SPLINE
  5
3B3
100
AcDbEntity
  8
0
100
AcDbSpline
 62
7
  6
CONTINUOUS
 70
0
 71
3
 72
20
 73
16
 74
0
 42
0.0000001
 43
0.0000001
 44
0.0000000001
 40
0.0
 40
0.0
 40
0.0
 40
0.0
 40
0.1216807891
 40
0.1827585594
 40
0.2440173838
 40
0.3055084682
 40
0.3672634655
 40
0.4293200376
 40
0.4916939649
 40
0.5543929972
 40
0.617403959
 40
0.7441725392
 40
0.8079134832
 40
0.8718304955
 40
1.0
 40
1.0
 40
1.0
 40
1.0
 10
10.9032977549
 20
9.7668969323
 30
0.0
 10
10.907385916
 20
9.7651363669
 30
0.0
 10
10.9136292576
 20
9.7627157443
 30
0.0
 10
10.9221661836
 20
9.7600971676
 30
0.0
 10
10.9286967125
 20
9.7584774075
 30
0.0
 10
10.9353392184
 20
9.7572561232
 30
0.0
 10
10.9420782868
 20
9.7564768437
 30
0.0
 10
10.9488889469
 20
9.7561849788
 30
0.0
 10
10.9557372963
 20
9.7564003041
 30
0.0
 10
10.9625845455
 20
9.757137428
 30
0.0
 10
10.9716778479
 20
9.7587916399
 30
0.0
 10
10.9806085347
 20
9.7613992057
 30
0.0
 10
10.9892908211
 20
9.7647586473
 30
0.0
 10
10.9978419863
 20
9.7685689119
 30
0.0
 10
11.0040667244
 20
9.7718480956
 30
0.0
 10
11.0081411254
 20
9.7741678576
 30
0.0
  0
SPLINE
  5
3B4
100
AcDbEntity
  8
0
100
AcDbSpline
 62
7
  6
CONTINUOUS
 70
0
 71
3
 72
18
 73
14
 74
0
 42
0.0000001
 43
0.0000001
 44
0.0000000001
 40
0.0
 40
0.0
 40
0.0
 40
0.0
 40
0.1550963014
 40
0.3038910165
 40
0.4452739039
 40
0.5779907
 40
0.7007785033
 40
0.7580935764
 40
0.8125153529
 40
0.8639422921
 40
0.912327377
 40
0.9576691577
 40
1.0
 40
1.0
 40
1.0
 40
1.0
 10
10.9032977549
 20
9.7668969323
 30
0.0
 10
10.9027607208
 20
9.7653760769
 30
0.0
 10
10.9016823028
 20
9.7624052701
 30
0.0
 10
10.9000052911
 20
9.7580886103
 30
0.0
 10
10.8982988293
 20
9.7540345886
 30
0.0
 10
10.8965634607
 20
9.7502887076
 30
0.0
 10
10.8950613981
 20
9.7474011778
 30
0.0
 10
10.8938370014
 20
9.7452914464
 30
0.0
 10
10.892934311
 20
9.7438542241
 30
0.0
 10
10.8920263439
 20
9.742531437
 30
0.0
 10
10.8911143087
 20
9.7413278067
 30
0.0
 10
10.8901998986
 20
9.7402471422
 30
0.0
 10
10.8895680403
 20
9.7395886956
 30
0.0
 10
10.8892514174
 20
9.7392828614
 30
0.0
  0
SPLINE
  5
3B5
100
AcDbEntity
  8
0
100
AcDbSpline
 62
7
  6
CONTINUOUS
 70
0
 71
3
 72
15
 73
11
 74
0
 42
0.0000001
 43
0.0000001
 44
0.0000000001
 40
0.0
 40
0.0
 40
0.0
 40
0.0
 40
0.1541890973
 40
0.2943218369
 40
0.4226841637
 40
0.542293048
 40
0.6566789558
 40
0.7692311516
 40
0.8829178391
 40
1.0
 40
1.0
 40
1.0
 40
1.0
 10
10.8892514174
 20
9.7392828614
 30
0.0
 10
10.8888466849
 20
9.7388919198
 30
0.0
 10
10.8880369956
 20
9.738182248
 30
0.0
 10
10.8867592171
 20
9.7373103921
 30
0.0
 10
10.8854820216
 20
9.7366850337
 30
0.0
 10
10.8842089691
 20
9.7363040784
 30
0.0
 10
10.882946409
 20
9.7361560738
 30
0.0
 10
10.8816993743
 20
9.7362280332
 30
0.0
 10
10.8804719848
 20
9.7365022853
 30
0.0
 10
10.8796817905
 20
9.7368015904
 30
0.0
 10
10.8792918276
 20
9.7369762489
 30
0.0
  0
SPLINE
  5
3B6
100
AcDbEntity
  8
0
100
AcDbSpline
 62
7
  6
CONTINUOUS
 70
0
 71
3
 72
23
 73
19
 74
0
 42
0.0000001
 43
0.0000001
 44
0.0000000001
 40
0.0
 40
0.0
 40
0.0
 40
0.0
 40
0.0749650755
 40
0.1455758403
 40
0.2121687193
 40
0.2751706844
 40
0.3351061761
 40
0.3925926274
 40
0.4483378715
 40
0.5031275476
 40
0.5577974487
 40
0.613188277
 40
0.6701067998
 40
0.7292949901
 40
0.7913951851
 40
0.856936773
 40
0.9263544307
 40
1.0
 40
1.0
 40
1.0
 40
1.0
 10
11.2358384283
 20
9.7663715371
 30
0.0
 10
11.2366051654
 20
9.7656580371
 30
0.0
 10
11.2380516227
 20
9.7642255869
 30
0.0
 10
11.2400035089
 20
9.7619909166
 30
0.0
 10
11.2416677657
 20
9.7597383848
 30
0.0
 10
11.2430418444
 20
9.7574699966
 30
0.0
 10
11.2441239084
 20
9.7551879814
 30
0.0
 10
11.2449117141
 20
9.7528946846
 30
0.0
 10
11.2454028718
 20
9.7505929799
 30
0.0
 10
11.245595077
 20
9.7482864565
 30
0.0
 10
11.2454879753
 20
9.7459793487
 30
0.0
 10
11.2450821335
 20
9.7436757515
 30
0.0
 10
11.2443788421
 20
9.7413793184
 30
0.0
 10
11.2433796236
 20
9.7390933474
 30
0.0
 10
11.2420871857
 20
9.7368205597
 30
0.0
 10
11.2405047685
 20
9.734563094
 30
0.0
 10
11.2386352337
 20
9.7323233907
 30
0.0
 10
11.2372418331
 20
9.7308876624
 30
0.0
 10
11.2365017726
 20
9.7301728187
 30
0.0
  0
SPLINE
  5
3B7
100
AcDbEntity
  8
0
100
AcDbSpline
 62
7
  6
CONTINUOUS
 70
0
 71
3
 72
54
 73
50
 74
0
 42
0.0000001
 43
0.0000001
 44
0.0000000001
 40
0.0
 40
0.0
 40
0.0
 40
0.0
 40
0.0078439085
 40
0.0150417694
 40
0.0216901491
 40
0.0279174114
 40
0.0338877893
 40
0.0397917412
 40
0.0458258134
 40
0.0521737182
 40
0.0589898551
 40
0.0663949559
 40
0.0744798335
 40
0.0833086858
 40
0.0929226568
 40
0.1033479798
 40
0.1145998044
 40
0.1266810266
 40
0.1395863631
 40
0.1533060296
 40
0.1678248694
 40
0.1831207474
 40
0.2159400176
 40
0.2515324755
 40
0.2896167215
 40
0.3298767915
 40
0.3719684783
 40
0.4155229506
 40
0.4601556579
 40
0.5054672561
 40
0.5510520906
 40
0.5965001291
 40
0.6414039436
 40
0.6853612513
 40
0.727982695
 40
0.7688924464
 40
0.80773916
 40
0.8441945664
 40
0.8779676196
 40
0.8937680542
 40
0.9088075779
 40
0.9230617934
 40
0.936510441
 40
0.9491413812
 40
0.960947106
 40
0.9719251961
 40
0.9820812601
 40
0.9914305534
 40
1.0
 40
1.0
 40
1.0
 40
1.0
 10
11.0858173347
 20
9.74062282
 30
0.0
 10
11.0862605956
 20
9.7410509772
 30
0.0
 10
11.0870730978
 20
9.7419127399
 30
0.0
 10
11.0880929069
 20
9.7432835419
 30
0.0
 10
11.0888542972
 20
9.744671416
 30
0.0
 10
11.0893513354
 20
9.7460739205
 30
0.0
 10
11.0895782646
 20
9.7474863694
 30
0.0
 10
11.0895327112
 20
9.7489012927
 30
0.0
 10
11.0892154058
 20
9.7503107601
 30
0.0
 10
11.0886299778
 20
9.7517082597
 30
0.0
 10
11.0877822581
 20
9.7530904635
 30
0.0
 10
11.0866767125
 20
9.7544556693
 30
0.0
 10
11.0853164552
 20
9.7558020023
 30
0.0
 10
11.0837047935
 20
9.7571274109
 30
0.0
 10
11.0818457618
 20
9.7584300371
 30
0.0
 10
11.0797433495
 20
9.759707244
 30
0.0
 10
11.0774020095
 20
9.7609559273
 30
0.0
 10
11.074827274
 20
9.7621735186
 30
0.0
 10
11.0720252277
 20
9.7633573091
 30
0.0
 10
11.0690022742
 20
9.764504284
 30
0.0
 10
11.0657654655
 20
9.765611557
 30
0.0
 10
11.0610637139
 20
9.7670661083
 30
0.0
 10
11.0547037286
 20
9.768752173
 30
0.0
 10
11.0465264158
 20
9.7705348062
 30
0.0
 10
11.0377112084
 20
9.7721037447
 30
0.0
 10
11.0283425255
 20
9.7734437039
 30
0.0
 10
11.0185099446
 20
9.7745409967
 30
0.0
 10
11.0083078087
 20
9.7753854481
 30
0.0
 10
10.9978340798
 20
9.7759680027
 30
0.0
 10
10.987189376
 20
9.7762836665
 30
0.0
 10
10.9764760465
 20
9.7763287329
 30
0.0
 10
10.9657970364
 20
9.7761031561
 30
0.0
 10
10.9552550438
 20
9.7756090213
 30
0.0
 10
10.9449513272
 20
9.7748510272
 30
0.0
 10
10.9349848886
 20
9.7738370657
 30
0.0
 10
10.9254513583
 20
9.7725764386
 30
0.0
 10
10.9164420111
 20
9.7710824598
 30
0.0
 10
10.9080431637
 20
9.7693689445
 30
0.0
 10
10.9014807729
 20
9.7677388801
 30
0.0
 10
10.8966041678
 20
9.7663264288
 30
0.0
 10
10.8932291513
 20
9.7652469275
 30
0.0
 10
10.8900628693
 20
9.7641262587
 30
0.0
 10
10.8871129134
 20
9.762966804
 30
0.0
 10
10.8843859802
 20
9.7617715107
 30
0.0
 10
10.8818881949
 20
9.7605431478
 30
0.0
 10
10.8796255918
 20
9.7592841915
 30
0.0
 10
10.8776034753
 20
9.7579976872
 30
0.0
 10
10.8758267376
 20
9.7566874128
 30
0.0
 10
10.8747638274
 20
9.7557607745
 30
0.0
 10
10.8742795662
 20
9.755293014
 30
0.0
  0
SPLINE
  5
3B8
100
AcDbEntity
  8
0
100
AcDbSpline
 62
7
  6
CONTINUOUS
 70
0
 71
3
 72
63
 73
59
 74
0
 42
0.0000001
 43
0.0000001
 44
0.0000000001
 40
0.0
 40
0.0
 40
0.0
 40
0.0
 40
0.008571002
 40
0.0179203037
 40
0.0280753657
 40
0.0390518509
 40
0.0508556907
 40
0.063485848
 40
0.0769355137
 40
0.0911894353
 40
0.1062278646
 40
0.1220282917
 40
0.1385630343
 40
0.1558016512
 40
0.173712137
 40
0.1922584298
 40
0.231103165
 40
0.2720118649
 40
0.3146315966
 40
0.3585875008
 40
0.4034896149
 40
0.4489361941
 40
0.4945192807
 40
0.5398295298
 40
0.5844603158
 40
0.6280136454
 40
0.6701036404
 40
0.7103622766
 40
0.7296971775
 40
0.7484470144
 40
0.7665730973
 40
0.7840398815
 40
0.8008128899
 40
0.8168606864
 40
0.8321561393
 40
0.8466740298
 40
0.8603932387
 40
0.873298736
 40
0.8853792569
 40
0.8966299801
 40
0.9070557169
 40
0.9166695976
 40
0.9254972075
 40
0.9335821302
 40
0.9409875524
 40
0.9478029947
 40
0.9541507289
 40
0.9571992795
 40
0.960191379
 40
0.9631506421
 40
0.9661016595
 40
0.9690692003
 40
0.9720775799
 40
0.9751501025
 40
0.9783086148
 40
0.9849558097
 40
0.9921541706
 40
1.0
 40
1.0
 40
1.0
 40
1.0
 10
11.2365017726
 20
9.7301728187
 30
0.0
 10
11.2353273501
 20
9.7290384136
 30
0.0
 10
11.2327499626
 20
9.7267912257
 30
0.0
 10
11.2284418751
 20
9.7236138894
 30
0.0
 10
11.223539055
 20
9.7204948833
 30
0.0
 10
11.2180532771
 20
9.717443192
 30
0.0
 10
11.2119976255
 20
9.7144648917
 30
0.0
 10
11.2053858329
 20
9.7115666367
 30
0.0
 10
11.1982328218
 20
9.708755612
 30
0.0
 10
11.1905556009
 20
9.7060379238
 30
0.0
 10
11.1823724288
 20
9.7034201514
 30
0.0
 10
11.1737026522
 20
9.700909332
 30
0.0
 10
11.1645671621
 20
9.6985110601
 30
0.0
 10
11.1549878504
 20
9.6962310245
 30
0.0
 10
11.1449875044
 20
9.6940752484
 30
0.0
 10
11.1309062683
 20
9.6913306626
 30
0.0
 10
11.1124276457
 20
9.6882661629
 30
0.0
 10
11.0893122643
 20
9.6852099595
 30
0.0
 10
11.0651469794
 20
9.6827512125
 30
0.0
 10
11.0401640196
 20
9.6809134893
 30
0.0
 10
11.0146032623
 20
9.6797152382
 30
0.0
 10
10.9887103287
 20
9.6791683595
 30
0.0
 10
10.9627341237
 20
9.6792777667
 30
0.0
 10
10.9369243794
 20
9.6800427441
 30
0.0
 10
10.9115291587
 20
9.6814558494
 30
0.0
 10
10.8867924001
 20
9.6835027312
 30
0.0
 10
10.8629519238
 20
9.6861637522
 30
0.0
 10
10.8437718643
 20
9.6889066428
 30
0.0
 10
10.8290564111
 20
9.6914025166
 30
0.0
 10
10.8185323245
 20
9.6933849791
 30
0.0
 10
10.8083970187
 20
9.6954985338
 30
0.0
 10
10.7986746917
 20
9.697737576
 30
0.0
 10
10.7893887462
 20
9.7000969597
 30
0.0
 10
10.7805614934
 20
9.7025712246
 30
0.0
 10
10.772213862
 20
9.7051537928
 30
0.0
 10
10.7643658347
 20
9.7078386821
 30
0.0
 10
10.7570361917
 20
9.7106197809
 30
0.0
 10
10.7502419812
 20
9.713489752
 30
0.0
 10
10.7439991974
 20
9.716442014
 30
0.0
 10
10.7383225768
 20
9.719470166
 30
0.0
 10
10.7332246579
 20
9.7225665656
 30
0.0
 10
10.7287168952
 20
9.7257247187
 30
0.0
 10
10.7248097733
 20
9.7289390373
 30
0.0
 10
10.7215114062
 20
9.7322030773
 30
0.0
 10
10.7188299314
 20
9.735512852
 30
0.0
 10
10.7167752435
 20
9.7388641971
 30
0.0
 10
10.7155771431
 20
9.7417275536
 30
0.0
 10
10.7149606584
 20
9.744008579
 30
0.0
 10
10.7146649423
 20
9.7456999752
 30
0.0
 10
10.7145305802
 20
9.7473931347
 30
0.0
 10
10.7145574816
 20
9.7490867576
 30
0.0
 10
10.714745553
 20
9.7507794907
 30
0.0
 10
10.7150945259
 20
9.7524700276
 30
0.0
 10
10.7156040994
 20
9.7541572299
 30
0.0
 10
10.7165122866
 20
9.7564390885
 30
0.0
 10
10.7180764518
 20
9.7592914021
 30
0.0
 10
10.7205495065
 20
9.7626146724
 30
0.0
 10
10.7225200711
 20
9.7647045896
 30
0.0
 10
10.7235951284
 20
9.7657430153
 30
0.0
  0
SPLINE
  5
3B9
100
AcDbEntity
  8
0
100
AcDbSpline
 62
7
  6
CONTINUOUS
 70
0
 71
3
 72
11
 73
7
 74
0
 42
0.0000001
 43
0.0000001
 44
0.0000000001
 40
0.0
 40
0.0
 40
0.0
 40
0.0
 40
0.2182406451
 40
0.4572176599
 40
0.7176700917
 40
1.0
 40
1.0
 40
1.0
 40
1.0
 10
11.2519565867
 20
9.7136462096
 30
0.0
 10
11.2506508845
 20
9.712384998
 30
0.0
 10
11.2477731314
 20
9.7098882423
 30
0.0
 10
11.2429451185
 20
9.7063680772
 30
0.0
 10
11.2374283783
 20
9.7029167141
 30
0.0
 10
11.2334610246
 20
9.7007559548
 30
0.0
 10
11.2313714485
 20
9.6996840755
 30
0.0
  0
SPLINE
  5
3BA
100
AcDbEntity
  8
0
100
AcDbSpline
 62
7
  6
CONTINUOUS
 70
0
 71
3
 72
22
 73
18
 74
0
 42
0.0000001
 43
0.0000001
 44
0.0000000001
 40
0.0
 40
0.0
 40
0.0
 40
0.0
 40
0.1702623705
 40
0.2497633061
 40
0.3255521646
 40
0.397686937
 40
0.4662547394
 40
0.5313724382
 40
0.5931851146
 40
0.651871449
 40
0.7076500781
 40
0.7607905016
 40
0.8116163824
 40
0.8605022876
 40
0.9078736335
 40
0.9542026286
 40
1.0
 40
1.0
 40
1.0
 40
1.0
 10
10.7282144999
 20
9.6999475913
 30
0.0
 10
10.7258905021
 20
9.7011519223
 30
0.0
 10
10.7225289968
 20
9.7030151116
 30
0.0
 10
10.7182876445
 20
9.705673799
 30
0.0
 10
10.7153985497
 20
9.7076446333
 30
0.0
 10
10.7127308447
 20
9.709636545
 30
0.0
 10
10.7102866446
 20
9.7116480165
 30
0.0
 10
10.7080677239
 20
9.713677388
 30
0.0
 10
10.7060758356
 20
9.7157231866
 30
0.0
 10
10.7043127463
 20
9.717783962
 30
0.0
 10
10.7027803563
 20
9.7198584511
 30
0.0
 10
10.7014802811
 20
9.7219452338
 30
0.0
 10
10.7004136548
 20
9.7240426729
 30
0.0
 10
10.6995817971
 20
9.7261491361
 30
0.0
 10
10.6989861097
 20
9.7282628876
 30
0.0
 10
10.6986280862
 20
9.730381484
 30
0.0
 10
10.6985484123
 20
9.7317990409
 30
0.0
 10
10.6985484286
 20
9.7325031029
 30
0.0
  0
SPLINE
  5
3BB
100
AcDbEntity
  8
0
100
AcDbSpline
 62
7
  6
CONTINUOUS
 70
0
 71
3
 72
15
 73
11
 74
0
 42
0.0000001
 43
0.0000001
 44
0.0000000001
 40
0.0
 40
0.0
 40
0.0
 40
0.0
 40
0.1098818339
 40
0.2213890443
 40
0.3360729859
 40
0.4553559627
 40
0.5804641769
 40
0.712410792
 40
0.8520301999
 40
1.0
 40
1.0
 40
1.0
 40
1.0
 10
11.2615484724
 20
9.7325031029
 30
0.0
 10
11.261548454
 20
9.731706975
 30
0.0
 10
11.2614461858
 20
9.7301011468
 30
0.0
 10
11.2609878666
 20
9.7277037876
 30
0.0
 10
11.2602255773
 20
9.7253136225
 30
0.0
 10
11.2591608234
 20
9.7229344293
 30
0.0
 10
11.2577964185
 20
9.72056872
 30
0.0
 10
11.2561355414
 20
9.718218717
 30
0.0
 10
11.254181045
 20
9.715886884
 30
0.0
 10
11.2527276902
 20
9.7143910384
 30
0.0
 10
11.2519565867
 20
9.7136462096
 30
0.0
  0
SPLINE
  5
3BC
100
AcDbEntity
  8
0
100
AcDbSpline
 62
7
  6
CONTINUOUS
 70
0
 71
3
 72
21
 73
17
 74
0
 42
0.0000001
 43
0.0000001
 44
0.0000000001
 40
0.0
 40
0.0
 40
0.0
 40
0.0
 40
0.1429603741
 40
0.2085141546
 40
0.2706367519
 40
0.3298565278
 40
0.3868029358
 40
0.4422139972
 40
0.4968996533
 40
0.5517008014
 40
0.6074520327
 40
0.6649453631
 40
0.7248938616
 40
0.7879105525
 40
0.8545117361
 40
1.0
 40
1.0
 40
1.0
 40
1.0
 10
10.8742795662
 20
9.755293014
 30
0.0
 10
10.8736872716
 20
9.7547209013
 30
0.0
 10
10.87287259
 20
9.7538299414
 30
0.0
 10
10.8719767476
 20
9.7525519944
 30
0.0
 10
10.8714436349
 20
9.7516145944
 30
0.0
 10
10.8710311833
 20
9.7506718337
 30
0.0
 10
10.8707408371
 20
9.7497246646
 30
0.0
 10
10.8705734141
 20
9.7487745553
 30
0.0
 10
10.8705292413
 20
9.747823088
 30
0.0
 10
10.8706084033
 20
9.7468719445
 30
0.0
 10
10.8708106113
 20
9.7459227735
 30
0.0
 10
10.8711353847
 20
9.7449770871
 30
0.0
 10
10.8715817179
 20
9.7440361293
 30
0.0
 10
10.8721484245
 20
9.7431007112
 30
0.0
 10
10.8730908936
 20
9.7418246977
 30
0.0
 10
10.8739378786
 20
9.7409361263
 30
0.0
 10
10.8745513366
 20
9.7403651718
 30
0.0
  0
SPLINE
  5
3BD
100
AcDbEntity
  8
0
100
AcDbSpline
 62
7
  6
CONTINUOUS
 70
0
 71
3
 72
15
 73
11
 74
0
 42
0.0000001
 43
0.0000001
 44
0.0000000001
 40
0.0
 40
0.0
 40
0.0
 40
0.0
 40
0.130853243
 40
0.2612478082
 40
0.3906112907
 40
0.5182255703
 40
0.6433665409
 40
0.7654878953
 40
0.8843462897
 40
1.0
 40
1.0
 40
1.0
 40
1.0
 10
10.4901456485
 20
6.9690373535
 30
0.0
 10
10.4917893776
 20
6.9936538878
 30
0.0
 10
10.4947775776
 20
7.0428210221
 30
0.0
 10
10.4981861734
 20
7.1163917138
 30
0.0
 10
10.5003325171
 20
7.189400185
 30
0.0
 10
10.5010756164
 20
7.2614466067
 30
0.0
 10
10.5003605194
 20
7.3321280988
 30
0.0
 10
10.4982358134
 20
7.4011294
 30
0.0
 10
10.4948395015
 20
7.4682879051
 30
0.0
 10
10.4918124307
 20
7.512402025
 30
0.0
 10
10.4901456485
 20
7.5341438281
 30
0.0
  0
SPLINE
  5
3BE
100
AcDbEntity
  8
0
100
AcDbSpline
 62
7
  6
CONTINUOUS
 70
0
 71
3
 72
18
 73
14
 74
0
 42
0.0000001
 43
0.0000001
 44
0.0000000001
 40
0.0
 40
0.0
 40
0.0
 40
0.0
 40
0.1209533837
 40
0.2437778942
 40
0.3058582232
 40
0.3683347693
 40
0.4311529717
 40
0.4942444779
 40
0.5575323574
 40
0.6209360738
 40
0.7477793722
 40
0.8742481621
 40
1.0
 40
1.0
 40
1.0
 40
1.0
 10
10.4631852442
 20
7.5827103285
 30
0.0
 10
10.4447314575
 20
7.5973174262
 30
0.0
 10
10.4072598678
 20
7.6264080892
 30
0.0
 10
10.3594608408
 20
7.6618749006
 30
0.0
 10
10.3202842496
 20
7.6898455894
 30
0.0
 10
10.2903423656
 20
7.7106511431
 30
0.0
 10
10.2599660834
 20
7.7311708174
 30
0.0
 10
10.2291861267
 20
7.7513690939
 30
0.0
 10
10.1980425458
 20
7.771214951
 30
0.0
 10
10.1560911284
 20
7.797175686
 30
0.0
 10
10.1030649687
 20
7.8285918275
 30
0.0
 10
10.0387413323
 20
7.8646977895
 30
0.0
 10
9.9954631781
 20
7.8878478567
 30
0.0
 10
9.9737886813
 20
7.8992033327
 30
0.0
  0
SPLINE
  5
3BF
100
AcDbEntity
  8
0
100
AcDbSpline
 62
7
  6
CONTINUOUS
 70
0
 71
3
 72
15
 73
11
 74
0
 42
0.0000001
 43
0.0000001
 44
0.0000000001
 40
0.0
 40
0.0
 40
0.0
 40
0.0
 40
0.112346891
 40
0.2287649619
 40
0.3494215021
 40
0.4741363415
 40
0.6023573719
 40
0.7332837662
 40
0.866070494
 40
1.0
 40
1.0
 40
1.0
 40
1.0
 10
9.9198678727
 20
7.9029427535
 30
0.0
 10
9.9012381935
 20
7.8942451501
 30
0.0
 10
9.8633675731
 20
7.8763975944
 30
0.0
 10
9.8057419151
 20
7.8486770231
 30
0.0
 10
9.746325284
 20
7.819463592
 30
0.0
 10
9.6852391074
 20
7.7887563567
 30
0.0
 10
9.6227468593
 20
7.7566675832
 30
0.0
 10
9.5592010429
 20
7.7234019162
 30
0.0
 10
9.4949641291
 20
7.6892080553
 30
0.0
 10
9.4520116521
 20
7.6660228476
 30
0.0
 10
9.4304713099
 20
7.6543292831
 30
0.0
  0
SPLINE
  5
3C0
100
AcDbEntity
  8
0
100
AcDbSpline
 62
7
  6
CONTINUOUS
 70
0
 71
3
 72
15
 73
11
 74
0
 42
0.0000001
 43
0.0000001
 44
0.0000000001
 40
0.0
 40
0.0
 40
0.0
 40
0.0
 40
0.130853243
 40
0.2612478082
 40
0.3906112907
 40
0.5182255703
 40
0.6433665409
 40
0.7654878953
 40
0.8843462897
 40
1.0
 40
1.0
 40
1.0
 40
1.0
 10
9.300510405
 20
7.5100113539
 30
0.0
 10
9.2988666759
 20
7.4853948196
 30
0.0
 10
9.2958784758
 20
7.4362276853
 30
0.0
 10
9.29246988
 20
7.3626569936
 30
0.0
 10
9.2903235363
 20
7.2896485224
 30
0.0
 10
9.2895804371
 20
7.2176021007
 30
0.0
 10
9.2902955341
 20
7.1469206086
 30
0.0
 10
9.2924202401
 20
7.0779193074
 30
0.0
 10
9.295816552
 20
7.0107608023
 30
0.0
 10
9.2988436227
 20
6.9666466824
 30
0.0
 10
9.300510405
 20
6.9449048793
 30
0.0
  0
SPLINE
  5
3C1
100
AcDbEntity
  8
0
100
AcDbSpline
 62
7
  6
CONTINUOUS
 70
0
 71
3
 72
18
 73
14
 74
0
 42
0.0000001
 43
0.0000001
 44
0.0000000001
 40
0.0
 40
0.0
 40
0.0
 40
0.0
 40
0.1209533837
 40
0.2437778942
 40
0.3058582232
 40
0.3683347693
 40
0.4311529717
 40
0.4942444779
 40
0.5575323574
 40
0.6209360738
 40
0.7477793722
 40
0.8742481621
 40
1.0
 40
1.0
 40
1.0
 40
1.0
 10
9.3274708093
 20
6.8963383789
 30
0.0
 10
9.345924596
 20
6.8817312812
 30
0.0
 10
9.3833961856
 20
6.8526406182
 30
0.0
 10
9.4311952126
 20
6.8171738068
 30
0.0
 10
9.4703718038
 20
6.789203118
 30
0.0
 10
9.5003136879
 20
6.7683975643
 30
0.0
 10
9.53068997
 20
6.74787789
 30
0.0
 10
9.5614699268
 20
6.7276796135
 30
0.0
 10
9.5926135077
 20
6.7078337564
 30
0.0
 10
9.634564925
 20
6.6818730214
 30
0.0
 10
9.6875910848
 20
6.6504568799
 30
0.0
 10
9.7519147212
 20
6.6143509179
 30
0.0
 10
9.7951928754
 20
6.5912008507
 30
0.0
 10
9.8168673721
 20
6.5798453747
 30
0.0
  0
SPLINE
  5
3C2
100
AcDbEntity
  8
0
100
AcDbSpline
 62
7
  6
CONTINUOUS
 70
0
 71
3
 72
15
 73
11
 74
0
 42
0.0000001
 43
0.0000001
 44
0.0000000001
 40
0.0
 40
0.0
 40
0.0
 40
0.0
 40
0.112346891
 40
0.2287649619
 40
0.3494215021
 40
0.4741363415
 40
0.6023573719
 40
0.7332837662
 40
0.866070494
 40
1.0
 40
1.0
 40
1.0
 40
1.0
 10
9.8707881808
 20
6.5761059539
 30
0.0
 10
9.88941786
 20
6.5848035573
 30
0.0
 10
9.9272884804
 20
6.602651113
 30
0.0
 10
9.9849141383
 20
6.6303716843
 30
0.0
 10
10.0443307695
 20
6.6595851154
 30
0.0
 10
10.1054169461
 20
6.6902923506
 30
0.0
 10
10.1679091941
 20
6.7223811242
 30
0.0
 10
10.2314550105
 20
6.7556467912
 30
0.0
 10
10.2956919244
 20
6.7898406521
 30
0.0
 10
10.3386444013
 20
6.8130258598
 30
0.0
 10
10.3601847436
 20
6.8247194243
 30
0.0
  0
SPLINE
  5
3C3
100
AcDbEntity
  8
0
100
AcDbSpline
 62
7
  6
CONTINUOUS
 70
0
 71
3
 72
49
 73
45
 74
0
 42
0.0000001
 43
0.0000001
 44
0.0000000001
 40
0.0
 40
0.0
 40
0.0
 40
0.0
 40
0.031187151
 40
0.0621645213
 40
0.0929401585
 40
0.1082629014
 40
0.1235424257
 40
0.1387821476
 40
0.1539858757
 40
0.1691576791
 40
0.1843020069
 40
0.1994235946
 40
0.2145274341
 40
0.2296186839
 40
0.2447026442
 40
0.2597846952
 40
0.2748702365
 40
0.2899646369
 40
0.3050731598
 40
0.3202009317
 40
0.3353528523
 40
0.3505335935
 40
0.3657474896
 40
0.3809985718
 40
0.3962904382
 40
0.4269990655
 40
0.4579035252
 40
0.4890160735
 40
0.5203408316
 40
0.5518737651
 40
0.5836029699
 40
0.6155093002
 40
0.6475671858
 40
0.6797456153
 40
0.7120093051
 40
0.7443199991
 40
0.776637812
 40
0.8089225842
 40
0.8411353274
 40
0.8732395264
 40
0.9052026864
 40
0.9369967424
 40
0.9686011451
 40
1.0
 40
1.0
 40
1.0
 40
1.0
 10
9.8320228758
 20
7.7144651352
 30
0.0
 10
9.8145461268
 20
7.7156771519
 30
0.0
 10
9.7795669026
 20
7.7163965264
 30
0.0
 10
9.7274403757
 20
7.7122969844
 30
0.0
 10
9.6847553482
 20
7.7045784149
 30
0.0
 10
9.6513828163
 20
7.6958702624
 30
0.0
 10
9.6268197399
 20
7.6881006863
 30
0.0
 10
9.6027515076
 20
7.6791028584
 30
0.0
 10
9.579235312
 20
7.6688981415
 30
0.0
 10
9.5563278557
 20
7.6575115931
 30
0.0
 10
9.534084799
 20
7.6449698091
 30
0.0
 10
9.5125591792
 20
7.6313040776
 30
0.0
 10
9.4918037508
 20
7.6165460617
 30
0.0
 10
9.4718675616
 20
7.6007327518
 30
0.0
 10
9.4527999105
 20
7.5839007845
 30
0.0
 10
9.4346454708
 20
7.5660922508
 30
0.0
 10
9.4174494227
 20
7.5473486788
 30
0.0
 10
9.4012518342
 20
7.527716584
 30
0.0
 10
9.3860930975
 20
7.5072422003
 30
0.0
 10
9.3720085411
 20
7.4859758476
 30
0.0
 10
9.3590331283
 20
7.4639681377
 30
0.0
 10
9.347197332
 20
7.4412726023
 30
0.0
 10
9.3365301762
 20
7.4179439171
 30
0.0
 10
9.3270570072
 20
7.3940376386
 30
0.0
 10
9.3160347188
 20
7.3614310379
 30
0.0
 10
9.3053558994
 20
7.3194882341
 30
0.0
 10
9.2976404257
 20
7.2678902229
 30
0.0
 10
9.2950721668
 20
7.2154342547
 30
0.0
 10
9.2976750882
 20
7.1626290205
 30
0.0
 10
9.3054218347
 20
7.1099816485
 30
0.0
 10
9.3182362293
 20
7.0579984282
 30
0.0
 10
9.3359935536
 20
7.007178552
 30
0.0
 10
9.3585219703
 20
6.9580098364
 30
0.0
 10
9.3856041561
 20
6.9109640557
 30
0.0
 10
9.4169794047
 20
6.8664925504
 30
0.0
 10
9.4523461118
 20
6.8250219695
 30
0.0
 10
9.4913646358
 20
6.7869502862
 30
0.0
 10
9.5336604862
 20
6.7526429986
 30
0.0
 10
9.5788278579
 20
6.7224298321
 30
0.0
 10
9.6264335816
 20
6.696601226
 30
0.0
 10
9.6760204414
 20
6.675406483
 30
0.0
 10
9.7271145453
 20
6.659049499
 30
0.0
 10
9.7792184574
 20
6.6476902986
 30
0.0
 10
9.8144274915
 20
6.6435076486
 30
0.0
 10
9.8320228758
 20
6.6422874045
 30
0.0
  0
SPLINE
  5
3C4
100
AcDbEntity
  8
0
100
AcDbSpline
 62
7
  6
CONTINUOUS
 70
0
 71
3
 72
49
 73
45
 74
0
 42
0.0000001
 43
0.0000001
 44
0.0000000001
 40
0.0
 40
0.0
 40
0.0
 40
0.0
 40
0.031187151
 40
0.0621645213
 40
0.0929401585
 40
0.1082629014
 40
0.1235424257
 40
0.1387821476
 40
0.1539858757
 40
0.1691576791
 40
0.1843020069
 40
0.1994235946
 40
0.2145274341
 40
0.2296186839
 40
0.2447026442
 40
0.2597846952
 40
0.2748702365
 40
0.2899646369
 40
0.3050731598
 40
0.3202009317
 40
0.3353528523
 40
0.3505335935
 40
0.3657474896
 40
0.3809985718
 40
0.3962904382
 40
0.4269990655
 40
0.4579035252
 40
0.4890160735
 40
0.5203408316
 40
0.5518737651
 40
0.5836029699
 40
0.6155093002
 40
0.6475671858
 40
0.6797456153
 40
0.7120093051
 40
0.7443199991
 40
0.776637812
 40
0.8089225842
 40
0.8411353274
 40
0.8732395264
 40
0.9052026864
 40
0.9369967424
 40
0.9686011451
 40
1.0
 40
1.0
 40
1.0
 40
1.0
 10
9.8320228758
 20
6.6422874045
 30
0.0
 10
9.8494996248
 20
6.6410753878
 30
0.0
 10
9.884478849
 20
6.6403560133
 30
0.0
 10
9.9366053759
 20
6.6444555553
 30
0.0
 10
9.9792904034
 20
6.6521741248
 30
0.0
 10
10.0126629353
 20
6.6608822773
 30
0.0
 10
10.0372260117
 20
6.6686518534
 30
0.0
 10
10.061294244
 20
6.6776496813
 30
0.0
 10
10.0848104396
 20
6.6878543982
 30
0.0
 10
10.1077178959
 20
6.6992409466
 30
0.0
 10
10.1299609527
 20
6.7117827306
 30
0.0
 10
10.1514865724
 20
6.7254484621
 30
0.0
 10
10.1722420008
 20
6.740206478
 30
0.0
 10
10.19217819
 20
6.7560197879
 30
0.0
 10
10.2112458411
 20
6.7728517552
 30
0.0
 10
10.2294002808
 20
6.790660289
 30
0.0
 10
10.2465963289
 20
6.809403861
 30
0.0
 10
10.2627939174
 20
6.8290359557
 30
0.0
 10
10.2779526541
 20
6.8495103394
 30
0.0
 10
10.2920372105
 20
6.8707766921
 30
0.0
 10
10.3050126233
 20
6.892784402
 30
0.0
 10
10.3168484196
 20
6.9154799374
 30
0.0
 10
10.3275155754
 20
6.9388086226
 30
0.0
 10
10.3369887444
 20
6.9627149011
 30
0.0
 10
10.3480110328
 20
6.9953215018
 30
0.0
 10
10.3586898522
 20
7.0372643056
 30
0.0
 10
10.3664053259
 20
7.0888623168
 30
0.0
 10
10.3689735848
 20
7.141318285
 30
0.0
 10
10.3663706635
 20
7.1941235192
 30
0.0
 10
10.3586239169
 20
7.2467708912
 30
0.0
 10
10.3458095223
 20
7.2987541116
 30
0.0
 10
10.328052198
 20
7.3495739878
 30
0.0
 10
10.3055237813
 20
7.3987427033
 30
0.0
 10
10.2784415955
 20
7.445788484
 30
0.0
 10
10.2470663469
 20
7.4902599893
 30
0.0
 10
10.2116996398
 20
7.5317305702
 30
0.0
 10
10.1726811158
 20
7.5698022535
 30
0.0
 10
10.1303852655
 20
7.6041095412
 30
0.0
 10
10.0852178937
 20
7.6343227076
 30
0.0
 10
10.03761217
 20
7.6601513137
 30
0.0
 10
9.9880253102
 20
7.6813460567
 30
0.0
 10
9.9369312063
 20
7.6977030407
 30
0.0
 10
9.8848272942
 20
7.7090622411
 30
0.0
 10
9.8496182601
 20
7.7132448912
 30
0.0
 10
9.8320228758
 20
7.7144651352
 30
0.0
  0
SPLINE
  5
3C5
100
AcDbEntity
  8
0
100
AcDbSpline
 62
7
  6
CONTINUOUS
 70
0
 71
3
 72
15
 73
11
 74
0
 42
0.0000001
 43
0.0000001
 44
0.0000000001
 40
0.0
 40
0.0
 40
0.0
 40
0.0
 40
0.1156537103
 40
0.2345121048
 40
0.3566334592
 40
0.4817744298
 40
0.6093887094
 40
0.7387521918
 40
0.869146757
 40
1.0
 40
1.0
 40
1.0
 40
1.0
 10
10.3871451479
 20
6.869546504
 30
0.0
 10
10.3854783657
 20
6.891288307
 30
0.0
 10
10.3824512949
 20
6.9354024269
 30
0.0
 10
10.379054983
 20
7.002560932
 30
0.0
 10
10.376930277
 20
7.0715622332
 30
0.0
 10
10.37621518
 20
7.1422437253
 30
0.0
 10
10.3769582793
 20
7.214290147
 30
0.0
 10
10.379104623
 20
7.2872986183
 30
0.0
 10
10.3825132188
 20
7.3608693099
 30
0.0
 10
10.3855014188
 20
7.4100364442
 30
0.0
 10
10.3871451479
 20
7.4346529785
 30
0.0
  0
SPLINE
  5
3C6
100
AcDbEntity
  8
0
100
AcDbSpline
 62
7
  6
CONTINUOUS
 70
0
 71
3
 72
18
 73
14
 74
0
 42
0.0000001
 43
0.0000001
 44
0.0000000001
 40
0.0
 40
0.0
 40
0.0
 40
0.0
 40
0.1257518379
 40
0.2522206279
 40
0.3790639262
 40
0.4424676427
 40
0.5057555221
 40
0.5688470283
 40
0.6316652308
 40
0.6941417768
 40
0.7562221058
 40
0.8790466163
 40
1.0
 40
1.0
 40
1.0
 40
1.0
 10
10.3601847436
 20
7.483219479
 30
0.0
 10
10.3385102469
 20
7.4945749551
 30
0.0
 10
10.2952320926
 20
7.5177250222
 30
0.0
 10
10.2309084562
 20
7.5538309843
 30
0.0
 10
10.1778822965
 20
7.5852471257
 30
0.0
 10
10.1359308791
 20
7.6112078607
 30
0.0
 10
10.1047872982
 20
7.6310537178
 30
0.0
 10
10.0740073415
 20
7.6512519943
 30
0.0
 10
10.0436310593
 20
7.6717716686
 30
0.0
 10
10.0136891753
 20
7.6925772223
 30
0.0
 10
9.9745125841
 20
7.7205479111
 30
0.0
 10
9.9267135571
 20
7.7560147226
 30
0.0
 10
9.8892419675
 20
7.7851053855
 30
0.0
 10
9.8707881808
 20
7.7997124832
 30
0.0
  0
SPLINE
  5
3C7
100
AcDbEntity
  8
0
100
AcDbSpline
 62
7
  6
CONTINUOUS
 70
0
 71
3
 72
15
 73
11
 74
0
 42
0.0000001
 43
0.0000001
 44
0.0000000001
 40
0.0
 40
0.0
 40
0.0
 40
0.0
 40
0.1339295061
 40
0.2667162338
 40
0.3976426282
 40
0.5258636586
 40
0.6505784979
 40
0.7712350381
 40
0.887653109
 40
1.0
 40
1.0
 40
1.0
 40
1.0
 10
9.8168673721
 20
7.803451904
 30
0.0
 10
9.7953270299
 20
7.7917583395
 30
0.0
 10
9.7523745529
 20
7.7685731318
 30
0.0
 10
9.688137639
 20
7.7343792709
 30
0.0
 10
9.6245918226
 20
7.7011136039
 30
0.0
 10
9.5620995746
 20
7.6690248303
 30
0.0
 10
9.501013398
 20
7.6383175951
 30
0.0
 10
9.4415967668
 20
7.609104164
 30
0.0
 10
9.3839711089
 20
7.5813835927
 30
0.0
 10
9.3461004885
 20
7.563536037
 30
0.0
 10
9.3274708093
 20
7.5548384336
 30
0.0
  0
SPLINE
  5
3C8
100
AcDbEntity
  8
0
100
AcDbSpline
 62
7
  6
CONTINUOUS
 70
0
 71
3
 72
15
 73
11
 74
0
 42
0.0000001
 43
0.0000001
 44
0.0000000001
 40
0.0
 40
0.0
 40
0.0
 40
0.0
 40
0.1308537488
 40
0.2612484863
 40
0.3906118221
 40
0.5182256991
 40
0.6433659131
 40
0.7654873328
 40
0.8843458508
 40
1.0
 40
1.0
 40
1.0
 40
1.0
 10
11.8482374582
 20
6.8748533666
 30
0.0
 10
11.8498811936
 20
6.8994699961
 30
0.0
 10
11.8528693908
 20
6.9486372583
 30
0.0
 10
11.8562780548
 20
7.0222080485
 30
0.0
 10
11.8584242222
 20
7.0952164523
 30
0.0
 10
11.8591675919
 20
7.1672626261
 30
0.0
 10
11.8584522224
 20
7.2379439098
 30
0.0
 10
11.8563276959
 20
7.306945108
 30
0.0
 10
11.8529313154
 20
7.3741037297
 30
0.0
 10
11.8499042468
 20
7.4182179556
 30
0.0
 10
11.8482374582
 20
7.4399598412
 30
0.0
  0
SPLINE
  5
3C9
100
AcDbEntity
  8
0
100
AcDbSpline
 62
7
  6
CONTINUOUS
 70
0
 71
3
 72
19
 73
15
 74
0
 42
0.0000001
 43
0.0000001
 44
0.0000000001
 40
0.0
 40
0.0
 40
0.0
 40
0.0
 40
0.120953556
 40
0.2437779128
 40
0.3058580643
 40
0.3683344807
 40
0.431152153
 40
0.4942432529
 40
0.5575308052
 40
0.6209340224
 40
0.6843741804
 40
0.7477793373
 40
0.8742479802
 40
1.0
 40
1.0
 40
1.0
 40
1.0
 10
11.8212770539
 20
7.4885263416
 30
0.0
 10
11.8028231966
 20
7.5031334952
 30
0.0
 10
11.7653515189
 20
7.5322242367
 30
0.0
 10
11.7175523961
 20
7.5676911057
 30
0.0
 10
11.6783758198
 20
7.5956618606
 30
0.0
 10
11.6484339039
 20
7.6164672377
 30
0.0
 10
11.6180577616
 20
7.6369868984
 30
0.0
 10
11.5872780202
 20
7.6571852362
 30
0.0
 10
11.5561345219
 20
7.6770308712
 30
0.0
 10
11.5246740044
 20
7.6964993033
 30
0.0
 10
11.492946584
 20
7.7155740429
 30
0.0
 10
11.4503925984
 20
7.7404496842
 30
0.0
 10
11.3968332095
 20
7.7705138803
 30
0.0
 10
11.3535550712
 20
7.7936638261
 30
0.0
 10
11.3318804911
 20
7.8050193458
 30
0.0
  0
SPLINE
  5
3CA
100
AcDbEntity
  8
0
100
AcDbSpline
 62
7
  6
CONTINUOUS
 70
0
 71
3
 72
15
 73
11
 74
0
 42
0.0000001
 43
0.0000001
 44
0.0000000001
 40
0.0
 40
0.0
 40
0.0
 40
0.0
 40
0.1123473152
 40
0.228765499
 40
0.3494221518
 40
0.4741361587
 40
0.6023568587
 40
0.7332830648
 40
0.8660699745
 40
1.0
 40
1.0
 40
1.0
 40
1.0
 10
11.2779596824
 20
7.8087587666
 30
0.0
 10
11.2593299329
 20
7.8000611303
 30
0.0
 10
11.2214592252
 20
7.7822135294
 30
0.0
 10
11.1638334488
 20
7.7544929295
 30
0.0
 10
11.1044169495
 20
7.7252794826
 30
0.0
 10
11.043330894
 20
7.6945724341
 30
0.0
 10
10.9808389166
 20
7.6624836742
 30
0.0
 10
10.9172931221
 20
7.6292180989
 30
0.0
 10
10.8530561374
 20
7.5950241708
 30
0.0
 10
10.8101035454
 20
7.571838906
 30
0.0
 10
10.7885631196
 20
7.5601452962
 30
0.0
  0
SPLINE
  5
3CB
100
AcDbEntity
  8
0
100
AcDbSpline
 62
7
  6
CONTINUOUS
 70
0
 71
3
 72
15
 73
11
 74
0
 42
0.0000001
 43
0.0000001
 44
0.0000000001
 40
0.0
 40
0.0
 40
0.0
 40
0.0
 40
0.1308537488
 40
0.2612484863
 40
0.3906118221
 40
0.5182256991
 40
0.6433659131
 40
0.7654873328
 40
0.8843458508
 40
1.0
 40
1.0
 40
1.0
 40
1.0
 10
10.6586022147
 20
7.415827367
 30
0.0
 10
10.6569584793
 20
7.3912107375
 30
0.0
 10
10.6539702821
 20
7.3420434753
 30
0.0
 10
10.6505616182
 20
7.2684726851
 30
0.0
 10
10.6484154507
 20
7.1954642813
 30
0.0
 10
10.647672081
 20
7.1234181075
 30
0.0
 10
10.6483874506
 20
7.0527368238
 30
0.0
 10
10.6505119771
 20
6.9837356256
 30
0.0
 10
10.6539083575
 20
6.9165770039
 30
0.0
 10
10.6569354261
 20
6.872462778
 30
0.0
 10
10.6586022147
 20
6.8507208924
 30
0.0
  0
SPLINE
  5
3CC
100
AcDbEntity
  8
0
100
AcDbSpline
 62
7
  6
CONTINUOUS
 70
0
 71
3
 72
19
 73
15
 74
0
 42
0.0000001
 43
0.0000001
 44
0.0000000001
 40
0.0
 40
0.0
 40
0.0
 40
0.0
 40
0.120953556
 40
0.2437779128
 40
0.3058580643
 40
0.3683344807
 40
0.431152153
 40
0.4942432529
 40
0.5575308052
 40
0.6209340224
 40
0.6843741804
 40
0.7477793373
 40
0.8742479802
 40
1.0
 40
1.0
 40
1.0
 40
1.0
 10
10.685562619
 20
6.802154392
 30
0.0
 10
10.7040164763
 20
6.7875472384
 30
0.0
 10
10.741488154
 20
6.7584564969
 30
0.0
 10
10.7892872768
 20
6.7229896279
 30
0.0
 10
10.8284638531
 20
6.695018873
 30
0.0
 10
10.858405769
 20
6.6742134959
 30
0.0
 10
10.8887819113
 20
6.6536938352
 30
0.0
 10
10.9195616527
 20
6.6334954974
 30
0.0
 10
10.950705151
 20
6.6136498624
 30
0.0
 10
10.9821656685
 20
6.5941814303
 30
0.0
 10
11.0138930889
 20
6.5751066907
 30
0.0
 10
11.0564470745
 20
6.5502310494
 30
0.0
 10
11.1100064634
 20
6.5201668533
 30
0.0
 10
11.1532846018
 20
6.4970169075
 30
0.0
 10
11.1749591819
 20
6.4856613878
 30
0.0
  0
SPLINE
  5
3CD
100
AcDbEntity
  8
0
100
AcDbSpline
 62
7
  6
CONTINUOUS
 70
0
 71
3
 72
15
 73
11
 74
0
 42
0.0000001
 43
0.0000001
 44
0.0000000001
 40
0.0
 40
0.0
 40
0.0
 40
0.0
 40
0.1123473152
 40
0.228765499
 40
0.3494221518
 40
0.4741361587
 40
0.6023568587
 40
0.7332830648
 40
0.8660699745
 40
1.0
 40
1.0
 40
1.0
 40
1.0
 10
11.2288799905
 20
6.481921967
 30
0.0
 10
11.2475097401
 20
6.4906196033
 30
0.0
 10
11.2853804477
 20
6.5084672042
 30
0.0
 10
11.3430062241
 20
6.5361878041
 30
0.0
 10
11.4024227235
 20
6.565401251
 30
0.0
 10
11.4635087789
 20
6.5961082995
 30
0.0
 10
11.5260007563
 20
6.6281970594
 30
0.0
 10
11.5895465508
 20
6.6614626347
 30
0.0
 10
11.6537835356
 20
6.6956565628
 30
0.0
 10
11.6967361275
 20
6.7188418276
 30
0.0
 10
11.7182765533
 20
6.7305354374
 30
0.0
  0
SPLINE
  5
3CE
100
AcDbEntity
  8
0
100
AcDbSpline
 62
7
  6
CONTINUOUS
 70
0
 71
3
 72
19
 73
15
 74
0
 42
0.0000001
 43
0.0000001
 44
0.0000000001
 40
0.0
 40
0.0
 40
0.0
 40
0.0
 40
0.1257520198
 40
0.2522206628
 40
0.3156258197
 40
0.3790659776
 40
0.4424691949
 40
0.5057567472
 40
0.5688478471
 40
0.6316655194
 40
0.6941419357
 40
0.7562220872
 40
0.879046444
 40
1.0
 40
1.0
 40
1.0
 40
1.0
 10
11.7182765533
 20
7.3890354921
 30
0.0
 10
11.6966019732
 20
7.4003910119
 30
0.0
 10
11.6533238349
 20
7.4235409576
 30
0.0
 10
11.599764446
 20
7.4536051537
 30
0.0
 10
11.5572104604
 20
7.478480795
 30
0.0
 10
11.5254830399
 20
7.4975555347
 30
0.0
 10
11.4940225225
 20
7.5170239667
 30
0.0
 10
11.4628790241
 20
7.5368696017
 30
0.0
 10
11.4320992828
 20
7.5570679396
 30
0.0
 10
11.4017231405
 20
7.5775876002
 30
0.0
 10
11.3717812245
 20
7.5983929773
 30
0.0
 10
11.3326046483
 20
7.6263637323
 30
0.0
 10
11.2848055254
 20
7.6618306012
 30
0.0
 10
11.2473338478
 20
7.6909213428
 30
0.0
 10
11.2288799905
 20
7.7055284963
 30
0.0
  0
SPLINE
  5
3CF
100
AcDbEntity
  8
0
100
AcDbSpline
 62
7
  6
CONTINUOUS
 70
0
 71
3
 72
15
 73
11
 74
0
 42
0.0000001
 43
0.0000001
 44
0.0000000001
 40
0.0
 40
0.0
 40
0.0
 40
0.0
 40
0.1339300255
 40
0.2667169353
 40
0.3976431413
 40
0.5258638413
 40
0.6505778483
 40
0.771234501
 40
0.8876526848
 40
1.0
 40
1.0
 40
1.0
 40
1.0
 10
11.1749591819
 20
7.7092679171
 30
0.0
 10
11.153418756
 20
7.6975743073
 30
0.0
 10
11.1104661641
 20
7.6743890425
 30
0.0
 10
11.0462291793
 20
7.6401951144
 30
0.0
 10
10.9826833848
 20
7.6069295391
 30
0.0
 10
10.9201914074
 20
7.5748407792
 30
0.0
 10
10.859105352
 20
7.5441337307
 30
0.0
 10
10.7996888526
 20
7.5149202838
 30
0.0
 10
10.7420630762
 20
7.4871996839
 30
0.0
 10
10.7041923686
 20
7.469352083
 30
0.0
 10
10.685562619
 20
7.4606544467
 30
0.0
  0
SPLINE
  5
3D0
100
AcDbEntity
  8
0
100
AcDbSpline
 62
7
  6
CONTINUOUS
 70
0
 71
3
 72
60
 73
56
 74
0
 42
0.0000001
 43
0.0000001
 44
0.0000000001
 40
0.0
 40
0.0
 40
0.0
 40
0.0
 40
0.031184371
 40
0.0621580432
 40
0.0775734646
 40
0.0929406781
 40
0.1082617819
 40
0.1235397404
 40
0.1387779589
 40
0.1539801548
 40
0.1691504309
 40
0.1842932276
 40
0.1994132951
 40
0.2145156006
 40
0.2296053272
 40
0.2446877625
 40
0.2597683001
 40
0.2748523191
 40
0.2899451975
 40
0.3050521937
 40
0.3201784387
 40
0.335328832
 40
0.3505080379
 40
0.3657204023
 40
0.3809699397
 40
0.3962602754
 40
0.4115946071
 40
0.4269756878
 40
0.4424057885
 40
0.4578867094
 40
0.4734197236
 40
0.4890056207
 40
0.5046446352
 40
0.5203365277
 40
0.5360805209
 40
0.551875389
 40
0.5677193852
 40
0.5836103502
 40
0.5995456448
 40
0.6155222731
 40
0.6315368291
 40
0.6475856077
 40
0.6636645528
 40
0.6797693807
 40
0.6958955413
 40
0.7120383375
 40
0.7443457853
 40
0.7766603396
 40
0.8089418551
 40
0.8411513533
 40
0.8732523515
 40
0.9052121693
 40
0.9370033076
 40
0.9686039471
 40
1.0
 40
1.0
 40
1.0
 40
1.0
 10
11.1901146855
 20
7.6202811483
 30
0.0
 10
11.1726377303
 20
7.6214931793
 30
0.0
 10
11.1376608792
 20
7.6222131495
 30
0.0
 10
11.0941401258
 20
7.6187891064
 30
0.0
 10
11.0598440362
 20
7.613468291
 30
0.0
 10
11.0344714905
 20
7.6082088801
 30
0.0
 10
11.009474221
 20
7.6016861362
 30
0.0
 10
10.9849116364
 20
7.5939168448
 30
0.0
 10
10.9608433479
 20
7.5849187687
 30
0.0
 10
10.9373270267
 20
7.5747143623
 30
0.0
 10
10.914419749
 20
7.5633274352
 30
0.0
 10
10.892176466
 20
7.5507860441
 30
0.0
 10
10.8706511156
 20
7.5371198963
 30
0.0
 10
10.8498953851
 20
7.5223623072
 30
0.0
 10
10.8299595344
 20
7.5065485809
 30
0.0
 10
10.8108915371
 20
7.4897170021
 30
0.0
 10
10.792737434
 20
7.4719081163
 30
0.0
 10
10.7755410624
 20
7.4531648373
 30
0.0
 10
10.7593437477
 20
7.4335325112
 30
0.0
 10
10.7441847946
 20
7.4130582931
 30
0.0
 10
10.7301003737
 20
7.3917918467
 30
0.0
 10
10.7171249116
 20
7.3697841622
 30
0.0
 10
10.7052890638
 20
7.3470886856
 30
0.0
 10
10.6946220462
 20
7.3237597957
 30
0.0
 10
10.6851487001
 20
7.2998541322
 30
0.0
 10
10.6768927497
 20
7.2754289796
 30
0.0
 10
10.6698729996
 20
7.2505435807
 30
0.0
 10
10.6641074407
 20
7.2252576258
 30
0.0
 10
10.6596086998
 20
7.1996323368
 30
0.0
 10
10.6563888197
 20
7.173729259
 30
0.0
 10
10.6544541781
 20
7.1476109632
 30
0.0
 10
10.6538107194
 20
7.1213402873
 30
0.0
 10
10.6544585654
 20
7.0949805454
 30
0.0
 10
10.6563974528
 20
7.0685952754
 30
0.0
 10
10.6596213169
 20
7.0422479145
 30
0.0
 10
10.6641236297
 20
7.0160020708
 30
0.0
 10
10.6698922585
 20
6.9899207158
 30
0.0
 10
10.6769144333
 20
6.9640669098
 30
0.0
 10
10.6851721074
 20
6.9385025918
 30
0.0
 10
10.6946463579
 20
6.9132896305
 30
0.0
 10
10.7053134414
 20
6.8884883647
 30
0.0
 10
10.7171484304
 20
6.8641588425
 30
0.0
 10
10.7301221566
 20
6.8403592447
 30
0.0
 10
10.7442038037
 20
6.8171473191
 30
0.0
 10
10.7593594966
 20
6.7945781004
 30
0.0
 10
10.7809523408
 20
6.7654129277
 30
0.0
 10
10.810438706
 20
6.7308366923
 30
0.0
 10
10.8494561474
 20
6.6927665355
 30
0.0
 10
10.8917523067
 20
6.6584588501
 30
0.0
 10
10.9369196092
 20
6.6282457503
 30
0.0
 10
10.9845253711
 20
6.6024172407
 30
0.0
 10
11.0341122777
 20
6.5812223037
 30
0.0
 10
11.0852062657
 20
6.5648656917
 30
0.0
 10
11.1373101511
 20
6.5535061779
 30
0.0
 10
11.1725190954
 20
6.5493236759
 30
0.0
 10
11.1901146855
 20
6.5481034176
 30
0.0
  0
SPLINE
  5
3D1
100
AcDbEntity
  8
0
100
AcDbSpline
 62
7
  6
CONTINUOUS
 70
0
 71
3
 72
60
 73
56
 74
0
 42
0.0000001
 43
0.0000001
 44
0.0000000001
 40
0.0
 40
0.0
 40
0.0
 40
0.0
 40
0.031184371
 40
0.0621580432
 40
0.0775734646
 40
0.0929406781
 40
0.1082617819
 40
0.1235397404
 40
0.1387779589
 40
0.1539801548
 40
0.1691504309
 40
0.1842932276
 40
0.1994132951
 40
0.2145156006
 40
0.2296053272
 40
0.2446877625
 40
0.2597683001
 40
0.2748523191
 40
0.2899451975
 40
0.3050521937
 40
0.3201784387
 40
0.335328832
 40
0.3505080379
 40
0.3657204023
 40
0.3809699397
 40
0.3962602754
 40
0.4115946071
 40
0.4269756878
 40
0.4424057885
 40
0.4578867094
 40
0.4734197236
 40
0.4890056207
 40
0.5046446352
 40
0.5203365277
 40
0.5360805209
 40
0.551875389
 40
0.5677193852
 40
0.5836103502
 40
0.5995456448
 40
0.6155222731
 40
0.6315368291
 40
0.6475856077
 40
0.6636645528
 40
0.6797693807
 40
0.6958955413
 40
0.7120383375
 40
0.7443457853
 40
0.7766603396
 40
0.8089418551
 40
0.8411513533
 40
0.8732523515
 40
0.9052121693
 40
0.9370033076
 40
0.9686039471
 40
1.0
 40
1.0
 40
1.0
 40
1.0
 10
11.1901146855
 20
6.5481034176
 30
0.0
 10
11.2075916408
 20
6.5468913866
 30
0.0
 10
11.2425684919
 20
6.5461714165
 30
0.0
 10
11.2860892453
 20
6.5495954596
 30
0.0
 10
11.3203853349
 20
6.554916275
 30
0.0
 10
11.3457578806
 20
6.5601756859
 30
0.0
 10
11.37075515
 20
6.5666984297
 30
0.0
 10
11.3953177347
 20
6.5744677212
 30
0.0
 10
11.4193860232
 20
6.5834657973
 30
0.0
 10
11.4429023444
 20
6.5936702036
 30
0.0
 10
11.4658096221
 20
6.6050571307
 30
0.0
 10
11.4880529051
 20
6.6175985219
 30
0.0
 10
11.5095782554
 20
6.6312646696
 30
0.0
 10
11.530333986
 20
6.6460222588
 30
0.0
 10
11.5502698367
 20
6.661835985
 30
0.0
 10
11.569337834
 20
6.6786675638
 30
0.0
 10
11.587491937
 20
6.6964764496
 30
0.0
 10
11.6046883087
 20
6.7152197286
 30
0.0
 10
11.6208856234
 20
6.7348520547
 30
0.0
 10
11.6360445765
 20
6.7553262729
 30
0.0
 10
11.6501289974
 20
6.7765927193
 30
0.0
 10
11.6631044595
 20
6.7986004037
 30
0.0
 10
11.6749403073
 20
6.8212958803
 30
0.0
 10
11.6856073249
 20
6.8446247702
 30
0.0
 10
11.695080671
 20
6.8685304338
 30
0.0
 10
11.7033366214
 20
6.8929555863
 30
0.0
 10
11.7103563715
 20
6.9178409852
 30
0.0
 10
11.7161219304
 20
6.9431269401
 30
0.0
 10
11.7206206713
 20
6.9687522291
 30
0.0
 10
11.7238405513
 20
6.9946553069
 30
0.0
 10
11.725775193
 20
7.0207736027
 30
0.0
 10
11.7264186516
 20
7.0470442786
 30
0.0
 10
11.7257708056
 20
7.0734040205
 30
0.0
 10
11.7238319183
 20
7.0997892905
 30
0.0
 10
11.7206080542
 20
7.1261366515
 30
0.0
 10
11.7161057414
 20
7.1523824951
 30
0.0
 10
11.7103371126
 20
7.1784638501
 30
0.0
 10
11.7033149378
 20
7.2043176561
 30
0.0
 10
11.6950572637
 20
7.2298819742
 30
0.0
 10
11.6855830132
 20
7.2550949354
 30
0.0
 10
11.6749159297
 20
7.2798962012
 30
0.0
 10
11.6630809406
 20
7.3042257234
 30
0.0
 10
11.6501072145
 20
7.3280253212
 30
0.0
 10
11.6360255674
 20
7.3512372468
 30
0.0
 10
11.6208698745
 20
7.3738064656
 30
0.0
 10
11.5992770303
 20
7.4029716383
 30
0.0
 10
11.5697906651
 20
7.4375478736
 30
0.0
 10
11.5307732237
 20
7.4756180305
 30
0.0
 10
11.4884770644
 20
7.5099257158
 30
0.0
 10
11.4433097619
 20
7.5401388157
 30
0.0
 10
11.395704
 20
7.5659673252
 30
0.0
 10
11.3461170934
 20
7.5871622622
 30
0.0
 10
11.2950231054
 20
7.6035188743
 30
0.0
 10
11.24291922
 20
7.614878388
 30
0.0
 10
11.2077102757
 20
7.61906089
 30
0.0
 10
11.1901146855
 20
7.6202811483
 30
0.0
  0
SPLINE
  5
3D2
100
AcDbEntity
  8
0
100
AcDbSpline
 62
7
  6
CONTINUOUS
 70
0
 71
3
 72
15
 73
11
 74
0
 42
0.0000001
 43
0.0000001
 44
0.0000000001
 40
0.0
 40
0.0
 40
0.0
 40
0.0
 40
0.1156541492
 40
0.2345126673
 40
0.3566340869
 40
0.481774301
 40
0.609388178
 40
0.7387515137
 40
0.8691462512
 40
1.0
 40
1.0
 40
1.0
 40
1.0
 10
11.7452369577
 20
6.7753625171
 30
0.0
 10
11.7435701691
 20
6.7971044027
 30
0.0
 10
11.7405431005
 20
6.8412186286
 30
0.0
 10
11.73714672
 20
6.9083772502
 30
0.0
 10
11.7350221935
 20
6.9773784484
 30
0.0
 10
11.7343068239
 20
7.0480597322
 30
0.0
 10
11.7350501937
 20
7.1201059059
 30
0.0
 10
11.7371963611
 20
7.1931143097
 30
0.0
 10
11.7406050251
 20
7.2666851
 30
0.0
 10
11.7435932222
 20
7.3158523621
 30
0.0
 10
11.7452369577
 20
7.3404689916
 30
0.0
  0
SPLINE
  5
3D3
100
AcDbEntity
  8
0
100
AcDbSpline
 62
7
  6
CONTINUOUS
 70
0
 71
3
 72
15
 73
11
 74
0
 42
0.0000001
 43
0.0000001
 44
0.0000000001
 40
0.0
 40
0.0
 40
0.0
 40
0.0
 40
0.130853243
 40
0.2612478082
 40
0.3906112907
 40
0.5182255703
 40
0.6433665409
 40
0.7654878953
 40
0.8843462897
 40
1.0
 40
1.0
 40
1.0
 40
1.0
 10
10.4901456485
 20
8.4179261788
 30
0.0
 10
10.4917893776
 20
8.4425427131
 30
0.0
 10
10.4947775776
 20
8.4917098474
 30
0.0
 10
10.4981861734
 20
8.5652805391
 30
0.0
 10
10.5003325171
 20
8.6382890103
 30
0.0
 10
10.5010756164
 20
8.710335432
 30
0.0
 10
10.5003605194
 20
8.7810169241
 30
0.0
 10
10.4982358134
 20
8.8500182253
 30
0.0
 10
10.4948395015
 20
8.9171767304
 30
0.0
 10
10.4918124307
 20
8.9612908503
 30
0.0
 10
10.4901456485
 20
8.9830326533
 30
0.0
  0
SPLINE
  5
3D4
100
AcDbEntity
  8
0
100
AcDbSpline
 62
7
  6
CONTINUOUS
 70
0
 71
3
 72
18
 73
14
 74
0
 42
0.0000001
 43
0.0000001
 44
0.0000000001
 40
0.0
 40
0.0
 40
0.0
 40
0.0
 40
0.1209533837
 40
0.2437778942
 40
0.3058582232
 40
0.3683347693
 40
0.4311529717
 40
0.4942444779
 40
0.5575323574
 40
0.6209360738
 40
0.7477793722
 40
0.8742481621
 40
1.0
 40
1.0
 40
1.0
 40
1.0
 10
10.4631852442
 20
9.0315991538
 30
0.0
 10
10.4447314575
 20
9.0462062515
 30
0.0
 10
10.4072598678
 20
9.0752969145
 30
0.0
 10
10.3594608408
 20
9.1107637259
 30
0.0
 10
10.3202842496
 20
9.1387344147
 30
0.0
 10
10.2903423656
 20
9.1595399684
 30
0.0
 10
10.2599660834
 20
9.1800596427
 30
0.0
 10
10.2291861267
 20
9.2002579192
 30
0.0
 10
10.1980425458
 20
9.2201037763
 30
0.0
 10
10.1560911284
 20
9.2460645113
 30
0.0
 10
10.1030649687
 20
9.2774806527
 30
0.0
 10
10.0387413323
 20
9.3135866148
 30
0.0
 10
9.9954631781
 20
9.3367366819
 30
0.0
 10
9.9737886813
 20
9.348092158
 30
0.0
  0
SPLINE
  5
3D5
100
AcDbEntity
  8
0
100
AcDbSpline
 62
7
  6
CONTINUOUS
 70
0
 71
3
 72
15
 73
11
 74
0
 42
0.0000001
 43
0.0000001
 44
0.0000000001
 40
0.0
 40
0.0
 40
0.0
 40
0.0
 40
0.112346891
 40
0.2287649619
 40
0.3494215021
 40
0.4741363415
 40
0.6023573719
 40
0.7332837662
 40
0.866070494
 40
1.0
 40
1.0
 40
1.0
 40
1.0
 10
9.9198678727
 20
9.3518315788
 30
0.0
 10
9.9012381935
 20
9.3431339754
 30
0.0
 10
9.8633675731
 20
9.3252864196
 30
0.0
 10
9.8057419151
 20
9.2975658484
 30
0.0
 10
9.746325284
 20
9.2683524172
 30
0.0
 10
9.6852391074
 20
9.237645182
 30
0.0
 10
9.6227468593
 20
9.2055564084
 30
0.0
 10
9.5592010429
 20
9.1722907415
 30
0.0
 10
9.4949641291
 20
9.1380968806
 30
0.0
 10
9.4520116521
 20
9.1149116729
 30
0.0
 10
9.4304713099
 20
9.1032181084
 30
0.0
  0
SPLINE
  5
3D6
100
AcDbEntity
  8
0
100
AcDbSpline
 62
7
  6
CONTINUOUS
 70
0
 71
3
 72
15
 73
11
 74
0
 42
0.0000001
 43
0.0000001
 44
0.0000000001
 40
0.0
 40
0.0
 40
0.0
 40
0.0
 40
0.130853243
 40
0.2612478082
 40
0.3906112907
 40
0.5182255703
 40
0.6433665409
 40
0.7654878953
 40
0.8843462897
 40
1.0
 40
1.0
 40
1.0
 40
1.0
 10
9.300510405
 20
8.9589001792
 30
0.0
 10
9.2988666759
 20
8.9342836449
 30
0.0
 10
9.2958784758
 20
8.8851165106
 30
0.0
 10
9.29246988
 20
8.8115458189
 30
0.0
 10
9.2903235363
 20
8.7385373477
 30
0.0
 10
9.2895804371
 20
8.666490926
 30
0.0
 10
9.2902955341
 20
8.5958094339
 30
0.0
 10
9.2924202401
 20
8.5268081327
 30
0.0
 10
9.295816552
 20
8.4596496276
 30
0.0
 10
9.2988436227
 20
8.4155355077
 30
0.0
 10
9.300510405
 20
8.3937937046
 30
0.0
  0
SPLINE
  5
3D7
100
AcDbEntity
  8
0
100
AcDbSpline
 62
7
  6
CONTINUOUS
 70
0
 71
3
 72
18
 73
14
 74
0
 42
0.0000001
 43
0.0000001
 44
0.0000000001
 40
0.0
 40
0.0
 40
0.0
 40
0.0
 40
0.1209533837
 40
0.2437778942
 40
0.3058582232
 40
0.3683347693
 40
0.4311529717
 40
0.4942444779
 40
0.5575323574
 40
0.6209360738
 40
0.7477793722
 40
0.8742481621
 40
1.0
 40
1.0
 40
1.0
 40
1.0
 10
9.3274708093
 20
8.3452272042
 30
0.0
 10
9.345924596
 20
8.3306201065
 30
0.0
 10
9.3833961856
 20
8.3015294435
 30
0.0
 10
9.4311952126
 20
8.2660626321
 30
0.0
 10
9.4703718038
 20
8.2380919433
 30
0.0
 10
9.5003136879
 20
8.2172863896
 30
0.0
 10
9.53068997
 20
8.1967667152
 30
0.0
 10
9.5614699268
 20
8.1765684388
 30
0.0
 10
9.5926135077
 20
8.1567225817
 30
0.0
 10
9.634564925
 20
8.1307618467
 30
0.0
 10
9.6875910848
 20
8.0993457052
 30
0.0
 10
9.7519147212
 20
8.0632397431
 30
0.0
 10
9.7951928754
 20
8.040089676
 30
0.0
 10
9.8168673721
 20
8.0287342
 30
0.0
  0
SPLINE
  5
3D8
100
AcDbEntity
  8
0
100
AcDbSpline
 62
7
  6
CONTINUOUS
 70
0
 71
3
 72
15
 73
11
 74
0
 42
0.0000001
 43
0.0000001
 44
0.0000000001
 40
0.0
 40
0.0
 40
0.0
 40
0.0
 40
0.112346891
 40
0.2287649619
 40
0.3494215021
 40
0.4741363415
 40
0.6023573719
 40
0.7332837662
 40
0.866070494
 40
1.0
 40
1.0
 40
1.0
 40
1.0
 10
9.8707881808
 20
8.0249947792
 30
0.0
 10
9.88941786
 20
8.0336923826
 30
0.0
 10
9.9272884804
 20
8.0515399383
 30
0.0
 10
9.9849141383
 20
8.0792605096
 30
0.0
 10
10.0443307695
 20
8.1084739407
 30
0.0
 10
10.1054169461
 20
8.1391811759
 30
0.0
 10
10.1679091941
 20
8.1712699495
 30
0.0
 10
10.2314550105
 20
8.2045356164
 30
0.0
 10
10.2956919244
 20
8.2387294774
 30
0.0
 10
10.3386444013
 20
8.2619146851
 30
0.0
 10
10.3601847436
 20
8.2736082496
 30
0.0
  0
SPLINE
  5
3D9
100
AcDbEntity
  8
0
100
AcDbSpline
 62
7
  6
CONTINUOUS
 70
0
 71
3
 72
49
 73
45
 74
0
 42
0.0000001
 43
0.0000001
 44
0.0000000001
 40
0.0
 40
0.0
 40
0.0
 40
0.0
 40
0.031187151
 40
0.0621645213
 40
0.0929401585
 40
0.1082629014
 40
0.1235424257
 40
0.1387821476
 40
0.1539858757
 40
0.1691576791
 40
0.1843020069
 40
0.1994235946
 40
0.2145274341
 40
0.2296186839
 40
0.2447026442
 40
0.2597846952
 40
0.2748702365
 40
0.2899646369
 40
0.3050731598
 40
0.3202009317
 40
0.3353528523
 40
0.3505335935
 40
0.3657474896
 40
0.3809985718
 40
0.3962904382
 40
0.4269990655
 40
0.4579035252
 40
0.4890160735
 40
0.5203408316
 40
0.5518737651
 40
0.5836029699
 40
0.6155093002
 40
0.6475671858
 40
0.6797456153
 40
0.7120093051
 40
0.7443199991
 40
0.776637812
 40
0.8089225842
 40
0.8411353274
 40
0.8732395264
 40
0.9052026864
 40
0.9369967424
 40
0.9686011451
 40
1.0
 40
1.0
 40
1.0
 40
1.0
 10
9.8320228758
 20
9.1633539605
 30
0.0
 10
9.8145461268
 20
9.1645659772
 30
0.0
 10
9.7795669026
 20
9.1652853517
 30
0.0
 10
9.7274403757
 20
9.1611858097
 30
0.0
 10
9.6847553482
 20
9.1534672402
 30
0.0
 10
9.6513828163
 20
9.1447590877
 30
0.0
 10
9.6268197399
 20
9.1369895116
 30
0.0
 10
9.6027515076
 20
9.1279916837
 30
0.0
 10
9.579235312
 20
9.1177869668
 30
0.0
 10
9.5563278557
 20
9.1064004184
 30
0.0
 10
9.534084799
 20
9.0938586344
 30
0.0
 10
9.5125591792
 20
9.0801929029
 30
0.0
 10
9.4918037508
 20
9.065434887
 30
0.0
 10
9.4718675616
 20
9.0496215771
 30
0.0
 10
9.4527999105
 20
9.0327896098
 30
0.0
 10
9.4346454708
 20
9.014981076
 30
0.0
 10
9.4174494227
 20
8.9962375041
 30
0.0
 10
9.4012518342
 20
8.9766054093
 30
0.0
 10
9.3860930975
 20
8.9561310256
 30
0.0
 10
9.3720085411
 20
8.9348646729
 30
0.0
 10
9.3590331283
 20
8.912856963
 30
0.0
 10
9.347197332
 20
8.8901614276
 30
0.0
 10
9.3365301762
 20
8.8668327424
 30
0.0
 10
9.3270570072
 20
8.8429264639
 30
0.0
 10
9.3160347188
 20
8.8103198632
 30
0.0
 10
9.3053558994
 20
8.7683770594
 30
0.0
 10
9.2976404257
 20
8.7167790482
 30
0.0
 10
9.2950721668
 20
8.66432308
 30
0.0
 10
9.2976750882
 20
8.6115178458
 30
0.0
 10
9.3054218347
 20
8.5588704738
 30
0.0
 10
9.3182362293
 20
8.5068872534
 30
0.0
 10
9.3359935536
 20
8.4560673772
 30
0.0
 10
9.3585219703
 20
8.4068986617
 30
0.0
 10
9.3856041561
 20
8.359852881
 30
0.0
 10
9.4169794047
 20
8.3153813757
 30
0.0
 10
9.4523461118
 20
8.2739107948
 30
0.0
 10
9.4913646358
 20
8.2358391115
 30
0.0
 10
9.5336604862
 20
8.2015318238
 30
0.0
 10
9.5788278579
 20
8.1713186574
 30
0.0
 10
9.6264335816
 20
8.1454900513
 30
0.0
 10
9.6760204414
 20
8.1242953083
 30
0.0
 10
9.7271145453
 20
8.1079383243
 30
0.0
 10
9.7792184574
 20
8.0965791239
 30
0.0
 10
9.8144274915
 20
8.0923964738
 30
0.0
 10
9.8320228758
 20
8.0911762298
 30
0.0
  0
SPLINE
  5
3DA
100
AcDbEntity
  8
0
100
AcDbSpline
 62
7
  6
CONTINUOUS
 70
0
 71
3
 72
49
 73
45
 74
0
 42
0.0000001
 43
0.0000001
 44
0.0000000001
 40
0.0
 40
0.0
 40
0.0
 40
0.0
 40
0.031187151
 40
0.0621645213
 40
0.0929401585
 40
0.1082629014
 40
0.1235424257
 40
0.1387821476
 40
0.1539858757
 40
0.1691576791
 40
0.1843020069
 40
0.1994235946
 40
0.2145274341
 40
0.2296186839
 40
0.2447026442
 40
0.2597846952
 40
0.2748702365
 40
0.2899646369
 40
0.3050731598
 40
0.3202009317
 40
0.3353528523
 40
0.3505335935
 40
0.3657474896
 40
0.3809985718
 40
0.3962904382
 40
0.4269990655
 40
0.4579035252
 40
0.4890160735
 40
0.5203408316
 40
0.5518737651
 40
0.5836029699
 40
0.6155093002
 40
0.6475671858
 40
0.6797456153
 40
0.7120093051
 40
0.7443199991
 40
0.776637812
 40
0.8089225842
 40
0.8411353274
 40
0.8732395264
 40
0.9052026864
 40
0.9369967424
 40
0.9686011451
 40
1.0
 40
1.0
 40
1.0
 40
1.0
 10
9.8320228758
 20
8.0911762298
 30
0.0
 10
9.8494996248
 20
8.0899642131
 30
0.0
 10
9.884478849
 20
8.0892448386
 30
0.0
 10
9.9366053759
 20
8.0933443806
 30
0.0
 10
9.9792904034
 20
8.1010629501
 30
0.0
 10
10.0126629353
 20
8.1097711026
 30
0.0
 10
10.0372260117
 20
8.1175406787
 30
0.0
 10
10.061294244
 20
8.1265385066
 30
0.0
 10
10.0848104396
 20
8.1367432235
 30
0.0
 10
10.1077178959
 20
8.1481297719
 30
0.0
 10
10.1299609527
 20
8.1606715559
 30
0.0
 10
10.1514865724
 20
8.1743372874
 30
0.0
 10
10.1722420008
 20
8.1890953033
 30
0.0
 10
10.19217819
 20
8.2049086132
 30
0.0
 10
10.2112458411
 20
8.2217405805
 30
0.0
 10
10.2294002808
 20
8.2395491142
 30
0.0
 10
10.2465963289
 20
8.2582926862
 30
0.0
 10
10.2627939174
 20
8.277924781
 30
0.0
 10
10.2779526541
 20
8.2983991647
 30
0.0
 10
10.2920372105
 20
8.3196655174
 30
0.0
 10
10.3050126233
 20
8.3416732273
 30
0.0
 10
10.3168484196
 20
8.3643687627
 30
0.0
 10
10.3275155754
 20
8.3876974479
 30
0.0
 10
10.3369887444
 20
8.4116037264
 30
0.0
 10
10.3480110328
 20
8.4442103271
 30
0.0
 10
10.3586898522
 20
8.4861531309
 30
0.0
 10
10.3664053259
 20
8.5377511421
 30
0.0
 10
10.3689735848
 20
8.5902071103
 30
0.0
 10
10.3663706635
 20
8.6430123445
 30
0.0
 10
10.3586239169
 20
8.6956597165
 30
0.0
 10
10.3458095223
 20
8.7476429368
 30
0.0
 10
10.328052198
 20
8.798462813
 30
0.0
 10
10.3055237813
 20
8.8476315286
 30
0.0
 10
10.2784415955
 20
8.8946773093
 30
0.0
 10
10.2470663469
 20
8.9391488146
 30
0.0
 10
10.2116996398
 20
8.9806193955
 30
0.0
 10
10.1726811158
 20
9.0186910788
 30
0.0
 10
10.1303852655
 20
9.0529983664
 30
0.0
 10
10.0852178937
 20
9.0832115329
 30
0.0
 10
10.03761217
 20
9.109040139
 30
0.0
 10
9.9880253102
 20
9.130234882
 30
0.0
 10
9.9369312063
 20
9.146591866
 30
0.0
 10
9.8848272942
 20
9.1579510664
 30
0.0
 10
9.8496182601
 20
9.1621337164
 30
0.0
 10
9.8320228758
 20
9.1633539605
 30
0.0
  0
SPLINE
  5
3DB
100
AcDbEntity
  8
0
100
AcDbSpline
 62
7
  6
CONTINUOUS
 70
0
 71
3
 72
15
 73
11
 74
0
 42
0.0000001
 43
0.0000001
 44
0.0000000001
 40
0.0
 40
0.0
 40
0.0
 40
0.0
 40
0.1156537103
 40
0.2345121048
 40
0.3566334592
 40
0.4817744298
 40
0.6093887094
 40
0.7387521918
 40
0.869146757
 40
1.0
 40
1.0
 40
1.0
 40
1.0
 10
10.3871451479
 20
8.3184353292
 30
0.0
 10
10.3854783657
 20
8.3401771323
 30
0.0
 10
10.3824512949
 20
8.3842912522
 30
0.0
 10
10.379054983
 20
8.4514497573
 30
0.0
 10
10.376930277
 20
8.5204510585
 30
0.0
 10
10.37621518
 20
8.5911325506
 30
0.0
 10
10.3769582793
 20
8.6631789723
 30
0.0
 10
10.379104623
 20
8.7361874436
 30
0.0
 10
10.3825132188
 20
8.8097581352
 30
0.0
 10
10.3855014188
 20
8.8589252695
 30
0.0
 10
10.3871451479
 20
8.8835418038
 30
0.0
  0
SPLINE
  5
3DC
100
AcDbEntity
  8
0
100
AcDbSpline
 62
7
  6
CONTINUOUS
 70
0
 71
3
 72
18
 73
14
 74
0
 42
0.0000001
 43
0.0000001
 44
0.0000000001
 40
0.0
 40
0.0
 40
0.0
 40
0.0
 40
0.1257518379
 40
0.2522206279
 40
0.3790639262
 40
0.4424676427
 40
0.5057555221
 40
0.5688470283
 40
0.6316652308
 40
0.6941417768
 40
0.7562221058
 40
0.8790466163
 40
1.0
 40
1.0
 40
1.0
 40
1.0
 10
10.3601847436
 20
8.9321083043
 30
0.0
 10
10.3385102469
 20
8.9434637804
 30
0.0
 10
10.2952320926
 20
8.9666138475
 30
0.0
 10
10.2309084562
 20
9.0027198096
 30
0.0
 10
10.1778822965
 20
9.034135951
 30
0.0
 10
10.1359308791
 20
9.060096686
 30
0.0
 10
10.1047872982
 20
9.0799425431
 30
0.0
 10
10.0740073415
 20
9.1001408196
 30
0.0
 10
10.0436310593
 20
9.1206604939
 30
0.0
 10
10.0136891753
 20
9.1414660476
 30
0.0
 10
9.9745125841
 20
9.1694367364
 30
0.0
 10
9.9267135571
 20
9.2049035478
 30
0.0
 10
9.8892419675
 20
9.2339942108
 30
0.0
 10
9.8707881808
 20
9.2486013085
 30
0.0
  0
SPLINE
  5
3DD
100
AcDbEntity
  8
0
100
AcDbSpline
 62
7
  6
CONTINUOUS
 70
0
 71
3
 72
15
 73
11
 74
0
 42
0.0000001
 43
0.0000001
 44
0.0000000001
 40
0.0
 40
0.0
 40
0.0
 40
0.0
 40
0.1339295061
 40
0.2667162338
 40
0.3976426282
 40
0.5258636586
 40
0.6505784979
 40
0.7712350381
 40
0.887653109
 40
1.0
 40
1.0
 40
1.0
 40
1.0
 10
9.8168673721
 20
9.2523407293
 30
0.0
 10
9.7953270299
 20
9.2406471648
 30
0.0
 10
9.7523745529
 20
9.2174619571
 30
0.0
 10
9.688137639
 20
9.1832680961
 30
0.0
 10
9.6245918226
 20
9.1500024292
 30
0.0
 10
9.5620995746
 20
9.1179136556
 30
0.0
 10
9.501013398
 20
9.0872064204
 30
0.0
 10
9.4415967668
 20
9.0579929893
 30
0.0
 10
9.3839711089
 20
9.030272418
 30
0.0
 10
9.3461004885
 20
9.0124248623
 30
0.0
 10
9.3274708093
 20
9.0037272589
 30
0.0
  0
SPLINE
  5
3DE
100
AcDbEntity
  8
0
100
AcDbSpline
 62
7
  6
CONTINUOUS
 70
0
 71
3
 72
15
 73
11
 74
0
 42
0.0000001
 43
0.0000001
 44
0.0000000001
 40
0.0
 40
0.0
 40
0.0
 40
0.0
 40
0.1308537488
 40
0.2612484863
 40
0.3906118221
 40
0.5182256991
 40
0.6433659131
 40
0.7654873328
 40
0.8843458508
 40
1.0
 40
1.0
 40
1.0
 40
1.0
 10
11.8482374582
 20
8.3237421919
 30
0.0
 10
11.8498811936
 20
8.3483588214
 30
0.0
 10
11.8528693908
 20
8.3975260835
 30
0.0
 10
11.8562780548
 20
8.4710968738
 30
0.0
 10
11.8584242222
 20
8.5441052776
 30
0.0
 10
11.8591675919
 20
8.6161514513
 30
0.0
 10
11.8584522224
 20
8.6868327351
 30
0.0
 10
11.8563276959
 20
8.7558339333
 30
0.0
 10
11.8529313154
 20
8.822992555
 30
0.0
 10
11.8499042468
 20
8.8671067809
 30
0.0
 10
11.8482374582
 20
8.8888486664
 30
0.0
  0
SPLINE
  5
3DF
100
AcDbEntity
  8
0
100
AcDbSpline
 62
7
  6
CONTINUOUS
 70
0
 71
3
 72
19
 73
15
 74
0
 42
0.0000001
 43
0.0000001
 44
0.0000000001
 40
0.0
 40
0.0
 40
0.0
 40
0.0
 40
0.120953556
 40
0.2437779128
 40
0.3058580643
 40
0.3683344807
 40
0.431152153
 40
0.4942432529
 40
0.5575308052
 40
0.6209340224
 40
0.6843741804
 40
0.7477793373
 40
0.8742479802
 40
1.0
 40
1.0
 40
1.0
 40
1.0
 10
11.8212770539
 20
8.9374151669
 30
0.0
 10
11.8028231966
 20
8.9520223205
 30
0.0
 10
11.7653515189
 20
8.981113062
 30
0.0
 10
11.7175523961
 20
9.0165799309
 30
0.0
 10
11.6783758198
 20
9.0445506859
 30
0.0
 10
11.6484339039
 20
9.065356063
 30
0.0
 10
11.6180577616
 20
9.0858757236
 30
0.0
 10
11.5872780202
 20
9.1060740615
 30
0.0
 10
11.5561345219
 20
9.1259196965
 30
0.0
 10
11.5246740044
 20
9.1453881286
 30
0.0
 10
11.492946584
 20
9.1644628682
 30
0.0
 10
11.4503925984
 20
9.1893385095
 30
0.0
 10
11.3968332095
 20
9.2194027056
 30
0.0
 10
11.3535550712
 20
9.2425526514
 30
0.0
 10
11.3318804911
 20
9.2539081711
 30
0.0
  0
SPLINE
  5
3E0
100
AcDbEntity
  8
0
100
AcDbSpline
 62
7
  6
CONTINUOUS
 70
0
 71
3
 72
15
 73
11
 74
0
 42
0.0000001
 43
0.0000001
 44
0.0000000001
 40
0.0
 40
0.0
 40
0.0
 40
0.0
 40
0.1123473152
 40
0.228765499
 40
0.3494221518
 40
0.4741361587
 40
0.6023568587
 40
0.7332830648
 40
0.8660699745
 40
1.0
 40
1.0
 40
1.0
 40
1.0
 10
11.2779596824
 20
9.2576475919
 30
0.0
 10
11.2593299329
 20
9.2489499556
 30
0.0
 10
11.2214592252
 20
9.2311023547
 30
0.0
 10
11.1638334488
 20
9.2033817548
 30
0.0
 10
11.1044169495
 20
9.1741683079
 30
0.0
 10
11.043330894
 20
9.1434612594
 30
0.0
 10
10.9808389166
 20
9.1113724995
 30
0.0
 10
10.9172931221
 20
9.0781069242
 30
0.0
 10
10.8530561374
 20
9.0439129961
 30
0.0
 10
10.8101035454
 20
9.0207277313
 30
0.0
 10
10.7885631196
 20
9.0090341215
 30
0.0
  0
SPLINE
  5
3E1
100
AcDbEntity
  8
0
100
AcDbSpline
 62
7
  6
CONTINUOUS
 70
0
 71
3
 72
15
 73
11
 74
0
 42
0.0000001
 43
0.0000001
 44
0.0000000001
 40
0.0
 40
0.0
 40
0.0
 40
0.0
 40
0.1308537488
 40
0.2612484863
 40
0.3906118221
 40
0.5182256991
 40
0.6433659131
 40
0.7654873328
 40
0.8843458508
 40
1.0
 40
1.0
 40
1.0
 40
1.0
 10
10.6586022147
 20
8.8647161923
 30
0.0
 10
10.6569584793
 20
8.8400995628
 30
0.0
 10
10.6539702821
 20
8.7909323006
 30
0.0
 10
10.6505616182
 20
8.7173615104
 30
0.0
 10
10.6484154507
 20
8.6443531066
 30
0.0
 10
10.647672081
 20
8.5723069328
 30
0.0
 10
10.6483874506
 20
8.5016256491
 30
0.0
 10
10.6505119771
 20
8.4326244508
 30
0.0
 10
10.6539083575
 20
8.3654658292
 30
0.0
 10
10.6569354261
 20
8.3213516033
 30
0.0
 10
10.6586022147
 20
8.2996097177
 30
0.0
  0
SPLINE
  5
3E2
100
AcDbEntity
  8
0
100
AcDbSpline
 62
7
  6
CONTINUOUS
 70
0
 71
3
 72
19
 73
15
 74
0
 42
0.0000001
 43
0.0000001
 44
0.0000000001
 40
0.0
 40
0.0
 40
0.0
 40
0.0
 40
0.120953556
 40
0.2437779128
 40
0.3058580643
 40
0.3683344807
 40
0.431152153
 40
0.4942432529
 40
0.5575308052
 40
0.6209340224
 40
0.6843741804
 40
0.7477793373
 40
0.8742479802
 40
1.0
 40
1.0
 40
1.0
 40
1.0
 10
10.685562619
 20
8.2510432173
 30
0.0
 10
10.7040164763
 20
8.2364360637
 30
0.0
 10
10.741488154
 20
8.2073453221
 30
0.0
 10
10.7892872768
 20
8.1718784532
 30
0.0
 10
10.8284638531
 20
8.1439076983
 30
0.0
 10
10.858405769
 20
8.1231023212
 30
0.0
 10
10.8887819113
 20
8.1025826605
 30
0.0
 10
10.9195616527
 20
8.0823843227
 30
0.0
 10
10.950705151
 20
8.0625386877
 30
0.0
 10
10.9821656685
 20
8.0430702556
 30
0.0
 10
11.0138930889
 20
8.0239955159
 30
0.0
 10
11.0564470745
 20
7.9991198747
 30
0.0
 10
11.1100064634
 20
7.9690556786
 30
0.0
 10
11.1532846018
 20
7.9459057328
 30
0.0
 10
11.1749591819
 20
7.9345502131
 30
0.0
  0
SPLINE
  5
3E3
100
AcDbEntity
  8
0
100
AcDbSpline
 62
7
  6
CONTINUOUS
 70
0
 71
3
 72
15
 73
11
 74
0
 42
0.0000001
 43
0.0000001
 44
0.0000000001
 40
0.0
 40
0.0
 40
0.0
 40
0.0
 40
0.1123473152
 40
0.228765499
 40
0.3494221518
 40
0.4741361587
 40
0.6023568587
 40
0.7332830648
 40
0.8660699745
 40
1.0
 40
1.0
 40
1.0
 40
1.0
 10
11.2288799905
 20
7.9308107923
 30
0.0
 10
11.2475097401
 20
7.9395084286
 30
0.0
 10
11.2853804477
 20
7.9573560295
 30
0.0
 10
11.3430062241
 20
7.9850766294
 30
0.0
 10
11.4024227235
 20
8.0142900762
 30
0.0
 10
11.4635087789
 20
8.0449971248
 30
0.0
 10
11.5260007563
 20
8.0770858847
 30
0.0
 10
11.5895465508
 20
8.1103514599
 30
0.0
 10
11.6537835356
 20
8.1445453881
 30
0.0
 10
11.6967361275
 20
8.1677306528
 30
0.0
 10
11.7182765533
 20
8.1794242627
 30
0.0
  0
SPLINE
  5
3E4
100
AcDbEntity
  8
0
100
AcDbSpline
 62
7
  6
CONTINUOUS
 70
0
 71
3
 72
19
 73
15
 74
0
 42
0.0000001
 43
0.0000001
 44
0.0000000001
 40
0.0
 40
0.0
 40
0.0
 40
0.0
 40
0.1257520198
 40
0.2522206628
 40
0.3156258197
 40
0.3790659776
 40
0.4424691949
 40
0.5057567472
 40
0.5688478471
 40
0.6316655194
 40
0.6941419357
 40
0.7562220872
 40
0.879046444
 40
1.0
 40
1.0
 40
1.0
 40
1.0
 10
11.7182765533
 20
8.8379243174
 30
0.0
 10
11.6966019732
 20
8.8492798371
 30
0.0
 10
11.6533238349
 20
8.8724297829
 30
0.0
 10
11.599764446
 20
8.902493979
 30
0.0
 10
11.5572104604
 20
8.9273696203
 30
0.0
 10
11.5254830399
 20
8.9464443599
 30
0.0
 10
11.4940225225
 20
8.965912792
 30
0.0
 10
11.4628790241
 20
8.985758427
 30
0.0
 10
11.4320992828
 20
9.0059567649
 30
0.0
 10
11.4017231405
 20
9.0264764255
 30
0.0
 10
11.3717812245
 20
9.0472818026
 30
0.0
 10
11.3326046483
 20
9.0752525576
 30
0.0
 10
11.2848055254
 20
9.1107194265
 30
0.0
 10
11.2473338478
 20
9.139810168
 30
0.0
 10
11.2288799905
 20
9.1544173216
 30
0.0
  0
SPLINE
  5
3E5
100
AcDbEntity
  8
0
100
AcDbSpline
 62
7
  6
CONTINUOUS
 70
0
 71
3
 72
15
 73
11
 74
0
 42
0.0000001
 43
0.0000001
 44
0.0000000001
 40
0.0
 40
0.0
 40
0.0
 40
0.0
 40
0.1339300255
 40
0.2667169353
 40
0.3976431413
 40
0.5258638413
 40
0.6505778483
 40
0.771234501
 40
0.8876526848
 40
1.0
 40
1.0
 40
1.0
 40
1.0
 10
11.1749591819
 20
9.1581567424
 30
0.0
 10
11.153418756
 20
9.1464631326
 30
0.0
 10
11.1104661641
 20
9.1232778678
 30
0.0
 10
11.0462291793
 20
9.0890839396
 30
0.0
 10
10.9826833848
 20
9.0558183644
 30
0.0
 10
10.9201914074
 20
9.0237296045
 30
0.0
 10
10.859105352
 20
8.9930225559
 30
0.0
 10
10.7996888526
 20
8.9638091091
 30
0.0
 10
10.7420630762
 20
8.9360885092
 30
0.0
 10
10.7041923686
 20
8.9182409083
 30
0.0
 10
10.685562619
 20
8.909543272
 30
0.0
  0
SPLINE
  5
3E6
100
AcDbEntity
  8
0
100
AcDbSpline
 62
7
  6
CONTINUOUS
 70
0
 71
3
 72
60
 73
56
 74
0
 42
0.0000001
 43
0.0000001
 44
0.0000000001
 40
0.0
 40
0.0
 40
0.0
 40
0.0
 40
0.031184371
 40
0.0621580432
 40
0.0775734646
 40
0.0929406781
 40
0.1082617819
 40
0.1235397404
 40
0.1387779589
 40
0.1539801548
 40
0.1691504309
 40
0.1842932276
 40
0.1994132951
 40
0.2145156006
 40
0.2296053272
 40
0.2446877625
 40
0.2597683001
 40
0.2748523191
 40
0.2899451975
 40
0.3050521937
 40
0.3201784387
 40
0.335328832
 40
0.3505080379
 40
0.3657204023
 40
0.3809699397
 40
0.3962602754
 40
0.4115946071
 40
0.4269756878
 40
0.4424057885
 40
0.4578867094
 40
0.4734197236
 40
0.4890056207
 40
0.5046446352
 40
0.5203365277
 40
0.5360805209
 40
0.551875389
 40
0.5677193852
 40
0.5836103502
 40
0.5995456448
 40
0.6155222731
 40
0.6315368291
 40
0.6475856077
 40
0.6636645528
 40
0.6797693807
 40
0.6958955413
 40
0.7120383375
 40
0.7443457853
 40
0.7766603396
 40
0.8089418551
 40
0.8411513533
 40
0.8732523515
 40
0.9052121693
 40
0.9370033076
 40
0.9686039471
 40
1.0
 40
1.0
 40
1.0
 40
1.0
 10
11.1901146855
 20
9.0691699736
 30
0.0
 10
11.1726377303
 20
9.0703820046
 30
0.0
 10
11.1376608792
 20
9.0711019748
 30
0.0
 10
11.0941401258
 20
9.0676779316
 30
0.0
 10
11.0598440362
 20
9.0623571162
 30
0.0
 10
11.0344714905
 20
9.0570977053
 30
0.0
 10
11.009474221
 20
9.0505749615
 30
0.0
 10
10.9849116364
 20
9.04280567
 30
0.0
 10
10.9608433479
 20
9.0338075939
 30
0.0
 10
10.9373270267
 20
9.0236031876
 30
0.0
 10
10.914419749
 20
9.0122162605
 30
0.0
 10
10.892176466
 20
8.9996748693
 30
0.0
 10
10.8706511156
 20
8.9860087216
 30
0.0
 10
10.8498953851
 20
8.9712511325
 30
0.0
 10
10.8299595344
 20
8.9554374062
 30
0.0
 10
10.8108915371
 20
8.9386058274
 30
0.0
 10
10.792737434
 20
8.9207969416
 30
0.0
 10
10.7755410624
 20
8.9020536626
 30
0.0
 10
10.7593437477
 20
8.8824213365
 30
0.0
 10
10.7441847946
 20
8.8619471184
 30
0.0
 10
10.7301003737
 20
8.840680672
 30
0.0
 10
10.7171249116
 20
8.8186729875
 30
0.0
 10
10.7052890638
 20
8.7959775109
 30
0.0
 10
10.6946220462
 20
8.772648621
 30
0.0
 10
10.6851487001
 20
8.7487429574
 30
0.0
 10
10.6768927497
 20
8.7243178049
 30
0.0
 10
10.6698729996
 20
8.699432406
 30
0.0
 10
10.6641074407
 20
8.6741464511
 30
0.0
 10
10.6596086998
 20
8.6485211621
 30
0.0
 10
10.6563888197
 20
8.6226180843
 30
0.0
 10
10.6544541781
 20
8.5964997885
 30
0.0
 10
10.6538107194
 20
8.5702291126
 30
0.0
 10
10.6544585654
 20
8.5438693707
 30
0.0
 10
10.6563974528
 20
8.5174841007
 30
0.0
 10
10.6596213169
 20
8.4911367397
 30
0.0
 10
10.6641236297
 20
8.4648908961
 30
0.0
 10
10.6698922585
 20
8.4388095411
 30
0.0
 10
10.6769144333
 20
8.4129557351
 30
0.0
 10
10.6851721074
 20
8.3873914171
 30
0.0
 10
10.6946463579
 20
8.3621784558
 30
0.0
 10
10.7053134414
 20
8.33737719
 30
0.0
 10
10.7171484304
 20
8.3130476678
 30
0.0
 10
10.7301221566
 20
8.28924807
 30
0.0
 10
10.7442038037
 20
8.2660361444
 30
0.0
 10
10.7593594966
 20
8.2434669257
 30
0.0
 10
10.7809523408
 20
8.214301753
 30
0.0
 10
10.810438706
 20
8.1797255176
 30
0.0
 10
10.8494561474
 20
8.1416553607
 30
0.0
 10
10.8917523067
 20
8.1073476754
 30
0.0
 10
10.9369196092
 20
8.0771345755
 30
0.0
 10
10.9845253711
 20
8.051306066
 30
0.0
 10
11.0341122777
 20
8.030111129
 30
0.0
 10
11.0852062657
 20
8.0137545169
 30
0.0
 10
11.1373101511
 20
8.0023950032
 30
0.0
 10
11.1725190954
 20
7.9982125012
 30
0.0
 10
11.1901146855
 20
7.9969922429
 30
0.0
  0
SPLINE
  5
3E7
100
AcDbEntity
  8
0
100
AcDbSpline
 62
7
  6
CONTINUOUS
 70
0
 71
3
 72
60
 73
56
 74
0
 42
0.0000001
 43
0.0000001
 44
0.0000000001
 40
0.0
 40
0.0
 40
0.0
 40
0.0
 40
0.031184371
 40
0.0621580432
 40
0.0775734646
 40
0.0929406781
 40
0.1082617819
 40
0.1235397404
 40
0.1387779589
 40
0.1539801548
 40
0.1691504309
 40
0.1842932276
 40
0.1994132951
 40
0.2145156006
 40
0.2296053272
 40
0.2446877625
 40
0.2597683001
 40
0.2748523191
 40
0.2899451975
 40
0.3050521937
 40
0.3201784387
 40
0.335328832
 40
0.3505080379
 40
0.3657204023
 40
0.3809699397
 40
0.3962602754
 40
0.4115946071
 40
0.4269756878
 40
0.4424057885
 40
0.4578867094
 40
0.4734197236
 40
0.4890056207
 40
0.5046446352
 40
0.5203365277
 40
0.5360805209
 40
0.551875389
 40
0.5677193852
 40
0.5836103502
 40
0.5995456448
 40
0.6155222731
 40
0.6315368291
 40
0.6475856077
 40
0.6636645528
 40
0.6797693807
 40
0.6958955413
 40
0.7120383375
 40
0.7443457853
 40
0.7766603396
 40
0.8089418551
 40
0.8411513533
 40
0.8732523515
 40
0.9052121693
 40
0.9370033076
 40
0.9686039471
 40
1.0
 40
1.0
 40
1.0
 40
1.0
 10
11.1901146855
 20
7.9969922429
 30
0.0
 10
11.2075916408
 20
7.9957802119
 30
0.0
 10
11.2425684919
 20
7.9950602417
 30
0.0
 10
11.2860892453
 20
7.9984842848
 30
0.0
 10
11.3203853349
 20
8.0038051002
 30
0.0
 10
11.3457578806
 20
8.0090645111
 30
0.0
 10
11.37075515
 20
8.015587255
 30
0.0
 10
11.3953177347
 20
8.0233565465
 30
0.0
 10
11.4193860232
 20
8.0323546225
 30
0.0
 10
11.4429023444
 20
8.0425590289
 30
0.0
 10
11.4658096221
 20
8.053945956
 30
0.0
 10
11.4880529051
 20
8.0664873472
 30
0.0
 10
11.5095782554
 20
8.0801534949
 30
0.0
 10
11.530333986
 20
8.094911084
 30
0.0
 10
11.5502698367
 20
8.1107248103
 30
0.0
 10
11.569337834
 20
8.1275563891
 30
0.0
 10
11.587491937
 20
8.1453652749
 30
0.0
 10
11.6046883087
 20
8.1641085539
 30
0.0
 10
11.6208856234
 20
8.18374088
 30
0.0
 10
11.6360445765
 20
8.2042150981
 30
0.0
 10
11.6501289974
 20
8.2254815445
 30
0.0
 10
11.6631044595
 20
8.247489229
 30
0.0
 10
11.6749403073
 20
8.2701847056
 30
0.0
 10
11.6856073249
 20
8.2935135955
 30
0.0
 10
11.695080671
 20
8.317419259
 30
0.0
 10
11.7033366214
 20
8.3418444116
 30
0.0
 10
11.7103563715
 20
8.3667298105
 30
0.0
 10
11.7161219304
 20
8.3920157654
 30
0.0
 10
11.7206206713
 20
8.4176410544
 30
0.0
 10
11.7238405513
 20
8.4435441322
 30
0.0
 10
11.725775193
 20
8.469662428
 30
0.0
 10
11.7264186516
 20
8.4959331039
 30
0.0
 10
11.7257708056
 20
8.5222928458
 30
0.0
 10
11.7238319183
 20
8.5486781158
 30
0.0
 10
11.7206080542
 20
8.5750254767
 30
0.0
 10
11.7161057414
 20
8.6012713204
 30
0.0
 10
11.7103371126
 20
8.6273526754
 30
0.0
 10
11.7033149378
 20
8.6532064814
 30
0.0
 10
11.6950572637
 20
8.6787707994
 30
0.0
 10
11.6855830132
 20
8.7039837607
 30
0.0
 10
11.6749159297
 20
8.7287850265
 30
0.0
 10
11.6630809406
 20
8.7531145487
 30
0.0
 10
11.6501072145
 20
8.7769141465
 30
0.0
 10
11.6360255674
 20
8.8001260721
 30
0.0
 10
11.6208698745
 20
8.8226952908
 30
0.0
 10
11.5992770303
 20
8.8518604635
 30
0.0
 10
11.5697906651
 20
8.8864366989
 30
0.0
 10
11.5307732237
 20
8.9245068557
 30
0.0
 10
11.4884770644
 20
8.9588145411
 30
0.0
 10
11.4433097619
 20
8.989027641
 30
0.0
 10
11.395704
 20
9.0148561505
 30
0.0
 10
11.3461170934
 20
9.0360510875
 30
0.0
 10
11.2950231054
 20
9.0524076996
 30
0.0
 10
11.24291922
 20
9.0637672133
 30
0.0
 10
11.2077102757
 20
9.0679497153
 30
0.0
 10
11.1901146855
 20
9.0691699736
 30
0.0
  0
SPLINE
  5
3E8
100
AcDbEntity
  8
0
100
AcDbSpline
 62
7
  6
CONTINUOUS
 70
0
 71
3
 72
15
 73
11
 74
0
 42
0.0000001
 43
0.0000001
 44
0.0000000001
 40
0.0
 40
0.0
 40
0.0
 40
0.0
 40
0.1156541492
 40
0.2345126673
 40
0.3566340869
 40
0.481774301
 40
0.609388178
 40
0.7387515137
 40
0.8691462512
 40
1.0
 40
1.0
 40
1.0
 40
1.0
 10
11.7452369577
 20
8.2242513424
 30
0.0
 10
11.7435701691
 20
8.2459932279
 30
0.0
 10
11.7405431005
 20
8.2901074538
 30
0.0
 10
11.73714672
 20
8.3572660755
 30
0.0
 10
11.7350221935
 20
8.4262672737
 30
0.0
 10
11.7343068239
 20
8.4969485575
 30
0.0
 10
11.7350501937
 20
8.5689947312
 30
0.0
 10
11.7371963611
 20
8.642003135
 30
0.0
 10
11.7406050251
 20
8.7155739253
 30
0.0
 10
11.7435932222
 20
8.7647411874
 30
0.0
 10
11.7452369577
 20
8.7893578169
 30
0.0
  0
SPLINE
  5
3E9
100
AcDbEntity
  8
0
100
AcDbSpline
 62
7
  6
CONTINUOUS
 70
0
 71
3
 72
36
 73
32
 74
0
 42
0.0000001
 43
0.0000001
 44
0.0000000001
 40
0.0
 40
0.0
 40
0.0
 40
0.0
 40
0.0958325634
 40
0.1891023555
 40
0.2792432641
 40
0.3657124907
 40
0.4480017797
 40
0.4874318797
 40
0.5256445484
 40
0.5625883581
 40
0.5982156304
 40
0.6324821329
 40
0.6653482299
 40
0.6967786463
 40
0.7267435444
 40
0.7552190339
 40
0.7821878748
 40
0.8076411027
 40
0.8315786922
 40
0.8540122486
 40
0.8749666358
 40
0.8944835825
 40
0.9126254693
 40
0.9294800532
 40
0.9451666526
 40
0.9598414247
 40
0.9737025134
 40
0.9804060178
 40
0.9869995332
 40
0.9935185676
 40
1.0
 40
1.0
 40
1.0
 40
1.0
 10
9.7660584637
 20
10.3819927567
 30
0.0
 10
9.7607711299
 20
10.3823594345
 30
0.0
 10
9.7503454794
 20
10.3831992715
 30
0.0
 10
9.7349838719
 20
10.3848024137
 30
0.0
 10
9.7201805479
 20
10.3867235646
 30
0.0
 10
9.7060343621
 20
10.3889497294
 30
0.0
 10
9.6947162536
 20
10.3910754201
 30
0.0
 10
9.6860664879
 20
10.3929256654
 30
0.0
 10
9.6798933451
 20
10.3943599819
 30
0.0
 10
9.6739520628
 20
10.3958582697
 30
0.0
 10
9.6682525298
 20
10.3974179913
 30
0.0
 10
9.6628042419
 20
10.3990365689
 30
0.0
 10
9.6576162497
 20
10.4007112371
 30
0.0
 10
9.6526971661
 20
10.4024392203
 30
0.0
 10
9.6480551309
 20
10.4042176121
 30
0.0
 10
9.6436977964
 20
10.4060434323
 30
0.0
 10
9.6396323278
 20
10.40791369
 30
0.0
 10
9.6358653409
 20
10.409825251
 30
0.0
 10
9.6324029574
 20
10.4117750821
 30
0.0
 10
9.6292507042
 20
10.4137600276
 30
0.0
 10
9.626413599
 20
10.4157770857
 30
0.0
 10
9.6238961095
 20
10.417823302
 30
0.0
 10
9.6217022082
 20
10.4198959023
 30
0.0
 10
9.6198355905
 20
10.4219923699
 30
0.0
 10
9.6182996747
 20
10.4241104577
 30
0.0
 10
9.6170982772
 20
10.4262475845
 30
0.0
 10
9.6163710557
 20
10.4280631869
 30
0.0
 10
9.6159687401
 20
10.4295115327
 30
0.0
 10
9.6157553209
 20
10.4305876126
 30
0.0
 10
9.6156272022
 20
10.4316647099
 30
0.0
 10
9.6155987005
 20
10.4323840251
 30
0.0
 10
9.6155986974
 20
10.4327424816
 30
0.0
  0
SPLINE
  5
3EA
100
AcDbEntity
  8
0
100
AcDbSpline
 62
7
  6
CONTINUOUS
 70
0
 71
3
 72
36
 73
32
 74
0
 42
0.0000001
 43
0.0000001
 44
0.0000000001
 40
0.0
 40
0.0
 40
0.0
 40
0.0
 40
0.0958325634
 40
0.1891023555
 40
0.2792432641
 40
0.3657124907
 40
0.4480017797
 40
0.4874318797
 40
0.5256445484
 40
0.5625883581
 40
0.5982156304
 40
0.6324821329
 40
0.6653482299
 40
0.6967786463
 40
0.7267435444
 40
0.7552190339
 40
0.7821878748
 40
0.8076411027
 40
0.8315786922
 40
0.8540122486
 40
0.8749666358
 40
0.8944835825
 40
0.9126254693
 40
0.9294800532
 40
0.9451666526
 40
0.9598414247
 40
0.9737025134
 40
0.9804060178
 40
0.9869995332
 40
0.9935185676
 40
1.0
 40
1.0
 40
1.0
 40
1.0
 10
12.9053175852
 20
10.1642843971
 30
0.0
 10
12.9000302513
 20
10.164651075
 30
0.0
 10
12.8896046008
 20
10.165490912
 30
0.0
 10
12.8742429934
 20
10.1670940542
 30
0.0
 10
12.8594396693
 20
10.1690152051
 30
0.0
 10
12.8452934836
 20
10.1712413699
 30
0.0
 10
12.8339753751
 20
10.1733670606
 30
0.0
 10
12.8253256094
 20
10.1752173059
 30
0.0
 10
12.8191524665
 20
10.1766516224
 30
0.0
 10
12.8132111843
 20
10.1781499102
 30
0.0
 10
12.8075116513
 20
10.1797096318
 30
0.0
 10
12.8020633633
 20
10.1813282094
 30
0.0
 10
12.7968753712
 20
10.1830028776
 30
0.0
 10
12.7919562876
 20
10.1847308607
 30
0.0
 10
12.7873142523
 20
10.1865092526
 30
0.0
 10
12.7829569179
 20
10.1883350728
 30
0.0
 10
12.7788914493
 20
10.1902053305
 30
0.0
 10
12.7751244623
 20
10.1921168915
 30
0.0
 10
12.7716620789
 20
10.1940667226
 30
0.0
 10
12.7685098256
 20
10.1960516681
 30
0.0
 10
12.7656727204
 20
10.1980687262
 30
0.0
 10
12.763155231
 20
10.2001149425
 30
0.0
 10
12.7609613296
 20
10.2021875428
 30
0.0
 10
12.7590947119
 20
10.2042840103
 30
0.0
 10
12.7575587962
 20
10.2064020982
 30
0.0
 10
12.7563573987
 20
10.208539225
 30
0.0
 10
12.7556301771
 20
10.2103548274
 30
0.0
 10
12.7552278616
 20
10.2118031732
 30
0.0
 10
12.7550144423
 20
10.2128792531
 30
0.0
 10
12.7548863237
 20
10.2139563504
 30
0.0
 10
12.754857822
 20
10.2146756656
 30
0.0
 10
12.7548578189
 20
10.2150341221
 30
0.0
  0
SPLINE
  5
3EB
100
AcDbEntity
  8
0
100
AcDbSpline
 62
7
  6
CONTINUOUS
 70
0
 71
3
 72
39
 73
35
 74
0
 42
0.0000001
 43
0.0000001
 44
0.0000000001
 40
0.0
 40
0.0
 40
0.0
 40
0.0
 40
0.0958316692
 40
0.1891006713
 40
0.2792405779
 40
0.3229673496
 40
0.365711151
 40
0.4074094009
 40
0.44800203
 40
0.4874317177
 40
0.5256439125
 40
0.5625873001
 40
0.5982141024
 40
0.6324802019
 40
0.6653458058
 40
0.6967758253
 40
0.7267402733
 40
0.755215278
 40
0.7821837659
 40
0.8076364736
 40
0.8315736893
 40
0.8540068195
 40
0.8749607761
 40
0.8944773435
 40
0.9126188304
 40
0.9294730678
 40
0.9451592994
 40
0.9598338091
 40
0.9668558277
 40
0.9737028614
 40
0.9804062769
 40
0.9869996865
 40
0.993518631
 40
1.0
 40
1.0
 40
1.0
 40
1.0
 10
10.8930853231
 20
9.6736172402
 30
0.0
 10
10.8843338191
 20
9.6742241591
 30
0.0
 10
10.8670774348
 20
9.6756142412
 30
0.0
 10
10.8416512609
 20
9.678267761
 30
0.0
 10
10.8210293276
 20
9.6809439384
 30
0.0
 10
10.8050422734
 20
9.683352969
 30
0.0
 10
10.7934660636
 20
9.6852654364
 30
0.0
 10
10.782201851
 20
9.6872986095
 30
0.0
 10
10.7712684356
 20
9.6894491005
 30
0.0
 10
10.7606840732
 20
9.691713264
 30
0.0
 10
10.7504664308
 20
9.6940873145
 30
0.0
 10
10.7406325505
 20
9.696567258
 30
0.0
 10
10.7311988167
 20
9.6991489031
 30
0.0
 10
10.7221809402
 20
9.7018279363
 30
0.0
 10
10.7135939104
 20
9.7045998478
 30
0.0
 10
10.7054519704
 20
9.7074599689
 30
0.0
 10
10.6977686052
 20
9.7104035427
 30
0.0
 10
10.6905564819
 20
9.7134256384
 30
0.0
 10
10.6838274359
 20
9.7165212293
 30
0.0
 10
10.6775924629
 20
9.71968526
 30
0.0
 10
10.6718616443
 20
9.7229125688
 30
0.0
 10
10.6666441623
 20
9.7261980327
 30
0.0
 10
10.6619483197
 20
9.7295366434
 30
0.0
 10
10.6577814845
 20
9.7329235137
 30
0.0
 10
10.6541502866
 20
9.7363540239
 30
0.0
 10
10.6510607261
 20
9.739824192
 30
0.0
 10
10.6485187717
 20
9.7433295721
 30
0.0
 10
10.6468374088
 20
9.7463211993
 30
0.0
 10
10.6457893262
 20
9.7487166166
 30
0.0
 10
10.6451547713
 20
9.7504914253
 30
0.0
 10
10.6446607347
 20
9.7522697245
 30
0.0
 10
10.6443075918
 20
9.7540507992
 30
0.0
 10
10.6440956168
 20
9.7558336058
 30
0.0
 10
10.6440484503
 20
9.757024198
 30
0.0
 10
10.6440484547
 20
9.7576175088
 30
0.0
  0
SPLINE
  5
3EC
100
AcDbEntity
  8
0
100
AcDbSpline
 62
7
  6
CONTINUOUS
 70
0
 71
3
 72
53
 73
49
 74
0
 42
0.0000001
 43
0.0000001
 44
0.0000000001
 40
0.0
 40
0.0
 40
0.0
 40
0.0
 40
0.0417740747
 40
0.0840370059
 40
0.1266586015
 40
0.1695066206
 40
0.2124482643
 40
0.2553502464
 40
0.2980794728
 40
0.3405035203
 40
0.3824911749
 40
0.4239129577
 40
0.4646416591
 40
0.5045528794
 40
0.5435255803
 40
0.5814426526
 40
0.6181915072
 40
0.6536646981
 40
0.6877605949
 40
0.7203841254
 40
0.7361164043
 40
0.7514483531
 40
0.7663703757
 40
0.7808733967
 40
0.7949490545
 40
0.8085896209
 40
0.8217881625
 40
0.8345385373
 40
0.8468355031
 40
0.8586748197
 40
0.8700533035
 40
0.880969049
 40
0.8914214554
 40
0.9014115674
 40
0.9109421276
 40
0.9200180273
 40
0.9286464653
 40
0.9368374971
 40
0.9446043876
 40
0.9519642556
 40
0.9589386637
 40
0.9655543233
 40
0.9718438245
 40
0.977846199
 40
0.9836073748
 40
0.9891800477
 40
0.9946230782
 40
1.0
 40
1.0
 40
1.0
 40
1.0
 10
12.920334329
 20
9.0793450461
 30
0.0
 10
12.920334329
 20
9.091835173
 30
0.0
 10
12.9205291877
 20
9.1169619838
 30
0.0
 10
12.9213906277
 20
9.154823447
 30
0.0
 10
12.9228204015
 20
9.192989098
 30
0.0
 10
12.9248138279
 20
9.2313326212
 30
0.0
 10
12.9273643156
 20
9.2697271396
 30
0.0
 10
12.9304634359
 20
9.3080456401
 30
0.0
 10
12.9341009218
 20
9.3461613465
 30
0.0
 10
12.9382647152
 20
9.3839481636
 30
0.0
 10
12.9429410016
 20
9.4212810898
 30
0.0
 10
12.9481142567
 20
9.4580366365
 30
0.0
 10
12.9537672963
 20
9.4940932394
 30
0.0
 10
12.9598813327
 20
9.529331666
 30
0.0
 10
12.9664360353
 20
9.5636354148
 30
0.0
 10
12.9734095958
 20
9.5968911157
 30
0.0
 10
12.9807788009
 20
9.6289888904
 30
0.0
 10
12.9885191004
 20
9.6598228166
 30
0.0
 10
12.9966047185
 20
9.6892909914
 30
0.0
 10
13.0036909984
 20
9.712905956
 30
0.0
 10
13.0095240063
 20
9.7310332416
 30
0.0
 10
13.0139152446
 20
9.7440631926
 30
0.0
 10
13.0183722017
 20
9.7566816898
 30
0.0
 10
13.0228912661
 20
9.7688783225
 30
0.0
 10
13.0274686362
 20
9.7806430339
 30
0.0
 10
13.0321005601
 20
9.7919661192
 30
0.0
 10
13.0367831751
 20
9.802838257
 30
0.0
 10
13.0415126188
 20
9.8132504992
 30
0.0
 10
13.0462849861
 20
9.8231942881
 30
0.0
 10
13.051096319
 20
9.8326614718
 30
0.0
 10
13.0559426935
 20
9.8416442866
 30
0.0
 10
13.0608200809
 20
9.8501354132
 30
0.0
 10
13.0657245617
 20
9.8581279107
 30
0.0
 10
13.0706520804
 20
9.8656153234
 30
0.0
 10
13.0755987491
 20
9.8725915597
 30
0.0
 10
13.0805605547
 20
9.8790510414
 30
0.0
 10
13.0855336816
 20
9.8849885422
 30
0.0
 10
13.0905142554
 20
9.8903993374
 30
0.0
 10
13.0954985984
 20
9.8952790383
 30
0.0
 10
13.1004830803
 20
9.8996236694
 30
0.0
 10
13.1054642247
 20
9.903429546
 30
0.0
 10
13.1104386765
 20
9.9066931877
 30
0.0
 10
13.1154030724
 20
9.9094113152
 30
0.0
 10
13.120354053
 20
9.911580567
 30
0.0
 10
13.1252877699
 20
9.9131977969
 30
0.0
 10
13.1302001857
 20
9.9142597543
 30
0.0
 10
13.1350853141
 20
9.9147640166
 30
0.0
 10
13.1383286297
 20
9.9147269395
 30
0.0
 10
13.1399324356
 20
9.914615712
 30
0.0
  0
SPLINE
  5
3ED
100
AcDbEntity
  8
0
100
AcDbSpline
 62
7
  6
CONTINUOUS
 70
0
 71
3
 72
53
 73
49
 74
0
 42
0.0000001
 43
0.0000001
 44
0.0000000001
 40
0.0
 40
0.0
 40
0.0
 40
0.0
 40
0.0417740747
 40
0.0840370059
 40
0.1266586015
 40
0.1695066206
 40
0.2124482643
 40
0.2553502464
 40
0.2980794728
 40
0.3405035203
 40
0.3824911749
 40
0.4239129577
 40
0.4646416591
 40
0.5045528794
 40
0.5435255803
 40
0.5814426526
 40
0.6181915072
 40
0.6536646981
 40
0.6877605949
 40
0.7203841254
 40
0.7361164043
 40
0.7514483531
 40
0.7663703757
 40
0.7808733967
 40
0.7949490545
 40
0.8085896209
 40
0.8217881625
 40
0.8345385373
 40
0.8468355031
 40
0.8586748197
 40
0.8700533035
 40
0.880969049
 40
0.8914214554
 40
0.9014115674
 40
0.9109421276
 40
0.9200180273
 40
0.9286464653
 40
0.9368374971
 40
0.9446043876
 40
0.9519642556
 40
0.9589386637
 40
0.9655543233
 40
0.9718438245
 40
0.977846199
 40
0.9836073748
 40
0.9891800477
 40
0.9946230782
 40
1.0
 40
1.0
 40
1.0
 40
1.0
 10
12.920334329
 20
7.6304562208
 30
0.0
 10
12.920334329
 20
7.6429463477
 30
0.0
 10
12.9205291877
 20
7.6680731586
 30
0.0
 10
12.9213906277
 20
7.7059346217
 30
0.0
 10
12.9228204015
 20
7.7441002728
 30
0.0
 10
12.9248138279
 20
7.782443796
 30
0.0
 10
12.9273643156
 20
7.8208383144
 30
0.0
 10
12.9304634359
 20
7.8591568148
 30
0.0
 10
12.9341009218
 20
7.8972725212
 30
0.0
 10
12.9382647152
 20
7.9350593383
 30
0.0
 10
12.9429410016
 20
7.9723922646
 30
0.0
 10
12.9481142567
 20
8.0091478113
 30
0.0
 10
12.9537672963
 20
8.0452044141
 30
0.0
 10
12.9598813327
 20
8.0804428407
 30
0.0
 10
12.9664360353
 20
8.1147465896
 30
0.0
 10
12.9734095958
 20
8.1480022904
 30
0.0
 10
12.9807788009
 20
8.1801000651
 30
0.0
 10
12.9885191004
 20
8.2109339913
 30
0.0
 10
12.9966047185
 20
8.2404021661
 30
0.0
 10
13.0036909984
 20
8.2640171307
 30
0.0
 10
13.0095240063
 20
8.2821444163
 30
0.0
 10
13.0139152446
 20
8.2951743673
 30
0.0
 10
13.0183722017
 20
8.3077928645
 30
0.0
 10
13.0228912661
 20
8.3199894973
 30
0.0
 10
13.0274686362
 20
8.3317542086
 30
0.0
 10
13.0321005601
 20
8.3430772939
 30
0.0
 10
13.0367831751
 20
8.3539494317
 30
0.0
 10
13.0415126188
 20
8.3643616739
 30
0.0
 10
13.0462849861
 20
8.3743054628
 30
0.0
 10
13.051096319
 20
8.3837726465
 30
0.0
 10
13.0559426935
 20
8.3927554613
 30
0.0
 10
13.0608200809
 20
8.4012465879
 30
0.0
 10
13.0657245617
 20
8.4092390854
 30
0.0
 10
13.0706520804
 20
8.4167264981
 30
0.0
 10
13.0755987491
 20
8.4237027344
 30
0.0
 10
13.0805605547
 20
8.4301622162
 30
0.0
 10
13.0855336816
 20
8.4360997169
 30
0.0
 10
13.0905142554
 20
8.4415105121
 30
0.0
 10
13.0954985984
 20
8.446390213
 30
0.0
 10
13.1004830803
 20
8.4507348441
 30
0.0
 10
13.1054642247
 20
8.4545407207
 30
0.0
 10
13.1104386765
 20
8.4578043624
 30
0.0
 10
13.1154030724
 20
8.4605224899
 30
0.0
 10
13.120354053
 20
8.4626917417
 30
0.0
 10
13.1252877699
 20
8.4643089717
 30
0.0
 10
13.1302001857
 20
8.465370929
 30
0.0
 10
13.1350853141
 20
8.4658751913
 30
0.0
 10
13.1383286297
 20
8.4658381143
 30
0.0
 10
13.1399324356
 20
8.4657268867
 30
0.0
  0
SPLINE
  5
3EE
100
AcDbEntity
  8
0
100
AcDbSpline
 62
7
  6
CONTINUOUS
 70
0
 71
3
 72
50
 73
46
 74
0
 42
0.0000001
 43
0.0000001
 44
0.0000000001
 40
0.0
 40
0.0
 40
0.0
 40
0.0
 40
0.0417744418
 40
0.0840381875
 40
0.1266602114
 40
0.1695088334
 40
0.2124510193
 40
0.2553535638
 40
0.2980833443
 40
0.3405079442
 40
0.3824961454
 40
0.4239184685
 40
0.4646477027
 40
0.5045594474
 40
0.5435326636
 40
0.5814502412
 40
0.6181995892
 40
0.6536732601
 40
0.6877696215
 40
0.7203935994
 40
0.7514575214
 40
0.7808821092
 40
0.7949579392
 40
0.8085987194
 40
0.821797426
 40
0.8345479988
 40
0.8468451249
 40
0.8586846215
 40
0.8700632619
 40
0.8809791687
 40
0.8914317275
 40
0.9014219834
 40
0.9109526898
 40
0.9200287185
 40
0.9286572935
 40
0.9368484417
 40
0.9446154576
 40
0.9519754311
 40
0.9589499519
 40
0.9655657069
 40
0.9778458861
 40
0.9836071497
 40
0.9891799
 40
0.9946230074
 40
1.0
 40
1.0
 40
1.0
 40
1.0
 10
12.5660113487
 20
8.0126508956
 30
0.0
 10
12.5660113487
 20
8.0203650732
 30
0.0
 10
12.5661317013
 20
8.0358840269
 30
0.0
 10
12.5666637394
 20
8.0592681927
 30
0.0
 10
12.5675468101
 20
8.0828402728
 30
0.0
 10
12.5687779934
 20
8.1065221598
 30
0.0
 10
12.570353239
 20
8.1302355665
 30
0.0
 10
12.5722673298
 20
8.1539020141
 30
0.0
 10
12.57451393
 20
8.1774432141
 30
0.0
 10
12.57708559
 20
8.2007812833
 30
0.0
 10
12.5799737783
 20
8.2238390191
 30
0.0
 10
12.5831689064
 20
8.2465401515
 30
0.0
 10
12.5866603609
 20
8.2688095999
 30
0.0
 10
12.5904365381
 20
8.2905737237
 30
0.0
 10
12.594484881
 20
8.31176057
 30
0.0
 10
12.5987919206
 20
8.3323001162
 30
0.0
 10
12.6033433193
 20
8.3521245072
 30
0.0
 10
12.6081239172
 20
8.3711682938
 30
0.0
 10
12.613117785
 20
8.389368638
 30
0.0
 10
12.618308268
 20
8.4066656192
 30
0.0
 10
12.6236780785
 20
8.4230021654
 30
0.0
 10
12.6283539153
 20
8.4359557302
 30
0.0
 10
12.6321800934
 20
8.4457899033
 30
0.0
 10
12.6350408805
 20
8.4527833363
 30
0.0
 10
12.6379329922
 20
8.4594982402
 30
0.0
 10
12.6408539967
 20
8.465929111
 30
0.0
 10
12.6438015408
 20
8.4720706458
 30
0.0
 10
12.6467731275
 20
8.4779178246
 30
0.0
 10
12.6497663737
 20
8.4834658405
 30
0.0
 10
12.6527787646
 20
8.488710181
 30
0.0
 10
12.6558078918
 20
8.4936465559
 30
0.0
 10
12.6588512516
 20
8.4982709759
 30
0.0
 10
12.6619064298
 20
8.5025796869
 30
0.0
 10
12.6649709698
 20
8.5065692291
 30
0.0
 10
12.6680424892
 20
8.5102363965
 30
0.0
 10
12.6711186128
 20
8.5135782371
 30
0.0
 10
12.6741970944
 20
8.5165921019
 30
0.0
 10
12.6772755093
 20
8.5192753917
 30
0.0
 10
12.6803524384
 20
8.5216262458
 30
0.0
 10
12.6843485405
 20
8.5242483503
 30
0.0
 10
12.6884455986
 20
8.5262989762
 30
0.0
 10
12.6925954898
 20
8.5276591918
 30
0.0
 10
12.6956296549
 20
8.5283151508
 30
0.0
 10
12.6986467945
 20
8.5286266095
 30
0.0
 10
12.7006499557
 20
8.5286037166
 30
0.0
 10
12.7016405061
 20
8.5285350225
 30
0.0
  0
SPLINE
  5
3EF
100
AcDbEntity
  8
0
100
AcDbSpline
 62
7
  6
CONTINUOUS
 70
0
 71
3
 72
13
 73
9
 74
0
 42
0.0000001
 43
0.0000001
 44
0.0000000001
 40
0.0
 40
0.0
 40
0.0
 40
0.0
 40
0.2519031819
 40
0.5024835328
 40
0.627316677
 40
0.7518395577
 40
0.8760632036
 40
1.0
 40
1.0
 40
1.0
 40
1.0
 10
10.5234080064
 20
8.7550918882
 30
0.0
 10
10.5234080064
 20
8.7418545447
 30
0.0
 10
10.5224020492
 20
8.7154386843
 30
0.0
 10
10.5186069711
 20
8.6826580108
 30
0.0
 10
10.5140628783
 20
8.6567768701
 30
0.0
 10
10.5099121499
 20
8.6375838962
 30
0.0
 10
10.505020929
 20
8.6186153305
 30
0.0
 10
10.5012666961
 20
8.6061225123
 30
0.0
 10
10.4992686348
 20
8.5999237819
 30
0.0
  0
SPLINE
  5
3F0
100
AcDbEntity
  8
0
100
AcDbSpline
 62
7
  6
CONTINUOUS
 70
0
 71
3
 72
13
 73
9
 74
0
 42
0.0000001
 43
0.0000001
 44
0.0000000001
 40
0.0
 40
0.0
 40
0.0
 40
0.0
 40
0.2519031819
 40
0.5024835328
 40
0.627316677
 40
0.7518395577
 40
0.8760632036
 40
1.0
 40
1.0
 40
1.0
 40
1.0
 10
10.5234080064
 20
7.306203063
 30
0.0
 10
10.5234080064
 20
7.2929657194
 30
0.0
 10
10.5224020492
 20
7.266549859
 30
0.0
 10
10.5186069711
 20
7.2337691856
 30
0.0
 10
10.5140628783
 20
7.2078880448
 30
0.0
 10
10.5099121499
 20
7.1886950709
 30
0.0
 10
10.505020929
 20
7.1697265052
 30
0.0
 10
10.5012666961
 20
7.157233687
 30
0.0
 10
10.4992686348
 20
7.1510349566
 30
0.0
  0
SPLINE
  5
3F1
100
AcDbEntity
  8
0
100
AcDbSpline
 62
7
  6
CONTINUOUS
 70
0
 71
3
 72
13
 73
9
 74
0
 42
0.0000001
 43
0.0000001
 44
0.0000000001
 40
0.0
 40
0.0
 40
0.0
 40
0.0
 40
0.2519026687
 40
0.5024828895
 40
0.6273160874
 40
0.7518390994
 40
0.8760629453
 40
1.0
 40
1.0
 40
1.0
 40
1.0
 10
11.8814998161
 20
8.6609079013
 30
0.0
 10
11.8814998161
 20
8.6476744605
 30
0.0
 10
11.8804944518
 20
8.6212663747
 30
0.0
 10
11.876701615
 20
8.5884952205
 30
0.0
 10
11.8721601981
 20
8.5626214219
 30
0.0
 10
11.868011907
 20
8.5434337859
 30
0.0
 10
11.8631235493
 20
8.5244703761
 30
0.0
 10
11.8593715079
 20
8.5119808649
 30
0.0
 10
11.85737461
 20
8.5057837487
 30
0.0
  0
SPLINE
  5
3F2
100
AcDbEntity
  8
0
100
AcDbSpline
 62
7
  6
CONTINUOUS
 70
0
 71
3
 72
13
 73
9
 74
0
 42
0.0000001
 43
0.0000001
 44
0.0000000001
 40
0.0
 40
0.0
 40
0.0
 40
0.0
 40
0.2519026687
 40
0.5024828895
 40
0.6273160874
 40
0.7518390994
 40
0.8760629453
 40
1.0
 40
1.0
 40
1.0
 40
1.0
 10
11.8814998161
 20
7.2120190761
 30
0.0
 10
11.8814998161
 20
7.1987856353
 30
0.0
 10
11.8804944518
 20
7.1723775494
 30
0.0
 10
11.876701615
 20
7.1396063952
 30
0.0
 10
11.8721601981
 20
7.1137325966
 30
0.0
 10
11.868011907
 20
7.0945449606
 30
0.0
 10
11.8631235493
 20
7.0755815508
 30
0.0
 10
11.8593715079
 20
7.0630920396
 30
0.0
 10
11.85737461
 20
7.0568949234
 30
0.0
  0
SPLINE
  5
3F3
100
AcDbEntity
  8
0
100
AcDbSpline
 62
7
  6
CONTINUOUS
 70
0
 71
3
 72
50
 73
46
 74
0
 42
0.0000001
 43
0.0000001
 44
0.0000000001
 40
0.0
 40
0.0
 40
0.0
 40
0.0
 40
0.0407256026
 40
0.0819150817
 40
0.1234499751
 40
0.1652115958
 40
0.2070797986
 40
0.24893432
 40
0.2906548464
 40
0.3321215867
 40
0.3732156677
 40
0.4138195895
 40
0.4538176663
 40
0.4930964772
 40
0.5315453235
 40
0.5690566965
 40
0.6055267615
 40
0.6408558643
 40
0.6749490701
 40
0.7077167477
 40
0.7390752181
 40
0.7689474975
 40
0.7972641734
 40
0.8108202733
 40
0.8239654444
 40
0.8366937295
 40
0.8489997772
 40
0.8608791729
 40
0.8723282431
 40
0.8833444249
 40
0.8939261162
 40
0.904073044
 40
0.9137862258
 40
0.9230683144
 40
0.9319237263
 40
0.9403589669
 40
0.9483829695
 40
0.9560074292
 40
0.9632473717
 40
0.9701215302
 40
0.9766531019
 40
0.9828701437
 40
0.9888063182
 40
0.9945010926
 40
1.0
 40
1.0
 40
1.0
 40
1.0
 10
12.9404120098
 20
9.1307385984
 30
0.0
 10
12.9404120098
 20
9.1392199895
 30
0.0
 10
12.9405393156
 20
9.1562796249
 30
0.0
 10
12.9411024697
 20
9.1819836045
 30
0.0
 10
12.9420374097
 20
9.2078926851
 30
0.0
 10
12.9433412637
 20
9.233927319
 30
0.0
 10
12.9450100654
 20
9.2600078088
 30
0.0
 10
12.9470386932
 20
9.2860541954
 30
0.0
 10
12.9494209306
 20
9.3119866736
 30
0.0
 10
12.9521494627
 20
9.337725772
 30
0.0
 10
12.9552159084
 20
9.3631926213
 30
0.0
 10
12.958610842
 20
9.38830919
 30
0.0
 10
12.962323823
 20
9.4129985282
 30
0.0
 10
12.9663434273
 20
9.4371850043
 30
0.0
 10
12.9706572813
 20
9.460794541
 30
0.0
 10
12.9752520995
 20
9.4837548448
 30
0.0
 10
12.9801137239
 20
9.5059956339
 30
0.0
 10
12.9852271675
 20
9.5274488571
 30
0.0
 10
12.9905766586
 20
9.5480489191
 30
0.0
 10
12.9961456912
 20
9.5677328678
 30
0.0
 10
13.0019170729
 20
9.586440688
 30
0.0
 10
13.0078729971
 20
9.6041152099
 30
0.0
 10
13.0130471205
 20
9.6181348453
 30
0.0
 10
13.0172745592
 20
9.6287848289
 30
0.0
 10
13.0204337057
 20
9.6363647562
 30
0.0
 10
13.0236250729
 20
9.6436478364
 30
0.0
 10
13.0268463136
 20
9.6506285095
 30
0.0
 10
13.0300948817
 20
9.6573014789
 30
0.0
 10
13.0333683713
 20
9.6636616521
 30
0.0
 10
13.0366642149
 20
9.6697042259
 30
0.0
 10
13.0399799727
 20
9.6754246041
 30
0.0
 10
13.0433130797
 20
9.6808184886
 30
0.0
 10
13.046661071
 20
9.6858818025
 30
0.0
 10
13.0500214182
 20
9.6906107599
 30
0.0
 10
13.0533916504
 20
9.6950018218
 30
0.0
 10
13.0567693176
 20
9.6990517099
 30
0.0
 10
13.0601519794
 20
9.7027574271
 30
0.0
 10
13.063537312
 20
9.7061161711
 30
0.0
 10
13.0669229577
 20
9.7091254519
 30
0.0
 10
13.0703067521
 20
9.7117828557
 30
0.0
 10
13.0736864619
 20
9.7140862877
 30
0.0
 10
13.0770599976
 20
9.7160335507
 30
0.0
 10
13.0804252673
 20
9.7176227669
 30
0.0
 10
13.0837795426
 20
9.7188517214
 30
0.0
 10
13.0860405205
 20
9.7194383413
 30
0.0
 10
13.08716257
 20
9.7196673733
 30
0.0
  0
SPLINE
  5
3F4
100
AcDbEntity
  8
0
100
AcDbSpline
 62
7
  6
CONTINUOUS
 70
0
 71
3
 72
37
 73
33
 74
0
 42
0.0000001
 43
0.0000001
 44
0.0000000001
 40
0.0
 40
0.0
 40
0.0
 40
0.0
 40
0.0933722333
 40
0.1843538351
 40
0.2724531136
 40
0.3152739684
 40
0.3571991751
 40
0.3981737897
 40
0.4381448545
 40
0.477061548
 40
0.5148751839
 40
0.5515395866
 40
0.5870112643
 40
0.621249488
 40
0.6542167932
 40
0.6858791704
 40
0.7162063301
 40
0.7451724053
 40
0.7727562859
 40
0.7989422655
 40
0.8237211244
 40
0.8470909383
 40
0.8690585177
 40
0.889641357
 40
0.9088696513
 40
0.9267893793
 40
0.9434660809
 40
0.9589891094
 40
0.9734768514
 40
0.9870815546
 40
0.9936140923
 40
1.0
 40
1.0
 40
1.0
 40
1.0
 10
12.9404120098
 20
9.1307385984
 30
0.0
 10
12.9404120098
 20
9.1191615238
 30
0.0
 10
12.9406445989
 20
9.096302964
 30
0.0
 10
12.9417150677
 20
9.0625363681
 30
0.0
 10
12.943213237
 20
9.0350610754
 30
0.0
 10
12.9447766005
 20
9.013686875
 30
0.0
 10
12.9461122168
 20
8.9981558344
 30
0.0
 10
12.9476199616
 20
8.9829955903
 30
0.0
 10
12.9492976132
 20
8.968228526
 30
0.0
 10
12.9511426377
 20
8.9538764611
 30
0.0
 10
12.9531523085
 20
8.939960592
 30
0.0
 10
12.9553236203
 20
8.9265014617
 30
0.0
 10
12.9576533134
 20
8.9135189261
 30
0.0
 10
12.9601379423
 20
8.9010321298
 30
0.0
 10
12.962773785
 20
8.8890594633
 30
0.0
 10
12.9655568985
 20
8.8776185376
 30
0.0
 10
12.9684831733
 20
8.8667261628
 30
0.0
 10
12.9715482329
 20
8.8563982955
 30
0.0
 10
12.9747475303
 20
8.8466500236
 30
0.0
 10
12.9780763829
 20
8.8374955439
 30
0.0
 10
12.981529881
 20
8.828948096
 30
0.0
 10
12.9851030377
 20
8.8210199646
 30
0.0
 10
12.9887908114
 20
8.8137224559
 30
0.0
 10
12.9925880719
 20
8.8070658293
 30
0.0
 10
12.9964898244
 20
8.8010593691
 30
0.0
 10
13.0004912889
 20
8.7957114036
 30
0.0
 10
13.0045878545
 20
8.7910294242
 30
0.0
 10
13.0087757177
 20
8.7870203328
 30
0.0
 10
13.0130504126
 20
8.7836913159
 30
0.0
 10
13.0167324559
 20
8.7814597951
 30
0.0
 10
13.0197025815
 20
8.7800432104
 30
0.0
 10
13.0211938613
 20
8.7794542923
 30
0.0
 10
13.021940359
 20
8.7791903709
 30
0.0
  0
SPLINE
  5
3F5
100
AcDbEntity
  8
0
100
AcDbSpline
 62
7
  6
CONTINUOUS
 70
0
 71
3
 72
50
 73
46
 74
0
 42
0.0000001
 43
0.0000001
 44
0.0000000001
 40
0.0
 40
0.0
 40
0.0
 40
0.0
 40
0.0407256026
 40
0.0819150817
 40
0.1234499751
 40
0.1652115958
 40
0.2070797986
 40
0.24893432
 40
0.2906548464
 40
0.3321215867
 40
0.3732156677
 40
0.4138195895
 40
0.4538176663
 40
0.4930964772
 40
0.5315453235
 40
0.5690566965
 40
0.6055267615
 40
0.6408558643
 40
0.6749490701
 40
0.7077167477
 40
0.7390752181
 40
0.7689474975
 40
0.7972641734
 40
0.8108202733
 40
0.8239654444
 40
0.8366937295
 40
0.8489997772
 40
0.8608791729
 40
0.8723282431
 40
0.8833444249
 40
0.8939261162
 40
0.904073044
 40
0.9137862258
 40
0.9230683144
 40
0.9319237263
 40
0.9403589669
 40
0.9483829695
 40
0.9560074292
 40
0.9632473717
 40
0.9701215302
 40
0.9766531019
 40
0.9828701437
 40
0.9888063182
 40
0.9945010926
 40
1.0
 40
1.0
 40
1.0
 40
1.0
 10
12.9404120098
 20
7.6818497731
 30
0.0
 10
12.9404120098
 20
7.6903311642
 30
0.0
 10
12.9405393156
 20
7.7073907996
 30
0.0
 10
12.9411024697
 20
7.7330947793
 30
0.0
 10
12.9420374097
 20
7.7590038598
 30
0.0
 10
12.9433412637
 20
7.7850384937
 30
0.0
 10
12.9450100654
 20
7.8111189835
 30
0.0
 10
12.9470386932
 20
7.8371653701
 30
0.0
 10
12.9494209306
 20
7.8630978483
 30
0.0
 10
12.9521494627
 20
7.8888369467
 30
0.0
 10
12.9552159084
 20
7.914303796
 30
0.0
 10
12.958610842
 20
7.9394203648
 30
0.0
 10
12.962323823
 20
7.9641097029
 30
0.0
 10
12.9663434273
 20
7.988296179
 30
0.0
 10
12.9706572813
 20
8.0119057157
 30
0.0
 10
12.9752520995
 20
8.0348660196
 30
0.0
 10
12.9801137239
 20
8.0571068086
 30
0.0
 10
12.9852271675
 20
8.0785600319
 30
0.0
 10
12.9905766586
 20
8.0991600939
 30
0.0
 10
12.9961456912
 20
8.1188440425
 30
0.0
 10
13.0019170729
 20
8.1375518627
 30
0.0
 10
13.0078729971
 20
8.1552263846
 30
0.0
 10
13.0130471205
 20
8.16924602
 30
0.0
 10
13.0172745592
 20
8.1798960036
 30
0.0
 10
13.0204337057
 20
8.1874759309
 30
0.0
 10
13.0236250729
 20
8.1947590111
 30
0.0
 10
13.0268463136
 20
8.2017396842
 30
0.0
 10
13.0300948817
 20
8.2084126536
 30
0.0
 10
13.0333683713
 20
8.2147728269
 30
0.0
 10
13.0366642149
 20
8.2208154006
 30
0.0
 10
13.0399799727
 20
8.2265357789
 30
0.0
 10
13.0433130797
 20
8.2319296633
 30
0.0
 10
13.046661071
 20
8.2369929772
 30
0.0
 10
13.0500214182
 20
8.2417219346
 30
0.0
 10
13.0533916504
 20
8.2461129965
 30
0.0
 10
13.0567693176
 20
8.2501628846
 30
0.0
 10
13.0601519794
 20
8.2538686019
 30
0.0
 10
13.063537312
 20
8.2572273459
 30
0.0
 10
13.0669229577
 20
8.2602366266
 30
0.0
 10
13.0703067521
 20
8.2628940304
 30
0.0
 10
13.0736864619
 20
8.2651974624
 30
0.0
 10
13.0770599976
 20
8.2671447254
 30
0.0
 10
13.0804252673
 20
8.2687339416
 30
0.0
 10
13.0837795426
 20
8.2699628961
 30
0.0
 10
13.0860405205
 20
8.270549516
 30
0.0
 10
13.08716257
 20
8.270778548
 30
0.0
  0
SPLINE
  5
3F6
100
AcDbEntity
  8
0
100
AcDbSpline
 62
7
  6
CONTINUOUS
 70
0
 71
3
 72
37
 73
33
 74
0
 42
0.0000001
 43
0.0000001
 44
0.0000000001
 40
0.0
 40
0.0
 40
0.0
 40
0.0
 40
0.0933722333
 40
0.1843538351
 40
0.2724531136
 40
0.3152739684
 40
0.3571991751
 40
0.3981737897
 40
0.4381448545
 40
0.477061548
 40
0.5148751839
 40
0.5515395866
 40
0.5870112643
 40
0.621249488
 40
0.6542167932
 40
0.6858791704
 40
0.7162063301
 40
0.7451724053
 40
0.7727562859
 40
0.7989422655
 40
0.8237211244
 40
0.8470909383
 40
0.8690585177
 40
0.889641357
 40
0.9088696513
 40
0.9267893793
 40
0.9434660809
 40
0.9589891094
 40
0.9734768514
 40
0.9870815546
 40
0.9936140923
 40
1.0
 40
1.0
 40
1.0
 40
1.0
 10
12.9404120098
 20
7.6818497731
 30
0.0
 10
12.9404120098
 20
7.6702726985
 30
0.0
 10
12.9406445989
 20
7.6474141387
 30
0.0
 10
12.9417150677
 20
7.6136475428
 30
0.0
 10
12.943213237
 20
7.5861722501
 30
0.0
 10
12.9447766005
 20
7.5647980497
 30
0.0
 10
12.9461122168
 20
7.5492670091
 30
0.0
 10
12.9476199616
 20
7.534106765
 30
0.0
 10
12.9492976132
 20
7.5193397007
 30
0.0
 10
12.9511426377
 20
7.5049876358
 30
0.0
 10
12.9531523085
 20
7.4910717667
 30
0.0
 10
12.9553236203
 20
7.4776126365
 30
0.0
 10
12.9576533134
 20
7.4646301008
 30
0.0
 10
12.9601379423
 20
7.4521433046
 30
0.0
 10
12.962773785
 20
7.4401706381
 30
0.0
 10
12.9655568985
 20
7.4287297123
 30
0.0
 10
12.9684831733
 20
7.4178373375
 30
0.0
 10
12.9715482329
 20
7.4075094702
 30
0.0
 10
12.9747475303
 20
7.3977611983
 30
0.0
 10
12.9780763829
 20
7.3886067186
 30
0.0
 10
12.981529881
 20
7.3800592707
 30
0.0
 10
12.9851030377
 20
7.3721311393
 30
0.0
 10
12.9887908114
 20
7.3648336306
 30
0.0
 10
12.9925880719
 20
7.358177004
 30
0.0
 10
12.9964898244
 20
7.3521705438
 30
0.0
 10
13.0004912889
 20
7.3468225783
 30
0.0
 10
13.0045878545
 20
7.3421405989
 30
0.0
 10
13.0087757177
 20
7.3381315076
 30
0.0
 10
13.0130504126
 20
7.3348024906
 30
0.0
 10
13.0167324559
 20
7.3325709698
 30
0.0
 10
13.0197025815
 20
7.3311543852
 30
0.0
 10
13.0211938613
 20
7.3305654671
 30
0.0
 10
13.021940359
 20
7.3303015456
 30
0.0
  0
SPLINE
  5
3F7
100
AcDbEntity
  8
0
100
AcDbSpline
 62
7
  6
CONTINUOUS
 70
0
 71
3
 72
43
 73
39
 74
0
 42
0.0000001
 43
0.0000001
 44
0.0000000001
 40
0.0
 40
0.0
 40
0.0
 40
0.0
 40
0.0823541368
 40
0.1660999708
 40
0.2502622858
 40
0.3338583401
 40
0.3751399866
 40
0.4159162955
 40
0.4560692301
 40
0.4954831413
 40
0.5340452323
 40
0.5716460324
 40
0.6081798928
 40
0.6435455226
 40
0.6776465947
 40
0.7103923295
 40
0.741698162
 40
0.7714865232
 40
0.7996877897
 40
0.8262414889
 40
0.851097721
 40
0.8742190773
 40
0.8851224238
 40
0.8955852396
 40
0.9056076223
 40
0.9151913942
 40
0.9243399096
 40
0.9330585541
 40
0.9413550645
 40
0.9492396521
 40
0.9567258332
 40
0.9638305613
 40
0.9705750193
 40
0.9769852332
 40
0.9830924805
 40
0.9889340884
 40
0.9945534383
 40
1.0
 40
1.0
 40
1.0
 40
1.0
 10
12.5787126928
 20
8.0569194534
 30
0.0
 10
12.5787126928
 20
8.0658371299
 30
0.0
 10
12.5789841464
 20
8.0838241507
 30
0.0
 10
12.5801634566
 20
8.1109013886
 30
0.0
 10
12.5821055712
 20
8.138069528
 30
0.0
 10
12.5843486465
 20
8.1605972163
 30
0.0
 10
12.5865105713
 20
8.1784047512
 30
0.0
 10
12.5882980771
 20
8.1915175294
 30
0.0
 10
12.5902526799
 20
8.2044019156
 30
0.0
 10
12.5923682918
 20
8.2170178307
 30
0.0
 10
12.5946382842
 20
8.2293260047
 30
0.0
 10
12.5970555537
 20
8.2412881426
 30
0.0
 10
12.5996125316
 20
8.2528670325
 30
0.0
 10
12.6023012111
 20
8.2640266723
 30
0.0
 10
12.6051131587
 20
8.2747323912
 30
0.0
 10
12.6080395537
 20
8.2849509615
 30
0.0
 10
12.6110712154
 20
8.2946507024
 30
0.0
 10
12.6141986346
 20
8.3038015983
 30
0.0
 10
12.6174120104
 20
8.3123753851
 30
0.0
 10
12.6207012815
 20
8.3203457729
 30
0.0
 10
12.6240561818
 20
8.3276882031
 30
0.0
 10
12.6269519015
 20
8.3333714558
 30
0.0
 10
12.6293006965
 20
8.337577921
 30
0.0
 10
12.6310376433
 20
8.340500011
 30
0.0
 10
12.6327832199
 20
8.3432491623
 30
0.0
 10
12.634536068
 20
8.3458233028
 30
0.0
 10
12.6362948877
 20
8.3482204606
 30
0.0
 10
12.6380583749
 20
8.3504388102
 30
0.0
 10
12.6398251904
 20
8.3524767052
 30
0.0
 10
12.6415941294
 20
8.3543325538
 30
0.0
 10
12.6433638897
 20
8.3560049899
 30
0.0
 10
12.6451333039
 20
8.3574926895
 30
0.0
 10
12.6469012098
 20
8.3587944344
 30
0.0
 10
12.6486664388
 20
8.3599091494
 30
0.0
 10
12.6504278981
 20
8.3608356506
 30
0.0
 10
12.6521844435
 20
8.3615729611
 30
0.0
 10
12.6539345489
 20
8.3621199448
 30
0.0
 10
12.6551111508
 20
8.3623600853
 30
0.0
 10
12.6556945534
 20
8.3624465709
 30
0.0
  0
SPLINE
  5
3F8
100
AcDbEntity
  8
0
100
AcDbSpline
 62
7
  6
CONTINUOUS
 70
0
 71
3
 72
34
 73
30
 74
0
 42
0.0000001
 43
0.0000001
 44
0.0000000001
 40
0.0
 40
0.0
 40
0.0
 40
0.0
 40
0.0940077248
 40
0.1855742517
 40
0.2741933635
 40
0.3593784296
 40
0.4406716282
 40
0.4797254026
 40
0.5176493328
 40
0.5543962539
 40
0.5899216881
 40
0.6241841904
 40
0.6571457966
 40
0.6887719479
 40
0.7190325225
 40
0.7479015463
 40
0.7753586104
 40
0.8013888542
 40
0.8259844921
 40
0.8491456669
 40
0.870882047
 40
0.8912150652
 40
0.9101800043
 40
0.9278300045
 40
0.9442394334
 40
0.9595095841
 40
0.9737734147
 40
0.987200704
 40
1.0
 40
1.0
 40
1.0
 40
1.0
 10
12.5787126928
 20
8.0569194534
 30
0.0
 10
12.5787126928
 20
8.0508474814
 30
0.0
 10
12.5788360592
 20
8.0388607845
 30
0.0
 10
12.5794039542
 20
8.0211582947
 30
0.0
 10
12.5803489341
 20
8.0040423634
 30
0.0
 10
12.5816651274
 20
7.9876164874
 30
0.0
 10
12.5830825596
 20
7.9744150223
 30
0.0
 10
12.5844047558
 20
7.9642777889
 30
0.0
 10
12.5854703538
 20
7.957009663
 30
0.0
 10
12.5866214628
 20
7.9499854078
 30
0.0
 10
12.5878563549
 20
7.9432156165
 30
0.0
 10
12.5891731496
 20
7.9367105047
 30
0.0
 10
12.590569807
 20
7.9304798745
 30
0.0
 10
12.5920442447
 20
7.9245331051
 30
0.0
 10
12.593594155
 20
7.9188791261
 30
0.0
 10
12.5952172478
 20
7.9135264168
 30
0.0
 10
12.5969110007
 20
7.908482965
 30
0.0
 10
12.5986729113
 20
7.9037562776
 30
0.0
 10
12.6005003183
 20
7.8993533377
 30
0.0
 10
12.6023905324
 20
7.8952806015
 30
0.0
 10
12.6043408541
 20
7.8915439944
 30
0.0
 10
12.6063485095
 20
7.8881488567
 30
0.0
 10
12.6084109187
 20
7.8851000472
 30
0.0
 10
12.6105254544
 20
7.882401834
 30
0.0
 10
12.6126899036
 20
7.8800581876
 30
0.0
 10
12.6149020339
 20
7.8780727574
 30
0.0
 10
12.6171602018
 20
7.876449312
 30
0.0
 10
12.6194614949
 20
7.8751921614
 30
0.0
 10
12.6210524052
 20
7.8745902357
 30
0.0
 10
12.6218456153
 20
7.8743572888
 30
0.0
  0
SPLINE
  5
3F9
100
AcDbEntity
  8
0
100
AcDbSpline
 62
7
  6
CONTINUOUS
 70
0
 71
3
 72
44
 73
40
 74
0
 42
0.0000001
 43
0.0000001
 44
0.0000000001
 40
0.0
 40
0.0
 40
0.0
 40
0.0
 40
0.0055576246
 40
0.0111781252
 40
0.0169221424
 40
0.0228460823
 40
0.0290009394
 40
0.0354314054
 40
0.0421759115
 40
0.0492668554
 40
0.0567309544
 40
0.064590169
 40
0.0728619349
 40
0.0815600558
 40
0.0906951257
 40
0.1002748158
 40
0.110304631
 40
0.1207877759
 40
0.1317257866
 40
0.1431186256
 40
0.1672598102
 40
0.1931873598
 40
0.2208591117
 40
0.2502195474
 40
0.2812018198
 40
0.3137293806
 40
0.3477172232
 40
0.3830728887
 40
0.4196972996
 40
0.4574854911
 40
0.4963273377
 40
0.5361081807
 40
0.5767094102
 40
0.6180090134
 40
0.6598821151
 40
0.7448359269
 40
0.830537715
 40
0.9159396375
 40
1.0
 40
1.0
 40
1.0
 40
1.0
 10
10.0215986757
 20
10.432742954
 30
0.0
 10
10.02159868
 20
10.4322407708
 30
0.0
 10
10.0215424769
 20
10.4312298485
 30
0.0
 10
10.0212901687
 20
10.4297188533
 30
0.0
 10
10.0208702299
 20
10.4282112412
 30
0.0
 10
10.0202835702
 20
10.4267087269
 30
0.0
 10
10.0195310486
 20
10.4252125724
 30
0.0
 10
10.0186137609
 20
10.4237238865
 30
0.0
 10
10.017532716
 20
10.4222437042
 30
0.0
 10
10.0162889596
 20
10.4207730439
 30
0.0
 10
10.0148836515
 20
10.4193128451
 30
0.0
 10
10.0133179119
 20
10.4178641855
 30
0.0
 10
10.0115930595
 20
10.4164280494
 30
0.0
 10
10.0097104554
 20
10.415005517
 30
0.0
 10
10.0076715913
 20
10.4135976844
 30
0.0
 10
10.005478117
 20
10.4122055909
 30
0.0
 10
10.0031317535
 20
10.4108303906
 30
0.0
 10
10.0006344074
 20
10.4094731328
 30
0.0
 10
9.9979880739
 20
10.4081349037
 30
0.0
 10
9.9941900572
 20
10.406342741
 30
0.0
 10
9.9890782013
 20
10.4041662993
 30
0.0
 10
9.9825006923
 20
10.4016952257
 30
0.0
 10
9.9753874725
 20
10.3993248382
 30
0.0
 10
9.9677616248
 20
10.3970629464
 30
0.0
 10
9.9596477919
 20
10.3949170178
 30
0.0
 10
9.9510723612
 20
10.3928941557
 30
0.0
 10
9.9420632647
 20
10.3910010597
 30
0.0
 10
9.9326499008
 20
10.3892440028
 30
0.0
 10
9.9228630248
 20
10.3876288056
 30
0.0
 10
9.9127346439
 20
10.3861608083
 30
0.0
 10
9.9022979016
 20
10.384844866
 30
0.0
 10
9.8915869591
 20
10.3836853281
 30
0.0
 10
9.8806368943
 20
10.3826860365
 30
0.0
 10
9.8694835423
 20
10.3818502702
 30
0.0
 10
9.8543177229
 20
10.3809534695
 30
0.0
 10
9.8351230291
 20
10.3802624371
 30
0.0
 10
9.8119829932
 20
10.3801162691
 30
0.0
 10
9.7889295222
 20
10.3806513941
 30
0.0
 10
9.773635901
 20
10.3814672596
 30
0.0
 10
9.7660584637
 20
10.3819927567
 30
0.0
  0
SPLINE
  5
3FA
100
AcDbEntity
  8
0
100
AcDbSpline
 62
7
  6
CONTINUOUS
 70
0
 71
3
 72
44
 73
40
 74
0
 42
0.0000001
 43
0.0000001
 44
0.0000000001
 40
0.0
 40
0.0
 40
0.0
 40
0.0
 40
0.0055576246
 40
0.0111781252
 40
0.0169221424
 40
0.0228460823
 40
0.0290009394
 40
0.0354314054
 40
0.0421759115
 40
0.0492668554
 40
0.0567309544
 40
0.064590169
 40
0.0728619349
 40
0.0815600558
 40
0.0906951257
 40
0.1002748158
 40
0.110304631
 40
0.1207877759
 40
0.1317257866
 40
0.1431186256
 40
0.1672598102
 40
0.1931873598
 40
0.2208591117
 40
0.2502195474
 40
0.2812018198
 40
0.3137293806
 40
0.3477172232
 40
0.3830728887
 40
0.4196972996
 40
0.4574854911
 40
0.4963273377
 40
0.5361081807
 40
0.5767094102
 40
0.6180090134
 40
0.6598821151
 40
0.7448359269
 40
0.830537715
 40
0.9159396375
 40
1.0
 40
1.0
 40
1.0
 40
1.0
 10
13.1608577971
 20
10.2150345945
 30
0.0
 10
13.1608578015
 20
10.2145324113
 30
0.0
 10
13.1608015984
 20
10.213521489
 30
0.0
 10
13.1605492902
 20
10.2120104938
 30
0.0
 10
13.1601293513
 20
10.2105028817
 30
0.0
 10
13.1595426917
 20
10.2090003674
 30
0.0
 10
13.15879017
 20
10.2075042129
 30
0.0
 10
13.1578728823
 20
10.206015527
 30
0.0
 10
13.1567918374
 20
10.2045353447
 30
0.0
 10
13.155548081
 20
10.2030646844
 30
0.0
 10
13.154142773
 20
10.2016044856
 30
0.0
 10
13.1525770333
 20
10.200155826
 30
0.0
 10
13.150852181
 20
10.1987196899
 30
0.0
 10
13.1489695768
 20
10.1972971574
 30
0.0
 10
13.1469307127
 20
10.1958893249
 30
0.0
 10
13.1447372384
 20
10.1944972314
 30
0.0
 10
13.1423908749
 20
10.1931220311
 30
0.0
 10
13.1398935288
 20
10.1917647732
 30
0.0
 10
13.1372471953
 20
10.1904265442
 30
0.0
 10
13.1334491786
 20
10.1886343815
 30
0.0
 10
13.1283373227
 20
10.1864579398
 30
0.0
 10
13.1217598138
 20
10.1839868662
 30
0.0
 10
13.114646594
 20
10.1816164787
 30
0.0
 10
13.1070207463
 20
10.1793545869
 30
0.0
 10
13.0989069134
 20
10.1772086583
 30
0.0
 10
13.0903314827
 20
10.1751857962
 30
0.0
 10
13.0813223862
 20
10.1732927002
 30
0.0
 10
13.0719090222
 20
10.1715356433
 30
0.0
 10
13.0621221462
 20
10.1699204461
 30
0.0
 10
13.0519937653
 20
10.1684524488
 30
0.0
 10
13.041557023
 20
10.1671365065
 30
0.0
 10
13.0308460806
 20
10.1659769686
 30
0.0
 10
13.0198960158
 20
10.164977677
 30
0.0
 10
13.0087426638
 20
10.1641419107
 30
0.0
 10
12.9935768443
 20
10.16324511
 30
0.0
 10
12.9743821505
 20
10.1625540776
 30
0.0
 10
12.9512421146
 20
10.1624079096
 30
0.0
 10
12.9281886436
 20
10.1629430346
 30
0.0
 10
12.9128950224
 20
10.1637589001
 30
0.0
 10
12.9053175852
 20
10.1642843971
 30
0.0
  0
SPLINE
  5
3FB
100
AcDbEntity
  8
0
100
AcDbSpline
 62
7
  6
CONTINUOUS
 70
0
 71
3
 72
23
 73
19
 74
0
 42
0.0000001
 43
0.0000001
 44
0.0000000001
 40
0.0
 40
0.0
 40
0.0
 40
0.0
 40
0.0614460382
 40
0.1231087196
 40
0.1849779291
 40
0.2470411737
 40
0.3092837474
 40
0.3716889165
 40
0.4342381239
 40
0.4969112087
 40
0.559686639
 40
0.6225417561
 40
0.685453028
 40
0.7483963087
 40
0.8113471035
 40
0.8742808354
 40
0.9371731138
 40
1.0
 40
1.0
 40
1.0
 40
1.0
 10
10.0497264173
 20
9.3073360347
 30
0.0
 10
10.0592543401
 20
9.3057962508
 30
0.0
 10
10.0782642271
 20
9.3021941018
 30
0.0
 10
10.106493246
 20
9.2952597084
 30
0.0
 10
10.1344067757
 20
9.2868047237
 30
0.0
 10
10.1619195609
 20
9.2768549092
 30
0.0
 10
10.1889489597
 20
9.2654402876
 30
0.0
 10
10.2154134176
 20
9.2525953514
 30
0.0
 10
10.241233189
 20
9.2383588777
 30
0.0
 10
10.2663304473
 20
9.2227738332
 30
0.0
 10
10.2906295518
 20
9.2058872391
 30
0.0
 10
10.3140572667
 20
9.1877500299
 30
0.0
 10
10.3365429772
 20
9.1684169066
 30
0.0
 10
10.3580189189
 20
9.1479461464
 30
0.0
 10
10.3784203144
 20
9.1263995269
 30
0.0
 10
10.3976858149
 20
9.1038417702
 30
0.0
 10
10.4157567604
 20
9.0803417325
 30
0.0
 10
10.4269800062
 20
9.0640814767
 30
0.0
 10
10.4323745695
 20
9.0558180203
 30
0.0
  0
SPLINE
  5
3FC
100
AcDbEntity
  8
0
100
AcDbSpline
 62
7
  6
CONTINUOUS
 70
0
 71
3
 72
15
 73
11
 74
0
 42
0.0000001
 43
0.0000001
 44
0.0000000001
 40
0.0
 40
0.0
 40
0.0
 40
0.0
 40
0.1261461477
 40
0.2519904361
 40
0.3775171813
 40
0.5027130884
 40
0.6275671243
 40
0.7520688843
 40
0.8762172262
 40
1.0
 40
1.0
 40
1.0
 40
1.0
 10
10.4938418696
 20
8.9302585565
 30
0.0
 10
10.4962791994
 20
8.9231621177
 30
0.0
 10
10.500861755
 20
8.9088859953
 30
0.0
 10
10.5068508718
 20
8.8872380633
 30
0.0
 10
10.5119372243
 20
8.8654180106
 30
0.0
 10
10.5161115314
 20
8.8434652651
 30
0.0
 10
10.5193662826
 20
8.8214190504
 30
0.0
 10
10.5216957824
 20
8.7993184595
 30
0.0
 10
10.5230956248
 20
8.7772037706
 30
0.0
 10
10.5234080064
 20
8.7624546457
 30
0.0
 10
10.5234080064
 20
8.7550918882
 30
0.0
  0
SPLINE
  5
3FD
100
AcDbEntity
  8
0
100
AcDbSpline
 62
7
  6
CONTINUOUS
 70
0
 71
3
 72
23
 73
19
 74
0
 42
0.0000001
 43
0.0000001
 44
0.0000000001
 40
0.0
 40
0.0
 40
0.0
 40
0.0
 40
0.0614460382
 40
0.1231087196
 40
0.1849779291
 40
0.2470411737
 40
0.3092837474
 40
0.3716889165
 40
0.4342381239
 40
0.4969112087
 40
0.559686639
 40
0.6225417561
 40
0.685453028
 40
0.7483963087
 40
0.8113471035
 40
0.8742808354
 40
0.9371731138
 40
1.0
 40
1.0
 40
1.0
 40
1.0
 10
10.0497264173
 20
7.8584472094
 30
0.0
 10
10.0592543401
 20
7.8569074256
 30
0.0
 10
10.0782642271
 20
7.8533052765
 30
0.0
 10
10.106493246
 20
7.8463708831
 30
0.0
 10
10.1344067757
 20
7.8379158984
 30
0.0
 10
10.1619195609
 20
7.8279660839
 30
0.0
 10
10.1889489597
 20
7.8165514623
 30
0.0
 10
10.2154134176
 20
7.8037065261
 30
0.0
 10
10.241233189
 20
7.7894700524
 30
0.0
 10
10.2663304473
 20
7.7738850079
 30
0.0
 10
10.2906295518
 20
7.7569984139
 30
0.0
 10
10.3140572667
 20
7.7388612046
 30
0.0
 10
10.3365429772
 20
7.7195280813
 30
0.0
 10
10.3580189189
 20
7.6990573211
 30
0.0
 10
10.3784203144
 20
7.6775107016
 30
0.0
 10
10.3976858149
 20
7.6549529449
 30
0.0
 10
10.4157567604
 20
7.6314529072
 30
0.0
 10
10.4269800062
 20
7.6151926514
 30
0.0
 10
10.4323745695
 20
7.606929195
 30
0.0
  0
SPLINE
  5
3FE
100
AcDbEntity
  8
0
100
AcDbSpline
 62
7
  6
CONTINUOUS
 70
0
 71
3
 72
15
 73
11
 74
0
 42
0.0000001
 43
0.0000001
 44
0.0000000001
 40
0.0
 40
0.0
 40
0.0
 40
0.0
 40
0.1261461477
 40
0.2519904361
 40
0.3775171813
 40
0.5027130884
 40
0.6275671243
 40
0.7520688843
 40
0.8762172262
 40
1.0
 40
1.0
 40
1.0
 40
1.0
 10
10.4938418696
 20
7.4813697312
 30
0.0
 10
10.4962791994
 20
7.4742732925
 30
0.0
 10
10.500861755
 20
7.45999717
 30
0.0
 10
10.5068508718
 20
7.438349238
 30
0.0
 10
10.5119372243
 20
7.4165291853
 30
0.0
 10
10.5161115314
 20
7.3945764398
 30
0.0
 10
10.5193662826
 20
7.3725302251
 30
0.0
 10
10.5216957824
 20
7.3504296342
 30
0.0
 10
10.5230956248
 20
7.3283149453
 30
0.0
 10
10.5234080064
 20
7.3135658204
 30
0.0
 10
10.5234080064
 20
7.306203063
 30
0.0
  0
SPLINE
  5
3FF
100
AcDbEntity
  8
0
100
AcDbSpline
 62
7
  6
CONTINUOUS
 70
0
 71
3
 72
23
 73
19
 74
0
 42
0.0000001
 43
0.0000001
 44
0.0000000001
 40
0.0
 40
0.0
 40
0.0
 40
0.0
 40
0.0614464852
 40
0.1231095159
 40
0.184978978
 40
0.2470423822
 40
0.3092850289
 40
0.3716901933
 40
0.4342393291
 40
0.496912288
 40
0.5596875524
 40
0.6225424793
 40
0.6854535529
 40
0.7483966442
 40
0.8113472752
 40
0.8742808861
 40
0.9371731021
 40
1.0
 40
1.0
 40
1.0
 40
1.0
 10
11.4079022918
 20
9.2131384554
 30
0.0
 10
11.4174268091
 20
9.2115976674
 30
0.0
 10
11.4364298295
 20
9.2079938816
 30
0.0
 10
11.4646485291
 20
9.2010581356
 30
0.0
 10
11.4925517638
 20
9.19260289
 30
0.0
 10
11.5200543679
 20
9.1826538895
 30
0.0
 10
11.5470737866
 20
9.1712411339
 30
0.0
 10
11.5735285511
 20
9.1583990863
 30
0.0
 10
11.5993389994
 20
9.1441664886
 30
0.0
 10
11.6244273861
 20
9.1285862665
 30
0.0
 10
11.6487181489
 20
9.1117053945
 30
0.0
 10
11.6721381269
 20
9.093574755
 30
0.0
 10
11.694616777
 20
9.0742489919
 30
0.0
 10
11.7160864023
 20
9.0537863204
 30
0.0
 10
11.7364822886
 20
9.0322484516
 30
0.0
 10
11.7557431455
 20
9.0097000372
 30
0.0
 10
11.7738103672
 20
8.9862098578
 30
0.0
 10
11.7850317663
 20
8.969956484
 30
0.0
 10
11.7904255755
 20
8.9616965282
 30
0.0
  0
SPLINE
  5
400
100
AcDbEntity
  8
0
100
AcDbSpline
 62
7
  6
CONTINUOUS
 70
0
 71
3
 72
15
 73
11
 74
0
 42
0.0000001
 43
0.0000001
 44
0.0000000001
 40
0.0
 40
0.0
 40
0.0
 40
0.0
 40
0.1261464425
 40
0.251990966
 40
0.3775178719
 40
0.5027138514
 40
0.6275678626
 40
0.7520694914
 40
0.8762175851
 40
1.0
 40
1.0
 40
1.0
 40
1.0
 10
11.8519144039
 20
8.8361306813
 30
0.0
 10
11.8543533068
 20
8.829032127
 30
0.0
 10
11.8589388274
 20
8.8147516854
 30
0.0
 10
11.8649318374
 20
8.7930970371
 30
0.0
 10
11.8700215083
 20
8.7712700778
 30
0.0
 10
11.8741985472
 20
8.7493102737
 30
0.0
 10
11.8774554336
 20
8.7272568868
 30
0.0
 10
11.8797864646
 20
8.7051490491
 30
0.0
 10
11.8811872285
 20
8.6830270778
 30
0.0
 10
11.8814998161
 20
8.6682730849
 30
0.0
 10
11.8814998161
 20
8.6609079013
 30
0.0
  0
SPLINE
  5
401
100
AcDbEntity
  8
0
100
AcDbSpline
 62
7
  6
CONTINUOUS
 70
0
 71
3
 72
23
 73
19
 74
0
 42
0.0000001
 43
0.0000001
 44
0.0000000001
 40
0.0
 40
0.0
 40
0.0
 40
0.0
 40
0.0614464852
 40
0.1231095159
 40
0.184978978
 40
0.2470423822
 40
0.3092850289
 40
0.3716901933
 40
0.4342393291
 40
0.496912288
 40
0.5596875524
 40
0.6225424793
 40
0.6854535529
 40
0.7483966442
 40
0.8113472752
 40
0.8742808861
 40
0.9371731021
 40
1.0
 40
1.0
 40
1.0
 40
1.0
 10
11.4079022918
 20
7.7642496301
 30
0.0
 10
11.4174268091
 20
7.7627088421
 30
0.0
 10
11.4364298295
 20
7.7591050563
 30
0.0
 10
11.4646485291
 20
7.7521693103
 30
0.0
 10
11.4925517638
 20
7.7437140647
 30
0.0
 10
11.5200543679
 20
7.7337650642
 30
0.0
 10
11.5470737866
 20
7.7223523086
 30
0.0
 10
11.5735285511
 20
7.709510261
 30
0.0
 10
11.5993389994
 20
7.6952776634
 30
0.0
 10
11.6244273861
 20
7.6796974412
 30
0.0
 10
11.6487181489
 20
7.6628165692
 30
0.0
 10
11.6721381269
 20
7.6446859297
 30
0.0
 10
11.694616777
 20
7.6253601666
 30
0.0
 10
11.7160864023
 20
7.6048974951
 30
0.0
 10
11.7364822886
 20
7.5833596263
 30
0.0
 10
11.7557431455
 20
7.5608112119
 30
0.0
 10
11.7738103672
 20
7.5373210326
 30
0.0
 10
11.7850317663
 20
7.5210676587
 30
0.0
 10
11.7904255755
 20
7.5128077029
 30
0.0
  0
SPLINE
  5
402
100
AcDbEntity
  8
0
100
AcDbSpline
 62
7
  6
CONTINUOUS
 70
0
 71
3
 72
15
 73
11
 74
0
 42
0.0000001
 43
0.0000001
 44
0.0000000001
 40
0.0
 40
0.0
 40
0.0
 40
0.0
 40
0.1261464425
 40
0.251990966
 40
0.3775178719
 40
0.5027138514
 40
0.6275678626
 40
0.7520694914
 40
0.8762175851
 40
1.0
 40
1.0
 40
1.0
 40
1.0
 10
11.8519144039
 20
7.387241856
 30
0.0
 10
11.8543533068
 20
7.3801433018
 30
0.0
 10
11.8589388274
 20
7.3658628601
 30
0.0
 10
11.8649318374
 20
7.3442082118
 30
0.0
 10
11.8700215083
 20
7.3223812525
 30
0.0
 10
11.8741985472
 20
7.3004214484
 30
0.0
 10
11.8774554336
 20
7.2783680616
 30
0.0
 10
11.8797864646
 20
7.2562602238
 30
0.0
 10
11.8811872285
 20
7.2341382525
 30
0.0
 10
11.8814998161
 20
7.2193842596
 30
0.0
 10
11.8814998161
 20
7.2120190761
 30
0.0
  0
SPLINE
  5
403
100
AcDbEntity
  8
0
100
AcDbSpline
 62
7
  6
CONTINUOUS
 70
0
 71
3
 72
50
 73
46
 74
0
 42
0.0000001
 43
0.0000001
 44
0.0000000001
 40
0.0
 40
0.0
 40
0.0
 40
0.0
 40
0.0055575475
 40
0.0111779905
 40
0.0169219494
 40
0.022845874
 40
0.0290006802
 40
0.0354311413
 40
0.0421756235
 40
0.0492665445
 40
0.0567306363
 40
0.0645898203
 40
0.072861554
 40
0.081559664
 40
0.0906946644
 40
0.1002743405
 40
0.1103040801
 40
0.1207871571
 40
0.1317251254
 40
0.1431178344
 40
0.1549638891
 40
0.1672604853
 40
0.1800038776
 40
0.1931891613
 40
0.2208606557
 40
0.2502207678
 40
0.2812026806
 40
0.3137298604
 40
0.3477172945
 40
0.3830725052
 40
0.4196964085
 40
0.4574840669
 40
0.4963253675
 40
0.5361056481
 40
0.5767062875
 40
0.6180052701
 40
0.6598777364
 40
0.7021965195
 40
0.744832668
 40
0.7876559879
 40
0.8305354945
 40
0.8733401402
 40
0.9159387341
 40
0.9582019299
 40
1.0
 40
1.0
 40
1.0
 40
1.0
 10
11.3160484463
 20
9.7576168429
 30
0.0
 10
11.3160484401
 20
9.7567856455
 30
0.0
 10
11.3159553332
 20
9.755112399
 30
0.0
 10
11.3155376316
 20
9.752611461
 30
0.0
 10
11.3148425307
 20
9.7501160999
 30
0.0
 10
11.3138713775
 20
9.7476292195
 30
0.0
 10
11.312625811
 20
9.7451528119
 30
0.0
 10
11.3111074419
 20
9.742688816
 30
0.0
 10
11.3093180775
 20
9.7402388651
 30
0.0
 10
11.3072593879
 20
9.7378046813
 30
0.0
 10
11.3049332958
 20
9.7353878249
 30
0.0
 10
11.3023416791
 20
9.7329900537
 30
0.0
 10
11.2994867028
 20
9.7306130111
 30
0.0
 10
11.2963706096
 20
9.7282585096
 30
0.0
 10
11.2929959074
 20
9.7259282935
 30
0.0
 10
11.2893652733
 20
9.7236241819
 30
0.0
 10
11.2854816075
 20
9.7213479902
 30
0.0
 10
11.2813480322
 20
9.7191015029
 30
0.0
 10
11.2769678578
 20
9.7168865667
 30
0.0
 10
11.2723446372
 20
9.7147049139
 30
0.0
 10
11.267482092
 20
9.7125583808
 30
0.0
 10
11.2623841863
 20
9.7104486539
 30
0.0
 10
11.2570550404
 20
9.7083774955
 30
0.0
 10
11.2495252857
 20
9.7056252074
 30
0.0
 10
11.2395597421
 20
9.7023044903
 30
0.0
 10
11.2269377313
 20
9.698560685
 30
0.0
 10
11.2135079092
 20
9.6950088375
 30
0.0
 10
11.1993141043
 20
9.6916606835
 30
0.0
 10
11.1844025051
 20
9.6885273183
 30
0.0
 10
11.1688217901
 20
9.6856191174
 30
0.0
 10
11.152622862
 20
9.6829457101
 30
0.0
 10
11.1358586931
 20
9.6805159438
 30
0.0
 10
11.1185841353
 20
9.678337856
 30
0.0
 10
11.1008557356
 20
9.6764186488
 30
0.0
 10
11.082731545
 20
9.6747646656
 30
0.0
 10
11.0642709249
 20
9.6733813704
 30
0.0
 10
11.0455343482
 20
9.6722733317
 30
0.0
 10
11.0265831997
 20
9.6714442084
 30
0.0
 10
11.0074795702
 20
9.6708967369
 30
0.0
 10
10.9882860599
 20
9.6706327265
 30
0.0
 10
10.9690655456
 20
9.6706530437
 30
0.0
 10
10.9498810489
 20
9.6709576315
 30
0.0
 10
10.9307953378
 20
9.6715454684
 30
0.0
 10
10.9118711034
 20
9.6724146349
 30
0.0
 10
10.8993217431
 20
9.673184743
 30
0.0
 10
10.8930853231
 20
9.6736172402
 30
0.0
  0
SPLINE
  5
404
100
AcDbEntity
  8
0
100
AcDbSpline
 62
7
  6
CONTINUOUS
 70
0
 71
3
 72
49
 73
45
 74
0
 42
0.0000001
 43
0.0000001
 44
0.0000000001
 40
0.0
 40
0.0
 40
0.0
 40
0.0
 40
0.0063158739
 40
0.0126706599
 40
0.0191024896
 40
0.0256480301
 40
0.0323419112
 40
0.039216248
 40
0.0536140773
 40
0.06119479
 40
0.0690565573
 40
0.0772176635
 40
0.0856940531
 40
0.0944994572
 40
0.1036455587
 40
0.1131423452
 40
0.122998104
 40
0.1332197191
 40
0.1438128355
 40
0.1547818436
 40
0.1661302067
 40
0.1778604088
 40
0.1899740704
 40
0.2024721524
 40
0.215354813
 40
0.2422706486
 40
0.2707129033
 40
0.3006638566
 40
0.3320991037
 40
0.3649883645
 40
0.3992962141
 40
0.4349826582
 40
0.4720035847
 40
0.5103111049
 40
0.5498539072
 40
0.5905775763
 40
0.6324248432
 40
0.6753357844
 40
0.7192480525
 40
0.764097054
 40
0.809816243
 40
0.856337252
 40
0.9035893524
 40
1.0
 40
1.0
 40
1.0
 40
1.0
 10
13.0472946378
 20
8.5788241237
 30
0.0
 10
13.0461630585
 20
8.5789026013
 30
0.0
 10
13.0438982743
 20
8.5791526528
 30
0.0
 10
13.0405264866
 20
8.5798044679
 30
0.0
 10
13.0371772303
 20
8.5807329199
 30
0.0
 10
13.0338524712
 20
8.581937315
 30
0.0
 10
13.0305535252
 20
8.5834169707
 30
0.0
 10
13.0261238996
 20
8.5857914683
 30
0.0
 10
13.0218145995
 20
8.5886982657
 30
0.0
 10
13.0176442587
 20
8.5920667382
 30
0.0
 10
13.0144942796
 20
8.5949067971
 30
0.0
 10
13.0113779034
 20
8.598015207
 30
0.0
 10
13.0082959611
 20
8.6013909133
 30
0.0
 10
13.0052497092
 20
8.6050324488
 30
0.0
 10
13.0022402234
 20
8.6089383061
 30
0.0
 10
12.9992687254
 20
8.6131069299
 30
0.0
 10
12.9963363251
 20
8.6175366012
 30
0.0
 10
12.9934441759
 20
8.622225528
 30
0.0
 10
12.9905934645
 20
8.6271718279
 30
0.0
 10
12.987785274
 20
8.6323734663
 30
0.0
 10
12.98502078
 20
8.6378283486
 30
0.0
 10
12.9823010902
 20
8.6435342484
 30
0.0
 10
12.9796272894
 20
8.6494888274
 30
0.0
 10
12.9770004937
 20
8.6556896811
 30
0.0
 10
12.9735111429
 20
8.6644102038
 30
0.0
 10
12.9692859072
 20
8.675917605
 30
0.0
 10
12.9644910775
 20
8.6904716416
 30
0.0
 10
12.9599082858
 20
8.705942101
 30
0.0
 10
12.9555451247
 20
8.7223036069
 30
0.0
 10
12.9514088237
 20
8.739529487
 30
0.0
 10
12.9475062574
 20
8.7575915104
 30
0.0
 10
12.9438439235
 20
8.7764600519
 30
0.0
 10
12.9404279317
 20
8.796104116
 30
0.0
 10
12.93726397
 20
8.8164913946
 30
0.0
 10
12.9343573049
 20
8.8375883272
 30
0.0
 10
12.9317127811
 20
8.8593601712
 30
0.0
 10
12.929334813
 20
8.8817710593
 30
0.0
 10
12.9272273637
 20
8.9047840562
 30
0.0
 10
12.9253939407
 20
8.9283612137
 30
0.0
 10
12.9238375961
 20
8.9524636605
 30
0.0
 10
12.9225609379
 20
8.9770516469
 30
0.0
 10
12.9215660861
 20
9.0020845997
 30
0.0
 10
12.9206112917
 20
9.0362277875
 30
0.0
 10
12.920334329
 20
9.0620302069
 30
0.0
 10
12.920334329
 20
9.0793450461
 30
0.0
  0
SPLINE
  5
405
100
AcDbEntity
  8
0
100
AcDbSpline
 62
7
  6
CONTINUOUS
 70
0
 71
3
 72
49
 73
45
 74
0
 42
0.0000001
 43
0.0000001
 44
0.0000000001
 40
0.0
 40
0.0
 40
0.0
 40
0.0
 40
0.0063158739
 40
0.0126706599
 40
0.0191024896
 40
0.0256480301
 40
0.0323419112
 40
0.039216248
 40
0.0536140773
 40
0.06119479
 40
0.0690565573
 40
0.0772176635
 40
0.0856940531
 40
0.0944994572
 40
0.1036455587
 40
0.1131423452
 40
0.122998104
 40
0.1332197191
 40
0.1438128355
 40
0.1547818436
 40
0.1661302067
 40
0.1778604088
 40
0.1899740704
 40
0.2024721524
 40
0.215354813
 40
0.2422706486
 40
0.2707129033
 40
0.3006638566
 40
0.3320991037
 40
0.3649883645
 40
0.3992962141
 40
0.4349826582
 40
0.4720035847
 40
0.5103111049
 40
0.5498539072
 40
0.5905775763
 40
0.6324248432
 40
0.6753357844
 40
0.7192480525
 40
0.764097054
 40
0.809816243
 40
0.856337252
 40
0.9035893524
 40
1.0
 40
1.0
 40
1.0
 40
1.0
 10
13.0472946378
 20
7.1299352985
 30
0.0
 10
13.0461630585
 20
7.130013776
 30
0.0
 10
13.0438982743
 20
7.1302638275
 30
0.0
 10
13.0405264866
 20
7.1309156427
 30
0.0
 10
13.0371772303
 20
7.1318440947
 30
0.0
 10
13.0338524712
 20
7.1330484897
 30
0.0
 10
13.0305535252
 20
7.1345281454
 30
0.0
 10
13.0261238996
 20
7.1369026431
 30
0.0
 10
13.0218145995
 20
7.1398094405
 30
0.0
 10
13.0176442587
 20
7.1431779129
 30
0.0
 10
13.0144942796
 20
7.1460179718
 30
0.0
 10
13.0113779034
 20
7.1491263817
 30
0.0
 10
13.0082959611
 20
7.152502088
 30
0.0
 10
13.0052497092
 20
7.1561436235
 30
0.0
 10
13.0022402234
 20
7.1600494808
 30
0.0
 10
12.9992687254
 20
7.1642181046
 30
0.0
 10
12.9963363251
 20
7.1686477759
 30
0.0
 10
12.9934441759
 20
7.1733367027
 30
0.0
 10
12.9905934645
 20
7.1782830026
 30
0.0
 10
12.987785274
 20
7.183484641
 30
0.0
 10
12.98502078
 20
7.1889395234
 30
0.0
 10
12.9823010902
 20
7.1946454231
 30
0.0
 10
12.9796272894
 20
7.2006000021
 30
0.0
 10
12.9770004937
 20
7.2068008558
 30
0.0
 10
12.9735111429
 20
7.2155213785
 30
0.0
 10
12.9692859072
 20
7.2270287797
 30
0.0
 10
12.9644910775
 20
7.2415828163
 30
0.0
 10
12.9599082858
 20
7.2570532757
 30
0.0
 10
12.9555451247
 20
7.2734147816
 30
0.0
 10
12.9514088237
 20
7.2906406617
 30
0.0
 10
12.9475062574
 20
7.3087026852
 30
0.0
 10
12.9438439235
 20
7.3275712266
 30
0.0
 10
12.9404279317
 20
7.3472152908
 30
0.0
 10
12.93726397
 20
7.3676025693
 30
0.0
 10
12.9343573049
 20
7.3886995019
 30
0.0
 10
12.9317127811
 20
7.4104713459
 30
0.0
 10
12.929334813
 20
7.432882234
 30
0.0
 10
12.9272273637
 20
7.455895231
 30
0.0
 10
12.9253939407
 20
7.4794723884
 30
0.0
 10
12.9238375961
 20
7.5035748352
 30
0.0
 10
12.9225609379
 20
7.5281628216
 30
0.0
 10
12.9215660861
 20
7.5531957744
 30
0.0
 10
12.9206112917
 20
7.5873389622
 30
0.0
 10
12.920334329
 20
7.6131413816
 30
0.0
 10
12.920334329
 20
7.6304562208
 30
0.0
  0
SPLINE
  5
406
100
AcDbEntity
  8
0
100
AcDbSpline
 62
7
  6
CONTINUOUS
 70
0
 71
3
 72
39
 73
35
 74
0
 42
0.0000001
 43
0.0000001
 44
0.0000000001
 40
0.0
 40
0.0
 40
0.0
 40
0.0
 40
0.0063160487
 40
0.0126710049
 40
0.0191030143
 40
0.025648725
 40
0.0323427741
 40
0.0392173099
 40
0.0536154899
 40
0.0690526699
 40
0.0856860689
 40
0.1036343988
 40
0.1229845382
 40
0.1437975072
 40
0.1661135699
 40
0.1899565186
 40
0.215336667
 40
0.2422531964
 40
0.2706962121
 40
0.3006480089
 40
0.3320840834
 40
0.3649742158
 40
0.3992830292
 40
0.4349704483
 40
0.4719923721
 40
0.510300957
 40
0.5498448414
 40
0.5905696299
 40
0.6324180703
 40
0.6753301946
 40
0.7192436555
 40
0.8098126736
 40
0.9035864807
 40
1.0
 40
1.0
 40
1.0
 40
1.0
 10
12.644425365
 20
7.7035166104
 30
0.0
 10
12.6437264724
 20
7.7035650782
 30
0.0
 10
12.6423276841
 20
7.7037195085
 30
0.0
 10
12.6402451754
 20
7.7041220571
 30
0.0
 10
12.6381765951
 20
7.7046955054
 30
0.0
 10
12.6361231308
 20
7.7054393521
 30
0.0
 10
12.6340856249
 20
7.706353191
 30
0.0
 10
12.6313497019
 20
7.7078198158
 30
0.0
 10
12.6279642101
 20
7.7101034537
 30
0.0
 10
12.6240483646
 20
7.7134697126
 30
0.0
 10
12.6202197662
 20
7.7174962321
 30
0.0
 10
12.6164828232
 20
7.7221755426
 30
0.0
 10
12.6128416033
 20
7.7275003467
 30
0.0
 10
12.6093009002
 20
7.733462436
 30
0.0
 10
12.6058656969
 20
7.7400526306
 30
0.0
 10
12.6025412074
 20
7.7472606812
 30
0.0
 10
12.5993326454
 20
7.7550752153
 30
0.0
 10
12.5962451316
 20
7.7634837509
 30
0.0
 10
12.5932837156
 20
7.7724727625
 30
0.0
 10
12.5904532755
 20
7.7820276896
 30
0.0
 10
12.5877584647
 20
7.7921329705
 30
0.0
 10
12.5852037707
 20
7.8027721042
 30
0.0
 10
12.5827934523
 20
7.8139276705
 30
0.0
 10
12.5805314972
 20
7.8255813614
 30
0.0
 10
12.5784216852
 20
7.8377140335
 30
0.0
 10
12.5764675445
 20
7.8503057358
 30
0.0
 10
12.5746723092
 20
7.8633357394
 30
0.0
 10
12.5730389779
 20
7.8767825881
 30
0.0
 10
12.5715702938
 20
7.8906241242
 30
0.0
 10
12.5702686556
 20
7.9048375532
 30
0.0
 10
12.5687432054
 20
7.924455311
 30
0.0
 10
12.5672817007
 20
7.9497341072
 30
0.0
 10
12.5662378754
 20
7.9808605051
 30
0.0
 10
12.5660113487
 20
8.0019567846
 30
0.0
 10
12.5660113487
 20
8.0126508956
 30
0.0
  0
SPLINE
  5
407
100
AcDbEntity
  8
0
100
AcDbSpline
 62
7
  6
CONTINUOUS
 70
0
 71
3
 72
44
 73
40
 74
0
 42
0.0000001
 43
0.0000001
 44
0.0000000001
 40
0.0
 40
0.0
 40
0.0
 40
0.0
 40
0.0055576246
 40
0.0111781252
 40
0.0169221424
 40
0.0228460823
 40
0.0290009394
 40
0.0354314054
 40
0.0421759115
 40
0.0492668554
 40
0.0567309544
 40
0.064590169
 40
0.0728619349
 40
0.0815600558
 40
0.0906951257
 40
0.1002748158
 40
0.110304631
 40
0.1207877759
 40
0.1317257866
 40
0.1431186256
 40
0.1672598102
 40
0.1931873598
 40
0.2208591117
 40
0.2502195474
 40
0.2812018198
 40
0.3137293806
 40
0.3477172232
 40
0.3830728887
 40
0.4196972996
 40
0.4574854911
 40
0.4963273377
 40
0.5361081807
 40
0.5767094102
 40
0.6180090134
 40
0.6598821151
 40
0.7448359269
 40
0.830537715
 40
0.9159396375
 40
1.0
 40
1.0
 40
1.0
 40
1.0
 10
9.6155986974
 20
10.4327424816
 30
0.0
 10
9.615598693
 20
10.4332446648
 30
0.0
 10
9.6156548961
 20
10.4342555871
 30
0.0
 10
9.6159072043
 20
10.4357665822
 30
0.0
 10
9.6163271432
 20
10.4372741944
 30
0.0
 10
9.6169138029
 20
10.4387767086
 30
0.0
 10
9.6176663245
 20
10.4402728631
 30
0.0
 10
9.6185836122
 20
10.4417615491
 30
0.0
 10
9.6196646571
 20
10.4432417314
 30
0.0
 10
9.6209084135
 20
10.4447123917
 30
0.0
 10
9.6223137215
 20
10.4461725905
 30
0.0
 10
9.6238794612
 20
10.44762125
 30
0.0
 10
9.6256043136
 20
10.4490573862
 30
0.0
 10
9.6274869177
 20
10.4504799186
 30
0.0
 10
9.6295257818
 20
10.4518877512
 30
0.0
 10
9.6317192561
 20
10.4532798446
 30
0.0
 10
9.6340656196
 20
10.4546550449
 30
0.0
 10
9.6365629657
 20
10.4560123028
 30
0.0
 10
9.6392092992
 20
10.4573505318
 30
0.0
 10
9.6430073159
 20
10.4591426945
 30
0.0
 10
9.6481191718
 20
10.4613191362
 30
0.0
 10
9.6546966808
 20
10.4637902098
 30
0.0
 10
9.6618099006
 20
10.4661605974
 30
0.0
 10
9.6694357482
 20
10.4684224892
 30
0.0
 10
9.6775495811
 20
10.4705684177
 30
0.0
 10
9.6861250118
 20
10.4725912799
 30
0.0
 10
9.6951341083
 20
10.4744843758
 30
0.0
 10
9.7045474723
 20
10.4762414328
 30
0.0
 10
9.7143343483
 20
10.47785663
 30
0.0
 10
9.7244627292
 20
10.4793246273
 30
0.0
 10
9.7348994715
 20
10.4806405696
 30
0.0
 10
9.7456104139
 20
10.4818001074
 30
0.0
 10
9.7565604787
 20
10.482799399
 30
0.0
 10
9.7677138307
 20
10.4836351653
 30
0.0
 10
9.7828796502
 20
10.484531966
 30
0.0
 10
9.802074344
 20
10.4852229985
 30
0.0
 10
9.8252143799
 20
10.4853691664
 30
0.0
 10
9.8482678509
 20
10.4848340414
 30
0.0
 10
9.8635614721
 20
10.484018176
 30
0.0
 10
9.8711389093
 20
10.4834926789
 30
0.0
  0
SPLINE
  5
408
100
AcDbEntity
  8
0
100
AcDbSpline
 62
7
  6
CONTINUOUS
 70
0
 71
3
 72
44
 73
40
 74
0
 42
0.0000001
 43
0.0000001
 44
0.0000000001
 40
0.0
 40
0.0
 40
0.0
 40
0.0
 40
0.0055576246
 40
0.0111781252
 40
0.0169221424
 40
0.0228460823
 40
0.0290009394
 40
0.0354314054
 40
0.0421759115
 40
0.0492668554
 40
0.0567309544
 40
0.064590169
 40
0.0728619349
 40
0.0815600558
 40
0.0906951257
 40
0.1002748158
 40
0.110304631
 40
0.1207877759
 40
0.1317257866
 40
0.1431186256
 40
0.1672598102
 40
0.1931873598
 40
0.2208591117
 40
0.2502195474
 40
0.2812018198
 40
0.3137293806
 40
0.3477172232
 40
0.3830728887
 40
0.4196972996
 40
0.4574854911
 40
0.4963273377
 40
0.5361081807
 40
0.5767094102
 40
0.6180090134
 40
0.6598821151
 40
0.7448359269
 40
0.830537715
 40
0.9159396375
 40
1.0
 40
1.0
 40
1.0
 40
1.0
 10
12.7548578189
 20
10.2150341221
 30
0.0
 10
12.7548578145
 20
10.2155363052
 30
0.0
 10
12.7549140176
 20
10.2165472276
 30
0.0
 10
12.7551663258
 20
10.2180582227
 30
0.0
 10
12.7555862647
 20
10.2195658349
 30
0.0
 10
12.7561729243
 20
10.2210683491
 30
0.0
 10
12.756925446
 20
10.2225645036
 30
0.0
 10
12.7578427336
 20
10.2240531896
 30
0.0
 10
12.7589237785
 20
10.2255333719
 30
0.0
 10
12.7601675349
 20
10.2270040322
 30
0.0
 10
12.761572843
 20
10.228464231
 30
0.0
 10
12.7631385826
 20
10.2299128905
 30
0.0
 10
12.764863435
 20
10.2313490266
 30
0.0
 10
12.7667460391
 20
10.2327715591
 30
0.0
 10
12.7687849032
 20
10.2341793917
 30
0.0
 10
12.7709783775
 20
10.2355714851
 30
0.0
 10
12.773324741
 20
10.2369466854
 30
0.0
 10
12.7758220871
 20
10.2383039433
 30
0.0
 10
12.7784684206
 20
10.2396421723
 30
0.0
 10
12.7822664373
 20
10.241434335
 30
0.0
 10
12.7873782933
 20
10.2436107767
 30
0.0
 10
12.7939558022
 20
10.2460818503
 30
0.0
 10
12.801069022
 20
10.2484522379
 30
0.0
 10
12.8086948697
 20
10.2507141297
 30
0.0
 10
12.8168087026
 20
10.2528600582
 30
0.0
 10
12.8253841333
 20
10.2548829204
 30
0.0
 10
12.8343932298
 20
10.2567760163
 30
0.0
 10
12.8438065938
 20
10.2585330733
 30
0.0
 10
12.8535934698
 20
10.2601482704
 30
0.0
 10
12.8637218507
 20
10.2616162678
 30
0.0
 10
12.8741585929
 20
10.2629322101
 30
0.0
 10
12.8848695354
 20
10.2640917479
 30
0.0
 10
12.8958196002
 20
10.2650910395
 30
0.0
 10
12.9069729522
 20
10.2659268058
 30
0.0
 10
12.9221387716
 20
10.2668236065
 30
0.0
 10
12.9413334655
 20
10.267514639
 30
0.0
 10
12.9644735014
 20
10.2676608069
 30
0.0
 10
12.9875269724
 20
10.2671256819
 30
0.0
 10
13.0028205935
 20
10.2663098165
 30
0.0
 10
13.0103980308
 20
10.2657843194
 30
0.0
  0
SPLINE
  5
409
100
AcDbEntity
  8
0
100
AcDbSpline
 62
7
  6
CONTINUOUS
 70
0
 71
3
 72
36
 73
32
 74
0
 42
0.0000001
 43
0.0000001
 44
0.0000000001
 40
0.0
 40
0.0
 40
0.0
 40
0.0
 40
0.0958325634
 40
0.1891023555
 40
0.2792432641
 40
0.3657124907
 40
0.4480017797
 40
0.4874318797
 40
0.5256445484
 40
0.5625883581
 40
0.5982156304
 40
0.6324821329
 40
0.6653482299
 40
0.6967786463
 40
0.7267435444
 40
0.7552190339
 40
0.7821878748
 40
0.8076411027
 40
0.8315786922
 40
0.8540122486
 40
0.8749666358
 40
0.8944835825
 40
0.9126254693
 40
0.9294800532
 40
0.9451666526
 40
0.9598414247
 40
0.9737025134
 40
0.9804060178
 40
0.9869995332
 40
0.9935185676
 40
1.0
 40
1.0
 40
1.0
 40
1.0
 10
13.0103980308
 20
10.2657843194
 30
0.0
 10
13.0156853646
 20
10.2654176415
 30
0.0
 10
13.0261110152
 20
10.2645778045
 30
0.0
 10
13.0414726226
 20
10.2629746624
 30
0.0
 10
13.0562759466
 20
10.2610535114
 30
0.0
 10
13.0704221324
 20
10.2588273467
 30
0.0
 10
13.0817402409
 20
10.256701656
 30
0.0
 10
13.0903900066
 20
10.2548514107
 30
0.0
 10
13.0965631494
 20
10.2534170942
 30
0.0
 10
13.1025044317
 20
10.2519188064
 30
0.0
 10
13.1082039647
 20
10.2503590847
 30
0.0
 10
13.1136522527
 20
10.2487405071
 30
0.0
 10
13.1188402448
 20
10.2470658389
 30
0.0
 10
13.1237593284
 20
10.2453378558
 30
0.0
 10
13.1284013636
 20
10.243559464
 30
0.0
 10
13.1327586981
 20
10.2417336437
 30
0.0
 10
13.1368241667
 20
10.239863386
 30
0.0
 10
13.1405911536
 20
10.237951825
 30
0.0
 10
13.1440535371
 20
10.2360019939
 30
0.0
 10
13.1472057904
 20
10.2340170485
 30
0.0
 10
13.1500428956
 20
10.2319999904
 30
0.0
 10
13.152560385
 20
10.2299537741
 30
0.0
 10
13.1547542863
 20
10.2278811738
 30
0.0
 10
13.156620904
 20
10.2257847062
 30
0.0
 10
13.1581568198
 20
10.2236666183
 30
0.0
 10
13.1593582173
 20
10.2215294915
 30
0.0
 10
13.1600854389
 20
10.2197138891
 30
0.0
 10
13.1604877544
 20
10.2182655434
 30
0.0
 10
13.1607011736
 20
10.2171894634
 30
0.0
 10
13.1608292923
 20
10.2161123662
 30
0.0
 10
13.160857794
 20
10.215393051
 30
0.0
 10
13.1608577971
 20
10.2150345945
 30
0.0
  0
SPLINE
  5
40A
100
AcDbEntity
  8
0
100
AcDbSpline
 62
7
  6
CONTINUOUS
 70
0
 71
3
 72
53
 73
49
 74
0
 42
0.0000001
 43
0.0000001
 44
0.0000000001
 40
0.0
 40
0.0
 40
0.0
 40
0.0
 40
0.0417740747
 40
0.0840370059
 40
0.1266586015
 40
0.1695066206
 40
0.2124482643
 40
0.2553502464
 40
0.2980794728
 40
0.3405035203
 40
0.3824911749
 40
0.4239129577
 40
0.4646416591
 40
0.5045528794
 40
0.5435255803
 40
0.5814426526
 40
0.6181915072
 40
0.6536646981
 40
0.6877605949
 40
0.7203841254
 40
0.7361164043
 40
0.7514483531
 40
0.7663703757
 40
0.7808733967
 40
0.7949490545
 40
0.8085896209
 40
0.8217881625
 40
0.8345385373
 40
0.8468355031
 40
0.8586748197
 40
0.8700533035
 40
0.880969049
 40
0.8914214554
 40
0.9014115674
 40
0.9109421276
 40
0.9200180273
 40
0.9286464653
 40
0.9368374971
 40
0.9446043876
 40
0.9519642556
 40
0.9589386637
 40
0.9655543233
 40
0.9718438245
 40
0.977846199
 40
0.9836073748
 40
0.9891800477
 40
0.9946230782
 40
1.0
 40
1.0
 40
1.0
 40
1.0
 10
13.2668927444
 20
9.4140947897
 30
0.0
 10
13.2668927444
 20
9.4016046627
 30
0.0
 10
13.2666978857
 20
9.3764778519
 30
0.0
 10
13.2658364458
 20
9.3386163887
 30
0.0
 10
13.264406672
 20
9.3004507377
 30
0.0
 10
13.2624132456
 20
9.2621072145
 30
0.0
 10
13.2598627578
 20
9.2237126961
 30
0.0
 10
13.2567636375
 20
9.1853941956
 30
0.0
 10
13.2531261517
 20
9.1472784892
 30
0.0
 10
13.2489623582
 20
9.1094916722
 30
0.0
 10
13.2442860718
 20
9.0721587459
 30
0.0
 10
13.2391128168
 20
9.0354031992
 30
0.0
 10
13.2334597772
 20
8.9993465964
 30
0.0
 10
13.2273457408
 20
8.9641081698
 30
0.0
 10
13.2207910381
 20
8.9298044209
 30
0.0
 10
13.2138174777
 20
8.8965487201
 30
0.0
 10
13.2064482726
 20
8.8644509453
 30
0.0
 10
13.1987079731
 20
8.8336170191
 30
0.0
 10
13.190622355
 20
8.8041488443
 30
0.0
 10
13.1835360751
 20
8.7805338797
 30
0.0
 10
13.1777030671
 20
8.7624065941
 30
0.0
 10
13.1733118289
 20
8.7493766431
 30
0.0
 10
13.1688548717
 20
8.7367581459
 30
0.0
 10
13.1643358074
 20
8.7245615132
 30
0.0
 10
13.1597584373
 20
8.7127968019
 30
0.0
 10
13.1551265133
 20
8.7014737165
 30
0.0
 10
13.1504438984
 20
8.6906015787
 30
0.0
 10
13.1457144547
 20
8.6801893366
 30
0.0
 10
13.1409420874
 20
8.6702455476
 30
0.0
 10
13.1361307544
 20
8.6607783639
 30
0.0
 10
13.13128438
 20
8.6517955492
 30
0.0
 10
13.1264069925
 20
8.6433044225
 30
0.0
 10
13.1215025118
 20
8.635311925
 30
0.0
 10
13.116574993
 20
8.6278245124
 30
0.0
 10
13.1116283244
 20
8.620848276
 30
0.0
 10
13.1066665188
 20
8.6143887943
 30
0.0
 10
13.1016933918
 20
8.6084512936
 30
0.0
 10
13.096712818
 20
8.6030404983
 30
0.0
 10
13.091728475
 20
8.5981607975
 30
0.0
 10
13.0867439932
 20
8.5938161663
 30
0.0
 10
13.0817628487
 20
8.5900102897
 30
0.0
 10
13.0767883969
 20
8.586746648
 30
0.0
 10
13.0718240011
 20
8.5840285205
 30
0.0
 10
13.0668730205
 20
8.5818592687
 30
0.0
 10
13.0619393035
 20
8.5802420388
 30
0.0
 10
13.0570268878
 20
8.5791800814
 30
0.0
 10
13.0521417594
 20
8.5786758191
 30
0.0
 10
13.0488984438
 20
8.5787128962
 30
0.0
 10
13.0472946378
 20
8.5788241237
 30
0.0
  0
SPLINE
  5
40B
100
AcDbEntity
  8
0
100
AcDbSpline
 62
7
  6
CONTINUOUS
 70
0
 71
3
 72
36
 73
32
 74
0
 42
0.0000001
 43
0.0000001
 44
0.0000000001
 40
0.0
 40
0.0
 40
0.0
 40
0.0
 40
0.0958325634
 40
0.1891023555
 40
0.2792432641
 40
0.3657124907
 40
0.4480017797
 40
0.4874318797
 40
0.5256445484
 40
0.5625883581
 40
0.5982156304
 40
0.6324821329
 40
0.6653482299
 40
0.6967786463
 40
0.7267435444
 40
0.7552190339
 40
0.7821878748
 40
0.8076411027
 40
0.8315786922
 40
0.8540122486
 40
0.8749666358
 40
0.8944835825
 40
0.9126254693
 40
0.9294800532
 40
0.9451666526
 40
0.9598414247
 40
0.9737025134
 40
0.9804060178
 40
0.9869995332
 40
0.9935185676
 40
1.0
 40
1.0
 40
1.0
 40
1.0
 10
9.8711389093
 20
10.4834926789
 30
0.0
 10
9.8764262432
 20
10.4831260011
 30
0.0
 10
9.8868518937
 20
10.4822861641
 30
0.0
 10
9.9022135011
 20
10.4806830219
 30
0.0
 10
9.9170168252
 20
10.4787618709
 30
0.0
 10
9.9311630109
 20
10.4765357062
 30
0.0
 10
9.9424811194
 20
10.4744100155
 30
0.0
 10
9.9511308852
 20
10.4725597702
 30
0.0
 10
9.957304028
 20
10.4711254537
 30
0.0
 10
9.9632453103
 20
10.4696271659
 30
0.0
 10
9.9689448433
 20
10.4680674442
 30
0.0
 10
9.9743931312
 20
10.4664488666
 30
0.0
 10
9.9795811233
 20
10.4647741984
 30
0.0
 10
9.9845002069
 20
10.4630462153
 30
0.0
 10
9.9891422422
 20
10.4612678235
 30
0.0
 10
9.9934995766
 20
10.4594420032
 30
0.0
 10
9.9975650452
 20
10.4575717456
 30
0.0
 10
10.0013320322
 20
10.4556601845
 30
0.0
 10
10.0047944156
 20
10.4537103535
 30
0.0
 10
10.0079466689
 20
10.451725408
 30
0.0
 10
10.0107837741
 20
10.4497083499
 30
0.0
 10
10.0133012636
 20
10.4476621336
 30
0.0
 10
10.0154951649
 20
10.4455895333
 30
0.0
 10
10.0173617826
 20
10.4434930657
 30
0.0
 10
10.0188976983
 20
10.4413749778
 30
0.0
 10
10.0200990958
 20
10.439237851
 30
0.0
 10
10.0208263174
 20
10.4374222486
 30
0.0
 10
10.0212286329
 20
10.4359739029
 30
0.0
 10
10.0214420522
 20
10.4348978229
 30
0.0
 10
10.0215701709
 20
10.4338207257
 30
0.0
 10
10.0215986726
 20
10.4331014105
 30
0.0
 10
10.0215986757
 20
10.432742954
 30
0.0
  0
SPLINE
  5
40C
100
AcDbEntity
  8
0
100
AcDbSpline
 62
7
  6
CONTINUOUS
 70
0
 71
3
 72
53
 73
49
 74
0
 42
0.0000001
 43
0.0000001
 44
0.0000000001
 40
0.0
 40
0.0
 40
0.0
 40
0.0
 40
0.0417740747
 40
0.0840370059
 40
0.1266586015
 40
0.1695066206
 40
0.2124482643
 40
0.2553502464
 40
0.2980794728
 40
0.3405035203
 40
0.3824911749
 40
0.4239129577
 40
0.4646416591
 40
0.5045528794
 40
0.5435255803
 40
0.5814426526
 40
0.6181915072
 40
0.6536646981
 40
0.6877605949
 40
0.7203841254
 40
0.7361164043
 40
0.7514483531
 40
0.7663703757
 40
0.7808733967
 40
0.7949490545
 40
0.8085896209
 40
0.8217881625
 40
0.8345385373
 40
0.8468355031
 40
0.8586748197
 40
0.8700533035
 40
0.880969049
 40
0.8914214554
 40
0.9014115674
 40
0.9109421276
 40
0.9200180273
 40
0.9286464653
 40
0.9368374971
 40
0.9446043876
 40
0.9519642556
 40
0.9589386637
 40
0.9655543233
 40
0.9718438245
 40
0.977846199
 40
0.9836073748
 40
0.9891800477
 40
0.9946230782
 40
1.0
 40
1.0
 40
1.0
 40
1.0
 10
13.2668927444
 20
7.9652059644
 30
0.0
 10
13.2668927444
 20
7.9527158374
 30
0.0
 10
13.2666978857
 20
7.9275890266
 30
0.0
 10
13.2658364458
 20
7.8897275634
 30
0.0
 10
13.264406672
 20
7.8515619124
 30
0.0
 10
13.2624132456
 20
7.8132183892
 30
0.0
 10
13.2598627578
 20
7.7748238708
 30
0.0
 10
13.2567636375
 20
7.7365053704
 30
0.0
 10
13.2531261517
 20
7.6983896639
 30
0.0
 10
13.2489623582
 20
7.6606028469
 30
0.0
 10
13.2442860718
 20
7.6232699206
 30
0.0
 10
13.2391128168
 20
7.5865143739
 30
0.0
 10
13.2334597772
 20
7.5504577711
 30
0.0
 10
13.2273457408
 20
7.5152193445
 30
0.0
 10
13.2207910381
 20
7.4809155956
 30
0.0
 10
13.2138174777
 20
7.4476598948
 30
0.0
 10
13.2064482726
 20
7.41556212
 30
0.0
 10
13.1987079731
 20
7.3847281939
 30
0.0
 10
13.190622355
 20
7.355260019
 30
0.0
 10
13.1835360751
 20
7.3316450544
 30
0.0
 10
13.1777030671
 20
7.3135177688
 30
0.0
 10
13.1733118289
 20
7.3004878178
 30
0.0
 10
13.1688548717
 20
7.2878693206
 30
0.0
 10
13.1643358074
 20
7.2756726879
 30
0.0
 10
13.1597584373
 20
7.2639079766
 30
0.0
 10
13.1551265133
 20
7.2525848912
 30
0.0
 10
13.1504438984
 20
7.2417127534
 30
0.0
 10
13.1457144547
 20
7.2313005113
 30
0.0
 10
13.1409420874
 20
7.2213567224
 30
0.0
 10
13.1361307544
 20
7.2118895386
 30
0.0
 10
13.13128438
 20
7.2029067239
 30
0.0
 10
13.1264069925
 20
7.1944155972
 30
0.0
 10
13.1215025118
 20
7.1864230997
 30
0.0
 10
13.116574993
 20
7.1789356871
 30
0.0
 10
13.1116283244
 20
7.1719594507
 30
0.0
 10
13.1066665188
 20
7.165499969
 30
0.0
 10
13.1016933918
 20
7.1595624683
 30
0.0
 10
13.096712818
 20
7.1541516731
 30
0.0
 10
13.091728475
 20
7.1492719722
 30
0.0
 10
13.0867439932
 20
7.144927341
 30
0.0
 10
13.0817628487
 20
7.1411214644
 30
0.0
 10
13.0767883969
 20
7.1378578228
 30
0.0
 10
13.0718240011
 20
7.1351396952
 30
0.0
 10
13.0668730205
 20
7.1329704434
 30
0.0
 10
13.0619393035
 20
7.1313532135
 30
0.0
 10
13.0570268878
 20
7.1302912561
 30
0.0
 10
13.0521417594
 20
7.1297869938
 30
0.0
 10
13.0488984438
 20
7.1298240709
 30
0.0
 10
13.0472946378
 20
7.1299352985
 30
0.0
  0
SPLINE
  5
40D
100
AcDbEntity
  8
0
100
AcDbSpline
 62
7
  6
CONTINUOUS
 70
0
 71
3
 72
39
 73
35
 74
0
 42
0.0000001
 43
0.0000001
 44
0.0000000001
 40
0.0
 40
0.0
 40
0.0
 40
0.0
 40
0.0958316692
 40
0.1891006713
 40
0.2792405779
 40
0.3229673496
 40
0.365711151
 40
0.4074094009
 40
0.44800203
 40
0.4874317177
 40
0.5256439125
 40
0.5625873001
 40
0.5982141024
 40
0.6324802019
 40
0.6653458058
 40
0.6967758253
 40
0.7267402733
 40
0.755215278
 40
0.7821837659
 40
0.8076364736
 40
0.8315736893
 40
0.8540068195
 40
0.8749607761
 40
0.8944773435
 40
0.9126188304
 40
0.9294730678
 40
0.9451592994
 40
0.9598338091
 40
0.9668558277
 40
0.9737028614
 40
0.9804062769
 40
0.9869996865
 40
0.993518631
 40
1.0
 40
1.0
 40
1.0
 40
1.0
 10
11.0670115779
 20
9.8416171115
 30
0.0
 10
11.0757630818
 20
9.8410101926
 30
0.0
 10
11.0930194662
 20
9.8396201105
 30
0.0
 10
11.1184456401
 20
9.8369665907
 30
0.0
 10
11.1390675734
 20
9.8342904133
 30
0.0
 10
11.1550546275
 20
9.8318813827
 30
0.0
 10
11.1666308374
 20
9.8299689153
 30
0.0
 10
11.1778950499
 20
9.8279357422
 30
0.0
 10
11.1888284654
 20
9.8257852512
 30
0.0
 10
11.1994128277
 20
9.8235210877
 30
0.0
 10
11.2096304702
 20
9.8211470372
 30
0.0
 10
11.2194643505
 20
9.8186670937
 30
0.0
 10
11.2288980842
 20
9.8160854486
 30
0.0
 10
11.2379159607
 20
9.8134064154
 30
0.0
 10
11.2465029905
 20
9.8106345039
 30
0.0
 10
11.2546449305
 20
9.8077743828
 30
0.0
 10
11.2623282957
 20
9.804830809
 30
0.0
 10
11.269540419
 20
9.8018087133
 30
0.0
 10
11.276269465
 20
9.7987131224
 30
0.0
 10
11.282504438
 20
9.7955490917
 30
0.0
 10
11.2882352567
 20
9.7923217829
 30
0.0
 10
11.2934527386
 20
9.789036319
 30
0.0
 10
11.2981485812
 20
9.7856977083
 30
0.0
 10
11.3023154165
 20
9.782310838
 30
0.0
 10
11.3059466144
 20
9.7788803278
 30
0.0
 10
11.3090361749
 20
9.7754101597
 30
0.0
 10
11.3115781292
 20
9.7719047796
 30
0.0
 10
11.3132594922
 20
9.7689131524
 30
0.0
 10
11.3143075748
 20
9.7665177351
 30
0.0
 10
11.3149421297
 20
9.7647429264
 30
0.0
 10
11.3154361663
 20
9.7629646272
 30
0.0
 10
11.3157893092
 20
9.7611835525
 30
0.0
 10
11.3160012842
 20
9.7594007459
 30
0.0
 10
11.3160484507
 20
9.7582101537
 30
0.0
 10
11.3160484463
 20
9.7576168429
 30
0.0
  0
SPLINE
  5
40E
100
AcDbEntity
  8
0
100
AcDbSpline
 62
7
  6
CONTINUOUS
 70
0
 71
3
 72
50
 73
46
 74
0
 42
0.0000001
 43
0.0000001
 44
0.0000000001
 40
0.0
 40
0.0
 40
0.0
 40
0.0
 40
0.0417744418
 40
0.0840381875
 40
0.1266602114
 40
0.1695088334
 40
0.2124510193
 40
0.2553535638
 40
0.2980833443
 40
0.3405079442
 40
0.3824961454
 40
0.4239184685
 40
0.4646477027
 40
0.5045594474
 40
0.5435326636
 40
0.5814502412
 40
0.6181995892
 40
0.6536732601
 40
0.6877696215
 40
0.7203935994
 40
0.7514575214
 40
0.7808821092
 40
0.7949579392
 40
0.8085987194
 40
0.821797426
 40
0.8345479988
 40
0.8468451249
 40
0.8586846215
 40
0.8700632619
 40
0.8809791687
 40
0.8914317275
 40
0.9014219834
 40
0.9109526898
 40
0.9200287185
 40
0.9286572935
 40
0.9368484417
 40
0.9446154576
 40
0.9519754311
 40
0.9589499519
 40
0.9655657069
 40
0.9778458861
 40
0.9836071497
 40
0.9891799
 40
0.9946230074
 40
1.0
 40
1.0
 40
1.0
 40
1.0
 10
12.7800545224
 20
8.2194007372
 30
0.0
 10
12.7800545224
 20
8.2116865597
 30
0.0
 10
12.7799341698
 20
8.1961676059
 30
0.0
 10
12.7794021317
 20
8.1727834402
 30
0.0
 10
12.778519061
 20
8.14921136
 30
0.0
 10
12.7772878777
 20
8.125529473
 30
0.0
 10
12.7757126321
 20
8.1018160663
 30
0.0
 10
12.7737985412
 20
8.0781496188
 30
0.0
 10
12.7715519411
 20
8.0546084187
 30
0.0
 10
12.7689802811
 20
8.0312703495
 30
0.0
 10
12.7660920928
 20
8.0082126138
 30
0.0
 10
12.7628969647
 20
7.9855114814
 30
0.0
 10
12.7594055101
 20
7.963242033
 30
0.0
 10
12.755629333
 20
7.9414779091
 30
0.0
 10
12.7515809901
 20
7.9202910629
 30
0.0
 10
12.7472739505
 20
7.8997515166
 30
0.0
 10
12.7427225518
 20
7.8799271257
 30
0.0
 10
12.7379419538
 20
7.8608833391
 30
0.0
 10
12.7329480861
 20
7.8426829948
 30
0.0
 10
12.7277576031
 20
7.8253860136
 30
0.0
 10
12.7223877926
 20
7.8090494675
 30
0.0
 10
12.7177119557
 20
7.7960959026
 30
0.0
 10
12.7138857777
 20
7.7862617295
 30
0.0
 10
12.7110249906
 20
7.7792682965
 30
0.0
 10
12.7081328789
 20
7.7725533927
 30
0.0
 10
12.7052118744
 20
7.7661225219
 30
0.0
 10
12.7022643303
 20
7.759980987
 30
0.0
 10
12.6992927436
 20
7.7541338082
 30
0.0
 10
12.6962994974
 20
7.7485857924
 30
0.0
 10
12.6932871065
 20
7.7433414519
 30
0.0
 10
12.6902579793
 20
7.738405077
 30
0.0
 10
12.6872146195
 20
7.7337806569
 30
0.0
 10
12.6841594413
 20
7.7294719459
 30
0.0
 10
12.6810949013
 20
7.7254824038
 30
0.0
 10
12.6780233818
 20
7.7218152363
 30
0.0
 10
12.6749472583
 20
7.7184733958
 30
0.0
 10
12.6718687767
 20
7.7154595309
 30
0.0
 10
12.6687903618
 20
7.7127762411
 30
0.0
 10
12.6657134327
 20
7.7104253871
 30
0.0
 10
12.6617173305
 20
7.7078032826
 30
0.0
 10
12.6576202725
 20
7.7057526566
 30
0.0
 10
12.6534703813
 20
7.7043924411
 30
0.0
 10
12.6504362161
 20
7.7037364821
 30
0.0
 10
12.6474190765
 20
7.7034250234
 30
0.0
 10
12.6454159154
 20
7.7034479162
 30
0.0
 10
12.644425365
 20
7.7035166104
 30
0.0
  0
SPLINE
  5
40F
100
AcDbEntity
  8
0
100
AcDbSpline
 62
7
  6
CONTINUOUS
 70
0
 71
3
 72
50
 73
46
 74
0
 42
0.0000001
 43
0.0000001
 44
0.0000000001
 40
0.0
 40
0.0
 40
0.0
 40
0.0
 40
0.0055575475
 40
0.0111779905
 40
0.0169219494
 40
0.022845874
 40
0.0290006802
 40
0.0354311413
 40
0.0421756235
 40
0.0492665445
 40
0.0567306363
 40
0.0645898203
 40
0.072861554
 40
0.081559664
 40
0.0906946644
 40
0.1002743405
 40
0.1103040801
 40
0.1207871571
 40
0.1317251254
 40
0.1431178344
 40
0.1549638891
 40
0.1672604853
 40
0.1800038776
 40
0.1931891613
 40
0.2208606557
 40
0.2502207678
 40
0.2812026806
 40
0.3137298604
 40
0.3477172945
 40
0.3830725052
 40
0.4196964085
 40
0.4574840669
 40
0.4963253675
 40
0.5361056481
 40
0.5767062875
 40
0.6180052701
 40
0.6598777364
 40
0.7021965195
 40
0.744832668
 40
0.7876559879
 40
0.8305354945
 40
0.8733401402
 40
0.9159387341
 40
0.9582019299
 40
1.0
 40
1.0
 40
1.0
 40
1.0
 10
10.6440484547
 20
9.7576175088
 30
0.0
 10
10.6440484608
 20
9.7584487062
 30
0.0
 10
10.6441415677
 20
9.7601219527
 30
0.0
 10
10.6445592693
 20
9.7626228907
 30
0.0
 10
10.6452543703
 20
9.7651182518
 30
0.0
 10
10.6462255234
 20
9.7676051322
 30
0.0
 10
10.6474710899
 20
9.7700815398
 30
0.0
 10
10.6489894591
 20
9.7725455357
 30
0.0
 10
10.6507788235
 20
9.7749954866
 30
0.0
 10
10.652837513
 20
9.7774296704
 30
0.0
 10
10.6551636052
 20
9.7798465268
 30
0.0
 10
10.6577552219
 20
9.782244298
 30
0.0
 10
10.6606101981
 20
9.7846213406
 30
0.0
 10
10.6637262914
 20
9.7869758421
 30
0.0
 10
10.6671009935
 20
9.7893060581
 30
0.0
 10
10.6707316277
 20
9.7916101698
 30
0.0
 10
10.6746152934
 20
9.7938863615
 30
0.0
 10
10.6787488687
 20
9.7961328488
 30
0.0
 10
10.6831290431
 20
9.798347785
 30
0.0
 10
10.6877522638
 20
9.8005294378
 30
0.0
 10
10.6926148089
 20
9.8026759709
 30
0.0
 10
10.6977127147
 20
9.8047856978
 30
0.0
 10
10.7030418605
 20
9.8068568562
 30
0.0
 10
10.7105716153
 20
9.8096091443
 30
0.0
 10
10.7205371588
 20
9.8129298614
 30
0.0
 10
10.7331591697
 20
9.8166736667
 30
0.0
 10
10.7465889917
 20
9.8202255142
 30
0.0
 10
10.7607827967
 20
9.8235736682
 30
0.0
 10
10.7756943959
 20
9.8267070334
 30
0.0
 10
10.7912751109
 20
9.8296152343
 30
0.0
 10
10.8074740389
 20
9.8322886416
 30
0.0
 10
10.8242382078
 20
9.8347184079
 30
0.0
 10
10.8415127656
 20
9.8368964957
 30
0.0
 10
10.8592411654
 20
9.8388157029
 30
0.0
 10
10.877365356
 20
9.8404696861
 30
0.0
 10
10.8958259761
 20
9.8418529813
 30
0.0
 10
10.9145625528
 20
9.84296102
 30
0.0
 10
10.9335137013
 20
9.8437901433
 30
0.0
 10
10.9526173308
 20
9.8443376148
 30
0.0
 10
10.9718108411
 20
9.8446016252
 30
0.0
 10
10.9910313553
 20
9.844581308
 30
0.0
 10
11.0102158521
 20
9.8442767202
 30
0.0
 10
11.0293015632
 20
9.8436888833
 30
0.0
 10
11.0482257975
 20
9.8428197168
 30
0.0
 10
11.0607751579
 20
9.8420496087
 30
0.0
 10
11.0670115779
 20
9.8416171115
 30
0.0
  0
SPLINE
  5
410
100
AcDbEntity
  8
0
100
AcDbSpline
 62
7
  6
CONTINUOUS
 70
0
 71
3
 72
49
 73
45
 74
0
 42
0.0000001
 43
0.0000001
 44
0.0000000001
 40
0.0
 40
0.0
 40
0.0
 40
0.0
 40
0.0063158739
 40
0.0126706599
 40
0.0191024896
 40
0.0256480301
 40
0.0323419112
 40
0.039216248
 40
0.0536140773
 40
0.06119479
 40
0.0690565573
 40
0.0772176635
 40
0.0856940531
 40
0.0944994572
 40
0.1036455587
 40
0.1131423452
 40
0.122998104
 40
0.1332197191
 40
0.1438128355
 40
0.1547818436
 40
0.1661302067
 40
0.1778604088
 40
0.1899740704
 40
0.2024721524
 40
0.215354813
 40
0.2422706486
 40
0.2707129033
 40
0.3006638566
 40
0.3320991037
 40
0.3649883645
 40
0.3992962141
 40
0.4349826582
 40
0.4720035847
 40
0.5103111049
 40
0.5498539072
 40
0.5905775763
 40
0.6324248432
 40
0.6753357844
 40
0.7192480525
 40
0.764097054
 40
0.809816243
 40
0.856337252
 40
0.9035893524
 40
1.0
 40
1.0
 40
1.0
 40
1.0
 10
13.1399324356
 20
9.914615712
 30
0.0
 10
13.1410640149
 20
9.9145372344
 30
0.0
 10
13.1433287991
 20
9.914287183
 30
0.0
 10
13.1467005869
 20
9.9136353678
 30
0.0
 10
13.1500498432
 20
9.9127069158
 30
0.0
 10
13.1533746022
 20
9.9115025207
 30
0.0
 10
13.1566735482
 20
9.9100228651
 30
0.0
 10
13.1611031739
 20
9.9076483674
 30
0.0
 10
13.1654124739
 20
9.90474157
 30
0.0
 10
13.1695828148
 20
9.9013730975
 30
0.0
 10
13.1727327939
 20
9.8985330387
 30
0.0
 10
13.1758491701
 20
9.8954246288
 30
0.0
 10
13.1789311124
 20
9.8920489225
 30
0.0
 10
13.1819773643
 20
9.8884073869
 30
0.0
 10
13.1849868501
 20
9.8845015297
 30
0.0
 10
13.187958348
 20
9.8803329059
 30
0.0
 10
13.1908907483
 20
9.8759032345
 30
0.0
 10
13.1937828975
 20
9.8712143077
 30
0.0
 10
13.196633609
 20
9.8662680078
 30
0.0
 10
13.1994417995
 20
9.8610663695
 30
0.0
 10
13.2022062935
 20
9.8556114871
 30
0.0
 10
13.2049259833
 20
9.8499055873
 30
0.0
 10
13.2075997841
 20
9.8439510083
 30
0.0
 10
13.2102265798
 20
9.8377501547
 30
0.0
 10
13.2137159306
 20
9.8290296319
 30
0.0
 10
13.2179411663
 20
9.8175222308
 30
0.0
 10
13.222735996
 20
9.8029681942
 30
0.0
 10
13.2273187877
 20
9.7874977347
 30
0.0
 10
13.2316819488
 20
9.7711362288
 30
0.0
 10
13.2358182498
 20
9.7539103488
 30
0.0
 10
13.239720816
 20
9.7358483253
 30
0.0
 10
13.2433831499
 20
9.7169797838
 30
0.0
 10
13.2467991417
 20
9.6973357197
 30
0.0
 10
13.2499631035
 20
9.6769484412
 30
0.0
 10
13.2528697686
 20
9.6558515085
 30
0.0
 10
13.2555142924
 20
9.6340796646
 30
0.0
 10
13.2578922605
 20
9.6116687765
 30
0.0
 10
13.2599997098
 20
9.5886557795
 30
0.0
 10
13.2618331328
 20
9.5650786221
 30
0.0
 10
13.2633894773
 20
9.5409761753
 30
0.0
 10
13.2646661355
 20
9.5163881888
 30
0.0
 10
13.2656609874
 20
9.491355236
 30
0.0
 10
13.2666157818
 20
9.4572120482
 30
0.0
 10
13.2668927444
 20
9.4314096288
 30
0.0
 10
13.2668927444
 20
9.4140947897
 30
0.0
  0
SPLINE
  5
411
100
AcDbEntity
  8
0
100
AcDbSpline
 62
7
  6
CONTINUOUS
 70
0
 71
3
 72
39
 73
35
 74
0
 42
0.0000001
 43
0.0000001
 44
0.0000000001
 40
0.0
 40
0.0
 40
0.0
 40
0.0
 40
0.0064893326
 40
0.0131516268
 40
0.027080343
 40
0.0343924063
 40
0.0419574861
 40
0.0579005888
 40
0.0750117479
 40
0.0933639077
 40
0.1130098011
 40
0.1339856834
 40
0.1563144939
 40
0.1800082202
 40
0.2050696763
 40
0.2314940874
 40
0.2592702318
 40
0.2883812112
 40
0.3188052458
 40
0.350516296
 40
0.3834844239
 40
0.4176761851
 40
0.4530550432
 40
0.489581583
 40
0.5272136884
 40
0.5659068588
 40
0.6056143772
 40
0.6462873891
 40
0.6878751541
 40
0.7303251874
 40
0.7735833016
 40
0.8175939669
 40
0.9076415146
 40
1.0
 40
1.0
 40
1.0
 40
1.0
 10
13.1241869302
 20
9.9128618337
 30
0.0
 10
13.1252185078
 20
9.9123971745
 30
0.0
 10
13.1272778343
 20
9.9113842281
 30
0.0
 10
13.1313749961
 20
9.90903315
 30
0.0
 10
13.1353650528
 20
9.9062279604
 30
0.0
 10
13.1392351546
 20
9.9030250407
 30
0.0
 10
13.1432007427
 20
9.8993959203
 30
0.0
 10
13.1480805767
 20
9.894250114
 30
0.0
 10
13.1537103233
 20
9.8872660889
 30
0.0
 10
13.1592075934
 20
9.8793775875
 30
0.0
 10
13.1645656637
 20
9.8705956664
 30
0.0
 10
13.1697780431
 20
9.8609319641
 30
0.0
 10
13.1748378841
 20
9.8503995701
 30
0.0
 10
13.179738345
 20
9.8390128479
 30
0.0
 10
13.1844726829
 20
9.826787519
 30
0.0
 10
13.1890342625
 20
9.8137405724
 30
0.0
 10
13.1934166062
 20
9.7998902411
 30
0.0
 10
13.1976134938
 20
9.7852559871
 30
0.0
 10
13.2016189372
 20
9.7698584409
 30
0.0
 10
13.2054271807
 20
9.753719352
 30
0.0
 10
13.2090327636
 20
9.7368615703
 30
0.0
 10
13.212430526
 20
9.7193090024
 30
0.0
 10
13.2156155771
 20
9.7010865571
 30
0.0
 10
13.2185833294
 20
9.6822201168
 30
0.0
 10
13.2213295381
 20
9.6627365034
 30
0.0
 10
13.2238502547
 20
9.6426634241
 30
0.0
 10
13.2261418399
 20
9.6220294324
 30
0.0
 10
13.2282010156
 20
9.6008638946
 30
0.0
 10
13.2300248288
 20
9.5791969379
 30
0.0
 10
13.2316106349
 20
9.557059418
 30
0.0
 10
13.23295619
 20
9.534482818
 30
0.0
 10
13.2344384995
 20
9.5036031654
 30
0.0
 10
13.23566539
 20
9.4641438046
 30
0.0
 10
13.2359831154
 20
9.4323408321
 30
0.0
 10
13.2359831154
 20
9.4162383797
 30
0.0
  0
SPLINE
  5
412
100
AcDbEntity
  8
0
100
AcDbSpline
 62
7
  6
CONTINUOUS
 70
0
 71
3
 72
51
 73
47
 74
0
 42
0.0000001
 43
0.0000001
 44
0.0000000001
 40
0.0
 40
0.0
 40
0.0
 40
0.0
 40
0.0056119767
 40
0.0114532179
 40
0.0175628359
 40
0.023974297
 40
0.0307157283
 40
0.037810429
 40
0.0452774091
 40
0.0531319509
 40
0.0613861084
 40
0.0700491589
 40
0.0791279915
 40
0.0886274273
 40
0.0985505061
 40
0.1088986983
 40
0.1196721181
 40
0.1308696554
 40
0.1424891413
 40
0.1545274222
 40
0.1669804967
 40
0.1798435478
 40
0.1931110635
 40
0.2067768389
 40
0.2208340871
 40
0.2352754204
 40
0.2652776374
 40
0.2967152574
 40
0.3295123145
 40
0.3635866463
 40
0.3988505686
 40
0.4352114696
 40
0.472572349
 40
0.510832317
 40
0.5498870653
 40
0.5896293197
 40
0.6299492774
 40
0.670735036
 40
0.7118730154
 40
0.7532483756
 40
0.7947454307
 40
0.8362480653
 40
0.8776401362
 40
0.9188059146
 40
0.9596304242
 40
1.0
 40
1.0
 40
1.0
 40
1.0
 10
13.0320545989
 20
8.582767657
 30
0.0
 10
13.0336354381
 20
8.5832343642
 30
0.0
 10
13.0368163581
 20
8.5843466377
 30
0.0
 10
13.0415182568
 20
8.5864827413
 30
0.0
 10
13.0462327999
 20
8.5891135111
 30
0.0
 10
13.0509563703
 20
8.5922360579
 30
0.0
 10
13.0556862449
 20
8.595847619
 30
0.0
 10
13.0604194142
 20
8.5999452546
 30
0.0
 10
13.0651528689
 20
8.6045258296
 30
0.0
 10
13.0698834805
 20
8.6095859538
 30
0.0
 10
13.0746080425
 20
8.6151219363
 30
0.0
 10
13.0793232775
 20
8.6211297579
 30
0.0
 10
13.0840258459
 20
8.6276050613
 30
0.0
 10
13.0887123806
 20
8.6345431313
 30
0.0
 10
13.0933794723
 20
8.6419389084
 30
0.0
 10
13.0980237188
 20
8.6497869708
 30
0.0
 10
13.102641689
 20
8.6580815584
 30
0.0
 10
13.1072299846
 20
8.6668165554
 30
0.0
 10
13.1117851857
 20
8.6759855186
 30
0.0
 10
13.1163039243
 20
8.6855816596
 30
0.0
 10
13.1207828155
 20
8.6955978746
 30
0.0
 10
13.1252185402
 20
8.7060267276
 30
0.0
 10
13.1296077674
 20
8.71686048
 30
0.0
 10
13.1339472348
 20
8.7280910719
 30
0.0
 10
13.1382337071
 20
8.7397101658
 30
0.0
 10
13.1439467921
 20
8.755915345
 30
0.0
 10
13.1509184841
 20
8.777086876
 30
0.0
 10
13.1589207866
 20
8.8035857277
 30
0.0
 10
13.1666381259
 20
8.8314120259
 30
0.0
 10
13.1740473343
 20
8.8604828725
 30
0.0
 10
13.1811261533
 20
8.8907118217
 30
0.0
 10
13.1878533327
 20
8.9220088449
 30
0.0
 10
13.1942086858
 20
8.9542807011
 30
0.0
 10
13.200173151
 20
8.987431201
 30
0.0
 10
13.2057288471
 20
9.0213615081
 30
0.0
 10
13.2108591264
 20
9.0559704386
 30
0.0
 10
13.2155486227
 20
9.0911547675
 30
0.0
 10
13.2197832966
 20
9.1268095409
 30
0.0
 10
13.223550477
 20
9.1628283917
 30
0.0
 10
13.226838898
 20
9.1991038598
 30
0.0
 10
13.2296387327
 20
9.2355277146
 30
0.0
 10
13.2319416213
 20
9.2719912812
 30
0.0
 10
13.2337406983
 20
9.3083857603
 30
0.0
 10
13.2350306091
 20
9.3446025841
 30
0.0
 10
13.2358075322
 20
9.3805336045
 30
0.0
 10
13.2359831154
 20
9.40438144
 30
0.0
 10
13.2359831154
 20
9.4162383797
 30
0.0
  0
SPLINE
  5
413
100
AcDbEntity
  8
0
100
AcDbSpline
 62
7
  6
CONTINUOUS
 70
0
 71
3
 72
49
 73
45
 74
0
 42
0.0000001
 43
0.0000001
 44
0.0000000001
 40
0.0
 40
0.0
 40
0.0
 40
0.0
 40
0.0066704173
 40
0.0132428534
 40
0.0197604443
 40
0.0262675126
 40
0.0328086194
 40
0.0394275724
 40
0.0461665439
 40
0.0530652474
 40
0.0601604775
 40
0.0674857224
 40
0.0750709668
 40
0.0829428634
 40
0.0911247083
 40
0.0996366965
 40
0.1084962988
 40
0.117718294
 40
0.1273152045
 40
0.1372975668
 40
0.1476739389
 40
0.1584513626
 40
0.1696354343
 40
0.1812303451
 40
0.2056625186
 40
0.2317631378
 40
0.2595318338
 40
0.2889571533
 40
0.3200182242
 40
0.3526862465
 40
0.3869255856
 40
0.4226945153
 40
0.4599458729
 40
0.4986277252
 40
0.5386838121
 40
0.5800538384
 40
0.6226738961
 40
0.66647683
 40
0.7113924558
 40
0.757347711
 40
0.8042672336
 40
0.8520731969
 40
0.9006851209
 40
1.0
 40
1.0
 40
1.0
 40
1.0
 10
13.08716257
 20
9.7196673733
 30
0.0
 10
13.0880089814
 20
9.7198401422
 30
0.0
 10
13.0897038397
 20
9.7201167055
 30
0.0
 10
13.0922578838
 20
9.7203183694
 30
0.0
 10
13.0947989209
 20
9.7203028344
 30
0.0
 10
13.0973252051
 20
9.720069906
 30
0.0
 10
13.0998352624
 20
9.7196198479
 30
0.0
 10
13.1023276096
 20
9.718953024
 30
0.0
 10
13.104800844
 20
9.7180699389
 30
0.0
 10
13.1072537279
 20
9.7169713873
 30
0.0
 10
13.109685084
 20
9.7156581147
 30
0.0
 10
13.1120938294
 20
9.7141309766
 30
0.0
 10
13.114479005
 20
9.7123909434
 30
0.0
 10
13.1168396034
 20
9.7104389047
 30
0.0
 10
13.1191747005
 20
9.7082758852
 30
0.0
 10
13.1214833922
 20
9.7059029575
 30
0.0
 10
13.1237646898
 20
9.7033211852
 30
0.0
 10
13.1260177002
 20
9.7005317933
 30
0.0
 10
13.1282414828
 20
9.6975360409
 30
0.0
 10
13.1304350487
 20
9.6943352489
 30
0.0
 10
13.1325975097
 20
9.6909308887
 30
0.0
 10
13.1347278883
 20
9.6873244725
 30
0.0
 10
13.1368252589
 20
9.6835176054
 30
0.0
 10
13.1396254606
 20
9.6780816149
 30
0.0
 10
13.1430259056
 20
9.6707856333
 30
0.0
 10
13.1468918165
 20
9.6614077847
 30
0.0
 10
13.1506044253
 20
9.6512768572
 30
0.0
 10
13.1541569816
 20
9.640411143
 30
0.0
 10
13.1575430337
 20
9.6288300705
 30
0.0
 10
13.1607563661
 20
9.6165545563
 30
0.0
 10
13.163791046
 20
9.6036068158
 30
0.0
 10
13.1666414661
 20
9.5900103628
 30
0.0
 10
13.1693023716
 20
9.5757899449
 30
0.0
 10
13.1717688376
 20
9.5609714749
 30
0.0
 10
13.1740362851
 20
9.5455819812
 30
0.0
 10
13.176100528
 20
9.529649565
 30
0.0
 10
13.1779577531
 20
9.5132033374
 30
0.0
 10
13.1796045161
 20
9.4962733529
 30
0.0
 10
13.1810377581
 20
9.4788905706
 30
0.0
 10
13.1822548462
 20
9.4610867712
 30
0.0
 10
13.1832535144
 20
9.4428945367
 30
0.0
 10
13.1840319205
 20
9.4243471664
 30
0.0
 10
13.1847794156
 20
9.3990090162
 30
0.0
 10
13.1849958056
 20
9.3798503674
 30
0.0
 10
13.1849958056
 20
9.3669884174
 30
0.0
  0
SPLINE
  5
414
100
AcDbEntity
  8
0
100
AcDbSpline
 62
7
  6
CONTINUOUS
 70
0
 71
3
 72
28
 73
24
 74
0
 42
0.0000001
 43
0.0000001
 44
0.0000000001
 40
0.0
 40
0.0
 40
0.0
 40
0.0
 40
0.0193594547
 40
0.0395948775
 40
0.0607084794
 40
0.0826993388
 40
0.1055643143
 40
0.129297727
 40
0.1538921709
 40
0.1793381795
 40
0.2056248449
 40
0.2327396016
 40
0.2893950196
 40
0.3491804262
 40
0.411952124
 40
0.4775508965
 40
0.5458038093
 40
0.6165257768
 40
0.6895208082
 40
0.7645835196
 40
0.8414994246
 40
0.9200480136
 40
1.0
 40
1.0
 40
1.0
 40
1.0
 10
13.0319029624
 20
9.6607200939
 30
0.0
 10
13.0327639427
 20
9.6589937786
 30
0.0
 10
13.034463522
 20
9.6554321798
 30
0.0
 10
13.0368982663
 20
9.6498934665
 30
0.0
 10
13.03927276
 20
9.6440446759
 30
0.0
 10
13.0415851919
 20
9.6378904533
 30
0.0
 10
13.0438336819
 20
9.6314355471
 30
0.0
 10
13.0460165399
 20
9.6246850143
 30
0.0
 10
13.0481319781
 20
9.6176441181
 30
0.0
 10
13.0501783821
 20
9.6103183813
 30
0.0
 10
13.0521541145
 20
9.6027135302
 30
0.0
 10
13.0547298433
 20
9.5920530323
 30
0.0
 10
13.0577490887
 20
9.5780679283
 30
0.0
 10
13.0610163501
 20
9.5605092796
 30
0.0
 10
13.0639681922
 20
9.5419920316
 30
0.0
 10
13.0665951802
 20
9.5225743882
 30
0.0
 10
13.068888871
 20
9.5023172485
 30
0.0
 10
13.0708419016
 20
9.4812842858
 30
0.0
 10
13.0724480059
 20
9.4595416264
 30
0.0
 10
13.0737020102
 20
9.4371577211
 30
0.0
 10
13.0745998993
 20
9.4142029411
 30
0.0
 10
13.0751387453
 20
9.3907497138
 30
0.0
 10
13.0752565305
 20
9.3749553656
 30
0.0
 10
13.0752565305
 20
9.3669884112
 30
0.0
  0
SPLINE
  5
415
100
AcDbEntity
  8
0
100
AcDbSpline
 62
7
  6
CONTINUOUS
 70
0
 71
3
 72
21
 73
17
 74
0
 42
0.0000001
 43
0.0000001
 44
0.0000000001
 40
0.0
 40
0.0
 40
0.0
 40
0.0
 40
0.047927369
 40
0.0981832875
 40
0.1507063716
 40
0.2054271211
 40
0.262268639
 40
0.3211475953
 40
0.3819747697
 40
0.4446553604
 40
0.5090896899
 40
0.5751736158
 40
0.6427986913
 40
0.7118530234
 40
0.8537798415
 40
1.0
 40
1.0
 40
1.0
 40
1.0
 10
13.0011974247
 20
9.583723678
 30
0.0
 10
13.0021706629
 20
9.5802446755
 30
0.0
 10
13.0040592819
 20
9.573087911
 30
0.0
 10
13.0066704999
 20
9.5620313518
 30
0.0
 10
13.0091234069
 20
9.5504147634
 30
0.0
 10
13.0114133903
 20
9.5382596103
 30
0.0
 10
13.0135362001
 20
9.5255882201
 30
0.0
 10
13.0154878646
 20
9.5124239367
 30
0.0
 10
13.0172647206
 20
9.498791016
 30
0.0
 10
13.0188634642
 20
9.4847146037
 30
0.0
 10
13.0202811134
 20
9.4702206722
 30
0.0
 10
13.0215149949
 20
9.4553359802
 30
0.0
 10
13.0225628409
 20
9.4400879761
 30
0.0
 10
13.0237197282
 20
9.4191191281
 30
0.0
 10
13.0246761111
 20
9.3922087572
 30
0.0
 10
13.0249227247
 20
9.3704885468
 30
0.0
 10
13.0249227247
 20
9.3594670709
 30
0.0
  0
SPLINE
  5
416
100
AcDbEntity
  8
0
100
AcDbSpline
 62
7
  6
CONTINUOUS
 70
0
 71
3
 72
53
 73
49
 74
0
 42
0.0000001
 43
0.0000001
 44
0.0000000001
 40
0.0
 40
0.0
 40
0.0
 40
0.0
 40
0.00561882
 40
0.0111420428
 40
0.0166418616
 40
0.0221914682
 40
0.0278619549
 40
0.0337195974
 40
0.0398239585
 40
0.0462268852
 40
0.0529723767
 40
0.0600969397
 40
0.0676303569
 40
0.075596455
 40
0.0840140046
 40
0.0928973914
 40
0.1022573641
 40
0.1121014886
 40
0.1224347163
 40
0.1332596478
 40
0.1445769649
 40
0.1563855586
 40
0.1686828695
 40
0.1814649241
 40
0.1947266187
 40
0.2084616942
 40
0.2226629851
 40
0.2373223538
 40
0.2524309172
 40
0.2679789554
 40
0.300350572
 40
0.3343473976
 40
0.3698695492
 40
0.4068090749
 40
0.4450509009
 40
0.4844736716
 40
0.524950517
 40
0.5663497708
 40
0.6085356546
 40
0.6513689391
 40
0.6947075901
 40
0.7384074048
 40
0.7823226395
 40
0.8263066389
 40
0.8702124484
 40
0.913893467
 40
0.9572039929
 40
1.0
 40
1.0
 40
1.0
 40
1.0
 10
13.021940359
 20
8.7791903709
 30
0.0
 10
13.0230728035
 20
8.7787899993
 30
0.0
 10
13.0253646381
 20
8.778119272
 30
0.0
 10
13.0288803657
 20
8.7775251377
 30
0.0
 10
13.0324276946
 20
8.7773564792
 30
0.0
 10
13.0360009223
 20
8.7776135554
 30
0.0
 10
13.0395952984
 20
8.778295224
 30
0.0
 10
13.0432065344
 20
8.7793994286
 30
0.0
 10
13.0468310869
 20
8.7809236939
 30
0.0
 10
13.0504659807
 20
8.7828653346
 30
0.0
 10
13.0541085179
 20
8.7852217319
 30
0.0
 10
13.0577561459
 20
8.7879901932
 30
0.0
 10
13.0614062274
 20
8.7911680109
 30
0.0
 10
13.0650560891
 20
8.7947522458
 30
0.0
 10
13.0687028838
 20
8.7987397736
 30
0.0
 10
13.0723437317
 20
8.8031271189
 30
0.0
 10
13.0759755995
 20
8.807910527
 30
0.0
 10
13.0795954678
 20
8.8130858498
 30
0.0
 10
13.0832001987
 20
8.8186486261
 30
0.0
 10
13.0867867083
 20
8.8245939992
 30
0.0
 10
13.0903518201
 20
8.8309167932
 30
0.0
 10
13.093892438
 20
8.8376114503
 30
0.0
 10
13.097405391
 20
8.8446720976
 30
0.0
 10
13.1008876055
 20
8.8520924985
 30
0.0
 10
13.1043359448
 20
8.8598661097
 30
0.0
 10
13.1077473805
 20
8.8679860429
 30
0.0
 10
13.1111188322
 20
8.876445114
 30
0.0
 10
13.1144473277
 20
8.8852358106
 30
0.0
 10
13.117729884
 20
8.8943503456
 30
0.0
 10
13.1221003001
 20
8.9070958542
 30
0.0
 10
13.1274149951
 20
8.9237837553
 30
0.0
 10
13.1334816921
 20
8.9447052326
 30
0.0
 10
13.1392983398
 20
8.9667090578
 30
0.0
 10
13.1448440779
 20
8.9897169862
 30
0.0
 10
13.150098998
 20
9.0136473375
 30
0.0
 10
13.1550442556
 20
9.0384150255
 30
0.0
 10
13.159662125
 20
9.0639319556
 30
0.0
 10
13.1639360649
 20
9.0901073265
 30
0.0
 10
13.1678507746
 20
9.1168479683
 30
0.0
 10
13.171392248
 20
9.1440586782
 30
0.0
 10
13.1745478223
 20
9.1716425654
 30
0.0
 10
13.1773062219
 20
9.1995013994
 30
0.0
 10
13.1796575987
 20
9.2275359629
 30
0.0
 10
13.1815935658
 20
9.2556464095
 30
0.0
 10
13.1831072292
 20
9.2837326152
 30
0.0
 10
13.1841932091
 20
9.3116945669
 30
0.0
 10
13.1848476638
 20
9.3394325897
 30
0.0
 10
13.1849958056
 20
9.3578399073
 30
0.0
 10
13.1849958056
 20
9.3669884174
 30
0.0
  0
SPLINE
  5
417
100
AcDbEntity
  8
0
100
AcDbSpline
 62
7
  6
CONTINUOUS
 70
0
 71
3
 72
33
 73
29
 74
0
 42
0.0000001
 43
0.0000001
 44
0.0000000001
 40
0.0
 40
0.0
 40
0.0
 40
0.0
 40
0.0175121783
 40
0.0362798577
 40
0.056301981
 40
0.0775684451
 40
0.1000616129
 40
0.1237573975
 40
0.1486261355
 40
0.1746333417
 40
0.2017402556
 40
0.2299042365
 40
0.2590791531
 40
0.2892157598
 40
0.3202619723
 40
0.3521630722
 40
0.3848619622
 40
0.4182994179
 40
0.452414279
 40
0.4871436054
 40
0.5224228917
 40
0.558186269
 40
0.6308947143
 40
0.7047223411
 40
0.7791103539
 40
0.8534945071
 40
0.9273103032
 40
1.0
 40
1.0
 40
1.0
 40
1.0
 10
12.9753164478
 20
8.8451573697
 30
0.0
 10
12.9770887918
 20
8.8477400237
 30
0.0
 10
12.9806101461
 20
8.8531946488
 30
0.0
 10
12.9856688529
 20
8.8619057067
 30
0.0
 10
12.9906769899
 20
8.8714118261
 30
0.0
 10
12.9956243633
 20
8.8816939718
 30
0.0
 10
13.0005011017
 20
8.8927319046
 30
0.0
 10
13.0052973346
 20
8.9045036077
 30
0.0
 10
13.0100033596
 20
8.9169855343
 30
0.0
 10
13.0146096191
 20
8.930152639
 30
0.0
 10
13.0191067422
 20
8.9439784547
 30
0.0
 10
13.023485586
 20
8.958435135
 30
0.0
 10
13.027737255
 20
8.9734935227
 30
0.0
 10
13.031853103
 20
8.9891232293
 30
0.0
 10
13.0358247526
 20
9.0052926978
 30
0.0
 10
13.0396441341
 20
9.0219692575
 30
0.0
 10
13.0433034938
 20
9.0391191967
 30
0.0
 10
13.0467953963
 20
9.0567078429
 30
0.0
 10
13.0501127417
 20
9.0746996342
 30
0.0
 10
13.0532487915
 20
9.0930581721
 30
0.0
 10
13.0561972136
 20
9.1117463432
 30
0.0
 10
13.0598903739
 20
9.137192183
 30
0.0
 10
13.0639884761
 20
9.1695438054
 30
0.0
 10
13.0680476356
 20
9.208853502
 30
0.0
 10
13.0712416151
 20
9.2485436767
 30
0.0
 10
13.0735446154
 20
9.2882934132
 30
0.0
 10
13.0749380465
 20
9.3277813058
 30
0.0
 10
13.0752565305
 20
9.353986833
 30
0.0
 10
13.0752565305
 20
9.3669884112
 30
0.0
  0
SPLINE
  5
418
100
AcDbEntity
  8
0
100
AcDbSpline
 62
7
  6
CONTINUOUS
 70
0
 71
3
 72
28
 73
24
 74
0
 42
0.0000001
 43
0.0000001
 44
0.0000000001
 40
0.0
 40
0.0
 40
0.0
 40
0.0
 40
0.0218607389
 40
0.0446751611
 40
0.0684213513
 40
0.0930747222
 40
0.118608128
 40
0.1449923204
 40
0.1721959414
 40
0.2001857421
 40
0.2289268391
 40
0.2583826427
 40
0.3192838203
 40
0.3825709192
 40
0.4479058068
 40
0.5149350534
 40
0.5832928408
 40
0.6526038325
 40
0.7224859369
 40
0.792553024
 40
0.8624178181
 40
0.9316936411
 40
1.0
 40
1.0
 40
1.0
 40
1.0
 10
12.9555681244
 20
8.925710201
 30
0.0
 10
12.9568547763
 20
8.9286607018
 30
0.0
 10
12.9594049607
 20
8.9347252282
 30
0.0
 10
12.963090606
 20
8.9441022697
 30
0.0
 10
12.9667140369
 20
8.9539429053
 30
0.0
 10
12.9702698362
 20
8.9642326245
 30
0.0
 10
12.9737527911
 20
8.9749563359
 30
0.0
 10
12.9771577133
 20
8.9860982782
 30
0.0
 10
12.9804795738
 20
8.9976420662
 30
0.0
 10
12.9837134674
 20
9.0095707052
 30
0.0
 10
12.9868546039
 20
9.0218666535
 30
0.0
 10
12.9909584769
 20
9.0389165311
 30
0.0
 10
12.9958106073
 20
9.0610158403
 30
0.0
 10
13.001131125
 20
9.0884123961
 30
0.0
 10
13.0059806044
 20
9.1168119432
 30
0.0
 10
13.0103302506
 20
9.1460471779
 30
0.0
 10
13.0141542362
 20
9.1759460083
 30
0.0
 10
13.0174298919
 20
9.2063323153
 30
0.0
 10
13.0201378191
 20
9.237027093
 30
0.0
 10
13.0222620137
 20
9.2678494958
 30
0.0
 10
13.0237899533
 20
9.2986178763
 30
0.0
 10
13.024712716
 20
9.329150888
 30
0.0
 10
13.0249227247
 20
9.3494094414
 30
0.0
 10
13.0249227247
 20
9.3594670709
 30
0.0
  0
SPLINE
  5
419
100
AcDbEntity
  8
0
100
AcDbSpline
 62
7
  6
CONTINUOUS
 70
0
 71
3
 72
49
 73
45
 74
0
 42
0.0000001
 43
0.0000001
 44
0.0000000001
 40
0.0
 40
0.0
 40
0.0
 40
0.0
 40
0.0063158739
 40
0.0126706599
 40
0.0191024896
 40
0.0256480301
 40
0.0323419112
 40
0.039216248
 40
0.0536140773
 40
0.06119479
 40
0.0690565573
 40
0.0772176635
 40
0.0856940531
 40
0.0944994572
 40
0.1036455587
 40
0.1131423452
 40
0.122998104
 40
0.1332197191
 40
0.1438128355
 40
0.1547818436
 40
0.1661302067
 40
0.1778604088
 40
0.1899740704
 40
0.2024721524
 40
0.215354813
 40
0.2422706486
 40
0.2707129033
 40
0.3006638566
 40
0.3320991037
 40
0.3649883645
 40
0.3992962141
 40
0.4349826582
 40
0.4720035847
 40
0.5103111049
 40
0.5498539072
 40
0.5905775763
 40
0.6324248432
 40
0.6753357844
 40
0.7192480525
 40
0.764097054
 40
0.809816243
 40
0.856337252
 40
0.9035893524
 40
1.0
 40
1.0
 40
1.0
 40
1.0
 10
13.1399324356
 20
8.4657268867
 30
0.0
 10
13.1410640149
 20
8.4656484091
 30
0.0
 10
13.1433287991
 20
8.4653983577
 30
0.0
 10
13.1467005869
 20
8.4647465425
 30
0.0
 10
13.1500498432
 20
8.4638180905
 30
0.0
 10
13.1533746022
 20
8.4626136955
 30
0.0
 10
13.1566735482
 20
8.4611340398
 30
0.0
 10
13.1611031739
 20
8.4587595421
 30
0.0
 10
13.1654124739
 20
8.4558527447
 30
0.0
 10
13.1695828148
 20
8.4524842722
 30
0.0
 10
13.1727327939
 20
8.4496442134
 30
0.0
 10
13.1758491701
 20
8.4465358035
 30
0.0
 10
13.1789311124
 20
8.4431600972
 30
0.0
 10
13.1819773643
 20
8.4395185616
 30
0.0
 10
13.1849868501
 20
8.4356127044
 30
0.0
 10
13.187958348
 20
8.4314440806
 30
0.0
 10
13.1908907483
 20
8.4270144093
 30
0.0
 10
13.1937828975
 20
8.4223254824
 30
0.0
 10
13.196633609
 20
8.4173791825
 30
0.0
 10
13.1994417995
 20
8.4121775442
 30
0.0
 10
13.2022062935
 20
8.4067226618
 30
0.0
 10
13.2049259833
 20
8.401016762
 30
0.0
 10
13.2075997841
 20
8.3950621831
 30
0.0
 10
13.2102265798
 20
8.3888613294
 30
0.0
 10
13.2137159306
 20
8.3801408067
 30
0.0
 10
13.2179411663
 20
8.3686334055
 30
0.0
 10
13.222735996
 20
8.3540793689
 30
0.0
 10
13.2273187877
 20
8.3386089094
 30
0.0
 10
13.2316819488
 20
8.3222474035
 30
0.0
 10
13.2358182498
 20
8.3050215235
 30
0.0
 10
13.239720816
 20
8.2869595
 30
0.0
 10
13.2433831499
 20
8.2680909585
 30
0.0
 10
13.2467991417
 20
8.2484468944
 30
0.0
 10
13.2499631035
 20
8.2280596159
 30
0.0
 10
13.2528697686
 20
8.2069626833
 30
0.0
 10
13.2555142924
 20
8.1851908393
 30
0.0
 10
13.2578922605
 20
8.1627799512
 30
0.0
 10
13.2599997098
 20
8.1397669542
 30
0.0
 10
13.2618331328
 20
8.1161897968
 30
0.0
 10
13.2633894773
 20
8.09208735
 30
0.0
 10
13.2646661355
 20
8.0674993635
 30
0.0
 10
13.2656609874
 20
8.0424664108
 30
0.0
 10
13.2666157818
 20
8.0083232229
 30
0.0
 10
13.2668927444
 20
7.9825208035
 30
0.0
 10
13.2668927444
 20
7.9652059644
 30
0.0
  0
SPLINE
  5
41A
100
AcDbEntity
  8
0
100
AcDbSpline
 62
7
  6
CONTINUOUS
 70
0
 71
3
 72
39
 73
35
 74
0
 42
0.0000001
 43
0.0000001
 44
0.0000000001
 40
0.0
 40
0.0
 40
0.0
 40
0.0
 40
0.0064893326
 40
0.0131516268
 40
0.027080343
 40
0.0343924063
 40
0.0419574861
 40
0.0579005888
 40
0.0750117479
 40
0.0933639077
 40
0.1130098011
 40
0.1339856834
 40
0.1563144939
 40
0.1800082202
 40
0.2050696763
 40
0.2314940874
 40
0.2592702318
 40
0.2883812112
 40
0.3188052458
 40
0.350516296
 40
0.3834844239
 40
0.4176761851
 40
0.4530550432
 40
0.489581583
 40
0.5272136884
 40
0.5659068588
 40
0.6056143772
 40
0.6462873891
 40
0.6878751541
 40
0.7303251874
 40
0.7735833016
 40
0.8175939669
 40
0.9076415146
 40
1.0
 40
1.0
 40
1.0
 40
1.0
 10
13.1241869302
 20
8.4639730084
 30
0.0
 10
13.1252185078
 20
8.4635083492
 30
0.0
 10
13.1272778343
 20
8.4624954028
 30
0.0
 10
13.1313749961
 20
8.4601443247
 30
0.0
 10
13.1353650528
 20
8.4573391351
 30
0.0
 10
13.1392351546
 20
8.4541362154
 30
0.0
 10
13.1432007427
 20
8.4505070951
 30
0.0
 10
13.1480805767
 20
8.4453612887
 30
0.0
 10
13.1537103233
 20
8.4383772636
 30
0.0
 10
13.1592075934
 20
8.4304887622
 30
0.0
 10
13.1645656637
 20
8.4217068411
 30
0.0
 10
13.1697780431
 20
8.4120431388
 30
0.0
 10
13.1748378841
 20
8.4015107448
 30
0.0
 10
13.179738345
 20
8.3901240226
 30
0.0
 10
13.1844726829
 20
8.3778986937
 30
0.0
 10
13.1890342625
 20
8.3648517471
 30
0.0
 10
13.1934166062
 20
8.3510014158
 30
0.0
 10
13.1976134938
 20
8.3363671619
 30
0.0
 10
13.2016189372
 20
8.3209696156
 30
0.0
 10
13.2054271807
 20
8.3048305267
 30
0.0
 10
13.2090327636
 20
8.287972745
 30
0.0
 10
13.212430526
 20
8.2704201771
 30
0.0
 10
13.2156155771
 20
8.2521977318
 30
0.0
 10
13.2185833294
 20
8.2333312915
 30
0.0
 10
13.2213295381
 20
8.2138476781
 30
0.0
 10
13.2238502547
 20
8.1937745988
 30
0.0
 10
13.2261418399
 20
8.1731406071
 30
0.0
 10
13.2282010156
 20
8.1519750693
 30
0.0
 10
13.2300248288
 20
8.1303081127
 30
0.0
 10
13.2316106349
 20
8.1081705927
 30
0.0
 10
13.23295619
 20
8.0855939928
 30
0.0
 10
13.2344384995
 20
8.0547143401
 30
0.0
 10
13.23566539
 20
8.0152549793
 30
0.0
 10
13.2359831154
 20
7.9834520068
 30
0.0
 10
13.2359831154
 20
7.9673495544
 30
0.0
  0
SPLINE
  5
41B
100
AcDbEntity
  8
0
100
AcDbSpline
 62
7
  6
CONTINUOUS
 70
0
 71
3
 72
51
 73
47
 74
0
 42
0.0000001
 43
0.0000001
 44
0.0000000001
 40
0.0
 40
0.0
 40
0.0
 40
0.0
 40
0.0056119767
 40
0.0114532179
 40
0.0175628359
 40
0.023974297
 40
0.0307157283
 40
0.037810429
 40
0.0452774091
 40
0.0531319509
 40
0.0613861084
 40
0.0700491589
 40
0.0791279915
 40
0.0886274273
 40
0.0985505061
 40
0.1088986983
 40
0.1196721181
 40
0.1308696554
 40
0.1424891413
 40
0.1545274222
 40
0.1669804967
 40
0.1798435478
 40
0.1931110635
 40
0.2067768389
 40
0.2208340871
 40
0.2352754204
 40
0.2652776374
 40
0.2967152574
 40
0.3295123145
 40
0.3635866463
 40
0.3988505686
 40
0.4352114696
 40
0.472572349
 40
0.510832317
 40
0.5498870653
 40
0.5896293197
 40
0.6299492774
 40
0.670735036
 40
0.7118730154
 40
0.7532483756
 40
0.7947454307
 40
0.8362480653
 40
0.8776401362
 40
0.9188059146
 40
0.9596304242
 40
1.0
 40
1.0
 40
1.0
 40
1.0
 10
13.0320545989
 20
7.1338788317
 30
0.0
 10
13.0336354381
 20
7.1343455389
 30
0.0
 10
13.0368163581
 20
7.1354578124
 30
0.0
 10
13.0415182568
 20
7.137593916
 30
0.0
 10
13.0462327999
 20
7.1402246859
 30
0.0
 10
13.0509563703
 20
7.1433472326
 30
0.0
 10
13.0556862449
 20
7.1469587937
 30
0.0
 10
13.0604194142
 20
7.1510564293
 30
0.0
 10
13.0651528689
 20
7.1556370044
 30
0.0
 10
13.0698834805
 20
7.1606971285
 30
0.0
 10
13.0746080425
 20
7.166233111
 30
0.0
 10
13.0793232775
 20
7.1722409327
 30
0.0
 10
13.0840258459
 20
7.178716236
 30
0.0
 10
13.0887123806
 20
7.1856543061
 30
0.0
 10
13.0933794723
 20
7.1930500831
 30
0.0
 10
13.0980237188
 20
7.2008981455
 30
0.0
 10
13.102641689
 20
7.2091927331
 30
0.0
 10
13.1072299846
 20
7.2179277302
 30
0.0
 10
13.1117851857
 20
7.2270966933
 30
0.0
 10
13.1163039243
 20
7.2366928343
 30
0.0
 10
13.1207828155
 20
7.2467090493
 30
0.0
 10
13.1252185402
 20
7.2571379023
 30
0.0
 10
13.1296077674
 20
7.2679716547
 30
0.0
 10
13.1339472348
 20
7.2792022467
 30
0.0
 10
13.1382337071
 20
7.2908213405
 30
0.0
 10
13.1439467921
 20
7.3070265197
 30
0.0
 10
13.1509184841
 20
7.3281980508
 30
0.0
 10
13.1589207866
 20
7.3546969024
 30
0.0
 10
13.1666381259
 20
7.3825232007
 30
0.0
 10
13.1740473343
 20
7.4115940472
 30
0.0
 10
13.1811261533
 20
7.4418229965
 30
0.0
 10
13.1878533327
 20
7.4731200196
 30
0.0
 10
13.1942086858
 20
7.5053918759
 30
0.0
 10
13.200173151
 20
7.5385423757
 30
0.0
 10
13.2057288471
 20
7.5724726828
 30
0.0
 10
13.2108591264
 20
7.6070816133
 30
0.0
 10
13.2155486227
 20
7.6422659422
 30
0.0
 10
13.2197832966
 20
7.6779207156
 30
0.0
 10
13.223550477
 20
7.7139395664
 30
0.0
 10
13.226838898
 20
7.7502150345
 30
0.0
 10
13.2296387327
 20
7.7866388893
 30
0.0
 10
13.2319416213
 20
7.8231024559
 30
0.0
 10
13.2337406983
 20
7.859496935
 30
0.0
 10
13.2350306091
 20
7.8957137588
 30
0.0
 10
13.2358075322
 20
7.9316447793
 30
0.0
 10
13.2359831154
 20
7.9554926147
 30
0.0
 10
13.2359831154
 20
7.9673495544
 30
0.0
  0
SPLINE
  5
41C
100
AcDbEntity
  8
0
100
AcDbSpline
 62
7
  6
CONTINUOUS
 70
0
 71
3
 72
49
 73
45
 74
0
 42
0.0000001
 43
0.0000001
 44
0.0000000001
 40
0.0
 40
0.0
 40
0.0
 40
0.0
 40
0.0066704173
 40
0.0132428534
 40
0.0197604443
 40
0.0262675126
 40
0.0328086194
 40
0.0394275724
 40
0.0461665439
 40
0.0530652474
 40
0.0601604775
 40
0.0674857224
 40
0.0750709668
 40
0.0829428634
 40
0.0911247083
 40
0.0996366965
 40
0.1084962988
 40
0.117718294
 40
0.1273152045
 40
0.1372975668
 40
0.1476739389
 40
0.1584513626
 40
0.1696354343
 40
0.1812303451
 40
0.2056625186
 40
0.2317631378
 40
0.2595318338
 40
0.2889571533
 40
0.3200182242
 40
0.3526862465
 40
0.3869255856
 40
0.4226945153
 40
0.4599458729
 40
0.4986277252
 40
0.5386838121
 40
0.5800538384
 40
0.6226738961
 40
0.66647683
 40
0.7113924558
 40
0.757347711
 40
0.8042672336
 40
0.8520731969
 40
0.9006851209
 40
1.0
 40
1.0
 40
1.0
 40
1.0
 10
13.08716257
 20
8.270778548
 30
0.0
 10
13.0880089814
 20
8.2709513169
 30
0.0
 10
13.0897038397
 20
8.2712278802
 30
0.0
 10
13.0922578838
 20
8.2714295442
 30
0.0
 10
13.0947989209
 20
8.2714140091
 30
0.0
 10
13.0973252051
 20
8.2711810807
 30
0.0
 10
13.0998352624
 20
8.2707310226
 30
0.0
 10
13.1023276096
 20
8.2700641987
 30
0.0
 10
13.104800844
 20
8.2691811136
 30
0.0
 10
13.1072537279
 20
8.2680825621
 30
0.0
 10
13.109685084
 20
8.2667692894
 30
0.0
 10
13.1120938294
 20
8.2652421513
 30
0.0
 10
13.114479005
 20
8.2635021181
 30
0.0
 10
13.1168396034
 20
8.2615500794
 30
0.0
 10
13.1191747005
 20
8.25938706
 30
0.0
 10
13.1214833922
 20
8.2570141322
 30
0.0
 10
13.1237646898
 20
8.2544323599
 30
0.0
 10
13.1260177002
 20
8.2516429681
 30
0.0
 10
13.1282414828
 20
8.2486472156
 30
0.0
 10
13.1304350487
 20
8.2454464236
 30
0.0
 10
13.1325975097
 20
8.2420420634
 30
0.0
 10
13.1347278883
 20
8.2384356472
 30
0.0
 10
13.1368252589
 20
8.2346287801
 30
0.0
 10
13.1396254606
 20
8.2291927896
 30
0.0
 10
13.1430259056
 20
8.221896808
 30
0.0
 10
13.1468918165
 20
8.2125189595
 30
0.0
 10
13.1506044253
 20
8.2023880319
 30
0.0
 10
13.1541569816
 20
8.1915223177
 30
0.0
 10
13.1575430337
 20
8.1799412453
 30
0.0
 10
13.1607563661
 20
8.167665731
 30
0.0
 10
13.163791046
 20
8.1547179905
 30
0.0
 10
13.1666414661
 20
8.1411215376
 30
0.0
 10
13.1693023716
 20
8.1269011196
 30
0.0
 10
13.1717688376
 20
8.1120826497
 30
0.0
 10
13.1740362851
 20
8.0966931559
 30
0.0
 10
13.176100528
 20
8.0807607397
 30
0.0
 10
13.1779577531
 20
8.0643145122
 30
0.0
 10
13.1796045161
 20
8.0473845276
 30
0.0
 10
13.1810377581
 20
8.0300017454
 30
0.0
 10
13.1822548462
 20
8.0121979459
 30
0.0
 10
13.1832535144
 20
7.9940057114
 30
0.0
 10
13.1840319205
 20
7.9754583411
 30
0.0
 10
13.1847794156
 20
7.9501201909
 30
0.0
 10
13.1849958056
 20
7.9309615421
 30
0.0
 10
13.1849958056
 20
7.9180995921
 30
0.0
  0
SPLINE
  5
41D
100
AcDbEntity
  8
0
100
AcDbSpline
 62
7
  6
CONTINUOUS
 70
0
 71
3
 72
28
 73
24
 74
0
 42
0.0000001
 43
0.0000001
 44
0.0000000001
 40
0.0
 40
0.0
 40
0.0
 40
0.0
 40
0.0193594547
 40
0.0395948775
 40
0.0607084794
 40
0.0826993388
 40
0.1055643143
 40
0.129297727
 40
0.1538921709
 40
0.1793381795
 40
0.2056248449
 40
0.2327396016
 40
0.2893950196
 40
0.3491804262
 40
0.411952124
 40
0.4775508965
 40
0.5458038093
 40
0.6165257768
 40
0.6895208082
 40
0.7645835196
 40
0.8414994246
 40
0.9200480136
 40
1.0
 40
1.0
 40
1.0
 40
1.0
 10
13.0319029624
 20
8.2118312686
 30
0.0
 10
13.0327639427
 20
8.2101049533
 30
0.0
 10
13.034463522
 20
8.2065433545
 30
0.0
 10
13.0368982663
 20
8.2010046412
 30
0.0
 10
13.03927276
 20
8.1951558507
 30
0.0
 10
13.0415851919
 20
8.189001628
 30
0.0
 10
13.0438336819
 20
8.1825467218
 30
0.0
 10
13.0460165399
 20
8.175796189
 30
0.0
 10
13.0481319781
 20
8.1687552928
 30
0.0
 10
13.0501783821
 20
8.161429556
 30
0.0
 10
13.0521541145
 20
8.1538247049
 30
0.0
 10
13.0547298433
 20
8.1431642071
 30
0.0
 10
13.0577490887
 20
8.129179103
 30
0.0
 10
13.0610163501
 20
8.1116204544
 30
0.0
 10
13.0639681922
 20
8.0931032063
 30
0.0
 10
13.0665951802
 20
8.0736855629
 30
0.0
 10
13.068888871
 20
8.0534284232
 30
0.0
 10
13.0708419016
 20
8.0323954605
 30
0.0
 10
13.0724480059
 20
8.0106528011
 30
0.0
 10
13.0737020102
 20
7.9882688958
 30
0.0
 10
13.0745998993
 20
7.9653141159
 30
0.0
 10
13.0751387453
 20
7.9418608886
 30
0.0
 10
13.0752565305
 20
7.9260665403
 30
0.0
 10
13.0752565305
 20
7.9180995859
 30
0.0
  0
SPLINE
  5
41E
100
AcDbEntity
  8
0
100
AcDbSpline
 62
7
  6
CONTINUOUS
 70
0
 71
3
 72
21
 73
17
 74
0
 42
0.0000001
 43
0.0000001
 44
0.0000000001
 40
0.0
 40
0.0
 40
0.0
 40
0.0
 40
0.047927369
 40
0.0981832875
 40
0.1507063716
 40
0.2054271211
 40
0.262268639
 40
0.3211475953
 40
0.3819747697
 40
0.4446553604
 40
0.5090896899
 40
0.5751736158
 40
0.6427986913
 40
0.7118530234
 40
0.8537798415
 40
1.0
 40
1.0
 40
1.0
 40
1.0
 10
13.0011974247
 20
8.1348348527
 30
0.0
 10
13.0021706629
 20
8.1313558502
 30
0.0
 10
13.0040592819
 20
8.1241990857
 30
0.0
 10
13.0066704999
 20
8.1131425265
 30
0.0
 10
13.0091234069
 20
8.1015259381
 30
0.0
 10
13.0114133903
 20
8.089370785
 30
0.0
 10
13.0135362001
 20
8.0766993948
 30
0.0
 10
13.0154878646
 20
8.0635351115
 30
0.0
 10
13.0172647206
 20
8.0499021907
 30
0.0
 10
13.0188634642
 20
8.0358257785
 30
0.0
 10
13.0202811134
 20
8.0213318469
 30
0.0
 10
13.0215149949
 20
8.0064471549
 30
0.0
 10
13.0225628409
 20
7.9911991508
 30
0.0
 10
13.0237197282
 20
7.9702303028
 30
0.0
 10
13.0246761111
 20
7.9433199319
 30
0.0
 10
13.0249227247
 20
7.9215997215
 30
0.0
 10
13.0249227247
 20
7.9105782456
 30
0.0
  0
SPLINE
  5
41F
100
AcDbEntity
  8
0
100
AcDbSpline
 62
7
  6
CONTINUOUS
 70
0
 71
3
 72
53
 73
49
 74
0
 42
0.0000001
 43
0.0000001
 44
0.0000000001
 40
0.0
 40
0.0
 40
0.0
 40
0.0
 40
0.00561882
 40
0.0111420428
 40
0.0166418616
 40
0.0221914682
 40
0.0278619549
 40
0.0337195974
 40
0.0398239585
 40
0.0462268852
 40
0.0529723767
 40
0.0600969397
 40
0.0676303569
 40
0.075596455
 40
0.0840140046
 40
0.0928973914
 40
0.1022573641
 40
0.1121014886
 40
0.1224347163
 40
0.1332596478
 40
0.1445769649
 40
0.1563855586
 40
0.1686828695
 40
0.1814649241
 40
0.1947266187
 40
0.2084616942
 40
0.2226629851
 40
0.2373223538
 40
0.2524309172
 40
0.2679789554
 40
0.300350572
 40
0.3343473976
 40
0.3698695492
 40
0.4068090749
 40
0.4450509009
 40
0.4844736716
 40
0.524950517
 40
0.5663497708
 40
0.6085356546
 40
0.6513689391
 40
0.6947075901
 40
0.7384074048
 40
0.7823226395
 40
0.8263066389
 40
0.8702124484
 40
0.913893467
 40
0.9572039929
 40
1.0
 40
1.0
 40
1.0
 40
1.0
 10
13.021940359
 20
7.3303015456
 30
0.0
 10
13.0230728035
 20
7.329901174
 30
0.0
 10
13.0253646381
 20
7.3292304467
 30
0.0
 10
13.0288803657
 20
7.3286363124
 30
0.0
 10
13.0324276946
 20
7.328467654
 30
0.0
 10
13.0360009223
 20
7.3287247301
 30
0.0
 10
13.0395952984
 20
7.3294063988
 30
0.0
 10
13.0432065344
 20
7.3305106034
 30
0.0
 10
13.0468310869
 20
7.3320348686
 30
0.0
 10
13.0504659807
 20
7.3339765093
 30
0.0
 10
13.0541085179
 20
7.3363329066
 30
0.0
 10
13.0577561459
 20
7.3391013679
 30
0.0
 10
13.0614062274
 20
7.3422791856
 30
0.0
 10
13.0650560891
 20
7.3458634205
 30
0.0
 10
13.0687028838
 20
7.3498509484
 30
0.0
 10
13.0723437317
 20
7.3542382936
 30
0.0
 10
13.0759755995
 20
7.3590217017
 30
0.0
 10
13.0795954678
 20
7.3641970245
 30
0.0
 10
13.0832001987
 20
7.3697598008
 30
0.0
 10
13.0867867083
 20
7.3757051739
 30
0.0
 10
13.0903518201
 20
7.3820279679
 30
0.0
 10
13.093892438
 20
7.388722625
 30
0.0
 10
13.097405391
 20
7.3957832724
 30
0.0
 10
13.1008876055
 20
7.4032036732
 30
0.0
 10
13.1043359448
 20
7.4109772844
 30
0.0
 10
13.1077473805
 20
7.4190972176
 30
0.0
 10
13.1111188322
 20
7.4275562888
 30
0.0
 10
13.1144473277
 20
7.4363469854
 30
0.0
 10
13.117729884
 20
7.4454615203
 30
0.0
 10
13.1221003001
 20
7.4582070289
 30
0.0
 10
13.1274149951
 20
7.47489493
 30
0.0
 10
13.1334816921
 20
7.4958164073
 30
0.0
 10
13.1392983398
 20
7.5178202325
 30
0.0
 10
13.1448440779
 20
7.5408281609
 30
0.0
 10
13.150098998
 20
7.5647585122
 30
0.0
 10
13.1550442556
 20
7.5895262002
 30
0.0
 10
13.159662125
 20
7.6150431303
 30
0.0
 10
13.1639360649
 20
7.6412185012
 30
0.0
 10
13.1678507746
 20
7.667959143
 30
0.0
 10
13.171392248
 20
7.6951698529
 30
0.0
 10
13.1745478223
 20
7.7227537402
 30
0.0
 10
13.1773062219
 20
7.7506125741
 30
0.0
 10
13.1796575987
 20
7.7786471376
 30
0.0
 10
13.1815935658
 20
7.8067575842
 30
0.0
 10
13.1831072292
 20
7.8348437899
 30
0.0
 10
13.1841932091
 20
7.8628057416
 30
0.0
 10
13.1848476638
 20
7.8905437644
 30
0.0
 10
13.1849958056
 20
7.908951082
 30
0.0
 10
13.1849958056
 20
7.9180995921
 30
0.0
  0
SPLINE
  5
420
100
AcDbEntity
  8
0
100
AcDbSpline
 62
7
  6
CONTINUOUS
 70
0
 71
3
 72
33
 73
29
 74
0
 42
0.0000001
 43
0.0000001
 44
0.0000000001
 40
0.0
 40
0.0
 40
0.0
 40
0.0
 40
0.0175121783
 40
0.0362798577
 40
0.056301981
 40
0.0775684451
 40
0.1000616129
 40
0.1237573975
 40
0.1486261355
 40
0.1746333417
 40
0.2017402556
 40
0.2299042365
 40
0.2590791531
 40
0.2892157598
 40
0.3202619723
 40
0.3521630722
 40
0.3848619622
 40
0.4182994179
 40
0.452414279
 40
0.4871436054
 40
0.5224228917
 40
0.558186269
 40
0.6308947143
 40
0.7047223411
 40
0.7791103539
 40
0.8534945071
 40
0.9273103032
 40
1.0
 40
1.0
 40
1.0
 40
1.0
 10
12.9753164478
 20
7.3962685445
 30
0.0
 10
12.9770887918
 20
7.3988511984
 30
0.0
 10
12.9806101461
 20
7.4043058235
 30
0.0
 10
12.9856688529
 20
7.4130168814
 30
0.0
 10
12.9906769899
 20
7.4225230008
 30
0.0
 10
12.9956243633
 20
7.4328051465
 30
0.0
 10
13.0005011017
 20
7.4438430793
 30
0.0
 10
13.0052973346
 20
7.4556147824
 30
0.0
 10
13.0100033596
 20
7.468096709
 30
0.0
 10
13.0146096191
 20
7.4812638138
 30
0.0
 10
13.0191067422
 20
7.4950896294
 30
0.0
 10
13.023485586
 20
7.5095463097
 30
0.0
 10
13.027737255
 20
7.5246046974
 30
0.0
 10
13.031853103
 20
7.540234404
 30
0.0
 10
13.0358247526
 20
7.5564038725
 30
0.0
 10
13.0396441341
 20
7.5730804322
 30
0.0
 10
13.0433034938
 20
7.5902303714
 30
0.0
 10
13.0467953963
 20
7.6078190176
 30
0.0
 10
13.0501127417
 20
7.625810809
 30
0.0
 10
13.0532487915
 20
7.6441693468
 30
0.0
 10
13.0561972136
 20
7.6628575179
 30
0.0
 10
13.0598903739
 20
7.6883033577
 30
0.0
 10
13.0639884761
 20
7.7206549801
 30
0.0
 10
13.0680476356
 20
7.7599646767
 30
0.0
 10
13.0712416151
 20
7.7996548515
 30
0.0
 10
13.0735446154
 20
7.8394045879
 30
0.0
 10
13.0749380465
 20
7.8788924806
 30
0.0
 10
13.0752565305
 20
7.9050980077
 30
0.0
 10
13.0752565305
 20
7.9180995859
 30
0.0
  0
SPLINE
  5
421
100
AcDbEntity
  8
0
100
AcDbSpline
 62
7
  6
CONTINUOUS
 70
0
 71
3
 72
28
 73
24
 74
0
 42
0.0000001
 43
0.0000001
 44
0.0000000001
 40
0.0
 40
0.0
 40
0.0
 40
0.0
 40
0.0218607389
 40
0.0446751611
 40
0.0684213513
 40
0.0930747222
 40
0.118608128
 40
0.1449923204
 40
0.1721959414
 40
0.2001857421
 40
0.2289268391
 40
0.2583826427
 40
0.3192838203
 40
0.3825709192
 40
0.4479058068
 40
0.5149350534
 40
0.5832928408
 40
0.6526038325
 40
0.7224859369
 40
0.792553024
 40
0.8624178181
 40
0.9316936411
 40
1.0
 40
1.0
 40
1.0
 40
1.0
 10
12.9555681244
 20
7.4768213757
 30
0.0
 10
12.9568547763
 20
7.4797718765
 30
0.0
 10
12.9594049607
 20
7.4858364029
 30
0.0
 10
12.963090606
 20
7.4952134444
 30
0.0
 10
12.9667140369
 20
7.50505408
 30
0.0
 10
12.9702698362
 20
7.5153437992
 30
0.0
 10
12.9737527911
 20
7.5260675106
 30
0.0
 10
12.9771577133
 20
7.537209453
 30
0.0
 10
12.9804795738
 20
7.5487532409
 30
0.0
 10
12.9837134674
 20
7.5606818799
 30
0.0
 10
12.9868546039
 20
7.5729778282
 30
0.0
 10
12.9909584769
 20
7.5900277058
 30
0.0
 10
12.9958106073
 20
7.612127015
 30
0.0
 10
13.001131125
 20
7.6395235708
 30
0.0
 10
13.0059806044
 20
7.6679231179
 30
0.0
 10
13.0103302506
 20
7.6971583526
 30
0.0
 10
13.0141542362
 20
7.727057183
 30
0.0
 10
13.0174298919
 20
7.75744349
 30
0.0
 10
13.0201378191
 20
7.7881382677
 30
0.0
 10
13.0222620137
 20
7.8189606705
 30
0.0
 10
13.0237899533
 20
7.849729051
 30
0.0
 10
13.024712716
 20
7.8802620627
 30
0.0
 10
13.0249227247
 20
7.9005206161
 30
0.0
 10
13.0249227247
 20
7.9105782456
 30
0.0
  0
SPLINE
  5
422
100
AcDbEntity
  8
0
100
AcDbSpline
 62
7
  6
CONTINUOUS
 70
0
 71
3
 72
39
 73
35
 74
0
 42
0.0000001
 43
0.0000001
 44
0.0000000001
 40
0.0
 40
0.0
 40
0.0
 40
0.0
 40
0.0063160487
 40
0.0126710049
 40
0.0191030143
 40
0.025648725
 40
0.0323427741
 40
0.0392173099
 40
0.0536154899
 40
0.0690526699
 40
0.0856860689
 40
0.1036343988
 40
0.1229845382
 40
0.1437975072
 40
0.1661135699
 40
0.1899565186
 40
0.215336667
 40
0.2422531964
 40
0.2706962121
 40
0.3006480089
 40
0.3320840834
 40
0.3649742158
 40
0.3992830292
 40
0.4349704483
 40
0.4719923721
 40
0.510300957
 40
0.5498448414
 40
0.5905696299
 40
0.6324180703
 40
0.6753301946
 40
0.7192436555
 40
0.8098126736
 40
0.9035864807
 40
1.0
 40
1.0
 40
1.0
 40
1.0
 10
12.7016405061
 20
8.5285350225
 30
0.0
 10
12.7023393986
 20
8.5284865547
 30
0.0
 10
12.703738187
 20
8.5283321243
 30
0.0
 10
12.7058206957
 20
8.5279295758
 30
0.0
 10
12.707889276
 20
8.5273561275
 30
0.0
 10
12.7099427403
 20
8.5266122808
 30
0.0
 10
12.7119802461
 20
8.5256984419
 30
0.0
 10
12.7147161692
 20
8.5242318171
 30
0.0
 10
12.718101661
 20
8.5219481792
 30
0.0
 10
12.7220175065
 20
8.5185819202
 30
0.0
 10
12.7258461049
 20
8.5145554008
 30
0.0
 10
12.7295830479
 20
8.5098760903
 30
0.0
 10
12.7332242677
 20
8.5045512861
 30
0.0
 10
12.7367649709
 20
8.4985891968
 30
0.0
 10
12.7402001742
 20
8.4919990022
 30
0.0
 10
12.7435246636
 20
8.4847909516
 30
0.0
 10
12.7467332257
 20
8.4769764176
 30
0.0
 10
12.7498207395
 20
8.468567882
 30
0.0
 10
12.7527821555
 20
8.4595788703
 30
0.0
 10
12.7556125956
 20
8.4500239433
 30
0.0
 10
12.7583074063
 20
8.4399186623
 30
0.0
 10
12.7608621004
 20
8.4292795287
 30
0.0
 10
12.7632724188
 20
8.4181239624
 30
0.0
 10
12.7655343739
 20
8.4064702715
 30
0.0
 10
12.7676441859
 20
8.3943375993
 30
0.0
 10
12.7695983266
 20
8.381745897
 30
0.0
 10
12.7713935619
 20
8.3687158934
 30
0.0
 10
12.7730268932
 20
8.3552690447
 30
0.0
 10
12.7744955773
 20
8.3414275086
 30
0.0
 10
12.7757972154
 20
8.3272140796
 30
0.0
 10
12.7773226657
 20
8.3075963219
 30
0.0
 10
12.7787841704
 20
8.2823175256
 30
0.0
 10
12.7798279956
 20
8.2511911278
 30
0.0
 10
12.7800545224
 20
8.2300948482
 30
0.0
 10
12.7800545224
 20
8.2194007372
 30
0.0
  0
SPLINE
  5
423
100
AcDbEntity
  8
0
100
AcDbSpline
 62
7
  6
CONTINUOUS
 70
0
 71
3
 72
34
 73
30
 74
0
 42
0.0000001
 43
0.0000001
 44
0.0000000001
 40
0.0
 40
0.0
 40
0.0
 40
0.0
 40
0.013976222
 40
0.0288853283
 40
0.0448271271
 40
0.0618786602
 40
0.080097525
 40
0.0995255807
 40
0.1201916304
 40
0.1421136501
 40
0.1653009194
 40
0.1897550097
 40
0.2154714028
 40
0.2424400103
 40
0.2706460606
 40
0.3000707422
 40
0.330691373
 40
0.3624822121
 40
0.3954143271
 40
0.4294562091
 40
0.4645738437
 40
0.5007308492
 40
0.5378889017
 40
0.5760075222
 40
0.6549546577
 40
0.7372170649
 40
0.8224149294
 40
0.9101474693
 40
1.0
 40
1.0
 40
1.0
 40
1.0
 10
12.6857514987
 20
8.5250264645
 30
0.0
 10
12.6869593868
 20
8.5241806878
 30
0.0
 10
12.6893598229
 20
8.5222928682
 30
0.0
 10
12.6927867685
 20
8.5190250455
 30
0.0
 10
12.6961452363
 20
8.5152414273
 30
0.0
 10
12.699431411
 20
8.5109473147
 30
0.0
 10
12.7026422474
 20
8.5061479562
 30
0.0
 10
12.7057741533
 20
8.5008492275
 30
0.0
 10
12.7088235179
 20
8.4950576078
 30
0.0
 10
12.7117867134
 20
8.4887802677
 30
0.0
 10
12.7146600078
 20
8.4820250088
 30
0.0
 10
12.7174398541
 20
8.4748003409
 30
0.0
 10
12.7201226535
 20
8.4671153884
 30
0.0
 10
12.7227049839
 20
8.458979929
 30
0.0
 10
12.7251835177
 20
8.450404347
 30
0.0
 10
12.7275550045
 20
8.4413996175
 30
0.0
 10
12.7298164179
 20
8.4319773
 30
0.0
 10
12.7319647602
 20
8.4221495017
 30
0.0
 10
12.7339972771
 20
8.4119288745
 30
0.0
 10
12.735911302
 20
8.4013285859
 30
0.0
 10
12.7377043345
 20
8.3903623026
 30
0.0
 10
12.7393740626
 20
8.3790441761
 30
0.0
 10
12.7409182915
 20
8.3673888003
 30
0.0
 10
12.7428295478
 20
8.3512296087
 30
0.0
 10
12.7448782177
 20
8.3302969751
 30
0.0
 10
12.7467812651
 20
8.3043672315
 30
0.0
 10
12.7481464164
 20
8.2774755576
 30
0.0
 10
12.7489664572
 20
8.2497609059
 30
0.0
 10
12.7491448934
 20
8.2310242206
 30
0.0
 10
12.7491448934
 20
8.2215443273
 30
0.0
  0
SPLINE
  5
424
100
AcDbEntity
  8
0
100
AcDbSpline
 62
7
  6
CONTINUOUS
 70
0
 71
3
 72
46
 73
42
 74
0
 42
0.0000001
 43
0.0000001
 44
0.0000000001
 40
0.0
 40
0.0
 40
0.0
 40
0.0
 40
0.0122687172
 40
0.0188631275
 40
0.0257916286
 40
0.0330718646
 40
0.0407181192
 40
0.0487418366
 40
0.0571518254
 40
0.065954863
 40
0.0751556951
 40
0.0847575398
 40
0.0947621207
 40
0.1051698927
 40
0.1159802647
 40
0.1271915262
 40
0.138801224
 40
0.163200646
 40
0.1891445969
 40
0.2165879951
 40
0.2454772889
 40
0.2757515526
 40
0.3073433787
 40
0.3401796028
 40
0.374181917
 40
0.4092674076
 40
0.4453490371
 40
0.4823360845
 40
0.520134559
 40
0.558647606
 40
0.5977758908
 40
0.6374179699
 40
0.6774706573
 40
0.7178293826
 40
0.7583885489
 40
0.7990419002
 40
0.8396828149
 40
0.8802049217
 40
0.9205016003
 40
0.9604685911
 40
1.0
 40
1.0
 40
1.0
 40
1.0
 10
12.6291349671
 20
7.7091656048
 30
0.0
 10
12.6310945081
 20
7.7101642321
 30
0.0
 10
12.6339833097
 20
7.7119515265
 30
0.0
 10
12.6376638274
 20
7.7147518572
 30
0.0
 10
12.6404935107
 20
7.717184557
 30
0.0
 10
12.6433231199
 20
7.719896582
 30
0.0
 10
12.6461514601
 20
7.7228864111
 30
0.0
 10
12.6489765198
 20
7.7261519244
 30
0.0
 10
12.6517965775
 20
7.7296908787
 30
0.0
 10
12.6546096703
 20
7.7335009062
 30
0.0
 10
12.6574139824
 20
7.7375793672
 30
0.0
 10
12.6602075593
 20
7.7419234978
 30
0.0
 10
12.6629885058
 20
7.7465303054
 30
0.0
 10
12.6657549225
 20
7.7513966155
 30
0.0
 10
12.6685048443
 20
7.7565190841
 30
0.0
 10
12.6712364543
 20
7.761894152
 30
0.0
 10
12.6749126001
 20
7.7695196987
 30
0.0
 10
12.6794367017
 20
7.7796654254
 30
0.0
 10
12.6846765574
 20
7.7925902884
 30
0.0
 10
12.6897989084
 20
7.8064236318
 30
0.0
 10
12.6947893576
 20
7.82112701
 30
0.0
 10
12.6996338733
 20
7.8366597028
 30
0.0
 10
12.7043188235
 20
7.8529785166
 30
0.0
 10
12.7088310266
 20
7.8700380258
 30
0.0
 10
12.7131577891
 20
7.8877906856
 30
0.0
 10
12.7172869437
 20
7.9061869827
 30
0.0
 10
12.7212068828
 20
7.9251755782
 30
0.0
 10
12.724906591
 20
7.9447034562
 30
0.0
 10
12.72837568
 20
7.9647160755
 30
0.0
 10
12.7316044118
 20
7.9851575281
 30
0.0
 10
12.7345837267
 20
8.0059706988
 30
0.0
 10
12.737305268
 20
8.0270974271
 30
0.0
 10
12.7397614045
 20
8.0484786704
 30
0.0
 10
12.7419452518
 20
8.0700546699
 30
0.0
 10
12.7438506924
 20
8.0917651199
 30
0.0
 10
12.7454723919
 20
8.1135493283
 30
0.0
 10
12.7468058249
 20
8.1353464259
 30
0.0
 10
12.7478472481
 20
8.1570954161
 30
0.0
 10
12.7485937961
 20
8.1787356656
 30
0.0
 10
12.7490433432
 20
8.200206458
 30
0.0
 10
12.7491448934
 20
8.2144577953
 30
0.0
 10
12.7491448934
 20
8.2215443273
 30
0.0
  0
SPLINE
  5
425
100
AcDbEntity
  8
0
100
AcDbSpline
 62
7
  6
CONTINUOUS
 70
0
 71
3
 72
39
 73
35
 74
0
 42
0.0000001
 43
0.0000001
 44
0.0000000001
 40
0.0
 40
0.0
 40
0.0
 40
0.0
 40
0.0065611663
 40
0.0130537343
 40
0.0195205653
 40
0.0260050575
 40
0.0325502338
 40
0.0391978477
 40
0.0459875326
 40
0.0529562915
 40
0.0675554855
 40
0.0832368173
 40
0.1001809055
 40
0.1185230579
 40
0.1383609497
 40
0.159762505
 40
0.1827714767
 40
0.2074128504
 40
0.2336963824
 40
0.261619158
 40
0.2911682874
 40
0.3223218598
 40
0.3550506521
 40
0.3893190272
 40
0.4250853662
 40
0.4623032732
 40
0.50092152
 40
0.5408848063
 40
0.5821341713
 40
0.624606977
 40
0.7129552289
 40
0.80537392
 40
0.9012643535
 40
1.0
 40
1.0
 40
1.0
 40
1.0
 10
12.6556945534
 20
8.3624465709
 30
0.0
 10
12.6561284153
 20
8.362510888
 30
0.0
 10
12.6569972093
 20
8.3626041345
 30
0.0
 10
12.6583032456
 20
8.3626346983
 30
0.0
 10
12.6596021716
 20
8.3625549354
 30
0.0
 10
12.6608931145
 20
8.3623649146
 30
0.0
 10
12.6621753537
 20
8.362064749
 30
0.0
 10
12.663448149
 20
8.3616546777
 30
0.0
 10
12.6647109023
 20
8.3611350519
 30
0.0
 10
12.6664063092
 20
8.3602836522
 30
0.0
 10
12.6685049878
 20
8.3589283172
 30
0.0
 10
12.6709298341
 20
8.3568966199
 30
0.0
 10
12.6732983723
 20
8.3544397707
 30
0.0
 10
12.6756077615
 20
8.3515627919
 30
0.0
 10
12.677855478
 20
8.3482706026
 30
0.0
 10
12.6800383074
 20
8.3445686363
 30
0.0
 10
12.6821529854
 20
8.3404630699
 30
0.0
 10
12.6841960319
 20
8.3359608096
 30
0.0
 10
12.6861639527
 20
8.3310695518
 30
0.0
 10
12.6880533628
 20
8.325797777
 30
0.0
 10
12.689860858
 20
8.3201546851
 30
0.0
 10
12.6915832447
 20
8.3141502143
 30
0.0
 10
12.6932174174
 20
8.3077949792
 30
0.0
 10
12.6947604012
 20
8.3011002552
 30
0.0
 10
12.6962094501
 20
8.2940779563
 30
0.0
 10
12.6975618977
 20
8.2867405965
 30
0.0
 10
12.6988153205
 20
8.2791012729
 30
0.0
 10
12.6999674447
 20
8.2711736381
 30
0.0
 10
12.7010161817
 20
8.2629718522
 30
0.0
 10
12.7022908159
 20
8.2515396463
 30
0.0
 10
12.7036012416
 20
8.2366717454
 30
0.0
 10
12.704717336
 20
8.2182092764
 30
0.0
 10
12.7053884107
 20
8.1990306664
 30
0.0
 10
12.7055339203
 20
8.1860196774
 30
0.0
 10
12.7055339203
 20
8.1794193596
 30
0.0
  0
SPLINE
  5
426
100
AcDbEntity
  8
0
100
AcDbSpline
 62
7
  6
CONTINUOUS
 70
0
 71
3
 72
11
 73
7
 74
0
 42
0.0000001
 43
0.0000001
 44
0.0000000001
 40
0.0
 40
0.0
 40
0.0
 40
0.0
 40
0.2361727529
 40
0.4825588137
 40
0.7376814179
 40
1.0
 40
1.0
 40
1.0
 40
1.0
 10
12.5983623119
 20
8.2468885131
 30
0.0
 10
12.5988759035
 20
8.2417062016
 30
0.0
 10
12.5997693909
 20
8.2311015695
 30
0.0
 10
12.6007099707
 20
8.2148610104
 30
0.0
 10
12.6012753829
 20
8.1980263049
 30
0.0
 10
12.6013980888
 20
8.186616089
 30
0.0
 10
12.6013980888
 20
8.1808318645
 30
0.0
  0
SPLINE
  5
427
100
AcDbEntity
  8
0
100
AcDbSpline
 62
7
  6
CONTINUOUS
 70
0
 71
3
 72
50
 73
46
 74
0
 42
0.0000001
 43
0.0000001
 44
0.0000000001
 40
0.0
 40
0.0
 40
0.0
 40
0.0
 40
0.0055377689
 40
0.0110144956
 40
0.0165017914
 40
0.02207084
 40
0.0277894562
 40
0.033719899
 40
0.0399172559
 40
0.0464290546
 40
0.0532952368
 40
0.0605487166
 40
0.0682162782
 40
0.0763190929
 40
0.0848738918
 40
0.0938932436
 40
0.1033864839
 40
0.1133600453
 40
0.123817833
 40
0.134761809
 40
0.1461918701
 40
0.1581065452
 40
0.1705027564
 40
0.1833762688
 40
0.2105313794
 40
0.2395185584
 40
0.270269253
 40
0.3027033054
 40
0.3367305341
 40
0.3722519879
 40
0.4091609874
 40
0.447344022
 40
0.4866815425
 40
0.5270486929
 40
0.5683160174
 40
0.6103501184
 40
0.6530142925
 40
0.6961691472
 40
0.7396732153
 40
0.7833835676
 40
0.8271563449
 40
0.8708477225
 40
0.9143132765
 40
0.9574119194
 40
1.0
 40
1.0
 40
1.0
 40
1.0
 10
12.6218456153
 20
7.8743572888
 30
0.0
 10
12.6224329707
 20
7.8741847965
 30
0.0
 10
12.6236217919
 20
7.8739072582
 30
0.0
 10
12.6254387449
 20
7.8737041618
 30
0.0
 10
12.6272706273
 20
7.873718427
 30
0.0
 10
12.6291145654
 20
7.8739499731
 30
0.0
 10
12.6309683236
 20
7.8743978555
 30
0.0
 10
12.6328298578
 20
7.8750610639
 30
0.0
 10
12.634697556
 20
7.8759381728
 30
0.0
 10
12.636569952
 20
7.8770279178
 30
0.0
 10
12.6384457223
 20
7.878328937
 30
0.0
 10
12.6403235802
 20
7.8798398534
 30
0.0
 10
12.6422021252
 20
7.8815593032
 30
0.0
 10
12.6440800351
 20
7.883485699
 30
0.0
 10
12.6459557819
 20
7.8856174499
 30
0.0
 10
12.6478279309
 20
7.8879526947
 30
0.0
 10
12.6496949145
 20
7.8904894768
 30
0.0
 10
12.6515551717
 20
7.8932256332
 30
0.0
 10
12.6534071596
 20
7.8961588114
 30
0.0
 10
12.6552492319
 20
7.8992865192
 30
0.0
 10
12.6570798684
 20
7.902606033
 30
0.0
 10
12.6588974091
 20
7.9061145064
 30
0.0
 10
12.6607003405
 20
7.9098088823
 30
0.0
 10
12.6631259013
 20
7.9150724755
 30
0.0
 10
12.6661008027
 20
7.9221000456
 30
0.0
 10
12.6695272208
 20
7.9310753417
 30
0.0
 10
12.672858782
 20
7.9407058371
 30
0.0
 10
12.676083719
 20
7.9509579339
 30
0.0
 10
12.6791906217
 20
7.9617959727
 30
0.0
 10
12.6821684998
 20
7.9731821087
 30
0.0
 10
12.6850068221
 20
7.985076543
 30
0.0
 10
12.6876955553
 20
7.9974376504
 30
0.0
 10
12.6902252005
 20
8.0102221397
 30
0.0
 10
12.6925868299
 20
8.0233852106
 30
0.0
 10
12.6947721124
 20
8.036880719
 30
0.0
 10
12.6967733428
 20
8.0506613442
 30
0.0
 10
12.6985834686
 20
8.0646787567
 30
0.0
 10
12.7001961139
 20
8.0788837898
 30
0.0
 10
12.7016056011
 20
8.0932266134
 30
0.0
 10
12.7028069715
 20
8.107656903
 30
0.0
 10
12.7037960145
 20
8.1221240511
 30
0.0
 10
12.7045692418
 20
8.1365772385
 30
0.0
 10
12.7051239848
 20
8.1509659025
 30
0.0
 10
12.7054582559
 20
8.1652393574
 30
0.0
 10
12.7055339203
 20
8.1747115573
 30
0.0
 10
12.7055339203
 20
8.1794193596
 30
0.0
  0
SPLINE
  5
428
100
AcDbEntity
  8
0
100
AcDbSpline
 62
7
  6
CONTINUOUS
 70
0
 71
3
 72
18
 73
14
 74
0
 42
0.0000001
 43
0.0000001
 44
0.0000000001
 40
0.0
 40
0.0
 40
0.0
 40
0.0
 40
0.0555797369
 40
0.1128492398
 40
0.1716579803
 40
0.2318495879
 40
0.2932624797
 40
0.3557305682
 40
0.4831465686
 40
0.6127079679
 40
0.7429913057
 40
0.872562435
 40
1.0
 40
1.0
 40
1.0
 40
1.0
 10
12.5809937747
 20
7.9966424656
 30
0.0
 10
12.5818029962
 20
7.9999865871
 30
0.0
 10
12.5833797861
 20
8.0067926852
 30
0.0
 10
12.5855913025
 20
8.0171869405
 30
0.0
 10
12.5876800754
 20
8.0278975809
 30
0.0
 10
12.5896399217
 20
8.0388931434
 30
0.0
 10
12.5914650904
 20
8.0501414132
 30
0.0
 10
12.5937266339
 20
8.0655330514
 30
0.0
 10
12.5961734475
 20
8.0851591489
 30
0.0
 10
12.5984809033
 20
8.1090239177
 30
0.0
 10
12.6001512742
 20
8.1330755903
 30
0.0
 10
12.6011650003
 20
8.1570320804
 30
0.0
 10
12.6013980888
 20
8.1729429016
 30
0.0
 10
12.6013980888
 20
8.1808318645
 30
0.0
  0
ENDSEC
  0
SECTION
  2
OBJECTS
  0
DICTIONARY
  5
C
100
AcDbDictionary
280
0
281
1
  3
ACAD_GROUP
350
D
  3
ACAD_MLINESTYLE
350
17
  3
ACAD_LAYOUT
350
1A
  3
ACAD_PLOTSETTINGS
350
19
  3
ACAD_PLOTSTYLENAME
350
E
  3
ACAD_IMAGE_DICT
350
       42A
  3
ACAD_IMAGE_VARS
350
       42B
  3
ACAD_TABLESTYLE
350
       42C
  0
IMAGEDEF_REACTOR
  5
429
100
AcDbRasterImageDefReactor
 90
2
330
294
  0
DICTIONARY
  5
D
102
{ACAD_REACTORS
330
C
102
}
100
AcDbDictionary
280
0
281
1
  0
ACDBDICTIONARYWDFLT
  5
E
102
{ACAD_REACTORS
330
C
102
}
100
AcDbDictionary
281
1
  3
Normal
350
F
100
AcDbDictionaryWithDefault
340
F
  0
DICTIONARY
  5
42A
330
C
100
AcDbDictionary
281
1
  3
BQK_assy_2_img_1
350
       42F
  0
RASTERVARIABLES
  5
42B
330
C
100
AcDbRasterVariables
 90
0
 70
0
 71
1
 72
5
  0
DICTIONARY
  5
17
102
{ACAD_REACTORS
330
C
102
}
100
AcDbDictionary
280
0
281
1
  3
Standard
350
18
  0
DICTIONARY
  5
42C
330
C
100
AcDbDictionary
281
1
  3
Standard
350
       430
  3
Standard1
350
       431
  0
DICTIONARY
  5
19
102
{ACAD_REACTORS
330
C
102
}
100
AcDbDictionary
281
1
  0
DICTIONARY
  5
1A
102
{ACAD_REACTORS
330
C
102
}
100
AcDbDictionary
281
1
  3
Model
350
42D
  3
Layout1
350
42E
  0
ACDBPLACEHOLDER
  5
F
102
{ACAD_REACTORS
330
E
102
}
  0
MLINESTYLE
  5
18
102
{ACAD_REACTORS
330
17
102
}
100
AcDbMlineStyle
  2
STANDARD
 70
0
  3

 62
256
 51
90.0
 52
90.0
 71
2
 49
0.5
 62
256
  6
BYLAYER
 49
-0.5
 62
256
  6
BYLAYER
  0
LAYOUT
  5
42D
102
{ACAD_REACTORS
330
1A
102
}
100
AcDbPlotSettings
  1

  2
none_device
  4
ANSI_C_(22.00_x_17.00_Inches)
  6

 40
0.0
 41
0.0
 42
0.0
 43
0.0
 44
558.8
 45
431.8
 46
0.0
 47
0.0
 48
0.0
 49
0.0
140
0.0
141
0.0
142
1.0
143
1.0
 70
1024
 72
0
 73
0
 74
0
  7

 75
0
147
1.0
148
0.0
149
0.0
100
AcDbLayout
  1
Model
 70
0
 71
0
 10
0.0
 20
0.0
 11
22.0
 21
17.0
 12
0.0
 22
0.0
 32
0.0
 14
0.0
 24
0.0
 34
0.0
 15
0.0
 25
0.0
 35
0.0
146
0.0
 13
0.0
 23
0.0
 33
0.0
 16
1.0
 26
0.0
 36
0.0
 17
0.0
 27
1.0
 37
0.0
 76
0
330
20E
345
0
346
0
  0
LAYOUT
  5
42E
102
{ACAD_REACTORS
330
1A
102
}
100
AcDbPlotSettings
  1

  2
none_device
  4
ANSI_C_(22.00_x_17.00_Inches)
  6

 40
0.0
 41
0.0
 42
0.0
 43
0.0
 44
558.8
 45
431.8
 46
0.0
 47
0.0
 48
0.0
 49
0.0
140
0.0
141
0.0
142
1.0
143
1.0
 70
0
 72
0
 73
0
 74
0
  7

 75
0
147
1.0
148
0.0
149
0.0
100
AcDbLayout
  1
Layout1
 70
0
 71
1
 10
0.0
 20
0.0
 11
22.0
 21
17.0
 12
0.0
 22
0.0
 32
0.0
 14
0.0
 24
0.0
 34
0.0
 15
0.0
 25
0.0
 35
0.0
146
0.0
 13
0.0
 23
0.0
 33
0.0
 16
1.0
 26
0.0
 36
0.0
 17
0.0
 27
1.0
 37
0.0
 76
0
330
20F
345
0
346
0
  0
IMAGEDEF
  5
42F
102
{ACAD_REACTORS
330
42A
330
429
102
}
100
AcDbRasterImageDef
 90
0
  1
BQK_assy_2_img_1.png
 10
369.0
 20
92.0
 11
0.0066666667
 21
0.0066666667
280
1
281
0
  0
TABLESTYLE
  5
430
102
{ACAD_REACTORS
330
42C
330
297
330
298
102
}
330
42C
100
AcDbTableStyle
  3
Standard
 70
0
 71
0
 40
0.06
 41
0.06
280
1
281
1
  7
Standard
140
0.18
170
1
 62
0
 63
7
283
0
  7
Standard
140
0.18
170
1
 62
0
 63
7
283
0
  7
Standard
140
0.18
170
1
 62
0
 63
7
283
0
  0
TABLESTYLE
  5
431
102
{ACAD_REACTORS
330
42C
330
296
102
}
330
42C
100
AcDbTableStyle
  3
Standard1
 70
1
 71
0
 40
0.06
 41
0.06
280
1
281
1
  7
Standard
140
0.18
170
1
 62
0
 63
7
283
0
  7
Standard
140
0.18
170
1
 62
0
 63
7
283
0
  7
Standard
140
0.18
170
1
 62
0
 63
7
283
0
  0
ENDSEC
  0
EOF
