999
DXF file: BPW_assy_2.dxf
999
Pro/ENGINEER 2014200 by Parametric Technology Corporation
  0
SECTION
  2
HEADER
  9
$ACADVER
  1
AC1021
  9
$DWGCODEPAGE
  3
ANSI_1252
  9
$EXTMAX
 10
22.0
 20
17.0
 30
0.0
  9
$EXTMIN
 10
0.0
 20
0.0
 30
0.0
  9
$LIMMIN
 10
0.0
 20
0.0
  9
$LIMMAX
 10
22.0
 20
17.0
  9
$VIEWCTR
 10
11.0
 20
8.5
  9
$VIEWSIZE
 40
17.0
  9
$CLAYER
  8
0
  9
$LTSCALE
 40
1.21
  9
$CELTYPE
  6
BYLAYER
  9
$DIMSCALE
 40
1.0
  9
$DIMASZ
 40
0.1875
  9
$DIMEXO
 40
0.0625
  9
$DIMDLI
 40
0.836
  9
$DIMEXE
 40
0.125
  9
$DIMCEN
 40
0.198
  9
$DIMLFAC
 40
1.0
  9
$DIMBLK
  1
_FILLED
  9
$DIMTXT
 40
0.1
  9
$DIMTOL
 70
0
  9
$DIMLIM
 70
0
  9
$DIMTFAC
 40
1.0
  9
$DIMGAP
 40
0.09
  9
$DIMDSEP
 70
46
  9
$AUNITS
 70
0
  9
$PDMODE
 70
3
  9
$PDSIZE
 40
0.3125
  9
$HANDSEED
  5
3EF
  9
$TILEMODE
 70
1
  9
$MEASUREMENT
 70
0
  9
$INSUNITS
 70
1
  0
ENDSEC
  0
SECTION
  2
CLASSES
  0
CLASS
  1
ACDBDICTIONARYWDFLT
  2
AcDbDictionaryWithDefault
  3
AutoCAD 2000
 90
0
 91
1
280
0
281
0
  0
CLASS
  1
ACDBPLACEHOLDER
  2
AcDbPlaceHolder
  3
AutoCAD 2000
 90
0
 91
1
280
0
281
0
  0
CLASS
  1
LAYOUT
  2
AcDbLayout
  3
AutoCAD 2000
 90
0
 91
0
280
0
281
0
  0
CLASS
  1
RASTERVARIABLES
  2
AcDbRasterVariables
  3
ISM
 90
0
 91
1
280
0
281
0
  0
CLASS
  1
IMAGEDEF
  2
AcDbRasterImageDef
  3
ISM
 90
0
 91
1
280
0
281
0
  0
CLASS
  1
IMAGEDEF_REACTOR
  2
AcDbRasterImageDefReactor
  3
ISM
 90
0
 91
1
280
0
281
0
  0
CLASS
  1
IMAGE
  2
AcDbRasterImage
  3
ISM
 90
127
 91
1
280
0
281
1
  0
CLASS
  1
TABLESTYLE
  2
AcDbTableStyle
  3
ObjectDBX Classes
 90
2047
 91
1
280
0
281
0
  0
CLASS
  1
ACAD_TABLE
  2
AcDbTable
  3
ObjectDBX Classes
 90
1025
 91
3
280
0
281
1
  0
ENDSEC
  0
SECTION
  2
TABLES
  0
TABLE
  2
VPORT
  5
8
100
AcDbSymbolTable
 70
2
  0
VPORT
  5
1F4
100
AcDbSymbolTableRecord
100
AcDbViewportTableRecord
  2
*ACTIVE
 70
0
 10
0.0
 20
0.0
 11
1.0
 21
1.0
 12
11.0
 22
8.5
 13
0.0
 23
0.0
 14
1.0
 24
1.0
 15
0.0
 25
0.0
 16
0.0
 26
0.0
 36
1.0
 17
0.0
 27
0.0
 37
0.0
 40
17.0
 41
1.2941176471
 42
50.0
 43
0.0
 44
0.0
 50
0.0
 51
0.0
 71
0
 72
100
 73
1
 74
1
 75
0
 76
0
 77
0
 78
0
  0
ENDTAB
  0
TABLE
  2
LTYPE
  5
5
100
AcDbSymbolTable
 70
6
  0
LTYPE
  5
14
100
AcDbSymbolTableRecord
100
AcDbLinetypeTableRecord
  2
BYBLOCK
 70
0
  3

 72
65
 73
0
 40
0.0
  0
LTYPE
  5
15
100
AcDbSymbolTableRecord
100
AcDbLinetypeTableRecord
  2
BYLAYER
 70
0
  3

 72
65
 73
0
 40
0.0
  0
LTYPE
  5
16
100
AcDbSymbolTableRecord
100
AcDbLinetypeTableRecord
  2
CONTINUOUS
 70
64
  3
Solid line
 72
65
 73
0
 40
0.0
  0
LTYPE
  5
1F5
100
AcDbSymbolTableRecord
100
AcDbLinetypeTableRecord
  2
CENTER
 70
64
  3
____ _ ____ _ ____ _ ____ _ ____ _ ____ _ ____
 72
65
 73
4
 40
0.6
 49
0.375
 74
0
 49
-0.075
 74
0
 49
0.075
 74
0
 49
-0.075
 74
0
  0
LTYPE
  5
1F6
100
AcDbSymbolTableRecord
100
AcDbLinetypeTableRecord
  2
HIDDEN
 70
64
  3
- - - - - - - - - - - - - - - - - - - -
 72
65
 73
2
 40
0.2
 49
0.1
 74
0
 49
-0.1
 74
0
  0
LTYPE
  5
1F7
100
AcDbSymbolTableRecord
100
AcDbLinetypeTableRecord
  2
PHANTOM
 70
64
  3
_____ _ _ _____ _ _ _____ _ _ _____
 72
65
 73
6
 40
0.8
 49
0.45
 74
0
 49
-0.05
 74
0
 49
0.1
 74
0
 49
-0.05
 74
0
 49
0.1
 74
0
 49
-0.05
 74
0
  0
LTYPE
  5
1F8
100
AcDbSymbolTableRecord
100
AcDbLinetypeTableRecord
  2
DOT
 70
64
  3
. . . . . . . . . . . . . . . . . . . .
 72
65
 73
2
 40
0.2
 49
0.1
 74
0
 49
-0.1
 74
0
  0
LTYPE
  5
1F9
100
AcDbSymbolTableRecord
100
AcDbLinetypeTableRecord
  2
DASHED
 70
64
  3
- - - - - - - - - - - - - - - - - - - -
 72
65
 73
2
 40
0.2
 49
0.1
 74
0
 49
-0.1
 74
0
  0
ENDTAB
  0
TABLE
  2
LAYER
  5
2
100
AcDbSymbolTable
 70
36
  0
LAYER
  5
10
100
AcDbSymbolTableRecord
100
AcDbLayerTableRecord
  2
0
 70
0
 62
7
  6
CONTINUOUS
370
-3
390
F
  0
LAYER
  5
1FA
100
AcDbSymbolTableRecord
100
AcDbLayerTableRecord
  2
DEFAULT_1
 70
0
 62
7
  6
CENTER
370
-3
390
F
  0
LAYER
  5
1FB
100
AcDbSymbolTableRecord
100
AcDbLayerTableRecord
  2
DEFAULT_2
 70
0
 62
8
  6
HIDDEN
370
-3
390
F
  0
LAYER
  5
1FC
100
AcDbSymbolTableRecord
100
AcDbLayerTableRecord
  2
DEFAULT_3
 70
0
 62
7
  6
PHANTOM
370
-3
390
F
  0
LAYER
  5
1FD
100
AcDbSymbolTableRecord
100
AcDbLayerTableRecord
  2
01___PRT_ALL_DTM_PLN
 70
0
 62
7
  6
CONTINUOUS
370
-3
390
F
  0
LAYER
  5
1FE
100
AcDbSymbolTableRecord
100
AcDbLayerTableRecord
  2
01___PRT_DEF_DTM_PLN
 70
0
 62
7
  6
CONTINUOUS
370
-3
390
F
  0
LAYER
  5
1FF
100
AcDbSymbolTableRecord
100
AcDbLayerTableRecord
  2
02___PRT_ALL_AXES
 70
0
 62
7
  6
CONTINUOUS
370
-3
390
F
  0
LAYER
  5
200
100
AcDbSymbolTableRecord
100
AcDbLayerTableRecord
  2
03___PRT_ALL_CURVES
 70
0
 62
7
  6
CONTINUOUS
370
-3
390
F
  0
LAYER
  5
201
100
AcDbSymbolTableRecord
100
AcDbLayerTableRecord
  2
04___PRT_ALL_DTM_PNT
 70
0
 62
7
  6
CONTINUOUS
370
-3
390
F
  0
LAYER
  5
202
100
AcDbSymbolTableRecord
100
AcDbLayerTableRecord
  2
05___PRT_ALL_DTM_CSYS
 70
0
 62
7
  6
CONTINUOUS
370
-3
390
F
  0
LAYER
  5
203
100
AcDbSymbolTableRecord
100
AcDbLayerTableRecord
  2
05___PRT_DEF_DTM_CSYS
 70
0
 62
7
  6
CONTINUOUS
370
-3
390
F
  0
LAYER
  5
204
100
AcDbSymbolTableRecord
100
AcDbLayerTableRecord
  2
06___PRT_ALL_SURFS
 70
0
 62
7
  6
CONTINUOUS
370
-3
390
F
  0
LAYER
  5
205
100
AcDbSymbolTableRecord
100
AcDbLayerTableRecord
  2
DATUM_PLANES
 70
0
 62
7
  6
CONTINUOUS
370
-3
390
F
  0
LAYER
  5
206
100
AcDbSymbolTableRecord
100
AcDbLayerTableRecord
  2
PORT_AREAS
 70
0
 62
7
  6
CONTINUOUS
370
-3
390
F
  0
LAYER
  5
207
100
AcDbSymbolTableRecord
100
AcDbLayerTableRecord
  2
SUNNBOMCOSMETIC
 70
0
 62
7
  6
CONTINUOUS
370
-3
390
F
  0
LAYER
  5
208
100
AcDbSymbolTableRecord
100
AcDbLayerTableRecord
  2
SUNNBOMSTAMPING
 70
0
 62
7
  6
CONTINUOUS
370
-3
390
F
  0
LAYER
  5
209
100
AcDbSymbolTableRecord
100
AcDbLayerTableRecord
  2
THREADS
 70
0
 62
7
  6
CONTINUOUS
370
-3
390
F
  0
ENDTAB
  0
TABLE
  2
STYLE
  5
3
100
AcDbSymbolTable
 70
1
  0
STYLE
  5
11
100
AcDbSymbolTableRecord
100
AcDbTextStyleTableRecord
  2
STANDARD
 70
0
 40
0.0
 41
0.8
 50
0.0
 71
0
 42
0.2
  3
txt
  4

  0
STYLE
  5
20A
100
AcDbSymbolTableRecord
100
AcDbTextStyleTableRecord
  2
TEXTSTYLE_1
 70
0
 40
0.0
 41
0.8
 50
0.0
 71
0
 42
0.2
  3
gdt
  4

  0
ENDTAB
  0
TABLE
  2
VIEW
  5
6
100
AcDbSymbolTable
 70
0
  0
ENDTAB
  0
TABLE
  2
UCS
  5
7
100
AcDbSymbolTable
 70
0
  0
ENDTAB
  0
TABLE
  2
APPID
  5
9
100
AcDbSymbolTable
 70
1
  0
APPID
  5
20B
100
AcDbSymbolTableRecord
100
AcDbRegAppTableRecord
  2
ACAD
 70
0
  0
ENDTAB
  0
TABLE
  2
BLOCK_RECORD
  5
1
100
AcDbSymbolTable
 70
0
  0
BLOCK_RECORD
  5
20C
100
AcDbSymbolTableRecord
100
AcDbBlockTableRecord
  2
*Model_Space
  0
BLOCK_RECORD
  5
20D
100
AcDbSymbolTableRecord
100
AcDbBlockTableRecord
  2
*Paper_Space
  0
BLOCK_RECORD
  5
20E
100
AcDbSymbolTableRecord
100
AcDbBlockTableRecord
  2
SUN_FIRST_THIRD_ANGLE_BL0
  0
BLOCK_RECORD
  5
20F
100
AcDbSymbolTableRecord
100
AcDbBlockTableRecord
  2
*T1
  0
BLOCK_RECORD
  5
210
100
AcDbSymbolTableRecord
100
AcDbBlockTableRecord
  2
*T2
  0
BLOCK_RECORD
  5
211
100
AcDbSymbolTableRecord
100
AcDbBlockTableRecord
  2
*T3
  0
ENDTAB
  0
TABLE
  2
DIMSTYLE
  5
A
100
AcDbSymbolTable
 70
1
100
AcDbDimStyleTable
 71
0
  0
DIMSTYLE
105
212
100
AcDbSymbolTableRecord
100
AcDbDimStyleTableRecord
  2
STANDARD
 70
0
  3

  4

 40
1.0
 41
0.1875
 42
0.0625
 43
0.38
 44
0.125
 45
0.0
 46
0.0
 47
0.001
 48
0.001
140
0.1
141
0.09
142
0.0
143
25.4
144
1.0
145
0.0
146
1.0
147
0.09
 71
0.0
 72
0.0
 73
1
 74
1
 75
0
 76
0
 77
0
 78
4
170
0
171
2
172
0
173
0
174
0
175
0
176
0
177
0
178
0
270
2
271
3
272
3
273
2
274
2
275
0
280
0
281
0
282
0
283
1
284
4
285
0
286
0
287
3
288
0
340
11
278
46
  0
ENDTAB
  0
ENDSEC
  0
SECTION
  2
BLOCKS
  0
BLOCK
  5
20
100
AcDbEntity
  8
0
100
AcDbBlockBegin
  2
*Model_Space
 70
0
 10
0.0
 20
0.0
 30
0.0
  3
*Model_Space
  1

  0
ENDBLK
  5
21
100
AcDbEntity
  8
0
100
AcDbBlockEnd
  0
BLOCK
  5
1C
100
AcDbEntity
  8
0
100
AcDbBlockBegin
  2
*Paper_Space
 70
0
 10
0.0
 20
0.0
 30
0.0
  3
*Paper_Space
  1

  0
ENDBLK
  5
1D
100
AcDbEntity
  8
0
100
AcDbBlockEnd
  0
BLOCK
  5
213
100
AcDbEntity
  8
0
100
AcDbBlockBegin
 62
2
  6
CONTINUOUS
  2
SUN_FIRST_THIRD_ANGLE_BL0
 70
64
 10
20.4816717061
 20
1.2289683772
  3
SUN_FIRST_THIRD_ANGLE_BL0
  1

  0
TEXT
  5
214
100
AcDbEntity
  8
0
100
AcDbText
 62
2
  6
CONTINUOUS
 10
19.4750896608
 20
1.4136269581
  7
STANDARD
 40
0.08
  1
FIRST ANGLE
 41
0.8
 72
0
100
AcDbText
  0
TEXT
  5
215
100
AcDbEntity
  8
0
100
AcDbText
 62
2
  6
CONTINUOUS
 10
20.7842537513
 20
1.4047600029
  7
STANDARD
 40
0.08
  1
THIRD ANGLE
 41
0.8
 72
0
100
AcDbText
  0
LINE
  5
216
100
AcDbEntity
  8
0
100
AcDbLine
 62
7
  6
CONTINUOUS
 10
19.4767170086
 20
1.1727031207
 11
19.6334271527
 21
1.1717972817
  0
LINE
  5
217
100
AcDbEntity
  8
0
100
AcDbLine
 62
7
  6
CONTINUOUS
 10
19.6596964832
 20
1.1717972817
 11
19.6950230232
 21
1.171593082
  0
LINE
  5
218
100
AcDbEntity
  8
0
100
AcDbLine
 62
7
  6
CONTINUOUS
 10
19.7194818561
 20
1.1708914427
 11
19.8852396156
 21
1.1699333054
  0
LINE
  5
219
100
AcDbEntity
  8
0
100
AcDbLine
 62
7
  6
CONTINUOUS
 10
19.4758111696
 20
1.2723454088
 11
19.88525039
 21
1.3511534004
  0
LINE
  5
21A
100
AcDbEntity
  8
0
100
AcDbLine
 62
7
  6
CONTINUOUS
 10
19.88525039
 20
1.3511534004
 11
19.8831348489
 21
0.9851647912
  0
LINE
  5
21B
100
AcDbEntity
  8
0
100
AcDbLine
 62
7
  6
CONTINUOUS
 10
19.8831348489
 20
0.9851647912
 11
19.4767170086
 21
1.0658141206
  0
LINE
  5
21C
100
AcDbEntity
  8
0
100
AcDbLine
 62
7
  6
CONTINUOUS
 10
19.4767170086
 20
1.0658141206
 11
19.4779056764
 21
1.2714536432
  0
CIRCLE
  5
21D
100
AcDbEntity
  8
0
100
AcDbCircle
 62
7
  6
CONTINUOUS
 10
20.2068232291
 20
1.1717972817
 40
0.175742101
  0
CIRCLE
  5
21E
100
AcDbEntity
  8
0
100
AcDbCircle
 62
7
  6
CONTINUOUS
 10
20.2068232291
 20
1.1717972817
 40
0.1005522074
  0
LINE
  5
21F
100
AcDbEntity
  8
0
100
AcDbLine
 62
7
  6
CONTINUOUS
 10
20.2077290681
 20
1.3756110529
 11
20.2071171714
 21
1.2379342989
  0
LINE
  5
220
100
AcDbEntity
  8
0
100
AcDbLine
 62
7
  6
CONTINUOUS
 10
20.2077290681
 20
1.2016899681
 11
20.2074674401
 21
1.1428236749
  0
LINE
  5
221
100
AcDbEntity
  8
0
100
AcDbLine
 62
7
  6
CONTINUOUS
 10
20.208634907
 20
1.101141841
 11
20.2080230104
 21
0.963465087
  0
LINE
  5
222
100
AcDbEntity
  8
0
100
AcDbLine
 62
7
  6
CONTINUOUS
 10
20.0066328138
 20
1.1745147986
 11
20.1443095678
 21
1.1739029019
  0
LINE
  5
223
100
AcDbEntity
  8
0
100
AcDbLine
 62
7
  6
CONTINUOUS
 10
20.1832714155
 20
1.1727031207
 11
20.238153505
 21
1.172335442
  0
LINE
  5
224
100
AcDbEntity
  8
0
100
AcDbLine
 62
7
  6
CONTINUOUS
 10
20.2756669918
 20
1.1717972817
 11
20.407916871
 21
1.1712095044
  0
CIRCLE
  5
225
100
AcDbEntity
  8
0
100
AcDbCircle
 62
7
  6
CONTINUOUS
 10
20.7509457401
 20
1.1693297793
 40
0.1722024983
  0
CIRCLE
  5
226
100
AcDbEntity
  8
0
100
AcDbCircle
 62
7
  6
CONTINUOUS
 10
20.7509457401
 20
1.1693297793
 40
0.0985164967
  0
LINE
  5
227
100
AcDbEntity
  8
0
100
AcDbLine
 62
7
  6
CONTINUOUS
 10
20.7169767782
 20
1.170462078
 11
20.7825395137
 21
1.1682766535
  0
LINE
  5
228
100
AcDbEntity
  8
0
100
AcDbLine
 62
7
  6
CONTINUOUS
 10
20.8177513651
 20
1.1693297793
 11
20.947965719
 21
1.1693297793
  0
LINE
  5
229
100
AcDbEntity
  8
0
100
AcDbLine
 62
7
  6
CONTINUOUS
 10
20.6875370113
 20
1.170462078
 11
20.5573226574
 21
1.170462078
  0
LINE
  5
22A
100
AcDbEntity
  8
0
100
AcDbLine
 62
7
  6
CONTINUOUS
 10
20.7486811426
 20
1.1987695462
 11
20.7486811426
 21
1.1432869085
  0
LINE
  5
22B
100
AcDbEntity
  8
0
100
AcDbLine
 62
7
  6
CONTINUOUS
 10
20.7498134414
 20
1.1059210505
 11
20.7498134414
 21
0.9757066966
  0
LINE
  5
22C
100
AcDbEntity
  8
0
100
AcDbLine
 62
7
  6
CONTINUOUS
 10
20.7486811426
 20
1.2338708068
 11
20.7486811426
 21
1.3640851607
  0
LINE
  5
22D
100
AcDbEntity
  8
0
100
AcDbLine
 62
7
  6
CONTINUOUS
 10
21.0702539817
 20
1.2701043662
 11
21.4790138229
 21
1.3448360823
  0
LINE
  5
22E
100
AcDbEntity
  8
0
100
AcDbLine
 62
7
  6
CONTINUOUS
 10
21.4790138229
 20
1.3448360823
 11
21.4790138229
 21
0.9779712941
  0
LINE
  5
22F
100
AcDbEntity
  8
0
100
AcDbLine
 62
7
  6
CONTINUOUS
 10
21.4790138229
 20
0.9779712941
 11
21.069121683
 21
1.0617614
  0
LINE
  5
230
100
AcDbEntity
  8
0
100
AcDbLine
 62
7
  6
CONTINUOUS
 10
21.0702539817
 20
1.2701043662
 11
21.069121683
 21
1.0617614
  0
LINE
  5
231
100
AcDbEntity
  8
0
100
AcDbLine
 62
7
  6
CONTINUOUS
 10
21.4790138229
 20
1.1693297793
 11
21.3159628059
 21
1.1693297793
  0
LINE
  5
232
100
AcDbEntity
  8
0
100
AcDbLine
 62
7
  6
CONTINUOUS
 10
21.2876553377
 20
1.1693297793
 11
21.2502894796
 21
1.1693297793
  0
LINE
  5
233
100
AcDbEntity
  8
0
100
AcDbLine
 62
7
  6
CONTINUOUS
 10
21.2208497126
 20
1.1659328831
 11
21.0713862804
 21
1.1659328831
  0
LINE
  5
234
100
AcDbEntity
  8
0
100
AcDbLine
 62
7
  6
CONTINUOUS
 10
20.4796138713
 20
1.5284908897
 11
20.4766766948
 21
0.9294458646
  0
ENDBLK
  5
235
100
AcDbEntity
  8
0
  6
BYBLOCK
 62
0
100
AcDbBlockEnd
  0
BLOCK
  5
236
100
AcDbEntity
  8
0
100
AcDbBlockBegin
  2
*T1
 70
1
 10
0.0
 20
0.0
  3
*T1
  1

  0
LINE
  5
237
100
AcDbEntity
  8
0
100
AcDbLine
 62
2
  6
CONTINUOUS
 10
9.275
 20
0.0
 11
-0.0
 21
0.0
  0
LINE
  5
238
100
AcDbEntity
  8
0
100
AcDbLine
 62
2
  6
CONTINUOUS
 10
9.275
 20
0.0
 11
9.275
 21
1.25
  0
LINE
  5
239
100
AcDbEntity
  8
0
100
AcDbLine
 62
2
  6
CONTINUOUS
 10
9.275
 20
0.625
 11
-0.0
 21
0.625
  0
LINE
  5
23A
100
AcDbEntity
  8
0
100
AcDbLine
 62
2
  6
CONTINUOUS
 10
9.275
 20
1.25
 11
-0.0
 21
1.25
  0
LINE
  5
23B
100
AcDbEntity
  8
0
100
AcDbLine
 62
2
  6
CONTINUOUS
 10
6.8
 20
0.0
 11
6.8
 21
1.25
  0
LINE
  5
23C
100
AcDbEntity
  8
0
100
AcDbLine
 62
2
  6
CONTINUOUS
 10
6.4
 20
0.0
 11
6.4
 21
0.625
  0
LINE
  5
23D
100
AcDbEntity
  8
0
100
AcDbLine
 62
2
  6
CONTINUOUS
 10
5.9
 20
0.0
 11
5.9
 21
0.625
  0
LINE
  5
23E
100
AcDbEntity
  8
0
100
AcDbLine
 62
2
  6
CONTINUOUS
 10
5.2
 20
0.0
 11
5.2
 21
0.625
  0
LINE
  5
23F
100
AcDbEntity
  8
0
100
AcDbLine
 62
2
  6
CONTINUOUS
 10
4.1
 20
0.0
 11
4.1
 21
1.25
  0
LINE
  5
240
100
AcDbEntity
  8
0
100
AcDbLine
 62
2
  6
CONTINUOUS
 10
-0.0
 20
0.0
 11
-0.0
 21
1.25
  0
MTEXT
  5
241
100
AcDbEntity
  8
0
100
AcDbMText
 62
2
  6
CONTINUOUS
  7
STANDARD
 71
2
 72
1
 10
6.6
 20
0.325
 30
0.0
 11
1.0
 21
0.0
 31
0.0
 44
0.9
  1
2
 40
0.125
 41
0.2
  0
MTEXT
  5
242
100
AcDbEntity
  8
0
100
AcDbMText
 62
2
  6
CONTINUOUS
  7
STANDARD
 71
2
 72
1
 10
6.15
 20
0.325
 30
0.0
 11
1.0
 21
0.0
 31
0.0
 44
0.9
  1
C
 40
0.125
 41
0.2
  0
MTEXT
  5
243
100
AcDbEntity
  8
0
100
AcDbMText
 62
2
  6
CONTINUOUS
  7
STANDARD
 71
2
 72
1
 10
5.55
 20
0.325
 30
0.0
 11
1.0
 21
0.0
 31
0.0
 44
0.9
  1
1.000
 40
0.125
 41
1.0
  0
MTEXT
  5
244
100
AcDbEntity
  8
0
100
AcDbMText
 62
2
  6
CONTINUOUS
  7
STANDARD
 71
2
 72
1
 10
4.65
 20
0.325
 30
0.0
 11
1.0
 21
0.0
 31
0.0
 44
0.9
  1
Jul-11-19
 40
0.125
 41
1.8
  0
MTEXT
  5
245
100
AcDbEntity
  8
0
100
AcDbMText
 62
2
  6
CONTINUOUS
  7
STANDARD
 71
2
 72
1
 10
2.05
 20
0.4625
 30
0.0
 11
1.0
 21
0.0
 31
0.0
 44
0.9
  1
T-2A Line mount\PCushion lock with make up checks
 40
0.125
 41
6.4
  0
MTEXT
  5
246
100
AcDbEntity
  8
0
100
AcDbMText
 62
2
  6
CONTINUOUS
  7
STANDARD
 71
1
 72
1
 10
6.45
 20
0.5625
 30
0.0
 11
1.0
 21
0.0
 31
0.0
 44
0.9
  1
SHEET
 40
0.06
 41
0.48
  0
MTEXT
  5
247
100
AcDbEntity
  8
0
100
AcDbMText
 62
2
  6
CONTINUOUS
  7
STANDARD
 71
1
 72
1
 10
5.95
 20
0.5625
 30
0.0
 11
1.0
 21
0.0
 31
0.0
 44
0.9
  1
DWG SIZE
 40
0.06
 41
0.768
  0
MTEXT
  5
248
100
AcDbEntity
  8
0
100
AcDbMText
 62
2
  6
CONTINUOUS
  7
STANDARD
 71
1
 72
1
 10
5.25
 20
0.5625
 30
0.0
 11
1.0
 21
0.0
 31
0.0
 44
0.9
  1
SCALE
 40
0.06
 41
0.48
  0
MTEXT
  5
249
100
AcDbEntity
  8
0
100
AcDbMText
 62
2
  6
CONTINUOUS
  7
STANDARD
 71
1
 72
1
 10
4.15
 20
0.5625
 30
0.0
 11
1.0
 21
0.0
 31
0.0
 44
0.9
  1
DATE
 40
0.06
 41
0.384
  0
MTEXT
  5
24A
100
AcDbEntity
  8
0
100
AcDbMText
 62
2
  6
CONTINUOUS
  7
STANDARD
 71
1
 72
1
 10
0.05
 20
0.5625
 30
0.0
 11
1.0
 21
0.0
 31
0.0
 44
0.9
  1
DESCRIPTION
 40
0.06
 41
1.056
  0
MTEXT
  5
24B
100
AcDbEntity
  8
0
100
AcDbMText
 62
2
  6
CONTINUOUS
  7
STANDARD
 71
2
 72
1
 10
5.45
 20
1.0375
 30
0.0
 11
1.0
 21
0.0
 31
0.0
 44
0.9
  1
ALL DIMENSIONS IN INCH\PVIEWS ARE THIRD ANGLE
 40
0.12
 41
4.224
  0
MTEXT
  5
24C
100
AcDbEntity
  8
0
100
AcDbMText
 62
2
  6
CONTINUOUS
  7
STANDARD
 71
2
 72
1
 10
2.05
 20
0.95
 30
0.0
 11
1.0
 21
0.0
 31
0.0
 44
0.9
  1
BPW
 40
0.125
 41
0.6
  0
MTEXT
  5
24D
100
AcDbEntity
  8
0
100
AcDbMText
 62
2
  6
CONTINUOUS
  7
STANDARD
 71
1
 72
1
 10
0.05
 20
1.1875
 30
0.0
 11
1.0
 21
0.0
 31
0.0
 44
0.9
  1
MODEL
 40
0.06
 41
0.48
  0
ENDBLK
  5
24E
100
AcDbEntity
  8
0
  6
BYBLOCK
 62
0
100
AcDbBlockEnd
  0
BLOCK
  5
24F
100
AcDbEntity
  8
0
100
AcDbBlockBegin
  2
*T2
 70
1
 10
0.0
 20
0.0
  3
*T2
  1

  0
LINE
  5
250
100
AcDbEntity
  8
0
100
AcDbLine
 62
2
  6
CONTINUOUS
 10
0.0
 20
0.0
 11
9.055
 21
0.0
  0
LINE
  5
251
100
AcDbEntity
  8
0
100
AcDbLine
 62
2
  6
CONTINUOUS
 10
0.0
 20
0.0
 11
0.0
 21
-2.594
  0
LINE
  5
252
100
AcDbEntity
  8
0
100
AcDbLine
 62
2
  6
CONTINUOUS
 10
0.0
 20
-0.344
 11
9.055
 21
-0.344
  0
LINE
  5
253
100
AcDbEntity
  8
0
100
AcDbLine
 62
2
  6
CONTINUOUS
 10
0.0
 20
-0.594
 11
9.055
 21
-0.594
  0
LINE
  5
254
100
AcDbEntity
  8
0
100
AcDbLine
 62
2
  6
CONTINUOUS
 10
0.0
 20
-0.844
 11
9.055
 21
-0.844
  0
LINE
  5
255
100
AcDbEntity
  8
0
100
AcDbLine
 62
2
  6
CONTINUOUS
 10
0.0
 20
-1.094
 11
9.055
 21
-1.094
  0
LINE
  5
256
100
AcDbEntity
  8
0
100
AcDbLine
 62
2
  6
CONTINUOUS
 10
0.0
 20
-1.344
 11
9.055
 21
-1.344
  0
LINE
  5
257
100
AcDbEntity
  8
0
100
AcDbLine
 62
2
  6
CONTINUOUS
 10
0.0
 20
-1.594
 11
9.055
 21
-1.594
  0
LINE
  5
258
100
AcDbEntity
  8
0
100
AcDbLine
 62
2
  6
CONTINUOUS
 10
0.0
 20
-1.844
 11
9.055
 21
-1.844
  0
LINE
  5
259
100
AcDbEntity
  8
0
100
AcDbLine
 62
2
  6
CONTINUOUS
 10
0.0
 20
-2.094
 11
9.055
 21
-2.094
  0
LINE
  5
25A
100
AcDbEntity
  8
0
100
AcDbLine
 62
2
  6
CONTINUOUS
 10
0.0
 20
-2.344
 11
9.055
 21
-2.344
  0
LINE
  5
25B
100
AcDbEntity
  8
0
100
AcDbLine
 62
2
  6
CONTINUOUS
 10
0.0
 20
-2.594
 11
9.055
 21
-2.594
  0
LINE
  5
25C
100
AcDbEntity
  8
0
100
AcDbLine
 62
2
  6
CONTINUOUS
 10
3.055
 20
0.0
 11
3.055
 21
-2.594
  0
LINE
  5
25D
100
AcDbEntity
  8
0
100
AcDbLine
 62
2
  6
CONTINUOUS
 10
9.055
 20
0.0
 11
9.055
 21
-2.594
  0
MTEXT
  5
25E
100
AcDbEntity
  8
0
100
AcDbMText
 62
2
  6
CONTINUOUS
  7
STANDARD
 71
2
 72
1
 10
1.5275
 20
-0.0995
 30
0.0
 11
1.0
 21
0.0
 31
0.0
 44
0.9
  1
Technical Data
 40
0.145
 41
3.248
  0
MTEXT
  5
25F
100
AcDbEntity
  8
0
100
AcDbMText
 62
2
  6
CONTINUOUS
  7
STANDARD
 71
2
 72
1
 10
4.555
 20
-0.0995
 30
0.0
 11
1.0
 21
0.0
 31
0.0
 44
0.9
  1
U.S. Units
 40
0.145
 41
2.32
  0
MTEXT
  5
260
100
AcDbEntity
  8
0
100
AcDbMText
 62
2
  6
CONTINUOUS
  7
STANDARD
 71
2
 72
1
 10
7.555
 20
-0.0995
 30
0.0
 11
1.0
 21
0.0
 31
0.0
 44
0.9
  1
Metric Units
 40
0.145
 41
2.784
  0
MTEXT
  5
261
100
AcDbEntity
  8
0
100
AcDbMText
 62
2
  6
CONTINUOUS
  7
STANDARD
 71
2
 72
1
 10
1.5275
 20
-0.4065
 30
0.0
 11
1.0
 21
0.0
 31
0.0
 44
0.9
  1
Cavity
 40
0.125
 41
1.2
  0
MTEXT
  5
262
100
AcDbEntity
  8
0
100
AcDbMText
 62
2
  6
CONTINUOUS
  7
STANDARD
 71
2
 72
1
 10
6.055
 20
-0.4065
 30
0.0
 11
1.0
 21
0.0
 31
0.0
 44
0.9
  1
T-2A
 40
0.125
 41
0.8
  0
MTEXT
  5
263
100
AcDbEntity
  8
0
100
AcDbMText
 62
2
  6
CONTINUOUS
  7
STANDARD
 71
2
 72
1
 10
1.5275
 20
-0.6565
 30
0.0
 11
1.0
 21
0.0
 31
0.0
 44
0.9
  1
Body Features
 40
0.125
 41
2.6
  0
MTEXT
  5
264
100
AcDbEntity
  8
0
100
AcDbMText
 62
2
  6
CONTINUOUS
  7
STANDARD
 71
2
 72
1
 10
6.055
 20
-0.6565
 30
0.0
 11
1.0
 21
0.0
 31
0.0
 44
0.9
  1
Cushion lock with make up checks
 40
0.125
 41
6.4
  0
MTEXT
  5
265
100
AcDbEntity
  8
0
100
AcDbMText
 62
2
  6
CONTINUOUS
  7
STANDARD
 71
2
 72
1
 10
1.5275
 20
-0.9065
 30
0.0
 11
1.0
 21
0.0
 31
0.0
 44
0.9
  1
Body Type
 40
0.125
 41
1.8
  0
MTEXT
  5
266
100
AcDbEntity
  8
0
100
AcDbMText
 62
2
  6
CONTINUOUS
  7
STANDARD
 71
2
 72
1
 10
6.055
 20
-0.9065
 30
0.0
 11
1.0
 21
0.0
 31
0.0
 44
0.9
  1
Line mount
 40
0.125
 41
2.0
  0
MTEXT
  5
267
100
AcDbEntity
  8
0
100
AcDbMText
 62
2
  6
CONTINUOUS
  7
STANDARD
 71
2
 72
1
 10
1.5275
 20
-1.1565
 30
0.0
 11
1.0
 21
0.0
 31
0.0
 44
0.9
  1
Interface
 40
0.125
 41
1.8
  0
MTEXT
  5
268
100
AcDbEntity
  8
0
100
AcDbMText
 62
2
  6
CONTINUOUS
  7
STANDARD
 71
2
 72
1
 10
6.055
 20
-1.1565
 30
0.0
 11
1.0
 21
0.0
 31
0.0
 44
0.9
  1
None
 40
0.125
 41
0.8
  0
MTEXT
  5
269
100
AcDbEntity
  8
0
100
AcDbMText
 62
2
  6
CONTINUOUS
  7
STANDARD
 71
2
 72
1
 10
1.5275
 20
-1.4065
 30
0.0
 11
1.0
 21
0.0
 31
0.0
 44
0.9
  1
Open Cavity Quantity
 40
0.125
 41
4.0
  0
MTEXT
  5
26A
100
AcDbEntity
  8
0
100
AcDbMText
 62
2
  6
CONTINUOUS
  7
STANDARD
 71
2
 72
1
 10
6.055
 20
-1.4065
 30
0.0
 11
1.0
 21
0.0
 31
0.0
 44
0.9
  1
2
 40
0.125
 41
0.2
  0
MTEXT
  5
26B
100
AcDbEntity
  8
0
100
AcDbMText
 62
2
  6
CONTINUOUS
  7
STANDARD
 71
2
 72
1
 10
1.5275
 20
-1.6565
 30
0.0
 11
1.0
 21
0.0
 31
0.0
 44
0.9
  1
Weight
 40
0.125
 41
1.2
  0
MTEXT
  5
26C
100
AcDbEntity
  8
0
100
AcDbMText
 62
2
  6
CONTINUOUS
  7
STANDARD
 71
2
 72
1
 10
4.555
 20
-1.6565
 30
0.0
 11
1.0
 21
0.0
 31
0.0
 44
0.9
  1
4.460 lb.
 40
0.125
 41
1.8
  0
MTEXT
  5
26D
100
AcDbEntity
  8
0
100
AcDbMText
 62
2
  6
CONTINUOUS
  7
STANDARD
 71
2
 72
1
 10
7.555
 20
-1.6565
 30
0.0
 11
1.0
 21
0.0
 31
0.0
 44
0.9
  1
2,023 kg.
 40
0.125
 41
1.8
  0
MTEXT
  5
26E
100
AcDbEntity
  8
0
100
AcDbMText
 62
2
  6
CONTINUOUS
  7
STANDARD
 71
2
 72
1
 10
1.5275
 20
-1.9065
 30
0.0
 11
1.0
 21
0.0
 31
0.0
 44
0.9
  1
Mounting Hole Diameter
 40
0.125
 41
4.4
  0
MTEXT
  5
26F
100
AcDbEntity
  8
0
100
AcDbMText
 62
2
  6
CONTINUOUS
  7
STANDARD
 71
2
 72
1
 10
4.555
 20
-1.9065
 30
0.0
 11
1.0
 21
0.0
 31
0.0
 44
0.9
  1
.41 in.
 40
0.125
 41
1.4
  0
MTEXT
  5
270
100
AcDbEntity
  8
0
100
AcDbMText
 62
2
  6
CONTINUOUS
  7
STANDARD
 71
2
 72
1
 10
7.555
 20
-1.9065
 30
0.0
 11
1.0
 21
0.0
 31
0.0
 44
0.9
  1
10,4 mm
 40
0.125
 41
1.4
  0
MTEXT
  5
271
100
AcDbEntity
  8
0
100
AcDbMText
 62
2
  6
CONTINUOUS
  7
STANDARD
 71
2
 72
1
 10
1.5275
 20
-2.1565
 30
0.0
 11
1.0
 21
0.0
 31
0.0
 44
0.9
  1
Mounting Hole Depth
 40
0.125
 41
3.8
  0
MTEXT
  5
272
100
AcDbEntity
  8
0
100
AcDbMText
 62
2
  6
CONTINUOUS
  7
STANDARD
 71
2
 72
1
 10
6.055
 20
-2.1565
 30
0.0
 11
1.0
 21
0.0
 31
0.0
 44
0.9
  1
Through
 40
0.125
 41
1.4
  0
MTEXT
  5
273
100
AcDbEntity
  8
0
100
AcDbMText
 62
2
  6
CONTINUOUS
  7
STANDARD
 71
2
 72
1
 10
1.5275
 20
-2.4065
 30
0.0
 11
1.0
 21
0.0
 31
0.0
 44
0.9
  1
Mounting Hole Quantity
 40
0.125
 41
4.4
  0
MTEXT
  5
274
100
AcDbEntity
  8
0
100
AcDbMText
 62
2
  6
CONTINUOUS
  7
STANDARD
 71
2
 72
1
 10
6.055
 20
-2.4065
 30
0.0
 11
1.0
 21
0.0
 31
0.0
 44
0.9
  1
2
 40
0.125
 41
0.2
  0
ENDBLK
  5
275
100
AcDbEntity
  8
0
  6
BYBLOCK
 62
0
100
AcDbBlockEnd
  0
BLOCK
  5
276
100
AcDbEntity
  8
0
100
AcDbBlockBegin
  2
*T3
 70
1
 10
0.0
 20
0.0
  3
*T3
  1

  0
LINE
  5
277
100
AcDbEntity
  8
0
100
AcDbLine
 62
2
  6
CONTINUOUS
 10
0.0
 20
0.0
 11
4.6
 21
0.0
  0
LINE
  5
278
100
AcDbEntity
  8
0
100
AcDbLine
 62
2
  6
CONTINUOUS
 10
0.0
 20
0.0
 11
0.0
 21
-1.18775
  0
LINE
  5
279
100
AcDbEntity
  8
0
100
AcDbLine
 62
2
  6
CONTINUOUS
 10
0.0
 20
-0.34375
 11
4.6
 21
-0.34375
  0
LINE
  5
27A
100
AcDbEntity
  8
0
100
AcDbLine
 62
2
  6
CONTINUOUS
 10
0.0
 20
-0.68775
 11
4.6
 21
-0.68775
  0
LINE
  5
27B
100
AcDbEntity
  8
0
100
AcDbLine
 62
2
  6
CONTINUOUS
 10
0.0
 20
-0.93775
 11
4.6
 21
-0.93775
  0
LINE
  5
27C
100
AcDbEntity
  8
0
100
AcDbLine
 62
2
  6
CONTINUOUS
 10
0.0
 20
-1.18775
 11
4.6
 21
-1.18775
  0
LINE
  5
27D
100
AcDbEntity
  8
0
100
AcDbLine
 62
2
  6
CONTINUOUS
 10
1.3
 20
-0.34375
 11
1.3
 21
-1.18775
  0
LINE
  5
27E
100
AcDbEntity
  8
0
100
AcDbLine
 62
2
  6
CONTINUOUS
 10
3.3
 20
-0.34375
 11
3.3
 21
-1.18775
  0
LINE
  5
27F
100
AcDbEntity
  8
0
100
AcDbLine
 62
2
  6
CONTINUOUS
 10
4.6
 20
0.0
 11
4.6
 21
-1.18775
  0
MTEXT
  5
280
100
AcDbEntity
  8
0
100
AcDbMText
 62
2
  6
CONTINUOUS
  7
STANDARD
 71
2
 72
1
 10
2.3
 20
-0.099375
 30
0.0
 11
1.0
 21
0.0
 31
0.0
 44
0.9
  1
Port Headings
 40
0.145
 41
3.016
  0
MTEXT
  5
281
100
AcDbEntity
  8
0
100
AcDbMText
 62
2
  6
CONTINUOUS
  7
STANDARD
 71
2
 72
1
 10
0.65
 20
-0.44325
 30
0.0
 11
1.0
 21
0.0
 31
0.0
 44
0.9
  1
Product
 40
0.145
 41
1.624
  0
MTEXT
  5
282
100
AcDbEntity
  8
0
100
AcDbMText
 62
2
  6
CONTINUOUS
  7
STANDARD
 71
2
 72
1
 10
2.3
 20
-0.44325
 30
0.0
 11
1.0
 21
0.0
 31
0.0
 44
0.9
  1
Port
 40
0.145
 41
0.928
  0
MTEXT
  5
283
100
AcDbEntity
  8
0
100
AcDbMText
 62
2
  6
CONTINUOUS
  7
STANDARD
 71
2
 72
1
 10
3.95
 20
-0.44325
 30
0.0
 11
1.0
 21
0.0
 31
0.0
 44
0.9
  1
Size
 40
0.145
 41
0.928
  0
MTEXT
  5
284
100
AcDbEntity
  8
0
100
AcDbMText
 62
2
  6
CONTINUOUS
  7
STANDARD
 71
2
 72
1
 10
0.65
 20
-0.75025
 30
0.0
 11
1.0
 21
0.0
 31
0.0
 44
0.9
  1
BPW
 40
0.125
 41
0.6
  0
MTEXT
  5
285
100
AcDbEntity
  8
0
100
AcDbMText
 62
2
  6
CONTINUOUS
  7
STANDARD
 71
2
 72
1
 10
2.3
 20
-0.75025
 30
0.0
 11
1.0
 21
0.0
 31
0.0
 44
0.9
  1
Ports C1, C2, V1, V2
 40
0.125
 41
4.0
  0
MTEXT
  5
286
100
AcDbEntity
  8
0
100
AcDbMText
 62
2
  6
CONTINUOUS
  7
STANDARD
 71
2
 72
1
 10
3.95
 20
-0.75025
 30
0.0
 11
1.0
 21
0.0
 31
0.0
 44
0.9
  1
3/4" BSPP
 40
0.125
 41
1.8
  0
MTEXT
  5
287
100
AcDbEntity
  8
0
100
AcDbMText
 62
2
  6
CONTINUOUS
  7
STANDARD
 71
2
 72
1
 10
0.65
 20
-1.00025
 30
0.0
 11
1.0
 21
0.0
 31
0.0
 44
0.9
  1
BPW
 40
0.125
 41
0.6
  0
MTEXT
  5
288
100
AcDbEntity
  8
0
100
AcDbMText
 62
2
  6
CONTINUOUS
  7
STANDARD
 71
2
 72
1
 10
2.3
 20
-1.00025
 30
0.0
 11
1.0
 21
0.0
 31
0.0
 44
0.9
  1
Port T
 40
0.125
 41
1.2
  0
MTEXT
  5
289
100
AcDbEntity
  8
0
100
AcDbMText
 62
2
  6
CONTINUOUS
  7
STANDARD
 71
2
 72
1
 10
3.95
 20
-1.00025
 30
0.0
 11
1.0
 21
0.0
 31
0.0
 44
0.9
  1
3/4" BSPP
 40
0.125
 41
1.8
  0
ENDBLK
  5
28A
100
AcDbEntity
  8
0
  6
BYBLOCK
 62
0
100
AcDbBlockEnd
  0
ENDSEC
  0
SECTION
  2
ENTITIES
  0
IMAGE
  5
28B
100
AcDbEntity
  8
0
100
AcDbRasterImage
 62
7
  6
CONTINUOUS
 10
19.2297077316
 20
0.3094318264
 30
0.0
 11
0.0066666667
 21
0.0
 31
0.0
 12
0.0
 22
0.0066666667
 32
0.0
 13
369.0
 23
92.0
340
       3EC
 70
9
280
0
281
50
282
50
283
0
360
       3E6
 71
1
 91
2
 14
-0.5
 24
-0.5
 14
368.5
 24
91.5
  0
INSERT
  5
28C
100
AcDbEntity
  8
0
100
AcDbBlockReference
 62
2
  6
CONTINUOUS
  2
SUN_FIRST_THIRD_ANGLE_BL0
 10
20.4816717061
 20
1.2289683772
  0
ACAD_TABLE
  5
28D
100
AcDbEntity
  8
0
 62
2
  6
CONTINUOUS
100
AcDbBlockReference
  2
*T1
 10
12.42375
 20
0.30125
 30
0.0
100
AcDbTable
342
       3EE
343
20F
 11
1.0
 21
0.0
 31
0.0
 90
6
 91
4
 92
6
 93
20
 94
0
 95
0
 96
0
 70
1
 41
0.0
141
0.525
141
0.1
141
0.525
141
0.1
142
4.1
142
1.1
142
0.7
142
0.5
142
0.4
142
2.475
171
1
172
0
173
0
174
0
175
1
176
1
 91
33
178
0
145
0.0
301
CELL_VALUE
 90
4
  1
T-2A Line mount\PCushion lock with make up checks
304
ACVALUE_END
170
2
140
0.125
171
1
172
0
173
0
174
0
175
1
176
1
 91
33
178
0
145
0.0
301
CELL_VALUE
 90
4
  1
Jul-11-19
304
ACVALUE_END
170
5
140
0.125
171
1
172
0
173
0
174
0
175
1
176
1
 91
33
178
0
145
0.0
301
CELL_VALUE
 90
4
  1
1.000
304
ACVALUE_END
170
5
140
0.125
171
1
172
0
173
0
174
0
175
1
176
1
 91
33
178
0
145
0.0
301
CELL_VALUE
 90
4
  1
C
304
ACVALUE_END
170
5
140
0.125
171
1
172
0
173
0
174
0
175
1
176
1
 91
33
178
0
145
0.0
301
CELL_VALUE
 90
4
  1
2
304
ACVALUE_END
170
5
140
0.125
171
1
172
0
173
0
174
0
175
1
176
1
 91
33
178
0
145
0.0
301
CELL_VALUE
 90
4
  1
 
304
ACVALUE_END
170
1
140
0.125
171
1
172
0
173
0
174
0
175
1
176
1
 91
33
178
0
145
0.0
301
CELL_VALUE
 90
4
  1
DESCRIPTION
304
ACVALUE_END
170
1
140
0.06
171
1
172
0
173
0
174
0
175
1
176
1
 91
33
178
0
145
0.0
301
CELL_VALUE
 90
4
  1
DATE
304
ACVALUE_END
170
1
140
0.06
171
1
172
0
173
0
174
0
175
1
176
1
 91
33
178
0
145
0.0
301
CELL_VALUE
 90
4
  1
SCALE
304
ACVALUE_END
170
1
140
0.06
171
1
172
0
173
0
174
0
175
1
176
1
 91
33
178
0
145
0.0
301
CELL_VALUE
 90
4
  1
DWG SIZE
304
ACVALUE_END
170
1
140
0.06
171
1
172
0
173
0
174
0
175
1
176
1
 91
33
178
0
145
0.0
301
CELL_VALUE
 90
4
  1
SHEET
304
ACVALUE_END
170
1
140
0.06
171
1
172
0
173
0
174
0
175
1
176
1
 91
33
178
0
145
0.0
301
CELL_VALUE
 90
4
  1
 
304
ACVALUE_END
170
1
140
0.125
171
1
172
0
173
0
174
0
175
1
176
1
 91
33
178
0
145
0.0
301
CELL_VALUE
 90
4
  1
BPW
304
ACVALUE_END
170
5
140
0.125
171
1
172
0
173
0
174
0
175
4
176
1
 91
33
178
0
145
0.0
301
CELL_VALUE
 90
4
  1
ALL DIMENSIONS IN INCH\PVIEWS ARE THIRD ANGLE
304
ACVALUE_END
170
5
140
0.12
171
1
172
0
173
1
174
0
175
1
176
1
 91
1
178
0
145
0.0
170
1
171
1
172
0
173
1
174
0
175
1
176
1
 91
1
178
0
145
0.0
170
1
171
1
172
0
173
1
174
0
175
1
176
1
 91
1
178
0
145
0.0
170
5
171
1
172
0
173
0
174
0
175
1
176
1
 91
33
178
0
145
0.0
301
CELL_VALUE
 90
4
  1
 
304
ACVALUE_END
170
1
140
0.125
171
1
172
0
173
0
174
0
175
1
176
1
 91
33
178
0
145
0.0
301
CELL_VALUE
 90
4
  1
MODEL
304
ACVALUE_END
170
1
140
0.06
171
1
172
0
173
0
174
0
175
1
176
1
 91
33
178
0
145
0.0
301
CELL_VALUE
 90
4
  1
 
304
ACVALUE_END
170
1
140
0.125
171
1
172
0
173
0
174
0
175
1
176
1
 91
33
178
0
145
0.0
301
CELL_VALUE
 90
4
  1
 
304
ACVALUE_END
170
1
140
0.125
171
1
172
0
173
0
174
0
175
1
176
1
 91
33
178
0
145
0.0
301
CELL_VALUE
 90
4
  1
 
304
ACVALUE_END
170
1
140
0.125
171
1
172
0
173
0
174
0
175
1
176
1
 91
33
178
0
145
0.0
301
CELL_VALUE
 90
4
  1
 
304
ACVALUE_END
170
1
140
0.125
171
1
172
0
173
0
174
0
175
1
176
1
 91
33
178
0
145
0.0
301
CELL_VALUE
 90
4
  1
 
304
ACVALUE_END
170
1
140
0.125
  0
ACAD_TABLE
  5
28E
100
AcDbEntity
  8
0
 62
2
  6
CONTINUOUS
100
AcDbBlockReference
  2
*T2
 10
12.4237499994
 20
16.47875
 30
0.0
100
AcDbTable
342
       3ED
343
210
 11
1.0
 21
0.0
 31
0.0
 90
22
 91
10
 92
3
 93
16
 94
0
 95
0
 96
0
 41
0.028
141
0.344
141
0.25
141
0.25
141
0.25
141
0.25
141
0.25
141
0.25
141
0.25
141
0.25
141
0.25
142
3.055
142
3.0
142
3.0
171
1
172
0
173
0
174
0
175
1
176
1
 91
33
178
0
145
0.0
301
CELL_VALUE
 90
4
  1
Technical Data
304
ACVALUE_END
170
5
140
0.145
171
1
172
0
173
0
174
0
175
1
176
1
 91
33
178
0
145
0.0
301
CELL_VALUE
 90
4
  1
U.S. Units
304
ACVALUE_END
170
5
140
0.145
171
1
172
0
173
0
174
0
175
1
176
1
 91
33
178
0
145
0.0
301
CELL_VALUE
 90
4
  1
Metric Units
304
ACVALUE_END
170
5
140
0.145
171
1
172
0
173
0
174
0
175
1
176
1
 91
33
178
0
145
0.0
301
CELL_VALUE
 90
4
  1
Cavity
304
ACVALUE_END
170
5
140
0.125
171
1
172
0
173
0
174
0
175
2
176
1
 91
33
178
0
145
0.0
301
CELL_VALUE
 90
4
  1
T-2A
304
ACVALUE_END
170
5
140
0.125
171
1
172
0
173
1
174
0
175
1
176
1
 91
1
178
0
145
0.0
170
1
171
1
172
0
173
0
174
0
175
1
176
1
 91
33
178
0
145
0.0
301
CELL_VALUE
 90
4
  1
Body Features
304
ACVALUE_END
170
5
140
0.125
171
1
172
0
173
0
174
0
175
2
176
1
 91
33
178
0
145
0.0
301
CELL_VALUE
 90
4
  1
Cushion lock with make up checks
304
ACVALUE_END
170
5
140
0.125
171
1
172
0
173
1
174
0
175
1
176
1
 91
1
178
0
145
0.0
170
1
171
1
172
0
173
0
174
0
175
1
176
1
 91
33
178
0
145
0.0
301
CELL_VALUE
 90
4
  1
Body Type
304
ACVALUE_END
170
5
140
0.125
171
1
172
0
173
0
174
0
175
2
176
1
 91
33
178
0
145
0.0
301
CELL_VALUE
 90
4
  1
Line mount
304
ACVALUE_END
170
5
140
0.125
171
1
172
0
173
1
174
0
175
1
176
1
 91
1
178
0
145
0.0
170
1
171
1
172
0
173
0
174
0
175
1
176
1
 91
33
178
0
145
0.0
301
CELL_VALUE
 90
4
  1
Interface
304
ACVALUE_END
170
5
140
0.125
171
1
172
0
173
0
174
0
175
2
176
1
 91
33
178
0
145
0.0
301
CELL_VALUE
 90
4
  1
None
304
ACVALUE_END
170
5
140
0.125
171
1
172
0
173
1
174
0
175
1
176
1
 91
1
178
0
145
0.0
170
1
171
1
172
0
173
0
174
0
175
1
176
1
 91
33
178
0
145
0.0
301
CELL_VALUE
 90
4
  1
Open Cavity Quantity
304
ACVALUE_END
170
5
140
0.125
171
1
172
0
173
0
174
0
175
2
176
1
 91
33
178
0
145
0.0
301
CELL_VALUE
 90
4
  1
2
304
ACVALUE_END
170
5
140
0.125
171
1
172
0
173
1
174
0
175
1
176
1
 91
1
178
0
145
0.0
170
1
171
1
172
0
173
0
174
0
175
1
176
1
 91
33
178
0
145
0.0
301
CELL_VALUE
 90
4
  1
Weight
304
ACVALUE_END
170
5
140
0.125
171
1
172
0
173
0
174
0
175
1
176
1
 91
33
178
0
145
0.0
301
CELL_VALUE
 90
4
  1
4.460 lb.
304
ACVALUE_END
170
5
140
0.125
171
1
172
0
173
0
174
0
175
1
176
1
 91
33
178
0
145
0.0
301
CELL_VALUE
 90
4
  1
2,023 kg.
304
ACVALUE_END
170
5
140
0.125
171
1
172
0
173
0
174
0
175
1
176
1
 91
33
178
0
145
0.0
301
CELL_VALUE
 90
4
  1
Mounting Hole Diameter
304
ACVALUE_END
170
5
140
0.125
171
1
172
0
173
0
174
0
175
1
176
1
 91
33
178
0
145
0.0
301
CELL_VALUE
 90
4
  1
.41 in.
304
ACVALUE_END
170
5
140
0.125
171
1
172
0
173
0
174
0
175
1
176
1
 91
33
178
0
145
0.0
301
CELL_VALUE
 90
4
  1
10,4 mm
304
ACVALUE_END
170
5
140
0.125
171
1
172
0
173
0
174
0
175
1
176
1
 91
33
178
0
145
0.0
301
CELL_VALUE
 90
4
  1
Mounting Hole Depth
304
ACVALUE_END
170
5
140
0.125
171
1
172
0
173
0
174
0
175
2
176
1
 91
33
178
0
145
0.0
301
CELL_VALUE
 90
4
  1
Through
304
ACVALUE_END
170
5
140
0.125
171
1
172
0
173
1
174
0
175
1
176
1
 91
1
178
0
145
0.0
170
1
171
1
172
0
173
0
174
0
175
1
176
1
 91
33
178
0
145
0.0
301
CELL_VALUE
 90
4
  1
Mounting Hole Quantity
304
ACVALUE_END
170
5
140
0.125
171
1
172
0
173
0
174
0
175
2
176
1
 91
33
178
0
145
0.0
301
CELL_VALUE
 90
4
  1
2
304
ACVALUE_END
170
5
140
0.125
171
1
172
0
173
1
174
0
175
1
176
1
 91
1
178
0
145
0.0
170
1
  0
ACAD_TABLE
  5
28F
100
AcDbEntity
  8
0
 62
2
  6
CONTINUOUS
100
AcDbBlockReference
  2
*T3
 10
0.52125
 20
1.709
 30
0.0
100
AcDbTable
342
       3ED
343
211
 11
1.0
 21
0.0
 31
0.0
 90
22
 91
4
 92
3
 93
16
 94
0
 95
0
 96
0
 41
0.05
141
0.34375
141
0.344
141
0.25
141
0.25
142
1.3
142
2.0
142
1.3
171
1
172
0
173
0
174
0
175
3
176
1
 91
33
178
0
145
0.0
301
CELL_VALUE
 90
4
  1
Port Headings
304
ACVALUE_END
170
5
140
0.145
171
1
172
0
173
1
174
0
175
1
176
1
 91
1
178
0
145
0.0
170
1
171
1
172
0
173
1
174
0
175
1
176
1
 91
1
178
0
145
0.0
170
1
171
1
172
0
173
0
174
0
175
1
176
1
 91
33
178
0
145
0.0
301
CELL_VALUE
 90
4
  1
Product
304
ACVALUE_END
170
5
140
0.145
171
1
172
0
173
0
174
0
175
1
176
1
 91
33
178
0
145
0.0
301
CELL_VALUE
 90
4
  1
Port
304
ACVALUE_END
170
5
140
0.145
171
1
172
0
173
0
174
0
175
1
176
1
 91
33
178
0
145
0.0
301
CELL_VALUE
 90
4
  1
Size
304
ACVALUE_END
170
5
140
0.145
171
1
172
0
173
0
174
0
175
1
176
1
 91
33
178
0
145
0.0
301
CELL_VALUE
 90
4
  1
BPW
304
ACVALUE_END
170
5
140
0.125
171
1
172
0
173
0
174
0
175
1
176
1
 91
33
178
0
145
0.0
301
CELL_VALUE
 90
4
  1
Ports C1, C2, V1, V2
304
ACVALUE_END
170
5
140
0.125
171
1
172
0
173
0
174
0
175
1
176
1
 91
33
178
0
145
0.0
301
CELL_VALUE
 90
4
  1
3/4" BSPP
304
ACVALUE_END
170
5
140
0.125
171
1
172
0
173
0
174
0
175
1
176
1
 91
33
178
0
145
0.0
301
CELL_VALUE
 90
4
  1
BPW
304
ACVALUE_END
170
5
140
0.125
171
1
172
0
173
0
174
0
175
1
176
1
 91
33
178
0
145
0.0
301
CELL_VALUE
 90
4
  1
Port T
304
ACVALUE_END
170
5
140
0.125
171
1
172
0
173
0
174
0
175
1
176
1
 91
33
178
0
145
0.0
301
CELL_VALUE
 90
4
  1
3/4" BSPP
304
ACVALUE_END
170
5
140
0.125
  0
MTEXT
  5
290
100
AcDbEntity
  8
0
100
AcDbMText
 62
2
  6
CONTINUOUS
  7
STANDARD
 71
1
 72
1
 10
0.52125
 20
5.75995
 30
0.0
 11
1.0
 21
0.0
 31
0.0
 44
0.6
  3
Notes\P \P1. Important: Carefully consider\P   the maximum system pressure. The\P   pressure rating of the manifold is\P   dependent on the manifold material,\P   with the port type/size a secondary\P   consideration. Manifolds\P   constructed of alu
  1
minum are not\P   rated for pressures higher than\P   3000 psi (210 bar), regardless of\P   the port type/size specified.
 40
0.1
 41
3.04
  0
LINE
  5
291
100
AcDbEntity
  8
0
100
AcDbLine
 62
7
  6
CONTINUOUS
 10
0.30125
 20
0.30125
 11
0.30125
 21
16.69875
  0
LINE
  5
292
100
AcDbEntity
  8
0
100
AcDbLine
 62
7
  6
CONTINUOUS
 10
0.30125
 20
0.30125
 11
21.69875
 21
0.30125
  0
LINE
  5
293
100
AcDbEntity
  8
0
100
AcDbLine
 62
7
  6
CONTINUOUS
 10
0.30125
 20
16.69875
 11
21.69875
 21
16.69875
  0
LINE
  5
294
100
AcDbEntity
  8
0
100
AcDbLine
 62
7
  6
CONTINUOUS
 10
21.69875
 20
0.30125
 11
21.69875
 21
16.69875
  0
LINE
  5
295
100
AcDbEntity
  8
0
100
AcDbLine
 62
7
  6
CONTINUOUS
 10
8.5828629239
 20
6.7163359089
 11
8.5828629239
 21
9.6141135594
  0
LINE
  5
296
100
AcDbEntity
  8
0
100
AcDbLine
 62
7
  6
CONTINUOUS
 10
8.5828629239
 20
9.6141135594
 11
9.553433542
 21
10.5516128413
  0
LINE
  5
297
100
AcDbEntity
  8
0
100
AcDbLine
 62
4
  6
CONTINUOUS
 10
8.8726407005
 20
8.5508174733
 11
8.8726407005
 21
8.4928619216
  0
LINE
  5
298
100
AcDbEntity
  8
0
100
AcDbLine
 62
4
  6
CONTINUOUS
 10
8.8726407005
 20
7.6452618878
 11
8.8726407005
 21
7.6597507757
  0
LINE
  5
299
100
AcDbEntity
  8
0
100
AcDbLine
 62
4
  6
CONTINUOUS
 10
8.8726407005
 20
9.0941507706
 11
8.8726407005
 21
9.1086396586
  0
LINE
  5
29A
100
AcDbEntity
  8
0
100
AcDbLine
 62
4
  6
CONTINUOUS
 10
8.9112777361
 20
8.7727157487
 11
8.9112777361
 21
8.7292490849
  0
LINE
  5
29B
100
AcDbEntity
  8
0
100
AcDbLine
 62
4
  6
CONTINUOUS
 10
8.9112777361
 20
7.3238268658
 11
8.9112777361
 21
7.280360202
  0
LINE
  5
29C
100
AcDbEntity
  8
0
100
AcDbLine
 62
4
  6
CONTINUOUS
 10
8.8726407005
 20
9.1086396586
 11
8.8822999594
 21
9.1224586746
  0
LINE
  5
29D
100
AcDbEntity
  8
0
100
AcDbLine
 62
4
  6
CONTINUOUS
 10
8.8822999594
 20
7.630103128
 11
8.8726407005
 21
7.6452618878
  0
LINE
  5
29E
100
AcDbEntity
  8
0
100
AcDbLine
 62
4
  6
CONTINUOUS
 10
8.9788925476
 20
7.666871073
 11
8.9885518039
 21
7.6517123134
  0
LINE
  5
29F
100
AcDbEntity
  8
0
100
AcDbLine
 62
4
  6
CONTINUOUS
 10
8.9305962522
 20
8.8945315524
 11
8.9305962522
 21
8.8583093326
  0
LINE
  5
2A0
100
AcDbEntity
  8
0
100
AcDbLine
 62
4
  6
CONTINUOUS
 10
8.9305962522
 20
8.6554649016
 11
8.9305962522
 21
8.6119982378
  0
LINE
  5
2A1
100
AcDbEntity
  8
0
100
AcDbLine
 62
4
  6
CONTINUOUS
 10
8.9305962522
 20
7.4456426696
 11
8.9305962522
 21
7.4094204497
  0
LINE
  5
2A2
100
AcDbEntity
  8
0
100
AcDbLine
 62
4
  6
CONTINUOUS
 10
8.9305962522
 20
7.2065760187
 11
8.9305962522
 21
7.163109355
  0
LINE
  5
2A3
100
AcDbEntity
  8
0
100
AcDbLine
 62
4
  6
CONTINUOUS
 10
8.9885518039
 20
9.1006011962
 11
8.9885518039
 21
9.0861123083
  0
LINE
  5
2A4
100
AcDbEntity
  8
0
100
AcDbLine
 62
4
  6
CONTINUOUS
 10
8.9885518039
 20
8.8905123213
 11
8.9885518039
 21
8.8325567695
  0
LINE
  5
2A5
100
AcDbEntity
  8
0
100
AcDbLine
 62
4
  6
CONTINUOUS
 10
8.9885518039
 20
8.5210456791
 11
8.9885518039
 21
8.5065567911
  0
LINE
  5
2A6
100
AcDbEntity
  8
0
100
AcDbLine
 62
4
  6
CONTINUOUS
 10
8.9885518039
 20
7.6517123134
 11
8.9885518039
 21
7.6372234254
  0
LINE
  5
2A7
100
AcDbEntity
  8
0
100
AcDbLine
 62
4
  6
CONTINUOUS
 10
8.9885518039
 20
7.4416234384
 11
8.9885518039
 21
7.3836678867
  0
LINE
  5
2A8
100
AcDbEntity
  8
0
100
AcDbLine
 62
4
  6
CONTINUOUS
 10
8.9885518039
 20
9.0861123083
 11
8.9788925476
 21
9.0722932921
  0
LINE
  5
2A9
100
AcDbEntity
  8
0
100
AcDbLine
 62
7
  6
CONTINUOUS
 10
12.446566458
 20
6.4483871587
 11
11.3224257851
 21
6.5263465792
  0
LINE
  5
2AA
100
AcDbEntity
  8
0
100
AcDbLine
 62
7
  6
CONTINUOUS
 10
11.0678886893
 20
6.5439987867
 11
9.9643339754
 21
6.6205305661
  0
LINE
  5
2AB
100
AcDbEntity
  8
0
100
AcDbLine
 62
7
  6
CONTINUOUS
 10
9.7097968796
 20
6.6381827736
 11
8.5828629239
 21
6.7163359089
  0
LINE
  5
2AC
100
AcDbEntity
  8
0
100
AcDbLine
 62
4
  6
CONTINUOUS
 10
8.8919592183
 20
7.6221888121
 11
8.8822999594
 21
7.630103128
  0
LINE
  5
2AD
100
AcDbEntity
  8
0
100
AcDbLine
 62
4
  6
CONTINUOUS
 10
8.959574028
 20
7.6826997048
 11
8.9788925476
 21
7.666871073
  0
LINE
  5
2AE
100
AcDbEntity
  8
0
100
AcDbLine
 62
4
  6
CONTINUOUS
 10
8.8822999594
 20
9.1224586746
 11
8.9016184763
 21
9.1356078188
  0
LINE
  5
2AF
100
AcDbEntity
  8
0
100
AcDbLine
 62
4
  6
CONTINUOUS
 10
12.2244034594
 20
6.9201942405
 11
12.1954256835
 21
6.9149594121
  0
LINE
  5
2B0
100
AcDbEntity
  8
0
100
AcDbLine
 62
4
  6
CONTINUOUS
 10
8.8726407005
 20
7.3409952413
 11
8.9885518039
 21
7.2967345591
  0
LINE
  5
2B1
100
AcDbEntity
  8
0
100
AcDbLine
 62
4
  6
CONTINUOUS
 10
8.8726407005
 20
7.5655730042
 11
8.9885518039
 21
7.4995789901
  0
LINE
  5
2B2
100
AcDbEntity
  8
0
100
AcDbLine
 62
4
  6
CONTINUOUS
 10
8.9402555085
 20
8.4954172627
 11
8.9209369924
 21
8.5257347822
  0
LINE
  5
2B3
100
AcDbEntity
  8
0
100
AcDbLine
 62
4
  6
CONTINUOUS
 10
8.9788925476
 20
8.5362044387
 11
8.9885518039
 21
8.5210456791
  0
LINE
  5
2B4
100
AcDbEntity
  8
0
100
AcDbLine
 62
4
  6
CONTINUOUS
 10
8.9885518039
 20
8.5065567911
 11
8.9788925476
 21
8.4927377749
  0
LINE
  5
2B5
100
AcDbEntity
  8
0
100
AcDbLine
 62
7
  6
CONTINUOUS
 10
9.4304713099
 20
9.1032181084
 11
9.3274708093
 21
9.0037272589
  0
LINE
  5
2B6
100
AcDbEntity
  8
0
100
AcDbLine
 62
4
  6
CONTINUOUS
 10
8.9788925476
 20
9.0722932921
 11
8.9692332843
 21
9.0657187203
  0
LINE
  5
2B7
100
AcDbEntity
  8
0
100
AcDbLine
 62
4
  6
CONTINUOUS
 10
8.9885518039
 20
7.0649123523
 11
8.8726407005
 21
7.0729508146
  0
LINE
  5
2B8
100
AcDbEntity
  8
0
100
AcDbLine
 62
4
  6
CONTINUOUS
 10
8.8822999594
 20
9.0789920108
 11
8.8726407005
 21
9.0941507706
  0
LINE
  5
2B9
100
AcDbEntity
  8
0
100
AcDbLine
 62
4
  6
CONTINUOUS
 10
8.8726407005
 20
7.6597507757
 11
8.8822999594
 21
7.6735697917
  0
LINE
  5
2BA
100
AcDbEntity
  8
0
100
AcDbLine
 62
7
  6
CONTINUOUS
 10
9.9198678727
 20
9.3518315788
 11
9.8168673721
 21
9.2523407293
  0
LINE
  5
2BB
100
AcDbEntity
  8
0
100
AcDbLine
 62
7
  6
CONTINUOUS
 10
9.9737886813
 20
9.348092158
 11
9.8707881808
 21
9.2486013085
  0
LINE
  5
2BC
100
AcDbEntity
  8
0
100
AcDbLine
 62
4
  6
CONTINUOUS
 10
8.9885518039
 20
9.0064234247
 11
8.8726407005
 21
8.9565063353
  0
LINE
  5
2BD
100
AcDbEntity
  8
0
100
AcDbLine
 62
4
  6
CONTINUOUS
 10
12.1664479076
 20
7.3371467777
 11
12.1954256835
 21
7.3423816061
  0
LINE
  5
2BE
100
AcDbEntity
  8
0
100
AcDbLine
 62
4
  6
CONTINUOUS
 10
12.2533812352
 20
7.1572512758
 11
12.1374701318
 21
7.1652897381
  0
LINE
  5
2BF
100
AcDbEntity
  8
0
100
AcDbLine
 62
4
  6
CONTINUOUS
 10
8.9305962522
 20
7.6919537644
 11
8.959574028
 21
7.6826997048
  0
LINE
  5
2C0
100
AcDbEntity
  8
0
100
AcDbLine
 62
4
  6
CONTINUOUS
 10
8.9499147717
 20
8.4875029465
 11
8.9402555085
 21
8.4954172627
  0
LINE
  5
2C1
100
AcDbEntity
  8
0
100
AcDbLine
 62
4
  6
CONTINUOUS
 10
8.9209369924
 20
8.5257347822
 11
8.9016184763
 21
8.5415634137
  0
LINE
  5
2C2
100
AcDbEntity
  8
0
100
AcDbLine
 62
4
  6
CONTINUOUS
 10
8.9692332843
 20
8.5441187548
 11
8.9788925476
 21
8.5362044387
  0
LINE
  5
2C3
100
AcDbEntity
  8
0
100
AcDbLine
 62
4
  6
CONTINUOUS
 10
8.9788925476
 20
9.1157599559
 11
8.9885518039
 21
9.1006011962
  0
LINE
  5
2C4
100
AcDbEntity
  8
0
100
AcDbLine
 62
4
  6
CONTINUOUS
 10
8.9885518039
 20
7.6372234254
 11
8.9788925476
 21
7.6234044092
  0
LINE
  5
2C5
100
AcDbEntity
  8
0
100
AcDbLine
 62
4
  6
CONTINUOUS
 10
8.9788925476
 20
8.4927377749
 11
8.9692332843
 21
8.4861632031
  0
LINE
  5
2C6
100
AcDbEntity
  8
0
100
AcDbLine
 62
4
  6
CONTINUOUS
 10
12.8818997287
 20
7.5112276372
 11
12.8741351639
 21
7.5109720871
  0
LINE
  5
2C7
100
AcDbEntity
  8
0
100
AcDbLine
 62
4
  6
CONTINUOUS
 10
8.8726407005
 20
7.4496619007
 11
8.9885518039
 21
7.4416234384
  0
LINE
  5
2C8
100
AcDbEntity
  8
0
100
AcDbLine
 62
4
  6
CONTINUOUS
 10
12.2533812352
 20
7.2731623792
 11
12.1374701318
 21
7.2812008415
  0
LINE
  5
2C9
100
AcDbEntity
  8
0
100
AcDbLine
 62
4
  6
CONTINUOUS
 10
12.1954256835
 20
6.9149594121
 11
12.1664479076
 21
6.9242134717
  0
LINE
  5
2CA
100
AcDbEntity
  8
0
100
AcDbLine
 62
4
  6
CONTINUOUS
 10
12.1374701318
 20
7.5420008243
 11
12.2533812352
 21
7.5339623619
  0
LINE
  5
2CB
100
AcDbEntity
  8
0
100
AcDbLine
 62
4
  6
CONTINUOUS
 10
8.8919592183
 20
9.071077695
 11
8.8822999594
 21
9.0789920108
  0
LINE
  5
2CC
100
AcDbEntity
  8
0
100
AcDbLine
 62
7
  6
CONTINUOUS
 10
10.4631852442
 20
9.0315991538
 11
10.3601847436
 21
8.9321083043
  0
LINE
  5
2CD
100
AcDbEntity
  8
0
100
AcDbLine
 62
7
  6
CONTINUOUS
 10
10.4901456485
 20
8.9830326533
 11
10.3871451479
 21
8.8835418038
  0
LINE
  5
2CE
100
AcDbEntity
  8
0
100
AcDbLine
 62
4
  6
CONTINUOUS
 10
8.9885518039
 20
7.2967345591
 11
8.8726407005
 21
7.2685508016
  0
LINE
  5
2CF
100
AcDbEntity
  8
0
100
AcDbLine
 62
4
  6
CONTINUOUS
 10
12.1954256835
 20
7.3423816061
 11
12.2244034594
 21
7.3331275465
  0
LINE
  5
2D0
100
AcDbEntity
  8
0
100
AcDbLine
 62
4
  6
CONTINUOUS
 10
12.2533812352
 20
7.0413401723
 11
12.1374701318
 21
7.1073341864
  0
LINE
  5
2D1
100
AcDbEntity
  8
0
100
AcDbLine
 62
4
  6
CONTINUOUS
 10
8.959574028
 20
9.1315885877
 11
8.9788925476
 21
9.1157599559
  0
LINE
  5
2D2
100
AcDbEntity
  8
0
100
AcDbLine
 62
7
  6
CONTINUOUS
 10
10.7885631196
 20
9.0090341215
 11
10.685562619
 21
8.909543272
  0
LINE
  5
2D3
100
AcDbEntity
  8
0
100
AcDbLine
 62
7
  6
CONTINUOUS
 10
9.4304713099
 20
7.6543292831
 11
9.3274708093
 21
7.5548384336
  0
LINE
  5
2D4
100
AcDbEntity
  8
0
100
AcDbLine
 62
4
  6
CONTINUOUS
 10
8.8822999594
 20
7.6735697917
 11
8.9016184763
 21
7.686718936
  0
LINE
  5
2D5
100
AcDbEntity
  8
0
100
AcDbLine
 62
4
  6
CONTINUOUS
 10
8.9788925476
 20
7.6234044092
 11
8.9692332843
 21
7.6168298374
  0
LINE
  5
2D6
100
AcDbEntity
  8
0
100
AcDbLine
 62
4
  6
CONTINUOUS
 10
8.9016184763
 20
7.686718936
 11
8.9305962522
 21
7.6919537644
  0
LINE
  5
2D7
100
AcDbEntity
  8
0
100
AcDbLine
 62
4
  6
CONTINUOUS
 10
8.9016184763
 20
8.5415634137
 11
8.8726407005
 21
8.5508174733
  0
LINE
  5
2D8
100
AcDbEntity
  8
0
100
AcDbLine
 62
4
  6
CONTINUOUS
 10
8.8726407005
 20
8.7898841241
 11
8.9885518039
 21
8.745623442
  0
LINE
  5
2D9
100
AcDbEntity
  8
0
100
AcDbLine
 62
4
  6
CONTINUOUS
 10
8.8726407005
 20
9.014461887
 11
8.9885518039
 21
8.948467873
  0
LINE
  5
2DA
100
AcDbEntity
  8
0
100
AcDbLine
 62
4
  6
CONTINUOUS
 10
12.1664479076
 20
6.9242134717
 11
12.1471293881
 21
6.9400421035
  0
LINE
  5
2DB
100
AcDbEntity
  8
0
100
AcDbLine
 62
7
  6
CONTINUOUS
 10
11.2779596824
 20
9.2576475919
 11
11.1749591819
 21
9.1581567424
  0
LINE
  5
2DC
100
AcDbEntity
  8
0
100
AcDbLine
 62
7
  6
CONTINUOUS
 10
9.9198678727
 20
7.9029427535
 11
9.8168673721
 21
7.803451904
  0
LINE
  5
2DD
100
AcDbEntity
  8
0
100
AcDbLine
 62
7
  6
CONTINUOUS
 10
11.3318804911
 20
9.2539081711
 11
11.2288799905
 21
9.1544173216
  0
LINE
  5
2DE
100
AcDbEntity
  8
0
100
AcDbLine
 62
7
  6
CONTINUOUS
 10
10.4901456485
 20
8.4179261788
 11
10.3871451479
 21
8.3184353292
  0
LINE
  5
2DF
100
AcDbEntity
  8
0
100
AcDbLine
 62
7
  6
CONTINUOUS
 10
10.4631852442
 20
8.3730990991
 11
10.3601847436
 21
8.2736082496
  0
LINE
  5
2E0
100
AcDbEntity
  8
0
100
AcDbLine
 62
7
  6
CONTINUOUS
 10
9.9737886813
 20
7.8992033327
 11
9.8707881808
 21
7.7997124832
  0
LINE
  5
2E1
100
AcDbEntity
  8
0
100
AcDbLine
 62
4
  6
CONTINUOUS
 10
12.2244034594
 20
8.3690830658
 11
12.1954256835
 21
8.3638482374
  0
LINE
  5
2E2
100
AcDbEntity
  8
0
100
AcDbLine
 62
4
  6
CONTINUOUS
 10
12.2340627174
 20
6.9847243644
 11
12.2437219763
 21
6.9768100485
  0
LINE
  5
2E3
100
AcDbEntity
  8
0
100
AcDbLine
 62
4
  6
CONTINUOUS
 10
8.9692332843
 20
8.4861632031
 11
8.9499147717
 21
8.4875029465
  0
LINE
  5
2E4
100
AcDbEntity
  8
0
100
AcDbLine
 62
4
  6
CONTINUOUS
 10
8.9305962522
 20
9.1408426472
 11
8.959574028
 21
9.1315885877
  0
LINE
  5
2E5
100
AcDbEntity
  8
0
100
AcDbLine
 62
4
  6
CONTINUOUS
 10
12.2244034594
 20
7.3331275465
 11
12.2437219763
 21
7.3172989149
  0
LINE
  5
2E6
100
AcDbEntity
  8
0
100
AcDbLine
 62
4
  6
CONTINUOUS
 10
12.1471293881
 20
9.0119531097
 11
12.1567886513
 21
9.0185276815
  0
LINE
  5
2E7
100
AcDbEntity
  8
0
100
AcDbLine
 62
4
  6
CONTINUOUS
 10
8.9885518039
 20
7.5575345418
 11
8.8726407005
 21
7.5076174524
  0
LINE
  5
2E8
100
AcDbEntity
  8
0
100
AcDbLine
 62
4
  6
CONTINUOUS
 10
12.1664479076
 20
8.786035603
 11
12.1954256835
 21
8.7912704313
  0
LINE
  5
2E9
100
AcDbEntity
  8
0
100
AcDbLine
 62
4
  6
CONTINUOUS
 10
12.2533812352
 20
8.6061401011
 11
12.1374701318
 21
8.6141785634
  0
LINE
  5
2EA
100
AcDbEntity
  8
0
100
AcDbLine
 62
4
  6
CONTINUOUS
 10
12.1954256835
 20
8.3638482374
 11
12.1664479076
 21
8.373102297
  0
LINE
  5
2EB
100
AcDbEntity
  8
0
100
AcDbLine
 62
4
  6
CONTINUOUS
 10
12.1471293881
 20
6.9400421035
 11
12.1374701318
 21
6.9552008631
  0
LINE
  5
2EC
100
AcDbEntity
  8
0
100
AcDbLine
 62
4
  6
CONTINUOUS
 10
12.2437219763
 20
6.9768100485
 11
12.2533812352
 21
6.9616512887
  0
LINE
  5
2ED
100
AcDbEntity
  8
0
100
AcDbLine
 62
7
  6
CONTINUOUS
 10
11.8212770539
 20
8.9374151669
 11
11.7182765533
 21
8.8379243174
  0
LINE
  5
2EE
100
AcDbEntity
  8
0
100
AcDbLine
 62
7
  6
CONTINUOUS
 10
10.4631852442
 20
7.5827103285
 11
10.3601847436
 21
7.483219479
  0
LINE
  5
2EF
100
AcDbEntity
  8
0
100
AcDbLine
 62
7
  6
CONTINUOUS
 10
11.8482374582
 20
8.8888486664
 11
11.7452369577
 21
8.7893578169
  0
LINE
  5
2F0
100
AcDbEntity
  8
0
100
AcDbLine
 62
7
  6
CONTINUOUS
 10
10.4901456485
 20
7.5341438281
 11
10.3871451479
 21
7.4346529785
  0
LINE
  5
2F1
100
AcDbEntity
  8
0
100
AcDbLine
 62
7
  6
CONTINUOUS
 10
12.446566458
 20
9.3461648093
 11
13.4171370761
 21
10.2836640911
  0
LINE
  5
2F2
100
AcDbEntity
  8
0
100
AcDbLine
 62
4
  6
CONTINUOUS
 10
12.1471293881
 20
8.7728864589
 11
12.1664479076
 21
8.786035603
  0
LINE
  5
2F3
100
AcDbEntity
  8
0
100
AcDbLine
 62
4
  6
CONTINUOUS
 10
12.8818997287
 20
8.9601163473
 11
12.8741351639
 21
8.9598607972
  0
LINE
  5
2F4
100
AcDbEntity
  8
0
100
AcDbLine
 62
4
  6
CONTINUOUS
 10
8.8726407005
 20
8.8985507836
 11
8.9885518039
 21
8.8905123213
  0
LINE
  5
2F5
100
AcDbEntity
  8
0
100
AcDbLine
 62
4
  6
CONTINUOUS
 10
12.2533812352
 20
8.7220512045
 11
12.1374701318
 21
8.7300896668
  0
LINE
  5
2F6
100
AcDbEntity
  8
0
100
AcDbLine
 62
4
  6
CONTINUOUS
 10
12.2437219763
 20
7.3172989149
 11
12.2533812352
 21
7.3021401551
  0
LINE
  5
2F7
100
AcDbEntity
  8
0
100
AcDbLine
 62
4
  6
CONTINUOUS
 10
12.1374701318
 20
8.9981340935
 11
12.1471293881
 21
9.0119531097
  0
LINE
  5
2F8
100
AcDbEntity
  8
0
100
AcDbLine
 62
7
  6
CONTINUOUS
 10
10.7885631196
 20
7.5601452962
 11
10.685562619
 21
7.4606544467
  0
LINE
  5
2F9
100
AcDbEntity
  8
0
100
AcDbLine
 62
4
  6
CONTINUOUS
 10
12.1374701318
 20
8.49826746
 11
12.2533812352
 21
8.5481845493
  0
LINE
  5
2FA
100
AcDbEntity
  8
0
100
AcDbLine
 62
4
  6
CONTINUOUS
 10
12.8896642935
 20
9.1052607768
 11
12.8974288583
 21
9.1055163269
  0
LINE
  5
2FB
100
AcDbEntity
  8
0
100
AcDbLine
 62
4
  6
CONTINUOUS
 10
12.1567886513
 20
9.0185276815
 11
12.176107164
 21
9.0171879381
  0
LINE
  5
2FC
100
AcDbEntity
  8
0
100
AcDbLine
 62
4
  6
CONTINUOUS
 10
12.1954256835
 20
8.7912704313
 11
12.2244034594
 21
8.7820163718
  0
LINE
  5
2FD
100
AcDbEntity
  8
0
100
AcDbLine
 62
4
  6
CONTINUOUS
 10
12.2533812352
 20
8.4902289976
 11
12.1374701318
 21
8.5562230117
  0
LINE
  5
2FE
100
AcDbEntity
  8
0
100
AcDbLine
 62
4
  6
CONTINUOUS
 10
12.1664479076
 20
8.373102297
 11
12.1471293881
 21
8.3889309288
  0
LINE
  5
2FF
100
AcDbEntity
  8
0
100
AcDbLine
 62
4
  6
CONTINUOUS
 10
12.1374701318
 20
8.7590674427
 11
12.1471293881
 21
8.7728864589
  0
LINE
  5
300
100
AcDbEntity
  8
0
100
AcDbLine
 62
7
  6
CONTINUOUS
 10
11.2779596824
 20
7.8087587666
 11
11.1749591819
 21
7.7092679171
  0
LINE
  5
301
100
AcDbEntity
  8
0
100
AcDbLine
 62
7
  6
CONTINUOUS
 10
11.8482374582
 20
8.3237421919
 11
11.7452369577
 21
8.2242513424
  0
LINE
  5
302
100
AcDbEntity
  8
0
100
AcDbLine
 62
7
  6
CONTINUOUS
 10
11.8212770539
 20
8.2789151122
 11
11.7182765533
 21
8.1794242627
  0
LINE
  5
303
100
AcDbEntity
  8
0
100
AcDbLine
 62
7
  6
CONTINUOUS
 10
11.3318804911
 20
7.8050193458
 11
11.2288799905
 21
7.7055284963
  0
LINE
  5
304
100
AcDbEntity
  8
0
100
AcDbLine
 62
7
  6
CONTINUOUS
 10
10.4901456485
 20
6.9690373535
 11
10.3871451479
 21
6.869546504
  0
LINE
  5
305
100
AcDbEntity
  8
0
100
AcDbLine
 62
7
  6
CONTINUOUS
 10
10.4631852442
 20
6.9242102738
 11
10.3601847436
 21
6.8247194243
  0
LINE
  5
306
100
AcDbEntity
  8
0
100
AcDbLine
 62
4
  6
CONTINUOUS
 10
12.8715469763
 20
9.1384718989
 11
12.8767233516
 21
9.1434718938
  0
LINE
  5
307
100
AcDbEntity
  8
0
100
AcDbLine
 62
4
  6
CONTINUOUS
 10
12.1471293881
 20
8.4323975926
 11
12.1567886513
 21
8.4389721644
  0
LINE
  5
308
100
AcDbEntity
  8
0
100
AcDbLine
 62
4
  6
CONTINUOUS
 10
12.2437219763
 20
8.38223221
 11
12.2244034594
 21
8.3690830658
  0
LINE
  5
309
100
AcDbEntity
  8
0
100
AcDbLine
 62
4
  6
CONTINUOUS
 10
8.9885518039
 20
8.745623442
 11
8.8726407005
 21
8.7174396845
  0
LINE
  5
30A
100
AcDbEntity
  8
0
100
AcDbLine
 62
4
  6
CONTINUOUS
 10
12.2244034594
 20
8.9631274709
 11
12.2533812352
 21
8.9538734114
  0
LINE
  5
30B
100
AcDbEntity
  8
0
100
AcDbLine
 62
4
  6
CONTINUOUS
 10
12.2340627174
 20
8.4336131897
 11
12.2437219763
 21
8.4256988738
  0
LINE
  5
30C
100
AcDbEntity
  8
0
100
AcDbLine
 62
4
  6
CONTINUOUS
 10
12.1374701318
 20
8.4185785763
 11
12.1471293881
 21
8.4323975926
  0
LINE
  5
30D
100
AcDbEntity
  8
0
100
AcDbLine
 62
4
  6
CONTINUOUS
 10
8.9016184763
 20
9.1356078188
 11
8.9305962522
 21
9.1408426472
  0
LINE
  5
30E
100
AcDbEntity
  8
0
100
AcDbLine
 62
7
  6
CONTINUOUS
 10
8.5828629239
 20
9.6141135594
 11
12.446566458
 21
9.3461648093
  0
LINE
  5
30F
100
AcDbEntity
  8
0
100
AcDbLine
 62
4
  6
CONTINUOUS
 10
12.2244034594
 20
8.7820163718
 11
12.2437219763
 21
8.7661877402
  0
LINE
  5
310
100
AcDbEntity
  8
0
100
AcDbLine
 62
4
  6
CONTINUOUS
 10
12.1471293881
 20
8.3889309288
 11
12.1374701318
 21
8.4040896884
  0
LINE
  5
311
100
AcDbEntity
  8
0
100
AcDbLine
 62
4
  6
CONTINUOUS
 10
12.2437219763
 20
8.4256988738
 11
12.2533812352
 21
8.410540114
  0
LINE
  5
312
100
AcDbEntity
  8
0
100
AcDbLine
 62
4
  6
CONTINUOUS
 10
12.1374701318
 20
6.9552008631
 11
12.1374701318
 21
6.9696897511
  0
LINE
  5
313
100
AcDbEntity
  8
0
100
AcDbLine
 62
4
  6
CONTINUOUS
 10
12.1374701318
 20
7.1652897381
 11
12.1374701318
 21
7.2232452898
  0
LINE
  5
314
100
AcDbEntity
  8
0
100
AcDbLine
 62
4
  6
CONTINUOUS
 10
12.1374701318
 20
7.2812008415
 11
12.1374701318
 21
7.3101786174
  0
LINE
  5
315
100
AcDbEntity
  8
0
100
AcDbLine
 62
4
  6
CONTINUOUS
 10
12.1374701318
 20
8.4040896884
 11
12.1374701318
 21
8.4185785763
  0
LINE
  5
316
100
AcDbEntity
  8
0
100
AcDbLine
 62
4
  6
CONTINUOUS
 10
12.1374701318
 20
8.6141785634
 11
12.1374701318
 21
8.6721341151
  0
LINE
  5
317
100
AcDbEntity
  8
0
100
AcDbLine
 62
4
  6
CONTINUOUS
 10
12.1374701318
 20
8.7300896668
 11
12.1374701318
 21
8.7590674427
  0
LINE
  5
318
100
AcDbEntity
  8
0
100
AcDbLine
 62
4
  6
CONTINUOUS
 10
12.1374701318
 20
8.9836452056
 11
12.1374701318
 21
8.9981340935
  0
LINE
  5
319
100
AcDbEntity
  8
0
100
AcDbLine
 62
4
  6
CONTINUOUS
 10
12.1954256835
 20
7.1612705069
 11
12.1954256835
 21
7.1974927268
  0
LINE
  5
31A
100
AcDbEntity
  8
0
100
AcDbLine
 62
4
  6
CONTINUOUS
 10
12.1954256835
 20
7.4003371578
 11
12.1954256835
 21
7.4438038216
  0
LINE
  5
31B
100
AcDbEntity
  8
0
100
AcDbLine
 62
4
  6
CONTINUOUS
 10
12.1954256835
 20
8.6101593322
 11
12.1954256835
 21
8.646381552
  0
LINE
  5
31C
100
AcDbEntity
  8
0
100
AcDbLine
 62
4
  6
CONTINUOUS
 10
12.1954256835
 20
8.8492259831
 11
12.1954256835
 21
8.8926926468
  0
LINE
  5
31D
100
AcDbEntity
  8
0
100
AcDbLine
 62
4
  6
CONTINUOUS
 10
12.2533812352
 20
8.7510289803
 11
12.2533812352
 21
8.7220512045
  0
LINE
  5
31E
100
AcDbEntity
  8
0
100
AcDbLine
 62
4
  6
CONTINUOUS
 10
12.2533812352
 20
8.6640956528
 11
12.2533812352
 21
8.6061401011
  0
LINE
  5
31F
100
AcDbEntity
  8
0
100
AcDbLine
 62
4
  6
CONTINUOUS
 10
12.2533812352
 20
8.410540114
 11
12.2533812352
 21
8.3960512261
  0
LINE
  5
320
100
AcDbEntity
  8
0
100
AcDbLine
 62
4
  6
CONTINUOUS
 10
12.2533812352
 20
7.3021401551
 11
12.2533812352
 21
7.2731623792
  0
LINE
  5
321
100
AcDbEntity
  8
0
100
AcDbLine
 62
4
  6
CONTINUOUS
 10
12.2533812352
 20
7.2152068275
 11
12.2533812352
 21
7.1572512758
  0
LINE
  5
322
100
AcDbEntity
  8
0
100
AcDbLine
 62
4
  6
CONTINUOUS
 10
12.2533812352
 20
6.9616512887
 11
12.2533812352
 21
6.9471624008
  0
LINE
  5
323
100
AcDbEntity
  8
0
100
AcDbLine
 62
4
  6
CONTINUOUS
 10
12.2533812352
 20
8.9538734114
 11
12.2533812352
 21
9.0118289631
  0
LINE
  5
324
100
AcDbEntity
  8
0
100
AcDbLine
 62
4
  6
CONTINUOUS
 10
12.2533812352
 20
8.3960512261
 11
12.2437219763
 21
8.38223221
  0
LINE
  5
325
100
AcDbEntity
  8
0
100
AcDbLine
 62
4
  6
CONTINUOUS
 10
12.1567886513
 20
8.9605721298
 11
12.1471293881
 21
8.9684864459
  0
LINE
  5
326
100
AcDbEntity
  8
0
100
AcDbLine
 62
4
  6
CONTINUOUS
 10
12.2050849433
 20
8.9789561025
 11
12.2244034594
 21
8.9631274709
  0
LINE
  5
327
100
AcDbEntity
  8
0
100
AcDbLine
 62
4
  6
CONTINUOUS
 10
12.176107164
 20
9.0171879381
 11
12.1857664272
 21
9.009273622
  0
LINE
  5
328
100
AcDbEntity
  8
0
100
AcDbLine
 62
4
  6
CONTINUOUS
 10
12.2437219763
 20
8.7661877402
 11
12.2533812352
 21
8.7510289803
  0
LINE
  5
329
100
AcDbEntity
  8
0
100
AcDbLine
 62
4
  6
CONTINUOUS
 10
12.1471293881
 20
8.9684864459
 11
12.1374701318
 21
8.9836452056
  0
LINE
  5
32A
100
AcDbEntity
  8
0
100
AcDbLine
 62
4
  6
CONTINUOUS
 10
12.1857664272
 20
9.009273622
 11
12.2050849433
 21
8.9789561025
  0
LINE
  5
32B
100
AcDbEntity
  8
0
100
AcDbLine
 62
4
  6
CONTINUOUS
 10
12.8741351639
 20
7.5109720871
 11
12.8689587868
 21
7.5204609784
  0
LINE
  5
32C
100
AcDbEntity
  8
0
100
AcDbLine
 62
4
  6
CONTINUOUS
 10
12.8922524816
 20
7.5936720688
 11
12.8948406699
 21
7.588927623
  0
LINE
  5
32D
100
AcDbEntity
  8
0
100
AcDbLine
 62
7
  6
CONTINUOUS
 10
12.446566458
 20
9.3461648093
 11
12.446566458
 21
6.4483871587
  0
LINE
  5
32E
100
AcDbEntity
  8
0
100
AcDbLine
 62
4
  6
CONTINUOUS
 10
12.8896642935
 20
8.9748607854
 11
12.8818997287
 21
8.9601163473
  0
LINE
  5
32F
100
AcDbEntity
  8
0
100
AcDbLine
 62
7
  6
CONTINUOUS
 10
11.8212770539
 20
7.4885263416
 11
11.7182765533
 21
7.3890354921
  0
LINE
  5
330
100
AcDbEntity
  8
0
100
AcDbLine
 62
7
  6
CONTINUOUS
 10
11.8482374582
 20
7.4399598412
 11
11.7452369577
 21
7.3404689916
  0
LINE
  5
331
100
AcDbEntity
  8
0
100
AcDbLine
 62
4
  6
CONTINUOUS
 10
12.8689587868
 20
9.1287274557
 11
12.8715469763
 21
9.1384718989
  0
LINE
  5
332
100
AcDbEntity
  8
0
100
AcDbLine
 62
4
  6
CONTINUOUS
 10
12.8689587868
 20
9.0128163523
 11
12.8715469763
 21
9.0225607955
  0
LINE
  5
333
100
AcDbEntity
  8
0
100
AcDbLine
 62
4
  6
CONTINUOUS
 10
12.8948406699
 20
8.9943496693
 11
12.8896642935
 21
8.9748607854
  0
LINE
  5
334
100
AcDbEntity
  8
0
100
AcDbLine
 62
4
  6
CONTINUOUS
 10
12.1374701318
 20
7.3101786174
 11
12.1471293881
 21
7.3239976336
  0
LINE
  5
335
100
AcDbEntity
  8
0
100
AcDbLine
 62
4
  6
CONTINUOUS
 10
12.1471293881
 20
7.3239976336
 11
12.1664479076
 21
7.3371467777
  0
LINE
  5
336
100
AcDbEntity
  8
0
100
AcDbLine
 62
4
  6
CONTINUOUS
 10
12.8689587868
 20
7.5204609784
 11
12.8663705992
 21
7.5324498689
  0
LINE
  5
337
100
AcDbEntity
  8
0
100
AcDbLine
 62
4
  6
CONTINUOUS
 10
12.8948406699
 20
7.588927623
 11
12.8974288583
 21
7.5769387331
  0
LINE
  5
338
100
AcDbEntity
  8
0
100
AcDbLine
 62
4
  6
CONTINUOUS
 10
12.8663705992
 20
7.5324498689
 11
12.8663705992
 21
7.5469387568
  0
LINE
  5
339
100
AcDbEntity
  8
0
100
AcDbLine
 62
4
  6
CONTINUOUS
 10
12.8663705992
 20
8.981338579
 11
12.8663705992
 21
8.9958274669
  0
LINE
  5
33A
100
AcDbEntity
  8
0
100
AcDbLine
 62
4
  6
CONTINUOUS
 10
12.8663705992
 20
9.0972496824
 11
12.8663705992
 21
9.1117385704
  0
LINE
  5
33B
100
AcDbEntity
  8
0
100
AcDbLine
 62
4
  6
CONTINUOUS
 10
12.8974288583
 20
9.0258274433
 11
12.8974288583
 21
9.0113385553
  0
LINE
  5
33C
100
AcDbEntity
  8
0
100
AcDbLine
 62
4
  6
CONTINUOUS
 10
12.8974288583
 20
7.5769387331
 11
12.8974288583
 21
7.5624498452
  0
LINE
  5
33D
100
AcDbEntity
  8
0
100
AcDbLine
 62
4
  6
CONTINUOUS
 10
12.8974288583
 20
9.1055163269
 11
12.8974288583
 21
9.1634718786
  0
LINE
  5
33E
100
AcDbEntity
  8
0
100
AcDbLine
 62
4
  6
CONTINUOUS
 10
12.8663705992
 20
9.1117385704
 11
12.8689587868
 21
9.1287274557
  0
LINE
  5
33F
100
AcDbEntity
  8
0
100
AcDbLine
 62
4
  6
CONTINUOUS
 10
12.8663705992
 20
8.9958274669
 11
12.8689587868
 21
9.0128163523
  0
LINE
  5
340
100
AcDbEntity
  8
0
100
AcDbLine
 62
4
  6
CONTINUOUS
 10
12.8974288583
 20
9.0113385553
 11
12.8948406699
 21
8.9943496693
  0
LINE
  5
341
100
AcDbEntity
  8
0
100
AcDbLine
 62
4
  6
CONTINUOUS
 10
12.1374701318
 20
6.9696897511
 11
12.1471293881
 21
6.9835087673
  0
LINE
  5
342
100
AcDbEntity
  8
0
100
AcDbLine
 62
4
  6
CONTINUOUS
 10
12.2533812352
 20
6.9471624008
 11
12.2437219763
 21
6.9333433848
  0
LINE
  5
343
100
AcDbEntity
  8
0
100
AcDbLine
 62
7
  6
CONTINUOUS
 10
11.8482374582
 20
6.8748533666
 11
11.7452369577
 21
6.7753625171
  0
LINE
  5
344
100
AcDbEntity
  8
0
100
AcDbLine
 62
7
  6
CONTINUOUS
 10
11.8212770539
 20
6.8300262869
 11
11.7182765533
 21
6.7305354374
  0
LINE
  5
345
100
AcDbEntity
  8
0
100
AcDbLine
 62
4
  6
CONTINUOUS
 10
12.8663705992
 20
7.6556054163
 11
12.8974288583
 21
7.6856053926
  0
LINE
  5
346
100
AcDbEntity
  8
0
100
AcDbLine
 62
4
  6
CONTINUOUS
 10
12.1471293881
 20
6.9835087673
 11
12.1567886513
 21
6.9900833391
  0
LINE
  5
347
100
AcDbEntity
  8
0
100
AcDbLine
 62
4
  6
CONTINUOUS
 10
12.1374701318
 20
7.0493786347
 11
12.2533812352
 21
7.0992957241
  0
LINE
  5
348
100
AcDbEntity
  8
0
100
AcDbLine
 62
4
  6
CONTINUOUS
 10
12.8741351639
 20
8.9598607972
 11
12.8689587868
 21
8.9693496885
  0
LINE
  5
349
100
AcDbEntity
  8
0
100
AcDbLine
 62
4
  6
CONTINUOUS
 10
12.8715469763
 20
9.0805163472
 11
12.8689587868
 21
9.0852607919
  0
LINE
  5
34A
100
AcDbEntity
  8
0
100
AcDbLine
 62
4
  6
CONTINUOUS
 10
12.8922524816
 20
9.042560779
 11
12.8948406699
 21
9.0378163331
  0
LINE
  5
34B
100
AcDbEntity
  8
0
100
AcDbLine
 62
4
  6
CONTINUOUS
 10
12.8689587868
 20
8.9693496885
 11
12.8663705992
 21
8.981338579
  0
LINE
  5
34C
100
AcDbEntity
  8
0
100
AcDbLine
 62
4
  6
CONTINUOUS
 10
12.8663705992
 20
7.5469387568
 11
12.8689587868
 21
7.5639276422
  0
LINE
  5
34D
100
AcDbEntity
  8
0
100
AcDbLine
 62
4
  6
CONTINUOUS
 10
12.8974288583
 20
7.5624498452
 11
12.8948406699
 21
7.5454609592
  0
LINE
  5
34E
100
AcDbEntity
  8
0
100
AcDbLine
 62
4
  6
CONTINUOUS
 10
12.8689587868
 20
7.5639276422
 11
12.8715469763
 21
7.5736720853
  0
LINE
  5
34F
100
AcDbEntity
  8
0
100
AcDbLine
 62
4
  6
CONTINUOUS
 10
12.8948406699
 20
7.5454609592
 11
12.8896642935
 21
7.5259720753
  0
LINE
  5
350
100
AcDbEntity
  8
0
100
AcDbLine
 62
4
  6
CONTINUOUS
 10
12.8896642935
 20
7.5259720753
 11
12.8818997287
 21
7.5112276372
  0
LINE
  5
351
100
AcDbEntity
  8
0
100
AcDbLine
 62
4
  6
CONTINUOUS
 10
12.2437219763
 20
6.9333433848
 11
12.2244034594
 21
6.9201942405
  0
LINE
  5
352
100
AcDbEntity
  8
0
100
AcDbLine
 62
7
  6
CONTINUOUS
 10
9.553433542
 20
10.5516128413
 11
13.4171370761
 21
10.2836640911
  0
LINE
  5
353
100
AcDbEntity
  8
0
100
AcDbLine
 62
4
  6
CONTINUOUS
 10
12.8844879173
 20
9.1147496689
 11
12.8896642935
 21
9.1052607768
  0
LINE
  5
354
100
AcDbEntity
  8
0
100
AcDbLine
 62
4
  6
CONTINUOUS
 10
12.8767233516
 20
9.1434718938
 11
12.8793115411
 21
9.138727449
  0
LINE
  5
355
100
AcDbEntity
  8
0
100
AcDbLine
 62
4
  6
CONTINUOUS
 10
12.8689587868
 20
9.0852607919
 11
12.8663705992
 21
9.0972496824
  0
LINE
  5
356
100
AcDbEntity
  8
0
100
AcDbLine
 62
4
  6
CONTINUOUS
 10
12.8948406699
 20
9.0378163331
 11
12.8974288583
 21
9.0258274433
  0
LINE
  5
357
100
AcDbEntity
  8
0
100
AcDbLine
 62
4
  6
CONTINUOUS
 10
12.8793115411
 20
9.138727449
 11
12.8844879173
 21
9.1147496689
  0
LINE
  5
358
100
AcDbEntity
  8
0
100
AcDbLine
 62
7
  6
CONTINUOUS
 10
13.4171370761
 20
10.2836640911
 11
13.4171370761
 21
7.3858864406
  0
LINE
  5
359
100
AcDbEntity
  8
0
100
AcDbLine
 62
7
  6
CONTINUOUS
 10
12.446566458
 20
6.4483871587
 11
13.4171370761
 21
7.3858864406
  0
ARC
  5
35A
100
AcDbEntity
  8
0
100
AcDbCircle
 62
7
  6
CONTINUOUS
 10
9.8913827308
 20
7.2335229056
 40
0.6699925153
100
AcDbArc
 50
26.6598562642
 51
31.4115094164
  0
ARC
  5
35B
100
AcDbEntity
  8
0
100
AcDbCircle
 62
7
  6
CONTINUOUS
 10
9.8983805073
 20
7.245030179
 40
0.6689722376
100
AcDbArc
 50
206.6562307081
 51
211.4151349725
  0
ARC
  5
35C
100
AcDbEntity
  8
0
100
AcDbCircle
 62
7
  6
CONTINUOUS
 10
9.7892750456
 20
7.1345276789
 40
0.6689722376
100
AcDbArc
 50
26.6562307081
 51
31.4151349724
  0
ARC
  5
35D
100
AcDbEntity
  8
0
100
AcDbCircle
 62
7
  6
CONTINUOUS
 10
9.8867594171
 20
7.1959927109
 40
0.6200987324
100
AcDbArc
 50
263.5283744339
 51
266.0300335618
  0
ARC
  5
35E
100
AcDbEntity
  8
0
100
AcDbCircle
 62
7
  6
CONTINUOUS
 10
9.8008961358
 20
7.183565147
 40
0.6200987324
100
AcDbArc
 50
83.5283744339
 51
86.0300335618
  0
ARC
  5
35F
100
AcDbEntity
  8
0
100
AcDbCircle
 62
7
  6
CONTINUOUS
 10
9.903981849
 20
7.2839885755
 40
0.6191624918
100
AcDbArc
 50
83.5264827432
 51
86.0319252525
  0
ARC
  5
360
100
AcDbEntity
  8
0
100
AcDbCircle
 62
7
  6
CONTINUOUS
 10
9.9043060066
 20
7.2886625721
 40
0.614477268
100
AcDbArc
 50
86.031919382
 51
88.5488078505
  0
ARC
  5
361
100
AcDbEntity
  8
0
100
AcDbCircle
 62
7
  6
CONTINUOUS
 10
9.8863500469
 20
7.1903861353
 40
0.614477268
100
AcDbArc
 50
266.031919382
 51
268.5488078505
  0
ARC
  5
362
100
AcDbEntity
  8
0
100
AcDbCircle
 62
7
  6
CONTINUOUS
 10
9.801305506
 20
7.1891717226
 40
0.614477268
100
AcDbArc
 50
86.031919382
 51
88.5488078504
  0
ARC
  5
363
100
AcDbEntity
  8
0
100
AcDbCircle
 62
7
  6
CONTINUOUS
 10
9.9980096837
 20
7.2345023233
 40
0.5591685417
100
AcDbArc
 50
326.2950117378
 51
331.6569605865
  0
ARC
  5
364
100
AcDbEntity
  8
0
100
AcDbCircle
 62
7
  6
CONTINUOUS
 10
9.7926463698
 20
7.2445463841
 40
0.5591685417
100
AcDbArc
 50
146.2950117378
 51
151.6569605865
  0
ARC
  5
365
100
AcDbEntity
  8
0
100
AcDbCircle
 62
7
  6
CONTINUOUS
 10
9.8950091831
 20
7.1350114738
 40
0.5591685417
100
AcDbArc
 50
326.2950117378
 51
331.6569605865
  0
ARC
  5
366
100
AcDbEntity
  8
0
100
AcDbCircle
 62
7
  6
CONTINUOUS
 10
9.8913827308
 20
8.6824117309
 40
0.6699925153
100
AcDbArc
 50
26.6598562642
 51
31.4115094164
  0
ARC
  5
367
100
AcDbEntity
  8
0
100
AcDbCircle
 62
7
  6
CONTINUOUS
 10
9.8983805073
 20
8.6939190043
 40
0.6689722376
100
AcDbArc
 50
206.6562307081
 51
211.4151349725
  0
ARC
  5
368
100
AcDbEntity
  8
0
100
AcDbCircle
 62
7
  6
CONTINUOUS
 10
9.7892750456
 20
8.5834165042
 40
0.6689722376
100
AcDbArc
 50
26.6562307081
 51
31.4151349724
  0
ARC
  5
369
100
AcDbEntity
  8
0
100
AcDbCircle
 62
7
  6
CONTINUOUS
 10
9.8867594171
 20
8.6448815362
 40
0.6200987324
100
AcDbArc
 50
263.5283744339
 51
266.0300335618
  0
ARC
  5
36A
100
AcDbEntity
  8
0
100
AcDbCircle
 62
7
  6
CONTINUOUS
 10
9.8008961358
 20
8.6324539722
 40
0.6200987324
100
AcDbArc
 50
83.5283744338
 51
86.0300335618
  0
ARC
  5
36B
100
AcDbEntity
  8
0
100
AcDbCircle
 62
7
  6
CONTINUOUS
 10
9.903981849
 20
8.7328774008
 40
0.6191624918
100
AcDbArc
 50
83.5264827433
 51
86.0319252524
  0
ARC
  5
36C
100
AcDbEntity
  8
0
100
AcDbCircle
 62
7
  6
CONTINUOUS
 10
9.9043060066
 20
8.7375513974
 40
0.614477268
100
AcDbArc
 50
86.031919382
 51
88.5488078505
  0
ARC
  5
36D
100
AcDbEntity
  8
0
100
AcDbCircle
 62
7
  6
CONTINUOUS
 10
9.8863500469
 20
8.6392749605
 40
0.614477268
100
AcDbArc
 50
266.031919382
 51
268.5488078504
  0
ARC
  5
36E
100
AcDbEntity
  8
0
100
AcDbCircle
 62
7
  6
CONTINUOUS
 10
9.801305506
 20
8.6380605479
 40
0.614477268
100
AcDbArc
 50
86.031919382
 51
88.5488078504
  0
ARC
  5
36F
100
AcDbEntity
  8
0
100
AcDbCircle
 62
7
  6
CONTINUOUS
 10
9.9980096837
 20
8.6833911486
 40
0.5591685417
100
AcDbArc
 50
326.2950117378
 51
331.6569605865
  0
ARC
  5
370
100
AcDbEntity
  8
0
100
AcDbCircle
 62
7
  6
CONTINUOUS
 10
9.7926463698
 20
8.6934352094
 40
0.5591685417
100
AcDbArc
 50
146.2950117378
 51
151.6569605865
  0
ARC
  5
371
100
AcDbEntity
  8
0
100
AcDbCircle
 62
7
  6
CONTINUOUS
 10
9.8950091831
 20
8.5839002991
 40
0.5591685417
100
AcDbArc
 50
326.2950117378
 51
331.6569605865
  0
ARC
  5
372
100
AcDbEntity
  8
0
100
AcDbCircle
 62
7
  6
CONTINUOUS
 10
11.2494745405
 20
7.1393389187
 40
0.6699925153
100
AcDbArc
 50
26.6598562642
 51
31.4115094164
  0
ARC
  5
373
100
AcDbEntity
  8
0
100
AcDbCircle
 62
7
  6
CONTINUOUS
 10
11.256472317
 20
7.1508461921
 40
0.6689722376
100
AcDbArc
 50
206.6562307081
 51
211.4151349724
  0
ARC
  5
374
100
AcDbEntity
  8
0
100
AcDbCircle
 62
7
  6
CONTINUOUS
 10
11.1473668554
 20
7.040343692
 40
0.6689722376
100
AcDbArc
 50
26.6562307081
 51
31.4151349724
  0
ARC
  5
375
100
AcDbEntity
  8
0
100
AcDbCircle
 62
7
  6
CONTINUOUS
 10
11.2448512268
 20
7.101808724
 40
0.6200987324
100
AcDbArc
 50
263.5283744338
 51
266.0300335619
  0
ARC
  5
376
100
AcDbEntity
  8
0
100
AcDbCircle
 62
7
  6
CONTINUOUS
 10
11.1589879455
 20
7.0893811601
 40
0.6200987324
100
AcDbArc
 50
83.5283744339
 51
86.0300335618
  0
ARC
  5
377
100
AcDbEntity
  8
0
100
AcDbCircle
 62
7
  6
CONTINUOUS
 10
11.2620736587
 20
7.1898045886
 40
0.6191624918
100
AcDbArc
 50
83.5264827432
 51
86.0319252524
  0
ARC
  5
378
100
AcDbEntity
  8
0
100
AcDbCircle
 62
7
  6
CONTINUOUS
 10
11.2623978163
 20
7.1944785852
 40
0.614477268
100
AcDbArc
 50
86.031919382
 51
88.5488078505
  0
ARC
  5
379
100
AcDbEntity
  8
0
100
AcDbCircle
 62
7
  6
CONTINUOUS
 10
11.2444418566
 20
7.0962021484
 40
0.614477268
100
AcDbArc
 50
266.031919382
 51
268.5488078505
  0
ARC
  5
37A
100
AcDbEntity
  8
0
100
AcDbCircle
 62
7
  6
CONTINUOUS
 10
11.1593973158
 20
7.0949877357
 40
0.614477268
100
AcDbArc
 50
86.031919382
 51
88.5488078504
  0
ARC
  5
37B
100
AcDbEntity
  8
0
100
AcDbCircle
 62
7
  6
CONTINUOUS
 10
11.3561014934
 20
7.1403183364
 40
0.5591685417
100
AcDbArc
 50
326.2950117378
 51
331.6569605865
  0
ARC
  5
37C
100
AcDbEntity
  8
0
100
AcDbCircle
 62
7
  6
CONTINUOUS
 10
11.1507381795
 20
7.1503623972
 40
0.5591685417
100
AcDbArc
 50
146.2950117378
 51
151.6569605865
  0
ARC
  5
37D
100
AcDbEntity
  8
0
100
AcDbCircle
 62
7
  6
CONTINUOUS
 10
11.2531009928
 20
7.0408274869
 40
0.5591685417
100
AcDbArc
 50
326.2950117378
 51
331.6569605865
  0
ARC
  5
37E
100
AcDbEntity
  8
0
100
AcDbCircle
 62
7
  6
CONTINUOUS
 10
11.2494745405
 20
8.588227744
 40
0.6699925153
100
AcDbArc
 50
26.6598562642
 51
31.4115094164
  0
ARC
  5
37F
100
AcDbEntity
  8
0
100
AcDbCircle
 62
7
  6
CONTINUOUS
 10
11.256472317
 20
8.5997350174
 40
0.6689722376
100
AcDbArc
 50
206.6562307081
 51
211.4151349725
  0
ARC
  5
380
100
AcDbEntity
  8
0
100
AcDbCircle
 62
7
  6
CONTINUOUS
 10
11.1473668554
 20
8.4892325173
 40
0.6689722376
100
AcDbArc
 50
26.6562307081
 51
31.4151349724
  0
ARC
  5
381
100
AcDbEntity
  8
0
100
AcDbCircle
 62
7
  6
CONTINUOUS
 10
11.2448512268
 20
8.5506975493
 40
0.6200987324
100
AcDbArc
 50
263.5283744338
 51
266.0300335618
  0
ARC
  5
382
100
AcDbEntity
  8
0
100
AcDbCircle
 62
7
  6
CONTINUOUS
 10
11.1589879455
 20
8.5382699853
 40
0.6200987324
100
AcDbArc
 50
83.5283744339
 51
86.0300335618
  0
ARC
  5
383
100
AcDbEntity
  8
0
100
AcDbCircle
 62
7
  6
CONTINUOUS
 10
11.2620736587
 20
8.6386934139
 40
0.6191624918
100
AcDbArc
 50
83.5264827432
 51
86.0319252524
  0
ARC
  5
384
100
AcDbEntity
  8
0
100
AcDbCircle
 62
7
  6
CONTINUOUS
 10
11.2623978163
 20
8.6433674105
 40
0.614477268
100
AcDbArc
 50
86.031919382
 51
88.5488078505
  0
ARC
  5
385
100
AcDbEntity
  8
0
100
AcDbCircle
 62
7
  6
CONTINUOUS
 10
11.2444418566
 20
8.5450909736
 40
0.614477268
100
AcDbArc
 50
266.031919382
 51
268.5488078504
  0
ARC
  5
386
100
AcDbEntity
  8
0
100
AcDbCircle
 62
7
  6
CONTINUOUS
 10
11.1593973158
 20
8.543876561
 40
0.614477268
100
AcDbArc
 50
86.031919382
 51
88.5488078504
  0
ARC
  5
387
100
AcDbEntity
  8
0
100
AcDbCircle
 62
7
  6
CONTINUOUS
 10
11.3561014934
 20
8.5892071617
 40
0.5591685417
100
AcDbArc
 50
326.2950117378
 51
331.6569605865
  0
ARC
  5
388
100
AcDbEntity
  8
0
100
AcDbCircle
 62
7
  6
CONTINUOUS
 10
11.1507381795
 20
8.5992512225
 40
0.5591685417
100
AcDbArc
 50
146.2950117378
 51
151.6569605865
  0
ARC
  5
389
100
AcDbEntity
  8
0
100
AcDbCircle
 62
7
  6
CONTINUOUS
 10
11.2531009928
 20
8.4897163122
 40
0.5591685417
100
AcDbArc
 50
326.2950117378
 51
331.6569605865
  0
SPLINE
  5
38A
100
AcDbEntity
  8
0
100
AcDbSpline
 62
7
  6
CONTINUOUS
 70
0
 71
3
 72
15
 73
11
 74
0
 42
0.0000001
 43
0.0000001
 44
0.0000000001
 40
0.0
 40
0.0
 40
0.0
 40
0.0
 40
0.130853243
 40
0.2612478082
 40
0.3906112907
 40
0.5182255703
 40
0.6433665409
 40
0.7654878953
 40
0.8843462897
 40
1.0
 40
1.0
 40
1.0
 40
1.0
 10
10.4901456485
 20
6.9690373535
 30
0.0
 10
10.4917893776
 20
6.9936538878
 30
0.0
 10
10.4947775776
 20
7.0428210221
 30
0.0
 10
10.4981861734
 20
7.1163917138
 30
0.0
 10
10.5003325171
 20
7.189400185
 30
0.0
 10
10.5010756164
 20
7.2614466067
 30
0.0
 10
10.5003605194
 20
7.3321280988
 30
0.0
 10
10.4982358134
 20
7.4011294
 30
0.0
 10
10.4948395015
 20
7.4682879051
 30
0.0
 10
10.4918124307
 20
7.512402025
 30
0.0
 10
10.4901456485
 20
7.5341438281
 30
0.0
  0
SPLINE
  5
38B
100
AcDbEntity
  8
0
100
AcDbSpline
 62
7
  6
CONTINUOUS
 70
0
 71
3
 72
18
 73
14
 74
0
 42
0.0000001
 43
0.0000001
 44
0.0000000001
 40
0.0
 40
0.0
 40
0.0
 40
0.0
 40
0.1209533837
 40
0.2437778942
 40
0.3058582232
 40
0.3683347693
 40
0.4311529717
 40
0.4942444779
 40
0.5575323574
 40
0.6209360738
 40
0.7477793722
 40
0.8742481621
 40
1.0
 40
1.0
 40
1.0
 40
1.0
 10
10.4631852442
 20
7.5827103285
 30
0.0
 10
10.4447314575
 20
7.5973174262
 30
0.0
 10
10.4072598678
 20
7.6264080892
 30
0.0
 10
10.3594608408
 20
7.6618749006
 30
0.0
 10
10.3202842496
 20
7.6898455894
 30
0.0
 10
10.2903423656
 20
7.7106511431
 30
0.0
 10
10.2599660834
 20
7.7311708174
 30
0.0
 10
10.2291861267
 20
7.7513690939
 30
0.0
 10
10.1980425458
 20
7.771214951
 30
0.0
 10
10.1560911284
 20
7.797175686
 30
0.0
 10
10.1030649687
 20
7.8285918275
 30
0.0
 10
10.0387413323
 20
7.8646977895
 30
0.0
 10
9.9954631781
 20
7.8878478567
 30
0.0
 10
9.9737886813
 20
7.8992033327
 30
0.0
  0
SPLINE
  5
38C
100
AcDbEntity
  8
0
100
AcDbSpline
 62
7
  6
CONTINUOUS
 70
0
 71
3
 72
15
 73
11
 74
0
 42
0.0000001
 43
0.0000001
 44
0.0000000001
 40
0.0
 40
0.0
 40
0.0
 40
0.0
 40
0.112346891
 40
0.2287649619
 40
0.3494215021
 40
0.4741363415
 40
0.6023573719
 40
0.7332837662
 40
0.866070494
 40
1.0
 40
1.0
 40
1.0
 40
1.0
 10
9.9198678727
 20
7.9029427535
 30
0.0
 10
9.9012381935
 20
7.8942451501
 30
0.0
 10
9.8633675731
 20
7.8763975944
 30
0.0
 10
9.8057419151
 20
7.8486770231
 30
0.0
 10
9.746325284
 20
7.819463592
 30
0.0
 10
9.6852391074
 20
7.7887563567
 30
0.0
 10
9.6227468593
 20
7.7566675832
 30
0.0
 10
9.5592010429
 20
7.7234019162
 30
0.0
 10
9.4949641291
 20
7.6892080553
 30
0.0
 10
9.4520116521
 20
7.6660228476
 30
0.0
 10
9.4304713099
 20
7.6543292831
 30
0.0
  0
SPLINE
  5
38D
100
AcDbEntity
  8
0
100
AcDbSpline
 62
7
  6
CONTINUOUS
 70
0
 71
3
 72
15
 73
11
 74
0
 42
0.0000001
 43
0.0000001
 44
0.0000000001
 40
0.0
 40
0.0
 40
0.0
 40
0.0
 40
0.130853243
 40
0.2612478082
 40
0.3906112907
 40
0.5182255703
 40
0.6433665409
 40
0.7654878953
 40
0.8843462897
 40
1.0
 40
1.0
 40
1.0
 40
1.0
 10
9.300510405
 20
7.5100113539
 30
0.0
 10
9.2988666759
 20
7.4853948196
 30
0.0
 10
9.2958784758
 20
7.4362276853
 30
0.0
 10
9.29246988
 20
7.3626569936
 30
0.0
 10
9.2903235363
 20
7.2896485224
 30
0.0
 10
9.2895804371
 20
7.2176021007
 30
0.0
 10
9.2902955341
 20
7.1469206086
 30
0.0
 10
9.2924202401
 20
7.0779193074
 30
0.0
 10
9.295816552
 20
7.0107608023
 30
0.0
 10
9.2988436227
 20
6.9666466824
 30
0.0
 10
9.300510405
 20
6.9449048793
 30
0.0
  0
SPLINE
  5
38E
100
AcDbEntity
  8
0
100
AcDbSpline
 62
7
  6
CONTINUOUS
 70
0
 71
3
 72
18
 73
14
 74
0
 42
0.0000001
 43
0.0000001
 44
0.0000000001
 40
0.0
 40
0.0
 40
0.0
 40
0.0
 40
0.1209533837
 40
0.2437778942
 40
0.3058582232
 40
0.3683347693
 40
0.4311529717
 40
0.4942444779
 40
0.5575323574
 40
0.6209360738
 40
0.7477793722
 40
0.8742481621
 40
1.0
 40
1.0
 40
1.0
 40
1.0
 10
9.3274708093
 20
6.8963383789
 30
0.0
 10
9.345924596
 20
6.8817312812
 30
0.0
 10
9.3833961856
 20
6.8526406182
 30
0.0
 10
9.4311952126
 20
6.8171738068
 30
0.0
 10
9.4703718038
 20
6.789203118
 30
0.0
 10
9.5003136879
 20
6.7683975643
 30
0.0
 10
9.53068997
 20
6.74787789
 30
0.0
 10
9.5614699268
 20
6.7276796135
 30
0.0
 10
9.5926135077
 20
6.7078337564
 30
0.0
 10
9.634564925
 20
6.6818730214
 30
0.0
 10
9.6875910848
 20
6.6504568799
 30
0.0
 10
9.7519147212
 20
6.6143509179
 30
0.0
 10
9.7951928754
 20
6.5912008507
 30
0.0
 10
9.8168673721
 20
6.5798453747
 30
0.0
  0
SPLINE
  5
38F
100
AcDbEntity
  8
0
100
AcDbSpline
 62
7
  6
CONTINUOUS
 70
0
 71
3
 72
15
 73
11
 74
0
 42
0.0000001
 43
0.0000001
 44
0.0000000001
 40
0.0
 40
0.0
 40
0.0
 40
0.0
 40
0.112346891
 40
0.2287649619
 40
0.3494215021
 40
0.4741363415
 40
0.6023573719
 40
0.7332837662
 40
0.866070494
 40
1.0
 40
1.0
 40
1.0
 40
1.0
 10
9.8707881808
 20
6.5761059539
 30
0.0
 10
9.88941786
 20
6.5848035573
 30
0.0
 10
9.9272884804
 20
6.602651113
 30
0.0
 10
9.9849141383
 20
6.6303716843
 30
0.0
 10
10.0443307695
 20
6.6595851154
 30
0.0
 10
10.1054169461
 20
6.6902923506
 30
0.0
 10
10.1679091941
 20
6.7223811242
 30
0.0
 10
10.2314550105
 20
6.7556467912
 30
0.0
 10
10.2956919244
 20
6.7898406521
 30
0.0
 10
10.3386444013
 20
6.8130258598
 30
0.0
 10
10.3601847436
 20
6.8247194243
 30
0.0
  0
SPLINE
  5
390
100
AcDbEntity
  8
0
100
AcDbSpline
 62
7
  6
CONTINUOUS
 70
0
 71
3
 72
49
 73
45
 74
0
 42
0.0000001
 43
0.0000001
 44
0.0000000001
 40
0.0
 40
0.0
 40
0.0
 40
0.0
 40
0.031187151
 40
0.0621645213
 40
0.0929401585
 40
0.1082629014
 40
0.1235424257
 40
0.1387821476
 40
0.1539858757
 40
0.1691576791
 40
0.1843020069
 40
0.1994235946
 40
0.2145274341
 40
0.2296186839
 40
0.2447026442
 40
0.2597846952
 40
0.2748702365
 40
0.2899646369
 40
0.3050731598
 40
0.3202009317
 40
0.3353528523
 40
0.3505335935
 40
0.3657474896
 40
0.3809985718
 40
0.3962904382
 40
0.4269990655
 40
0.4579035252
 40
0.4890160735
 40
0.5203408316
 40
0.5518737651
 40
0.5836029699
 40
0.6155093002
 40
0.6475671858
 40
0.6797456153
 40
0.7120093051
 40
0.7443199991
 40
0.776637812
 40
0.8089225842
 40
0.8411353274
 40
0.8732395264
 40
0.9052026864
 40
0.9369967424
 40
0.9686011451
 40
1.0
 40
1.0
 40
1.0
 40
1.0
 10
9.8320228758
 20
7.7144651352
 30
0.0
 10
9.8145461268
 20
7.7156771519
 30
0.0
 10
9.7795669026
 20
7.7163965264
 30
0.0
 10
9.7274403757
 20
7.7122969844
 30
0.0
 10
9.6847553482
 20
7.7045784149
 30
0.0
 10
9.6513828163
 20
7.6958702624
 30
0.0
 10
9.6268197399
 20
7.6881006863
 30
0.0
 10
9.6027515076
 20
7.6791028584
 30
0.0
 10
9.579235312
 20
7.6688981415
 30
0.0
 10
9.5563278557
 20
7.6575115931
 30
0.0
 10
9.534084799
 20
7.6449698091
 30
0.0
 10
9.5125591792
 20
7.6313040776
 30
0.0
 10
9.4918037508
 20
7.6165460617
 30
0.0
 10
9.4718675616
 20
7.6007327518
 30
0.0
 10
9.4527999105
 20
7.5839007845
 30
0.0
 10
9.4346454708
 20
7.5660922508
 30
0.0
 10
9.4174494227
 20
7.5473486788
 30
0.0
 10
9.4012518342
 20
7.527716584
 30
0.0
 10
9.3860930975
 20
7.5072422003
 30
0.0
 10
9.3720085411
 20
7.4859758476
 30
0.0
 10
9.3590331283
 20
7.4639681377
 30
0.0
 10
9.347197332
 20
7.4412726023
 30
0.0
 10
9.3365301762
 20
7.4179439171
 30
0.0
 10
9.3270570072
 20
7.3940376386
 30
0.0
 10
9.3160347188
 20
7.3614310379
 30
0.0
 10
9.3053558994
 20
7.3194882341
 30
0.0
 10
9.2976404257
 20
7.2678902229
 30
0.0
 10
9.2950721668
 20
7.2154342547
 30
0.0
 10
9.2976750882
 20
7.1626290205
 30
0.0
 10
9.3054218347
 20
7.1099816485
 30
0.0
 10
9.3182362293
 20
7.0579984282
 30
0.0
 10
9.3359935536
 20
7.007178552
 30
0.0
 10
9.3585219703
 20
6.9580098364
 30
0.0
 10
9.3856041561
 20
6.9109640557
 30
0.0
 10
9.4169794047
 20
6.8664925504
 30
0.0
 10
9.4523461118
 20
6.8250219695
 30
0.0
 10
9.4913646358
 20
6.7869502862
 30
0.0
 10
9.5336604862
 20
6.7526429986
 30
0.0
 10
9.5788278579
 20
6.7224298321
 30
0.0
 10
9.6264335816
 20
6.696601226
 30
0.0
 10
9.6760204414
 20
6.675406483
 30
0.0
 10
9.7271145453
 20
6.659049499
 30
0.0
 10
9.7792184574
 20
6.6476902986
 30
0.0
 10
9.8144274915
 20
6.6435076486
 30
0.0
 10
9.8320228758
 20
6.6422874045
 30
0.0
  0
SPLINE
  5
391
100
AcDbEntity
  8
0
100
AcDbSpline
 62
7
  6
CONTINUOUS
 70
0
 71
3
 72
49
 73
45
 74
0
 42
0.0000001
 43
0.0000001
 44
0.0000000001
 40
0.0
 40
0.0
 40
0.0
 40
0.0
 40
0.031187151
 40
0.0621645213
 40
0.0929401585
 40
0.1082629014
 40
0.1235424257
 40
0.1387821476
 40
0.1539858757
 40
0.1691576791
 40
0.1843020069
 40
0.1994235946
 40
0.2145274341
 40
0.2296186839
 40
0.2447026442
 40
0.2597846952
 40
0.2748702365
 40
0.2899646369
 40
0.3050731598
 40
0.3202009317
 40
0.3353528523
 40
0.3505335935
 40
0.3657474896
 40
0.3809985718
 40
0.3962904382
 40
0.4269990655
 40
0.4579035252
 40
0.4890160735
 40
0.5203408316
 40
0.5518737651
 40
0.5836029699
 40
0.6155093002
 40
0.6475671858
 40
0.6797456153
 40
0.7120093051
 40
0.7443199991
 40
0.776637812
 40
0.8089225842
 40
0.8411353274
 40
0.8732395264
 40
0.9052026864
 40
0.9369967424
 40
0.9686011451
 40
1.0
 40
1.0
 40
1.0
 40
1.0
 10
9.8320228758
 20
6.6422874045
 30
0.0
 10
9.8494996248
 20
6.6410753878
 30
0.0
 10
9.884478849
 20
6.6403560133
 30
0.0
 10
9.9366053759
 20
6.6444555553
 30
0.0
 10
9.9792904034
 20
6.6521741248
 30
0.0
 10
10.0126629353
 20
6.6608822773
 30
0.0
 10
10.0372260117
 20
6.6686518534
 30
0.0
 10
10.061294244
 20
6.6776496813
 30
0.0
 10
10.0848104396
 20
6.6878543982
 30
0.0
 10
10.1077178959
 20
6.6992409466
 30
0.0
 10
10.1299609527
 20
6.7117827306
 30
0.0
 10
10.1514865724
 20
6.7254484621
 30
0.0
 10
10.1722420008
 20
6.740206478
 30
0.0
 10
10.19217819
 20
6.7560197879
 30
0.0
 10
10.2112458411
 20
6.7728517552
 30
0.0
 10
10.2294002808
 20
6.790660289
 30
0.0
 10
10.2465963289
 20
6.809403861
 30
0.0
 10
10.2627939174
 20
6.8290359557
 30
0.0
 10
10.2779526541
 20
6.8495103394
 30
0.0
 10
10.2920372105
 20
6.8707766921
 30
0.0
 10
10.3050126233
 20
6.892784402
 30
0.0
 10
10.3168484196
 20
6.9154799374
 30
0.0
 10
10.3275155754
 20
6.9388086226
 30
0.0
 10
10.3369887444
 20
6.9627149011
 30
0.0
 10
10.3480110328
 20
6.9953215018
 30
0.0
 10
10.3586898522
 20
7.0372643056
 30
0.0
 10
10.3664053259
 20
7.0888623168
 30
0.0
 10
10.3689735848
 20
7.141318285
 30
0.0
 10
10.3663706635
 20
7.1941235192
 30
0.0
 10
10.3586239169
 20
7.2467708912
 30
0.0
 10
10.3458095223
 20
7.2987541116
 30
0.0
 10
10.328052198
 20
7.3495739878
 30
0.0
 10
10.3055237813
 20
7.3987427033
 30
0.0
 10
10.2784415955
 20
7.445788484
 30
0.0
 10
10.2470663469
 20
7.4902599893
 30
0.0
 10
10.2116996398
 20
7.5317305702
 30
0.0
 10
10.1726811158
 20
7.5698022535
 30
0.0
 10
10.1303852655
 20
7.6041095412
 30
0.0
 10
10.0852178937
 20
7.6343227076
 30
0.0
 10
10.03761217
 20
7.6601513137
 30
0.0
 10
9.9880253102
 20
7.6813460567
 30
0.0
 10
9.9369312063
 20
7.6977030407
 30
0.0
 10
9.8848272942
 20
7.7090622411
 30
0.0
 10
9.8496182601
 20
7.7132448912
 30
0.0
 10
9.8320228758
 20
7.7144651352
 30
0.0
  0
SPLINE
  5
392
100
AcDbEntity
  8
0
100
AcDbSpline
 62
7
  6
CONTINUOUS
 70
0
 71
3
 72
15
 73
11
 74
0
 42
0.0000001
 43
0.0000001
 44
0.0000000001
 40
0.0
 40
0.0
 40
0.0
 40
0.0
 40
0.1156537103
 40
0.2345121048
 40
0.3566334592
 40
0.4817744298
 40
0.6093887094
 40
0.7387521918
 40
0.869146757
 40
1.0
 40
1.0
 40
1.0
 40
1.0
 10
10.3871451479
 20
6.869546504
 30
0.0
 10
10.3854783657
 20
6.891288307
 30
0.0
 10
10.3824512949
 20
6.9354024269
 30
0.0
 10
10.379054983
 20
7.002560932
 30
0.0
 10
10.376930277
 20
7.0715622332
 30
0.0
 10
10.37621518
 20
7.1422437253
 30
0.0
 10
10.3769582793
 20
7.214290147
 30
0.0
 10
10.379104623
 20
7.2872986183
 30
0.0
 10
10.3825132188
 20
7.3608693099
 30
0.0
 10
10.3855014188
 20
7.4100364442
 30
0.0
 10
10.3871451479
 20
7.4346529785
 30
0.0
  0
SPLINE
  5
393
100
AcDbEntity
  8
0
100
AcDbSpline
 62
7
  6
CONTINUOUS
 70
0
 71
3
 72
18
 73
14
 74
0
 42
0.0000001
 43
0.0000001
 44
0.0000000001
 40
0.0
 40
0.0
 40
0.0
 40
0.0
 40
0.1257518379
 40
0.2522206279
 40
0.3790639262
 40
0.4424676427
 40
0.5057555221
 40
0.5688470283
 40
0.6316652308
 40
0.6941417768
 40
0.7562221058
 40
0.8790466163
 40
1.0
 40
1.0
 40
1.0
 40
1.0
 10
10.3601847436
 20
7.483219479
 30
0.0
 10
10.3385102469
 20
7.4945749551
 30
0.0
 10
10.2952320926
 20
7.5177250222
 30
0.0
 10
10.2309084562
 20
7.5538309843
 30
0.0
 10
10.1778822965
 20
7.5852471257
 30
0.0
 10
10.1359308791
 20
7.6112078607
 30
0.0
 10
10.1047872982
 20
7.6310537178
 30
0.0
 10
10.0740073415
 20
7.6512519943
 30
0.0
 10
10.0436310593
 20
7.6717716686
 30
0.0
 10
10.0136891753
 20
7.6925772223
 30
0.0
 10
9.9745125841
 20
7.7205479111
 30
0.0
 10
9.9267135571
 20
7.7560147226
 30
0.0
 10
9.8892419675
 20
7.7851053855
 30
0.0
 10
9.8707881808
 20
7.7997124832
 30
0.0
  0
SPLINE
  5
394
100
AcDbEntity
  8
0
100
AcDbSpline
 62
7
  6
CONTINUOUS
 70
0
 71
3
 72
15
 73
11
 74
0
 42
0.0000001
 43
0.0000001
 44
0.0000000001
 40
0.0
 40
0.0
 40
0.0
 40
0.0
 40
0.1339295061
 40
0.2667162338
 40
0.3976426282
 40
0.5258636586
 40
0.6505784979
 40
0.7712350381
 40
0.887653109
 40
1.0
 40
1.0
 40
1.0
 40
1.0
 10
9.8168673721
 20
7.803451904
 30
0.0
 10
9.7953270299
 20
7.7917583395
 30
0.0
 10
9.7523745529
 20
7.7685731318
 30
0.0
 10
9.688137639
 20
7.7343792709
 30
0.0
 10
9.6245918226
 20
7.7011136039
 30
0.0
 10
9.5620995746
 20
7.6690248303
 30
0.0
 10
9.501013398
 20
7.6383175951
 30
0.0
 10
9.4415967668
 20
7.609104164
 30
0.0
 10
9.3839711089
 20
7.5813835927
 30
0.0
 10
9.3461004885
 20
7.563536037
 30
0.0
 10
9.3274708093
 20
7.5548384336
 30
0.0
  0
SPLINE
  5
395
100
AcDbEntity
  8
0
100
AcDbSpline
 62
7
  6
CONTINUOUS
 70
0
 71
3
 72
15
 73
11
 74
0
 42
0.0000001
 43
0.0000001
 44
0.0000000001
 40
0.0
 40
0.0
 40
0.0
 40
0.0
 40
0.130853243
 40
0.2612478082
 40
0.3906112907
 40
0.5182255703
 40
0.6433665409
 40
0.7654878953
 40
0.8843462897
 40
1.0
 40
1.0
 40
1.0
 40
1.0
 10
11.8482374582
 20
6.8748533666
 30
0.0
 10
11.8498811873
 20
6.8994699009
 30
0.0
 10
11.8528693874
 20
6.9486370352
 30
0.0
 10
11.8562779832
 20
7.0222077269
 30
0.0
 10
11.8584243269
 20
7.0952161981
 30
0.0
 10
11.8591674261
 20
7.1672626198
 30
0.0
 10
11.8584523291
 20
7.2379441119
 30
0.0
 10
11.8563276231
 20
7.3069454131
 30
0.0
 10
11.8529313112
 20
7.3741039182
 30
0.0
 10
11.8499042405
 20
7.4182180381
 30
0.0
 10
11.8482374582
 20
7.4399598412
 30
0.0
  0
SPLINE
  5
396
100
AcDbEntity
  8
0
100
AcDbSpline
 62
7
  6
CONTINUOUS
 70
0
 71
3
 72
18
 73
14
 74
0
 42
0.0000001
 43
0.0000001
 44
0.0000000001
 40
0.0
 40
0.0
 40
0.0
 40
0.0
 40
0.1209533837
 40
0.2437778942
 40
0.3058582232
 40
0.3683347693
 40
0.4311529717
 40
0.4942444779
 40
0.5575323574
 40
0.6209360738
 40
0.7477793722
 40
0.8742481621
 40
1.0
 40
1.0
 40
1.0
 40
1.0
 10
11.8212770539
 20
7.4885263416
 30
0.0
 10
11.8028232672
 20
7.5031334393
 30
0.0
 10
11.7653516776
 20
7.5322241023
 30
0.0
 10
11.7175526506
 20
7.5676909137
 30
0.0
 10
11.6783760594
 20
7.5956616025
 30
0.0
 10
11.6484341753
 20
7.6164671562
 30
0.0
 10
11.6180578932
 20
7.6369868305
 30
0.0
 10
11.5872779364
 20
7.657185107
 30
0.0
 10
11.5561343555
 20
7.6770309641
 30
0.0
 10
11.5141829382
 20
7.7029916991
 30
0.0
 10
11.4611567784
 20
7.7344078406
 30
0.0
 10
11.396833142
 20
7.7705138026
 30
0.0
 10
11.3535549878
 20
7.7936638698
 30
0.0
 10
11.3318804911
 20
7.8050193458
 30
0.0
  0
SPLINE
  5
397
100
AcDbEntity
  8
0
100
AcDbSpline
 62
7
  6
CONTINUOUS
 70
0
 71
3
 72
15
 73
11
 74
0
 42
0.0000001
 43
0.0000001
 44
0.0000000001
 40
0.0
 40
0.0
 40
0.0
 40
0.0
 40
0.112346891
 40
0.2287649619
 40
0.3494215021
 40
0.4741363415
 40
0.6023573719
 40
0.7332837662
 40
0.866070494
 40
1.0
 40
1.0
 40
1.0
 40
1.0
 10
11.2779596824
 20
7.8087587666
 30
0.0
 10
11.2593300032
 20
7.8000611632
 30
0.0
 10
11.2214593828
 20
7.7822136075
 30
0.0
 10
11.1638337249
 20
7.7544930362
 30
0.0
 10
11.1044170937
 20
7.7252796051
 30
0.0
 10
11.0433309171
 20
7.6945723699
 30
0.0
 10
10.9808386691
 20
7.6624835963
 30
0.0
 10
10.9172928527
 20
7.6292179293
 30
0.0
 10
10.8530559388
 20
7.5950240684
 30
0.0
 10
10.8101034619
 20
7.5718388607
 30
0.0
 10
10.7885631196
 20
7.5601452962
 30
0.0
  0
SPLINE
  5
398
100
AcDbEntity
  8
0
100
AcDbSpline
 62
7
  6
CONTINUOUS
 70
0
 71
3
 72
15
 73
11
 74
0
 42
0.0000001
 43
0.0000001
 44
0.0000000001
 40
0.0
 40
0.0
 40
0.0
 40
0.0
 40
0.130853243
 40
0.2612478082
 40
0.3906112907
 40
0.5182255703
 40
0.6433665409
 40
0.7654878953
 40
0.8843462897
 40
1.0
 40
1.0
 40
1.0
 40
1.0
 10
10.6586022147
 20
7.415827367
 30
0.0
 10
10.6569584856
 20
7.3912108327
 30
0.0
 10
10.6539702856
 20
7.3420436984
 30
0.0
 10
10.6505616898
 20
7.2684730067
 30
0.0
 10
10.6484153461
 20
7.1954645355
 30
0.0
 10
10.6476722468
 20
7.1234181138
 30
0.0
 10
10.6483873438
 20
7.0527366217
 30
0.0
 10
10.6505120498
 20
6.9837353205
 30
0.0
 10
10.6539083617
 20
6.9165768154
 30
0.0
 10
10.6569354325
 20
6.8724626955
 30
0.0
 10
10.6586022147
 20
6.8507208924
 30
0.0
  0
SPLINE
  5
399
100
AcDbEntity
  8
0
100
AcDbSpline
 62
7
  6
CONTINUOUS
 70
0
 71
3
 72
18
 73
14
 74
0
 42
0.0000001
 43
0.0000001
 44
0.0000000001
 40
0.0
 40
0.0
 40
0.0
 40
0.0
 40
0.1209533837
 40
0.2437778942
 40
0.3058582232
 40
0.3683347693
 40
0.4311529717
 40
0.4942444779
 40
0.5575323574
 40
0.6209360738
 40
0.7477793722
 40
0.8742481621
 40
1.0
 40
1.0
 40
1.0
 40
1.0
 10
10.685562619
 20
6.802154392
 30
0.0
 10
10.7040164057
 20
6.7875472943
 30
0.0
 10
10.7414879954
 20
6.7584566313
 30
0.0
 10
10.7892870224
 20
6.7229898199
 30
0.0
 10
10.8284636136
 20
6.6950191311
 30
0.0
 10
10.8584054976
 20
6.6742135774
 30
0.0
 10
10.8887817798
 20
6.6536939031
 30
0.0
 10
10.9195617365
 20
6.6334956266
 30
0.0
 10
10.9507053174
 20
6.6136497695
 30
0.0
 10
10.9926567348
 20
6.5876890345
 30
0.0
 10
11.0456828945
 20
6.556272893
 30
0.0
 10
11.1100065309
 20
6.520166931
 30
0.0
 10
11.1532846851
 20
6.4970168638
 30
0.0
 10
11.1749591819
 20
6.4856613878
 30
0.0
  0
SPLINE
  5
39A
100
AcDbEntity
  8
0
100
AcDbSpline
 62
7
  6
CONTINUOUS
 70
0
 71
3
 72
15
 73
11
 74
0
 42
0.0000001
 43
0.0000001
 44
0.0000000001
 40
0.0
 40
0.0
 40
0.0
 40
0.0
 40
0.112346891
 40
0.2287649619
 40
0.3494215021
 40
0.4741363415
 40
0.6023573719
 40
0.7332837662
 40
0.866070494
 40
1.0
 40
1.0
 40
1.0
 40
1.0
 10
11.2288799905
 20
6.481921967
 30
0.0
 10
11.2475096697
 20
6.4906195704
 30
0.0
 10
11.2853802901
 20
6.5084671261
 30
0.0
 10
11.3430059481
 20
6.5361876974
 30
0.0
 10
11.4024225792
 20
6.5654011285
 30
0.0
 10
11.4635087558
 20
6.5961083637
 30
0.0
 10
11.5260010039
 20
6.6281971373
 30
0.0
 10
11.5895468202
 20
6.6614628043
 30
0.0
 10
11.6537837341
 20
6.6956566652
 30
0.0
 10
11.6967362111
 20
6.7188418729
 30
0.0
 10
11.7182765533
 20
6.7305354374
 30
0.0
  0
SPLINE
  5
39B
100
AcDbEntity
  8
0
100
AcDbSpline
 62
7
  6
CONTINUOUS
 70
0
 71
3
 72
49
 73
45
 74
0
 42
0.0000001
 43
0.0000001
 44
0.0000000001
 40
0.0
 40
0.0
 40
0.0
 40
0.0
 40
0.031187151
 40
0.0621645213
 40
0.0929401585
 40
0.1082629014
 40
0.1235424257
 40
0.1387821476
 40
0.1539858757
 40
0.1691576791
 40
0.1843020069
 40
0.1994235946
 40
0.2145274341
 40
0.2296186839
 40
0.2447026442
 40
0.2597846952
 40
0.2748702365
 40
0.2899646369
 40
0.3050731598
 40
0.3202009317
 40
0.3353528523
 40
0.3505335935
 40
0.3657474896
 40
0.3809985718
 40
0.3962904382
 40
0.4269990655
 40
0.4579035252
 40
0.4890160735
 40
0.5203408316
 40
0.5518737651
 40
0.5836029699
 40
0.6155093002
 40
0.6475671858
 40
0.6797456153
 40
0.7120093051
 40
0.7443199991
 40
0.776637812
 40
0.8089225842
 40
0.8411353274
 40
0.8732395264
 40
0.9052026864
 40
0.9369967424
 40
0.9686011451
 40
1.0
 40
1.0
 40
1.0
 40
1.0
 10
11.1901146855
 20
7.6202811483
 30
0.0
 10
11.1726379365
 20
7.621493165
 30
0.0
 10
11.1376587123
 20
7.6222125395
 30
0.0
 10
11.0855321855
 20
7.6181129975
 30
0.0
 10
11.042847158
 20
7.610394428
 30
0.0
 10
11.009474626
 20
7.6016862755
 30
0.0
 10
10.9849115496
 20
7.5939166994
 30
0.0
 10
10.9608433173
 20
7.5849188715
 30
0.0
 10
10.9373271217
 20
7.5747141546
 30
0.0
 10
10.9144196655
 20
7.5633276062
 30
0.0
 10
10.8921766087
 20
7.5507858222
 30
0.0
 10
10.8706509889
 20
7.5371200907
 30
0.0
 10
10.8498955606
 20
7.5223620748
 30
0.0
 10
10.8299593713
 20
7.5065487649
 30
0.0
 10
10.8108917203
 20
7.4897167976
 30
0.0
 10
10.7927372805
 20
7.4719082639
 30
0.0
 10
10.7755412325
 20
7.4531646919
 30
0.0
 10
10.759343644
 20
7.4335325971
 30
0.0
 10
10.7441849072
 20
7.4130582134
 30
0.0
 10
10.7301003508
 20
7.3917918607
 30
0.0
 10
10.717124938
 20
7.3697841508
 30
0.0
 10
10.7052891418
 20
7.3470886154
 30
0.0
 10
10.6946219859
 20
7.3237599302
 30
0.0
 10
10.685148817
 20
7.2998536517
 30
0.0
 10
10.6741265285
 20
7.267247051
 30
0.0
 10
10.6634477091
 20
7.2253042472
 30
0.0
 10
10.6557322355
 20
7.173706236
 30
0.0
 10
10.6531639765
 20
7.1212502678
 30
0.0
 10
10.6557668979
 20
7.0684450336
 30
0.0
 10
10.6635136445
 20
7.0157976616
 30
0.0
 10
10.676328039
 20
6.9638144413
 30
0.0
 10
10.6940853633
 20
6.9129945651
 30
0.0
 10
10.71661378
 20
6.8638258495
 30
0.0
 10
10.7436959658
 20
6.8167800688
 30
0.0
 10
10.7750712144
 20
6.7723085635
 30
0.0
 10
10.8104379215
 20
6.7308379826
 30
0.0
 10
10.8494564455
 20
6.6927662993
 30
0.0
 10
10.8917522959
 20
6.6584590117
 30
0.0
 10
10.9369196676
 20
6.6282458452
 30
0.0
 10
10.9845253914
 20
6.6024172391
 30
0.0
 10
11.0341122511
 20
6.5812224961
 30
0.0
 10
11.085206355
 20
6.5648655121
 30
0.0
 10
11.1373102671
 20
6.5535063117
 30
0.0
 10
11.1725193012
 20
6.5493236617
 30
0.0
 10
11.1901146855
 20
6.5481034176
 30
0.0
  0
SPLINE
  5
39C
100
AcDbEntity
  8
0
100
AcDbSpline
 62
7
  6
CONTINUOUS
 70
0
 71
3
 72
49
 73
45
 74
0
 42
0.0000001
 43
0.0000001
 44
0.0000000001
 40
0.0
 40
0.0
 40
0.0
 40
0.0
 40
0.031187151
 40
0.0621645213
 40
0.0929401585
 40
0.1082629014
 40
0.1235424257
 40
0.1387821476
 40
0.1539858757
 40
0.1691576791
 40
0.1843020069
 40
0.1994235946
 40
0.2145274341
 40
0.2296186839
 40
0.2447026442
 40
0.2597846952
 40
0.2748702365
 40
0.2899646369
 40
0.3050731598
 40
0.3202009317
 40
0.3353528523
 40
0.3505335935
 40
0.3657474896
 40
0.3809985718
 40
0.3962904382
 40
0.4269990655
 40
0.4579035252
 40
0.4890160735
 40
0.5203408316
 40
0.5518737651
 40
0.5836029699
 40
0.6155093002
 40
0.6475671858
 40
0.6797456153
 40
0.7120093051
 40
0.7443199991
 40
0.776637812
 40
0.8089225842
 40
0.8411353274
 40
0.8732395264
 40
0.9052026864
 40
0.9369967424
 40
0.9686011451
 40
1.0
 40
1.0
 40
1.0
 40
1.0
 10
11.1901146855
 20
6.5481034176
 30
0.0
 10
11.2075914346
 20
6.5468914009
 30
0.0
 10
11.2425706588
 20
6.5461720264
 30
0.0
 10
11.2946971856
 20
6.5502715684
 30
0.0
 10
11.3373822131
 20
6.5579901379
 30
0.0
 10
11.3707547451
 20
6.5666982904
 30
0.0
 10
11.3953178215
 20
6.5744678665
 30
0.0
 10
11.4193860538
 20
6.5834656944
 30
0.0
 10
11.4429022494
 20
6.5936704113
 30
0.0
 10
11.4658097056
 20
6.6050569597
 30
0.0
 10
11.4880527624
 20
6.6175987437
 30
0.0
 10
11.5095783822
 20
6.6312644752
 30
0.0
 10
11.5303338105
 20
6.6460224911
 30
0.0
 10
11.5502699998
 20
6.661835801
 30
0.0
 10
11.5693376508
 20
6.6786677683
 30
0.0
 10
11.5874920906
 20
6.6964763021
 30
0.0
 10
11.6046881386
 20
6.7152198741
 30
0.0
 10
11.6208857271
 20
6.7348519688
 30
0.0
 10
11.6360444638
 20
6.7553263525
 30
0.0
 10
11.6501290203
 20
6.7765927052
 30
0.0
 10
11.6631044331
 20
6.7986004151
 30
0.0
 10
11.6749402293
 20
6.8212959505
 30
0.0
 10
11.6856073851
 20
6.8446246357
 30
0.0
 10
11.6950805541
 20
6.8685309142
 30
0.0
 10
11.7061028426
 20
6.9011375149
 30
0.0
 10
11.716781662
 20
6.9430803187
 30
0.0
 10
11.7244971356
 20
6.9946783299
 30
0.0
 10
11.7270653945
 20
7.0471342981
 30
0.0
 10
11.7244624732
 20
7.0999395323
 30
0.0
 10
11.7167157266
 20
7.1525869043
 30
0.0
 10
11.7039013321
 20
7.2045701247
 30
0.0
 10
11.6861440078
 20
7.2553900009
 30
0.0
 10
11.6636155911
 20
7.3045587164
 30
0.0
 10
11.6365334052
 20
7.3516044971
 30
0.0
 10
11.6051581567
 20
7.3960760024
 30
0.0
 10
11.5697914496
 20
7.4375465833
 30
0.0
 10
11.5307729256
 20
7.4756182666
 30
0.0
 10
11.4884770752
 20
7.5099255543
 30
0.0
 10
11.4433097035
 20
7.5401387207
 30
0.0
 10
11.3957039797
 20
7.5659673268
 30
0.0
 10
11.34611712
 20
7.5871620698
 30
0.0
 10
11.295023016
 20
7.6035190538
 30
0.0
 10
11.2429191039
 20
7.6148782542
 30
0.0
 10
11.2077100699
 20
7.6190609043
 30
0.0
 10
11.1901146855
 20
7.6202811483
 30
0.0
  0
SPLINE
  5
39D
100
AcDbEntity
  8
0
100
AcDbSpline
 62
7
  6
CONTINUOUS
 70
0
 71
3
 72
15
 73
11
 74
0
 42
0.0000001
 43
0.0000001
 44
0.0000000001
 40
0.0
 40
0.0
 40
0.0
 40
0.0
 40
0.1156537103
 40
0.2345121048
 40
0.3566334592
 40
0.4817744298
 40
0.6093887094
 40
0.7387521918
 40
0.869146757
 40
1.0
 40
1.0
 40
1.0
 40
1.0
 10
11.7452369577
 20
6.7753625171
 30
0.0
 10
11.7435701754
 20
6.7971043201
 30
0.0
 10
11.7405431046
 20
6.84121844
 30
0.0
 10
11.7371467928
 20
6.9083769451
 30
0.0
 10
11.7350220868
 20
6.9773782463
 30
0.0
 10
11.7343069898
 20
7.0480597384
 30
0.0
 10
11.735050089
 20
7.1201061601
 30
0.0
 10
11.7371964327
 20
7.1931146314
 30
0.0
 10
11.7406050285
 20
7.266685323
 30
0.0
 10
11.7435932286
 20
7.3158524573
 30
0.0
 10
11.7452369577
 20
7.3404689916
 30
0.0
  0
SPLINE
  5
39E
100
AcDbEntity
  8
0
100
AcDbSpline
 62
7
  6
CONTINUOUS
 70
0
 71
3
 72
18
 73
14
 74
0
 42
0.0000001
 43
0.0000001
 44
0.0000000001
 40
0.0
 40
0.0
 40
0.0
 40
0.0
 40
0.1257518379
 40
0.2522206279
 40
0.3790639262
 40
0.4424676427
 40
0.5057555221
 40
0.5688470283
 40
0.6316652308
 40
0.6941417768
 40
0.7562221058
 40
0.8790466163
 40
1.0
 40
1.0
 40
1.0
 40
1.0
 10
11.7182765533
 20
7.3890354921
 30
0.0
 10
11.6966020566
 20
7.4003909682
 30
0.0
 10
11.6533239024
 20
7.4235410353
 30
0.0
 10
11.589000266
 20
7.4596469974
 30
0.0
 10
11.5359741062
 20
7.4910631388
 30
0.0
 10
11.4940226889
 20
7.5170238738
 30
0.0
 10
11.462879108
 20
7.536869731
 30
0.0
 10
11.4320991512
 20
7.5570680074
 30
0.0
 10
11.401722869
 20
7.5775876818
 30
0.0
 10
11.371780985
 20
7.5983932354
 30
0.0
 10
11.3326043938
 20
7.6263639242
 30
0.0
 10
11.2848053668
 20
7.6618307357
 30
0.0
 10
11.2473337772
 20
7.6909213986
 30
0.0
 10
11.2288799905
 20
7.7055284963
 30
0.0
  0
SPLINE
  5
39F
100
AcDbEntity
  8
0
100
AcDbSpline
 62
7
  6
CONTINUOUS
 70
0
 71
3
 72
15
 73
11
 74
0
 42
0.0000001
 43
0.0000001
 44
0.0000000001
 40
0.0
 40
0.0
 40
0.0
 40
0.0
 40
0.1339295061
 40
0.2667162338
 40
0.3976426282
 40
0.5258636586
 40
0.6505784979
 40
0.7712350381
 40
0.887653109
 40
1.0
 40
1.0
 40
1.0
 40
1.0
 10
11.1749591819
 20
7.7092679171
 30
0.0
 10
11.1534188396
 20
7.6975743526
 30
0.0
 10
11.1104663626
 20
7.6743891449
 30
0.0
 10
11.0462294488
 20
7.640195284
 30
0.0
 10
10.9826836324
 20
7.606929617
 30
0.0
 10
10.9201913843
 20
7.5748408434
 30
0.0
 10
10.8591052077
 20
7.5441336082
 30
0.0
 10
10.7996885766
 20
7.5149201771
 30
0.0
 10
10.7420629186
 20
7.4871996058
 30
0.0
 10
10.7041922982
 20
7.4693520501
 30
0.0
 10
10.685562619
 20
7.4606544467
 30
0.0
  0
SPLINE
  5
3A0
100
AcDbEntity
  8
0
100
AcDbSpline
 62
7
  6
CONTINUOUS
 70
0
 71
3
 72
15
 73
11
 74
0
 42
0.0000001
 43
0.0000001
 44
0.0000000001
 40
0.0
 40
0.0
 40
0.0
 40
0.0
 40
0.130853243
 40
0.2612478082
 40
0.3906112907
 40
0.5182255703
 40
0.6433665409
 40
0.7654878953
 40
0.8843462897
 40
1.0
 40
1.0
 40
1.0
 40
1.0
 10
10.4901456485
 20
8.4179261788
 30
0.0
 10
10.4917893776
 20
8.4425427131
 30
0.0
 10
10.4947775776
 20
8.4917098474
 30
0.0
 10
10.4981861734
 20
8.5652805391
 30
0.0
 10
10.5003325171
 20
8.6382890103
 30
0.0
 10
10.5010756164
 20
8.710335432
 30
0.0
 10
10.5003605194
 20
8.7810169241
 30
0.0
 10
10.4982358134
 20
8.8500182253
 30
0.0
 10
10.4948395015
 20
8.9171767304
 30
0.0
 10
10.4918124307
 20
8.9612908503
 30
0.0
 10
10.4901456485
 20
8.9830326533
 30
0.0
  0
SPLINE
  5
3A1
100
AcDbEntity
  8
0
100
AcDbSpline
 62
7
  6
CONTINUOUS
 70
0
 71
3
 72
18
 73
14
 74
0
 42
0.0000001
 43
0.0000001
 44
0.0000000001
 40
0.0
 40
0.0
 40
0.0
 40
0.0
 40
0.1209533837
 40
0.2437778942
 40
0.3058582232
 40
0.3683347693
 40
0.4311529717
 40
0.4942444779
 40
0.5575323574
 40
0.6209360738
 40
0.7477793722
 40
0.8742481621
 40
1.0
 40
1.0
 40
1.0
 40
1.0
 10
10.4631852442
 20
9.0315991538
 30
0.0
 10
10.4447314575
 20
9.0462062515
 30
0.0
 10
10.4072598678
 20
9.0752969145
 30
0.0
 10
10.3594608408
 20
9.1107637259
 30
0.0
 10
10.3202842496
 20
9.1387344147
 30
0.0
 10
10.2903423656
 20
9.1595399684
 30
0.0
 10
10.2599660834
 20
9.1800596427
 30
0.0
 10
10.2291861267
 20
9.2002579192
 30
0.0
 10
10.1980425458
 20
9.2201037763
 30
0.0
 10
10.1560911284
 20
9.2460645113
 30
0.0
 10
10.1030649687
 20
9.2774806527
 30
0.0
 10
10.0387413323
 20
9.3135866148
 30
0.0
 10
9.9954631781
 20
9.3367366819
 30
0.0
 10
9.9737886813
 20
9.348092158
 30
0.0
  0
SPLINE
  5
3A2
100
AcDbEntity
  8
0
100
AcDbSpline
 62
7
  6
CONTINUOUS
 70
0
 71
3
 72
15
 73
11
 74
0
 42
0.0000001
 43
0.0000001
 44
0.0000000001
 40
0.0
 40
0.0
 40
0.0
 40
0.0
 40
0.112346891
 40
0.2287649619
 40
0.3494215021
 40
0.4741363415
 40
0.6023573719
 40
0.7332837662
 40
0.866070494
 40
1.0
 40
1.0
 40
1.0
 40
1.0
 10
9.9198678727
 20
9.3518315788
 30
0.0
 10
9.9012381935
 20
9.3431339754
 30
0.0
 10
9.8633675731
 20
9.3252864196
 30
0.0
 10
9.8057419151
 20
9.2975658484
 30
0.0
 10
9.746325284
 20
9.2683524172
 30
0.0
 10
9.6852391074
 20
9.237645182
 30
0.0
 10
9.6227468593
 20
9.2055564084
 30
0.0
 10
9.5592010429
 20
9.1722907415
 30
0.0
 10
9.4949641291
 20
9.1380968806
 30
0.0
 10
9.4520116521
 20
9.1149116729
 30
0.0
 10
9.4304713099
 20
9.1032181084
 30
0.0
  0
SPLINE
  5
3A3
100
AcDbEntity
  8
0
100
AcDbSpline
 62
7
  6
CONTINUOUS
 70
0
 71
3
 72
15
 73
11
 74
0
 42
0.0000001
 43
0.0000001
 44
0.0000000001
 40
0.0
 40
0.0
 40
0.0
 40
0.0
 40
0.130853243
 40
0.2612478082
 40
0.3906112907
 40
0.5182255703
 40
0.6433665409
 40
0.7654878953
 40
0.8843462897
 40
1.0
 40
1.0
 40
1.0
 40
1.0
 10
9.300510405
 20
8.9589001792
 30
0.0
 10
9.2988666759
 20
8.9342836449
 30
0.0
 10
9.2958784758
 20
8.8851165106
 30
0.0
 10
9.29246988
 20
8.8115458189
 30
0.0
 10
9.2903235363
 20
8.7385373477
 30
0.0
 10
9.2895804371
 20
8.666490926
 30
0.0
 10
9.2902955341
 20
8.5958094339
 30
0.0
 10
9.2924202401
 20
8.5268081327
 30
0.0
 10
9.295816552
 20
8.4596496276
 30
0.0
 10
9.2988436227
 20
8.4155355077
 30
0.0
 10
9.300510405
 20
8.3937937046
 30
0.0
  0
SPLINE
  5
3A4
100
AcDbEntity
  8
0
100
AcDbSpline
 62
7
  6
CONTINUOUS
 70
0
 71
3
 72
18
 73
14
 74
0
 42
0.0000001
 43
0.0000001
 44
0.0000000001
 40
0.0
 40
0.0
 40
0.0
 40
0.0
 40
0.1209533837
 40
0.2437778942
 40
0.3058582232
 40
0.3683347693
 40
0.4311529717
 40
0.4942444779
 40
0.5575323574
 40
0.6209360738
 40
0.7477793722
 40
0.8742481621
 40
1.0
 40
1.0
 40
1.0
 40
1.0
 10
9.3274708093
 20
8.3452272042
 30
0.0
 10
9.345924596
 20
8.3306201065
 30
0.0
 10
9.3833961856
 20
8.3015294435
 30
0.0
 10
9.4311952126
 20
8.2660626321
 30
0.0
 10
9.4703718038
 20
8.2380919433
 30
0.0
 10
9.5003136879
 20
8.2172863896
 30
0.0
 10
9.53068997
 20
8.1967667152
 30
0.0
 10
9.5614699268
 20
8.1765684388
 30
0.0
 10
9.5926135077
 20
8.1567225817
 30
0.0
 10
9.634564925
 20
8.1307618467
 30
0.0
 10
9.6875910848
 20
8.0993457052
 30
0.0
 10
9.7519147212
 20
8.0632397431
 30
0.0
 10
9.7951928754
 20
8.040089676
 30
0.0
 10
9.8168673721
 20
8.0287342
 30
0.0
  0
SPLINE
  5
3A5
100
AcDbEntity
  8
0
100
AcDbSpline
 62
7
  6
CONTINUOUS
 70
0
 71
3
 72
15
 73
11
 74
0
 42
0.0000001
 43
0.0000001
 44
0.0000000001
 40
0.0
 40
0.0
 40
0.0
 40
0.0
 40
0.112346891
 40
0.2287649619
 40
0.3494215021
 40
0.4741363415
 40
0.6023573719
 40
0.7332837662
 40
0.866070494
 40
1.0
 40
1.0
 40
1.0
 40
1.0
 10
9.8707881808
 20
8.0249947792
 30
0.0
 10
9.88941786
 20
8.0336923826
 30
0.0
 10
9.9272884804
 20
8.0515399383
 30
0.0
 10
9.9849141383
 20
8.0792605096
 30
0.0
 10
10.0443307695
 20
8.1084739407
 30
0.0
 10
10.1054169461
 20
8.1391811759
 30
0.0
 10
10.1679091941
 20
8.1712699495
 30
0.0
 10
10.2314550105
 20
8.2045356164
 30
0.0
 10
10.2956919244
 20
8.2387294774
 30
0.0
 10
10.3386444013
 20
8.2619146851
 30
0.0
 10
10.3601847436
 20
8.2736082496
 30
0.0
  0
SPLINE
  5
3A6
100
AcDbEntity
  8
0
100
AcDbSpline
 62
7
  6
CONTINUOUS
 70
0
 71
3
 72
49
 73
45
 74
0
 42
0.0000001
 43
0.0000001
 44
0.0000000001
 40
0.0
 40
0.0
 40
0.0
 40
0.0
 40
0.031187151
 40
0.0621645213
 40
0.0929401585
 40
0.1082629014
 40
0.1235424257
 40
0.1387821476
 40
0.1539858757
 40
0.1691576791
 40
0.1843020069
 40
0.1994235946
 40
0.2145274341
 40
0.2296186839
 40
0.2447026442
 40
0.2597846952
 40
0.2748702365
 40
0.2899646369
 40
0.3050731598
 40
0.3202009317
 40
0.3353528523
 40
0.3505335935
 40
0.3657474896
 40
0.3809985718
 40
0.3962904382
 40
0.4269990655
 40
0.4579035252
 40
0.4890160735
 40
0.5203408316
 40
0.5518737651
 40
0.5836029699
 40
0.6155093002
 40
0.6475671858
 40
0.6797456153
 40
0.7120093051
 40
0.7443199991
 40
0.776637812
 40
0.8089225842
 40
0.8411353274
 40
0.8732395264
 40
0.9052026864
 40
0.9369967424
 40
0.9686011451
 40
1.0
 40
1.0
 40
1.0
 40
1.0
 10
9.8320228758
 20
9.1633539605
 30
0.0
 10
9.8145461268
 20
9.1645659772
 30
0.0
 10
9.7795669026
 20
9.1652853517
 30
0.0
 10
9.7274403757
 20
9.1611858097
 30
0.0
 10
9.6847553482
 20
9.1534672402
 30
0.0
 10
9.6513828163
 20
9.1447590877
 30
0.0
 10
9.6268197399
 20
9.1369895116
 30
0.0
 10
9.6027515076
 20
9.1279916837
 30
0.0
 10
9.579235312
 20
9.1177869668
 30
0.0
 10
9.5563278557
 20
9.1064004184
 30
0.0
 10
9.534084799
 20
9.0938586344
 30
0.0
 10
9.5125591792
 20
9.0801929029
 30
0.0
 10
9.4918037508
 20
9.065434887
 30
0.0
 10
9.4718675616
 20
9.0496215771
 30
0.0
 10
9.4527999105
 20
9.0327896098
 30
0.0
 10
9.4346454708
 20
9.014981076
 30
0.0
 10
9.4174494227
 20
8.9962375041
 30
0.0
 10
9.4012518342
 20
8.9766054093
 30
0.0
 10
9.3860930975
 20
8.9561310256
 30
0.0
 10
9.3720085411
 20
8.9348646729
 30
0.0
 10
9.3590331283
 20
8.912856963
 30
0.0
 10
9.347197332
 20
8.8901614276
 30
0.0
 10
9.3365301762
 20
8.8668327424
 30
0.0
 10
9.3270570072
 20
8.8429264639
 30
0.0
 10
9.3160347188
 20
8.8103198632
 30
0.0
 10
9.3053558994
 20
8.7683770594
 30
0.0
 10
9.2976404257
 20
8.7167790482
 30
0.0
 10
9.2950721668
 20
8.66432308
 30
0.0
 10
9.2976750882
 20
8.6115178458
 30
0.0
 10
9.3054218347
 20
8.5588704738
 30
0.0
 10
9.3182362293
 20
8.5068872534
 30
0.0
 10
9.3359935536
 20
8.4560673772
 30
0.0
 10
9.3585219703
 20
8.4068986617
 30
0.0
 10
9.3856041561
 20
8.359852881
 30
0.0
 10
9.4169794047
 20
8.3153813757
 30
0.0
 10
9.4523461118
 20
8.2739107948
 30
0.0
 10
9.4913646358
 20
8.2358391115
 30
0.0
 10
9.5336604862
 20
8.2015318238
 30
0.0
 10
9.5788278579
 20
8.1713186574
 30
0.0
 10
9.6264335816
 20
8.1454900513
 30
0.0
 10
9.6760204414
 20
8.1242953083
 30
0.0
 10
9.7271145453
 20
8.1079383243
 30
0.0
 10
9.7792184574
 20
8.0965791239
 30
0.0
 10
9.8144274915
 20
8.0923964738
 30
0.0
 10
9.8320228758
 20
8.0911762298
 30
0.0
  0
SPLINE
  5
3A7
100
AcDbEntity
  8
0
100
AcDbSpline
 62
7
  6
CONTINUOUS
 70
0
 71
3
 72
49
 73
45
 74
0
 42
0.0000001
 43
0.0000001
 44
0.0000000001
 40
0.0
 40
0.0
 40
0.0
 40
0.0
 40
0.031187151
 40
0.0621645213
 40
0.0929401585
 40
0.1082629014
 40
0.1235424257
 40
0.1387821476
 40
0.1539858757
 40
0.1691576791
 40
0.1843020069
 40
0.1994235946
 40
0.2145274341
 40
0.2296186839
 40
0.2447026442
 40
0.2597846952
 40
0.2748702365
 40
0.2899646369
 40
0.3050731598
 40
0.3202009317
 40
0.3353528523
 40
0.3505335935
 40
0.3657474896
 40
0.3809985718
 40
0.3962904382
 40
0.4269990655
 40
0.4579035252
 40
0.4890160735
 40
0.5203408316
 40
0.5518737651
 40
0.5836029699
 40
0.6155093002
 40
0.6475671858
 40
0.6797456153
 40
0.7120093051
 40
0.7443199991
 40
0.776637812
 40
0.8089225842
 40
0.8411353274
 40
0.8732395264
 40
0.9052026864
 40
0.9369967424
 40
0.9686011451
 40
1.0
 40
1.0
 40
1.0
 40
1.0
 10
9.8320228758
 20
8.0911762298
 30
0.0
 10
9.8494996248
 20
8.0899642131
 30
0.0
 10
9.884478849
 20
8.0892448386
 30
0.0
 10
9.9366053759
 20
8.0933443806
 30
0.0
 10
9.9792904034
 20
8.1010629501
 30
0.0
 10
10.0126629353
 20
8.1097711026
 30
0.0
 10
10.0372260117
 20
8.1175406787
 30
0.0
 10
10.061294244
 20
8.1265385066
 30
0.0
 10
10.0848104396
 20
8.1367432235
 30
0.0
 10
10.1077178959
 20
8.1481297719
 30
0.0
 10
10.1299609527
 20
8.1606715559
 30
0.0
 10
10.1514865724
 20
8.1743372874
 30
0.0
 10
10.1722420008
 20
8.1890953033
 30
0.0
 10
10.19217819
 20
8.2049086132
 30
0.0
 10
10.2112458411
 20
8.2217405805
 30
0.0
 10
10.2294002808
 20
8.2395491142
 30
0.0
 10
10.2465963289
 20
8.2582926862
 30
0.0
 10
10.2627939174
 20
8.277924781
 30
0.0
 10
10.2779526541
 20
8.2983991647
 30
0.0
 10
10.2920372105
 20
8.3196655174
 30
0.0
 10
10.3050126233
 20
8.3416732273
 30
0.0
 10
10.3168484196
 20
8.3643687627
 30
0.0
 10
10.3275155754
 20
8.3876974479
 30
0.0
 10
10.3369887444
 20
8.4116037264
 30
0.0
 10
10.3480110328
 20
8.4442103271
 30
0.0
 10
10.3586898522
 20
8.4861531309
 30
0.0
 10
10.3664053259
 20
8.5377511421
 30
0.0
 10
10.3689735848
 20
8.5902071103
 30
0.0
 10
10.3663706635
 20
8.6430123445
 30
0.0
 10
10.3586239169
 20
8.6956597165
 30
0.0
 10
10.3458095223
 20
8.7476429368
 30
0.0
 10
10.328052198
 20
8.798462813
 30
0.0
 10
10.3055237813
 20
8.8476315286
 30
0.0
 10
10.2784415955
 20
8.8946773093
 30
0.0
 10
10.2470663469
 20
8.9391488146
 30
0.0
 10
10.2116996398
 20
8.9806193955
 30
0.0
 10
10.1726811158
 20
9.0186910788
 30
0.0
 10
10.1303852655
 20
9.0529983664
 30
0.0
 10
10.0852178937
 20
9.0832115329
 30
0.0
 10
10.03761217
 20
9.109040139
 30
0.0
 10
9.9880253102
 20
9.130234882
 30
0.0
 10
9.9369312063
 20
9.146591866
 30
0.0
 10
9.8848272942
 20
9.1579510664
 30
0.0
 10
9.8496182601
 20
9.1621337164
 30
0.0
 10
9.8320228758
 20
9.1633539605
 30
0.0
  0
SPLINE
  5
3A8
100
AcDbEntity
  8
0
100
AcDbSpline
 62
7
  6
CONTINUOUS
 70
0
 71
3
 72
15
 73
11
 74
0
 42
0.0000001
 43
0.0000001
 44
0.0000000001
 40
0.0
 40
0.0
 40
0.0
 40
0.0
 40
0.1156537103
 40
0.2345121048
 40
0.3566334592
 40
0.4817744298
 40
0.6093887094
 40
0.7387521918
 40
0.869146757
 40
1.0
 40
1.0
 40
1.0
 40
1.0
 10
10.3871451479
 20
8.3184353292
 30
0.0
 10
10.3854783657
 20
8.3401771323
 30
0.0
 10
10.3824512949
 20
8.3842912522
 30
0.0
 10
10.379054983
 20
8.4514497573
 30
0.0
 10
10.376930277
 20
8.5204510585
 30
0.0
 10
10.37621518
 20
8.5911325506
 30
0.0
 10
10.3769582793
 20
8.6631789723
 30
0.0
 10
10.379104623
 20
8.7361874436
 30
0.0
 10
10.3825132188
 20
8.8097581352
 30
0.0
 10
10.3855014188
 20
8.8589252695
 30
0.0
 10
10.3871451479
 20
8.8835418038
 30
0.0
  0
SPLINE
  5
3A9
100
AcDbEntity
  8
0
100
AcDbSpline
 62
7
  6
CONTINUOUS
 70
0
 71
3
 72
18
 73
14
 74
0
 42
0.0000001
 43
0.0000001
 44
0.0000000001
 40
0.0
 40
0.0
 40
0.0
 40
0.0
 40
0.1257518379
 40
0.2522206279
 40
0.3790639262
 40
0.4424676427
 40
0.5057555221
 40
0.5688470283
 40
0.6316652308
 40
0.6941417768
 40
0.7562221058
 40
0.8790466163
 40
1.0
 40
1.0
 40
1.0
 40
1.0
 10
10.3601847436
 20
8.9321083043
 30
0.0
 10
10.3385102469
 20
8.9434637804
 30
0.0
 10
10.2952320926
 20
8.9666138475
 30
0.0
 10
10.2309084562
 20
9.0027198096
 30
0.0
 10
10.1778822965
 20
9.034135951
 30
0.0
 10
10.1359308791
 20
9.060096686
 30
0.0
 10
10.1047872982
 20
9.0799425431
 30
0.0
 10
10.0740073415
 20
9.1001408196
 30
0.0
 10
10.0436310593
 20
9.1206604939
 30
0.0
 10
10.0136891753
 20
9.1414660476
 30
0.0
 10
9.9745125841
 20
9.1694367364
 30
0.0
 10
9.9267135571
 20
9.2049035478
 30
0.0
 10
9.8892419675
 20
9.2339942108
 30
0.0
 10
9.8707881808
 20
9.2486013085
 30
0.0
  0
SPLINE
  5
3AA
100
AcDbEntity
  8
0
100
AcDbSpline
 62
7
  6
CONTINUOUS
 70
0
 71
3
 72
15
 73
11
 74
0
 42
0.0000001
 43
0.0000001
 44
0.0000000001
 40
0.0
 40
0.0
 40
0.0
 40
0.0
 40
0.1339295061
 40
0.2667162338
 40
0.3976426282
 40
0.5258636586
 40
0.6505784979
 40
0.7712350381
 40
0.887653109
 40
1.0
 40
1.0
 40
1.0
 40
1.0
 10
9.8168673721
 20
9.2523407293
 30
0.0
 10
9.7953270299
 20
9.2406471648
 30
0.0
 10
9.7523745529
 20
9.2174619571
 30
0.0
 10
9.688137639
 20
9.1832680961
 30
0.0
 10
9.6245918226
 20
9.1500024292
 30
0.0
 10
9.5620995746
 20
9.1179136556
 30
0.0
 10
9.501013398
 20
9.0872064204
 30
0.0
 10
9.4415967668
 20
9.0579929893
 30
0.0
 10
9.3839711089
 20
9.030272418
 30
0.0
 10
9.3461004885
 20
9.0124248623
 30
0.0
 10
9.3274708093
 20
9.0037272589
 30
0.0
  0
SPLINE
  5
3AB
100
AcDbEntity
  8
0
100
AcDbSpline
 62
7
  6
CONTINUOUS
 70
0
 71
3
 72
15
 73
11
 74
0
 42
0.0000001
 43
0.0000001
 44
0.0000000001
 40
0.0
 40
0.0
 40
0.0
 40
0.0
 40
0.130853243
 40
0.2612478082
 40
0.3906112907
 40
0.5182255703
 40
0.6433665409
 40
0.7654878953
 40
0.8843462897
 40
1.0
 40
1.0
 40
1.0
 40
1.0
 10
11.8482374582
 20
8.3237421919
 30
0.0
 10
11.8498811873
 20
8.3483587262
 30
0.0
 10
11.8528693874
 20
8.3975258605
 30
0.0
 10
11.8562779832
 20
8.4710965522
 30
0.0
 10
11.8584243269
 20
8.5441050234
 30
0.0
 10
11.8591674261
 20
8.6161514451
 30
0.0
 10
11.8584523291
 20
8.6868329372
 30
0.0
 10
11.8563276231
 20
8.7558342384
 30
0.0
 10
11.8529313112
 20
8.8229927435
 30
0.0
 10
11.8499042405
 20
8.8671068634
 30
0.0
 10
11.8482374582
 20
8.8888486664
 30
0.0
  0
SPLINE
  5
3AC
100
AcDbEntity
  8
0
100
AcDbSpline
 62
7
  6
CONTINUOUS
 70
0
 71
3
 72
18
 73
14
 74
0
 42
0.0000001
 43
0.0000001
 44
0.0000000001
 40
0.0
 40
0.0
 40
0.0
 40
0.0
 40
0.1209533837
 40
0.2437778942
 40
0.3058582232
 40
0.3683347693
 40
0.4311529717
 40
0.4942444779
 40
0.5575323574
 40
0.6209360738
 40
0.7477793722
 40
0.8742481621
 40
1.0
 40
1.0
 40
1.0
 40
1.0
 10
11.8212770539
 20
8.9374151669
 30
0.0
 10
11.8028232672
 20
8.9520222646
 30
0.0
 10
11.7653516776
 20
8.9811129276
 30
0.0
 10
11.7175526506
 20
9.016579739
 30
0.0
 10
11.6783760594
 20
9.0445504278
 30
0.0
 10
11.6484341753
 20
9.0653559815
 30
0.0
 10
11.6180578932
 20
9.0858756558
 30
0.0
 10
11.5872779364
 20
9.1060739323
 30
0.0
 10
11.5561343555
 20
9.1259197894
 30
0.0
 10
11.5141829382
 20
9.1518805244
 30
0.0
 10
11.4611567784
 20
9.1832966658
 30
0.0
 10
11.396833142
 20
9.2194026279
 30
0.0
 10
11.3535549878
 20
9.242552695
 30
0.0
 10
11.3318804911
 20
9.2539081711
 30
0.0
  0
SPLINE
  5
3AD
100
AcDbEntity
  8
0
100
AcDbSpline
 62
7
  6
CONTINUOUS
 70
0
 71
3
 72
15
 73
11
 74
0
 42
0.0000001
 43
0.0000001
 44
0.0000000001
 40
0.0
 40
0.0
 40
0.0
 40
0.0
 40
0.112346891
 40
0.2287649619
 40
0.3494215021
 40
0.4741363415
 40
0.6023573719
 40
0.7332837662
 40
0.866070494
 40
1.0
 40
1.0
 40
1.0
 40
1.0
 10
11.2779596824
 20
9.2576475919
 30
0.0
 10
11.2593300032
 20
9.2489499885
 30
0.0
 10
11.2214593828
 20
9.2311024327
 30
0.0
 10
11.1638337249
 20
9.2033818615
 30
0.0
 10
11.1044170937
 20
9.1741684303
 30
0.0
 10
11.0433309171
 20
9.1434611951
 30
0.0
 10
10.9808386691
 20
9.1113724215
 30
0.0
 10
10.9172928527
 20
9.0781067546
 30
0.0
 10
10.8530559388
 20
9.0439128937
 30
0.0
 10
10.8101034619
 20
9.020727686
 30
0.0
 10
10.7885631196
 20
9.0090341215
 30
0.0
  0
SPLINE
  5
3AE
100
AcDbEntity
  8
0
100
AcDbSpline
 62
7
  6
CONTINUOUS
 70
0
 71
3
 72
15
 73
11
 74
0
 42
0.0000001
 43
0.0000001
 44
0.0000000001
 40
0.0
 40
0.0
 40
0.0
 40
0.0
 40
0.130853243
 40
0.2612478082
 40
0.3906112907
 40
0.5182255703
 40
0.6433665409
 40
0.7654878953
 40
0.8843462897
 40
1.0
 40
1.0
 40
1.0
 40
1.0
 10
10.6586022147
 20
8.8647161923
 30
0.0
 10
10.6569584856
 20
8.840099658
 30
0.0
 10
10.6539702856
 20
8.7909325237
 30
0.0
 10
10.6505616898
 20
8.717361832
 30
0.0
 10
10.6484153461
 20
8.6443533608
 30
0.0
 10
10.6476722468
 20
8.5723069391
 30
0.0
 10
10.6483873438
 20
8.501625447
 30
0.0
 10
10.6505120498
 20
8.4326241458
 30
0.0
 10
10.6539083617
 20
8.3654656407
 30
0.0
 10
10.6569354325
 20
8.3213515208
 30
0.0
 10
10.6586022147
 20
8.2996097177
 30
0.0
  0
SPLINE
  5
3AF
100
AcDbEntity
  8
0
100
AcDbSpline
 62
7
  6
CONTINUOUS
 70
0
 71
3
 72
18
 73
14
 74
0
 42
0.0000001
 43
0.0000001
 44
0.0000000001
 40
0.0
 40
0.0
 40
0.0
 40
0.0
 40
0.1209533837
 40
0.2437778942
 40
0.3058582232
 40
0.3683347693
 40
0.4311529717
 40
0.4942444779
 40
0.5575323574
 40
0.6209360738
 40
0.7477793722
 40
0.8742481621
 40
1.0
 40
1.0
 40
1.0
 40
1.0
 10
10.685562619
 20
8.2510432173
 30
0.0
 10
10.7040164057
 20
8.2364361196
 30
0.0
 10
10.7414879954
 20
8.2073454566
 30
0.0
 10
10.7892870224
 20
8.1718786452
 30
0.0
 10
10.8284636136
 20
8.1439079564
 30
0.0
 10
10.8584054976
 20
8.1231024027
 30
0.0
 10
10.8887817798
 20
8.1025827284
 30
0.0
 10
10.9195617365
 20
8.0823844519
 30
0.0
 10
10.9507053174
 20
8.0625385948
 30
0.0
 10
10.9926567348
 20
8.0365778598
 30
0.0
 10
11.0456828945
 20
8.0051617183
 30
0.0
 10
11.1100065309
 20
7.9690557562
 30
0.0
 10
11.1532846851
 20
7.9459056891
 30
0.0
 10
11.1749591819
 20
7.9345502131
 30
0.0
  0
SPLINE
  5
3B0
100
AcDbEntity
  8
0
100
AcDbSpline
 62
7
  6
CONTINUOUS
 70
0
 71
3
 72
15
 73
11
 74
0
 42
0.0000001
 43
0.0000001
 44
0.0000000001
 40
0.0
 40
0.0
 40
0.0
 40
0.0
 40
0.112346891
 40
0.2287649619
 40
0.3494215021
 40
0.4741363415
 40
0.6023573719
 40
0.7332837662
 40
0.866070494
 40
1.0
 40
1.0
 40
1.0
 40
1.0
 10
11.2288799905
 20
7.9308107923
 30
0.0
 10
11.2475096697
 20
7.9395083957
 30
0.0
 10
11.2853802901
 20
7.9573559514
 30
0.0
 10
11.3430059481
 20
7.9850765227
 30
0.0
 10
11.4024225792
 20
8.0142899538
 30
0.0
 10
11.4635087558
 20
8.044997189
 30
0.0
 10
11.5260010039
 20
8.0770859626
 30
0.0
 10
11.5895468202
 20
8.1103516295
 30
0.0
 10
11.6537837341
 20
8.1445454905
 30
0.0
 10
11.6967362111
 20
8.1677306982
 30
0.0
 10
11.7182765533
 20
8.1794242627
 30
0.0
  0
SPLINE
  5
3B1
100
AcDbEntity
  8
0
100
AcDbSpline
 62
7
  6
CONTINUOUS
 70
0
 71
3
 72
49
 73
45
 74
0
 42
0.0000001
 43
0.0000001
 44
0.0000000001
 40
0.0
 40
0.0
 40
0.0
 40
0.0
 40
0.031187151
 40
0.0621645213
 40
0.0929401585
 40
0.1082629014
 40
0.1235424257
 40
0.1387821476
 40
0.1539858757
 40
0.1691576791
 40
0.1843020069
 40
0.1994235946
 40
0.2145274341
 40
0.2296186839
 40
0.2447026442
 40
0.2597846952
 40
0.2748702365
 40
0.2899646369
 40
0.3050731598
 40
0.3202009317
 40
0.3353528523
 40
0.3505335935
 40
0.3657474896
 40
0.3809985718
 40
0.3962904382
 40
0.4269990655
 40
0.4579035252
 40
0.4890160735
 40
0.5203408316
 40
0.5518737651
 40
0.5836029699
 40
0.6155093002
 40
0.6475671858
 40
0.6797456153
 40
0.7120093051
 40
0.7443199991
 40
0.776637812
 40
0.8089225842
 40
0.8411353274
 40
0.8732395264
 40
0.9052026864
 40
0.9369967424
 40
0.9686011451
 40
1.0
 40
1.0
 40
1.0
 40
1.0
 10
11.1901146855
 20
9.0691699736
 30
0.0
 10
11.1726379365
 20
9.0703819903
 30
0.0
 10
11.1376587123
 20
9.0711013648
 30
0.0
 10
11.0855321855
 20
9.0670018228
 30
0.0
 10
11.042847158
 20
9.0592832533
 30
0.0
 10
11.009474626
 20
9.0505751008
 30
0.0
 10
10.9849115496
 20
9.0428055247
 30
0.0
 10
10.9608433173
 20
9.0338076968
 30
0.0
 10
10.9373271217
 20
9.0236029799
 30
0.0
 10
10.9144196655
 20
9.0122164315
 30
0.0
 10
10.8921766087
 20
8.9996746475
 30
0.0
 10
10.8706509889
 20
8.986008916
 30
0.0
 10
10.8498955606
 20
8.9712509001
 30
0.0
 10
10.8299593713
 20
8.9554375902
 30
0.0
 10
10.8108917203
 20
8.9386056229
 30
0.0
 10
10.7927372805
 20
8.9207970891
 30
0.0
 10
10.7755412325
 20
8.9020535172
 30
0.0
 10
10.759343644
 20
8.8824214224
 30
0.0
 10
10.7441849072
 20
8.8619470387
 30
0.0
 10
10.7301003508
 20
8.840680686
 30
0.0
 10
10.717124938
 20
8.8186729761
 30
0.0
 10
10.7052891418
 20
8.7959774407
 30
0.0
 10
10.6946219859
 20
8.7726487555
 30
0.0
 10
10.685148817
 20
8.748742477
 30
0.0
 10
10.6741265285
 20
8.7161358763
 30
0.0
 10
10.6634477091
 20
8.6741930725
 30
0.0
 10
10.6557322355
 20
8.6225950613
 30
0.0
 10
10.6531639765
 20
8.5701390931
 30
0.0
 10
10.6557668979
 20
8.5173338589
 30
0.0
 10
10.6635136445
 20
8.4646864869
 30
0.0
 10
10.676328039
 20
8.4127032666
 30
0.0
 10
10.6940853633
 20
8.3618833904
 30
0.0
 10
10.71661378
 20
8.3127146748
 30
0.0
 10
10.7436959658
 20
8.2656688941
 30
0.0
 10
10.7750712144
 20
8.2211973888
 30
0.0
 10
10.8104379215
 20
8.1797268079
 30
0.0
 10
10.8494564455
 20
8.1416551246
 30
0.0
 10
10.8917522959
 20
8.1073478369
 30
0.0
 10
10.9369196676
 20
8.0771346705
 30
0.0
 10
10.9845253914
 20
8.0513060644
 30
0.0
 10
11.0341122511
 20
8.0301113214
 30
0.0
 10
11.085206355
 20
8.0137543374
 30
0.0
 10
11.1373102671
 20
8.002395137
 30
0.0
 10
11.1725193012
 20
7.9982124869
 30
0.0
 10
11.1901146855
 20
7.9969922429
 30
0.0
  0
SPLINE
  5
3B2
100
AcDbEntity
  8
0
100
AcDbSpline
 62
7
  6
CONTINUOUS
 70
0
 71
3
 72
49
 73
45
 74
0
 42
0.0000001
 43
0.0000001
 44
0.0000000001
 40
0.0
 40
0.0
 40
0.0
 40
0.0
 40
0.031187151
 40
0.0621645213
 40
0.0929401585
 40
0.1082629014
 40
0.1235424257
 40
0.1387821476
 40
0.1539858757
 40
0.1691576791
 40
0.1843020069
 40
0.1994235946
 40
0.2145274341
 40
0.2296186839
 40
0.2447026442
 40
0.2597846952
 40
0.2748702365
 40
0.2899646369
 40
0.3050731598
 40
0.3202009317
 40
0.3353528523
 40
0.3505335935
 40
0.3657474896
 40
0.3809985718
 40
0.3962904382
 40
0.4269990655
 40
0.4579035252
 40
0.4890160735
 40
0.5203408316
 40
0.5518737651
 40
0.5836029699
 40
0.6155093002
 40
0.6475671858
 40
0.6797456153
 40
0.7120093051
 40
0.7443199991
 40
0.776637812
 40
0.8089225842
 40
0.8411353274
 40
0.8732395264
 40
0.9052026864
 40
0.9369967424
 40
0.9686011451
 40
1.0
 40
1.0
 40
1.0
 40
1.0
 10
11.1901146855
 20
7.9969922429
 30
0.0
 10
11.2075914346
 20
7.9957802262
 30
0.0
 10
11.2425706588
 20
7.9950608517
 30
0.0
 10
11.2946971856
 20
7.9991603937
 30
0.0
 10
11.3373822131
 20
8.0068789632
 30
0.0
 10
11.3707547451
 20
8.0155871157
 30
0.0
 10
11.3953178215
 20
8.0233566918
 30
0.0
 10
11.4193860538
 20
8.0323545197
 30
0.0
 10
11.4429022494
 20
8.0425592366
 30
0.0
 10
11.4658097056
 20
8.053945785
 30
0.0
 10
11.4880527624
 20
8.066487569
 30
0.0
 10
11.5095783822
 20
8.0801533005
 30
0.0
 10
11.5303338105
 20
8.0949113164
 30
0.0
 10
11.5502699998
 20
8.1107246263
 30
0.0
 10
11.5693376508
 20
8.1275565936
 30
0.0
 10
11.5874920906
 20
8.1453651273
 30
0.0
 10
11.6046881386
 20
8.1641086993
 30
0.0
 10
11.6208857271
 20
8.1837407941
 30
0.0
 10
11.6360444638
 20
8.2042151778
 30
0.0
 10
11.6501290203
 20
8.2254815305
 30
0.0
 10
11.6631044331
 20
8.2474892404
 30
0.0
 10
11.6749402293
 20
8.2701847758
 30
0.0
 10
11.6856073851
 20
8.293513461
 30
0.0
 10
11.6950805541
 20
8.3174197395
 30
0.0
 10
11.7061028426
 20
8.3500263402
 30
0.0
 10
11.716781662
 20
8.391969144
 30
0.0
 10
11.7244971356
 20
8.4435671552
 30
0.0
 10
11.7270653945
 20
8.4960231234
 30
0.0
 10
11.7244624732
 20
8.5488283576
 30
0.0
 10
11.7167157266
 20
8.6014757296
 30
0.0
 10
11.7039013321
 20
8.6534589499
 30
0.0
 10
11.6861440078
 20
8.7042788261
 30
0.0
 10
11.6636155911
 20
8.7534475417
 30
0.0
 10
11.6365334052
 20
8.8004933224
 30
0.0
 10
11.6051581567
 20
8.8449648277
 30
0.0
 10
11.5697914496
 20
8.8864354086
 30
0.0
 10
11.5307729256
 20
8.9245070919
 30
0.0
 10
11.4884770752
 20
8.9588143795
 30
0.0
 10
11.4433097035
 20
8.989027546
 30
0.0
 10
11.3957039797
 20
9.0148561521
 30
0.0
 10
11.34611712
 20
9.0360508951
 30
0.0
 10
11.295023016
 20
9.0524078791
 30
0.0
 10
11.2429191039
 20
9.0637670795
 30
0.0
 10
11.2077100699
 20
9.0679497296
 30
0.0
 10
11.1901146855
 20
9.0691699736
 30
0.0
  0
SPLINE
  5
3B3
100
AcDbEntity
  8
0
100
AcDbSpline
 62
7
  6
CONTINUOUS
 70
0
 71
3
 72
15
 73
11
 74
0
 42
0.0000001
 43
0.0000001
 44
0.0000000001
 40
0.0
 40
0.0
 40
0.0
 40
0.0
 40
0.1156537103
 40
0.2345121048
 40
0.3566334592
 40
0.4817744298
 40
0.6093887094
 40
0.7387521918
 40
0.869146757
 40
1.0
 40
1.0
 40
1.0
 40
1.0
 10
11.7452369577
 20
8.2242513424
 30
0.0
 10
11.7435701754
 20
8.2459931454
 30
0.0
 10
11.7405431046
 20
8.2901072653
 30
0.0
 10
11.7371467928
 20
8.3572657704
 30
0.0
 10
11.7350220868
 20
8.4262670716
 30
0.0
 10
11.7343069898
 20
8.4969485637
 30
0.0
 10
11.735050089
 20
8.5689949854
 30
0.0
 10
11.7371964327
 20
8.6420034567
 30
0.0
 10
11.7406050285
 20
8.7155741483
 30
0.0
 10
11.7435932286
 20
8.7647412826
 30
0.0
 10
11.7452369577
 20
8.7893578169
 30
0.0
  0
SPLINE
  5
3B4
100
AcDbEntity
  8
0
100
AcDbSpline
 62
7
  6
CONTINUOUS
 70
0
 71
3
 72
18
 73
14
 74
0
 42
0.0000001
 43
0.0000001
 44
0.0000000001
 40
0.0
 40
0.0
 40
0.0
 40
0.0
 40
0.1257518379
 40
0.2522206279
 40
0.3790639262
 40
0.4424676427
 40
0.5057555221
 40
0.5688470283
 40
0.6316652308
 40
0.6941417768
 40
0.7562221058
 40
0.8790466163
 40
1.0
 40
1.0
 40
1.0
 40
1.0
 10
11.7182765533
 20
8.8379243174
 30
0.0
 10
11.6966020566
 20
8.8492797935
 30
0.0
 10
11.6533239024
 20
8.8724298606
 30
0.0
 10
11.589000266
 20
8.9085358227
 30
0.0
 10
11.5359741062
 20
8.9399519641
 30
0.0
 10
11.4940226889
 20
8.9659126991
 30
0.0
 10
11.462879108
 20
8.9857585562
 30
0.0
 10
11.4320991512
 20
9.0059568327
 30
0.0
 10
11.401722869
 20
9.026476507
 30
0.0
 10
11.371780985
 20
9.0472820607
 30
0.0
 10
11.3326043938
 20
9.0752527495
 30
0.0
 10
11.2848053668
 20
9.1107195609
 30
0.0
 10
11.2473337772
 20
9.1398102239
 30
0.0
 10
11.2288799905
 20
9.1544173216
 30
0.0
  0
SPLINE
  5
3B5
100
AcDbEntity
  8
0
100
AcDbSpline
 62
7
  6
CONTINUOUS
 70
0
 71
3
 72
15
 73
11
 74
0
 42
0.0000001
 43
0.0000001
 44
0.0000000001
 40
0.0
 40
0.0
 40
0.0
 40
0.0
 40
0.1339295061
 40
0.2667162338
 40
0.3976426282
 40
0.5258636586
 40
0.6505784979
 40
0.7712350381
 40
0.887653109
 40
1.0
 40
1.0
 40
1.0
 40
1.0
 10
11.1749591819
 20
9.1581567424
 30
0.0
 10
11.1534188396
 20
9.1464631779
 30
0.0
 10
11.1104663626
 20
9.1232779702
 30
0.0
 10
11.0462294488
 20
9.0890841092
 30
0.0
 10
10.9826836324
 20
9.0558184423
 30
0.0
 10
10.9201913843
 20
9.0237296687
 30
0.0
 10
10.8591052077
 20
8.9930224335
 30
0.0
 10
10.7996885766
 20
8.9638090024
 30
0.0
 10
10.7420629186
 20
8.9360884311
 30
0.0
 10
10.7041922982
 20
8.9182408754
 30
0.0
 10
10.685562619
 20
8.909543272
 30
0.0
  0
SPLINE
  5
3B6
100
AcDbEntity
  8
0
100
AcDbSpline
 62
7
  6
CONTINUOUS
 70
0
 71
3
 72
13
 73
9
 74
0
 42
0.0000001
 43
0.0000001
 44
0.0000000001
 40
0.0
 40
0.0
 40
0.0
 40
0.0
 40
0.2519031819
 40
0.5024835328
 40
0.627316677
 40
0.7518395577
 40
0.8760632036
 40
1.0
 40
1.0
 40
1.0
 40
1.0
 10
10.5234080064
 20
8.7550918882
 30
0.0
 10
10.5234080064
 20
8.7418545447
 30
0.0
 10
10.5224020492
 20
8.7154386843
 30
0.0
 10
10.5186069711
 20
8.6826580108
 30
0.0
 10
10.5140628783
 20
8.6567768701
 30
0.0
 10
10.5099121499
 20
8.6375838962
 30
0.0
 10
10.505020929
 20
8.6186153305
 30
0.0
 10
10.5012666961
 20
8.6061225123
 30
0.0
 10
10.4992686348
 20
8.5999237819
 30
0.0
  0
SPLINE
  5
3B7
100
AcDbEntity
  8
0
100
AcDbSpline
 62
7
  6
CONTINUOUS
 70
0
 71
3
 72
13
 73
9
 74
0
 42
0.0000001
 43
0.0000001
 44
0.0000000001
 40
0.0
 40
0.0
 40
0.0
 40
0.0
 40
0.2519031819
 40
0.5024835328
 40
0.627316677
 40
0.7518395577
 40
0.8760632036
 40
1.0
 40
1.0
 40
1.0
 40
1.0
 10
11.8814998161
 20
8.6609079013
 30
0.0
 10
11.8814998161
 20
8.6476705578
 30
0.0
 10
11.880493859
 20
8.6212546974
 30
0.0
 10
11.8766987808
 20
8.5884740239
 30
0.0
 10
11.8721546881
 20
8.5625928832
 30
0.0
 10
11.8680039596
 20
8.5433999093
 30
0.0
 10
11.8631127387
 20
8.5244313436
 30
0.0
 10
11.8593585058
 20
8.5119385254
 30
0.0
 10
11.8573604445
 20
8.505739795
 30
0.0
  0
SPLINE
  5
3B8
100
AcDbEntity
  8
0
100
AcDbSpline
 62
7
  6
CONTINUOUS
 70
0
 71
3
 72
13
 73
9
 74
0
 42
0.0000001
 43
0.0000001
 44
0.0000000001
 40
0.0
 40
0.0
 40
0.0
 40
0.0
 40
0.2519031819
 40
0.5024835328
 40
0.627316677
 40
0.7518395577
 40
0.8760632036
 40
1.0
 40
1.0
 40
1.0
 40
1.0
 10
10.5234080064
 20
7.306203063
 30
0.0
 10
10.5234080064
 20
7.2929657194
 30
0.0
 10
10.5224020492
 20
7.266549859
 30
0.0
 10
10.5186069711
 20
7.2337691856
 30
0.0
 10
10.5140628783
 20
7.2078880448
 30
0.0
 10
10.5099121499
 20
7.1886950709
 30
0.0
 10
10.505020929
 20
7.1697265052
 30
0.0
 10
10.5012666961
 20
7.157233687
 30
0.0
 10
10.4992686348
 20
7.1510349566
 30
0.0
  0
SPLINE
  5
3B9
100
AcDbEntity
  8
0
100
AcDbSpline
 62
7
  6
CONTINUOUS
 70
0
 71
3
 72
13
 73
9
 74
0
 42
0.0000001
 43
0.0000001
 44
0.0000000001
 40
0.0
 40
0.0
 40
0.0
 40
0.0
 40
0.2519031819
 40
0.5024835328
 40
0.627316677
 40
0.7518395577
 40
0.8760632036
 40
1.0
 40
1.0
 40
1.0
 40
1.0
 10
11.8814998161
 20
7.2120190761
 30
0.0
 10
11.8814998161
 20
7.1987817325
 30
0.0
 10
11.880493859
 20
7.1723658721
 30
0.0
 10
11.8766987808
 20
7.1395851987
 30
0.0
 10
11.8721546881
 20
7.113704058
 30
0.0
 10
11.8680039596
 20
7.094511084
 30
0.0
 10
11.8631127387
 20
7.0755425183
 30
0.0
 10
11.8593585058
 20
7.0630497001
 30
0.0
 10
11.8573604445
 20
7.0568509697
 30
0.0
  0
SPLINE
  5
3BA
100
AcDbEntity
  8
0
100
AcDbSpline
 62
7
  6
CONTINUOUS
 70
0
 71
3
 72
36
 73
32
 74
0
 42
0.0000001
 43
0.0000001
 44
0.0000000001
 40
0.0
 40
0.0
 40
0.0
 40
0.0
 40
0.0958325634
 40
0.1891023555
 40
0.2792432641
 40
0.3657124907
 40
0.4480017797
 40
0.4874318797
 40
0.5256445484
 40
0.5625883581
 40
0.5982156304
 40
0.6324821329
 40
0.6653482299
 40
0.6967786463
 40
0.7267435444
 40
0.7552190339
 40
0.7821878748
 40
0.8076411027
 40
0.8315786922
 40
0.8540122486
 40
0.8749666358
 40
0.8944835825
 40
0.9126254693
 40
0.9294800532
 40
0.9451666526
 40
0.9598414247
 40
0.9737025134
 40
0.9804060178
 40
0.9869995332
 40
0.9935185676
 40
1.0
 40
1.0
 40
1.0
 40
1.0
 10
9.7660584637
 20
10.3819927567
 30
0.0
 10
9.7607711299
 20
10.3823594345
 30
0.0
 10
9.7503454794
 20
10.3831992715
 30
0.0
 10
9.7349838719
 20
10.3848024137
 30
0.0
 10
9.7201805479
 20
10.3867235646
 30
0.0
 10
9.7060343621
 20
10.3889497294
 30
0.0
 10
9.6947162536
 20
10.3910754201
 30
0.0
 10
9.6860664879
 20
10.3929256654
 30
0.0
 10
9.6798933451
 20
10.3943599819
 30
0.0
 10
9.6739520628
 20
10.3958582697
 30
0.0
 10
9.6682525298
 20
10.3974179913
 30
0.0
 10
9.6628042419
 20
10.3990365689
 30
0.0
 10
9.6576162497
 20
10.4007112371
 30
0.0
 10
9.6526971661
 20
10.4024392203
 30
0.0
 10
9.6480551309
 20
10.4042176121
 30
0.0
 10
9.6436977964
 20
10.4060434323
 30
0.0
 10
9.6396323278
 20
10.40791369
 30
0.0
 10
9.6358653409
 20
10.409825251
 30
0.0
 10
9.6324029574
 20
10.4117750821
 30
0.0
 10
9.6292507042
 20
10.4137600276
 30
0.0
 10
9.626413599
 20
10.4157770857
 30
0.0
 10
9.6238961095
 20
10.417823302
 30
0.0
 10
9.6217022082
 20
10.4198959023
 30
0.0
 10
9.6198355905
 20
10.4219923699
 30
0.0
 10
9.6182996747
 20
10.4241104577
 30
0.0
 10
9.6170982772
 20
10.4262475845
 30
0.0
 10
9.6163710557
 20
10.4280631869
 30
0.0
 10
9.6159687401
 20
10.4295115327
 30
0.0
 10
9.6157553209
 20
10.4305876126
 30
0.0
 10
9.6156272022
 20
10.4316647099
 30
0.0
 10
9.6155987005
 20
10.4323840251
 30
0.0
 10
9.6155986974
 20
10.4327424816
 30
0.0
  0
SPLINE
  5
3BB
100
AcDbEntity
  8
0
100
AcDbSpline
 62
7
  6
CONTINUOUS
 70
0
 71
3
 72
36
 73
32
 74
0
 42
0.0000001
 43
0.0000001
 44
0.0000000001
 40
0.0
 40
0.0
 40
0.0
 40
0.0
 40
0.0958325634
 40
0.1891023555
 40
0.2792432641
 40
0.3657124907
 40
0.4480017797
 40
0.4874318797
 40
0.5256445484
 40
0.5625883581
 40
0.5982156304
 40
0.6324821329
 40
0.6653482299
 40
0.6967786463
 40
0.7267435444
 40
0.7552190339
 40
0.7821878748
 40
0.8076411027
 40
0.8315786922
 40
0.8540122486
 40
0.8749666358
 40
0.8944835825
 40
0.9126254693
 40
0.9294800532
 40
0.9451666526
 40
0.9598414247
 40
0.9737025134
 40
0.9804060178
 40
0.9869995332
 40
0.9935185676
 40
1.0
 40
1.0
 40
1.0
 40
1.0
 10
12.9053175852
 20
10.1642843971
 30
0.0
 10
12.9000302513
 20
10.164651075
 30
0.0
 10
12.8896046008
 20
10.165490912
 30
0.0
 10
12.8742429934
 20
10.1670940542
 30
0.0
 10
12.8594396693
 20
10.1690152051
 30
0.0
 10
12.8452934836
 20
10.1712413699
 30
0.0
 10
12.8339753751
 20
10.1733670606
 30
0.0
 10
12.8253256094
 20
10.1752173059
 30
0.0
 10
12.8191524665
 20
10.1766516224
 30
0.0
 10
12.8132111843
 20
10.1781499102
 30
0.0
 10
12.8075116513
 20
10.1797096318
 30
0.0
 10
12.8020633633
 20
10.1813282094
 30
0.0
 10
12.7968753712
 20
10.1830028776
 30
0.0
 10
12.7919562876
 20
10.1847308607
 30
0.0
 10
12.7873142523
 20
10.1865092526
 30
0.0
 10
12.7829569179
 20
10.1883350728
 30
0.0
 10
12.7788914493
 20
10.1902053305
 30
0.0
 10
12.7751244623
 20
10.1921168915
 30
0.0
 10
12.7716620789
 20
10.1940667226
 30
0.0
 10
12.7685098256
 20
10.1960516681
 30
0.0
 10
12.7656727204
 20
10.1980687262
 30
0.0
 10
12.763155231
 20
10.2001149425
 30
0.0
 10
12.7609613296
 20
10.2021875428
 30
0.0
 10
12.7590947119
 20
10.2042840103
 30
0.0
 10
12.7575587962
 20
10.2064020982
 30
0.0
 10
12.7563573987
 20
10.208539225
 30
0.0
 10
12.7556301771
 20
10.2103548274
 30
0.0
 10
12.7552278616
 20
10.2118031732
 30
0.0
 10
12.7550144423
 20
10.2128792531
 30
0.0
 10
12.7548863237
 20
10.2139563504
 30
0.0
 10
12.754857822
 20
10.2146756656
 30
0.0
 10
12.7548578189
 20
10.2150341221
 30
0.0
  0
SPLINE
  5
3BC
100
AcDbEntity
  8
0
100
AcDbSpline
 62
7
  6
CONTINUOUS
 70
0
 71
3
 72
53
 73
49
 74
0
 42
0.0000001
 43
0.0000001
 44
0.0000000001
 40
0.0
 40
0.0
 40
0.0
 40
0.0
 40
0.0417740371
 40
0.0840369047
 40
0.1266584536
 40
0.1695064221
 40
0.212448016
 40
0.2553499502
 40
0.2980791306
 40
0.3405031348
 40
0.382490749
 40
0.4239124945
 40
0.4646411616
 40
0.5045523515
 40
0.5435250275
 40
0.5814420819
 40
0.6181909261
 40
0.6536641145
 40
0.6877600167
 40
0.72038356
 40
0.7361158328
 40
0.7514478069
 40
0.7663698229
 40
0.7808728747
 40
0.7949485304
 40
0.808589127
 40
0.8217876764
 40
0.8345380756
 40
0.8468350633
 40
0.8586743964
 40
0.8700529164
 40
0.8809686715
 40
0.8914211252
 40
0.901411244
 40
0.9109418555
 40
0.9200177659
 40
0.9286462506
 40
0.9368373022
 40
0.9446042293
 40
0.951964127
 40
0.9589385596
 40
0.9655542544
 40
0.9718437693
 40
0.9778461758
 40
0.9836073577
 40
0.9891800489
 40
0.9946230796
 40
1.0
 40
1.0
 40
1.0
 40
1.0
 10
12.9137344488
 20
9.072970051
 30
0.0
 10
12.9137344488
 20
9.085935884
 30
0.0
 10
12.9139367284
 20
9.1120196808
 30
0.0
 10
12.9148309768
 20
9.1513231467
 30
0.0
 10
12.9163152024
 20
9.1909423823
 30
0.0
 10
12.9183845476
 20
9.2307462691
 30
0.0
 10
12.9210321692
 20
9.2706030931
 30
0.0
 10
12.9242493176
 20
9.3103810055
 30
0.0
 10
12.928025335
 20
9.3499484022
 30
0.0
 10
12.9323477044
 20
9.3891743856
 30
0.0
 10
12.9372020853
 20
9.4279291937
 30
0.0
 10
12.9425723624
 20
9.4660846342
 30
0.0
 10
12.9484406976
 20
9.5035145132
 30
0.0
 10
12.9547875871
 20
9.5400950578
 30
0.0
 10
12.9615919253
 20
9.5757053308
 30
0.0
 10
12.968831073
 20
9.6102276452
 30
0.0
 10
12.9764809337
 20
9.6435479386
 30
0.0
 10
12.9845160208
 20
9.6755562549
 30
0.0
 10
12.9929095831
 20
9.7061468083
 30
0.0
 10
13.0002657321
 20
9.730661221
 30
0.0
 10
13.0063209112
 20
9.7494789378
 30
0.0
 10
13.0108793685
 20
9.7630051822
 30
0.0
 10
13.0155060957
 20
9.7761042971
 30
0.0
 10
13.0201972438
 20
9.7887654898
 30
0.0
 10
13.0249489697
 20
9.8009783033
 30
0.0
 10
13.0297572816
 20
9.8127326811
 30
0.0
 10
13.0346182515
 20
9.8240189302
 30
0.0
 10
13.0395278111
 20
9.8348277745
 30
0.0
 10
13.044481936
 20
9.8451503241
 30
0.0
 10
13.0494765221
 20
9.8549781141
 30
0.0
 10
13.0545074548
 20
9.8643030992
 30
0.0
 10
13.0595706293
 20
9.8731176534
 30
0.0
 10
13.0646618669
 20
9.8814146149
 30
0.0
 10
13.0697770935
 20
9.8891872228
 30
0.0
 10
13.0749121211
 20
9.8964292264
 30
0.0
 10
13.0800629397
 20
9.9031347529
 30
0.0
 10
13.0852254423
 20
9.9092984613
 30
0.0
 10
13.0903957302
 20
9.9149153689
 30
0.0
 10
13.0955698957
 20
9.9199809816
 30
0.0
 10
13.1007442195
 20
9.9244911384
 30
0.0
 10
13.1059150875
 20
9.9284420092
 30
0.0
 10
13.11107898
 20
9.9318300353
 30
0.0
 10
13.1162324771
 20
9.9346517017
 30
0.0
 10
13.1213719975
 20
9.9369036887
 30
0.0
 10
13.1264936473
 20
9.9385825055
 30
0.0
 10
13.1315931441
 20
9.9396850453
 30
0.0
 10
13.1366643411
 20
9.9402084984
 30
0.0
 10
13.1400311863
 20
9.9401701122
 30
0.0
 10
13.1416960776
 20
9.9400546591
 30
0.0
  0
SPLINE
  5
3BD
100
AcDbEntity
  8
0
100
AcDbSpline
 62
7
  6
CONTINUOUS
 70
0
 71
3
 72
53
 73
49
 74
0
 42
0.0000001
 43
0.0000001
 44
0.0000000001
 40
0.0
 40
0.0
 40
0.0
 40
0.0
 40
0.0417740371
 40
0.0840369047
 40
0.1266584536
 40
0.1695064221
 40
0.212448016
 40
0.2553499502
 40
0.2980791306
 40
0.3405031348
 40
0.382490749
 40
0.4239124945
 40
0.4646411616
 40
0.5045523515
 40
0.5435250275
 40
0.5814420819
 40
0.6181909261
 40
0.6536641145
 40
0.6877600167
 40
0.72038356
 40
0.7361158328
 40
0.7514478069
 40
0.7663698229
 40
0.7808728747
 40
0.7949485304
 40
0.808589127
 40
0.8217876764
 40
0.8345380756
 40
0.8468350633
 40
0.8586743964
 40
0.8700529164
 40
0.8809686715
 40
0.8914211252
 40
0.901411244
 40
0.9109418555
 40
0.9200177659
 40
0.9286462506
 40
0.9368373022
 40
0.9446042293
 40
0.951964127
 40
0.9589385596
 40
0.9655542544
 40
0.9718437693
 40
0.9778461758
 40
0.9836073577
 40
0.9891800489
 40
0.9946230796
 40
1.0
 40
1.0
 40
1.0
 40
1.0
 10
12.9137344488
 20
7.6240812257
 30
0.0
 10
12.9137344488
 20
7.6370470587
 30
0.0
 10
12.9139367284
 20
7.6631308556
 30
0.0
 10
12.9148309768
 20
7.7024343214
 30
0.0
 10
12.9163152024
 20
7.742053557
 30
0.0
 10
12.9183845476
 20
7.7818574438
 30
0.0
 10
12.9210321692
 20
7.8217142678
 30
0.0
 10
12.9242493176
 20
7.8614921802
 30
0.0
 10
12.928025335
 20
7.9010595769
 30
0.0
 10
12.9323477044
 20
7.9402855603
 30
0.0
 10
12.9372020853
 20
7.9790403684
 30
0.0
 10
12.9425723624
 20
8.017195809
 30
0.0
 10
12.9484406976
 20
8.0546256879
 30
0.0
 10
12.9547875871
 20
8.0912062325
 30
0.0
 10
12.9615919253
 20
8.1268165056
 30
0.0
 10
12.968831073
 20
8.1613388199
 30
0.0
 10
12.9764809337
 20
8.1946591133
 30
0.0
 10
12.9845160208
 20
8.2266674296
 30
0.0
 10
12.9929095831
 20
8.2572579831
 30
0.0
 10
13.0002657321
 20
8.2817723957
 30
0.0
 10
13.0063209112
 20
8.3005901125
 30
0.0
 10
13.0108793685
 20
8.3141163569
 30
0.0
 10
13.0155060957
 20
8.3272154718
 30
0.0
 10
13.0201972438
 20
8.3398766645
 30
0.0
 10
13.0249489697
 20
8.352089478
 30
0.0
 10
13.0297572816
 20
8.3638438558
 30
0.0
 10
13.0346182515
 20
8.3751301049
 30
0.0
 10
13.0395278111
 20
8.3859389492
 30
0.0
 10
13.044481936
 20
8.3962614989
 30
0.0
 10
13.0494765221
 20
8.4060892889
 30
0.0
 10
13.0545074548
 20
8.415414274
 30
0.0
 10
13.0595706293
 20
8.4242288281
 30
0.0
 10
13.0646618669
 20
8.4325257896
 30
0.0
 10
13.0697770935
 20
8.4402983975
 30
0.0
 10
13.0749121211
 20
8.4475404012
 30
0.0
 10
13.0800629397
 20
8.4542459276
 30
0.0
 10
13.0852254423
 20
8.460409636
 30
0.0
 10
13.0903957302
 20
8.4660265436
 30
0.0
 10
13.0955698957
 20
8.4710921563
 30
0.0
 10
13.1007442195
 20
8.4756023131
 30
0.0
 10
13.1059150875
 20
8.4795531839
 30
0.0
 10
13.11107898
 20
8.48294121
 30
0.0
 10
13.1162324771
 20
8.4857628764
 30
0.0
 10
13.1213719975
 20
8.4880148634
 30
0.0
 10
13.1264936473
 20
8.4896936802
 30
0.0
 10
13.1315931441
 20
8.49079622
 30
0.0
 10
13.1366643411
 20
8.4913196732
 30
0.0
 10
13.1400311863
 20
8.491281287
 30
0.0
 10
13.1416960776
 20
8.4911658338
 30
0.0
  0
SPLINE
  5
3BE
100
AcDbEntity
  8
0
100
AcDbSpline
 62
7
  6
CONTINUOUS
 70
0
 71
3
 72
45
 73
41
 74
0
 42
0.0000001
 43
0.0000001
 44
0.0000000001
 40
0.0
 40
0.0
 40
0.0
 40
0.0
 40
0.0379402427
 40
0.0762770423
 40
0.1149219543
 40
0.1537877805
 40
0.1927854138
 40
0.2318258765
 40
0.2708198983
 40
0.3096783878
 40
0.3483126371
 40
0.3866345936
 40
0.424557119
 40
0.4619942498
 40
0.4988614619
 40
0.5350759377
 40
0.5705568387
 40
0.605225589
 40
0.6390061688
 40
0.6718254144
 40
0.7036133391
 40
0.7343034793
 40
0.7638332762
 40
0.7921445052
 40
0.8191837724
 40
0.8449031104
 40
0.8692606893
 40
0.8922217089
 40
0.9031703728
 40
0.9137606588
 40
0.9239908191
 40
0.9338597697
 40
0.9433672571
 40
0.9525139597
 40
0.961301497
 40
0.9697327375
 40
0.9778117309
 40
0.9855441126
 40
0.9929371294
 40
1.0
 40
1.0
 40
1.0
 40
1.0
 10
12.9268240212
 20
9.1176136085
 30
0.0
 10
12.9268240212
 20
9.1260111393
 30
0.0
 10
12.9269363134
 20
9.14289417
 30
0.0
 10
12.9274339696
 20
9.1683262915
 30
0.0
 10
12.9282606968
 20
9.1939548458
 30
0.0
 10
12.9294144456
 20
9.2197171508
 30
0.0
 10
12.9308924469
 20
9.2455505785
 30
0.0
 10
12.9326910851
 20
9.2713921036
 30
0.0
 10
12.9348059853
 20
9.2971787715
 30
0.0
 10
12.9372319878
 20
9.3228477312
 30
0.0
 10
12.9399631719
 20
9.3483364283
 30
0.0
 10
12.9429928666
 20
9.3735827491
 30
0.0
 10
12.94631367
 20
9.3985251741
 30
0.0
 10
12.9499174666
 20
9.4231029286
 30
0.0
 10
12.9537954465
 20
9.4472561314
 30
0.0
 10
12.9579381265
 20
9.4709259414
 30
0.0
 10
12.9623353734
 20
9.4940547031
 30
0.0
 10
12.9669764274
 20
9.5165860907
 30
0.0
 10
12.9718499254
 20
9.5384652492
 30
0.0
 10
12.9769439321
 20
9.5596389307
 30
0.0
 10
12.9822459685
 20
9.5800556271
 30
0.0
 10
12.9877430419
 20
9.5996657016
 30
0.0
 10
12.9934216791
 20
9.6184215147
 30
0.0
 10
12.9992679606
 20
9.6362775591
 30
0.0
 10
13.0052675586
 20
9.6531905556
 30
0.0
 10
13.0114057817
 20
9.6691196851
 30
0.0
 10
13.0176676045
 20
9.6840263465
 30
0.0
 10
13.0230581596
 20
9.6957457213
 30
0.0
 10
13.0274306323
 20
9.7045720396
 30
0.0
 10
13.0306793137
 20
9.7108088191
 30
0.0
 10
13.0339474049
 20
9.7167642783
 30
0.0
 10
13.0372329818
 20
9.7224348241
 30
0.0
 10
13.0405340597
 20
9.7278170353
 30
0.0
 10
13.0438486223
 20
9.7329076951
 30
0.0
 10
13.0471747447
 20
9.7377037215
 30
0.0
 10
13.0505103823
 20
9.7422022871
 30
0.0
 10
13.053853635
 20
9.7464006576
 30
0.0
 10
13.0572025308
 20
9.7502964004
 30
0.0
 10
13.0605550616
 20
9.7538870597
 30
0.0
 10
13.0628425615
 20
9.7561262308
 30
0.0
 10
13.0639869027
 20
9.7571912577
 30
0.0
  0
SPLINE
  5
3BF
100
AcDbEntity
  8
0
100
AcDbSpline
 62
7
  6
CONTINUOUS
 70
0
 71
3
 72
33
 73
29
 74
0
 42
0.0000001
 43
0.0000001
 44
0.0000000001
 40
0.0
 40
0.0
 40
0.0
 40
0.0
 40
0.0851786559
 40
0.1685800878
 40
0.2498824696
 40
0.3287730845
 40
0.4049532939
 40
0.478139318
 40
0.513526261
 40
0.5480663828
 40
0.5817294661
 40
0.6144868848
 40
0.6463113784
 40
0.6771774766
 40
0.7070614056
 40
0.7359413356
 40
0.7637976082
 40
0.7906127364
 40
0.816371966
 40
0.8410631774
 40
0.8646776064
 40
0.8872099667
 40
0.908659128
 40
0.9290287527
 40
0.9483279214
 40
0.9665724106
 40
0.9837855308
 40
1.0
 40
1.0
 40
1.0
 40
1.0
 10
12.9268240212
 20
9.1176136085
 30
0.0
 10
12.9268240212
 20
9.106735831
 30
0.0
 10
12.9270093785
 20
9.0852067131
 30
0.0
 10
12.9278595364
 20
9.053304959
 30
0.0
 10
12.9292754795
 20
9.0222269029
 30
0.0
 10
12.9312510743
 20
8.9921033201
 30
0.0
 10
12.9337778023
 20
8.9630611129
 30
0.0
 10
12.9363615516
 20
8.9396065001
 30
0.0
 10
12.9387070117
 20
8.9214808652
 30
0.0
 10
12.9405768878
 20
8.9083842416
 30
0.0
 10
12.9425752627
 20
8.895646398
 30
0.0
 10
12.9446999922
 20
8.8832807224
 30
0.0
 10
12.946948863
 20
8.8713002248
 30
0.0
 10
12.9493194574
 20
8.8597174987
 30
0.0
 10
12.9518092767
 20
8.8485447136
 30
0.0
 10
12.9544156904
 20
8.8377935992
 30
0.0
 10
12.9571359069
 20
8.8274754286
 30
0.0
 10
12.9599670987
 20
8.8176010139
 30
0.0
 10
12.9629062138
 20
8.8081806736
 30
0.0
 10
12.965950216
 20
8.7992242457
 30
0.0
 10
12.9690958592
 20
8.7907410432
 30
0.0
 10
12.9723398842
 20
8.7827398671
 30
0.0
 10
12.9756789268
 20
8.7752289834
 30
0.0
 10
12.9791095347
 20
8.7682160872
 30
0.0
 10
12.9826282819
 20
8.7617083844
 30
0.0
 10
12.9862316853
 20
8.7557123487
 30
0.0
 10
12.9899161326
 20
8.7502343739
 30
0.0
 10
12.9924996493
 20
8.7468320159
 30
0.0
 10
12.9938061755
 20
8.7452255639
 30
0.0
  0
SPLINE
  5
3C0
100
AcDbEntity
  8
0
100
AcDbSpline
 62
7
  6
CONTINUOUS
 70
0
 71
3
 72
45
 73
41
 74
0
 42
0.0000001
 43
0.0000001
 44
0.0000000001
 40
0.0
 40
0.0
 40
0.0
 40
0.0
 40
0.0379402427
 40
0.0762770423
 40
0.1149219543
 40
0.1537877805
 40
0.1927854138
 40
0.2318258765
 40
0.2708198983
 40
0.3096783878
 40
0.3483126371
 40
0.3866345936
 40
0.424557119
 40
0.4619942498
 40
0.4988614619
 40
0.5350759377
 40
0.5705568387
 40
0.605225589
 40
0.6390061688
 40
0.6718254144
 40
0.7036133391
 40
0.7343034793
 40
0.7638332762
 40
0.7921445052
 40
0.8191837724
 40
0.8449031104
 40
0.8692606893
 40
0.8922217089
 40
0.9031703728
 40
0.9137606588
 40
0.9239908191
 40
0.9338597697
 40
0.9433672571
 40
0.9525139597
 40
0.961301497
 40
0.9697327375
 40
0.9778117309
 40
0.9855441126
 40
0.9929371294
 40
1.0
 40
1.0
 40
1.0
 40
1.0
 10
12.9268240212
 20
7.6687247832
 30
0.0
 10
12.9268240212
 20
7.677122314
 30
0.0
 10
12.9269363134
 20
7.6940053447
 30
0.0
 10
12.9274339696
 20
7.7194374662
 30
0.0
 10
12.9282606968
 20
7.7450660205
 30
0.0
 10
12.9294144456
 20
7.7708283255
 30
0.0
 10
12.9308924469
 20
7.7966617532
 30
0.0
 10
12.9326910851
 20
7.8225032783
 30
0.0
 10
12.9348059853
 20
7.8482899462
 30
0.0
 10
12.9372319878
 20
7.8739589059
 30
0.0
 10
12.9399631719
 20
7.899447603
 30
0.0
 10
12.9429928666
 20
7.9246939238
 30
0.0
 10
12.94631367
 20
7.9496363488
 30
0.0
 10
12.9499174666
 20
7.9742141033
 30
0.0
 10
12.9537954465
 20
7.9983673061
 30
0.0
 10
12.9579381265
 20
8.0220371161
 30
0.0
 10
12.9623353734
 20
8.0451658778
 30
0.0
 10
12.9669764274
 20
8.0676972654
 30
0.0
 10
12.9718499254
 20
8.089576424
 30
0.0
 10
12.9769439321
 20
8.1107501054
 30
0.0
 10
12.9822459685
 20
8.1311668018
 30
0.0
 10
12.9877430419
 20
8.1507768763
 30
0.0
 10
12.9934216791
 20
8.1695326894
 30
0.0
 10
12.9992679606
 20
8.1873887339
 30
0.0
 10
13.0052675586
 20
8.2043017303
 30
0.0
 10
13.0114057817
 20
8.2202308598
 30
0.0
 10
13.0176676045
 20
8.2351375212
 30
0.0
 10
13.0230581596
 20
8.246856896
 30
0.0
 10
13.0274306323
 20
8.2556832143
 30
0.0
 10
13.0306793137
 20
8.2619199938
 30
0.0
 10
13.0339474049
 20
8.267875453
 30
0.0
 10
13.0372329818
 20
8.2735459988
 30
0.0
 10
13.0405340597
 20
8.2789282101
 30
0.0
 10
13.0438486223
 20
8.2840188699
 30
0.0
 10
13.0471747447
 20
8.2888148962
 30
0.0
 10
13.0505103823
 20
8.2933134618
 30
0.0
 10
13.053853635
 20
8.2975118323
 30
0.0
 10
13.0572025308
 20
8.3014075752
 30
0.0
 10
13.0605550616
 20
8.3049982344
 30
0.0
 10
13.0628425615
 20
8.3072374055
 30
0.0
 10
13.0639869027
 20
8.3083024325
 30
0.0
  0
SPLINE
  5
3C1
100
AcDbEntity
  8
0
100
AcDbSpline
 62
7
  6
CONTINUOUS
 70
0
 71
3
 72
33
 73
29
 74
0
 42
0.0000001
 43
0.0000001
 44
0.0000000001
 40
0.0
 40
0.0
 40
0.0
 40
0.0
 40
0.0851786559
 40
0.1685800878
 40
0.2498824696
 40
0.3287730845
 40
0.4049532939
 40
0.478139318
 40
0.513526261
 40
0.5480663828
 40
0.5817294661
 40
0.6144868848
 40
0.6463113784
 40
0.6771774766
 40
0.7070614056
 40
0.7359413356
 40
0.7637976082
 40
0.7906127364
 40
0.816371966
 40
0.8410631774
 40
0.8646776064
 40
0.8872099667
 40
0.908659128
 40
0.9290287527
 40
0.9483279214
 40
0.9665724106
 40
0.9837855308
 40
1.0
 40
1.0
 40
1.0
 40
1.0
 10
12.9268240212
 20
7.6687247832
 30
0.0
 10
12.9268240212
 20
7.6578470057
 30
0.0
 10
12.9270093785
 20
7.6363178878
 30
0.0
 10
12.9278595364
 20
7.6044161337
 30
0.0
 10
12.9292754795
 20
7.5733380776
 30
0.0
 10
12.9312510743
 20
7.5432144948
 30
0.0
 10
12.9337778023
 20
7.5141722876
 30
0.0
 10
12.9363615516
 20
7.4907176749
 30
0.0
 10
12.9387070117
 20
7.47259204
 30
0.0
 10
12.9405768878
 20
7.4594954163
 30
0.0
 10
12.9425752627
 20
7.4467575727
 30
0.0
 10
12.9446999922
 20
7.4343918972
 30
0.0
 10
12.946948863
 20
7.4224113995
 30
0.0
 10
12.9493194574
 20
7.4108286734
 30
0.0
 10
12.9518092767
 20
7.3996558883
 30
0.0
 10
12.9544156904
 20
7.388904774
 30
0.0
 10
12.9571359069
 20
7.3785866034
 30
0.0
 10
12.9599670987
 20
7.3687121886
 30
0.0
 10
12.9629062138
 20
7.3592918483
 30
0.0
 10
12.965950216
 20
7.3503354204
 30
0.0
 10
12.9690958592
 20
7.3418522179
 30
0.0
 10
12.9723398842
 20
7.3338510418
 30
0.0
 10
12.9756789268
 20
7.3263401582
 30
0.0
 10
12.9791095347
 20
7.3193272619
 30
0.0
 10
12.9826282819
 20
7.3128195591
 30
0.0
 10
12.9862316853
 20
7.3068235234
 30
0.0
 10
12.9899161326
 20
7.3013455487
 30
0.0
 10
12.9924996493
 20
7.2979431906
 30
0.0
 10
12.9938061755
 20
7.2963367386
 30
0.0
  0
SPLINE
  5
3C2
100
AcDbEntity
  8
0
100
AcDbSpline
 62
7
  6
CONTINUOUS
 70
0
 71
3
 72
23
 73
19
 74
0
 42
0.0000001
 43
0.0000001
 44
0.0000000001
 40
0.0
 40
0.0
 40
0.0
 40
0.0
 40
0.0614460382
 40
0.1231087196
 40
0.1849779291
 40
0.2470411737
 40
0.3092837474
 40
0.3716889165
 40
0.4342381239
 40
0.4969112087
 40
0.559686639
 40
0.6225417561
 40
0.685453028
 40
0.7483963087
 40
0.8113471035
 40
0.8742808354
 40
0.9371731138
 40
1.0
 40
1.0
 40
1.0
 40
1.0
 10
10.0497264173
 20
9.3073360347
 30
0.0
 10
10.0592543401
 20
9.3057962508
 30
0.0
 10
10.0782642271
 20
9.3021941018
 30
0.0
 10
10.106493246
 20
9.2952597084
 30
0.0
 10
10.1344067757
 20
9.2868047237
 30
0.0
 10
10.1619195609
 20
9.2768549092
 30
0.0
 10
10.1889489597
 20
9.2654402876
 30
0.0
 10
10.2154134176
 20
9.2525953514
 30
0.0
 10
10.241233189
 20
9.2383588777
 30
0.0
 10
10.2663304473
 20
9.2227738332
 30
0.0
 10
10.2906295518
 20
9.2058872391
 30
0.0
 10
10.3140572667
 20
9.1877500299
 30
0.0
 10
10.3365429772
 20
9.1684169066
 30
0.0
 10
10.3580189189
 20
9.1479461464
 30
0.0
 10
10.3784203144
 20
9.1263995269
 30
0.0
 10
10.3976858149
 20
9.1038417702
 30
0.0
 10
10.4157567604
 20
9.0803417325
 30
0.0
 10
10.4269800062
 20
9.0640814767
 30
0.0
 10
10.4323745695
 20
9.0558180203
 30
0.0
  0
SPLINE
  5
3C3
100
AcDbEntity
  8
0
100
AcDbSpline
 62
7
  6
CONTINUOUS
 70
0
 71
3
 72
15
 73
11
 74
0
 42
0.0000001
 43
0.0000001
 44
0.0000000001
 40
0.0
 40
0.0
 40
0.0
 40
0.0
 40
0.1261461477
 40
0.2519904361
 40
0.3775171813
 40
0.5027130884
 40
0.6275671243
 40
0.7520688843
 40
0.8762172262
 40
1.0
 40
1.0
 40
1.0
 40
1.0
 10
10.4938418696
 20
8.9302585565
 30
0.0
 10
10.4962791994
 20
8.9231621177
 30
0.0
 10
10.500861755
 20
8.9088859953
 30
0.0
 10
10.5068508718
 20
8.8872380633
 30
0.0
 10
10.5119372243
 20
8.8654180106
 30
0.0
 10
10.5161115314
 20
8.8434652651
 30
0.0
 10
10.5193662826
 20
8.8214190504
 30
0.0
 10
10.5216957824
 20
8.7993184595
 30
0.0
 10
10.5230956248
 20
8.7772037706
 30
0.0
 10
10.5234080064
 20
8.7624546457
 30
0.0
 10
10.5234080064
 20
8.7550918882
 30
0.0
  0
SPLINE
  5
3C4
100
AcDbEntity
  8
0
100
AcDbSpline
 62
7
  6
CONTINUOUS
 70
0
 71
3
 72
23
 73
19
 74
0
 42
0.0000001
 43
0.0000001
 44
0.0000000001
 40
0.0
 40
0.0
 40
0.0
 40
0.0
 40
0.0614460382
 40
0.1231087196
 40
0.1849779291
 40
0.2470411737
 40
0.3092837474
 40
0.3716889165
 40
0.4342381239
 40
0.4969112087
 40
0.559686639
 40
0.6225417561
 40
0.685453028
 40
0.7483963087
 40
0.8113471035
 40
0.8742808354
 40
0.9371731138
 40
1.0
 40
1.0
 40
1.0
 40
1.0
 10
11.407818227
 20
9.2131520478
 30
0.0
 10
11.4173461499
 20
9.2116122639
 30
0.0
 10
11.4363560369
 20
9.2080101149
 30
0.0
 10
11.4645850557
 20
9.2010757215
 30
0.0
 10
11.4924985854
 20
9.1926207368
 30
0.0
 10
11.5200113706
 20
9.1826709223
 30
0.0
 10
11.5470407694
 20
9.1712563007
 30
0.0
 10
11.5735052273
 20
9.1584113645
 30
0.0
 10
11.5993249987
 20
9.1441748908
 30
0.0
 10
11.624422257
 20
9.1285898463
 30
0.0
 10
11.6487213616
 20
9.1117032522
 30
0.0
 10
11.6721490764
 20
9.093566043
 30
0.0
 10
11.6946347869
 20
9.0742329197
 30
0.0
 10
11.7161107287
 20
9.0537621595
 30
0.0
 10
11.7365121242
 20
9.03221554
 30
0.0
 10
11.7557776246
 20
9.0096577833
 30
0.0
 10
11.7738485702
 20
8.9861577456
 30
0.0
 10
11.785071816
 20
8.9698974898
 30
0.0
 10
11.7904663793
 20
8.9616340334
 30
0.0
  0
SPLINE
  5
3C5
100
AcDbEntity
  8
0
100
AcDbSpline
 62
7
  6
CONTINUOUS
 70
0
 71
3
 72
15
 73
11
 74
0
 42
0.0000001
 43
0.0000001
 44
0.0000000001
 40
0.0
 40
0.0
 40
0.0
 40
0.0
 40
0.1261461477
 40
0.2519904361
 40
0.3775171813
 40
0.5027130884
 40
0.6275671243
 40
0.7520688843
 40
0.8762172262
 40
1.0
 40
1.0
 40
1.0
 40
1.0
 10
11.8519336793
 20
8.8360745696
 30
0.0
 10
11.8543710091
 20
8.8289781308
 30
0.0
 10
11.8589535648
 20
8.8147020084
 30
0.0
 10
11.8649426816
 20
8.7930540764
 30
0.0
 10
11.870029034
 20
8.7712340237
 30
0.0
 10
11.8742033412
 20
8.7492812782
 30
0.0
 10
11.8774580924
 20
8.7272350635
 30
0.0
 10
11.8797875921
 20
8.7051344726
 30
0.0
 10
11.8811874346
 20
8.6830197837
 30
0.0
 10
11.8814998161
 20
8.6682706588
 30
0.0
 10
11.8814998161
 20
8.6609079013
 30
0.0
  0
SPLINE
  5
3C6
100
AcDbEntity
  8
0
100
AcDbSpline
 62
7
  6
CONTINUOUS
 70
0
 71
3
 72
23
 73
19
 74
0
 42
0.0000001
 43
0.0000001
 44
0.0000000001
 40
0.0
 40
0.0
 40
0.0
 40
0.0
 40
0.0614460382
 40
0.1231087196
 40
0.1849779291
 40
0.2470411737
 40
0.3092837474
 40
0.3716889165
 40
0.4342381239
 40
0.4969112087
 40
0.559686639
 40
0.6225417561
 40
0.685453028
 40
0.7483963087
 40
0.8113471035
 40
0.8742808354
 40
0.9371731138
 40
1.0
 40
1.0
 40
1.0
 40
1.0
 10
10.0497264173
 20
7.8584472094
 30
0.0
 10
10.0592543401
 20
7.8569074256
 30
0.0
 10
10.0782642271
 20
7.8533052765
 30
0.0
 10
10.106493246
 20
7.8463708831
 30
0.0
 10
10.1344067757
 20
7.8379158984
 30
0.0
 10
10.1619195609
 20
7.8279660839
 30
0.0
 10
10.1889489597
 20
7.8165514623
 30
0.0
 10
10.2154134176
 20
7.8037065261
 30
0.0
 10
10.241233189
 20
7.7894700524
 30
0.0
 10
10.2663304473
 20
7.7738850079
 30
0.0
 10
10.2906295518
 20
7.7569984139
 30
0.0
 10
10.3140572667
 20
7.7388612046
 30
0.0
 10
10.3365429772
 20
7.7195280813
 30
0.0
 10
10.3580189189
 20
7.6990573211
 30
0.0
 10
10.3784203144
 20
7.6775107016
 30
0.0
 10
10.3976858149
 20
7.6549529449
 30
0.0
 10
10.4157567604
 20
7.6314529072
 30
0.0
 10
10.4269800062
 20
7.6151926514
 30
0.0
 10
10.4323745695
 20
7.606929195
 30
0.0
  0
SPLINE
  5
3C7
100
AcDbEntity
  8
0
100
AcDbSpline
 62
7
  6
CONTINUOUS
 70
0
 71
3
 72
15
 73
11
 74
0
 42
0.0000001
 43
0.0000001
 44
0.0000000001
 40
0.0
 40
0.0
 40
0.0
 40
0.0
 40
0.1261461477
 40
0.2519904361
 40
0.3775171813
 40
0.5027130884
 40
0.6275671243
 40
0.7520688843
 40
0.8762172262
 40
1.0
 40
1.0
 40
1.0
 40
1.0
 10
10.4938418696
 20
7.4813697312
 30
0.0
 10
10.4962791994
 20
7.4742732925
 30
0.0
 10
10.500861755
 20
7.45999717
 30
0.0
 10
10.5068508718
 20
7.438349238
 30
0.0
 10
10.5119372243
 20
7.4165291853
 30
0.0
 10
10.5161115314
 20
7.3945764398
 30
0.0
 10
10.5193662826
 20
7.3725302251
 30
0.0
 10
10.5216957824
 20
7.3504296342
 30
0.0
 10
10.5230956248
 20
7.3283149453
 30
0.0
 10
10.5234080064
 20
7.3135658204
 30
0.0
 10
10.5234080064
 20
7.306203063
 30
0.0
  0
SPLINE
  5
3C8
100
AcDbEntity
  8
0
100
AcDbSpline
 62
7
  6
CONTINUOUS
 70
0
 71
3
 72
23
 73
19
 74
0
 42
0.0000001
 43
0.0000001
 44
0.0000000001
 40
0.0
 40
0.0
 40
0.0
 40
0.0
 40
0.0614460382
 40
0.1231087196
 40
0.1849779291
 40
0.2470411737
 40
0.3092837474
 40
0.3716889165
 40
0.4342381239
 40
0.4969112087
 40
0.559686639
 40
0.6225417561
 40
0.685453028
 40
0.7483963087
 40
0.8113471035
 40
0.8742808354
 40
0.9371731138
 40
1.0
 40
1.0
 40
1.0
 40
1.0
 10
11.407818227
 20
7.7642632225
 30
0.0
 10
11.4173461499
 20
7.7627234387
 30
0.0
 10
11.4363560369
 20
7.7591212896
 30
0.0
 10
11.4645850557
 20
7.7521868962
 30
0.0
 10
11.4924985854
 20
7.7437319115
 30
0.0
 10
11.5200113706
 20
7.733782097
 30
0.0
 10
11.5470407694
 20
7.7223674754
 30
0.0
 10
11.5735052273
 20
7.7095225392
 30
0.0
 10
11.5993249987
 20
7.6952860655
 30
0.0
 10
11.624422257
 20
7.679701021
 30
0.0
 10
11.6487213616
 20
7.662814427
 30
0.0
 10
11.6721490764
 20
7.6446772177
 30
0.0
 10
11.6946347869
 20
7.6253440944
 30
0.0
 10
11.7161107287
 20
7.6048733342
 30
0.0
 10
11.7365121242
 20
7.5833267147
 30
0.0
 10
11.7557776246
 20
7.560768958
 30
0.0
 10
11.7738485702
 20
7.5372689203
 30
0.0
 10
11.785071816
 20
7.5210086645
 30
0.0
 10
11.7904663793
 20
7.5127452081
 30
0.0
  0
SPLINE
  5
3C9
100
AcDbEntity
  8
0
100
AcDbSpline
 62
7
  6
CONTINUOUS
 70
0
 71
3
 72
15
 73
11
 74
0
 42
0.0000001
 43
0.0000001
 44
0.0000000001
 40
0.0
 40
0.0
 40
0.0
 40
0.0
 40
0.1261461477
 40
0.2519904361
 40
0.3775171813
 40
0.5027130884
 40
0.6275671243
 40
0.7520688843
 40
0.8762172262
 40
1.0
 40
1.0
 40
1.0
 40
1.0
 10
11.8519336793
 20
7.3871857443
 30
0.0
 10
11.8543710091
 20
7.3800893056
 30
0.0
 10
11.8589535648
 20
7.3658131831
 30
0.0
 10
11.8649426816
 20
7.3441652511
 30
0.0
 10
11.870029034
 20
7.3223451985
 30
0.0
 10
11.8742033412
 20
7.3003924529
 30
0.0
 10
11.8774580924
 20
7.2783462382
 30
0.0
 10
11.8797875921
 20
7.2562456473
 30
0.0
 10
11.8811874346
 20
7.2341309584
 30
0.0
 10
11.8814998161
 20
7.2193818335
 30
0.0
 10
11.8814998161
 20
7.2120190761
 30
0.0
  0
SPLINE
  5
3CA
100
AcDbEntity
  8
0
100
AcDbSpline
 62
7
  6
CONTINUOUS
 70
0
 71
3
 72
44
 73
40
 74
0
 42
0.0000001
 43
0.0000001
 44
0.0000000001
 40
0.0
 40
0.0
 40
0.0
 40
0.0
 40
0.0055576246
 40
0.0111781252
 40
0.0169221424
 40
0.0228460823
 40
0.0290009394
 40
0.0354314054
 40
0.0421759115
 40
0.0492668554
 40
0.0567309544
 40
0.064590169
 40
0.0728619349
 40
0.0815600558
 40
0.0906951257
 40
0.1002748158
 40
0.110304631
 40
0.1207877759
 40
0.1317257866
 40
0.1431186256
 40
0.1672598102
 40
0.1931873598
 40
0.2208591117
 40
0.2502195474
 40
0.2812018198
 40
0.3137293806
 40
0.3477172232
 40
0.3830728887
 40
0.4196972996
 40
0.4574854911
 40
0.4963273377
 40
0.5361081807
 40
0.5767094102
 40
0.6180090134
 40
0.6598821151
 40
0.7448359269
 40
0.830537715
 40
0.9159396375
 40
1.0
 40
1.0
 40
1.0
 40
1.0
 10
10.0215986757
 20
10.432742954
 30
0.0
 10
10.02159868
 20
10.4322407708
 30
0.0
 10
10.0215424769
 20
10.4312298485
 30
0.0
 10
10.0212901687
 20
10.4297188533
 30
0.0
 10
10.0208702299
 20
10.4282112412
 30
0.0
 10
10.0202835702
 20
10.4267087269
 30
0.0
 10
10.0195310486
 20
10.4252125724
 30
0.0
 10
10.0186137609
 20
10.4237238865
 30
0.0
 10
10.017532716
 20
10.4222437042
 30
0.0
 10
10.0162889596
 20
10.4207730439
 30
0.0
 10
10.0148836515
 20
10.4193128451
 30
0.0
 10
10.0133179119
 20
10.4178641855
 30
0.0
 10
10.0115930595
 20
10.4164280494
 30
0.0
 10
10.0097104554
 20
10.415005517
 30
0.0
 10
10.0076715913
 20
10.4135976844
 30
0.0
 10
10.005478117
 20
10.4122055909
 30
0.0
 10
10.0031317535
 20
10.4108303906
 30
0.0
 10
10.0006344074
 20
10.4094731328
 30
0.0
 10
9.9979880739
 20
10.4081349037
 30
0.0
 10
9.9941900572
 20
10.406342741
 30
0.0
 10
9.9890782013
 20
10.4041662993
 30
0.0
 10
9.9825006923
 20
10.4016952257
 30
0.0
 10
9.9753874725
 20
10.3993248382
 30
0.0
 10
9.9677616248
 20
10.3970629464
 30
0.0
 10
9.9596477919
 20
10.3949170178
 30
0.0
 10
9.9510723612
 20
10.3928941557
 30
0.0
 10
9.9420632647
 20
10.3910010597
 30
0.0
 10
9.9326499008
 20
10.3892440028
 30
0.0
 10
9.9228630248
 20
10.3876288056
 30
0.0
 10
9.9127346439
 20
10.3861608083
 30
0.0
 10
9.9022979016
 20
10.384844866
 30
0.0
 10
9.8915869591
 20
10.3836853281
 30
0.0
 10
9.8806368943
 20
10.3826860365
 30
0.0
 10
9.8694835423
 20
10.3818502702
 30
0.0
 10
9.8543177229
 20
10.3809534695
 30
0.0
 10
9.8351230291
 20
10.3802624371
 30
0.0
 10
9.8119829932
 20
10.3801162691
 30
0.0
 10
9.7889295222
 20
10.3806513941
 30
0.0
 10
9.773635901
 20
10.3814672596
 30
0.0
 10
9.7660584637
 20
10.3819927567
 30
0.0
  0
SPLINE
  5
3CB
100
AcDbEntity
  8
0
100
AcDbSpline
 62
7
  6
CONTINUOUS
 70
0
 71
3
 72
44
 73
40
 74
0
 42
0.0000001
 43
0.0000001
 44
0.0000000001
 40
0.0
 40
0.0
 40
0.0
 40
0.0
 40
0.0055576246
 40
0.0111781252
 40
0.0169221424
 40
0.0228460823
 40
0.0290009394
 40
0.0354314054
 40
0.0421759115
 40
0.0492668554
 40
0.0567309544
 40
0.064590169
 40
0.0728619349
 40
0.0815600558
 40
0.0906951257
 40
0.1002748158
 40
0.110304631
 40
0.1207877759
 40
0.1317257866
 40
0.1431186256
 40
0.1672598102
 40
0.1931873598
 40
0.2208591117
 40
0.2502195474
 40
0.2812018198
 40
0.3137293806
 40
0.3477172232
 40
0.3830728887
 40
0.4196972996
 40
0.4574854911
 40
0.4963273377
 40
0.5361081807
 40
0.5767094102
 40
0.6180090134
 40
0.6598821151
 40
0.7448359269
 40
0.830537715
 40
0.9159396375
 40
1.0
 40
1.0
 40
1.0
 40
1.0
 10
13.1608577971
 20
10.2150345945
 30
0.0
 10
13.1608578015
 20
10.2145324113
 30
0.0
 10
13.1608015984
 20
10.213521489
 30
0.0
 10
13.1605492902
 20
10.2120104938
 30
0.0
 10
13.1601293513
 20
10.2105028817
 30
0.0
 10
13.1595426917
 20
10.2090003674
 30
0.0
 10
13.15879017
 20
10.2075042129
 30
0.0
 10
13.1578728823
 20
10.206015527
 30
0.0
 10
13.1567918374
 20
10.2045353447
 30
0.0
 10
13.155548081
 20
10.2030646844
 30
0.0
 10
13.154142773
 20
10.2016044856
 30
0.0
 10
13.1525770333
 20
10.200155826
 30
0.0
 10
13.150852181
 20
10.1987196899
 30
0.0
 10
13.1489695768
 20
10.1972971574
 30
0.0
 10
13.1469307127
 20
10.1958893249
 30
0.0
 10
13.1447372384
 20
10.1944972314
 30
0.0
 10
13.1423908749
 20
10.1931220311
 30
0.0
 10
13.1398935288
 20
10.1917647732
 30
0.0
 10
13.1372471953
 20
10.1904265442
 30
0.0
 10
13.1334491786
 20
10.1886343815
 30
0.0
 10
13.1283373227
 20
10.1864579398
 30
0.0
 10
13.1217598138
 20
10.1839868662
 30
0.0
 10
13.114646594
 20
10.1816164787
 30
0.0
 10
13.1070207463
 20
10.1793545869
 30
0.0
 10
13.0989069134
 20
10.1772086583
 30
0.0
 10
13.0903314827
 20
10.1751857962
 30
0.0
 10
13.0813223862
 20
10.1732927002
 30
0.0
 10
13.0719090222
 20
10.1715356433
 30
0.0
 10
13.0621221462
 20
10.1699204461
 30
0.0
 10
13.0519937653
 20
10.1684524488
 30
0.0
 10
13.041557023
 20
10.1671365065
 30
0.0
 10
13.0308460806
 20
10.1659769686
 30
0.0
 10
13.0198960158
 20
10.164977677
 30
0.0
 10
13.0087426638
 20
10.1641419107
 30
0.0
 10
12.9935768443
 20
10.16324511
 30
0.0
 10
12.9743821505
 20
10.1625540776
 30
0.0
 10
12.9512421146
 20
10.1624079096
 30
0.0
 10
12.9281886436
 20
10.1629430346
 30
0.0
 10
12.9128950224
 20
10.1637589001
 30
0.0
 10
12.9053175852
 20
10.1642843971
 30
0.0
  0
SPLINE
  5
3CC
100
AcDbEntity
  8
0
100
AcDbSpline
 62
7
  6
CONTINUOUS
 70
0
 71
3
 72
11
 73
7
 74
0
 42
0.0000001
 43
0.0000001
 44
0.0000000001
 40
0.0
 40
0.0
 40
0.0
 40
0.0
 40
0.2562196369
 40
0.5071493489
 40
0.7544842083
 40
1.0
 40
1.0
 40
1.0
 40
1.0
 10
13.0416535564
 20
9.7295647782
 30
0.0
 10
13.0425501403
 20
9.7298169761
 30
0.0
 10
13.0443454066
 20
9.7302464988
 30
0.0
 10
13.0470599911
 20
9.7306596961
 30
0.0
 10
13.0497614515
 20
9.7308335469
 30
0.0
 10
13.051555264
 20
9.7307895561
 30
0.0
 10
13.0524455947
 20
9.7307278081
 30
0.0
  0
SPLINE
  5
3CD
100
AcDbEntity
  8
0
100
AcDbSpline
 62
7
  6
CONTINUOUS
 70
0
 71
3
 72
11
 73
7
 74
0
 42
0.0000001
 43
0.0000001
 44
0.0000000001
 40
0.0
 40
0.0
 40
0.0
 40
0.0
 40
0.2561927047
 40
0.5071184306
 40
0.7544646689
 40
1.0
 40
1.0
 40
1.0
 40
1.0
 10
12.9755241564
 20
7.3267705641
 30
0.0
 10
12.9763755244
 20
7.3263985515
 30
0.0
 10
12.9780906111
 20
7.3257280777
 30
0.0
 10
12.9807162942
 20
7.3249472416
 30
0.0
 10
12.9833619272
 20
7.3244042317
 30
0.0
 10
12.9851405778
 20
7.3242008373
 30
0.0
 10
12.9860288912
 20
7.3241392293
 30
0.0
  0
SPLINE
  5
3CE
100
AcDbEntity
  8
0
100
AcDbSpline
 62
7
  6
CONTINUOUS
 70
0
 71
3
 72
48
 73
44
 74
0
 42
0.0000001
 43
0.0000001
 44
0.0000000001
 40
0.0
 40
0.0
 40
0.0
 40
0.0
 40
0.0063158899
 40
0.0126706797
 40
0.0191025165
 40
0.025648058
 40
0.0323419221
 40
0.0392162652
 40
0.0536140552
 40
0.0611947659
 40
0.0690564915
 40
0.0772175997
 40
0.0856939645
 40
0.0944993396
 40
0.103645447
 40
0.1131421893
 40
0.122997946
 40
0.1332195527
 40
0.1438126331
 40
0.1547816545
 40
0.1661299881
 40
0.1778601838
 40
0.1899738557
 40
0.215353302
 40
0.2422691224
 40
0.2707113841
 40
0.3006623731
 40
0.332097648
 40
0.3649869327
 40
0.3992948208
 40
0.434981328
 40
0.4720023222
 40
0.5103099054
 40
0.5498527799
 40
0.590576537
 40
0.632423903
 40
0.6753349407
 40
0.7192473098
 40
0.7640964278
 40
0.8098157282
 40
0.8563368617
 40
0.9035891153
 40
1.0
 40
1.0
 40
1.0
 40
1.0
 10
13.0455309959
 20
8.5533851767
 30
0.0
 10
13.0443563137
 20
8.5534666359
 30
0.0
 10
13.0420052666
 20
8.5537262134
 30
0.0
 10
13.0385050312
 20
8.5544027572
 30
0.0
 10
13.0350282016
 20
8.5553665612
 30
0.0
 10
13.0315768021
 20
8.5566167974
 30
0.0
 10
13.028152174
 20
8.5581527363
 30
0.0
 10
13.0235538463
 20
8.5606176775
 30
0.0
 10
13.0190803614
 20
8.5636350965
 30
0.0
 10
13.0147511944
 20
8.5671318593
 30
0.0
 10
13.0114811933
 20
8.5700800266
 30
0.0
 10
13.008246135
 20
8.5733068272
 30
0.0
 10
13.0050467848
 20
8.5768110711
 30
0.0
 10
13.0018844828
 20
8.5805912734
 30
0.0
 10
12.9987603858
 20
8.5846458906
 30
0.0
 10
12.9956756671
 20
8.5889732481
 30
0.0
 10
12.992631581
 20
8.5935716265
 30
0.0
 10
12.9896292673
 20
8.5984391282
 30
0.0
 10
12.9866699447
 20
8.6035737958
 30
0.0
 10
12.9837548076
 20
8.6089735496
 30
0.0
 10
12.9808849933
 20
8.6146361738
 30
0.0
 10
12.9780616873
 20
8.6205593962
 30
0.0
 10
12.9743023255
 20
8.6289317183
 30
0.0
 10
12.9697401458
 20
8.6400433025
 30
0.0
 10
12.9645507412
 20
8.6541759925
 30
0.0
 10
12.9595732557
 20
8.669284527
 30
0.0
 10
12.9548159023
 20
8.6853441832
 30
0.0
 10
12.9502865344
 20
8.7023288882
 30
0.0
 10
12.9459926662
 20
8.720210872
 30
0.0
 10
12.9419414373
 20
8.7389608592
 30
0.0
 10
12.9381395981
 20
8.7585480915
 30
0.0
 10
12.934593483
 20
8.7789403895
 30
0.0
 10
12.9313089934
 20
8.8001042105
 30
0.0
 10
12.9282916026
 20
8.8220047193
 30
0.0
 10
12.9255463414
 20
8.8446058527
 30
0.0
 10
12.9230777921
 20
8.8678703752
 30
0.0
 10
12.9208900618
 20
8.8917599417
 30
0.0
 10
12.9189867963
 20
8.9162351598
 30
0.0
 10
12.9173711659
 20
8.9412556775
 30
0.0
 10
12.9160458771
 20
8.9667802326
 30
0.0
 10
12.9150131274
 20
8.9927667087
 30
0.0
 10
12.9140219617
 20
9.0282104325
 30
0.0
 10
12.9137344488
 20
9.0549956829
 30
0.0
 10
12.9137344488
 20
9.072970051
 30
0.0
  0
SPLINE
  5
3CF
100
AcDbEntity
  8
0
100
AcDbSpline
 62
7
  6
CONTINUOUS
 70
0
 71
3
 72
48
 73
44
 74
0
 42
0.0000001
 43
0.0000001
 44
0.0000000001
 40
0.0
 40
0.0
 40
0.0
 40
0.0
 40
0.0063158899
 40
0.0126706797
 40
0.0191025165
 40
0.025648058
 40
0.0323419221
 40
0.0392162652
 40
0.0536140552
 40
0.0611947659
 40
0.0690564915
 40
0.0772175997
 40
0.0856939645
 40
0.0944993396
 40
0.103645447
 40
0.1131421893
 40
0.122997946
 40
0.1332195527
 40
0.1438126331
 40
0.1547816545
 40
0.1661299881
 40
0.1778601838
 40
0.1899738557
 40
0.215353302
 40
0.2422691224
 40
0.2707113841
 40
0.3006623731
 40
0.332097648
 40
0.3649869327
 40
0.3992948208
 40
0.434981328
 40
0.4720023222
 40
0.5103099054
 40
0.5498527799
 40
0.590576537
 40
0.632423903
 40
0.6753349407
 40
0.7192473098
 40
0.7640964278
 40
0.8098157282
 40
0.8563368617
 40
0.9035891153
 40
1.0
 40
1.0
 40
1.0
 40
1.0
 10
13.0455309959
 20
7.1044963514
 30
0.0
 10
13.0443563137
 20
7.1045778106
 30
0.0
 10
13.0420052666
 20
7.1048373881
 30
0.0
 10
13.0385050312
 20
7.1055139319
 30
0.0
 10
13.0350282016
 20
7.1064777359
 30
0.0
 10
13.0315768021
 20
7.1077279721
 30
0.0
 10
13.028152174
 20
7.109263911
 30
0.0
 10
13.0235538463
 20
7.1117288522
 30
0.0
 10
13.0190803614
 20
7.1147462712
 30
0.0
 10
13.0147511944
 20
7.118243034
 30
0.0
 10
13.0114811933
 20
7.1211912013
 30
0.0
 10
13.008246135
 20
7.1244180019
 30
0.0
 10
13.0050467848
 20
7.1279222458
 30
0.0
 10
13.0018844828
 20
7.1317024481
 30
0.0
 10
12.9987603858
 20
7.1357570653
 30
0.0
 10
12.9956756671
 20
7.1400844228
 30
0.0
 10
12.992631581
 20
7.1446828012
 30
0.0
 10
12.9896292673
 20
7.1495503029
 30
0.0
 10
12.9866699447
 20
7.1546849705
 30
0.0
 10
12.9837548076
 20
7.1600847243
 30
0.0
 10
12.9808849933
 20
7.1657473485
 30
0.0
 10
12.9780616873
 20
7.1716705709
 30
0.0
 10
12.9743023255
 20
7.180042893
 30
0.0
 10
12.9697401458
 20
7.1911544772
 30
0.0
 10
12.9645507412
 20
7.2052871672
 30
0.0
 10
12.9595732557
 20
7.2203957017
 30
0.0
 10
12.9548159023
 20
7.2364553579
 30
0.0
 10
12.9502865344
 20
7.2534400629
 30
0.0
 10
12.9459926662
 20
7.2713220467
 30
0.0
 10
12.9419414373
 20
7.2900720339
 30
0.0
 10
12.9381395981
 20
7.3096592662
 30
0.0
 10
12.934593483
 20
7.3300515642
 30
0.0
 10
12.9313089934
 20
7.3512153852
 30
0.0
 10
12.9282916026
 20
7.373115894
 30
0.0
 10
12.9255463414
 20
7.3957170274
 30
0.0
 10
12.9230777921
 20
7.4189815499
 30
0.0
 10
12.9208900618
 20
7.4428711164
 30
0.0
 10
12.9189867963
 20
7.4673463345
 30
0.0
 10
12.9173711659
 20
7.4923668523
 30
0.0
 10
12.9160458771
 20
7.5178914073
 30
0.0
 10
12.9150131274
 20
7.5438778834
 30
0.0
 10
12.9140219617
 20
7.5793216072
 30
0.0
 10
12.9137344488
 20
7.6061068576
 30
0.0
 10
12.9137344488
 20
7.6240812257
 30
0.0
  0
SPLINE
  5
3D0
100
AcDbEntity
  8
0
100
AcDbSpline
 62
7
  6
CONTINUOUS
 70
0
 71
3
 72
11
 73
7
 74
0
 42
0.0000001
 43
0.0000001
 44
0.0000000001
 40
0.0
 40
0.0
 40
0.0
 40
0.0
 40
0.2561927047
 40
0.5071184306
 40
0.7544646689
 40
1.0
 40
1.0
 40
1.0
 40
1.0
 10
12.9755241564
 20
8.7756593894
 30
0.0
 10
12.9763755244
 20
8.7752873768
 30
0.0
 10
12.9780906111
 20
8.774616903
 30
0.0
 10
12.9807162942
 20
8.7738360669
 30
0.0
 10
12.9833619272
 20
8.773293057
 30
0.0
 10
12.9851405778
 20
8.7730896626
 30
0.0
 10
12.9860288912
 20
8.7730280546
 30
0.0
  0
SPLINE
  5
3D1
100
AcDbEntity
  8
0
100
AcDbSpline
 62
7
  6
CONTINUOUS
 70
0
 71
3
 72
11
 73
7
 74
0
 42
0.0000001
 43
0.0000001
 44
0.0000000001
 40
0.0
 40
0.0
 40
0.0
 40
0.0
 40
0.2562196369
 40
0.5071493489
 40
0.7544842083
 40
1.0
 40
1.0
 40
1.0
 40
1.0
 10
13.0416535564
 20
8.2806759529
 30
0.0
 10
13.0425501403
 20
8.2809281508
 30
0.0
 10
13.0443454066
 20
8.2813576736
 30
0.0
 10
13.0470599911
 20
8.2817708708
 30
0.0
 10
13.0497614515
 20
8.2819447216
 30
0.0
 10
13.051555264
 20
8.2819007308
 30
0.0
 10
13.0524455947
 20
8.2818389829
 30
0.0
  0
SPLINE
  5
3D2
100
AcDbEntity
  8
0
100
AcDbSpline
 62
7
  6
CONTINUOUS
 70
0
 71
3
 72
36
 73
32
 74
0
 42
0.0000001
 43
0.0000001
 44
0.0000000001
 40
0.0
 40
0.0
 40
0.0
 40
0.0
 40
0.0958325634
 40
0.1891023555
 40
0.2792432641
 40
0.3657124907
 40
0.4480017797
 40
0.4874318797
 40
0.5256445484
 40
0.5625883581
 40
0.5982156304
 40
0.6324821329
 40
0.6653482299
 40
0.6967786463
 40
0.7267435444
 40
0.7552190339
 40
0.7821878748
 40
0.8076411027
 40
0.8315786922
 40
0.8540122486
 40
0.8749666358
 40
0.8944835825
 40
0.9126254693
 40
0.9294800532
 40
0.9451666526
 40
0.9598414247
 40
0.9737025134
 40
0.9804060178
 40
0.9869995332
 40
0.9935185676
 40
1.0
 40
1.0
 40
1.0
 40
1.0
 10
9.8711389093
 20
10.4834926789
 30
0.0
 10
9.8764262432
 20
10.4831260011
 30
0.0
 10
9.8868518937
 20
10.4822861641
 30
0.0
 10
9.9022135011
 20
10.4806830219
 30
0.0
 10
9.9170168252
 20
10.4787618709
 30
0.0
 10
9.9311630109
 20
10.4765357062
 30
0.0
 10
9.9424811194
 20
10.4744100155
 30
0.0
 10
9.9511308852
 20
10.4725597702
 30
0.0
 10
9.957304028
 20
10.4711254537
 30
0.0
 10
9.9632453103
 20
10.4696271659
 30
0.0
 10
9.9689448433
 20
10.4680674442
 30
0.0
 10
9.9743931312
 20
10.4664488666
 30
0.0
 10
9.9795811233
 20
10.4647741984
 30
0.0
 10
9.9845002069
 20
10.4630462153
 30
0.0
 10
9.9891422422
 20
10.4612678235
 30
0.0
 10
9.9934995766
 20
10.4594420032
 30
0.0
 10
9.9975650452
 20
10.4575717456
 30
0.0
 10
10.0013320322
 20
10.4556601845
 30
0.0
 10
10.0047944156
 20
10.4537103535
 30
0.0
 10
10.0079466689
 20
10.451725408
 30
0.0
 10
10.0107837741
 20
10.4497083499
 30
0.0
 10
10.0133012636
 20
10.4476621336
 30
0.0
 10
10.0154951649
 20
10.4455895333
 30
0.0
 10
10.0173617826
 20
10.4434930657
 30
0.0
 10
10.0188976983
 20
10.4413749778
 30
0.0
 10
10.0200990958
 20
10.439237851
 30
0.0
 10
10.0208263174
 20
10.4374222486
 30
0.0
 10
10.0212286329
 20
10.4359739029
 30
0.0
 10
10.0214420522
 20
10.4348978229
 30
0.0
 10
10.0215701709
 20
10.4338207257
 30
0.0
 10
10.0215986726
 20
10.4331014105
 30
0.0
 10
10.0215986757
 20
10.432742954
 30
0.0
  0
SPLINE
  5
3D3
100
AcDbEntity
  8
0
100
AcDbSpline
 62
7
  6
CONTINUOUS
 70
0
 71
3
 72
36
 73
32
 74
0
 42
0.0000001
 43
0.0000001
 44
0.0000000001
 40
0.0
 40
0.0
 40
0.0
 40
0.0
 40
0.0958325634
 40
0.1891023555
 40
0.2792432641
 40
0.3657124907
 40
0.4480017797
 40
0.4874318797
 40
0.5256445484
 40
0.5625883581
 40
0.5982156304
 40
0.6324821329
 40
0.6653482299
 40
0.6967786463
 40
0.7267435444
 40
0.7552190339
 40
0.7821878748
 40
0.8076411027
 40
0.8315786922
 40
0.8540122486
 40
0.8749666358
 40
0.8944835825
 40
0.9126254693
 40
0.9294800532
 40
0.9451666526
 40
0.9598414247
 40
0.9737025134
 40
0.9804060178
 40
0.9869995332
 40
0.9935185676
 40
1.0
 40
1.0
 40
1.0
 40
1.0
 10
13.0103980308
 20
10.2657843194
 30
0.0
 10
13.0156853646
 20
10.2654176415
 30
0.0
 10
13.0261110152
 20
10.2645778045
 30
0.0
 10
13.0414726226
 20
10.2629746624
 30
0.0
 10
13.0562759466
 20
10.2610535114
 30
0.0
 10
13.0704221324
 20
10.2588273467
 30
0.0
 10
13.0817402409
 20
10.256701656
 30
0.0
 10
13.0903900066
 20
10.2548514107
 30
0.0
 10
13.0965631494
 20
10.2534170942
 30
0.0
 10
13.1025044317
 20
10.2519188064
 30
0.0
 10
13.1082039647
 20
10.2503590847
 30
0.0
 10
13.1136522527
 20
10.2487405071
 30
0.0
 10
13.1188402448
 20
10.2470658389
 30
0.0
 10
13.1237593284
 20
10.2453378558
 30
0.0
 10
13.1284013636
 20
10.243559464
 30
0.0
 10
13.1327586981
 20
10.2417336437
 30
0.0
 10
13.1368241667
 20
10.239863386
 30
0.0
 10
13.1405911536
 20
10.237951825
 30
0.0
 10
13.1440535371
 20
10.2360019939
 30
0.0
 10
13.1472057904
 20
10.2340170485
 30
0.0
 10
13.1500428956
 20
10.2319999904
 30
0.0
 10
13.152560385
 20
10.2299537741
 30
0.0
 10
13.1547542863
 20
10.2278811738
 30
0.0
 10
13.156620904
 20
10.2257847062
 30
0.0
 10
13.1581568198
 20
10.2236666183
 30
0.0
 10
13.1593582173
 20
10.2215294915
 30
0.0
 10
13.1600854389
 20
10.2197138891
 30
0.0
 10
13.1604877544
 20
10.2182655434
 30
0.0
 10
13.1607011736
 20
10.2171894634
 30
0.0
 10
13.1608292923
 20
10.2161123662
 30
0.0
 10
13.160857794
 20
10.215393051
 30
0.0
 10
13.1608577971
 20
10.2150345945
 30
0.0
  0
SPLINE
  5
3D4
100
AcDbEntity
  8
0
100
AcDbSpline
 62
7
  6
CONTINUOUS
 70
0
 71
3
 72
53
 73
49
 74
0
 42
0.0000001
 43
0.0000001
 44
0.0000000001
 40
0.0
 40
0.0
 40
0.0
 40
0.0
 40
0.0417740371
 40
0.0840369047
 40
0.1266584536
 40
0.1695064221
 40
0.212448016
 40
0.2553499502
 40
0.2980791306
 40
0.3405031348
 40
0.382490749
 40
0.4239124945
 40
0.4646411616
 40
0.5045523515
 40
0.5435250275
 40
0.5814420819
 40
0.6181909261
 40
0.6536641145
 40
0.6877600167
 40
0.72038356
 40
0.7361158328
 40
0.7514478069
 40
0.7663698229
 40
0.7808728747
 40
0.7949485304
 40
0.808589127
 40
0.8217876764
 40
0.8345380756
 40
0.8468350633
 40
0.8586743964
 40
0.8700529164
 40
0.8809686715
 40
0.8914211252
 40
0.901411244
 40
0.9109418555
 40
0.9200177659
 40
0.9286462506
 40
0.9368373022
 40
0.9446042293
 40
0.951964127
 40
0.9589385596
 40
0.9655542544
 40
0.9718437693
 40
0.9778461758
 40
0.9836073577
 40
0.9891800489
 40
0.9946230796
 40
1.0
 40
1.0
 40
1.0
 40
1.0
 10
13.2734926246
 20
9.4204697848
 30
0.0
 10
13.2734926246
 20
9.4075039518
 30
0.0
 10
13.273290345
 20
9.3814201549
 30
0.0
 10
13.2723960967
 20
9.3421166891
 30
0.0
 10
13.270911871
 20
9.3024974535
 30
0.0
 10
13.2688425259
 20
9.2626935667
 30
0.0
 10
13.2661949043
 20
9.2228367426
 30
0.0
 10
13.2629777559
 20
9.1830588302
 30
0.0
 10
13.2592017384
 20
9.1434914335
 30
0.0
 10
13.254879369
 20
9.1042654501
 30
0.0
 10
13.2500249882
 20
9.0655106421
 30
0.0
 10
13.2446547111
 20
9.0273552015
 30
0.0
 10
13.2387863758
 20
8.9899253226
 30
0.0
 10
13.2324394864
 20
8.9533447779
 30
0.0
 10
13.2256351482
 20
8.9177345049
 30
0.0
 10
13.2183960005
 20
8.8832121905
 30
0.0
 10
13.2107461398
 20
8.8498918972
 30
0.0
 10
13.2027110527
 20
8.8178835808
 30
0.0
 10
13.1943174904
 20
8.7872930274
 30
0.0
 10
13.1869613414
 20
8.7627786147
 30
0.0
 10
13.1809061623
 20
8.7439608979
 30
0.0
 10
13.176347705
 20
8.7304346536
 30
0.0
 10
13.1717209777
 20
8.7173355387
 30
0.0
 10
13.1670298297
 20
8.7046743459
 30
0.0
 10
13.1622781037
 20
8.6924615325
 30
0.0
 10
13.1574697919
 20
8.6807071546
 30
0.0
 10
13.152608822
 20
8.6694209056
 30
0.0
 10
13.1476992624
 20
8.6586120612
 30
0.0
 10
13.1427451375
 20
8.6482895116
 30
0.0
 10
13.1377505514
 20
8.6384617216
 30
0.0
 10
13.1327196187
 20
8.6291367365
 30
0.0
 10
13.1276564442
 20
8.6203221823
 30
0.0
 10
13.1225652066
 20
8.6120252209
 30
0.0
 10
13.11744998
 20
8.604252613
 30
0.0
 10
13.1123149524
 20
8.5970106093
 30
0.0
 10
13.1071641338
 20
8.5903050828
 30
0.0
 10
13.1020016312
 20
8.5841413745
 30
0.0
 10
13.0968313433
 20
8.5785244668
 30
0.0
 10
13.0916571777
 20
8.5734588541
 30
0.0
 10
13.086482854
 20
8.5689486974
 30
0.0
 10
13.081311986
 20
8.5649978265
 30
0.0
 10
13.0761480935
 20
8.5616098005
 30
0.0
 10
13.0709945964
 20
8.5587881341
 30
0.0
 10
13.0658550759
 20
8.556536147
 30
0.0
 10
13.0607334262
 20
8.5548573302
 30
0.0
 10
13.0556339293
 20
8.5537547904
 30
0.0
 10
13.0505627323
 20
8.5532313373
 30
0.0
 10
13.0471958871
 20
8.5532697235
 30
0.0
 10
13.0455309959
 20
8.5533851767
 30
0.0
  0
SPLINE
  5
3D5
100
AcDbEntity
  8
0
100
AcDbSpline
 62
7
  6
CONTINUOUS
 70
0
 71
3
 72
53
 73
49
 74
0
 42
0.0000001
 43
0.0000001
 44
0.0000000001
 40
0.0
 40
0.0
 40
0.0
 40
0.0
 40
0.0417740371
 40
0.0840369047
 40
0.1266584536
 40
0.1695064221
 40
0.212448016
 40
0.2553499502
 40
0.2980791306
 40
0.3405031348
 40
0.382490749
 40
0.4239124945
 40
0.4646411616
 40
0.5045523515
 40
0.5435250275
 40
0.5814420819
 40
0.6181909261
 40
0.6536641145
 40
0.6877600167
 40
0.72038356
 40
0.7361158328
 40
0.7514478069
 40
0.7663698229
 40
0.7808728747
 40
0.7949485304
 40
0.808589127
 40
0.8217876764
 40
0.8345380756
 40
0.8468350633
 40
0.8586743964
 40
0.8700529164
 40
0.8809686715
 40
0.8914211252
 40
0.901411244
 40
0.9109418555
 40
0.9200177659
 40
0.9286462506
 40
0.9368373022
 40
0.9446042293
 40
0.951964127
 40
0.9589385596
 40
0.9655542544
 40
0.9718437693
 40
0.9778461758
 40
0.9836073577
 40
0.9891800489
 40
0.9946230796
 40
1.0
 40
1.0
 40
1.0
 40
1.0
 10
13.2734926246
 20
7.9715809595
 30
0.0
 10
13.2734926246
 20
7.9586151265
 30
0.0
 10
13.273290345
 20
7.9325313296
 30
0.0
 10
13.2723960967
 20
7.8932278638
 30
0.0
 10
13.270911871
 20
7.8536086282
 30
0.0
 10
13.2688425259
 20
7.8138047414
 30
0.0
 10
13.2661949043
 20
7.7739479173
 30
0.0
 10
13.2629777559
 20
7.7341700049
 30
0.0
 10
13.2592017384
 20
7.6946026082
 30
0.0
 10
13.254879369
 20
7.6553766248
 30
0.0
 10
13.2500249882
 20
7.6166218168
 30
0.0
 10
13.2446547111
 20
7.5784663762
 30
0.0
 10
13.2387863758
 20
7.5410364973
 30
0.0
 10
13.2324394864
 20
7.5044559526
 30
0.0
 10
13.2256351482
 20
7.4688456796
 30
0.0
 10
13.2183960005
 20
7.4343233652
 30
0.0
 10
13.2107461398
 20
7.4010030719
 30
0.0
 10
13.2027110527
 20
7.3689947555
 30
0.0
 10
13.1943174904
 20
7.3384042021
 30
0.0
 10
13.1869613414
 20
7.3138897894
 30
0.0
 10
13.1809061623
 20
7.2950720726
 30
0.0
 10
13.176347705
 20
7.2815458283
 30
0.0
 10
13.1717209777
 20
7.2684467134
 30
0.0
 10
13.1670298297
 20
7.2557855206
 30
0.0
 10
13.1622781037
 20
7.2435727072
 30
0.0
 10
13.1574697919
 20
7.2318183294
 30
0.0
 10
13.152608822
 20
7.2205320803
 30
0.0
 10
13.1476992624
 20
7.2097232359
 30
0.0
 10
13.1427451375
 20
7.1994006863
 30
0.0
 10
13.1377505514
 20
7.1895728963
 30
0.0
 10
13.1327196187
 20
7.1802479112
 30
0.0
 10
13.1276564442
 20
7.171433357
 30
0.0
 10
13.1225652066
 20
7.1631363956
 30
0.0
 10
13.11744998
 20
7.1553637877
 30
0.0
 10
13.1123149524
 20
7.148121784
 30
0.0
 10
13.1071641338
 20
7.1414162575
 30
0.0
 10
13.1020016312
 20
7.1352525492
 30
0.0
 10
13.0968313433
 20
7.1296356415
 30
0.0
 10
13.0916571777
 20
7.1245700289
 30
0.0
 10
13.086482854
 20
7.1200598721
 30
0.0
 10
13.081311986
 20
7.1161090013
 30
0.0
 10
13.0761480935
 20
7.1127209752
 30
0.0
 10
13.0709945964
 20
7.1098993088
 30
0.0
 10
13.0658550759
 20
7.1076473218
 30
0.0
 10
13.0607334262
 20
7.105968505
 30
0.0
 10
13.0556339293
 20
7.1048659652
 30
0.0
 10
13.0505627323
 20
7.104342512
 30
0.0
 10
13.0471958871
 20
7.1043808982
 30
0.0
 10
13.0455309959
 20
7.1044963514
 30
0.0
  0
SPLINE
  5
3D6
100
AcDbEntity
  8
0
100
AcDbSpline
 62
7
  6
CONTINUOUS
 70
0
 71
3
 72
44
 73
40
 74
0
 42
0.0000001
 43
0.0000001
 44
0.0000000001
 40
0.0
 40
0.0
 40
0.0
 40
0.0
 40
0.0055576246
 40
0.0111781252
 40
0.0169221424
 40
0.0228460823
 40
0.0290009394
 40
0.0354314054
 40
0.0421759115
 40
0.0492668554
 40
0.0567309544
 40
0.064590169
 40
0.0728619349
 40
0.0815600558
 40
0.0906951257
 40
0.1002748158
 40
0.110304631
 40
0.1207877759
 40
0.1317257866
 40
0.1431186256
 40
0.1672598102
 40
0.1931873598
 40
0.2208591117
 40
0.2502195474
 40
0.2812018198
 40
0.3137293806
 40
0.3477172232
 40
0.3830728887
 40
0.4196972996
 40
0.4574854911
 40
0.4963273377
 40
0.5361081807
 40
0.5767094102
 40
0.6180090134
 40
0.6598821151
 40
0.7448359269
 40
0.830537715
 40
0.9159396375
 40
1.0
 40
1.0
 40
1.0
 40
1.0
 10
9.6155986974
 20
10.4327424816
 30
0.0
 10
9.615598693
 20
10.4332446648
 30
0.0
 10
9.6156548961
 20
10.4342555871
 30
0.0
 10
9.6159072043
 20
10.4357665822
 30
0.0
 10
9.6163271432
 20
10.4372741944
 30
0.0
 10
9.6169138029
 20
10.4387767086
 30
0.0
 10
9.6176663245
 20
10.4402728631
 30
0.0
 10
9.6185836122
 20
10.4417615491
 30
0.0
 10
9.6196646571
 20
10.4432417314
 30
0.0
 10
9.6209084135
 20
10.4447123917
 30
0.0
 10
9.6223137215
 20
10.4461725905
 30
0.0
 10
9.6238794612
 20
10.44762125
 30
0.0
 10
9.6256043136
 20
10.4490573862
 30
0.0
 10
9.6274869177
 20
10.4504799186
 30
0.0
 10
9.6295257818
 20
10.4518877512
 30
0.0
 10
9.6317192561
 20
10.4532798446
 30
0.0
 10
9.6340656196
 20
10.4546550449
 30
0.0
 10
9.6365629657
 20
10.4560123028
 30
0.0
 10
9.6392092992
 20
10.4573505318
 30
0.0
 10
9.6430073159
 20
10.4591426945
 30
0.0
 10
9.6481191718
 20
10.4613191362
 30
0.0
 10
9.6546966808
 20
10.4637902098
 30
0.0
 10
9.6618099006
 20
10.4661605974
 30
0.0
 10
9.6694357482
 20
10.4684224892
 30
0.0
 10
9.6775495811
 20
10.4705684177
 30
0.0
 10
9.6861250118
 20
10.4725912799
 30
0.0
 10
9.6951341083
 20
10.4744843758
 30
0.0
 10
9.7045474723
 20
10.4762414328
 30
0.0
 10
9.7143343483
 20
10.47785663
 30
0.0
 10
9.7244627292
 20
10.4793246273
 30
0.0
 10
9.7348994715
 20
10.4806405696
 30
0.0
 10
9.7456104139
 20
10.4818001074
 30
0.0
 10
9.7565604787
 20
10.482799399
 30
0.0
 10
9.7677138307
 20
10.4836351653
 30
0.0
 10
9.7828796502
 20
10.484531966
 30
0.0
 10
9.802074344
 20
10.4852229985
 30
0.0
 10
9.8252143799
 20
10.4853691664
 30
0.0
 10
9.8482678509
 20
10.4848340414
 30
0.0
 10
9.8635614721
 20
10.484018176
 30
0.0
 10
9.8711389093
 20
10.4834926789
 30
0.0
  0
SPLINE
  5
3D7
100
AcDbEntity
  8
0
100
AcDbSpline
 62
7
  6
CONTINUOUS
 70
0
 71
3
 72
44
 73
40
 74
0
 42
0.0000001
 43
0.0000001
 44
0.0000000001
 40
0.0
 40
0.0
 40
0.0
 40
0.0
 40
0.0055576246
 40
0.0111781252
 40
0.0169221424
 40
0.0228460823
 40
0.0290009394
 40
0.0354314054
 40
0.0421759115
 40
0.0492668554
 40
0.0567309544
 40
0.064590169
 40
0.0728619349
 40
0.0815600558
 40
0.0906951257
 40
0.1002748158
 40
0.110304631
 40
0.1207877759
 40
0.1317257866
 40
0.1431186256
 40
0.1672598102
 40
0.1931873598
 40
0.2208591117
 40
0.2502195474
 40
0.2812018198
 40
0.3137293806
 40
0.3477172232
 40
0.3830728887
 40
0.4196972996
 40
0.4574854911
 40
0.4963273377
 40
0.5361081807
 40
0.5767094102
 40
0.6180090134
 40
0.6598821151
 40
0.7448359269
 40
0.830537715
 40
0.9159396375
 40
1.0
 40
1.0
 40
1.0
 40
1.0
 10
12.7548578189
 20
10.2150341221
 30
0.0
 10
12.7548578145
 20
10.2155363052
 30
0.0
 10
12.7549140176
 20
10.2165472276
 30
0.0
 10
12.7551663258
 20
10.2180582227
 30
0.0
 10
12.7555862647
 20
10.2195658349
 30
0.0
 10
12.7561729243
 20
10.2210683491
 30
0.0
 10
12.756925446
 20
10.2225645036
 30
0.0
 10
12.7578427336
 20
10.2240531896
 30
0.0
 10
12.7589237785
 20
10.2255333719
 30
0.0
 10
12.7601675349
 20
10.2270040322
 30
0.0
 10
12.761572843
 20
10.228464231
 30
0.0
 10
12.7631385826
 20
10.2299128905
 30
0.0
 10
12.764863435
 20
10.2313490266
 30
0.0
 10
12.7667460391
 20
10.2327715591
 30
0.0
 10
12.7687849032
 20
10.2341793917
 30
0.0
 10
12.7709783775
 20
10.2355714851
 30
0.0
 10
12.773324741
 20
10.2369466854
 30
0.0
 10
12.7758220871
 20
10.2383039433
 30
0.0
 10
12.7784684206
 20
10.2396421723
 30
0.0
 10
12.7822664373
 20
10.241434335
 30
0.0
 10
12.7873782933
 20
10.2436107767
 30
0.0
 10
12.7939558022
 20
10.2460818503
 30
0.0
 10
12.801069022
 20
10.2484522379
 30
0.0
 10
12.8086948697
 20
10.2507141297
 30
0.0
 10
12.8168087026
 20
10.2528600582
 30
0.0
 10
12.8253841333
 20
10.2548829204
 30
0.0
 10
12.8343932298
 20
10.2567760163
 30
0.0
 10
12.8438065938
 20
10.2585330733
 30
0.0
 10
12.8535934698
 20
10.2601482704
 30
0.0
 10
12.8637218507
 20
10.2616162678
 30
0.0
 10
12.8741585929
 20
10.2629322101
 30
0.0
 10
12.8848695354
 20
10.2640917479
 30
0.0
 10
12.8958196002
 20
10.2650910395
 30
0.0
 10
12.9069729522
 20
10.2659268058
 30
0.0
 10
12.9221387716
 20
10.2668236065
 30
0.0
 10
12.9413334655
 20
10.267514639
 30
0.0
 10
12.9644735014
 20
10.2676608069
 30
0.0
 10
12.9875269724
 20
10.2671256819
 30
0.0
 10
13.0028205935
 20
10.2663098165
 30
0.0
 10
13.0103980308
 20
10.2657843194
 30
0.0
  0
SPLINE
  5
3D8
100
AcDbEntity
  8
0
100
AcDbSpline
 62
7
  6
CONTINUOUS
 70
0
 71
3
 72
48
 73
44
 74
0
 42
0.0000001
 43
0.0000001
 44
0.0000000001
 40
0.0
 40
0.0
 40
0.0
 40
0.0
 40
0.0063158899
 40
0.0126706797
 40
0.0191025165
 40
0.025648058
 40
0.0323419221
 40
0.0392162652
 40
0.0536140552
 40
0.0611947659
 40
0.0690564915
 40
0.0772175997
 40
0.0856939645
 40
0.0944993396
 40
0.103645447
 40
0.1131421893
 40
0.122997946
 40
0.1332195527
 40
0.1438126331
 40
0.1547816545
 40
0.1661299881
 40
0.1778601838
 40
0.1899738557
 40
0.215353302
 40
0.2422691224
 40
0.2707113841
 40
0.3006623731
 40
0.332097648
 40
0.3649869327
 40
0.3992948208
 40
0.434981328
 40
0.4720023222
 40
0.5103099054
 40
0.5498527799
 40
0.590576537
 40
0.632423903
 40
0.6753349407
 40
0.7192473098
 40
0.7640964278
 40
0.8098157282
 40
0.8563368617
 40
0.9035891153
 40
1.0
 40
1.0
 40
1.0
 40
1.0
 10
13.1416960776
 20
9.9400546591
 30
0.0
 10
13.1428707598
 20
9.9399731998
 30
0.0
 10
13.1452218069
 20
9.9397136223
 30
0.0
 10
13.1487220423
 20
9.9390370785
 30
0.0
 10
13.1521988719
 20
9.9380732745
 30
0.0
 10
13.1556502714
 20
9.9368230383
 30
0.0
 10
13.1590748994
 20
9.9352870995
 30
0.0
 10
13.1636732272
 20
9.9328221583
 30
0.0
 10
13.1681467121
 20
9.9298047392
 30
0.0
 10
13.172475879
 20
9.9263079765
 30
0.0
 10
13.1757458802
 20
9.9233598092
 30
0.0
 10
13.1789809385
 20
9.9201330086
 30
0.0
 10
13.1821802887
 20
9.9166287646
 30
0.0
 10
13.1853425907
 20
9.9128485624
 30
0.0
 10
13.1884666877
 20
9.9087939452
 30
0.0
 10
13.1915514064
 20
9.9044665876
 30
0.0
 10
13.1945954924
 20
9.8998682092
 30
0.0
 10
13.1975978062
 20
9.8950007075
 30
0.0
 10
13.2005571288
 20
9.8898660399
 30
0.0
 10
13.2034722658
 20
9.8844662862
 30
0.0
 10
13.2063420802
 20
9.8788036619
 30
0.0
 10
13.2091653862
 20
9.8728804396
 30
0.0
 10
13.212924748
 20
9.8645081175
 30
0.0
 10
13.2174869276
 20
9.8533965332
 30
0.0
 10
13.2226763323
 20
9.8392638433
 30
0.0
 10
13.2276538178
 20
9.8241553087
 30
0.0
 10
13.2324111712
 20
9.8080956526
 30
0.0
 10
13.236940539
 20
9.7911109476
 30
0.0
 10
13.2412344072
 20
9.7732289637
 30
0.0
 10
13.2452856362
 20
9.7544789766
 30
0.0
 10
13.2490874754
 20
9.7348917443
 30
0.0
 10
13.2526335905
 20
9.7144994462
 30
0.0
 10
13.2559180801
 20
9.6933356252
 30
0.0
 10
13.2589354709
 20
9.6714351165
 30
0.0
 10
13.2616807321
 20
9.648833983
 30
0.0
 10
13.2641492814
 20
9.6255694606
 30
0.0
 10
13.2663370117
 20
9.6016798941
 30
0.0
 10
13.2682402771
 20
9.5772046759
 30
0.0
 10
13.2698559075
 20
9.5521841582
 30
0.0
 10
13.2711811964
 20
9.5266596031
 30
0.0
 10
13.272213946
 20
9.5006731271
 30
0.0
 10
13.2732051117
 20
9.4652294033
 30
0.0
 10
13.2734926246
 20
9.4384441529
 30
0.0
 10
13.2734926246
 20
9.4204697848
 30
0.0
  0
SPLINE
  5
3D9
100
AcDbEntity
  8
0
100
AcDbSpline
 62
7
  6
CONTINUOUS
 70
0
 71
3
 72
44
 73
40
 74
0
 42
0.0000001
 43
0.0000001
 44
0.0000000001
 40
0.0
 40
0.0
 40
0.0
 40
0.0
 40
0.0064765042
 40
0.0131233476
 40
0.0270149427
 40
0.0343061193
 40
0.0418492567
 40
0.0496594636
 40
0.0577500465
 40
0.0661326034
 40
0.0748170984
 40
0.0838121611
 40
0.0931251068
 40
0.1027620502
 40
0.1127281573
 40
0.1230275841
 40
0.1336636329
 40
0.1559539044
 40
0.1796130971
 40
0.2046444681
 40
0.2310435685
 40
0.2587993043
 40
0.2878949024
 40
0.3183086906
 40
0.3500146153
 40
0.3829826696
 40
0.4171793787
 40
0.4525681138
 40
0.4891092827
 40
0.5267606356
 40
0.565477512
 40
0.605212969
 40
0.6459179347
 40
0.6875414484
 40
0.7300307751
 40
0.7733314489
 40
0.8173876556
 40
0.9075341811
 40
1.0
 40
1.0
 40
1.0
 40
1.0
 10
13.1261155855
 20
9.9383362081
 30
0.0
 10
13.1271894073
 20
9.937863757
 30
0.0
 10
13.129333224
 20
9.9368317057
 30
0.0
 10
13.1335989739
 20
9.9344286337
 30
0.0
 10
13.1377541857
 20
9.931550835
 30
0.0
 10
13.1417845922
 20
9.9282575128
 30
0.0
 10
13.1448277733
 20
9.9255044918
 30
0.0
 10
13.1478408301
 20
9.9225099316
 30
0.0
 10
13.1508230424
 20
9.9192747097
 30
0.0
 10
13.1537733348
 20
9.9158000346
 30
0.0
 10
13.1566908017
 20
9.912087167
 30
0.0
 10
13.1595744223
 20
9.9081373958
 30
0.0
 10
13.1624232226
 20
9.903952117
 30
0.0
 10
13.1652362684
 20
9.8995328257
 30
0.0
 10
13.1680125357
 20
9.8948810535
 30
0.0
 10
13.1707511155
 20
9.8899984434
 30
0.0
 10
13.1744082512
 20
9.8830742583
 30
0.0
 10
13.1788677016
 20
9.8738410372
 30
0.0
 10
13.1839728187
 20
9.8620370103
 30
0.0
 10
13.1889051329
 20
9.8493579419
 30
0.0
 10
13.1936576405
 20
9.8358217664
 30
0.0
 10
13.1982236186
 20
9.8214474131
 30
0.0
 10
13.2025965494
 20
9.8062551788
 30
0.0
 10
13.2067701492
 20
9.7902665466
 30
0.0
 10
13.2107384075
 20
9.7735041976
 30
0.0
 10
13.2144956274
 20
9.7559919647
 30
0.0
 10
13.2180363905
 20
9.7377547749
 30
0.0
 10
13.2213555738
 20
9.7188186111
 30
0.0
 10
13.2244484011
 20
9.6992104844
 30
0.0
 10
13.2273104171
 20
9.678958382
 30
0.0
 10
13.2299374813
 20
9.6580912167
 30
0.0
 10
13.2323257991
 20
9.636638795
 30
0.0
 10
13.2344719389
 20
9.6146317735
 30
0.0
 10
13.2363728025
 20
9.5921016011
 30
0.0
 10
13.2380256242
 20
9.5690804931
 30
0.0
 10
13.2394280631
 20
9.5456013271
 30
0.0
 10
13.2409730838
 20
9.5134847376
 30
0.0
 10
13.2422518542
 20
9.4724422833
 30
0.0
 10
13.2425829956
 20
9.4393627117
 30
0.0
 10
13.2425829956
 20
9.4226133748
 30
0.0
  0
SPLINE
  5
3DA
100
AcDbEntity
  8
0
100
AcDbSpline
 62
7
  6
CONTINUOUS
 70
0
 71
3
 72
55
 73
51
 74
0
 42
0.0000001
 43
0.0000001
 44
0.0000000001
 40
0.0
 40
0.0
 40
0.0
 40
0.0
 40
0.0095825819
 40
0.0187371424
 40
0.0274870077
 40
0.0358597765
 40
0.0515981845
 40
0.0590560109
 40
0.0662987855
 40
0.0733799977
 40
0.0803572919
 40
0.0872911216
 40
0.0942431942
 40
0.1012746911
 40
0.1084445784
 40
0.115808164
 40
0.1234161365
 40
0.1313138569
 40
0.1395413357
 40
0.1481331538
 40
0.1571189369
 40
0.166523697
 40
0.176368282
 40
0.1866699867
 40
0.1974427542
 40
0.2086978719
 40
0.2204440349
 40
0.2326878727
 40
0.2454341107
 40
0.2586857537
 40
0.2724444547
 40
0.2867103953
 40
0.3014827497
 40
0.3167595002
 40
0.332537753
 40
0.3655816089
 40
0.4005762908
 40
0.4374714424
 40
0.4762073351
 40
0.5167160364
 40
0.5589223426
 40
0.6027445495
 40
0.6480951047
 40
0.6948811777
 40
0.7430051698
 40
0.792365118
 40
0.8428554393
 40
0.8943663173
 40
0.946786822
 40
1.0
 40
1.0
 40
1.0
 40
1.0
 10
13.0639869027
 20
9.7571912577
 30
0.0
 10
13.065066848
 20
9.758196352
 30
0.0
 10
13.0672257719
 20
9.7601118379
 30
0.0
 10
13.0705381481
 20
9.7627487294
 30
0.0
 10
13.0738474795
 20
9.7650807198
 30
0.0
 10
13.0781625046
 20
9.767725791
 30
0.0
 10
13.0825646388
 20
9.7698379119
 30
0.0
 10
13.0870136049
 20
9.7713256344
 30
0.0
 10
13.0902788654
 20
9.7721096078
 30
0.0
 10
13.0935292226
 20
9.7725801026
 30
0.0
 10
13.0967623762
 20
9.7727365516
 30
0.0
 10
13.0999756301
 20
9.7725783938
 30
0.0
 10
13.103166273
 20
9.7721058378
 30
0.0
 10
13.106331654
 20
9.7713193902
 30
0.0
 10
13.1094693219
 20
9.7702200535
 30
0.0
 10
13.112577126
 20
9.7688091692
 30
0.0
 10
13.1156531011
 20
9.7670881225
 30
0.0
 10
13.1186956077
 20
9.7650585896
 30
0.0
 10
13.1217030055
 20
9.7627220906
 30
0.0
 10
13.1246738591
 20
9.7600803714
 30
0.0
 10
13.1276066648
 20
9.7571351252
 30
0.0
 10
13.1304999478
 20
9.7538881828
 30
0.0
 10
13.1333522585
 20
9.7503415107
 30
0.0
 10
13.1361620232
 20
9.7464971475
 30
0.0
 10
13.1389278043
 20
9.7423573775
 30
0.0
 10
13.1416479936
 20
9.7379245576
 30
0.0
 10
13.1443211222
 20
9.7332012908
 30
0.0
 10
13.1469456356
 20
9.7281903074
 30
0.0
 10
13.1495200154
 20
9.7228945294
 30
0.0
 10
13.152042802
 20
9.7173170626
 30
0.0
 10
13.1545124569
 20
9.7114611592
 30
0.0
 10
13.1569275999
 20
9.7053302778
 30
0.0
 10
13.1592867313
 20
9.6989280145
 30
0.0
 10
13.1615885316
 20
9.6922581466
 30
0.0
 10
13.1646261039
 20
9.6828683275
 30
0.0
 10
13.16825704
 20
9.6704826498
 30
0.0
 10
13.1723002593
 20
9.6548391625
 30
0.0
 10
13.1760842678
 20
9.6382311326
 30
0.0
 10
13.1795999766
 20
9.6206978994
 30
0.0
 10
13.1828389047
 20
9.6022808333
 30
0.0
 10
13.1857932399
 20
9.5830235494
 30
0.0
 10
13.1884558524
 20
9.5629716905
 30
0.0
 10
13.1908203158
 20
9.5421728344
 30
0.0
 10
13.1928809223
 20
9.5206763646
 30
0.0
 10
13.1946326973
 20
9.4985333582
 30
0.0
 10
13.1960714208
 20
9.475796419
 30
0.0
 10
13.1971935968
 20
9.4525196711
 30
0.0
 10
13.1979965466
 20
9.4287582981
 30
0.0
 10
13.198478268
 20
9.4045690413
 30
0.0
 10
13.1985837943
 20
9.3883058917
 30
0.0
 10
13.1985837943
 20
9.3801134074
 30
0.0
  0
SPLINE
  5
3DB
100
AcDbEntity
  8
0
100
AcDbSpline
 62
7
  6
CONTINUOUS
 70
0
 71
3
 72
40
 73
36
 74
0
 42
0.0000001
 43
0.0000001
 44
0.0000000001
 40
0.0
 40
0.0
 40
0.0
 40
0.0
 40
0.0063160387
 40
0.0126709828
 40
0.0191029715
 40
0.0256486875
 40
0.0323427211
 40
0.0392172301
 40
0.0536154077
 40
0.0690525796
 40
0.0856859204
 40
0.103634241
 40
0.1229843769
 40
0.1437972775
 40
0.1661133128
 40
0.1899562556
 40
0.2153363298
 40
0.2422528122
 40
0.2706958135
 40
0.3006475326
 40
0.3320835436
 40
0.364973648
 40
0.3992823811
 40
0.4349697245
 40
0.4719916038
 40
0.5103001057
 40
0.5498439059
 40
0.5905686336
 40
0.6324169878
 40
0.6753290203
 40
0.7192424102
 40
0.7640925656
 40
0.8098130277
 40
0.9035866961
 40
1.0
 40
1.0
 40
1.0
 40
1.0
 10
13.0524455947
 20
9.7307278081
 30
0.0
 10
13.0532568845
 20
9.730671542
 30
0.0
 10
13.0548806256
 20
9.7304922427
 30
0.0
 10
13.0572980455
 20
9.7300249608
 30
0.0
 10
13.0596993108
 20
9.7293593218
 30
0.0
 10
13.0620830006
 20
9.7284957983
 30
0.0
 10
13.064448187
 20
9.7274350079
 30
0.0
 10
13.0676241185
 20
9.7257325352
 30
0.0
 10
13.0715540581
 20
9.7230816074
 30
0.0
 10
13.076099648
 20
9.7191739683
 30
0.0
 10
13.0805439904
 20
9.7144999123
 30
0.0
 10
13.0848819043
 20
9.7090680498
 30
0.0
 10
13.0891086989
 20
9.7028868873
 30
0.0
 10
13.0932188436
 20
9.6959659711
 30
0.0
 10
13.0972064973
 20
9.6883159207
 30
0.0
 10
13.1010656227
 20
9.6799486464
 30
0.0
 10
13.1047902063
 20
9.6708773669
 30
0.0
 10
13.1083742592
 20
9.6611165506
 30
0.0
 10
13.1118119213
 20
9.6506819003
 30
0.0
 10
13.1150975687
 20
9.6395903319
 30
0.0
 10
13.1182257658
 20
9.6278598983
 30
0.0
 10
13.1211912979
 20
9.6155097528
 30
0.0
 10
13.1239892554
 20
9.602560126
 30
0.0
 10
13.1266149852
 20
9.5890322653
 30
0.0
 10
13.1290640912
 20
9.5749483897
 30
0.0
 10
13.1313325047
 20
9.5603316645
 30
0.0
 10
13.1334164563
 20
9.5452061501
 30
0.0
 10
13.1353124546
 20
9.5295967523
 30
0.0
 10
13.1370173426
 20
9.5135291889
 30
0.0
 10
13.1385282952
 20
9.4970299443
 30
0.0
 10
13.1398427732
 20
9.4801262271
 30
0.0
 10
13.1409586102
 20
9.462845874
 30
0.0
 10
13.1421893081
 20
9.4391415187
 30
0.0
 10
13.1432072795
 20
9.4087807056
 30
0.0
 10
13.1434702821
 20
9.3842917946
 30
0.0
 10
13.1434702821
 20
9.3718778394
 30
0.0
  0
SPLINE
  5
3DC
100
AcDbEntity
  8
0
100
AcDbSpline
 62
7
  6
CONTINUOUS
 70
0
 71
3
 72
50
 73
46
 74
0
 42
0.0000001
 43
0.0000001
 44
0.0000000001
 40
0.0
 40
0.0
 40
0.0
 40
0.0
 40
0.0053769953
 40
0.010820095
 40
0.0163928551
 40
0.0221541027
 40
0.0344342786
 40
0.041050046
 40
0.0480245491
 40
0.0553845306
 40
0.0631515343
 40
0.0713426836
 40
0.0799712541
 40
0.0890472758
 40
0.0985779865
 40
0.108568227
 40
0.1190207986
 40
0.1299366827
 40
0.1413153433
 40
0.1531548112
 40
0.1654519631
 40
0.1782025035
 40
0.191401239
 40
0.2050419855
 40
0.2191178449
 40
0.2485424278
 40
0.2796063452
 40
0.3122303189
 40
0.346326677
 40
0.3818003456
 40
0.4185496927
 40
0.4564672706
 40
0.4954404884
 40
0.5353522358
 40
0.5760814738
 40
0.6175038017
 40
0.6594920084
 40
0.7019166139
 40
0.7446464011
 40
0.7875489503
 40
0.8304911472
 40
0.873339762
 40
0.9159618242
 40
0.9582255132
 40
1.0
 40
1.0
 40
1.0
 40
1.0
 10
12.9860288912
 20
7.3241392293
 30
0.0
 10
12.9871787445
 20
7.3240594824
 30
0.0
 10
12.9895040566
 20
7.3240329679
 30
0.0
 10
12.9930064294
 20
7.3243944256
 30
0.0
 10
12.9965285403
 20
7.3251559465
 30
0.0
 10
13.001345846
 20
7.3267348361
 30
0.0
 10
13.0061018017
 20
7.3291152667
 30
0.0
 10
13.0107405477
 20
7.3321590845
 30
0.0
 10
13.0143123374
 20
7.3348879816
 30
0.0
 10
13.017885812
 20
7.3380028185
 30
0.0
 10
13.0214593966
 20
7.3415013638
 30
0.0
 10
13.0250302217
 20
7.3453806502
 30
0.0
 10
13.0285957132
 20
7.3496375742
 30
0.0
 10
13.0321531035
 20
7.3542687192
 30
0.0
 10
13.0356996145
 20
7.359270368
 30
0.0
 10
13.039232429
 20
7.3646384891
 30
0.0
 10
13.0427486897
 20
7.3703687478
 30
0.0
 10
13.0462455634
 20
7.3764564848
 30
0.0
 10
13.0497201654
 20
7.3828967515
 30
0.0
 10
13.0531696788
 20
7.3896842764
 30
0.0
 10
13.0565912239
 20
7.3968135133
 30
0.0
 10
13.0599820241
 20
7.404278602
 30
0.0
 10
13.0633392201
 20
7.4120734175
 30
0.0
 10
13.0666601177
 20
7.4201915432
 30
0.0
 10
13.0711016012
 20
7.4316072806
 30
0.0
 10
13.0765294366
 20
7.4466440649
 30
0.0
 10
13.0827628288
 20
7.4656078911
 30
0.0
 10
13.0887880607
 20
7.4856866093
 30
0.0
 10
13.0945850554
 20
7.506813973
 30
0.0
 10
13.1001344824
 20
7.5289204239
 30
0.0
 10
13.1054178496
 20
7.5519330186
 30
0.0
 10
13.1104175593
 20
7.5757757825
 30
0.0
 10
13.1151169681
 20
7.6003699475
 30
0.0
 10
13.1195004406
 20
7.62563423
 30
0.0
 10
13.1235534006
 20
7.6514851054
 30
0.0
 10
13.1272623781
 20
7.6778370897
 30
0.0
 10
13.1306150527
 20
7.7046030277
 30
0.0
 10
13.1336002941
 20
7.7316943835
 30
0.0
 10
13.1362081983
 20
7.7590215379
 30
0.0
 10
13.1384301186
 20
7.7864940836
 30
0.0
 10
13.1402586984
 20
7.8140211376
 30
0.0
 10
13.1416878853
 20
7.8415116099
 30
0.0
 10
13.1427129711
 20
7.8688746017
 30
0.0
 10
13.143330575
 20
7.8960194693
 30
0.0
 10
13.1434702821
 20
7.9140342149
 30
0.0
 10
13.1434702821
 20
7.9229890142
 30
0.0
  0
SPLINE
  5
3DD
100
AcDbEntity
  8
0
100
AcDbSpline
 62
7
  6
CONTINUOUS
 70
0
 71
3
 72
57
 73
53
 74
0
 42
0.0000001
 43
0.0000001
 44
0.0000000001
 40
0.0
 40
0.0
 40
0.0
 40
0.0
 40
0.0079608399
 40
0.0154477822
 40
0.0224995961
 40
0.0291646556
 40
0.0355020703
 40
0.0415819647
 40
0.0474848659
 40
0.053299423
 40
0.0591187158
 40
0.0650355758
 40
0.0711379938
 40
0.0775054867
 40
0.0842071235
 40
0.0913008488
 40
0.0988340467
 40
0.1068445759
 40
0.1153620207
 40
0.1244090636
 40
0.1340024529
 40
0.1441541568
 40
0.1548719863
 40
0.1661603522
 40
0.1780207558
 40
0.1904521406
 40
0.2034513707
 40
0.2170133098
 40
0.2311312389
 40
0.2457968794
 40
0.2610006302
 40
0.2767316936
 40
0.2929780974
 40
0.3097269341
 40
0.3269642622
 40
0.3446753433
 40
0.362844583
 40
0.3814556392
 40
0.4199337288
 40
0.4599664171
 40
0.5014005259
 40
0.5440749043
 40
0.5878215512
 40
0.6324666763
 40
0.6778317225
 40
0.7237343621
 40
0.7699894759
 40
0.816410135
 40
0.8628085269
 40
0.9089971078
 40
0.9547888849
 40
1.0
 40
1.0
 40
1.0
 40
1.0
 10
12.9938061755
 20
7.2963367386
 30
0.0
 10
12.995049781
 20
7.2948076514
 30
0.0
 10
12.9975582165
 20
7.2919158093
 30
0.0
 10
13.0015137798
 20
7.2879857228
 30
0.0
 10
13.0055395805
 20
7.2846056508
 30
0.0
 10
13.0096324704
 20
7.2817804939
 30
0.0
 10
13.0137891404
 20
7.279514854
 30
0.0
 10
13.0180055965
 20
7.2778137862
 30
0.0
 10
13.022276434
 20
7.2766819066
 30
0.0
 10
13.0265947597
 20
7.2761229275
 30
0.0
 10
13.0309525053
 20
7.2761385193
 30
0.0
 10
13.0353415157
 20
7.2767278379
 30
0.0
 10
13.039754539
 20
7.2778881517
 30
0.0
 10
13.0441857963
 20
7.2796153311
 30
0.0
 10
13.0486306565
 20
7.2819051593
 30
0.0
 10
13.0530852963
 20
7.2847533088
 30
0.0
 10
13.0575460849
 20
7.2881556968
 30
0.0
 10
13.0620093396
 20
7.2921081799
 30
0.0
 10
13.0664712469
 20
7.2966063523
 30
0.0
 10
13.0709276655
 20
7.3016455208
 30
0.0
 10
13.075374407
 20
7.3072204008
 30
0.0
 10
13.0798069944
 20
7.3133252626
 30
0.0
 10
13.0842209557
 20
7.319953732
 30
0.0
 10
13.0886116973
 20
7.3270988865
 30
0.0
 10
13.0929745813
 20
7.3347532177
 30
0.0
 10
13.0973050223
 20
7.3429086179
 30
0.0
 10
13.1015983336
 20
7.3515564509
 30
0.0
 10
13.1058499708
 20
7.3606874857
 30
0.0
 10
13.1100553104
 20
7.3702919847
 30
0.0
 10
13.1142098447
 20
7.3803596612
 30
0.0
 10
13.1183090884
 20
7.3908797234
 30
0.0
 10
13.1223485876
 20
7.4018408836
 30
0.0
 10
13.1263240178
 20
7.4132313571
 30
0.0
 10
13.1302310283
 20
7.425038903
 30
0.0
 10
13.1340654423
 20
7.4372508098
 30
0.0
 10
13.1378230708
 20
7.4498539312
 30
0.0
 10
13.141499891
 20
7.4628347044
 30
0.0
 10
13.1463429885
 20
7.4808272965
 30
0.0
 10
13.1521536202
 20
7.5041628299
 30
0.0
 10
13.1586684851
 20
7.5331378578
 30
0.0
 10
13.1647721588
 20
7.5632629618
 30
0.0
 10
13.1704381456
 20
7.5944082877
 30
0.0
 10
13.1756418336
 20
7.6264397238
 30
0.0
 10
13.1803606464
 20
7.6592192303
 30
0.0
 10
13.184574124
 20
7.6926055216
 30
0.0
 10
13.1882640119
 20
7.7264546641
 30
0.0
 10
13.1914143424
 20
7.7606207101
 30
0.0
 10
13.1940114967
 20
7.7949563291
 30
0.0
 10
13.1960442741
 20
7.8293134713
 30
0.0
 10
13.1975039065
 20
7.8635439422
 30
0.0
 10
13.1983841661
 20
7.897500094
 30
0.0
 10
13.1985837943
 20
7.9200311575
 30
0.0
 10
13.1985837943
 20
7.9312245821
 30
0.0
  0
SPLINE
  5
3DE
100
AcDbEntity
  8
0
100
AcDbSpline
 62
7
  6
CONTINUOUS
 70
0
 71
3
 72
51
 73
47
 74
0
 42
0.0000001
 43
0.0000001
 44
0.0000000001
 40
0.0
 40
0.0
 40
0.0
 40
0.0
 40
0.0055940923
 40
0.0114130662
 40
0.0174969413
 40
0.0238799796
 40
0.030591069
 40
0.0376541255
 40
0.0450887273
 40
0.0529106009
 40
0.0611322005
 40
0.0697631167
 40
0.0788105103
 40
0.0882794255
 40
0.0981730797
 40
0.1084931068
 40
0.1192397297
 40
0.1304119629
 40
0.1420076946
 40
0.1540238704
 40
0.1664565066
 40
0.1793008682
 40
0.1925514303
 40
0.2062020573
 40
0.2202459259
 40
0.2346757073
 40
0.2646601831
 40
0.2960871906
 40
0.3288806139
 40
0.3629580724
 40
0.3982316042
 40
0.4346082689
 40
0.4719906917
 40
0.5102775683
 40
0.5493641411
 40
0.589142655
 40
0.6295028002
 40
0.6703321442
 40
0.7115165581
 40
0.752940638
 40
0.7944881217
 40
0.8360423133
 40
0.8774864732
 40
0.9187043122
 40
0.9595802012
 40
1.0
 40
1.0
 40
1.0
 40
1.0
 10
13.0302984628
 20
7.1083384338
 30
0.0
 10
13.0319409805
 20
7.1088023005
 30
0.0
 10
13.0352466677
 20
7.1099162383
 30
0.0
 10
13.0401352789
 20
7.1120766225
 30
0.0
 10
13.0450374069
 20
7.1147528436
 30
0.0
 10
13.0499493098
 20
7.1179418058
 30
0.0
 10
13.0548680913
 20
7.1216407101
 30
0.0
 10
13.059790671
 20
7.1258464443
 30
0.0
 10
13.0647138745
 20
7.1305558075
 30
0.0
 10
13.0696344836
 20
7.1357652594
 30
0.0
 10
13.0745491351
 20
7.1414710035
 30
0.0
 10
13.0794544312
 20
7.1476688692
 30
0.0
 10
13.0843468857
 20
7.1543543494
 30
0.0
 10
13.0892229827
 20
7.1615225615
 30
0.0
 10
13.0940791797
 20
7.1691682536
 30
0.0
 10
13.0989119024
 20
7.1772858119
 30
0.0
 10
13.103717601
 20
7.1858692451
 30
0.0
 10
13.1084926868
 20
7.1949122168
 30
0.0
 10
13.1132336358
 20
7.2044080169
 30
0.0
 10
13.1179368758
 20
7.214349606
 30
0.0
 10
13.122598931
 20
7.2247295813
 30
0.0
 10
13.1272162681
 20
7.2355402245
 30
0.0
 10
13.1317854772
 20
7.2467734684
 30
0.0
 10
13.136303075
 20
7.2584209395
 30
0.0
 10
13.1407657572
 20
7.2704739449
 30
0.0
 10
13.1467143571
 20
7.2872888884
 30
0.0
 10
13.1539738522
 20
7.3092629873
 30
0.0
 10
13.162306645
 20
7.3367732904
 30
0.0
 10
13.1703433489
 20
7.3656697126
 30
0.0
 10
13.1780597395
 20
7.3958658446
 30
0.0
 10
13.1854325478
 20
7.4272715567
 30
0.0
 10
13.1924395558
 20
7.4597929619
 30
0.0
 10
13.1990596562
 20
7.4933328047
 30
0.0
 10
13.2052729172
 20
7.5277907373
 30
0.0
 10
13.2110606405
 20
7.5630636353
 30
0.0
 10
13.2164054164
 20
7.5990459115
 30
0.0
 10
13.221291175
 20
7.6356298368
 30
0.0
 10
13.2257032335
 20
7.6727058673
 30
0.0
 10
13.2296283394
 20
7.7101629754
 30
0.0
 10
13.2330547096
 20
7.7478889847
 30
0.0
 10
13.2359720661
 20
7.7857709092
 30
0.0
 10
13.238371664
 20
7.8236952914
 30
0.0
 10
13.2402463243
 20
7.8615485489
 30
0.0
 10
13.2415904423
 20
7.8992173175
 30
0.0
 10
13.2424000261
 20
7.9365887039
 30
0.0
 10
13.2425829956
 20
7.9613924363
 30
0.0
 10
13.2425829956
 20
7.9737245495
 30
0.0
  0
SPLINE
  5
3DF
100
AcDbEntity
  8
0
100
AcDbSpline
 62
7
  6
CONTINUOUS
 70
0
 71
3
 72
51
 73
47
 74
0
 42
0.0000001
 43
0.0000001
 44
0.0000000001
 40
0.0
 40
0.0
 40
0.0
 40
0.0
 40
0.0055940923
 40
0.0114130662
 40
0.0174969413
 40
0.0238799796
 40
0.030591069
 40
0.0376541255
 40
0.0450887273
 40
0.0529106009
 40
0.0611322005
 40
0.0697631167
 40
0.0788105103
 40
0.0882794255
 40
0.0981730797
 40
0.1084931068
 40
0.1192397297
 40
0.1304119629
 40
0.1420076946
 40
0.1540238704
 40
0.1664565066
 40
0.1793008682
 40
0.1925514303
 40
0.2062020573
 40
0.2202459259
 40
0.2346757073
 40
0.2646601831
 40
0.2960871906
 40
0.3288806139
 40
0.3629580724
 40
0.3982316042
 40
0.4346082689
 40
0.4719906917
 40
0.5102775683
 40
0.5493641411
 40
0.589142655
 40
0.6295028002
 40
0.6703321442
 40
0.7115165581
 40
0.752940638
 40
0.7944881217
 40
0.8360423133
 40
0.8774864732
 40
0.9187043122
 40
0.9595802012
 40
1.0
 40
1.0
 40
1.0
 40
1.0
 10
13.0302984628
 20
8.557227259
 30
0.0
 10
13.0319409805
 20
8.5576911257
 30
0.0
 10
13.0352466677
 20
8.5588050636
 30
0.0
 10
13.0401352789
 20
8.5609654478
 30
0.0
 10
13.0450374069
 20
8.5636416689
 30
0.0
 10
13.0499493098
 20
8.5668306311
 30
0.0
 10
13.0548680913
 20
8.5705295354
 30
0.0
 10
13.059790671
 20
8.5747352696
 30
0.0
 10
13.0647138745
 20
8.5794446328
 30
0.0
 10
13.0696344836
 20
8.5846540847
 30
0.0
 10
13.0745491351
 20
8.5903598288
 30
0.0
 10
13.0794544312
 20
8.5965576945
 30
0.0
 10
13.0843468857
 20
8.6032431747
 30
0.0
 10
13.0892229827
 20
8.6104113868
 30
0.0
 10
13.0940791797
 20
8.6180570789
 30
0.0
 10
13.0989119024
 20
8.6261746372
 30
0.0
 10
13.103717601
 20
8.6347580704
 30
0.0
 10
13.1084926868
 20
8.6438010421
 30
0.0
 10
13.1132336358
 20
8.6532968422
 30
0.0
 10
13.1179368758
 20
8.6632384313
 30
0.0
 10
13.122598931
 20
8.6736184066
 30
0.0
 10
13.1272162681
 20
8.6844290498
 30
0.0
 10
13.1317854772
 20
8.6956622937
 30
0.0
 10
13.136303075
 20
8.7073097648
 30
0.0
 10
13.1407657572
 20
8.7193627702
 30
0.0
 10
13.1467143571
 20
8.7361777137
 30
0.0
 10
13.1539738522
 20
8.7581518126
 30
0.0
 10
13.162306645
 20
8.7856621157
 30
0.0
 10
13.1703433489
 20
8.8145585379
 30
0.0
 10
13.1780597395
 20
8.8447546699
 30
0.0
 10
13.1854325478
 20
8.876160382
 30
0.0
 10
13.1924395558
 20
8.9086817871
 30
0.0
 10
13.1990596562
 20
8.94222163
 30
0.0
 10
13.2052729172
 20
8.9766795626
 30
0.0
 10
13.2110606405
 20
9.0119524606
 30
0.0
 10
13.2164054164
 20
9.0479347368
 30
0.0
 10
13.221291175
 20
9.0845186621
 30
0.0
 10
13.2257032335
 20
9.1215946926
 30
0.0
 10
13.2296283394
 20
9.1590518007
 30
0.0
 10
13.2330547096
 20
9.19677781
 30
0.0
 10
13.2359720661
 20
9.2346597345
 30
0.0
 10
13.238371664
 20
9.2725841167
 30
0.0
 10
13.2402463243
 20
9.3104373742
 30
0.0
 10
13.2415904423
 20
9.3481061428
 30
0.0
 10
13.2424000261
 20
9.3854775292
 30
0.0
 10
13.2425829956
 20
9.4102812616
 30
0.0
 10
13.2425829956
 20
9.4226133748
 30
0.0
  0
SPLINE
  5
3E0
100
AcDbEntity
  8
0
100
AcDbSpline
 62
7
  6
CONTINUOUS
 70
0
 71
3
 72
57
 73
53
 74
0
 42
0.0000001
 43
0.0000001
 44
0.0000000001
 40
0.0
 40
0.0
 40
0.0
 40
0.0
 40
0.0079608399
 40
0.0154477822
 40
0.0224995961
 40
0.0291646556
 40
0.0355020703
 40
0.0415819647
 40
0.0474848659
 40
0.053299423
 40
0.0591187158
 40
0.0650355758
 40
0.0711379938
 40
0.0775054867
 40
0.0842071235
 40
0.0913008488
 40
0.0988340467
 40
0.1068445759
 40
0.1153620207
 40
0.1244090636
 40
0.1340024529
 40
0.1441541568
 40
0.1548719863
 40
0.1661603522
 40
0.1780207558
 40
0.1904521406
 40
0.2034513707
 40
0.2170133098
 40
0.2311312389
 40
0.2457968794
 40
0.2610006302
 40
0.2767316936
 40
0.2929780974
 40
0.3097269341
 40
0.3269642622
 40
0.3446753433
 40
0.362844583
 40
0.3814556392
 40
0.4199337288
 40
0.4599664171
 40
0.5014005259
 40
0.5440749043
 40
0.5878215512
 40
0.6324666763
 40
0.6778317225
 40
0.7237343621
 40
0.7699894759
 40
0.816410135
 40
0.8628085269
 40
0.9089971078
 40
0.9547888849
 40
1.0
 40
1.0
 40
1.0
 40
1.0
 10
12.9938061755
 20
8.7452255639
 30
0.0
 10
12.995049781
 20
8.7436964766
 30
0.0
 10
12.9975582165
 20
8.7408046346
 30
0.0
 10
13.0015137798
 20
8.7368745481
 30
0.0
 10
13.0055395805
 20
8.7334944761
 30
0.0
 10
13.0096324704
 20
8.7306693192
 30
0.0
 10
13.0137891404
 20
8.7284036793
 30
0.0
 10
13.0180055965
 20
8.7267026115
 30
0.0
 10
13.022276434
 20
8.7255707319
 30
0.0
 10
13.0265947597
 20
8.7250117528
 30
0.0
 10
13.0309525053
 20
8.7250273446
 30
0.0
 10
13.0353415157
 20
8.7256166632
 30
0.0
 10
13.039754539
 20
8.7267769769
 30
0.0
 10
13.0441857963
 20
8.7285041564
 30
0.0
 10
13.0486306565
 20
8.7307939846
 30
0.0
 10
13.0530852963
 20
8.7336421341
 30
0.0
 10
13.0575460849
 20
8.7370445221
 30
0.0
 10
13.0620093396
 20
8.7409970052
 30
0.0
 10
13.0664712469
 20
8.7454951776
 30
0.0
 10
13.0709276655
 20
8.7505343461
 30
0.0
 10
13.075374407
 20
8.756109226
 30
0.0
 10
13.0798069944
 20
8.7622140879
 30
0.0
 10
13.0842209557
 20
8.7688425573
 30
0.0
 10
13.0886116973
 20
8.7759877118
 30
0.0
 10
13.0929745813
 20
8.783642043
 30
0.0
 10
13.0973050223
 20
8.7917974432
 30
0.0
 10
13.1015983336
 20
8.8004452762
 30
0.0
 10
13.1058499708
 20
8.809576311
 30
0.0
 10
13.1100553104
 20
8.81918081
 30
0.0
 10
13.1142098447
 20
8.8292484865
 30
0.0
 10
13.1183090884
 20
8.8397685487
 30
0.0
 10
13.1223485876
 20
8.8507297089
 30
0.0
 10
13.1263240178
 20
8.8621201824
 30
0.0
 10
13.1302310283
 20
8.8739277283
 30
0.0
 10
13.1340654423
 20
8.8861396351
 30
0.0
 10
13.1378230708
 20
8.8987427565
 30
0.0
 10
13.141499891
 20
8.9117235296
 30
0.0
 10
13.1463429885
 20
8.9297161218
 30
0.0
 10
13.1521536202
 20
8.9530516552
 30
0.0
 10
13.1586684851
 20
8.9820266831
 30
0.0
 10
13.1647721588
 20
9.012151787
 30
0.0
 10
13.1704381456
 20
9.043297113
 30
0.0
 10
13.1756418336
 20
9.0753285491
 30
0.0
 10
13.1803606464
 20
9.1081080555
 30
0.0
 10
13.184574124
 20
9.1414943469
 30
0.0
 10
13.1882640119
 20
9.1753434894
 30
0.0
 10
13.1914143424
 20
9.2095095353
 30
0.0
 10
13.1940114967
 20
9.2438451543
 30
0.0
 10
13.1960442741
 20
9.2782022966
 30
0.0
 10
13.1975039065
 20
9.3124327675
 30
0.0
 10
13.1983841661
 20
9.3463889192
 30
0.0
 10
13.1985837943
 20
9.3689199827
 30
0.0
 10
13.1985837943
 20
9.3801134074
 30
0.0
  0
SPLINE
  5
3E1
100
AcDbEntity
  8
0
100
AcDbSpline
 62
7
  6
CONTINUOUS
 70
0
 71
3
 72
50
 73
46
 74
0
 42
0.0000001
 43
0.0000001
 44
0.0000000001
 40
0.0
 40
0.0
 40
0.0
 40
0.0
 40
0.0053769953
 40
0.010820095
 40
0.0163928551
 40
0.0221541027
 40
0.0344342786
 40
0.041050046
 40
0.0480245491
 40
0.0553845306
 40
0.0631515343
 40
0.0713426836
 40
0.0799712541
 40
0.0890472758
 40
0.0985779865
 40
0.108568227
 40
0.1190207986
 40
0.1299366827
 40
0.1413153433
 40
0.1531548112
 40
0.1654519631
 40
0.1782025035
 40
0.191401239
 40
0.2050419855
 40
0.2191178449
 40
0.2485424278
 40
0.2796063452
 40
0.3122303189
 40
0.346326677
 40
0.3818003456
 40
0.4185496927
 40
0.4564672706
 40
0.4954404884
 40
0.5353522358
 40
0.5760814738
 40
0.6175038017
 40
0.6594920084
 40
0.7019166139
 40
0.7446464011
 40
0.7875489503
 40
0.8304911472
 40
0.873339762
 40
0.9159618242
 40
0.9582255132
 40
1.0
 40
1.0
 40
1.0
 40
1.0
 10
12.9860288912
 20
8.7730280546
 30
0.0
 10
12.9871787445
 20
8.7729483077
 30
0.0
 10
12.9895040566
 20
8.7729217932
 30
0.0
 10
12.9930064294
 20
8.7732832509
 30
0.0
 10
12.9965285403
 20
8.7740447718
 30
0.0
 10
13.001345846
 20
8.7756236614
 30
0.0
 10
13.0061018017
 20
8.778004092
 30
0.0
 10
13.0107405477
 20
8.7810479098
 30
0.0
 10
13.0143123374
 20
8.7837768069
 30
0.0
 10
13.017885812
 20
8.7868916438
 30
0.0
 10
13.0214593966
 20
8.7903901891
 30
0.0
 10
13.0250302217
 20
8.7942694755
 30
0.0
 10
13.0285957132
 20
8.7985263995
 30
0.0
 10
13.0321531035
 20
8.8031575445
 30
0.0
 10
13.0356996145
 20
8.8081591933
 30
0.0
 10
13.039232429
 20
8.8135273144
 30
0.0
 10
13.0427486897
 20
8.8192575731
 30
0.0
 10
13.0462455634
 20
8.8253453101
 30
0.0
 10
13.0497201654
 20
8.8317855767
 30
0.0
 10
13.0531696788
 20
8.8385731017
 30
0.0
 10
13.0565912239
 20
8.8457023386
 30
0.0
 10
13.0599820241
 20
8.8531674273
 30
0.0
 10
13.0633392201
 20
8.8609622428
 30
0.0
 10
13.0666601177
 20
8.8690803684
 30
0.0
 10
13.0711016012
 20
8.8804961059
 30
0.0
 10
13.0765294366
 20
8.8955328902
 30
0.0
 10
13.0827628288
 20
8.9144967164
 30
0.0
 10
13.0887880607
 20
8.9345754346
 30
0.0
 10
13.0945850554
 20
8.9557027983
 30
0.0
 10
13.1001344824
 20
8.9778092492
 30
0.0
 10
13.1054178496
 20
9.0008218439
 30
0.0
 10
13.1104175593
 20
9.0246646077
 30
0.0
 10
13.1151169681
 20
9.0492587727
 30
0.0
 10
13.1195004406
 20
9.0745230553
 30
0.0
 10
13.1235534006
 20
9.1003739307
 30
0.0
 10
13.1272623781
 20
9.126725915
 30
0.0
 10
13.1306150527
 20
9.153491853
 30
0.0
 10
13.1336002941
 20
9.1805832087
 30
0.0
 10
13.1362081983
 20
9.2079103632
 30
0.0
 10
13.1384301186
 20
9.2353829089
 30
0.0
 10
13.1402586984
 20
9.2629099628
 30
0.0
 10
13.1416878853
 20
9.2904004352
 30
0.0
 10
13.1427129711
 20
9.317763427
 30
0.0
 10
13.143330575
 20
9.3449082945
 30
0.0
 10
13.1434702821
 20
9.3629230402
 30
0.0
 10
13.1434702821
 20
9.3718778394
 30
0.0
  0
SPLINE
  5
3E2
100
AcDbEntity
  8
0
100
AcDbSpline
 62
7
  6
CONTINUOUS
 70
0
 71
3
 72
40
 73
36
 74
0
 42
0.0000001
 43
0.0000001
 44
0.0000000001
 40
0.0
 40
0.0
 40
0.0
 40
0.0
 40
0.0063160387
 40
0.0126709828
 40
0.0191029715
 40
0.0256486875
 40
0.0323427211
 40
0.0392172301
 40
0.0536154077
 40
0.0690525796
 40
0.0856859204
 40
0.103634241
 40
0.1229843769
 40
0.1437972775
 40
0.1661133128
 40
0.1899562556
 40
0.2153363298
 40
0.2422528122
 40
0.2706958135
 40
0.3006475326
 40
0.3320835436
 40
0.364973648
 40
0.3992823811
 40
0.4349697245
 40
0.4719916038
 40
0.5103001057
 40
0.5498439059
 40
0.5905686336
 40
0.6324169878
 40
0.6753290203
 40
0.7192424102
 40
0.7640925656
 40
0.8098130277
 40
0.9035866961
 40
1.0
 40
1.0
 40
1.0
 40
1.0
 10
13.0524455947
 20
8.2818389829
 30
0.0
 10
13.0532568845
 20
8.2817827167
 30
0.0
 10
13.0548806256
 20
8.2816034174
 30
0.0
 10
13.0572980455
 20
8.2811361355
 30
0.0
 10
13.0596993108
 20
8.2804704965
 30
0.0
 10
13.0620830006
 20
8.279606973
 30
0.0
 10
13.064448187
 20
8.2785461826
 30
0.0
 10
13.0676241185
 20
8.2768437099
 30
0.0
 10
13.0715540581
 20
8.2741927821
 30
0.0
 10
13.076099648
 20
8.2702851431
 30
0.0
 10
13.0805439904
 20
8.265611087
 30
0.0
 10
13.0848819043
 20
8.2601792245
 30
0.0
 10
13.0891086989
 20
8.253998062
 30
0.0
 10
13.0932188436
 20
8.2470771458
 30
0.0
 10
13.0972064973
 20
8.2394270954
 30
0.0
 10
13.1010656227
 20
8.2310598211
 30
0.0
 10
13.1047902063
 20
8.2219885417
 30
0.0
 10
13.1083742592
 20
8.2122277253
 30
0.0
 10
13.1118119213
 20
8.201793075
 30
0.0
 10
13.1150975687
 20
8.1907015066
 30
0.0
 10
13.1182257658
 20
8.178971073
 30
0.0
 10
13.1211912979
 20
8.1666209275
 30
0.0
 10
13.1239892554
 20
8.1536713008
 30
0.0
 10
13.1266149852
 20
8.14014344
 30
0.0
 10
13.1290640912
 20
8.1260595644
 30
0.0
 10
13.1313325047
 20
8.1114428392
 30
0.0
 10
13.1334164563
 20
8.0963173248
 30
0.0
 10
13.1353124546
 20
8.080707927
 30
0.0
 10
13.1370173426
 20
8.0646403636
 30
0.0
 10
13.1385282952
 20
8.048141119
 30
0.0
 10
13.1398427732
 20
8.0312374019
 30
0.0
 10
13.1409586102
 20
8.0139570487
 30
0.0
 10
13.1421893081
 20
7.9902526934
 30
0.0
 10
13.1432072795
 20
7.9598918803
 30
0.0
 10
13.1434702821
 20
7.9354029693
 30
0.0
 10
13.1434702821
 20
7.9229890142
 30
0.0
  0
SPLINE
  5
3E3
100
AcDbEntity
  8
0
100
AcDbSpline
 62
7
  6
CONTINUOUS
 70
0
 71
3
 72
55
 73
51
 74
0
 42
0.0000001
 43
0.0000001
 44
0.0000000001
 40
0.0
 40
0.0
 40
0.0
 40
0.0
 40
0.0095825819
 40
0.0187371424
 40
0.0274870077
 40
0.0358597765
 40
0.0515981845
 40
0.0590560109
 40
0.0662987855
 40
0.0733799977
 40
0.0803572919
 40
0.0872911216
 40
0.0942431942
 40
0.1012746911
 40
0.1084445784
 40
0.115808164
 40
0.1234161365
 40
0.1313138569
 40
0.1395413357
 40
0.1481331538
 40
0.1571189369
 40
0.166523697
 40
0.176368282
 40
0.1866699867
 40
0.1974427542
 40
0.2086978719
 40
0.2204440349
 40
0.2326878727
 40
0.2454341107
 40
0.2586857537
 40
0.2724444547
 40
0.2867103953
 40
0.3014827497
 40
0.3167595002
 40
0.332537753
 40
0.3655816089
 40
0.4005762908
 40
0.4374714424
 40
0.4762073351
 40
0.5167160364
 40
0.5589223426
 40
0.6027445495
 40
0.6480951047
 40
0.6948811777
 40
0.7430051698
 40
0.792365118
 40
0.8428554393
 40
0.8943663173
 40
0.946786822
 40
1.0
 40
1.0
 40
1.0
 40
1.0
 10
13.0639869027
 20
8.3083024325
 30
0.0
 10
13.065066848
 20
8.3093075268
 30
0.0
 10
13.0672257719
 20
8.3112230126
 30
0.0
 10
13.0705381481
 20
8.3138599041
 30
0.0
 10
13.0738474795
 20
8.3161918945
 30
0.0
 10
13.0781625046
 20
8.3188369657
 30
0.0
 10
13.0825646388
 20
8.3209490867
 30
0.0
 10
13.0870136049
 20
8.3224368091
 30
0.0
 10
13.0902788654
 20
8.3232207825
 30
0.0
 10
13.0935292226
 20
8.3236912773
 30
0.0
 10
13.0967623762
 20
8.3238477264
 30
0.0
 10
13.0999756301
 20
8.3236895686
 30
0.0
 10
13.103166273
 20
8.3232170125
 30
0.0
 10
13.106331654
 20
8.3224305649
 30
0.0
 10
13.1094693219
 20
8.3213312282
 30
0.0
 10
13.112577126
 20
8.319920344
 30
0.0
 10
13.1156531011
 20
8.3181992972
 30
0.0
 10
13.1186956077
 20
8.3161697644
 30
0.0
 10
13.1217030055
 20
8.3138332653
 30
0.0
 10
13.1246738591
 20
8.3111915462
 30
0.0
 10
13.1276066648
 20
8.3082462999
 30
0.0
 10
13.1304999478
 20
8.3049993575
 30
0.0
 10
13.1333522585
 20
8.3014526854
 30
0.0
 10
13.1361620232
 20
8.2976083222
 30
0.0
 10
13.1389278043
 20
8.2934685522
 30
0.0
 10
13.1416479936
 20
8.2890357323
 30
0.0
 10
13.1443211222
 20
8.2843124655
 30
0.0
 10
13.1469456356
 20
8.2793014822
 30
0.0
 10
13.1495200154
 20
8.2740057041
 30
0.0
 10
13.152042802
 20
8.2684282373
 30
0.0
 10
13.1545124569
 20
8.2625723339
 30
0.0
 10
13.1569275999
 20
8.2564414525
 30
0.0
 10
13.1592867313
 20
8.2500391892
 30
0.0
 10
13.1615885316
 20
8.2433693213
 30
0.0
 10
13.1646261039
 20
8.2339795022
 30
0.0
 10
13.16825704
 20
8.2215938245
 30
0.0
 10
13.1723002593
 20
8.2059503372
 30
0.0
 10
13.1760842678
 20
8.1893423074
 30
0.0
 10
13.1795999766
 20
8.1718090741
 30
0.0
 10
13.1828389047
 20
8.153392008
 30
0.0
 10
13.1857932399
 20
8.1341347242
 30
0.0
 10
13.1884558524
 20
8.1140828652
 30
0.0
 10
13.1908203158
 20
8.0932840091
 30
0.0
 10
13.1928809223
 20
8.0717875393
 30
0.0
 10
13.1946326973
 20
8.049644533
 30
0.0
 10
13.1960714208
 20
8.0269075937
 30
0.0
 10
13.1971935968
 20
8.0036308458
 30
0.0
 10
13.1979965466
 20
7.9798694729
 30
0.0
 10
13.198478268
 20
7.955680216
 30
0.0
 10
13.1985837943
 20
7.9394170665
 30
0.0
 10
13.1985837943
 20
7.9312245821
 30
0.0
  0
SPLINE
  5
3E4
100
AcDbEntity
  8
0
100
AcDbSpline
 62
7
  6
CONTINUOUS
 70
0
 71
3
 72
44
 73
40
 74
0
 42
0.0000001
 43
0.0000001
 44
0.0000000001
 40
0.0
 40
0.0
 40
0.0
 40
0.0
 40
0.0064765042
 40
0.0131233476
 40
0.0270149427
 40
0.0343061193
 40
0.0418492567
 40
0.0496594636
 40
0.0577500465
 40
0.0661326034
 40
0.0748170984
 40
0.0838121611
 40
0.0931251068
 40
0.1027620502
 40
0.1127281573
 40
0.1230275841
 40
0.1336636329
 40
0.1559539044
 40
0.1796130971
 40
0.2046444681
 40
0.2310435685
 40
0.2587993043
 40
0.2878949024
 40
0.3183086906
 40
0.3500146153
 40
0.3829826696
 40
0.4171793787
 40
0.4525681138
 40
0.4891092827
 40
0.5267606356
 40
0.565477512
 40
0.605212969
 40
0.6459179347
 40
0.6875414484
 40
0.7300307751
 40
0.7733314489
 40
0.8173876556
 40
0.9075341811
 40
1.0
 40
1.0
 40
1.0
 40
1.0
 10
13.1261155855
 20
8.4894473828
 30
0.0
 10
13.1271894073
 20
8.4889749317
 30
0.0
 10
13.129333224
 20
8.4879428805
 30
0.0
 10
13.1335989739
 20
8.4855398084
 30
0.0
 10
13.1377541857
 20
8.4826620097
 30
0.0
 10
13.1417845922
 20
8.4793686875
 30
0.0
 10
13.1448277733
 20
8.4766156665
 30
0.0
 10
13.1478408301
 20
8.4736211063
 30
0.0
 10
13.1508230424
 20
8.4703858845
 30
0.0
 10
13.1537733348
 20
8.4669112093
 30
0.0
 10
13.1566908017
 20
8.4631983417
 30
0.0
 10
13.1595744223
 20
8.4592485705
 30
0.0
 10
13.1624232226
 20
8.4550632917
 30
0.0
 10
13.1652362684
 20
8.4506440004
 30
0.0
 10
13.1680125357
 20
8.4459922282
 30
0.0
 10
13.1707511155
 20
8.4411096181
 30
0.0
 10
13.1744082512
 20
8.434185433
 30
0.0
 10
13.1788677016
 20
8.424952212
 30
0.0
 10
13.1839728187
 20
8.413148185
 30
0.0
 10
13.1889051329
 20
8.4004691167
 30
0.0
 10
13.1936576405
 20
8.3869329411
 30
0.0
 10
13.1982236186
 20
8.3725585878
 30
0.0
 10
13.2025965494
 20
8.3573663535
 30
0.0
 10
13.2067701492
 20
8.3413777213
 30
0.0
 10
13.2107384075
 20
8.3246153723
 30
0.0
 10
13.2144956274
 20
8.3071031395
 30
0.0
 10
13.2180363905
 20
8.2888659496
 30
0.0
 10
13.2213555738
 20
8.2699297859
 30
0.0
 10
13.2244484011
 20
8.2503216591
 30
0.0
 10
13.2273104171
 20
8.2300695567
 30
0.0
 10
13.2299374813
 20
8.2092023914
 30
0.0
 10
13.2323257991
 20
8.1877499697
 30
0.0
 10
13.2344719389
 20
8.1657429482
 30
0.0
 10
13.2363728025
 20
8.1432127758
 30
0.0
 10
13.2380256242
 20
8.1201916678
 30
0.0
 10
13.2394280631
 20
8.0967125018
 30
0.0
 10
13.2409730838
 20
8.0645959123
 30
0.0
 10
13.2422518542
 20
8.023553458
 30
0.0
 10
13.2425829956
 20
7.9904738864
 30
0.0
 10
13.2425829956
 20
7.9737245495
 30
0.0
  0
SPLINE
  5
3E5
100
AcDbEntity
  8
0
100
AcDbSpline
 62
7
  6
CONTINUOUS
 70
0
 71
3
 72
48
 73
44
 74
0
 42
0.0000001
 43
0.0000001
 44
0.0000000001
 40
0.0
 40
0.0
 40
0.0
 40
0.0
 40
0.0063158899
 40
0.0126706797
 40
0.0191025165
 40
0.025648058
 40
0.0323419221
 40
0.0392162652
 40
0.0536140552
 40
0.0611947659
 40
0.0690564915
 40
0.0772175997
 40
0.0856939645
 40
0.0944993396
 40
0.103645447
 40
0.1131421893
 40
0.122997946
 40
0.1332195527
 40
0.1438126331
 40
0.1547816545
 40
0.1661299881
 40
0.1778601838
 40
0.1899738557
 40
0.215353302
 40
0.2422691224
 40
0.2707113841
 40
0.3006623731
 40
0.332097648
 40
0.3649869327
 40
0.3992948208
 40
0.434981328
 40
0.4720023222
 40
0.5103099054
 40
0.5498527799
 40
0.590576537
 40
0.632423903
 40
0.6753349407
 40
0.7192473098
 40
0.7640964278
 40
0.8098157282
 40
0.8563368617
 40
0.9035891153
 40
1.0
 40
1.0
 40
1.0
 40
1.0
 10
13.1416960776
 20
8.4911658338
 30
0.0
 10
13.1428707598
 20
8.4910843745
 30
0.0
 10
13.1452218069
 20
8.490824797
 30
0.0
 10
13.1487220423
 20
8.4901482532
 30
0.0
 10
13.1521988719
 20
8.4891844492
 30
0.0
 10
13.1556502714
 20
8.4879342131
 30
0.0
 10
13.1590748994
 20
8.4863982742
 30
0.0
 10
13.1636732272
 20
8.483933333
 30
0.0
 10
13.1681467121
 20
8.4809159139
 30
0.0
 10
13.172475879
 20
8.4774191512
 30
0.0
 10
13.1757458802
 20
8.4744709839
 30
0.0
 10
13.1789809385
 20
8.4712441833
 30
0.0
 10
13.1821802887
 20
8.4677399394
 30
0.0
 10
13.1853425907
 20
8.4639597371
 30
0.0
 10
13.1884666877
 20
8.4599051199
 30
0.0
 10
13.1915514064
 20
8.4555777623
 30
0.0
 10
13.1945954924
 20
8.450979384
 30
0.0
 10
13.1975978062
 20
8.4461118823
 30
0.0
 10
13.2005571288
 20
8.4409772146
 30
0.0
 10
13.2034722658
 20
8.4355774609
 30
0.0
 10
13.2063420802
 20
8.4299148366
 30
0.0
 10
13.2091653862
 20
8.4239916143
 30
0.0
 10
13.212924748
 20
8.4156192922
 30
0.0
 10
13.2174869276
 20
8.4045077079
 30
0.0
 10
13.2226763323
 20
8.390375018
 30
0.0
 10
13.2276538178
 20
8.3752664834
 30
0.0
 10
13.2324111712
 20
8.3592068273
 30
0.0
 10
13.236940539
 20
8.3422221223
 30
0.0
 10
13.2412344072
 20
8.3243401384
 30
0.0
 10
13.2452856362
 20
8.3055901513
 30
0.0
 10
13.2490874754
 20
8.286002919
 30
0.0
 10
13.2526335905
 20
8.265610621
 30
0.0
 10
13.2559180801
 20
8.2444467999
 30
0.0
 10
13.2589354709
 20
8.2225462912
 30
0.0
 10
13.2616807321
 20
8.1999451577
 30
0.0
 10
13.2641492814
 20
8.1766806353
 30
0.0
 10
13.2663370117
 20
8.1527910688
 30
0.0
 10
13.2682402771
 20
8.1283158506
 30
0.0
 10
13.2698559075
 20
8.1032953329
 30
0.0
 10
13.2711811964
 20
8.0777707778
 30
0.0
 10
13.272213946
 20
8.0517843018
 30
0.0
 10
13.2732051117
 20
8.016340578
 30
0.0
 10
13.2734926246
 20
7.9895553276
 30
0.0
 10
13.2734926246
 20
7.9715809595
 30
0.0
  0
ENDSEC
  0
SECTION
  2
OBJECTS
  0
DICTIONARY
  5
C
100
AcDbDictionary
280
0
281
1
  3
ACAD_GROUP
350
D
  3
ACAD_MLINESTYLE
350
17
  3
ACAD_LAYOUT
350
1A
  3
ACAD_PLOTSETTINGS
350
19
  3
ACAD_PLOTSTYLENAME
350
E
  3
ACAD_IMAGE_DICT
350
       3E7
  3
ACAD_IMAGE_VARS
350
       3E8
  3
ACAD_TABLESTYLE
350
       3E9
  0
IMAGEDEF_REACTOR
  5
3E6
100
AcDbRasterImageDefReactor
 90
2
330
28B
  0
DICTIONARY
  5
D
102
{ACAD_REACTORS
330
C
102
}
100
AcDbDictionary
280
0
281
1
  0
ACDBDICTIONARYWDFLT
  5
E
102
{ACAD_REACTORS
330
C
102
}
100
AcDbDictionary
281
1
  3
Normal
350
F
100
AcDbDictionaryWithDefault
340
F
  0
DICTIONARY
  5
3E7
330
C
100
AcDbDictionary
281
1
  3
BPW_assy_2_img_1
350
       3EC
  0
RASTERVARIABLES
  5
3E8
330
C
100
AcDbRasterVariables
 90
0
 70
0
 71
1
 72
5
  0
DICTIONARY
  5
17
102
{ACAD_REACTORS
330
C
102
}
100
AcDbDictionary
280
0
281
1
  3
Standard
350
18
  0
DICTIONARY
  5
3E9
330
C
100
AcDbDictionary
281
1
  3
Standard
350
       3ED
  3
Standard1
350
       3EE
  0
DICTIONARY
  5
19
102
{ACAD_REACTORS
330
C
102
}
100
AcDbDictionary
281
1
  0
DICTIONARY
  5
1A
102
{ACAD_REACTORS
330
C
102
}
100
AcDbDictionary
281
1
  3
Model
350
3EA
  3
Layout1
350
3EB
  0
ACDBPLACEHOLDER
  5
F
102
{ACAD_REACTORS
330
E
102
}
  0
MLINESTYLE
  5
18
102
{ACAD_REACTORS
330
17
102
}
100
AcDbMlineStyle
  2
STANDARD
 70
0
  3

 62
256
 51
90.0
 52
90.0
 71
2
 49
0.5
 62
256
  6
BYLAYER
 49
-0.5
 62
256
  6
BYLAYER
  0
LAYOUT
  5
3EA
102
{ACAD_REACTORS
330
1A
102
}
100
AcDbPlotSettings
  1

  2
none_device
  4
ANSI_C_(22.00_x_17.00_Inches)
  6

 40
0.0
 41
0.0
 42
0.0
 43
0.0
 44
558.8
 45
431.8
 46
0.0
 47
0.0
 48
0.0
 49
0.0
140
0.0
141
0.0
142
1.0
143
1.0
 70
1024
 72
0
 73
0
 74
0
  7

 75
0
147
1.0
148
0.0
149
0.0
100
AcDbLayout
  1
Model
 70
0
 71
0
 10
0.0
 20
0.0
 11
22.0
 21
17.0
 12
0.0
 22
0.0
 32
0.0
 14
0.0
 24
0.0
 34
0.0
 15
0.0
 25
0.0
 35
0.0
146
0.0
 13
0.0
 23
0.0
 33
0.0
 16
1.0
 26
0.0
 36
0.0
 17
0.0
 27
1.0
 37
0.0
 76
0
330
20C
345
0
346
0
  0
LAYOUT
  5
3EB
102
{ACAD_REACTORS
330
1A
102
}
100
AcDbPlotSettings
  1

  2
none_device
  4
ANSI_C_(22.00_x_17.00_Inches)
  6

 40
0.0
 41
0.0
 42
0.0
 43
0.0
 44
558.8
 45
431.8
 46
0.0
 47
0.0
 48
0.0
 49
0.0
140
0.0
141
0.0
142
1.0
143
1.0
 70
0
 72
0
 73
0
 74
0
  7

 75
0
147
1.0
148
0.0
149
0.0
100
AcDbLayout
  1
Layout1
 70
0
 71
1
 10
0.0
 20
0.0
 11
22.0
 21
17.0
 12
0.0
 22
0.0
 32
0.0
 14
0.0
 24
0.0
 34
0.0
 15
0.0
 25
0.0
 35
0.0
146
0.0
 13
0.0
 23
0.0
 33
0.0
 16
1.0
 26
0.0
 36
0.0
 17
0.0
 27
1.0
 37
0.0
 76
0
330
20D
345
0
346
0
  0
IMAGEDEF
  5
3EC
102
{ACAD_REACTORS
330
3E7
330
3E6
102
}
100
AcDbRasterImageDef
 90
0
  1
BPW_assy_2_img_1.png
 10
369.0
 20
92.0
 11
0.0066666667
 21
0.0066666667
280
1
281
0
  0
TABLESTYLE
  5
3ED
102
{ACAD_REACTORS
330
3E9
330
28E
330
28F
102
}
330
3E9
100
AcDbTableStyle
  3
Standard
 70
0
 71
0
 40
0.06
 41
0.06
280
1
281
1
  7
Standard
140
0.18
170
1
 62
0
 63
7
283
0
  7
Standard
140
0.18
170
1
 62
0
 63
7
283
0
  7
Standard
140
0.18
170
1
 62
0
 63
7
283
0
  0
TABLESTYLE
  5
3EE
102
{ACAD_REACTORS
330
3E9
330
28D
102
}
330
3E9
100
AcDbTableStyle
  3
Standard1
 70
1
 71
0
 40
0.06
 41
0.06
280
1
281
1
  7
Standard
140
0.18
170
1
 62
0
 63
7
283
0
  7
Standard
140
0.18
170
1
 62
0
 63
7
283
0
  7
Standard
140
0.18
170
1
 62
0
 63
7
283
0
  0
ENDSEC
  0
EOF
