999
DXF file: BPL_assy_2.dxf
999
Pro/ENGINEER 2014200 by Parametric Technology Corporation
  0
SECTION
  2
HEADER
  9
$ACADVER
  1
AC1021
  9
$DWGCODEPAGE
  3
ANSI_1252
  9
$EXTMAX
 10
22.0
 20
17.0
 30
0.0
  9
$EXTMIN
 10
0.0
 20
0.0
 30
0.0
  9
$LIMMIN
 10
0.0
 20
0.0
  9
$LIMMAX
 10
22.0
 20
17.0
  9
$VIEWCTR
 10
11.0
 20
8.5
  9
$VIEWSIZE
 40
17.0
  9
$CLAYER
  8
0
  9
$LTSCALE
 40
1.21
  9
$CELTYPE
  6
BYLAYER
  9
$DIMSCALE
 40
1.0
  9
$DIMASZ
 40
0.1875
  9
$DIMEXO
 40
0.0625
  9
$DIMDLI
 40
0.836
  9
$DIMEXE
 40
0.125
  9
$DIMCEN
 40
0.198
  9
$DIMLFAC
 40
1.0
  9
$DIMBLK
  1
_FILLED
  9
$DIMTXT
 40
0.1
  9
$DIMTOL
 70
0
  9
$DIMLIM
 70
0
  9
$DIMTFAC
 40
1.0
  9
$DIMGAP
 40
0.09
  9
$DIMDSEP
 70
46
  9
$AUNITS
 70
0
  9
$PDMODE
 70
3
  9
$PDSIZE
 40
0.3125
  9
$HANDSEED
  5
3F1
  9
$TILEMODE
 70
1
  9
$MEASUREMENT
 70
0
  9
$INSUNITS
 70
1
  0
ENDSEC
  0
SECTION
  2
CLASSES
  0
CLASS
  1
ACDBDICTIONARYWDFLT
  2
AcDbDictionaryWithDefault
  3
AutoCAD 2000
 90
0
 91
1
280
0
281
0
  0
CLASS
  1
ACDBPLACEHOLDER
  2
AcDbPlaceHolder
  3
AutoCAD 2000
 90
0
 91
1
280
0
281
0
  0
CLASS
  1
LAYOUT
  2
AcDbLayout
  3
AutoCAD 2000
 90
0
 91
0
280
0
281
0
  0
CLASS
  1
RASTERVARIABLES
  2
AcDbRasterVariables
  3
ISM
 90
0
 91
1
280
0
281
0
  0
CLASS
  1
IMAGEDEF
  2
AcDbRasterImageDef
  3
ISM
 90
0
 91
1
280
0
281
0
  0
CLASS
  1
IMAGEDEF_REACTOR
  2
AcDbRasterImageDefReactor
  3
ISM
 90
0
 91
1
280
0
281
0
  0
CLASS
  1
IMAGE
  2
AcDbRasterImage
  3
ISM
 90
127
 91
1
280
0
281
1
  0
CLASS
  1
TABLESTYLE
  2
AcDbTableStyle
  3
ObjectDBX Classes
 90
2047
 91
1
280
0
281
0
  0
CLASS
  1
ACAD_TABLE
  2
AcDbTable
  3
ObjectDBX Classes
 90
1025
 91
3
280
0
281
1
  0
ENDSEC
  0
SECTION
  2
TABLES
  0
TABLE
  2
VPORT
  5
8
100
AcDbSymbolTable
 70
2
  0
VPORT
  5
1F4
100
AcDbSymbolTableRecord
100
AcDbViewportTableRecord
  2
*ACTIVE
 70
0
 10
0.0
 20
0.0
 11
1.0
 21
1.0
 12
11.0
 22
8.5
 13
0.0
 23
0.0
 14
1.0
 24
1.0
 15
0.0
 25
0.0
 16
0.0
 26
0.0
 36
1.0
 17
0.0
 27
0.0
 37
0.0
 40
17.0
 41
1.2941176471
 42
50.0
 43
0.0
 44
0.0
 50
0.0
 51
0.0
 71
0
 72
100
 73
1
 74
1
 75
0
 76
0
 77
0
 78
0
  0
ENDTAB
  0
TABLE
  2
LTYPE
  5
5
100
AcDbSymbolTable
 70
6
  0
LTYPE
  5
14
100
AcDbSymbolTableRecord
100
AcDbLinetypeTableRecord
  2
BYBLOCK
 70
0
  3

 72
65
 73
0
 40
0.0
  0
LTYPE
  5
15
100
AcDbSymbolTableRecord
100
AcDbLinetypeTableRecord
  2
BYLAYER
 70
0
  3

 72
65
 73
0
 40
0.0
  0
LTYPE
  5
16
100
AcDbSymbolTableRecord
100
AcDbLinetypeTableRecord
  2
CONTINUOUS
 70
64
  3
Solid line
 72
65
 73
0
 40
0.0
  0
LTYPE
  5
1F5
100
AcDbSymbolTableRecord
100
AcDbLinetypeTableRecord
  2
CENTER
 70
64
  3
____ _ ____ _ ____ _ ____ _ ____ _ ____ _ ____
 72
65
 73
4
 40
0.6
 49
0.375
 74
0
 49
-0.075
 74
0
 49
0.075
 74
0
 49
-0.075
 74
0
  0
LTYPE
  5
1F6
100
AcDbSymbolTableRecord
100
AcDbLinetypeTableRecord
  2
HIDDEN
 70
64
  3
- - - - - - - - - - - - - - - - - - - -
 72
65
 73
2
 40
0.2
 49
0.1
 74
0
 49
-0.1
 74
0
  0
LTYPE
  5
1F7
100
AcDbSymbolTableRecord
100
AcDbLinetypeTableRecord
  2
PHANTOM
 70
64
  3
_____ _ _ _____ _ _ _____ _ _ _____
 72
65
 73
6
 40
0.8
 49
0.45
 74
0
 49
-0.05
 74
0
 49
0.1
 74
0
 49
-0.05
 74
0
 49
0.1
 74
0
 49
-0.05
 74
0
  0
LTYPE
  5
1F8
100
AcDbSymbolTableRecord
100
AcDbLinetypeTableRecord
  2
DOT
 70
64
  3
. . . . . . . . . . . . . . . . . . . .
 72
65
 73
2
 40
0.2
 49
0.1
 74
0
 49
-0.1
 74
0
  0
LTYPE
  5
1F9
100
AcDbSymbolTableRecord
100
AcDbLinetypeTableRecord
  2
DASHED
 70
64
  3
- - - - - - - - - - - - - - - - - - - -
 72
65
 73
2
 40
0.2
 49
0.1
 74
0
 49
-0.1
 74
0
  0
ENDTAB
  0
TABLE
  2
LAYER
  5
2
100
AcDbSymbolTable
 70
36
  0
LAYER
  5
10
100
AcDbSymbolTableRecord
100
AcDbLayerTableRecord
  2
0
 70
0
 62
7
  6
CONTINUOUS
370
-3
390
F
  0
LAYER
  5
1FA
100
AcDbSymbolTableRecord
100
AcDbLayerTableRecord
  2
DEFAULT_1
 70
0
 62
7
  6
CENTER
370
-3
390
F
  0
LAYER
  5
1FB
100
AcDbSymbolTableRecord
100
AcDbLayerTableRecord
  2
DEFAULT_2
 70
0
 62
8
  6
HIDDEN
370
-3
390
F
  0
LAYER
  5
1FC
100
AcDbSymbolTableRecord
100
AcDbLayerTableRecord
  2
DEFAULT_3
 70
0
 62
7
  6
PHANTOM
370
-3
390
F
  0
LAYER
  5
1FD
100
AcDbSymbolTableRecord
100
AcDbLayerTableRecord
  2
01___PRT_ALL_DTM_PLN
 70
0
 62
7
  6
CONTINUOUS
370
-3
390
F
  0
LAYER
  5
1FE
100
AcDbSymbolTableRecord
100
AcDbLayerTableRecord
  2
01___PRT_DEF_DTM_PLN
 70
0
 62
7
  6
CONTINUOUS
370
-3
390
F
  0
LAYER
  5
1FF
100
AcDbSymbolTableRecord
100
AcDbLayerTableRecord
  2
02___PRT_ALL_AXES
 70
0
 62
7
  6
CONTINUOUS
370
-3
390
F
  0
LAYER
  5
200
100
AcDbSymbolTableRecord
100
AcDbLayerTableRecord
  2
03___PRT_ALL_CURVES
 70
0
 62
7
  6
CONTINUOUS
370
-3
390
F
  0
LAYER
  5
201
100
AcDbSymbolTableRecord
100
AcDbLayerTableRecord
  2
04___PRT_ALL_DTM_PNT
 70
0
 62
7
  6
CONTINUOUS
370
-3
390
F
  0
LAYER
  5
202
100
AcDbSymbolTableRecord
100
AcDbLayerTableRecord
  2
05___PRT_ALL_DTM_CSYS
 70
0
 62
7
  6
CONTINUOUS
370
-3
390
F
  0
LAYER
  5
203
100
AcDbSymbolTableRecord
100
AcDbLayerTableRecord
  2
05___PRT_DEF_DTM_CSYS
 70
0
 62
7
  6
CONTINUOUS
370
-3
390
F
  0
LAYER
  5
204
100
AcDbSymbolTableRecord
100
AcDbLayerTableRecord
  2
06___PRT_ALL_SURFS
 70
0
 62
7
  6
CONTINUOUS
370
-3
390
F
  0
LAYER
  5
205
100
AcDbSymbolTableRecord
100
AcDbLayerTableRecord
  2
DATUM_PLANES
 70
0
 62
7
  6
CONTINUOUS
370
-3
390
F
  0
LAYER
  5
206
100
AcDbSymbolTableRecord
100
AcDbLayerTableRecord
  2
PORT_AREAS
 70
0
 62
7
  6
CONTINUOUS
370
-3
390
F
  0
LAYER
  5
207
100
AcDbSymbolTableRecord
100
AcDbLayerTableRecord
  2
SUNNBOMCOSMETIC
 70
0
 62
7
  6
CONTINUOUS
370
-3
390
F
  0
LAYER
  5
208
100
AcDbSymbolTableRecord
100
AcDbLayerTableRecord
  2
SUNNBOMSTAMPING
 70
0
 62
7
  6
CONTINUOUS
370
-3
390
F
  0
LAYER
  5
209
100
AcDbSymbolTableRecord
100
AcDbLayerTableRecord
  2
THREADS
 70
0
 62
7
  6
CONTINUOUS
370
-3
390
F
  0
ENDTAB
  0
TABLE
  2
STYLE
  5
3
100
AcDbSymbolTable
 70
1
  0
STYLE
  5
11
100
AcDbSymbolTableRecord
100
AcDbTextStyleTableRecord
  2
STANDARD
 70
0
 40
0.0
 41
0.8
 50
0.0
 71
0
 42
0.2
  3
txt
  4

  0
STYLE
  5
20A
100
AcDbSymbolTableRecord
100
AcDbTextStyleTableRecord
  2
TEXTSTYLE_1
 70
0
 40
0.0
 41
0.8
 50
0.0
 71
0
 42
0.2
  3
gdt
  4

  0
ENDTAB
  0
TABLE
  2
VIEW
  5
6
100
AcDbSymbolTable
 70
0
  0
ENDTAB
  0
TABLE
  2
UCS
  5
7
100
AcDbSymbolTable
 70
0
  0
ENDTAB
  0
TABLE
  2
APPID
  5
9
100
AcDbSymbolTable
 70
1
  0
APPID
  5
20B
100
AcDbSymbolTableRecord
100
AcDbRegAppTableRecord
  2
ACAD
 70
0
  0
ENDTAB
  0
TABLE
  2
BLOCK_RECORD
  5
1
100
AcDbSymbolTable
 70
0
  0
BLOCK_RECORD
  5
20C
100
AcDbSymbolTableRecord
100
AcDbBlockTableRecord
  2
*Model_Space
  0
BLOCK_RECORD
  5
20D
100
AcDbSymbolTableRecord
100
AcDbBlockTableRecord
  2
*Paper_Space
  0
BLOCK_RECORD
  5
20E
100
AcDbSymbolTableRecord
100
AcDbBlockTableRecord
  2
SUN_FIRST_THIRD_ANGLE_BL0
  0
BLOCK_RECORD
  5
20F
100
AcDbSymbolTableRecord
100
AcDbBlockTableRecord
  2
*T1
  0
BLOCK_RECORD
  5
210
100
AcDbSymbolTableRecord
100
AcDbBlockTableRecord
  2
*T2
  0
BLOCK_RECORD
  5
211
100
AcDbSymbolTableRecord
100
AcDbBlockTableRecord
  2
*T3
  0
ENDTAB
  0
TABLE
  2
DIMSTYLE
  5
A
100
AcDbSymbolTable
 70
1
100
AcDbDimStyleTable
 71
0
  0
DIMSTYLE
105
212
100
AcDbSymbolTableRecord
100
AcDbDimStyleTableRecord
  2
STANDARD
 70
0
  3

  4

 40
1.0
 41
0.1875
 42
0.0625
 43
0.38
 44
0.125
 45
0.0
 46
0.0
 47
0.001
 48
0.001
140
0.1
141
0.09
142
0.0
143
25.4
144
1.0
145
0.0
146
1.0
147
0.09
 71
0.0
 72
0.0
 73
1
 74
1
 75
0
 76
0
 77
0
 78
4
170
0
171
2
172
0
173
0
174
0
175
0
176
0
177
0
178
0
270
2
271
3
272
3
273
2
274
2
275
0
280
0
281
0
282
0
283
1
284
4
285
0
286
0
287
3
288
0
340
11
278
46
  0
ENDTAB
  0
ENDSEC
  0
SECTION
  2
BLOCKS
  0
BLOCK
  5
20
100
AcDbEntity
  8
0
100
AcDbBlockBegin
  2
*Model_Space
 70
0
 10
0.0
 20
0.0
 30
0.0
  3
*Model_Space
  1

  0
ENDBLK
  5
21
100
AcDbEntity
  8
0
100
AcDbBlockEnd
  0
BLOCK
  5
1C
100
AcDbEntity
  8
0
100
AcDbBlockBegin
  2
*Paper_Space
 70
0
 10
0.0
 20
0.0
 30
0.0
  3
*Paper_Space
  1

  0
ENDBLK
  5
1D
100
AcDbEntity
  8
0
100
AcDbBlockEnd
  0
BLOCK
  5
213
100
AcDbEntity
  8
0
100
AcDbBlockBegin
 62
2
  6
CONTINUOUS
  2
SUN_FIRST_THIRD_ANGLE_BL0
 70
64
 10
20.4816717061
 20
1.2289683772
  3
SUN_FIRST_THIRD_ANGLE_BL0
  1

  0
TEXT
  5
214
100
AcDbEntity
  8
0
100
AcDbText
 62
2
  6
CONTINUOUS
 10
19.4750896608
 20
1.4136269581
  7
STANDARD
 40
0.08
  1
FIRST ANGLE
 41
0.8
 72
0
100
AcDbText
  0
TEXT
  5
215
100
AcDbEntity
  8
0
100
AcDbText
 62
2
  6
CONTINUOUS
 10
20.7842537513
 20
1.4047600029
  7
STANDARD
 40
0.08
  1
THIRD ANGLE
 41
0.8
 72
0
100
AcDbText
  0
LINE
  5
216
100
AcDbEntity
  8
0
100
AcDbLine
 62
7
  6
CONTINUOUS
 10
19.4767170086
 20
1.1727031207
 11
19.6334271527
 21
1.1717972817
  0
LINE
  5
217
100
AcDbEntity
  8
0
100
AcDbLine
 62
7
  6
CONTINUOUS
 10
19.6596964832
 20
1.1717972817
 11
19.6950230232
 21
1.171593082
  0
LINE
  5
218
100
AcDbEntity
  8
0
100
AcDbLine
 62
7
  6
CONTINUOUS
 10
19.7194818561
 20
1.1708914427
 11
19.8852396156
 21
1.1699333054
  0
LINE
  5
219
100
AcDbEntity
  8
0
100
AcDbLine
 62
7
  6
CONTINUOUS
 10
19.4758111696
 20
1.2723454088
 11
19.88525039
 21
1.3511534004
  0
LINE
  5
21A
100
AcDbEntity
  8
0
100
AcDbLine
 62
7
  6
CONTINUOUS
 10
19.88525039
 20
1.3511534004
 11
19.8831348489
 21
0.9851647912
  0
LINE
  5
21B
100
AcDbEntity
  8
0
100
AcDbLine
 62
7
  6
CONTINUOUS
 10
19.8831348489
 20
0.9851647912
 11
19.4767170086
 21
1.0658141206
  0
LINE
  5
21C
100
AcDbEntity
  8
0
100
AcDbLine
 62
7
  6
CONTINUOUS
 10
19.4767170086
 20
1.0658141206
 11
19.4779056764
 21
1.2714536432
  0
CIRCLE
  5
21D
100
AcDbEntity
  8
0
100
AcDbCircle
 62
7
  6
CONTINUOUS
 10
20.2068232291
 20
1.1717972817
 40
0.175742101
  0
CIRCLE
  5
21E
100
AcDbEntity
  8
0
100
AcDbCircle
 62
7
  6
CONTINUOUS
 10
20.2068232291
 20
1.1717972817
 40
0.1005522074
  0
LINE
  5
21F
100
AcDbEntity
  8
0
100
AcDbLine
 62
7
  6
CONTINUOUS
 10
20.2077290681
 20
1.3756110529
 11
20.2071171714
 21
1.2379342989
  0
LINE
  5
220
100
AcDbEntity
  8
0
100
AcDbLine
 62
7
  6
CONTINUOUS
 10
20.2077290681
 20
1.2016899681
 11
20.2074674401
 21
1.1428236749
  0
LINE
  5
221
100
AcDbEntity
  8
0
100
AcDbLine
 62
7
  6
CONTINUOUS
 10
20.208634907
 20
1.101141841
 11
20.2080230104
 21
0.963465087
  0
LINE
  5
222
100
AcDbEntity
  8
0
100
AcDbLine
 62
7
  6
CONTINUOUS
 10
20.0066328138
 20
1.1745147986
 11
20.1443095678
 21
1.1739029019
  0
LINE
  5
223
100
AcDbEntity
  8
0
100
AcDbLine
 62
7
  6
CONTINUOUS
 10
20.1832714155
 20
1.1727031207
 11
20.238153505
 21
1.172335442
  0
LINE
  5
224
100
AcDbEntity
  8
0
100
AcDbLine
 62
7
  6
CONTINUOUS
 10
20.2756669918
 20
1.1717972817
 11
20.407916871
 21
1.1712095044
  0
CIRCLE
  5
225
100
AcDbEntity
  8
0
100
AcDbCircle
 62
7
  6
CONTINUOUS
 10
20.7509457401
 20
1.1693297793
 40
0.1722024983
  0
CIRCLE
  5
226
100
AcDbEntity
  8
0
100
AcDbCircle
 62
7
  6
CONTINUOUS
 10
20.7509457401
 20
1.1693297793
 40
0.0985164967
  0
LINE
  5
227
100
AcDbEntity
  8
0
100
AcDbLine
 62
7
  6
CONTINUOUS
 10
20.7169767782
 20
1.170462078
 11
20.7825395137
 21
1.1682766535
  0
LINE
  5
228
100
AcDbEntity
  8
0
100
AcDbLine
 62
7
  6
CONTINUOUS
 10
20.8177513651
 20
1.1693297793
 11
20.947965719
 21
1.1693297793
  0
LINE
  5
229
100
AcDbEntity
  8
0
100
AcDbLine
 62
7
  6
CONTINUOUS
 10
20.6875370113
 20
1.170462078
 11
20.5573226574
 21
1.170462078
  0
LINE
  5
22A
100
AcDbEntity
  8
0
100
AcDbLine
 62
7
  6
CONTINUOUS
 10
20.7486811426
 20
1.1987695462
 11
20.7486811426
 21
1.1432869085
  0
LINE
  5
22B
100
AcDbEntity
  8
0
100
AcDbLine
 62
7
  6
CONTINUOUS
 10
20.7498134414
 20
1.1059210505
 11
20.7498134414
 21
0.9757066966
  0
LINE
  5
22C
100
AcDbEntity
  8
0
100
AcDbLine
 62
7
  6
CONTINUOUS
 10
20.7486811426
 20
1.2338708068
 11
20.7486811426
 21
1.3640851607
  0
LINE
  5
22D
100
AcDbEntity
  8
0
100
AcDbLine
 62
7
  6
CONTINUOUS
 10
21.0702539817
 20
1.2701043662
 11
21.4790138229
 21
1.3448360823
  0
LINE
  5
22E
100
AcDbEntity
  8
0
100
AcDbLine
 62
7
  6
CONTINUOUS
 10
21.4790138229
 20
1.3448360823
 11
21.4790138229
 21
0.9779712941
  0
LINE
  5
22F
100
AcDbEntity
  8
0
100
AcDbLine
 62
7
  6
CONTINUOUS
 10
21.4790138229
 20
0.9779712941
 11
21.069121683
 21
1.0617614
  0
LINE
  5
230
100
AcDbEntity
  8
0
100
AcDbLine
 62
7
  6
CONTINUOUS
 10
21.0702539817
 20
1.2701043662
 11
21.069121683
 21
1.0617614
  0
LINE
  5
231
100
AcDbEntity
  8
0
100
AcDbLine
 62
7
  6
CONTINUOUS
 10
21.4790138229
 20
1.1693297793
 11
21.3159628059
 21
1.1693297793
  0
LINE
  5
232
100
AcDbEntity
  8
0
100
AcDbLine
 62
7
  6
CONTINUOUS
 10
21.2876553377
 20
1.1693297793
 11
21.2502894796
 21
1.1693297793
  0
LINE
  5
233
100
AcDbEntity
  8
0
100
AcDbLine
 62
7
  6
CONTINUOUS
 10
21.2208497126
 20
1.1659328831
 11
21.0713862804
 21
1.1659328831
  0
LINE
  5
234
100
AcDbEntity
  8
0
100
AcDbLine
 62
7
  6
CONTINUOUS
 10
20.4796138713
 20
1.5284908897
 11
20.4766766948
 21
0.9294458646
  0
ENDBLK
  5
235
100
AcDbEntity
  8
0
  6
BYBLOCK
 62
0
100
AcDbBlockEnd
  0
BLOCK
  5
236
100
AcDbEntity
  8
0
100
AcDbBlockBegin
  2
*T1
 70
1
 10
0.0
 20
0.0
  3
*T1
  1

  0
LINE
  5
237
100
AcDbEntity
  8
0
100
AcDbLine
 62
2
  6
CONTINUOUS
 10
9.275
 20
0.0
 11
-0.0
 21
0.0
  0
LINE
  5
238
100
AcDbEntity
  8
0
100
AcDbLine
 62
2
  6
CONTINUOUS
 10
9.275
 20
0.0
 11
9.275
 21
1.25
  0
LINE
  5
239
100
AcDbEntity
  8
0
100
AcDbLine
 62
2
  6
CONTINUOUS
 10
9.275
 20
0.625
 11
-0.0
 21
0.625
  0
LINE
  5
23A
100
AcDbEntity
  8
0
100
AcDbLine
 62
2
  6
CONTINUOUS
 10
9.275
 20
1.25
 11
-0.0
 21
1.25
  0
LINE
  5
23B
100
AcDbEntity
  8
0
100
AcDbLine
 62
2
  6
CONTINUOUS
 10
6.8
 20
0.0
 11
6.8
 21
1.25
  0
LINE
  5
23C
100
AcDbEntity
  8
0
100
AcDbLine
 62
2
  6
CONTINUOUS
 10
6.4
 20
0.0
 11
6.4
 21
0.625
  0
LINE
  5
23D
100
AcDbEntity
  8
0
100
AcDbLine
 62
2
  6
CONTINUOUS
 10
5.9
 20
0.0
 11
5.9
 21
0.625
  0
LINE
  5
23E
100
AcDbEntity
  8
0
100
AcDbLine
 62
2
  6
CONTINUOUS
 10
5.2
 20
0.0
 11
5.2
 21
0.625
  0
LINE
  5
23F
100
AcDbEntity
  8
0
100
AcDbLine
 62
2
  6
CONTINUOUS
 10
4.1
 20
0.0
 11
4.1
 21
1.25
  0
LINE
  5
240
100
AcDbEntity
  8
0
100
AcDbLine
 62
2
  6
CONTINUOUS
 10
-0.0
 20
0.0
 11
-0.0
 21
1.25
  0
MTEXT
  5
241
100
AcDbEntity
  8
0
100
AcDbMText
 62
2
  6
CONTINUOUS
  7
STANDARD
 71
2
 72
1
 10
6.6
 20
0.325
 30
0.0
 11
1.0
 21
0.0
 31
0.0
 44
0.9
  1
2
 40
0.125
 41
0.2
  0
MTEXT
  5
242
100
AcDbEntity
  8
0
100
AcDbMText
 62
2
  6
CONTINUOUS
  7
STANDARD
 71
2
 72
1
 10
6.15
 20
0.325
 30
0.0
 11
1.0
 21
0.0
 31
0.0
 44
0.9
  1
C
 40
0.125
 41
0.2
  0
MTEXT
  5
243
100
AcDbEntity
  8
0
100
AcDbMText
 62
2
  6
CONTINUOUS
  7
STANDARD
 71
2
 72
1
 10
5.55
 20
0.325
 30
0.0
 11
1.0
 21
0.0
 31
0.0
 44
0.9
  1
1.000
 40
0.125
 41
1.0
  0
MTEXT
  5
244
100
AcDbEntity
  8
0
100
AcDbMText
 62
2
  6
CONTINUOUS
  7
STANDARD
 71
2
 72
1
 10
4.65
 20
0.325
 30
0.0
 11
1.0
 21
0.0
 31
0.0
 44
0.9
  1
Sep-09-19
 40
0.125
 41
1.8
  0
MTEXT
  5
245
100
AcDbEntity
  8
0
100
AcDbMText
 62
2
  6
CONTINUOUS
  7
STANDARD
 71
2
 72
1
 10
2.05
 20
0.4625
 30
0.0
 11
1.0
 21
0.0
 31
0.0
 44
0.9
  1
T-2A Line mount\PCushion lock with make up checks
 40
0.125
 41
6.4
  0
MTEXT
  5
246
100
AcDbEntity
  8
0
100
AcDbMText
 62
2
  6
CONTINUOUS
  7
STANDARD
 71
1
 72
1
 10
6.45
 20
0.5625
 30
0.0
 11
1.0
 21
0.0
 31
0.0
 44
0.9
  1
SHEET
 40
0.06
 41
0.48
  0
MTEXT
  5
247
100
AcDbEntity
  8
0
100
AcDbMText
 62
2
  6
CONTINUOUS
  7
STANDARD
 71
1
 72
1
 10
5.95
 20
0.5625
 30
0.0
 11
1.0
 21
0.0
 31
0.0
 44
0.9
  1
DWG SIZE
 40
0.06
 41
0.768
  0
MTEXT
  5
248
100
AcDbEntity
  8
0
100
AcDbMText
 62
2
  6
CONTINUOUS
  7
STANDARD
 71
1
 72
1
 10
5.25
 20
0.5625
 30
0.0
 11
1.0
 21
0.0
 31
0.0
 44
0.9
  1
SCALE
 40
0.06
 41
0.48
  0
MTEXT
  5
249
100
AcDbEntity
  8
0
100
AcDbMText
 62
2
  6
CONTINUOUS
  7
STANDARD
 71
1
 72
1
 10
4.15
 20
0.5625
 30
0.0
 11
1.0
 21
0.0
 31
0.0
 44
0.9
  1
DATE
 40
0.06
 41
0.384
  0
MTEXT
  5
24A
100
AcDbEntity
  8
0
100
AcDbMText
 62
2
  6
CONTINUOUS
  7
STANDARD
 71
1
 72
1
 10
0.05
 20
0.5625
 30
0.0
 11
1.0
 21
0.0
 31
0.0
 44
0.9
  1
DESCRIPTION
 40
0.06
 41
1.056
  0
MTEXT
  5
24B
100
AcDbEntity
  8
0
100
AcDbMText
 62
2
  6
CONTINUOUS
  7
STANDARD
 71
2
 72
1
 10
5.45
 20
1.0375
 30
0.0
 11
1.0
 21
0.0
 31
0.0
 44
0.9
  1
ALL DIMENSIONS IN INCH\PVIEWS ARE THIRD ANGLE
 40
0.12
 41
4.224
  0
MTEXT
  5
24C
100
AcDbEntity
  8
0
100
AcDbMText
 62
2
  6
CONTINUOUS
  7
STANDARD
 71
2
 72
1
 10
2.05
 20
0.95
 30
0.0
 11
1.0
 21
0.0
 31
0.0
 44
0.9
  1
BPL
 40
0.125
 41
0.6
  0
MTEXT
  5
24D
100
AcDbEntity
  8
0
100
AcDbMText
 62
2
  6
CONTINUOUS
  7
STANDARD
 71
1
 72
1
 10
0.05
 20
1.1875
 30
0.0
 11
1.0
 21
0.0
 31
0.0
 44
0.9
  1
MODEL
 40
0.06
 41
0.48
  0
ENDBLK
  5
24E
100
AcDbEntity
  8
0
  6
BYBLOCK
 62
0
100
AcDbBlockEnd
  0
BLOCK
  5
24F
100
AcDbEntity
  8
0
100
AcDbBlockBegin
  2
*T2
 70
1
 10
0.0
 20
0.0
  3
*T2
  1

  0
LINE
  5
250
100
AcDbEntity
  8
0
100
AcDbLine
 62
2
  6
CONTINUOUS
 10
0.0
 20
0.0
 11
9.055
 21
0.0
  0
LINE
  5
251
100
AcDbEntity
  8
0
100
AcDbLine
 62
2
  6
CONTINUOUS
 10
0.0
 20
0.0
 11
0.0
 21
-2.594
  0
LINE
  5
252
100
AcDbEntity
  8
0
100
AcDbLine
 62
2
  6
CONTINUOUS
 10
0.0
 20
-0.344
 11
9.055
 21
-0.344
  0
LINE
  5
253
100
AcDbEntity
  8
0
100
AcDbLine
 62
2
  6
CONTINUOUS
 10
0.0
 20
-0.594
 11
9.055
 21
-0.594
  0
LINE
  5
254
100
AcDbEntity
  8
0
100
AcDbLine
 62
2
  6
CONTINUOUS
 10
0.0
 20
-0.844
 11
9.055
 21
-0.844
  0
LINE
  5
255
100
AcDbEntity
  8
0
100
AcDbLine
 62
2
  6
CONTINUOUS
 10
0.0
 20
-1.094
 11
9.055
 21
-1.094
  0
LINE
  5
256
100
AcDbEntity
  8
0
100
AcDbLine
 62
2
  6
CONTINUOUS
 10
0.0
 20
-1.344
 11
9.055
 21
-1.344
  0
LINE
  5
257
100
AcDbEntity
  8
0
100
AcDbLine
 62
2
  6
CONTINUOUS
 10
0.0
 20
-1.594
 11
9.055
 21
-1.594
  0
LINE
  5
258
100
AcDbEntity
  8
0
100
AcDbLine
 62
2
  6
CONTINUOUS
 10
0.0
 20
-1.844
 11
9.055
 21
-1.844
  0
LINE
  5
259
100
AcDbEntity
  8
0
100
AcDbLine
 62
2
  6
CONTINUOUS
 10
0.0
 20
-2.094
 11
9.055
 21
-2.094
  0
LINE
  5
25A
100
AcDbEntity
  8
0
100
AcDbLine
 62
2
  6
CONTINUOUS
 10
0.0
 20
-2.344
 11
9.055
 21
-2.344
  0
LINE
  5
25B
100
AcDbEntity
  8
0
100
AcDbLine
 62
2
  6
CONTINUOUS
 10
0.0
 20
-2.594
 11
9.055
 21
-2.594
  0
LINE
  5
25C
100
AcDbEntity
  8
0
100
AcDbLine
 62
2
  6
CONTINUOUS
 10
3.055
 20
0.0
 11
3.055
 21
-2.594
  0
LINE
  5
25D
100
AcDbEntity
  8
0
100
AcDbLine
 62
2
  6
CONTINUOUS
 10
9.055
 20
0.0
 11
9.055
 21
-2.594
  0
MTEXT
  5
25E
100
AcDbEntity
  8
0
100
AcDbMText
 62
2
  6
CONTINUOUS
  7
STANDARD
 71
2
 72
1
 10
1.5275
 20
-0.0995
 30
0.0
 11
1.0
 21
0.0
 31
0.0
 44
0.9
  1
Technical Data
 40
0.145
 41
3.248
  0
MTEXT
  5
25F
100
AcDbEntity
  8
0
100
AcDbMText
 62
2
  6
CONTINUOUS
  7
STANDARD
 71
2
 72
1
 10
4.555
 20
-0.0995
 30
0.0
 11
1.0
 21
0.0
 31
0.0
 44
0.9
  1
U.S. Units
 40
0.145
 41
2.32
  0
MTEXT
  5
260
100
AcDbEntity
  8
0
100
AcDbMText
 62
2
  6
CONTINUOUS
  7
STANDARD
 71
2
 72
1
 10
7.555
 20
-0.0995
 30
0.0
 11
1.0
 21
0.0
 31
0.0
 44
0.9
  1
Metric Units
 40
0.145
 41
2.784
  0
MTEXT
  5
261
100
AcDbEntity
  8
0
100
AcDbMText
 62
2
  6
CONTINUOUS
  7
STANDARD
 71
2
 72
1
 10
1.5275
 20
-0.4065
 30
0.0
 11
1.0
 21
0.0
 31
0.0
 44
0.9
  1
Cavity
 40
0.125
 41
1.2
  0
MTEXT
  5
262
100
AcDbEntity
  8
0
100
AcDbMText
 62
2
  6
CONTINUOUS
  7
STANDARD
 71
2
 72
1
 10
6.055
 20
-0.4065
 30
0.0
 11
1.0
 21
0.0
 31
0.0
 44
0.9
  1
T-2A
 40
0.125
 41
0.8
  0
MTEXT
  5
263
100
AcDbEntity
  8
0
100
AcDbMText
 62
2
  6
CONTINUOUS
  7
STANDARD
 71
2
 72
1
 10
1.5275
 20
-0.6565
 30
0.0
 11
1.0
 21
0.0
 31
0.0
 44
0.9
  1
Body Features
 40
0.125
 41
2.6
  0
MTEXT
  5
264
100
AcDbEntity
  8
0
100
AcDbMText
 62
2
  6
CONTINUOUS
  7
STANDARD
 71
2
 72
1
 10
6.055
 20
-0.6565
 30
0.0
 11
1.0
 21
0.0
 31
0.0
 44
0.9
  1
Cushion lock with make up checks
 40
0.125
 41
6.4
  0
MTEXT
  5
265
100
AcDbEntity
  8
0
100
AcDbMText
 62
2
  6
CONTINUOUS
  7
STANDARD
 71
2
 72
1
 10
1.5275
 20
-0.9065
 30
0.0
 11
1.0
 21
0.0
 31
0.0
 44
0.9
  1
Body Type
 40
0.125
 41
1.8
  0
MTEXT
  5
266
100
AcDbEntity
  8
0
100
AcDbMText
 62
2
  6
CONTINUOUS
  7
STANDARD
 71
2
 72
1
 10
6.055
 20
-0.9065
 30
0.0
 11
1.0
 21
0.0
 31
0.0
 44
0.9
  1
Line mount
 40
0.125
 41
2.0
  0
MTEXT
  5
267
100
AcDbEntity
  8
0
100
AcDbMText
 62
2
  6
CONTINUOUS
  7
STANDARD
 71
2
 72
1
 10
1.5275
 20
-1.1565
 30
0.0
 11
1.0
 21
0.0
 31
0.0
 44
0.9
  1
Interface
 40
0.125
 41
1.8
  0
MTEXT
  5
268
100
AcDbEntity
  8
0
100
AcDbMText
 62
2
  6
CONTINUOUS
  7
STANDARD
 71
2
 72
1
 10
6.055
 20
-1.1565
 30
0.0
 11
1.0
 21
0.0
 31
0.0
 44
0.9
  1
None
 40
0.125
 41
0.8
  0
MTEXT
  5
269
100
AcDbEntity
  8
0
100
AcDbMText
 62
2
  6
CONTINUOUS
  7
STANDARD
 71
2
 72
1
 10
1.5275
 20
-1.4065
 30
0.0
 11
1.0
 21
0.0
 31
0.0
 44
0.9
  1
Open Cavity Quantity
 40
0.125
 41
4.0
  0
MTEXT
  5
26A
100
AcDbEntity
  8
0
100
AcDbMText
 62
2
  6
CONTINUOUS
  7
STANDARD
 71
2
 72
1
 10
6.055
 20
-1.4065
 30
0.0
 11
1.0
 21
0.0
 31
0.0
 44
0.9
  1
2
 40
0.125
 41
0.2
  0
MTEXT
  5
26B
100
AcDbEntity
  8
0
100
AcDbMText
 62
2
  6
CONTINUOUS
  7
STANDARD
 71
2
 72
1
 10
1.5275
 20
-1.6565
 30
0.0
 11
1.0
 21
0.0
 31
0.0
 44
0.9
  1
Weight
 40
0.125
 41
1.2
  0
MTEXT
  5
26C
100
AcDbEntity
  8
0
100
AcDbMText
 62
2
  6
CONTINUOUS
  7
STANDARD
 71
2
 72
1
 10
4.555
 20
-1.6565
 30
0.0
 11
1.0
 21
0.0
 31
0.0
 44
0.9
  1
4.421 lb.
 40
0.125
 41
1.8
  0
MTEXT
  5
26D
100
AcDbEntity
  8
0
100
AcDbMText
 62
2
  6
CONTINUOUS
  7
STANDARD
 71
2
 72
1
 10
7.555
 20
-1.6565
 30
0.0
 11
1.0
 21
0.0
 31
0.0
 44
0.9
  1
2,005 kg.
 40
0.125
 41
1.8
  0
MTEXT
  5
26E
100
AcDbEntity
  8
0
100
AcDbMText
 62
2
  6
CONTINUOUS
  7
STANDARD
 71
2
 72
1
 10
1.5275
 20
-1.9065
 30
0.0
 11
1.0
 21
0.0
 31
0.0
 44
0.9
  1
Mounting Hole Diameter
 40
0.125
 41
4.4
  0
MTEXT
  5
26F
100
AcDbEntity
  8
0
100
AcDbMText
 62
2
  6
CONTINUOUS
  7
STANDARD
 71
2
 72
1
 10
4.555
 20
-1.9065
 30
0.0
 11
1.0
 21
0.0
 31
0.0
 44
0.9
  1
.41 in.
 40
0.125
 41
1.4
  0
MTEXT
  5
270
100
AcDbEntity
  8
0
100
AcDbMText
 62
2
  6
CONTINUOUS
  7
STANDARD
 71
2
 72
1
 10
7.555
 20
-1.9065
 30
0.0
 11
1.0
 21
0.0
 31
0.0
 44
0.9
  1
10,4 mm
 40
0.125
 41
1.4
  0
MTEXT
  5
271
100
AcDbEntity
  8
0
100
AcDbMText
 62
2
  6
CONTINUOUS
  7
STANDARD
 71
2
 72
1
 10
1.5275
 20
-2.1565
 30
0.0
 11
1.0
 21
0.0
 31
0.0
 44
0.9
  1
Mounting Hole Depth
 40
0.125
 41
3.8
  0
MTEXT
  5
272
100
AcDbEntity
  8
0
100
AcDbMText
 62
2
  6
CONTINUOUS
  7
STANDARD
 71
2
 72
1
 10
6.055
 20
-2.1565
 30
0.0
 11
1.0
 21
0.0
 31
0.0
 44
0.9
  1
Through
 40
0.125
 41
1.4
  0
MTEXT
  5
273
100
AcDbEntity
  8
0
100
AcDbMText
 62
2
  6
CONTINUOUS
  7
STANDARD
 71
2
 72
1
 10
1.5275
 20
-2.4065
 30
0.0
 11
1.0
 21
0.0
 31
0.0
 44
0.9
  1
Mounting Hole Quantity
 40
0.125
 41
4.4
  0
MTEXT
  5
274
100
AcDbEntity
  8
0
100
AcDbMText
 62
2
  6
CONTINUOUS
  7
STANDARD
 71
2
 72
1
 10
6.055
 20
-2.4065
 30
0.0
 11
1.0
 21
0.0
 31
0.0
 44
0.9
  1
2
 40
0.125
 41
0.2
  0
ENDBLK
  5
275
100
AcDbEntity
  8
0
  6
BYBLOCK
 62
0
100
AcDbBlockEnd
  0
BLOCK
  5
276
100
AcDbEntity
  8
0
100
AcDbBlockBegin
  2
*T3
 70
1
 10
0.0
 20
0.0
  3
*T3
  1

  0
LINE
  5
277
100
AcDbEntity
  8
0
100
AcDbLine
 62
2
  6
CONTINUOUS
 10
0.0
 20
0.0
 11
4.6
 21
0.0
  0
LINE
  5
278
100
AcDbEntity
  8
0
100
AcDbLine
 62
2
  6
CONTINUOUS
 10
0.0
 20
0.0
 11
0.0
 21
-1.18775
  0
LINE
  5
279
100
AcDbEntity
  8
0
100
AcDbLine
 62
2
  6
CONTINUOUS
 10
0.0
 20
-0.34375
 11
4.6
 21
-0.34375
  0
LINE
  5
27A
100
AcDbEntity
  8
0
100
AcDbLine
 62
2
  6
CONTINUOUS
 10
0.0
 20
-0.68775
 11
4.6
 21
-0.68775
  0
LINE
  5
27B
100
AcDbEntity
  8
0
100
AcDbLine
 62
2
  6
CONTINUOUS
 10
0.0
 20
-0.93775
 11
4.6
 21
-0.93775
  0
LINE
  5
27C
100
AcDbEntity
  8
0
100
AcDbLine
 62
2
  6
CONTINUOUS
 10
0.0
 20
-1.18775
 11
4.6
 21
-1.18775
  0
LINE
  5
27D
100
AcDbEntity
  8
0
100
AcDbLine
 62
2
  6
CONTINUOUS
 10
1.3
 20
-0.34375
 11
1.3
 21
-1.18775
  0
LINE
  5
27E
100
AcDbEntity
  8
0
100
AcDbLine
 62
2
  6
CONTINUOUS
 10
3.3
 20
-0.34375
 11
3.3
 21
-1.18775
  0
LINE
  5
27F
100
AcDbEntity
  8
0
100
AcDbLine
 62
2
  6
CONTINUOUS
 10
4.6
 20
0.0
 11
4.6
 21
-1.18775
  0
MTEXT
  5
280
100
AcDbEntity
  8
0
100
AcDbMText
 62
2
  6
CONTINUOUS
  7
STANDARD
 71
2
 72
1
 10
2.3
 20
-0.099375
 30
0.0
 11
1.0
 21
0.0
 31
0.0
 44
0.9
  1
Port Headings
 40
0.145
 41
3.016
  0
MTEXT
  5
281
100
AcDbEntity
  8
0
100
AcDbMText
 62
2
  6
CONTINUOUS
  7
STANDARD
 71
2
 72
1
 10
0.65
 20
-0.44325
 30
0.0
 11
1.0
 21
0.0
 31
0.0
 44
0.9
  1
Product
 40
0.145
 41
1.624
  0
MTEXT
  5
282
100
AcDbEntity
  8
0
100
AcDbMText
 62
2
  6
CONTINUOUS
  7
STANDARD
 71
2
 72
1
 10
2.3
 20
-0.44325
 30
0.0
 11
1.0
 21
0.0
 31
0.0
 44
0.9
  1
Port
 40
0.145
 41
0.928
  0
MTEXT
  5
283
100
AcDbEntity
  8
0
100
AcDbMText
 62
2
  6
CONTINUOUS
  7
STANDARD
 71
2
 72
1
 10
3.95
 20
-0.44325
 30
0.0
 11
1.0
 21
0.0
 31
0.0
 44
0.9
  1
Size
 40
0.145
 41
0.928
  0
MTEXT
  5
284
100
AcDbEntity
  8
0
100
AcDbMText
 62
2
  6
CONTINUOUS
  7
STANDARD
 71
2
 72
1
 10
0.65
 20
-0.75025
 30
0.0
 11
1.0
 21
0.0
 31
0.0
 44
0.9
  1
BPL
 40
0.125
 41
0.6
  0
MTEXT
  5
285
100
AcDbEntity
  8
0
100
AcDbMText
 62
2
  6
CONTINUOUS
  7
STANDARD
 71
2
 72
1
 10
2.3
 20
-0.75025
 30
0.0
 11
1.0
 21
0.0
 31
0.0
 44
0.9
  1
Ports C1, C2, V1, V2
 40
0.125
 41
4.0
  0
MTEXT
  5
286
100
AcDbEntity
  8
0
100
AcDbMText
 62
2
  6
CONTINUOUS
  7
STANDARD
 71
2
 72
1
 10
3.95
 20
-0.75025
 30
0.0
 11
1.0
 21
0.0
 31
0.0
 44
0.9
  1
SAE 12
 40
0.125
 41
1.2
  0
MTEXT
  5
287
100
AcDbEntity
  8
0
100
AcDbMText
 62
2
  6
CONTINUOUS
  7
STANDARD
 71
2
 72
1
 10
0.65
 20
-1.00025
 30
0.0
 11
1.0
 21
0.0
 31
0.0
 44
0.9
  1
BPL
 40
0.125
 41
0.6
  0
MTEXT
  5
288
100
AcDbEntity
  8
0
100
AcDbMText
 62
2
  6
CONTINUOUS
  7
STANDARD
 71
2
 72
1
 10
2.3
 20
-1.00025
 30
0.0
 11
1.0
 21
0.0
 31
0.0
 44
0.9
  1
Port T
 40
0.125
 41
1.2
  0
MTEXT
  5
289
100
AcDbEntity
  8
0
100
AcDbMText
 62
2
  6
CONTINUOUS
  7
STANDARD
 71
2
 72
1
 10
3.95
 20
-1.00025
 30
0.0
 11
1.0
 21
0.0
 31
0.0
 44
0.9
  1
SAE 12
 40
0.125
 41
1.2
  0
ENDBLK
  5
28A
100
AcDbEntity
  8
0
  6
BYBLOCK
 62
0
100
AcDbBlockEnd
  0
ENDSEC
  0
SECTION
  2
ENTITIES
  0
IMAGE
  5
28B
100
AcDbEntity
  8
0
100
AcDbRasterImage
 62
7
  6
CONTINUOUS
 10
19.2297077316
 20
0.3094318264
 30
0.0
 11
0.0066666667
 21
0.0
 31
0.0
 12
0.0
 22
0.0066666667
 32
0.0
 13
369.0
 23
92.0
340
       3EE
 70
9
280
0
281
50
282
50
283
0
360
       3E8
 71
1
 91
2
 14
-0.5
 24
-0.5
 14
368.5
 24
91.5
  0
INSERT
  5
28C
100
AcDbEntity
  8
0
100
AcDbBlockReference
 62
2
  6
CONTINUOUS
  2
SUN_FIRST_THIRD_ANGLE_BL0
 10
20.4816717061
 20
1.2289683772
  0
ACAD_TABLE
  5
28D
100
AcDbEntity
  8
0
 62
2
  6
CONTINUOUS
100
AcDbBlockReference
  2
*T1
 10
12.42375
 20
0.30125
 30
0.0
100
AcDbTable
342
       3F0
343
20F
 11
1.0
 21
0.0
 31
0.0
 90
6
 91
4
 92
6
 93
20
 94
0
 95
0
 96
0
 70
1
 41
0.0
141
0.525
141
0.1
141
0.525
141
0.1
142
4.1
142
1.1
142
0.7
142
0.5
142
0.4
142
2.475
171
1
172
0
173
0
174
0
175
1
176
1
 91
33
178
0
145
0.0
301
CELL_VALUE
 90
4
  1
T-2A Line mount\PCushion lock with make up checks
304
ACVALUE_END
170
2
140
0.125
171
1
172
0
173
0
174
0
175
1
176
1
 91
33
178
0
145
0.0
301
CELL_VALUE
 90
4
  1
Sep-09-19
304
ACVALUE_END
170
5
140
0.125
171
1
172
0
173
0
174
0
175
1
176
1
 91
33
178
0
145
0.0
301
CELL_VALUE
 90
4
  1
1.000
304
ACVALUE_END
170
5
140
0.125
171
1
172
0
173
0
174
0
175
1
176
1
 91
33
178
0
145
0.0
301
CELL_VALUE
 90
4
  1
C
304
ACVALUE_END
170
5
140
0.125
171
1
172
0
173
0
174
0
175
1
176
1
 91
33
178
0
145
0.0
301
CELL_VALUE
 90
4
  1
2
304
ACVALUE_END
170
5
140
0.125
171
1
172
0
173
0
174
0
175
1
176
1
 91
33
178
0
145
0.0
301
CELL_VALUE
 90
4
  1
 
304
ACVALUE_END
170
1
140
0.125
171
1
172
0
173
0
174
0
175
1
176
1
 91
33
178
0
145
0.0
301
CELL_VALUE
 90
4
  1
DESCRIPTION
304
ACVALUE_END
170
1
140
0.06
171
1
172
0
173
0
174
0
175
1
176
1
 91
33
178
0
145
0.0
301
CELL_VALUE
 90
4
  1
DATE
304
ACVALUE_END
170
1
140
0.06
171
1
172
0
173
0
174
0
175
1
176
1
 91
33
178
0
145
0.0
301
CELL_VALUE
 90
4
  1
SCALE
304
ACVALUE_END
170
1
140
0.06
171
1
172
0
173
0
174
0
175
1
176
1
 91
33
178
0
145
0.0
301
CELL_VALUE
 90
4
  1
DWG SIZE
304
ACVALUE_END
170
1
140
0.06
171
1
172
0
173
0
174
0
175
1
176
1
 91
33
178
0
145
0.0
301
CELL_VALUE
 90
4
  1
SHEET
304
ACVALUE_END
170
1
140
0.06
171
1
172
0
173
0
174
0
175
1
176
1
 91
33
178
0
145
0.0
301
CELL_VALUE
 90
4
  1
 
304
ACVALUE_END
170
1
140
0.125
171
1
172
0
173
0
174
0
175
1
176
1
 91
33
178
0
145
0.0
301
CELL_VALUE
 90
4
  1
BPL
304
ACVALUE_END
170
5
140
0.125
171
1
172
0
173
0
174
0
175
4
176
1
 91
33
178
0
145
0.0
301
CELL_VALUE
 90
4
  1
ALL DIMENSIONS IN INCH\PVIEWS ARE THIRD ANGLE
304
ACVALUE_END
170
5
140
0.12
171
1
172
0
173
1
174
0
175
1
176
1
 91
1
178
0
145
0.0
170
1
171
1
172
0
173
1
174
0
175
1
176
1
 91
1
178
0
145
0.0
170
1
171
1
172
0
173
1
174
0
175
1
176
1
 91
1
178
0
145
0.0
170
5
171
1
172
0
173
0
174
0
175
1
176
1
 91
33
178
0
145
0.0
301
CELL_VALUE
 90
4
  1
 
304
ACVALUE_END
170
1
140
0.125
171
1
172
0
173
0
174
0
175
1
176
1
 91
33
178
0
145
0.0
301
CELL_VALUE
 90
4
  1
MODEL
304
ACVALUE_END
170
1
140
0.06
171
1
172
0
173
0
174
0
175
1
176
1
 91
33
178
0
145
0.0
301
CELL_VALUE
 90
4
  1
 
304
ACVALUE_END
170
1
140
0.125
171
1
172
0
173
0
174
0
175
1
176
1
 91
33
178
0
145
0.0
301
CELL_VALUE
 90
4
  1
 
304
ACVALUE_END
170
1
140
0.125
171
1
172
0
173
0
174
0
175
1
176
1
 91
33
178
0
145
0.0
301
CELL_VALUE
 90
4
  1
 
304
ACVALUE_END
170
1
140
0.125
171
1
172
0
173
0
174
0
175
1
176
1
 91
33
178
0
145
0.0
301
CELL_VALUE
 90
4
  1
 
304
ACVALUE_END
170
1
140
0.125
171
1
172
0
173
0
174
0
175
1
176
1
 91
33
178
0
145
0.0
301
CELL_VALUE
 90
4
  1
 
304
ACVALUE_END
170
1
140
0.125
  0
ACAD_TABLE
  5
28E
100
AcDbEntity
  8
0
 62
2
  6
CONTINUOUS
100
AcDbBlockReference
  2
*T2
 10
12.4237499994
 20
16.47875
 30
0.0
100
AcDbTable
342
       3EF
343
210
 11
1.0
 21
0.0
 31
0.0
 90
22
 91
10
 92
3
 93
16
 94
0
 95
0
 96
0
 41
0.028
141
0.344
141
0.25
141
0.25
141
0.25
141
0.25
141
0.25
141
0.25
141
0.25
141
0.25
141
0.25
142
3.055
142
3.0
142
3.0
171
1
172
0
173
0
174
0
175
1
176
1
 91
33
178
0
145
0.0
301
CELL_VALUE
 90
4
  1
Technical Data
304
ACVALUE_END
170
5
140
0.145
171
1
172
0
173
0
174
0
175
1
176
1
 91
33
178
0
145
0.0
301
CELL_VALUE
 90
4
  1
U.S. Units
304
ACVALUE_END
170
5
140
0.145
171
1
172
0
173
0
174
0
175
1
176
1
 91
33
178
0
145
0.0
301
CELL_VALUE
 90
4
  1
Metric Units
304
ACVALUE_END
170
5
140
0.145
171
1
172
0
173
0
174
0
175
1
176
1
 91
33
178
0
145
0.0
301
CELL_VALUE
 90
4
  1
Cavity
304
ACVALUE_END
170
5
140
0.125
171
1
172
0
173
0
174
0
175
2
176
1
 91
33
178
0
145
0.0
301
CELL_VALUE
 90
4
  1
T-2A
304
ACVALUE_END
170
5
140
0.125
171
1
172
0
173
1
174
0
175
1
176
1
 91
1
178
0
145
0.0
170
1
171
1
172
0
173
0
174
0
175
1
176
1
 91
33
178
0
145
0.0
301
CELL_VALUE
 90
4
  1
Body Features
304
ACVALUE_END
170
5
140
0.125
171
1
172
0
173
0
174
0
175
2
176
1
 91
33
178
0
145
0.0
301
CELL_VALUE
 90
4
  1
Cushion lock with make up checks
304
ACVALUE_END
170
5
140
0.125
171
1
172
0
173
1
174
0
175
1
176
1
 91
1
178
0
145
0.0
170
1
171
1
172
0
173
0
174
0
175
1
176
1
 91
33
178
0
145
0.0
301
CELL_VALUE
 90
4
  1
Body Type
304
ACVALUE_END
170
5
140
0.125
171
1
172
0
173
0
174
0
175
2
176
1
 91
33
178
0
145
0.0
301
CELL_VALUE
 90
4
  1
Line mount
304
ACVALUE_END
170
5
140
0.125
171
1
172
0
173
1
174
0
175
1
176
1
 91
1
178
0
145
0.0
170
1
171
1
172
0
173
0
174
0
175
1
176
1
 91
33
178
0
145
0.0
301
CELL_VALUE
 90
4
  1
Interface
304
ACVALUE_END
170
5
140
0.125
171
1
172
0
173
0
174
0
175
2
176
1
 91
33
178
0
145
0.0
301
CELL_VALUE
 90
4
  1
None
304
ACVALUE_END
170
5
140
0.125
171
1
172
0
173
1
174
0
175
1
176
1
 91
1
178
0
145
0.0
170
1
171
1
172
0
173
0
174
0
175
1
176
1
 91
33
178
0
145
0.0
301
CELL_VALUE
 90
4
  1
Open Cavity Quantity
304
ACVALUE_END
170
5
140
0.125
171
1
172
0
173
0
174
0
175
2
176
1
 91
33
178
0
145
0.0
301
CELL_VALUE
 90
4
  1
2
304
ACVALUE_END
170
5
140
0.125
171
1
172
0
173
1
174
0
175
1
176
1
 91
1
178
0
145
0.0
170
1
171
1
172
0
173
0
174
0
175
1
176
1
 91
33
178
0
145
0.0
301
CELL_VALUE
 90
4
  1
Weight
304
ACVALUE_END
170
5
140
0.125
171
1
172
0
173
0
174
0
175
1
176
1
 91
33
178
0
145
0.0
301
CELL_VALUE
 90
4
  1
4.421 lb.
304
ACVALUE_END
170
5
140
0.125
171
1
172
0
173
0
174
0
175
1
176
1
 91
33
178
0
145
0.0
301
CELL_VALUE
 90
4
  1
2,005 kg.
304
ACVALUE_END
170
5
140
0.125
171
1
172
0
173
0
174
0
175
1
176
1
 91
33
178
0
145
0.0
301
CELL_VALUE
 90
4
  1
Mounting Hole Diameter
304
ACVALUE_END
170
5
140
0.125
171
1
172
0
173
0
174
0
175
1
176
1
 91
33
178
0
145
0.0
301
CELL_VALUE
 90
4
  1
.41 in.
304
ACVALUE_END
170
5
140
0.125
171
1
172
0
173
0
174
0
175
1
176
1
 91
33
178
0
145
0.0
301
CELL_VALUE
 90
4
  1
10,4 mm
304
ACVALUE_END
170
5
140
0.125
171
1
172
0
173
0
174
0
175
1
176
1
 91
33
178
0
145
0.0
301
CELL_VALUE
 90
4
  1
Mounting Hole Depth
304
ACVALUE_END
170
5
140
0.125
171
1
172
0
173
0
174
0
175
2
176
1
 91
33
178
0
145
0.0
301
CELL_VALUE
 90
4
  1
Through
304
ACVALUE_END
170
5
140
0.125
171
1
172
0
173
1
174
0
175
1
176
1
 91
1
178
0
145
0.0
170
1
171
1
172
0
173
0
174
0
175
1
176
1
 91
33
178
0
145
0.0
301
CELL_VALUE
 90
4
  1
Mounting Hole Quantity
304
ACVALUE_END
170
5
140
0.125
171
1
172
0
173
0
174
0
175
2
176
1
 91
33
178
0
145
0.0
301
CELL_VALUE
 90
4
  1
2
304
ACVALUE_END
170
5
140
0.125
171
1
172
0
173
1
174
0
175
1
176
1
 91
1
178
0
145
0.0
170
1
  0
ACAD_TABLE
  5
28F
100
AcDbEntity
  8
0
 62
2
  6
CONTINUOUS
100
AcDbBlockReference
  2
*T3
 10
0.52125
 20
1.709
 30
0.0
100
AcDbTable
342
       3EF
343
211
 11
1.0
 21
0.0
 31
0.0
 90
22
 91
4
 92
3
 93
16
 94
0
 95
0
 96
0
 41
0.05
141
0.34375
141
0.344
141
0.25
141
0.25
142
1.3
142
2.0
142
1.3
171
1
172
0
173
0
174
0
175
3
176
1
 91
33
178
0
145
0.0
301
CELL_VALUE
 90
4
  1
Port Headings
304
ACVALUE_END
170
5
140
0.145
171
1
172
0
173
1
174
0
175
1
176
1
 91
1
178
0
145
0.0
170
1
171
1
172
0
173
1
174
0
175
1
176
1
 91
1
178
0
145
0.0
170
1
171
1
172
0
173
0
174
0
175
1
176
1
 91
33
178
0
145
0.0
301
CELL_VALUE
 90
4
  1
Product
304
ACVALUE_END
170
5
140
0.145
171
1
172
0
173
0
174
0
175
1
176
1
 91
33
178
0
145
0.0
301
CELL_VALUE
 90
4
  1
Port
304
ACVALUE_END
170
5
140
0.145
171
1
172
0
173
0
174
0
175
1
176
1
 91
33
178
0
145
0.0
301
CELL_VALUE
 90
4
  1
Size
304
ACVALUE_END
170
5
140
0.145
171
1
172
0
173
0
174
0
175
1
176
1
 91
33
178
0
145
0.0
301
CELL_VALUE
 90
4
  1
BPL
304
ACVALUE_END
170
5
140
0.125
171
1
172
0
173
0
174
0
175
1
176
1
 91
33
178
0
145
0.0
301
CELL_VALUE
 90
4
  1
Ports C1, C2, V1, V2
304
ACVALUE_END
170
5
140
0.125
171
1
172
0
173
0
174
0
175
1
176
1
 91
33
178
0
145
0.0
301
CELL_VALUE
 90
4
  1
SAE 12
304
ACVALUE_END
170
5
140
0.125
171
1
172
0
173
0
174
0
175
1
176
1
 91
33
178
0
145
0.0
301
CELL_VALUE
 90
4
  1
BPL
304
ACVALUE_END
170
5
140
0.125
171
1
172
0
173
0
174
0
175
1
176
1
 91
33
178
0
145
0.0
301
CELL_VALUE
 90
4
  1
Port T
304
ACVALUE_END
170
5
140
0.125
171
1
172
0
173
0
174
0
175
1
176
1
 91
33
178
0
145
0.0
301
CELL_VALUE
 90
4
  1
SAE 12
304
ACVALUE_END
170
5
140
0.125
  0
MTEXT
  5
290
100
AcDbEntity
  8
0
100
AcDbMText
 62
2
  6
CONTINUOUS
  7
STANDARD
 71
1
 72
1
 10
0.52125
 20
5.75995
 30
0.0
 11
1.0
 21
0.0
 31
0.0
 44
0.6
  3
Notes\P \P1. Important: Carefully consider\P   the maximum system pressure. The\P   pressure rating of the manifold is\P   dependent on the manifold material,\P   with the port type/size a secondary\P   consideration. Manifolds\P   constructed of alu
  1
minum are not\P   rated for pressures higher than\P   3000 psi (210 bar), regardless of\P   the port type/size specified.
 40
0.1
 41
3.04
  0
LINE
  5
291
100
AcDbEntity
  8
0
100
AcDbLine
 62
7
  6
CONTINUOUS
 10
0.30125
 20
0.30125
 11
0.30125
 21
16.69875
  0
LINE
  5
292
100
AcDbEntity
  8
0
100
AcDbLine
 62
7
  6
CONTINUOUS
 10
0.30125
 20
0.30125
 11
21.69875
 21
0.30125
  0
LINE
  5
293
100
AcDbEntity
  8
0
100
AcDbLine
 62
7
  6
CONTINUOUS
 10
0.30125
 20
16.69875
 11
21.69875
 21
16.69875
  0
LINE
  5
294
100
AcDbEntity
  8
0
100
AcDbLine
 62
7
  6
CONTINUOUS
 10
21.69875
 20
0.30125
 11
21.69875
 21
16.69875
  0
LINE
  5
295
100
AcDbEntity
  8
0
100
AcDbLine
 62
7
  6
CONTINUOUS
 10
8.5828629239
 20
6.7163359089
 11
8.5828629239
 21
9.6141135594
  0
LINE
  5
296
100
AcDbEntity
  8
0
100
AcDbLine
 62
7
  6
CONTINUOUS
 10
8.5828629239
 20
9.6141135594
 11
8.7322252776
 21
9.758386523
  0
LINE
  5
297
100
AcDbEntity
  8
0
100
AcDbLine
 62
7
  6
CONTINUOUS
 10
8.8864335253
 20
9.9073402608
 11
9.553433542
 21
10.5516128413
  0
LINE
  5
298
100
AcDbEntity
  8
0
100
AcDbLine
 62
7
  6
CONTINUOUS
 10
8.9173431543
 20
9.9051966707
 11
8.7631349067
 21
9.7562429329
  0
LINE
  5
299
100
AcDbEntity
  8
0
100
AcDbLine
 62
7
  6
CONTINUOUS
 10
12.446566458
 20
6.4483871587
 11
11.3224257851
 21
6.5263465792
  0
LINE
  5
29A
100
AcDbEntity
  8
0
100
AcDbLine
 62
7
  6
CONTINUOUS
 10
11.0678886893
 20
6.5439987867
 11
9.9643339754
 21
6.6205305661
  0
LINE
  5
29B
100
AcDbEntity
  8
0
100
AcDbLine
 62
7
  6
CONTINUOUS
 10
9.7097968796
 20
6.6381827736
 11
8.5828629239
 21
6.7163359089
  0
LINE
  5
29C
100
AcDbEntity
  8
0
100
AcDbLine
 62
4
  6
CONTINUOUS
 10
9.2010554848
 20
7.6079973572
 11
9.1913962259
 21
7.623156117
  0
LINE
  5
29D
100
AcDbEntity
  8
0
100
AcDbLine
 62
4
  6
CONTINUOUS
 10
9.297648073
 20
7.6447653022
 11
9.3073073293
 21
7.6296065426
  0
LINE
  5
29E
100
AcDbEntity
  8
0
100
AcDbLine
 62
4
  6
CONTINUOUS
 10
9.1913962259
 20
8.5287117025
 11
9.1913962259
 21
8.4707561508
  0
LINE
  5
29F
100
AcDbEntity
  8
0
100
AcDbLine
 62
4
  6
CONTINUOUS
 10
9.1913962259
 20
7.623156117
 11
9.1913962259
 21
7.6376450049
  0
LINE
  5
2A0
100
AcDbEntity
  8
0
100
AcDbLine
 62
4
  6
CONTINUOUS
 10
9.1913962259
 20
9.0720449999
 11
9.1913962259
 21
9.0865338878
  0
LINE
  5
2A1
100
AcDbEntity
  8
0
100
AcDbLine
 62
4
  6
CONTINUOUS
 10
9.2300332615
 20
8.7506099779
 11
9.2300332615
 21
8.7071433141
  0
LINE
  5
2A2
100
AcDbEntity
  8
0
100
AcDbLine
 62
4
  6
CONTINUOUS
 10
9.2300332615
 20
7.301721095
 11
9.2300332615
 21
7.2582544313
  0
LINE
  5
2A3
100
AcDbEntity
  8
0
100
AcDbLine
 62
4
  6
CONTINUOUS
 10
9.2493517776
 20
8.8724257817
 11
9.2493517776
 21
8.8362035618
  0
LINE
  5
2A4
100
AcDbEntity
  8
0
100
AcDbLine
 62
4
  6
CONTINUOUS
 10
9.2493517776
 20
8.6333591308
 11
9.2493517776
 21
8.589892467
  0
LINE
  5
2A5
100
AcDbEntity
  8
0
100
AcDbLine
 62
4
  6
CONTINUOUS
 10
9.2493517776
 20
7.4235368988
 11
9.2493517776
 21
7.387314679
  0
LINE
  5
2A6
100
AcDbEntity
  8
0
100
AcDbLine
 62
4
  6
CONTINUOUS
 10
9.2493517776
 20
7.184470248
 11
9.2493517776
 21
7.1410035842
  0
LINE
  5
2A7
100
AcDbEntity
  8
0
100
AcDbLine
 62
4
  6
CONTINUOUS
 10
9.3073073293
 20
9.0784954255
 11
9.3073073293
 21
9.0640065375
  0
LINE
  5
2A8
100
AcDbEntity
  8
0
100
AcDbLine
 62
4
  6
CONTINUOUS
 10
9.3073073293
 20
7.6296065426
 11
9.3073073293
 21
7.6151176547
  0
LINE
  5
2A9
100
AcDbEntity
  8
0
100
AcDbLine
 62
4
  6
CONTINUOUS
 10
9.1913962259
 20
9.0865338878
 11
9.2010554848
 21
9.1003529038
  0
LINE
  5
2AA
100
AcDbEntity
  8
0
100
AcDbLine
 62
4
  6
CONTINUOUS
 10
9.3073073293
 20
9.0640065375
 11
9.297648073
 21
9.0501875213
  0
LINE
  5
2AB
100
AcDbEntity
  8
0
100
AcDbLine
 62
4
  6
CONTINUOUS
 10
12.2244034594
 20
6.9201942405
 11
12.1954256835
 21
6.9149594121
  0
LINE
  5
2AC
100
AcDbEntity
  8
0
100
AcDbLine
 62
4
  6
CONTINUOUS
 10
9.1913962259
 20
7.3188894705
 11
9.2904602523
 21
7.2810618487
  0
LINE
  5
2AD
100
AcDbEntity
  8
0
100
AcDbLine
 62
4
  6
CONTINUOUS
 10
9.1913962259
 20
7.5434672334
 11
9.2987948677
 21
7.4823197914
  0
LINE
  5
2AE
100
AcDbEntity
  8
0
100
AcDbLine
 62
4
  6
CONTINUOUS
 10
9.2107147437
 20
7.6000830413
 11
9.2010554848
 21
7.6079973572
  0
LINE
  5
2AF
100
AcDbEntity
  8
0
100
AcDbLine
 62
4
  6
CONTINUOUS
 10
9.2783295535
 20
7.660593934
 11
9.297648073
 21
7.6447653022
  0
LINE
  5
2B0
100
AcDbEntity
  8
0
100
AcDbLine
 62
7
  6
CONTINUOUS
 10
9.4304713099
 20
9.1032181084
 11
9.3274708093
 21
9.0037272589
  0
LINE
  5
2B1
100
AcDbEntity
  8
0
100
AcDbLine
 62
4
  6
CONTINUOUS
 10
9.2010554848
 20
9.1003529038
 11
9.2203740018
 21
9.1135020481
  0
LINE
  5
2B2
100
AcDbEntity
  8
0
100
AcDbLine
 62
4
  6
CONTINUOUS
 10
9.2942037666
 20
7.0437153166
 11
9.1913962259
 21
7.0508450438
  0
LINE
  5
2B3
100
AcDbEntity
  8
0
100
AcDbLine
 62
4
  6
CONTINUOUS
 10
9.2590110339
 20
8.4733114919
 11
9.2396925178
 21
8.5036290114
  0
LINE
  5
2B4
100
AcDbEntity
  8
0
100
AcDbLine
 62
7
  6
CONTINUOUS
 10
9.9198678727
 20
9.3518315788
 11
9.8168673721
 21
9.2523407293
  0
LINE
  5
2B5
100
AcDbEntity
  8
0
100
AcDbLine
 62
7
  6
CONTINUOUS
 10
9.9737886813
 20
9.348092158
 11
9.8707881808
 21
9.2486013085
  0
LINE
  5
2B6
100
AcDbEntity
  8
0
100
AcDbLine
 62
4
  6
CONTINUOUS
 10
9.297648073
 20
9.0501875213
 11
9.2879888098
 21
9.0436129495
  0
LINE
  5
2B7
100
AcDbEntity
  8
0
100
AcDbLine
 62
4
  6
CONTINUOUS
 10
12.1664479076
 20
7.3371467777
 11
12.1954256835
 21
7.3423816061
  0
LINE
  5
2B8
100
AcDbEntity
  8
0
100
AcDbLine
 62
4
  6
CONTINUOUS
 10
12.2533812352
 20
7.1572512758
 11
12.1374701318
 21
7.1652897381
  0
LINE
  5
2B9
100
AcDbEntity
  8
0
100
AcDbLine
 62
4
  6
CONTINUOUS
 10
9.2493517776
 20
7.6698479936
 11
9.2783295535
 21
7.660593934
  0
LINE
  5
2BA
100
AcDbEntity
  8
0
100
AcDbLine
 62
4
  6
CONTINUOUS
 10
9.3073073293
 20
8.9843176539
 11
9.1913962259
 21
8.9344005645
  0
LINE
  5
2BB
100
AcDbEntity
  8
0
100
AcDbLine
 62
4
  6
CONTINUOUS
 10
12.8516179296
 20
7.4819776637
 11
12.8438533649
 21
7.4817221135
  0
LINE
  5
2BC
100
AcDbEntity
  8
0
100
AcDbLine
 62
7
  6
CONTINUOUS
 10
13.1707176605
 20
7.1478635488
 11
13.1398080315
 21
7.1500071389
  0
LINE
  5
2BD
100
AcDbEntity
  8
0
100
AcDbLine
 62
4
  6
CONTINUOUS
 10
9.1913962259
 20
7.42755613
 11
9.2953016465
 21
7.4203502646
  0
LINE
  5
2BE
100
AcDbEntity
  8
0
100
AcDbLine
 62
4
  6
CONTINUOUS
 10
12.2533812352
 20
7.2731623792
 11
12.1374701318
 21
7.2812008415
  0
LINE
  5
2BF
100
AcDbEntity
  8
0
100
AcDbLine
 62
4
  6
CONTINUOUS
 10
12.1954256835
 20
6.9149594121
 11
12.1664479076
 21
6.9242134717
  0
LINE
  5
2C0
100
AcDbEntity
  8
0
100
AcDbLine
 62
4
  6
CONTINUOUS
 10
9.2686702972
 20
8.4653971758
 11
9.2590110339
 21
8.4733114919
  0
LINE
  5
2C1
100
AcDbEntity
  8
0
100
AcDbLine
 62
4
  6
CONTINUOUS
 10
9.2396925178
 20
8.5036290114
 11
9.2203740018
 21
8.519457643
  0
LINE
  5
2C2
100
AcDbEntity
  8
0
100
AcDbLine
 62
4
  6
CONTINUOUS
 10
9.2879888098
 20
8.5220129841
 11
9.2931077015
 21
8.5178188208
  0
LINE
  5
2C3
100
AcDbEntity
  8
0
100
AcDbLine
 62
4
  6
CONTINUOUS
 10
9.2010554848
 20
9.05688624
 11
9.1913962259
 21
9.0720449999
  0
LINE
  5
2C4
100
AcDbEntity
  8
0
100
AcDbLine
 62
4
  6
CONTINUOUS
 10
9.297648073
 20
9.0936541851
 11
9.3073073293
 21
9.0784954255
  0
LINE
  5
2C5
100
AcDbEntity
  8
0
100
AcDbLine
 62
4
  6
CONTINUOUS
 10
9.1913962259
 20
7.6376450049
 11
9.2010554848
 21
7.651464021
  0
LINE
  5
2C6
100
AcDbEntity
  8
0
100
AcDbLine
 62
4
  6
CONTINUOUS
 10
9.3073073293
 20
7.6151176547
 11
9.297648073
 21
7.6012986384
  0
LINE
  5
2C7
100
AcDbEntity
  8
0
100
AcDbLine
 62
4
  6
CONTINUOUS
 10
9.295541766
 20
8.4691983475
 11
9.2879888098
 21
8.4640574324
  0
LINE
  5
2C8
100
AcDbEntity
  8
0
100
AcDbLine
 62
4
  6
CONTINUOUS
 10
12.1374701318
 20
7.5420008243
 11
12.2533812352
 21
7.5339623619
  0
LINE
  5
2C9
100
AcDbEntity
  8
0
100
AcDbLine
 62
7
  6
CONTINUOUS
 10
10.4631852442
 20
9.0315991538
 11
10.3601847436
 21
8.9321083043
  0
LINE
  5
2CA
100
AcDbEntity
  8
0
100
AcDbLine
 62
7
  6
CONTINUOUS
 10
10.4901456485
 20
8.9830326533
 11
10.3871451479
 21
8.8835418038
  0
LINE
  5
2CB
100
AcDbEntity
  8
0
100
AcDbLine
 62
4
  6
CONTINUOUS
 10
9.2903106259
 20
7.2704960439
 11
9.1913962259
 21
7.2464450308
  0
LINE
  5
2CC
100
AcDbEntity
  8
0
100
AcDbLine
 62
4
  6
CONTINUOUS
 10
12.1954256835
 20
7.3423816061
 11
12.2244034594
 21
7.3331275465
  0
LINE
  5
2CD
100
AcDbEntity
  8
0
100
AcDbLine
 62
4
  6
CONTINUOUS
 10
12.2533812352
 20
7.0413401723
 11
12.1374701318
 21
7.1073341864
  0
LINE
  5
2CE
100
AcDbEntity
  8
0
100
AcDbLine
 62
4
  6
CONTINUOUS
 10
9.2107147437
 20
9.0489719242
 11
9.2010554848
 21
9.05688624
  0
LINE
  5
2CF
100
AcDbEntity
  8
0
100
AcDbLine
 62
4
  6
CONTINUOUS
 10
9.2783295535
 20
9.1094828169
 11
9.297648073
 21
9.0936541851
  0
LINE
  5
2D0
100
AcDbEntity
  8
0
100
AcDbLine
 62
7
  6
CONTINUOUS
 10
10.7885631196
 20
9.0090341215
 11
10.685562619
 21
8.909543272
  0
LINE
  5
2D1
100
AcDbEntity
  8
0
100
AcDbLine
 62
7
  6
CONTINUOUS
 10
9.4304713099
 20
7.6543292831
 11
9.3274708093
 21
7.5548384336
  0
LINE
  5
2D2
100
AcDbEntity
  8
0
100
AcDbLine
 62
4
  6
CONTINUOUS
 10
9.2203740018
 20
7.6646131652
 11
9.2493517776
 21
7.6698479936
  0
LINE
  5
2D3
100
AcDbEntity
  8
0
100
AcDbLine
 62
4
  6
CONTINUOUS
 10
9.2203740018
 20
8.519457643
 11
9.1913962259
 21
8.5287117025
  0
LINE
  5
2D4
100
AcDbEntity
  8
0
100
AcDbLine
 62
4
  6
CONTINUOUS
 10
9.1913962259
 20
8.7677783533
 11
9.2904602531
 21
8.7299507312
  0
LINE
  5
2D5
100
AcDbEntity
  8
0
100
AcDbLine
 62
4
  6
CONTINUOUS
 10
9.1913962259
 20
8.9923561162
 11
9.2987948711
 21
8.9312086723
  0
LINE
  5
2D6
100
AcDbEntity
  8
0
100
AcDbLine
 62
4
  6
CONTINUOUS
 10
12.1664479076
 20
6.9242134717
 11
12.1471293881
 21
6.9400421035
  0
LINE
  5
2D7
100
AcDbEntity
  8
0
100
AcDbLine
 62
7
  6
CONTINUOUS
 10
11.2779596824
 20
9.2576475919
 11
11.1749591819
 21
9.1581567424
  0
LINE
  5
2D8
100
AcDbEntity
  8
0
100
AcDbLine
 62
7
  6
CONTINUOUS
 10
9.9198678727
 20
7.9029427535
 11
9.8168673721
 21
7.803451904
  0
LINE
  5
2D9
100
AcDbEntity
  8
0
100
AcDbLine
 62
7
  6
CONTINUOUS
 10
11.3318804911
 20
9.2539081711
 11
11.2288799905
 21
9.1544173216
  0
LINE
  5
2DA
100
AcDbEntity
  8
0
100
AcDbLine
 62
7
  6
CONTINUOUS
 10
10.4901456485
 20
8.4179261788
 11
10.3871451479
 21
8.3184353292
  0
LINE
  5
2DB
100
AcDbEntity
  8
0
100
AcDbLine
 62
7
  6
CONTINUOUS
 10
10.4631852442
 20
8.3730990991
 11
10.3601847436
 21
8.2736082496
  0
LINE
  5
2DC
100
AcDbEntity
  8
0
100
AcDbLine
 62
7
  6
CONTINUOUS
 10
9.9737886813
 20
7.8992033327
 11
9.8707881808
 21
7.7997124832
  0
LINE
  5
2DD
100
AcDbEntity
  8
0
100
AcDbLine
 62
4
  6
CONTINUOUS
 10
9.2010554848
 20
7.651464021
 11
9.2203740018
 21
7.6646131652
  0
LINE
  5
2DE
100
AcDbEntity
  8
0
100
AcDbLine
 62
4
  6
CONTINUOUS
 10
9.297648073
 20
7.6012986384
 11
9.2879888098
 21
7.5947240667
  0
LINE
  5
2DF
100
AcDbEntity
  8
0
100
AcDbLine
 62
4
  6
CONTINUOUS
 10
12.2244034594
 20
8.3690830658
 11
12.1954256835
 21
8.3638482374
  0
LINE
  5
2E0
100
AcDbEntity
  8
0
100
AcDbLine
 62
4
  6
CONTINUOUS
 10
12.2340627174
 20
6.9847243644
 11
12.2437219763
 21
6.9768100485
  0
LINE
  5
2E1
100
AcDbEntity
  8
0
100
AcDbLine
 62
4
  6
CONTINUOUS
 10
9.2879888098
 20
8.4640574324
 11
9.2686702972
 21
8.4653971758
  0
LINE
  5
2E2
100
AcDbEntity
  8
0
100
AcDbLine
 62
4
  6
CONTINUOUS
 10
12.2244034594
 20
7.3331275465
 11
12.2437219763
 21
7.3172989149
  0
LINE
  5
2E3
100
AcDbEntity
  8
0
100
AcDbLine
 62
4
  6
CONTINUOUS
 10
12.1471293881
 20
9.0119531097
 11
12.1567886513
 21
9.0185276815
  0
LINE
  5
2E4
100
AcDbEntity
  8
0
100
AcDbLine
 62
4
  6
CONTINUOUS
 10
9.3073073293
 20
7.5354287711
 11
9.1913962259
 21
7.4855116817
  0
LINE
  5
2E5
100
AcDbEntity
  8
0
100
AcDbLine
 62
4
  6
CONTINUOUS
 10
12.1664479076
 20
8.786035603
 11
12.1954256835
 21
8.7912704313
  0
LINE
  5
2E6
100
AcDbEntity
  8
0
100
AcDbLine
 62
4
  6
CONTINUOUS
 10
12.2533812352
 20
8.6061401011
 11
12.1374701318
 21
8.6141785634
  0
LINE
  5
2E7
100
AcDbEntity
  8
0
100
AcDbLine
 62
4
  6
CONTINUOUS
 10
9.2493517776
 20
9.1187368764
 11
9.2783295535
 21
9.1094828169
  0
LINE
  5
2E8
100
AcDbEntity
  8
0
100
AcDbLine
 62
4
  6
CONTINUOUS
 10
12.1954256835
 20
8.3638482374
 11
12.1664479076
 21
8.373102297
  0
LINE
  5
2E9
100
AcDbEntity
  8
0
100
AcDbLine
 62
4
  6
CONTINUOUS
 10
12.1471293881
 20
6.9400421035
 11
12.1374701318
 21
6.9552008631
  0
LINE
  5
2EA
100
AcDbEntity
  8
0
100
AcDbLine
 62
4
  6
CONTINUOUS
 10
12.2437219763
 20
6.9768100485
 11
12.2533812352
 21
6.9616512887
  0
LINE
  5
2EB
100
AcDbEntity
  8
0
100
AcDbLine
 62
7
  6
CONTINUOUS
 10
11.8212770539
 20
8.9374151669
 11
11.7182765533
 21
8.8379243174
  0
LINE
  5
2EC
100
AcDbEntity
  8
0
100
AcDbLine
 62
7
  6
CONTINUOUS
 10
10.4631852442
 20
7.5827103285
 11
10.3601847436
 21
7.483219479
  0
LINE
  5
2ED
100
AcDbEntity
  8
0
100
AcDbLine
 62
7
  6
CONTINUOUS
 10
11.8482374582
 20
8.8888486664
 11
11.7452369577
 21
8.7893578169
  0
LINE
  5
2EE
100
AcDbEntity
  8
0
100
AcDbLine
 62
7
  6
CONTINUOUS
 10
10.4901456485
 20
7.5341438281
 11
10.3871451479
 21
7.4346529785
  0
LINE
  5
2EF
100
AcDbEntity
  8
0
100
AcDbLine
 62
7
  6
CONTINUOUS
 10
13.1398080315
 20
10.0477847895
 11
12.9855997839
 21
9.8988310517
  0
LINE
  5
2F0
100
AcDbEntity
  8
0
100
AcDbLine
 62
7
  6
CONTINUOUS
 10
12.446566458
 20
9.3461648093
 11
13.0165094129
 21
9.8966874616
  0
LINE
  5
2F1
100
AcDbEntity
  8
0
100
AcDbLine
 62
7
  6
CONTINUOUS
 10
13.1707176605
 20
10.0456411994
 11
13.4171370761
 21
10.2836640911
  0
LINE
  5
2F2
100
AcDbEntity
  8
0
100
AcDbLine
 62
4
  6
CONTINUOUS
 10
12.1471293881
 20
8.7728864589
 11
12.1664479076
 21
8.786035603
  0
LINE
  5
2F3
100
AcDbEntity
  8
0
100
AcDbLine
 62
4
  6
CONTINUOUS
 10
12.8516179296
 20
8.9308663738
 11
12.8438533649
 21
8.9306108237
  0
LINE
  5
2F4
100
AcDbEntity
  8
0
100
AcDbLine
 62
7
  6
CONTINUOUS
 10
13.1707176605
 20
8.5967523741
 11
13.1398080315
 21
8.5988959642
  0
LINE
  5
2F5
100
AcDbEntity
  8
0
100
AcDbLine
 62
4
  6
CONTINUOUS
 10
9.1913962259
 20
8.8764450128
 11
9.2953016495
 21
8.8692391472
  0
LINE
  5
2F6
100
AcDbEntity
  8
0
100
AcDbLine
 62
4
  6
CONTINUOUS
 10
12.2533812352
 20
8.7220512045
 11
12.1374701318
 21
8.7300896668
  0
LINE
  5
2F7
100
AcDbEntity
  8
0
100
AcDbLine
 62
4
  6
CONTINUOUS
 10
12.2437219763
 20
7.3172989149
 11
12.2533812352
 21
7.3021401551
  0
LINE
  5
2F8
100
AcDbEntity
  8
0
100
AcDbLine
 62
4
  6
CONTINUOUS
 10
12.1374701318
 20
8.9981340935
 11
12.1471293881
 21
9.0119531097
  0
LINE
  5
2F9
100
AcDbEntity
  8
0
100
AcDbLine
 62
7
  6
CONTINUOUS
 10
10.7885631196
 20
7.5601452962
 11
10.685562619
 21
7.4606544467
  0
LINE
  5
2FA
100
AcDbEntity
  8
0
100
AcDbLine
 62
4
  6
CONTINUOUS
 10
12.1374701318
 20
8.49826746
 11
12.2533812352
 21
8.5481845493
  0
LINE
  5
2FB
100
AcDbEntity
  8
0
100
AcDbLine
 62
4
  6
CONTINUOUS
 10
9.2903106267
 20
8.719384927
 11
9.1913962259
 21
8.6953339137
  0
LINE
  5
2FC
100
AcDbEntity
  8
0
100
AcDbLine
 62
4
  6
CONTINUOUS
 10
12.8593824944
 20
9.0760108032
 11
12.8671470592
 21
9.0762663533
  0
LINE
  5
2FD
100
AcDbEntity
  8
0
100
AcDbLine
 62
4
  6
CONTINUOUS
 10
12.1567886513
 20
9.0185276815
 11
12.176107164
 21
9.0171879381
  0
LINE
  5
2FE
100
AcDbEntity
  8
0
100
AcDbLine
 62
4
  6
CONTINUOUS
 10
12.1954256835
 20
8.7912704313
 11
12.2244034594
 21
8.7820163718
  0
LINE
  5
2FF
100
AcDbEntity
  8
0
100
AcDbLine
 62
4
  6
CONTINUOUS
 10
12.2533812352
 20
8.4902289976
 11
12.1374701318
 21
8.5562230117
  0
LINE
  5
300
100
AcDbEntity
  8
0
100
AcDbLine
 62
4
  6
CONTINUOUS
 10
12.1664479076
 20
8.373102297
 11
12.1471293881
 21
8.3889309288
  0
LINE
  5
301
100
AcDbEntity
  8
0
100
AcDbLine
 62
4
  6
CONTINUOUS
 10
12.1374701318
 20
8.7590674427
 11
12.1471293881
 21
8.7728864589
  0
LINE
  5
302
100
AcDbEntity
  8
0
100
AcDbLine
 62
7
  6
CONTINUOUS
 10
11.2779596824
 20
7.8087587666
 11
11.1749591819
 21
7.7092679171
  0
LINE
  5
303
100
AcDbEntity
  8
0
100
AcDbLine
 62
7
  6
CONTINUOUS
 10
11.8482374582
 20
8.3237421919
 11
11.7452369577
 21
8.2242513424
  0
LINE
  5
304
100
AcDbEntity
  8
0
100
AcDbLine
 62
7
  6
CONTINUOUS
 10
11.8212770539
 20
8.2789151122
 11
11.7182765533
 21
8.1794242627
  0
LINE
  5
305
100
AcDbEntity
  8
0
100
AcDbLine
 62
7
  6
CONTINUOUS
 10
11.3318804911
 20
7.8050193458
 11
11.2288799905
 21
7.7055284963
  0
LINE
  5
306
100
AcDbEntity
  8
0
100
AcDbLine
 62
7
  6
CONTINUOUS
 10
10.4901456485
 20
6.9690373535
 11
10.3871451479
 21
6.869546504
  0
LINE
  5
307
100
AcDbEntity
  8
0
100
AcDbLine
 62
7
  6
CONTINUOUS
 10
10.4631852442
 20
6.9242102738
 11
10.3601847436
 21
6.8247194243
  0
LINE
  5
308
100
AcDbEntity
  8
0
100
AcDbLine
 62
4
  6
CONTINUOUS
 10
12.8412651772
 20
9.1092219254
 11
12.8464415525
 21
9.1142219202
  0
LINE
  5
309
100
AcDbEntity
  8
0
100
AcDbLine
 62
4
  6
CONTINUOUS
 10
12.1471293881
 20
8.4323975926
 11
12.1567886513
 21
8.4389721644
  0
LINE
  5
30A
100
AcDbEntity
  8
0
100
AcDbLine
 62
4
  6
CONTINUOUS
 10
12.2437219763
 20
8.38223221
 11
12.2244034594
 21
8.3690830658
  0
LINE
  5
30B
100
AcDbEntity
  8
0
100
AcDbLine
 62
4
  6
CONTINUOUS
 10
12.2244034594
 20
8.9631274709
 11
12.2533812352
 21
8.9538734114
  0
LINE
  5
30C
100
AcDbEntity
  8
0
100
AcDbLine
 62
4
  6
CONTINUOUS
 10
12.2340627174
 20
8.4336131897
 11
12.2437219763
 21
8.4256988738
  0
LINE
  5
30D
100
AcDbEntity
  8
0
100
AcDbLine
 62
4
  6
CONTINUOUS
 10
12.1374701318
 20
8.4185785763
 11
12.1471293881
 21
8.4323975926
  0
LINE
  5
30E
100
AcDbEntity
  8
0
100
AcDbLine
 62
4
  6
CONTINUOUS
 10
9.2203740018
 20
9.1135020481
 11
9.2493517776
 21
9.1187368764
  0
LINE
  5
30F
100
AcDbEntity
  8
0
100
AcDbLine
 62
7
  6
CONTINUOUS
 10
8.5828629239
 20
9.6141135594
 11
12.446566458
 21
9.3461648093
  0
LINE
  5
310
100
AcDbEntity
  8
0
100
AcDbLine
 62
4
  6
CONTINUOUS
 10
12.2244034594
 20
8.7820163718
 11
12.2437219763
 21
8.7661877402
  0
LINE
  5
311
100
AcDbEntity
  8
0
100
AcDbLine
 62
4
  6
CONTINUOUS
 10
12.1471293881
 20
8.3889309288
 11
12.1374701318
 21
8.4040896884
  0
LINE
  5
312
100
AcDbEntity
  8
0
100
AcDbLine
 62
4
  6
CONTINUOUS
 10
12.2437219763
 20
8.4256988738
 11
12.2533812352
 21
8.410540114
  0
LINE
  5
313
100
AcDbEntity
  8
0
100
AcDbLine
 62
4
  6
CONTINUOUS
 10
12.1374701318
 20
6.9552008631
 11
12.1374701318
 21
6.9696897511
  0
LINE
  5
314
100
AcDbEntity
  8
0
100
AcDbLine
 62
4
  6
CONTINUOUS
 10
12.1374701318
 20
7.1652897381
 11
12.1374701318
 21
7.2232452898
  0
LINE
  5
315
100
AcDbEntity
  8
0
100
AcDbLine
 62
4
  6
CONTINUOUS
 10
12.1374701318
 20
7.2812008415
 11
12.1374701318
 21
7.3101786174
  0
LINE
  5
316
100
AcDbEntity
  8
0
100
AcDbLine
 62
4
  6
CONTINUOUS
 10
12.1374701318
 20
8.4040896884
 11
12.1374701318
 21
8.4185785763
  0
LINE
  5
317
100
AcDbEntity
  8
0
100
AcDbLine
 62
4
  6
CONTINUOUS
 10
12.1374701318
 20
8.6141785634
 11
12.1374701318
 21
8.6721341151
  0
LINE
  5
318
100
AcDbEntity
  8
0
100
AcDbLine
 62
4
  6
CONTINUOUS
 10
12.1374701318
 20
8.7300896668
 11
12.1374701318
 21
8.7590674427
  0
LINE
  5
319
100
AcDbEntity
  8
0
100
AcDbLine
 62
4
  6
CONTINUOUS
 10
12.1374701318
 20
8.9836452056
 11
12.1374701318
 21
8.9981340935
  0
LINE
  5
31A
100
AcDbEntity
  8
0
100
AcDbLine
 62
4
  6
CONTINUOUS
 10
12.1954256835
 20
7.1612705069
 11
12.1954256835
 21
7.1974927268
  0
LINE
  5
31B
100
AcDbEntity
  8
0
100
AcDbLine
 62
4
  6
CONTINUOUS
 10
12.1954256835
 20
7.4003371578
 11
12.1954256835
 21
7.4438038216
  0
LINE
  5
31C
100
AcDbEntity
  8
0
100
AcDbLine
 62
4
  6
CONTINUOUS
 10
12.1954256835
 20
8.6101593322
 11
12.1954256835
 21
8.646381552
  0
LINE
  5
31D
100
AcDbEntity
  8
0
100
AcDbLine
 62
4
  6
CONTINUOUS
 10
12.1954256835
 20
8.8492259831
 11
12.1954256835
 21
8.8926926468
  0
LINE
  5
31E
100
AcDbEntity
  8
0
100
AcDbLine
 62
4
  6
CONTINUOUS
 10
12.2533812352
 20
8.7510289803
 11
12.2533812352
 21
8.7220512045
  0
LINE
  5
31F
100
AcDbEntity
  8
0
100
AcDbLine
 62
4
  6
CONTINUOUS
 10
12.2533812352
 20
8.6640956528
 11
12.2533812352
 21
8.6061401011
  0
LINE
  5
320
100
AcDbEntity
  8
0
100
AcDbLine
 62
4
  6
CONTINUOUS
 10
12.2533812352
 20
8.410540114
 11
12.2533812352
 21
8.3960512261
  0
LINE
  5
321
100
AcDbEntity
  8
0
100
AcDbLine
 62
4
  6
CONTINUOUS
 10
12.2533812352
 20
7.3021401551
 11
12.2533812352
 21
7.2731623792
  0
LINE
  5
322
100
AcDbEntity
  8
0
100
AcDbLine
 62
4
  6
CONTINUOUS
 10
12.2533812352
 20
7.2152068275
 11
12.2533812352
 21
7.1572512758
  0
LINE
  5
323
100
AcDbEntity
  8
0
100
AcDbLine
 62
4
  6
CONTINUOUS
 10
12.2533812352
 20
6.9616512887
 11
12.2533812352
 21
6.9471624008
  0
LINE
  5
324
100
AcDbEntity
  8
0
100
AcDbLine
 62
4
  6
CONTINUOUS
 10
12.2533812352
 20
8.9538734114
 11
12.2533812352
 21
9.0118289631
  0
LINE
  5
325
100
AcDbEntity
  8
0
100
AcDbLine
 62
4
  6
CONTINUOUS
 10
12.2533812352
 20
8.3960512261
 11
12.2437219763
 21
8.38223221
  0
LINE
  5
326
100
AcDbEntity
  8
0
100
AcDbLine
 62
7
  6
CONTINUOUS
 10
8.7322252776
 20
9.758386523
 11
8.7631349067
 21
9.7562429329
  0
LINE
  5
327
100
AcDbEntity
  8
0
100
AcDbLine
 62
7
  6
CONTINUOUS
 10
8.8864335253
 20
9.9073402608
 11
8.9173431543
 21
9.9051966707
  0
LINE
  5
328
100
AcDbEntity
  8
0
100
AcDbLine
 62
4
  6
CONTINUOUS
 10
12.1567886513
 20
8.9605721298
 11
12.1471293881
 21
8.9684864459
  0
LINE
  5
329
100
AcDbEntity
  8
0
100
AcDbLine
 62
4
  6
CONTINUOUS
 10
12.2050849433
 20
8.9789561025
 11
12.2244034594
 21
8.9631274709
  0
LINE
  5
32A
100
AcDbEntity
  8
0
100
AcDbLine
 62
4
  6
CONTINUOUS
 10
12.176107164
 20
9.0171879381
 11
12.1857664272
 21
9.009273622
  0
LINE
  5
32B
100
AcDbEntity
  8
0
100
AcDbLine
 62
4
  6
CONTINUOUS
 10
12.2437219763
 20
8.7661877402
 11
12.2533812352
 21
8.7510289803
  0
LINE
  5
32C
100
AcDbEntity
  8
0
100
AcDbLine
 62
4
  6
CONTINUOUS
 10
12.1471293881
 20
8.9684864459
 11
12.1374701318
 21
8.9836452056
  0
LINE
  5
32D
100
AcDbEntity
  8
0
100
AcDbLine
 62
4
  6
CONTINUOUS
 10
12.1857664272
 20
9.009273622
 11
12.2050849433
 21
8.9789561025
  0
LINE
  5
32E
100
AcDbEntity
  8
0
100
AcDbLine
 62
4
  6
CONTINUOUS
 10
12.8438533649
 20
7.4817221135
 11
12.8386769877
 21
7.4912110048
  0
LINE
  5
32F
100
AcDbEntity
  8
0
100
AcDbLine
 62
4
  6
CONTINUOUS
 10
12.8619706825
 20
7.5644220953
 11
12.8645588708
 21
7.5596776494
  0
LINE
  5
330
100
AcDbEntity
  8
0
100
AcDbLine
 62
7
  6
CONTINUOUS
 10
12.446566458
 20
9.3461648093
 11
12.446566458
 21
6.4483871587
  0
LINE
  5
331
100
AcDbEntity
  8
0
100
AcDbLine
 62
4
  6
CONTINUOUS
 10
12.8593824944
 20
8.9456108119
 11
12.8516179296
 21
8.9308663738
  0
LINE
  5
332
100
AcDbEntity
  8
0
100
AcDbLine
 62
7
  6
CONTINUOUS
 10
11.8212770539
 20
7.4885263416
 11
11.7182765533
 21
7.3890354921
  0
LINE
  5
333
100
AcDbEntity
  8
0
100
AcDbLine
 62
7
  6
CONTINUOUS
 10
11.8482374582
 20
7.4399598412
 11
11.7452369577
 21
7.3404689916
  0
LINE
  5
334
100
AcDbEntity
  8
0
100
AcDbLine
 62
4
  6
CONTINUOUS
 10
12.8386769877
 20
9.0994774822
 11
12.8412651772
 21
9.1092219254
  0
LINE
  5
335
100
AcDbEntity
  8
0
100
AcDbLine
 62
4
  6
CONTINUOUS
 10
12.8386769877
 20
8.9835663787
 11
12.8412651772
 21
8.9933108219
  0
LINE
  5
336
100
AcDbEntity
  8
0
100
AcDbLine
 62
4
  6
CONTINUOUS
 10
12.8645588708
 20
8.9650996958
 11
12.8593824944
 21
8.9456108119
  0
LINE
  5
337
100
AcDbEntity
  8
0
100
AcDbLine
 62
4
  6
CONTINUOUS
 10
12.1374701318
 20
7.3101786174
 11
12.1471293881
 21
7.3239976336
  0
LINE
  5
338
100
AcDbEntity
  8
0
100
AcDbLine
 62
4
  6
CONTINUOUS
 10
12.1471293881
 20
7.3239976336
 11
12.1664479076
 21
7.3371467777
  0
LINE
  5
339
100
AcDbEntity
  8
0
100
AcDbLine
 62
7
  6
CONTINUOUS
 10
13.0165094129
 20
9.8966874616
 11
12.9855997839
 21
9.8988310517
  0
LINE
  5
33A
100
AcDbEntity
  8
0
100
AcDbLine
 62
7
  6
CONTINUOUS
 10
13.1707176605
 20
10.0456411994
 11
13.1398080315
 21
10.0477847895
  0
LINE
  5
33B
100
AcDbEntity
  8
0
100
AcDbLine
 62
4
  6
CONTINUOUS
 10
12.8386769877
 20
7.4912110048
 11
12.8360888001
 21
7.5031998953
  0
LINE
  5
33C
100
AcDbEntity
  8
0
100
AcDbLine
 62
4
  6
CONTINUOUS
 10
12.8645588708
 20
7.5596776494
 11
12.8671470592
 21
7.5476887596
  0
LINE
  5
33D
100
AcDbEntity
  8
0
100
AcDbLine
 62
4
  6
CONTINUOUS
 10
12.8360888001
 20
7.5031998953
 11
12.8360888001
 21
7.5176887832
  0
LINE
  5
33E
100
AcDbEntity
  8
0
100
AcDbLine
 62
4
  6
CONTINUOUS
 10
12.8360888001
 20
8.9520886055
 11
12.8360888001
 21
8.9665774934
  0
LINE
  5
33F
100
AcDbEntity
  8
0
100
AcDbLine
 62
4
  6
CONTINUOUS
 10
12.8360888001
 20
9.0679997089
 11
12.8360888001
 21
9.0824885968
  0
LINE
  5
340
100
AcDbEntity
  8
0
100
AcDbLine
 62
4
  6
CONTINUOUS
 10
12.8671470592
 20
8.9965774697
 11
12.8671470592
 21
8.9820885818
  0
LINE
  5
341
100
AcDbEntity
  8
0
100
AcDbLine
 62
4
  6
CONTINUOUS
 10
12.8671470592
 20
7.5476887596
 11
12.8671470592
 21
7.5331998717
  0
LINE
  5
342
100
AcDbEntity
  8
0
100
AcDbLine
 62
4
  6
CONTINUOUS
 10
12.8671470592
 20
9.0762663533
 11
12.8671470592
 21
9.1342219051
  0
LINE
  5
343
100
AcDbEntity
  8
0
100
AcDbLine
 62
4
  6
CONTINUOUS
 10
12.8360888001
 20
9.0824885968
 11
12.8386769877
 21
9.0994774822
  0
LINE
  5
344
100
AcDbEntity
  8
0
100
AcDbLine
 62
4
  6
CONTINUOUS
 10
12.8360888001
 20
8.9665774934
 11
12.8386769877
 21
8.9835663787
  0
LINE
  5
345
100
AcDbEntity
  8
0
100
AcDbLine
 62
4
  6
CONTINUOUS
 10
12.8671470592
 20
8.9820885818
 11
12.8645588708
 21
8.9650996958
  0
LINE
  5
346
100
AcDbEntity
  8
0
100
AcDbLine
 62
4
  6
CONTINUOUS
 10
12.1374701318
 20
6.9696897511
 11
12.1471293881
 21
6.9835087673
  0
LINE
  5
347
100
AcDbEntity
  8
0
100
AcDbLine
 62
4
  6
CONTINUOUS
 10
12.2533812352
 20
6.9471624008
 11
12.2437219763
 21
6.9333433848
  0
LINE
  5
348
100
AcDbEntity
  8
0
100
AcDbLine
 62
7
  6
CONTINUOUS
 10
11.8482374582
 20
6.8748533666
 11
11.7452369577
 21
6.7753625171
  0
LINE
  5
349
100
AcDbEntity
  8
0
100
AcDbLine
 62
7
  6
CONTINUOUS
 10
11.8212770539
 20
6.8300262869
 11
11.7182765533
 21
6.7305354374
  0
LINE
  5
34A
100
AcDbEntity
  8
0
100
AcDbLine
 62
4
  6
CONTINUOUS
 10
12.8360888001
 20
7.6263554427
 11
12.8671470592
 21
7.6563554191
  0
LINE
  5
34B
100
AcDbEntity
  8
0
100
AcDbLine
 62
4
  6
CONTINUOUS
 10
12.1471293881
 20
6.9835087673
 11
12.1567886513
 21
6.9900833391
  0
LINE
  5
34C
100
AcDbEntity
  8
0
100
AcDbLine
 62
4
  6
CONTINUOUS
 10
12.1374701318
 20
7.0493786347
 11
12.2533812352
 21
7.0992957241
  0
LINE
  5
34D
100
AcDbEntity
  8
0
100
AcDbLine
 62
4
  6
CONTINUOUS
 10
12.8438533649
 20
8.9306108237
 11
12.8386769877
 21
8.940099715
  0
LINE
  5
34E
100
AcDbEntity
  8
0
100
AcDbLine
 62
4
  6
CONTINUOUS
 10
12.8412651772
 20
9.0512663736
 11
12.8386769877
 21
9.0560108184
  0
LINE
  5
34F
100
AcDbEntity
  8
0
100
AcDbLine
 62
4
  6
CONTINUOUS
 10
12.8619706825
 20
9.0133108054
 11
12.8645588708
 21
9.0085663596
  0
LINE
  5
350
100
AcDbEntity
  8
0
100
AcDbLine
 62
4
  6
CONTINUOUS
 10
12.8542061182
 20
9.0854996954
 11
12.8593824944
 21
9.0760108032
  0
LINE
  5
351
100
AcDbEntity
  8
0
100
AcDbLine
 62
4
  6
CONTINUOUS
 10
12.8464415525
 20
9.1142219202
 11
12.849029742
 21
9.1094774755
  0
LINE
  5
352
100
AcDbEntity
  8
0
100
AcDbLine
 62
4
  6
CONTINUOUS
 10
12.8386769877
 20
8.940099715
 11
12.8360888001
 21
8.9520886055
  0
LINE
  5
353
100
AcDbEntity
  8
0
100
AcDbLine
 62
4
  6
CONTINUOUS
 10
12.8386769877
 20
9.0560108184
 11
12.8360888001
 21
9.0679997089
  0
LINE
  5
354
100
AcDbEntity
  8
0
100
AcDbLine
 62
4
  6
CONTINUOUS
 10
12.8645588708
 20
9.0085663596
 11
12.8671470592
 21
8.9965774697
  0
LINE
  5
355
100
AcDbEntity
  8
0
100
AcDbLine
 62
4
  6
CONTINUOUS
 10
12.8360888001
 20
7.5176887832
 11
12.8386769877
 21
7.5346776686
  0
LINE
  5
356
100
AcDbEntity
  8
0
100
AcDbLine
 62
4
  6
CONTINUOUS
 10
12.8671470592
 20
7.5331998717
 11
12.8645588708
 21
7.5162109856
  0
LINE
  5
357
100
AcDbEntity
  8
0
100
AcDbLine
 62
4
  6
CONTINUOUS
 10
12.8386769877
 20
7.5346776686
 11
12.8412651772
 21
7.5444221118
  0
LINE
  5
358
100
AcDbEntity
  8
0
100
AcDbLine
 62
4
  6
CONTINUOUS
 10
12.8645588708
 20
7.5162109856
 11
12.8593824944
 21
7.4967221017
  0
LINE
  5
359
100
AcDbEntity
  8
0
100
AcDbLine
 62
4
  6
CONTINUOUS
 10
12.8593824944
 20
7.4967221017
 11
12.8516179296
 21
7.4819776637
  0
LINE
  5
35A
100
AcDbEntity
  8
0
100
AcDbLine
 62
4
  6
CONTINUOUS
 10
12.2437219763
 20
6.9333433848
 11
12.2244034594
 21
6.9201942405
  0
LINE
  5
35B
100
AcDbEntity
  8
0
100
AcDbLine
 62
7
  6
CONTINUOUS
 10
9.553433542
 20
10.5516128413
 11
13.4171370761
 21
10.2836640911
  0
LINE
  5
35C
100
AcDbEntity
  8
0
100
AcDbLine
 62
4
  6
CONTINUOUS
 10
12.849029742
 20
9.1094774755
 11
12.8542061182
 21
9.0854996954
  0
LINE
  5
35D
100
AcDbEntity
  8
0
100
AcDbLine
 62
7
  6
CONTINUOUS
 10
13.4171370761
 20
10.2836640911
 11
13.4171370761
 21
7.3858864406
  0
LINE
  5
35E
100
AcDbEntity
  8
0
100
AcDbLine
 62
7
  6
CONTINUOUS
 10
13.1398080315
 20
7.1500071389
 11
12.9977235756
 21
7.0127640853
  0
LINE
  5
35F
100
AcDbEntity
  8
0
100
AcDbLine
 62
7
  6
CONTINUOUS
 10
12.446566458
 20
6.4483871587
 11
13.0165094129
 21
6.998909811
  0
LINE
  5
360
100
AcDbEntity
  8
0
100
AcDbLine
 62
7
  6
CONTINUOUS
 10
13.1707176605
 20
7.1478635488
 11
13.4171370761
 21
7.3858864406
  0
ARC
  5
361
100
AcDbEntity
  8
0
100
AcDbCircle
 62
7
  6
CONTINUOUS
 10
9.8913827308
 20
7.2335229056
 40
0.6699925153
100
AcDbArc
 50
26.6598562642
 51
31.4115094164
  0
ARC
  5
362
100
AcDbEntity
  8
0
100
AcDbCircle
 62
7
  6
CONTINUOUS
 10
9.8983805073
 20
7.245030179
 40
0.6689722376
100
AcDbArc
 50
206.6562307081
 51
211.4151349725
  0
ARC
  5
363
100
AcDbEntity
  8
0
100
AcDbCircle
 62
7
  6
CONTINUOUS
 10
9.7892750456
 20
7.1345276789
 40
0.6689722376
100
AcDbArc
 50
26.6562307081
 51
31.4151349724
  0
ARC
  5
364
100
AcDbEntity
  8
0
100
AcDbCircle
 62
7
  6
CONTINUOUS
 10
9.8867594171
 20
7.1959927109
 40
0.6200987324
100
AcDbArc
 50
263.5283744339
 51
266.0300335618
  0
ARC
  5
365
100
AcDbEntity
  8
0
100
AcDbCircle
 62
7
  6
CONTINUOUS
 10
9.8008961358
 20
7.183565147
 40
0.6200987324
100
AcDbArc
 50
83.5283744339
 51
86.0300335618
  0
ARC
  5
366
100
AcDbEntity
  8
0
100
AcDbCircle
 62
7
  6
CONTINUOUS
 10
9.903981849
 20
7.2839885755
 40
0.6191624918
100
AcDbArc
 50
83.5264827432
 51
86.0319252525
  0
ARC
  5
367
100
AcDbEntity
  8
0
100
AcDbCircle
 62
7
  6
CONTINUOUS
 10
9.9043060066
 20
7.2886625721
 40
0.614477268
100
AcDbArc
 50
86.031919382
 51
88.5488078505
  0
ARC
  5
368
100
AcDbEntity
  8
0
100
AcDbCircle
 62
7
  6
CONTINUOUS
 10
9.8863500469
 20
7.1903861353
 40
0.614477268
100
AcDbArc
 50
266.031919382
 51
268.5488078505
  0
ARC
  5
369
100
AcDbEntity
  8
0
100
AcDbCircle
 62
7
  6
CONTINUOUS
 10
9.801305506
 20
7.1891717226
 40
0.614477268
100
AcDbArc
 50
86.031919382
 51
88.5488078504
  0
ARC
  5
36A
100
AcDbEntity
  8
0
100
AcDbCircle
 62
7
  6
CONTINUOUS
 10
9.9980096837
 20
7.2345023233
 40
0.5591685417
100
AcDbArc
 50
326.2950117378
 51
331.6569605865
  0
ARC
  5
36B
100
AcDbEntity
  8
0
100
AcDbCircle
 62
7
  6
CONTINUOUS
 10
9.7926463698
 20
7.2445463841
 40
0.5591685417
100
AcDbArc
 50
146.2950117378
 51
151.6569605865
  0
ARC
  5
36C
100
AcDbEntity
  8
0
100
AcDbCircle
 62
7
  6
CONTINUOUS
 10
9.8950091831
 20
7.1350114738
 40
0.5591685417
100
AcDbArc
 50
326.2950117378
 51
331.6569605865
  0
ARC
  5
36D
100
AcDbEntity
  8
0
100
AcDbCircle
 62
7
  6
CONTINUOUS
 10
9.8913827308
 20
8.6824117309
 40
0.6699925153
100
AcDbArc
 50
26.6598562642
 51
31.4115094164
  0
ARC
  5
36E
100
AcDbEntity
  8
0
100
AcDbCircle
 62
7
  6
CONTINUOUS
 10
9.8983805073
 20
8.6939190043
 40
0.6689722376
100
AcDbArc
 50
206.6562307081
 51
211.4151349725
  0
ARC
  5
36F
100
AcDbEntity
  8
0
100
AcDbCircle
 62
7
  6
CONTINUOUS
 10
9.7892750456
 20
8.5834165042
 40
0.6689722376
100
AcDbArc
 50
26.6562307081
 51
31.4151349724
  0
ARC
  5
370
100
AcDbEntity
  8
0
100
AcDbCircle
 62
7
  6
CONTINUOUS
 10
9.8867594171
 20
8.6448815362
 40
0.6200987324
100
AcDbArc
 50
263.5283744339
 51
266.0300335618
  0
ARC
  5
371
100
AcDbEntity
  8
0
100
AcDbCircle
 62
7
  6
CONTINUOUS
 10
9.8008961358
 20
8.6324539722
 40
0.6200987324
100
AcDbArc
 50
83.5283744338
 51
86.0300335618
  0
ARC
  5
372
100
AcDbEntity
  8
0
100
AcDbCircle
 62
7
  6
CONTINUOUS
 10
9.903981849
 20
8.7328774008
 40
0.6191624918
100
AcDbArc
 50
83.5264827433
 51
86.0319252524
  0
ARC
  5
373
100
AcDbEntity
  8
0
100
AcDbCircle
 62
7
  6
CONTINUOUS
 10
9.9043060066
 20
8.7375513974
 40
0.614477268
100
AcDbArc
 50
86.031919382
 51
88.5488078505
  0
ARC
  5
374
100
AcDbEntity
  8
0
100
AcDbCircle
 62
7
  6
CONTINUOUS
 10
9.8863500469
 20
8.6392749605
 40
0.614477268
100
AcDbArc
 50
266.031919382
 51
268.5488078504
  0
ARC
  5
375
100
AcDbEntity
  8
0
100
AcDbCircle
 62
7
  6
CONTINUOUS
 10
9.801305506
 20
8.6380605479
 40
0.614477268
100
AcDbArc
 50
86.031919382
 51
88.5488078504
  0
ARC
  5
376
100
AcDbEntity
  8
0
100
AcDbCircle
 62
7
  6
CONTINUOUS
 10
9.9980096837
 20
8.6833911486
 40
0.5591685417
100
AcDbArc
 50
326.2950117378
 51
331.6569605865
  0
ARC
  5
377
100
AcDbEntity
  8
0
100
AcDbCircle
 62
7
  6
CONTINUOUS
 10
9.7926463698
 20
8.6934352094
 40
0.5591685417
100
AcDbArc
 50
146.2950117378
 51
151.6569605865
  0
ARC
  5
378
100
AcDbEntity
  8
0
100
AcDbCircle
 62
7
  6
CONTINUOUS
 10
9.8950091831
 20
8.5839002991
 40
0.5591685417
100
AcDbArc
 50
326.2950117378
 51
331.6569605865
  0
ARC
  5
379
100
AcDbEntity
  8
0
100
AcDbCircle
 62
7
  6
CONTINUOUS
 10
11.2494745405
 20
7.1393389187
 40
0.6699925153
100
AcDbArc
 50
26.6598562642
 51
31.4115094164
  0
ARC
  5
37A
100
AcDbEntity
  8
0
100
AcDbCircle
 62
7
  6
CONTINUOUS
 10
11.256472317
 20
7.1508461921
 40
0.6689722376
100
AcDbArc
 50
206.6562307081
 51
211.4151349724
  0
ARC
  5
37B
100
AcDbEntity
  8
0
100
AcDbCircle
 62
7
  6
CONTINUOUS
 10
11.1473668554
 20
7.040343692
 40
0.6689722376
100
AcDbArc
 50
26.6562307081
 51
31.4151349724
  0
ARC
  5
37C
100
AcDbEntity
  8
0
100
AcDbCircle
 62
7
  6
CONTINUOUS
 10
11.2448512268
 20
7.101808724
 40
0.6200987324
100
AcDbArc
 50
263.5283744338
 51
266.0300335619
  0
ARC
  5
37D
100
AcDbEntity
  8
0
100
AcDbCircle
 62
7
  6
CONTINUOUS
 10
11.1589879455
 20
7.0893811601
 40
0.6200987324
100
AcDbArc
 50
83.5283744339
 51
86.0300335618
  0
ARC
  5
37E
100
AcDbEntity
  8
0
100
AcDbCircle
 62
7
  6
CONTINUOUS
 10
11.2620736587
 20
7.1898045886
 40
0.6191624918
100
AcDbArc
 50
83.5264827432
 51
86.0319252524
  0
ARC
  5
37F
100
AcDbEntity
  8
0
100
AcDbCircle
 62
7
  6
CONTINUOUS
 10
11.2623978163
 20
7.1944785852
 40
0.614477268
100
AcDbArc
 50
86.031919382
 51
88.5488078505
  0
ARC
  5
380
100
AcDbEntity
  8
0
100
AcDbCircle
 62
7
  6
CONTINUOUS
 10
11.2444418566
 20
7.0962021484
 40
0.614477268
100
AcDbArc
 50
266.031919382
 51
268.5488078505
  0
ARC
  5
381
100
AcDbEntity
  8
0
100
AcDbCircle
 62
7
  6
CONTINUOUS
 10
11.1593973158
 20
7.0949877357
 40
0.614477268
100
AcDbArc
 50
86.031919382
 51
88.5488078504
  0
ARC
  5
382
100
AcDbEntity
  8
0
100
AcDbCircle
 62
7
  6
CONTINUOUS
 10
11.3561014934
 20
7.1403183364
 40
0.5591685417
100
AcDbArc
 50
326.2950117378
 51
331.6569605865
  0
ARC
  5
383
100
AcDbEntity
  8
0
100
AcDbCircle
 62
7
  6
CONTINUOUS
 10
11.1507381795
 20
7.1503623972
 40
0.5591685417
100
AcDbArc
 50
146.2950117378
 51
151.6569605865
  0
ARC
  5
384
100
AcDbEntity
  8
0
100
AcDbCircle
 62
7
  6
CONTINUOUS
 10
11.2531009928
 20
7.0408274869
 40
0.5591685417
100
AcDbArc
 50
326.2950117378
 51
331.6569605865
  0
ARC
  5
385
100
AcDbEntity
  8
0
100
AcDbCircle
 62
7
  6
CONTINUOUS
 10
11.2494745405
 20
8.588227744
 40
0.6699925153
100
AcDbArc
 50
26.6598562642
 51
31.4115094164
  0
ARC
  5
386
100
AcDbEntity
  8
0
100
AcDbCircle
 62
7
  6
CONTINUOUS
 10
11.256472317
 20
8.5997350174
 40
0.6689722376
100
AcDbArc
 50
206.6562307081
 51
211.4151349725
  0
ARC
  5
387
100
AcDbEntity
  8
0
100
AcDbCircle
 62
7
  6
CONTINUOUS
 10
11.1473668554
 20
8.4892325173
 40
0.6689722376
100
AcDbArc
 50
26.6562307081
 51
31.4151349724
  0
ARC
  5
388
100
AcDbEntity
  8
0
100
AcDbCircle
 62
7
  6
CONTINUOUS
 10
11.2448512268
 20
8.5506975493
 40
0.6200987324
100
AcDbArc
 50
263.5283744338
 51
266.0300335618
  0
ARC
  5
389
100
AcDbEntity
  8
0
100
AcDbCircle
 62
7
  6
CONTINUOUS
 10
11.1589879455
 20
8.5382699853
 40
0.6200987324
100
AcDbArc
 50
83.5283744339
 51
86.0300335618
  0
ARC
  5
38A
100
AcDbEntity
  8
0
100
AcDbCircle
 62
7
  6
CONTINUOUS
 10
11.2620736587
 20
8.6386934139
 40
0.6191624918
100
AcDbArc
 50
83.5264827432
 51
86.0319252524
  0
ARC
  5
38B
100
AcDbEntity
  8
0
100
AcDbCircle
 62
7
  6
CONTINUOUS
 10
11.2623978163
 20
8.6433674105
 40
0.614477268
100
AcDbArc
 50
86.031919382
 51
88.5488078505
  0
ARC
  5
38C
100
AcDbEntity
  8
0
100
AcDbCircle
 62
7
  6
CONTINUOUS
 10
11.2444418566
 20
8.5450909736
 40
0.614477268
100
AcDbArc
 50
266.031919382
 51
268.5488078504
  0
ARC
  5
38D
100
AcDbEntity
  8
0
100
AcDbCircle
 62
7
  6
CONTINUOUS
 10
11.1593973158
 20
8.543876561
 40
0.614477268
100
AcDbArc
 50
86.031919382
 51
88.5488078504
  0
ARC
  5
38E
100
AcDbEntity
  8
0
100
AcDbCircle
 62
7
  6
CONTINUOUS
 10
11.3561014934
 20
8.5892071617
 40
0.5591685417
100
AcDbArc
 50
326.2950117378
 51
331.6569605865
  0
ARC
  5
38F
100
AcDbEntity
  8
0
100
AcDbCircle
 62
7
  6
CONTINUOUS
 10
11.1507381795
 20
8.5992512225
 40
0.5591685417
100
AcDbArc
 50
146.2950117378
 51
151.6569605865
  0
ARC
  5
390
100
AcDbEntity
  8
0
100
AcDbCircle
 62
7
  6
CONTINUOUS
 10
11.2531009928
 20
8.4897163122
 40
0.5591685417
100
AcDbArc
 50
326.2950117378
 51
331.6569605865
  0
SPLINE
  5
391
100
AcDbEntity
  8
0
100
AcDbSpline
 62
7
  6
CONTINUOUS
 70
0
 71
3
 72
15
 73
11
 74
0
 42
0.0000001
 43
0.0000001
 44
0.0000000001
 40
0.0
 40
0.0
 40
0.0
 40
0.0
 40
0.130853243
 40
0.2612478082
 40
0.3906112907
 40
0.5182255703
 40
0.6433665409
 40
0.7654878953
 40
0.8843462897
 40
1.0
 40
1.0
 40
1.0
 40
1.0
 10
10.4901456485
 20
6.9690373535
 30
0.0
 10
10.4917893776
 20
6.9936538878
 30
0.0
 10
10.4947775776
 20
7.0428210221
 30
0.0
 10
10.4981861734
 20
7.1163917138
 30
0.0
 10
10.5003325171
 20
7.189400185
 30
0.0
 10
10.5010756164
 20
7.2614466067
 30
0.0
 10
10.5003605194
 20
7.3321280988
 30
0.0
 10
10.4982358134
 20
7.4011294
 30
0.0
 10
10.4948395015
 20
7.4682879051
 30
0.0
 10
10.4918124307
 20
7.512402025
 30
0.0
 10
10.4901456485
 20
7.5341438281
 30
0.0
  0
SPLINE
  5
392
100
AcDbEntity
  8
0
100
AcDbSpline
 62
7
  6
CONTINUOUS
 70
0
 71
3
 72
18
 73
14
 74
0
 42
0.0000001
 43
0.0000001
 44
0.0000000001
 40
0.0
 40
0.0
 40
0.0
 40
0.0
 40
0.1209533837
 40
0.2437778942
 40
0.3058582232
 40
0.3683347693
 40
0.4311529717
 40
0.4942444779
 40
0.5575323574
 40
0.6209360738
 40
0.7477793722
 40
0.8742481621
 40
1.0
 40
1.0
 40
1.0
 40
1.0
 10
10.4631852442
 20
7.5827103285
 30
0.0
 10
10.4447314575
 20
7.5973174262
 30
0.0
 10
10.4072598678
 20
7.6264080892
 30
0.0
 10
10.3594608408
 20
7.6618749006
 30
0.0
 10
10.3202842496
 20
7.6898455894
 30
0.0
 10
10.2903423656
 20
7.7106511431
 30
0.0
 10
10.2599660834
 20
7.7311708174
 30
0.0
 10
10.2291861267
 20
7.7513690939
 30
0.0
 10
10.1980425458
 20
7.771214951
 30
0.0
 10
10.1560911284
 20
7.797175686
 30
0.0
 10
10.1030649687
 20
7.8285918275
 30
0.0
 10
10.0387413323
 20
7.8646977895
 30
0.0
 10
9.9954631781
 20
7.8878478567
 30
0.0
 10
9.9737886813
 20
7.8992033327
 30
0.0
  0
SPLINE
  5
393
100
AcDbEntity
  8
0
100
AcDbSpline
 62
7
  6
CONTINUOUS
 70
0
 71
3
 72
15
 73
11
 74
0
 42
0.0000001
 43
0.0000001
 44
0.0000000001
 40
0.0
 40
0.0
 40
0.0
 40
0.0
 40
0.112346891
 40
0.2287649619
 40
0.3494215021
 40
0.4741363415
 40
0.6023573719
 40
0.7332837662
 40
0.866070494
 40
1.0
 40
1.0
 40
1.0
 40
1.0
 10
9.9198678727
 20
7.9029427535
 30
0.0
 10
9.9012381935
 20
7.8942451501
 30
0.0
 10
9.8633675731
 20
7.8763975944
 30
0.0
 10
9.8057419151
 20
7.8486770231
 30
0.0
 10
9.746325284
 20
7.819463592
 30
0.0
 10
9.6852391074
 20
7.7887563567
 30
0.0
 10
9.6227468593
 20
7.7566675832
 30
0.0
 10
9.5592010429
 20
7.7234019162
 30
0.0
 10
9.4949641291
 20
7.6892080553
 30
0.0
 10
9.4520116521
 20
7.6660228476
 30
0.0
 10
9.4304713099
 20
7.6543292831
 30
0.0
  0
SPLINE
  5
394
100
AcDbEntity
  8
0
100
AcDbSpline
 62
7
  6
CONTINUOUS
 70
0
 71
3
 72
15
 73
11
 74
0
 42
0.0000001
 43
0.0000001
 44
0.0000000001
 40
0.0
 40
0.0
 40
0.0
 40
0.0
 40
0.130853243
 40
0.2612478082
 40
0.3906112907
 40
0.5182255703
 40
0.6433665409
 40
0.7654878953
 40
0.8843462897
 40
1.0
 40
1.0
 40
1.0
 40
1.0
 10
9.300510405
 20
7.5100113539
 30
0.0
 10
9.2988666759
 20
7.4853948196
 30
0.0
 10
9.2958784758
 20
7.4362276853
 30
0.0
 10
9.29246988
 20
7.3626569936
 30
0.0
 10
9.2903235363
 20
7.2896485224
 30
0.0
 10
9.2895804371
 20
7.2176021007
 30
0.0
 10
9.2902955341
 20
7.1469206086
 30
0.0
 10
9.2924202401
 20
7.0779193074
 30
0.0
 10
9.295816552
 20
7.0107608023
 30
0.0
 10
9.2988436227
 20
6.9666466824
 30
0.0
 10
9.300510405
 20
6.9449048793
 30
0.0
  0
SPLINE
  5
395
100
AcDbEntity
  8
0
100
AcDbSpline
 62
7
  6
CONTINUOUS
 70
0
 71
3
 72
18
 73
14
 74
0
 42
0.0000001
 43
0.0000001
 44
0.0000000001
 40
0.0
 40
0.0
 40
0.0
 40
0.0
 40
0.1209533837
 40
0.2437778942
 40
0.3058582232
 40
0.3683347693
 40
0.4311529717
 40
0.4942444779
 40
0.5575323574
 40
0.6209360738
 40
0.7477793722
 40
0.8742481621
 40
1.0
 40
1.0
 40
1.0
 40
1.0
 10
9.3274708093
 20
6.8963383789
 30
0.0
 10
9.345924596
 20
6.8817312812
 30
0.0
 10
9.3833961856
 20
6.8526406182
 30
0.0
 10
9.4311952126
 20
6.8171738068
 30
0.0
 10
9.4703718038
 20
6.789203118
 30
0.0
 10
9.5003136879
 20
6.7683975643
 30
0.0
 10
9.53068997
 20
6.74787789
 30
0.0
 10
9.5614699268
 20
6.7276796135
 30
0.0
 10
9.5926135077
 20
6.7078337564
 30
0.0
 10
9.634564925
 20
6.6818730214
 30
0.0
 10
9.6875910848
 20
6.6504568799
 30
0.0
 10
9.7519147212
 20
6.6143509179
 30
0.0
 10
9.7951928754
 20
6.5912008507
 30
0.0
 10
9.8168673721
 20
6.5798453747
 30
0.0
  0
SPLINE
  5
396
100
AcDbEntity
  8
0
100
AcDbSpline
 62
7
  6
CONTINUOUS
 70
0
 71
3
 72
15
 73
11
 74
0
 42
0.0000001
 43
0.0000001
 44
0.0000000001
 40
0.0
 40
0.0
 40
0.0
 40
0.0
 40
0.112346891
 40
0.2287649619
 40
0.3494215021
 40
0.4741363415
 40
0.6023573719
 40
0.7332837662
 40
0.866070494
 40
1.0
 40
1.0
 40
1.0
 40
1.0
 10
9.8707881808
 20
6.5761059539
 30
0.0
 10
9.88941786
 20
6.5848035573
 30
0.0
 10
9.9272884804
 20
6.602651113
 30
0.0
 10
9.9849141383
 20
6.6303716843
 30
0.0
 10
10.0443307695
 20
6.6595851154
 30
0.0
 10
10.1054169461
 20
6.6902923506
 30
0.0
 10
10.1679091941
 20
6.7223811242
 30
0.0
 10
10.2314550105
 20
6.7556467912
 30
0.0
 10
10.2956919244
 20
6.7898406521
 30
0.0
 10
10.3386444013
 20
6.8130258598
 30
0.0
 10
10.3601847436
 20
6.8247194243
 30
0.0
  0
SPLINE
  5
397
100
AcDbEntity
  8
0
100
AcDbSpline
 62
7
  6
CONTINUOUS
 70
0
 71
3
 72
49
 73
45
 74
0
 42
0.0000001
 43
0.0000001
 44
0.0000000001
 40
0.0
 40
0.0
 40
0.0
 40
0.0
 40
0.031187151
 40
0.0621645213
 40
0.0929401585
 40
0.1082629014
 40
0.1235424257
 40
0.1387821476
 40
0.1539858757
 40
0.1691576791
 40
0.1843020069
 40
0.1994235946
 40
0.2145274341
 40
0.2296186839
 40
0.2447026442
 40
0.2597846952
 40
0.2748702365
 40
0.2899646369
 40
0.3050731598
 40
0.3202009317
 40
0.3353528523
 40
0.3505335935
 40
0.3657474896
 40
0.3809985718
 40
0.3962904382
 40
0.4269990655
 40
0.4579035252
 40
0.4890160735
 40
0.5203408316
 40
0.5518737651
 40
0.5836029699
 40
0.6155093002
 40
0.6475671858
 40
0.6797456153
 40
0.7120093051
 40
0.7443199991
 40
0.776637812
 40
0.8089225842
 40
0.8411353274
 40
0.8732395264
 40
0.9052026864
 40
0.9369967424
 40
0.9686011451
 40
1.0
 40
1.0
 40
1.0
 40
1.0
 10
9.8320228758
 20
7.7144651352
 30
0.0
 10
9.8145461268
 20
7.7156771519
 30
0.0
 10
9.7795669026
 20
7.7163965264
 30
0.0
 10
9.7274403757
 20
7.7122969844
 30
0.0
 10
9.6847553482
 20
7.7045784149
 30
0.0
 10
9.6513828163
 20
7.6958702624
 30
0.0
 10
9.6268197399
 20
7.6881006863
 30
0.0
 10
9.6027515076
 20
7.6791028584
 30
0.0
 10
9.579235312
 20
7.6688981415
 30
0.0
 10
9.5563278557
 20
7.6575115931
 30
0.0
 10
9.534084799
 20
7.6449698091
 30
0.0
 10
9.5125591792
 20
7.6313040776
 30
0.0
 10
9.4918037508
 20
7.6165460617
 30
0.0
 10
9.4718675616
 20
7.6007327518
 30
0.0
 10
9.4527999105
 20
7.5839007845
 30
0.0
 10
9.4346454708
 20
7.5660922508
 30
0.0
 10
9.4174494227
 20
7.5473486788
 30
0.0
 10
9.4012518342
 20
7.527716584
 30
0.0
 10
9.3860930975
 20
7.5072422003
 30
0.0
 10
9.3720085411
 20
7.4859758476
 30
0.0
 10
9.3590331283
 20
7.4639681377
 30
0.0
 10
9.347197332
 20
7.4412726023
 30
0.0
 10
9.3365301762
 20
7.4179439171
 30
0.0
 10
9.3270570072
 20
7.3940376386
 30
0.0
 10
9.3160347188
 20
7.3614310379
 30
0.0
 10
9.3053558994
 20
7.3194882341
 30
0.0
 10
9.2976404257
 20
7.2678902229
 30
0.0
 10
9.2950721668
 20
7.2154342547
 30
0.0
 10
9.2976750882
 20
7.1626290205
 30
0.0
 10
9.3054218347
 20
7.1099816485
 30
0.0
 10
9.3182362293
 20
7.0579984282
 30
0.0
 10
9.3359935536
 20
7.007178552
 30
0.0
 10
9.3585219703
 20
6.9580098364
 30
0.0
 10
9.3856041561
 20
6.9109640557
 30
0.0
 10
9.4169794047
 20
6.8664925504
 30
0.0
 10
9.4523461118
 20
6.8250219695
 30
0.0
 10
9.4913646358
 20
6.7869502862
 30
0.0
 10
9.5336604862
 20
6.7526429986
 30
0.0
 10
9.5788278579
 20
6.7224298321
 30
0.0
 10
9.6264335816
 20
6.696601226
 30
0.0
 10
9.6760204414
 20
6.675406483
 30
0.0
 10
9.7271145453
 20
6.659049499
 30
0.0
 10
9.7792184574
 20
6.6476902986
 30
0.0
 10
9.8144274915
 20
6.6435076486
 30
0.0
 10
9.8320228758
 20
6.6422874045
 30
0.0
  0
SPLINE
  5
398
100
AcDbEntity
  8
0
100
AcDbSpline
 62
7
  6
CONTINUOUS
 70
0
 71
3
 72
49
 73
45
 74
0
 42
0.0000001
 43
0.0000001
 44
0.0000000001
 40
0.0
 40
0.0
 40
0.0
 40
0.0
 40
0.031187151
 40
0.0621645213
 40
0.0929401585
 40
0.1082629014
 40
0.1235424257
 40
0.1387821476
 40
0.1539858757
 40
0.1691576791
 40
0.1843020069
 40
0.1994235946
 40
0.2145274341
 40
0.2296186839
 40
0.2447026442
 40
0.2597846952
 40
0.2748702365
 40
0.2899646369
 40
0.3050731598
 40
0.3202009317
 40
0.3353528523
 40
0.3505335935
 40
0.3657474896
 40
0.3809985718
 40
0.3962904382
 40
0.4269990655
 40
0.4579035252
 40
0.4890160735
 40
0.5203408316
 40
0.5518737651
 40
0.5836029699
 40
0.6155093002
 40
0.6475671858
 40
0.6797456153
 40
0.7120093051
 40
0.7443199991
 40
0.776637812
 40
0.8089225842
 40
0.8411353274
 40
0.8732395264
 40
0.9052026864
 40
0.9369967424
 40
0.9686011451
 40
1.0
 40
1.0
 40
1.0
 40
1.0
 10
9.8320228758
 20
6.6422874045
 30
0.0
 10
9.8494996248
 20
6.6410753878
 30
0.0
 10
9.884478849
 20
6.6403560133
 30
0.0
 10
9.9366053759
 20
6.6444555553
 30
0.0
 10
9.9792904034
 20
6.6521741248
 30
0.0
 10
10.0126629353
 20
6.6608822773
 30
0.0
 10
10.0372260117
 20
6.6686518534
 30
0.0
 10
10.061294244
 20
6.6776496813
 30
0.0
 10
10.0848104396
 20
6.6878543982
 30
0.0
 10
10.1077178959
 20
6.6992409466
 30
0.0
 10
10.1299609527
 20
6.7117827306
 30
0.0
 10
10.1514865724
 20
6.7254484621
 30
0.0
 10
10.1722420008
 20
6.740206478
 30
0.0
 10
10.19217819
 20
6.7560197879
 30
0.0
 10
10.2112458411
 20
6.7728517552
 30
0.0
 10
10.2294002808
 20
6.790660289
 30
0.0
 10
10.2465963289
 20
6.809403861
 30
0.0
 10
10.2627939174
 20
6.8290359557
 30
0.0
 10
10.2779526541
 20
6.8495103394
 30
0.0
 10
10.2920372105
 20
6.8707766921
 30
0.0
 10
10.3050126233
 20
6.892784402
 30
0.0
 10
10.3168484196
 20
6.9154799374
 30
0.0
 10
10.3275155754
 20
6.9388086226
 30
0.0
 10
10.3369887444
 20
6.9627149011
 30
0.0
 10
10.3480110328
 20
6.9953215018
 30
0.0
 10
10.3586898522
 20
7.0372643056
 30
0.0
 10
10.3664053259
 20
7.0888623168
 30
0.0
 10
10.3689735848
 20
7.141318285
 30
0.0
 10
10.3663706635
 20
7.1941235192
 30
0.0
 10
10.3586239169
 20
7.2467708912
 30
0.0
 10
10.3458095223
 20
7.2987541116
 30
0.0
 10
10.328052198
 20
7.3495739878
 30
0.0
 10
10.3055237813
 20
7.3987427033
 30
0.0
 10
10.2784415955
 20
7.445788484
 30
0.0
 10
10.2470663469
 20
7.4902599893
 30
0.0
 10
10.2116996398
 20
7.5317305702
 30
0.0
 10
10.1726811158
 20
7.5698022535
 30
0.0
 10
10.1303852655
 20
7.6041095412
 30
0.0
 10
10.0852178937
 20
7.6343227076
 30
0.0
 10
10.03761217
 20
7.6601513137
 30
0.0
 10
9.9880253102
 20
7.6813460567
 30
0.0
 10
9.9369312063
 20
7.6977030407
 30
0.0
 10
9.8848272942
 20
7.7090622411
 30
0.0
 10
9.8496182601
 20
7.7132448912
 30
0.0
 10
9.8320228758
 20
7.7144651352
 30
0.0
  0
SPLINE
  5
399
100
AcDbEntity
  8
0
100
AcDbSpline
 62
7
  6
CONTINUOUS
 70
0
 71
3
 72
15
 73
11
 74
0
 42
0.0000001
 43
0.0000001
 44
0.0000000001
 40
0.0
 40
0.0
 40
0.0
 40
0.0
 40
0.1156537103
 40
0.2345121048
 40
0.3566334592
 40
0.4817744298
 40
0.6093887094
 40
0.7387521918
 40
0.869146757
 40
1.0
 40
1.0
 40
1.0
 40
1.0
 10
10.3871451479
 20
6.869546504
 30
0.0
 10
10.3854783657
 20
6.891288307
 30
0.0
 10
10.3824512949
 20
6.9354024269
 30
0.0
 10
10.379054983
 20
7.002560932
 30
0.0
 10
10.376930277
 20
7.0715622332
 30
0.0
 10
10.37621518
 20
7.1422437253
 30
0.0
 10
10.3769582793
 20
7.214290147
 30
0.0
 10
10.379104623
 20
7.2872986183
 30
0.0
 10
10.3825132188
 20
7.3608693099
 30
0.0
 10
10.3855014188
 20
7.4100364442
 30
0.0
 10
10.3871451479
 20
7.4346529785
 30
0.0
  0
SPLINE
  5
39A
100
AcDbEntity
  8
0
100
AcDbSpline
 62
7
  6
CONTINUOUS
 70
0
 71
3
 72
18
 73
14
 74
0
 42
0.0000001
 43
0.0000001
 44
0.0000000001
 40
0.0
 40
0.0
 40
0.0
 40
0.0
 40
0.1257518379
 40
0.2522206279
 40
0.3790639262
 40
0.4424676427
 40
0.5057555221
 40
0.5688470283
 40
0.6316652308
 40
0.6941417768
 40
0.7562221058
 40
0.8790466163
 40
1.0
 40
1.0
 40
1.0
 40
1.0
 10
10.3601847436
 20
7.483219479
 30
0.0
 10
10.3385102469
 20
7.4945749551
 30
0.0
 10
10.2952320926
 20
7.5177250222
 30
0.0
 10
10.2309084562
 20
7.5538309843
 30
0.0
 10
10.1778822965
 20
7.5852471257
 30
0.0
 10
10.1359308791
 20
7.6112078607
 30
0.0
 10
10.1047872982
 20
7.6310537178
 30
0.0
 10
10.0740073415
 20
7.6512519943
 30
0.0
 10
10.0436310593
 20
7.6717716686
 30
0.0
 10
10.0136891753
 20
7.6925772223
 30
0.0
 10
9.9745125841
 20
7.7205479111
 30
0.0
 10
9.9267135571
 20
7.7560147226
 30
0.0
 10
9.8892419675
 20
7.7851053855
 30
0.0
 10
9.8707881808
 20
7.7997124832
 30
0.0
  0
SPLINE
  5
39B
100
AcDbEntity
  8
0
100
AcDbSpline
 62
7
  6
CONTINUOUS
 70
0
 71
3
 72
15
 73
11
 74
0
 42
0.0000001
 43
0.0000001
 44
0.0000000001
 40
0.0
 40
0.0
 40
0.0
 40
0.0
 40
0.1339295061
 40
0.2667162338
 40
0.3976426282
 40
0.5258636586
 40
0.6505784979
 40
0.7712350381
 40
0.887653109
 40
1.0
 40
1.0
 40
1.0
 40
1.0
 10
9.8168673721
 20
7.803451904
 30
0.0
 10
9.7953270299
 20
7.7917583395
 30
0.0
 10
9.7523745529
 20
7.7685731318
 30
0.0
 10
9.688137639
 20
7.7343792709
 30
0.0
 10
9.6245918226
 20
7.7011136039
 30
0.0
 10
9.5620995746
 20
7.6690248303
 30
0.0
 10
9.501013398
 20
7.6383175951
 30
0.0
 10
9.4415967668
 20
7.609104164
 30
0.0
 10
9.3839711089
 20
7.5813835927
 30
0.0
 10
9.3461004885
 20
7.563536037
 30
0.0
 10
9.3274708093
 20
7.5548384336
 30
0.0
  0
SPLINE
  5
39C
100
AcDbEntity
  8
0
100
AcDbSpline
 62
7
  6
CONTINUOUS
 70
0
 71
3
 72
15
 73
11
 74
0
 42
0.0000001
 43
0.0000001
 44
0.0000000001
 40
0.0
 40
0.0
 40
0.0
 40
0.0
 40
0.130853243
 40
0.2612478082
 40
0.3906112907
 40
0.5182255703
 40
0.6433665409
 40
0.7654878953
 40
0.8843462897
 40
1.0
 40
1.0
 40
1.0
 40
1.0
 10
11.8482374582
 20
6.8748533666
 30
0.0
 10
11.8498811873
 20
6.8994699009
 30
0.0
 10
11.8528693874
 20
6.9486370352
 30
0.0
 10
11.8562779832
 20
7.0222077269
 30
0.0
 10
11.8584243269
 20
7.0952161981
 30
0.0
 10
11.8591674261
 20
7.1672626198
 30
0.0
 10
11.8584523291
 20
7.2379441119
 30
0.0
 10
11.8563276231
 20
7.3069454131
 30
0.0
 10
11.8529313112
 20
7.3741039182
 30
0.0
 10
11.8499042405
 20
7.4182180381
 30
0.0
 10
11.8482374582
 20
7.4399598412
 30
0.0
  0
SPLINE
  5
39D
100
AcDbEntity
  8
0
100
AcDbSpline
 62
7
  6
CONTINUOUS
 70
0
 71
3
 72
18
 73
14
 74
0
 42
0.0000001
 43
0.0000001
 44
0.0000000001
 40
0.0
 40
0.0
 40
0.0
 40
0.0
 40
0.1209533837
 40
0.2437778942
 40
0.3058582232
 40
0.3683347693
 40
0.4311529717
 40
0.4942444779
 40
0.5575323574
 40
0.6209360738
 40
0.7477793722
 40
0.8742481621
 40
1.0
 40
1.0
 40
1.0
 40
1.0
 10
11.8212770539
 20
7.4885263416
 30
0.0
 10
11.8028232672
 20
7.5031334393
 30
0.0
 10
11.7653516776
 20
7.5322241023
 30
0.0
 10
11.7175526506
 20
7.5676909137
 30
0.0
 10
11.6783760594
 20
7.5956616025
 30
0.0
 10
11.6484341753
 20
7.6164671562
 30
0.0
 10
11.6180578932
 20
7.6369868305
 30
0.0
 10
11.5872779364
 20
7.657185107
 30
0.0
 10
11.5561343555
 20
7.6770309641
 30
0.0
 10
11.5141829382
 20
7.7029916991
 30
0.0
 10
11.4611567784
 20
7.7344078406
 30
0.0
 10
11.396833142
 20
7.7705138026
 30
0.0
 10
11.3535549878
 20
7.7936638698
 30
0.0
 10
11.3318804911
 20
7.8050193458
 30
0.0
  0
SPLINE
  5
39E
100
AcDbEntity
  8
0
100
AcDbSpline
 62
7
  6
CONTINUOUS
 70
0
 71
3
 72
15
 73
11
 74
0
 42
0.0000001
 43
0.0000001
 44
0.0000000001
 40
0.0
 40
0.0
 40
0.0
 40
0.0
 40
0.112346891
 40
0.2287649619
 40
0.3494215021
 40
0.4741363415
 40
0.6023573719
 40
0.7332837662
 40
0.866070494
 40
1.0
 40
1.0
 40
1.0
 40
1.0
 10
11.2779596824
 20
7.8087587666
 30
0.0
 10
11.2593300032
 20
7.8000611632
 30
0.0
 10
11.2214593828
 20
7.7822136075
 30
0.0
 10
11.1638337249
 20
7.7544930362
 30
0.0
 10
11.1044170937
 20
7.7252796051
 30
0.0
 10
11.0433309171
 20
7.6945723699
 30
0.0
 10
10.9808386691
 20
7.6624835963
 30
0.0
 10
10.9172928527
 20
7.6292179293
 30
0.0
 10
10.8530559388
 20
7.5950240684
 30
0.0
 10
10.8101034619
 20
7.5718388607
 30
0.0
 10
10.7885631196
 20
7.5601452962
 30
0.0
  0
SPLINE
  5
39F
100
AcDbEntity
  8
0
100
AcDbSpline
 62
7
  6
CONTINUOUS
 70
0
 71
3
 72
15
 73
11
 74
0
 42
0.0000001
 43
0.0000001
 44
0.0000000001
 40
0.0
 40
0.0
 40
0.0
 40
0.0
 40
0.130853243
 40
0.2612478082
 40
0.3906112907
 40
0.5182255703
 40
0.6433665409
 40
0.7654878953
 40
0.8843462897
 40
1.0
 40
1.0
 40
1.0
 40
1.0
 10
10.6586022147
 20
7.415827367
 30
0.0
 10
10.6569584856
 20
7.3912108327
 30
0.0
 10
10.6539702856
 20
7.3420436984
 30
0.0
 10
10.6505616898
 20
7.2684730067
 30
0.0
 10
10.6484153461
 20
7.1954645355
 30
0.0
 10
10.6476722468
 20
7.1234181138
 30
0.0
 10
10.6483873438
 20
7.0527366217
 30
0.0
 10
10.6505120498
 20
6.9837353205
 30
0.0
 10
10.6539083617
 20
6.9165768154
 30
0.0
 10
10.6569354325
 20
6.8724626955
 30
0.0
 10
10.6586022147
 20
6.8507208924
 30
0.0
  0
SPLINE
  5
3A0
100
AcDbEntity
  8
0
100
AcDbSpline
 62
7
  6
CONTINUOUS
 70
0
 71
3
 72
18
 73
14
 74
0
 42
0.0000001
 43
0.0000001
 44
0.0000000001
 40
0.0
 40
0.0
 40
0.0
 40
0.0
 40
0.1209533837
 40
0.2437778942
 40
0.3058582232
 40
0.3683347693
 40
0.4311529717
 40
0.4942444779
 40
0.5575323574
 40
0.6209360738
 40
0.7477793722
 40
0.8742481621
 40
1.0
 40
1.0
 40
1.0
 40
1.0
 10
10.685562619
 20
6.802154392
 30
0.0
 10
10.7040164057
 20
6.7875472943
 30
0.0
 10
10.7414879954
 20
6.7584566313
 30
0.0
 10
10.7892870224
 20
6.7229898199
 30
0.0
 10
10.8284636136
 20
6.6950191311
 30
0.0
 10
10.8584054976
 20
6.6742135774
 30
0.0
 10
10.8887817798
 20
6.6536939031
 30
0.0
 10
10.9195617365
 20
6.6334956266
 30
0.0
 10
10.9507053174
 20
6.6136497695
 30
0.0
 10
10.9926567348
 20
6.5876890345
 30
0.0
 10
11.0456828945
 20
6.556272893
 30
0.0
 10
11.1100065309
 20
6.520166931
 30
0.0
 10
11.1532846851
 20
6.4970168638
 30
0.0
 10
11.1749591819
 20
6.4856613878
 30
0.0
  0
SPLINE
  5
3A1
100
AcDbEntity
  8
0
100
AcDbSpline
 62
7
  6
CONTINUOUS
 70
0
 71
3
 72
15
 73
11
 74
0
 42
0.0000001
 43
0.0000001
 44
0.0000000001
 40
0.0
 40
0.0
 40
0.0
 40
0.0
 40
0.112346891
 40
0.2287649619
 40
0.3494215021
 40
0.4741363415
 40
0.6023573719
 40
0.7332837662
 40
0.866070494
 40
1.0
 40
1.0
 40
1.0
 40
1.0
 10
11.2288799905
 20
6.481921967
 30
0.0
 10
11.2475096697
 20
6.4906195704
 30
0.0
 10
11.2853802901
 20
6.5084671261
 30
0.0
 10
11.3430059481
 20
6.5361876974
 30
0.0
 10
11.4024225792
 20
6.5654011285
 30
0.0
 10
11.4635087558
 20
6.5961083637
 30
0.0
 10
11.5260010039
 20
6.6281971373
 30
0.0
 10
11.5895468202
 20
6.6614628043
 30
0.0
 10
11.6537837341
 20
6.6956566652
 30
0.0
 10
11.6967362111
 20
6.7188418729
 30
0.0
 10
11.7182765533
 20
6.7305354374
 30
0.0
  0
SPLINE
  5
3A2
100
AcDbEntity
  8
0
100
AcDbSpline
 62
7
  6
CONTINUOUS
 70
0
 71
3
 72
49
 73
45
 74
0
 42
0.0000001
 43
0.0000001
 44
0.0000000001
 40
0.0
 40
0.0
 40
0.0
 40
0.0
 40
0.031187151
 40
0.0621645213
 40
0.0929401585
 40
0.1082629014
 40
0.1235424257
 40
0.1387821476
 40
0.1539858757
 40
0.1691576791
 40
0.1843020069
 40
0.1994235946
 40
0.2145274341
 40
0.2296186839
 40
0.2447026442
 40
0.2597846952
 40
0.2748702365
 40
0.2899646369
 40
0.3050731598
 40
0.3202009317
 40
0.3353528523
 40
0.3505335935
 40
0.3657474896
 40
0.3809985718
 40
0.3962904382
 40
0.4269990655
 40
0.4579035252
 40
0.4890160735
 40
0.5203408316
 40
0.5518737651
 40
0.5836029699
 40
0.6155093002
 40
0.6475671858
 40
0.6797456153
 40
0.7120093051
 40
0.7443199991
 40
0.776637812
 40
0.8089225842
 40
0.8411353274
 40
0.8732395264
 40
0.9052026864
 40
0.9369967424
 40
0.9686011451
 40
1.0
 40
1.0
 40
1.0
 40
1.0
 10
11.1901146855
 20
7.6202811483
 30
0.0
 10
11.1726379365
 20
7.621493165
 30
0.0
 10
11.1376587123
 20
7.6222125395
 30
0.0
 10
11.0855321855
 20
7.6181129975
 30
0.0
 10
11.042847158
 20
7.610394428
 30
0.0
 10
11.009474626
 20
7.6016862755
 30
0.0
 10
10.9849115496
 20
7.5939166994
 30
0.0
 10
10.9608433173
 20
7.5849188715
 30
0.0
 10
10.9373271217
 20
7.5747141546
 30
0.0
 10
10.9144196655
 20
7.5633276062
 30
0.0
 10
10.8921766087
 20
7.5507858222
 30
0.0
 10
10.8706509889
 20
7.5371200907
 30
0.0
 10
10.8498955606
 20
7.5223620748
 30
0.0
 10
10.8299593713
 20
7.5065487649
 30
0.0
 10
10.8108917203
 20
7.4897167976
 30
0.0
 10
10.7927372805
 20
7.4719082639
 30
0.0
 10
10.7755412325
 20
7.4531646919
 30
0.0
 10
10.759343644
 20
7.4335325971
 30
0.0
 10
10.7441849072
 20
7.4130582134
 30
0.0
 10
10.7301003508
 20
7.3917918607
 30
0.0
 10
10.717124938
 20
7.3697841508
 30
0.0
 10
10.7052891418
 20
7.3470886154
 30
0.0
 10
10.6946219859
 20
7.3237599302
 30
0.0
 10
10.685148817
 20
7.2998536517
 30
0.0
 10
10.6741265285
 20
7.267247051
 30
0.0
 10
10.6634477091
 20
7.2253042472
 30
0.0
 10
10.6557322355
 20
7.173706236
 30
0.0
 10
10.6531639765
 20
7.1212502678
 30
0.0
 10
10.6557668979
 20
7.0684450336
 30
0.0
 10
10.6635136445
 20
7.0157976616
 30
0.0
 10
10.676328039
 20
6.9638144413
 30
0.0
 10
10.6940853633
 20
6.9129945651
 30
0.0
 10
10.71661378
 20
6.8638258495
 30
0.0
 10
10.7436959658
 20
6.8167800688
 30
0.0
 10
10.7750712144
 20
6.7723085635
 30
0.0
 10
10.8104379215
 20
6.7308379826
 30
0.0
 10
10.8494564455
 20
6.6927662993
 30
0.0
 10
10.8917522959
 20
6.6584590117
 30
0.0
 10
10.9369196676
 20
6.6282458452
 30
0.0
 10
10.9845253914
 20
6.6024172391
 30
0.0
 10
11.0341122511
 20
6.5812224961
 30
0.0
 10
11.085206355
 20
6.5648655121
 30
0.0
 10
11.1373102671
 20
6.5535063117
 30
0.0
 10
11.1725193012
 20
6.5493236617
 30
0.0
 10
11.1901146855
 20
6.5481034176
 30
0.0
  0
SPLINE
  5
3A3
100
AcDbEntity
  8
0
100
AcDbSpline
 62
7
  6
CONTINUOUS
 70
0
 71
3
 72
49
 73
45
 74
0
 42
0.0000001
 43
0.0000001
 44
0.0000000001
 40
0.0
 40
0.0
 40
0.0
 40
0.0
 40
0.031187151
 40
0.0621645213
 40
0.0929401585
 40
0.1082629014
 40
0.1235424257
 40
0.1387821476
 40
0.1539858757
 40
0.1691576791
 40
0.1843020069
 40
0.1994235946
 40
0.2145274341
 40
0.2296186839
 40
0.2447026442
 40
0.2597846952
 40
0.2748702365
 40
0.2899646369
 40
0.3050731598
 40
0.3202009317
 40
0.3353528523
 40
0.3505335935
 40
0.3657474896
 40
0.3809985718
 40
0.3962904382
 40
0.4269990655
 40
0.4579035252
 40
0.4890160735
 40
0.5203408316
 40
0.5518737651
 40
0.5836029699
 40
0.6155093002
 40
0.6475671858
 40
0.6797456153
 40
0.7120093051
 40
0.7443199991
 40
0.776637812
 40
0.8089225842
 40
0.8411353274
 40
0.8732395264
 40
0.9052026864
 40
0.9369967424
 40
0.9686011451
 40
1.0
 40
1.0
 40
1.0
 40
1.0
 10
11.1901146855
 20
6.5481034176
 30
0.0
 10
11.2075914346
 20
6.5468914009
 30
0.0
 10
11.2425706588
 20
6.5461720264
 30
0.0
 10
11.2946971856
 20
6.5502715684
 30
0.0
 10
11.3373822131
 20
6.5579901379
 30
0.0
 10
11.3707547451
 20
6.5666982904
 30
0.0
 10
11.3953178215
 20
6.5744678665
 30
0.0
 10
11.4193860538
 20
6.5834656944
 30
0.0
 10
11.4429022494
 20
6.5936704113
 30
0.0
 10
11.4658097056
 20
6.6050569597
 30
0.0
 10
11.4880527624
 20
6.6175987437
 30
0.0
 10
11.5095783822
 20
6.6312644752
 30
0.0
 10
11.5303338105
 20
6.6460224911
 30
0.0
 10
11.5502699998
 20
6.661835801
 30
0.0
 10
11.5693376508
 20
6.6786677683
 30
0.0
 10
11.5874920906
 20
6.6964763021
 30
0.0
 10
11.6046881386
 20
6.7152198741
 30
0.0
 10
11.6208857271
 20
6.7348519688
 30
0.0
 10
11.6360444638
 20
6.7553263525
 30
0.0
 10
11.6501290203
 20
6.7765927052
 30
0.0
 10
11.6631044331
 20
6.7986004151
 30
0.0
 10
11.6749402293
 20
6.8212959505
 30
0.0
 10
11.6856073851
 20
6.8446246357
 30
0.0
 10
11.6950805541
 20
6.8685309142
 30
0.0
 10
11.7061028426
 20
6.9011375149
 30
0.0
 10
11.716781662
 20
6.9430803187
 30
0.0
 10
11.7244971356
 20
6.9946783299
 30
0.0
 10
11.7270653945
 20
7.0471342981
 30
0.0
 10
11.7244624732
 20
7.0999395323
 30
0.0
 10
11.7167157266
 20
7.1525869043
 30
0.0
 10
11.7039013321
 20
7.2045701247
 30
0.0
 10
11.6861440078
 20
7.2553900009
 30
0.0
 10
11.6636155911
 20
7.3045587164
 30
0.0
 10
11.6365334052
 20
7.3516044971
 30
0.0
 10
11.6051581567
 20
7.3960760024
 30
0.0
 10
11.5697914496
 20
7.4375465833
 30
0.0
 10
11.5307729256
 20
7.4756182666
 30
0.0
 10
11.4884770752
 20
7.5099255543
 30
0.0
 10
11.4433097035
 20
7.5401387207
 30
0.0
 10
11.3957039797
 20
7.5659673268
 30
0.0
 10
11.34611712
 20
7.5871620698
 30
0.0
 10
11.295023016
 20
7.6035190538
 30
0.0
 10
11.2429191039
 20
7.6148782542
 30
0.0
 10
11.2077100699
 20
7.6190609043
 30
0.0
 10
11.1901146855
 20
7.6202811483
 30
0.0
  0
SPLINE
  5
3A4
100
AcDbEntity
  8
0
100
AcDbSpline
 62
7
  6
CONTINUOUS
 70
0
 71
3
 72
15
 73
11
 74
0
 42
0.0000001
 43
0.0000001
 44
0.0000000001
 40
0.0
 40
0.0
 40
0.0
 40
0.0
 40
0.1156537103
 40
0.2345121048
 40
0.3566334592
 40
0.4817744298
 40
0.6093887094
 40
0.7387521918
 40
0.869146757
 40
1.0
 40
1.0
 40
1.0
 40
1.0
 10
11.7452369577
 20
6.7753625171
 30
0.0
 10
11.7435701754
 20
6.7971043201
 30
0.0
 10
11.7405431046
 20
6.84121844
 30
0.0
 10
11.7371467928
 20
6.9083769451
 30
0.0
 10
11.7350220868
 20
6.9773782463
 30
0.0
 10
11.7343069898
 20
7.0480597384
 30
0.0
 10
11.735050089
 20
7.1201061601
 30
0.0
 10
11.7371964327
 20
7.1931146314
 30
0.0
 10
11.7406050285
 20
7.266685323
 30
0.0
 10
11.7435932286
 20
7.3158524573
 30
0.0
 10
11.7452369577
 20
7.3404689916
 30
0.0
  0
SPLINE
  5
3A5
100
AcDbEntity
  8
0
100
AcDbSpline
 62
7
  6
CONTINUOUS
 70
0
 71
3
 72
18
 73
14
 74
0
 42
0.0000001
 43
0.0000001
 44
0.0000000001
 40
0.0
 40
0.0
 40
0.0
 40
0.0
 40
0.1257518379
 40
0.2522206279
 40
0.3790639262
 40
0.4424676427
 40
0.5057555221
 40
0.5688470283
 40
0.6316652308
 40
0.6941417768
 40
0.7562221058
 40
0.8790466163
 40
1.0
 40
1.0
 40
1.0
 40
1.0
 10
11.7182765533
 20
7.3890354921
 30
0.0
 10
11.6966020566
 20
7.4003909682
 30
0.0
 10
11.6533239024
 20
7.4235410353
 30
0.0
 10
11.589000266
 20
7.4596469974
 30
0.0
 10
11.5359741062
 20
7.4910631388
 30
0.0
 10
11.4940226889
 20
7.5170238738
 30
0.0
 10
11.462879108
 20
7.536869731
 30
0.0
 10
11.4320991512
 20
7.5570680074
 30
0.0
 10
11.401722869
 20
7.5775876818
 30
0.0
 10
11.371780985
 20
7.5983932354
 30
0.0
 10
11.3326043938
 20
7.6263639242
 30
0.0
 10
11.2848053668
 20
7.6618307357
 30
0.0
 10
11.2473337772
 20
7.6909213986
 30
0.0
 10
11.2288799905
 20
7.7055284963
 30
0.0
  0
SPLINE
  5
3A6
100
AcDbEntity
  8
0
100
AcDbSpline
 62
7
  6
CONTINUOUS
 70
0
 71
3
 72
15
 73
11
 74
0
 42
0.0000001
 43
0.0000001
 44
0.0000000001
 40
0.0
 40
0.0
 40
0.0
 40
0.0
 40
0.1339295061
 40
0.2667162338
 40
0.3976426282
 40
0.5258636586
 40
0.6505784979
 40
0.7712350381
 40
0.887653109
 40
1.0
 40
1.0
 40
1.0
 40
1.0
 10
11.1749591819
 20
7.7092679171
 30
0.0
 10
11.1534188396
 20
7.6975743526
 30
0.0
 10
11.1104663626
 20
7.6743891449
 30
0.0
 10
11.0462294488
 20
7.640195284
 30
0.0
 10
10.9826836324
 20
7.606929617
 30
0.0
 10
10.9201913843
 20
7.5748408434
 30
0.0
 10
10.8591052077
 20
7.5441336082
 30
0.0
 10
10.7996885766
 20
7.5149201771
 30
0.0
 10
10.7420629186
 20
7.4871996058
 30
0.0
 10
10.7041922982
 20
7.4693520501
 30
0.0
 10
10.685562619
 20
7.4606544467
 30
0.0
  0
SPLINE
  5
3A7
100
AcDbEntity
  8
0
100
AcDbSpline
 62
7
  6
CONTINUOUS
 70
0
 71
3
 72
15
 73
11
 74
0
 42
0.0000001
 43
0.0000001
 44
0.0000000001
 40
0.0
 40
0.0
 40
0.0
 40
0.0
 40
0.130853243
 40
0.2612478082
 40
0.3906112907
 40
0.5182255703
 40
0.6433665409
 40
0.7654878953
 40
0.8843462897
 40
1.0
 40
1.0
 40
1.0
 40
1.0
 10
10.4901456485
 20
8.4179261788
 30
0.0
 10
10.4917893776
 20
8.4425427131
 30
0.0
 10
10.4947775776
 20
8.4917098474
 30
0.0
 10
10.4981861734
 20
8.5652805391
 30
0.0
 10
10.5003325171
 20
8.6382890103
 30
0.0
 10
10.5010756164
 20
8.710335432
 30
0.0
 10
10.5003605194
 20
8.7810169241
 30
0.0
 10
10.4982358134
 20
8.8500182253
 30
0.0
 10
10.4948395015
 20
8.9171767304
 30
0.0
 10
10.4918124307
 20
8.9612908503
 30
0.0
 10
10.4901456485
 20
8.9830326533
 30
0.0
  0
SPLINE
  5
3A8
100
AcDbEntity
  8
0
100
AcDbSpline
 62
7
  6
CONTINUOUS
 70
0
 71
3
 72
18
 73
14
 74
0
 42
0.0000001
 43
0.0000001
 44
0.0000000001
 40
0.0
 40
0.0
 40
0.0
 40
0.0
 40
0.1209533837
 40
0.2437778942
 40
0.3058582232
 40
0.3683347693
 40
0.4311529717
 40
0.4942444779
 40
0.5575323574
 40
0.6209360738
 40
0.7477793722
 40
0.8742481621
 40
1.0
 40
1.0
 40
1.0
 40
1.0
 10
10.4631852442
 20
9.0315991538
 30
0.0
 10
10.4447314575
 20
9.0462062515
 30
0.0
 10
10.4072598678
 20
9.0752969145
 30
0.0
 10
10.3594608408
 20
9.1107637259
 30
0.0
 10
10.3202842496
 20
9.1387344147
 30
0.0
 10
10.2903423656
 20
9.1595399684
 30
0.0
 10
10.2599660834
 20
9.1800596427
 30
0.0
 10
10.2291861267
 20
9.2002579192
 30
0.0
 10
10.1980425458
 20
9.2201037763
 30
0.0
 10
10.1560911284
 20
9.2460645113
 30
0.0
 10
10.1030649687
 20
9.2774806527
 30
0.0
 10
10.0387413323
 20
9.3135866148
 30
0.0
 10
9.9954631781
 20
9.3367366819
 30
0.0
 10
9.9737886813
 20
9.348092158
 30
0.0
  0
SPLINE
  5
3A9
100
AcDbEntity
  8
0
100
AcDbSpline
 62
7
  6
CONTINUOUS
 70
0
 71
3
 72
15
 73
11
 74
0
 42
0.0000001
 43
0.0000001
 44
0.0000000001
 40
0.0
 40
0.0
 40
0.0
 40
0.0
 40
0.112346891
 40
0.2287649619
 40
0.3494215021
 40
0.4741363415
 40
0.6023573719
 40
0.7332837662
 40
0.866070494
 40
1.0
 40
1.0
 40
1.0
 40
1.0
 10
9.9198678727
 20
9.3518315788
 30
0.0
 10
9.9012381935
 20
9.3431339754
 30
0.0
 10
9.8633675731
 20
9.3252864196
 30
0.0
 10
9.8057419151
 20
9.2975658484
 30
0.0
 10
9.746325284
 20
9.2683524172
 30
0.0
 10
9.6852391074
 20
9.237645182
 30
0.0
 10
9.6227468593
 20
9.2055564084
 30
0.0
 10
9.5592010429
 20
9.1722907415
 30
0.0
 10
9.4949641291
 20
9.1380968806
 30
0.0
 10
9.4520116521
 20
9.1149116729
 30
0.0
 10
9.4304713099
 20
9.1032181084
 30
0.0
  0
SPLINE
  5
3AA
100
AcDbEntity
  8
0
100
AcDbSpline
 62
7
  6
CONTINUOUS
 70
0
 71
3
 72
15
 73
11
 74
0
 42
0.0000001
 43
0.0000001
 44
0.0000000001
 40
0.0
 40
0.0
 40
0.0
 40
0.0
 40
0.130853243
 40
0.2612478082
 40
0.3906112907
 40
0.5182255703
 40
0.6433665409
 40
0.7654878953
 40
0.8843462897
 40
1.0
 40
1.0
 40
1.0
 40
1.0
 10
9.300510405
 20
8.9589001792
 30
0.0
 10
9.2988666759
 20
8.9342836449
 30
0.0
 10
9.2958784758
 20
8.8851165106
 30
0.0
 10
9.29246988
 20
8.8115458189
 30
0.0
 10
9.2903235363
 20
8.7385373477
 30
0.0
 10
9.2895804371
 20
8.666490926
 30
0.0
 10
9.2902955341
 20
8.5958094339
 30
0.0
 10
9.2924202401
 20
8.5268081327
 30
0.0
 10
9.295816552
 20
8.4596496276
 30
0.0
 10
9.2988436227
 20
8.4155355077
 30
0.0
 10
9.300510405
 20
8.3937937046
 30
0.0
  0
SPLINE
  5
3AB
100
AcDbEntity
  8
0
100
AcDbSpline
 62
7
  6
CONTINUOUS
 70
0
 71
3
 72
18
 73
14
 74
0
 42
0.0000001
 43
0.0000001
 44
0.0000000001
 40
0.0
 40
0.0
 40
0.0
 40
0.0
 40
0.1209533837
 40
0.2437778942
 40
0.3058582232
 40
0.3683347693
 40
0.4311529717
 40
0.4942444779
 40
0.5575323574
 40
0.6209360738
 40
0.7477793722
 40
0.8742481621
 40
1.0
 40
1.0
 40
1.0
 40
1.0
 10
9.3274708093
 20
8.3452272042
 30
0.0
 10
9.345924596
 20
8.3306201065
 30
0.0
 10
9.3833961856
 20
8.3015294435
 30
0.0
 10
9.4311952126
 20
8.2660626321
 30
0.0
 10
9.4703718038
 20
8.2380919433
 30
0.0
 10
9.5003136879
 20
8.2172863896
 30
0.0
 10
9.53068997
 20
8.1967667152
 30
0.0
 10
9.5614699268
 20
8.1765684388
 30
0.0
 10
9.5926135077
 20
8.1567225817
 30
0.0
 10
9.634564925
 20
8.1307618467
 30
0.0
 10
9.6875910848
 20
8.0993457052
 30
0.0
 10
9.7519147212
 20
8.0632397431
 30
0.0
 10
9.7951928754
 20
8.040089676
 30
0.0
 10
9.8168673721
 20
8.0287342
 30
0.0
  0
SPLINE
  5
3AC
100
AcDbEntity
  8
0
100
AcDbSpline
 62
7
  6
CONTINUOUS
 70
0
 71
3
 72
15
 73
11
 74
0
 42
0.0000001
 43
0.0000001
 44
0.0000000001
 40
0.0
 40
0.0
 40
0.0
 40
0.0
 40
0.112346891
 40
0.2287649619
 40
0.3494215021
 40
0.4741363415
 40
0.6023573719
 40
0.7332837662
 40
0.866070494
 40
1.0
 40
1.0
 40
1.0
 40
1.0
 10
9.8707881808
 20
8.0249947792
 30
0.0
 10
9.88941786
 20
8.0336923826
 30
0.0
 10
9.9272884804
 20
8.0515399383
 30
0.0
 10
9.9849141383
 20
8.0792605096
 30
0.0
 10
10.0443307695
 20
8.1084739407
 30
0.0
 10
10.1054169461
 20
8.1391811759
 30
0.0
 10
10.1679091941
 20
8.1712699495
 30
0.0
 10
10.2314550105
 20
8.2045356164
 30
0.0
 10
10.2956919244
 20
8.2387294774
 30
0.0
 10
10.3386444013
 20
8.2619146851
 30
0.0
 10
10.3601847436
 20
8.2736082496
 30
0.0
  0
SPLINE
  5
3AD
100
AcDbEntity
  8
0
100
AcDbSpline
 62
7
  6
CONTINUOUS
 70
0
 71
3
 72
49
 73
45
 74
0
 42
0.0000001
 43
0.0000001
 44
0.0000000001
 40
0.0
 40
0.0
 40
0.0
 40
0.0
 40
0.031187151
 40
0.0621645213
 40
0.0929401585
 40
0.1082629014
 40
0.1235424257
 40
0.1387821476
 40
0.1539858757
 40
0.1691576791
 40
0.1843020069
 40
0.1994235946
 40
0.2145274341
 40
0.2296186839
 40
0.2447026442
 40
0.2597846952
 40
0.2748702365
 40
0.2899646369
 40
0.3050731598
 40
0.3202009317
 40
0.3353528523
 40
0.3505335935
 40
0.3657474896
 40
0.3809985718
 40
0.3962904382
 40
0.4269990655
 40
0.4579035252
 40
0.4890160735
 40
0.5203408316
 40
0.5518737651
 40
0.5836029699
 40
0.6155093002
 40
0.6475671858
 40
0.6797456153
 40
0.7120093051
 40
0.7443199991
 40
0.776637812
 40
0.8089225842
 40
0.8411353274
 40
0.8732395264
 40
0.9052026864
 40
0.9369967424
 40
0.9686011451
 40
1.0
 40
1.0
 40
1.0
 40
1.0
 10
9.8320228758
 20
9.1633539605
 30
0.0
 10
9.8145461268
 20
9.1645659772
 30
0.0
 10
9.7795669026
 20
9.1652853517
 30
0.0
 10
9.7274403757
 20
9.1611858097
 30
0.0
 10
9.6847553482
 20
9.1534672402
 30
0.0
 10
9.6513828163
 20
9.1447590877
 30
0.0
 10
9.6268197399
 20
9.1369895116
 30
0.0
 10
9.6027515076
 20
9.1279916837
 30
0.0
 10
9.579235312
 20
9.1177869668
 30
0.0
 10
9.5563278557
 20
9.1064004184
 30
0.0
 10
9.534084799
 20
9.0938586344
 30
0.0
 10
9.5125591792
 20
9.0801929029
 30
0.0
 10
9.4918037508
 20
9.065434887
 30
0.0
 10
9.4718675616
 20
9.0496215771
 30
0.0
 10
9.4527999105
 20
9.0327896098
 30
0.0
 10
9.4346454708
 20
9.014981076
 30
0.0
 10
9.4174494227
 20
8.9962375041
 30
0.0
 10
9.4012518342
 20
8.9766054093
 30
0.0
 10
9.3860930975
 20
8.9561310256
 30
0.0
 10
9.3720085411
 20
8.9348646729
 30
0.0
 10
9.3590331283
 20
8.912856963
 30
0.0
 10
9.347197332
 20
8.8901614276
 30
0.0
 10
9.3365301762
 20
8.8668327424
 30
0.0
 10
9.3270570072
 20
8.8429264639
 30
0.0
 10
9.3160347188
 20
8.8103198632
 30
0.0
 10
9.3053558994
 20
8.7683770594
 30
0.0
 10
9.2976404257
 20
8.7167790482
 30
0.0
 10
9.2950721668
 20
8.66432308
 30
0.0
 10
9.2976750882
 20
8.6115178458
 30
0.0
 10
9.3054218347
 20
8.5588704738
 30
0.0
 10
9.3182362293
 20
8.5068872534
 30
0.0
 10
9.3359935536
 20
8.4560673772
 30
0.0
 10
9.3585219703
 20
8.4068986617
 30
0.0
 10
9.3856041561
 20
8.359852881
 30
0.0
 10
9.4169794047
 20
8.3153813757
 30
0.0
 10
9.4523461118
 20
8.2739107948
 30
0.0
 10
9.4913646358
 20
8.2358391115
 30
0.0
 10
9.5336604862
 20
8.2015318238
 30
0.0
 10
9.5788278579
 20
8.1713186574
 30
0.0
 10
9.6264335816
 20
8.1454900513
 30
0.0
 10
9.6760204414
 20
8.1242953083
 30
0.0
 10
9.7271145453
 20
8.1079383243
 30
0.0
 10
9.7792184574
 20
8.0965791239
 30
0.0
 10
9.8144274915
 20
8.0923964738
 30
0.0
 10
9.8320228758
 20
8.0911762298
 30
0.0
  0
SPLINE
  5
3AE
100
AcDbEntity
  8
0
100
AcDbSpline
 62
7
  6
CONTINUOUS
 70
0
 71
3
 72
49
 73
45
 74
0
 42
0.0000001
 43
0.0000001
 44
0.0000000001
 40
0.0
 40
0.0
 40
0.0
 40
0.0
 40
0.031187151
 40
0.0621645213
 40
0.0929401585
 40
0.1082629014
 40
0.1235424257
 40
0.1387821476
 40
0.1539858757
 40
0.1691576791
 40
0.1843020069
 40
0.1994235946
 40
0.2145274341
 40
0.2296186839
 40
0.2447026442
 40
0.2597846952
 40
0.2748702365
 40
0.2899646369
 40
0.3050731598
 40
0.3202009317
 40
0.3353528523
 40
0.3505335935
 40
0.3657474896
 40
0.3809985718
 40
0.3962904382
 40
0.4269990655
 40
0.4579035252
 40
0.4890160735
 40
0.5203408316
 40
0.5518737651
 40
0.5836029699
 40
0.6155093002
 40
0.6475671858
 40
0.6797456153
 40
0.7120093051
 40
0.7443199991
 40
0.776637812
 40
0.8089225842
 40
0.8411353274
 40
0.8732395264
 40
0.9052026864
 40
0.9369967424
 40
0.9686011451
 40
1.0
 40
1.0
 40
1.0
 40
1.0
 10
9.8320228758
 20
8.0911762298
 30
0.0
 10
9.8494996248
 20
8.0899642131
 30
0.0
 10
9.884478849
 20
8.0892448386
 30
0.0
 10
9.9366053759
 20
8.0933443806
 30
0.0
 10
9.9792904034
 20
8.1010629501
 30
0.0
 10
10.0126629353
 20
8.1097711026
 30
0.0
 10
10.0372260117
 20
8.1175406787
 30
0.0
 10
10.061294244
 20
8.1265385066
 30
0.0
 10
10.0848104396
 20
8.1367432235
 30
0.0
 10
10.1077178959
 20
8.1481297719
 30
0.0
 10
10.1299609527
 20
8.1606715559
 30
0.0
 10
10.1514865724
 20
8.1743372874
 30
0.0
 10
10.1722420008
 20
8.1890953033
 30
0.0
 10
10.19217819
 20
8.2049086132
 30
0.0
 10
10.2112458411
 20
8.2217405805
 30
0.0
 10
10.2294002808
 20
8.2395491142
 30
0.0
 10
10.2465963289
 20
8.2582926862
 30
0.0
 10
10.2627939174
 20
8.277924781
 30
0.0
 10
10.2779526541
 20
8.2983991647
 30
0.0
 10
10.2920372105
 20
8.3196655174
 30
0.0
 10
10.3050126233
 20
8.3416732273
 30
0.0
 10
10.3168484196
 20
8.3643687627
 30
0.0
 10
10.3275155754
 20
8.3876974479
 30
0.0
 10
10.3369887444
 20
8.4116037264
 30
0.0
 10
10.3480110328
 20
8.4442103271
 30
0.0
 10
10.3586898522
 20
8.4861531309
 30
0.0
 10
10.3664053259
 20
8.5377511421
 30
0.0
 10
10.3689735848
 20
8.5902071103
 30
0.0
 10
10.3663706635
 20
8.6430123445
 30
0.0
 10
10.3586239169
 20
8.6956597165
 30
0.0
 10
10.3458095223
 20
8.7476429368
 30
0.0
 10
10.328052198
 20
8.798462813
 30
0.0
 10
10.3055237813
 20
8.8476315286
 30
0.0
 10
10.2784415955
 20
8.8946773093
 30
0.0
 10
10.2470663469
 20
8.9391488146
 30
0.0
 10
10.2116996398
 20
8.9806193955
 30
0.0
 10
10.1726811158
 20
9.0186910788
 30
0.0
 10
10.1303852655
 20
9.0529983664
 30
0.0
 10
10.0852178937
 20
9.0832115329
 30
0.0
 10
10.03761217
 20
9.109040139
 30
0.0
 10
9.9880253102
 20
9.130234882
 30
0.0
 10
9.9369312063
 20
9.146591866
 30
0.0
 10
9.8848272942
 20
9.1579510664
 30
0.0
 10
9.8496182601
 20
9.1621337164
 30
0.0
 10
9.8320228758
 20
9.1633539605
 30
0.0
  0
SPLINE
  5
3AF
100
AcDbEntity
  8
0
100
AcDbSpline
 62
7
  6
CONTINUOUS
 70
0
 71
3
 72
15
 73
11
 74
0
 42
0.0000001
 43
0.0000001
 44
0.0000000001
 40
0.0
 40
0.0
 40
0.0
 40
0.0
 40
0.1156537103
 40
0.2345121048
 40
0.3566334592
 40
0.4817744298
 40
0.6093887094
 40
0.7387521918
 40
0.869146757
 40
1.0
 40
1.0
 40
1.0
 40
1.0
 10
10.3871451479
 20
8.3184353292
 30
0.0
 10
10.3854783657
 20
8.3401771323
 30
0.0
 10
10.3824512949
 20
8.3842912522
 30
0.0
 10
10.379054983
 20
8.4514497573
 30
0.0
 10
10.376930277
 20
8.5204510585
 30
0.0
 10
10.37621518
 20
8.5911325506
 30
0.0
 10
10.3769582793
 20
8.6631789723
 30
0.0
 10
10.379104623
 20
8.7361874436
 30
0.0
 10
10.3825132188
 20
8.8097581352
 30
0.0
 10
10.3855014188
 20
8.8589252695
 30
0.0
 10
10.3871451479
 20
8.8835418038
 30
0.0
  0
SPLINE
  5
3B0
100
AcDbEntity
  8
0
100
AcDbSpline
 62
7
  6
CONTINUOUS
 70
0
 71
3
 72
18
 73
14
 74
0
 42
0.0000001
 43
0.0000001
 44
0.0000000001
 40
0.0
 40
0.0
 40
0.0
 40
0.0
 40
0.1257518379
 40
0.2522206279
 40
0.3790639262
 40
0.4424676427
 40
0.5057555221
 40
0.5688470283
 40
0.6316652308
 40
0.6941417768
 40
0.7562221058
 40
0.8790466163
 40
1.0
 40
1.0
 40
1.0
 40
1.0
 10
10.3601847436
 20
8.9321083043
 30
0.0
 10
10.3385102469
 20
8.9434637804
 30
0.0
 10
10.2952320926
 20
8.9666138475
 30
0.0
 10
10.2309084562
 20
9.0027198096
 30
0.0
 10
10.1778822965
 20
9.034135951
 30
0.0
 10
10.1359308791
 20
9.060096686
 30
0.0
 10
10.1047872982
 20
9.0799425431
 30
0.0
 10
10.0740073415
 20
9.1001408196
 30
0.0
 10
10.0436310593
 20
9.1206604939
 30
0.0
 10
10.0136891753
 20
9.1414660476
 30
0.0
 10
9.9745125841
 20
9.1694367364
 30
0.0
 10
9.9267135571
 20
9.2049035478
 30
0.0
 10
9.8892419675
 20
9.2339942108
 30
0.0
 10
9.8707881808
 20
9.2486013085
 30
0.0
  0
SPLINE
  5
3B1
100
AcDbEntity
  8
0
100
AcDbSpline
 62
7
  6
CONTINUOUS
 70
0
 71
3
 72
15
 73
11
 74
0
 42
0.0000001
 43
0.0000001
 44
0.0000000001
 40
0.0
 40
0.0
 40
0.0
 40
0.0
 40
0.1339295061
 40
0.2667162338
 40
0.3976426282
 40
0.5258636586
 40
0.6505784979
 40
0.7712350381
 40
0.887653109
 40
1.0
 40
1.0
 40
1.0
 40
1.0
 10
9.8168673721
 20
9.2523407293
 30
0.0
 10
9.7953270299
 20
9.2406471648
 30
0.0
 10
9.7523745529
 20
9.2174619571
 30
0.0
 10
9.688137639
 20
9.1832680961
 30
0.0
 10
9.6245918226
 20
9.1500024292
 30
0.0
 10
9.5620995746
 20
9.1179136556
 30
0.0
 10
9.501013398
 20
9.0872064204
 30
0.0
 10
9.4415967668
 20
9.0579929893
 30
0.0
 10
9.3839711089
 20
9.030272418
 30
0.0
 10
9.3461004885
 20
9.0124248623
 30
0.0
 10
9.3274708093
 20
9.0037272589
 30
0.0
  0
SPLINE
  5
3B2
100
AcDbEntity
  8
0
100
AcDbSpline
 62
7
  6
CONTINUOUS
 70
0
 71
3
 72
15
 73
11
 74
0
 42
0.0000001
 43
0.0000001
 44
0.0000000001
 40
0.0
 40
0.0
 40
0.0
 40
0.0
 40
0.130853243
 40
0.2612478082
 40
0.3906112907
 40
0.5182255703
 40
0.6433665409
 40
0.7654878953
 40
0.8843462897
 40
1.0
 40
1.0
 40
1.0
 40
1.0
 10
11.8482374582
 20
8.3237421919
 30
0.0
 10
11.8498811873
 20
8.3483587262
 30
0.0
 10
11.8528693874
 20
8.3975258605
 30
0.0
 10
11.8562779832
 20
8.4710965522
 30
0.0
 10
11.8584243269
 20
8.5441050234
 30
0.0
 10
11.8591674261
 20
8.6161514451
 30
0.0
 10
11.8584523291
 20
8.6868329372
 30
0.0
 10
11.8563276231
 20
8.7558342384
 30
0.0
 10
11.8529313112
 20
8.8229927435
 30
0.0
 10
11.8499042405
 20
8.8671068634
 30
0.0
 10
11.8482374582
 20
8.8888486664
 30
0.0
  0
SPLINE
  5
3B3
100
AcDbEntity
  8
0
100
AcDbSpline
 62
7
  6
CONTINUOUS
 70
0
 71
3
 72
18
 73
14
 74
0
 42
0.0000001
 43
0.0000001
 44
0.0000000001
 40
0.0
 40
0.0
 40
0.0
 40
0.0
 40
0.1209533837
 40
0.2437778942
 40
0.3058582232
 40
0.3683347693
 40
0.4311529717
 40
0.4942444779
 40
0.5575323574
 40
0.6209360738
 40
0.7477793722
 40
0.8742481621
 40
1.0
 40
1.0
 40
1.0
 40
1.0
 10
11.8212770539
 20
8.9374151669
 30
0.0
 10
11.8028232672
 20
8.9520222646
 30
0.0
 10
11.7653516776
 20
8.9811129276
 30
0.0
 10
11.7175526506
 20
9.016579739
 30
0.0
 10
11.6783760594
 20
9.0445504278
 30
0.0
 10
11.6484341753
 20
9.0653559815
 30
0.0
 10
11.6180578932
 20
9.0858756558
 30
0.0
 10
11.5872779364
 20
9.1060739323
 30
0.0
 10
11.5561343555
 20
9.1259197894
 30
0.0
 10
11.5141829382
 20
9.1518805244
 30
0.0
 10
11.4611567784
 20
9.1832966658
 30
0.0
 10
11.396833142
 20
9.2194026279
 30
0.0
 10
11.3535549878
 20
9.242552695
 30
0.0
 10
11.3318804911
 20
9.2539081711
 30
0.0
  0
SPLINE
  5
3B4
100
AcDbEntity
  8
0
100
AcDbSpline
 62
7
  6
CONTINUOUS
 70
0
 71
3
 72
15
 73
11
 74
0
 42
0.0000001
 43
0.0000001
 44
0.0000000001
 40
0.0
 40
0.0
 40
0.0
 40
0.0
 40
0.112346891
 40
0.2287649619
 40
0.3494215021
 40
0.4741363415
 40
0.6023573719
 40
0.7332837662
 40
0.866070494
 40
1.0
 40
1.0
 40
1.0
 40
1.0
 10
11.2779596824
 20
9.2576475919
 30
0.0
 10
11.2593300032
 20
9.2489499885
 30
0.0
 10
11.2214593828
 20
9.2311024327
 30
0.0
 10
11.1638337249
 20
9.2033818615
 30
0.0
 10
11.1044170937
 20
9.1741684303
 30
0.0
 10
11.0433309171
 20
9.1434611951
 30
0.0
 10
10.9808386691
 20
9.1113724215
 30
0.0
 10
10.9172928527
 20
9.0781067546
 30
0.0
 10
10.8530559388
 20
9.0439128937
 30
0.0
 10
10.8101034619
 20
9.020727686
 30
0.0
 10
10.7885631196
 20
9.0090341215
 30
0.0
  0
SPLINE
  5
3B5
100
AcDbEntity
  8
0
100
AcDbSpline
 62
7
  6
CONTINUOUS
 70
0
 71
3
 72
15
 73
11
 74
0
 42
0.0000001
 43
0.0000001
 44
0.0000000001
 40
0.0
 40
0.0
 40
0.0
 40
0.0
 40
0.130853243
 40
0.2612478082
 40
0.3906112907
 40
0.5182255703
 40
0.6433665409
 40
0.7654878953
 40
0.8843462897
 40
1.0
 40
1.0
 40
1.0
 40
1.0
 10
10.6586022147
 20
8.8647161923
 30
0.0
 10
10.6569584856
 20
8.840099658
 30
0.0
 10
10.6539702856
 20
8.7909325237
 30
0.0
 10
10.6505616898
 20
8.717361832
 30
0.0
 10
10.6484153461
 20
8.6443533608
 30
0.0
 10
10.6476722468
 20
8.5723069391
 30
0.0
 10
10.6483873438
 20
8.501625447
 30
0.0
 10
10.6505120498
 20
8.4326241458
 30
0.0
 10
10.6539083617
 20
8.3654656407
 30
0.0
 10
10.6569354325
 20
8.3213515208
 30
0.0
 10
10.6586022147
 20
8.2996097177
 30
0.0
  0
SPLINE
  5
3B6
100
AcDbEntity
  8
0
100
AcDbSpline
 62
7
  6
CONTINUOUS
 70
0
 71
3
 72
18
 73
14
 74
0
 42
0.0000001
 43
0.0000001
 44
0.0000000001
 40
0.0
 40
0.0
 40
0.0
 40
0.0
 40
0.1209533837
 40
0.2437778942
 40
0.3058582232
 40
0.3683347693
 40
0.4311529717
 40
0.4942444779
 40
0.5575323574
 40
0.6209360738
 40
0.7477793722
 40
0.8742481621
 40
1.0
 40
1.0
 40
1.0
 40
1.0
 10
10.685562619
 20
8.2510432173
 30
0.0
 10
10.7040164057
 20
8.2364361196
 30
0.0
 10
10.7414879954
 20
8.2073454566
 30
0.0
 10
10.7892870224
 20
8.1718786452
 30
0.0
 10
10.8284636136
 20
8.1439079564
 30
0.0
 10
10.8584054976
 20
8.1231024027
 30
0.0
 10
10.8887817798
 20
8.1025827284
 30
0.0
 10
10.9195617365
 20
8.0823844519
 30
0.0
 10
10.9507053174
 20
8.0625385948
 30
0.0
 10
10.9926567348
 20
8.0365778598
 30
0.0
 10
11.0456828945
 20
8.0051617183
 30
0.0
 10
11.1100065309
 20
7.9690557562
 30
0.0
 10
11.1532846851
 20
7.9459056891
 30
0.0
 10
11.1749591819
 20
7.9345502131
 30
0.0
  0
SPLINE
  5
3B7
100
AcDbEntity
  8
0
100
AcDbSpline
 62
7
  6
CONTINUOUS
 70
0
 71
3
 72
15
 73
11
 74
0
 42
0.0000001
 43
0.0000001
 44
0.0000000001
 40
0.0
 40
0.0
 40
0.0
 40
0.0
 40
0.112346891
 40
0.2287649619
 40
0.3494215021
 40
0.4741363415
 40
0.6023573719
 40
0.7332837662
 40
0.866070494
 40
1.0
 40
1.0
 40
1.0
 40
1.0
 10
11.2288799905
 20
7.9308107923
 30
0.0
 10
11.2475096697
 20
7.9395083957
 30
0.0
 10
11.2853802901
 20
7.9573559514
 30
0.0
 10
11.3430059481
 20
7.9850765227
 30
0.0
 10
11.4024225792
 20
8.0142899538
 30
0.0
 10
11.4635087558
 20
8.044997189
 30
0.0
 10
11.5260010039
 20
8.0770859626
 30
0.0
 10
11.5895468202
 20
8.1103516295
 30
0.0
 10
11.6537837341
 20
8.1445454905
 30
0.0
 10
11.6967362111
 20
8.1677306982
 30
0.0
 10
11.7182765533
 20
8.1794242627
 30
0.0
  0
SPLINE
  5
3B8
100
AcDbEntity
  8
0
100
AcDbSpline
 62
7
  6
CONTINUOUS
 70
0
 71
3
 72
49
 73
45
 74
0
 42
0.0000001
 43
0.0000001
 44
0.0000000001
 40
0.0
 40
0.0
 40
0.0
 40
0.0
 40
0.031187151
 40
0.0621645213
 40
0.0929401585
 40
0.1082629014
 40
0.1235424257
 40
0.1387821476
 40
0.1539858757
 40
0.1691576791
 40
0.1843020069
 40
0.1994235946
 40
0.2145274341
 40
0.2296186839
 40
0.2447026442
 40
0.2597846952
 40
0.2748702365
 40
0.2899646369
 40
0.3050731598
 40
0.3202009317
 40
0.3353528523
 40
0.3505335935
 40
0.3657474896
 40
0.3809985718
 40
0.3962904382
 40
0.4269990655
 40
0.4579035252
 40
0.4890160735
 40
0.5203408316
 40
0.5518737651
 40
0.5836029699
 40
0.6155093002
 40
0.6475671858
 40
0.6797456153
 40
0.7120093051
 40
0.7443199991
 40
0.776637812
 40
0.8089225842
 40
0.8411353274
 40
0.8732395264
 40
0.9052026864
 40
0.9369967424
 40
0.9686011451
 40
1.0
 40
1.0
 40
1.0
 40
1.0
 10
11.1901146855
 20
9.0691699736
 30
0.0
 10
11.1726379365
 20
9.0703819903
 30
0.0
 10
11.1376587123
 20
9.0711013648
 30
0.0
 10
11.0855321855
 20
9.0670018228
 30
0.0
 10
11.042847158
 20
9.0592832533
 30
0.0
 10
11.009474626
 20
9.0505751008
 30
0.0
 10
10.9849115496
 20
9.0428055247
 30
0.0
 10
10.9608433173
 20
9.0338076968
 30
0.0
 10
10.9373271217
 20
9.0236029799
 30
0.0
 10
10.9144196655
 20
9.0122164315
 30
0.0
 10
10.8921766087
 20
8.9996746475
 30
0.0
 10
10.8706509889
 20
8.986008916
 30
0.0
 10
10.8498955606
 20
8.9712509001
 30
0.0
 10
10.8299593713
 20
8.9554375902
 30
0.0
 10
10.8108917203
 20
8.9386056229
 30
0.0
 10
10.7927372805
 20
8.9207970891
 30
0.0
 10
10.7755412325
 20
8.9020535172
 30
0.0
 10
10.759343644
 20
8.8824214224
 30
0.0
 10
10.7441849072
 20
8.8619470387
 30
0.0
 10
10.7301003508
 20
8.840680686
 30
0.0
 10
10.717124938
 20
8.8186729761
 30
0.0
 10
10.7052891418
 20
8.7959774407
 30
0.0
 10
10.6946219859
 20
8.7726487555
 30
0.0
 10
10.685148817
 20
8.748742477
 30
0.0
 10
10.6741265285
 20
8.7161358763
 30
0.0
 10
10.6634477091
 20
8.6741930725
 30
0.0
 10
10.6557322355
 20
8.6225950613
 30
0.0
 10
10.6531639765
 20
8.5701390931
 30
0.0
 10
10.6557668979
 20
8.5173338589
 30
0.0
 10
10.6635136445
 20
8.4646864869
 30
0.0
 10
10.676328039
 20
8.4127032666
 30
0.0
 10
10.6940853633
 20
8.3618833904
 30
0.0
 10
10.71661378
 20
8.3127146748
 30
0.0
 10
10.7436959658
 20
8.2656688941
 30
0.0
 10
10.7750712144
 20
8.2211973888
 30
0.0
 10
10.8104379215
 20
8.1797268079
 30
0.0
 10
10.8494564455
 20
8.1416551246
 30
0.0
 10
10.8917522959
 20
8.1073478369
 30
0.0
 10
10.9369196676
 20
8.0771346705
 30
0.0
 10
10.9845253914
 20
8.0513060644
 30
0.0
 10
11.0341122511
 20
8.0301113214
 30
0.0
 10
11.085206355
 20
8.0137543374
 30
0.0
 10
11.1373102671
 20
8.002395137
 30
0.0
 10
11.1725193012
 20
7.9982124869
 30
0.0
 10
11.1901146855
 20
7.9969922429
 30
0.0
  0
SPLINE
  5
3B9
100
AcDbEntity
  8
0
100
AcDbSpline
 62
7
  6
CONTINUOUS
 70
0
 71
3
 72
49
 73
45
 74
0
 42
0.0000001
 43
0.0000001
 44
0.0000000001
 40
0.0
 40
0.0
 40
0.0
 40
0.0
 40
0.031187151
 40
0.0621645213
 40
0.0929401585
 40
0.1082629014
 40
0.1235424257
 40
0.1387821476
 40
0.1539858757
 40
0.1691576791
 40
0.1843020069
 40
0.1994235946
 40
0.2145274341
 40
0.2296186839
 40
0.2447026442
 40
0.2597846952
 40
0.2748702365
 40
0.2899646369
 40
0.3050731598
 40
0.3202009317
 40
0.3353528523
 40
0.3505335935
 40
0.3657474896
 40
0.3809985718
 40
0.3962904382
 40
0.4269990655
 40
0.4579035252
 40
0.4890160735
 40
0.5203408316
 40
0.5518737651
 40
0.5836029699
 40
0.6155093002
 40
0.6475671858
 40
0.6797456153
 40
0.7120093051
 40
0.7443199991
 40
0.776637812
 40
0.8089225842
 40
0.8411353274
 40
0.8732395264
 40
0.9052026864
 40
0.9369967424
 40
0.9686011451
 40
1.0
 40
1.0
 40
1.0
 40
1.0
 10
11.1901146855
 20
7.9969922429
 30
0.0
 10
11.2075914346
 20
7.9957802262
 30
0.0
 10
11.2425706588
 20
7.9950608517
 30
0.0
 10
11.2946971856
 20
7.9991603937
 30
0.0
 10
11.3373822131
 20
8.0068789632
 30
0.0
 10
11.3707547451
 20
8.0155871157
 30
0.0
 10
11.3953178215
 20
8.0233566918
 30
0.0
 10
11.4193860538
 20
8.0323545197
 30
0.0
 10
11.4429022494
 20
8.0425592366
 30
0.0
 10
11.4658097056
 20
8.053945785
 30
0.0
 10
11.4880527624
 20
8.066487569
 30
0.0
 10
11.5095783822
 20
8.0801533005
 30
0.0
 10
11.5303338105
 20
8.0949113164
 30
0.0
 10
11.5502699998
 20
8.1107246263
 30
0.0
 10
11.5693376508
 20
8.1275565936
 30
0.0
 10
11.5874920906
 20
8.1453651273
 30
0.0
 10
11.6046881386
 20
8.1641086993
 30
0.0
 10
11.6208857271
 20
8.1837407941
 30
0.0
 10
11.6360444638
 20
8.2042151778
 30
0.0
 10
11.6501290203
 20
8.2254815305
 30
0.0
 10
11.6631044331
 20
8.2474892404
 30
0.0
 10
11.6749402293
 20
8.2701847758
 30
0.0
 10
11.6856073851
 20
8.293513461
 30
0.0
 10
11.6950805541
 20
8.3174197395
 30
0.0
 10
11.7061028426
 20
8.3500263402
 30
0.0
 10
11.716781662
 20
8.391969144
 30
0.0
 10
11.7244971356
 20
8.4435671552
 30
0.0
 10
11.7270653945
 20
8.4960231234
 30
0.0
 10
11.7244624732
 20
8.5488283576
 30
0.0
 10
11.7167157266
 20
8.6014757296
 30
0.0
 10
11.7039013321
 20
8.6534589499
 30
0.0
 10
11.6861440078
 20
8.7042788261
 30
0.0
 10
11.6636155911
 20
8.7534475417
 30
0.0
 10
11.6365334052
 20
8.8004933224
 30
0.0
 10
11.6051581567
 20
8.8449648277
 30
0.0
 10
11.5697914496
 20
8.8864354086
 30
0.0
 10
11.5307729256
 20
8.9245070919
 30
0.0
 10
11.4884770752
 20
8.9588143795
 30
0.0
 10
11.4433097035
 20
8.989027546
 30
0.0
 10
11.3957039797
 20
9.0148561521
 30
0.0
 10
11.34611712
 20
9.0360508951
 30
0.0
 10
11.295023016
 20
9.0524078791
 30
0.0
 10
11.2429191039
 20
9.0637670795
 30
0.0
 10
11.2077100699
 20
9.0679497296
 30
0.0
 10
11.1901146855
 20
9.0691699736
 30
0.0
  0
SPLINE
  5
3BA
100
AcDbEntity
  8
0
100
AcDbSpline
 62
7
  6
CONTINUOUS
 70
0
 71
3
 72
15
 73
11
 74
0
 42
0.0000001
 43
0.0000001
 44
0.0000000001
 40
0.0
 40
0.0
 40
0.0
 40
0.0
 40
0.1156537103
 40
0.2345121048
 40
0.3566334592
 40
0.4817744298
 40
0.6093887094
 40
0.7387521918
 40
0.869146757
 40
1.0
 40
1.0
 40
1.0
 40
1.0
 10
11.7452369577
 20
8.2242513424
 30
0.0
 10
11.7435701754
 20
8.2459931454
 30
0.0
 10
11.7405431046
 20
8.2901072653
 30
0.0
 10
11.7371467928
 20
8.3572657704
 30
0.0
 10
11.7350220868
 20
8.4262670716
 30
0.0
 10
11.7343069898
 20
8.4969485637
 30
0.0
 10
11.735050089
 20
8.5689949854
 30
0.0
 10
11.7371964327
 20
8.6420034567
 30
0.0
 10
11.7406050285
 20
8.7155741483
 30
0.0
 10
11.7435932286
 20
8.7647412826
 30
0.0
 10
11.7452369577
 20
8.7893578169
 30
0.0
  0
SPLINE
  5
3BB
100
AcDbEntity
  8
0
100
AcDbSpline
 62
7
  6
CONTINUOUS
 70
0
 71
3
 72
18
 73
14
 74
0
 42
0.0000001
 43
0.0000001
 44
0.0000000001
 40
0.0
 40
0.0
 40
0.0
 40
0.0
 40
0.1257518379
 40
0.2522206279
 40
0.3790639262
 40
0.4424676427
 40
0.5057555221
 40
0.5688470283
 40
0.6316652308
 40
0.6941417768
 40
0.7562221058
 40
0.8790466163
 40
1.0
 40
1.0
 40
1.0
 40
1.0
 10
11.7182765533
 20
8.8379243174
 30
0.0
 10
11.6966020566
 20
8.8492797935
 30
0.0
 10
11.6533239024
 20
8.8724298606
 30
0.0
 10
11.589000266
 20
8.9085358227
 30
0.0
 10
11.5359741062
 20
8.9399519641
 30
0.0
 10
11.4940226889
 20
8.9659126991
 30
0.0
 10
11.462879108
 20
8.9857585562
 30
0.0
 10
11.4320991512
 20
9.0059568327
 30
0.0
 10
11.401722869
 20
9.026476507
 30
0.0
 10
11.371780985
 20
9.0472820607
 30
0.0
 10
11.3326043938
 20
9.0752527495
 30
0.0
 10
11.2848053668
 20
9.1107195609
 30
0.0
 10
11.2473337772
 20
9.1398102239
 30
0.0
 10
11.2288799905
 20
9.1544173216
 30
0.0
  0
SPLINE
  5
3BC
100
AcDbEntity
  8
0
100
AcDbSpline
 62
7
  6
CONTINUOUS
 70
0
 71
3
 72
15
 73
11
 74
0
 42
0.0000001
 43
0.0000001
 44
0.0000000001
 40
0.0
 40
0.0
 40
0.0
 40
0.0
 40
0.1339295061
 40
0.2667162338
 40
0.3976426282
 40
0.5258636586
 40
0.6505784979
 40
0.7712350381
 40
0.887653109
 40
1.0
 40
1.0
 40
1.0
 40
1.0
 10
11.1749591819
 20
9.1581567424
 30
0.0
 10
11.1534188396
 20
9.1464631779
 30
0.0
 10
11.1104663626
 20
9.1232779702
 30
0.0
 10
11.0462294488
 20
9.0890841092
 30
0.0
 10
10.9826836324
 20
9.0558184423
 30
0.0
 10
10.9201913843
 20
9.0237296687
 30
0.0
 10
10.8591052077
 20
8.9930224335
 30
0.0
 10
10.7996885766
 20
8.9638090024
 30
0.0
 10
10.7420629186
 20
8.9360884311
 30
0.0
 10
10.7041922982
 20
8.9182408754
 30
0.0
 10
10.685562619
 20
8.909543272
 30
0.0
  0
SPLINE
  5
3BD
100
AcDbEntity
  8
0
100
AcDbSpline
 62
7
  6
CONTINUOUS
 70
0
 71
3
 72
13
 73
9
 74
0
 42
0.0000001
 43
0.0000001
 44
0.0000000001
 40
0.0
 40
0.0
 40
0.0
 40
0.0
 40
0.2519031819
 40
0.5024835328
 40
0.627316677
 40
0.7518395577
 40
0.8760632036
 40
1.0
 40
1.0
 40
1.0
 40
1.0
 10
10.5234080064
 20
8.7550918882
 30
0.0
 10
10.5234080064
 20
8.7418545447
 30
0.0
 10
10.5224020492
 20
8.7154386843
 30
0.0
 10
10.5186069711
 20
8.6826580108
 30
0.0
 10
10.5140628783
 20
8.6567768701
 30
0.0
 10
10.5099121499
 20
8.6375838962
 30
0.0
 10
10.505020929
 20
8.6186153305
 30
0.0
 10
10.5012666961
 20
8.6061225123
 30
0.0
 10
10.4992686348
 20
8.5999237819
 30
0.0
  0
SPLINE
  5
3BE
100
AcDbEntity
  8
0
100
AcDbSpline
 62
7
  6
CONTINUOUS
 70
0
 71
3
 72
13
 73
9
 74
0
 42
0.0000001
 43
0.0000001
 44
0.0000000001
 40
0.0
 40
0.0
 40
0.0
 40
0.0
 40
0.2519031819
 40
0.5024835328
 40
0.627316677
 40
0.7518395577
 40
0.8760632036
 40
1.0
 40
1.0
 40
1.0
 40
1.0
 10
11.8814998161
 20
8.6609079013
 30
0.0
 10
11.8814998161
 20
8.6476705578
 30
0.0
 10
11.880493859
 20
8.6212546974
 30
0.0
 10
11.8766987808
 20
8.5884740239
 30
0.0
 10
11.8721546881
 20
8.5625928832
 30
0.0
 10
11.8680039596
 20
8.5433999093
 30
0.0
 10
11.8631127387
 20
8.5244313436
 30
0.0
 10
11.8593585058
 20
8.5119385254
 30
0.0
 10
11.8573604445
 20
8.505739795
 30
0.0
  0
SPLINE
  5
3BF
100
AcDbEntity
  8
0
100
AcDbSpline
 62
7
  6
CONTINUOUS
 70
0
 71
3
 72
13
 73
9
 74
0
 42
0.0000001
 43
0.0000001
 44
0.0000000001
 40
0.0
 40
0.0
 40
0.0
 40
0.0
 40
0.2519031819
 40
0.5024835328
 40
0.627316677
 40
0.7518395577
 40
0.8760632036
 40
1.0
 40
1.0
 40
1.0
 40
1.0
 10
10.5234080064
 20
7.306203063
 30
0.0
 10
10.5234080064
 20
7.2929657194
 30
0.0
 10
10.5224020492
 20
7.266549859
 30
0.0
 10
10.5186069711
 20
7.2337691856
 30
0.0
 10
10.5140628783
 20
7.2078880448
 30
0.0
 10
10.5099121499
 20
7.1886950709
 30
0.0
 10
10.505020929
 20
7.1697265052
 30
0.0
 10
10.5012666961
 20
7.157233687
 30
0.0
 10
10.4992686348
 20
7.1510349566
 30
0.0
  0
SPLINE
  5
3C0
100
AcDbEntity
  8
0
100
AcDbSpline
 62
7
  6
CONTINUOUS
 70
0
 71
3
 72
13
 73
9
 74
0
 42
0.0000001
 43
0.0000001
 44
0.0000000001
 40
0.0
 40
0.0
 40
0.0
 40
0.0
 40
0.2519031819
 40
0.5024835328
 40
0.627316677
 40
0.7518395577
 40
0.8760632036
 40
1.0
 40
1.0
 40
1.0
 40
1.0
 10
11.8814998161
 20
7.2120190761
 30
0.0
 10
11.8814998161
 20
7.1987817325
 30
0.0
 10
11.880493859
 20
7.1723658721
 30
0.0
 10
11.8766987808
 20
7.1395851987
 30
0.0
 10
11.8721546881
 20
7.113704058
 30
0.0
 10
11.8680039596
 20
7.094511084
 30
0.0
 10
11.8631127387
 20
7.0755425183
 30
0.0
 10
11.8593585058
 20
7.0630497001
 30
0.0
 10
11.8573604445
 20
7.0568509697
 30
0.0
  0
SPLINE
  5
3C1
100
AcDbEntity
  8
0
100
AcDbSpline
 62
7
  6
CONTINUOUS
 70
0
 71
3
 72
36
 73
32
 74
0
 42
0.0000001
 43
0.0000001
 44
0.0000000001
 40
0.0
 40
0.0
 40
0.0
 40
0.0
 40
0.0958325634
 40
0.1891023555
 40
0.2792432641
 40
0.3657124907
 40
0.4480017797
 40
0.4874318797
 40
0.5256445484
 40
0.5625883581
 40
0.5982156304
 40
0.6324821329
 40
0.6653482299
 40
0.6967786463
 40
0.7267435444
 40
0.7552190339
 40
0.7821878748
 40
0.8076411027
 40
0.8315786922
 40
0.8540122486
 40
0.8749666358
 40
0.8944835825
 40
0.9126254693
 40
0.9294800532
 40
0.9451666526
 40
0.9598414247
 40
0.9737025134
 40
0.9804060178
 40
0.9869995332
 40
0.9935185676
 40
1.0
 40
1.0
 40
1.0
 40
1.0
 10
9.7660584637
 20
10.3819927567
 30
0.0
 10
9.7607711299
 20
10.3823594345
 30
0.0
 10
9.7503454794
 20
10.3831992715
 30
0.0
 10
9.7349838719
 20
10.3848024137
 30
0.0
 10
9.7201805479
 20
10.3867235646
 30
0.0
 10
9.7060343621
 20
10.3889497294
 30
0.0
 10
9.6947162536
 20
10.3910754201
 30
0.0
 10
9.6860664879
 20
10.3929256654
 30
0.0
 10
9.6798933451
 20
10.3943599819
 30
0.0
 10
9.6739520628
 20
10.3958582697
 30
0.0
 10
9.6682525298
 20
10.3974179913
 30
0.0
 10
9.6628042419
 20
10.3990365689
 30
0.0
 10
9.6576162497
 20
10.4007112371
 30
0.0
 10
9.6526971661
 20
10.4024392203
 30
0.0
 10
9.6480551309
 20
10.4042176121
 30
0.0
 10
9.6436977964
 20
10.4060434323
 30
0.0
 10
9.6396323278
 20
10.40791369
 30
0.0
 10
9.6358653409
 20
10.409825251
 30
0.0
 10
9.6324029574
 20
10.4117750821
 30
0.0
 10
9.6292507042
 20
10.4137600276
 30
0.0
 10
9.626413599
 20
10.4157770857
 30
0.0
 10
9.6238961095
 20
10.417823302
 30
0.0
 10
9.6217022082
 20
10.4198959023
 30
0.0
 10
9.6198355905
 20
10.4219923699
 30
0.0
 10
9.6182996747
 20
10.4241104577
 30
0.0
 10
9.6170982772
 20
10.4262475845
 30
0.0
 10
9.6163710557
 20
10.4280631869
 30
0.0
 10
9.6159687401
 20
10.4295115327
 30
0.0
 10
9.6157553209
 20
10.4305876126
 30
0.0
 10
9.6156272022
 20
10.4316647099
 30
0.0
 10
9.6155987005
 20
10.4323840251
 30
0.0
 10
9.6155986974
 20
10.4327424816
 30
0.0
  0
SPLINE
  5
3C2
100
AcDbEntity
  8
0
100
AcDbSpline
 62
7
  6
CONTINUOUS
 70
0
 71
3
 72
36
 73
32
 74
0
 42
0.0000001
 43
0.0000001
 44
0.0000000001
 40
0.0
 40
0.0
 40
0.0
 40
0.0
 40
0.0958325634
 40
0.1891023555
 40
0.2792432641
 40
0.3657124907
 40
0.4480017797
 40
0.4874318797
 40
0.5256445484
 40
0.5625883581
 40
0.5982156304
 40
0.6324821329
 40
0.6653482299
 40
0.6967786463
 40
0.7267435444
 40
0.7552190339
 40
0.7821878748
 40
0.8076411027
 40
0.8315786922
 40
0.8540122486
 40
0.8749666358
 40
0.8944835825
 40
0.9126254693
 40
0.9294800532
 40
0.9451666526
 40
0.9598414247
 40
0.9737025134
 40
0.9804060178
 40
0.9869995332
 40
0.9935185676
 40
1.0
 40
1.0
 40
1.0
 40
1.0
 10
12.9053175852
 20
10.1642843971
 30
0.0
 10
12.9000302513
 20
10.164651075
 30
0.0
 10
12.8896046008
 20
10.165490912
 30
0.0
 10
12.8742429934
 20
10.1670940542
 30
0.0
 10
12.8594396693
 20
10.1690152051
 30
0.0
 10
12.8452934836
 20
10.1712413699
 30
0.0
 10
12.8339753751
 20
10.1733670606
 30
0.0
 10
12.8253256094
 20
10.1752173059
 30
0.0
 10
12.8191524665
 20
10.1766516224
 30
0.0
 10
12.8132111843
 20
10.1781499102
 30
0.0
 10
12.8075116513
 20
10.1797096318
 30
0.0
 10
12.8020633633
 20
10.1813282094
 30
0.0
 10
12.7968753712
 20
10.1830028776
 30
0.0
 10
12.7919562876
 20
10.1847308607
 30
0.0
 10
12.7873142523
 20
10.1865092526
 30
0.0
 10
12.7829569179
 20
10.1883350728
 30
0.0
 10
12.7788914493
 20
10.1902053305
 30
0.0
 10
12.7751244623
 20
10.1921168915
 30
0.0
 10
12.7716620789
 20
10.1940667226
 30
0.0
 10
12.7685098256
 20
10.1960516681
 30
0.0
 10
12.7656727204
 20
10.1980687262
 30
0.0
 10
12.763155231
 20
10.2001149425
 30
0.0
 10
12.7609613296
 20
10.2021875428
 30
0.0
 10
12.7590947119
 20
10.2042840103
 30
0.0
 10
12.7575587962
 20
10.2064020982
 30
0.0
 10
12.7563573987
 20
10.208539225
 30
0.0
 10
12.7556301771
 20
10.2103548274
 30
0.0
 10
12.7552278616
 20
10.2118031732
 30
0.0
 10
12.7550144423
 20
10.2128792531
 30
0.0
 10
12.7548863237
 20
10.2139563504
 30
0.0
 10
12.754857822
 20
10.2146756656
 30
0.0
 10
12.7548578189
 20
10.2150341221
 30
0.0
  0
SPLINE
  5
3C3
100
AcDbEntity
  8
0
100
AcDbSpline
 62
7
  6
CONTINUOUS
 70
0
 71
3
 72
11
 73
7
 74
0
 42
0.0000001
 43
0.0000001
 44
0.0000000001
 40
0.0
 40
0.0
 40
0.0
 40
0.0
 40
0.2661495831
 40
0.5207944546
 40
0.7650045188
 40
1.0
 40
1.0
 40
1.0
 40
1.0
 10
8.9052253535
 20
9.8935350589
 30
0.0
 10
8.9037302885
 20
9.8949746003
 30
0.0
 10
8.9007203444
 20
9.8977057475
 30
0.0
 10
8.896042711
 20
9.9014156716
 30
0.0
 10
8.8913094932
 20
9.9046411427
 30
0.0
 10
8.8880616954
 20
9.9064993364
 30
0.0
 10
8.8864335253
 20
9.9073402608
 30
0.0
  0
SPLINE
  5
3C4
100
AcDbEntity
  8
0
100
AcDbSpline
 62
7
  6
CONTINUOUS
 70
0
 71
3
 72
66
 73
62
 74
0
 42
0.0000001
 43
0.0000001
 44
0.0000000001
 40
0.0
 40
0.0
 40
0.0
 40
0.0
 40
0.0056007461
 40
0.0115518934
 40
0.0179127261
 40
0.0212626821
 40
0.0247316708
 40
0.0283238479
 40
0.0320427725
 40
0.0358914988
 40
0.0398726282
 40
0.043988299
 40
0.0482402963
 40
0.0526300558
 40
0.0571586765
 40
0.0666351001
 40
0.0766738635
 40
0.0872751867
 40
0.0984363779
 40
0.1101522281
 40
0.1224153582
 40
0.1352165005
 40
0.1485447059
 40
0.1623874951
 40
0.1767310285
 40
0.1915602366
 40
0.2068589124
 40
0.2226097896
 40
0.2387946475
 40
0.255394385
 40
0.2723890707
 40
0.289758003
 40
0.307479785
 40
0.3255323758
 40
0.3438931258
 40
0.3625388359
 40
0.3814458139
 40
0.4199460829
 40
0.4591966543
 40
0.4989946562
 40
0.5391335457
 40
0.5794045261
 40
0.6195979258
 40
0.6595045835
 40
0.6989172421
 40
0.7376319324
 40
0.775449392
 40
0.7939613078
 40
0.8121770699
 40
0.8300737362
 40
0.8476289374
 40
0.8648209378
 40
0.8816286717
 40
0.898031796
 40
0.9140107672
 40
0.9295468934
 40
0.9446224264
 40
0.9592205872
 40
0.9733255749
 40
0.9869233696
 40
1.0
 40
1.0
 40
1.0
 40
1.0
 10
13.0165094129
 20
8.4477986363
 30
0.0
 10
13.0140322762
 20
8.4490780387
 30
0.0
 10
13.009091781
 20
8.4520533257
 30
0.0
 10
13.0020121492
 20
8.4574998464
 30
0.0
 10
12.9963276914
 20
8.4628536
 30
0.0
 10
12.9918486953
 20
8.4676494629
 30
0.0
 10
12.9884670886
 20
8.4715787472
 30
0.0
 10
12.9851224497
 20
8.4757766913
 30
0.0
 10
12.9818156952
 20
8.4802419902
 30
0.0
 10
12.9785479427
 20
8.4849730665
 30
0.0
 10
12.9753203038
 20
8.4899683397
 30
0.0
 10
12.9721338057
 20
8.4952260685
 30
0.0
 10
12.9689895587
 20
8.5007444682
 30
0.0
 10
12.9658886056
 20
8.5065216637
 30
0.0
 10
12.96175045
 20
8.514690912
 30
0.0
 10
12.9567054613
 20
8.5255489421
 30
0.0
 10
12.9509292117
 20
8.5393869345
 30
0.0
 10
12.9453503268
 20
8.5542050452
 30
0.0
 10
12.93997651
 20
8.5699828936
 30
0.0
 10
12.9348151657
 20
8.5866990108
 30
0.0
 10
12.9298734581
 20
8.6043304518
 30
0.0
 10
12.9251582766
 20
8.6228529828
 30
0.0
 10
12.9206762191
 20
8.6422410792
 30
0.0
 10
12.9164335395
 20
8.6624679685
 30
0.0
 10
12.9124361712
 20
8.6835056845
 30
0.0
 10
12.9086897157
 20
8.7053251203
 30
0.0
 10
12.9051994268
 20
8.7278960618
 30
0.0
 10
12.901970179
 20
8.7511872283
 30
0.0
 10
12.8990064931
 20
8.7751663296
 30
0.0
 10
12.8963125279
 20
8.7998001165
 30
0.0
 10
12.8938920577
 20
8.8250544176
 30
0.0
 10
12.8917484618
 20
8.8508941891
 30
0.0
 10
12.8898847437
 20
8.877283572
 30
0.0
 10
12.8883035232
 20
8.904185945
 30
0.0
 10
12.8870070193
 20
8.9315639558
 30
0.0
 10
12.8859970187
 20
8.9593796277
 30
0.0
 10
12.8850285542
 20
8.9972266237
 30
0.0
 10
12.884554021
 20
9.0453437382
 30
0.0
 10
12.8851425179
 20
9.1038596334
 30
0.0
 10
12.8868828404
 20
9.1631686555
 30
0.0
 10
12.8897654069
 20
9.2229415639
 30
0.0
 10
12.8937743644
 20
9.2828467485
 30
0.0
 10
12.8988874428
 20
9.3425518033
 30
0.0
 10
12.9050762322
 20
9.4017254393
 30
0.0
 10
12.9123062164
 20
9.4600394216
 30
0.0
 10
12.9205371004
 20
9.5171700693
 30
0.0
 10
12.9282454459
 20
9.5638543096
 30
0.0
 10
12.9348897047
 20
9.6003634877
 30
0.0
 10
12.9400576794
 20
9.6270602158
 30
0.0
 10
12.9454384678
 20
9.6532288391
 30
0.0
 10
12.9510246162
 20
9.678833065
 30
0.0
 10
12.9568083277
 20
9.7038373595
 30
0.0
 10
12.9627815487
 20
9.7282070331
 30
0.0
 10
12.9689359678
 20
9.751908276
 30
0.0
 10
12.9752630122
 20
9.7749082161
 30
0.0
 10
12.981753856
 20
9.7971749802
 30
0.0
 10
12.9883994615
 20
9.8186777174
 30
0.0
 10
12.9951905664
 20
9.8393865755
 30
0.0
 10
13.0021177387
 20
9.8592731076
 30
0.0
 10
13.0091712713
 20
9.8783094568
 30
0.0
 10
13.0140480663
 20
9.8906612578
 30
0.0
 10
13.0165094129
 20
9.8966874616
 30
0.0
  0
SPLINE
  5
3C5
100
AcDbEntity
  8
0
100
AcDbSpline
 62
7
  6
CONTINUOUS
 70
0
 71
3
 72
51
 73
47
 74
0
 42
0.0000001
 43
0.0000001
 44
0.0000000001
 40
0.0
 40
0.0
 40
0.0
 40
0.0
 40
0.040725654
 40
0.0819149151
 40
0.1234498402
 40
0.1652113726
 40
0.2070795351
 40
0.2489340004
 40
0.290654477
 40
0.3321211668
 40
0.3732151989
 40
0.4138190727
 40
0.4538171028
 40
0.4930958684
 40
0.5315446714
 40
0.5690560038
 40
0.6055260318
 40
0.6408551021
 40
0.6749482804
 40
0.7077159353
 40
0.7390743875
 40
0.7689466527
 40
0.7833038396
 40
0.7972641296
 40
0.810820213
 40
0.8239653932
 40
0.8366936611
 40
0.8489997214
 40
0.8608791025
 40
0.8723281855
 40
0.8833443585
 40
0.8939260592
 40
0.9040729863
 40
0.9137861719
 40
0.9230682688
 40
0.9319236778
 40
0.9403589356
 40
0.9483829291
 40
0.9560074126
 40
0.9632473414
 40
0.9701215268
 40
0.9766530833
 40
0.9828701499
 40
0.9888063109
 40
0.9945011024
 40
1.0
 40
1.0
 40
1.0
 40
1.0
 10
12.9138830796
 20
9.105113618
 30
0.0
 10
12.9138830796
 20
9.1154349064
 30
0.0
 10
12.9140379988
 20
9.1361952788
 30
0.0
 10
12.9147233236
 20
9.1674752372
 30
0.0
 10
12.9158610717
 20
9.1990047545
 30
0.0
 10
12.917447774
 20
9.2306871064
 30
0.0
 10
12.9194785848
 20
9.2624252399
 30
0.0
 10
12.9219472824
 20
9.2941218818
 30
0.0
 10
12.9248462968
 20
9.3256799026
 30
0.0
 10
12.9281667283
 20
9.3570025951
 30
0.0
 10
12.9318983771
 20
9.3879939796
 30
0.0
 10
12.9360297729
 20
9.4185590975
 30
0.0
 10
12.9405482103
 20
9.4486043059
 30
0.0
 10
12.9454397866
 20
9.478037567
 30
0.0
 10
12.9506894442
 20
9.5067687335
 30
0.0
 10
12.9562810153
 20
9.5347098306
 30
0.0
 10
12.9621972708
 20
9.561775329
 30
0.0
 10
12.9684199718
 20
9.5878824215
 30
0.0
 10
12.9749299271
 20
9.6129512637
 30
0.0
 10
12.9817070448
 20
9.6369053161
 30
0.0
 10
12.9887304223
 20
9.6596713024
 30
0.0
 10
12.9948484536
 20
9.6778274389
 30
0.0
 10
12.9998601665
 20
9.6916975213
 30
0.0
 10
13.0036172357
 20
9.7016228784
 30
0.0
 10
13.0074194211
 20
9.7112013366
 30
0.0
 10
13.0112638444
 20
9.7204255891
 30
0.0
 10
13.0151475375
 20
9.7292885993
 30
0.0
 10
13.0190675426
 20
9.7377836086
 30
0.0
 10
13.0230208403
 20
9.7459041556
 30
0.0
 10
13.0270044325
 20
9.7536440613
 30
0.0
 10
13.0310152563
 20
9.7609974624
 30
0.0
 10
13.0350502931
 20
9.7679587815
 30
0.0
 10
13.0391064554
 20
9.7745227766
 30
0.0
 10
13.0431807285
 20
9.7806844909
 30
0.0
 10
13.0472700289
 20
9.7864393227
 30
0.0
 10
13.0513713804
 20
9.7917829462
 30
0.0
 10
13.0554817452
 20
9.7967114085
 30
0.0
 10
13.0595982358
 20
9.8012210043
 30
0.0
 10
13.063717917
 20
9.8053084068
 30
0.0
 10
13.0678380493
 20
9.8089704731
 30
0.0
 10
13.0719558513
 20
9.8122044113
 30
0.0
 10
13.0760687642
 20
9.8150074923
 30
0.0
 10
13.0801740828
 20
9.8173772561
 30
0.0
 10
13.0842694179
 20
9.8193111733
 30
0.0
 10
13.0883513082
 20
9.8208068155
 30
0.0
 10
13.0911027762
 20
9.8215206604
 30
0.0
 10
13.0924682309
 20
9.8217993795
 30
0.0
  0
SPLINE
  5
3C6
100
AcDbEntity
  8
0
100
AcDbSpline
 62
7
  6
CONTINUOUS
 70
0
 71
3
 72
38
 73
34
 74
0
 42
0.0000001
 43
0.0000001
 44
0.0000000001
 40
0.0
 40
0.0
 40
0.0
 40
0.0
 40
0.0933719495
 40
0.1843534427
 40
0.2287941667
 40
0.2724539911
 40
0.3152747787
 40
0.3571998665
 40
0.3981743992
 40
0.4381454015
 40
0.4770619842
 40
0.5148755597
 40
0.551539918
 40
0.5870114933
 40
0.6212496782
 40
0.6542169574
 40
0.6858792465
 40
0.7162063881
 40
0.7451724524
 40
0.7727562674
 40
0.7989422461
 40
0.8237211047
 40
0.8470908825
 40
0.8690584727
 40
0.8896413174
 40
0.9088696062
 40
0.9267893495
 40
0.9434660558
 40
0.9589890995
 40
0.97347685
 40
0.987081548
 40
0.9936140925
 40
1.0
 40
1.0
 40
1.0
 40
1.0
 10
12.9138830796
 20
9.105113618
 30
0.0
 10
12.9138830796
 20
9.0910251443
 30
0.0
 10
12.9141661676
 20
9.0632079965
 30
0.0
 10
12.9152599476
 20
9.0287006054
 30
0.0
 10
12.9165816429
 20
9.0017115283
 30
0.0
 10
12.9177810566
 20
8.9819933509
 30
0.0
 10
12.9191944775
 20
8.9626699144
 30
0.0
 10
12.9208198194
 20
8.943769746
 30
0.0
 10
12.9226546366
 20
8.9253207893
 30
0.0
 10
12.9246962057
 20
8.9073503089
 30
0.0
 10
12.9269414832
 20
8.8898848531
 30
0.0
 10
12.9293871008
 20
8.8729502127
 30
0.0
 10
12.9320294188
 20
8.8565713898
 30
0.0
 10
12.9348645061
 20
8.8407725522
 30
0.0
 10
12.9378881115
 20
8.8255769879
 30
0.0
 10
12.9410957295
 20
8.8110070809
 30
0.0
 10
12.9444825988
 20
8.7970842709
 30
0.0
 10
12.9480436539
 20
8.783829
 30
0.0
 10
12.9517735993
 20
8.7712606916
 30
0.0
 10
12.9556669341
 20
8.7593977186
 30
0.0
 10
12.9597178967
 20
8.7482573378
 30
0.0
 10
12.9639205477
 20
8.7378556686
 30
0.0
 10
12.9682688384
 20
8.7282076737
 30
0.0
 10
12.972756583
 20
8.7193270898
 30
0.0
 10
12.9773775747
 20
8.7112264133
 30
0.0
 10
12.9821257348
 20
8.7039169496
 30
0.0
 10
12.9869952215
 20
8.6974088162
 30
0.0
 10
12.9919804541
 20
8.6917111476
 30
0.0
 10
12.9970767791
 20
8.6868323275
 30
0.0
 10
13.002278773
 20
8.6827811064
 30
0.0
 10
13.0067595661
 20
8.6800654877
 30
0.0
 10
13.0103739897
 20
8.6783415627
 30
0.0
 10
13.0121887698
 20
8.6776248689
 30
0.0
 10
13.0130972057
 20
8.6773036911
 30
0.0
  0
SPLINE
  5
3C7
100
AcDbEntity
  8
0
100
AcDbSpline
 62
7
  6
CONTINUOUS
 70
0
 71
3
 72
66
 73
62
 74
0
 42
0.0000001
 43
0.0000001
 44
0.0000000001
 40
0.0
 40
0.0
 40
0.0
 40
0.0
 40
0.0056007461
 40
0.0115518934
 40
0.0179127261
 40
0.0212626821
 40
0.0247316708
 40
0.0283238479
 40
0.0320427725
 40
0.0358914988
 40
0.0398726281
 40
0.0439882989
 40
0.0482402962
 40
0.0526300558
 40
0.0571586765
 40
0.0666351
 40
0.0766738635
 40
0.0872751867
 40
0.0984363778
 40
0.110152228
 40
0.1224153581
 40
0.1352165005
 40
0.1485447058
 40
0.162387495
 40
0.1767310284
 40
0.1915602365
 40
0.2068589123
 40
0.2226097895
 40
0.2387946474
 40
0.2553943849
 40
0.2723890706
 40
0.2897580028
 40
0.3074797849
 40
0.3255323756
 40
0.3438931257
 40
0.3625388358
 40
0.3814458137
 40
0.4199460827
 40
0.4591966541
 40
0.498994656
 40
0.5391335456
 40
0.579404526
 40
0.6195979257
 40
0.6595045834
 40
0.6989172421
 40
0.7376319324
 40
0.7754493919
 40
0.7939613077
 40
0.8121770698
 40
0.8300737362
 40
0.8476289374
 40
0.8648209378
 40
0.8816286716
 40
0.898031796
 40
0.9140107672
 40
0.9295468934
 40
0.9446224264
 40
0.9592205872
 40
0.9733255749
 40
0.9869233696
 40
1.0
 40
1.0
 40
1.0
 40
1.0
 10
13.0165094129
 20
6.998909811
 30
0.0
 10
13.0140322762
 20
7.0001892134
 30
0.0
 10
13.009091781
 20
7.0031645004
 30
0.0
 10
13.0020121492
 20
7.0086110211
 30
0.0
 10
12.9963276914
 20
7.0139647747
 30
0.0
 10
12.9918486954
 20
7.0187606376
 30
0.0
 10
12.9884670886
 20
7.0226899219
 30
0.0
 10
12.9851224497
 20
7.026887866
 30
0.0
 10
12.9818156952
 20
7.0313531649
 30
0.0
 10
12.9785479427
 20
7.0360842412
 30
0.0
 10
12.9753203038
 20
7.0410795144
 30
0.0
 10
12.9721338057
 20
7.0463372432
 30
0.0
 10
12.9689895587
 20
7.0518556428
 30
0.0
 10
12.9658886056
 20
7.0576328384
 30
0.0
 10
12.96175045
 20
7.0658020867
 30
0.0
 10
12.9567054613
 20
7.0766601168
 30
0.0
 10
12.9509292117
 20
7.0904981091
 30
0.0
 10
12.9453503268
 20
7.1053162198
 30
0.0
 10
12.9399765101
 20
7.1210940682
 30
0.0
 10
12.9348151657
 20
7.1378101855
 30
0.0
 10
12.9298734581
 20
7.1554416264
 30
0.0
 10
12.9251582766
 20
7.1739641574
 30
0.0
 10
12.9206762191
 20
7.1933522538
 30
0.0
 10
12.9164335396
 20
7.2135791431
 30
0.0
 10
12.9124361712
 20
7.2346168591
 30
0.0
 10
12.9086897157
 20
7.2564362949
 30
0.0
 10
12.9051994268
 20
7.2790072364
 30
0.0
 10
12.901970179
 20
7.3022984028
 30
0.0
 10
12.8990064931
 20
7.3262775042
 30
0.0
 10
12.8963125279
 20
7.350911291
 30
0.0
 10
12.8938920577
 20
7.3761655922
 30
0.0
 10
12.8917484618
 20
7.4020053636
 30
0.0
 10
12.8898847437
 20
7.4283947465
 30
0.0
 10
12.8883035232
 20
7.4552971195
 30
0.0
 10
12.8870070193
 20
7.4826751304
 30
0.0
 10
12.8859970187
 20
7.5104908022
 30
0.0
 10
12.8850285542
 20
7.5483377982
 30
0.0
 10
12.884554021
 20
7.5964549127
 30
0.0
 10
12.8851425179
 20
7.6549708079
 30
0.0
 10
12.8868828404
 20
7.71427983
 30
0.0
 10
12.8897654068
 20
7.7740527385
 30
0.0
 10
12.8937743644
 20
7.8339579231
 30
0.0
 10
12.8988874428
 20
7.8936629779
 30
0.0
 10
12.9050762322
 20
7.9528366139
 30
0.0
 10
12.9123062164
 20
8.0111505963
 30
0.0
 10
12.9205371004
 20
8.0682812439
 30
0.0
 10
12.9282454459
 20
8.1149654843
 30
0.0
 10
12.9348897047
 20
8.1514746624
 30
0.0
 10
12.9400576794
 20
8.1781713905
 30
0.0
 10
12.9454384677
 20
8.2043400138
 30
0.0
 10
12.9510246162
 20
8.2299442397
 30
0.0
 10
12.9568083277
 20
8.2549485342
 30
0.0
 10
12.9627815487
 20
8.2793182078
 30
0.0
 10
12.9689359678
 20
8.3030194507
 30
0.0
 10
12.9752630122
 20
8.3260193908
 30
0.0
 10
12.981753856
 20
8.3482861549
 30
0.0
 10
12.9883994615
 20
8.3697888921
 30
0.0
 10
12.9951905664
 20
8.3904977502
 30
0.0
 10
13.0021177387
 20
8.4103842823
 30
0.0
 10
13.0091712713
 20
8.4294206315
 30
0.0
 10
13.0140480663
 20
8.4417724325
 30
0.0
 10
13.0165094129
 20
8.4477986363
 30
0.0
  0
SPLINE
  5
3C8
100
AcDbEntity
  8
0
100
AcDbSpline
 62
7
  6
CONTINUOUS
 70
0
 71
3
 72
51
 73
47
 74
0
 42
0.0000001
 43
0.0000001
 44
0.0000000001
 40
0.0
 40
0.0
 40
0.0
 40
0.0
 40
0.040725654
 40
0.0819149151
 40
0.1234498402
 40
0.1652113726
 40
0.2070795351
 40
0.2489340004
 40
0.290654477
 40
0.3321211668
 40
0.3732151989
 40
0.4138190727
 40
0.4538171028
 40
0.4930958684
 40
0.5315446714
 40
0.5690560038
 40
0.6055260318
 40
0.6408551021
 40
0.6749482804
 40
0.7077159353
 40
0.7390743875
 40
0.7689466527
 40
0.7833038396
 40
0.7972641296
 40
0.810820213
 40
0.8239653932
 40
0.8366936611
 40
0.8489997214
 40
0.8608791025
 40
0.8723281855
 40
0.8833443585
 40
0.8939260592
 40
0.9040729863
 40
0.9137861719
 40
0.9230682688
 40
0.9319236778
 40
0.9403589356
 40
0.9483829291
 40
0.9560074126
 40
0.9632473414
 40
0.9701215268
 40
0.9766530833
 40
0.9828701499
 40
0.9888063109
 40
0.9945011024
 40
1.0
 40
1.0
 40
1.0
 40
1.0
 10
12.9138830796
 20
7.6562247928
 30
0.0
 10
12.9138830796
 20
7.6665460812
 30
0.0
 10
12.9140379988
 20
7.6873064535
 30
0.0
 10
12.9147233236
 20
7.7185864119
 30
0.0
 10
12.9158610717
 20
7.7501159292
 30
0.0
 10
12.917447774
 20
7.7817982811
 30
0.0
 10
12.9194785848
 20
7.8135364146
 30
0.0
 10
12.9219472824
 20
7.8452330565
 30
0.0
 10
12.9248462968
 20
7.8767910773
 30
0.0
 10
12.9281667283
 20
7.9081137698
 30
0.0
 10
12.9318983771
 20
7.9391051543
 30
0.0
 10
12.9360297729
 20
7.9696702723
 30
0.0
 10
12.9405482103
 20
7.9997154807
 30
0.0
 10
12.9454397866
 20
8.0291487417
 30
0.0
 10
12.9506894442
 20
8.0578799082
 30
0.0
 10
12.9562810153
 20
8.0858210053
 30
0.0
 10
12.9621972708
 20
8.1128865037
 30
0.0
 10
12.9684199718
 20
8.1389935963
 30
0.0
 10
12.9749299271
 20
8.1640624384
 30
0.0
 10
12.9817070448
 20
8.1880164908
 30
0.0
 10
12.9887304223
 20
8.2107824771
 30
0.0
 10
12.9948484536
 20
8.2289386136
 30
0.0
 10
12.9998601665
 20
8.242808696
 30
0.0
 10
13.0036172357
 20
8.2527340532
 30
0.0
 10
13.0074194211
 20
8.2623125113
 30
0.0
 10
13.0112638444
 20
8.2715367639
 30
0.0
 10
13.0151475375
 20
8.280399774
 30
0.0
 10
13.0190675426
 20
8.2888947833
 30
0.0
 10
13.0230208403
 20
8.2970153303
 30
0.0
 10
13.0270044325
 20
8.304755236
 30
0.0
 10
13.0310152563
 20
8.3121086371
 30
0.0
 10
13.0350502931
 20
8.3190699562
 30
0.0
 10
13.0391064554
 20
8.3256339513
 30
0.0
 10
13.0431807285
 20
8.3317956656
 30
0.0
 10
13.0472700289
 20
8.3375504974
 30
0.0
 10
13.0513713804
 20
8.342894121
 30
0.0
 10
13.0554817452
 20
8.3478225832
 30
0.0
 10
13.0595982358
 20
8.352332179
 30
0.0
 10
13.063717917
 20
8.3564195815
 30
0.0
 10
13.0678380493
 20
8.3600816478
 30
0.0
 10
13.0719558513
 20
8.363315586
 30
0.0
 10
13.0760687642
 20
8.366118667
 30
0.0
 10
13.0801740828
 20
8.3684884308
 30
0.0
 10
13.0842694179
 20
8.3704223481
 30
0.0
 10
13.0883513082
 20
8.3719179903
 30
0.0
 10
13.0911027762
 20
8.3726318351
 30
0.0
 10
13.0924682309
 20
8.3729105542
 30
0.0
  0
SPLINE
  5
3C9
100
AcDbEntity
  8
0
100
AcDbSpline
 62
7
  6
CONTINUOUS
 70
0
 71
3
 72
38
 73
34
 74
0
 42
0.0000001
 43
0.0000001
 44
0.0000000001
 40
0.0
 40
0.0
 40
0.0
 40
0.0
 40
0.0933719495
 40
0.1843534427
 40
0.2287941667
 40
0.2724539911
 40
0.3152747787
 40
0.3571998665
 40
0.3981743992
 40
0.4381454015
 40
0.4770619842
 40
0.5148755597
 40
0.551539918
 40
0.5870114933
 40
0.6212496782
 40
0.6542169574
 40
0.6858792465
 40
0.7162063881
 40
0.7451724524
 40
0.7727562674
 40
0.7989422461
 40
0.8237211047
 40
0.8470908825
 40
0.8690584727
 40
0.8896413174
 40
0.9088696062
 40
0.9267893495
 40
0.9434660558
 40
0.9589890995
 40
0.97347685
 40
0.987081548
 40
0.9936140925
 40
1.0
 40
1.0
 40
1.0
 40
1.0
 10
12.9138830796
 20
7.6562247928
 30
0.0
 10
12.9138830796
 20
7.642136319
 30
0.0
 10
12.9141661676
 20
7.6143191712
 30
0.0
 10
12.9152599476
 20
7.5798117801
 30
0.0
 10
12.9165816429
 20
7.552822703
 30
0.0
 10
12.9177810566
 20
7.5331045257
 30
0.0
 10
12.9191944775
 20
7.5137810891
 30
0.0
 10
12.9208198194
 20
7.4948809207
 30
0.0
 10
12.9226546366
 20
7.476431964
 30
0.0
 10
12.9246962057
 20
7.4584614836
 30
0.0
 10
12.9269414832
 20
7.4409960278
 30
0.0
 10
12.9293871008
 20
7.4240613874
 30
0.0
 10
12.9320294188
 20
7.4076825645
 30
0.0
 10
12.9348645061
 20
7.3918837269
 30
0.0
 10
12.9378881115
 20
7.3766881626
 30
0.0
 10
12.9410957295
 20
7.3621182556
 30
0.0
 10
12.9444825988
 20
7.3481954457
 30
0.0
 10
12.9480436539
 20
7.3349401747
 30
0.0
 10
12.9517735993
 20
7.3223718663
 30
0.0
 10
12.9556669341
 20
7.3105088933
 30
0.0
 10
12.9597178967
 20
7.2993685125
 30
0.0
 10
12.9639205477
 20
7.2889668433
 30
0.0
 10
12.9682688384
 20
7.2793188485
 30
0.0
 10
12.972756583
 20
7.2704382645
 30
0.0
 10
12.9773775747
 20
7.262337588
 30
0.0
 10
12.9821257348
 20
7.2550281243
 30
0.0
 10
12.9869952215
 20
7.2485199909
 30
0.0
 10
12.9919804541
 20
7.2428223223
 30
0.0
 10
12.9970767791
 20
7.2379435022
 30
0.0
 10
13.002278773
 20
7.2338922812
 30
0.0
 10
13.0067595661
 20
7.2311766625
 30
0.0
 10
13.0103739897
 20
7.2294527374
 30
0.0
 10
13.0121887698
 20
7.2287360436
 30
0.0
 10
13.0130972057
 20
7.2284148658
 30
0.0
  0
SPLINE
  5
3CA
100
AcDbEntity
  8
0
100
AcDbSpline
 62
7
  6
CONTINUOUS
 70
0
 71
3
 72
23
 73
19
 74
0
 42
0.0000001
 43
0.0000001
 44
0.0000000001
 40
0.0
 40
0.0
 40
0.0
 40
0.0
 40
0.0614460382
 40
0.1231087196
 40
0.1849779291
 40
0.2470411737
 40
0.3092837474
 40
0.3716889165
 40
0.4342381239
 40
0.4969112087
 40
0.559686639
 40
0.6225417561
 40
0.685453028
 40
0.7483963087
 40
0.8113471035
 40
0.8742808354
 40
0.9371731138
 40
1.0
 40
1.0
 40
1.0
 40
1.0
 10
10.0497264173
 20
9.3073360347
 30
0.0
 10
10.0592543401
 20
9.3057962508
 30
0.0
 10
10.0782642271
 20
9.3021941018
 30
0.0
 10
10.106493246
 20
9.2952597084
 30
0.0
 10
10.1344067757
 20
9.2868047237
 30
0.0
 10
10.1619195609
 20
9.2768549092
 30
0.0
 10
10.1889489597
 20
9.2654402876
 30
0.0
 10
10.2154134176
 20
9.2525953514
 30
0.0
 10
10.241233189
 20
9.2383588777
 30
0.0
 10
10.2663304473
 20
9.2227738332
 30
0.0
 10
10.2906295518
 20
9.2058872391
 30
0.0
 10
10.3140572667
 20
9.1877500299
 30
0.0
 10
10.3365429772
 20
9.1684169066
 30
0.0
 10
10.3580189189
 20
9.1479461464
 30
0.0
 10
10.3784203144
 20
9.1263995269
 30
0.0
 10
10.3976858149
 20
9.1038417702
 30
0.0
 10
10.4157567604
 20
9.0803417325
 30
0.0
 10
10.4269800062
 20
9.0640814767
 30
0.0
 10
10.4323745695
 20
9.0558180203
 30
0.0
  0
SPLINE
  5
3CB
100
AcDbEntity
  8
0
100
AcDbSpline
 62
7
  6
CONTINUOUS
 70
0
 71
3
 72
15
 73
11
 74
0
 42
0.0000001
 43
0.0000001
 44
0.0000000001
 40
0.0
 40
0.0
 40
0.0
 40
0.0
 40
0.1261461477
 40
0.2519904361
 40
0.3775171813
 40
0.5027130884
 40
0.6275671243
 40
0.7520688843
 40
0.8762172262
 40
1.0
 40
1.0
 40
1.0
 40
1.0
 10
10.4938418696
 20
8.9302585565
 30
0.0
 10
10.4962791994
 20
8.9231621177
 30
0.0
 10
10.500861755
 20
8.9088859953
 30
0.0
 10
10.5068508718
 20
8.8872380633
 30
0.0
 10
10.5119372243
 20
8.8654180106
 30
0.0
 10
10.5161115314
 20
8.8434652651
 30
0.0
 10
10.5193662826
 20
8.8214190504
 30
0.0
 10
10.5216957824
 20
8.7993184595
 30
0.0
 10
10.5230956248
 20
8.7772037706
 30
0.0
 10
10.5234080064
 20
8.7624546457
 30
0.0
 10
10.5234080064
 20
8.7550918882
 30
0.0
  0
SPLINE
  5
3CC
100
AcDbEntity
  8
0
100
AcDbSpline
 62
7
  6
CONTINUOUS
 70
0
 71
3
 72
23
 73
19
 74
0
 42
0.0000001
 43
0.0000001
 44
0.0000000001
 40
0.0
 40
0.0
 40
0.0
 40
0.0
 40
0.0614460382
 40
0.1231087196
 40
0.1849779291
 40
0.2470411737
 40
0.3092837474
 40
0.3716889165
 40
0.4342381239
 40
0.4969112087
 40
0.559686639
 40
0.6225417561
 40
0.685453028
 40
0.7483963087
 40
0.8113471035
 40
0.8742808354
 40
0.9371731138
 40
1.0
 40
1.0
 40
1.0
 40
1.0
 10
11.407818227
 20
9.2131520478
 30
0.0
 10
11.4173461499
 20
9.2116122639
 30
0.0
 10
11.4363560369
 20
9.2080101149
 30
0.0
 10
11.4645850557
 20
9.2010757215
 30
0.0
 10
11.4924985854
 20
9.1926207368
 30
0.0
 10
11.5200113706
 20
9.1826709223
 30
0.0
 10
11.5470407694
 20
9.1712563007
 30
0.0
 10
11.5735052273
 20
9.1584113645
 30
0.0
 10
11.5993249987
 20
9.1441748908
 30
0.0
 10
11.624422257
 20
9.1285898463
 30
0.0
 10
11.6487213616
 20
9.1117032522
 30
0.0
 10
11.6721490764
 20
9.093566043
 30
0.0
 10
11.6946347869
 20
9.0742329197
 30
0.0
 10
11.7161107287
 20
9.0537621595
 30
0.0
 10
11.7365121242
 20
9.03221554
 30
0.0
 10
11.7557776246
 20
9.0096577833
 30
0.0
 10
11.7738485702
 20
8.9861577456
 30
0.0
 10
11.785071816
 20
8.9698974898
 30
0.0
 10
11.7904663793
 20
8.9616340334
 30
0.0
  0
SPLINE
  5
3CD
100
AcDbEntity
  8
0
100
AcDbSpline
 62
7
  6
CONTINUOUS
 70
0
 71
3
 72
15
 73
11
 74
0
 42
0.0000001
 43
0.0000001
 44
0.0000000001
 40
0.0
 40
0.0
 40
0.0
 40
0.0
 40
0.1261461477
 40
0.2519904361
 40
0.3775171813
 40
0.5027130884
 40
0.6275671243
 40
0.7520688843
 40
0.8762172262
 40
1.0
 40
1.0
 40
1.0
 40
1.0
 10
11.8519336793
 20
8.8360745696
 30
0.0
 10
11.8543710091
 20
8.8289781308
 30
0.0
 10
11.8589535648
 20
8.8147020084
 30
0.0
 10
11.8649426816
 20
8.7930540764
 30
0.0
 10
11.870029034
 20
8.7712340237
 30
0.0
 10
11.8742033412
 20
8.7492812782
 30
0.0
 10
11.8774580924
 20
8.7272350635
 30
0.0
 10
11.8797875921
 20
8.7051344726
 30
0.0
 10
11.8811874346
 20
8.6830197837
 30
0.0
 10
11.8814998161
 20
8.6682706588
 30
0.0
 10
11.8814998161
 20
8.6609079013
 30
0.0
  0
SPLINE
  5
3CE
100
AcDbEntity
  8
0
100
AcDbSpline
 62
7
  6
CONTINUOUS
 70
0
 71
3
 72
23
 73
19
 74
0
 42
0.0000001
 43
0.0000001
 44
0.0000000001
 40
0.0
 40
0.0
 40
0.0
 40
0.0
 40
0.0614460382
 40
0.1231087196
 40
0.1849779291
 40
0.2470411737
 40
0.3092837474
 40
0.3716889165
 40
0.4342381239
 40
0.4969112087
 40
0.559686639
 40
0.6225417561
 40
0.685453028
 40
0.7483963087
 40
0.8113471035
 40
0.8742808354
 40
0.9371731138
 40
1.0
 40
1.0
 40
1.0
 40
1.0
 10
10.0497264173
 20
7.8584472094
 30
0.0
 10
10.0592543401
 20
7.8569074256
 30
0.0
 10
10.0782642271
 20
7.8533052765
 30
0.0
 10
10.106493246
 20
7.8463708831
 30
0.0
 10
10.1344067757
 20
7.8379158984
 30
0.0
 10
10.1619195609
 20
7.8279660839
 30
0.0
 10
10.1889489597
 20
7.8165514623
 30
0.0
 10
10.2154134176
 20
7.8037065261
 30
0.0
 10
10.241233189
 20
7.7894700524
 30
0.0
 10
10.2663304473
 20
7.7738850079
 30
0.0
 10
10.2906295518
 20
7.7569984139
 30
0.0
 10
10.3140572667
 20
7.7388612046
 30
0.0
 10
10.3365429772
 20
7.7195280813
 30
0.0
 10
10.3580189189
 20
7.6990573211
 30
0.0
 10
10.3784203144
 20
7.6775107016
 30
0.0
 10
10.3976858149
 20
7.6549529449
 30
0.0
 10
10.4157567604
 20
7.6314529072
 30
0.0
 10
10.4269800062
 20
7.6151926514
 30
0.0
 10
10.4323745695
 20
7.606929195
 30
0.0
  0
SPLINE
  5
3CF
100
AcDbEntity
  8
0
100
AcDbSpline
 62
7
  6
CONTINUOUS
 70
0
 71
3
 72
15
 73
11
 74
0
 42
0.0000001
 43
0.0000001
 44
0.0000000001
 40
0.0
 40
0.0
 40
0.0
 40
0.0
 40
0.1261461477
 40
0.2519904361
 40
0.3775171813
 40
0.5027130884
 40
0.6275671243
 40
0.7520688843
 40
0.8762172262
 40
1.0
 40
1.0
 40
1.0
 40
1.0
 10
10.4938418696
 20
7.4813697312
 30
0.0
 10
10.4962791994
 20
7.4742732925
 30
0.0
 10
10.500861755
 20
7.45999717
 30
0.0
 10
10.5068508718
 20
7.438349238
 30
0.0
 10
10.5119372243
 20
7.4165291853
 30
0.0
 10
10.5161115314
 20
7.3945764398
 30
0.0
 10
10.5193662826
 20
7.3725302251
 30
0.0
 10
10.5216957824
 20
7.3504296342
 30
0.0
 10
10.5230956248
 20
7.3283149453
 30
0.0
 10
10.5234080064
 20
7.3135658204
 30
0.0
 10
10.5234080064
 20
7.306203063
 30
0.0
  0
SPLINE
  5
3D0
100
AcDbEntity
  8
0
100
AcDbSpline
 62
7
  6
CONTINUOUS
 70
0
 71
3
 72
23
 73
19
 74
0
 42
0.0000001
 43
0.0000001
 44
0.0000000001
 40
0.0
 40
0.0
 40
0.0
 40
0.0
 40
0.0614460382
 40
0.1231087196
 40
0.1849779291
 40
0.2470411737
 40
0.3092837474
 40
0.3716889165
 40
0.4342381239
 40
0.4969112087
 40
0.559686639
 40
0.6225417561
 40
0.685453028
 40
0.7483963087
 40
0.8113471035
 40
0.8742808354
 40
0.9371731138
 40
1.0
 40
1.0
 40
1.0
 40
1.0
 10
11.407818227
 20
7.7642632225
 30
0.0
 10
11.4173461499
 20
7.7627234387
 30
0.0
 10
11.4363560369
 20
7.7591212896
 30
0.0
 10
11.4645850557
 20
7.7521868962
 30
0.0
 10
11.4924985854
 20
7.7437319115
 30
0.0
 10
11.5200113706
 20
7.733782097
 30
0.0
 10
11.5470407694
 20
7.7223674754
 30
0.0
 10
11.5735052273
 20
7.7095225392
 30
0.0
 10
11.5993249987
 20
7.6952860655
 30
0.0
 10
11.624422257
 20
7.679701021
 30
0.0
 10
11.6487213616
 20
7.662814427
 30
0.0
 10
11.6721490764
 20
7.6446772177
 30
0.0
 10
11.6946347869
 20
7.6253440944
 30
0.0
 10
11.7161107287
 20
7.6048733342
 30
0.0
 10
11.7365121242
 20
7.5833267147
 30
0.0
 10
11.7557776246
 20
7.560768958
 30
0.0
 10
11.7738485702
 20
7.5372689203
 30
0.0
 10
11.785071816
 20
7.5210086645
 30
0.0
 10
11.7904663793
 20
7.5127452081
 30
0.0
  0
SPLINE
  5
3D1
100
AcDbEntity
  8
0
100
AcDbSpline
 62
7
  6
CONTINUOUS
 70
0
 71
3
 72
15
 73
11
 74
0
 42
0.0000001
 43
0.0000001
 44
0.0000000001
 40
0.0
 40
0.0
 40
0.0
 40
0.0
 40
0.1261461477
 40
0.2519904361
 40
0.3775171813
 40
0.5027130884
 40
0.6275671243
 40
0.7520688843
 40
0.8762172262
 40
1.0
 40
1.0
 40
1.0
 40
1.0
 10
11.8519336793
 20
7.3871857443
 30
0.0
 10
11.8543710091
 20
7.3800893056
 30
0.0
 10
11.8589535648
 20
7.3658131831
 30
0.0
 10
11.8649426816
 20
7.3441652511
 30
0.0
 10
11.870029034
 20
7.3223451985
 30
0.0
 10
11.8742033412
 20
7.3003924529
 30
0.0
 10
11.8774580924
 20
7.2783462382
 30
0.0
 10
11.8797875921
 20
7.2562456473
 30
0.0
 10
11.8811874346
 20
7.2341309584
 30
0.0
 10
11.8814998161
 20
7.2193818335
 30
0.0
 10
11.8814998161
 20
7.2120190761
 30
0.0
  0
SPLINE
  5
3D2
100
AcDbEntity
  8
0
100
AcDbSpline
 62
7
  6
CONTINUOUS
 70
0
 71
3
 72
44
 73
40
 74
0
 42
0.0000001
 43
0.0000001
 44
0.0000000001
 40
0.0
 40
0.0
 40
0.0
 40
0.0
 40
0.0055576246
 40
0.0111781252
 40
0.0169221424
 40
0.0228460823
 40
0.0290009394
 40
0.0354314054
 40
0.0421759115
 40
0.0492668554
 40
0.0567309544
 40
0.064590169
 40
0.0728619349
 40
0.0815600558
 40
0.0906951257
 40
0.1002748158
 40
0.110304631
 40
0.1207877759
 40
0.1317257866
 40
0.1431186256
 40
0.1672598102
 40
0.1931873598
 40
0.2208591117
 40
0.2502195474
 40
0.2812018198
 40
0.3137293806
 40
0.3477172232
 40
0.3830728887
 40
0.4196972996
 40
0.4574854911
 40
0.4963273377
 40
0.5361081807
 40
0.5767094102
 40
0.6180090134
 40
0.6598821151
 40
0.7448359269
 40
0.830537715
 40
0.9159396375
 40
1.0
 40
1.0
 40
1.0
 40
1.0
 10
10.0215986757
 20
10.432742954
 30
0.0
 10
10.02159868
 20
10.4322407708
 30
0.0
 10
10.0215424769
 20
10.4312298485
 30
0.0
 10
10.0212901687
 20
10.4297188533
 30
0.0
 10
10.0208702299
 20
10.4282112412
 30
0.0
 10
10.0202835702
 20
10.4267087269
 30
0.0
 10
10.0195310486
 20
10.4252125724
 30
0.0
 10
10.0186137609
 20
10.4237238865
 30
0.0
 10
10.017532716
 20
10.4222437042
 30
0.0
 10
10.0162889596
 20
10.4207730439
 30
0.0
 10
10.0148836515
 20
10.4193128451
 30
0.0
 10
10.0133179119
 20
10.4178641855
 30
0.0
 10
10.0115930595
 20
10.4164280494
 30
0.0
 10
10.0097104554
 20
10.415005517
 30
0.0
 10
10.0076715913
 20
10.4135976844
 30
0.0
 10
10.005478117
 20
10.4122055909
 30
0.0
 10
10.0031317535
 20
10.4108303906
 30
0.0
 10
10.0006344074
 20
10.4094731328
 30
0.0
 10
9.9979880739
 20
10.4081349037
 30
0.0
 10
9.9941900572
 20
10.406342741
 30
0.0
 10
9.9890782013
 20
10.4041662993
 30
0.0
 10
9.9825006923
 20
10.4016952257
 30
0.0
 10
9.9753874725
 20
10.3993248382
 30
0.0
 10
9.9677616248
 20
10.3970629464
 30
0.0
 10
9.9596477919
 20
10.3949170178
 30
0.0
 10
9.9510723612
 20
10.3928941557
 30
0.0
 10
9.9420632647
 20
10.3910010597
 30
0.0
 10
9.9326499008
 20
10.3892440028
 30
0.0
 10
9.9228630248
 20
10.3876288056
 30
0.0
 10
9.9127346439
 20
10.3861608083
 30
0.0
 10
9.9022979016
 20
10.384844866
 30
0.0
 10
9.8915869591
 20
10.3836853281
 30
0.0
 10
9.8806368943
 20
10.3826860365
 30
0.0
 10
9.8694835423
 20
10.3818502702
 30
0.0
 10
9.8543177229
 20
10.3809534695
 30
0.0
 10
9.8351230291
 20
10.3802624371
 30
0.0
 10
9.8119829932
 20
10.3801162691
 30
0.0
 10
9.7889295222
 20
10.3806513941
 30
0.0
 10
9.773635901
 20
10.3814672596
 30
0.0
 10
9.7660584637
 20
10.3819927567
 30
0.0
  0
SPLINE
  5
3D3
100
AcDbEntity
  8
0
100
AcDbSpline
 62
7
  6
CONTINUOUS
 70
0
 71
3
 72
44
 73
40
 74
0
 42
0.0000001
 43
0.0000001
 44
0.0000000001
 40
0.0
 40
0.0
 40
0.0
 40
0.0
 40
0.0055576246
 40
0.0111781252
 40
0.0169221424
 40
0.0228460823
 40
0.0290009394
 40
0.0354314054
 40
0.0421759115
 40
0.0492668554
 40
0.0567309544
 40
0.064590169
 40
0.0728619349
 40
0.0815600558
 40
0.0906951257
 40
0.1002748158
 40
0.110304631
 40
0.1207877759
 40
0.1317257866
 40
0.1431186256
 40
0.1672598102
 40
0.1931873598
 40
0.2208591117
 40
0.2502195474
 40
0.2812018198
 40
0.3137293806
 40
0.3477172232
 40
0.3830728887
 40
0.4196972996
 40
0.4574854911
 40
0.4963273377
 40
0.5361081807
 40
0.5767094102
 40
0.6180090134
 40
0.6598821151
 40
0.7448359269
 40
0.830537715
 40
0.9159396375
 40
1.0
 40
1.0
 40
1.0
 40
1.0
 10
13.1608577971
 20
10.2150345945
 30
0.0
 10
13.1608578015
 20
10.2145324113
 30
0.0
 10
13.1608015984
 20
10.213521489
 30
0.0
 10
13.1605492902
 20
10.2120104938
 30
0.0
 10
13.1601293513
 20
10.2105028817
 30
0.0
 10
13.1595426917
 20
10.2090003674
 30
0.0
 10
13.15879017
 20
10.2075042129
 30
0.0
 10
13.1578728823
 20
10.206015527
 30
0.0
 10
13.1567918374
 20
10.2045353447
 30
0.0
 10
13.155548081
 20
10.2030646844
 30
0.0
 10
13.154142773
 20
10.2016044856
 30
0.0
 10
13.1525770333
 20
10.200155826
 30
0.0
 10
13.150852181
 20
10.1987196899
 30
0.0
 10
13.1489695768
 20
10.1972971574
 30
0.0
 10
13.1469307127
 20
10.1958893249
 30
0.0
 10
13.1447372384
 20
10.1944972314
 30
0.0
 10
13.1423908749
 20
10.1931220311
 30
0.0
 10
13.1398935288
 20
10.1917647732
 30
0.0
 10
13.1372471953
 20
10.1904265442
 30
0.0
 10
13.1334491786
 20
10.1886343815
 30
0.0
 10
13.1283373227
 20
10.1864579398
 30
0.0
 10
13.1217598138
 20
10.1839868662
 30
0.0
 10
13.114646594
 20
10.1816164787
 30
0.0
 10
13.1070207463
 20
10.1793545869
 30
0.0
 10
13.0989069134
 20
10.1772086583
 30
0.0
 10
13.0903314827
 20
10.1751857962
 30
0.0
 10
13.0813223862
 20
10.1732927002
 30
0.0
 10
13.0719090222
 20
10.1715356433
 30
0.0
 10
13.0621221462
 20
10.1699204461
 30
0.0
 10
13.0519937653
 20
10.1684524488
 30
0.0
 10
13.041557023
 20
10.1671365065
 30
0.0
 10
13.0308460806
 20
10.1659769686
 30
0.0
 10
13.0198960158
 20
10.164977677
 30
0.0
 10
13.0087426638
 20
10.1641419107
 30
0.0
 10
12.9935768443
 20
10.16324511
 30
0.0
 10
12.9743821505
 20
10.1625540776
 30
0.0
 10
12.9512421146
 20
10.1624079096
 30
0.0
 10
12.9281886436
 20
10.1629430346
 30
0.0
 10
12.9128950224
 20
10.1637589001
 30
0.0
 10
12.9053175852
 20
10.1642843971
 30
0.0
  0
SPLINE
  5
3D4
100
AcDbEntity
  8
0
100
AcDbSpline
 62
7
  6
CONTINUOUS
 70
0
 71
3
 72
36
 73
32
 74
0
 42
0.0000001
 43
0.0000001
 44
0.0000000001
 40
0.0
 40
0.0
 40
0.0
 40
0.0
 40
0.0958325634
 40
0.1891023555
 40
0.2792432641
 40
0.3657124907
 40
0.4480017797
 40
0.4874318797
 40
0.5256445484
 40
0.5625883581
 40
0.5982156304
 40
0.6324821329
 40
0.6653482299
 40
0.6967786463
 40
0.7267435444
 40
0.7552190339
 40
0.7821878748
 40
0.8076411027
 40
0.8315786922
 40
0.8540122486
 40
0.8749666358
 40
0.8944835825
 40
0.9126254693
 40
0.9294800532
 40
0.9451666526
 40
0.9598414247
 40
0.9737025134
 40
0.9804060178
 40
0.9869995332
 40
0.9935185676
 40
1.0
 40
1.0
 40
1.0
 40
1.0
 10
13.0103980308
 20
10.2657843194
 30
0.0
 10
13.0156853646
 20
10.2654176415
 30
0.0
 10
13.0261110152
 20
10.2645778045
 30
0.0
 10
13.0414726226
 20
10.2629746624
 30
0.0
 10
13.0562759466
 20
10.2610535114
 30
0.0
 10
13.0704221324
 20
10.2588273467
 30
0.0
 10
13.0817402409
 20
10.256701656
 30
0.0
 10
13.0903900066
 20
10.2548514107
 30
0.0
 10
13.0965631494
 20
10.2534170942
 30
0.0
 10
13.1025044317
 20
10.2519188064
 30
0.0
 10
13.1082039647
 20
10.2503590847
 30
0.0
 10
13.1136522527
 20
10.2487405071
 30
0.0
 10
13.1188402448
 20
10.2470658389
 30
0.0
 10
13.1237593284
 20
10.2453378558
 30
0.0
 10
13.1284013636
 20
10.243559464
 30
0.0
 10
13.1327586981
 20
10.2417336437
 30
0.0
 10
13.1368241667
 20
10.239863386
 30
0.0
 10
13.1405911536
 20
10.237951825
 30
0.0
 10
13.1440535371
 20
10.2360019939
 30
0.0
 10
13.1472057904
 20
10.2340170485
 30
0.0
 10
13.1500428956
 20
10.2319999904
 30
0.0
 10
13.152560385
 20
10.2299537741
 30
0.0
 10
13.1547542863
 20
10.2278811738
 30
0.0
 10
13.156620904
 20
10.2257847062
 30
0.0
 10
13.1581568198
 20
10.2236666183
 30
0.0
 10
13.1593582173
 20
10.2215294915
 30
0.0
 10
13.1600854389
 20
10.2197138891
 30
0.0
 10
13.1604877544
 20
10.2182655434
 30
0.0
 10
13.1607011736
 20
10.2171894634
 30
0.0
 10
13.1608292923
 20
10.2161123662
 30
0.0
 10
13.160857794
 20
10.215393051
 30
0.0
 10
13.1608577971
 20
10.2150345945
 30
0.0
  0
SPLINE
  5
3D5
100
AcDbEntity
  8
0
100
AcDbSpline
 62
7
  6
CONTINUOUS
 70
0
 71
3
 72
36
 73
32
 74
0
 42
0.0000001
 43
0.0000001
 44
0.0000000001
 40
0.0
 40
0.0
 40
0.0
 40
0.0
 40
0.0958325634
 40
0.1891023555
 40
0.2792432641
 40
0.3657124907
 40
0.4480017797
 40
0.4874318797
 40
0.5256445484
 40
0.5625883581
 40
0.5982156304
 40
0.6324821329
 40
0.6653482299
 40
0.6967786463
 40
0.7267435444
 40
0.7552190339
 40
0.7821878748
 40
0.8076411027
 40
0.8315786922
 40
0.8540122486
 40
0.8749666358
 40
0.8944835825
 40
0.9126254693
 40
0.9294800532
 40
0.9451666526
 40
0.9598414247
 40
0.9737025134
 40
0.9804060178
 40
0.9869995332
 40
0.9935185676
 40
1.0
 40
1.0
 40
1.0
 40
1.0
 10
9.8711389093
 20
10.4834926789
 30
0.0
 10
9.8764262432
 20
10.4831260011
 30
0.0
 10
9.8868518937
 20
10.4822861641
 30
0.0
 10
9.9022135011
 20
10.4806830219
 30
0.0
 10
9.9170168252
 20
10.4787618709
 30
0.0
 10
9.9311630109
 20
10.4765357062
 30
0.0
 10
9.9424811194
 20
10.4744100155
 30
0.0
 10
9.9511308852
 20
10.4725597702
 30
0.0
 10
9.957304028
 20
10.4711254537
 30
0.0
 10
9.9632453103
 20
10.4696271659
 30
0.0
 10
9.9689448433
 20
10.4680674442
 30
0.0
 10
9.9743931312
 20
10.4664488666
 30
0.0
 10
9.9795811233
 20
10.4647741984
 30
0.0
 10
9.9845002069
 20
10.4630462153
 30
0.0
 10
9.9891422422
 20
10.4612678235
 30
0.0
 10
9.9934995766
 20
10.4594420032
 30
0.0
 10
9.9975650452
 20
10.4575717456
 30
0.0
 10
10.0013320322
 20
10.4556601845
 30
0.0
 10
10.0047944156
 20
10.4537103535
 30
0.0
 10
10.0079466689
 20
10.451725408
 30
0.0
 10
10.0107837741
 20
10.4497083499
 30
0.0
 10
10.0133012636
 20
10.4476621336
 30
0.0
 10
10.0154951649
 20
10.4455895333
 30
0.0
 10
10.0173617826
 20
10.4434930657
 30
0.0
 10
10.0188976983
 20
10.4413749778
 30
0.0
 10
10.0200990958
 20
10.439237851
 30
0.0
 10
10.0208263174
 20
10.4374222486
 30
0.0
 10
10.0212286329
 20
10.4359739029
 30
0.0
 10
10.0214420522
 20
10.4348978229
 30
0.0
 10
10.0215701709
 20
10.4338207257
 30
0.0
 10
10.0215986726
 20
10.4331014105
 30
0.0
 10
10.0215986757
 20
10.432742954
 30
0.0
  0
SPLINE
  5
3D6
100
AcDbEntity
  8
0
100
AcDbSpline
 62
7
  6
CONTINUOUS
 70
0
 71
3
 72
66
 73
62
 74
0
 42
0.0000001
 43
0.0000001
 44
0.0000000001
 40
0.0
 40
0.0
 40
0.0
 40
0.0
 40
0.013076611
 40
0.0266743937
 40
0.0407793854
 40
0.0553775451
 40
0.0704530775
 40
0.0859892036
 40
0.1019681746
 40
0.1183712988
 40
0.1351790325
 40
0.1523710329
 40
0.169926234
 40
0.1878229005
 40
0.2060386627
 40
0.2245505787
 40
0.2623680387
 40
0.3010827297
 40
0.3404953892
 40
0.3804020479
 40
0.4205954488
 40
0.4608664305
 40
0.5010053214
 40
0.5408033248
 40
0.5800538978
 40
0.6185541684
 40
0.6374611472
 40
0.6561068581
 40
0.6744676089
 40
0.6925202005
 40
0.7102419834
 40
0.7276109165
 40
0.7446056029
 40
0.7612053413
 40
0.7773902
 40
0.7931410779
 40
0.8084397544
 40
0.8232689633
 40
0.8376124974
 40
0.8514552873
 40
0.8647834933
 40
0.8775846363
 40
0.889847767
 40
0.9015636178
 40
0.9127248095
 40
0.9233261332
 40
0.9333648971
 40
0.9428413211
 40
0.9473699421
 40
0.9517597018
 40
0.9560116993
 40
0.9601273703
 40
0.9641084998
 40
0.9679572262
 40
0.9716761511
 40
0.9752683283
 40
0.9787373171
 40
0.9820872732
 40
0.9884481062
 40
0.9943992537
 40
1.0
 40
1.0
 40
1.0
 40
1.0
 10
13.1398080122
 20
8.5988959763
 30
0.0
 10
13.1422693552
 20
8.6049221711
 30
0.0
 10
13.1471461632
 20
8.61727395
 30
0.0
 10
13.154199699
 20
8.6363102837
 30
0.0
 10
13.1611268632
 20
8.6561968138
 30
0.0
 10
13.1679179718
 20
8.6769056717
 30
0.0
 10
13.1745635773
 20
8.698408408
 30
0.0
 10
13.1810544213
 20
8.7206751714
 30
0.0
 10
13.1873814663
 20
8.7436751111
 30
0.0
 10
13.1935358859
 20
8.7673763535
 30
0.0
 10
13.1995091074
 20
8.7917460268
 30
0.0
 10
13.2052928194
 20
8.816750321
 30
0.0
 10
13.2108789682
 20
8.8423545468
 30
0.0
 10
13.216259757
 20
8.8685231699
 30
0.0
 10
13.2214277323
 20
8.8952198981
 30
0.0
 10
13.2280719917
 20
8.9317290763
 30
0.0
 10
13.235780338
 20
8.9784133171
 30
0.0
 10
13.2440112229
 20
9.0355439654
 30
0.0
 10
13.251241208
 20
9.0938579488
 30
0.0
 10
13.2574299982
 20
9.1530315861
 30
0.0
 10
13.2625430774
 20
9.2127366424
 30
0.0
 10
13.2665520357
 20
9.2726418287
 30
0.0
 10
13.2694346028
 20
9.332414739
 30
0.0
 10
13.271174926
 20
9.3917237632
 30
0.0
 10
13.2717634235
 20
9.4502396605
 30
0.0
 10
13.2712888907
 20
9.4983567768
 30
0.0
 10
13.2703204265
 20
9.5362037743
 30
0.0
 10
13.2693104261
 20
9.5640194474
 30
0.0
 10
13.2680139224
 20
9.5913974594
 30
0.0
 10
13.2664327021
 20
9.6182998336
 30
0.0
 10
13.2645689842
 20
9.6446892176
 30
0.0
 10
13.2624253884
 20
9.6705289902
 30
0.0
 10
13.2600049183
 20
9.6957832925
 30
0.0
 10
13.2573109532
 20
9.7204170805
 30
0.0
 10
13.2543472674
 20
9.744396183
 30
0.0
 10
13.2511180196
 20
9.7676873505
 30
0.0
 10
13.2476277308
 20
9.7902582931
 30
0.0
 10
13.2438812754
 20
9.81207773
 30
0.0
 10
13.239883907
 20
9.8331154469
 30
0.0
 10
13.2356412275
 20
9.8533423373
 30
0.0
 10
13.2311591699
 20
9.8727304346
 30
0.0
 10
13.2264439884
 20
9.8912529666
 30
0.0
 10
13.2215022807
 20
9.9088844084
 30
0.0
 10
13.2163409363
 20
9.9256005264
 30
0.0
 10
13.2109671194
 20
9.9413783757
 30
0.0
 10
13.2053882344
 20
9.9561964871
 30
0.0
 10
13.1996119847
 20
9.9700344801
 30
0.0
 10
13.194566996
 20
9.9808925108
 30
0.0
 10
13.1904288403
 20
9.9890617595
 30
0.0
 10
13.1873278871
 20
9.9948389553
 30
0.0
 10
13.18418364
 20
10.0003573552
 30
0.0
 10
13.1809971418
 20
10.0056150842
 30
0.0
 10
13.1777695028
 20
10.0106103577
 30
0.0
 10
13.1745017502
 20
10.0153414342
 30
0.0
 10
13.1711949956
 20
10.0198067334
 30
0.0
 10
13.1678503566
 20
10.0240046776
 30
0.0
 10
13.1644687498
 20
10.0279339621
 30
0.0
 10
13.1599897536
 20
10.0327298252
 30
0.0
 10
13.1543052957
 20
10.038083579
 30
0.0
 10
13.1472256637
 20
10.0435300999
 30
0.0
 10
13.1422851684
 20
10.0465053871
 30
0.0
 10
13.1398080315
 20
10.0477847895
 30
0.0
  0
SPLINE
  5
3D7
100
AcDbEntity
  8
0
100
AcDbSpline
 62
7
  6
CONTINUOUS
 70
0
 71
3
 72
66
 73
62
 74
0
 42
0.0000001
 43
0.0000001
 44
0.0000000001
 40
0.0
 40
0.0
 40
0.0
 40
0.0
 40
0.0056007461
 40
0.0115518934
 40
0.0179127262
 40
0.0212626821
 40
0.0247316709
 40
0.0283238479
 40
0.0320427726
 40
0.0358914988
 40
0.0398726282
 40
0.043988299
 40
0.0482402963
 40
0.0526300558
 40
0.0571586766
 40
0.0666351001
 40
0.0766738636
 40
0.0872751867
 40
0.0984363779
 40
0.1101522281
 40
0.1224153582
 40
0.1352165006
 40
0.148544706
 40
0.1623874952
 40
0.1767310286
 40
0.1915602367
 40
0.2068589125
 40
0.2226097896
 40
0.2387946475
 40
0.2553943851
 40
0.2723890707
 40
0.289758003
 40
0.3074797851
 40
0.3255323758
 40
0.3438931259
 40
0.362538836
 40
0.3814458139
 40
0.4199460829
 40
0.4591966543
 40
0.4989946562
 40
0.5391335457
 40
0.5794045261
 40
0.6195979258
 40
0.6595045835
 40
0.6989172421
 40
0.7376319325
 40
0.775449392
 40
0.7939613078
 40
0.8121770699
 40
0.8300737362
 40
0.8476289374
 40
0.8648209378
 40
0.8816286717
 40
0.898031796
 40
0.9140107672
 40
0.9295468934
 40
0.9446224264
 40
0.9592205872
 40
0.9733255749
 40
0.9869233696
 40
1.0
 40
1.0
 40
1.0
 40
1.0
 10
13.1707176605
 20
10.0456411994
 30
0.0
 10
13.1731947973
 20
10.0443617971
 30
0.0
 10
13.1781352925
 20
10.04138651
 30
0.0
 10
13.1852149243
 20
10.0359399893
 30
0.0
 10
13.1908993821
 20
10.0305862357
 30
0.0
 10
13.1953783781
 20
10.0257903729
 30
0.0
 10
13.1987599849
 20
10.0218610885
 30
0.0
 10
13.2021046238
 20
10.0176631445
 30
0.0
 10
13.2054113783
 20
10.0131978455
 30
0.0
 10
13.2086791308
 20
10.0084667692
 30
0.0
 10
13.2119067697
 20
10.003471496
 30
0.0
 10
13.2150932678
 20
9.9982137672
 30
0.0
 10
13.2182375148
 20
9.9926953675
 30
0.0
 10
13.2213384679
 20
9.986918172
 30
0.0
 10
13.2254766235
 20
9.9787489237
 30
0.0
 10
13.2305216122
 20
9.9678908936
 30
0.0
 10
13.2362978618
 20
9.9540529012
 30
0.0
 10
13.2418767467
 20
9.9392347905
 30
0.0
 10
13.2472505635
 20
9.9234569421
 30
0.0
 10
13.2524119078
 20
9.9067408248
 30
0.0
 10
13.2573536154
 20
9.8891093839
 30
0.0
 10
13.2620687969
 20
9.8705868529
 30
0.0
 10
13.2665508544
 20
9.8511987564
 30
0.0
 10
13.2707935339
 20
9.8309718671
 30
0.0
 10
13.2747909023
 20
9.8099341512
 30
0.0
 10
13.2785373578
 20
9.7881147153
 30
0.0
 10
13.2820276467
 20
9.7655437738
 30
0.0
 10
13.2852568945
 20
9.7422526074
 30
0.0
 10
13.2882205804
 20
9.718273506
 30
0.0
 10
13.2909145456
 20
9.6936397192
 30
0.0
 10
13.2933350158
 20
9.668385418
 30
0.0
 10
13.2954786117
 20
9.6425456466
 30
0.0
 10
13.2973423298
 20
9.6161562637
 30
0.0
 10
13.2989235503
 20
9.5892538907
 30
0.0
 10
13.3002200542
 20
9.5618758798
 30
0.0
 10
13.3012300547
 20
9.534060208
 30
0.0
 10
13.3021985193
 20
9.496213212
 30
0.0
 10
13.3026730525
 20
9.4480960975
 30
0.0
 10
13.3020845555
 20
9.3895802024
 30
0.0
 10
13.300344233
 20
9.3302711802
 30
0.0
 10
13.2974616666
 20
9.2704982718
 30
0.0
 10
13.293452709
 20
9.2105930872
 30
0.0
 10
13.2883396307
 20
9.1508880324
 30
0.0
 10
13.2821508412
 20
9.0917143964
 30
0.0
 10
13.2749208571
 20
9.0334004141
 30
0.0
 10
13.2666899731
 20
8.9762697665
 30
0.0
 10
13.2589816276
 20
8.9295855261
 30
0.0
 10
13.2523373688
 20
8.893076348
 30
0.0
 10
13.247169394
 20
8.8663796199
 30
0.0
 10
13.2417886057
 20
8.8402109967
 30
0.0
 10
13.2362024573
 20
8.8146067707
 30
0.0
 10
13.2304187458
 20
8.7896024762
 30
0.0
 10
13.2244455248
 20
8.7652328027
 30
0.0
 10
13.2182911057
 20
8.7415315598
 30
0.0
 10
13.2119640613
 20
8.7185316196
 30
0.0
 10
13.2054732175
 20
8.6962648556
 30
0.0
 10
13.198827612
 20
8.6747621183
 30
0.0
 10
13.1920365071
 20
8.6540532603
 30
0.0
 10
13.1851093348
 20
8.6341667281
 30
0.0
 10
13.1780558022
 20
8.6151303789
 30
0.0
 10
13.1731790071
 20
8.6027785779
 30
0.0
 10
13.1707176605
 20
8.5967523741
 30
0.0
  0
SPLINE
  5
3D8
100
AcDbEntity
  8
0
100
AcDbSpline
 62
7
  6
CONTINUOUS
 70
0
 71
3
 72
66
 73
62
 74
0
 42
0.0000001
 43
0.0000001
 44
0.0000000001
 40
0.0
 40
0.0
 40
0.0
 40
0.0
 40
0.0056007461
 40
0.0115518934
 40
0.0179127261
 40
0.0212626821
 40
0.0247316708
 40
0.0283238479
 40
0.0320427725
 40
0.0358914988
 40
0.0398726281
 40
0.0439882989
 40
0.0482402962
 40
0.0526300558
 40
0.0571586765
 40
0.0666351
 40
0.0766738635
 40
0.0872751867
 40
0.0984363778
 40
0.110152228
 40
0.1224153581
 40
0.1352165005
 40
0.1485447058
 40
0.162387495
 40
0.1767310284
 40
0.1915602365
 40
0.2068589123
 40
0.2226097895
 40
0.2387946474
 40
0.2553943849
 40
0.2723890706
 40
0.2897580028
 40
0.3074797849
 40
0.3255323756
 40
0.3438931257
 40
0.3625388358
 40
0.3814458137
 40
0.4199460827
 40
0.4591966541
 40
0.498994656
 40
0.5391335456
 40
0.579404526
 40
0.6195979257
 40
0.6595045834
 40
0.6989172421
 40
0.7376319324
 40
0.7754493919
 40
0.7939613077
 40
0.8121770698
 40
0.8300737362
 40
0.8476289374
 40
0.8648209378
 40
0.8816286716
 40
0.898031796
 40
0.9140107672
 40
0.9295468934
 40
0.9446224264
 40
0.9592205872
 40
0.9733255749
 40
0.9869233696
 40
1.0
 40
1.0
 40
1.0
 40
1.0
 10
13.1707176605
 20
8.5967523741
 30
0.0
 10
13.1731947973
 20
8.5954729718
 30
0.0
 10
13.1781352925
 20
8.5924976847
 30
0.0
 10
13.1852149243
 20
8.5870511641
 30
0.0
 10
13.190899382
 20
8.5816974105
 30
0.0
 10
13.1953783781
 20
8.5769015476
 30
0.0
 10
13.1987599848
 20
8.5729722632
 30
0.0
 10
13.2021046237
 20
8.5687743192
 30
0.0
 10
13.2054113783
 20
8.5643090203
 30
0.0
 10
13.2086791307
 20
8.559577944
 30
0.0
 10
13.2119067696
 20
8.5545826708
 30
0.0
 10
13.2150932677
 20
8.549324942
 30
0.0
 10
13.2182375148
 20
8.5438065423
 30
0.0
 10
13.2213384679
 20
8.5380293468
 30
0.0
 10
13.2254766235
 20
8.5298600985
 30
0.0
 10
13.2305216122
 20
8.5190020684
 30
0.0
 10
13.2362978617
 20
8.505164076
 30
0.0
 10
13.2418767466
 20
8.4903459654
 30
0.0
 10
13.2472505634
 20
8.4745681169
 30
0.0
 10
13.2524119078
 20
8.4578519997
 30
0.0
 10
13.2573536154
 20
8.4402205588
 30
0.0
 10
13.2620687969
 20
8.4216980278
 30
0.0
 10
13.2665508544
 20
8.4023099314
 30
0.0
 10
13.2707935339
 20
8.382083042
 30
0.0
 10
13.2747909023
 20
8.3610453261
 30
0.0
 10
13.2785373577
 20
8.3392258903
 30
0.0
 10
13.2820276466
 20
8.3166549488
 30
0.0
 10
13.2852568945
 20
8.2933637823
 30
0.0
 10
13.2882205804
 20
8.269384681
 30
0.0
 10
13.2909145456
 20
8.2447508941
 30
0.0
 10
13.2933350158
 20
8.219496593
 30
0.0
 10
13.2954786117
 20
8.1936568215
 30
0.0
 10
13.2973423298
 20
8.1672674387
 30
0.0
 10
13.2989235502
 20
8.1403650657
 30
0.0
 10
13.3002200542
 20
8.1129870548
 30
0.0
 10
13.3012300547
 20
8.0851713829
 30
0.0
 10
13.3021985193
 20
8.0473243869
 30
0.0
 10
13.3026730525
 20
7.9992072725
 30
0.0
 10
13.3020845555
 20
7.9406913773
 30
0.0
 10
13.300344233
 20
7.8813823552
 30
0.0
 10
13.2974616666
 20
7.8216094467
 30
0.0
 10
13.293452709
 20
7.7617042621
 30
0.0
 10
13.2883396307
 20
7.7019992073
 30
0.0
 10
13.2821508413
 20
7.6428255713
 30
0.0
 10
13.2749208571
 20
7.5845115889
 30
0.0
 10
13.2666899731
 20
7.5273809413
 30
0.0
 10
13.2589816276
 20
7.4806967009
 30
0.0
 10
13.2523373688
 20
7.4441875228
 30
0.0
 10
13.247169394
 20
7.4174907947
 30
0.0
 10
13.2417886057
 20
7.3913221714
 30
0.0
 10
13.2362024573
 20
7.3657179455
 30
0.0
 10
13.2304187458
 20
7.340713651
 30
0.0
 10
13.2244455248
 20
7.3163439774
 30
0.0
 10
13.2182911057
 20
7.2926427345
 30
0.0
 10
13.2119640613
 20
7.2696427944
 30
0.0
 10
13.2054732175
 20
7.2473760303
 30
0.0
 10
13.198827612
 20
7.225873293
 30
0.0
 10
13.1920365071
 20
7.205164435
 30
0.0
 10
13.1851093348
 20
7.1852779028
 30
0.0
 10
13.1780558022
 20
7.1662415537
 30
0.0
 10
13.1731790071
 20
7.1538897526
 30
0.0
 10
13.1707176605
 20
7.1478635488
 30
0.0
  0
SPLINE
  5
3D9
100
AcDbEntity
  8
0
100
AcDbSpline
 62
7
  6
CONTINUOUS
 70
0
 71
3
 72
66
 73
62
 74
0
 42
0.0000001
 43
0.0000001
 44
0.0000000001
 40
0.0
 40
0.0
 40
0.0
 40
0.0
 40
0.0130766307
 40
0.0266744259
 40
0.040779414
 40
0.0553775753
 40
0.0704531088
 40
0.0859892354
 40
0.1019682073
 40
0.1183713321
 40
0.1351790666
 40
0.1523710676
 40
0.1699262694
 40
0.1878229364
 40
0.2060386992
 40
0.2245506156
 40
0.2623680765
 40
0.3010827682
 40
0.3404954281
 40
0.380402087
 40
0.4205954879
 40
0.4608664694
 40
0.5010053599
 40
0.5408033626
 40
0.5800539346
 40
0.6185542041
 40
0.6374611822
 40
0.6561068923
 40
0.6744676424
 40
0.6925202331
 40
0.7102420151
 40
0.7276109473
 40
0.7446056327
 40
0.76120537
 40
0.7773902276
 40
0.7931411043
 40
0.8084397797
 40
0.8232689872
 40
0.8376125201
 40
0.8514553086
 40
0.8647835133
 40
0.8775846549
 40
0.8898477841
 40
0.9015636335
 40
0.9127248237
 40
0.9233261459
 40
0.9333649083
 40
0.9428413308
 40
0.947369951
 40
0.95175971
 40
0.9560117067
 40
0.960127377
 40
0.9641085057
 40
0.9679572315
 40
0.9716761556
 40
0.9752683321
 40
0.9787373203
 40
0.9820872758
 40
0.9884481075
 40
0.994399254
 40
1.0
 40
1.0
 40
1.0
 40
1.0
 10
13.1398080315
 20
7.1500071389
 30
0.0
 10
13.1422693782
 20
7.1560333429
 30
0.0
 10
13.1471461735
 20
7.1683851445
 30
0.0
 10
13.1541997064
 20
7.1874214946
 30
0.0
 10
13.161126879
 20
7.2073080276
 30
0.0
 10
13.1679179841
 20
7.2280168867
 30
0.0
 10
13.1745635899
 20
7.249519625
 30
0.0
 10
13.1810544339
 20
7.2717863902
 30
0.0
 10
13.1873814785
 20
7.2947863314
 30
0.0
 10
13.1935358978
 20
7.3184875756
 30
0.0
 10
13.199509119
 20
7.3428572504
 30
0.0
 10
13.2052928307
 20
7.3678615462
 30
0.0
 10
13.2108789793
 20
7.3934657735
 30
0.0
 10
13.2162597677
 20
7.4196343981
 30
0.0
 10
13.2214277426
 20
7.4463311276
 30
0.0
 10
13.2280720014
 20
7.4828403076
 30
0.0
 10
13.235780347
 20
7.5295245503
 30
0.0
 10
13.2440112311
 20
7.5866552008
 30
0.0
 10
13.2512412151
 20
7.6449691861
 30
0.0
 10
13.2574300043
 20
7.7041428249
 30
0.0
 10
13.2625430823
 20
7.7638478824
 30
0.0
 10
13.2665520395
 20
7.8237530695
 30
0.0
 10
13.2694346054
 20
7.8835259803
 30
0.0
 10
13.2711749273
 20
7.9428350046
 30
0.0
 10
13.2717634235
 20
8.0013509016
 30
0.0
 10
13.2712888896
 20
8.0494680174
 30
0.0
 10
13.2703204244
 20
8.0873150143
 30
0.0
 10
13.2693104234
 20
8.1151306867
 30
0.0
 10
13.268013919
 20
8.142508698
 30
0.0
 10
13.266432698
 20
8.1694110713
 30
0.0
 10
13.2645689794
 20
8.1958004545
 30
0.0
 10
13.2624253829
 20
8.2216402261
 30
0.0
 10
13.2600049121
 20
8.2468945272
 30
0.0
 10
13.2573109464
 20
8.271528314
 30
0.0
 10
13.2543472599
 20
8.2955074152
 30
0.0
 10
13.2511180114
 20
8.3187985813
 30
0.0
 10
13.2476277219
 20
8.3413695224
 30
0.0
 10
13.2438812658
 20
8.3631889576
 30
0.0
 10
13.2398838968
 20
8.3842266729
 30
0.0
 10
13.2356412166
 20
8.4044535614
 30
0.0
 10
13.2311591584
 20
8.4238416569
 30
0.0
 10
13.2264439762
 20
8.4423641869
 30
0.0
 10
13.2215022679
 20
8.4599956266
 30
0.0
 10
13.2163409229
 20
8.4767117425
 30
0.0
 10
13.2109671054
 20
8.4924895895
 30
0.0
 10
13.2053882198
 20
8.5073076987
 30
0.0
 10
13.1996119696
 20
8.5211456893
 30
0.0
 10
13.1945669803
 20
8.5320037179
 30
0.0
 10
13.1904288242
 20
8.540172965
 30
0.0
 10
13.1873278708
 20
8.5459501595
 30
0.0
 10
13.1841836234
 20
8.5514685581
 30
0.0
 10
13.180997125
 20
8.5567262858
 30
0.0
 10
13.1777694857
 20
8.561721558
 30
0.0
 10
13.1745017329
 20
8.5664526331
 30
0.0
 10
13.1711949781
 20
8.570917931
 30
0.0
 10
13.1678503388
 20
8.5751158738
 30
0.0
 10
13.1644687318
 20
8.579045157
 30
0.0
 10
13.1599897353
 20
8.5838410183
 30
0.0
 10
13.1543052769
 20
8.5891947697
 30
0.0
 10
13.1472256443
 20
8.5946412879
 30
0.0
 10
13.142285149
 20
8.5976165739
 30
0.0
 10
13.1398080122
 20
8.5988959763
 30
0.0
  0
SPLINE
  5
3DA
100
AcDbEntity
  8
0
100
AcDbSpline
 62
7
  6
CONTINUOUS
 70
0
 71
3
 72
44
 73
40
 74
0
 42
0.0000001
 43
0.0000001
 44
0.0000000001
 40
0.0
 40
0.0
 40
0.0
 40
0.0
 40
0.0055576246
 40
0.0111781252
 40
0.0169221424
 40
0.0228460823
 40
0.0290009394
 40
0.0354314054
 40
0.0421759115
 40
0.0492668554
 40
0.0567309544
 40
0.064590169
 40
0.0728619349
 40
0.0815600558
 40
0.0906951257
 40
0.1002748158
 40
0.110304631
 40
0.1207877759
 40
0.1317257866
 40
0.1431186256
 40
0.1672598102
 40
0.1931873598
 40
0.2208591117
 40
0.2502195474
 40
0.2812018198
 40
0.3137293806
 40
0.3477172232
 40
0.3830728887
 40
0.4196972996
 40
0.4574854911
 40
0.4963273377
 40
0.5361081807
 40
0.5767094102
 40
0.6180090134
 40
0.6598821151
 40
0.7448359269
 40
0.830537715
 40
0.9159396375
 40
1.0
 40
1.0
 40
1.0
 40
1.0
 10
9.6155986974
 20
10.4327424816
 30
0.0
 10
9.615598693
 20
10.4332446648
 30
0.0
 10
9.6156548961
 20
10.4342555871
 30
0.0
 10
9.6159072043
 20
10.4357665822
 30
0.0
 10
9.6163271432
 20
10.4372741944
 30
0.0
 10
9.6169138029
 20
10.4387767086
 30
0.0
 10
9.6176663245
 20
10.4402728631
 30
0.0
 10
9.6185836122
 20
10.4417615491
 30
0.0
 10
9.6196646571
 20
10.4432417314
 30
0.0
 10
9.6209084135
 20
10.4447123917
 30
0.0
 10
9.6223137215
 20
10.4461725905
 30
0.0
 10
9.6238794612
 20
10.44762125
 30
0.0
 10
9.6256043136
 20
10.4490573862
 30
0.0
 10
9.6274869177
 20
10.4504799186
 30
0.0
 10
9.6295257818
 20
10.4518877512
 30
0.0
 10
9.6317192561
 20
10.4532798446
 30
0.0
 10
9.6340656196
 20
10.4546550449
 30
0.0
 10
9.6365629657
 20
10.4560123028
 30
0.0
 10
9.6392092992
 20
10.4573505318
 30
0.0
 10
9.6430073159
 20
10.4591426945
 30
0.0
 10
9.6481191718
 20
10.4613191362
 30
0.0
 10
9.6546966808
 20
10.4637902098
 30
0.0
 10
9.6618099006
 20
10.4661605974
 30
0.0
 10
9.6694357482
 20
10.4684224892
 30
0.0
 10
9.6775495811
 20
10.4705684177
 30
0.0
 10
9.6861250118
 20
10.4725912799
 30
0.0
 10
9.6951341083
 20
10.4744843758
 30
0.0
 10
9.7045474723
 20
10.4762414328
 30
0.0
 10
9.7143343483
 20
10.47785663
 30
0.0
 10
9.7244627292
 20
10.4793246273
 30
0.0
 10
9.7348994715
 20
10.4806405696
 30
0.0
 10
9.7456104139
 20
10.4818001074
 30
0.0
 10
9.7565604787
 20
10.482799399
 30
0.0
 10
9.7677138307
 20
10.4836351653
 30
0.0
 10
9.7828796502
 20
10.484531966
 30
0.0
 10
9.802074344
 20
10.4852229985
 30
0.0
 10
9.8252143799
 20
10.4853691664
 30
0.0
 10
9.8482678509
 20
10.4848340414
 30
0.0
 10
9.8635614721
 20
10.484018176
 30
0.0
 10
9.8711389093
 20
10.4834926789
 30
0.0
  0
SPLINE
  5
3DB
100
AcDbEntity
  8
0
100
AcDbSpline
 62
7
  6
CONTINUOUS
 70
0
 71
3
 72
44
 73
40
 74
0
 42
0.0000001
 43
0.0000001
 44
0.0000000001
 40
0.0
 40
0.0
 40
0.0
 40
0.0
 40
0.0055576246
 40
0.0111781252
 40
0.0169221424
 40
0.0228460823
 40
0.0290009394
 40
0.0354314054
 40
0.0421759115
 40
0.0492668554
 40
0.0567309544
 40
0.064590169
 40
0.0728619349
 40
0.0815600558
 40
0.0906951257
 40
0.1002748158
 40
0.110304631
 40
0.1207877759
 40
0.1317257866
 40
0.1431186256
 40
0.1672598102
 40
0.1931873598
 40
0.2208591117
 40
0.2502195474
 40
0.2812018198
 40
0.3137293806
 40
0.3477172232
 40
0.3830728887
 40
0.4196972996
 40
0.4574854911
 40
0.4963273377
 40
0.5361081807
 40
0.5767094102
 40
0.6180090134
 40
0.6598821151
 40
0.7448359269
 40
0.830537715
 40
0.9159396375
 40
1.0
 40
1.0
 40
1.0
 40
1.0
 10
12.7548578189
 20
10.2150341221
 30
0.0
 10
12.7548578145
 20
10.2155363052
 30
0.0
 10
12.7549140176
 20
10.2165472276
 30
0.0
 10
12.7551663258
 20
10.2180582227
 30
0.0
 10
12.7555862647
 20
10.2195658349
 30
0.0
 10
12.7561729243
 20
10.2210683491
 30
0.0
 10
12.756925446
 20
10.2225645036
 30
0.0
 10
12.7578427336
 20
10.2240531896
 30
0.0
 10
12.7589237785
 20
10.2255333719
 30
0.0
 10
12.7601675349
 20
10.2270040322
 30
0.0
 10
12.761572843
 20
10.228464231
 30
0.0
 10
12.7631385826
 20
10.2299128905
 30
0.0
 10
12.764863435
 20
10.2313490266
 30
0.0
 10
12.7667460391
 20
10.2327715591
 30
0.0
 10
12.7687849032
 20
10.2341793917
 30
0.0
 10
12.7709783775
 20
10.2355714851
 30
0.0
 10
12.773324741
 20
10.2369466854
 30
0.0
 10
12.7758220871
 20
10.2383039433
 30
0.0
 10
12.7784684206
 20
10.2396421723
 30
0.0
 10
12.7822664373
 20
10.241434335
 30
0.0
 10
12.7873782933
 20
10.2436107767
 30
0.0
 10
12.7939558022
 20
10.2460818503
 30
0.0
 10
12.801069022
 20
10.2484522379
 30
0.0
 10
12.8086948697
 20
10.2507141297
 30
0.0
 10
12.8168087026
 20
10.2528600582
 30
0.0
 10
12.8253841333
 20
10.2548829204
 30
0.0
 10
12.8343932298
 20
10.2567760163
 30
0.0
 10
12.8438065938
 20
10.2585330733
 30
0.0
 10
12.8535934698
 20
10.2601482704
 30
0.0
 10
12.8637218507
 20
10.2616162678
 30
0.0
 10
12.8741585929
 20
10.2629322101
 30
0.0
 10
12.8848695354
 20
10.2640917479
 30
0.0
 10
12.8958196002
 20
10.2650910395
 30
0.0
 10
12.9069729522
 20
10.2659268058
 30
0.0
 10
12.9221387716
 20
10.2668236065
 30
0.0
 10
12.9413334655
 20
10.267514639
 30
0.0
 10
12.9644735014
 20
10.2676608069
 30
0.0
 10
12.9875269724
 20
10.2671256819
 30
0.0
 10
13.0028205935
 20
10.2663098165
 30
0.0
 10
13.0103980308
 20
10.2657843194
 30
0.0
  0
SPLINE
  5
3DC
100
AcDbEntity
  8
0
100
AcDbSpline
 62
7
  6
CONTINUOUS
 70
0
 71
3
 72
28
 73
24
 74
0
 42
0.0000001
 43
0.0000001
 44
0.0000000001
 40
0.0
 40
0.0
 40
0.0
 40
0.0
 40
0.0225649969
 40
0.0460260341
 40
0.0703603317
 40
0.095542863
 40
0.121546655
 40
0.148342784
 40
0.1759006378
 40
0.2041880692
 40
0.2331713792
 40
0.2628155707
 40
0.3239393
 40
0.3872569573
 40
0.4524492721
 40
0.519183935
 40
0.5871181057
 40
0.6559008608
 40
0.7251756397
 40
0.7945826299
 40
0.8637612407
 40
0.9323517299
 40
1.0
 40
1.0
 40
1.0
 40
1.0
 10
12.9305002772
 20
7.4176747869
 30
0.0
 10
12.9319941405
 20
7.421339571
 30
0.0
 10
12.9349539444
 20
7.4288504749
 30
0.0
 10
12.9392349223
 20
7.4404250941
 30
0.0
 10
12.9434390748
 20
7.4525149586
 30
0.0
 10
12.947560546
 20
7.4651032935
 30
0.0
 10
12.9515935824
 20
7.4781727409
 30
0.0
 10
12.9555325928
 20
7.491705222
 30
0.0
 10
12.9593721071
 20
7.505682022
 30
0.0
 10
12.9631067521
 20
7.5200838016
 30
0.0
 10
12.9667313929
 20
7.5348906378
 30
0.0
 10
12.9714589614
 20
7.5553547047
 30
0.0
 10
12.9770442504
 20
7.5817984451
 30
0.0
 10
12.9831660043
 20
7.6144917717
 30
0.0
 10
12.9887393394
 20
7.6482807148
 30
0.0
 10
12.9937331725
 20
7.6829781554
 30
0.0
 10
12.9981196364
 20
7.7183920956
 30
0.0
 10
13.0018743147
 20
7.7543264493
 30
0.0
 10
13.0049763247
 20
7.7905822367
 30
0.0
 10
13.0074084391
 20
7.8269586743
 30
0.0
 10
13.0091571829
 20
7.8632542705
 30
0.0
 10
13.0102129628
 20
7.8992679476
 30
0.0
 10
13.0104530658
 20
7.9231627715
 30
0.0
 10
13.0104530658
 20
7.9350272535
 30
0.0
  0
SPLINE
  5
3DD
100
AcDbEntity
  8
0
100
AcDbSpline
 62
7
  6
CONTINUOUS
 70
0
 71
3
 72
50
 73
46
 74
0
 42
0.0000001
 43
0.0000001
 44
0.0000000001
 40
0.0
 40
0.0
 40
0.0
 40
0.0
 40
0.006670426
 40
0.0132428558
 40
0.0197604389
 40
0.0262674972
 40
0.0328085955
 40
0.0394275349
 40
0.0461664844
 40
0.0530651785
 40
0.0601603817
 40
0.0674856043
 40
0.0750708334
 40
0.0829426969
 40
0.0911245181
 40
0.0996364836
 40
0.108496054
 40
0.1177180196
 40
0.1273149072
 40
0.1372972355
 40
0.1476735723
 40
0.1584509799
 40
0.1696350077
 40
0.1812298862
 40
0.193238807
 40
0.2056637902
 40
0.2317643651
 40
0.2595330063
 40
0.2889582287
 40
0.320019236
 40
0.3526872244
 40
0.3869264969
 40
0.4226953282
 40
0.4599466295
 40
0.498628448
 40
0.5386844578
 40
0.5800543964
 40
0.6226744033
 40
0.6664772894
 40
0.7113928366
 40
0.7573480367
 40
0.8042674556
 40
0.8520734042
 40
0.9006853467
 40
1.0
 40
1.0
 40
1.0
 40
1.0
 10
13.0924682309
 20
9.8217993795
 30
0.0
 10
13.0934982586
 20
9.8220096305
 30
0.0
 10
13.0955607817
 20
9.8223462347
 30
0.0
 10
13.0986688862
 20
9.822591646
 30
0.0
 10
13.1017611544
 20
9.8225727285
 30
0.0
 10
13.1048354772
 20
9.8222893325
 30
0.0
 10
13.107890044
 20
9.8217416228
 30
0.0
 10
13.110923062
 20
9.8209301619
 30
0.0
 10
13.1139328309
 20
9.8198555406
 30
0.0
 10
13.1169178138
 20
9.8185186654
 30
0.0
 10
13.11987662
 20
9.8169205326
 30
0.0
 10
13.1228079015
 20
9.8150621198
 30
0.0
 10
13.1257104924
 20
9.8129446202
 30
0.0
 10
13.1285831915
 20
9.8105691444
 30
0.0
 10
13.1314248446
 20
9.8079369044
 30
0.0
 10
13.1342343656
 20
9.8050492215
 30
0.0
 10
13.1370105549
 20
9.8019073939
 30
0.0
 10
13.1397523187
 20
9.7985129044
 30
0.0
 10
13.1424585089
 20
9.7948672842
 30
0.0
 10
13.1451279345
 20
9.7909721499
 30
0.0
 10
13.1477595083
 20
9.7868292865
 30
0.0
 10
13.1503520316
 20
9.782440525
 30
0.0
 10
13.1529043769
 20
9.7778078458
 30
0.0
 10
13.155415431
 20
9.7729333464
 30
0.0
 10
13.1578840461
 20
9.7678191919
 30
0.0
 10
13.1611715546
 20
9.760564355
 30
0.0
 10
13.1651547321
 20
9.7509015644
 30
0.0
 10
13.1696727068
 20
9.7385731328
 30
0.0
 10
13.1739959493
 20
9.7253502556
 30
0.0
 10
13.1781165461
 20
9.7112569042
 30
0.0
 10
13.1820269475
 20
9.6963184331
 30
0.0
 10
13.1857199503
 20
9.680561922
 30
0.0
 10
13.1891887342
 20
9.6640159749
 30
0.0
 10
13.1924268759
 20
9.6467106955
 30
0.0
 10
13.1954283894
 20
9.6286776216
 30
0.0
 10
13.1981877269
 20
9.6099496571
 30
0.0
 10
13.2006997815
 20
9.5905609948
 30
0.0
 10
13.2029598967
 20
9.5705470517
 30
0.0
 10
13.2049638895
 20
9.5499444067
 30
0.0
 10
13.2067080565
 20
9.5287907387
 30
0.0
 10
13.2081891737
 20
9.507124729
 30
0.0
 10
13.2094044851
 20
9.4849860093
 30
0.0
 10
13.2103517498
 20
9.4624151011
 30
0.0
 10
13.2112614051
 20
9.431580282
 30
0.0
 10
13.2115247358
 20
9.4082655052
 30
0.0
 10
13.2115247358
 20
9.3926133978
 30
0.0
  0
SPLINE
  5
3DE
100
AcDbEntity
  8
0
100
AcDbSpline
 62
7
  6
CONTINUOUS
 70
0
 71
3
 72
28
 73
24
 74
0
 42
0.0000001
 43
0.0000001
 44
0.0000000001
 40
0.0
 40
0.0
 40
0.0
 40
0.0
 40
0.0201832921
 40
0.0411943873
 40
0.0630320185
 40
0.0856926432
 40
0.1091709523
 40
0.1334598451
 40
0.158550716
 40
0.1844335461
 40
0.2110969775
 40
0.2385285367
 40
0.2956389772
 40
0.3556453821
 40
0.4184121535
 40
0.4837908886
 40
0.5516217816
 40
0.6217348633
 40
0.6939510112
 40
0.7680831468
 40
0.84393657
 40
0.9213112452
 40
1.0
 40
1.0
 40
1.0
 40
1.0
 10
13.0201662877
 20
9.7399143883
 30
0.0
 10
13.0211331215
 20
9.7377473432
 30
0.0
 10
13.0230412191
 20
9.7332950357
 30
0.0
 10
13.0257782087
 20
9.726407524
 30
0.0
 10
13.0284456032
 20
9.7191814791
 30
0.0
 10
13.0310415015
 20
9.7116221632
 30
0.0
 10
13.0335640029
 20
9.7037349677
 30
0.0
 10
13.0360113035
 20
9.6955255685
 30
0.0
 10
13.0383816236
 20
9.6869998654
 30
0.0
 10
13.0406732349
 20
9.6781640011
 30
0.0
 10
13.0428845145
 20
9.6690243308
 30
0.0
 10
13.0457622257
 20
9.656270135
 30
0.0
 10
13.0491343878
 20
9.6396110794
 30
0.0
 10
13.0527843202
 20
9.6187774246
 30
0.0
 10
13.0560791796
 20
9.5969012538
 30
0.0
 10
13.0590093025
 20
9.5740457401
 30
0.0
 10
13.0615660574
 20
9.5502767486
 30
0.0
 10
13.0637419198
 20
9.5256629026
 30
0.0
 10
13.0655304877
 20
9.5002752761
 30
0.0
 10
13.0669264818
 20
9.4741872588
 30
0.0
 10
13.0679257989
 20
9.4474741797
 30
0.0
 10
13.0685254581
 20
9.4202134115
 30
0.0
 10
13.0686566229
 20
9.4018647951
 30
0.0
 10
13.0686566229
 20
9.3926133896
 30
0.0
  0
SPLINE
  5
3DF
100
AcDbEntity
  8
0
100
AcDbSpline
 62
7
  6
CONTINUOUS
 70
0
 71
3
 72
33
 73
29
 74
0
 42
0.0000001
 43
0.0000001
 44
0.0000000001
 40
0.0
 40
0.0
 40
0.0
 40
0.0
 40
0.0183285557
 40
0.0378653201
 40
0.0586024281
 40
0.0805248108
 40
0.103611322
 40
0.1278355814
 40
0.1531666195
 40
0.1795693605
 40
0.2070050794
 40
0.235431781
 40
0.2648045007
 40
0.2950755405
 40
0.3261947108
 40
0.3581095766
 40
0.3907656524
 40
0.4241065722
 40
0.4580742543
 40
0.4926091011
 40
0.5276501621
 40
0.5631352864
 40
0.6351828357
 40
0.7082376549
 40
0.7817751268
 40
0.855266195
 40
0.9281820185
 40
1.0
 40
1.0
 40
1.0
 40
1.0
 10
12.952765904
 20
7.3194569345
 30
0.0
 10
12.9548392877
 20
7.3227764059
 30
0.0
 10
12.9589565479
 20
7.3297388717
 30
0.0
 10
12.9648787552
 20
7.3407657431
 30
0.0
 10
12.9707337905
 20
7.352689561
 30
0.0
 10
12.9765103318
 20
7.365487585
 30
0.0
 10
12.982197386
 20
7.3791357482
 30
0.0
 10
12.9877840138
 20
7.3936081449
 30
0.0
 10
12.99325946
 20
7.408877262
 30
0.0
 10
12.9986131802
 20
7.4249139828
 30
0.0
 10
13.0038348588
 20
7.4416876784
 30
0.0
 10
13.0089144274
 20
7.4591662803
 30
0.0
 10
13.0138420856
 20
7.477316347
 30
0.0
 10
13.0186083337
 20
7.4961031216
 30
0.0
 10
13.0232039922
 20
7.5154906046
 30
0.0
 10
13.0276202051
 20
7.5354416353
 30
0.0
 10
13.0318484608
 20
7.5559179669
 30
0.0
 10
13.0358806097
 20
7.5768803328
 30
0.0
 10
13.0397088975
 20
7.5982885236
 30
0.0
 10
13.0433259479
 20
7.6201014608
 30
0.0
 10
13.0467248267
 20
7.6422773278
 30
0.0
 10
13.0509782968
 20
7.6724238855
 30
0.0
 10
13.0556962425
 20
7.7106997344
 30
0.0
 10
13.0603679031
 20
7.7571565158
 30
0.0
 10
13.0640416796
 20
7.8040120879
 30
0.0
 10
13.0666894207
 20
7.850907136
 30
0.0
 10
13.0682908718
 20
7.8974820013
 30
0.0
 10
13.0686566229
 20
7.9283888756
 30
0.0
 10
13.0686566229
 20
7.9437245643
 30
0.0
  0
SPLINE
  5
3E0
100
AcDbEntity
  8
0
100
AcDbSpline
 62
7
  6
CONTINUOUS
 70
0
 71
3
 72
54
 73
50
 74
0
 42
0.0000001
 43
0.0000001
 44
0.0000000001
 40
0.0
 40
0.0
 40
0.0
 40
0.0
 40
0.0056188246
 40
0.0111420516
 40
0.0166418694
 40
0.0221914681
 40
0.0278619479
 40
0.0337195739
 40
0.0398239211
 40
0.0462268279
 40
0.0529722976
 40
0.0600968419
 40
0.0676302291
 40
0.0755963126
 40
0.0840138248
 40
0.0928972021
 40
0.1022571318
 40
0.1121012514
 40
0.1224344331
 40
0.1332593625
 40
0.144576634
 40
0.156385226
 40
0.1686824944
 40
0.1814645454
 40
0.1947262024
 40
0.2084612713
 40
0.2226625306
 40
0.2373218891
 40
0.2524304271
 40
0.267978452
 40
0.2839555994
 40
0.3003508017
 40
0.3343475959
 40
0.3698697203
 40
0.4068092226
 40
0.4450510283
 40
0.4844737811
 40
0.5249506107
 40
0.5663498503
 40
0.6085357213
 40
0.6513689944
 40
0.6947076352
 40
0.7384074413
 40
0.7823226671
 40
0.826306664
 40
0.8702124533
 40
0.9138935095
 40
0.9572039299
 40
1.0
 40
1.0
 40
1.0
 40
1.0
 10
13.0130972057
 20
7.2284148658
 30
0.0
 10
13.0144753138
 20
7.2279276353
 30
0.0
 10
13.0172643214
 20
7.2271114004
 30
0.0
 10
13.021542717
 20
7.2263883148
 30
0.0
 10
13.0258595761
 20
7.2261830701
 30
0.0
 10
13.0302079531
 20
7.2264958538
 30
0.0
 10
13.0345820602
 20
7.2273253925
 30
0.0
 10
13.0389766944
 20
7.2286690879
 30
0.0
 10
13.0433875254
 20
7.2305239968
 30
0.0
 10
13.0478109457
 20
7.2328868112
 30
0.0
 10
13.0522436703
 20
7.2357543566
 30
0.0
 10
13.0566825787
 20
7.2391233684
 30
0.0
 10
13.0611244944
 20
7.242990519
 30
0.0
 10
13.0655661113
 20
7.24735228
 30
0.0
 10
13.0700040372
 20
7.2522047902
 30
0.0
 10
13.0744346768
 20
7.2575438858
 30
0.0
 10
13.0788544449
 20
7.2633649294
 30
0.0
 10
13.0832595489
 20
7.269662941
 30
0.0
 10
13.0876462969
 20
7.2764324265
 30
0.0
 10
13.0920108047
 20
7.2836675362
 30
0.0
 10
13.0963493382
 20
7.2913619169
 30
0.0
 10
13.100658002
 20
7.2995088527
 30
0.0
 10
13.1049330579
 20
7.3081011562
 30
0.0
 10
13.1091706543
 20
7.3171312712
 30
0.0
 10
13.1133670736
 20
7.3265912081
 30
0.0
 10
13.1175185441
 20
7.3364726055
 30
0.0
 10
13.1216213888
 20
7.3467667042
 30
0.0
 10
13.1256719385
 20
7.3574643763
 30
0.0
 10
13.1296665773
 20
7.3685561275
 30
0.0
 10
13.1336017475
 20
7.3800321006
 30
0.0
 10
13.1374739389
 20
7.3918821109
 30
0.0
 10
13.1426103828
 20
7.4083663785
 30
0.0
 10
13.1488354728
 20
7.4298346748
 30
0.0
 10
13.1559139656
 20
7.4566116844
 30
0.0
 10
13.1626627527
 20
7.4846108021
 30
0.0
 10
13.1690576414
 20
7.5137323983
 30
0.0
 10
13.1750756893
 20
7.5438729932
 30
0.0
 10
13.1806953284
 20
7.574925363
 30
0.0
 10
13.1858964282
 20
7.6067790134
 30
0.0
 10
13.1906603691
 20
7.6393205614
 30
0.0
 10
13.1949701065
 20
7.6724341518
 30
0.0
 10
13.1988102307
 20
7.706001875
 30
0.0
 10
13.2021670198
 20
7.7399041905
 30
0.0
 10
13.2050284901
 20
7.774020359
 30
0.0
 10
13.207384433
 20
7.8082288693
 30
0.0
 10
13.2092264639
 20
7.8424078921
 30
0.0
 10
13.210548026
 20
7.8764356797
 30
0.0
 10
13.2113444587
 20
7.9101909822
 30
0.0
 10
13.2115247358
 20
7.932591436
 30
0.0
 10
13.2115247358
 20
7.9437245725
 30
0.0
  0
SPLINE
  5
3E1
100
AcDbEntity
  8
0
100
AcDbSpline
 62
7
  6
CONTINUOUS
 70
0
 71
3
 72
21
 73
17
 74
0
 42
0.0000001
 43
0.0000001
 44
0.0000000001
 40
0.0
 40
0.0
 40
0.0
 40
0.0
 40
0.0492257754
 40
0.1005781603
 40
0.1539972886
 40
0.2094170594
 40
0.2667656375
 40
0.3259661556
 40
0.3869370937
 40
0.4495924957
 40
0.5138425182
 40
0.5795937321
 40
0.6467492308
 40
0.7152093466
 40
0.8556264941
 40
1.0
 40
1.0
 40
1.0
 40
1.0
 10
12.9845194839
 20
9.6458224997
 30
0.0
 10
12.9855850531
 20
9.641627137
 30
0.0
 10
12.9876526996
 20
9.6330270501
 30
0.0
 10
12.9905160062
 20
9.6197907528
 30
0.0
 10
12.9932030989
 20
9.6059623239
 30
0.0
 10
12.9957094677
 20
9.5915646322
 30
0.0
 10
12.9980309536
 20
9.5766213649
 30
0.0
 10
13.0001636762
 20
9.5611571626
 30
0.0
 10
13.0021040599
 20
9.5451975258
 30
0.0
 10
13.0038488817
 20
9.5287687938
 30
0.0
 10
13.0053952337
 20
9.5118980853
 30
0.0
 10
13.006740511
 20
9.4946132639
 30
0.0
 10
13.0078825046
 20
9.4769428418
 30
0.0
 10
13.0091420678
 20
9.452702615
 30
0.0
 10
13.010183903
 20
9.4216546527
 30
0.0
 10
13.0104530658
 20
9.3966112697
 30
0.0
 10
13.0104530658
 20
9.3839160787
 30
0.0
  0
SPLINE
  5
3E2
100
AcDbEntity
  8
0
100
AcDbSpline
 62
7
  6
CONTINUOUS
 70
0
 71
3
 72
21
 73
17
 74
0
 42
0.0000001
 43
0.0000001
 44
0.0000000001
 40
0.0
 40
0.0
 40
0.0
 40
0.0
 40
0.0492257754
 40
0.1005781603
 40
0.1539972886
 40
0.2094170594
 40
0.2667656375
 40
0.3259661556
 40
0.3869370937
 40
0.4495924957
 40
0.5138425182
 40
0.5795937321
 40
0.6467492308
 40
0.7152093466
 40
0.8556264941
 40
1.0
 40
1.0
 40
1.0
 40
1.0
 10
12.9845194839
 20
8.1969336745
 30
0.0
 10
12.9855850531
 20
8.1927383118
 30
0.0
 10
12.9876526996
 20
8.1841382248
 30
0.0
 10
12.9905160062
 20
8.1709019275
 30
0.0
 10
12.9932030989
 20
8.1570734986
 30
0.0
 10
12.9957094677
 20
8.1426758069
 30
0.0
 10
12.9980309536
 20
8.1277325396
 30
0.0
 10
13.0001636762
 20
8.1122683373
 30
0.0
 10
13.0021040599
 20
8.0963087005
 30
0.0
 10
13.0038488817
 20
8.0798799685
 30
0.0
 10
13.0053952337
 20
8.06300926
 30
0.0
 10
13.006740511
 20
8.0457244386
 30
0.0
 10
13.0078825046
 20
8.0280540165
 30
0.0
 10
13.0091420678
 20
8.0038137898
 30
0.0
 10
13.010183903
 20
7.9727658274
 30
0.0
 10
13.0104530658
 20
7.9477224445
 30
0.0
 10
13.0104530658
 20
7.9350272535
 30
0.0
  0
SPLINE
  5
3E3
100
AcDbEntity
  8
0
100
AcDbSpline
 62
7
  6
CONTINUOUS
 70
0
 71
3
 72
54
 73
50
 74
0
 42
0.0000001
 43
0.0000001
 44
0.0000000001
 40
0.0
 40
0.0
 40
0.0
 40
0.0
 40
0.0056188246
 40
0.0111420516
 40
0.0166418694
 40
0.0221914681
 40
0.0278619479
 40
0.0337195739
 40
0.0398239211
 40
0.0462268279
 40
0.0529722976
 40
0.0600968419
 40
0.0676302291
 40
0.0755963126
 40
0.0840138248
 40
0.0928972021
 40
0.1022571318
 40
0.1121012514
 40
0.1224344331
 40
0.1332593625
 40
0.144576634
 40
0.156385226
 40
0.1686824944
 40
0.1814645454
 40
0.1947262024
 40
0.2084612713
 40
0.2226625306
 40
0.2373218891
 40
0.2524304271
 40
0.267978452
 40
0.2839555994
 40
0.3003508017
 40
0.3343475959
 40
0.3698697203
 40
0.4068092226
 40
0.4450510283
 40
0.4844737811
 40
0.5249506107
 40
0.5663498503
 40
0.6085357213
 40
0.6513689944
 40
0.6947076352
 40
0.7384074413
 40
0.7823226671
 40
0.826306664
 40
0.8702124533
 40
0.9138935095
 40
0.9572039299
 40
1.0
 40
1.0
 40
1.0
 40
1.0
 10
13.0130972057
 20
8.6773036911
 30
0.0
 10
13.0144753138
 20
8.6768164606
 30
0.0
 10
13.0172643214
 20
8.6760002257
 30
0.0
 10
13.021542717
 20
8.6752771401
 30
0.0
 10
13.0258595761
 20
8.6750718954
 30
0.0
 10
13.0302079531
 20
8.6753846791
 30
0.0
 10
13.0345820602
 20
8.6762142177
 30
0.0
 10
13.0389766944
 20
8.6775579132
 30
0.0
 10
13.0433875254
 20
8.6794128221
 30
0.0
 10
13.0478109457
 20
8.6817756365
 30
0.0
 10
13.0522436703
 20
8.6846431819
 30
0.0
 10
13.0566825787
 20
8.6880121936
 30
0.0
 10
13.0611244944
 20
8.6918793443
 30
0.0
 10
13.0655661113
 20
8.6962411053
 30
0.0
 10
13.0700040372
 20
8.7010936155
 30
0.0
 10
13.0744346768
 20
8.7064327111
 30
0.0
 10
13.0788544449
 20
8.7122537547
 30
0.0
 10
13.0832595489
 20
8.7185517663
 30
0.0
 10
13.0876462969
 20
8.7253212518
 30
0.0
 10
13.0920108047
 20
8.7325563615
 30
0.0
 10
13.0963493382
 20
8.7402507422
 30
0.0
 10
13.100658002
 20
8.748397678
 30
0.0
 10
13.1049330579
 20
8.7569899814
 30
0.0
 10
13.1091706543
 20
8.7660200965
 30
0.0
 10
13.1133670736
 20
8.7754800333
 30
0.0
 10
13.1175185441
 20
8.7853614308
 30
0.0
 10
13.1216213888
 20
8.7956555295
 30
0.0
 10
13.1256719385
 20
8.8063532016
 30
0.0
 10
13.1296665773
 20
8.8174449528
 30
0.0
 10
13.1336017475
 20
8.8289209259
 30
0.0
 10
13.1374739389
 20
8.8407709362
 30
0.0
 10
13.1426103828
 20
8.8572552038
 30
0.0
 10
13.1488354728
 20
8.8787235
 30
0.0
 10
13.1559139656
 20
8.9055005097
 30
0.0
 10
13.1626627527
 20
8.9334996274
 30
0.0
 10
13.1690576414
 20
8.9626212236
 30
0.0
 10
13.1750756893
 20
8.9927618185
 30
0.0
 10
13.1806953284
 20
9.0238141883
 30
0.0
 10
13.1858964282
 20
9.0556678387
 30
0.0
 10
13.1906603691
 20
9.0882093866
 30
0.0
 10
13.1949701065
 20
9.1213229771
 30
0.0
 10
13.1988102307
 20
9.1548907002
 30
0.0
 10
13.2021670198
 20
9.1887930158
 30
0.0
 10
13.2050284901
 20
9.2229091843
 30
0.0
 10
13.207384433
 20
9.2571176946
 30
0.0
 10
13.2092264639
 20
9.2912967174
 30
0.0
 10
13.210548026
 20
9.3253245049
 30
0.0
 10
13.2113444587
 20
9.3590798075
 30
0.0
 10
13.2115247358
 20
9.3814802613
 30
0.0
 10
13.2115247358
 20
9.3926133978
 30
0.0
  0
SPLINE
  5
3E4
100
AcDbEntity
  8
0
100
AcDbSpline
 62
7
  6
CONTINUOUS
 70
0
 71
3
 72
33
 73
29
 74
0
 42
0.0000001
 43
0.0000001
 44
0.0000000001
 40
0.0
 40
0.0
 40
0.0
 40
0.0
 40
0.0183285557
 40
0.0378653201
 40
0.0586024281
 40
0.0805248108
 40
0.103611322
 40
0.1278355814
 40
0.1531666195
 40
0.1795693605
 40
0.2070050794
 40
0.235431781
 40
0.2648045007
 40
0.2950755405
 40
0.3261947108
 40
0.3581095766
 40
0.3907656524
 40
0.4241065722
 40
0.4580742543
 40
0.4926091011
 40
0.5276501621
 40
0.5631352864
 40
0.6351828357
 40
0.7082376549
 40
0.7817751268
 40
0.855266195
 40
0.9281820185
 40
1.0
 40
1.0
 40
1.0
 40
1.0
 10
12.952765904
 20
8.7683457598
 30
0.0
 10
12.9548392877
 20
8.7716652311
 30
0.0
 10
12.9589565479
 20
8.778627697
 30
0.0
 10
12.9648787552
 20
8.7896545684
 30
0.0
 10
12.9707337905
 20
8.8015783863
 30
0.0
 10
12.9765103318
 20
8.8143764103
 30
0.0
 10
12.982197386
 20
8.8280245735
 30
0.0
 10
12.9877840138
 20
8.8424969702
 30
0.0
 10
12.99325946
 20
8.8577660872
 30
0.0
 10
12.9986131802
 20
8.8738028081
 30
0.0
 10
13.0038348588
 20
8.8905765037
 30
0.0
 10
13.0089144274
 20
8.9080551056
 30
0.0
 10
13.0138420856
 20
8.9262051722
 30
0.0
 10
13.0186083337
 20
8.9449919469
 30
0.0
 10
13.0232039922
 20
8.9643794298
 30
0.0
 10
13.0276202051
 20
8.9843304606
 30
0.0
 10
13.0318484608
 20
9.0048067922
 30
0.0
 10
13.0358806097
 20
9.0257691581
 30
0.0
 10
13.0397088975
 20
9.0471773489
 30
0.0
 10
13.0433259479
 20
9.0689902861
 30
0.0
 10
13.0467248267
 20
9.0911661531
 30
0.0
 10
13.0509782968
 20
9.1213127108
 30
0.0
 10
13.0556962425
 20
9.1595885597
 30
0.0
 10
13.0603679031
 20
9.2060453411
 30
0.0
 10
13.0640416796
 20
9.2529009132
 30
0.0
 10
13.0666894207
 20
9.2997959613
 30
0.0
 10
13.0682908718
 20
9.3463708266
 30
0.0
 10
13.0686566229
 20
9.3772777009
 30
0.0
 10
13.0686566229
 20
9.3926133896
 30
0.0
  0
SPLINE
  5
3E5
100
AcDbEntity
  8
0
100
AcDbSpline
 62
7
  6
CONTINUOUS
 70
0
 71
3
 72
28
 73
24
 74
0
 42
0.0000001
 43
0.0000001
 44
0.0000000001
 40
0.0
 40
0.0
 40
0.0
 40
0.0
 40
0.0201832921
 40
0.0411943873
 40
0.0630320185
 40
0.0856926432
 40
0.1091709523
 40
0.1334598451
 40
0.158550716
 40
0.1844335461
 40
0.2110969775
 40
0.2385285367
 40
0.2956389772
 40
0.3556453821
 40
0.4184121535
 40
0.4837908886
 40
0.5516217816
 40
0.6217348633
 40
0.6939510112
 40
0.7680831468
 40
0.84393657
 40
0.9213112452
 40
1.0
 40
1.0
 40
1.0
 40
1.0
 10
13.0201662877
 20
8.291025563
 30
0.0
 10
13.0211331215
 20
8.288858518
 30
0.0
 10
13.0230412191
 20
8.2844062104
 30
0.0
 10
13.0257782087
 20
8.2775186987
 30
0.0
 10
13.0284456032
 20
8.2702926539
 30
0.0
 10
13.0310415015
 20
8.2627333379
 30
0.0
 10
13.0335640029
 20
8.2548461424
 30
0.0
 10
13.0360113035
 20
8.2466367432
 30
0.0
 10
13.0383816236
 20
8.2381110401
 30
0.0
 10
13.0406732349
 20
8.2292751758
 30
0.0
 10
13.0428845145
 20
8.2201355055
 30
0.0
 10
13.0457622257
 20
8.2073813097
 30
0.0
 10
13.0491343878
 20
8.1907222541
 30
0.0
 10
13.0527843202
 20
8.1698885994
 30
0.0
 10
13.0560791796
 20
8.1480124285
 30
0.0
 10
13.0590093025
 20
8.1251569149
 30
0.0
 10
13.0615660574
 20
8.1013879233
 30
0.0
 10
13.0637419198
 20
8.0767740773
 30
0.0
 10
13.0655304877
 20
8.0513864508
 30
0.0
 10
13.0669264818
 20
8.0252984335
 30
0.0
 10
13.0679257989
 20
7.9985853544
 30
0.0
 10
13.0685254581
 20
7.9713245862
 30
0.0
 10
13.0686566229
 20
7.9529759699
 30
0.0
 10
13.0686566229
 20
7.9437245643
 30
0.0
  0
SPLINE
  5
3E6
100
AcDbEntity
  8
0
100
AcDbSpline
 62
7
  6
CONTINUOUS
 70
0
 71
3
 72
50
 73
46
 74
0
 42
0.0000001
 43
0.0000001
 44
0.0000000001
 40
0.0
 40
0.0
 40
0.0
 40
0.0
 40
0.006670426
 40
0.0132428558
 40
0.0197604389
 40
0.0262674972
 40
0.0328085955
 40
0.0394275349
 40
0.0461664844
 40
0.0530651785
 40
0.0601603817
 40
0.0674856043
 40
0.0750708334
 40
0.0829426969
 40
0.0911245181
 40
0.0996364836
 40
0.108496054
 40
0.1177180196
 40
0.1273149072
 40
0.1372972355
 40
0.1476735723
 40
0.1584509799
 40
0.1696350077
 40
0.1812298862
 40
0.193238807
 40
0.2056637902
 40
0.2317643651
 40
0.2595330063
 40
0.2889582287
 40
0.320019236
 40
0.3526872244
 40
0.3869264969
 40
0.4226953282
 40
0.4599466295
 40
0.498628448
 40
0.5386844578
 40
0.5800543964
 40
0.6226744033
 40
0.6664772894
 40
0.7113928366
 40
0.7573480367
 40
0.8042674556
 40
0.8520734042
 40
0.9006853467
 40
1.0
 40
1.0
 40
1.0
 40
1.0
 10
13.0924682309
 20
8.3729105542
 30
0.0
 10
13.0934982586
 20
8.3731208053
 30
0.0
 10
13.0955607817
 20
8.3734574094
 30
0.0
 10
13.0986688862
 20
8.3737028207
 30
0.0
 10
13.1017611544
 20
8.3736839032
 30
0.0
 10
13.1048354772
 20
8.3734005073
 30
0.0
 10
13.107890044
 20
8.3728527975
 30
0.0
 10
13.110923062
 20
8.3720413366
 30
0.0
 10
13.1139328309
 20
8.3709667153
 30
0.0
 10
13.1169178138
 20
8.3696298401
 30
0.0
 10
13.11987662
 20
8.3680317073
 30
0.0
 10
13.1228079015
 20
8.3661732945
 30
0.0
 10
13.1257104924
 20
8.3640557949
 30
0.0
 10
13.1285831915
 20
8.3616803191
 30
0.0
 10
13.1314248446
 20
8.3590480791
 30
0.0
 10
13.1342343656
 20
8.3561603962
 30
0.0
 10
13.1370105549
 20
8.3530185686
 30
0.0
 10
13.1397523187
 20
8.3496240792
 30
0.0
 10
13.1424585089
 20
8.3459784589
 30
0.0
 10
13.1451279345
 20
8.3420833246
 30
0.0
 10
13.1477595083
 20
8.3379404613
 30
0.0
 10
13.1503520316
 20
8.3335516997
 30
0.0
 10
13.1529043769
 20
8.3289190205
 30
0.0
 10
13.155415431
 20
8.3240445211
 30
0.0
 10
13.1578840461
 20
8.3189303666
 30
0.0
 10
13.1611715546
 20
8.3116755297
 30
0.0
 10
13.1651547321
 20
8.3020127391
 30
0.0
 10
13.1696727068
 20
8.2896843075
 30
0.0
 10
13.1739959493
 20
8.2764614303
 30
0.0
 10
13.1781165461
 20
8.2623680789
 30
0.0
 10
13.1820269475
 20
8.2474296078
 30
0.0
 10
13.1857199503
 20
8.2316730967
 30
0.0
 10
13.1891887342
 20
8.2151271496
 30
0.0
 10
13.1924268759
 20
8.1978218703
 30
0.0
 10
13.1954283894
 20
8.1797887963
 30
0.0
 10
13.1981877269
 20
8.1610608318
 30
0.0
 10
13.2006997815
 20
8.1416721695
 30
0.0
 10
13.2029598967
 20
8.1216582264
 30
0.0
 10
13.2049638895
 20
8.1010555814
 30
0.0
 10
13.2067080565
 20
8.0799019135
 30
0.0
 10
13.2081891737
 20
8.0582359037
 30
0.0
 10
13.2094044851
 20
8.036097184
 30
0.0
 10
13.2103517498
 20
8.0135262758
 30
0.0
 10
13.2112614051
 20
7.9826914568
 30
0.0
 10
13.2115247358
 20
7.95937668
 30
0.0
 10
13.2115247358
 20
7.9437245725
 30
0.0
  0
SPLINE
  5
3E7
100
AcDbEntity
  8
0
100
AcDbSpline
 62
7
  6
CONTINUOUS
 70
0
 71
3
 72
28
 73
24
 74
0
 42
0.0000001
 43
0.0000001
 44
0.0000000001
 40
0.0
 40
0.0
 40
0.0
 40
0.0
 40
0.0225649969
 40
0.0460260341
 40
0.0703603317
 40
0.095542863
 40
0.121546655
 40
0.148342784
 40
0.1759006378
 40
0.2041880692
 40
0.2331713792
 40
0.2628155707
 40
0.3239393
 40
0.3872569573
 40
0.4524492721
 40
0.519183935
 40
0.5871181057
 40
0.6559008608
 40
0.7251756397
 40
0.7945826299
 40
0.8637612407
 40
0.9323517299
 40
1.0
 40
1.0
 40
1.0
 40
1.0
 10
12.9305002772
 20
8.8665636121
 30
0.0
 10
12.9319941405
 20
8.8702283963
 30
0.0
 10
12.9349539444
 20
8.8777393001
 30
0.0
 10
12.9392349223
 20
8.8893139193
 30
0.0
 10
12.9434390748
 20
8.9014037839
 30
0.0
 10
12.947560546
 20
8.9139921188
 30
0.0
 10
12.9515935824
 20
8.9270615661
 30
0.0
 10
12.9555325928
 20
8.9405940473
 30
0.0
 10
12.9593721071
 20
8.9545708473
 30
0.0
 10
12.9631067521
 20
8.9689726269
 30
0.0
 10
12.9667313929
 20
8.9837794631
 30
0.0
 10
12.9714589614
 20
9.00424353
 30
0.0
 10
12.9770442504
 20
9.0306872704
 30
0.0
 10
12.9831660043
 20
9.0633805969
 30
0.0
 10
12.9887393394
 20
9.0971695401
 30
0.0
 10
12.9937331725
 20
9.1318669807
 30
0.0
 10
12.9981196364
 20
9.1672809209
 30
0.0
 10
13.0018743147
 20
9.2032152746
 30
0.0
 10
13.0049763247
 20
9.239471062
 30
0.0
 10
13.0074084391
 20
9.2758474996
 30
0.0
 10
13.0091571829
 20
9.3121430958
 30
0.0
 10
13.0102129628
 20
9.3481567729
 30
0.0
 10
13.0104530658
 20
9.3720515968
 30
0.0
 10
13.0104530658
 20
9.3839160787
 30
0.0
  0
ENDSEC
  0
SECTION
  2
OBJECTS
  0
DICTIONARY
  5
C
100
AcDbDictionary
280
0
281
1
  3
ACAD_GROUP
350
D
  3
ACAD_MLINESTYLE
350
17
  3
ACAD_LAYOUT
350
1A
  3
ACAD_PLOTSETTINGS
350
19
  3
ACAD_PLOTSTYLENAME
350
E
  3
ACAD_IMAGE_DICT
350
       3E9
  3
ACAD_IMAGE_VARS
350
       3EA
  3
ACAD_TABLESTYLE
350
       3EB
  0
IMAGEDEF_REACTOR
  5
3E8
100
AcDbRasterImageDefReactor
 90
2
330
28B
  0
DICTIONARY
  5
D
102
{ACAD_REACTORS
330
C
102
}
100
AcDbDictionary
280
0
281
1
  0
ACDBDICTIONARYWDFLT
  5
E
102
{ACAD_REACTORS
330
C
102
}
100
AcDbDictionary
281
1
  3
Normal
350
F
100
AcDbDictionaryWithDefault
340
F
  0
DICTIONARY
  5
3E9
330
C
100
AcDbDictionary
281
1
  3
BPL_assy_2_img_1
350
       3EE
  0
RASTERVARIABLES
  5
3EA
330
C
100
AcDbRasterVariables
 90
0
 70
0
 71
1
 72
5
  0
DICTIONARY
  5
17
102
{ACAD_REACTORS
330
C
102
}
100
AcDbDictionary
280
0
281
1
  3
Standard
350
18
  0
DICTIONARY
  5
3EB
330
C
100
AcDbDictionary
281
1
  3
Standard
350
       3EF
  3
Standard1
350
       3F0
  0
DICTIONARY
  5
19
102
{ACAD_REACTORS
330
C
102
}
100
AcDbDictionary
281
1
  0
DICTIONARY
  5
1A
102
{ACAD_REACTORS
330
C
102
}
100
AcDbDictionary
281
1
  3
Model
350
3EC
  3
Layout1
350
3ED
  0
ACDBPLACEHOLDER
  5
F
102
{ACAD_REACTORS
330
E
102
}
  0
MLINESTYLE
  5
18
102
{ACAD_REACTORS
330
17
102
}
100
AcDbMlineStyle
  2
STANDARD
 70
0
  3

 62
256
 51
90.0
 52
90.0
 71
2
 49
0.5
 62
256
  6
BYLAYER
 49
-0.5
 62
256
  6
BYLAYER
  0
LAYOUT
  5
3EC
102
{ACAD_REACTORS
330
1A
102
}
100
AcDbPlotSettings
  1

  2
none_device
  4
ANSI_C_(22.00_x_17.00_Inches)
  6

 40
0.0
 41
0.0
 42
0.0
 43
0.0
 44
558.8
 45
431.8
 46
0.0
 47
0.0
 48
0.0
 49
0.0
140
0.0
141
0.0
142
1.0
143
1.0
 70
1024
 72
0
 73
0
 74
0
  7

 75
0
147
1.0
148
0.0
149
0.0
100
AcDbLayout
  1
Model
 70
0
 71
0
 10
0.0
 20
0.0
 11
22.0
 21
17.0
 12
0.0
 22
0.0
 32
0.0
 14
0.0
 24
0.0
 34
0.0
 15
0.0
 25
0.0
 35
0.0
146
0.0
 13
0.0
 23
0.0
 33
0.0
 16
1.0
 26
0.0
 36
0.0
 17
0.0
 27
1.0
 37
0.0
 76
0
330
20C
345
0
346
0
  0
LAYOUT
  5
3ED
102
{ACAD_REACTORS
330
1A
102
}
100
AcDbPlotSettings
  1

  2
none_device
  4
ANSI_C_(22.00_x_17.00_Inches)
  6

 40
0.0
 41
0.0
 42
0.0
 43
0.0
 44
558.8
 45
431.8
 46
0.0
 47
0.0
 48
0.0
 49
0.0
140
0.0
141
0.0
142
1.0
143
1.0
 70
0
 72
0
 73
0
 74
0
  7

 75
0
147
1.0
148
0.0
149
0.0
100
AcDbLayout
  1
Layout1
 70
0
 71
1
 10
0.0
 20
0.0
 11
22.0
 21
17.0
 12
0.0
 22
0.0
 32
0.0
 14
0.0
 24
0.0
 34
0.0
 15
0.0
 25
0.0
 35
0.0
146
0.0
 13
0.0
 23
0.0
 33
0.0
 16
1.0
 26
0.0
 36
0.0
 17
0.0
 27
1.0
 37
0.0
 76
0
330
20D
345
0
346
0
  0
IMAGEDEF
  5
3EE
102
{ACAD_REACTORS
330
3E9
330
3E8
102
}
100
AcDbRasterImageDef
 90
0
  1
BPL_assy_2_img_1.png
 10
369.0
 20
92.0
 11
0.0066666667
 21
0.0066666667
280
1
281
0
  0
TABLESTYLE
  5
3EF
102
{ACAD_REACTORS
330
3EB
330
28E
330
28F
102
}
330
3EB
100
AcDbTableStyle
  3
Standard
 70
0
 71
0
 40
0.06
 41
0.06
280
1
281
1
  7
Standard
140
0.18
170
1
 62
0
 63
7
283
0
  7
Standard
140
0.18
170
1
 62
0
 63
7
283
0
  7
Standard
140
0.18
170
1
 62
0
 63
7
283
0
  0
TABLESTYLE
  5
3F0
102
{ACAD_REACTORS
330
3EB
330
28D
102
}
330
3EB
100
AcDbTableStyle
  3
Standard1
 70
1
 71
0
 40
0.06
 41
0.06
280
1
281
1
  7
Standard
140
0.18
170
1
 62
0
 63
7
283
0
  7
Standard
140
0.18
170
1
 62
0
 63
7
283
0
  7
Standard
140
0.18
170
1
 62
0
 63
7
283
0
  0
ENDSEC
  0
EOF
