999
DXF file: BPK_assy_2.dxf
999
Pro/ENGINEER 2014200 by Parametric Technology Corporation
  0
SECTION
  2
HEADER
  9
$ACADVER
  1
AC1021
  9
$DWGCODEPAGE
  3
ANSI_1252
  9
$EXTMAX
 10
22.0
 20
17.0
 30
0.0
  9
$EXTMIN
 10
0.0
 20
0.0
 30
0.0
  9
$LIMMIN
 10
0.0
 20
0.0
  9
$LIMMAX
 10
22.0
 20
17.0
  9
$VIEWCTR
 10
11.0
 20
8.5
  9
$VIEWSIZE
 40
17.0
  9
$CLAYER
  8
0
  9
$LTSCALE
 40
1.21
  9
$CELTYPE
  6
BYLAYER
  9
$DIMSCALE
 40
1.0
  9
$DIMASZ
 40
0.1875
  9
$DIMEXO
 40
0.0625
  9
$DIMDLI
 40
0.836
  9
$DIMEXE
 40
0.125
  9
$DIMCEN
 40
0.198
  9
$DIMLFAC
 40
1.0
  9
$DIMBLK
  1
_FILLED
  9
$DIMTXT
 40
0.1
  9
$DIMTOL
 70
0
  9
$DIMLIM
 70
0
  9
$DIMTFAC
 40
1.0
  9
$DIMGAP
 40
0.09
  9
$DIMDSEP
 70
46
  9
$AUNITS
 70
0
  9
$PDMODE
 70
3
  9
$PDSIZE
 40
0.3125
  9
$HANDSEED
  5
3EC
  9
$TILEMODE
 70
1
  9
$MEASUREMENT
 70
0
  9
$INSUNITS
 70
1
  0
ENDSEC
  0
SECTION
  2
CLASSES
  0
CLASS
  1
ACDBDICTIONARYWDFLT
  2
AcDbDictionaryWithDefault
  3
AutoCAD 2000
 90
0
 91
1
280
0
281
0
  0
CLASS
  1
ACDBPLACEHOLDER
  2
AcDbPlaceHolder
  3
AutoCAD 2000
 90
0
 91
1
280
0
281
0
  0
CLASS
  1
LAYOUT
  2
AcDbLayout
  3
AutoCAD 2000
 90
0
 91
0
280
0
281
0
  0
CLASS
  1
RASTERVARIABLES
  2
AcDbRasterVariables
  3
ISM
 90
0
 91
1
280
0
281
0
  0
CLASS
  1
IMAGEDEF
  2
AcDbRasterImageDef
  3
ISM
 90
0
 91
1
280
0
281
0
  0
CLASS
  1
IMAGEDEF_REACTOR
  2
AcDbRasterImageDefReactor
  3
ISM
 90
0
 91
1
280
0
281
0
  0
CLASS
  1
IMAGE
  2
AcDbRasterImage
  3
ISM
 90
127
 91
1
280
0
281
1
  0
CLASS
  1
TABLESTYLE
  2
AcDbTableStyle
  3
ObjectDBX Classes
 90
2047
 91
1
280
0
281
0
  0
CLASS
  1
ACAD_TABLE
  2
AcDbTable
  3
ObjectDBX Classes
 90
1025
 91
3
280
0
281
1
  0
ENDSEC
  0
SECTION
  2
TABLES
  0
TABLE
  2
VPORT
  5
8
100
AcDbSymbolTable
 70
2
  0
VPORT
  5
1F4
100
AcDbSymbolTableRecord
100
AcDbViewportTableRecord
  2
*ACTIVE
 70
0
 10
0.0
 20
0.0
 11
1.0
 21
1.0
 12
11.0
 22
8.5
 13
0.0
 23
0.0
 14
1.0
 24
1.0
 15
0.0
 25
0.0
 16
0.0
 26
0.0
 36
1.0
 17
0.0
 27
0.0
 37
0.0
 40
17.0
 41
1.2941176471
 42
50.0
 43
0.0
 44
0.0
 50
0.0
 51
0.0
 71
0
 72
100
 73
1
 74
1
 75
0
 76
0
 77
0
 78
0
  0
ENDTAB
  0
TABLE
  2
LTYPE
  5
5
100
AcDbSymbolTable
 70
6
  0
LTYPE
  5
14
100
AcDbSymbolTableRecord
100
AcDbLinetypeTableRecord
  2
BYBLOCK
 70
0
  3

 72
65
 73
0
 40
0.0
  0
LTYPE
  5
15
100
AcDbSymbolTableRecord
100
AcDbLinetypeTableRecord
  2
BYLAYER
 70
0
  3

 72
65
 73
0
 40
0.0
  0
LTYPE
  5
16
100
AcDbSymbolTableRecord
100
AcDbLinetypeTableRecord
  2
CONTINUOUS
 70
64
  3
Solid line
 72
65
 73
0
 40
0.0
  0
LTYPE
  5
1F5
100
AcDbSymbolTableRecord
100
AcDbLinetypeTableRecord
  2
CENTER
 70
64
  3
____ _ ____ _ ____ _ ____ _ ____ _ ____ _ ____
 72
65
 73
4
 40
0.6
 49
0.375
 74
0
 49
-0.075
 74
0
 49
0.075
 74
0
 49
-0.075
 74
0
  0
LTYPE
  5
1F6
100
AcDbSymbolTableRecord
100
AcDbLinetypeTableRecord
  2
HIDDEN
 70
64
  3
- - - - - - - - - - - - - - - - - - - -
 72
65
 73
2
 40
0.2
 49
0.1
 74
0
 49
-0.1
 74
0
  0
LTYPE
  5
1F7
100
AcDbSymbolTableRecord
100
AcDbLinetypeTableRecord
  2
PHANTOM
 70
64
  3
_____ _ _ _____ _ _ _____ _ _ _____
 72
65
 73
6
 40
0.8
 49
0.45
 74
0
 49
-0.05
 74
0
 49
0.1
 74
0
 49
-0.05
 74
0
 49
0.1
 74
0
 49
-0.05
 74
0
  0
LTYPE
  5
1F8
100
AcDbSymbolTableRecord
100
AcDbLinetypeTableRecord
  2
DOT
 70
64
  3
. . . . . . . . . . . . . . . . . . . .
 72
65
 73
2
 40
0.2
 49
0.1
 74
0
 49
-0.1
 74
0
  0
LTYPE
  5
1F9
100
AcDbSymbolTableRecord
100
AcDbLinetypeTableRecord
  2
DASHED
 70
64
  3
- - - - - - - - - - - - - - - - - - - -
 72
65
 73
2
 40
0.2
 49
0.1
 74
0
 49
-0.1
 74
0
  0
ENDTAB
  0
TABLE
  2
LAYER
  5
2
100
AcDbSymbolTable
 70
36
  0
LAYER
  5
10
100
AcDbSymbolTableRecord
100
AcDbLayerTableRecord
  2
0
 70
0
 62
7
  6
CONTINUOUS
370
-3
390
F
  0
LAYER
  5
1FA
100
AcDbSymbolTableRecord
100
AcDbLayerTableRecord
  2
DEFAULT_1
 70
0
 62
7
  6
CENTER
370
-3
390
F
  0
LAYER
  5
1FB
100
AcDbSymbolTableRecord
100
AcDbLayerTableRecord
  2
DEFAULT_2
 70
0
 62
8
  6
HIDDEN
370
-3
390
F
  0
LAYER
  5
1FC
100
AcDbSymbolTableRecord
100
AcDbLayerTableRecord
  2
DEFAULT_3
 70
0
 62
7
  6
PHANTOM
370
-3
390
F
  0
LAYER
  5
1FD
100
AcDbSymbolTableRecord
100
AcDbLayerTableRecord
  2
01___PRT_ALL_DTM_PLN
 70
0
 62
7
  6
CONTINUOUS
370
-3
390
F
  0
LAYER
  5
1FE
100
AcDbSymbolTableRecord
100
AcDbLayerTableRecord
  2
01___PRT_DEF_DTM_PLN
 70
0
 62
7
  6
CONTINUOUS
370
-3
390
F
  0
LAYER
  5
1FF
100
AcDbSymbolTableRecord
100
AcDbLayerTableRecord
  2
02___PRT_ALL_AXES
 70
0
 62
7
  6
CONTINUOUS
370
-3
390
F
  0
LAYER
  5
200
100
AcDbSymbolTableRecord
100
AcDbLayerTableRecord
  2
03___PRT_ALL_CURVES
 70
0
 62
7
  6
CONTINUOUS
370
-3
390
F
  0
LAYER
  5
201
100
AcDbSymbolTableRecord
100
AcDbLayerTableRecord
  2
04___PRT_ALL_DTM_PNT
 70
0
 62
7
  6
CONTINUOUS
370
-3
390
F
  0
LAYER
  5
202
100
AcDbSymbolTableRecord
100
AcDbLayerTableRecord
  2
05___PRT_ALL_DTM_CSYS
 70
0
 62
7
  6
CONTINUOUS
370
-3
390
F
  0
LAYER
  5
203
100
AcDbSymbolTableRecord
100
AcDbLayerTableRecord
  2
05___PRT_DEF_DTM_CSYS
 70
0
 62
7
  6
CONTINUOUS
370
-3
390
F
  0
LAYER
  5
204
100
AcDbSymbolTableRecord
100
AcDbLayerTableRecord
  2
06___PRT_ALL_SURFS
 70
0
 62
7
  6
CONTINUOUS
370
-3
390
F
  0
LAYER
  5
205
100
AcDbSymbolTableRecord
100
AcDbLayerTableRecord
  2
DATUM_PLANES
 70
0
 62
7
  6
CONTINUOUS
370
-3
390
F
  0
LAYER
  5
206
100
AcDbSymbolTableRecord
100
AcDbLayerTableRecord
  2
PORT_AREAS
 70
0
 62
7
  6
CONTINUOUS
370
-3
390
F
  0
LAYER
  5
207
100
AcDbSymbolTableRecord
100
AcDbLayerTableRecord
  2
SUNNBOMCOSMETIC
 70
0
 62
7
  6
CONTINUOUS
370
-3
390
F
  0
LAYER
  5
208
100
AcDbSymbolTableRecord
100
AcDbLayerTableRecord
  2
SUNNBOMSTAMPING
 70
0
 62
7
  6
CONTINUOUS
370
-3
390
F
  0
LAYER
  5
209
100
AcDbSymbolTableRecord
100
AcDbLayerTableRecord
  2
THREADS
 70
0
 62
7
  6
CONTINUOUS
370
-3
390
F
  0
ENDTAB
  0
TABLE
  2
STYLE
  5
3
100
AcDbSymbolTable
 70
1
  0
STYLE
  5
11
100
AcDbSymbolTableRecord
100
AcDbTextStyleTableRecord
  2
STANDARD
 70
0
 40
0.0
 41
0.8
 50
0.0
 71
0
 42
0.2
  3
txt
  4

  0
STYLE
  5
20A
100
AcDbSymbolTableRecord
100
AcDbTextStyleTableRecord
  2
TEXTSTYLE_1
 70
0
 40
0.0
 41
0.8
 50
0.0
 71
0
 42
0.2
  3
gdt
  4

  0
ENDTAB
  0
TABLE
  2
VIEW
  5
6
100
AcDbSymbolTable
 70
0
  0
ENDTAB
  0
TABLE
  2
UCS
  5
7
100
AcDbSymbolTable
 70
0
  0
ENDTAB
  0
TABLE
  2
APPID
  5
9
100
AcDbSymbolTable
 70
1
  0
APPID
  5
20B
100
AcDbSymbolTableRecord
100
AcDbRegAppTableRecord
  2
ACAD
 70
0
  0
ENDTAB
  0
TABLE
  2
BLOCK_RECORD
  5
1
100
AcDbSymbolTable
 70
0
  0
BLOCK_RECORD
  5
20C
100
AcDbSymbolTableRecord
100
AcDbBlockTableRecord
  2
*Model_Space
  0
BLOCK_RECORD
  5
20D
100
AcDbSymbolTableRecord
100
AcDbBlockTableRecord
  2
*Paper_Space
  0
BLOCK_RECORD
  5
20E
100
AcDbSymbolTableRecord
100
AcDbBlockTableRecord
  2
SUN_FIRST_THIRD_ANGLE_BL0
  0
BLOCK_RECORD
  5
20F
100
AcDbSymbolTableRecord
100
AcDbBlockTableRecord
  2
*T1
  0
BLOCK_RECORD
  5
210
100
AcDbSymbolTableRecord
100
AcDbBlockTableRecord
  2
*T2
  0
BLOCK_RECORD
  5
211
100
AcDbSymbolTableRecord
100
AcDbBlockTableRecord
  2
*T3
  0
ENDTAB
  0
TABLE
  2
DIMSTYLE
  5
A
100
AcDbSymbolTable
 70
1
100
AcDbDimStyleTable
 71
0
  0
DIMSTYLE
105
212
100
AcDbSymbolTableRecord
100
AcDbDimStyleTableRecord
  2
STANDARD
 70
0
  3

  4

 40
1.0
 41
0.1875
 42
0.0625
 43
0.38
 44
0.125
 45
0.0
 46
0.0
 47
0.001
 48
0.001
140
0.1
141
0.09
142
0.0
143
25.4
144
1.0
145
0.0
146
1.0
147
0.09
 71
0.0
 72
0.0
 73
1
 74
1
 75
0
 76
0
 77
0
 78
4
170
0
171
2
172
0
173
0
174
0
175
0
176
0
177
0
178
0
270
2
271
3
272
3
273
2
274
2
275
0
280
0
281
0
282
0
283
1
284
4
285
0
286
0
287
3
288
0
340
11
278
46
  0
ENDTAB
  0
ENDSEC
  0
SECTION
  2
BLOCKS
  0
BLOCK
  5
20
100
AcDbEntity
  8
0
100
AcDbBlockBegin
  2
*Model_Space
 70
0
 10
0.0
 20
0.0
 30
0.0
  3
*Model_Space
  1

  0
ENDBLK
  5
21
100
AcDbEntity
  8
0
100
AcDbBlockEnd
  0
BLOCK
  5
1C
100
AcDbEntity
  8
0
100
AcDbBlockBegin
  2
*Paper_Space
 70
0
 10
0.0
 20
0.0
 30
0.0
  3
*Paper_Space
  1

  0
ENDBLK
  5
1D
100
AcDbEntity
  8
0
100
AcDbBlockEnd
  0
BLOCK
  5
213
100
AcDbEntity
  8
0
100
AcDbBlockBegin
 62
2
  6
CONTINUOUS
  2
SUN_FIRST_THIRD_ANGLE_BL0
 70
64
 10
20.4816717061
 20
1.2289683772
  3
SUN_FIRST_THIRD_ANGLE_BL0
  1

  0
TEXT
  5
214
100
AcDbEntity
  8
0
100
AcDbText
 62
2
  6
CONTINUOUS
 10
19.4750896608
 20
1.4136269581
  7
STANDARD
 40
0.08
  1
FIRST ANGLE
 41
0.8
 72
0
100
AcDbText
  0
TEXT
  5
215
100
AcDbEntity
  8
0
100
AcDbText
 62
2
  6
CONTINUOUS
 10
20.7842537513
 20
1.4047600029
  7
STANDARD
 40
0.08
  1
THIRD ANGLE
 41
0.8
 72
0
100
AcDbText
  0
LINE
  5
216
100
AcDbEntity
  8
0
100
AcDbLine
 62
7
  6
CONTINUOUS
 10
19.4767170086
 20
1.1727031207
 11
19.6334271527
 21
1.1717972817
  0
LINE
  5
217
100
AcDbEntity
  8
0
100
AcDbLine
 62
7
  6
CONTINUOUS
 10
19.6596964832
 20
1.1717972817
 11
19.6950230232
 21
1.171593082
  0
LINE
  5
218
100
AcDbEntity
  8
0
100
AcDbLine
 62
7
  6
CONTINUOUS
 10
19.7194818561
 20
1.1708914427
 11
19.8852396156
 21
1.1699333054
  0
LINE
  5
219
100
AcDbEntity
  8
0
100
AcDbLine
 62
7
  6
CONTINUOUS
 10
19.4758111696
 20
1.2723454088
 11
19.88525039
 21
1.3511534004
  0
LINE
  5
21A
100
AcDbEntity
  8
0
100
AcDbLine
 62
7
  6
CONTINUOUS
 10
19.88525039
 20
1.3511534004
 11
19.8831348489
 21
0.9851647912
  0
LINE
  5
21B
100
AcDbEntity
  8
0
100
AcDbLine
 62
7
  6
CONTINUOUS
 10
19.8831348489
 20
0.9851647912
 11
19.4767170086
 21
1.0658141206
  0
LINE
  5
21C
100
AcDbEntity
  8
0
100
AcDbLine
 62
7
  6
CONTINUOUS
 10
19.4767170086
 20
1.0658141206
 11
19.4779056764
 21
1.2714536432
  0
CIRCLE
  5
21D
100
AcDbEntity
  8
0
100
AcDbCircle
 62
7
  6
CONTINUOUS
 10
20.2068232291
 20
1.1717972817
 40
0.175742101
  0
CIRCLE
  5
21E
100
AcDbEntity
  8
0
100
AcDbCircle
 62
7
  6
CONTINUOUS
 10
20.2068232291
 20
1.1717972817
 40
0.1005522074
  0
LINE
  5
21F
100
AcDbEntity
  8
0
100
AcDbLine
 62
7
  6
CONTINUOUS
 10
20.2077290681
 20
1.3756110529
 11
20.2071171714
 21
1.2379342989
  0
LINE
  5
220
100
AcDbEntity
  8
0
100
AcDbLine
 62
7
  6
CONTINUOUS
 10
20.2077290681
 20
1.2016899681
 11
20.2074674401
 21
1.1428236749
  0
LINE
  5
221
100
AcDbEntity
  8
0
100
AcDbLine
 62
7
  6
CONTINUOUS
 10
20.208634907
 20
1.101141841
 11
20.2080230104
 21
0.963465087
  0
LINE
  5
222
100
AcDbEntity
  8
0
100
AcDbLine
 62
7
  6
CONTINUOUS
 10
20.0066328138
 20
1.1745147986
 11
20.1443095678
 21
1.1739029019
  0
LINE
  5
223
100
AcDbEntity
  8
0
100
AcDbLine
 62
7
  6
CONTINUOUS
 10
20.1832714155
 20
1.1727031207
 11
20.238153505
 21
1.172335442
  0
LINE
  5
224
100
AcDbEntity
  8
0
100
AcDbLine
 62
7
  6
CONTINUOUS
 10
20.2756669918
 20
1.1717972817
 11
20.407916871
 21
1.1712095044
  0
CIRCLE
  5
225
100
AcDbEntity
  8
0
100
AcDbCircle
 62
7
  6
CONTINUOUS
 10
20.7509457401
 20
1.1693297793
 40
0.1722024983
  0
CIRCLE
  5
226
100
AcDbEntity
  8
0
100
AcDbCircle
 62
7
  6
CONTINUOUS
 10
20.7509457401
 20
1.1693297793
 40
0.0985164967
  0
LINE
  5
227
100
AcDbEntity
  8
0
100
AcDbLine
 62
7
  6
CONTINUOUS
 10
20.7169767782
 20
1.170462078
 11
20.7825395137
 21
1.1682766535
  0
LINE
  5
228
100
AcDbEntity
  8
0
100
AcDbLine
 62
7
  6
CONTINUOUS
 10
20.8177513651
 20
1.1693297793
 11
20.947965719
 21
1.1693297793
  0
LINE
  5
229
100
AcDbEntity
  8
0
100
AcDbLine
 62
7
  6
CONTINUOUS
 10
20.6875370113
 20
1.170462078
 11
20.5573226574
 21
1.170462078
  0
LINE
  5
22A
100
AcDbEntity
  8
0
100
AcDbLine
 62
7
  6
CONTINUOUS
 10
20.7486811426
 20
1.1987695462
 11
20.7486811426
 21
1.1432869085
  0
LINE
  5
22B
100
AcDbEntity
  8
0
100
AcDbLine
 62
7
  6
CONTINUOUS
 10
20.7498134414
 20
1.1059210505
 11
20.7498134414
 21
0.9757066966
  0
LINE
  5
22C
100
AcDbEntity
  8
0
100
AcDbLine
 62
7
  6
CONTINUOUS
 10
20.7486811426
 20
1.2338708068
 11
20.7486811426
 21
1.3640851607
  0
LINE
  5
22D
100
AcDbEntity
  8
0
100
AcDbLine
 62
7
  6
CONTINUOUS
 10
21.0702539817
 20
1.2701043662
 11
21.4790138229
 21
1.3448360823
  0
LINE
  5
22E
100
AcDbEntity
  8
0
100
AcDbLine
 62
7
  6
CONTINUOUS
 10
21.4790138229
 20
1.3448360823
 11
21.4790138229
 21
0.9779712941
  0
LINE
  5
22F
100
AcDbEntity
  8
0
100
AcDbLine
 62
7
  6
CONTINUOUS
 10
21.4790138229
 20
0.9779712941
 11
21.069121683
 21
1.0617614
  0
LINE
  5
230
100
AcDbEntity
  8
0
100
AcDbLine
 62
7
  6
CONTINUOUS
 10
21.0702539817
 20
1.2701043662
 11
21.069121683
 21
1.0617614
  0
LINE
  5
231
100
AcDbEntity
  8
0
100
AcDbLine
 62
7
  6
CONTINUOUS
 10
21.4790138229
 20
1.1693297793
 11
21.3159628059
 21
1.1693297793
  0
LINE
  5
232
100
AcDbEntity
  8
0
100
AcDbLine
 62
7
  6
CONTINUOUS
 10
21.2876553377
 20
1.1693297793
 11
21.2502894796
 21
1.1693297793
  0
LINE
  5
233
100
AcDbEntity
  8
0
100
AcDbLine
 62
7
  6
CONTINUOUS
 10
21.2208497126
 20
1.1659328831
 11
21.0713862804
 21
1.1659328831
  0
LINE
  5
234
100
AcDbEntity
  8
0
100
AcDbLine
 62
7
  6
CONTINUOUS
 10
20.4796138713
 20
1.5284908897
 11
20.4766766948
 21
0.9294458646
  0
ENDBLK
  5
235
100
AcDbEntity
  8
0
  6
BYBLOCK
 62
0
100
AcDbBlockEnd
  0
BLOCK
  5
236
100
AcDbEntity
  8
0
100
AcDbBlockBegin
  2
*T1
 70
1
 10
0.0
 20
0.0
  3
*T1
  1

  0
LINE
  5
237
100
AcDbEntity
  8
0
100
AcDbLine
 62
2
  6
CONTINUOUS
 10
9.275
 20
0.0
 11
-0.0
 21
0.0
  0
LINE
  5
238
100
AcDbEntity
  8
0
100
AcDbLine
 62
2
  6
CONTINUOUS
 10
9.275
 20
0.0
 11
9.275
 21
1.25
  0
LINE
  5
239
100
AcDbEntity
  8
0
100
AcDbLine
 62
2
  6
CONTINUOUS
 10
9.275
 20
0.625
 11
-0.0
 21
0.625
  0
LINE
  5
23A
100
AcDbEntity
  8
0
100
AcDbLine
 62
2
  6
CONTINUOUS
 10
9.275
 20
1.25
 11
-0.0
 21
1.25
  0
LINE
  5
23B
100
AcDbEntity
  8
0
100
AcDbLine
 62
2
  6
CONTINUOUS
 10
6.8
 20
0.0
 11
6.8
 21
1.25
  0
LINE
  5
23C
100
AcDbEntity
  8
0
100
AcDbLine
 62
2
  6
CONTINUOUS
 10
6.4
 20
0.0
 11
6.4
 21
0.625
  0
LINE
  5
23D
100
AcDbEntity
  8
0
100
AcDbLine
 62
2
  6
CONTINUOUS
 10
5.9
 20
0.0
 11
5.9
 21
0.625
  0
LINE
  5
23E
100
AcDbEntity
  8
0
100
AcDbLine
 62
2
  6
CONTINUOUS
 10
5.2
 20
0.0
 11
5.2
 21
0.625
  0
LINE
  5
23F
100
AcDbEntity
  8
0
100
AcDbLine
 62
2
  6
CONTINUOUS
 10
4.1
 20
0.0
 11
4.1
 21
1.25
  0
LINE
  5
240
100
AcDbEntity
  8
0
100
AcDbLine
 62
2
  6
CONTINUOUS
 10
-0.0
 20
0.0
 11
-0.0
 21
1.25
  0
MTEXT
  5
241
100
AcDbEntity
  8
0
100
AcDbMText
 62
2
  6
CONTINUOUS
  7
STANDARD
 71
2
 72
1
 10
6.6
 20
0.325
 30
0.0
 11
1.0
 21
0.0
 31
0.0
 44
0.9
  1
2
 40
0.125
 41
0.2
  0
MTEXT
  5
242
100
AcDbEntity
  8
0
100
AcDbMText
 62
2
  6
CONTINUOUS
  7
STANDARD
 71
2
 72
1
 10
6.15
 20
0.325
 30
0.0
 11
1.0
 21
0.0
 31
0.0
 44
0.9
  1
C
 40
0.125
 41
0.2
  0
MTEXT
  5
243
100
AcDbEntity
  8
0
100
AcDbMText
 62
2
  6
CONTINUOUS
  7
STANDARD
 71
2
 72
1
 10
5.55
 20
0.325
 30
0.0
 11
1.0
 21
0.0
 31
0.0
 44
0.9
  1
1.000
 40
0.125
 41
1.0
  0
MTEXT
  5
244
100
AcDbEntity
  8
0
100
AcDbMText
 62
2
  6
CONTINUOUS
  7
STANDARD
 71
2
 72
1
 10
4.65
 20
0.325
 30
0.0
 11
1.0
 21
0.0
 31
0.0
 44
0.9
  1
Feb-23-22
 40
0.125
 41
1.8
  0
MTEXT
  5
245
100
AcDbEntity
  8
0
100
AcDbMText
 62
2
  6
CONTINUOUS
  7
STANDARD
 71
2
 72
1
 10
2.05
 20
0.4625
 30
0.0
 11
1.0
 21
0.0
 31
0.0
 44
0.9
  1
T-2A Line mount\PCushion lock with make up checks
 40
0.125
 41
6.4
  0
MTEXT
  5
246
100
AcDbEntity
  8
0
100
AcDbMText
 62
2
  6
CONTINUOUS
  7
STANDARD
 71
1
 72
1
 10
6.45
 20
0.5625
 30
0.0
 11
1.0
 21
0.0
 31
0.0
 44
0.9
  1
SHEET
 40
0.06
 41
0.48
  0
MTEXT
  5
247
100
AcDbEntity
  8
0
100
AcDbMText
 62
2
  6
CONTINUOUS
  7
STANDARD
 71
1
 72
1
 10
5.95
 20
0.5625
 30
0.0
 11
1.0
 21
0.0
 31
0.0
 44
0.9
  1
DWG SIZE
 40
0.06
 41
0.768
  0
MTEXT
  5
248
100
AcDbEntity
  8
0
100
AcDbMText
 62
2
  6
CONTINUOUS
  7
STANDARD
 71
1
 72
1
 10
5.25
 20
0.5625
 30
0.0
 11
1.0
 21
0.0
 31
0.0
 44
0.9
  1
SCALE
 40
0.06
 41
0.48
  0
MTEXT
  5
249
100
AcDbEntity
  8
0
100
AcDbMText
 62
2
  6
CONTINUOUS
  7
STANDARD
 71
1
 72
1
 10
4.15
 20
0.5625
 30
0.0
 11
1.0
 21
0.0
 31
0.0
 44
0.9
  1
DATE
 40
0.06
 41
0.384
  0
MTEXT
  5
24A
100
AcDbEntity
  8
0
100
AcDbMText
 62
2
  6
CONTINUOUS
  7
STANDARD
 71
1
 72
1
 10
0.05
 20
0.5625
 30
0.0
 11
1.0
 21
0.0
 31
0.0
 44
0.9
  1
DESCRIPTION
 40
0.06
 41
1.056
  0
MTEXT
  5
24B
100
AcDbEntity
  8
0
100
AcDbMText
 62
2
  6
CONTINUOUS
  7
STANDARD
 71
2
 72
1
 10
5.45
 20
1.0375
 30
0.0
 11
1.0
 21
0.0
 31
0.0
 44
0.9
  1
ALL DIMENSIONS IN INCH\PVIEWS ARE THIRD ANGLE
 40
0.12
 41
4.224
  0
MTEXT
  5
24C
100
AcDbEntity
  8
0
100
AcDbMText
 62
2
  6
CONTINUOUS
  7
STANDARD
 71
2
 72
1
 10
2.05
 20
0.95
 30
0.0
 11
1.0
 21
0.0
 31
0.0
 44
0.9
  1
BPK
 40
0.125
 41
0.6
  0
MTEXT
  5
24D
100
AcDbEntity
  8
0
100
AcDbMText
 62
2
  6
CONTINUOUS
  7
STANDARD
 71
1
 72
1
 10
0.05
 20
1.1875
 30
0.0
 11
1.0
 21
0.0
 31
0.0
 44
0.9
  1
MODEL
 40
0.06
 41
0.48
  0
ENDBLK
  5
24E
100
AcDbEntity
  8
0
  6
BYBLOCK
 62
0
100
AcDbBlockEnd
  0
BLOCK
  5
24F
100
AcDbEntity
  8
0
100
AcDbBlockBegin
  2
*T2
 70
1
 10
0.0
 20
0.0
  3
*T2
  1

  0
LINE
  5
250
100
AcDbEntity
  8
0
100
AcDbLine
 62
2
  6
CONTINUOUS
 10
0.0
 20
0.0
 11
9.055
 21
0.0
  0
LINE
  5
251
100
AcDbEntity
  8
0
100
AcDbLine
 62
2
  6
CONTINUOUS
 10
0.0
 20
0.0
 11
0.0
 21
-2.594
  0
LINE
  5
252
100
AcDbEntity
  8
0
100
AcDbLine
 62
2
  6
CONTINUOUS
 10
0.0
 20
-0.344
 11
9.055
 21
-0.344
  0
LINE
  5
253
100
AcDbEntity
  8
0
100
AcDbLine
 62
2
  6
CONTINUOUS
 10
0.0
 20
-0.594
 11
9.055
 21
-0.594
  0
LINE
  5
254
100
AcDbEntity
  8
0
100
AcDbLine
 62
2
  6
CONTINUOUS
 10
0.0
 20
-0.844
 11
9.055
 21
-0.844
  0
LINE
  5
255
100
AcDbEntity
  8
0
100
AcDbLine
 62
2
  6
CONTINUOUS
 10
0.0
 20
-1.094
 11
9.055
 21
-1.094
  0
LINE
  5
256
100
AcDbEntity
  8
0
100
AcDbLine
 62
2
  6
CONTINUOUS
 10
0.0
 20
-1.344
 11
9.055
 21
-1.344
  0
LINE
  5
257
100
AcDbEntity
  8
0
100
AcDbLine
 62
2
  6
CONTINUOUS
 10
0.0
 20
-1.594
 11
9.055
 21
-1.594
  0
LINE
  5
258
100
AcDbEntity
  8
0
100
AcDbLine
 62
2
  6
CONTINUOUS
 10
0.0
 20
-1.844
 11
9.055
 21
-1.844
  0
LINE
  5
259
100
AcDbEntity
  8
0
100
AcDbLine
 62
2
  6
CONTINUOUS
 10
0.0
 20
-2.094
 11
9.055
 21
-2.094
  0
LINE
  5
25A
100
AcDbEntity
  8
0
100
AcDbLine
 62
2
  6
CONTINUOUS
 10
0.0
 20
-2.344
 11
9.055
 21
-2.344
  0
LINE
  5
25B
100
AcDbEntity
  8
0
100
AcDbLine
 62
2
  6
CONTINUOUS
 10
0.0
 20
-2.594
 11
9.055
 21
-2.594
  0
LINE
  5
25C
100
AcDbEntity
  8
0
100
AcDbLine
 62
2
  6
CONTINUOUS
 10
3.055
 20
0.0
 11
3.055
 21
-2.594
  0
LINE
  5
25D
100
AcDbEntity
  8
0
100
AcDbLine
 62
2
  6
CONTINUOUS
 10
9.055
 20
0.0
 11
9.055
 21
-2.594
  0
MTEXT
  5
25E
100
AcDbEntity
  8
0
100
AcDbMText
 62
2
  6
CONTINUOUS
  7
STANDARD
 71
2
 72
1
 10
1.5275
 20
-0.0995
 30
0.0
 11
1.0
 21
0.0
 31
0.0
 44
0.9
  1
Technical Data
 40
0.145
 41
3.248
  0
MTEXT
  5
25F
100
AcDbEntity
  8
0
100
AcDbMText
 62
2
  6
CONTINUOUS
  7
STANDARD
 71
2
 72
1
 10
4.555
 20
-0.0995
 30
0.0
 11
1.0
 21
0.0
 31
0.0
 44
0.9
  1
U.S. Units
 40
0.145
 41
2.32
  0
MTEXT
  5
260
100
AcDbEntity
  8
0
100
AcDbMText
 62
2
  6
CONTINUOUS
  7
STANDARD
 71
2
 72
1
 10
7.555
 20
-0.0995
 30
0.0
 11
1.0
 21
0.0
 31
0.0
 44
0.9
  1
Metric Units
 40
0.145
 41
2.784
  0
MTEXT
  5
261
100
AcDbEntity
  8
0
100
AcDbMText
 62
2
  6
CONTINUOUS
  7
STANDARD
 71
2
 72
1
 10
1.5275
 20
-0.4065
 30
0.0
 11
1.0
 21
0.0
 31
0.0
 44
0.9
  1
Cavity
 40
0.125
 41
1.2
  0
MTEXT
  5
262
100
AcDbEntity
  8
0
100
AcDbMText
 62
2
  6
CONTINUOUS
  7
STANDARD
 71
2
 72
1
 10
6.055
 20
-0.4065
 30
0.0
 11
1.0
 21
0.0
 31
0.0
 44
0.9
  1
T-2A
 40
0.125
 41
0.8
  0
MTEXT
  5
263
100
AcDbEntity
  8
0
100
AcDbMText
 62
2
  6
CONTINUOUS
  7
STANDARD
 71
2
 72
1
 10
1.5275
 20
-0.6565
 30
0.0
 11
1.0
 21
0.0
 31
0.0
 44
0.9
  1
Body Features
 40
0.125
 41
2.6
  0
MTEXT
  5
264
100
AcDbEntity
  8
0
100
AcDbMText
 62
2
  6
CONTINUOUS
  7
STANDARD
 71
2
 72
1
 10
6.055
 20
-0.6565
 30
0.0
 11
1.0
 21
0.0
 31
0.0
 44
0.9
  1
Cushion lock with make up checks
 40
0.125
 41
6.4
  0
MTEXT
  5
265
100
AcDbEntity
  8
0
100
AcDbMText
 62
2
  6
CONTINUOUS
  7
STANDARD
 71
2
 72
1
 10
1.5275
 20
-0.9065
 30
0.0
 11
1.0
 21
0.0
 31
0.0
 44
0.9
  1
Body Type
 40
0.125
 41
1.8
  0
MTEXT
  5
266
100
AcDbEntity
  8
0
100
AcDbMText
 62
2
  6
CONTINUOUS
  7
STANDARD
 71
2
 72
1
 10
6.055
 20
-0.9065
 30
0.0
 11
1.0
 21
0.0
 31
0.0
 44
0.9
  1
Line mount
 40
0.125
 41
2.0
  0
MTEXT
  5
267
100
AcDbEntity
  8
0
100
AcDbMText
 62
2
  6
CONTINUOUS
  7
STANDARD
 71
2
 72
1
 10
1.5275
 20
-1.1565
 30
0.0
 11
1.0
 21
0.0
 31
0.0
 44
0.9
  1
Interface
 40
0.125
 41
1.8
  0
MTEXT
  5
268
100
AcDbEntity
  8
0
100
AcDbMText
 62
2
  6
CONTINUOUS
  7
STANDARD
 71
2
 72
1
 10
6.055
 20
-1.1565
 30
0.0
 11
1.0
 21
0.0
 31
0.0
 44
0.9
  1
None
 40
0.125
 41
0.8
  0
MTEXT
  5
269
100
AcDbEntity
  8
0
100
AcDbMText
 62
2
  6
CONTINUOUS
  7
STANDARD
 71
2
 72
1
 10
1.5275
 20
-1.4065
 30
0.0
 11
1.0
 21
0.0
 31
0.0
 44
0.9
  1
Open Cavity Quantity
 40
0.125
 41
4.0
  0
MTEXT
  5
26A
100
AcDbEntity
  8
0
100
AcDbMText
 62
2
  6
CONTINUOUS
  7
STANDARD
 71
2
 72
1
 10
6.055
 20
-1.4065
 30
0.0
 11
1.0
 21
0.0
 31
0.0
 44
0.9
  1
2
 40
0.125
 41
0.2
  0
MTEXT
  5
26B
100
AcDbEntity
  8
0
100
AcDbMText
 62
2
  6
CONTINUOUS
  7
STANDARD
 71
2
 72
1
 10
1.5275
 20
-1.6565
 30
0.0
 11
1.0
 21
0.0
 31
0.0
 44
0.9
  1
Weight
 40
0.125
 41
1.2
  0
MTEXT
  5
26C
100
AcDbEntity
  8
0
100
AcDbMText
 62
2
  6
CONTINUOUS
  7
STANDARD
 71
2
 72
1
 10
4.555
 20
-1.6565
 30
0.0
 11
1.0
 21
0.0
 31
0.0
 44
0.9
  1
4.562 lb.
 40
0.125
 41
1.8
  0
MTEXT
  5
26D
100
AcDbEntity
  8
0
100
AcDbMText
 62
2
  6
CONTINUOUS
  7
STANDARD
 71
2
 72
1
 10
7.555
 20
-1.6565
 30
0.0
 11
1.0
 21
0.0
 31
0.0
 44
0.9
  1
2,069 kg.
 40
0.125
 41
1.8
  0
MTEXT
  5
26E
100
AcDbEntity
  8
0
100
AcDbMText
 62
2
  6
CONTINUOUS
  7
STANDARD
 71
2
 72
1
 10
1.5275
 20
-1.9065
 30
0.0
 11
1.0
 21
0.0
 31
0.0
 44
0.9
  1
Mounting Hole Diameter
 40
0.125
 41
4.4
  0
MTEXT
  5
26F
100
AcDbEntity
  8
0
100
AcDbMText
 62
2
  6
CONTINUOUS
  7
STANDARD
 71
2
 72
1
 10
4.555
 20
-1.9065
 30
0.0
 11
1.0
 21
0.0
 31
0.0
 44
0.9
  1
.41 in.
 40
0.125
 41
1.4
  0
MTEXT
  5
270
100
AcDbEntity
  8
0
100
AcDbMText
 62
2
  6
CONTINUOUS
  7
STANDARD
 71
2
 72
1
 10
7.555
 20
-1.9065
 30
0.0
 11
1.0
 21
0.0
 31
0.0
 44
0.9
  1
10,4 mm
 40
0.125
 41
1.4
  0
MTEXT
  5
271
100
AcDbEntity
  8
0
100
AcDbMText
 62
2
  6
CONTINUOUS
  7
STANDARD
 71
2
 72
1
 10
1.5275
 20
-2.1565
 30
0.0
 11
1.0
 21
0.0
 31
0.0
 44
0.9
  1
Mounting Hole Depth
 40
0.125
 41
3.8
  0
MTEXT
  5
272
100
AcDbEntity
  8
0
100
AcDbMText
 62
2
  6
CONTINUOUS
  7
STANDARD
 71
2
 72
1
 10
6.055
 20
-2.1565
 30
0.0
 11
1.0
 21
0.0
 31
0.0
 44
0.9
  1
Through
 40
0.125
 41
1.4
  0
MTEXT
  5
273
100
AcDbEntity
  8
0
100
AcDbMText
 62
2
  6
CONTINUOUS
  7
STANDARD
 71
2
 72
1
 10
1.5275
 20
-2.4065
 30
0.0
 11
1.0
 21
0.0
 31
0.0
 44
0.9
  1
Mounting Hole Quantity
 40
0.125
 41
4.4
  0
MTEXT
  5
274
100
AcDbEntity
  8
0
100
AcDbMText
 62
2
  6
CONTINUOUS
  7
STANDARD
 71
2
 72
1
 10
6.055
 20
-2.4065
 30
0.0
 11
1.0
 21
0.0
 31
0.0
 44
0.9
  1
2
 40
0.125
 41
0.2
  0
ENDBLK
  5
275
100
AcDbEntity
  8
0
  6
BYBLOCK
 62
0
100
AcDbBlockEnd
  0
BLOCK
  5
276
100
AcDbEntity
  8
0
100
AcDbBlockBegin
  2
*T3
 70
1
 10
0.0
 20
0.0
  3
*T3
  1

  0
LINE
  5
277
100
AcDbEntity
  8
0
100
AcDbLine
 62
2
  6
CONTINUOUS
 10
0.0
 20
0.0
 11
4.6
 21
0.0
  0
LINE
  5
278
100
AcDbEntity
  8
0
100
AcDbLine
 62
2
  6
CONTINUOUS
 10
0.0
 20
0.0
 11
0.0
 21
-1.18775
  0
LINE
  5
279
100
AcDbEntity
  8
0
100
AcDbLine
 62
2
  6
CONTINUOUS
 10
0.0
 20
-0.34375
 11
4.6
 21
-0.34375
  0
LINE
  5
27A
100
AcDbEntity
  8
0
100
AcDbLine
 62
2
  6
CONTINUOUS
 10
0.0
 20
-0.68775
 11
4.6
 21
-0.68775
  0
LINE
  5
27B
100
AcDbEntity
  8
0
100
AcDbLine
 62
2
  6
CONTINUOUS
 10
0.0
 20
-0.93775
 11
4.6
 21
-0.93775
  0
LINE
  5
27C
100
AcDbEntity
  8
0
100
AcDbLine
 62
2
  6
CONTINUOUS
 10
0.0
 20
-1.18775
 11
4.6
 21
-1.18775
  0
LINE
  5
27D
100
AcDbEntity
  8
0
100
AcDbLine
 62
2
  6
CONTINUOUS
 10
1.3
 20
-0.34375
 11
1.3
 21
-1.18775
  0
LINE
  5
27E
100
AcDbEntity
  8
0
100
AcDbLine
 62
2
  6
CONTINUOUS
 10
3.3
 20
-0.34375
 11
3.3
 21
-1.18775
  0
LINE
  5
27F
100
AcDbEntity
  8
0
100
AcDbLine
 62
2
  6
CONTINUOUS
 10
4.6
 20
0.0
 11
4.6
 21
-1.18775
  0
MTEXT
  5
280
100
AcDbEntity
  8
0
100
AcDbMText
 62
2
  6
CONTINUOUS
  7
STANDARD
 71
2
 72
1
 10
2.3
 20
-0.099375
 30
0.0
 11
1.0
 21
0.0
 31
0.0
 44
0.9
  1
Port Headings
 40
0.145
 41
3.016
  0
MTEXT
  5
281
100
AcDbEntity
  8
0
100
AcDbMText
 62
2
  6
CONTINUOUS
  7
STANDARD
 71
2
 72
1
 10
0.65
 20
-0.44325
 30
0.0
 11
1.0
 21
0.0
 31
0.0
 44
0.9
  1
Product
 40
0.145
 41
1.624
  0
MTEXT
  5
282
100
AcDbEntity
  8
0
100
AcDbMText
 62
2
  6
CONTINUOUS
  7
STANDARD
 71
2
 72
1
 10
2.3
 20
-0.44325
 30
0.0
 11
1.0
 21
0.0
 31
0.0
 44
0.9
  1
Port
 40
0.145
 41
0.928
  0
MTEXT
  5
283
100
AcDbEntity
  8
0
100
AcDbMText
 62
2
  6
CONTINUOUS
  7
STANDARD
 71
2
 72
1
 10
3.95
 20
-0.44325
 30
0.0
 11
1.0
 21
0.0
 31
0.0
 44
0.9
  1
Size
 40
0.145
 41
0.928
  0
MTEXT
  5
284
100
AcDbEntity
  8
0
100
AcDbMText
 62
2
  6
CONTINUOUS
  7
STANDARD
 71
2
 72
1
 10
0.65
 20
-0.75025
 30
0.0
 11
1.0
 21
0.0
 31
0.0
 44
0.9
  1
BPK
 40
0.125
 41
0.6
  0
MTEXT
  5
285
100
AcDbEntity
  8
0
100
AcDbMText
 62
2
  6
CONTINUOUS
  7
STANDARD
 71
2
 72
1
 10
2.3
 20
-0.75025
 30
0.0
 11
1.0
 21
0.0
 31
0.0
 44
0.9
  1
Ports C1, C2, V1, V2
 40
0.125
 41
4.0
  0
MTEXT
  5
286
100
AcDbEntity
  8
0
100
AcDbMText
 62
2
  6
CONTINUOUS
  7
STANDARD
 71
2
 72
1
 10
3.95
 20
-0.75025
 30
0.0
 11
1.0
 21
0.0
 31
0.0
 44
0.9
  1
SAE 10
 40
0.125
 41
1.2
  0
MTEXT
  5
287
100
AcDbEntity
  8
0
100
AcDbMText
 62
2
  6
CONTINUOUS
  7
STANDARD
 71
2
 72
1
 10
0.65
 20
-1.00025
 30
0.0
 11
1.0
 21
0.0
 31
0.0
 44
0.9
  1
BPK
 40
0.125
 41
0.6
  0
MTEXT
  5
288
100
AcDbEntity
  8
0
100
AcDbMText
 62
2
  6
CONTINUOUS
  7
STANDARD
 71
2
 72
1
 10
2.3
 20
-1.00025
 30
0.0
 11
1.0
 21
0.0
 31
0.0
 44
0.9
  1
Port T
 40
0.125
 41
1.2
  0
MTEXT
  5
289
100
AcDbEntity
  8
0
100
AcDbMText
 62
2
  6
CONTINUOUS
  7
STANDARD
 71
2
 72
1
 10
3.95
 20
-1.00025
 30
0.0
 11
1.0
 21
0.0
 31
0.0
 44
0.9
  1
SAE 12
 40
0.125
 41
1.2
  0
ENDBLK
  5
28A
100
AcDbEntity
  8
0
  6
BYBLOCK
 62
0
100
AcDbBlockEnd
  0
ENDSEC
  0
SECTION
  2
ENTITIES
  0
IMAGE
  5
28B
100
AcDbEntity
  8
0
100
AcDbRasterImage
 62
7
  6
CONTINUOUS
 10
19.2297077316
 20
0.3094318264
 30
0.0
 11
0.0066666667
 21
0.0
 31
0.0
 12
0.0
 22
0.0066666667
 32
0.0
 13
369.0
 23
92.0
340
       3E9
 70
9
280
0
281
50
282
50
283
0
360
       3E3
 71
1
 91
2
 14
-0.5
 24
-0.5
 14
368.5
 24
91.5
  0
INSERT
  5
28C
100
AcDbEntity
  8
0
100
AcDbBlockReference
 62
2
  6
CONTINUOUS
  2
SUN_FIRST_THIRD_ANGLE_BL0
 10
20.4816717061
 20
1.2289683772
  0
ACAD_TABLE
  5
28D
100
AcDbEntity
  8
0
 62
2
  6
CONTINUOUS
100
AcDbBlockReference
  2
*T1
 10
12.42375
 20
0.30125
 30
0.0
100
AcDbTable
342
       3EB
343
20F
 11
1.0
 21
0.0
 31
0.0
 90
6
 91
4
 92
6
 93
20
 94
0
 95
0
 96
0
 70
1
 41
0.0
141
0.525
141
0.1
141
0.525
141
0.1
142
4.1
142
1.1
142
0.7
142
0.5
142
0.4
142
2.475
171
1
172
0
173
0
174
0
175
1
176
1
 91
33
178
0
145
0.0
301
CELL_VALUE
 90
4
  1
T-2A Line mount\PCushion lock with make up checks
304
ACVALUE_END
170
2
140
0.125
171
1
172
0
173
0
174
0
175
1
176
1
 91
33
178
0
145
0.0
301
CELL_VALUE
 90
4
  1
Feb-23-22
304
ACVALUE_END
170
5
140
0.125
171
1
172
0
173
0
174
0
175
1
176
1
 91
33
178
0
145
0.0
301
CELL_VALUE
 90
4
  1
1.000
304
ACVALUE_END
170
5
140
0.125
171
1
172
0
173
0
174
0
175
1
176
1
 91
33
178
0
145
0.0
301
CELL_VALUE
 90
4
  1
C
304
ACVALUE_END
170
5
140
0.125
171
1
172
0
173
0
174
0
175
1
176
1
 91
33
178
0
145
0.0
301
CELL_VALUE
 90
4
  1
2
304
ACVALUE_END
170
5
140
0.125
171
1
172
0
173
0
174
0
175
1
176
1
 91
33
178
0
145
0.0
301
CELL_VALUE
 90
4
  1
 
304
ACVALUE_END
170
1
140
0.125
171
1
172
0
173
0
174
0
175
1
176
1
 91
33
178
0
145
0.0
301
CELL_VALUE
 90
4
  1
DESCRIPTION
304
ACVALUE_END
170
1
140
0.06
171
1
172
0
173
0
174
0
175
1
176
1
 91
33
178
0
145
0.0
301
CELL_VALUE
 90
4
  1
DATE
304
ACVALUE_END
170
1
140
0.06
171
1
172
0
173
0
174
0
175
1
176
1
 91
33
178
0
145
0.0
301
CELL_VALUE
 90
4
  1
SCALE
304
ACVALUE_END
170
1
140
0.06
171
1
172
0
173
0
174
0
175
1
176
1
 91
33
178
0
145
0.0
301
CELL_VALUE
 90
4
  1
DWG SIZE
304
ACVALUE_END
170
1
140
0.06
171
1
172
0
173
0
174
0
175
1
176
1
 91
33
178
0
145
0.0
301
CELL_VALUE
 90
4
  1
SHEET
304
ACVALUE_END
170
1
140
0.06
171
1
172
0
173
0
174
0
175
1
176
1
 91
33
178
0
145
0.0
301
CELL_VALUE
 90
4
  1
 
304
ACVALUE_END
170
1
140
0.125
171
1
172
0
173
0
174
0
175
1
176
1
 91
33
178
0
145
0.0
301
CELL_VALUE
 90
4
  1
BPK
304
ACVALUE_END
170
5
140
0.125
171
1
172
0
173
0
174
0
175
4
176
1
 91
33
178
0
145
0.0
301
CELL_VALUE
 90
4
  1
ALL DIMENSIONS IN INCH\PVIEWS ARE THIRD ANGLE
304
ACVALUE_END
170
5
140
0.12
171
1
172
0
173
1
174
0
175
1
176
1
 91
1
178
0
145
0.0
170
1
171
1
172
0
173
1
174
0
175
1
176
1
 91
1
178
0
145
0.0
170
1
171
1
172
0
173
1
174
0
175
1
176
1
 91
1
178
0
145
0.0
170
5
171
1
172
0
173
0
174
0
175
1
176
1
 91
33
178
0
145
0.0
301
CELL_VALUE
 90
4
  1
 
304
ACVALUE_END
170
1
140
0.125
171
1
172
0
173
0
174
0
175
1
176
1
 91
33
178
0
145
0.0
301
CELL_VALUE
 90
4
  1
MODEL
304
ACVALUE_END
170
1
140
0.06
171
1
172
0
173
0
174
0
175
1
176
1
 91
33
178
0
145
0.0
301
CELL_VALUE
 90
4
  1
 
304
ACVALUE_END
170
1
140
0.125
171
1
172
0
173
0
174
0
175
1
176
1
 91
33
178
0
145
0.0
301
CELL_VALUE
 90
4
  1
 
304
ACVALUE_END
170
1
140
0.125
171
1
172
0
173
0
174
0
175
1
176
1
 91
33
178
0
145
0.0
301
CELL_VALUE
 90
4
  1
 
304
ACVALUE_END
170
1
140
0.125
171
1
172
0
173
0
174
0
175
1
176
1
 91
33
178
0
145
0.0
301
CELL_VALUE
 90
4
  1
 
304
ACVALUE_END
170
1
140
0.125
171
1
172
0
173
0
174
0
175
1
176
1
 91
33
178
0
145
0.0
301
CELL_VALUE
 90
4
  1
 
304
ACVALUE_END
170
1
140
0.125
  0
ACAD_TABLE
  5
28E
100
AcDbEntity
  8
0
 62
2
  6
CONTINUOUS
100
AcDbBlockReference
  2
*T2
 10
12.4237499994
 20
16.47875
 30
0.0
100
AcDbTable
342
       3EA
343
210
 11
1.0
 21
0.0
 31
0.0
 90
22
 91
10
 92
3
 93
16
 94
0
 95
0
 96
0
 41
0.028
141
0.344
141
0.25
141
0.25
141
0.25
141
0.25
141
0.25
141
0.25
141
0.25
141
0.25
141
0.25
142
3.055
142
3.0
142
3.0
171
1
172
0
173
0
174
0
175
1
176
1
 91
33
178
0
145
0.0
301
CELL_VALUE
 90
4
  1
Technical Data
304
ACVALUE_END
170
5
140
0.145
171
1
172
0
173
0
174
0
175
1
176
1
 91
33
178
0
145
0.0
301
CELL_VALUE
 90
4
  1
U.S. Units
304
ACVALUE_END
170
5
140
0.145
171
1
172
0
173
0
174
0
175
1
176
1
 91
33
178
0
145
0.0
301
CELL_VALUE
 90
4
  1
Metric Units
304
ACVALUE_END
170
5
140
0.145
171
1
172
0
173
0
174
0
175
1
176
1
 91
33
178
0
145
0.0
301
CELL_VALUE
 90
4
  1
Cavity
304
ACVALUE_END
170
5
140
0.125
171
1
172
0
173
0
174
0
175
2
176
1
 91
33
178
0
145
0.0
301
CELL_VALUE
 90
4
  1
T-2A
304
ACVALUE_END
170
5
140
0.125
171
1
172
0
173
1
174
0
175
1
176
1
 91
1
178
0
145
0.0
170
1
171
1
172
0
173
0
174
0
175
1
176
1
 91
33
178
0
145
0.0
301
CELL_VALUE
 90
4
  1
Body Features
304
ACVALUE_END
170
5
140
0.125
171
1
172
0
173
0
174
0
175
2
176
1
 91
33
178
0
145
0.0
301
CELL_VALUE
 90
4
  1
Cushion lock with make up checks
304
ACVALUE_END
170
5
140
0.125
171
1
172
0
173
1
174
0
175
1
176
1
 91
1
178
0
145
0.0
170
1
171
1
172
0
173
0
174
0
175
1
176
1
 91
33
178
0
145
0.0
301
CELL_VALUE
 90
4
  1
Body Type
304
ACVALUE_END
170
5
140
0.125
171
1
172
0
173
0
174
0
175
2
176
1
 91
33
178
0
145
0.0
301
CELL_VALUE
 90
4
  1
Line mount
304
ACVALUE_END
170
5
140
0.125
171
1
172
0
173
1
174
0
175
1
176
1
 91
1
178
0
145
0.0
170
1
171
1
172
0
173
0
174
0
175
1
176
1
 91
33
178
0
145
0.0
301
CELL_VALUE
 90
4
  1
Interface
304
ACVALUE_END
170
5
140
0.125
171
1
172
0
173
0
174
0
175
2
176
1
 91
33
178
0
145
0.0
301
CELL_VALUE
 90
4
  1
None
304
ACVALUE_END
170
5
140
0.125
171
1
172
0
173
1
174
0
175
1
176
1
 91
1
178
0
145
0.0
170
1
171
1
172
0
173
0
174
0
175
1
176
1
 91
33
178
0
145
0.0
301
CELL_VALUE
 90
4
  1
Open Cavity Quantity
304
ACVALUE_END
170
5
140
0.125
171
1
172
0
173
0
174
0
175
2
176
1
 91
33
178
0
145
0.0
301
CELL_VALUE
 90
4
  1
2
304
ACVALUE_END
170
5
140
0.125
171
1
172
0
173
1
174
0
175
1
176
1
 91
1
178
0
145
0.0
170
1
171
1
172
0
173
0
174
0
175
1
176
1
 91
33
178
0
145
0.0
301
CELL_VALUE
 90
4
  1
Weight
304
ACVALUE_END
170
5
140
0.125
171
1
172
0
173
0
174
0
175
1
176
1
 91
33
178
0
145
0.0
301
CELL_VALUE
 90
4
  1
4.562 lb.
304
ACVALUE_END
170
5
140
0.125
171
1
172
0
173
0
174
0
175
1
176
1
 91
33
178
0
145
0.0
301
CELL_VALUE
 90
4
  1
2,069 kg.
304
ACVALUE_END
170
5
140
0.125
171
1
172
0
173
0
174
0
175
1
176
1
 91
33
178
0
145
0.0
301
CELL_VALUE
 90
4
  1
Mounting Hole Diameter
304
ACVALUE_END
170
5
140
0.125
171
1
172
0
173
0
174
0
175
1
176
1
 91
33
178
0
145
0.0
301
CELL_VALUE
 90
4
  1
.41 in.
304
ACVALUE_END
170
5
140
0.125
171
1
172
0
173
0
174
0
175
1
176
1
 91
33
178
0
145
0.0
301
CELL_VALUE
 90
4
  1
10,4 mm
304
ACVALUE_END
170
5
140
0.125
171
1
172
0
173
0
174
0
175
1
176
1
 91
33
178
0
145
0.0
301
CELL_VALUE
 90
4
  1
Mounting Hole Depth
304
ACVALUE_END
170
5
140
0.125
171
1
172
0
173
0
174
0
175
2
176
1
 91
33
178
0
145
0.0
301
CELL_VALUE
 90
4
  1
Through
304
ACVALUE_END
170
5
140
0.125
171
1
172
0
173
1
174
0
175
1
176
1
 91
1
178
0
145
0.0
170
1
171
1
172
0
173
0
174
0
175
1
176
1
 91
33
178
0
145
0.0
301
CELL_VALUE
 90
4
  1
Mounting Hole Quantity
304
ACVALUE_END
170
5
140
0.125
171
1
172
0
173
0
174
0
175
2
176
1
 91
33
178
0
145
0.0
301
CELL_VALUE
 90
4
  1
2
304
ACVALUE_END
170
5
140
0.125
171
1
172
0
173
1
174
0
175
1
176
1
 91
1
178
0
145
0.0
170
1
  0
ACAD_TABLE
  5
28F
100
AcDbEntity
  8
0
 62
2
  6
CONTINUOUS
100
AcDbBlockReference
  2
*T3
 10
0.52125
 20
1.709
 30
0.0
100
AcDbTable
342
       3EA
343
211
 11
1.0
 21
0.0
 31
0.0
 90
22
 91
4
 92
3
 93
16
 94
0
 95
0
 96
0
 41
0.05
141
0.34375
141
0.344
141
0.25
141
0.25
142
1.3
142
2.0
142
1.3
171
1
172
0
173
0
174
0
175
3
176
1
 91
33
178
0
145
0.0
301
CELL_VALUE
 90
4
  1
Port Headings
304
ACVALUE_END
170
5
140
0.145
171
1
172
0
173
1
174
0
175
1
176
1
 91
1
178
0
145
0.0
170
1
171
1
172
0
173
1
174
0
175
1
176
1
 91
1
178
0
145
0.0
170
1
171
1
172
0
173
0
174
0
175
1
176
1
 91
33
178
0
145
0.0
301
CELL_VALUE
 90
4
  1
Product
304
ACVALUE_END
170
5
140
0.145
171
1
172
0
173
0
174
0
175
1
176
1
 91
33
178
0
145
0.0
301
CELL_VALUE
 90
4
  1
Port
304
ACVALUE_END
170
5
140
0.145
171
1
172
0
173
0
174
0
175
1
176
1
 91
33
178
0
145
0.0
301
CELL_VALUE
 90
4
  1
Size
304
ACVALUE_END
170
5
140
0.145
171
1
172
0
173
0
174
0
175
1
176
1
 91
33
178
0
145
0.0
301
CELL_VALUE
 90
4
  1
BPK
304
ACVALUE_END
170
5
140
0.125
171
1
172
0
173
0
174
0
175
1
176
1
 91
33
178
0
145
0.0
301
CELL_VALUE
 90
4
  1
Ports C1, C2, V1, V2
304
ACVALUE_END
170
5
140
0.125
171
1
172
0
173
0
174
0
175
1
176
1
 91
33
178
0
145
0.0
301
CELL_VALUE
 90
4
  1
SAE 10
304
ACVALUE_END
170
5
140
0.125
171
1
172
0
173
0
174
0
175
1
176
1
 91
33
178
0
145
0.0
301
CELL_VALUE
 90
4
  1
BPK
304
ACVALUE_END
170
5
140
0.125
171
1
172
0
173
0
174
0
175
1
176
1
 91
33
178
0
145
0.0
301
CELL_VALUE
 90
4
  1
Port T
304
ACVALUE_END
170
5
140
0.125
171
1
172
0
173
0
174
0
175
1
176
1
 91
33
178
0
145
0.0
301
CELL_VALUE
 90
4
  1
SAE 12
304
ACVALUE_END
170
5
140
0.125
  0
MTEXT
  5
290
100
AcDbEntity
  8
0
100
AcDbMText
 62
2
  6
CONTINUOUS
  7
STANDARD
 71
1
 72
1
 10
0.52125
 20
5.75995
 30
0.0
 11
1.0
 21
0.0
 31
0.0
 44
0.6
  3
Notes\P \P1. Important: Carefully consider\P   the maximum system pressure. The\P   pressure rating of the manifold is\P   dependent on the manifold material,\P   with the port type/size a secondary\P   consideration. Manifolds\P   constructed of alu
  1
minum are not\P   rated for pressures higher than\P   3000 psi (210 bar), regardless of\P   the port type/size specified.
 40
0.1
 41
3.04
  0
LINE
  5
291
100
AcDbEntity
  8
0
100
AcDbLine
 62
7
  6
CONTINUOUS
 10
0.30125
 20
0.30125
 11
0.30125
 21
16.69875
  0
LINE
  5
292
100
AcDbEntity
  8
0
100
AcDbLine
 62
7
  6
CONTINUOUS
 10
0.30125
 20
0.30125
 11
21.69875
 21
0.30125
  0
LINE
  5
293
100
AcDbEntity
  8
0
100
AcDbLine
 62
7
  6
CONTINUOUS
 10
0.30125
 20
16.69875
 11
21.69875
 21
16.69875
  0
LINE
  5
294
100
AcDbEntity
  8
0
100
AcDbLine
 62
7
  6
CONTINUOUS
 10
21.69875
 20
0.30125
 11
21.69875
 21
16.69875
  0
LINE
  5
295
100
AcDbEntity
  8
0
100
AcDbLine
 62
7
  6
CONTINUOUS
 10
8.5828629239
 20
6.7163359089
 11
8.5828629239
 21
9.6141135594
  0
LINE
  5
296
100
AcDbEntity
  8
0
100
AcDbLine
 62
7
  6
CONTINUOUS
 10
8.5828629239
 20
9.6141135594
 11
9.553433542
 21
10.5516128413
  0
LINE
  5
297
100
AcDbEntity
  8
0
100
AcDbLine
 62
4
  6
CONTINUOUS
 10
9.0155977136
 20
7.6208588973
 11
9.0059384546
 21
7.6360176571
  0
LINE
  5
298
100
AcDbEntity
  8
0
100
AcDbLine
 62
4
  6
CONTINUOUS
 10
9.0059384546
 20
8.5415732426
 11
9.0059384546
 21
8.4836176909
  0
LINE
  5
299
100
AcDbEntity
  8
0
100
AcDbLine
 62
4
  6
CONTINUOUS
 10
9.0059384546
 20
7.6360176571
 11
9.0059384546
 21
7.6505065451
  0
LINE
  5
29A
100
AcDbEntity
  8
0
100
AcDbLine
 62
4
  6
CONTINUOUS
 10
9.0059384546
 20
9.08490654
 11
9.0059384546
 21
9.0993954279
  0
LINE
  5
29B
100
AcDbEntity
  8
0
100
AcDbLine
 62
4
  6
CONTINUOUS
 10
9.0445754903
 20
8.763471518
 11
9.0445754903
 21
8.7200048542
  0
LINE
  5
29C
100
AcDbEntity
  8
0
100
AcDbLine
 62
4
  6
CONTINUOUS
 10
9.0445754903
 20
7.3145826352
 11
9.0445754903
 21
7.2711159714
  0
LINE
  5
29D
100
AcDbEntity
  8
0
100
AcDbLine
 62
4
  6
CONTINUOUS
 10
9.0638940064
 20
8.8852873218
 11
9.0638940064
 21
8.849065102
  0
LINE
  5
29E
100
AcDbEntity
  8
0
100
AcDbLine
 62
4
  6
CONTINUOUS
 10
9.0638940064
 20
8.6462206709
 11
9.0638940064
 21
8.6027540072
  0
LINE
  5
29F
100
AcDbEntity
  8
0
100
AcDbLine
 62
4
  6
CONTINUOUS
 10
9.0638940064
 20
7.4363984389
 11
9.0638940064
 21
7.4001762191
  0
LINE
  5
2A0
100
AcDbEntity
  8
0
100
AcDbLine
 62
4
  6
CONTINUOUS
 10
9.0638940064
 20
7.1973317881
 11
9.0638940064
 21
7.1538651243
  0
LINE
  5
2A1
100
AcDbEntity
  8
0
100
AcDbLine
 62
4
  6
CONTINUOUS
 10
9.1218495581
 20
9.0913569656
 11
9.1218495581
 21
9.0768680777
  0
LINE
  5
2A2
100
AcDbEntity
  8
0
100
AcDbLine
 62
4
  6
CONTINUOUS
 10
9.1218495581
 20
8.8812680906
 11
9.1218495581
 21
8.8233125389
  0
LINE
  5
2A3
100
AcDbEntity
  8
0
100
AcDbLine
 62
4
  6
CONTINUOUS
 10
9.1218495581
 20
8.5118014484
 11
9.1218495581
 21
8.4973125605
  0
LINE
  5
2A4
100
AcDbEntity
  8
0
100
AcDbLine
 62
4
  6
CONTINUOUS
 10
9.1218495581
 20
7.6424680827
 11
9.1218495581
 21
7.6279791948
  0
LINE
  5
2A5
100
AcDbEntity
  8
0
100
AcDbLine
 62
4
  6
CONTINUOUS
 10
9.1218495581
 20
7.4323792078
 11
9.1218495581
 21
7.374423656
  0
LINE
  5
2A6
100
AcDbEntity
  8
0
100
AcDbLine
 62
4
  6
CONTINUOUS
 10
9.0059384546
 20
9.0993954279
 11
9.0155977136
 21
9.113214444
  0
LINE
  5
2A7
100
AcDbEntity
  8
0
100
AcDbLine
 62
7
  6
CONTINUOUS
 10
12.446566458
 20
6.4483871587
 11
9.9643339754
 21
6.6205305661
  0
LINE
  5
2A8
100
AcDbEntity
  8
0
100
AcDbLine
 62
7
  6
CONTINUOUS
 10
9.7097968796
 20
6.6381827736
 11
8.5828629239
 21
6.7163359089
  0
LINE
  5
2A9
100
AcDbEntity
  8
0
100
AcDbLine
 62
4
  6
CONTINUOUS
 10
9.0252569725
 20
7.6129445815
 11
9.0155977136
 21
7.6208588973
  0
LINE
  5
2AA
100
AcDbEntity
  8
0
100
AcDbLine
 62
4
  6
CONTINUOUS
 10
9.1121903018
 20
7.6576268424
 11
9.1218495581
 21
7.6424680827
  0
LINE
  5
2AB
100
AcDbEntity
  8
0
100
AcDbLine
 62
4
  6
CONTINUOUS
 10
9.1218495581
 20
9.0768680777
 11
9.1121903018
 21
9.0630490614
  0
LINE
  5
2AC
100
AcDbEntity
  8
0
100
AcDbLine
 62
4
  6
CONTINUOUS
 10
12.2244034594
 20
6.9201942405
 11
12.1954256835
 21
6.9149594121
  0
LINE
  5
2AD
100
AcDbEntity
  8
0
100
AcDbLine
 62
4
  6
CONTINUOUS
 10
9.0059384546
 20
7.3317510106
 11
9.1218495581
 21
7.2874903285
  0
LINE
  5
2AE
100
AcDbEntity
  8
0
100
AcDbLine
 62
4
  6
CONTINUOUS
 10
9.0059384546
 20
7.5563287735
 11
9.1218495581
 21
7.4903347595
  0
LINE
  5
2AF
100
AcDbEntity
  8
0
100
AcDbLine
 62
4
  6
CONTINUOUS
 10
9.0928717822
 20
7.6734554742
 11
9.1121903018
 21
7.6576268424
  0
LINE
  5
2B0
100
AcDbEntity
  8
0
100
AcDbLine
 62
4
  6
CONTINUOUS
 10
9.1218495581
 20
8.4973125605
 11
9.1121903018
 21
8.4834935443
  0
LINE
  5
2B1
100
AcDbEntity
  8
0
100
AcDbLine
 62
7
  6
CONTINUOUS
 10
9.4304713099
 20
9.1032181084
 11
9.3274708093
 21
9.0037272589
  0
LINE
  5
2B2
100
AcDbEntity
  8
0
100
AcDbLine
 62
4
  6
CONTINUOUS
 10
9.0155977136
 20
9.113214444
 11
9.0349162305
 21
9.1263635882
  0
LINE
  5
2B3
100
AcDbEntity
  8
0
100
AcDbLine
 62
4
  6
CONTINUOUS
 10
9.1121903018
 20
9.0630490614
 11
9.1025310385
 21
9.0564744896
  0
LINE
  5
2B4
100
AcDbEntity
  8
0
100
AcDbLine
 62
4
  6
CONTINUOUS
 10
9.1218495581
 20
7.0556681216
 11
9.0059384546
 21
7.0637065839
  0
LINE
  5
2B5
100
AcDbEntity
  8
0
100
AcDbLine
 62
4
  6
CONTINUOUS
 10
9.0735532627
 20
8.486173032
 11
9.0542347466
 21
8.5164905515
  0
LINE
  5
2B6
100
AcDbEntity
  8
0
100
AcDbLine
 62
4
  6
CONTINUOUS
 10
9.1121903018
 20
8.5269602081
 11
9.1218495581
 21
8.5118014484
  0
LINE
  5
2B7
100
AcDbEntity
  8
0
100
AcDbLine
 62
7
  6
CONTINUOUS
 10
9.9198678727
 20
9.3518315788
 11
9.8168673721
 21
9.2523407293
  0
LINE
  5
2B8
100
AcDbEntity
  8
0
100
AcDbLine
 62
7
  6
CONTINUOUS
 10
9.9737886813
 20
9.348092158
 11
9.8707881808
 21
9.2486013085
  0
LINE
  5
2B9
100
AcDbEntity
  8
0
100
AcDbLine
 62
4
  6
CONTINUOUS
 10
12.1664479076
 20
7.3371467777
 11
12.1954256835
 21
7.3423816061
  0
LINE
  5
2BA
100
AcDbEntity
  8
0
100
AcDbLine
 62
4
  6
CONTINUOUS
 10
12.2533812352
 20
7.1572512758
 11
12.1374701318
 21
7.1652897381
  0
LINE
  5
2BB
100
AcDbEntity
  8
0
100
AcDbLine
 62
4
  6
CONTINUOUS
 10
9.0638940064
 20
7.6827095337
 11
9.0928717822
 21
7.6734554742
  0
LINE
  5
2BC
100
AcDbEntity
  8
0
100
AcDbLine
 62
4
  6
CONTINUOUS
 10
9.0155977136
 20
9.0697477802
 11
9.0059384546
 21
9.08490654
  0
LINE
  5
2BD
100
AcDbEntity
  8
0
100
AcDbLine
 62
4
  6
CONTINUOUS
 10
9.1121903018
 20
9.1065157252
 11
9.1218495581
 21
9.0913569656
  0
LINE
  5
2BE
100
AcDbEntity
  8
0
100
AcDbLine
 62
4
  6
CONTINUOUS
 10
9.0059384546
 20
7.6505065451
 11
9.0155977136
 21
7.6643255611
  0
LINE
  5
2BF
100
AcDbEntity
  8
0
100
AcDbLine
 62
4
  6
CONTINUOUS
 10
9.1218495581
 20
7.6279791948
 11
9.1121903018
 21
7.6141601786
  0
LINE
  5
2C0
100
AcDbEntity
  8
0
100
AcDbLine
 62
4
  6
CONTINUOUS
 10
9.1121903018
 20
8.4834935443
 11
9.1025310385
 21
8.4769189725
  0
LINE
  5
2C1
100
AcDbEntity
  8
0
100
AcDbLine
 62
4
  6
CONTINUOUS
 10
9.1218495581
 20
8.997179194
 11
9.0059384546
 21
8.9472621047
  0
LINE
  5
2C2
100
AcDbEntity
  8
0
100
AcDbLine
 62
4
  6
CONTINUOUS
 10
12.8718057854
 20
7.5014776361
 11
12.8640412206
 21
7.501222086
  0
LINE
  5
2C3
100
AcDbEntity
  8
0
100
AcDbLine
 62
4
  6
CONTINUOUS
 10
9.0059384546
 20
7.4404176701
 11
9.1218495581
 21
7.4323792078
  0
LINE
  5
2C4
100
AcDbEntity
  8
0
100
AcDbLine
 62
4
  6
CONTINUOUS
 10
12.2533812352
 20
7.2731623792
 11
12.1374701318
 21
7.2812008415
  0
LINE
  5
2C5
100
AcDbEntity
  8
0
100
AcDbLine
 62
4
  6
CONTINUOUS
 10
12.1954256835
 20
6.9149594121
 11
12.1664479076
 21
6.9242134717
  0
LINE
  5
2C6
100
AcDbEntity
  8
0
100
AcDbLine
 62
4
  6
CONTINUOUS
 10
9.0832125259
 20
8.4782587159
 11
9.0735532627
 21
8.486173032
  0
LINE
  5
2C7
100
AcDbEntity
  8
0
100
AcDbLine
 62
4
  6
CONTINUOUS
 10
9.0542347466
 20
8.5164905515
 11
9.0349162305
 21
8.5323191831
  0
LINE
  5
2C8
100
AcDbEntity
  8
0
100
AcDbLine
 62
4
  6
CONTINUOUS
 10
9.1025310385
 20
8.5348745242
 11
9.1121903018
 21
8.5269602081
  0
LINE
  5
2C9
100
AcDbEntity
  8
0
100
AcDbLine
 62
4
  6
CONTINUOUS
 10
12.1374701318
 20
7.5420008243
 11
12.2533812352
 21
7.5339623619
  0
LINE
  5
2CA
100
AcDbEntity
  8
0
100
AcDbLine
 62
7
  6
CONTINUOUS
 10
10.4631852442
 20
9.0315991538
 11
10.3601847436
 21
8.9321083043
  0
LINE
  5
2CB
100
AcDbEntity
  8
0
100
AcDbLine
 62
7
  6
CONTINUOUS
 10
10.4901456485
 20
8.9830326533
 11
10.3871451479
 21
8.8835418038
  0
LINE
  5
2CC
100
AcDbEntity
  8
0
100
AcDbLine
 62
4
  6
CONTINUOUS
 10
9.1218495581
 20
7.2874903285
 11
9.0059384546
 21
7.259306571
  0
LINE
  5
2CD
100
AcDbEntity
  8
0
100
AcDbLine
 62
4
  6
CONTINUOUS
 10
12.1954256835
 20
7.3423816061
 11
12.2244034594
 21
7.3331275465
  0
LINE
  5
2CE
100
AcDbEntity
  8
0
100
AcDbLine
 62
4
  6
CONTINUOUS
 10
12.2533812352
 20
7.0413401723
 11
12.1374701318
 21
7.1073341864
  0
LINE
  5
2CF
100
AcDbEntity
  8
0
100
AcDbLine
 62
4
  6
CONTINUOUS
 10
9.0252569725
 20
9.0618334643
 11
9.0155977136
 21
9.0697477802
  0
LINE
  5
2D0
100
AcDbEntity
  8
0
100
AcDbLine
 62
4
  6
CONTINUOUS
 10
9.0928717822
 20
9.122344357
 11
9.1121903018
 21
9.1065157252
  0
LINE
  5
2D1
100
AcDbEntity
  8
0
100
AcDbLine
 62
7
  6
CONTINUOUS
 10
10.9756700594
 20
9.1831651509
 11
10.8726695588
 21
9.0836743014
  0
LINE
  5
2D2
100
AcDbEntity
  8
0
100
AcDbLine
 62
7
  6
CONTINUOUS
 10
11.0223668495
 20
9.2068871219
 11
10.9193663489
 21
9.1073962724
  0
LINE
  5
2D3
100
AcDbEntity
  8
0
100
AcDbLine
 62
7
  6
CONTINUOUS
 10
9.4304713099
 20
7.6543292831
 11
9.3274708093
 21
7.5548384336
  0
LINE
  5
2D4
100
AcDbEntity
  8
0
100
AcDbLine
 62
4
  6
CONTINUOUS
 10
9.0155977136
 20
7.6643255611
 11
9.0349162305
 21
7.6774747053
  0
LINE
  5
2D5
100
AcDbEntity
  8
0
100
AcDbLine
 62
4
  6
CONTINUOUS
 10
9.0349162305
 20
7.6774747053
 11
9.0638940064
 21
7.6827095337
  0
LINE
  5
2D6
100
AcDbEntity
  8
0
100
AcDbLine
 62
4
  6
CONTINUOUS
 10
9.0349162305
 20
8.5323191831
 11
9.0059384546
 21
8.5415732426
  0
LINE
  5
2D7
100
AcDbEntity
  8
0
100
AcDbLine
 62
4
  6
CONTINUOUS
 10
9.0059384546
 20
8.7806398935
 11
9.1218495581
 21
8.7363792113
  0
LINE
  5
2D8
100
AcDbEntity
  8
0
100
AcDbLine
 62
4
  6
CONTINUOUS
 10
9.0059384546
 20
9.0052176564
 11
9.1218495581
 21
8.9392236423
  0
LINE
  5
2D9
100
AcDbEntity
  8
0
100
AcDbLine
 62
4
  6
CONTINUOUS
 10
12.1664479076
 20
6.9242134717
 11
12.1471293881
 21
6.9400421035
  0
LINE
  5
2DA
100
AcDbEntity
  8
0
100
AcDbLine
 62
7
  6
CONTINUOUS
 10
9.9198678727
 20
7.9029427535
 11
9.8168673721
 21
7.803451904
  0
LINE
  5
2DB
100
AcDbEntity
  8
0
100
AcDbLine
 62
7
  6
CONTINUOUS
 10
10.4901456485
 20
8.4179261788
 11
10.3871451479
 21
8.3184353292
  0
LINE
  5
2DC
100
AcDbEntity
  8
0
100
AcDbLine
 62
7
  6
CONTINUOUS
 10
10.4631852442
 20
8.3730990991
 11
10.3601847436
 21
8.2736082496
  0
LINE
  5
2DD
100
AcDbEntity
  8
0
100
AcDbLine
 62
7
  6
CONTINUOUS
 10
9.9737886813
 20
7.8992033327
 11
9.8707881808
 21
7.7997124832
  0
LINE
  5
2DE
100
AcDbEntity
  8
0
100
AcDbLine
 62
4
  6
CONTINUOUS
 10
9.1121903018
 20
7.6141601786
 11
9.1025310385
 21
7.6075856068
  0
LINE
  5
2DF
100
AcDbEntity
  8
0
100
AcDbLine
 62
4
  6
CONTINUOUS
 10
12.2244034594
 20
8.3690830658
 11
12.1954256835
 21
8.3638482374
  0
LINE
  5
2E0
100
AcDbEntity
  8
0
100
AcDbLine
 62
4
  6
CONTINUOUS
 10
12.2340627174
 20
6.9847243644
 11
12.2437219763
 21
6.9768100485
  0
LINE
  5
2E1
100
AcDbEntity
  8
0
100
AcDbLine
 62
7
  6
CONTINUOUS
 10
11.587473324
 20
9.1676968547
 11
11.4844728235
 21
9.0682060052
  0
LINE
  5
2E2
100
AcDbEntity
  8
0
100
AcDbLine
 62
7
  6
CONTINUOUS
 10
11.6341701141
 20
9.137498017
 11
11.5311696136
 21
9.0380071675
  0
LINE
  5
2E3
100
AcDbEntity
  8
0
100
AcDbLine
 62
4
  6
CONTINUOUS
 10
9.1025310385
 20
8.4769189725
 11
9.0832125259
 21
8.4782587159
  0
LINE
  5
2E4
100
AcDbEntity
  8
0
100
AcDbLine
 62
4
  6
CONTINUOUS
 10
9.0638940064
 20
9.1315984166
 11
9.0928717822
 21
9.122344357
  0
LINE
  5
2E5
100
AcDbEntity
  8
0
100
AcDbLine
 62
4
  6
CONTINUOUS
 10
12.2244034594
 20
7.3331275465
 11
12.2437219763
 21
7.3172989149
  0
LINE
  5
2E6
100
AcDbEntity
  8
0
100
AcDbLine
 62
4
  6
CONTINUOUS
 10
12.1471293881
 20
9.0119531097
 11
12.1567886513
 21
9.0185276815
  0
LINE
  5
2E7
100
AcDbEntity
  8
0
100
AcDbLine
 62
4
  6
CONTINUOUS
 10
9.1218495581
 20
7.5482903112
 11
9.0059384546
 21
7.4983732218
  0
LINE
  5
2E8
100
AcDbEntity
  8
0
100
AcDbLine
 62
4
  6
CONTINUOUS
 10
12.1664479076
 20
8.786035603
 11
12.1954256835
 21
8.7912704313
  0
LINE
  5
2E9
100
AcDbEntity
  8
0
100
AcDbLine
 62
4
  6
CONTINUOUS
 10
12.2533812352
 20
8.6061401011
 11
12.1374701318
 21
8.6141785634
  0
LINE
  5
2EA
100
AcDbEntity
  8
0
100
AcDbLine
 62
4
  6
CONTINUOUS
 10
12.1954256835
 20
8.3638482374
 11
12.1664479076
 21
8.373102297
  0
LINE
  5
2EB
100
AcDbEntity
  8
0
100
AcDbLine
 62
4
  6
CONTINUOUS
 10
12.1471293881
 20
6.9400421035
 11
12.1374701318
 21
6.9552008631
  0
LINE
  5
2EC
100
AcDbEntity
  8
0
100
AcDbLine
 62
4
  6
CONTINUOUS
 10
12.2437219763
 20
6.9768100485
 11
12.2533812352
 21
6.9616512887
  0
LINE
  5
2ED
100
AcDbEntity
  8
0
100
AcDbLine
 62
7
  6
CONTINUOUS
 10
10.4631852442
 20
7.5827103285
 11
10.3601847436
 21
7.483219479
  0
LINE
  5
2EE
100
AcDbEntity
  8
0
100
AcDbLine
 62
7
  6
CONTINUOUS
 10
10.4901456485
 20
7.5341438281
 11
10.3871451479
 21
7.4346529785
  0
LINE
  5
2EF
100
AcDbEntity
  8
0
100
AcDbLine
 62
7
  6
CONTINUOUS
 10
12.446566458
 20
9.3461648093
 11
13.4171370761
 21
10.2836640911
  0
LINE
  5
2F0
100
AcDbEntity
  8
0
100
AcDbLine
 62
4
  6
CONTINUOUS
 10
12.1471293881
 20
8.7728864589
 11
12.1664479076
 21
8.786035603
  0
LINE
  5
2F1
100
AcDbEntity
  8
0
100
AcDbLine
 62
4
  6
CONTINUOUS
 10
12.8718057854
 20
8.9503663462
 11
12.8640412206
 21
8.9501107961
  0
LINE
  5
2F2
100
AcDbEntity
  8
0
100
AcDbLine
 62
4
  6
CONTINUOUS
 10
9.0059384546
 20
8.8893065529
 11
9.1218495581
 21
8.8812680906
  0
LINE
  5
2F3
100
AcDbEntity
  8
0
100
AcDbLine
 62
4
  6
CONTINUOUS
 10
12.2533812352
 20
8.7220512045
 11
12.1374701318
 21
8.7300896668
  0
LINE
  5
2F4
100
AcDbEntity
  8
0
100
AcDbLine
 62
4
  6
CONTINUOUS
 10
12.2437219763
 20
7.3172989149
 11
12.2533812352
 21
7.3021401551
  0
LINE
  5
2F5
100
AcDbEntity
  8
0
100
AcDbLine
 62
4
  6
CONTINUOUS
 10
12.1374701318
 20
8.9981340935
 11
12.1471293881
 21
9.0119531097
  0
LINE
  5
2F6
100
AcDbEntity
  8
0
100
AcDbLine
 62
7
  6
CONTINUOUS
 10
10.9756700594
 20
7.7342763257
 11
10.8726695588
 21
7.6347854761
  0
LINE
  5
2F7
100
AcDbEntity
  8
0
100
AcDbLine
 62
7
  6
CONTINUOUS
 10
11.9167233514
 20
8.6285063206
 11
11.8137228508
 21
8.5290154711
  0
LINE
  5
2F8
100
AcDbEntity
  8
0
100
AcDbLine
 62
7
  6
CONTINUOUS
 10
11.0223668495
 20
7.7579982966
 11
10.9193663489
 21
7.6585074471
  0
LINE
  5
2F9
100
AcDbEntity
  8
0
100
AcDbLine
 62
7
  6
CONTINUOUS
 10
11.9167233514
 20
8.574585512
 11
11.8137228508
 21
8.4750946625
  0
LINE
  5
2FA
100
AcDbEntity
  8
0
100
AcDbLine
 62
4
  6
CONTINUOUS
 10
12.1374701318
 20
8.49826746
 11
12.2533812352
 21
8.5481845493
  0
LINE
  5
2FB
100
AcDbEntity
  8
0
100
AcDbLine
 62
4
  6
CONTINUOUS
 10
12.8795703502
 20
9.0955107756
 11
12.8873349149
 21
9.0957663258
  0
LINE
  5
2FC
100
AcDbEntity
  8
0
100
AcDbLine
 62
4
  6
CONTINUOUS
 10
12.1567886513
 20
9.0185276815
 11
12.176107164
 21
9.0171879381
  0
LINE
  5
2FD
100
AcDbEntity
  8
0
100
AcDbLine
 62
4
  6
CONTINUOUS
 10
12.1954256835
 20
8.7912704313
 11
12.2244034594
 21
8.7820163718
  0
LINE
  5
2FE
100
AcDbEntity
  8
0
100
AcDbLine
 62
4
  6
CONTINUOUS
 10
12.2533812352
 20
8.4902289976
 11
12.1374701318
 21
8.5562230117
  0
LINE
  5
2FF
100
AcDbEntity
  8
0
100
AcDbLine
 62
4
  6
CONTINUOUS
 10
12.1664479076
 20
8.373102297
 11
12.1471293881
 21
8.3889309288
  0
LINE
  5
300
100
AcDbEntity
  8
0
100
AcDbLine
 62
4
  6
CONTINUOUS
 10
12.1374701318
 20
8.7590674427
 11
12.1471293881
 21
8.7728864589
  0
LINE
  5
301
100
AcDbEntity
  8
0
100
AcDbLine
 62
7
  6
CONTINUOUS
 10
11.6341701141
 20
8.1047840827
 11
11.5311696136
 21
8.0052932332
  0
LINE
  5
302
100
AcDbEntity
  8
0
100
AcDbLine
 62
7
  6
CONTINUOUS
 10
10.4901456485
 20
6.9690373535
 11
10.3871451479
 21
6.869546504
  0
LINE
  5
303
100
AcDbEntity
  8
0
100
AcDbLine
 62
7
  6
CONTINUOUS
 10
10.4631852442
 20
6.9242102738
 11
10.3601847436
 21
6.8247194243
  0
LINE
  5
304
100
AcDbEntity
  8
0
100
AcDbLine
 62
4
  6
CONTINUOUS
 10
12.861453033
 20
9.1287218978
 11
12.8666294083
 21
9.1337218927
  0
LINE
  5
305
100
AcDbEntity
  8
0
100
AcDbLine
 62
4
  6
CONTINUOUS
 10
12.1471293881
 20
8.4323975926
 11
12.1567886513
 21
8.4389721644
  0
LINE
  5
306
100
AcDbEntity
  8
0
100
AcDbLine
 62
4
  6
CONTINUOUS
 10
12.2437219763
 20
8.38223221
 11
12.2244034594
 21
8.3690830658
  0
LINE
  5
307
100
AcDbEntity
  8
0
100
AcDbLine
 62
4
  6
CONTINUOUS
 10
9.1218495581
 20
8.7363792113
 11
9.0059384546
 21
8.7081954538
  0
LINE
  5
308
100
AcDbEntity
  8
0
100
AcDbLine
 62
4
  6
CONTINUOUS
 10
12.2244034594
 20
8.9631274709
 11
12.2533812352
 21
8.9538734114
  0
LINE
  5
309
100
AcDbEntity
  8
0
100
AcDbLine
 62
4
  6
CONTINUOUS
 10
12.2340627174
 20
8.4336131897
 11
12.2437219763
 21
8.4256988738
  0
LINE
  5
30A
100
AcDbEntity
  8
0
100
AcDbLine
 62
4
  6
CONTINUOUS
 10
12.1374701318
 20
8.4185785763
 11
12.1471293881
 21
8.4323975926
  0
LINE
  5
30B
100
AcDbEntity
  8
0
100
AcDbLine
 62
7
  6
CONTINUOUS
 10
11.587473324
 20
7.7188080295
 11
11.4844728235
 21
7.61931718
  0
LINE
  5
30C
100
AcDbEntity
  8
0
100
AcDbLine
 62
7
  6
CONTINUOUS
 10
11.6341701141
 20
7.6886091918
 11
11.5311696136
 21
7.5891183422
  0
LINE
  5
30D
100
AcDbEntity
  8
0
100
AcDbLine
 62
4
  6
CONTINUOUS
 10
9.0349162305
 20
9.1263635882
 11
9.0638940064
 21
9.1315984166
  0
LINE
  5
30E
100
AcDbEntity
  8
0
100
AcDbLine
 62
7
  6
CONTINUOUS
 10
8.5828629239
 20
9.6141135594
 11
12.446566458
 21
9.3461648093
  0
LINE
  5
30F
100
AcDbEntity
  8
0
100
AcDbLine
 62
4
  6
CONTINUOUS
 10
12.2244034594
 20
8.7820163718
 11
12.2437219763
 21
8.7661877402
  0
LINE
  5
310
100
AcDbEntity
  8
0
100
AcDbLine
 62
4
  6
CONTINUOUS
 10
12.1471293881
 20
8.3889309288
 11
12.1374701318
 21
8.4040896884
  0
LINE
  5
311
100
AcDbEntity
  8
0
100
AcDbLine
 62
4
  6
CONTINUOUS
 10
12.2437219763
 20
8.4256988738
 11
12.2533812352
 21
8.410540114
  0
LINE
  5
312
100
AcDbEntity
  8
0
100
AcDbLine
 62
4
  6
CONTINUOUS
 10
12.1374701318
 20
6.9552008631
 11
12.1374701318
 21
6.9696897511
  0
LINE
  5
313
100
AcDbEntity
  8
0
100
AcDbLine
 62
4
  6
CONTINUOUS
 10
12.1374701318
 20
7.1652897381
 11
12.1374701318
 21
7.2232452898
  0
LINE
  5
314
100
AcDbEntity
  8
0
100
AcDbLine
 62
4
  6
CONTINUOUS
 10
12.1374701318
 20
7.2812008415
 11
12.1374701318
 21
7.3101786174
  0
LINE
  5
315
100
AcDbEntity
  8
0
100
AcDbLine
 62
4
  6
CONTINUOUS
 10
12.1374701318
 20
8.4040896884
 11
12.1374701318
 21
8.4185785763
  0
LINE
  5
316
100
AcDbEntity
  8
0
100
AcDbLine
 62
4
  6
CONTINUOUS
 10
12.1374701318
 20
8.6141785634
 11
12.1374701318
 21
8.6721341151
  0
LINE
  5
317
100
AcDbEntity
  8
0
100
AcDbLine
 62
4
  6
CONTINUOUS
 10
12.1374701318
 20
8.7300896668
 11
12.1374701318
 21
8.7590674427
  0
LINE
  5
318
100
AcDbEntity
  8
0
100
AcDbLine
 62
4
  6
CONTINUOUS
 10
12.1374701318
 20
8.9836452056
 11
12.1374701318
 21
8.9981340935
  0
LINE
  5
319
100
AcDbEntity
  8
0
100
AcDbLine
 62
4
  6
CONTINUOUS
 10
12.1954256835
 20
7.1612705069
 11
12.1954256835
 21
7.1974927268
  0
LINE
  5
31A
100
AcDbEntity
  8
0
100
AcDbLine
 62
4
  6
CONTINUOUS
 10
12.1954256835
 20
7.4003371578
 11
12.1954256835
 21
7.4438038216
  0
LINE
  5
31B
100
AcDbEntity
  8
0
100
AcDbLine
 62
4
  6
CONTINUOUS
 10
12.1954256835
 20
8.6101593322
 11
12.1954256835
 21
8.646381552
  0
LINE
  5
31C
100
AcDbEntity
  8
0
100
AcDbLine
 62
4
  6
CONTINUOUS
 10
12.1954256835
 20
8.8492259831
 11
12.1954256835
 21
8.8926926468
  0
LINE
  5
31D
100
AcDbEntity
  8
0
100
AcDbLine
 62
4
  6
CONTINUOUS
 10
12.2533812352
 20
8.7510289803
 11
12.2533812352
 21
8.7220512045
  0
LINE
  5
31E
100
AcDbEntity
  8
0
100
AcDbLine
 62
4
  6
CONTINUOUS
 10
12.2533812352
 20
8.6640956528
 11
12.2533812352
 21
8.6061401011
  0
LINE
  5
31F
100
AcDbEntity
  8
0
100
AcDbLine
 62
4
  6
CONTINUOUS
 10
12.2533812352
 20
8.410540114
 11
12.2533812352
 21
8.3960512261
  0
LINE
  5
320
100
AcDbEntity
  8
0
100
AcDbLine
 62
4
  6
CONTINUOUS
 10
12.2533812352
 20
7.3021401551
 11
12.2533812352
 21
7.2731623792
  0
LINE
  5
321
100
AcDbEntity
  8
0
100
AcDbLine
 62
4
  6
CONTINUOUS
 10
12.2533812352
 20
7.2152068275
 11
12.2533812352
 21
7.1572512758
  0
LINE
  5
322
100
AcDbEntity
  8
0
100
AcDbLine
 62
4
  6
CONTINUOUS
 10
12.2533812352
 20
6.9616512887
 11
12.2533812352
 21
6.9471624008
  0
LINE
  5
323
100
AcDbEntity
  8
0
100
AcDbLine
 62
4
  6
CONTINUOUS
 10
12.2533812352
 20
8.9538734114
 11
12.2533812352
 21
9.0118289631
  0
LINE
  5
324
100
AcDbEntity
  8
0
100
AcDbLine
 62
4
  6
CONTINUOUS
 10
12.2533812352
 20
8.3960512261
 11
12.2437219763
 21
8.38223221
  0
LINE
  5
325
100
AcDbEntity
  8
0
100
AcDbLine
 62
4
  6
CONTINUOUS
 10
12.1567886513
 20
8.9605721298
 11
12.1471293881
 21
8.9684864459
  0
LINE
  5
326
100
AcDbEntity
  8
0
100
AcDbLine
 62
4
  6
CONTINUOUS
 10
12.2050849433
 20
8.9789561025
 11
12.2244034594
 21
8.9631274709
  0
LINE
  5
327
100
AcDbEntity
  8
0
100
AcDbLine
 62
4
  6
CONTINUOUS
 10
12.176107164
 20
9.0171879381
 11
12.1857664272
 21
9.009273622
  0
LINE
  5
328
100
AcDbEntity
  8
0
100
AcDbLine
 62
4
  6
CONTINUOUS
 10
12.2437219763
 20
8.7661877402
 11
12.2533812352
 21
8.7510289803
  0
LINE
  5
329
100
AcDbEntity
  8
0
100
AcDbLine
 62
4
  6
CONTINUOUS
 10
12.1471293881
 20
8.9684864459
 11
12.1374701318
 21
8.9836452056
  0
LINE
  5
32A
100
AcDbEntity
  8
0
100
AcDbLine
 62
4
  6
CONTINUOUS
 10
12.1857664272
 20
9.009273622
 11
12.2050849433
 21
8.9789561025
  0
LINE
  5
32B
100
AcDbEntity
  8
0
100
AcDbLine
 62
4
  6
CONTINUOUS
 10
12.8640412206
 20
7.501222086
 11
12.8588648435
 21
7.5107109773
  0
LINE
  5
32C
100
AcDbEntity
  8
0
100
AcDbLine
 62
4
  6
CONTINUOUS
 10
12.8821585383
 20
7.5839220677
 11
12.8847467266
 21
7.5791776218
  0
LINE
  5
32D
100
AcDbEntity
  8
0
100
AcDbLine
 62
7
  6
CONTINUOUS
 10
12.446566458
 20
9.3461648093
 11
12.446566458
 21
6.4483871587
  0
LINE
  5
32E
100
AcDbEntity
  8
0
100
AcDbLine
 62
4
  6
CONTINUOUS
 10
12.8795703502
 20
8.9651107843
 11
12.8718057854
 21
8.9503663462
  0
LINE
  5
32F
100
AcDbEntity
  8
0
100
AcDbLine
 62
4
  6
CONTINUOUS
 10
12.8588648435
 20
9.1189774546
 11
12.861453033
 21
9.1287218978
  0
LINE
  5
330
100
AcDbEntity
  8
0
100
AcDbLine
 62
4
  6
CONTINUOUS
 10
12.8588648435
 20
9.0030663512
 11
12.861453033
 21
9.0128107944
  0
LINE
  5
331
100
AcDbEntity
  8
0
100
AcDbLine
 62
4
  6
CONTINUOUS
 10
12.8847467266
 20
8.9845996682
 11
12.8795703502
 21
8.9651107843
  0
LINE
  5
332
100
AcDbEntity
  8
0
100
AcDbLine
 62
4
  6
CONTINUOUS
 10
12.1374701318
 20
7.3101786174
 11
12.1471293881
 21
7.3239976336
  0
LINE
  5
333
100
AcDbEntity
  8
0
100
AcDbLine
 62
7
  6
CONTINUOUS
 10
11.9167233514
 20
7.1796174954
 11
11.8137228508
 21
7.0801266459
  0
LINE
  5
334
100
AcDbEntity
  8
0
100
AcDbLine
 62
7
  6
CONTINUOUS
 10
11.9167233514
 20
7.1256966867
 11
11.8137228508
 21
7.0262058372
  0
LINE
  5
335
100
AcDbEntity
  8
0
100
AcDbLine
 62
4
  6
CONTINUOUS
 10
12.1471293881
 20
7.3239976336
 11
12.1664479076
 21
7.3371467777
  0
LINE
  5
336
100
AcDbEntity
  8
0
100
AcDbLine
 62
4
  6
CONTINUOUS
 10
12.8588648435
 20
7.5107109773
 11
12.8562766559
 21
7.5226998677
  0
LINE
  5
337
100
AcDbEntity
  8
0
100
AcDbLine
 62
4
  6
CONTINUOUS
 10
12.8847467266
 20
7.5791776218
 11
12.8873349149
 21
7.567188732
  0
LINE
  5
338
100
AcDbEntity
  8
0
100
AcDbLine
 62
4
  6
CONTINUOUS
 10
12.8562766559
 20
7.5226998677
 11
12.8562766559
 21
7.5371887557
  0
LINE
  5
339
100
AcDbEntity
  8
0
100
AcDbLine
 62
4
  6
CONTINUOUS
 10
12.8562766559
 20
8.9715885779
 11
12.8562766559
 21
8.9860774658
  0
LINE
  5
33A
100
AcDbEntity
  8
0
100
AcDbLine
 62
4
  6
CONTINUOUS
 10
12.8562766559
 20
9.0874996813
 11
12.8562766559
 21
9.1019885692
  0
LINE
  5
33B
100
AcDbEntity
  8
0
100
AcDbLine
 62
4
  6
CONTINUOUS
 10
12.8873349149
 20
9.0160774422
 11
12.8873349149
 21
9.0015885542
  0
LINE
  5
33C
100
AcDbEntity
  8
0
100
AcDbLine
 62
4
  6
CONTINUOUS
 10
12.8873349149
 20
7.567188732
 11
12.8873349149
 21
7.5526998441
  0
LINE
  5
33D
100
AcDbEntity
  8
0
100
AcDbLine
 62
4
  6
CONTINUOUS
 10
12.8873349149
 20
9.0957663258
 11
12.8873349149
 21
9.1537218775
  0
LINE
  5
33E
100
AcDbEntity
  8
0
100
AcDbLine
 62
4
  6
CONTINUOUS
 10
12.8562766559
 20
9.1019885692
 11
12.8588648435
 21
9.1189774546
  0
LINE
  5
33F
100
AcDbEntity
  8
0
100
AcDbLine
 62
4
  6
CONTINUOUS
 10
12.8562766559
 20
8.9860774658
 11
12.8588648435
 21
9.0030663512
  0
LINE
  5
340
100
AcDbEntity
  8
0
100
AcDbLine
 62
4
  6
CONTINUOUS
 10
12.8873349149
 20
9.0015885542
 11
12.8847467266
 21
8.9845996682
  0
LINE
  5
341
100
AcDbEntity
  8
0
100
AcDbLine
 62
4
  6
CONTINUOUS
 10
12.1374701318
 20
6.9696897511
 11
12.1471293881
 21
6.9835087673
  0
LINE
  5
342
100
AcDbEntity
  8
0
100
AcDbLine
 62
4
  6
CONTINUOUS
 10
12.2533812352
 20
6.9471624008
 11
12.2437219763
 21
6.9333433848
  0
LINE
  5
343
100
AcDbEntity
  8
0
100
AcDbLine
 62
7
  6
CONTINUOUS
 10
11.6341701141
 20
6.6558952575
 11
11.5311696136
 21
6.5564044079
  0
LINE
  5
344
100
AcDbEntity
  8
0
100
AcDbLine
 62
4
  6
CONTINUOUS
 10
12.8562766559
 20
7.6458554151
 11
12.8873349149
 21
7.6758553915
  0
LINE
  5
345
100
AcDbEntity
  8
0
100
AcDbLine
 62
4
  6
CONTINUOUS
 10
12.1471293881
 20
6.9835087673
 11
12.1567886513
 21
6.9900833391
  0
LINE
  5
346
100
AcDbEntity
  8
0
100
AcDbLine
 62
4
  6
CONTINUOUS
 10
12.1374701318
 20
7.0493786347
 11
12.2533812352
 21
7.0992957241
  0
LINE
  5
347
100
AcDbEntity
  8
0
100
AcDbLine
 62
4
  6
CONTINUOUS
 10
12.8640412206
 20
8.9501107961
 11
12.8588648435
 21
8.9595996874
  0
LINE
  5
348
100
AcDbEntity
  8
0
100
AcDbLine
 62
4
  6
CONTINUOUS
 10
12.861453033
 20
9.0707663461
 11
12.8588648435
 21
9.0755107908
  0
LINE
  5
349
100
AcDbEntity
  8
0
100
AcDbLine
 62
4
  6
CONTINUOUS
 10
12.8821585383
 20
9.0328107778
 11
12.8847467266
 21
9.028066332
  0
LINE
  5
34A
100
AcDbEntity
  8
0
100
AcDbLine
 62
4
  6
CONTINUOUS
 10
12.8588648435
 20
8.9595996874
 11
12.8562766559
 21
8.9715885779
  0
LINE
  5
34B
100
AcDbEntity
  8
0
100
AcDbLine
 62
4
  6
CONTINUOUS
 10
12.8562766559
 20
7.5371887557
 11
12.8588648435
 21
7.554177641
  0
LINE
  5
34C
100
AcDbEntity
  8
0
100
AcDbLine
 62
4
  6
CONTINUOUS
 10
12.8873349149
 20
7.5526998441
 11
12.8847467266
 21
7.5357109581
  0
LINE
  5
34D
100
AcDbEntity
  8
0
100
AcDbLine
 62
4
  6
CONTINUOUS
 10
12.8588648435
 20
7.554177641
 11
12.861453033
 21
7.5639220842
  0
LINE
  5
34E
100
AcDbEntity
  8
0
100
AcDbLine
 62
4
  6
CONTINUOUS
 10
12.8847467266
 20
7.5357109581
 11
12.8795703502
 21
7.5162220741
  0
LINE
  5
34F
100
AcDbEntity
  8
0
100
AcDbLine
 62
4
  6
CONTINUOUS
 10
12.8795703502
 20
7.5162220741
 11
12.8718057854
 21
7.5014776361
  0
LINE
  5
350
100
AcDbEntity
  8
0
100
AcDbLine
 62
4
  6
CONTINUOUS
 10
12.2437219763
 20
6.9333433848
 11
12.2244034594
 21
6.9201942405
  0
LINE
  5
351
100
AcDbEntity
  8
0
100
AcDbLine
 62
7
  6
CONTINUOUS
 10
9.553433542
 20
10.5516128413
 11
13.4171370761
 21
10.2836640911
  0
LINE
  5
352
100
AcDbEntity
  8
0
100
AcDbLine
 62
4
  6
CONTINUOUS
 10
12.874393974
 20
9.1049996678
 11
12.8795703502
 21
9.0955107756
  0
LINE
  5
353
100
AcDbEntity
  8
0
100
AcDbLine
 62
4
  6
CONTINUOUS
 10
12.8666294083
 20
9.1337218927
 11
12.8692175978
 21
9.1289774479
  0
LINE
  5
354
100
AcDbEntity
  8
0
100
AcDbLine
 62
4
  6
CONTINUOUS
 10
12.8588648435
 20
9.0755107908
 11
12.8562766559
 21
9.0874996813
  0
LINE
  5
355
100
AcDbEntity
  8
0
100
AcDbLine
 62
4
  6
CONTINUOUS
 10
12.8847467266
 20
9.028066332
 11
12.8873349149
 21
9.0160774422
  0
LINE
  5
356
100
AcDbEntity
  8
0
100
AcDbLine
 62
4
  6
CONTINUOUS
 10
12.8692175978
 20
9.1289774479
 11
12.874393974
 21
9.1049996678
  0
LINE
  5
357
100
AcDbEntity
  8
0
100
AcDbLine
 62
7
  6
CONTINUOUS
 10
13.4171370761
 20
10.2836640911
 11
13.4171370761
 21
7.3858864406
  0
LINE
  5
358
100
AcDbEntity
  8
0
100
AcDbLine
 62
7
  6
CONTINUOUS
 10
12.446566458
 20
6.4483871587
 11
13.4171370761
 21
7.3858864406
  0
ARC
  5
359
100
AcDbEntity
  8
0
100
AcDbCircle
 62
7
  6
CONTINUOUS
 10
9.8913827308
 20
7.2335229056
 40
0.6699925153
100
AcDbArc
 50
26.6598562642
 51
31.4115094164
  0
ARC
  5
35A
100
AcDbEntity
  8
0
100
AcDbCircle
 62
7
  6
CONTINUOUS
 10
9.8983805073
 20
7.245030179
 40
0.6689722376
100
AcDbArc
 50
206.6562307081
 51
211.4151349725
  0
ARC
  5
35B
100
AcDbEntity
  8
0
100
AcDbCircle
 62
7
  6
CONTINUOUS
 10
9.7892750456
 20
7.1345276789
 40
0.6689722376
100
AcDbArc
 50
26.6562307081
 51
31.4151349725
  0
ARC
  5
35C
100
AcDbEntity
  8
0
100
AcDbCircle
 62
7
  6
CONTINUOUS
 10
9.8867594171
 20
7.1959927109
 40
0.6200987324
100
AcDbArc
 50
263.5283744339
 51
266.0300335618
  0
ARC
  5
35D
100
AcDbEntity
  8
0
100
AcDbCircle
 62
7
  6
CONTINUOUS
 10
9.8008961358
 20
7.183565147
 40
0.6200987324
100
AcDbArc
 50
83.5283744339
 51
86.0300335618
  0
ARC
  5
35E
100
AcDbEntity
  8
0
100
AcDbCircle
 62
7
  6
CONTINUOUS
 10
9.903981849
 20
7.2839885755
 40
0.6191624918
100
AcDbArc
 50
83.5264827433
 51
86.0319252524
  0
ARC
  5
35F
100
AcDbEntity
  8
0
100
AcDbCircle
 62
7
  6
CONTINUOUS
 10
9.9043060066
 20
7.2886625721
 40
0.614477268
100
AcDbArc
 50
86.031919382
 51
88.5488078505
  0
ARC
  5
360
100
AcDbEntity
  8
0
100
AcDbCircle
 62
7
  6
CONTINUOUS
 10
9.8863500469
 20
7.1903861353
 40
0.614477268
100
AcDbArc
 50
266.031919382
 51
268.5488078505
  0
ARC
  5
361
100
AcDbEntity
  8
0
100
AcDbCircle
 62
7
  6
CONTINUOUS
 10
9.801305506
 20
7.1891717226
 40
0.614477268
100
AcDbArc
 50
86.031919382
 51
88.5488078504
  0
ARC
  5
362
100
AcDbEntity
  8
0
100
AcDbCircle
 62
7
  6
CONTINUOUS
 10
9.9980096837
 20
7.2345023233
 40
0.5591685417
100
AcDbArc
 50
326.2950117378
 51
331.6569605865
  0
ARC
  5
363
100
AcDbEntity
  8
0
100
AcDbCircle
 62
7
  6
CONTINUOUS
 10
9.7926463698
 20
7.2445463841
 40
0.5591685417
100
AcDbArc
 50
146.2950117378
 51
151.6569605865
  0
ARC
  5
364
100
AcDbEntity
  8
0
100
AcDbCircle
 62
7
  6
CONTINUOUS
 10
9.8950091831
 20
7.1350114738
 40
0.5591685417
100
AcDbArc
 50
326.2950117378
 51
331.6569605865
  0
ARC
  5
365
100
AcDbEntity
  8
0
100
AcDbCircle
 62
7
  6
CONTINUOUS
 10
9.8913827308
 20
8.6824117309
 40
0.6699925153
100
AcDbArc
 50
26.6598562642
 51
31.4115094164
  0
ARC
  5
366
100
AcDbEntity
  8
0
100
AcDbCircle
 62
7
  6
CONTINUOUS
 10
9.8983805073
 20
8.6939190043
 40
0.6689722376
100
AcDbArc
 50
206.6562307081
 51
211.4151349725
  0
ARC
  5
367
100
AcDbEntity
  8
0
100
AcDbCircle
 62
7
  6
CONTINUOUS
 10
9.7892750456
 20
8.5834165042
 40
0.6689722376
100
AcDbArc
 50
26.6562307081
 51
31.4151349724
  0
ARC
  5
368
100
AcDbEntity
  8
0
100
AcDbCircle
 62
7
  6
CONTINUOUS
 10
9.8867594171
 20
8.6448815362
 40
0.6200987324
100
AcDbArc
 50
263.5283744339
 51
266.0300335618
  0
ARC
  5
369
100
AcDbEntity
  8
0
100
AcDbCircle
 62
7
  6
CONTINUOUS
 10
9.8008961358
 20
8.6324539722
 40
0.6200987324
100
AcDbArc
 50
83.5283744338
 51
86.0300335618
  0
ARC
  5
36A
100
AcDbEntity
  8
0
100
AcDbCircle
 62
7
  6
CONTINUOUS
 10
9.903981849
 20
8.7328774008
 40
0.6191624918
100
AcDbArc
 50
83.5264827433
 51
86.0319252524
  0
ARC
  5
36B
100
AcDbEntity
  8
0
100
AcDbCircle
 62
7
  6
CONTINUOUS
 10
9.9043060066
 20
8.7375513974
 40
0.614477268
100
AcDbArc
 50
86.031919382
 51
88.5488078505
  0
ARC
  5
36C
100
AcDbEntity
  8
0
100
AcDbCircle
 62
7
  6
CONTINUOUS
 10
9.8863500469
 20
8.6392749605
 40
0.614477268
100
AcDbArc
 50
266.031919382
 51
268.5488078504
  0
ARC
  5
36D
100
AcDbEntity
  8
0
100
AcDbCircle
 62
7
  6
CONTINUOUS
 10
9.801305506
 20
8.6380605479
 40
0.614477268
100
AcDbArc
 50
86.031919382
 51
88.5488078504
  0
ARC
  5
36E
100
AcDbEntity
  8
0
100
AcDbCircle
 62
7
  6
CONTINUOUS
 10
9.9980096837
 20
8.6833911486
 40
0.5591685417
100
AcDbArc
 50
326.2950117378
 51
331.6569605865
  0
ARC
  5
36F
100
AcDbEntity
  8
0
100
AcDbCircle
 62
7
  6
CONTINUOUS
 10
9.7926463698
 20
8.6934352094
 40
0.5591685417
100
AcDbArc
 50
146.2950117378
 51
151.6569605865
  0
ARC
  5
370
100
AcDbEntity
  8
0
100
AcDbCircle
 62
7
  6
CONTINUOUS
 10
9.8950091831
 20
8.5839002991
 40
0.5591685417
100
AcDbArc
 50
326.2950117378
 51
331.6569605865
  0
ARC
  5
371
100
AcDbEntity
  8
0
100
AcDbCircle
 62
7
  6
CONTINUOUS
 10
11.2460975433
 20
7.1397316644
 40
0.6722104286
100
AcDbArc
 50
54.7385646396
 51
59.4798967553
  0
ARC
  5
372
100
AcDbEntity
  8
0
100
AcDbCircle
 62
7
  6
CONTINUOUS
 10
11.2607421296
 20
7.1509490692
 40
0.6722104286
100
AcDbArc
 50
234.7385646396
 51
239.4798967553
  0
ARC
  5
373
100
AcDbEntity
  8
0
100
AcDbCircle
 62
7
  6
CONTINUOUS
 10
11.1430970427
 20
7.0402408149
 40
0.6722104286
100
AcDbArc
 50
54.7385646396
 51
59.4798967553
  0
ARC
  5
374
100
AcDbEntity
  8
0
100
AcDbCircle
 62
7
  6
CONTINUOUS
 10
11.3025797202
 20
7.1526055967
 40
0.6147373768
100
AcDbArc
 50
0.0009616752
 51
2.5184189485
  0
ARC
  5
375
100
AcDbEntity
  8
0
100
AcDbCircle
 62
7
  6
CONTINUOUS
 10
11.2042599527
 20
7.1380751369
 40
0.6147373768
100
AcDbArc
 50
180.0009616752
 51
182.5184189486
  0
ARC
  5
376
100
AcDbEntity
  8
0
100
AcDbCircle
 62
7
  6
CONTINUOUS
 10
11.1995792196
 20
7.0531147471
 40
0.6147373768
100
AcDbArc
 50
0.0009616752
 51
2.5184189485
  0
ARC
  5
377
100
AcDbEntity
  8
0
100
AcDbCircle
 62
7
  6
CONTINUOUS
 10
11.3072537206
 20
7.1526056506
 40
0.6100633764
100
AcDbArc
 50
357.4719504675
 51
0.0009639761
  0
ARC
  5
378
100
AcDbEntity
  8
0
100
AcDbCircle
 62
7
  6
CONTINUOUS
 10
11.1986547976
 20
7.1380956211
 40
0.6091322224
100
AcDbArc
 50
177.4700171562
 51
180.0028972874
  0
ARC
  5
379
100
AcDbEntity
  8
0
100
AcDbCircle
 62
7
  6
CONTINUOUS
 10
11.2051843747
 20
7.053094263
 40
0.6091322224
100
AcDbArc
 50
357.4700171562
 51
0.0028972874
  0
ARC
  5
37A
100
AcDbEntity
  8
0
100
AcDbCircle
 62
7
  6
CONTINUOUS
 10
11.2529654122
 20
7.246241758
 40
0.5613113681
100
AcDbArc
 50
114.256426479
 51
119.6047156508
  0
ARC
  5
37B
100
AcDbEntity
  8
0
100
AcDbCircle
 62
7
  6
CONTINUOUS
 10
11.2538742607
 20
7.0444389756
 40
0.5613113681
100
AcDbArc
 50
294.256426479
 51
299.6047156508
  0
ARC
  5
37C
100
AcDbEntity
  8
0
100
AcDbCircle
 62
7
  6
CONTINUOUS
 10
11.1499649117
 20
7.1467509085
 40
0.5613113681
100
AcDbArc
 50
114.256426479
 51
119.6047156508
  0
ARC
  5
37D
100
AcDbEntity
  8
0
100
AcDbCircle
 62
7
  6
CONTINUOUS
 10
11.2460975433
 20
8.5886204897
 40
0.6722104286
100
AcDbArc
 50
54.7385646396
 51
59.4798967553
  0
ARC
  5
37E
100
AcDbEntity
  8
0
100
AcDbCircle
 62
7
  6
CONTINUOUS
 10
11.2607421296
 20
8.5998378945
 40
0.6722104286
100
AcDbArc
 50
234.7385646396
 51
239.4798967553
  0
ARC
  5
37F
100
AcDbEntity
  8
0
100
AcDbCircle
 62
7
  6
CONTINUOUS
 10
11.1430970427
 20
8.4891296401
 40
0.6722104286
100
AcDbArc
 50
54.7385646396
 51
59.4798967553
  0
ARC
  5
380
100
AcDbEntity
  8
0
100
AcDbCircle
 62
7
  6
CONTINUOUS
 10
11.3025797202
 20
8.6014944219
 40
0.6147373768
100
AcDbArc
 50
0.0009616752
 51
2.5184189485
  0
ARC
  5
381
100
AcDbEntity
  8
0
100
AcDbCircle
 62
7
  6
CONTINUOUS
 10
11.2042599527
 20
8.5869639622
 40
0.6147373768
100
AcDbArc
 50
180.0009616752
 51
182.5184189486
  0
ARC
  5
382
100
AcDbEntity
  8
0
100
AcDbCircle
 62
7
  6
CONTINUOUS
 10
11.1995792197
 20
8.5020035724
 40
0.6147373768
100
AcDbArc
 50
0.0009616751
 51
2.5184189486
  0
ARC
  5
383
100
AcDbEntity
  8
0
100
AcDbCircle
 62
7
  6
CONTINUOUS
 10
11.3072537206
 20
8.6014944759
 40
0.6100633764
100
AcDbArc
 50
357.4719504675
 51
0.0009639761
  0
ARC
  5
384
100
AcDbEntity
  8
0
100
AcDbCircle
 62
7
  6
CONTINUOUS
 10
11.1986547976
 20
8.5869844463
 40
0.6091322224
100
AcDbArc
 50
177.4700171562
 51
180.0028972874
  0
ARC
  5
385
100
AcDbEntity
  8
0
100
AcDbCircle
 62
7
  6
CONTINUOUS
 10
11.2051843747
 20
8.5019830883
 40
0.6091322224
100
AcDbArc
 50
357.4700171562
 51
0.0028972874
  0
ARC
  5
386
100
AcDbEntity
  8
0
100
AcDbCircle
 62
7
  6
CONTINUOUS
 10
11.2529654122
 20
8.6951305833
 40
0.5613113681
100
AcDbArc
 50
114.256426479
 51
119.6047156508
  0
ARC
  5
387
100
AcDbEntity
  8
0
100
AcDbCircle
 62
7
  6
CONTINUOUS
 10
11.2538742607
 20
8.4933278009
 40
0.5613113681
100
AcDbArc
 50
294.256426479
 51
299.6047156508
  0
ARC
  5
388
100
AcDbEntity
  8
0
100
AcDbCircle
 62
7
  6
CONTINUOUS
 10
11.1499649117
 20
8.5956397338
 40
0.5613113681
100
AcDbArc
 50
114.256426479
 51
119.6047156508
  0
SPLINE
  5
389
100
AcDbEntity
  8
0
100
AcDbSpline
 62
7
  6
CONTINUOUS
 70
0
 71
3
 72
15
 73
11
 74
0
 42
0.0000001
 43
0.0000001
 44
0.0000000001
 40
0.0
 40
0.0
 40
0.0
 40
0.0
 40
0.130853243
 40
0.2612478082
 40
0.3906112907
 40
0.5182255703
 40
0.6433665409
 40
0.7654878953
 40
0.8843462897
 40
1.0
 40
1.0
 40
1.0
 40
1.0
 10
10.4901456485
 20
6.9690373535
 30
0.0
 10
10.4917893776
 20
6.9936538878
 30
0.0
 10
10.4947775776
 20
7.0428210221
 30
0.0
 10
10.4981861734
 20
7.1163917138
 30
0.0
 10
10.5003325171
 20
7.189400185
 30
0.0
 10
10.5010756164
 20
7.2614466067
 30
0.0
 10
10.5003605194
 20
7.3321280988
 30
0.0
 10
10.4982358134
 20
7.4011294
 30
0.0
 10
10.4948395015
 20
7.4682879051
 30
0.0
 10
10.4918124307
 20
7.512402025
 30
0.0
 10
10.4901456485
 20
7.5341438281
 30
0.0
  0
SPLINE
  5
38A
100
AcDbEntity
  8
0
100
AcDbSpline
 62
7
  6
CONTINUOUS
 70
0
 71
3
 72
18
 73
14
 74
0
 42
0.0000001
 43
0.0000001
 44
0.0000000001
 40
0.0
 40
0.0
 40
0.0
 40
0.0
 40
0.1209533837
 40
0.2437778942
 40
0.3058582232
 40
0.3683347693
 40
0.4311529717
 40
0.4942444779
 40
0.5575323574
 40
0.6209360738
 40
0.7477793722
 40
0.8742481621
 40
1.0
 40
1.0
 40
1.0
 40
1.0
 10
10.4631852442
 20
7.5827103285
 30
0.0
 10
10.4447314575
 20
7.5973174262
 30
0.0
 10
10.4072598678
 20
7.6264080892
 30
0.0
 10
10.3594608408
 20
7.6618749006
 30
0.0
 10
10.3202842496
 20
7.6898455894
 30
0.0
 10
10.2903423656
 20
7.7106511431
 30
0.0
 10
10.2599660834
 20
7.7311708174
 30
0.0
 10
10.2291861267
 20
7.7513690939
 30
0.0
 10
10.1980425458
 20
7.771214951
 30
0.0
 10
10.1560911284
 20
7.797175686
 30
0.0
 10
10.1030649687
 20
7.8285918275
 30
0.0
 10
10.0387413323
 20
7.8646977895
 30
0.0
 10
9.9954631781
 20
7.8878478567
 30
0.0
 10
9.9737886813
 20
7.8992033327
 30
0.0
  0
SPLINE
  5
38B
100
AcDbEntity
  8
0
100
AcDbSpline
 62
7
  6
CONTINUOUS
 70
0
 71
3
 72
15
 73
11
 74
0
 42
0.0000001
 43
0.0000001
 44
0.0000000001
 40
0.0
 40
0.0
 40
0.0
 40
0.0
 40
0.112346891
 40
0.2287649619
 40
0.3494215021
 40
0.4741363415
 40
0.6023573719
 40
0.7332837662
 40
0.866070494
 40
1.0
 40
1.0
 40
1.0
 40
1.0
 10
9.9198678727
 20
7.9029427535
 30
0.0
 10
9.9012381935
 20
7.8942451501
 30
0.0
 10
9.8633675731
 20
7.8763975944
 30
0.0
 10
9.8057419151
 20
7.8486770231
 30
0.0
 10
9.746325284
 20
7.819463592
 30
0.0
 10
9.6852391074
 20
7.7887563567
 30
0.0
 10
9.6227468593
 20
7.7566675832
 30
0.0
 10
9.5592010429
 20
7.7234019162
 30
0.0
 10
9.4949641291
 20
7.6892080553
 30
0.0
 10
9.4520116521
 20
7.6660228476
 30
0.0
 10
9.4304713099
 20
7.6543292831
 30
0.0
  0
SPLINE
  5
38C
100
AcDbEntity
  8
0
100
AcDbSpline
 62
7
  6
CONTINUOUS
 70
0
 71
3
 72
15
 73
11
 74
0
 42
0.0000001
 43
0.0000001
 44
0.0000000001
 40
0.0
 40
0.0
 40
0.0
 40
0.0
 40
0.130853243
 40
0.2612478082
 40
0.3906112907
 40
0.5182255703
 40
0.6433665409
 40
0.7654878953
 40
0.8843462897
 40
1.0
 40
1.0
 40
1.0
 40
1.0
 10
9.300510405
 20
7.5100113539
 30
0.0
 10
9.2988666759
 20
7.4853948196
 30
0.0
 10
9.2958784758
 20
7.4362276853
 30
0.0
 10
9.29246988
 20
7.3626569936
 30
0.0
 10
9.2903235363
 20
7.2896485224
 30
0.0
 10
9.2895804371
 20
7.2176021007
 30
0.0
 10
9.2902955341
 20
7.1469206086
 30
0.0
 10
9.2924202401
 20
7.0779193074
 30
0.0
 10
9.295816552
 20
7.0107608023
 30
0.0
 10
9.2988436227
 20
6.9666466824
 30
0.0
 10
9.300510405
 20
6.9449048793
 30
0.0
  0
SPLINE
  5
38D
100
AcDbEntity
  8
0
100
AcDbSpline
 62
7
  6
CONTINUOUS
 70
0
 71
3
 72
18
 73
14
 74
0
 42
0.0000001
 43
0.0000001
 44
0.0000000001
 40
0.0
 40
0.0
 40
0.0
 40
0.0
 40
0.1209533837
 40
0.2437778942
 40
0.3058582232
 40
0.3683347693
 40
0.4311529717
 40
0.4942444779
 40
0.5575323574
 40
0.6209360738
 40
0.7477793722
 40
0.8742481621
 40
1.0
 40
1.0
 40
1.0
 40
1.0
 10
9.3274708093
 20
6.8963383789
 30
0.0
 10
9.345924596
 20
6.8817312812
 30
0.0
 10
9.3833961856
 20
6.8526406182
 30
0.0
 10
9.4311952126
 20
6.8171738068
 30
0.0
 10
9.4703718038
 20
6.789203118
 30
0.0
 10
9.5003136879
 20
6.7683975643
 30
0.0
 10
9.53068997
 20
6.74787789
 30
0.0
 10
9.5614699268
 20
6.7276796135
 30
0.0
 10
9.5926135077
 20
6.7078337564
 30
0.0
 10
9.634564925
 20
6.6818730214
 30
0.0
 10
9.6875910848
 20
6.6504568799
 30
0.0
 10
9.7519147212
 20
6.6143509179
 30
0.0
 10
9.7951928754
 20
6.5912008507
 30
0.0
 10
9.8168673721
 20
6.5798453747
 30
0.0
  0
SPLINE
  5
38E
100
AcDbEntity
  8
0
100
AcDbSpline
 62
7
  6
CONTINUOUS
 70
0
 71
3
 72
15
 73
11
 74
0
 42
0.0000001
 43
0.0000001
 44
0.0000000001
 40
0.0
 40
0.0
 40
0.0
 40
0.0
 40
0.112346891
 40
0.2287649619
 40
0.3494215021
 40
0.4741363415
 40
0.6023573719
 40
0.7332837662
 40
0.866070494
 40
1.0
 40
1.0
 40
1.0
 40
1.0
 10
9.8707881808
 20
6.5761059539
 30
0.0
 10
9.88941786
 20
6.5848035573
 30
0.0
 10
9.9272884804
 20
6.602651113
 30
0.0
 10
9.9849141383
 20
6.6303716843
 30
0.0
 10
10.0443307695
 20
6.6595851154
 30
0.0
 10
10.1054169461
 20
6.6902923506
 30
0.0
 10
10.1679091941
 20
6.7223811242
 30
0.0
 10
10.2314550105
 20
6.7556467912
 30
0.0
 10
10.2956919244
 20
6.7898406521
 30
0.0
 10
10.3386444013
 20
6.8130258598
 30
0.0
 10
10.3601847436
 20
6.8247194243
 30
0.0
  0
SPLINE
  5
38F
100
AcDbEntity
  8
0
100
AcDbSpline
 62
7
  6
CONTINUOUS
 70
0
 71
3
 72
49
 73
45
 74
0
 42
0.0000001
 43
0.0000001
 44
0.0000000001
 40
0.0
 40
0.0
 40
0.0
 40
0.0
 40
0.031187151
 40
0.0621645213
 40
0.0929401585
 40
0.1082629014
 40
0.1235424257
 40
0.1387821476
 40
0.1539858757
 40
0.1691576791
 40
0.1843020069
 40
0.1994235946
 40
0.2145274341
 40
0.2296186839
 40
0.2447026442
 40
0.2597846952
 40
0.2748702365
 40
0.2899646369
 40
0.3050731598
 40
0.3202009317
 40
0.3353528523
 40
0.3505335935
 40
0.3657474896
 40
0.3809985718
 40
0.3962904382
 40
0.4269990655
 40
0.4579035252
 40
0.4890160735
 40
0.5203408316
 40
0.5518737651
 40
0.5836029699
 40
0.6155093002
 40
0.6475671858
 40
0.6797456153
 40
0.7120093051
 40
0.7443199991
 40
0.776637812
 40
0.8089225842
 40
0.8411353274
 40
0.8732395264
 40
0.9052026864
 40
0.9369967424
 40
0.9686011451
 40
1.0
 40
1.0
 40
1.0
 40
1.0
 10
9.8320228758
 20
7.7144651352
 30
0.0
 10
9.8145461268
 20
7.7156771519
 30
0.0
 10
9.7795669026
 20
7.7163965264
 30
0.0
 10
9.7274403757
 20
7.7122969844
 30
0.0
 10
9.6847553482
 20
7.7045784149
 30
0.0
 10
9.6513828163
 20
7.6958702624
 30
0.0
 10
9.6268197399
 20
7.6881006863
 30
0.0
 10
9.6027515076
 20
7.6791028584
 30
0.0
 10
9.579235312
 20
7.6688981415
 30
0.0
 10
9.5563278557
 20
7.6575115931
 30
0.0
 10
9.534084799
 20
7.6449698091
 30
0.0
 10
9.5125591792
 20
7.6313040776
 30
0.0
 10
9.4918037508
 20
7.6165460617
 30
0.0
 10
9.4718675616
 20
7.6007327518
 30
0.0
 10
9.4527999105
 20
7.5839007845
 30
0.0
 10
9.4346454708
 20
7.5660922508
 30
0.0
 10
9.4174494227
 20
7.5473486788
 30
0.0
 10
9.4012518342
 20
7.527716584
 30
0.0
 10
9.3860930975
 20
7.5072422003
 30
0.0
 10
9.3720085411
 20
7.4859758476
 30
0.0
 10
9.3590331283
 20
7.4639681377
 30
0.0
 10
9.347197332
 20
7.4412726023
 30
0.0
 10
9.3365301762
 20
7.4179439171
 30
0.0
 10
9.3270570072
 20
7.3940376386
 30
0.0
 10
9.3160347188
 20
7.3614310379
 30
0.0
 10
9.3053558994
 20
7.3194882341
 30
0.0
 10
9.2976404257
 20
7.2678902229
 30
0.0
 10
9.2950721668
 20
7.2154342547
 30
0.0
 10
9.2976750882
 20
7.1626290205
 30
0.0
 10
9.3054218347
 20
7.1099816485
 30
0.0
 10
9.3182362293
 20
7.0579984282
 30
0.0
 10
9.3359935536
 20
7.007178552
 30
0.0
 10
9.3585219703
 20
6.9580098364
 30
0.0
 10
9.3856041561
 20
6.9109640557
 30
0.0
 10
9.4169794047
 20
6.8664925504
 30
0.0
 10
9.4523461118
 20
6.8250219695
 30
0.0
 10
9.4913646358
 20
6.7869502862
 30
0.0
 10
9.5336604862
 20
6.7526429986
 30
0.0
 10
9.5788278579
 20
6.7224298321
 30
0.0
 10
9.6264335816
 20
6.696601226
 30
0.0
 10
9.6760204414
 20
6.675406483
 30
0.0
 10
9.7271145453
 20
6.659049499
 30
0.0
 10
9.7792184574
 20
6.6476902986
 30
0.0
 10
9.8144274915
 20
6.6435076486
 30
0.0
 10
9.8320228758
 20
6.6422874045
 30
0.0
  0
SPLINE
  5
390
100
AcDbEntity
  8
0
100
AcDbSpline
 62
7
  6
CONTINUOUS
 70
0
 71
3
 72
49
 73
45
 74
0
 42
0.0000001
 43
0.0000001
 44
0.0000000001
 40
0.0
 40
0.0
 40
0.0
 40
0.0
 40
0.031187151
 40
0.0621645213
 40
0.0929401585
 40
0.1082629014
 40
0.1235424257
 40
0.1387821476
 40
0.1539858757
 40
0.1691576791
 40
0.1843020069
 40
0.1994235946
 40
0.2145274341
 40
0.2296186839
 40
0.2447026442
 40
0.2597846952
 40
0.2748702365
 40
0.2899646369
 40
0.3050731598
 40
0.3202009317
 40
0.3353528523
 40
0.3505335935
 40
0.3657474896
 40
0.3809985718
 40
0.3962904382
 40
0.4269990655
 40
0.4579035252
 40
0.4890160735
 40
0.5203408316
 40
0.5518737651
 40
0.5836029699
 40
0.6155093002
 40
0.6475671858
 40
0.6797456153
 40
0.7120093051
 40
0.7443199991
 40
0.776637812
 40
0.8089225842
 40
0.8411353274
 40
0.8732395264
 40
0.9052026864
 40
0.9369967424
 40
0.9686011451
 40
1.0
 40
1.0
 40
1.0
 40
1.0
 10
9.8320228758
 20
6.6422874045
 30
0.0
 10
9.8494996248
 20
6.6410753878
 30
0.0
 10
9.884478849
 20
6.6403560133
 30
0.0
 10
9.9366053759
 20
6.6444555553
 30
0.0
 10
9.9792904034
 20
6.6521741248
 30
0.0
 10
10.0126629353
 20
6.6608822773
 30
0.0
 10
10.0372260117
 20
6.6686518534
 30
0.0
 10
10.061294244
 20
6.6776496813
 30
0.0
 10
10.0848104396
 20
6.6878543982
 30
0.0
 10
10.1077178959
 20
6.6992409466
 30
0.0
 10
10.1299609527
 20
6.7117827306
 30
0.0
 10
10.1514865724
 20
6.7254484621
 30
0.0
 10
10.1722420008
 20
6.740206478
 30
0.0
 10
10.19217819
 20
6.7560197879
 30
0.0
 10
10.2112458411
 20
6.7728517552
 30
0.0
 10
10.2294002808
 20
6.790660289
 30
0.0
 10
10.2465963289
 20
6.809403861
 30
0.0
 10
10.2627939174
 20
6.8290359557
 30
0.0
 10
10.2779526541
 20
6.8495103394
 30
0.0
 10
10.2920372105
 20
6.8707766921
 30
0.0
 10
10.3050126233
 20
6.892784402
 30
0.0
 10
10.3168484196
 20
6.9154799374
 30
0.0
 10
10.3275155754
 20
6.9388086226
 30
0.0
 10
10.3369887444
 20
6.9627149011
 30
0.0
 10
10.3480110328
 20
6.9953215018
 30
0.0
 10
10.3586898522
 20
7.0372643056
 30
0.0
 10
10.3664053259
 20
7.0888623168
 30
0.0
 10
10.3689735848
 20
7.141318285
 30
0.0
 10
10.3663706635
 20
7.1941235192
 30
0.0
 10
10.3586239169
 20
7.2467708912
 30
0.0
 10
10.3458095223
 20
7.2987541116
 30
0.0
 10
10.328052198
 20
7.3495739878
 30
0.0
 10
10.3055237813
 20
7.3987427033
 30
0.0
 10
10.2784415955
 20
7.445788484
 30
0.0
 10
10.2470663469
 20
7.4902599893
 30
0.0
 10
10.2116996398
 20
7.5317305702
 30
0.0
 10
10.1726811158
 20
7.5698022535
 30
0.0
 10
10.1303852655
 20
7.6041095412
 30
0.0
 10
10.0852178937
 20
7.6343227076
 30
0.0
 10
10.03761217
 20
7.6601513137
 30
0.0
 10
9.9880253102
 20
7.6813460567
 30
0.0
 10
9.9369312063
 20
7.6977030407
 30
0.0
 10
9.8848272942
 20
7.7090622411
 30
0.0
 10
9.8496182601
 20
7.7132448912
 30
0.0
 10
9.8320228758
 20
7.7144651352
 30
0.0
  0
SPLINE
  5
391
100
AcDbEntity
  8
0
100
AcDbSpline
 62
7
  6
CONTINUOUS
 70
0
 71
3
 72
15
 73
11
 74
0
 42
0.0000001
 43
0.0000001
 44
0.0000000001
 40
0.0
 40
0.0
 40
0.0
 40
0.0
 40
0.1156537103
 40
0.2345121048
 40
0.3566334592
 40
0.4817744298
 40
0.6093887094
 40
0.7387521918
 40
0.869146757
 40
1.0
 40
1.0
 40
1.0
 40
1.0
 10
10.3871451479
 20
6.869546504
 30
0.0
 10
10.3854783657
 20
6.891288307
 30
0.0
 10
10.3824512949
 20
6.9354024269
 30
0.0
 10
10.379054983
 20
7.002560932
 30
0.0
 10
10.376930277
 20
7.0715622332
 30
0.0
 10
10.37621518
 20
7.1422437253
 30
0.0
 10
10.3769582793
 20
7.214290147
 30
0.0
 10
10.379104623
 20
7.2872986183
 30
0.0
 10
10.3825132188
 20
7.3608693099
 30
0.0
 10
10.3855014188
 20
7.4100364442
 30
0.0
 10
10.3871451479
 20
7.4346529785
 30
0.0
  0
SPLINE
  5
392
100
AcDbEntity
  8
0
100
AcDbSpline
 62
7
  6
CONTINUOUS
 70
0
 71
3
 72
18
 73
14
 74
0
 42
0.0000001
 43
0.0000001
 44
0.0000000001
 40
0.0
 40
0.0
 40
0.0
 40
0.0
 40
0.1257518379
 40
0.2522206279
 40
0.3790639262
 40
0.4424676427
 40
0.5057555221
 40
0.5688470283
 40
0.6316652308
 40
0.6941417768
 40
0.7562221058
 40
0.8790466163
 40
1.0
 40
1.0
 40
1.0
 40
1.0
 10
10.3601847436
 20
7.483219479
 30
0.0
 10
10.3385102469
 20
7.4945749551
 30
0.0
 10
10.2952320926
 20
7.5177250222
 30
0.0
 10
10.2309084562
 20
7.5538309843
 30
0.0
 10
10.1778822965
 20
7.5852471257
 30
0.0
 10
10.1359308791
 20
7.6112078607
 30
0.0
 10
10.1047872982
 20
7.6310537178
 30
0.0
 10
10.0740073415
 20
7.6512519943
 30
0.0
 10
10.0436310593
 20
7.6717716686
 30
0.0
 10
10.0136891753
 20
7.6925772223
 30
0.0
 10
9.9745125841
 20
7.7205479111
 30
0.0
 10
9.9267135571
 20
7.7560147226
 30
0.0
 10
9.8892419675
 20
7.7851053855
 30
0.0
 10
9.8707881808
 20
7.7997124832
 30
0.0
  0
SPLINE
  5
393
100
AcDbEntity
  8
0
100
AcDbSpline
 62
7
  6
CONTINUOUS
 70
0
 71
3
 72
15
 73
11
 74
0
 42
0.0000001
 43
0.0000001
 44
0.0000000001
 40
0.0
 40
0.0
 40
0.0
 40
0.0
 40
0.1339295061
 40
0.2667162338
 40
0.3976426282
 40
0.5258636586
 40
0.6505784979
 40
0.7712350381
 40
0.887653109
 40
1.0
 40
1.0
 40
1.0
 40
1.0
 10
9.8168673721
 20
7.803451904
 30
0.0
 10
9.7953270299
 20
7.7917583395
 30
0.0
 10
9.7523745529
 20
7.7685731318
 30
0.0
 10
9.688137639
 20
7.7343792709
 30
0.0
 10
9.6245918226
 20
7.7011136039
 30
0.0
 10
9.5620995746
 20
7.6690248303
 30
0.0
 10
9.501013398
 20
7.6383175951
 30
0.0
 10
9.4415967668
 20
7.609104164
 30
0.0
 10
9.3839711089
 20
7.5813835927
 30
0.0
 10
9.3461004885
 20
7.563536037
 30
0.0
 10
9.3274708093
 20
7.5548384336
 30
0.0
  0
SPLINE
  5
394
100
AcDbEntity
  8
0
100
AcDbSpline
 62
7
  6
CONTINUOUS
 70
0
 71
3
 72
15
 73
11
 74
0
 42
0.0000001
 43
0.0000001
 44
0.0000000001
 40
0.0
 40
0.0
 40
0.0
 40
0.0
 40
0.115958132
 40
0.2350423669
 40
0.3573005587
 40
0.4824819863
 40
0.610041211
 40
0.7392604925
 40
0.8694331148
 40
1.0
 40
1.0
 40
1.0
 40
1.0
 10
10.9193663489
 20
6.5718727041
 30
0.0
 10
10.9410440181
 20
6.5686443569
 30
0.0
 10
10.9850384345
 20
6.5624603984
 30
0.0
 10
11.0520788855
 20
6.5542945598
 30
0.0
 10
11.1210065377
 20
6.5473143954
 30
0.0
 10
11.1916639796
 20
6.5416730774
 30
0.0
 10
11.2637376642
 20
6.5374438242
 30
0.0
 10
11.3368224569
 20
6.5345969138
 30
0.0
 10
11.4105130197
 20
6.5330152171
 30
0.0
 10
11.4597949466
 20
6.5326917722
 30
0.0
 10
11.4844728235
 20
6.532682437
 30
0.0
  0
SPLINE
  5
395
100
AcDbEntity
  8
0
100
AcDbSpline
 62
7
  6
CONTINUOUS
 70
0
 71
3
 72
15
 73
11
 74
0
 42
0.0000001
 43
0.0000001
 44
0.0000000001
 40
0.0
 40
0.0
 40
0.0
 40
0.0
 40
0.1340542662
 40
0.2669381812
 40
0.3979282051
 40
0.526174224
 40
0.6508716458
 40
0.7714692355
 40
0.8877880966
 40
1.0
 40
1.0
 40
1.0
 40
1.0
 10
11.6341701141
 20
6.6558952575
 30
0.0
 10
11.6472985943
 20
6.6765812614
 30
0.0
 10
11.6733547289
 20
6.7178274958
 30
0.0
 10
11.7118824128
 20
6.779511446
 30
0.0
 10
11.7494783306
 20
6.8405243972
 30
0.0
 10
11.7858739737
 20
6.9005176559
 30
0.0
 10
11.820842165
 20
6.9591531186
 30
0.0
 10
11.8542510603
 20
7.016178079
 30
0.0
 10
11.8860881452
 20
7.0714769604
 30
0.0
 10
11.9066729988
 20
7.1078198029
 30
0.0
 10
11.9167233514
 20
7.1256966867
 30
0.0
  0
SPLINE
  5
396
100
AcDbEntity
  8
0
100
AcDbSpline
 62
7
  6
CONTINUOUS
 70
0
 71
3
 72
19
 73
15
 74
0
 42
0.0000001
 43
0.0000001
 44
0.0000000001
 40
0.0
 40
0.0
 40
0.0
 40
0.0
 40
0.1260869671
 40
0.2528117616
 40
0.3163107707
 40
0.3798197498
 40
0.4432654401
 40
0.5065682057
 40
0.5696468344
 40
0.6324244618
 40
0.6948338786
 40
0.7568211382
 40
0.8793879722
 40
1.0
 40
1.0
 40
1.0
 40
1.0
 10
11.9167233514
 20
7.1796174954
 30
0.0
 10
11.9068155478
 20
7.2020312676
 30
0.0
 10
11.8865681767
 20
7.2468049179
 30
0.0
 10
11.8601153678
 20
7.3023058903
 30
0.0
 10
11.8381294028
 20
7.3464497157
 30
0.0
 10
11.8212236416
 20
7.379380865
 30
0.0
 10
11.803918029
 20
7.4120605493
 30
0.0
 10
11.7862259123
 20
7.4444373906
 30
0.0
 10
11.7681686625
 20
7.4764630537
 30
0.0
 10
11.749774771
 20
7.5080958343
 30
0.0
 10
11.7310773737
 20
7.5393031388
 30
0.0
 10
11.7058860446
 20
7.5801617708
 30
0.0
 10
11.6738390628
 20
7.6300767285
 30
0.0
 10
11.6474434256
 20
7.6692871863
 30
0.0
 10
11.6341701141
 20
7.6886091918
 30
0.0
  0
SPLINE
  5
397
100
AcDbEntity
  8
0
100
AcDbSpline
 62
7
  6
CONTINUOUS
 70
0
 71
3
 72
15
 73
11
 74
0
 42
0.0000001
 43
0.0000001
 44
0.0000000001
 40
0.0
 40
0.0
 40
0.0
 40
0.0
 40
0.115958132
 40
0.2350423669
 40
0.3573005587
 40
0.4824819863
 40
0.610041211
 40
0.7392604925
 40
0.8694331148
 40
1.0
 40
1.0
 40
1.0
 40
1.0
 10
11.587473324
 20
7.7188080295
 30
0.0
 10
11.5657956548
 20
7.7220363767
 30
0.0
 10
11.5218012384
 20
7.7282203352
 30
0.0
 10
11.4547607874
 20
7.7363861738
 30
0.0
 10
11.3858331353
 20
7.7433663382
 30
0.0
 10
11.3151756934
 20
7.7490076562
 30
0.0
 10
11.2431020088
 20
7.7532369094
 30
0.0
 10
11.1700172161
 20
7.7560838198
 30
0.0
 10
11.0963266532
 20
7.7576655165
 30
0.0
 10
11.0470447263
 20
7.7579889614
 30
0.0
 10
11.0223668495
 20
7.7579982966
 30
0.0
  0
SPLINE
  5
398
100
AcDbEntity
  8
0
100
AcDbSpline
 62
7
  6
CONTINUOUS
 70
0
 71
3
 72
15
 73
11
 74
0
 42
0.0000001
 43
0.0000001
 44
0.0000000001
 40
0.0
 40
0.0
 40
0.0
 40
0.0
 40
0.1340542662
 40
0.2669381812
 40
0.3979282051
 40
0.526174224
 40
0.6508716458
 40
0.7714692355
 40
0.8877880966
 40
1.0
 40
1.0
 40
1.0
 40
1.0
 10
10.8726695588
 20
7.6347854761
 30
0.0
 10
10.8595410787
 20
7.6140994722
 30
0.0
 10
10.8334849441
 20
7.5728532378
 30
0.0
 10
10.7949572602
 20
7.5111692876
 30
0.0
 10
10.7573613423
 20
7.4501563364
 30
0.0
 10
10.7209656992
 20
7.3901630777
 30
0.0
 10
10.685997508
 20
7.331527615
 30
0.0
 10
10.6525886127
 20
7.2745026546
 30
0.0
 10
10.6207515278
 20
7.2192037732
 30
0.0
 10
10.6001666742
 20
7.1828609307
 30
0.0
 10
10.5901163215
 20
7.1649840469
 30
0.0
  0
SPLINE
  5
399
100
AcDbEntity
  8
0
100
AcDbSpline
 62
7
  6
CONTINUOUS
 70
0
 71
3
 72
19
 73
15
 74
0
 42
0.0000001
 43
0.0000001
 44
0.0000000001
 40
0.0
 40
0.0
 40
0.0
 40
0.0
 40
0.1260869671
 40
0.2528117616
 40
0.3163107707
 40
0.3798197498
 40
0.4432654401
 40
0.5065682057
 40
0.5696468344
 40
0.6324244618
 40
0.6948338786
 40
0.7568211382
 40
0.8793879722
 40
1.0
 40
1.0
 40
1.0
 40
1.0
 10
10.5901163215
 20
7.1110632382
 30
0.0
 10
10.6000241251
 20
7.088649466
 30
0.0
 10
10.6202714962
 20
7.0438758157
 30
0.0
 10
10.6467243052
 20
6.9883748433
 30
0.0
 10
10.6687102702
 20
6.9442310179
 30
0.0
 10
10.6856160314
 20
6.9112998686
 30
0.0
 10
10.7029216439
 20
6.8786201843
 30
0.0
 10
10.7206137606
 20
6.846243343
 30
0.0
 10
10.7386710104
 20
6.8142176799
 30
0.0
 10
10.7570649019
 20
6.7825848993
 30
0.0
 10
10.7757622993
 20
6.7513775947
 30
0.0
 10
10.8009536283
 20
6.7105189628
 30
0.0
 10
10.8330006102
 20
6.6606040051
 30
0.0
 10
10.8593962474
 20
6.6213935473
 30
0.0
 10
10.8726695588
 20
6.6020715418
 30
0.0
  0
SPLINE
  5
39A
100
AcDbEntity
  8
0
100
AcDbSpline
 62
7
  6
CONTINUOUS
 70
0
 71
3
 72
60
 73
56
 74
0
 42
0.0000001
 43
0.0000001
 44
0.0000000001
 40
0.0
 40
0.0
 40
0.0
 40
0.0
 40
0.0313217047
 40
0.062851322
 40
0.094577405
 40
0.1264805124
 40
0.1585351845
 40
0.1907103855
 40
0.2229708379
 40
0.2552782986
 40
0.287592869
 40
0.3037444926
 40
0.319882901
 40
0.3360032898
 40
0.3521009726
 40
0.3681715002
 40
0.3842106244
 40
0.4002144206
 40
0.4161792396
 40
0.4321018181
 40
0.4479792293
 40
0.4638090066
 40
0.4795890799
 40
0.4953178853
 40
0.510994297
 40
0.5266177182
 40
0.5421880219
 40
0.5577056343
 40
0.5731714673
 40
0.5885869661
 40
0.6039540559
 40
0.6192751584
 40
0.6345531559
 40
0.6497913813
 40
0.6649935795
 40
0.6801638566
 40
0.6953066672
 40
0.7104267358
 40
0.7255290543
 40
0.7406187808
 40
0.7557012322
 40
0.7707817672
 40
0.7858657999
 40
0.8009586786
 40
0.8160656873
 40
0.8311919317
 40
0.8463423378
 40
0.8615215546
 40
0.8767339262
 40
0.8919834379
 40
0.9072737889
 40
0.9226082574
 40
0.9379892748
 40
0.9688904834
 40
1.0
 40
1.0
 40
1.0
 40
1.0
 10
11.7262035509
 20
7.0470143939
 30
0.0
 10
11.7262035509
 20
7.0646104703
 30
0.0
 10
11.7244625314
 20
7.0999428918
 30
0.0
 10
11.7167157015
 20
7.152586027
 30
0.0
 10
11.7039014127
 20
7.2045703618
 30
0.0
 10
11.6861440677
 20
7.2553899497
 30
0.0
 10
11.6636156611
 20
7.304558785
 30
0.0
 10
11.6365335792
 20
7.3516044717
 30
0.0
 10
11.6051579379
 20
7.3960763139
 30
0.0
 10
11.5697926794
 20
7.437545718
 30
0.0
 10
11.5372643458
 20
7.4692839219
 30
0.0
 10
11.5095995944
 20
7.4927927843
 30
0.0
 10
11.4880814122
 20
7.5094406125
 30
0.0
 10
11.4658460666
 20
7.5250641214
 30
0.0
 10
11.442946245
 20
7.5396257855
 30
0.0
 10
11.4194375564
 20
7.5530909367
 30
0.0
 10
11.3953761619
 20
7.5654265142
 30
0.0
 10
11.3708203775
 20
7.5766035515
 30
0.0
 10
11.3458288977
 20
7.5865942372
 30
0.0
 10
11.3204622746
 20
7.5953754538
 30
0.0
 10
11.2947811967
 20
7.6029249484
 30
0.0
 10
11.2688478336
 20
7.6092256437
 30
0.0
 10
11.2427243146
 20
7.6142611008
 30
0.0
 10
11.2164737896
 20
7.618020415
 30
0.0
 10
11.1901592726
 20
7.6204931537
 30
0.0
 10
11.1638442779
 20
7.6216746505
 30
0.0
 10
11.137592123
 20
7.6215606367
 30
0.0
 10
11.1114660532
 20
7.6201526712
 30
0.0
 10
11.0855290749
 20
7.6174527611
 30
0.0
 10
11.0598435647
 20
7.6134686223
 30
0.0
 10
11.0344716122
 20
7.6082085727
 30
0.0
 10
11.0094741526
 20
7.6016863749
 30
0.0
 10
10.9849117248
 20
7.5939166298
 30
0.0
 10
10.9608432575
 20
7.5849189714
 30
0.0
 10
10.9373271061
 20
7.5747141871
 30
0.0
 10
10.9144196758
 20
7.5633275765
 30
0.0
 10
10.892176534
 20
7.5507859336
 30
0.0
 10
10.8706510601
 20
7.5371199782
 30
0.0
 10
10.849895425
 20
7.5223622551
 30
0.0
 10
10.8299595125
 20
7.5065486044
 30
0.0
 10
10.8108915368
 20
7.4897170018
 30
0.0
 10
10.7927374559
 20
7.4719080928
 30
0.0
 10
10.7755410133
 20
7.4531648808
 30
0.0
 10
10.7593438255
 20
7.4335324498
 30
0.0
 10
10.7441846893
 20
7.4130583689
 30
0.0
 10
10.7301005095
 20
7.3917917633
 30
0.0
 10
10.7171247423
 20
7.3697842541
 30
0.0
 10
10.7052892599
 20
7.3470885808
 30
0.0
 10
10.6946218377
 20
7.3237598995
 30
0.0
 10
10.6851489337
 20
7.2998540465
 30
0.0
 10
10.6768924509
 20
7.2754291238
 30
0.0
 10
10.6698732984
 20
7.2505430842
 30
0.0
 10
10.6621741551
 20
7.2167818253
 30
0.0
 10
10.6557315993
 20
7.1737072956
 30
0.0
 10
10.6540258202
 20
7.1388470443
 30
0.0
 10
10.6540258202
 20
7.121370172
 30
0.0
  0
SPLINE
  5
39B
100
AcDbEntity
  8
0
100
AcDbSpline
 62
7
  6
CONTINUOUS
 70
0
 71
3
 72
60
 73
56
 74
0
 42
0.0000001
 43
0.0000001
 44
0.0000000001
 40
0.0
 40
0.0
 40
0.0
 40
0.0
 40
0.0313217047
 40
0.062851322
 40
0.094577405
 40
0.1264805124
 40
0.1585351845
 40
0.1907103855
 40
0.2229708379
 40
0.2552782986
 40
0.287592869
 40
0.3037444926
 40
0.319882901
 40
0.3360032898
 40
0.3521009726
 40
0.3681715002
 40
0.3842106244
 40
0.4002144206
 40
0.4161792396
 40
0.4321018181
 40
0.4479792293
 40
0.4638090066
 40
0.4795890799
 40
0.4953178853
 40
0.510994297
 40
0.5266177182
 40
0.5421880219
 40
0.5577056343
 40
0.5731714673
 40
0.5885869661
 40
0.6039540559
 40
0.6192751584
 40
0.6345531559
 40
0.6497913813
 40
0.6649935795
 40
0.6801638566
 40
0.6953066672
 40
0.7104267358
 40
0.7255290543
 40
0.7406187808
 40
0.7557012322
 40
0.7707817672
 40
0.7858657999
 40
0.8009586786
 40
0.8160656873
 40
0.8311919317
 40
0.8463423378
 40
0.8615215546
 40
0.8767339262
 40
0.8919834379
 40
0.9072737889
 40
0.9226082574
 40
0.9379892748
 40
0.9688904834
 40
1.0
 40
1.0
 40
1.0
 40
1.0
 10
10.6540258202
 20
7.121370172
 30
0.0
 10
10.6540258202
 20
7.1037740956
 30
0.0
 10
10.6557668397
 20
7.0684416742
 30
0.0
 10
10.6635136696
 20
7.0157985389
 30
0.0
 10
10.6763279584
 20
6.9638142041
 30
0.0
 10
10.6940853034
 20
6.9129946162
 30
0.0
 10
10.71661371
 20
6.8638257809
 30
0.0
 10
10.7436957919
 20
6.8167800942
 30
0.0
 10
10.7750714332
 20
6.7723082521
 30
0.0
 10
10.8104366917
 20
6.7308388479
 30
0.0
 10
10.8429650252
 20
6.6991006441
 30
0.0
 10
10.8706297767
 20
6.6755917816
 30
0.0
 10
10.8921479589
 20
6.6589439535
 30
0.0
 10
10.9143833045
 20
6.6433204445
 30
0.0
 10
10.9372831261
 20
6.6287587805
 30
0.0
 10
10.9607918147
 20
6.6152936292
 30
0.0
 10
10.9848532092
 20
6.6029580517
 30
0.0
 10
11.0094089936
 20
6.5917810144
 30
0.0
 10
11.0344004733
 20
6.5817903287
 30
0.0
 10
11.0597670965
 20
6.5730091121
 30
0.0
 10
11.0854481744
 20
6.5654596175
 30
0.0
 10
11.1113815375
 20
6.5591589222
 30
0.0
 10
11.1375050565
 20
6.5541234652
 30
0.0
 10
11.1637555815
 20
6.5503641509
 30
0.0
 10
11.1900700984
 20
6.5478914123
 30
0.0
 10
11.2163850932
 20
6.5467099155
 30
0.0
 10
11.2426372481
 20
6.5468239293
 30
0.0
 10
11.2687633179
 20
6.5482318947
 30
0.0
 10
11.2947002962
 20
6.5509318048
 30
0.0
 10
11.3203858064
 20
6.5549159436
 30
0.0
 10
11.3457577589
 20
6.5601759932
 30
0.0
 10
11.3707552184
 20
6.5666981911
 30
0.0
 10
11.3953176462
 20
6.5744679361
 30
0.0
 10
11.4193861136
 20
6.5834655945
 30
0.0
 10
11.442902265
 20
6.5936703788
 30
0.0
 10
11.4658096953
 20
6.6050569894
 30
0.0
 10
11.4880528371
 20
6.6175986323
 30
0.0
 10
11.509578311
 20
6.6312645877
 30
0.0
 10
11.5303339461
 20
6.6460223108
 30
0.0
 10
11.5502698586
 20
6.6618359615
 30
0.0
 10
11.5693378343
 20
6.6786675641
 30
0.0
 10
11.5874919152
 20
6.6964764731
 30
0.0
 10
11.6046883578
 20
6.7152196851
 30
0.0
 10
11.6208855456
 20
6.7348521161
 30
0.0
 10
11.6360446818
 20
6.7553261971
 30
0.0
 10
11.6501288616
 20
6.7765928026
 30
0.0
 10
11.6631046288
 20
6.7986003118
 30
0.0
 10
11.6749401112
 20
6.8212959851
 30
0.0
 10
11.6856075334
 20
6.8446246664
 30
0.0
 10
11.6950804374
 20
6.8685305194
 30
0.0
 10
11.7033369202
 20
6.8929554421
 30
0.0
 10
11.7103560727
 20
6.9178414817
 30
0.0
 10
11.718055216
 20
6.9516027406
 30
0.0
 10
11.7244977718
 20
6.9946772704
 30
0.0
 10
11.7262035509
 20
7.0295375216
 30
0.0
 10
11.7262035509
 20
7.0470143939
 30
0.0
  0
SPLINE
  5
39C
100
AcDbEntity
  8
0
100
AcDbSpline
 62
7
  6
CONTINUOUS
 70
0
 71
3
 72
15
 73
11
 74
0
 42
0.0000001
 43
0.0000001
 44
0.0000000001
 40
0.0
 40
0.0
 40
0.0
 40
0.0
 40
0.1122119034
 40
0.2285307645
 40
0.3491283542
 40
0.4738257761
 40
0.602071795
 40
0.7330618188
 40
0.8659457338
 40
1.0
 40
1.0
 40
1.0
 40
1.0
 10
11.5311696136
 20
6.5564044079
 30
0.0
 10
11.5412199662
 20
6.5742812918
 30
0.0
 10
11.5618048198
 20
6.6106241343
 30
0.0
 10
11.5936419047
 20
6.6659230157
 30
0.0
 10
11.6270508
 20
6.722947976
 30
0.0
 10
11.6620189912
 20
6.7815834388
 30
0.0
 10
11.6984146344
 20
6.8415766975
 30
0.0
 10
11.7360105522
 20
6.9025896486
 30
0.0
 10
11.7745382361
 20
6.9642735989
 30
0.0
 10
11.8005943707
 20
7.0055198333
 30
0.0
 10
11.8137228508
 20
7.0262058372
 30
0.0
  0
SPLINE
  5
39D
100
AcDbEntity
  8
0
100
AcDbSpline
 62
7
  6
CONTINUOUS
 70
0
 71
3
 72
19
 73
15
 74
0
 42
0.0000001
 43
0.0000001
 44
0.0000000001
 40
0.0
 40
0.0
 40
0.0
 40
0.0
 40
0.1206120278
 40
0.2431788618
 40
0.3051661215
 40
0.3675755383
 40
0.4303531656
 40
0.4934317943
 40
0.5567345599
 40
0.6201802503
 40
0.6836892293
 40
0.7471882385
 40
0.8739130329
 40
1.0
 40
1.0
 40
1.0
 40
1.0
 10
11.8137228508
 20
7.0801266459
 30
0.0
 10
11.8004495394
 20
7.0994486513
 30
0.0
 10
11.7740539022
 20
7.1386591092
 30
0.0
 10
11.7420069204
 20
7.1885740669
 30
0.0
 10
11.7168155913
 20
7.2294326988
 30
0.0
 10
11.6981181939
 20
7.2606400033
 30
0.0
 10
11.6797243024
 20
7.2922727839
 30
0.0
 10
11.6616670526
 20
7.3242984471
 30
0.0
 10
11.643974936
 20
7.3566752884
 30
0.0
 10
11.6266693234
 20
7.3893549726
 30
0.0
 10
11.6097635622
 20
7.4222861219
 30
0.0
 10
11.5877775972
 20
7.4664299473
 30
0.0
 10
11.5613247883
 20
7.5219309197
 30
0.0
 10
11.5410774171
 20
7.5667045701
 30
0.0
 10
11.5311696136
 20
7.5891183422
 30
0.0
  0
SPLINE
  5
39E
100
AcDbEntity
  8
0
100
AcDbSpline
 62
7
  6
CONTINUOUS
 70
0
 71
3
 72
15
 73
11
 74
0
 42
0.0000001
 43
0.0000001
 44
0.0000000001
 40
0.0
 40
0.0
 40
0.0
 40
0.0
 40
0.1305668852
 40
0.2607395076
 40
0.389958789
 40
0.5175180137
 40
0.6426994413
 40
0.7649576332
 40
0.884041868
 40
1.0
 40
1.0
 40
1.0
 40
1.0
 10
11.4844728235
 20
7.61931718
 30
0.0
 10
11.4597949466
 20
7.6193265152
 30
0.0
 10
11.4105130197
 20
7.61964996
 30
0.0
 10
11.3368224568
 20
7.6212316567
 30
0.0
 10
11.2637376641
 20
7.6240785671
 30
0.0
 10
11.1916639795
 20
7.6283078204
 30
0.0
 10
11.1210065376
 20
7.6339491384
 30
0.0
 10
11.0520788855
 20
7.6409293027
 30
0.0
 10
10.9850384345
 20
7.6490951413
 30
0.0
 10
10.9410440181
 20
7.6552790998
 30
0.0
 10
10.9193663489
 20
7.6585074471
 30
0.0
  0
SPLINE
  5
39F
100
AcDbEntity
  8
0
100
AcDbSpline
 62
7
  6
CONTINUOUS
 70
0
 71
3
 72
15
 73
11
 74
0
 42
0.0000001
 43
0.0000001
 44
0.0000000001
 40
0.0
 40
0.0
 40
0.0
 40
0.0
 40
0.130853243
 40
0.2612478082
 40
0.3906112907
 40
0.5182255703
 40
0.6433665409
 40
0.7654878953
 40
0.8843462897
 40
1.0
 40
1.0
 40
1.0
 40
1.0
 10
10.4901456485
 20
8.4179261788
 30
0.0
 10
10.4917893776
 20
8.4425427131
 30
0.0
 10
10.4947775776
 20
8.4917098474
 30
0.0
 10
10.4981861734
 20
8.5652805391
 30
0.0
 10
10.5003325171
 20
8.6382890103
 30
0.0
 10
10.5010756164
 20
8.710335432
 30
0.0
 10
10.5003605194
 20
8.7810169241
 30
0.0
 10
10.4982358134
 20
8.8500182253
 30
0.0
 10
10.4948395015
 20
8.9171767304
 30
0.0
 10
10.4918124307
 20
8.9612908503
 30
0.0
 10
10.4901456485
 20
8.9830326533
 30
0.0
  0
SPLINE
  5
3A0
100
AcDbEntity
  8
0
100
AcDbSpline
 62
7
  6
CONTINUOUS
 70
0
 71
3
 72
18
 73
14
 74
0
 42
0.0000001
 43
0.0000001
 44
0.0000000001
 40
0.0
 40
0.0
 40
0.0
 40
0.0
 40
0.1209533837
 40
0.2437778942
 40
0.3058582232
 40
0.3683347693
 40
0.4311529717
 40
0.4942444779
 40
0.5575323574
 40
0.6209360738
 40
0.7477793722
 40
0.8742481621
 40
1.0
 40
1.0
 40
1.0
 40
1.0
 10
10.4631852442
 20
9.0315991538
 30
0.0
 10
10.4447314575
 20
9.0462062515
 30
0.0
 10
10.4072598678
 20
9.0752969145
 30
0.0
 10
10.3594608408
 20
9.1107637259
 30
0.0
 10
10.3202842496
 20
9.1387344147
 30
0.0
 10
10.2903423656
 20
9.1595399684
 30
0.0
 10
10.2599660834
 20
9.1800596427
 30
0.0
 10
10.2291861267
 20
9.2002579192
 30
0.0
 10
10.1980425458
 20
9.2201037763
 30
0.0
 10
10.1560911284
 20
9.2460645113
 30
0.0
 10
10.1030649687
 20
9.2774806527
 30
0.0
 10
10.0387413323
 20
9.3135866148
 30
0.0
 10
9.9954631781
 20
9.3367366819
 30
0.0
 10
9.9737886813
 20
9.348092158
 30
0.0
  0
SPLINE
  5
3A1
100
AcDbEntity
  8
0
100
AcDbSpline
 62
7
  6
CONTINUOUS
 70
0
 71
3
 72
15
 73
11
 74
0
 42
0.0000001
 43
0.0000001
 44
0.0000000001
 40
0.0
 40
0.0
 40
0.0
 40
0.0
 40
0.112346891
 40
0.2287649619
 40
0.3494215021
 40
0.4741363415
 40
0.6023573719
 40
0.7332837662
 40
0.866070494
 40
1.0
 40
1.0
 40
1.0
 40
1.0
 10
9.9198678727
 20
9.3518315788
 30
0.0
 10
9.9012381935
 20
9.3431339754
 30
0.0
 10
9.8633675731
 20
9.3252864196
 30
0.0
 10
9.8057419151
 20
9.2975658484
 30
0.0
 10
9.746325284
 20
9.2683524172
 30
0.0
 10
9.6852391074
 20
9.237645182
 30
0.0
 10
9.6227468593
 20
9.2055564084
 30
0.0
 10
9.5592010429
 20
9.1722907415
 30
0.0
 10
9.4949641291
 20
9.1380968806
 30
0.0
 10
9.4520116521
 20
9.1149116729
 30
0.0
 10
9.4304713099
 20
9.1032181084
 30
0.0
  0
SPLINE
  5
3A2
100
AcDbEntity
  8
0
100
AcDbSpline
 62
7
  6
CONTINUOUS
 70
0
 71
3
 72
15
 73
11
 74
0
 42
0.0000001
 43
0.0000001
 44
0.0000000001
 40
0.0
 40
0.0
 40
0.0
 40
0.0
 40
0.130853243
 40
0.2612478082
 40
0.3906112907
 40
0.5182255703
 40
0.6433665409
 40
0.7654878953
 40
0.8843462897
 40
1.0
 40
1.0
 40
1.0
 40
1.0
 10
9.300510405
 20
8.9589001792
 30
0.0
 10
9.2988666759
 20
8.9342836449
 30
0.0
 10
9.2958784758
 20
8.8851165106
 30
0.0
 10
9.29246988
 20
8.8115458189
 30
0.0
 10
9.2903235363
 20
8.7385373477
 30
0.0
 10
9.2895804371
 20
8.666490926
 30
0.0
 10
9.2902955341
 20
8.5958094339
 30
0.0
 10
9.2924202401
 20
8.5268081327
 30
0.0
 10
9.295816552
 20
8.4596496276
 30
0.0
 10
9.2988436227
 20
8.4155355077
 30
0.0
 10
9.300510405
 20
8.3937937046
 30
0.0
  0
SPLINE
  5
3A3
100
AcDbEntity
  8
0
100
AcDbSpline
 62
7
  6
CONTINUOUS
 70
0
 71
3
 72
18
 73
14
 74
0
 42
0.0000001
 43
0.0000001
 44
0.0000000001
 40
0.0
 40
0.0
 40
0.0
 40
0.0
 40
0.1209533837
 40
0.2437778942
 40
0.3058582232
 40
0.3683347693
 40
0.4311529717
 40
0.4942444779
 40
0.5575323574
 40
0.6209360738
 40
0.7477793722
 40
0.8742481621
 40
1.0
 40
1.0
 40
1.0
 40
1.0
 10
9.3274708093
 20
8.3452272042
 30
0.0
 10
9.345924596
 20
8.3306201065
 30
0.0
 10
9.3833961856
 20
8.3015294435
 30
0.0
 10
9.4311952126
 20
8.2660626321
 30
0.0
 10
9.4703718038
 20
8.2380919433
 30
0.0
 10
9.5003136879
 20
8.2172863896
 30
0.0
 10
9.53068997
 20
8.1967667152
 30
0.0
 10
9.5614699268
 20
8.1765684388
 30
0.0
 10
9.5926135077
 20
8.1567225817
 30
0.0
 10
9.634564925
 20
8.1307618467
 30
0.0
 10
9.6875910848
 20
8.0993457052
 30
0.0
 10
9.7519147212
 20
8.0632397431
 30
0.0
 10
9.7951928754
 20
8.040089676
 30
0.0
 10
9.8168673721
 20
8.0287342
 30
0.0
  0
SPLINE
  5
3A4
100
AcDbEntity
  8
0
100
AcDbSpline
 62
7
  6
CONTINUOUS
 70
0
 71
3
 72
15
 73
11
 74
0
 42
0.0000001
 43
0.0000001
 44
0.0000000001
 40
0.0
 40
0.0
 40
0.0
 40
0.0
 40
0.112346891
 40
0.2287649619
 40
0.3494215021
 40
0.4741363415
 40
0.6023573719
 40
0.7332837662
 40
0.866070494
 40
1.0
 40
1.0
 40
1.0
 40
1.0
 10
9.8707881808
 20
8.0249947792
 30
0.0
 10
9.88941786
 20
8.0336923826
 30
0.0
 10
9.9272884804
 20
8.0515399383
 30
0.0
 10
9.9849141383
 20
8.0792605096
 30
0.0
 10
10.0443307695
 20
8.1084739407
 30
0.0
 10
10.1054169461
 20
8.1391811759
 30
0.0
 10
10.1679091941
 20
8.1712699495
 30
0.0
 10
10.2314550105
 20
8.2045356164
 30
0.0
 10
10.2956919244
 20
8.2387294774
 30
0.0
 10
10.3386444013
 20
8.2619146851
 30
0.0
 10
10.3601847436
 20
8.2736082496
 30
0.0
  0
SPLINE
  5
3A5
100
AcDbEntity
  8
0
100
AcDbSpline
 62
7
  6
CONTINUOUS
 70
0
 71
3
 72
49
 73
45
 74
0
 42
0.0000001
 43
0.0000001
 44
0.0000000001
 40
0.0
 40
0.0
 40
0.0
 40
0.0
 40
0.031187151
 40
0.0621645213
 40
0.0929401585
 40
0.1082629014
 40
0.1235424257
 40
0.1387821476
 40
0.1539858757
 40
0.1691576791
 40
0.1843020069
 40
0.1994235946
 40
0.2145274341
 40
0.2296186839
 40
0.2447026442
 40
0.2597846952
 40
0.2748702365
 40
0.2899646369
 40
0.3050731598
 40
0.3202009317
 40
0.3353528523
 40
0.3505335935
 40
0.3657474896
 40
0.3809985718
 40
0.3962904382
 40
0.4269990655
 40
0.4579035252
 40
0.4890160735
 40
0.5203408316
 40
0.5518737651
 40
0.5836029699
 40
0.6155093002
 40
0.6475671858
 40
0.6797456153
 40
0.7120093051
 40
0.7443199991
 40
0.776637812
 40
0.8089225842
 40
0.8411353274
 40
0.8732395264
 40
0.9052026864
 40
0.9369967424
 40
0.9686011451
 40
1.0
 40
1.0
 40
1.0
 40
1.0
 10
9.8320228758
 20
9.1633539605
 30
0.0
 10
9.8145461268
 20
9.1645659772
 30
0.0
 10
9.7795669026
 20
9.1652853517
 30
0.0
 10
9.7274403757
 20
9.1611858097
 30
0.0
 10
9.6847553482
 20
9.1534672402
 30
0.0
 10
9.6513828163
 20
9.1447590877
 30
0.0
 10
9.6268197399
 20
9.1369895116
 30
0.0
 10
9.6027515076
 20
9.1279916837
 30
0.0
 10
9.579235312
 20
9.1177869668
 30
0.0
 10
9.5563278557
 20
9.1064004184
 30
0.0
 10
9.534084799
 20
9.0938586344
 30
0.0
 10
9.5125591792
 20
9.0801929029
 30
0.0
 10
9.4918037508
 20
9.065434887
 30
0.0
 10
9.4718675616
 20
9.0496215771
 30
0.0
 10
9.4527999105
 20
9.0327896098
 30
0.0
 10
9.4346454708
 20
9.014981076
 30
0.0
 10
9.4174494227
 20
8.9962375041
 30
0.0
 10
9.4012518342
 20
8.9766054093
 30
0.0
 10
9.3860930975
 20
8.9561310256
 30
0.0
 10
9.3720085411
 20
8.9348646729
 30
0.0
 10
9.3590331283
 20
8.912856963
 30
0.0
 10
9.347197332
 20
8.8901614276
 30
0.0
 10
9.3365301762
 20
8.8668327424
 30
0.0
 10
9.3270570072
 20
8.8429264639
 30
0.0
 10
9.3160347188
 20
8.8103198632
 30
0.0
 10
9.3053558994
 20
8.7683770594
 30
0.0
 10
9.2976404257
 20
8.7167790482
 30
0.0
 10
9.2950721668
 20
8.66432308
 30
0.0
 10
9.2976750882
 20
8.6115178458
 30
0.0
 10
9.3054218347
 20
8.5588704738
 30
0.0
 10
9.3182362293
 20
8.5068872534
 30
0.0
 10
9.3359935536
 20
8.4560673772
 30
0.0
 10
9.3585219703
 20
8.4068986617
 30
0.0
 10
9.3856041561
 20
8.359852881
 30
0.0
 10
9.4169794047
 20
8.3153813757
 30
0.0
 10
9.4523461118
 20
8.2739107948
 30
0.0
 10
9.4913646358
 20
8.2358391115
 30
0.0
 10
9.5336604862
 20
8.2015318238
 30
0.0
 10
9.5788278579
 20
8.1713186574
 30
0.0
 10
9.6264335816
 20
8.1454900513
 30
0.0
 10
9.6760204414
 20
8.1242953083
 30
0.0
 10
9.7271145453
 20
8.1079383243
 30
0.0
 10
9.7792184574
 20
8.0965791239
 30
0.0
 10
9.8144274915
 20
8.0923964738
 30
0.0
 10
9.8320228758
 20
8.0911762298
 30
0.0
  0
SPLINE
  5
3A6
100
AcDbEntity
  8
0
100
AcDbSpline
 62
7
  6
CONTINUOUS
 70
0
 71
3
 72
49
 73
45
 74
0
 42
0.0000001
 43
0.0000001
 44
0.0000000001
 40
0.0
 40
0.0
 40
0.0
 40
0.0
 40
0.031187151
 40
0.0621645213
 40
0.0929401585
 40
0.1082629014
 40
0.1235424257
 40
0.1387821476
 40
0.1539858757
 40
0.1691576791
 40
0.1843020069
 40
0.1994235946
 40
0.2145274341
 40
0.2296186839
 40
0.2447026442
 40
0.2597846952
 40
0.2748702365
 40
0.2899646369
 40
0.3050731598
 40
0.3202009317
 40
0.3353528523
 40
0.3505335935
 40
0.3657474896
 40
0.3809985718
 40
0.3962904382
 40
0.4269990655
 40
0.4579035252
 40
0.4890160735
 40
0.5203408316
 40
0.5518737651
 40
0.5836029699
 40
0.6155093002
 40
0.6475671858
 40
0.6797456153
 40
0.7120093051
 40
0.7443199991
 40
0.776637812
 40
0.8089225842
 40
0.8411353274
 40
0.8732395264
 40
0.9052026864
 40
0.9369967424
 40
0.9686011451
 40
1.0
 40
1.0
 40
1.0
 40
1.0
 10
9.8320228758
 20
8.0911762298
 30
0.0
 10
9.8494996248
 20
8.0899642131
 30
0.0
 10
9.884478849
 20
8.0892448386
 30
0.0
 10
9.9366053759
 20
8.0933443806
 30
0.0
 10
9.9792904034
 20
8.1010629501
 30
0.0
 10
10.0126629353
 20
8.1097711026
 30
0.0
 10
10.0372260117
 20
8.1175406787
 30
0.0
 10
10.061294244
 20
8.1265385066
 30
0.0
 10
10.0848104396
 20
8.1367432235
 30
0.0
 10
10.1077178959
 20
8.1481297719
 30
0.0
 10
10.1299609527
 20
8.1606715559
 30
0.0
 10
10.1514865724
 20
8.1743372874
 30
0.0
 10
10.1722420008
 20
8.1890953033
 30
0.0
 10
10.19217819
 20
8.2049086132
 30
0.0
 10
10.2112458411
 20
8.2217405805
 30
0.0
 10
10.2294002808
 20
8.2395491142
 30
0.0
 10
10.2465963289
 20
8.2582926862
 30
0.0
 10
10.2627939174
 20
8.277924781
 30
0.0
 10
10.2779526541
 20
8.2983991647
 30
0.0
 10
10.2920372105
 20
8.3196655174
 30
0.0
 10
10.3050126233
 20
8.3416732273
 30
0.0
 10
10.3168484196
 20
8.3643687627
 30
0.0
 10
10.3275155754
 20
8.3876974479
 30
0.0
 10
10.3369887444
 20
8.4116037264
 30
0.0
 10
10.3480110328
 20
8.4442103271
 30
0.0
 10
10.3586898522
 20
8.4861531309
 30
0.0
 10
10.3664053259
 20
8.5377511421
 30
0.0
 10
10.3689735848
 20
8.5902071103
 30
0.0
 10
10.3663706635
 20
8.6430123445
 30
0.0
 10
10.3586239169
 20
8.6956597165
 30
0.0
 10
10.3458095223
 20
8.7476429368
 30
0.0
 10
10.328052198
 20
8.798462813
 30
0.0
 10
10.3055237813
 20
8.8476315286
 30
0.0
 10
10.2784415955
 20
8.8946773093
 30
0.0
 10
10.2470663469
 20
8.9391488146
 30
0.0
 10
10.2116996398
 20
8.9806193955
 30
0.0
 10
10.1726811158
 20
9.0186910788
 30
0.0
 10
10.1303852655
 20
9.0529983664
 30
0.0
 10
10.0852178937
 20
9.0832115329
 30
0.0
 10
10.03761217
 20
9.109040139
 30
0.0
 10
9.9880253102
 20
9.130234882
 30
0.0
 10
9.9369312063
 20
9.146591866
 30
0.0
 10
9.8848272942
 20
9.1579510664
 30
0.0
 10
9.8496182601
 20
9.1621337164
 30
0.0
 10
9.8320228758
 20
9.1633539605
 30
0.0
  0
SPLINE
  5
3A7
100
AcDbEntity
  8
0
100
AcDbSpline
 62
7
  6
CONTINUOUS
 70
0
 71
3
 72
15
 73
11
 74
0
 42
0.0000001
 43
0.0000001
 44
0.0000000001
 40
0.0
 40
0.0
 40
0.0
 40
0.0
 40
0.1156537103
 40
0.2345121048
 40
0.3566334592
 40
0.4817744298
 40
0.6093887094
 40
0.7387521918
 40
0.869146757
 40
1.0
 40
1.0
 40
1.0
 40
1.0
 10
10.3871451479
 20
8.3184353292
 30
0.0
 10
10.3854783657
 20
8.3401771323
 30
0.0
 10
10.3824512949
 20
8.3842912522
 30
0.0
 10
10.379054983
 20
8.4514497573
 30
0.0
 10
10.376930277
 20
8.5204510585
 30
0.0
 10
10.37621518
 20
8.5911325506
 30
0.0
 10
10.3769582793
 20
8.6631789723
 30
0.0
 10
10.379104623
 20
8.7361874436
 30
0.0
 10
10.3825132188
 20
8.8097581352
 30
0.0
 10
10.3855014188
 20
8.8589252695
 30
0.0
 10
10.3871451479
 20
8.8835418038
 30
0.0
  0
SPLINE
  5
3A8
100
AcDbEntity
  8
0
100
AcDbSpline
 62
7
  6
CONTINUOUS
 70
0
 71
3
 72
18
 73
14
 74
0
 42
0.0000001
 43
0.0000001
 44
0.0000000001
 40
0.0
 40
0.0
 40
0.0
 40
0.0
 40
0.1257518379
 40
0.2522206279
 40
0.3790639262
 40
0.4424676427
 40
0.5057555221
 40
0.5688470283
 40
0.6316652308
 40
0.6941417768
 40
0.7562221058
 40
0.8790466163
 40
1.0
 40
1.0
 40
1.0
 40
1.0
 10
10.3601847436
 20
8.9321083043
 30
0.0
 10
10.3385102469
 20
8.9434637804
 30
0.0
 10
10.2952320926
 20
8.9666138475
 30
0.0
 10
10.2309084562
 20
9.0027198096
 30
0.0
 10
10.1778822965
 20
9.034135951
 30
0.0
 10
10.1359308791
 20
9.060096686
 30
0.0
 10
10.1047872982
 20
9.0799425431
 30
0.0
 10
10.0740073415
 20
9.1001408196
 30
0.0
 10
10.0436310593
 20
9.1206604939
 30
0.0
 10
10.0136891753
 20
9.1414660476
 30
0.0
 10
9.9745125841
 20
9.1694367364
 30
0.0
 10
9.9267135571
 20
9.2049035478
 30
0.0
 10
9.8892419675
 20
9.2339942108
 30
0.0
 10
9.8707881808
 20
9.2486013085
 30
0.0
  0
SPLINE
  5
3A9
100
AcDbEntity
  8
0
100
AcDbSpline
 62
7
  6
CONTINUOUS
 70
0
 71
3
 72
15
 73
11
 74
0
 42
0.0000001
 43
0.0000001
 44
0.0000000001
 40
0.0
 40
0.0
 40
0.0
 40
0.0
 40
0.1339295061
 40
0.2667162338
 40
0.3976426282
 40
0.5258636586
 40
0.6505784979
 40
0.7712350381
 40
0.887653109
 40
1.0
 40
1.0
 40
1.0
 40
1.0
 10
9.8168673721
 20
9.2523407293
 30
0.0
 10
9.7953270299
 20
9.2406471648
 30
0.0
 10
9.7523745529
 20
9.2174619571
 30
0.0
 10
9.688137639
 20
9.1832680961
 30
0.0
 10
9.6245918226
 20
9.1500024292
 30
0.0
 10
9.5620995746
 20
9.1179136556
 30
0.0
 10
9.501013398
 20
9.0872064204
 30
0.0
 10
9.4415967668
 20
9.0579929893
 30
0.0
 10
9.3839711089
 20
9.030272418
 30
0.0
 10
9.3461004885
 20
9.0124248623
 30
0.0
 10
9.3274708093
 20
9.0037272589
 30
0.0
  0
SPLINE
  5
3AA
100
AcDbEntity
  8
0
100
AcDbSpline
 62
7
  6
CONTINUOUS
 70
0
 71
3
 72
15
 73
11
 74
0
 42
0.0000001
 43
0.0000001
 44
0.0000000001
 40
0.0
 40
0.0
 40
0.0
 40
0.0
 40
0.115958132
 40
0.2350423669
 40
0.3573005587
 40
0.4824819863
 40
0.610041211
 40
0.7392604925
 40
0.8694331148
 40
1.0
 40
1.0
 40
1.0
 40
1.0
 10
10.9193663489
 20
8.0207615294
 30
0.0
 10
10.9410440181
 20
8.0175331822
 30
0.0
 10
10.9850384345
 20
8.0113492236
 30
0.0
 10
11.0520788855
 20
8.003183385
 30
0.0
 10
11.1210065377
 20
7.9962032207
 30
0.0
 10
11.1916639796
 20
7.9905619027
 30
0.0
 10
11.2637376642
 20
7.9863326495
 30
0.0
 10
11.3368224569
 20
7.9834857391
 30
0.0
 10
11.4105130197
 20
7.9819040424
 30
0.0
 10
11.4597949466
 20
7.9815805975
 30
0.0
 10
11.4844728235
 20
7.9815712623
 30
0.0
  0
SPLINE
  5
3AB
100
AcDbEntity
  8
0
100
AcDbSpline
 62
7
  6
CONTINUOUS
 70
0
 71
3
 72
15
 73
11
 74
0
 42
0.0000001
 43
0.0000001
 44
0.0000000001
 40
0.0
 40
0.0
 40
0.0
 40
0.0
 40
0.1340542662
 40
0.2669381812
 40
0.3979282051
 40
0.526174224
 40
0.6508716458
 40
0.7714692355
 40
0.8877880966
 40
1.0
 40
1.0
 40
1.0
 40
1.0
 10
11.6341701141
 20
8.1047840827
 30
0.0
 10
11.6472985943
 20
8.1254700867
 30
0.0
 10
11.6733547289
 20
8.1667163211
 30
0.0
 10
11.7118824128
 20
8.2284002713
 30
0.0
 10
11.7494783306
 20
8.2894132225
 30
0.0
 10
11.7858739737
 20
8.3494064812
 30
0.0
 10
11.820842165
 20
8.4080419439
 30
0.0
 10
11.8542510603
 20
8.4650669043
 30
0.0
 10
11.8860881452
 20
8.5203657857
 30
0.0
 10
11.9066729988
 20
8.5567086282
 30
0.0
 10
11.9167233514
 20
8.574585512
 30
0.0
  0
SPLINE
  5
3AC
100
AcDbEntity
  8
0
100
AcDbSpline
 62
7
  6
CONTINUOUS
 70
0
 71
3
 72
19
 73
15
 74
0
 42
0.0000001
 43
0.0000001
 44
0.0000000001
 40
0.0
 40
0.0
 40
0.0
 40
0.0
 40
0.1260869671
 40
0.2528117616
 40
0.3163107707
 40
0.3798197498
 40
0.4432654401
 40
0.5065682057
 40
0.5696468344
 40
0.6324244618
 40
0.6948338786
 40
0.7568211382
 40
0.8793879722
 40
1.0
 40
1.0
 40
1.0
 40
1.0
 10
11.9167233514
 20
8.6285063206
 30
0.0
 10
11.9068155478
 20
8.6509200928
 30
0.0
 10
11.8865681767
 20
8.6956937432
 30
0.0
 10
11.8601153678
 20
8.7511947156
 30
0.0
 10
11.8381294028
 20
8.795338541
 30
0.0
 10
11.8212236416
 20
8.8282696903
 30
0.0
 10
11.803918029
 20
8.8609493746
 30
0.0
 10
11.7862259123
 20
8.8933262158
 30
0.0
 10
11.7681686625
 20
8.925351879
 30
0.0
 10
11.749774771
 20
8.9569846596
 30
0.0
 10
11.7310773737
 20
8.9881919641
 30
0.0
 10
11.7058860446
 20
9.029050596
 30
0.0
 10
11.6738390628
 20
9.0789655537
 30
0.0
 10
11.6474434256
 20
9.1181760116
 30
0.0
 10
11.6341701141
 20
9.137498017
 30
0.0
  0
SPLINE
  5
3AD
100
AcDbEntity
  8
0
100
AcDbSpline
 62
7
  6
CONTINUOUS
 70
0
 71
3
 72
15
 73
11
 74
0
 42
0.0000001
 43
0.0000001
 44
0.0000000001
 40
0.0
 40
0.0
 40
0.0
 40
0.0
 40
0.115958132
 40
0.2350423669
 40
0.3573005587
 40
0.4824819863
 40
0.610041211
 40
0.7392604925
 40
0.8694331148
 40
1.0
 40
1.0
 40
1.0
 40
1.0
 10
11.587473324
 20
9.1676968547
 30
0.0
 10
11.5657956548
 20
9.170925202
 30
0.0
 10
11.5218012384
 20
9.1771091605
 30
0.0
 10
11.4547607874
 20
9.1852749991
 30
0.0
 10
11.3858331353
 20
9.1922551634
 30
0.0
 10
11.3151756934
 20
9.1978964815
 30
0.0
 10
11.2431020088
 20
9.2021257347
 30
0.0
 10
11.1700172161
 20
9.2049726451
 30
0.0
 10
11.0963266532
 20
9.2065543418
 30
0.0
 10
11.0470447263
 20
9.2068777866
 30
0.0
 10
11.0223668495
 20
9.2068871219
 30
0.0
  0
SPLINE
  5
3AE
100
AcDbEntity
  8
0
100
AcDbSpline
 62
7
  6
CONTINUOUS
 70
0
 71
3
 72
15
 73
11
 74
0
 42
0.0000001
 43
0.0000001
 44
0.0000000001
 40
0.0
 40
0.0
 40
0.0
 40
0.0
 40
0.1340542662
 40
0.2669381812
 40
0.3979282051
 40
0.526174224
 40
0.6508716458
 40
0.7714692355
 40
0.8877880966
 40
1.0
 40
1.0
 40
1.0
 40
1.0
 10
10.8726695588
 20
9.0836743014
 30
0.0
 10
10.8595410787
 20
9.0629882975
 30
0.0
 10
10.8334849441
 20
9.0217420631
 30
0.0
 10
10.7949572602
 20
8.9600581128
 30
0.0
 10
10.7573613423
 20
8.8990451617
 30
0.0
 10
10.7209656992
 20
8.839051903
 30
0.0
 10
10.685997508
 20
8.7804164402
 30
0.0
 10
10.6525886127
 20
8.7233914799
 30
0.0
 10
10.6207515278
 20
8.6680925985
 30
0.0
 10
10.6001666742
 20
8.631749756
 30
0.0
 10
10.5901163215
 20
8.6138728722
 30
0.0
  0
SPLINE
  5
3AF
100
AcDbEntity
  8
0
100
AcDbSpline
 62
7
  6
CONTINUOUS
 70
0
 71
3
 72
19
 73
15
 74
0
 42
0.0000001
 43
0.0000001
 44
0.0000000001
 40
0.0
 40
0.0
 40
0.0
 40
0.0
 40
0.1260869671
 40
0.2528117616
 40
0.3163107707
 40
0.3798197498
 40
0.4432654401
 40
0.5065682057
 40
0.5696468344
 40
0.6324244618
 40
0.6948338786
 40
0.7568211382
 40
0.8793879722
 40
1.0
 40
1.0
 40
1.0
 40
1.0
 10
10.5901163215
 20
8.5599520635
 30
0.0
 10
10.6000241251
 20
8.5375382913
 30
0.0
 10
10.6202714962
 20
8.492764641
 30
0.0
 10
10.6467243052
 20
8.4372636686
 30
0.0
 10
10.6687102702
 20
8.3931198431
 30
0.0
 10
10.6856160314
 20
8.3601886939
 30
0.0
 10
10.7029216439
 20
8.3275090096
 30
0.0
 10
10.7206137606
 20
8.2951321683
 30
0.0
 10
10.7386710104
 20
8.2631065052
 30
0.0
 10
10.7570649019
 20
8.2314737246
 30
0.0
 10
10.7757622993
 20
8.20026642
 30
0.0
 10
10.8009536283
 20
8.1594077881
 30
0.0
 10
10.8330006102
 20
8.1094928304
 30
0.0
 10
10.8593962474
 20
8.0702823726
 30
0.0
 10
10.8726695588
 20
8.0509603671
 30
0.0
  0
SPLINE
  5
3B0
100
AcDbEntity
  8
0
100
AcDbSpline
 62
7
  6
CONTINUOUS
 70
0
 71
3
 72
60
 73
56
 74
0
 42
0.0000001
 43
0.0000001
 44
0.0000000001
 40
0.0
 40
0.0
 40
0.0
 40
0.0
 40
0.0313217047
 40
0.062851322
 40
0.094577405
 40
0.1264805124
 40
0.1585351845
 40
0.1907103855
 40
0.2229708379
 40
0.2552782986
 40
0.287592869
 40
0.3037444926
 40
0.319882901
 40
0.3360032898
 40
0.3521009726
 40
0.3681715002
 40
0.3842106244
 40
0.4002144206
 40
0.4161792396
 40
0.4321018181
 40
0.4479792293
 40
0.4638090066
 40
0.4795890799
 40
0.4953178853
 40
0.510994297
 40
0.5266177182
 40
0.5421880219
 40
0.5577056343
 40
0.5731714673
 40
0.5885869661
 40
0.6039540559
 40
0.6192751584
 40
0.6345531559
 40
0.6497913813
 40
0.6649935795
 40
0.6801638566
 40
0.6953066672
 40
0.7104267358
 40
0.7255290543
 40
0.7406187808
 40
0.7557012322
 40
0.7707817672
 40
0.7858657999
 40
0.8009586786
 40
0.8160656873
 40
0.8311919317
 40
0.8463423378
 40
0.8615215546
 40
0.8767339262
 40
0.8919834379
 40
0.9072737889
 40
0.9226082574
 40
0.9379892748
 40
0.9688904834
 40
1.0
 40
1.0
 40
1.0
 40
1.0
 10
11.7262035509
 20
8.4959032192
 30
0.0
 10
11.7262035509
 20
8.5134992956
 30
0.0
 10
11.7244625314
 20
8.5488317171
 30
0.0
 10
11.7167157015
 20
8.6014748523
 30
0.0
 10
11.7039014127
 20
8.6534591871
 30
0.0
 10
11.6861440677
 20
8.704278775
 30
0.0
 10
11.6636156611
 20
8.7534476103
 30
0.0
 10
11.6365335792
 20
8.800493297
 30
0.0
 10
11.6051579379
 20
8.8449651391
 30
0.0
 10
11.5697926794
 20
8.8864345433
 30
0.0
 10
11.5372643458
 20
8.9181727471
 30
0.0
 10
11.5095995944
 20
8.9416816096
 30
0.0
 10
11.4880814122
 20
8.9583294377
 30
0.0
 10
11.4658460666
 20
8.9739529467
 30
0.0
 10
11.442946245
 20
8.9885146108
 30
0.0
 10
11.4194375564
 20
9.001979762
 30
0.0
 10
11.3953761619
 20
9.0143153395
 30
0.0
 10
11.3708203775
 20
9.0254923768
 30
0.0
 10
11.3458288977
 20
9.0354830625
 30
0.0
 10
11.3204622746
 20
9.0442642791
 30
0.0
 10
11.2947811967
 20
9.0518137737
 30
0.0
 10
11.2688478336
 20
9.058114469
 30
0.0
 10
11.2427243146
 20
9.063149926
 30
0.0
 10
11.2164737896
 20
9.0669092403
 30
0.0
 10
11.1901592726
 20
9.0693819789
 30
0.0
 10
11.1638442779
 20
9.0705634758
 30
0.0
 10
11.137592123
 20
9.070449462
 30
0.0
 10
11.1114660532
 20
9.0690414965
 30
0.0
 10
11.0855290749
 20
9.0663415864
 30
0.0
 10
11.0598435647
 20
9.0623574476
 30
0.0
 10
11.0344716122
 20
9.057097398
 30
0.0
 10
11.0094741526
 20
9.0505752001
 30
0.0
 10
10.9849117248
 20
9.0428054551
 30
0.0
 10
10.9608432575
 20
9.0338077967
 30
0.0
 10
10.9373271061
 20
9.0236030124
 30
0.0
 10
10.9144196758
 20
9.0122164018
 30
0.0
 10
10.892176534
 20
8.9996747589
 30
0.0
 10
10.8706510601
 20
8.9860088035
 30
0.0
 10
10.849895425
 20
8.9712510804
 30
0.0
 10
10.8299595125
 20
8.9554374297
 30
0.0
 10
10.8108915368
 20
8.9386058271
 30
0.0
 10
10.7927374559
 20
8.9207969181
 30
0.0
 10
10.7755410133
 20
8.9020537061
 30
0.0
 10
10.7593438255
 20
8.8824212751
 30
0.0
 10
10.7441846893
 20
8.8619471942
 30
0.0
 10
10.7301005095
 20
8.8406805886
 30
0.0
 10
10.7171247423
 20
8.8186730794
 30
0.0
 10
10.7052892599
 20
8.7959774061
 30
0.0
 10
10.6946218377
 20
8.7726487248
 30
0.0
 10
10.6851489337
 20
8.7487428718
 30
0.0
 10
10.6768924509
 20
8.7243179491
 30
0.0
 10
10.6698732984
 20
8.6994319095
 30
0.0
 10
10.6621741551
 20
8.6656706506
 30
0.0
 10
10.6557315993
 20
8.6225961208
 30
0.0
 10
10.6540258202
 20
8.5877358696
 30
0.0
 10
10.6540258202
 20
8.5702589973
 30
0.0
  0
SPLINE
  5
3B1
100
AcDbEntity
  8
0
100
AcDbSpline
 62
7
  6
CONTINUOUS
 70
0
 71
3
 72
60
 73
56
 74
0
 42
0.0000001
 43
0.0000001
 44
0.0000000001
 40
0.0
 40
0.0
 40
0.0
 40
0.0
 40
0.0313217047
 40
0.062851322
 40
0.094577405
 40
0.1264805124
 40
0.1585351845
 40
0.1907103855
 40
0.2229708379
 40
0.2552782986
 40
0.287592869
 40
0.3037444926
 40
0.319882901
 40
0.3360032898
 40
0.3521009726
 40
0.3681715002
 40
0.3842106244
 40
0.4002144206
 40
0.4161792396
 40
0.4321018181
 40
0.4479792293
 40
0.4638090066
 40
0.4795890799
 40
0.4953178853
 40
0.510994297
 40
0.5266177182
 40
0.5421880219
 40
0.5577056343
 40
0.5731714673
 40
0.5885869661
 40
0.6039540559
 40
0.6192751584
 40
0.6345531559
 40
0.6497913813
 40
0.6649935795
 40
0.6801638566
 40
0.6953066672
 40
0.7104267358
 40
0.7255290543
 40
0.7406187808
 40
0.7557012322
 40
0.7707817672
 40
0.7858657999
 40
0.8009586786
 40
0.8160656873
 40
0.8311919317
 40
0.8463423378
 40
0.8615215546
 40
0.8767339262
 40
0.8919834379
 40
0.9072737889
 40
0.9226082574
 40
0.9379892748
 40
0.9688904834
 40
1.0
 40
1.0
 40
1.0
 40
1.0
 10
10.6540258202
 20
8.5702589973
 30
0.0
 10
10.6540258202
 20
8.5526629209
 30
0.0
 10
10.6557668397
 20
8.5173304994
 30
0.0
 10
10.6635136696
 20
8.4646873642
 30
0.0
 10
10.6763279584
 20
8.4127030294
 30
0.0
 10
10.6940853034
 20
8.3618834415
 30
0.0
 10
10.71661371
 20
8.3127146062
 30
0.0
 10
10.7436957919
 20
8.2656689195
 30
0.0
 10
10.7750714332
 20
8.2211970774
 30
0.0
 10
10.8104366917
 20
8.1797276732
 30
0.0
 10
10.8429650252
 20
8.1479894693
 30
0.0
 10
10.8706297767
 20
8.1244806069
 30
0.0
 10
10.8921479589
 20
8.1078327788
 30
0.0
 10
10.9143833045
 20
8.0922092698
 30
0.0
 10
10.9372831261
 20
8.0776476057
 30
0.0
 10
10.9607918147
 20
8.0641824545
 30
0.0
 10
10.9848532092
 20
8.051846877
 30
0.0
 10
11.0094089936
 20
8.0406698397
 30
0.0
 10
11.0344004733
 20
8.030679154
 30
0.0
 10
11.0597670965
 20
8.0218979374
 30
0.0
 10
11.0854481744
 20
8.0143484428
 30
0.0
 10
11.1113815375
 20
8.0080477475
 30
0.0
 10
11.1375050565
 20
8.0030122904
 30
0.0
 10
11.1637555815
 20
7.9992529762
 30
0.0
 10
11.1900700984
 20
7.9967802376
 30
0.0
 10
11.2163850932
 20
7.9955987407
 30
0.0
 10
11.2426372481
 20
7.9957127545
 30
0.0
 10
11.2687633179
 20
7.99712072
 30
0.0
 10
11.2947002962
 20
7.9998206301
 30
0.0
 10
11.3203858064
 20
8.0038047689
 30
0.0
 10
11.3457577589
 20
8.0090648185
 30
0.0
 10
11.3707552184
 20
8.0155870163
 30
0.0
 10
11.3953176462
 20
8.0233567614
 30
0.0
 10
11.4193861136
 20
8.0323544198
 30
0.0
 10
11.442902265
 20
8.0425592041
 30
0.0
 10
11.4658096953
 20
8.0539458147
 30
0.0
 10
11.4880528371
 20
8.0664874576
 30
0.0
 10
11.509578311
 20
8.080153413
 30
0.0
 10
11.5303339461
 20
8.0949111361
 30
0.0
 10
11.5502698586
 20
8.1107247868
 30
0.0
 10
11.5693378343
 20
8.1275563894
 30
0.0
 10
11.5874919152
 20
8.1453652984
 30
0.0
 10
11.6046883578
 20
8.1641085104
 30
0.0
 10
11.6208855456
 20
8.1837409414
 30
0.0
 10
11.6360446818
 20
8.2042150223
 30
0.0
 10
11.6501288616
 20
8.2254816279
 30
0.0
 10
11.6631046288
 20
8.2474891371
 30
0.0
 10
11.6749401112
 20
8.2701848104
 30
0.0
 10
11.6856075334
 20
8.2935134917
 30
0.0
 10
11.6950804374
 20
8.3174193447
 30
0.0
 10
11.7033369202
 20
8.3418442674
 30
0.0
 10
11.7103560727
 20
8.366730307
 30
0.0
 10
11.718055216
 20
8.4004915659
 30
0.0
 10
11.7244977718
 20
8.4435660956
 30
0.0
 10
11.7262035509
 20
8.4784263469
 30
0.0
 10
11.7262035509
 20
8.4959032192
 30
0.0
  0
SPLINE
  5
3B2
100
AcDbEntity
  8
0
100
AcDbSpline
 62
7
  6
CONTINUOUS
 70
0
 71
3
 72
15
 73
11
 74
0
 42
0.0000001
 43
0.0000001
 44
0.0000000001
 40
0.0
 40
0.0
 40
0.0
 40
0.0
 40
0.1122119034
 40
0.2285307645
 40
0.3491283542
 40
0.4738257761
 40
0.602071795
 40
0.7330618188
 40
0.8659457338
 40
1.0
 40
1.0
 40
1.0
 40
1.0
 10
11.5311696136
 20
8.0052932332
 30
0.0
 10
11.5412199662
 20
8.0231701171
 30
0.0
 10
11.5618048198
 20
8.0595129596
 30
0.0
 10
11.5936419047
 20
8.114811841
 30
0.0
 10
11.6270508
 20
8.1718368013
 30
0.0
 10
11.6620189912
 20
8.230472264
 30
0.0
 10
11.6984146344
 20
8.2904655228
 30
0.0
 10
11.7360105522
 20
8.3514784739
 30
0.0
 10
11.7745382361
 20
8.4131624241
 30
0.0
 10
11.8005943707
 20
8.4544086586
 30
0.0
 10
11.8137228508
 20
8.4750946625
 30
0.0
  0
SPLINE
  5
3B3
100
AcDbEntity
  8
0
100
AcDbSpline
 62
7
  6
CONTINUOUS
 70
0
 71
3
 72
19
 73
15
 74
0
 42
0.0000001
 43
0.0000001
 44
0.0000000001
 40
0.0
 40
0.0
 40
0.0
 40
0.0
 40
0.1206120278
 40
0.2431788618
 40
0.3051661215
 40
0.3675755383
 40
0.4303531656
 40
0.4934317943
 40
0.5567345599
 40
0.6201802503
 40
0.6836892293
 40
0.7471882385
 40
0.8739130329
 40
1.0
 40
1.0
 40
1.0
 40
1.0
 10
11.8137228508
 20
8.5290154711
 30
0.0
 10
11.8004495394
 20
8.5483374766
 30
0.0
 10
11.7740539022
 20
8.5875479344
 30
0.0
 10
11.7420069204
 20
8.6374628921
 30
0.0
 10
11.7168155913
 20
8.6783215241
 30
0.0
 10
11.6981181939
 20
8.7095288286
 30
0.0
 10
11.6797243024
 20
8.7411616092
 30
0.0
 10
11.6616670526
 20
8.7731872724
 30
0.0
 10
11.643974936
 20
8.8055641136
 30
0.0
 10
11.6266693234
 20
8.8382437979
 30
0.0
 10
11.6097635622
 20
8.8711749472
 30
0.0
 10
11.5877775972
 20
8.9153187726
 30
0.0
 10
11.5613247883
 20
8.970819745
 30
0.0
 10
11.5410774171
 20
9.0155933953
 30
0.0
 10
11.5311696136
 20
9.0380071675
 30
0.0
  0
SPLINE
  5
3B4
100
AcDbEntity
  8
0
100
AcDbSpline
 62
7
  6
CONTINUOUS
 70
0
 71
3
 72
15
 73
11
 74
0
 42
0.0000001
 43
0.0000001
 44
0.0000000001
 40
0.0
 40
0.0
 40
0.0
 40
0.0
 40
0.1305668852
 40
0.2607395076
 40
0.389958789
 40
0.5175180137
 40
0.6426994413
 40
0.7649576332
 40
0.884041868
 40
1.0
 40
1.0
 40
1.0
 40
1.0
 10
11.4844728235
 20
9.0682060052
 30
0.0
 10
11.4597949466
 20
9.0682153405
 30
0.0
 10
11.4105130197
 20
9.0685387853
 30
0.0
 10
11.3368224568
 20
9.070120482
 30
0.0
 10
11.2637376641
 20
9.0729673924
 30
0.0
 10
11.1916639795
 20
9.0771966456
 30
0.0
 10
11.1210065376
 20
9.0828379637
 30
0.0
 10
11.0520788855
 20
9.089818128
 30
0.0
 10
10.9850384345
 20
9.0979839666
 30
0.0
 10
10.9410440181
 20
9.1041679251
 30
0.0
 10
10.9193663489
 20
9.1073962724
 30
0.0
  0
SPLINE
  5
3B5
100
AcDbEntity
  8
0
100
AcDbSpline
 62
7
  6
CONTINUOUS
 70
0
 71
3
 72
13
 73
9
 74
0
 42
0.0000001
 43
0.0000001
 44
0.0000000001
 40
0.0
 40
0.0
 40
0.0
 40
0.0
 40
0.2519031819
 40
0.5024835328
 40
0.627316677
 40
0.7518395577
 40
0.8760632036
 40
1.0
 40
1.0
 40
1.0
 40
1.0
 10
10.5234080064
 20
8.7550918882
 30
0.0
 10
10.5234080064
 20
8.7418545447
 30
0.0
 10
10.5224020492
 20
8.7154386843
 30
0.0
 10
10.5186069711
 20
8.6826580108
 30
0.0
 10
10.5140628783
 20
8.6567768701
 30
0.0
 10
10.5099121499
 20
8.6375838962
 30
0.0
 10
10.505020929
 20
8.6186153305
 30
0.0
 10
10.5012666961
 20
8.6061225123
 30
0.0
 10
10.4992686348
 20
8.5999237819
 30
0.0
  0
SPLINE
  5
3B6
100
AcDbEntity
  8
0
100
AcDbSpline
 62
7
  6
CONTINUOUS
 70
0
 71
3
 72
13
 73
9
 74
0
 42
0.0000001
 43
0.0000001
 44
0.0000000001
 40
0.0
 40
0.0
 40
0.0
 40
0.0
 40
0.2519031819
 40
0.5024835328
 40
0.627316677
 40
0.7518395577
 40
0.8760632036
 40
1.0
 40
1.0
 40
1.0
 40
1.0
 10
10.5234080064
 20
7.306203063
 30
0.0
 10
10.5234080064
 20
7.2929657194
 30
0.0
 10
10.5224020492
 20
7.266549859
 30
0.0
 10
10.5186069711
 20
7.2337691856
 30
0.0
 10
10.5140628783
 20
7.2078880448
 30
0.0
 10
10.5099121499
 20
7.1886950709
 30
0.0
 10
10.505020929
 20
7.1697265052
 30
0.0
 10
10.5012666961
 20
7.157233687
 30
0.0
 10
10.4992686348
 20
7.1510349566
 30
0.0
  0
SPLINE
  5
3B7
100
AcDbEntity
  8
0
100
AcDbSpline
 62
7
  6
CONTINUOUS
 70
0
 71
3
 72
36
 73
32
 74
0
 42
0.0000001
 43
0.0000001
 44
0.0000000001
 40
0.0
 40
0.0
 40
0.0
 40
0.0
 40
0.0958325634
 40
0.1891023555
 40
0.2792432641
 40
0.3657124907
 40
0.4480017797
 40
0.4874318797
 40
0.5256445484
 40
0.5625883581
 40
0.5982156304
 40
0.6324821329
 40
0.6653482299
 40
0.6967786463
 40
0.7267435444
 40
0.7552190339
 40
0.7821878748
 40
0.8076411027
 40
0.8315786922
 40
0.8540122486
 40
0.8749666358
 40
0.8944835825
 40
0.9126254693
 40
0.9294800532
 40
0.9451666526
 40
0.9598414247
 40
0.9737025134
 40
0.9804060178
 40
0.9869995332
 40
0.9935185676
 40
1.0
 40
1.0
 40
1.0
 40
1.0
 10
9.7660584637
 20
10.3819927567
 30
0.0
 10
9.7607711299
 20
10.3823594345
 30
0.0
 10
9.7503454794
 20
10.3831992715
 30
0.0
 10
9.7349838719
 20
10.3848024137
 30
0.0
 10
9.7201805479
 20
10.3867235646
 30
0.0
 10
9.7060343621
 20
10.3889497294
 30
0.0
 10
9.6947162536
 20
10.3910754201
 30
0.0
 10
9.6860664879
 20
10.3929256654
 30
0.0
 10
9.6798933451
 20
10.3943599819
 30
0.0
 10
9.6739520628
 20
10.3958582697
 30
0.0
 10
9.6682525298
 20
10.3974179913
 30
0.0
 10
9.6628042419
 20
10.3990365689
 30
0.0
 10
9.6576162497
 20
10.4007112371
 30
0.0
 10
9.6526971661
 20
10.4024392203
 30
0.0
 10
9.6480551309
 20
10.4042176121
 30
0.0
 10
9.6436977964
 20
10.4060434323
 30
0.0
 10
9.6396323278
 20
10.40791369
 30
0.0
 10
9.6358653409
 20
10.409825251
 30
0.0
 10
9.6324029574
 20
10.4117750821
 30
0.0
 10
9.6292507042
 20
10.4137600276
 30
0.0
 10
9.626413599
 20
10.4157770857
 30
0.0
 10
9.6238961095
 20
10.417823302
 30
0.0
 10
9.6217022082
 20
10.4198959023
 30
0.0
 10
9.6198355905
 20
10.4219923699
 30
0.0
 10
9.6182996747
 20
10.4241104577
 30
0.0
 10
9.6170982772
 20
10.4262475845
 30
0.0
 10
9.6163710557
 20
10.4280631869
 30
0.0
 10
9.6159687401
 20
10.4295115327
 30
0.0
 10
9.6157553209
 20
10.4305876126
 30
0.0
 10
9.6156272022
 20
10.4316647099
 30
0.0
 10
9.6155987005
 20
10.4323840251
 30
0.0
 10
9.6155986974
 20
10.4327424816
 30
0.0
  0
SPLINE
  5
3B8
100
AcDbEntity
  8
0
100
AcDbSpline
 62
7
  6
CONTINUOUS
 70
0
 71
3
 72
36
 73
32
 74
0
 42
0.0000001
 43
0.0000001
 44
0.0000000001
 40
0.0
 40
0.0
 40
0.0
 40
0.0
 40
0.0958325634
 40
0.1891023555
 40
0.2792432641
 40
0.3657124907
 40
0.4480017797
 40
0.4874318797
 40
0.5256445484
 40
0.5625883581
 40
0.5982156304
 40
0.6324821329
 40
0.6653482299
 40
0.6967786463
 40
0.7267435444
 40
0.7552190339
 40
0.7821878748
 40
0.8076411027
 40
0.8315786922
 40
0.8540122486
 40
0.8749666358
 40
0.8944835825
 40
0.9126254693
 40
0.9294800532
 40
0.9451666526
 40
0.9598414247
 40
0.9737025134
 40
0.9804060178
 40
0.9869995332
 40
0.9935185676
 40
1.0
 40
1.0
 40
1.0
 40
1.0
 10
12.9053175852
 20
10.1642843971
 30
0.0
 10
12.9000302513
 20
10.164651075
 30
0.0
 10
12.8896046008
 20
10.165490912
 30
0.0
 10
12.8742429934
 20
10.1670940542
 30
0.0
 10
12.8594396693
 20
10.1690152051
 30
0.0
 10
12.8452934836
 20
10.1712413699
 30
0.0
 10
12.8339753751
 20
10.1733670606
 30
0.0
 10
12.8253256094
 20
10.1752173059
 30
0.0
 10
12.8191524665
 20
10.1766516224
 30
0.0
 10
12.8132111843
 20
10.1781499102
 30
0.0
 10
12.8075116513
 20
10.1797096318
 30
0.0
 10
12.8020633633
 20
10.1813282094
 30
0.0
 10
12.7968753712
 20
10.1830028776
 30
0.0
 10
12.7919562876
 20
10.1847308607
 30
0.0
 10
12.7873142523
 20
10.1865092526
 30
0.0
 10
12.7829569179
 20
10.1883350728
 30
0.0
 10
12.7788914493
 20
10.1902053305
 30
0.0
 10
12.7751244623
 20
10.1921168915
 30
0.0
 10
12.7716620789
 20
10.1940667226
 30
0.0
 10
12.7685098256
 20
10.1960516681
 30
0.0
 10
12.7656727204
 20
10.1980687262
 30
0.0
 10
12.763155231
 20
10.2001149425
 30
0.0
 10
12.7609613296
 20
10.2021875428
 30
0.0
 10
12.7590947119
 20
10.2042840103
 30
0.0
 10
12.7575587962
 20
10.2064020982
 30
0.0
 10
12.7563573987
 20
10.208539225
 30
0.0
 10
12.7556301771
 20
10.2103548274
 30
0.0
 10
12.7552278616
 20
10.2118031732
 30
0.0
 10
12.7550144423
 20
10.2128792531
 30
0.0
 10
12.7548863237
 20
10.2139563504
 30
0.0
 10
12.754857822
 20
10.2146756656
 30
0.0
 10
12.7548578189
 20
10.2150341221
 30
0.0
  0
SPLINE
  5
3B9
100
AcDbEntity
  8
0
100
AcDbSpline
 62
7
  6
CONTINUOUS
 70
0
 71
3
 72
53
 73
49
 74
0
 42
0.0000001
 43
0.0000001
 44
0.0000000001
 40
0.0
 40
0.0
 40
0.0
 40
0.0
 40
0.0417740747
 40
0.0840370059
 40
0.1266586015
 40
0.1695066206
 40
0.2124482643
 40
0.2553502464
 40
0.2980794728
 40
0.3405035203
 40
0.3824911749
 40
0.4239129577
 40
0.4646416591
 40
0.5045528794
 40
0.5435255803
 40
0.5814426526
 40
0.6181915072
 40
0.6536646981
 40
0.6877605949
 40
0.7203841254
 40
0.7361164043
 40
0.7514483531
 40
0.7663703757
 40
0.7808733967
 40
0.7949490545
 40
0.8085896209
 40
0.8217881625
 40
0.8345385373
 40
0.8468355031
 40
0.8586748197
 40
0.8700533035
 40
0.880969049
 40
0.8914214554
 40
0.9014115674
 40
0.9109421276
 40
0.9200180273
 40
0.9286464653
 40
0.9368374971
 40
0.9446043876
 40
0.9519642556
 40
0.9589386637
 40
0.9655543233
 40
0.9718438245
 40
0.977846199
 40
0.9836073748
 40
0.9891800477
 40
0.9946230782
 40
1.0
 40
1.0
 40
1.0
 40
1.0
 10
12.920334329
 20
9.0793450461
 30
0.0
 10
12.920334329
 20
9.091835173
 30
0.0
 10
12.9205291877
 20
9.1169619838
 30
0.0
 10
12.9213906277
 20
9.154823447
 30
0.0
 10
12.9228204015
 20
9.192989098
 30
0.0
 10
12.9248138279
 20
9.2313326212
 30
0.0
 10
12.9273643156
 20
9.2697271396
 30
0.0
 10
12.9304634359
 20
9.3080456401
 30
0.0
 10
12.9341009218
 20
9.3461613465
 30
0.0
 10
12.9382647152
 20
9.3839481636
 30
0.0
 10
12.9429410016
 20
9.4212810898
 30
0.0
 10
12.9481142567
 20
9.4580366365
 30
0.0
 10
12.9537672963
 20
9.4940932394
 30
0.0
 10
12.9598813327
 20
9.529331666
 30
0.0
 10
12.9664360353
 20
9.5636354148
 30
0.0
 10
12.9734095958
 20
9.5968911157
 30
0.0
 10
12.9807788009
 20
9.6289888904
 30
0.0
 10
12.9885191004
 20
9.6598228166
 30
0.0
 10
12.9966047185
 20
9.6892909914
 30
0.0
 10
13.0036909984
 20
9.712905956
 30
0.0
 10
13.0095240063
 20
9.7310332416
 30
0.0
 10
13.0139152446
 20
9.7440631926
 30
0.0
 10
13.0183722017
 20
9.7566816898
 30
0.0
 10
13.0228912661
 20
9.7688783225
 30
0.0
 10
13.0274686362
 20
9.7806430339
 30
0.0
 10
13.0321005601
 20
9.7919661192
 30
0.0
 10
13.0367831751
 20
9.802838257
 30
0.0
 10
13.0415126188
 20
9.8132504992
 30
0.0
 10
13.0462849861
 20
9.8231942881
 30
0.0
 10
13.051096319
 20
9.8326614718
 30
0.0
 10
13.0559426935
 20
9.8416442866
 30
0.0
 10
13.0608200809
 20
9.8501354132
 30
0.0
 10
13.0657245617
 20
9.8581279107
 30
0.0
 10
13.0706520804
 20
9.8656153234
 30
0.0
 10
13.0755987491
 20
9.8725915597
 30
0.0
 10
13.0805605547
 20
9.8790510414
 30
0.0
 10
13.0855336816
 20
9.8849885422
 30
0.0
 10
13.0905142554
 20
9.8903993374
 30
0.0
 10
13.0954985984
 20
9.8952790383
 30
0.0
 10
13.1004830803
 20
9.8996236694
 30
0.0
 10
13.1054642247
 20
9.903429546
 30
0.0
 10
13.1104386765
 20
9.9066931877
 30
0.0
 10
13.1154030724
 20
9.9094113152
 30
0.0
 10
13.120354053
 20
9.911580567
 30
0.0
 10
13.1252877699
 20
9.9131977969
 30
0.0
 10
13.1302001857
 20
9.9142597543
 30
0.0
 10
13.1350853141
 20
9.9147640166
 30
0.0
 10
13.1383286297
 20
9.9147269395
 30
0.0
 10
13.1399324356
 20
9.914615712
 30
0.0
  0
SPLINE
  5
3BA
100
AcDbEntity
  8
0
100
AcDbSpline
 62
7
  6
CONTINUOUS
 70
0
 71
3
 72
53
 73
49
 74
0
 42
0.0000001
 43
0.0000001
 44
0.0000000001
 40
0.0
 40
0.0
 40
0.0
 40
0.0
 40
0.0417740747
 40
0.0840370059
 40
0.1266586015
 40
0.1695066206
 40
0.2124482643
 40
0.2553502464
 40
0.2980794728
 40
0.3405035203
 40
0.3824911749
 40
0.4239129577
 40
0.4646416591
 40
0.5045528794
 40
0.5435255803
 40
0.5814426526
 40
0.6181915072
 40
0.6536646981
 40
0.6877605949
 40
0.7203841254
 40
0.7361164043
 40
0.7514483531
 40
0.7663703757
 40
0.7808733967
 40
0.7949490545
 40
0.8085896209
 40
0.8217881625
 40
0.8345385373
 40
0.8468355031
 40
0.8586748197
 40
0.8700533035
 40
0.880969049
 40
0.8914214554
 40
0.9014115674
 40
0.9109421276
 40
0.9200180273
 40
0.9286464653
 40
0.9368374971
 40
0.9446043876
 40
0.9519642556
 40
0.9589386637
 40
0.9655543233
 40
0.9718438245
 40
0.977846199
 40
0.9836073748
 40
0.9891800477
 40
0.9946230782
 40
1.0
 40
1.0
 40
1.0
 40
1.0
 10
12.920334329
 20
7.6304562208
 30
0.0
 10
12.920334329
 20
7.6429463477
 30
0.0
 10
12.9205291877
 20
7.6680731586
 30
0.0
 10
12.9213906277
 20
7.7059346217
 30
0.0
 10
12.9228204015
 20
7.7441002728
 30
0.0
 10
12.9248138279
 20
7.782443796
 30
0.0
 10
12.9273643156
 20
7.8208383144
 30
0.0
 10
12.9304634359
 20
7.8591568148
 30
0.0
 10
12.9341009218
 20
7.8972725212
 30
0.0
 10
12.9382647152
 20
7.9350593383
 30
0.0
 10
12.9429410016
 20
7.9723922646
 30
0.0
 10
12.9481142567
 20
8.0091478113
 30
0.0
 10
12.9537672963
 20
8.0452044141
 30
0.0
 10
12.9598813327
 20
8.0804428407
 30
0.0
 10
12.9664360353
 20
8.1147465896
 30
0.0
 10
12.9734095958
 20
8.1480022904
 30
0.0
 10
12.9807788009
 20
8.1801000651
 30
0.0
 10
12.9885191004
 20
8.2109339913
 30
0.0
 10
12.9966047185
 20
8.2404021661
 30
0.0
 10
13.0036909984
 20
8.2640171307
 30
0.0
 10
13.0095240063
 20
8.2821444163
 30
0.0
 10
13.0139152446
 20
8.2951743673
 30
0.0
 10
13.0183722017
 20
8.3077928645
 30
0.0
 10
13.0228912661
 20
8.3199894973
 30
0.0
 10
13.0274686362
 20
8.3317542086
 30
0.0
 10
13.0321005601
 20
8.3430772939
 30
0.0
 10
13.0367831751
 20
8.3539494317
 30
0.0
 10
13.0415126188
 20
8.3643616739
 30
0.0
 10
13.0462849861
 20
8.3743054628
 30
0.0
 10
13.051096319
 20
8.3837726465
 30
0.0
 10
13.0559426935
 20
8.3927554613
 30
0.0
 10
13.0608200809
 20
8.4012465879
 30
0.0
 10
13.0657245617
 20
8.4092390854
 30
0.0
 10
13.0706520804
 20
8.4167264981
 30
0.0
 10
13.0755987491
 20
8.4237027344
 30
0.0
 10
13.0805605547
 20
8.4301622162
 30
0.0
 10
13.0855336816
 20
8.4360997169
 30
0.0
 10
13.0905142554
 20
8.4415105121
 30
0.0
 10
13.0954985984
 20
8.446390213
 30
0.0
 10
13.1004830803
 20
8.4507348441
 30
0.0
 10
13.1054642247
 20
8.4545407207
 30
0.0
 10
13.1104386765
 20
8.4578043624
 30
0.0
 10
13.1154030724
 20
8.4605224899
 30
0.0
 10
13.120354053
 20
8.4626917417
 30
0.0
 10
13.1252877699
 20
8.4643089717
 30
0.0
 10
13.1302001857
 20
8.465370929
 30
0.0
 10
13.1350853141
 20
8.4658751913
 30
0.0
 10
13.1383286297
 20
8.4658381143
 30
0.0
 10
13.1399324356
 20
8.4657268867
 30
0.0
  0
SPLINE
  5
3BB
100
AcDbEntity
  8
0
100
AcDbSpline
 62
7
  6
CONTINUOUS
 70
0
 71
3
 72
50
 73
46
 74
0
 42
0.0000001
 43
0.0000001
 44
0.0000000001
 40
0.0
 40
0.0
 40
0.0
 40
0.0
 40
0.0407256026
 40
0.0819150817
 40
0.1234499751
 40
0.1652115958
 40
0.2070797986
 40
0.24893432
 40
0.2906548464
 40
0.3321215867
 40
0.3732156677
 40
0.4138195895
 40
0.4538176663
 40
0.4930964772
 40
0.5315453235
 40
0.5690566965
 40
0.6055267615
 40
0.6408558643
 40
0.6749490701
 40
0.7077167477
 40
0.7390752181
 40
0.7689474975
 40
0.7972641734
 40
0.8108202733
 40
0.8239654444
 40
0.8366937295
 40
0.8489997772
 40
0.8608791729
 40
0.8723282431
 40
0.8833444249
 40
0.8939261162
 40
0.904073044
 40
0.9137862258
 40
0.9230683144
 40
0.9319237263
 40
0.9403589669
 40
0.9483829695
 40
0.9560074292
 40
0.9632473717
 40
0.9701215302
 40
0.9766531019
 40
0.9828701437
 40
0.9888063182
 40
0.9945010926
 40
1.0
 40
1.0
 40
1.0
 40
1.0
 10
12.9404120098
 20
9.1307385984
 30
0.0
 10
12.9404120098
 20
9.1392199895
 30
0.0
 10
12.9405393156
 20
9.1562796249
 30
0.0
 10
12.9411024697
 20
9.1819836045
 30
0.0
 10
12.9420374097
 20
9.2078926851
 30
0.0
 10
12.9433412637
 20
9.233927319
 30
0.0
 10
12.9450100654
 20
9.2600078088
 30
0.0
 10
12.9470386932
 20
9.2860541954
 30
0.0
 10
12.9494209306
 20
9.3119866736
 30
0.0
 10
12.9521494627
 20
9.337725772
 30
0.0
 10
12.9552159084
 20
9.3631926213
 30
0.0
 10
12.958610842
 20
9.38830919
 30
0.0
 10
12.962323823
 20
9.4129985282
 30
0.0
 10
12.9663434273
 20
9.4371850043
 30
0.0
 10
12.9706572813
 20
9.460794541
 30
0.0
 10
12.9752520995
 20
9.4837548448
 30
0.0
 10
12.9801137239
 20
9.5059956339
 30
0.0
 10
12.9852271675
 20
9.5274488571
 30
0.0
 10
12.9905766586
 20
9.5480489191
 30
0.0
 10
12.9961456912
 20
9.5677328678
 30
0.0
 10
13.0019170729
 20
9.586440688
 30
0.0
 10
13.0078729971
 20
9.6041152099
 30
0.0
 10
13.0130471205
 20
9.6181348453
 30
0.0
 10
13.0172745592
 20
9.6287848289
 30
0.0
 10
13.0204337057
 20
9.6363647562
 30
0.0
 10
13.0236250729
 20
9.6436478364
 30
0.0
 10
13.0268463136
 20
9.6506285095
 30
0.0
 10
13.0300948817
 20
9.6573014789
 30
0.0
 10
13.0333683713
 20
9.6636616521
 30
0.0
 10
13.0366642149
 20
9.6697042259
 30
0.0
 10
13.0399799727
 20
9.6754246041
 30
0.0
 10
13.0433130797
 20
9.6808184886
 30
0.0
 10
13.046661071
 20
9.6858818025
 30
0.0
 10
13.0500214182
 20
9.6906107599
 30
0.0
 10
13.0533916504
 20
9.6950018218
 30
0.0
 10
13.0567693176
 20
9.6990517099
 30
0.0
 10
13.0601519794
 20
9.7027574271
 30
0.0
 10
13.063537312
 20
9.7061161711
 30
0.0
 10
13.0669229577
 20
9.7091254519
 30
0.0
 10
13.0703067521
 20
9.7117828557
 30
0.0
 10
13.0736864619
 20
9.7140862877
 30
0.0
 10
13.0770599976
 20
9.7160335507
 30
0.0
 10
13.0804252673
 20
9.7176227669
 30
0.0
 10
13.0837795426
 20
9.7188517214
 30
0.0
 10
13.0860405205
 20
9.7194383413
 30
0.0
 10
13.08716257
 20
9.7196673733
 30
0.0
  0
SPLINE
  5
3BC
100
AcDbEntity
  8
0
100
AcDbSpline
 62
7
  6
CONTINUOUS
 70
0
 71
3
 72
37
 73
33
 74
0
 42
0.0000001
 43
0.0000001
 44
0.0000000001
 40
0.0
 40
0.0
 40
0.0
 40
0.0
 40
0.0933722333
 40
0.1843538351
 40
0.2724531136
 40
0.3152739684
 40
0.3571991751
 40
0.3981737897
 40
0.4381448545
 40
0.477061548
 40
0.5148751839
 40
0.5515395866
 40
0.5870112643
 40
0.621249488
 40
0.6542167932
 40
0.6858791704
 40
0.7162063301
 40
0.7451724053
 40
0.7727562859
 40
0.7989422655
 40
0.8237211244
 40
0.8470909383
 40
0.8690585177
 40
0.889641357
 40
0.9088696513
 40
0.9267893793
 40
0.9434660809
 40
0.9589891094
 40
0.9734768514
 40
0.9870815546
 40
0.9936140923
 40
1.0
 40
1.0
 40
1.0
 40
1.0
 10
12.9404120098
 20
9.1307385984
 30
0.0
 10
12.9404120098
 20
9.1191615238
 30
0.0
 10
12.9406445989
 20
9.096302964
 30
0.0
 10
12.9417150677
 20
9.0625363681
 30
0.0
 10
12.943213237
 20
9.0350610754
 30
0.0
 10
12.9447766005
 20
9.013686875
 30
0.0
 10
12.9461122168
 20
8.9981558344
 30
0.0
 10
12.9476199616
 20
8.9829955903
 30
0.0
 10
12.9492976132
 20
8.968228526
 30
0.0
 10
12.9511426377
 20
8.9538764611
 30
0.0
 10
12.9531523085
 20
8.939960592
 30
0.0
 10
12.9553236203
 20
8.9265014617
 30
0.0
 10
12.9576533134
 20
8.9135189261
 30
0.0
 10
12.9601379423
 20
8.9010321298
 30
0.0
 10
12.962773785
 20
8.8890594633
 30
0.0
 10
12.9655568985
 20
8.8776185376
 30
0.0
 10
12.9684831733
 20
8.8667261628
 30
0.0
 10
12.9715482329
 20
8.8563982955
 30
0.0
 10
12.9747475303
 20
8.8466500236
 30
0.0
 10
12.9780763829
 20
8.8374955439
 30
0.0
 10
12.981529881
 20
8.828948096
 30
0.0
 10
12.9851030377
 20
8.8210199646
 30
0.0
 10
12.9887908114
 20
8.8137224559
 30
0.0
 10
12.9925880719
 20
8.8070658293
 30
0.0
 10
12.9964898244
 20
8.8010593691
 30
0.0
 10
13.0004912889
 20
8.7957114036
 30
0.0
 10
13.0045878545
 20
8.7910294242
 30
0.0
 10
13.0087757177
 20
8.7870203328
 30
0.0
 10
13.0130504126
 20
8.7836913159
 30
0.0
 10
13.0167324559
 20
8.7814597951
 30
0.0
 10
13.0197025815
 20
8.7800432104
 30
0.0
 10
13.0211938613
 20
8.7794542923
 30
0.0
 10
13.021940359
 20
8.7791903709
 30
0.0
  0
SPLINE
  5
3BD
100
AcDbEntity
  8
0
100
AcDbSpline
 62
7
  6
CONTINUOUS
 70
0
 71
3
 72
50
 73
46
 74
0
 42
0.0000001
 43
0.0000001
 44
0.0000000001
 40
0.0
 40
0.0
 40
0.0
 40
0.0
 40
0.0407256026
 40
0.0819150817
 40
0.1234499751
 40
0.1652115958
 40
0.2070797986
 40
0.24893432
 40
0.2906548464
 40
0.3321215867
 40
0.3732156677
 40
0.4138195895
 40
0.4538176663
 40
0.4930964772
 40
0.5315453235
 40
0.5690566965
 40
0.6055267615
 40
0.6408558643
 40
0.6749490701
 40
0.7077167477
 40
0.7390752181
 40
0.7689474975
 40
0.7972641734
 40
0.8108202733
 40
0.8239654444
 40
0.8366937295
 40
0.8489997772
 40
0.8608791729
 40
0.8723282431
 40
0.8833444249
 40
0.8939261162
 40
0.904073044
 40
0.9137862258
 40
0.9230683144
 40
0.9319237263
 40
0.9403589669
 40
0.9483829695
 40
0.9560074292
 40
0.9632473717
 40
0.9701215302
 40
0.9766531019
 40
0.9828701437
 40
0.9888063182
 40
0.9945010926
 40
1.0
 40
1.0
 40
1.0
 40
1.0
 10
12.9404120098
 20
7.6818497731
 30
0.0
 10
12.9404120098
 20
7.6903311642
 30
0.0
 10
12.9405393156
 20
7.7073907996
 30
0.0
 10
12.9411024697
 20
7.7330947793
 30
0.0
 10
12.9420374097
 20
7.7590038598
 30
0.0
 10
12.9433412637
 20
7.7850384937
 30
0.0
 10
12.9450100654
 20
7.8111189835
 30
0.0
 10
12.9470386932
 20
7.8371653701
 30
0.0
 10
12.9494209306
 20
7.8630978483
 30
0.0
 10
12.9521494627
 20
7.8888369467
 30
0.0
 10
12.9552159084
 20
7.914303796
 30
0.0
 10
12.958610842
 20
7.9394203648
 30
0.0
 10
12.962323823
 20
7.9641097029
 30
0.0
 10
12.9663434273
 20
7.988296179
 30
0.0
 10
12.9706572813
 20
8.0119057157
 30
0.0
 10
12.9752520995
 20
8.0348660196
 30
0.0
 10
12.9801137239
 20
8.0571068086
 30
0.0
 10
12.9852271675
 20
8.0785600319
 30
0.0
 10
12.9905766586
 20
8.0991600939
 30
0.0
 10
12.9961456912
 20
8.1188440425
 30
0.0
 10
13.0019170729
 20
8.1375518627
 30
0.0
 10
13.0078729971
 20
8.1552263846
 30
0.0
 10
13.0130471205
 20
8.16924602
 30
0.0
 10
13.0172745592
 20
8.1798960036
 30
0.0
 10
13.0204337057
 20
8.1874759309
 30
0.0
 10
13.0236250729
 20
8.1947590111
 30
0.0
 10
13.0268463136
 20
8.2017396842
 30
0.0
 10
13.0300948817
 20
8.2084126536
 30
0.0
 10
13.0333683713
 20
8.2147728269
 30
0.0
 10
13.0366642149
 20
8.2208154006
 30
0.0
 10
13.0399799727
 20
8.2265357789
 30
0.0
 10
13.0433130797
 20
8.2319296633
 30
0.0
 10
13.046661071
 20
8.2369929772
 30
0.0
 10
13.0500214182
 20
8.2417219346
 30
0.0
 10
13.0533916504
 20
8.2461129965
 30
0.0
 10
13.0567693176
 20
8.2501628846
 30
0.0
 10
13.0601519794
 20
8.2538686019
 30
0.0
 10
13.063537312
 20
8.2572273459
 30
0.0
 10
13.0669229577
 20
8.2602366266
 30
0.0
 10
13.0703067521
 20
8.2628940304
 30
0.0
 10
13.0736864619
 20
8.2651974624
 30
0.0
 10
13.0770599976
 20
8.2671447254
 30
0.0
 10
13.0804252673
 20
8.2687339416
 30
0.0
 10
13.0837795426
 20
8.2699628961
 30
0.0
 10
13.0860405205
 20
8.270549516
 30
0.0
 10
13.08716257
 20
8.270778548
 30
0.0
  0
SPLINE
  5
3BE
100
AcDbEntity
  8
0
100
AcDbSpline
 62
7
  6
CONTINUOUS
 70
0
 71
3
 72
37
 73
33
 74
0
 42
0.0000001
 43
0.0000001
 44
0.0000000001
 40
0.0
 40
0.0
 40
0.0
 40
0.0
 40
0.0933722333
 40
0.1843538351
 40
0.2724531136
 40
0.3152739684
 40
0.3571991751
 40
0.3981737897
 40
0.4381448545
 40
0.477061548
 40
0.5148751839
 40
0.5515395866
 40
0.5870112643
 40
0.621249488
 40
0.6542167932
 40
0.6858791704
 40
0.7162063301
 40
0.7451724053
 40
0.7727562859
 40
0.7989422655
 40
0.8237211244
 40
0.8470909383
 40
0.8690585177
 40
0.889641357
 40
0.9088696513
 40
0.9267893793
 40
0.9434660809
 40
0.9589891094
 40
0.9734768514
 40
0.9870815546
 40
0.9936140923
 40
1.0
 40
1.0
 40
1.0
 40
1.0
 10
12.9404120098
 20
7.6818497731
 30
0.0
 10
12.9404120098
 20
7.6702726985
 30
0.0
 10
12.9406445989
 20
7.6474141387
 30
0.0
 10
12.9417150677
 20
7.6136475428
 30
0.0
 10
12.943213237
 20
7.5861722501
 30
0.0
 10
12.9447766005
 20
7.5647980497
 30
0.0
 10
12.9461122168
 20
7.5492670091
 30
0.0
 10
12.9476199616
 20
7.534106765
 30
0.0
 10
12.9492976132
 20
7.5193397007
 30
0.0
 10
12.9511426377
 20
7.5049876358
 30
0.0
 10
12.9531523085
 20
7.4910717667
 30
0.0
 10
12.9553236203
 20
7.4776126365
 30
0.0
 10
12.9576533134
 20
7.4646301008
 30
0.0
 10
12.9601379423
 20
7.4521433046
 30
0.0
 10
12.962773785
 20
7.4401706381
 30
0.0
 10
12.9655568985
 20
7.4287297123
 30
0.0
 10
12.9684831733
 20
7.4178373375
 30
0.0
 10
12.9715482329
 20
7.4075094702
 30
0.0
 10
12.9747475303
 20
7.3977611983
 30
0.0
 10
12.9780763829
 20
7.3886067186
 30
0.0
 10
12.981529881
 20
7.3800592707
 30
0.0
 10
12.9851030377
 20
7.3721311393
 30
0.0
 10
12.9887908114
 20
7.3648336306
 30
0.0
 10
12.9925880719
 20
7.358177004
 30
0.0
 10
12.9964898244
 20
7.3521705438
 30
0.0
 10
13.0004912889
 20
7.3468225783
 30
0.0
 10
13.0045878545
 20
7.3421405989
 30
0.0
 10
13.0087757177
 20
7.3381315076
 30
0.0
 10
13.0130504126
 20
7.3348024906
 30
0.0
 10
13.0167324559
 20
7.3325709698
 30
0.0
 10
13.0197025815
 20
7.3311543852
 30
0.0
 10
13.0211938613
 20
7.3305654671
 30
0.0
 10
13.021940359
 20
7.3303015456
 30
0.0
  0
SPLINE
  5
3BF
100
AcDbEntity
  8
0
100
AcDbSpline
 62
7
  6
CONTINUOUS
 70
0
 71
3
 72
23
 73
19
 74
0
 42
0.0000001
 43
0.0000001
 44
0.0000000001
 40
0.0
 40
0.0
 40
0.0
 40
0.0
 40
0.0614460382
 40
0.1231087196
 40
0.1849779291
 40
0.2470411737
 40
0.3092837474
 40
0.3716889165
 40
0.4342381239
 40
0.4969112087
 40
0.559686639
 40
0.6225417561
 40
0.685453028
 40
0.7483963087
 40
0.8113471035
 40
0.8742808354
 40
0.9371731138
 40
1.0
 40
1.0
 40
1.0
 40
1.0
 10
10.0497264173
 20
9.3073360347
 30
0.0
 10
10.0592543401
 20
9.3057962508
 30
0.0
 10
10.0782642271
 20
9.3021941018
 30
0.0
 10
10.106493246
 20
9.2952597084
 30
0.0
 10
10.1344067757
 20
9.2868047237
 30
0.0
 10
10.1619195609
 20
9.2768549092
 30
0.0
 10
10.1889489597
 20
9.2654402876
 30
0.0
 10
10.2154134176
 20
9.2525953514
 30
0.0
 10
10.241233189
 20
9.2383588777
 30
0.0
 10
10.2663304473
 20
9.2227738332
 30
0.0
 10
10.2906295518
 20
9.2058872391
 30
0.0
 10
10.3140572667
 20
9.1877500299
 30
0.0
 10
10.3365429772
 20
9.1684169066
 30
0.0
 10
10.3580189189
 20
9.1479461464
 30
0.0
 10
10.3784203144
 20
9.1263995269
 30
0.0
 10
10.3976858149
 20
9.1038417702
 30
0.0
 10
10.4157567604
 20
9.0803417325
 30
0.0
 10
10.4269800062
 20
9.0640814767
 30
0.0
 10
10.4323745695
 20
9.0558180203
 30
0.0
  0
SPLINE
  5
3C0
100
AcDbEntity
  8
0
100
AcDbSpline
 62
7
  6
CONTINUOUS
 70
0
 71
3
 72
15
 73
11
 74
0
 42
0.0000001
 43
0.0000001
 44
0.0000000001
 40
0.0
 40
0.0
 40
0.0
 40
0.0
 40
0.1261461477
 40
0.2519904361
 40
0.3775171813
 40
0.5027130884
 40
0.6275671243
 40
0.7520688843
 40
0.8762172262
 40
1.0
 40
1.0
 40
1.0
 40
1.0
 10
10.4938418696
 20
8.9302585565
 30
0.0
 10
10.4962791994
 20
8.9231621177
 30
0.0
 10
10.500861755
 20
8.9088859953
 30
0.0
 10
10.5068508718
 20
8.8872380633
 30
0.0
 10
10.5119372243
 20
8.8654180106
 30
0.0
 10
10.5161115314
 20
8.8434652651
 30
0.0
 10
10.5193662826
 20
8.8214190504
 30
0.0
 10
10.5216957824
 20
8.7993184595
 30
0.0
 10
10.5230956248
 20
8.7772037706
 30
0.0
 10
10.5234080064
 20
8.7624546457
 30
0.0
 10
10.5234080064
 20
8.7550918882
 30
0.0
  0
SPLINE
  5
3C1
100
AcDbEntity
  8
0
100
AcDbSpline
 62
7
  6
CONTINUOUS
 70
0
 71
3
 72
21
 73
17
 74
0
 42
0.0000001
 43
0.0000001
 44
0.0000000001
 40
0.0
 40
0.0
 40
0.0
 40
0.0
 40
0.0612208376
 40
0.1226007796
 40
0.1841463456
 40
0.245862861
 40
0.3077544321
 40
0.3698239212
 40
0.4320729291
 40
0.4945018069
 40
0.5571096664
 40
0.6198943887
 40
0.6828526437
 40
0.7459799354
 40
0.8726923729
 40
1.0
 40
1.0
 40
1.0
 40
1.0
 10
11.1972492655
 20
9.2039527222
 30
0.0
 10
11.2041381026
 20
9.205735851
 30
0.0
 10
11.2180128225
 20
9.2090085389
 30
0.0
 10
11.2390432173
 20
9.2130228456
 30
0.0
 10
11.2602834539
 20
9.2161421937
 30
0.0
 10
11.281696167
 20
9.2183610814
 30
0.0
 10
11.3032443459
 20
9.219675721
 30
0.0
 10
11.3248905736
 20
9.2200838145
 30
0.0
 10
11.3465973113
 20
9.2195847048
 30
0.0
 10
11.3683269012
 20
9.2181793057
 30
0.0
 10
11.3900416853
 20
9.2158700654
 30
0.0
 10
11.4117039072
 20
9.2126610113
 30
0.0
 10
11.43327636
 20
9.2085576439
 30
0.0
 10
11.4619018548
 20
9.2018963821
 30
0.0
 10
11.4972718769
 20
9.191365223
 30
0.0
 10
11.5248380318
 20
9.1806886457
 30
0.0
 10
11.5384141227
 20
9.1748021684
 30
0.0
  0
SPLINE
  5
3C2
100
AcDbEntity
  8
0
100
AcDbSpline
 62
7
  6
CONTINUOUS
 70
0
 71
3
 72
23
 73
19
 74
0
 42
0.0000001
 43
0.0000001
 44
0.0000000001
 40
0.0
 40
0.0
 40
0.0
 40
0.0
 40
0.0629295608
 40
0.1259082279
 40
0.1889121009
 40
0.2519170088
 40
0.3148987699
 40
0.3778334504
 40
0.4406976224
 40
0.5034686176
 40
0.5661247755
 40
0.6286456827
 40
0.6910124052
 40
0.7532077015
 40
0.8152162443
 40
0.8770247459
 40
0.9386223435
 40
1.0
 40
1.0
 40
1.0
 40
1.0
 10
11.6553837585
 20
9.1064213739
 30
0.0
 10
11.6631951655
 20
9.1005097924
 30
0.0
 10
11.6785249729
 20
9.088280732
 30
0.0
 10
11.700559737
 20
9.0687873316
 30
0.0
 10
11.7215839813
 20
9.0481902294
 30
0.0
 10
11.7415345506
 20
9.0265511412
 30
0.0
 10
11.7603524772
 20
9.0039340859
 30
0.0
 10
11.7779818761
 20
8.9804061881
 30
0.0
 10
11.7943704523
 20
8.9560372144
 30
0.0
 10
11.8094695639
 20
8.930899439
 30
0.0
 10
11.8232343898
 20
8.9050674122
 30
0.0
 10
11.835624057
 20
8.8786177434
 30
0.0
 10
11.8466017603
 20
8.8516288831
 30
0.0
 10
11.8561348802
 20
8.824180858
 30
0.0
 10
11.8641950509
 20
8.7963551654
 30
0.0
 10
11.8707583358
 20
8.7682340438
 30
0.0
 10
11.8758050174
 20
8.7399020596
 30
0.0
 10
11.8781529575
 20
8.7208922574
 30
0.0
 10
11.8790683413
 20
8.7113816247
 30
0.0
  0
SPLINE
  5
3C3
100
AcDbEntity
  8
0
100
AcDbSpline
 62
7
  6
CONTINUOUS
 70
0
 71
3
 72
23
 73
19
 74
0
 42
0.0000001
 43
0.0000001
 44
0.0000000001
 40
0.0
 40
0.0
 40
0.0
 40
0.0
 40
0.0614460382
 40
0.1231087196
 40
0.1849779291
 40
0.2470411737
 40
0.3092837474
 40
0.3716889165
 40
0.4342381239
 40
0.4969112087
 40
0.559686639
 40
0.6225417561
 40
0.685453028
 40
0.7483963087
 40
0.8113471035
 40
0.8742808354
 40
0.9371731138
 40
1.0
 40
1.0
 40
1.0
 40
1.0
 10
10.0497264173
 20
7.8584472094
 30
0.0
 10
10.0592543401
 20
7.8569074256
 30
0.0
 10
10.0782642271
 20
7.8533052765
 30
0.0
 10
10.106493246
 20
7.8463708831
 30
0.0
 10
10.1344067757
 20
7.8379158984
 30
0.0
 10
10.1619195609
 20
7.8279660839
 30
0.0
 10
10.1889489597
 20
7.8165514623
 30
0.0
 10
10.2154134176
 20
7.8037065261
 30
0.0
 10
10.241233189
 20
7.7894700524
 30
0.0
 10
10.2663304473
 20
7.7738850079
 30
0.0
 10
10.2906295518
 20
7.7569984139
 30
0.0
 10
10.3140572667
 20
7.7388612046
 30
0.0
 10
10.3365429772
 20
7.7195280813
 30
0.0
 10
10.3580189189
 20
7.6990573211
 30
0.0
 10
10.3784203144
 20
7.6775107016
 30
0.0
 10
10.3976858149
 20
7.6549529449
 30
0.0
 10
10.4157567604
 20
7.6314529072
 30
0.0
 10
10.4269800062
 20
7.6151926514
 30
0.0
 10
10.4323745695
 20
7.606929195
 30
0.0
  0
SPLINE
  5
3C4
100
AcDbEntity
  8
0
100
AcDbSpline
 62
7
  6
CONTINUOUS
 70
0
 71
3
 72
15
 73
11
 74
0
 42
0.0000001
 43
0.0000001
 44
0.0000000001
 40
0.0
 40
0.0
 40
0.0
 40
0.0
 40
0.1261461477
 40
0.2519904361
 40
0.3775171813
 40
0.5027130884
 40
0.6275671243
 40
0.7520688843
 40
0.8762172262
 40
1.0
 40
1.0
 40
1.0
 40
1.0
 10
10.4938418696
 20
7.4813697312
 30
0.0
 10
10.4962791994
 20
7.4742732925
 30
0.0
 10
10.500861755
 20
7.45999717
 30
0.0
 10
10.5068508718
 20
7.438349238
 30
0.0
 10
10.5119372243
 20
7.4165291853
 30
0.0
 10
10.5161115314
 20
7.3945764398
 30
0.0
 10
10.5193662826
 20
7.3725302251
 30
0.0
 10
10.5216957824
 20
7.3504296342
 30
0.0
 10
10.5230956248
 20
7.3283149453
 30
0.0
 10
10.5234080064
 20
7.3135658204
 30
0.0
 10
10.5234080064
 20
7.306203063
 30
0.0
  0
SPLINE
  5
3C5
100
AcDbEntity
  8
0
100
AcDbSpline
 62
7
  6
CONTINUOUS
 70
0
 71
3
 72
21
 73
17
 74
0
 42
0.0000001
 43
0.0000001
 44
0.0000000001
 40
0.0
 40
0.0
 40
0.0
 40
0.0
 40
0.0612208376
 40
0.1226007796
 40
0.1841463456
 40
0.245862861
 40
0.3077544321
 40
0.3698239212
 40
0.4320729291
 40
0.4945018069
 40
0.5571096664
 40
0.6198943887
 40
0.6828526437
 40
0.7459799354
 40
0.8726923729
 40
1.0
 40
1.0
 40
1.0
 40
1.0
 10
11.1972492655
 20
7.7550638969
 30
0.0
 10
11.2041381026
 20
7.7568470257
 30
0.0
 10
11.2180128225
 20
7.7601197136
 30
0.0
 10
11.2390432173
 20
7.7641340203
 30
0.0
 10
11.2602834539
 20
7.7672533684
 30
0.0
 10
11.281696167
 20
7.7694722561
 30
0.0
 10
11.3032443459
 20
7.7707868957
 30
0.0
 10
11.3248905736
 20
7.7711949892
 30
0.0
 10
11.3465973113
 20
7.7706958795
 30
0.0
 10
11.3683269012
 20
7.7692904804
 30
0.0
 10
11.3900416853
 20
7.7669812401
 30
0.0
 10
11.4117039072
 20
7.763772186
 30
0.0
 10
11.43327636
 20
7.7596688186
 30
0.0
 10
11.4619018548
 20
7.7530075568
 30
0.0
 10
11.4972718769
 20
7.7424763977
 30
0.0
 10
11.5248380318
 20
7.7317998204
 30
0.0
 10
11.5384141227
 20
7.7259133431
 30
0.0
  0
SPLINE
  5
3C6
100
AcDbEntity
  8
0
100
AcDbSpline
 62
7
  6
CONTINUOUS
 70
0
 71
3
 72
23
 73
19
 74
0
 42
0.0000001
 43
0.0000001
 44
0.0000000001
 40
0.0
 40
0.0
 40
0.0
 40
0.0
 40
0.0629295608
 40
0.1259082279
 40
0.1889121009
 40
0.2519170088
 40
0.3148987699
 40
0.3778334504
 40
0.4406976224
 40
0.5034686176
 40
0.5661247755
 40
0.6286456827
 40
0.6910124052
 40
0.7532077015
 40
0.8152162443
 40
0.8770247459
 40
0.9386223435
 40
1.0
 40
1.0
 40
1.0
 40
1.0
 10
11.6553837585
 20
7.6575325486
 30
0.0
 10
11.6631951655
 20
7.6516209671
 30
0.0
 10
11.6785249729
 20
7.6393919067
 30
0.0
 10
11.700559737
 20
7.6198985064
 30
0.0
 10
11.7215839813
 20
7.5993014041
 30
0.0
 10
11.7415345506
 20
7.5776623159
 30
0.0
 10
11.7603524772
 20
7.5550452606
 30
0.0
 10
11.7779818761
 20
7.5315173628
 30
0.0
 10
11.7943704523
 20
7.5071483891
 30
0.0
 10
11.8094695639
 20
7.4820106137
 30
0.0
 10
11.8232343898
 20
7.456178587
 30
0.0
 10
11.835624057
 20
7.4297289181
 30
0.0
 10
11.8466017603
 20
7.4027400579
 30
0.0
 10
11.8561348802
 20
7.3752920327
 30
0.0
 10
11.8641950509
 20
7.3474663401
 30
0.0
 10
11.8707583358
 20
7.3193452185
 30
0.0
 10
11.8758050174
 20
7.2910132343
 30
0.0
 10
11.8781529575
 20
7.2720034321
 30
0.0
 10
11.8790683413
 20
7.2624927994
 30
0.0
  0
SPLINE
  5
3C7
100
AcDbEntity
  8
0
100
AcDbSpline
 62
7
  6
CONTINUOUS
 70
0
 71
3
 72
49
 73
45
 74
0
 42
0.0000001
 43
0.0000001
 44
0.0000000001
 40
0.0
 40
0.0
 40
0.0
 40
0.0
 40
0.0063158739
 40
0.0126706599
 40
0.0191024896
 40
0.0256480301
 40
0.0323419112
 40
0.039216248
 40
0.0536140773
 40
0.06119479
 40
0.0690565573
 40
0.0772176635
 40
0.0856940531
 40
0.0944994572
 40
0.1036455587
 40
0.1131423452
 40
0.122998104
 40
0.1332197191
 40
0.1438128355
 40
0.1547818436
 40
0.1661302067
 40
0.1778604088
 40
0.1899740704
 40
0.2024721524
 40
0.215354813
 40
0.2422706486
 40
0.2707129033
 40
0.3006638566
 40
0.3320991037
 40
0.3649883645
 40
0.3992962141
 40
0.4349826582
 40
0.4720035847
 40
0.5103111049
 40
0.5498539072
 40
0.5905775763
 40
0.6324248432
 40
0.6753357844
 40
0.7192480525
 40
0.764097054
 40
0.809816243
 40
0.856337252
 40
0.9035893524
 40
1.0
 40
1.0
 40
1.0
 40
1.0
 10
13.0472946378
 20
7.1299352985
 30
0.0
 10
13.0461630585
 20
7.130013776
 30
0.0
 10
13.0438982743
 20
7.1302638275
 30
0.0
 10
13.0405264866
 20
7.1309156427
 30
0.0
 10
13.0371772303
 20
7.1318440947
 30
0.0
 10
13.0338524712
 20
7.1330484897
 30
0.0
 10
13.0305535252
 20
7.1345281454
 30
0.0
 10
13.0261238996
 20
7.1369026431
 30
0.0
 10
13.0218145995
 20
7.1398094405
 30
0.0
 10
13.0176442587
 20
7.1431779129
 30
0.0
 10
13.0144942796
 20
7.1460179718
 30
0.0
 10
13.0113779034
 20
7.1491263817
 30
0.0
 10
13.0082959611
 20
7.152502088
 30
0.0
 10
13.0052497092
 20
7.1561436235
 30
0.0
 10
13.0022402234
 20
7.1600494808
 30
0.0
 10
12.9992687254
 20
7.1642181046
 30
0.0
 10
12.9963363251
 20
7.1686477759
 30
0.0
 10
12.9934441759
 20
7.1733367027
 30
0.0
 10
12.9905934645
 20
7.1782830026
 30
0.0
 10
12.987785274
 20
7.183484641
 30
0.0
 10
12.98502078
 20
7.1889395234
 30
0.0
 10
12.9823010902
 20
7.1946454231
 30
0.0
 10
12.9796272894
 20
7.2006000021
 30
0.0
 10
12.9770004937
 20
7.2068008558
 30
0.0
 10
12.9735111429
 20
7.2155213785
 30
0.0
 10
12.9692859072
 20
7.2270287797
 30
0.0
 10
12.9644910775
 20
7.2415828163
 30
0.0
 10
12.9599082858
 20
7.2570532757
 30
0.0
 10
12.9555451247
 20
7.2734147816
 30
0.0
 10
12.9514088237
 20
7.2906406617
 30
0.0
 10
12.9475062574
 20
7.3087026852
 30
0.0
 10
12.9438439235
 20
7.3275712266
 30
0.0
 10
12.9404279317
 20
7.3472152908
 30
0.0
 10
12.93726397
 20
7.3676025693
 30
0.0
 10
12.9343573049
 20
7.3886995019
 30
0.0
 10
12.9317127811
 20
7.4104713459
 30
0.0
 10
12.929334813
 20
7.432882234
 30
0.0
 10
12.9272273637
 20
7.455895231
 30
0.0
 10
12.9253939407
 20
7.4794723884
 30
0.0
 10
12.9238375961
 20
7.5035748352
 30
0.0
 10
12.9225609379
 20
7.5281628216
 30
0.0
 10
12.9215660861
 20
7.5531957744
 30
0.0
 10
12.9206112917
 20
7.5873389622
 30
0.0
 10
12.920334329
 20
7.6131413816
 30
0.0
 10
12.920334329
 20
7.6304562208
 30
0.0
  0
SPLINE
  5
3C8
100
AcDbEntity
  8
0
100
AcDbSpline
 62
7
  6
CONTINUOUS
 70
0
 71
3
 72
44
 73
40
 74
0
 42
0.0000001
 43
0.0000001
 44
0.0000000001
 40
0.0
 40
0.0
 40
0.0
 40
0.0
 40
0.0055576246
 40
0.0111781252
 40
0.0169221424
 40
0.0228460823
 40
0.0290009394
 40
0.0354314054
 40
0.0421759115
 40
0.0492668554
 40
0.0567309544
 40
0.064590169
 40
0.0728619349
 40
0.0815600558
 40
0.0906951257
 40
0.1002748158
 40
0.110304631
 40
0.1207877759
 40
0.1317257866
 40
0.1431186256
 40
0.1672598102
 40
0.1931873598
 40
0.2208591117
 40
0.2502195474
 40
0.2812018198
 40
0.3137293806
 40
0.3477172232
 40
0.3830728887
 40
0.4196972996
 40
0.4574854911
 40
0.4963273377
 40
0.5361081807
 40
0.5767094102
 40
0.6180090134
 40
0.6598821151
 40
0.7448359269
 40
0.830537715
 40
0.9159396375
 40
1.0
 40
1.0
 40
1.0
 40
1.0
 10
10.0215986757
 20
10.432742954
 30
0.0
 10
10.02159868
 20
10.4322407708
 30
0.0
 10
10.0215424769
 20
10.4312298485
 30
0.0
 10
10.0212901687
 20
10.4297188533
 30
0.0
 10
10.0208702299
 20
10.4282112412
 30
0.0
 10
10.0202835702
 20
10.4267087269
 30
0.0
 10
10.0195310486
 20
10.4252125724
 30
0.0
 10
10.0186137609
 20
10.4237238865
 30
0.0
 10
10.017532716
 20
10.4222437042
 30
0.0
 10
10.0162889596
 20
10.4207730439
 30
0.0
 10
10.0148836515
 20
10.4193128451
 30
0.0
 10
10.0133179119
 20
10.4178641855
 30
0.0
 10
10.0115930595
 20
10.4164280494
 30
0.0
 10
10.0097104554
 20
10.415005517
 30
0.0
 10
10.0076715913
 20
10.4135976844
 30
0.0
 10
10.005478117
 20
10.4122055909
 30
0.0
 10
10.0031317535
 20
10.4108303906
 30
0.0
 10
10.0006344074
 20
10.4094731328
 30
0.0
 10
9.9979880739
 20
10.4081349037
 30
0.0
 10
9.9941900572
 20
10.406342741
 30
0.0
 10
9.9890782013
 20
10.4041662993
 30
0.0
 10
9.9825006923
 20
10.4016952257
 30
0.0
 10
9.9753874725
 20
10.3993248382
 30
0.0
 10
9.9677616248
 20
10.3970629464
 30
0.0
 10
9.9596477919
 20
10.3949170178
 30
0.0
 10
9.9510723612
 20
10.3928941557
 30
0.0
 10
9.9420632647
 20
10.3910010597
 30
0.0
 10
9.9326499008
 20
10.3892440028
 30
0.0
 10
9.9228630248
 20
10.3876288056
 30
0.0
 10
9.9127346439
 20
10.3861608083
 30
0.0
 10
9.9022979016
 20
10.384844866
 30
0.0
 10
9.8915869591
 20
10.3836853281
 30
0.0
 10
9.8806368943
 20
10.3826860365
 30
0.0
 10
9.8694835423
 20
10.3818502702
 30
0.0
 10
9.8543177229
 20
10.3809534695
 30
0.0
 10
9.8351230291
 20
10.3802624371
 30
0.0
 10
9.8119829932
 20
10.3801162691
 30
0.0
 10
9.7889295222
 20
10.3806513941
 30
0.0
 10
9.773635901
 20
10.3814672596
 30
0.0
 10
9.7660584637
 20
10.3819927567
 30
0.0
  0
SPLINE
  5
3C9
100
AcDbEntity
  8
0
100
AcDbSpline
 62
7
  6
CONTINUOUS
 70
0
 71
3
 72
44
 73
40
 74
0
 42
0.0000001
 43
0.0000001
 44
0.0000000001
 40
0.0
 40
0.0
 40
0.0
 40
0.0
 40
0.0055576246
 40
0.0111781252
 40
0.0169221424
 40
0.0228460823
 40
0.0290009394
 40
0.0354314054
 40
0.0421759115
 40
0.0492668554
 40
0.0567309544
 40
0.064590169
 40
0.0728619349
 40
0.0815600558
 40
0.0906951257
 40
0.1002748158
 40
0.110304631
 40
0.1207877759
 40
0.1317257866
 40
0.1431186256
 40
0.1672598102
 40
0.1931873598
 40
0.2208591117
 40
0.2502195474
 40
0.2812018198
 40
0.3137293806
 40
0.3477172232
 40
0.3830728887
 40
0.4196972996
 40
0.4574854911
 40
0.4963273377
 40
0.5361081807
 40
0.5767094102
 40
0.6180090134
 40
0.6598821151
 40
0.7448359269
 40
0.830537715
 40
0.9159396375
 40
1.0
 40
1.0
 40
1.0
 40
1.0
 10
13.1608577971
 20
10.2150345945
 30
0.0
 10
13.1608578015
 20
10.2145324113
 30
0.0
 10
13.1608015984
 20
10.213521489
 30
0.0
 10
13.1605492902
 20
10.2120104938
 30
0.0
 10
13.1601293513
 20
10.2105028817
 30
0.0
 10
13.1595426917
 20
10.2090003674
 30
0.0
 10
13.15879017
 20
10.2075042129
 30
0.0
 10
13.1578728823
 20
10.206015527
 30
0.0
 10
13.1567918374
 20
10.2045353447
 30
0.0
 10
13.155548081
 20
10.2030646844
 30
0.0
 10
13.154142773
 20
10.2016044856
 30
0.0
 10
13.1525770333
 20
10.200155826
 30
0.0
 10
13.150852181
 20
10.1987196899
 30
0.0
 10
13.1489695768
 20
10.1972971574
 30
0.0
 10
13.1469307127
 20
10.1958893249
 30
0.0
 10
13.1447372384
 20
10.1944972314
 30
0.0
 10
13.1423908749
 20
10.1931220311
 30
0.0
 10
13.1398935288
 20
10.1917647732
 30
0.0
 10
13.1372471953
 20
10.1904265442
 30
0.0
 10
13.1334491786
 20
10.1886343815
 30
0.0
 10
13.1283373227
 20
10.1864579398
 30
0.0
 10
13.1217598138
 20
10.1839868662
 30
0.0
 10
13.114646594
 20
10.1816164787
 30
0.0
 10
13.1070207463
 20
10.1793545869
 30
0.0
 10
13.0989069134
 20
10.1772086583
 30
0.0
 10
13.0903314827
 20
10.1751857962
 30
0.0
 10
13.0813223862
 20
10.1732927002
 30
0.0
 10
13.0719090222
 20
10.1715356433
 30
0.0
 10
13.0621221462
 20
10.1699204461
 30
0.0
 10
13.0519937653
 20
10.1684524488
 30
0.0
 10
13.041557023
 20
10.1671365065
 30
0.0
 10
13.0308460806
 20
10.1659769686
 30
0.0
 10
13.0198960158
 20
10.164977677
 30
0.0
 10
13.0087426638
 20
10.1641419107
 30
0.0
 10
12.9935768443
 20
10.16324511
 30
0.0
 10
12.9743821505
 20
10.1625540776
 30
0.0
 10
12.9512421146
 20
10.1624079096
 30
0.0
 10
12.9281886436
 20
10.1629430346
 30
0.0
 10
12.9128950224
 20
10.1637589001
 30
0.0
 10
12.9053175852
 20
10.1642843971
 30
0.0
  0
SPLINE
  5
3CA
100
AcDbEntity
  8
0
100
AcDbSpline
 62
7
  6
CONTINUOUS
 70
0
 71
3
 72
49
 73
45
 74
0
 42
0.0000001
 43
0.0000001
 44
0.0000000001
 40
0.0
 40
0.0
 40
0.0
 40
0.0
 40
0.0063158739
 40
0.0126706599
 40
0.0191024896
 40
0.0256480301
 40
0.0323419112
 40
0.039216248
 40
0.0536140773
 40
0.06119479
 40
0.0690565573
 40
0.0772176635
 40
0.0856940531
 40
0.0944994572
 40
0.1036455587
 40
0.1131423452
 40
0.122998104
 40
0.1332197191
 40
0.1438128355
 40
0.1547818436
 40
0.1661302067
 40
0.1778604088
 40
0.1899740704
 40
0.2024721524
 40
0.215354813
 40
0.2422706486
 40
0.2707129033
 40
0.3006638566
 40
0.3320991037
 40
0.3649883645
 40
0.3992962141
 40
0.4349826582
 40
0.4720035847
 40
0.5103111049
 40
0.5498539072
 40
0.5905775763
 40
0.6324248432
 40
0.6753357844
 40
0.7192480525
 40
0.764097054
 40
0.809816243
 40
0.856337252
 40
0.9035893524
 40
1.0
 40
1.0
 40
1.0
 40
1.0
 10
13.0472946378
 20
8.5788241237
 30
0.0
 10
13.0461630585
 20
8.5789026013
 30
0.0
 10
13.0438982743
 20
8.5791526528
 30
0.0
 10
13.0405264866
 20
8.5798044679
 30
0.0
 10
13.0371772303
 20
8.5807329199
 30
0.0
 10
13.0338524712
 20
8.581937315
 30
0.0
 10
13.0305535252
 20
8.5834169707
 30
0.0
 10
13.0261238996
 20
8.5857914683
 30
0.0
 10
13.0218145995
 20
8.5886982657
 30
0.0
 10
13.0176442587
 20
8.5920667382
 30
0.0
 10
13.0144942796
 20
8.5949067971
 30
0.0
 10
13.0113779034
 20
8.598015207
 30
0.0
 10
13.0082959611
 20
8.6013909133
 30
0.0
 10
13.0052497092
 20
8.6050324488
 30
0.0
 10
13.0022402234
 20
8.6089383061
 30
0.0
 10
12.9992687254
 20
8.6131069299
 30
0.0
 10
12.9963363251
 20
8.6175366012
 30
0.0
 10
12.9934441759
 20
8.622225528
 30
0.0
 10
12.9905934645
 20
8.6271718279
 30
0.0
 10
12.987785274
 20
8.6323734663
 30
0.0
 10
12.98502078
 20
8.6378283486
 30
0.0
 10
12.9823010902
 20
8.6435342484
 30
0.0
 10
12.9796272894
 20
8.6494888274
 30
0.0
 10
12.9770004937
 20
8.6556896811
 30
0.0
 10
12.9735111429
 20
8.6644102038
 30
0.0
 10
12.9692859072
 20
8.675917605
 30
0.0
 10
12.9644910775
 20
8.6904716416
 30
0.0
 10
12.9599082858
 20
8.705942101
 30
0.0
 10
12.9555451247
 20
8.7223036069
 30
0.0
 10
12.9514088237
 20
8.739529487
 30
0.0
 10
12.9475062574
 20
8.7575915104
 30
0.0
 10
12.9438439235
 20
8.7764600519
 30
0.0
 10
12.9404279317
 20
8.796104116
 30
0.0
 10
12.93726397
 20
8.8164913946
 30
0.0
 10
12.9343573049
 20
8.8375883272
 30
0.0
 10
12.9317127811
 20
8.8593601712
 30
0.0
 10
12.929334813
 20
8.8817710593
 30
0.0
 10
12.9272273637
 20
8.9047840562
 30
0.0
 10
12.9253939407
 20
8.9283612137
 30
0.0
 10
12.9238375961
 20
8.9524636605
 30
0.0
 10
12.9225609379
 20
8.9770516469
 30
0.0
 10
12.9215660861
 20
9.0020845997
 30
0.0
 10
12.9206112917
 20
9.0362277875
 30
0.0
 10
12.920334329
 20
9.0620302069
 30
0.0
 10
12.920334329
 20
9.0793450461
 30
0.0
  0
SPLINE
  5
3CB
100
AcDbEntity
  8
0
100
AcDbSpline
 62
7
  6
CONTINUOUS
 70
0
 71
3
 72
36
 73
32
 74
0
 42
0.0000001
 43
0.0000001
 44
0.0000000001
 40
0.0
 40
0.0
 40
0.0
 40
0.0
 40
0.0958325634
 40
0.1891023555
 40
0.2792432641
 40
0.3657124907
 40
0.4480017797
 40
0.4874318797
 40
0.5256445484
 40
0.5625883581
 40
0.5982156304
 40
0.6324821329
 40
0.6653482299
 40
0.6967786463
 40
0.7267435444
 40
0.7552190339
 40
0.7821878748
 40
0.8076411027
 40
0.8315786922
 40
0.8540122486
 40
0.8749666358
 40
0.8944835825
 40
0.9126254693
 40
0.9294800532
 40
0.9451666526
 40
0.9598414247
 40
0.9737025134
 40
0.9804060178
 40
0.9869995332
 40
0.9935185676
 40
1.0
 40
1.0
 40
1.0
 40
1.0
 10
9.8711389093
 20
10.4834926789
 30
0.0
 10
9.8764262432
 20
10.4831260011
 30
0.0
 10
9.8868518937
 20
10.4822861641
 30
0.0
 10
9.9022135011
 20
10.4806830219
 30
0.0
 10
9.9170168252
 20
10.4787618709
 30
0.0
 10
9.9311630109
 20
10.4765357062
 30
0.0
 10
9.9424811194
 20
10.4744100155
 30
0.0
 10
9.9511308852
 20
10.4725597702
 30
0.0
 10
9.957304028
 20
10.4711254537
 30
0.0
 10
9.9632453103
 20
10.4696271659
 30
0.0
 10
9.9689448433
 20
10.4680674442
 30
0.0
 10
9.9743931312
 20
10.4664488666
 30
0.0
 10
9.9795811233
 20
10.4647741984
 30
0.0
 10
9.9845002069
 20
10.4630462153
 30
0.0
 10
9.9891422422
 20
10.4612678235
 30
0.0
 10
9.9934995766
 20
10.4594420032
 30
0.0
 10
9.9975650452
 20
10.4575717456
 30
0.0
 10
10.0013320322
 20
10.4556601845
 30
0.0
 10
10.0047944156
 20
10.4537103535
 30
0.0
 10
10.0079466689
 20
10.451725408
 30
0.0
 10
10.0107837741
 20
10.4497083499
 30
0.0
 10
10.0133012636
 20
10.4476621336
 30
0.0
 10
10.0154951649
 20
10.4455895333
 30
0.0
 10
10.0173617826
 20
10.4434930657
 30
0.0
 10
10.0188976983
 20
10.4413749778
 30
0.0
 10
10.0200990958
 20
10.439237851
 30
0.0
 10
10.0208263174
 20
10.4374222486
 30
0.0
 10
10.0212286329
 20
10.4359739029
 30
0.0
 10
10.0214420522
 20
10.4348978229
 30
0.0
 10
10.0215701709
 20
10.4338207257
 30
0.0
 10
10.0215986726
 20
10.4331014105
 30
0.0
 10
10.0215986757
 20
10.432742954
 30
0.0
  0
SPLINE
  5
3CC
100
AcDbEntity
  8
0
100
AcDbSpline
 62
7
  6
CONTINUOUS
 70
0
 71
3
 72
36
 73
32
 74
0
 42
0.0000001
 43
0.0000001
 44
0.0000000001
 40
0.0
 40
0.0
 40
0.0
 40
0.0
 40
0.0958325634
 40
0.1891023555
 40
0.2792432641
 40
0.3657124907
 40
0.4480017797
 40
0.4874318797
 40
0.5256445484
 40
0.5625883581
 40
0.5982156304
 40
0.6324821329
 40
0.6653482299
 40
0.6967786463
 40
0.7267435444
 40
0.7552190339
 40
0.7821878748
 40
0.8076411027
 40
0.8315786922
 40
0.8540122486
 40
0.8749666358
 40
0.8944835825
 40
0.9126254693
 40
0.9294800532
 40
0.9451666526
 40
0.9598414247
 40
0.9737025134
 40
0.9804060178
 40
0.9869995332
 40
0.9935185676
 40
1.0
 40
1.0
 40
1.0
 40
1.0
 10
13.0103980308
 20
10.2657843194
 30
0.0
 10
13.0156853646
 20
10.2654176415
 30
0.0
 10
13.0261110152
 20
10.2645778045
 30
0.0
 10
13.0414726226
 20
10.2629746624
 30
0.0
 10
13.0562759466
 20
10.2610535114
 30
0.0
 10
13.0704221324
 20
10.2588273467
 30
0.0
 10
13.0817402409
 20
10.256701656
 30
0.0
 10
13.0903900066
 20
10.2548514107
 30
0.0
 10
13.0965631494
 20
10.2534170942
 30
0.0
 10
13.1025044317
 20
10.2519188064
 30
0.0
 10
13.1082039647
 20
10.2503590847
 30
0.0
 10
13.1136522527
 20
10.2487405071
 30
0.0
 10
13.1188402448
 20
10.2470658389
 30
0.0
 10
13.1237593284
 20
10.2453378558
 30
0.0
 10
13.1284013636
 20
10.243559464
 30
0.0
 10
13.1327586981
 20
10.2417336437
 30
0.0
 10
13.1368241667
 20
10.239863386
 30
0.0
 10
13.1405911536
 20
10.237951825
 30
0.0
 10
13.1440535371
 20
10.2360019939
 30
0.0
 10
13.1472057904
 20
10.2340170485
 30
0.0
 10
13.1500428956
 20
10.2319999904
 30
0.0
 10
13.152560385
 20
10.2299537741
 30
0.0
 10
13.1547542863
 20
10.2278811738
 30
0.0
 10
13.156620904
 20
10.2257847062
 30
0.0
 10
13.1581568198
 20
10.2236666183
 30
0.0
 10
13.1593582173
 20
10.2215294915
 30
0.0
 10
13.1600854389
 20
10.2197138891
 30
0.0
 10
13.1604877544
 20
10.2182655434
 30
0.0
 10
13.1607011736
 20
10.2171894634
 30
0.0
 10
13.1608292923
 20
10.2161123662
 30
0.0
 10
13.160857794
 20
10.215393051
 30
0.0
 10
13.1608577971
 20
10.2150345945
 30
0.0
  0
SPLINE
  5
3CD
100
AcDbEntity
  8
0
100
AcDbSpline
 62
7
  6
CONTINUOUS
 70
0
 71
3
 72
53
 73
49
 74
0
 42
0.0000001
 43
0.0000001
 44
0.0000000001
 40
0.0
 40
0.0
 40
0.0
 40
0.0
 40
0.0417740747
 40
0.0840370059
 40
0.1266586015
 40
0.1695066206
 40
0.2124482643
 40
0.2553502464
 40
0.2980794728
 40
0.3405035203
 40
0.3824911749
 40
0.4239129577
 40
0.4646416591
 40
0.5045528794
 40
0.5435255803
 40
0.5814426526
 40
0.6181915072
 40
0.6536646981
 40
0.6877605949
 40
0.7203841254
 40
0.7361164043
 40
0.7514483531
 40
0.7663703757
 40
0.7808733967
 40
0.7949490545
 40
0.8085896209
 40
0.8217881625
 40
0.8345385373
 40
0.8468355031
 40
0.8586748197
 40
0.8700533035
 40
0.880969049
 40
0.8914214554
 40
0.9014115674
 40
0.9109421276
 40
0.9200180273
 40
0.9286464653
 40
0.9368374971
 40
0.9446043876
 40
0.9519642556
 40
0.9589386637
 40
0.9655543233
 40
0.9718438245
 40
0.977846199
 40
0.9836073748
 40
0.9891800477
 40
0.9946230782
 40
1.0
 40
1.0
 40
1.0
 40
1.0
 10
13.2668927444
 20
9.4140947897
 30
0.0
 10
13.2668927444
 20
9.4016046627
 30
0.0
 10
13.2666978857
 20
9.3764778519
 30
0.0
 10
13.2658364458
 20
9.3386163887
 30
0.0
 10
13.264406672
 20
9.3004507377
 30
0.0
 10
13.2624132456
 20
9.2621072145
 30
0.0
 10
13.2598627578
 20
9.2237126961
 30
0.0
 10
13.2567636375
 20
9.1853941956
 30
0.0
 10
13.2531261517
 20
9.1472784892
 30
0.0
 10
13.2489623582
 20
9.1094916722
 30
0.0
 10
13.2442860718
 20
9.0721587459
 30
0.0
 10
13.2391128168
 20
9.0354031992
 30
0.0
 10
13.2334597772
 20
8.9993465964
 30
0.0
 10
13.2273457408
 20
8.9641081698
 30
0.0
 10
13.2207910381
 20
8.9298044209
 30
0.0
 10
13.2138174777
 20
8.8965487201
 30
0.0
 10
13.2064482726
 20
8.8644509453
 30
0.0
 10
13.1987079731
 20
8.8336170191
 30
0.0
 10
13.190622355
 20
8.8041488443
 30
0.0
 10
13.1835360751
 20
8.7805338797
 30
0.0
 10
13.1777030671
 20
8.7624065941
 30
0.0
 10
13.1733118289
 20
8.7493766431
 30
0.0
 10
13.1688548717
 20
8.7367581459
 30
0.0
 10
13.1643358074
 20
8.7245615132
 30
0.0
 10
13.1597584373
 20
8.7127968019
 30
0.0
 10
13.1551265133
 20
8.7014737165
 30
0.0
 10
13.1504438984
 20
8.6906015787
 30
0.0
 10
13.1457144547
 20
8.6801893366
 30
0.0
 10
13.1409420874
 20
8.6702455476
 30
0.0
 10
13.1361307544
 20
8.6607783639
 30
0.0
 10
13.13128438
 20
8.6517955492
 30
0.0
 10
13.1264069925
 20
8.6433044225
 30
0.0
 10
13.1215025118
 20
8.635311925
 30
0.0
 10
13.116574993
 20
8.6278245124
 30
0.0
 10
13.1116283244
 20
8.620848276
 30
0.0
 10
13.1066665188
 20
8.6143887943
 30
0.0
 10
13.1016933918
 20
8.6084512936
 30
0.0
 10
13.096712818
 20
8.6030404983
 30
0.0
 10
13.091728475
 20
8.5981607975
 30
0.0
 10
13.0867439932
 20
8.5938161663
 30
0.0
 10
13.0817628487
 20
8.5900102897
 30
0.0
 10
13.0767883969
 20
8.586746648
 30
0.0
 10
13.0718240011
 20
8.5840285205
 30
0.0
 10
13.0668730205
 20
8.5818592687
 30
0.0
 10
13.0619393035
 20
8.5802420388
 30
0.0
 10
13.0570268878
 20
8.5791800814
 30
0.0
 10
13.0521417594
 20
8.5786758191
 30
0.0
 10
13.0488984438
 20
8.5787128962
 30
0.0
 10
13.0472946378
 20
8.5788241237
 30
0.0
  0
SPLINE
  5
3CE
100
AcDbEntity
  8
0
100
AcDbSpline
 62
7
  6
CONTINUOUS
 70
0
 71
3
 72
53
 73
49
 74
0
 42
0.0000001
 43
0.0000001
 44
0.0000000001
 40
0.0
 40
0.0
 40
0.0
 40
0.0
 40
0.0417740747
 40
0.0840370059
 40
0.1266586015
 40
0.1695066206
 40
0.2124482643
 40
0.2553502464
 40
0.2980794728
 40
0.3405035203
 40
0.3824911749
 40
0.4239129577
 40
0.4646416591
 40
0.5045528794
 40
0.5435255803
 40
0.5814426526
 40
0.6181915072
 40
0.6536646981
 40
0.6877605949
 40
0.7203841254
 40
0.7361164043
 40
0.7514483531
 40
0.7663703757
 40
0.7808733967
 40
0.7949490545
 40
0.8085896209
 40
0.8217881625
 40
0.8345385373
 40
0.8468355031
 40
0.8586748197
 40
0.8700533035
 40
0.880969049
 40
0.8914214554
 40
0.9014115674
 40
0.9109421276
 40
0.9200180273
 40
0.9286464653
 40
0.9368374971
 40
0.9446043876
 40
0.9519642556
 40
0.9589386637
 40
0.9655543233
 40
0.9718438245
 40
0.977846199
 40
0.9836073748
 40
0.9891800477
 40
0.9946230782
 40
1.0
 40
1.0
 40
1.0
 40
1.0
 10
13.2668927444
 20
7.9652059644
 30
0.0
 10
13.2668927444
 20
7.9527158374
 30
0.0
 10
13.2666978857
 20
7.9275890266
 30
0.0
 10
13.2658364458
 20
7.8897275634
 30
0.0
 10
13.264406672
 20
7.8515619124
 30
0.0
 10
13.2624132456
 20
7.8132183892
 30
0.0
 10
13.2598627578
 20
7.7748238708
 30
0.0
 10
13.2567636375
 20
7.7365053704
 30
0.0
 10
13.2531261517
 20
7.6983896639
 30
0.0
 10
13.2489623582
 20
7.6606028469
 30
0.0
 10
13.2442860718
 20
7.6232699206
 30
0.0
 10
13.2391128168
 20
7.5865143739
 30
0.0
 10
13.2334597772
 20
7.5504577711
 30
0.0
 10
13.2273457408
 20
7.5152193445
 30
0.0
 10
13.2207910381
 20
7.4809155956
 30
0.0
 10
13.2138174777
 20
7.4476598948
 30
0.0
 10
13.2064482726
 20
7.41556212
 30
0.0
 10
13.1987079731
 20
7.3847281939
 30
0.0
 10
13.190622355
 20
7.355260019
 30
0.0
 10
13.1835360751
 20
7.3316450544
 30
0.0
 10
13.1777030671
 20
7.3135177688
 30
0.0
 10
13.1733118289
 20
7.3004878178
 30
0.0
 10
13.1688548717
 20
7.2878693206
 30
0.0
 10
13.1643358074
 20
7.2756726879
 30
0.0
 10
13.1597584373
 20
7.2639079766
 30
0.0
 10
13.1551265133
 20
7.2525848912
 30
0.0
 10
13.1504438984
 20
7.2417127534
 30
0.0
 10
13.1457144547
 20
7.2313005113
 30
0.0
 10
13.1409420874
 20
7.2213567224
 30
0.0
 10
13.1361307544
 20
7.2118895386
 30
0.0
 10
13.13128438
 20
7.2029067239
 30
0.0
 10
13.1264069925
 20
7.1944155972
 30
0.0
 10
13.1215025118
 20
7.1864230997
 30
0.0
 10
13.116574993
 20
7.1789356871
 30
0.0
 10
13.1116283244
 20
7.1719594507
 30
0.0
 10
13.1066665188
 20
7.165499969
 30
0.0
 10
13.1016933918
 20
7.1595624683
 30
0.0
 10
13.096712818
 20
7.1541516731
 30
0.0
 10
13.091728475
 20
7.1492719722
 30
0.0
 10
13.0867439932
 20
7.144927341
 30
0.0
 10
13.0817628487
 20
7.1411214644
 30
0.0
 10
13.0767883969
 20
7.1378578228
 30
0.0
 10
13.0718240011
 20
7.1351396952
 30
0.0
 10
13.0668730205
 20
7.1329704434
 30
0.0
 10
13.0619393035
 20
7.1313532135
 30
0.0
 10
13.0570268878
 20
7.1302912561
 30
0.0
 10
13.0521417594
 20
7.1297869938
 30
0.0
 10
13.0488984438
 20
7.1298240709
 30
0.0
 10
13.0472946378
 20
7.1299352985
 30
0.0
  0
SPLINE
  5
3CF
100
AcDbEntity
  8
0
100
AcDbSpline
 62
7
  6
CONTINUOUS
 70
0
 71
3
 72
28
 73
24
 74
0
 42
0.0000001
 43
0.0000001
 44
0.0000000001
 40
0.0
 40
0.0
 40
0.0
 40
0.0
 40
0.0218607389
 40
0.0446751611
 40
0.0684213513
 40
0.0930747222
 40
0.118608128
 40
0.1449923204
 40
0.1721959414
 40
0.2001857421
 40
0.2289268391
 40
0.2583826427
 40
0.3192838203
 40
0.3825709192
 40
0.4479058068
 40
0.5149350534
 40
0.5832928408
 40
0.6526038325
 40
0.7224859369
 40
0.792553024
 40
0.8624178181
 40
0.9316936411
 40
1.0
 40
1.0
 40
1.0
 40
1.0
 10
12.9555681244
 20
7.4768213757
 30
0.0
 10
12.9568547763
 20
7.4797718765
 30
0.0
 10
12.9594049607
 20
7.4858364029
 30
0.0
 10
12.963090606
 20
7.4952134444
 30
0.0
 10
12.9667140369
 20
7.50505408
 30
0.0
 10
12.9702698362
 20
7.5153437992
 30
0.0
 10
12.9737527911
 20
7.5260675106
 30
0.0
 10
12.9771577133
 20
7.537209453
 30
0.0
 10
12.9804795738
 20
7.5487532409
 30
0.0
 10
12.9837134674
 20
7.5606818799
 30
0.0
 10
12.9868546039
 20
7.5729778282
 30
0.0
 10
12.9909584769
 20
7.5900277058
 30
0.0
 10
12.9958106073
 20
7.612127015
 30
0.0
 10
13.001131125
 20
7.6395235708
 30
0.0
 10
13.0059806044
 20
7.6679231179
 30
0.0
 10
13.0103302506
 20
7.6971583526
 30
0.0
 10
13.0141542362
 20
7.727057183
 30
0.0
 10
13.0174298919
 20
7.75744349
 30
0.0
 10
13.0201378191
 20
7.7881382677
 30
0.0
 10
13.0222620137
 20
7.8189606705
 30
0.0
 10
13.0237899533
 20
7.849729051
 30
0.0
 10
13.024712716
 20
7.8802620627
 30
0.0
 10
13.0249227247
 20
7.9005206161
 30
0.0
 10
13.0249227247
 20
7.9105782456
 30
0.0
  0
SPLINE
  5
3D0
100
AcDbEntity
  8
0
100
AcDbSpline
 62
7
  6
CONTINUOUS
 70
0
 71
3
 72
33
 73
29
 74
0
 42
0.0000001
 43
0.0000001
 44
0.0000000001
 40
0.0
 40
0.0
 40
0.0
 40
0.0
 40
0.0175121783
 40
0.0362798577
 40
0.056301981
 40
0.0775684451
 40
0.1000616129
 40
0.1237573975
 40
0.1486261355
 40
0.1746333417
 40
0.2017402556
 40
0.2299042365
 40
0.2590791531
 40
0.2892157598
 40
0.3202619723
 40
0.3521630722
 40
0.3848619622
 40
0.4182994179
 40
0.452414279
 40
0.4871436054
 40
0.5224228917
 40
0.558186269
 40
0.6308947143
 40
0.7047223411
 40
0.7791103539
 40
0.8534945071
 40
0.9273103032
 40
1.0
 40
1.0
 40
1.0
 40
1.0
 10
12.9753164478
 20
7.3962685445
 30
0.0
 10
12.9770887918
 20
7.3988511984
 30
0.0
 10
12.9806101461
 20
7.4043058235
 30
0.0
 10
12.9856688529
 20
7.4130168814
 30
0.0
 10
12.9906769899
 20
7.4225230008
 30
0.0
 10
12.9956243633
 20
7.4328051465
 30
0.0
 10
13.0005011017
 20
7.4438430793
 30
0.0
 10
13.0052973346
 20
7.4556147824
 30
0.0
 10
13.0100033596
 20
7.468096709
 30
0.0
 10
13.0146096191
 20
7.4812638138
 30
0.0
 10
13.0191067422
 20
7.4950896294
 30
0.0
 10
13.023485586
 20
7.5095463097
 30
0.0
 10
13.027737255
 20
7.5246046974
 30
0.0
 10
13.031853103
 20
7.540234404
 30
0.0
 10
13.0358247526
 20
7.5564038725
 30
0.0
 10
13.0396441341
 20
7.5730804322
 30
0.0
 10
13.0433034938
 20
7.5902303714
 30
0.0
 10
13.0467953963
 20
7.6078190176
 30
0.0
 10
13.0501127417
 20
7.625810809
 30
0.0
 10
13.0532487915
 20
7.6441693468
 30
0.0
 10
13.0561972136
 20
7.6628575179
 30
0.0
 10
13.0598903739
 20
7.6883033577
 30
0.0
 10
13.0639884761
 20
7.7206549801
 30
0.0
 10
13.0680476356
 20
7.7599646767
 30
0.0
 10
13.0712416151
 20
7.7996548515
 30
0.0
 10
13.0735446154
 20
7.8394045879
 30
0.0
 10
13.0749380465
 20
7.8788924806
 30
0.0
 10
13.0752565305
 20
7.9050980077
 30
0.0
 10
13.0752565305
 20
7.9180995859
 30
0.0
  0
SPLINE
  5
3D1
100
AcDbEntity
  8
0
100
AcDbSpline
 62
7
  6
CONTINUOUS
 70
0
 71
3
 72
53
 73
49
 74
0
 42
0.0000001
 43
0.0000001
 44
0.0000000001
 40
0.0
 40
0.0
 40
0.0
 40
0.0
 40
0.00561882
 40
0.0111420428
 40
0.0166418616
 40
0.0221914682
 40
0.0278619549
 40
0.0337195974
 40
0.0398239585
 40
0.0462268852
 40
0.0529723767
 40
0.0600969397
 40
0.0676303569
 40
0.075596455
 40
0.0840140046
 40
0.0928973914
 40
0.1022573641
 40
0.1121014886
 40
0.1224347163
 40
0.1332596478
 40
0.1445769649
 40
0.1563855586
 40
0.1686828695
 40
0.1814649241
 40
0.1947266187
 40
0.2084616942
 40
0.2226629851
 40
0.2373223538
 40
0.2524309172
 40
0.2679789554
 40
0.300350572
 40
0.3343473976
 40
0.3698695492
 40
0.4068090749
 40
0.4450509009
 40
0.4844736716
 40
0.524950517
 40
0.5663497708
 40
0.6085356546
 40
0.6513689391
 40
0.6947075901
 40
0.7384074048
 40
0.7823226395
 40
0.8263066389
 40
0.8702124484
 40
0.913893467
 40
0.9572039929
 40
1.0
 40
1.0
 40
1.0
 40
1.0
 10
13.021940359
 20
7.3303015456
 30
0.0
 10
13.0230728035
 20
7.329901174
 30
0.0
 10
13.0253646381
 20
7.3292304467
 30
0.0
 10
13.0288803657
 20
7.3286363124
 30
0.0
 10
13.0324276946
 20
7.328467654
 30
0.0
 10
13.0360009223
 20
7.3287247301
 30
0.0
 10
13.0395952984
 20
7.3294063988
 30
0.0
 10
13.0432065344
 20
7.3305106034
 30
0.0
 10
13.0468310869
 20
7.3320348686
 30
0.0
 10
13.0504659807
 20
7.3339765093
 30
0.0
 10
13.0541085179
 20
7.3363329066
 30
0.0
 10
13.0577561459
 20
7.3391013679
 30
0.0
 10
13.0614062274
 20
7.3422791856
 30
0.0
 10
13.0650560891
 20
7.3458634205
 30
0.0
 10
13.0687028838
 20
7.3498509484
 30
0.0
 10
13.0723437317
 20
7.3542382936
 30
0.0
 10
13.0759755995
 20
7.3590217017
 30
0.0
 10
13.0795954678
 20
7.3641970245
 30
0.0
 10
13.0832001987
 20
7.3697598008
 30
0.0
 10
13.0867867083
 20
7.3757051739
 30
0.0
 10
13.0903518201
 20
7.3820279679
 30
0.0
 10
13.093892438
 20
7.388722625
 30
0.0
 10
13.097405391
 20
7.3957832724
 30
0.0
 10
13.1008876055
 20
7.4032036732
 30
0.0
 10
13.1043359448
 20
7.4109772844
 30
0.0
 10
13.1077473805
 20
7.4190972176
 30
0.0
 10
13.1111188322
 20
7.4275562888
 30
0.0
 10
13.1144473277
 20
7.4363469854
 30
0.0
 10
13.117729884
 20
7.4454615203
 30
0.0
 10
13.1221003001
 20
7.4582070289
 30
0.0
 10
13.1274149951
 20
7.47489493
 30
0.0
 10
13.1334816921
 20
7.4958164073
 30
0.0
 10
13.1392983398
 20
7.5178202325
 30
0.0
 10
13.1448440779
 20
7.5408281609
 30
0.0
 10
13.150098998
 20
7.5647585122
 30
0.0
 10
13.1550442556
 20
7.5895262002
 30
0.0
 10
13.159662125
 20
7.6150431303
 30
0.0
 10
13.1639360649
 20
7.6412185012
 30
0.0
 10
13.1678507746
 20
7.667959143
 30
0.0
 10
13.171392248
 20
7.6951698529
 30
0.0
 10
13.1745478223
 20
7.7227537402
 30
0.0
 10
13.1773062219
 20
7.7506125741
 30
0.0
 10
13.1796575987
 20
7.7786471376
 30
0.0
 10
13.1815935658
 20
7.8067575842
 30
0.0
 10
13.1831072292
 20
7.8348437899
 30
0.0
 10
13.1841932091
 20
7.8628057416
 30
0.0
 10
13.1848476638
 20
7.8905437644
 30
0.0
 10
13.1849958056
 20
7.908951082
 30
0.0
 10
13.1849958056
 20
7.9180995921
 30
0.0
  0
SPLINE
  5
3D2
100
AcDbEntity
  8
0
100
AcDbSpline
 62
7
  6
CONTINUOUS
 70
0
 71
3
 72
51
 73
47
 74
0
 42
0.0000001
 43
0.0000001
 44
0.0000000001
 40
0.0
 40
0.0
 40
0.0
 40
0.0
 40
0.0056119767
 40
0.0114532179
 40
0.0175628359
 40
0.023974297
 40
0.0307157283
 40
0.037810429
 40
0.0452774091
 40
0.0531319509
 40
0.0613861084
 40
0.0700491589
 40
0.0791279915
 40
0.0886274273
 40
0.0985505061
 40
0.1088986983
 40
0.1196721181
 40
0.1308696554
 40
0.1424891413
 40
0.1545274222
 40
0.1669804967
 40
0.1798435478
 40
0.1931110635
 40
0.2067768389
 40
0.2208340871
 40
0.2352754204
 40
0.2652776374
 40
0.2967152574
 40
0.3295123145
 40
0.3635866463
 40
0.3988505686
 40
0.4352114696
 40
0.472572349
 40
0.510832317
 40
0.5498870653
 40
0.5896293197
 40
0.6299492774
 40
0.670735036
 40
0.7118730154
 40
0.7532483756
 40
0.7947454307
 40
0.8362480653
 40
0.8776401362
 40
0.9188059146
 40
0.9596304242
 40
1.0
 40
1.0
 40
1.0
 40
1.0
 10
13.0320545989
 20
7.1338788317
 30
0.0
 10
13.0336354381
 20
7.1343455389
 30
0.0
 10
13.0368163581
 20
7.1354578124
 30
0.0
 10
13.0415182568
 20
7.137593916
 30
0.0
 10
13.0462327999
 20
7.1402246859
 30
0.0
 10
13.0509563703
 20
7.1433472326
 30
0.0
 10
13.0556862449
 20
7.1469587937
 30
0.0
 10
13.0604194142
 20
7.1510564293
 30
0.0
 10
13.0651528689
 20
7.1556370044
 30
0.0
 10
13.0698834805
 20
7.1606971285
 30
0.0
 10
13.0746080425
 20
7.166233111
 30
0.0
 10
13.0793232775
 20
7.1722409327
 30
0.0
 10
13.0840258459
 20
7.178716236
 30
0.0
 10
13.0887123806
 20
7.1856543061
 30
0.0
 10
13.0933794723
 20
7.1930500831
 30
0.0
 10
13.0980237188
 20
7.2008981455
 30
0.0
 10
13.102641689
 20
7.2091927331
 30
0.0
 10
13.1072299846
 20
7.2179277302
 30
0.0
 10
13.1117851857
 20
7.2270966933
 30
0.0
 10
13.1163039243
 20
7.2366928343
 30
0.0
 10
13.1207828155
 20
7.2467090493
 30
0.0
 10
13.1252185402
 20
7.2571379023
 30
0.0
 10
13.1296077674
 20
7.2679716547
 30
0.0
 10
13.1339472348
 20
7.2792022467
 30
0.0
 10
13.1382337071
 20
7.2908213405
 30
0.0
 10
13.1439467921
 20
7.3070265197
 30
0.0
 10
13.1509184841
 20
7.3281980508
 30
0.0
 10
13.1589207866
 20
7.3546969024
 30
0.0
 10
13.1666381259
 20
7.3825232007
 30
0.0
 10
13.1740473343
 20
7.4115940472
 30
0.0
 10
13.1811261533
 20
7.4418229965
 30
0.0
 10
13.1878533327
 20
7.4731200196
 30
0.0
 10
13.1942086858
 20
7.5053918759
 30
0.0
 10
13.200173151
 20
7.5385423757
 30
0.0
 10
13.2057288471
 20
7.5724726828
 30
0.0
 10
13.2108591264
 20
7.6070816133
 30
0.0
 10
13.2155486227
 20
7.6422659422
 30
0.0
 10
13.2197832966
 20
7.6779207156
 30
0.0
 10
13.223550477
 20
7.7139395664
 30
0.0
 10
13.226838898
 20
7.7502150345
 30
0.0
 10
13.2296387327
 20
7.7866388893
 30
0.0
 10
13.2319416213
 20
7.8231024559
 30
0.0
 10
13.2337406983
 20
7.859496935
 30
0.0
 10
13.2350306091
 20
7.8957137588
 30
0.0
 10
13.2358075322
 20
7.9316447793
 30
0.0
 10
13.2359831154
 20
7.9554926147
 30
0.0
 10
13.2359831154
 20
7.9673495544
 30
0.0
  0
SPLINE
  5
3D3
100
AcDbEntity
  8
0
100
AcDbSpline
 62
7
  6
CONTINUOUS
 70
0
 71
3
 72
21
 73
17
 74
0
 42
0.0000001
 43
0.0000001
 44
0.0000000001
 40
0.0
 40
0.0
 40
0.0
 40
0.0
 40
0.047927369
 40
0.0981832875
 40
0.1507063716
 40
0.2054271211
 40
0.262268639
 40
0.3211475953
 40
0.3819747697
 40
0.4446553604
 40
0.5090896899
 40
0.5751736158
 40
0.6427986913
 40
0.7118530234
 40
0.8537798415
 40
1.0
 40
1.0
 40
1.0
 40
1.0
 10
13.0011974247
 20
8.1348348527
 30
0.0
 10
13.0021706629
 20
8.1313558502
 30
0.0
 10
13.0040592819
 20
8.1241990857
 30
0.0
 10
13.0066704999
 20
8.1131425265
 30
0.0
 10
13.0091234069
 20
8.1015259381
 30
0.0
 10
13.0114133903
 20
8.089370785
 30
0.0
 10
13.0135362001
 20
8.0766993948
 30
0.0
 10
13.0154878646
 20
8.0635351115
 30
0.0
 10
13.0172647206
 20
8.0499021907
 30
0.0
 10
13.0188634642
 20
8.0358257785
 30
0.0
 10
13.0202811134
 20
8.0213318469
 30
0.0
 10
13.0215149949
 20
8.0064471549
 30
0.0
 10
13.0225628409
 20
7.9911991508
 30
0.0
 10
13.0237197282
 20
7.9702303028
 30
0.0
 10
13.0246761111
 20
7.9433199319
 30
0.0
 10
13.0249227247
 20
7.9215997215
 30
0.0
 10
13.0249227247
 20
7.9105782456
 30
0.0
  0
SPLINE
  5
3D4
100
AcDbEntity
  8
0
100
AcDbSpline
 62
7
  6
CONTINUOUS
 70
0
 71
3
 72
44
 73
40
 74
0
 42
0.0000001
 43
0.0000001
 44
0.0000000001
 40
0.0
 40
0.0
 40
0.0
 40
0.0
 40
0.0055576246
 40
0.0111781252
 40
0.0169221424
 40
0.0228460823
 40
0.0290009394
 40
0.0354314054
 40
0.0421759115
 40
0.0492668554
 40
0.0567309544
 40
0.064590169
 40
0.0728619349
 40
0.0815600558
 40
0.0906951257
 40
0.1002748158
 40
0.110304631
 40
0.1207877759
 40
0.1317257866
 40
0.1431186256
 40
0.1672598102
 40
0.1931873598
 40
0.2208591117
 40
0.2502195474
 40
0.2812018198
 40
0.3137293806
 40
0.3477172232
 40
0.3830728887
 40
0.4196972996
 40
0.4574854911
 40
0.4963273377
 40
0.5361081807
 40
0.5767094102
 40
0.6180090134
 40
0.6598821151
 40
0.7448359269
 40
0.830537715
 40
0.9159396375
 40
1.0
 40
1.0
 40
1.0
 40
1.0
 10
9.6155986974
 20
10.4327424816
 30
0.0
 10
9.615598693
 20
10.4332446648
 30
0.0
 10
9.6156548961
 20
10.4342555871
 30
0.0
 10
9.6159072043
 20
10.4357665822
 30
0.0
 10
9.6163271432
 20
10.4372741944
 30
0.0
 10
9.6169138029
 20
10.4387767086
 30
0.0
 10
9.6176663245
 20
10.4402728631
 30
0.0
 10
9.6185836122
 20
10.4417615491
 30
0.0
 10
9.6196646571
 20
10.4432417314
 30
0.0
 10
9.6209084135
 20
10.4447123917
 30
0.0
 10
9.6223137215
 20
10.4461725905
 30
0.0
 10
9.6238794612
 20
10.44762125
 30
0.0
 10
9.6256043136
 20
10.4490573862
 30
0.0
 10
9.6274869177
 20
10.4504799186
 30
0.0
 10
9.6295257818
 20
10.4518877512
 30
0.0
 10
9.6317192561
 20
10.4532798446
 30
0.0
 10
9.6340656196
 20
10.4546550449
 30
0.0
 10
9.6365629657
 20
10.4560123028
 30
0.0
 10
9.6392092992
 20
10.4573505318
 30
0.0
 10
9.6430073159
 20
10.4591426945
 30
0.0
 10
9.6481191718
 20
10.4613191362
 30
0.0
 10
9.6546966808
 20
10.4637902098
 30
0.0
 10
9.6618099006
 20
10.4661605974
 30
0.0
 10
9.6694357482
 20
10.4684224892
 30
0.0
 10
9.6775495811
 20
10.4705684177
 30
0.0
 10
9.6861250118
 20
10.4725912799
 30
0.0
 10
9.6951341083
 20
10.4744843758
 30
0.0
 10
9.7045474723
 20
10.4762414328
 30
0.0
 10
9.7143343483
 20
10.47785663
 30
0.0
 10
9.7244627292
 20
10.4793246273
 30
0.0
 10
9.7348994715
 20
10.4806405696
 30
0.0
 10
9.7456104139
 20
10.4818001074
 30
0.0
 10
9.7565604787
 20
10.482799399
 30
0.0
 10
9.7677138307
 20
10.4836351653
 30
0.0
 10
9.7828796502
 20
10.484531966
 30
0.0
 10
9.802074344
 20
10.4852229985
 30
0.0
 10
9.8252143799
 20
10.4853691664
 30
0.0
 10
9.8482678509
 20
10.4848340414
 30
0.0
 10
9.8635614721
 20
10.484018176
 30
0.0
 10
9.8711389093
 20
10.4834926789
 30
0.0
  0
SPLINE
  5
3D5
100
AcDbEntity
  8
0
100
AcDbSpline
 62
7
  6
CONTINUOUS
 70
0
 71
3
 72
28
 73
24
 74
0
 42
0.0000001
 43
0.0000001
 44
0.0000000001
 40
0.0
 40
0.0
 40
0.0
 40
0.0
 40
0.0193594547
 40
0.0395948775
 40
0.0607084794
 40
0.0826993388
 40
0.1055643143
 40
0.129297727
 40
0.1538921709
 40
0.1793381795
 40
0.2056248449
 40
0.2327396016
 40
0.2893950196
 40
0.3491804262
 40
0.411952124
 40
0.4775508965
 40
0.5458038093
 40
0.6165257768
 40
0.6895208082
 40
0.7645835196
 40
0.8414994246
 40
0.9200480136
 40
1.0
 40
1.0
 40
1.0
 40
1.0
 10
13.0319029624
 20
8.2118312686
 30
0.0
 10
13.0327639427
 20
8.2101049533
 30
0.0
 10
13.034463522
 20
8.2065433545
 30
0.0
 10
13.0368982663
 20
8.2010046412
 30
0.0
 10
13.03927276
 20
8.1951558507
 30
0.0
 10
13.0415851919
 20
8.189001628
 30
0.0
 10
13.0438336819
 20
8.1825467218
 30
0.0
 10
13.0460165399
 20
8.175796189
 30
0.0
 10
13.0481319781
 20
8.1687552928
 30
0.0
 10
13.0501783821
 20
8.161429556
 30
0.0
 10
13.0521541145
 20
8.1538247049
 30
0.0
 10
13.0547298433
 20
8.1431642071
 30
0.0
 10
13.0577490887
 20
8.129179103
 30
0.0
 10
13.0610163501
 20
8.1116204544
 30
0.0
 10
13.0639681922
 20
8.0931032063
 30
0.0
 10
13.0665951802
 20
8.0736855629
 30
0.0
 10
13.068888871
 20
8.0534284232
 30
0.0
 10
13.0708419016
 20
8.0323954605
 30
0.0
 10
13.0724480059
 20
8.0106528011
 30
0.0
 10
13.0737020102
 20
7.9882688958
 30
0.0
 10
13.0745998993
 20
7.9653141159
 30
0.0
 10
13.0751387453
 20
7.9418608886
 30
0.0
 10
13.0752565305
 20
7.9260665403
 30
0.0
 10
13.0752565305
 20
7.9180995859
 30
0.0
  0
SPLINE
  5
3D6
100
AcDbEntity
  8
0
100
AcDbSpline
 62
7
  6
CONTINUOUS
 70
0
 71
3
 72
49
 73
45
 74
0
 42
0.0000001
 43
0.0000001
 44
0.0000000001
 40
0.0
 40
0.0
 40
0.0
 40
0.0
 40
0.0066704173
 40
0.0132428534
 40
0.0197604443
 40
0.0262675126
 40
0.0328086194
 40
0.0394275724
 40
0.0461665439
 40
0.0530652474
 40
0.0601604775
 40
0.0674857224
 40
0.0750709668
 40
0.0829428634
 40
0.0911247083
 40
0.0996366965
 40
0.1084962988
 40
0.117718294
 40
0.1273152045
 40
0.1372975668
 40
0.1476739389
 40
0.1584513626
 40
0.1696354343
 40
0.1812303451
 40
0.2056625186
 40
0.2317631378
 40
0.2595318338
 40
0.2889571533
 40
0.3200182242
 40
0.3526862465
 40
0.3869255856
 40
0.4226945153
 40
0.4599458729
 40
0.4986277252
 40
0.5386838121
 40
0.5800538384
 40
0.6226738961
 40
0.66647683
 40
0.7113924558
 40
0.757347711
 40
0.8042672336
 40
0.8520731969
 40
0.9006851209
 40
1.0
 40
1.0
 40
1.0
 40
1.0
 10
13.08716257
 20
8.270778548
 30
0.0
 10
13.0880089814
 20
8.2709513169
 30
0.0
 10
13.0897038397
 20
8.2712278802
 30
0.0
 10
13.0922578838
 20
8.2714295442
 30
0.0
 10
13.0947989209
 20
8.2714140091
 30
0.0
 10
13.0973252051
 20
8.2711810807
 30
0.0
 10
13.0998352624
 20
8.2707310226
 30
0.0
 10
13.1023276096
 20
8.2700641987
 30
0.0
 10
13.104800844
 20
8.2691811136
 30
0.0
 10
13.1072537279
 20
8.2680825621
 30
0.0
 10
13.109685084
 20
8.2667692894
 30
0.0
 10
13.1120938294
 20
8.2652421513
 30
0.0
 10
13.114479005
 20
8.2635021181
 30
0.0
 10
13.1168396034
 20
8.2615500794
 30
0.0
 10
13.1191747005
 20
8.25938706
 30
0.0
 10
13.1214833922
 20
8.2570141322
 30
0.0
 10
13.1237646898
 20
8.2544323599
 30
0.0
 10
13.1260177002
 20
8.2516429681
 30
0.0
 10
13.1282414828
 20
8.2486472156
 30
0.0
 10
13.1304350487
 20
8.2454464236
 30
0.0
 10
13.1325975097
 20
8.2420420634
 30
0.0
 10
13.1347278883
 20
8.2384356472
 30
0.0
 10
13.1368252589
 20
8.2346287801
 30
0.0
 10
13.1396254606
 20
8.2291927896
 30
0.0
 10
13.1430259056
 20
8.221896808
 30
0.0
 10
13.1468918165
 20
8.2125189595
 30
0.0
 10
13.1506044253
 20
8.2023880319
 30
0.0
 10
13.1541569816
 20
8.1915223177
 30
0.0
 10
13.1575430337
 20
8.1799412453
 30
0.0
 10
13.1607563661
 20
8.167665731
 30
0.0
 10
13.163791046
 20
8.1547179905
 30
0.0
 10
13.1666414661
 20
8.1411215376
 30
0.0
 10
13.1693023716
 20
8.1269011196
 30
0.0
 10
13.1717688376
 20
8.1120826497
 30
0.0
 10
13.1740362851
 20
8.0966931559
 30
0.0
 10
13.176100528
 20
8.0807607397
 30
0.0
 10
13.1779577531
 20
8.0643145122
 30
0.0
 10
13.1796045161
 20
8.0473845276
 30
0.0
 10
13.1810377581
 20
8.0300017454
 30
0.0
 10
13.1822548462
 20
8.0121979459
 30
0.0
 10
13.1832535144
 20
7.9940057114
 30
0.0
 10
13.1840319205
 20
7.9754583411
 30
0.0
 10
13.1847794156
 20
7.9501201909
 30
0.0
 10
13.1849958056
 20
7.9309615421
 30
0.0
 10
13.1849958056
 20
7.9180995921
 30
0.0
  0
SPLINE
  5
3D7
100
AcDbEntity
  8
0
100
AcDbSpline
 62
7
  6
CONTINUOUS
 70
0
 71
3
 72
39
 73
35
 74
0
 42
0.0000001
 43
0.0000001
 44
0.0000000001
 40
0.0
 40
0.0
 40
0.0
 40
0.0
 40
0.0064893326
 40
0.0131516268
 40
0.027080343
 40
0.0343924063
 40
0.0419574861
 40
0.0579005888
 40
0.0750117479
 40
0.0933639077
 40
0.1130098011
 40
0.1339856834
 40
0.1563144939
 40
0.1800082202
 40
0.2050696763
 40
0.2314940874
 40
0.2592702318
 40
0.2883812112
 40
0.3188052458
 40
0.350516296
 40
0.3834844239
 40
0.4176761851
 40
0.4530550432
 40
0.489581583
 40
0.5272136884
 40
0.5659068588
 40
0.6056143772
 40
0.6462873891
 40
0.6878751541
 40
0.7303251874
 40
0.7735833016
 40
0.8175939669
 40
0.9076415146
 40
1.0
 40
1.0
 40
1.0
 40
1.0
 10
13.1241869302
 20
8.4639730084
 30
0.0
 10
13.1252185078
 20
8.4635083492
 30
0.0
 10
13.1272778343
 20
8.4624954028
 30
0.0
 10
13.1313749961
 20
8.4601443247
 30
0.0
 10
13.1353650528
 20
8.4573391351
 30
0.0
 10
13.1392351546
 20
8.4541362154
 30
0.0
 10
13.1432007427
 20
8.4505070951
 30
0.0
 10
13.1480805767
 20
8.4453612887
 30
0.0
 10
13.1537103233
 20
8.4383772636
 30
0.0
 10
13.1592075934
 20
8.4304887622
 30
0.0
 10
13.1645656637
 20
8.4217068411
 30
0.0
 10
13.1697780431
 20
8.4120431388
 30
0.0
 10
13.1748378841
 20
8.4015107448
 30
0.0
 10
13.179738345
 20
8.3901240226
 30
0.0
 10
13.1844726829
 20
8.3778986937
 30
0.0
 10
13.1890342625
 20
8.3648517471
 30
0.0
 10
13.1934166062
 20
8.3510014158
 30
0.0
 10
13.1976134938
 20
8.3363671619
 30
0.0
 10
13.2016189372
 20
8.3209696156
 30
0.0
 10
13.2054271807
 20
8.3048305267
 30
0.0
 10
13.2090327636
 20
8.287972745
 30
0.0
 10
13.212430526
 20
8.2704201771
 30
0.0
 10
13.2156155771
 20
8.2521977318
 30
0.0
 10
13.2185833294
 20
8.2333312915
 30
0.0
 10
13.2213295381
 20
8.2138476781
 30
0.0
 10
13.2238502547
 20
8.1937745988
 30
0.0
 10
13.2261418399
 20
8.1731406071
 30
0.0
 10
13.2282010156
 20
8.1519750693
 30
0.0
 10
13.2300248288
 20
8.1303081127
 30
0.0
 10
13.2316106349
 20
8.1081705927
 30
0.0
 10
13.23295619
 20
8.0855939928
 30
0.0
 10
13.2344384995
 20
8.0547143401
 30
0.0
 10
13.23566539
 20
8.0152549793
 30
0.0
 10
13.2359831154
 20
7.9834520068
 30
0.0
 10
13.2359831154
 20
7.9673495544
 30
0.0
  0
SPLINE
  5
3D8
100
AcDbEntity
  8
0
100
AcDbSpline
 62
7
  6
CONTINUOUS
 70
0
 71
3
 72
44
 73
40
 74
0
 42
0.0000001
 43
0.0000001
 44
0.0000000001
 40
0.0
 40
0.0
 40
0.0
 40
0.0
 40
0.0055576246
 40
0.0111781252
 40
0.0169221424
 40
0.0228460823
 40
0.0290009394
 40
0.0354314054
 40
0.0421759115
 40
0.0492668554
 40
0.0567309544
 40
0.064590169
 40
0.0728619349
 40
0.0815600558
 40
0.0906951257
 40
0.1002748158
 40
0.110304631
 40
0.1207877759
 40
0.1317257866
 40
0.1431186256
 40
0.1672598102
 40
0.1931873598
 40
0.2208591117
 40
0.2502195474
 40
0.2812018198
 40
0.3137293806
 40
0.3477172232
 40
0.3830728887
 40
0.4196972996
 40
0.4574854911
 40
0.4963273377
 40
0.5361081807
 40
0.5767094102
 40
0.6180090134
 40
0.6598821151
 40
0.7448359269
 40
0.830537715
 40
0.9159396375
 40
1.0
 40
1.0
 40
1.0
 40
1.0
 10
12.7548578189
 20
10.2150341221
 30
0.0
 10
12.7548578145
 20
10.2155363052
 30
0.0
 10
12.7549140176
 20
10.2165472276
 30
0.0
 10
12.7551663258
 20
10.2180582227
 30
0.0
 10
12.7555862647
 20
10.2195658349
 30
0.0
 10
12.7561729243
 20
10.2210683491
 30
0.0
 10
12.756925446
 20
10.2225645036
 30
0.0
 10
12.7578427336
 20
10.2240531896
 30
0.0
 10
12.7589237785
 20
10.2255333719
 30
0.0
 10
12.7601675349
 20
10.2270040322
 30
0.0
 10
12.761572843
 20
10.228464231
 30
0.0
 10
12.7631385826
 20
10.2299128905
 30
0.0
 10
12.764863435
 20
10.2313490266
 30
0.0
 10
12.7667460391
 20
10.2327715591
 30
0.0
 10
12.7687849032
 20
10.2341793917
 30
0.0
 10
12.7709783775
 20
10.2355714851
 30
0.0
 10
12.773324741
 20
10.2369466854
 30
0.0
 10
12.7758220871
 20
10.2383039433
 30
0.0
 10
12.7784684206
 20
10.2396421723
 30
0.0
 10
12.7822664373
 20
10.241434335
 30
0.0
 10
12.7873782933
 20
10.2436107767
 30
0.0
 10
12.7939558022
 20
10.2460818503
 30
0.0
 10
12.801069022
 20
10.2484522379
 30
0.0
 10
12.8086948697
 20
10.2507141297
 30
0.0
 10
12.8168087026
 20
10.2528600582
 30
0.0
 10
12.8253841333
 20
10.2548829204
 30
0.0
 10
12.8343932298
 20
10.2567760163
 30
0.0
 10
12.8438065938
 20
10.2585330733
 30
0.0
 10
12.8535934698
 20
10.2601482704
 30
0.0
 10
12.8637218507
 20
10.2616162678
 30
0.0
 10
12.8741585929
 20
10.2629322101
 30
0.0
 10
12.8848695354
 20
10.2640917479
 30
0.0
 10
12.8958196002
 20
10.2650910395
 30
0.0
 10
12.9069729522
 20
10.2659268058
 30
0.0
 10
12.9221387716
 20
10.2668236065
 30
0.0
 10
12.9413334655
 20
10.267514639
 30
0.0
 10
12.9644735014
 20
10.2676608069
 30
0.0
 10
12.9875269724
 20
10.2671256819
 30
0.0
 10
13.0028205935
 20
10.2663098165
 30
0.0
 10
13.0103980308
 20
10.2657843194
 30
0.0
  0
SPLINE
  5
3D9
100
AcDbEntity
  8
0
100
AcDbSpline
 62
7
  6
CONTINUOUS
 70
0
 71
3
 72
49
 73
45
 74
0
 42
0.0000001
 43
0.0000001
 44
0.0000000001
 40
0.0
 40
0.0
 40
0.0
 40
0.0
 40
0.0063158739
 40
0.0126706599
 40
0.0191024896
 40
0.0256480301
 40
0.0323419112
 40
0.039216248
 40
0.0536140773
 40
0.06119479
 40
0.0690565573
 40
0.0772176635
 40
0.0856940531
 40
0.0944994572
 40
0.1036455587
 40
0.1131423452
 40
0.122998104
 40
0.1332197191
 40
0.1438128355
 40
0.1547818436
 40
0.1661302067
 40
0.1778604088
 40
0.1899740704
 40
0.2024721524
 40
0.215354813
 40
0.2422706486
 40
0.2707129033
 40
0.3006638566
 40
0.3320991037
 40
0.3649883645
 40
0.3992962141
 40
0.4349826582
 40
0.4720035847
 40
0.5103111049
 40
0.5498539072
 40
0.5905775763
 40
0.6324248432
 40
0.6753357844
 40
0.7192480525
 40
0.764097054
 40
0.809816243
 40
0.856337252
 40
0.9035893524
 40
1.0
 40
1.0
 40
1.0
 40
1.0
 10
13.1399324356
 20
8.4657268867
 30
0.0
 10
13.1410640149
 20
8.4656484091
 30
0.0
 10
13.1433287991
 20
8.4653983577
 30
0.0
 10
13.1467005869
 20
8.4647465425
 30
0.0
 10
13.1500498432
 20
8.4638180905
 30
0.0
 10
13.1533746022
 20
8.4626136955
 30
0.0
 10
13.1566735482
 20
8.4611340398
 30
0.0
 10
13.1611031739
 20
8.4587595421
 30
0.0
 10
13.1654124739
 20
8.4558527447
 30
0.0
 10
13.1695828148
 20
8.4524842722
 30
0.0
 10
13.1727327939
 20
8.4496442134
 30
0.0
 10
13.1758491701
 20
8.4465358035
 30
0.0
 10
13.1789311124
 20
8.4431600972
 30
0.0
 10
13.1819773643
 20
8.4395185616
 30
0.0
 10
13.1849868501
 20
8.4356127044
 30
0.0
 10
13.187958348
 20
8.4314440806
 30
0.0
 10
13.1908907483
 20
8.4270144093
 30
0.0
 10
13.1937828975
 20
8.4223254824
 30
0.0
 10
13.196633609
 20
8.4173791825
 30
0.0
 10
13.1994417995
 20
8.4121775442
 30
0.0
 10
13.2022062935
 20
8.4067226618
 30
0.0
 10
13.2049259833
 20
8.401016762
 30
0.0
 10
13.2075997841
 20
8.3950621831
 30
0.0
 10
13.2102265798
 20
8.3888613294
 30
0.0
 10
13.2137159306
 20
8.3801408067
 30
0.0
 10
13.2179411663
 20
8.3686334055
 30
0.0
 10
13.222735996
 20
8.3540793689
 30
0.0
 10
13.2273187877
 20
8.3386089094
 30
0.0
 10
13.2316819488
 20
8.3222474035
 30
0.0
 10
13.2358182498
 20
8.3050215235
 30
0.0
 10
13.239720816
 20
8.2869595
 30
0.0
 10
13.2433831499
 20
8.2680909585
 30
0.0
 10
13.2467991417
 20
8.2484468944
 30
0.0
 10
13.2499631035
 20
8.2280596159
 30
0.0
 10
13.2528697686
 20
8.2069626833
 30
0.0
 10
13.2555142924
 20
8.1851908393
 30
0.0
 10
13.2578922605
 20
8.1627799512
 30
0.0
 10
13.2599997098
 20
8.1397669542
 30
0.0
 10
13.2618331328
 20
8.1161897968
 30
0.0
 10
13.2633894773
 20
8.09208735
 30
0.0
 10
13.2646661355
 20
8.0674993635
 30
0.0
 10
13.2656609874
 20
8.0424664108
 30
0.0
 10
13.2666157818
 20
8.0083232229
 30
0.0
 10
13.2668927444
 20
7.9825208035
 30
0.0
 10
13.2668927444
 20
7.9652059644
 30
0.0
  0
SPLINE
  5
3DA
100
AcDbEntity
  8
0
100
AcDbSpline
 62
7
  6
CONTINUOUS
 70
0
 71
3
 72
49
 73
45
 74
0
 42
0.0000001
 43
0.0000001
 44
0.0000000001
 40
0.0
 40
0.0
 40
0.0
 40
0.0
 40
0.0063158739
 40
0.0126706599
 40
0.0191024896
 40
0.0256480301
 40
0.0323419112
 40
0.039216248
 40
0.0536140773
 40
0.06119479
 40
0.0690565573
 40
0.0772176635
 40
0.0856940531
 40
0.0944994572
 40
0.1036455587
 40
0.1131423452
 40
0.122998104
 40
0.1332197191
 40
0.1438128355
 40
0.1547818436
 40
0.1661302067
 40
0.1778604088
 40
0.1899740704
 40
0.2024721524
 40
0.215354813
 40
0.2422706486
 40
0.2707129033
 40
0.3006638566
 40
0.3320991037
 40
0.3649883645
 40
0.3992962141
 40
0.4349826582
 40
0.4720035847
 40
0.5103111049
 40
0.5498539072
 40
0.5905775763
 40
0.6324248432
 40
0.6753357844
 40
0.7192480525
 40
0.764097054
 40
0.809816243
 40
0.856337252
 40
0.9035893524
 40
1.0
 40
1.0
 40
1.0
 40
1.0
 10
13.1399324356
 20
9.914615712
 30
0.0
 10
13.1410640149
 20
9.9145372344
 30
0.0
 10
13.1433287991
 20
9.914287183
 30
0.0
 10
13.1467005869
 20
9.9136353678
 30
0.0
 10
13.1500498432
 20
9.9127069158
 30
0.0
 10
13.1533746022
 20
9.9115025207
 30
0.0
 10
13.1566735482
 20
9.9100228651
 30
0.0
 10
13.1611031739
 20
9.9076483674
 30
0.0
 10
13.1654124739
 20
9.90474157
 30
0.0
 10
13.1695828148
 20
9.9013730975
 30
0.0
 10
13.1727327939
 20
9.8985330387
 30
0.0
 10
13.1758491701
 20
9.8954246288
 30
0.0
 10
13.1789311124
 20
9.8920489225
 30
0.0
 10
13.1819773643
 20
9.8884073869
 30
0.0
 10
13.1849868501
 20
9.8845015297
 30
0.0
 10
13.187958348
 20
9.8803329059
 30
0.0
 10
13.1908907483
 20
9.8759032345
 30
0.0
 10
13.1937828975
 20
9.8712143077
 30
0.0
 10
13.196633609
 20
9.8662680078
 30
0.0
 10
13.1994417995
 20
9.8610663695
 30
0.0
 10
13.2022062935
 20
9.8556114871
 30
0.0
 10
13.2049259833
 20
9.8499055873
 30
0.0
 10
13.2075997841
 20
9.8439510083
 30
0.0
 10
13.2102265798
 20
9.8377501547
 30
0.0
 10
13.2137159306
 20
9.8290296319
 30
0.0
 10
13.2179411663
 20
9.8175222308
 30
0.0
 10
13.222735996
 20
9.8029681942
 30
0.0
 10
13.2273187877
 20
9.7874977347
 30
0.0
 10
13.2316819488
 20
9.7711362288
 30
0.0
 10
13.2358182498
 20
9.7539103488
 30
0.0
 10
13.239720816
 20
9.7358483253
 30
0.0
 10
13.2433831499
 20
9.7169797838
 30
0.0
 10
13.2467991417
 20
9.6973357197
 30
0.0
 10
13.2499631035
 20
9.6769484412
 30
0.0
 10
13.2528697686
 20
9.6558515085
 30
0.0
 10
13.2555142924
 20
9.6340796646
 30
0.0
 10
13.2578922605
 20
9.6116687765
 30
0.0
 10
13.2599997098
 20
9.5886557795
 30
0.0
 10
13.2618331328
 20
9.5650786221
 30
0.0
 10
13.2633894773
 20
9.5409761753
 30
0.0
 10
13.2646661355
 20
9.5163881888
 30
0.0
 10
13.2656609874
 20
9.491355236
 30
0.0
 10
13.2666157818
 20
9.4572120482
 30
0.0
 10
13.2668927444
 20
9.4314096288
 30
0.0
 10
13.2668927444
 20
9.4140947897
 30
0.0
  0
SPLINE
  5
3DB
100
AcDbEntity
  8
0
100
AcDbSpline
 62
7
  6
CONTINUOUS
 70
0
 71
3
 72
39
 73
35
 74
0
 42
0.0000001
 43
0.0000001
 44
0.0000000001
 40
0.0
 40
0.0
 40
0.0
 40
0.0
 40
0.0064893326
 40
0.0131516268
 40
0.027080343
 40
0.0343924063
 40
0.0419574861
 40
0.0579005888
 40
0.0750117479
 40
0.0933639077
 40
0.1130098011
 40
0.1339856834
 40
0.1563144939
 40
0.1800082202
 40
0.2050696763
 40
0.2314940874
 40
0.2592702318
 40
0.2883812112
 40
0.3188052458
 40
0.350516296
 40
0.3834844239
 40
0.4176761851
 40
0.4530550432
 40
0.489581583
 40
0.5272136884
 40
0.5659068588
 40
0.6056143772
 40
0.6462873891
 40
0.6878751541
 40
0.7303251874
 40
0.7735833016
 40
0.8175939669
 40
0.9076415146
 40
1.0
 40
1.0
 40
1.0
 40
1.0
 10
13.1241869302
 20
9.9128618337
 30
0.0
 10
13.1252185078
 20
9.9123971745
 30
0.0
 10
13.1272778343
 20
9.9113842281
 30
0.0
 10
13.1313749961
 20
9.90903315
 30
0.0
 10
13.1353650528
 20
9.9062279604
 30
0.0
 10
13.1392351546
 20
9.9030250407
 30
0.0
 10
13.1432007427
 20
9.8993959203
 30
0.0
 10
13.1480805767
 20
9.894250114
 30
0.0
 10
13.1537103233
 20
9.8872660889
 30
0.0
 10
13.1592075934
 20
9.8793775875
 30
0.0
 10
13.1645656637
 20
9.8705956664
 30
0.0
 10
13.1697780431
 20
9.8609319641
 30
0.0
 10
13.1748378841
 20
9.8503995701
 30
0.0
 10
13.179738345
 20
9.8390128479
 30
0.0
 10
13.1844726829
 20
9.826787519
 30
0.0
 10
13.1890342625
 20
9.8137405724
 30
0.0
 10
13.1934166062
 20
9.7998902411
 30
0.0
 10
13.1976134938
 20
9.7852559871
 30
0.0
 10
13.2016189372
 20
9.7698584409
 30
0.0
 10
13.2054271807
 20
9.753719352
 30
0.0
 10
13.2090327636
 20
9.7368615703
 30
0.0
 10
13.212430526
 20
9.7193090024
 30
0.0
 10
13.2156155771
 20
9.7010865571
 30
0.0
 10
13.2185833294
 20
9.6822201168
 30
0.0
 10
13.2213295381
 20
9.6627365034
 30
0.0
 10
13.2238502547
 20
9.6426634241
 30
0.0
 10
13.2261418399
 20
9.6220294324
 30
0.0
 10
13.2282010156
 20
9.6008638946
 30
0.0
 10
13.2300248288
 20
9.5791969379
 30
0.0
 10
13.2316106349
 20
9.557059418
 30
0.0
 10
13.23295619
 20
9.534482818
 30
0.0
 10
13.2344384995
 20
9.5036031654
 30
0.0
 10
13.23566539
 20
9.4641438046
 30
0.0
 10
13.2359831154
 20
9.4323408321
 30
0.0
 10
13.2359831154
 20
9.4162383797
 30
0.0
  0
SPLINE
  5
3DC
100
AcDbEntity
  8
0
100
AcDbSpline
 62
7
  6
CONTINUOUS
 70
0
 71
3
 72
49
 73
45
 74
0
 42
0.0000001
 43
0.0000001
 44
0.0000000001
 40
0.0
 40
0.0
 40
0.0
 40
0.0
 40
0.0066704173
 40
0.0132428534
 40
0.0197604443
 40
0.0262675126
 40
0.0328086194
 40
0.0394275724
 40
0.0461665439
 40
0.0530652474
 40
0.0601604775
 40
0.0674857224
 40
0.0750709668
 40
0.0829428634
 40
0.0911247083
 40
0.0996366965
 40
0.1084962988
 40
0.117718294
 40
0.1273152045
 40
0.1372975668
 40
0.1476739389
 40
0.1584513626
 40
0.1696354343
 40
0.1812303451
 40
0.2056625186
 40
0.2317631378
 40
0.2595318338
 40
0.2889571533
 40
0.3200182242
 40
0.3526862465
 40
0.3869255856
 40
0.4226945153
 40
0.4599458729
 40
0.4986277252
 40
0.5386838121
 40
0.5800538384
 40
0.6226738961
 40
0.66647683
 40
0.7113924558
 40
0.757347711
 40
0.8042672336
 40
0.8520731969
 40
0.9006851209
 40
1.0
 40
1.0
 40
1.0
 40
1.0
 10
13.08716257
 20
9.7196673733
 30
0.0
 10
13.0880089814
 20
9.7198401422
 30
0.0
 10
13.0897038397
 20
9.7201167055
 30
0.0
 10
13.0922578838
 20
9.7203183694
 30
0.0
 10
13.0947989209
 20
9.7203028344
 30
0.0
 10
13.0973252051
 20
9.720069906
 30
0.0
 10
13.0998352624
 20
9.7196198479
 30
0.0
 10
13.1023276096
 20
9.718953024
 30
0.0
 10
13.104800844
 20
9.7180699389
 30
0.0
 10
13.1072537279
 20
9.7169713873
 30
0.0
 10
13.109685084
 20
9.7156581147
 30
0.0
 10
13.1120938294
 20
9.7141309766
 30
0.0
 10
13.114479005
 20
9.7123909434
 30
0.0
 10
13.1168396034
 20
9.7104389047
 30
0.0
 10
13.1191747005
 20
9.7082758852
 30
0.0
 10
13.1214833922
 20
9.7059029575
 30
0.0
 10
13.1237646898
 20
9.7033211852
 30
0.0
 10
13.1260177002
 20
9.7005317933
 30
0.0
 10
13.1282414828
 20
9.6975360409
 30
0.0
 10
13.1304350487
 20
9.6943352489
 30
0.0
 10
13.1325975097
 20
9.6909308887
 30
0.0
 10
13.1347278883
 20
9.6873244725
 30
0.0
 10
13.1368252589
 20
9.6835176054
 30
0.0
 10
13.1396254606
 20
9.6780816149
 30
0.0
 10
13.1430259056
 20
9.6707856333
 30
0.0
 10
13.1468918165
 20
9.6614077847
 30
0.0
 10
13.1506044253
 20
9.6512768572
 30
0.0
 10
13.1541569816
 20
9.640411143
 30
0.0
 10
13.1575430337
 20
9.6288300705
 30
0.0
 10
13.1607563661
 20
9.6165545563
 30
0.0
 10
13.163791046
 20
9.6036068158
 30
0.0
 10
13.1666414661
 20
9.5900103628
 30
0.0
 10
13.1693023716
 20
9.5757899449
 30
0.0
 10
13.1717688376
 20
9.5609714749
 30
0.0
 10
13.1740362851
 20
9.5455819812
 30
0.0
 10
13.176100528
 20
9.529649565
 30
0.0
 10
13.1779577531
 20
9.5132033374
 30
0.0
 10
13.1796045161
 20
9.4962733529
 30
0.0
 10
13.1810377581
 20
9.4788905706
 30
0.0
 10
13.1822548462
 20
9.4610867712
 30
0.0
 10
13.1832535144
 20
9.4428945367
 30
0.0
 10
13.1840319205
 20
9.4243471664
 30
0.0
 10
13.1847794156
 20
9.3990090162
 30
0.0
 10
13.1849958056
 20
9.3798503674
 30
0.0
 10
13.1849958056
 20
9.3669884174
 30
0.0
  0
SPLINE
  5
3DD
100
AcDbEntity
  8
0
100
AcDbSpline
 62
7
  6
CONTINUOUS
 70
0
 71
3
 72
28
 73
24
 74
0
 42
0.0000001
 43
0.0000001
 44
0.0000000001
 40
0.0
 40
0.0
 40
0.0
 40
0.0
 40
0.0193594547
 40
0.0395948775
 40
0.0607084794
 40
0.0826993388
 40
0.1055643143
 40
0.129297727
 40
0.1538921709
 40
0.1793381795
 40
0.2056248449
 40
0.2327396016
 40
0.2893950196
 40
0.3491804262
 40
0.411952124
 40
0.4775508965
 40
0.5458038093
 40
0.6165257768
 40
0.6895208082
 40
0.7645835196
 40
0.8414994246
 40
0.9200480136
 40
1.0
 40
1.0
 40
1.0
 40
1.0
 10
13.0319029624
 20
9.6607200939
 30
0.0
 10
13.0327639427
 20
9.6589937786
 30
0.0
 10
13.034463522
 20
9.6554321798
 30
0.0
 10
13.0368982663
 20
9.6498934665
 30
0.0
 10
13.03927276
 20
9.6440446759
 30
0.0
 10
13.0415851919
 20
9.6378904533
 30
0.0
 10
13.0438336819
 20
9.6314355471
 30
0.0
 10
13.0460165399
 20
9.6246850143
 30
0.0
 10
13.0481319781
 20
9.6176441181
 30
0.0
 10
13.0501783821
 20
9.6103183813
 30
0.0
 10
13.0521541145
 20
9.6027135302
 30
0.0
 10
13.0547298433
 20
9.5920530323
 30
0.0
 10
13.0577490887
 20
9.5780679283
 30
0.0
 10
13.0610163501
 20
9.5605092796
 30
0.0
 10
13.0639681922
 20
9.5419920316
 30
0.0
 10
13.0665951802
 20
9.5225743882
 30
0.0
 10
13.068888871
 20
9.5023172485
 30
0.0
 10
13.0708419016
 20
9.4812842858
 30
0.0
 10
13.0724480059
 20
9.4595416264
 30
0.0
 10
13.0737020102
 20
9.4371577211
 30
0.0
 10
13.0745998993
 20
9.4142029411
 30
0.0
 10
13.0751387453
 20
9.3907497138
 30
0.0
 10
13.0752565305
 20
9.3749553656
 30
0.0
 10
13.0752565305
 20
9.3669884112
 30
0.0
  0
SPLINE
  5
3DE
100
AcDbEntity
  8
0
100
AcDbSpline
 62
7
  6
CONTINUOUS
 70
0
 71
3
 72
21
 73
17
 74
0
 42
0.0000001
 43
0.0000001
 44
0.0000000001
 40
0.0
 40
0.0
 40
0.0
 40
0.0
 40
0.047927369
 40
0.0981832875
 40
0.1507063716
 40
0.2054271211
 40
0.262268639
 40
0.3211475953
 40
0.3819747697
 40
0.4446553604
 40
0.5090896899
 40
0.5751736158
 40
0.6427986913
 40
0.7118530234
 40
0.8537798415
 40
1.0
 40
1.0
 40
1.0
 40
1.0
 10
13.0011974247
 20
9.583723678
 30
0.0
 10
13.0021706629
 20
9.5802446755
 30
0.0
 10
13.0040592819
 20
9.573087911
 30
0.0
 10
13.0066704999
 20
9.5620313518
 30
0.0
 10
13.0091234069
 20
9.5504147634
 30
0.0
 10
13.0114133903
 20
9.5382596103
 30
0.0
 10
13.0135362001
 20
9.5255882201
 30
0.0
 10
13.0154878646
 20
9.5124239367
 30
0.0
 10
13.0172647206
 20
9.498791016
 30
0.0
 10
13.0188634642
 20
9.4847146037
 30
0.0
 10
13.0202811134
 20
9.4702206722
 30
0.0
 10
13.0215149949
 20
9.4553359802
 30
0.0
 10
13.0225628409
 20
9.4400879761
 30
0.0
 10
13.0237197282
 20
9.4191191281
 30
0.0
 10
13.0246761111
 20
9.3922087572
 30
0.0
 10
13.0249227247
 20
9.3704885468
 30
0.0
 10
13.0249227247
 20
9.3594670709
 30
0.0
  0
SPLINE
  5
3DF
100
AcDbEntity
  8
0
100
AcDbSpline
 62
7
  6
CONTINUOUS
 70
0
 71
3
 72
28
 73
24
 74
0
 42
0.0000001
 43
0.0000001
 44
0.0000000001
 40
0.0
 40
0.0
 40
0.0
 40
0.0
 40
0.0218607389
 40
0.0446751611
 40
0.0684213513
 40
0.0930747222
 40
0.118608128
 40
0.1449923204
 40
0.1721959414
 40
0.2001857421
 40
0.2289268391
 40
0.2583826427
 40
0.3192838203
 40
0.3825709192
 40
0.4479058068
 40
0.5149350534
 40
0.5832928408
 40
0.6526038325
 40
0.7224859369
 40
0.792553024
 40
0.8624178181
 40
0.9316936411
 40
1.0
 40
1.0
 40
1.0
 40
1.0
 10
12.9555681244
 20
8.925710201
 30
0.0
 10
12.9568547763
 20
8.9286607018
 30
0.0
 10
12.9594049607
 20
8.9347252282
 30
0.0
 10
12.963090606
 20
8.9441022697
 30
0.0
 10
12.9667140369
 20
8.9539429053
 30
0.0
 10
12.9702698362
 20
8.9642326245
 30
0.0
 10
12.9737527911
 20
8.9749563359
 30
0.0
 10
12.9771577133
 20
8.9860982782
 30
0.0
 10
12.9804795738
 20
8.9976420662
 30
0.0
 10
12.9837134674
 20
9.0095707052
 30
0.0
 10
12.9868546039
 20
9.0218666535
 30
0.0
 10
12.9909584769
 20
9.0389165311
 30
0.0
 10
12.9958106073
 20
9.0610158403
 30
0.0
 10
13.001131125
 20
9.0884123961
 30
0.0
 10
13.0059806044
 20
9.1168119432
 30
0.0
 10
13.0103302506
 20
9.1460471779
 30
0.0
 10
13.0141542362
 20
9.1759460083
 30
0.0
 10
13.0174298919
 20
9.2063323153
 30
0.0
 10
13.0201378191
 20
9.237027093
 30
0.0
 10
13.0222620137
 20
9.2678494958
 30
0.0
 10
13.0237899533
 20
9.2986178763
 30
0.0
 10
13.024712716
 20
9.329150888
 30
0.0
 10
13.0249227247
 20
9.3494094414
 30
0.0
 10
13.0249227247
 20
9.3594670709
 30
0.0
  0
SPLINE
  5
3E0
100
AcDbEntity
  8
0
100
AcDbSpline
 62
7
  6
CONTINUOUS
 70
0
 71
3
 72
51
 73
47
 74
0
 42
0.0000001
 43
0.0000001
 44
0.0000000001
 40
0.0
 40
0.0
 40
0.0
 40
0.0
 40
0.0056119767
 40
0.0114532179
 40
0.0175628359
 40
0.023974297
 40
0.0307157283
 40
0.037810429
 40
0.0452774091
 40
0.0531319509
 40
0.0613861084
 40
0.0700491589
 40
0.0791279915
 40
0.0886274273
 40
0.0985505061
 40
0.1088986983
 40
0.1196721181
 40
0.1308696554
 40
0.1424891413
 40
0.1545274222
 40
0.1669804967
 40
0.1798435478
 40
0.1931110635
 40
0.2067768389
 40
0.2208340871
 40
0.2352754204
 40
0.2652776374
 40
0.2967152574
 40
0.3295123145
 40
0.3635866463
 40
0.3988505686
 40
0.4352114696
 40
0.472572349
 40
0.510832317
 40
0.5498870653
 40
0.5896293197
 40
0.6299492774
 40
0.670735036
 40
0.7118730154
 40
0.7532483756
 40
0.7947454307
 40
0.8362480653
 40
0.8776401362
 40
0.9188059146
 40
0.9596304242
 40
1.0
 40
1.0
 40
1.0
 40
1.0
 10
13.0320545989
 20
8.582767657
 30
0.0
 10
13.0336354381
 20
8.5832343642
 30
0.0
 10
13.0368163581
 20
8.5843466377
 30
0.0
 10
13.0415182568
 20
8.5864827413
 30
0.0
 10
13.0462327999
 20
8.5891135111
 30
0.0
 10
13.0509563703
 20
8.5922360579
 30
0.0
 10
13.0556862449
 20
8.595847619
 30
0.0
 10
13.0604194142
 20
8.5999452546
 30
0.0
 10
13.0651528689
 20
8.6045258296
 30
0.0
 10
13.0698834805
 20
8.6095859538
 30
0.0
 10
13.0746080425
 20
8.6151219363
 30
0.0
 10
13.0793232775
 20
8.6211297579
 30
0.0
 10
13.0840258459
 20
8.6276050613
 30
0.0
 10
13.0887123806
 20
8.6345431313
 30
0.0
 10
13.0933794723
 20
8.6419389084
 30
0.0
 10
13.0980237188
 20
8.6497869708
 30
0.0
 10
13.102641689
 20
8.6580815584
 30
0.0
 10
13.1072299846
 20
8.6668165554
 30
0.0
 10
13.1117851857
 20
8.6759855186
 30
0.0
 10
13.1163039243
 20
8.6855816596
 30
0.0
 10
13.1207828155
 20
8.6955978746
 30
0.0
 10
13.1252185402
 20
8.7060267276
 30
0.0
 10
13.1296077674
 20
8.71686048
 30
0.0
 10
13.1339472348
 20
8.7280910719
 30
0.0
 10
13.1382337071
 20
8.7397101658
 30
0.0
 10
13.1439467921
 20
8.755915345
 30
0.0
 10
13.1509184841
 20
8.777086876
 30
0.0
 10
13.1589207866
 20
8.8035857277
 30
0.0
 10
13.1666381259
 20
8.8314120259
 30
0.0
 10
13.1740473343
 20
8.8604828725
 30
0.0
 10
13.1811261533
 20
8.8907118217
 30
0.0
 10
13.1878533327
 20
8.9220088449
 30
0.0
 10
13.1942086858
 20
8.9542807011
 30
0.0
 10
13.200173151
 20
8.9874312009
 30
0.0
 10
13.2057288471
 20
9.0213615081
 30
0.0
 10
13.2108591264
 20
9.0559704386
 30
0.0
 10
13.2155486227
 20
9.0911547675
 30
0.0
 10
13.2197832966
 20
9.1268095409
 30
0.0
 10
13.223550477
 20
9.1628283917
 30
0.0
 10
13.226838898
 20
9.1991038598
 30
0.0
 10
13.2296387327
 20
9.2355277146
 30
0.0
 10
13.2319416213
 20
9.2719912812
 30
0.0
 10
13.2337406983
 20
9.3083857603
 30
0.0
 10
13.2350306091
 20
9.3446025841
 30
0.0
 10
13.2358075322
 20
9.3805336045
 30
0.0
 10
13.2359831154
 20
9.40438144
 30
0.0
 10
13.2359831154
 20
9.4162383797
 30
0.0
  0
SPLINE
  5
3E1
100
AcDbEntity
  8
0
100
AcDbSpline
 62
7
  6
CONTINUOUS
 70
0
 71
3
 72
33
 73
29
 74
0
 42
0.0000001
 43
0.0000001
 44
0.0000000001
 40
0.0
 40
0.0
 40
0.0
 40
0.0
 40
0.0175121783
 40
0.0362798577
 40
0.056301981
 40
0.0775684451
 40
0.1000616129
 40
0.1237573975
 40
0.1486261355
 40
0.1746333417
 40
0.2017402556
 40
0.2299042365
 40
0.2590791531
 40
0.2892157598
 40
0.3202619723
 40
0.3521630722
 40
0.3848619622
 40
0.4182994179
 40
0.452414279
 40
0.4871436054
 40
0.5224228917
 40
0.558186269
 40
0.6308947143
 40
0.7047223411
 40
0.7791103539
 40
0.8534945071
 40
0.9273103032
 40
1.0
 40
1.0
 40
1.0
 40
1.0
 10
12.9753164478
 20
8.8451573697
 30
0.0
 10
12.9770887918
 20
8.8477400237
 30
0.0
 10
12.9806101461
 20
8.8531946488
 30
0.0
 10
12.9856688529
 20
8.8619057067
 30
0.0
 10
12.9906769899
 20
8.8714118261
 30
0.0
 10
12.9956243633
 20
8.8816939718
 30
0.0
 10
13.0005011017
 20
8.8927319046
 30
0.0
 10
13.0052973346
 20
8.9045036077
 30
0.0
 10
13.0100033596
 20
8.9169855343
 30
0.0
 10
13.0146096191
 20
8.930152639
 30
0.0
 10
13.0191067422
 20
8.9439784547
 30
0.0
 10
13.023485586
 20
8.958435135
 30
0.0
 10
13.027737255
 20
8.9734935227
 30
0.0
 10
13.031853103
 20
8.9891232293
 30
0.0
 10
13.0358247526
 20
9.0052926978
 30
0.0
 10
13.0396441341
 20
9.0219692575
 30
0.0
 10
13.0433034938
 20
9.0391191967
 30
0.0
 10
13.0467953963
 20
9.0567078429
 30
0.0
 10
13.0501127417
 20
9.0746996342
 30
0.0
 10
13.0532487915
 20
9.0930581721
 30
0.0
 10
13.0561972136
 20
9.1117463432
 30
0.0
 10
13.0598903739
 20
9.137192183
 30
0.0
 10
13.0639884761
 20
9.1695438054
 30
0.0
 10
13.0680476356
 20
9.208853502
 30
0.0
 10
13.0712416151
 20
9.2485436767
 30
0.0
 10
13.0735446154
 20
9.2882934132
 30
0.0
 10
13.0749380465
 20
9.3277813058
 30
0.0
 10
13.0752565305
 20
9.353986833
 30
0.0
 10
13.0752565305
 20
9.3669884112
 30
0.0
  0
SPLINE
  5
3E2
100
AcDbEntity
  8
0
100
AcDbSpline
 62
7
  6
CONTINUOUS
 70
0
 71
3
 72
53
 73
49
 74
0
 42
0.0000001
 43
0.0000001
 44
0.0000000001
 40
0.0
 40
0.0
 40
0.0
 40
0.0
 40
0.00561882
 40
0.0111420428
 40
0.0166418616
 40
0.0221914682
 40
0.0278619549
 40
0.0337195974
 40
0.0398239585
 40
0.0462268852
 40
0.0529723767
 40
0.0600969397
 40
0.0676303569
 40
0.075596455
 40
0.0840140046
 40
0.0928973914
 40
0.1022573641
 40
0.1121014886
 40
0.1224347163
 40
0.1332596478
 40
0.1445769649
 40
0.1563855586
 40
0.1686828695
 40
0.1814649241
 40
0.1947266187
 40
0.2084616942
 40
0.2226629851
 40
0.2373223538
 40
0.2524309172
 40
0.2679789554
 40
0.300350572
 40
0.3343473976
 40
0.3698695492
 40
0.4068090749
 40
0.4450509009
 40
0.4844736716
 40
0.524950517
 40
0.5663497708
 40
0.6085356546
 40
0.6513689391
 40
0.6947075901
 40
0.7384074048
 40
0.7823226395
 40
0.8263066389
 40
0.8702124484
 40
0.913893467
 40
0.9572039929
 40
1.0
 40
1.0
 40
1.0
 40
1.0
 10
13.021940359
 20
8.7791903709
 30
0.0
 10
13.0230728035
 20
8.7787899993
 30
0.0
 10
13.0253646381
 20
8.778119272
 30
0.0
 10
13.0288803657
 20
8.7775251377
 30
0.0
 10
13.0324276946
 20
8.7773564792
 30
0.0
 10
13.0360009223
 20
8.7776135554
 30
0.0
 10
13.0395952984
 20
8.778295224
 30
0.0
 10
13.0432065344
 20
8.7793994286
 30
0.0
 10
13.0468310869
 20
8.7809236939
 30
0.0
 10
13.0504659807
 20
8.7828653346
 30
0.0
 10
13.0541085179
 20
8.7852217319
 30
0.0
 10
13.0577561459
 20
8.7879901932
 30
0.0
 10
13.0614062274
 20
8.7911680109
 30
0.0
 10
13.0650560891
 20
8.7947522458
 30
0.0
 10
13.0687028838
 20
8.7987397736
 30
0.0
 10
13.0723437317
 20
8.8031271189
 30
0.0
 10
13.0759755995
 20
8.807910527
 30
0.0
 10
13.0795954678
 20
8.8130858498
 30
0.0
 10
13.0832001987
 20
8.8186486261
 30
0.0
 10
13.0867867083
 20
8.8245939992
 30
0.0
 10
13.0903518201
 20
8.8309167932
 30
0.0
 10
13.093892438
 20
8.8376114503
 30
0.0
 10
13.097405391
 20
8.8446720976
 30
0.0
 10
13.1008876055
 20
8.8520924985
 30
0.0
 10
13.1043359448
 20
8.8598661097
 30
0.0
 10
13.1077473805
 20
8.8679860429
 30
0.0
 10
13.1111188322
 20
8.876445114
 30
0.0
 10
13.1144473277
 20
8.8852358106
 30
0.0
 10
13.117729884
 20
8.8943503456
 30
0.0
 10
13.1221003001
 20
8.9070958542
 30
0.0
 10
13.1274149951
 20
8.9237837553
 30
0.0
 10
13.1334816921
 20
8.9447052326
 30
0.0
 10
13.1392983398
 20
8.9667090578
 30
0.0
 10
13.1448440779
 20
8.9897169862
 30
0.0
 10
13.150098998
 20
9.0136473375
 30
0.0
 10
13.1550442556
 20
9.0384150255
 30
0.0
 10
13.159662125
 20
9.0639319556
 30
0.0
 10
13.1639360649
 20
9.0901073265
 30
0.0
 10
13.1678507746
 20
9.1168479683
 30
0.0
 10
13.171392248
 20
9.1440586782
 30
0.0
 10
13.1745478223
 20
9.1716425654
 30
0.0
 10
13.1773062219
 20
9.1995013994
 30
0.0
 10
13.1796575987
 20
9.2275359629
 30
0.0
 10
13.1815935658
 20
9.2556464095
 30
0.0
 10
13.1831072292
 20
9.2837326152
 30
0.0
 10
13.1841932091
 20
9.3116945669
 30
0.0
 10
13.1848476638
 20
9.3394325897
 30
0.0
 10
13.1849958056
 20
9.3578399073
 30
0.0
 10
13.1849958056
 20
9.3669884174
 30
0.0
  0
ENDSEC
  0
SECTION
  2
OBJECTS
  0
DICTIONARY
  5
C
100
AcDbDictionary
280
0
281
1
  3
ACAD_GROUP
350
D
  3
ACAD_MLINESTYLE
350
17
  3
ACAD_LAYOUT
350
1A
  3
ACAD_PLOTSETTINGS
350
19
  3
ACAD_PLOTSTYLENAME
350
E
  3
ACAD_IMAGE_DICT
350
       3E4
  3
ACAD_IMAGE_VARS
350
       3E5
  3
ACAD_TABLESTYLE
350
       3E6
  0
IMAGEDEF_REACTOR
  5
3E3
100
AcDbRasterImageDefReactor
 90
2
330
28B
  0
DICTIONARY
  5
D
102
{ACAD_REACTORS
330
C
102
}
100
AcDbDictionary
280
0
281
1
  0
ACDBDICTIONARYWDFLT
  5
E
102
{ACAD_REACTORS
330
C
102
}
100
AcDbDictionary
281
1
  3
Normal
350
F
100
AcDbDictionaryWithDefault
340
F
  0
DICTIONARY
  5
3E4
330
C
100
AcDbDictionary
281
1
  3
BPK_assy_2_img_1
350
       3E9
  0
RASTERVARIABLES
  5
3E5
330
C
100
AcDbRasterVariables
 90
0
 70
0
 71
1
 72
5
  0
DICTIONARY
  5
17
102
{ACAD_REACTORS
330
C
102
}
100
AcDbDictionary
280
0
281
1
  3
Standard
350
18
  0
DICTIONARY
  5
3E6
330
C
100
AcDbDictionary
281
1
  3
Standard
350
       3EA
  3
Standard1
350
       3EB
  0
DICTIONARY
  5
19
102
{ACAD_REACTORS
330
C
102
}
100
AcDbDictionary
281
1
  0
DICTIONARY
  5
1A
102
{ACAD_REACTORS
330
C
102
}
100
AcDbDictionary
281
1
  3
Model
350
3E7
  3
Layout1
350
3E8
  0
ACDBPLACEHOLDER
  5
F
102
{ACAD_REACTORS
330
E
102
}
  0
MLINESTYLE
  5
18
102
{ACAD_REACTORS
330
17
102
}
100
AcDbMlineStyle
  2
STANDARD
 70
0
  3

 62
256
 51
90.0
 52
90.0
 71
2
 49
0.5
 62
256
  6
BYLAYER
 49
-0.5
 62
256
  6
BYLAYER
  0
LAYOUT
  5
3E7
102
{ACAD_REACTORS
330
1A
102
}
100
AcDbPlotSettings
  1

  2
none_device
  4
ANSI_C_(22.00_x_17.00_Inches)
  6

 40
0.0
 41
0.0
 42
0.0
 43
0.0
 44
558.8
 45
431.8
 46
0.0
 47
0.0
 48
0.0
 49
0.0
140
0.0
141
0.0
142
1.0
143
1.0
 70
1024
 72
0
 73
0
 74
0
  7

 75
0
147
1.0
148
0.0
149
0.0
100
AcDbLayout
  1
Model
 70
0
 71
0
 10
0.0
 20
0.0
 11
22.0
 21
17.0
 12
0.0
 22
0.0
 32
0.0
 14
0.0
 24
0.0
 34
0.0
 15
0.0
 25
0.0
 35
0.0
146
0.0
 13
0.0
 23
0.0
 33
0.0
 16
1.0
 26
0.0
 36
0.0
 17
0.0
 27
1.0
 37
0.0
 76
0
330
20C
345
0
346
0
  0
LAYOUT
  5
3E8
102
{ACAD_REACTORS
330
1A
102
}
100
AcDbPlotSettings
  1

  2
none_device
  4
ANSI_C_(22.00_x_17.00_Inches)
  6

 40
0.0
 41
0.0
 42
0.0
 43
0.0
 44
558.8
 45
431.8
 46
0.0
 47
0.0
 48
0.0
 49
0.0
140
0.0
141
0.0
142
1.0
143
1.0
 70
0
 72
0
 73
0
 74
0
  7

 75
0
147
1.0
148
0.0
149
0.0
100
AcDbLayout
  1
Layout1
 70
0
 71
1
 10
0.0
 20
0.0
 11
22.0
 21
17.0
 12
0.0
 22
0.0
 32
0.0
 14
0.0
 24
0.0
 34
0.0
 15
0.0
 25
0.0
 35
0.0
146
0.0
 13
0.0
 23
0.0
 33
0.0
 16
1.0
 26
0.0
 36
0.0
 17
0.0
 27
1.0
 37
0.0
 76
0
330
20D
345
0
346
0
  0
IMAGEDEF
  5
3E9
102
{ACAD_REACTORS
330
3E4
330
3E3
102
}
100
AcDbRasterImageDef
 90
0
  1
BPK_assy_2_img_1.png
 10
369.0
 20
92.0
 11
0.0066666667
 21
0.0066666667
280
1
281
0
  0
TABLESTYLE
  5
3EA
102
{ACAD_REACTORS
330
3E6
330
28E
330
28F
102
}
330
3E6
100
AcDbTableStyle
  3
Standard
 70
0
 71
0
 40
0.06
 41
0.06
280
1
281
1
  7
Standard
140
0.18
170
1
 62
0
 63
7
283
0
  7
Standard
140
0.18
170
1
 62
0
 63
7
283
0
  7
Standard
140
0.18
170
1
 62
0
 63
7
283
0
  0
TABLESTYLE
  5
3EB
102
{ACAD_REACTORS
330
3E6
330
28D
102
}
330
3E6
100
AcDbTableStyle
  3
Standard1
 70
1
 71
0
 40
0.06
 41
0.06
280
1
281
1
  7
Standard
140
0.18
170
1
 62
0
 63
7
283
0
  7
Standard
140
0.18
170
1
 62
0
 63
7
283
0
  7
Standard
140
0.18
170
1
 62
0
 63
7
283
0
  0
ENDSEC
  0
EOF
