999
DXF file: BNW_assy_2.dxf
999
Pro/ENGINEER 2014200 by Parametric Technology Corporation
  0
SECTION
  2
HEADER
  9
$ACADVER
  1
AC1021
  9
$DWGCODEPAGE
  3
ANSI_1252
  9
$EXTMAX
 10
22.0
 20
17.0
 30
0.0
  9
$EXTMIN
 10
0.0
 20
0.0
 30
0.0
  9
$LIMMIN
 10
0.0
 20
0.0
  9
$LIMMAX
 10
22.0
 20
17.0
  9
$VIEWCTR
 10
11.0
 20
8.5
  9
$VIEWSIZE
 40
17.0
  9
$CLAYER
  8
0
  9
$LTSCALE
 40
1.21
  9
$CELTYPE
  6
BYLAYER
  9
$DIMSCALE
 40
1.0
  9
$DIMASZ
 40
0.1875
  9
$DIMEXO
 40
0.0625
  9
$DIMDLI
 40
0.836
  9
$DIMEXE
 40
0.125
  9
$DIMCEN
 40
0.198
  9
$DIMLFAC
 40
1.0
  9
$DIMBLK
  1
_FILLED
  9
$DIMTXT
 40
0.1
  9
$DIMTOL
 70
0
  9
$DIMLIM
 70
0
  9
$DIMTFAC
 40
1.0
  9
$DIMGAP
 40
0.09
  9
$DIMDSEP
 70
46
  9
$AUNITS
 70
0
  9
$PDMODE
 70
3
  9
$PDSIZE
 40
0.3125
  9
$HANDSEED
  5
3E2
  9
$TILEMODE
 70
1
  9
$MEASUREMENT
 70
0
  9
$INSUNITS
 70
1
  0
ENDSEC
  0
SECTION
  2
CLASSES
  0
CLASS
  1
ACDBDICTIONARYWDFLT
  2
AcDbDictionaryWithDefault
  3
AutoCAD 2000
 90
0
 91
1
280
0
281
0
  0
CLASS
  1
ACDBPLACEHOLDER
  2
AcDbPlaceHolder
  3
AutoCAD 2000
 90
0
 91
1
280
0
281
0
  0
CLASS
  1
LAYOUT
  2
AcDbLayout
  3
AutoCAD 2000
 90
0
 91
0
280
0
281
0
  0
CLASS
  1
RASTERVARIABLES
  2
AcDbRasterVariables
  3
ISM
 90
0
 91
1
280
0
281
0
  0
CLASS
  1
IMAGEDEF
  2
AcDbRasterImageDef
  3
ISM
 90
0
 91
1
280
0
281
0
  0
CLASS
  1
IMAGEDEF_REACTOR
  2
AcDbRasterImageDefReactor
  3
ISM
 90
0
 91
1
280
0
281
0
  0
CLASS
  1
IMAGE
  2
AcDbRasterImage
  3
ISM
 90
127
 91
1
280
0
281
1
  0
CLASS
  1
TABLESTYLE
  2
AcDbTableStyle
  3
ObjectDBX Classes
 90
2047
 91
1
280
0
281
0
  0
CLASS
  1
ACAD_TABLE
  2
AcDbTable
  3
ObjectDBX Classes
 90
1025
 91
3
280
0
281
1
  0
ENDSEC
  0
SECTION
  2
TABLES
  0
TABLE
  2
VPORT
  5
8
100
AcDbSymbolTable
 70
2
  0
VPORT
  5
1F4
100
AcDbSymbolTableRecord
100
AcDbViewportTableRecord
  2
*ACTIVE
 70
0
 10
0.0
 20
0.0
 11
1.0
 21
1.0
 12
11.0
 22
8.5
 13
0.0
 23
0.0
 14
1.0
 24
1.0
 15
0.0
 25
0.0
 16
0.0
 26
0.0
 36
1.0
 17
0.0
 27
0.0
 37
0.0
 40
17.0
 41
1.2941176471
 42
50.0
 43
0.0
 44
0.0
 50
0.0
 51
0.0
 71
0
 72
100
 73
1
 74
1
 75
0
 76
0
 77
0
 78
0
  0
ENDTAB
  0
TABLE
  2
LTYPE
  5
5
100
AcDbSymbolTable
 70
6
  0
LTYPE
  5
14
100
AcDbSymbolTableRecord
100
AcDbLinetypeTableRecord
  2
BYBLOCK
 70
0
  3

 72
65
 73
0
 40
0.0
  0
LTYPE
  5
15
100
AcDbSymbolTableRecord
100
AcDbLinetypeTableRecord
  2
BYLAYER
 70
0
  3

 72
65
 73
0
 40
0.0
  0
LTYPE
  5
16
100
AcDbSymbolTableRecord
100
AcDbLinetypeTableRecord
  2
CONTINUOUS
 70
64
  3
Solid line
 72
65
 73
0
 40
0.0
  0
LTYPE
  5
1F5
100
AcDbSymbolTableRecord
100
AcDbLinetypeTableRecord
  2
CENTER
 70
64
  3
____ _ ____ _ ____ _ ____ _ ____ _ ____ _ ____
 72
65
 73
4
 40
0.6
 49
0.375
 74
0
 49
-0.075
 74
0
 49
0.075
 74
0
 49
-0.075
 74
0
  0
LTYPE
  5
1F6
100
AcDbSymbolTableRecord
100
AcDbLinetypeTableRecord
  2
HIDDEN
 70
64
  3
- - - - - - - - - - - - - - - - - - - -
 72
65
 73
2
 40
0.2
 49
0.1
 74
0
 49
-0.1
 74
0
  0
LTYPE
  5
1F7
100
AcDbSymbolTableRecord
100
AcDbLinetypeTableRecord
  2
PHANTOM
 70
64
  3
_____ _ _ _____ _ _ _____ _ _ _____
 72
65
 73
6
 40
0.8
 49
0.45
 74
0
 49
-0.05
 74
0
 49
0.1
 74
0
 49
-0.05
 74
0
 49
0.1
 74
0
 49
-0.05
 74
0
  0
LTYPE
  5
1F8
100
AcDbSymbolTableRecord
100
AcDbLinetypeTableRecord
  2
DOT
 70
64
  3
. . . . . . . . . . . . . . . . . . . .
 72
65
 73
2
 40
0.2
 49
0.1
 74
0
 49
-0.1
 74
0
  0
LTYPE
  5
1F9
100
AcDbSymbolTableRecord
100
AcDbLinetypeTableRecord
  2
DASHED
 70
64
  3
- - - - - - - - - - - - - - - - - - - -
 72
65
 73
2
 40
0.2
 49
0.1
 74
0
 49
-0.1
 74
0
  0
ENDTAB
  0
TABLE
  2
LAYER
  5
2
100
AcDbSymbolTable
 70
36
  0
LAYER
  5
10
100
AcDbSymbolTableRecord
100
AcDbLayerTableRecord
  2
0
 70
0
 62
7
  6
CONTINUOUS
370
-3
390
F
  0
LAYER
  5
1FA
100
AcDbSymbolTableRecord
100
AcDbLayerTableRecord
  2
DEFAULT_1
 70
0
 62
7
  6
CENTER
370
-3
390
F
  0
LAYER
  5
1FB
100
AcDbSymbolTableRecord
100
AcDbLayerTableRecord
  2
DEFAULT_2
 70
0
 62
8
  6
HIDDEN
370
-3
390
F
  0
LAYER
  5
1FC
100
AcDbSymbolTableRecord
100
AcDbLayerTableRecord
  2
DEFAULT_3
 70
0
 62
7
  6
PHANTOM
370
-3
390
F
  0
LAYER
  5
1FD
100
AcDbSymbolTableRecord
100
AcDbLayerTableRecord
  2
01___PRT_ALL_DTM_PLN
 70
0
 62
7
  6
CONTINUOUS
370
-3
390
F
  0
LAYER
  5
1FE
100
AcDbSymbolTableRecord
100
AcDbLayerTableRecord
  2
01___PRT_DEF_DTM_PLN
 70
0
 62
7
  6
CONTINUOUS
370
-3
390
F
  0
LAYER
  5
1FF
100
AcDbSymbolTableRecord
100
AcDbLayerTableRecord
  2
02___PRT_ALL_AXES
 70
0
 62
7
  6
CONTINUOUS
370
-3
390
F
  0
LAYER
  5
200
100
AcDbSymbolTableRecord
100
AcDbLayerTableRecord
  2
03___PRT_ALL_CURVES
 70
0
 62
7
  6
CONTINUOUS
370
-3
390
F
  0
LAYER
  5
201
100
AcDbSymbolTableRecord
100
AcDbLayerTableRecord
  2
04___PRT_ALL_DTM_PNT
 70
0
 62
7
  6
CONTINUOUS
370
-3
390
F
  0
LAYER
  5
202
100
AcDbSymbolTableRecord
100
AcDbLayerTableRecord
  2
05___PRT_ALL_DTM_CSYS
 70
0
 62
7
  6
CONTINUOUS
370
-3
390
F
  0
LAYER
  5
203
100
AcDbSymbolTableRecord
100
AcDbLayerTableRecord
  2
05___PRT_DEF_DTM_CSYS
 70
0
 62
7
  6
CONTINUOUS
370
-3
390
F
  0
LAYER
  5
204
100
AcDbSymbolTableRecord
100
AcDbLayerTableRecord
  2
06___PRT_ALL_SURFS
 70
0
 62
7
  6
CONTINUOUS
370
-3
390
F
  0
LAYER
  5
205
100
AcDbSymbolTableRecord
100
AcDbLayerTableRecord
  2
DATUM_PLANES
 70
0
 62
7
  6
CONTINUOUS
370
-3
390
F
  0
LAYER
  5
206
100
AcDbSymbolTableRecord
100
AcDbLayerTableRecord
  2
PORT_AREAS
 70
0
 62
7
  6
CONTINUOUS
370
-3
390
F
  0
LAYER
  5
207
100
AcDbSymbolTableRecord
100
AcDbLayerTableRecord
  2
SUNNBOMCOSMETIC
 70
0
 62
7
  6
CONTINUOUS
370
-3
390
F
  0
LAYER
  5
208
100
AcDbSymbolTableRecord
100
AcDbLayerTableRecord
  2
SUNNBOMSTAMPING
 70
0
 62
7
  6
CONTINUOUS
370
-3
390
F
  0
LAYER
  5
209
100
AcDbSymbolTableRecord
100
AcDbLayerTableRecord
  2
THREADS
 70
0
 62
7
  6
CONTINUOUS
370
-3
390
F
  0
ENDTAB
  0
TABLE
  2
STYLE
  5
3
100
AcDbSymbolTable
 70
1
  0
STYLE
  5
11
100
AcDbSymbolTableRecord
100
AcDbTextStyleTableRecord
  2
STANDARD
 70
0
 40
0.0
 41
0.8
 50
0.0
 71
0
 42
0.2
  3
txt
  4

  0
STYLE
  5
20A
100
AcDbSymbolTableRecord
100
AcDbTextStyleTableRecord
  2
TEXTSTYLE_1
 70
0
 40
0.0
 41
0.8
 50
0.0
 71
0
 42
0.2
  3
gdt
  4

  0
ENDTAB
  0
TABLE
  2
VIEW
  5
6
100
AcDbSymbolTable
 70
0
  0
ENDTAB
  0
TABLE
  2
UCS
  5
7
100
AcDbSymbolTable
 70
0
  0
ENDTAB
  0
TABLE
  2
APPID
  5
9
100
AcDbSymbolTable
 70
1
  0
APPID
  5
20B
100
AcDbSymbolTableRecord
100
AcDbRegAppTableRecord
  2
ACAD
 70
0
  0
ENDTAB
  0
TABLE
  2
BLOCK_RECORD
  5
1
100
AcDbSymbolTable
 70
0
  0
BLOCK_RECORD
  5
20C
100
AcDbSymbolTableRecord
100
AcDbBlockTableRecord
  2
*Model_Space
  0
BLOCK_RECORD
  5
20D
100
AcDbSymbolTableRecord
100
AcDbBlockTableRecord
  2
*Paper_Space
  0
BLOCK_RECORD
  5
20E
100
AcDbSymbolTableRecord
100
AcDbBlockTableRecord
  2
SUN_FIRST_THIRD_ANGLE_BL0
  0
BLOCK_RECORD
  5
20F
100
AcDbSymbolTableRecord
100
AcDbBlockTableRecord
  2
*T1
  0
BLOCK_RECORD
  5
210
100
AcDbSymbolTableRecord
100
AcDbBlockTableRecord
  2
*T2
  0
BLOCK_RECORD
  5
211
100
AcDbSymbolTableRecord
100
AcDbBlockTableRecord
  2
*T3
  0
ENDTAB
  0
TABLE
  2
DIMSTYLE
  5
A
100
AcDbSymbolTable
 70
1
100
AcDbDimStyleTable
 71
0
  0
DIMSTYLE
105
212
100
AcDbSymbolTableRecord
100
AcDbDimStyleTableRecord
  2
STANDARD
 70
0
  3

  4

 40
1.0
 41
0.1875
 42
0.0625
 43
0.38
 44
0.125
 45
0.0
 46
0.0
 47
0.001
 48
0.001
140
0.1
141
0.09
142
0.0
143
25.4
144
1.0
145
0.0
146
1.0
147
0.09
 71
0.0
 72
0.0
 73
1
 74
1
 75
0
 76
0
 77
0
 78
4
170
0
171
2
172
0
173
0
174
0
175
0
176
0
177
0
178
0
270
2
271
3
272
3
273
2
274
2
275
0
280
0
281
0
282
0
283
1
284
4
285
0
286
0
287
3
288
0
340
11
278
46
  0
ENDTAB
  0
ENDSEC
  0
SECTION
  2
BLOCKS
  0
BLOCK
  5
20
100
AcDbEntity
  8
0
100
AcDbBlockBegin
  2
*Model_Space
 70
0
 10
0.0
 20
0.0
 30
0.0
  3
*Model_Space
  1

  0
ENDBLK
  5
21
100
AcDbEntity
  8
0
100
AcDbBlockEnd
  0
BLOCK
  5
1C
100
AcDbEntity
  8
0
100
AcDbBlockBegin
  2
*Paper_Space
 70
0
 10
0.0
 20
0.0
 30
0.0
  3
*Paper_Space
  1

  0
ENDBLK
  5
1D
100
AcDbEntity
  8
0
100
AcDbBlockEnd
  0
BLOCK
  5
213
100
AcDbEntity
  8
0
100
AcDbBlockBegin
 62
2
  6
CONTINUOUS
  2
SUN_FIRST_THIRD_ANGLE_BL0
 70
64
 10
20.4816717061
 20
1.2289683772
  3
SUN_FIRST_THIRD_ANGLE_BL0
  1

  0
TEXT
  5
214
100
AcDbEntity
  8
0
100
AcDbText
 62
2
  6
CONTINUOUS
 10
19.4750896608
 20
1.4136269581
  7
STANDARD
 40
0.08
  1
FIRST ANGLE
 41
0.8
 72
0
100
AcDbText
  0
TEXT
  5
215
100
AcDbEntity
  8
0
100
AcDbText
 62
2
  6
CONTINUOUS
 10
20.7842537513
 20
1.4047600029
  7
STANDARD
 40
0.08
  1
THIRD ANGLE
 41
0.8
 72
0
100
AcDbText
  0
LINE
  5
216
100
AcDbEntity
  8
0
100
AcDbLine
 62
7
  6
CONTINUOUS
 10
19.4767170086
 20
1.1727031207
 11
19.6334271527
 21
1.1717972817
  0
LINE
  5
217
100
AcDbEntity
  8
0
100
AcDbLine
 62
7
  6
CONTINUOUS
 10
19.6596964832
 20
1.1717972817
 11
19.6950230232
 21
1.171593082
  0
LINE
  5
218
100
AcDbEntity
  8
0
100
AcDbLine
 62
7
  6
CONTINUOUS
 10
19.7194818561
 20
1.1708914427
 11
19.8852396156
 21
1.1699333054
  0
LINE
  5
219
100
AcDbEntity
  8
0
100
AcDbLine
 62
7
  6
CONTINUOUS
 10
19.4758111696
 20
1.2723454088
 11
19.88525039
 21
1.3511534004
  0
LINE
  5
21A
100
AcDbEntity
  8
0
100
AcDbLine
 62
7
  6
CONTINUOUS
 10
19.88525039
 20
1.3511534004
 11
19.8831348489
 21
0.9851647912
  0
LINE
  5
21B
100
AcDbEntity
  8
0
100
AcDbLine
 62
7
  6
CONTINUOUS
 10
19.8831348489
 20
0.9851647912
 11
19.4767170086
 21
1.0658141206
  0
LINE
  5
21C
100
AcDbEntity
  8
0
100
AcDbLine
 62
7
  6
CONTINUOUS
 10
19.4767170086
 20
1.0658141206
 11
19.4779056764
 21
1.2714536432
  0
CIRCLE
  5
21D
100
AcDbEntity
  8
0
100
AcDbCircle
 62
7
  6
CONTINUOUS
 10
20.2068232291
 20
1.1717972817
 40
0.175742101
  0
CIRCLE
  5
21E
100
AcDbEntity
  8
0
100
AcDbCircle
 62
7
  6
CONTINUOUS
 10
20.2068232291
 20
1.1717972817
 40
0.1005522074
  0
LINE
  5
21F
100
AcDbEntity
  8
0
100
AcDbLine
 62
7
  6
CONTINUOUS
 10
20.2077290681
 20
1.3756110529
 11
20.2071171714
 21
1.2379342989
  0
LINE
  5
220
100
AcDbEntity
  8
0
100
AcDbLine
 62
7
  6
CONTINUOUS
 10
20.2077290681
 20
1.2016899681
 11
20.2074674401
 21
1.1428236749
  0
LINE
  5
221
100
AcDbEntity
  8
0
100
AcDbLine
 62
7
  6
CONTINUOUS
 10
20.208634907
 20
1.101141841
 11
20.2080230104
 21
0.963465087
  0
LINE
  5
222
100
AcDbEntity
  8
0
100
AcDbLine
 62
7
  6
CONTINUOUS
 10
20.0066328138
 20
1.1745147986
 11
20.1443095678
 21
1.1739029019
  0
LINE
  5
223
100
AcDbEntity
  8
0
100
AcDbLine
 62
7
  6
CONTINUOUS
 10
20.1832714155
 20
1.1727031207
 11
20.238153505
 21
1.172335442
  0
LINE
  5
224
100
AcDbEntity
  8
0
100
AcDbLine
 62
7
  6
CONTINUOUS
 10
20.2756669918
 20
1.1717972817
 11
20.407916871
 21
1.1712095044
  0
CIRCLE
  5
225
100
AcDbEntity
  8
0
100
AcDbCircle
 62
7
  6
CONTINUOUS
 10
20.7509457401
 20
1.1693297793
 40
0.1722024983
  0
CIRCLE
  5
226
100
AcDbEntity
  8
0
100
AcDbCircle
 62
7
  6
CONTINUOUS
 10
20.7509457401
 20
1.1693297793
 40
0.0985164967
  0
LINE
  5
227
100
AcDbEntity
  8
0
100
AcDbLine
 62
7
  6
CONTINUOUS
 10
20.7169767782
 20
1.170462078
 11
20.7825395137
 21
1.1682766535
  0
LINE
  5
228
100
AcDbEntity
  8
0
100
AcDbLine
 62
7
  6
CONTINUOUS
 10
20.8177513651
 20
1.1693297793
 11
20.947965719
 21
1.1693297793
  0
LINE
  5
229
100
AcDbEntity
  8
0
100
AcDbLine
 62
7
  6
CONTINUOUS
 10
20.6875370113
 20
1.170462078
 11
20.5573226574
 21
1.170462078
  0
LINE
  5
22A
100
AcDbEntity
  8
0
100
AcDbLine
 62
7
  6
CONTINUOUS
 10
20.7486811426
 20
1.1987695462
 11
20.7486811426
 21
1.1432869085
  0
LINE
  5
22B
100
AcDbEntity
  8
0
100
AcDbLine
 62
7
  6
CONTINUOUS
 10
20.7498134414
 20
1.1059210505
 11
20.7498134414
 21
0.9757066966
  0
LINE
  5
22C
100
AcDbEntity
  8
0
100
AcDbLine
 62
7
  6
CONTINUOUS
 10
20.7486811426
 20
1.2338708068
 11
20.7486811426
 21
1.3640851607
  0
LINE
  5
22D
100
AcDbEntity
  8
0
100
AcDbLine
 62
7
  6
CONTINUOUS
 10
21.0702539817
 20
1.2701043662
 11
21.4790138229
 21
1.3448360823
  0
LINE
  5
22E
100
AcDbEntity
  8
0
100
AcDbLine
 62
7
  6
CONTINUOUS
 10
21.4790138229
 20
1.3448360823
 11
21.4790138229
 21
0.9779712941
  0
LINE
  5
22F
100
AcDbEntity
  8
0
100
AcDbLine
 62
7
  6
CONTINUOUS
 10
21.4790138229
 20
0.9779712941
 11
21.069121683
 21
1.0617614
  0
LINE
  5
230
100
AcDbEntity
  8
0
100
AcDbLine
 62
7
  6
CONTINUOUS
 10
21.0702539817
 20
1.2701043662
 11
21.069121683
 21
1.0617614
  0
LINE
  5
231
100
AcDbEntity
  8
0
100
AcDbLine
 62
7
  6
CONTINUOUS
 10
21.4790138229
 20
1.1693297793
 11
21.3159628059
 21
1.1693297793
  0
LINE
  5
232
100
AcDbEntity
  8
0
100
AcDbLine
 62
7
  6
CONTINUOUS
 10
21.2876553377
 20
1.1693297793
 11
21.2502894796
 21
1.1693297793
  0
LINE
  5
233
100
AcDbEntity
  8
0
100
AcDbLine
 62
7
  6
CONTINUOUS
 10
21.2208497126
 20
1.1659328831
 11
21.0713862804
 21
1.1659328831
  0
LINE
  5
234
100
AcDbEntity
  8
0
100
AcDbLine
 62
7
  6
CONTINUOUS
 10
20.4796138713
 20
1.5284908897
 11
20.4766766948
 21
0.9294458646
  0
ENDBLK
  5
235
100
AcDbEntity
  8
0
  6
BYBLOCK
 62
0
100
AcDbBlockEnd
  0
BLOCK
  5
236
100
AcDbEntity
  8
0
100
AcDbBlockBegin
  2
*T1
 70
1
 10
0.0
 20
0.0
  3
*T1
  1

  0
LINE
  5
237
100
AcDbEntity
  8
0
100
AcDbLine
 62
2
  6
CONTINUOUS
 10
9.275
 20
0.0
 11
-0.0
 21
0.0
  0
LINE
  5
238
100
AcDbEntity
  8
0
100
AcDbLine
 62
2
  6
CONTINUOUS
 10
9.275
 20
0.0
 11
9.275
 21
1.25
  0
LINE
  5
239
100
AcDbEntity
  8
0
100
AcDbLine
 62
2
  6
CONTINUOUS
 10
9.275
 20
0.625
 11
-0.0
 21
0.625
  0
LINE
  5
23A
100
AcDbEntity
  8
0
100
AcDbLine
 62
2
  6
CONTINUOUS
 10
9.275
 20
1.25
 11
-0.0
 21
1.25
  0
LINE
  5
23B
100
AcDbEntity
  8
0
100
AcDbLine
 62
2
  6
CONTINUOUS
 10
6.8
 20
0.0
 11
6.8
 21
1.25
  0
LINE
  5
23C
100
AcDbEntity
  8
0
100
AcDbLine
 62
2
  6
CONTINUOUS
 10
6.4
 20
0.0
 11
6.4
 21
0.625
  0
LINE
  5
23D
100
AcDbEntity
  8
0
100
AcDbLine
 62
2
  6
CONTINUOUS
 10
5.9
 20
0.0
 11
5.9
 21
0.625
  0
LINE
  5
23E
100
AcDbEntity
  8
0
100
AcDbLine
 62
2
  6
CONTINUOUS
 10
5.2
 20
0.0
 11
5.2
 21
0.625
  0
LINE
  5
23F
100
AcDbEntity
  8
0
100
AcDbLine
 62
2
  6
CONTINUOUS
 10
4.1
 20
0.0
 11
4.1
 21
1.25
  0
LINE
  5
240
100
AcDbEntity
  8
0
100
AcDbLine
 62
2
  6
CONTINUOUS
 10
-0.0
 20
0.0
 11
-0.0
 21
1.25
  0
MTEXT
  5
241
100
AcDbEntity
  8
0
100
AcDbMText
 62
2
  6
CONTINUOUS
  7
STANDARD
 71
2
 72
1
 10
6.6
 20
0.325
 30
0.0
 11
1.0
 21
0.0
 31
0.0
 44
0.9
  1
2
 40
0.125
 41
0.2
  0
MTEXT
  5
242
100
AcDbEntity
  8
0
100
AcDbMText
 62
2
  6
CONTINUOUS
  7
STANDARD
 71
2
 72
1
 10
6.15
 20
0.325
 30
0.0
 11
1.0
 21
0.0
 31
0.0
 44
0.9
  1
C
 40
0.125
 41
0.2
  0
MTEXT
  5
243
100
AcDbEntity
  8
0
100
AcDbMText
 62
2
  6
CONTINUOUS
  7
STANDARD
 71
2
 72
1
 10
5.55
 20
0.325
 30
0.0
 11
1.0
 21
0.0
 31
0.0
 44
0.9
  1
1.000
 40
0.125
 41
1.0
  0
MTEXT
  5
244
100
AcDbEntity
  8
0
100
AcDbMText
 62
2
  6
CONTINUOUS
  7
STANDARD
 71
2
 72
1
 10
4.65
 20
0.325
 30
0.0
 11
1.0
 21
0.0
 31
0.0
 44
0.9
  1
Feb-01-24
 40
0.125
 41
1.8
  0
MTEXT
  5
245
100
AcDbEntity
  8
0
100
AcDbMText
 62
2
  6
CONTINUOUS
  7
STANDARD
 71
2
 72
1
 10
2.05
 20
0.4625
 30
0.0
 11
1.0
 21
0.0
 31
0.0
 44
0.9
  1
T-2A Line mount\PCushion lock with shuttle
 40
0.125
 41
5.0
  0
MTEXT
  5
246
100
AcDbEntity
  8
0
100
AcDbMText
 62
2
  6
CONTINUOUS
  7
STANDARD
 71
1
 72
1
 10
6.45
 20
0.5625
 30
0.0
 11
1.0
 21
0.0
 31
0.0
 44
0.9
  1
SHEET
 40
0.06
 41
0.48
  0
MTEXT
  5
247
100
AcDbEntity
  8
0
100
AcDbMText
 62
2
  6
CONTINUOUS
  7
STANDARD
 71
1
 72
1
 10
5.95
 20
0.5625
 30
0.0
 11
1.0
 21
0.0
 31
0.0
 44
0.9
  1
DWG SIZE
 40
0.06
 41
0.768
  0
MTEXT
  5
248
100
AcDbEntity
  8
0
100
AcDbMText
 62
2
  6
CONTINUOUS
  7
STANDARD
 71
1
 72
1
 10
5.25
 20
0.5625
 30
0.0
 11
1.0
 21
0.0
 31
0.0
 44
0.9
  1
SCALE
 40
0.06
 41
0.48
  0
MTEXT
  5
249
100
AcDbEntity
  8
0
100
AcDbMText
 62
2
  6
CONTINUOUS
  7
STANDARD
 71
1
 72
1
 10
4.15
 20
0.5625
 30
0.0
 11
1.0
 21
0.0
 31
0.0
 44
0.9
  1
DATE
 40
0.06
 41
0.384
  0
MTEXT
  5
24A
100
AcDbEntity
  8
0
100
AcDbMText
 62
2
  6
CONTINUOUS
  7
STANDARD
 71
1
 72
1
 10
0.05
 20
0.5625
 30
0.0
 11
1.0
 21
0.0
 31
0.0
 44
0.9
  1
DESCRIPTION
 40
0.06
 41
1.056
  0
MTEXT
  5
24B
100
AcDbEntity
  8
0
100
AcDbMText
 62
2
  6
CONTINUOUS
  7
STANDARD
 71
2
 72
1
 10
5.45
 20
1.0375
 30
0.0
 11
1.0
 21
0.0
 31
0.0
 44
0.9
  1
ALL DIMENSIONS IN INCH\PVIEWS ARE THIRD ANGLE
 40
0.12
 41
4.224
  0
MTEXT
  5
24C
100
AcDbEntity
  8
0
100
AcDbMText
 62
2
  6
CONTINUOUS
  7
STANDARD
 71
2
 72
1
 10
2.05
 20
0.95
 30
0.0
 11
1.0
 21
0.0
 31
0.0
 44
0.9
  1
BNW
 40
0.125
 41
0.6
  0
MTEXT
  5
24D
100
AcDbEntity
  8
0
100
AcDbMText
 62
2
  6
CONTINUOUS
  7
STANDARD
 71
1
 72
1
 10
0.05
 20
1.1875
 30
0.0
 11
1.0
 21
0.0
 31
0.0
 44
0.9
  1
MODEL
 40
0.06
 41
0.48
  0
ENDBLK
  5
24E
100
AcDbEntity
  8
0
  6
BYBLOCK
 62
0
100
AcDbBlockEnd
  0
BLOCK
  5
24F
100
AcDbEntity
  8
0
100
AcDbBlockBegin
  2
*T2
 70
1
 10
0.0
 20
0.0
  3
*T2
  1

  0
LINE
  5
250
100
AcDbEntity
  8
0
100
AcDbLine
 62
2
  6
CONTINUOUS
 10
0.0
 20
0.0
 11
9.055
 21
0.0
  0
LINE
  5
251
100
AcDbEntity
  8
0
100
AcDbLine
 62
2
  6
CONTINUOUS
 10
0.0
 20
0.0
 11
0.0
 21
-2.594
  0
LINE
  5
252
100
AcDbEntity
  8
0
100
AcDbLine
 62
2
  6
CONTINUOUS
 10
0.0
 20
-0.344
 11
9.055
 21
-0.344
  0
LINE
  5
253
100
AcDbEntity
  8
0
100
AcDbLine
 62
2
  6
CONTINUOUS
 10
0.0
 20
-0.594
 11
9.055
 21
-0.594
  0
LINE
  5
254
100
AcDbEntity
  8
0
100
AcDbLine
 62
2
  6
CONTINUOUS
 10
0.0
 20
-0.844
 11
9.055
 21
-0.844
  0
LINE
  5
255
100
AcDbEntity
  8
0
100
AcDbLine
 62
2
  6
CONTINUOUS
 10
0.0
 20
-1.094
 11
9.055
 21
-1.094
  0
LINE
  5
256
100
AcDbEntity
  8
0
100
AcDbLine
 62
2
  6
CONTINUOUS
 10
0.0
 20
-1.344
 11
9.055
 21
-1.344
  0
LINE
  5
257
100
AcDbEntity
  8
0
100
AcDbLine
 62
2
  6
CONTINUOUS
 10
0.0
 20
-1.594
 11
9.055
 21
-1.594
  0
LINE
  5
258
100
AcDbEntity
  8
0
100
AcDbLine
 62
2
  6
CONTINUOUS
 10
0.0
 20
-1.844
 11
9.055
 21
-1.844
  0
LINE
  5
259
100
AcDbEntity
  8
0
100
AcDbLine
 62
2
  6
CONTINUOUS
 10
0.0
 20
-2.094
 11
9.055
 21
-2.094
  0
LINE
  5
25A
100
AcDbEntity
  8
0
100
AcDbLine
 62
2
  6
CONTINUOUS
 10
0.0
 20
-2.344
 11
9.055
 21
-2.344
  0
LINE
  5
25B
100
AcDbEntity
  8
0
100
AcDbLine
 62
2
  6
CONTINUOUS
 10
0.0
 20
-2.594
 11
9.055
 21
-2.594
  0
LINE
  5
25C
100
AcDbEntity
  8
0
100
AcDbLine
 62
2
  6
CONTINUOUS
 10
3.055
 20
0.0
 11
3.055
 21
-2.594
  0
LINE
  5
25D
100
AcDbEntity
  8
0
100
AcDbLine
 62
2
  6
CONTINUOUS
 10
9.055
 20
0.0
 11
9.055
 21
-2.594
  0
MTEXT
  5
25E
100
AcDbEntity
  8
0
100
AcDbMText
 62
2
  6
CONTINUOUS
  7
STANDARD
 71
2
 72
1
 10
1.5275
 20
-0.0995
 30
0.0
 11
1.0
 21
0.0
 31
0.0
 44
0.9
  1
Technical Data
 40
0.145
 41
3.248
  0
MTEXT
  5
25F
100
AcDbEntity
  8
0
100
AcDbMText
 62
2
  6
CONTINUOUS
  7
STANDARD
 71
2
 72
1
 10
4.555
 20
-0.0995
 30
0.0
 11
1.0
 21
0.0
 31
0.0
 44
0.9
  1
U.S. Units
 40
0.145
 41
2.32
  0
MTEXT
  5
260
100
AcDbEntity
  8
0
100
AcDbMText
 62
2
  6
CONTINUOUS
  7
STANDARD
 71
2
 72
1
 10
7.555
 20
-0.0995
 30
0.0
 11
1.0
 21
0.0
 31
0.0
 44
0.9
  1
Metric Units
 40
0.145
 41
2.784
  0
MTEXT
  5
261
100
AcDbEntity
  8
0
100
AcDbMText
 62
2
  6
CONTINUOUS
  7
STANDARD
 71
2
 72
1
 10
1.5275
 20
-0.4065
 30
0.0
 11
1.0
 21
0.0
 31
0.0
 44
0.9
  1
Cavity
 40
0.125
 41
1.2
  0
MTEXT
  5
262
100
AcDbEntity
  8
0
100
AcDbMText
 62
2
  6
CONTINUOUS
  7
STANDARD
 71
2
 72
1
 10
6.055
 20
-0.4065
 30
0.0
 11
1.0
 21
0.0
 31
0.0
 44
0.9
  1
T-2A
 40
0.125
 41
0.8
  0
MTEXT
  5
263
100
AcDbEntity
  8
0
100
AcDbMText
 62
2
  6
CONTINUOUS
  7
STANDARD
 71
2
 72
1
 10
1.5275
 20
-0.6565
 30
0.0
 11
1.0
 21
0.0
 31
0.0
 44
0.9
  1
Body Features
 40
0.125
 41
2.6
  0
MTEXT
  5
264
100
AcDbEntity
  8
0
100
AcDbMText
 62
2
  6
CONTINUOUS
  7
STANDARD
 71
2
 72
1
 10
6.055
 20
-0.6565
 30
0.0
 11
1.0
 21
0.0
 31
0.0
 44
0.9
  1
Cushion lock with shuttle
 40
0.125
 41
5.0
  0
MTEXT
  5
265
100
AcDbEntity
  8
0
100
AcDbMText
 62
2
  6
CONTINUOUS
  7
STANDARD
 71
2
 72
1
 10
1.5275
 20
-0.9065
 30
0.0
 11
1.0
 21
0.0
 31
0.0
 44
0.9
  1
Body Type
 40
0.125
 41
1.8
  0
MTEXT
  5
266
100
AcDbEntity
  8
0
100
AcDbMText
 62
2
  6
CONTINUOUS
  7
STANDARD
 71
2
 72
1
 10
6.055
 20
-0.9065
 30
0.0
 11
1.0
 21
0.0
 31
0.0
 44
0.9
  1
Line mount
 40
0.125
 41
2.0
  0
MTEXT
  5
267
100
AcDbEntity
  8
0
100
AcDbMText
 62
2
  6
CONTINUOUS
  7
STANDARD
 71
2
 72
1
 10
1.5275
 20
-1.1565
 30
0.0
 11
1.0
 21
0.0
 31
0.0
 44
0.9
  1
Interface
 40
0.125
 41
1.8
  0
MTEXT
  5
268
100
AcDbEntity
  8
0
100
AcDbMText
 62
2
  6
CONTINUOUS
  7
STANDARD
 71
2
 72
1
 10
6.055
 20
-1.1565
 30
0.0
 11
1.0
 21
0.0
 31
0.0
 44
0.9
  1
None
 40
0.125
 41
0.8
  0
MTEXT
  5
269
100
AcDbEntity
  8
0
100
AcDbMText
 62
2
  6
CONTINUOUS
  7
STANDARD
 71
2
 72
1
 10
1.5275
 20
-1.4065
 30
0.0
 11
1.0
 21
0.0
 31
0.0
 44
0.9
  1
Open Cavity Quantity
 40
0.125
 41
4.0
  0
MTEXT
  5
26A
100
AcDbEntity
  8
0
100
AcDbMText
 62
2
  6
CONTINUOUS
  7
STANDARD
 71
2
 72
1
 10
6.055
 20
-1.4065
 30
0.0
 11
1.0
 21
0.0
 31
0.0
 44
0.9
  1
2
 40
0.125
 41
0.2
  0
MTEXT
  5
26B
100
AcDbEntity
  8
0
100
AcDbMText
 62
2
  6
CONTINUOUS
  7
STANDARD
 71
2
 72
1
 10
1.5275
 20
-1.6565
 30
0.0
 11
1.0
 21
0.0
 31
0.0
 44
0.9
  1
Weight
 40
0.125
 41
1.2
  0
MTEXT
  5
26C
100
AcDbEntity
  8
0
100
AcDbMText
 62
2
  6
CONTINUOUS
  7
STANDARD
 71
2
 72
1
 10
4.555
 20
-1.6565
 30
0.0
 11
1.0
 21
0.0
 31
0.0
 44
0.9
  1
3.901 lb.
 40
0.125
 41
1.8
  0
MTEXT
  5
26D
100
AcDbEntity
  8
0
100
AcDbMText
 62
2
  6
CONTINUOUS
  7
STANDARD
 71
2
 72
1
 10
7.555
 20
-1.6565
 30
0.0
 11
1.0
 21
0.0
 31
0.0
 44
0.9
  1
1,769 kg.
 40
0.125
 41
1.8
  0
MTEXT
  5
26E
100
AcDbEntity
  8
0
100
AcDbMText
 62
2
  6
CONTINUOUS
  7
STANDARD
 71
2
 72
1
 10
1.5275
 20
-1.9065
 30
0.0
 11
1.0
 21
0.0
 31
0.0
 44
0.9
  1
Mounting Hole Diameter
 40
0.125
 41
4.4
  0
MTEXT
  5
26F
100
AcDbEntity
  8
0
100
AcDbMText
 62
2
  6
CONTINUOUS
  7
STANDARD
 71
2
 72
1
 10
4.555
 20
-1.9065
 30
0.0
 11
1.0
 21
0.0
 31
0.0
 44
0.9
  1
.41 in.
 40
0.125
 41
1.4
  0
MTEXT
  5
270
100
AcDbEntity
  8
0
100
AcDbMText
 62
2
  6
CONTINUOUS
  7
STANDARD
 71
2
 72
1
 10
7.555
 20
-1.9065
 30
0.0
 11
1.0
 21
0.0
 31
0.0
 44
0.9
  1
10,4 mm
 40
0.125
 41
1.4
  0
MTEXT
  5
271
100
AcDbEntity
  8
0
100
AcDbMText
 62
2
  6
CONTINUOUS
  7
STANDARD
 71
2
 72
1
 10
1.5275
 20
-2.1565
 30
0.0
 11
1.0
 21
0.0
 31
0.0
 44
0.9
  1
Mounting Hole Quantity
 40
0.125
 41
4.4
  0
MTEXT
  5
272
100
AcDbEntity
  8
0
100
AcDbMText
 62
2
  6
CONTINUOUS
  7
STANDARD
 71
2
 72
1
 10
6.055
 20
-2.1565
 30
0.0
 11
1.0
 21
0.0
 31
0.0
 44
0.9
  1
2
 40
0.125
 41
0.2
  0
MTEXT
  5
273
100
AcDbEntity
  8
0
100
AcDbMText
 62
2
  6
CONTINUOUS
  7
STANDARD
 71
2
 72
1
 10
1.5275
 20
-2.4065
 30
0.0
 11
1.0
 21
0.0
 31
0.0
 44
0.9
  1
Includes integral cartridge(s)
 40
0.125
 41
6.0
  0
MTEXT
  5
274
100
AcDbEntity
  8
0
100
AcDbMText
 62
2
  6
CONTINUOUS
  7
STANDARD
 71
2
 72
1
 10
6.055
 20
-2.4065
 30
0.0
 11
1.0
 21
0.0
 31
0.0
 44
0.9
  1
Yes (see Included Components)
 40
0.125
 41
5.8
  0
ENDBLK
  5
275
100
AcDbEntity
  8
0
  6
BYBLOCK
 62
0
100
AcDbBlockEnd
  0
BLOCK
  5
276
100
AcDbEntity
  8
0
100
AcDbBlockBegin
  2
*T3
 70
1
 10
0.0
 20
0.0
  3
*T3
  1

  0
LINE
  5
277
100
AcDbEntity
  8
0
100
AcDbLine
 62
2
  6
CONTINUOUS
 10
0.0
 20
0.0
 11
4.6
 21
0.0
  0
LINE
  5
278
100
AcDbEntity
  8
0
100
AcDbLine
 62
2
  6
CONTINUOUS
 10
0.0
 20
0.0
 11
0.0
 21
-1.43775
  0
LINE
  5
279
100
AcDbEntity
  8
0
100
AcDbLine
 62
2
  6
CONTINUOUS
 10
0.0
 20
-0.34375
 11
4.6
 21
-0.34375
  0
LINE
  5
27A
100
AcDbEntity
  8
0
100
AcDbLine
 62
2
  6
CONTINUOUS
 10
0.0
 20
-0.68775
 11
4.6
 21
-0.68775
  0
LINE
  5
27B
100
AcDbEntity
  8
0
100
AcDbLine
 62
2
  6
CONTINUOUS
 10
0.0
 20
-0.93775
 11
4.6
 21
-0.93775
  0
LINE
  5
27C
100
AcDbEntity
  8
0
100
AcDbLine
 62
2
  6
CONTINUOUS
 10
0.0
 20
-1.18775
 11
4.6
 21
-1.18775
  0
LINE
  5
27D
100
AcDbEntity
  8
0
100
AcDbLine
 62
2
  6
CONTINUOUS
 10
0.0
 20
-1.43775
 11
4.6
 21
-1.43775
  0
LINE
  5
27E
100
AcDbEntity
  8
0
100
AcDbLine
 62
2
  6
CONTINUOUS
 10
1.3
 20
-0.34375
 11
1.3
 21
-1.43775
  0
LINE
  5
27F
100
AcDbEntity
  8
0
100
AcDbLine
 62
2
  6
CONTINUOUS
 10
3.3
 20
-0.34375
 11
3.3
 21
-1.43775
  0
LINE
  5
280
100
AcDbEntity
  8
0
100
AcDbLine
 62
2
  6
CONTINUOUS
 10
4.6
 20
0.0
 11
4.6
 21
-1.43775
  0
MTEXT
  5
281
100
AcDbEntity
  8
0
100
AcDbMText
 62
2
  6
CONTINUOUS
  7
STANDARD
 71
2
 72
1
 10
2.3
 20
-0.099375
 30
0.0
 11
1.0
 21
0.0
 31
0.0
 44
0.9
  1
Port Headings
 40
0.145
 41
3.016
  0
MTEXT
  5
282
100
AcDbEntity
  8
0
100
AcDbMText
 62
2
  6
CONTINUOUS
  7
STANDARD
 71
2
 72
1
 10
0.65
 20
-0.44325
 30
0.0
 11
1.0
 21
0.0
 31
0.0
 44
0.9
  1
Product
 40
0.145
 41
1.624
  0
MTEXT
  5
283
100
AcDbEntity
  8
0
100
AcDbMText
 62
2
  6
CONTINUOUS
  7
STANDARD
 71
2
 72
1
 10
2.3
 20
-0.44325
 30
0.0
 11
1.0
 21
0.0
 31
0.0
 44
0.9
  1
Port
 40
0.145
 41
0.928
  0
MTEXT
  5
284
100
AcDbEntity
  8
0
100
AcDbMText
 62
2
  6
CONTINUOUS
  7
STANDARD
 71
2
 72
1
 10
3.95
 20
-0.44325
 30
0.0
 11
1.0
 21
0.0
 31
0.0
 44
0.9
  1
Size
 40
0.145
 41
0.928
  0
MTEXT
  5
285
100
AcDbEntity
  8
0
100
AcDbMText
 62
2
  6
CONTINUOUS
  7
STANDARD
 71
2
 72
1
 10
0.65
 20
-0.75025
 30
0.0
 11
1.0
 21
0.0
 31
0.0
 44
0.9
  1
BNW
 40
0.125
 41
0.6
  0
MTEXT
  5
286
100
AcDbEntity
  8
0
100
AcDbMText
 62
2
  6
CONTINUOUS
  7
STANDARD
 71
2
 72
1
 10
2.3
 20
-0.75025
 30
0.0
 11
1.0
 21
0.0
 31
0.0
 44
0.9
  1
Ports C1, C2, V1, V2
 40
0.125
 41
4.0
  0
MTEXT
  5
287
100
AcDbEntity
  8
0
100
AcDbMText
 62
2
  6
CONTINUOUS
  7
STANDARD
 71
2
 72
1
 10
3.95
 20
-0.75025
 30
0.0
 11
1.0
 21
0.0
 31
0.0
 44
0.9
  1
3/4" BSPP
 40
0.125
 41
1.8
  0
MTEXT
  5
288
100
AcDbEntity
  8
0
100
AcDbMText
 62
2
  6
CONTINUOUS
  7
STANDARD
 71
2
 72
1
 10
0.65
 20
-1.00025
 30
0.0
 11
1.0
 21
0.0
 31
0.0
 44
0.9
  1
BNW
 40
0.125
 41
0.6
  0
MTEXT
  5
289
100
AcDbEntity
  8
0
100
AcDbMText
 62
2
  6
CONTINUOUS
  7
STANDARD
 71
2
 72
1
 10
2.3
 20
-1.00025
 30
0.0
 11
1.0
 21
0.0
 31
0.0
 44
0.9
  1
Port T
 40
0.125
 41
1.2
  0
MTEXT
  5
28A
100
AcDbEntity
  8
0
100
AcDbMText
 62
2
  6
CONTINUOUS
  7
STANDARD
 71
2
 72
1
 10
3.95
 20
-1.00025
 30
0.0
 11
1.0
 21
0.0
 31
0.0
 44
0.9
  1
3/4" BSPP
 40
0.125
 41
1.8
  0
MTEXT
  5
28B
100
AcDbEntity
  8
0
100
AcDbMText
 62
2
  6
CONTINUOUS
  7
STANDARD
 71
2
 72
1
 10
0.65
 20
-1.25025
 30
0.0
 11
1.0
 21
0.0
 31
0.0
 44
0.9
  1
BNW
 40
0.125
 41
0.6
  0
MTEXT
  5
28C
100
AcDbEntity
  8
0
100
AcDbMText
 62
2
  6
CONTINUOUS
  7
STANDARD
 71
2
 72
1
 10
2.3
 20
-1.25025
 30
0.0
 11
1.0
 21
0.0
 31
0.0
 44
0.9
  1
Port S
 40
0.125
 41
1.2
  0
MTEXT
  5
28D
100
AcDbEntity
  8
0
100
AcDbMText
 62
2
  6
CONTINUOUS
  7
STANDARD
 71
2
 72
1
 10
3.95
 20
-1.25025
 30
0.0
 11
1.0
 21
0.0
 31
0.0
 44
0.9
  1
1/4" BSPP
 40
0.125
 41
1.8
  0
ENDBLK
  5
28E
100
AcDbEntity
  8
0
  6
BYBLOCK
 62
0
100
AcDbBlockEnd
  0
ENDSEC
  0
SECTION
  2
ENTITIES
  0
IMAGE
  5
28F
100
AcDbEntity
  8
0
100
AcDbRasterImage
 62
7
  6
CONTINUOUS
 10
19.2297077316
 20
0.3094318264
 30
0.0
 11
0.0066666667
 21
0.0
 31
0.0
 12
0.0
 22
0.0066666667
 32
0.0
 13
369.0
 23
92.0
340
       3DF
 70
9
280
0
281
50
282
50
283
0
360
       3D9
 71
1
 91
2
 14
-0.5
 24
-0.5
 14
368.5
 24
91.5
  0
INSERT
  5
290
100
AcDbEntity
  8
0
100
AcDbBlockReference
 62
2
  6
CONTINUOUS
  2
SUN_FIRST_THIRD_ANGLE_BL0
 10
20.4816717061
 20
1.2289683772
  0
ACAD_TABLE
  5
291
100
AcDbEntity
  8
0
 62
2
  6
CONTINUOUS
100
AcDbBlockReference
  2
*T1
 10
12.42375
 20
0.30125
 30
0.0
100
AcDbTable
342
       3E1
343
20F
 11
1.0
 21
0.0
 31
0.0
 90
6
 91
4
 92
6
 93
20
 94
0
 95
0
 96
0
 70
1
 41
0.0
141
0.525
141
0.1
141
0.525
141
0.1
142
4.1
142
1.1
142
0.7
142
0.5
142
0.4
142
2.475
171
1
172
0
173
0
174
0
175
1
176
1
 91
33
178
0
145
0.0
301
CELL_VALUE
 90
4
  1
T-2A Line mount\PCushion lock with shuttle
304
ACVALUE_END
170
2
140
0.125
171
1
172
0
173
0
174
0
175
1
176
1
 91
33
178
0
145
0.0
301
CELL_VALUE
 90
4
  1
Feb-01-24
304
ACVALUE_END
170
5
140
0.125
171
1
172
0
173
0
174
0
175
1
176
1
 91
33
178
0
145
0.0
301
CELL_VALUE
 90
4
  1
1.000
304
ACVALUE_END
170
5
140
0.125
171
1
172
0
173
0
174
0
175
1
176
1
 91
33
178
0
145
0.0
301
CELL_VALUE
 90
4
  1
C
304
ACVALUE_END
170
5
140
0.125
171
1
172
0
173
0
174
0
175
1
176
1
 91
33
178
0
145
0.0
301
CELL_VALUE
 90
4
  1
2
304
ACVALUE_END
170
5
140
0.125
171
1
172
0
173
0
174
0
175
1
176
1
 91
33
178
0
145
0.0
301
CELL_VALUE
 90
4
  1
 
304
ACVALUE_END
170
1
140
0.125
171
1
172
0
173
0
174
0
175
1
176
1
 91
33
178
0
145
0.0
301
CELL_VALUE
 90
4
  1
DESCRIPTION
304
ACVALUE_END
170
1
140
0.06
171
1
172
0
173
0
174
0
175
1
176
1
 91
33
178
0
145
0.0
301
CELL_VALUE
 90
4
  1
DATE
304
ACVALUE_END
170
1
140
0.06
171
1
172
0
173
0
174
0
175
1
176
1
 91
33
178
0
145
0.0
301
CELL_VALUE
 90
4
  1
SCALE
304
ACVALUE_END
170
1
140
0.06
171
1
172
0
173
0
174
0
175
1
176
1
 91
33
178
0
145
0.0
301
CELL_VALUE
 90
4
  1
DWG SIZE
304
ACVALUE_END
170
1
140
0.06
171
1
172
0
173
0
174
0
175
1
176
1
 91
33
178
0
145
0.0
301
CELL_VALUE
 90
4
  1
SHEET
304
ACVALUE_END
170
1
140
0.06
171
1
172
0
173
0
174
0
175
1
176
1
 91
33
178
0
145
0.0
301
CELL_VALUE
 90
4
  1
 
304
ACVALUE_END
170
1
140
0.125
171
1
172
0
173
0
174
0
175
1
176
1
 91
33
178
0
145
0.0
301
CELL_VALUE
 90
4
  1
BNW
304
ACVALUE_END
170
5
140
0.125
171
1
172
0
173
0
174
0
175
4
176
1
 91
33
178
0
145
0.0
301
CELL_VALUE
 90
4
  1
ALL DIMENSIONS IN INCH\PVIEWS ARE THIRD ANGLE
304
ACVALUE_END
170
5
140
0.12
171
1
172
0
173
1
174
0
175
1
176
1
 91
1
178
0
145
0.0
170
1
171
1
172
0
173
1
174
0
175
1
176
1
 91
1
178
0
145
0.0
170
1
171
1
172
0
173
1
174
0
175
1
176
1
 91
1
178
0
145
0.0
170
5
171
1
172
0
173
0
174
0
175
1
176
1
 91
33
178
0
145
0.0
301
CELL_VALUE
 90
4
  1
 
304
ACVALUE_END
170
1
140
0.125
171
1
172
0
173
0
174
0
175
1
176
1
 91
33
178
0
145
0.0
301
CELL_VALUE
 90
4
  1
MODEL
304
ACVALUE_END
170
1
140
0.06
171
1
172
0
173
0
174
0
175
1
176
1
 91
33
178
0
145
0.0
301
CELL_VALUE
 90
4
  1
 
304
ACVALUE_END
170
1
140
0.125
171
1
172
0
173
0
174
0
175
1
176
1
 91
33
178
0
145
0.0
301
CELL_VALUE
 90
4
  1
 
304
ACVALUE_END
170
1
140
0.125
171
1
172
0
173
0
174
0
175
1
176
1
 91
33
178
0
145
0.0
301
CELL_VALUE
 90
4
  1
 
304
ACVALUE_END
170
1
140
0.125
171
1
172
0
173
0
174
0
175
1
176
1
 91
33
178
0
145
0.0
301
CELL_VALUE
 90
4
  1
 
304
ACVALUE_END
170
1
140
0.125
171
1
172
0
173
0
174
0
175
1
176
1
 91
33
178
0
145
0.0
301
CELL_VALUE
 90
4
  1
 
304
ACVALUE_END
170
1
140
0.125
  0
ACAD_TABLE
  5
292
100
AcDbEntity
  8
0
 62
2
  6
CONTINUOUS
100
AcDbBlockReference
  2
*T2
 10
12.4237499994
 20
16.47875
 30
0.0
100
AcDbTable
342
       3E0
343
210
 11
1.0
 21
0.0
 31
0.0
 90
22
 91
10
 92
3
 93
16
 94
0
 95
0
 96
0
 41
0.028
141
0.344
141
0.25
141
0.25
141
0.25
141
0.25
141
0.25
141
0.25
141
0.25
141
0.25
141
0.25
142
3.055
142
3.0
142
3.0
171
1
172
0
173
0
174
0
175
1
176
1
 91
33
178
0
145
0.0
301
CELL_VALUE
 90
4
  1
Technical Data
304
ACVALUE_END
170
5
140
0.145
171
1
172
0
173
0
174
0
175
1
176
1
 91
33
178
0
145
0.0
301
CELL_VALUE
 90
4
  1
U.S. Units
304
ACVALUE_END
170
5
140
0.145
171
1
172
0
173
0
174
0
175
1
176
1
 91
33
178
0
145
0.0
301
CELL_VALUE
 90
4
  1
Metric Units
304
ACVALUE_END
170
5
140
0.145
171
1
172
0
173
0
174
0
175
1
176
1
 91
33
178
0
145
0.0
301
CELL_VALUE
 90
4
  1
Cavity
304
ACVALUE_END
170
5
140
0.125
171
1
172
0
173
0
174
0
175
2
176
1
 91
33
178
0
145
0.0
301
CELL_VALUE
 90
4
  1
T-2A
304
ACVALUE_END
170
5
140
0.125
171
1
172
0
173
1
174
0
175
1
176
1
 91
1
178
0
145
0.0
170
1
171
1
172
0
173
0
174
0
175
1
176
1
 91
33
178
0
145
0.0
301
CELL_VALUE
 90
4
  1
Body Features
304
ACVALUE_END
170
5
140
0.125
171
1
172
0
173
0
174
0
175
2
176
1
 91
33
178
0
145
0.0
301
CELL_VALUE
 90
4
  1
Cushion lock with shuttle
304
ACVALUE_END
170
5
140
0.125
171
1
172
0
173
1
174
0
175
1
176
1
 91
1
178
0
145
0.0
170
1
171
1
172
0
173
0
174
0
175
1
176
1
 91
33
178
0
145
0.0
301
CELL_VALUE
 90
4
  1
Body Type
304
ACVALUE_END
170
5
140
0.125
171
1
172
0
173
0
174
0
175
2
176
1
 91
33
178
0
145
0.0
301
CELL_VALUE
 90
4
  1
Line mount
304
ACVALUE_END
170
5
140
0.125
171
1
172
0
173
1
174
0
175
1
176
1
 91
1
178
0
145
0.0
170
1
171
1
172
0
173
0
174
0
175
1
176
1
 91
33
178
0
145
0.0
301
CELL_VALUE
 90
4
  1
Interface
304
ACVALUE_END
170
5
140
0.125
171
1
172
0
173
0
174
0
175
2
176
1
 91
33
178
0
145
0.0
301
CELL_VALUE
 90
4
  1
None
304
ACVALUE_END
170
5
140
0.125
171
1
172
0
173
1
174
0
175
1
176
1
 91
1
178
0
145
0.0
170
1
171
1
172
0
173
0
174
0
175
1
176
1
 91
33
178
0
145
0.0
301
CELL_VALUE
 90
4
  1
Open Cavity Quantity
304
ACVALUE_END
170
5
140
0.125
171
1
172
0
173
0
174
0
175
2
176
1
 91
33
178
0
145
0.0
301
CELL_VALUE
 90
4
  1
2
304
ACVALUE_END
170
5
140
0.125
171
1
172
0
173
1
174
0
175
1
176
1
 91
1
178
0
145
0.0
170
1
171
1
172
0
173
0
174
0
175
1
176
1
 91
33
178
0
145
0.0
301
CELL_VALUE
 90
4
  1
Weight
304
ACVALUE_END
170
5
140
0.125
171
1
172
0
173
0
174
0
175
1
176
1
 91
33
178
0
145
0.0
301
CELL_VALUE
 90
4
  1
3.901 lb.
304
ACVALUE_END
170
5
140
0.125
171
1
172
0
173
0
174
0
175
1
176
1
 91
33
178
0
145
0.0
301
CELL_VALUE
 90
4
  1
1,769 kg.
304
ACVALUE_END
170
5
140
0.125
171
1
172
0
173
0
174
0
175
1
176
1
 91
33
178
0
145
0.0
301
CELL_VALUE
 90
4
  1
Mounting Hole Diameter
304
ACVALUE_END
170
5
140
0.125
171
1
172
0
173
0
174
0
175
1
176
1
 91
33
178
0
145
0.0
301
CELL_VALUE
 90
4
  1
.41 in.
304
ACVALUE_END
170
5
140
0.125
171
1
172
0
173
0
174
0
175
1
176
1
 91
33
178
0
145
0.0
301
CELL_VALUE
 90
4
  1
10,4 mm
304
ACVALUE_END
170
5
140
0.125
171
1
172
0
173
0
174
0
175
1
176
1
 91
33
178
0
145
0.0
301
CELL_VALUE
 90
4
  1
Mounting Hole Quantity
304
ACVALUE_END
170
5
140
0.125
171
1
172
0
173
0
174
0
175
2
176
1
 91
33
178
0
145
0.0
301
CELL_VALUE
 90
4
  1
2
304
ACVALUE_END
170
5
140
0.125
171
1
172
0
173
1
174
0
175
1
176
1
 91
1
178
0
145
0.0
170
1
171
1
172
0
173
0
174
0
175
1
176
1
 91
33
178
0
145
0.0
301
CELL_VALUE
 90
4
  1
Includes integral cartridge(s)
304
ACVALUE_END
170
5
140
0.125
171
1
172
0
173
0
174
0
175
2
176
1
 91
33
178
0
145
0.0
301
CELL_VALUE
 90
4
  1
Yes (see Included Components)
304
ACVALUE_END
170
5
140
0.125
171
1
172
0
173
1
174
0
175
1
176
1
 91
1
178
0
145
0.0
170
1
  0
ACAD_TABLE
  5
293
100
AcDbEntity
  8
0
 62
2
  6
CONTINUOUS
100
AcDbBlockReference
  2
*T3
 10
0.52125
 20
1.959
 30
0.0
100
AcDbTable
342
       3E0
343
211
 11
1.0
 21
0.0
 31
0.0
 90
22
 91
5
 92
3
 93
16
 94
0
 95
0
 96
0
 41
0.05
141
0.34375
141
0.344
141
0.25
141
0.25
141
0.25
142
1.3
142
2.0
142
1.3
171
1
172
0
173
0
174
0
175
3
176
1
 91
33
178
0
145
0.0
301
CELL_VALUE
 90
4
  1
Port Headings
304
ACVALUE_END
170
5
140
0.145
171
1
172
0
173
1
174
0
175
1
176
1
 91
1
178
0
145
0.0
170
1
171
1
172
0
173
1
174
0
175
1
176
1
 91
1
178
0
145
0.0
170
1
171
1
172
0
173
0
174
0
175
1
176
1
 91
33
178
0
145
0.0
301
CELL_VALUE
 90
4
  1
Product
304
ACVALUE_END
170
5
140
0.145
171
1
172
0
173
0
174
0
175
1
176
1
 91
33
178
0
145
0.0
301
CELL_VALUE
 90
4
  1
Port
304
ACVALUE_END
170
5
140
0.145
171
1
172
0
173
0
174
0
175
1
176
1
 91
33
178
0
145
0.0
301
CELL_VALUE
 90
4
  1
Size
304
ACVALUE_END
170
5
140
0.145
171
1
172
0
173
0
174
0
175
1
176
1
 91
33
178
0
145
0.0
301
CELL_VALUE
 90
4
  1
BNW
304
ACVALUE_END
170
5
140
0.125
171
1
172
0
173
0
174
0
175
1
176
1
 91
33
178
0
145
0.0
301
CELL_VALUE
 90
4
  1
Ports C1, C2, V1, V2
304
ACVALUE_END
170
5
140
0.125
171
1
172
0
173
0
174
0
175
1
176
1
 91
33
178
0
145
0.0
301
CELL_VALUE
 90
4
  1
3/4" BSPP
304
ACVALUE_END
170
5
140
0.125
171
1
172
0
173
0
174
0
175
1
176
1
 91
33
178
0
145
0.0
301
CELL_VALUE
 90
4
  1
BNW
304
ACVALUE_END
170
5
140
0.125
171
1
172
0
173
0
174
0
175
1
176
1
 91
33
178
0
145
0.0
301
CELL_VALUE
 90
4
  1
Port T
304
ACVALUE_END
170
5
140
0.125
171
1
172
0
173
0
174
0
175
1
176
1
 91
33
178
0
145
0.0
301
CELL_VALUE
 90
4
  1
3/4" BSPP
304
ACVALUE_END
170
5
140
0.125
171
1
172
0
173
0
174
0
175
1
176
1
 91
33
178
0
145
0.0
301
CELL_VALUE
 90
4
  1
BNW
304
ACVALUE_END
170
5
140
0.125
171
1
172
0
173
0
174
0
175
1
176
1
 91
33
178
0
145
0.0
301
CELL_VALUE
 90
4
  1
Port S
304
ACVALUE_END
170
5
140
0.125
171
1
172
0
173
0
174
0
175
1
176
1
 91
33
178
0
145
0.0
301
CELL_VALUE
 90
4
  1
1/4" BSPP
304
ACVALUE_END
170
5
140
0.125
  0
MTEXT
  5
294
100
AcDbEntity
  8
0
100
AcDbMText
 62
2
  6
CONTINUOUS
  7
STANDARD
 71
1
 72
1
 10
0.52125
 20
5.75995
 30
0.0
 11
1.0
 21
0.0
 31
0.0
 44
0.6
  3
Notes\P \P1. Important: Carefully consider\P   the maximum system pressure. The\P   pressure rating of the manifold is\P   dependent on the manifold material,\P   with the port type/size a secondary\P   consideration. Manifolds\P   constructed of alu
  3
minum are not\P   rated for pressures higher than\P   3000 psi (210 bar), regardless of\P   the port type/size specified.\P2. This drawing is for reference\P   only. It is generated by an\P   automated process and does not fall\P   under Sun's docume
  1
nt control\P   process.\P3. Items without balloons are\P   shipped loose.
 40
0.1
 41
3.04
  0
LINE
  5
295
100
AcDbEntity
  8
0
100
AcDbLine
 62
7
  6
CONTINUOUS
 10
0.30125
 20
0.30125
 11
0.30125
 21
16.69875
  0
LINE
  5
296
100
AcDbEntity
  8
0
100
AcDbLine
 62
7
  6
CONTINUOUS
 10
0.30125
 20
0.30125
 11
21.69875
 21
0.30125
  0
LINE
  5
297
100
AcDbEntity
  8
0
100
AcDbLine
 62
7
  6
CONTINUOUS
 10
0.30125
 20
16.69875
 11
21.69875
 21
16.69875
  0
LINE
  5
298
100
AcDbEntity
  8
0
100
AcDbLine
 62
7
  6
CONTINUOUS
 10
21.69875
 20
0.30125
 11
21.69875
 21
16.69875
  0
LINE
  5
299
100
AcDbEntity
  8
0
100
AcDbLine
 62
7
  6
CONTINUOUS
 10
9.9797389406
 20
11.042459385
 11
10.0104129546
 21
11.0576117606
  0
LINE
  5
29A
100
AcDbEntity
  8
0
100
AcDbLine
 62
7
  6
CONTINUOUS
 10
9.0334735117
 20
6.066567696
 11
11.9312511623
 21
5.8656061334
  0
LINE
  5
29B
100
AcDbEntity
  8
0
100
AcDbLine
 62
7
  6
CONTINUOUS
 10
9.9153750745
 20
10.5406413055
 11
9.0334735117
 21
9.6887897593
  0
LINE
  5
29C
100
AcDbEntity
  8
0
100
AcDbLine
 62
7
  6
CONTINUOUS
 10
9.0334735117
 20
9.6887897593
 11
9.0334735117
 21
6.066567696
  0
LINE
  5
29D
100
AcDbEntity
  8
0
100
AcDbLine
 62
7
  6
CONTINUOUS
 10
11.4286277659
 20
10.9419786037
 11
11.4593017799
 21
10.9571309793
  0
LINE
  5
29E
100
AcDbEntity
  8
0
100
AcDbLine
 62
7
  6
CONTINUOUS
 10
10.9785728782
 20
10.444325627
 11
11.0243051893
 21
10.466916513
  0
LINE
  5
29F
100
AcDbEntity
  8
0
100
AcDbLine
 62
4
  6
CONTINUOUS
 10
9.719763874
 20
8.0367924484
 11
9.7559860939
 21
7.9183693254
  0
LINE
  5
2A0
100
AcDbEntity
  8
0
100
AcDbLine
 62
7
  6
CONTINUOUS
 10
9.8829947881
 20
10.5979370685
 11
9.8829947881
 21
10.9823405098
  0
LINE
  5
2A1
100
AcDbEntity
  8
0
100
AcDbLine
 62
4
  6
CONTINUOUS
 10
9.9008749731
 20
8.0049138314
 11
9.9008749731
 21
7.9855953188
  0
LINE
  5
2A2
100
AcDbEntity
  8
0
100
AcDbLine
 62
4
  6
CONTINUOUS
 10
9.8936305292
 20
8.0150754985
 11
9.9008749731
 21
8.0049138314
  0
LINE
  5
2A3
100
AcDbEntity
  8
0
100
AcDbLine
 62
7
  6
CONTINUOUS
 10
9.9640220649
 20
10.3456255239
 11
9.9640220649
 21
10.480128915
  0
LINE
  5
2A4
100
AcDbEntity
  8
0
100
AcDbLine
 62
7
  6
CONTINUOUS
 10
10.0344147276
 20
10.4516768884
 11
10.0344147276
 21
10.8360803297
  0
LINE
  5
2A5
100
AcDbEntity
  8
0
100
AcDbLine
 62
7
  6
CONTINUOUS
 10
10.0738875055
 20
10.4414605947
 11
10.0738875055
 21
10.825864036
  0
LINE
  5
2A6
100
AcDbEntity
  8
0
100
AcDbLine
 62
4
  6
CONTINUOUS
 10
9.8501638654
 20
7.9408158507
 11
9.8429194214
 21
7.9123404787
  0
LINE
  5
2A7
100
AcDbEntity
  8
0
100
AcDbLine
 62
4
  6
CONTINUOUS
 10
9.7559860939
 20
7.9183693254
 11
9.7922083137
 21
8.0317684094
  0
LINE
  5
2A8
100
AcDbEntity
  8
0
100
AcDbLine
 62
7
  6
CONTINUOUS
 10
12.4274617035
 20
10.3438448457
 11
12.4731940146
 21
10.3664357317
  0
LINE
  5
2A9
100
AcDbEntity
  8
0
100
AcDbLine
 62
4
  6
CONTINUOUS
 10
9.8791416413
 20
8.0257395627
 11
9.8936305292
 21
8.0150754985
  0
LINE
  5
2AA
100
AcDbEntity
  8
0
100
AcDbLine
 62
4
  6
CONTINUOUS
 10
9.8429194214
 20
7.9123404787
 11
9.9008749731
 21
7.9083212475
  0
LINE
  5
2AB
100
AcDbEntity
  8
0
100
AcDbLine
 62
4
  6
CONTINUOUS
 10
9.8429194214
 20
8.0089330626
 11
9.8501638654
 21
8.0180899219
  0
LINE
  5
2AC
100
AcDbEntity
  8
0
100
AcDbLine
 62
4
  6
CONTINUOUS
 10
9.8646527533
 20
7.959129559
 11
9.8501638654
 21
7.9408158507
  0
LINE
  5
2AD
100
AcDbEntity
  8
0
100
AcDbLine
 62
4
  6
CONTINUOUS
 10
9.9008749731
 20
7.9855953188
 11
9.8936305292
 21
7.9764384595
  0
LINE
  5
2AE
100
AcDbEntity
  8
0
100
AcDbLine
 62
4
  6
CONTINUOUS
 10
9.8646527533
 20
8.0267443704
 11
9.8791416413
 21
8.0257395627
  0
LINE
  5
2AF
100
AcDbEntity
  8
0
100
AcDbLine
 62
7
  6
CONTINUOUS
 10
10.6389939801
 20
10.4022703276
 11
10.6389939801
 21
10.7866737689
  0
LINE
  5
2B0
100
AcDbEntity
  8
0
100
AcDbLine
 62
7
  6
CONTINUOUS
 10
10.6929147823
 20
10.4060097545
 11
10.6929147823
 21
10.7904131958
  0
LINE
  5
2B1
100
AcDbEntity
  8
0
100
AcDbLine
 62
4
  6
CONTINUOUS
 10
12.4178305663
 20
7.7477894158
 11
12.4200490137
 21
7.7471724801
  0
LINE
  5
2B2
100
AcDbEntity
  8
0
100
AcDbLine
 62
7
  6
CONTINUOUS
 10
12.9665264883
 20
10.4878274306
 11
11.9312511623
 21
9.4878281966
  0
LINE
  5
2B3
100
AcDbEntity
  8
0
100
AcDbLine
 62
4
  6
CONTINUOUS
 10
9.8501638654
 20
8.0180899219
 11
9.8646527533
 21
8.0267443704
  0
LINE
  5
2B4
100
AcDbEntity
  8
0
100
AcDbLine
 62
4
  6
CONTINUOUS
 10
9.8936305292
 20
7.9764384595
 11
9.8646527533
 21
7.959129559
  0
LINE
  5
2B5
100
AcDbEntity
  8
0
100
AcDbLine
 62
4
  6
CONTINUOUS
 10
12.3198491515
 20
7.3319072807
 11
12.3316808697
 21
7.3212575373
  0
LINE
  5
2B6
100
AcDbEntity
  8
0
100
AcDbLine
 62
4
  6
CONTINUOUS
 10
11.1686526417
 20
7.936311671
 11
11.2048748616
 21
7.8178885481
  0
LINE
  5
2B7
100
AcDbEntity
  8
0
100
AcDbLine
 62
7
  6
CONTINUOUS
 10
11.0400220649
 20
10.3456664588
 11
11.0400220649
 21
10.4751288256
  0
LINE
  5
2B8
100
AcDbEntity
  8
0
100
AcDbLine
 62
7
  6
CONTINUOUS
 10
11.1066013174
 20
10.5130796675
 11
11.1066013174
 21
10.8974831088
  0
LINE
  5
2B9
100
AcDbEntity
  8
0
100
AcDbLine
 62
7
  6
CONTINUOUS
 10
11.1210493418
 20
10.5270353882
 11
11.1210493418
 21
10.9114388295
  0
LINE
  5
2BA
100
AcDbEntity
  8
0
100
AcDbLine
 62
4
  6
CONTINUOUS
 10
11.320785965
 20
7.9257611892
 11
11.320785965
 21
7.8098500858
  0
LINE
  5
2BB
100
AcDbEntity
  8
0
100
AcDbLine
 62
7
  6
CONTINUOUS
 10
11.3318836134
 20
10.4974562872
 11
11.3318836134
 21
10.8818597285
  0
LINE
  5
2BC
100
AcDbEntity
  8
0
100
AcDbLine
 62
7
  6
CONTINUOUS
 10
11.4129108902
 20
10.2451447426
 11
11.4129108902
 21
10.3796481337
  0
LINE
  5
2BD
100
AcDbEntity
  8
0
100
AcDbLine
 62
4
  6
CONTINUOUS
 10
11.2048748616
 20
7.8178885481
 11
11.2410970814
 21
7.9312876321
  0
LINE
  5
2BE
100
AcDbEntity
  8
0
100
AcDbLine
 62
4
  6
CONTINUOUS
 10
12.5660967762
 20
7.5918425433
 11
12.5779284935
 21
7.5811927972
  0
LINE
  5
2BF
100
AcDbEntity
  8
0
100
AcDbLine
 62
7
  6
CONTINUOUS
 10
11.4833035529
 20
10.3511961071
 11
11.4833035529
 21
10.7355995484
  0
LINE
  5
2C0
100
AcDbEntity
  8
0
100
AcDbLine
 62
7
  6
CONTINUOUS
 10
11.5227763308
 20
10.3409798134
 11
11.5227763308
 21
10.7253832547
  0
LINE
  5
2C1
100
AcDbEntity
  8
0
100
AcDbLine
 62
4
  6
CONTINUOUS
 10
12.3486889633
 20
7.4259993187
 11
12.3531258573
 21
7.413726301
  0
LINE
  5
2C2
100
AcDbEntity
  8
0
100
AcDbLine
 62
7
  6
CONTINUOUS
 10
11.9312511623
 20
9.4878281966
 11
11.9312511623
 21
5.8656061334
  0
LINE
  5
2C3
100
AcDbEntity
  8
0
100
AcDbLine
 62
7
  6
CONTINUOUS
 10
12.0878828054
 20
10.3017895463
 11
12.0878828054
 21
10.6861929876
  0
LINE
  5
2C4
100
AcDbEntity
  8
0
100
AcDbLine
 62
7
  6
CONTINUOUS
 10
9.0334735117
 20
9.6887897593
 11
11.9312511623
 21
9.4878281966
  0
LINE
  5
2C5
100
AcDbEntity
  8
0
100
AcDbLine
 62
4
  6
CONTINUOUS
 10
12.4200490137
 20
7.7471724801
 11
12.4244859077
 21
7.737659254
  0
LINE
  5
2C6
100
AcDbEntity
  8
0
100
AcDbLine
 62
4
  6
CONTINUOUS
 10
12.4699640787
 20
7.4272309856
 11
12.4655271865
 21
7.4395040068
  0
LINE
  5
2C7
100
AcDbEntity
  8
0
100
AcDbLine
 62
4
  6
CONTINUOUS
 10
12.495845952
 20
7.4522309569
 11
12.4914090598
 21
7.4645039781
  0
LINE
  5
2C8
100
AcDbEntity
  8
0
100
AcDbLine
 62
4
  6
CONTINUOUS
 10
12.4222674607
 20
7.694119574
 11
12.4267043547
 21
7.6818465563
  0
LINE
  5
2C9
100
AcDbEntity
  8
0
100
AcDbLine
 62
4
  6
CONTINUOUS
 10
12.5025012976
 20
7.5745706335
 11
12.5069381897
 21
7.562297614
  0
LINE
  5
2CA
100
AcDbEntity
  8
0
100
AcDbLine
 62
4
  6
CONTINUOUS
 10
12.3745708459
 20
7.4509992989
 11
12.3834446375
 21
7.343659618
  0
LINE
  5
2CB
100
AcDbEntity
  8
0
100
AcDbLine
 62
7
  6
CONTINUOUS
 10
12.1418036076
 20
10.3055289732
 11
12.1418036076
 21
10.6899324145
  0
LINE
  5
2CC
100
AcDbEntity
  8
0
100
AcDbLine
 62
4
  6
CONTINUOUS
 10
12.3016209102
 20
7.9716817086
 11
12.3016209102
 21
7.9137261555
  0
LINE
  5
2CD
100
AcDbEntity
  8
0
100
AcDbLine
 62
4
  6
CONTINUOUS
 10
12.31715004
 20
7.9287261441
 11
12.31715004
 21
7.870770591
  0
LINE
  5
2CE
100
AcDbEntity
  8
0
100
AcDbLine
 62
4
  6
CONTINUOUS
 10
12.324914605
 20
7.8782705853
 11
12.324914605
 21
7.9941816913
  0
LINE
  5
2CF
100
AcDbEntity
  8
0
100
AcDbLine
 62
4
  6
CONTINUOUS
 10
12.3375967293
 20
7.2993739367
 11
12.3375967293
 21
7.4152850427
  0
LINE
  5
2D0
100
AcDbEntity
  8
0
100
AcDbLine
 62
4
  6
CONTINUOUS
 10
12.3404437349
 20
8.0091816798
 11
12.3404437349
 21
7.8932705738
  0
LINE
  5
2D1
100
AcDbEntity
  8
0
100
AcDbLine
 62
4
  6
CONTINUOUS
 10
12.31715004
 20
7.9866816971
 11
12.3016209102
 21
7.9716817086
  0
LINE
  5
2D2
100
AcDbEntity
  8
0
100
AcDbLine
 62
4
  6
CONTINUOUS
 10
12.3482082998
 20
8.0166816741
 11
12.3637374297
 21
8.0316816626
  0
LINE
  5
2D3
100
AcDbEntity
  8
0
100
AcDbLine
 62
4
  6
CONTINUOUS
 10
12.5608279699
 20
8.1930787403
 11
12.5647102524
 21
8.1968287374
  0
LINE
  5
2D4
100
AcDbEntity
  8
0
100
AcDbLine
 62
4
  6
CONTINUOUS
 10
12.5161817215
 20
8.1209759968
 11
12.5058289682
 21
8.1109760044
  0
LINE
  5
2D5
100
AcDbEntity
  8
0
100
AcDbLine
 62
4
  6
CONTINUOUS
 10
12.4103248194
 20
8.0187260751
 11
12.3947956895
 21
8.0037260866
  0
LINE
  5
2D6
100
AcDbEntity
  8
0
100
AcDbLine
 62
4
  6
CONTINUOUS
 10
12.3016209102
 20
7.9137261555
 11
12.31715004
 21
7.9287261441
  0
LINE
  5
2D7
100
AcDbEntity
  8
0
100
AcDbLine
 62
4
  6
CONTINUOUS
 10
12.4488888253
 20
8.0559760466
 11
12.4644179552
 21
8.0709760351
  0
LINE
  5
2D8
100
AcDbEntity
  8
0
100
AcDbLine
 62
4
  6
CONTINUOUS
 10
12.4747707084
 20
8.0809760274
 11
12.4902998383
 21
8.0959760159
  0
LINE
  5
2D9
100
AcDbEntity
  8
0
100
AcDbLine
 62
4
  6
CONTINUOUS
 10
12.5731218644
 20
8.1759759547
 11
12.5886509943
 21
8.1909759432
  0
LINE
  5
2DA
100
AcDbEntity
  8
0
100
AcDbLine
 62
4
  6
CONTINUOUS
 10
12.5990037476
 20
8.2009759355
 11
12.6145328774
 21
8.215975924
  0
LINE
  5
2DB
100
AcDbEntity
  8
0
100
AcDbLine
 62
4
  6
CONTINUOUS
 10
12.5006525916
 20
8.0866574906
 11
12.5161817215
 21
8.1016574791
  0
LINE
  5
2DC
100
AcDbEntity
  8
0
100
AcDbLine
 62
7
  6
CONTINUOUS
 10
10.0254712516
 20
10.444325627
 11
9.9911950595
 21
10.4612574096
  0
LINE
  5
2DD
100
AcDbEntity
  8
0
100
AcDbLine
 62
4
  6
CONTINUOUS
 10
12.5269042117
 20
7.59814204
 11
12.5313411039
 21
7.5858690205
  0
LINE
  5
2DE
100
AcDbEntity
  8
0
100
AcDbLine
 62
4
  6
CONTINUOUS
 10
12.4355781427
 20
7.7649322593
 11
12.4511072726
 21
7.6640211418
  0
LINE
  5
2DF
100
AcDbEntity
  8
0
100
AcDbLine
 62
4
  6
CONTINUOUS
 10
12.4732917444
 20
7.7682433464
 11
12.4799470826
 21
7.6918782607
  0
LINE
  5
2E0
100
AcDbEntity
  8
0
100
AcDbLine
 62
4
  6
CONTINUOUS
 10
12.4599810606
 20
7.7885036693
 11
12.4666364025
 21
7.6790211303
  0
LINE
  5
2E1
100
AcDbEntity
  8
0
100
AcDbLine
 62
4
  6
CONTINUOUS
 10
12.3482082998
 20
8.0166816741
 11
12.3482082998
 21
7.9007705681
  0
LINE
  5
2E2
100
AcDbEntity
  8
0
100
AcDbLine
 62
4
  6
CONTINUOUS
 10
12.3531258573
 20
7.413726301
 11
12.3531258573
 21
7.3309326536
  0
LINE
  5
2E3
100
AcDbEntity
  8
0
100
AcDbLine
 62
4
  6
CONTINUOUS
 10
12.3637374297
 20
8.0316816626
 11
12.3637374297
 21
7.9157705566
  0
LINE
  5
2E4
100
AcDbEntity
  8
0
100
AcDbLine
 62
4
  6
CONTINUOUS
 10
12.3947956895
 20
7.9457705336
 11
12.3947956895
 21
8.0616816396
  0
LINE
  5
2E5
100
AcDbEntity
  8
0
100
AcDbLine
 62
4
  6
CONTINUOUS
 10
12.4011922135
 20
7.360802461
 11
12.4011922135
 21
7.476713567
  0
LINE
  5
2E6
100
AcDbEntity
  8
0
100
AcDbLine
 62
4
  6
CONTINUOUS
 10
12.4103248194
 20
7.9607705221
 11
12.4103248194
 21
8.0187260751
  0
LINE
  5
2E7
100
AcDbEntity
  8
0
100
AcDbLine
 62
4
  6
CONTINUOUS
 10
12.4111752248
 20
7.6254497433
 11
12.4111752248
 21
7.7413608493
  0
LINE
  5
2E8
100
AcDbEntity
  8
0
100
AcDbLine
 62
4
  6
CONTINUOUS
 10
12.4189397895
 20
7.377945304
 11
12.4189397895
 21
7.49385641
  0
LINE
  5
2E9
100
AcDbEntity
  8
0
100
AcDbLine
 62
4
  6
CONTINUOUS
 10
12.4230069421
 20
7.9730205127
 11
12.4230069421
 21
8.0309760657
  0
LINE
  5
2EA
100
AcDbEntity
  8
0
100
AcDbLine
 62
4
  6
CONTINUOUS
 10
12.4244859077
 20
7.737659254
 11
12.4244859077
 21
7.7128211578
  0
LINE
  5
2EB
100
AcDbEntity
  8
0
100
AcDbLine
 62
4
  6
CONTINUOUS
 10
12.4267043547
 20
7.6818465563
 11
12.4267043547
 21
7.6570084619
  0
LINE
  5
2EC
100
AcDbEntity
  8
0
100
AcDbLine
 62
4
  6
CONTINUOUS
 10
12.4355781427
 20
7.6490211533
 11
12.4355781427
 21
7.7649322593
  0
LINE
  5
2ED
100
AcDbEntity
  8
0
100
AcDbLine
 62
4
  6
CONTINUOUS
 10
12.438536072
 20
8.0459760542
 11
12.438536072
 21
7.9300649482
  0
LINE
  5
2EE
100
AcDbEntity
  8
0
100
AcDbLine
 62
4
  6
CONTINUOUS
 10
12.4488888253
 20
7.9980204936
 11
12.4488888253
 21
8.0559760466
  0
LINE
  5
2EF
100
AcDbEntity
  8
0
100
AcDbLine
 62
4
  6
CONTINUOUS
 10
12.4511072726
 20
7.6640211418
 11
12.4511072726
 21
7.7799322478
  0
LINE
  5
2F0
100
AcDbEntity
  8
0
100
AcDbLine
 62
4
  6
CONTINUOUS
 10
12.4644179552
 20
8.1289315881
 11
12.4644179552
 21
8.0130204821
  0
LINE
  5
2F1
100
AcDbEntity
  8
0
100
AcDbLine
 62
4
  6
CONTINUOUS
 10
12.4655271865
 20
7.4395040068
 11
12.4655271865
 21
7.5222976542
  0
LINE
  5
2F2
100
AcDbEntity
  8
0
100
AcDbLine
 62
4
  6
CONTINUOUS
 10
12.4747707084
 20
8.0809760274
 11
12.4747707084
 21
8.0230204744
  0
LINE
  5
2F3
100
AcDbEntity
  8
0
100
AcDbLine
 62
7
  6
CONTINUOUS
 10
12.4889108902
 20
10.2451856774
 11
12.4889108902
 21
10.3746480443
  0
LINE
  5
2F4
100
AcDbEntity
  8
0
100
AcDbLine
 62
4
  6
CONTINUOUS
 10
12.4914090598
 20
7.4645039781
 11
12.4914090598
 21
7.5472976255
  0
LINE
  5
2F5
100
AcDbEntity
  8
0
100
AcDbLine
 62
4
  6
CONTINUOUS
 10
12.5006525916
 20
8.0480204553
 11
12.5006525916
 21
8.0866574906
  0
LINE
  5
2F6
100
AcDbEntity
  8
0
100
AcDbLine
 62
4
  6
CONTINUOUS
 10
12.5069381897
 20
7.562297614
 11
12.5069381897
 21
7.4795039666
  0
LINE
  5
2F7
100
AcDbEntity
  8
0
100
AcDbLine
 62
4
  6
CONTINUOUS
 10
12.515811974
 20
7.4715166544
 11
12.515811974
 21
7.5874277604
  0
LINE
  5
2F8
100
AcDbEntity
  8
0
100
AcDbLine
 62
4
  6
CONTINUOUS
 10
12.5161817215
 20
8.1209759968
 11
12.5161817215
 21
8.0630204438
  0
LINE
  5
2F9
100
AcDbEntity
  8
0
100
AcDbLine
 62
4
  6
CONTINUOUS
 10
12.5265344747
 20
8.1309759891
 11
12.5265344747
 21
8.0730204361
  0
LINE
  5
2FA
100
AcDbEntity
  8
0
100
AcDbLine
 62
4
  6
CONTINUOUS
 10
12.5313411039
 20
7.5858690205
 11
12.5313411039
 21
7.5030753731
  0
LINE
  5
2FB
100
AcDbEntity
  8
0
100
AcDbLine
 62
4
  6
CONTINUOUS
 10
12.5420636046
 20
8.0880204246
 11
12.5420636046
 21
8.1459759776
  0
LINE
  5
2FC
100
AcDbEntity
  8
0
100
AcDbLine
 62
4
  6
CONTINUOUS
 10
12.5439123155
 20
7.4986595016
 11
12.5439123155
 21
7.6145706077
  0
LINE
  5
2FD
100
AcDbEntity
  8
0
100
AcDbLine
 62
4
  6
CONTINUOUS
 10
12.5524163579
 20
8.098020417
 11
12.5524163579
 21
8.213931523
  0
LINE
  5
2FE
100
AcDbEntity
  8
0
100
AcDbLine
 62
7
  6
CONTINUOUS
 10
12.5554901427
 20
10.4125988862
 11
12.5554901427
 21
10.7970023275
  0
LINE
  5
2FF
100
AcDbEntity
  8
0
100
AcDbLine
 62
4
  6
CONTINUOUS
 10
12.5627691111
 20
8.1080204093
 11
12.5627691111
 21
8.1659759623
  0
LINE
  5
300
100
AcDbEntity
  8
0
100
AcDbLine
 62
4
  6
CONTINUOUS
 10
12.4799470826
 20
7.6918782607
 11
12.4866024282
 21
7.8142179373
  0
LINE
  5
301
100
AcDbEntity
  8
0
100
AcDbLine
 62
4
  6
CONTINUOUS
 10
12.3656970579
 20
7.3265167714
 11
12.3745708459
 21
7.4509992989
  0
LINE
  5
302
100
AcDbEntity
  8
0
100
AcDbLine
 62
4
  6
CONTINUOUS
 10
12.4666364025
 20
7.6790211303
 11
12.4732917444
 21
7.7682433464
  0
LINE
  5
303
100
AcDbEntity
  8
0
100
AcDbLine
 62
4
  6
CONTINUOUS
 10
12.4244859077
 20
7.7128211578
 11
12.4200490137
 21
7.6919767187
  0
LINE
  5
304
100
AcDbEntity
  8
0
100
AcDbLine
 62
4
  6
CONTINUOUS
 10
12.5990037476
 20
8.171998159
 11
12.6145328774
 21
8.1869981475
  0
LINE
  5
305
100
AcDbEntity
  8
0
100
AcDbLine
 62
4
  6
CONTINUOUS
 10
12.6145328774
 20
8.158020371
 11
12.5990037476
 21
8.1430203825
  0
LINE
  5
306
100
AcDbEntity
  8
0
100
AcDbLine
 62
4
  6
CONTINUOUS
 10
12.5161817215
 20
8.0630204438
 11
12.5006525916
 21
8.0480204553
  0
LINE
  5
307
100
AcDbEntity
  8
0
100
AcDbLine
 62
4
  6
CONTINUOUS
 10
12.4644179552
 20
8.0130204821
 11
12.4488888253
 21
7.9980204936
  0
LINE
  5
308
100
AcDbEntity
  8
0
100
AcDbLine
 62
4
  6
CONTINUOUS
 10
12.438536072
 20
7.9880205012
 11
12.4230069421
 21
7.9730205127
  0
LINE
  5
309
100
AcDbEntity
  8
0
100
AcDbLine
 62
4
  6
CONTINUOUS
 10
12.3404437349
 20
7.8932705738
 11
12.324914605
 21
7.8782705853
  0
LINE
  5
30A
100
AcDbEntity
  8
0
100
AcDbLine
 62
4
  6
CONTINUOUS
 10
12.31715004
 20
7.870770591
 11
12.3016209102
 21
7.8557706025
  0
LINE
  5
30B
100
AcDbEntity
  8
0
100
AcDbLine
 62
4
  6
CONTINUOUS
 10
12.5265344747
 20
8.0730204361
 11
12.5420636046
 21
8.0880204246
  0
LINE
  5
30C
100
AcDbEntity
  8
0
100
AcDbLine
 62
4
  6
CONTINUOUS
 10
12.5731218644
 20
8.1180204016
 11
12.5886509943
 21
8.1330203901
  0
LINE
  5
30D
100
AcDbEntity
  8
0
100
AcDbLine
 62
4
  6
CONTINUOUS
 10
12.438536072
 20
7.9300649482
 11
12.4281833188
 21
7.9200649559
  0
LINE
  5
30E
100
AcDbEntity
  8
0
100
AcDbLine
 62
4
  6
CONTINUOUS
 10
12.4111752248
 20
7.7413608493
 11
12.4178305663
 21
7.7477894158
  0
LINE
  5
30F
100
AcDbEntity
  8
0
100
AcDbLine
 62
7
  6
CONTINUOUS
 10
12.569938167
 20
10.4265546069
 11
12.569938167
 21
10.8109580482
  0
LINE
  5
310
100
AcDbEntity
  8
0
100
AcDbLine
 62
4
  6
CONTINUOUS
 10
12.5731218644
 20
8.1759759547
 11
12.5731218644
 21
8.1180204016
  0
LINE
  5
311
100
AcDbEntity
  8
0
100
AcDbLine
 62
4
  6
CONTINUOUS
 10
12.5990037476
 20
8.2009759355
 11
12.5990037476
 21
8.171998159
  0
LINE
  5
312
100
AcDbEntity
  8
0
100
AcDbLine
 62
4
  6
CONTINUOUS
 10
12.6145328774
 20
8.1869981475
 11
12.6145328774
 21
8.158020371
  0
LINE
  5
313
100
AcDbEntity
  8
0
100
AcDbLine
 62
4
  6
CONTINUOUS
 10
12.3531258573
 20
7.3309326536
 11
12.3486889633
 21
7.3100882127
  0
LINE
  5
314
100
AcDbEntity
  8
0
100
AcDbLine
 62
4
  6
CONTINUOUS
 10
12.4267043547
 20
7.6570084619
 11
12.4222674607
 21
7.636164021
  0
LINE
  5
315
100
AcDbEntity
  8
0
100
AcDbLine
 62
4
  6
CONTINUOUS
 10
12.4655271865
 20
7.5222976542
 11
12.4699640787
 21
7.5431420916
  0
LINE
  5
316
100
AcDbEntity
  8
0
100
AcDbLine
 62
4
  6
CONTINUOUS
 10
12.4914090598
 20
7.5472976255
 11
12.495845952
 21
7.5681420629
  0
LINE
  5
317
100
AcDbEntity
  8
0
100
AcDbLine
 62
4
  6
CONTINUOUS
 10
12.5069381897
 20
7.4795039666
 11
12.5025012976
 21
7.4586595275
  0
LINE
  5
318
100
AcDbEntity
  8
0
100
AcDbLine
 62
4
  6
CONTINUOUS
 10
12.5313411039
 20
7.5030753731
 11
12.5269042117
 21
7.4822309339
  0
LINE
  5
319
100
AcDbEntity
  8
0
100
AcDbLine
 62
4
  6
CONTINUOUS
 10
12.3316808697
 20
7.3654141516
 11
12.3198491515
 21
7.3319072807
  0
LINE
  5
31A
100
AcDbEntity
  8
0
100
AcDbLine
 62
4
  6
CONTINUOUS
 10
12.4111752248
 20
7.6834052963
 11
12.4222674607
 21
7.694119574
  0
LINE
  5
31B
100
AcDbEntity
  8
0
100
AcDbLine
 62
4
  6
CONTINUOUS
 10
12.4222674607
 20
7.636164021
 11
12.4111752248
 21
7.6254497433
  0
LINE
  5
31C
100
AcDbEntity
  8
0
100
AcDbLine
 62
4
  6
CONTINUOUS
 10
12.3375967293
 20
7.4152850427
 11
12.3486889633
 21
7.4259993187
  0
LINE
  5
31D
100
AcDbEntity
  8
0
100
AcDbLine
 62
4
  6
CONTINUOUS
 10
12.3923184218
 20
7.4681421419
 11
12.4100659978
 21
7.4852849849
  0
LINE
  5
31E
100
AcDbEntity
  8
0
100
AcDbLine
 62
4
  6
CONTINUOUS
 10
12.4189397895
 20
7.49385641
 11
12.4322504733
 21
7.506713544
  0
LINE
  5
31F
100
AcDbEntity
  8
0
100
AcDbLine
 62
4
  6
CONTINUOUS
 10
12.4699640787
 20
7.5431420916
 11
12.478837863
 21
7.5517135095
  0
LINE
  5
320
100
AcDbEntity
  8
0
100
AcDbLine
 62
4
  6
CONTINUOUS
 10
12.495845952
 20
7.5681420629
 11
12.5025012976
 21
7.5745706335
  0
LINE
  5
321
100
AcDbEntity
  8
0
100
AcDbLine
 62
4
  6
CONTINUOUS
 10
12.515811974
 20
7.5874277604
 11
12.5269042117
 21
7.59814204
  0
LINE
  5
322
100
AcDbEntity
  8
0
100
AcDbLine
 62
4
  6
CONTINUOUS
 10
12.5439123155
 20
7.6145706077
 11
12.557222992
 21
7.6274277345
  0
LINE
  5
323
100
AcDbEntity
  8
0
100
AcDbLine
 62
4
  6
CONTINUOUS
 10
12.5527860998
 20
7.5734658402
 11
12.5439123155
 21
7.5648944223
  0
LINE
  5
324
100
AcDbEntity
  8
0
100
AcDbLine
 62
4
  6
CONTINUOUS
 10
12.4278135811
 20
7.4527516497
 11
12.4189397895
 21
7.4441802246
  0
LINE
  5
325
100
AcDbEntity
  8
0
100
AcDbLine
 62
4
  6
CONTINUOUS
 10
12.3686549872
 20
7.3624913723
 11
12.3804867045
 21
7.3739199343
  0
LINE
  5
326
100
AcDbEntity
  8
0
100
AcDbLine
 62
7
  6
CONTINUOUS
 10
12.9665264883
 20
6.8656053674
 11
12.9665264883
 21
10.4878274306
  0
LINE
  5
327
100
AcDbEntity
  8
0
100
AcDbLine
 62
4
  6
CONTINUOUS
 10
12.5779284935
 20
7.5811927972
 11
12.5660967762
 21
7.5476859289
  0
LINE
  5
328
100
AcDbEntity
  8
0
100
AcDbLine
 62
4
  6
CONTINUOUS
 10
12.5269042117
 20
7.4822309339
 11
12.515811974
 21
7.4715166544
  0
LINE
  5
329
100
AcDbEntity
  8
0
100
AcDbLine
 62
4
  6
CONTINUOUS
 10
12.5025012976
 20
7.4586595275
 11
12.495845952
 21
7.4522309569
  0
LINE
  5
32A
100
AcDbEntity
  8
0
100
AcDbLine
 62
4
  6
CONTINUOUS
 10
12.478837863
 20
7.4358024035
 11
12.4699640787
 21
7.4272309856
  0
LINE
  5
32B
100
AcDbEntity
  8
0
100
AcDbLine
 62
4
  6
CONTINUOUS
 10
12.3486889633
 20
7.3100882127
 11
12.3375967293
 21
7.2993739367
  0
LINE
  5
32C
100
AcDbEntity
  8
0
100
AcDbLine
 62
4
  6
CONTINUOUS
 10
12.4189397895
 20
7.377945304
 11
12.4322504733
 21
7.390802438
  0
LINE
  5
32D
100
AcDbEntity
  8
0
100
AcDbLine
 62
4
  6
CONTINUOUS
 10
12.5439123155
 20
7.4986595016
 11
12.557222992
 21
7.5115166285
  0
LINE
  5
32E
100
AcDbEntity
  8
0
100
AcDbLine
 62
7
  6
CONTINUOUS
 10
11.4743600769
 20
10.3438448457
 11
11.4400838848
 21
10.3607766283
  0
LINE
  5
32F
100
AcDbEntity
  8
0
100
AcDbLine
 62
7
  6
CONTINUOUS
 10
11.1210493418
 20
10.6158117054
 11
11.3318836134
 21
10.601190299
  0
LINE
  5
330
100
AcDbEntity
  8
0
100
AcDbLine
 62
7
  6
CONTINUOUS
 10
12.569938167
 20
10.5153309241
 11
12.9665264883
 21
10.4878274306
  0
LINE
  5
331
100
AcDbEntity
  8
0
100
AcDbLine
 62
7
  6
CONTINUOUS
 10
11.0128490703
 20
11.0481184884
 11
10.9936311753
 21
11.0576117606
  0
LINE
  5
332
100
AcDbEntity
  8
0
100
AcDbLine
 62
7
  6
CONTINUOUS
 10
11.9312511623
 20
5.8656061334
 11
12.9665264883
 21
6.8656053674
  0
LINE
  5
333
100
AcDbEntity
  8
0
100
AcDbLine
 62
7
  6
CONTINUOUS
 10
12.4617378956
 20
10.9476377071
 11
12.4425200006
 21
10.9571309793
  0
ARC
  5
334
100
AcDbEntity
  8
0
100
AcDbCircle
 62
7
  6
CONTINUOUS
 10
10.5113761448
 20
12.6330865138
 40
2.234463508
100
AcDbArc
 50
273.2741391254
 51
274.6601229449
  0
ARC
  5
335
100
AcDbEntity
  8
0
100
AcDbCircle
 62
7
  6
CONTINUOUS
 10
10.5113761448
 20
13.0174899551
 40
2.234463508
100
AcDbArc
 50
273.2741391254
 51
274.6601229449
  0
ARC
  5
336
100
AcDbEntity
  8
0
100
AcDbCircle
 62
7
  6
CONTINUOUS
 10
11.9602649701
 20
12.5326057324
 40
2.234463508
100
AcDbArc
 50
273.2741391254
 51
274.6601229449
  0
ARC
  5
337
100
AcDbEntity
  8
0
100
AcDbCircle
 62
7
  6
CONTINUOUS
 10
11.9602649701
 20
12.9170091738
 40
2.234463508
100
AcDbArc
 50
273.2741391254
 51
274.6601229449
  0
ARC
  5
338
100
AcDbEntity
  8
0
100
AcDbCircle
 62
7
  6
CONTINUOUS
 10
10.293087014
 20
11.3697473283
 40
0.9538158545
100
AcDbArc
 50
254.2644742826
 51
256.7139235525
  0
ARC
  5
339
100
AcDbEntity
  8
0
100
AcDbCircle
 62
7
  6
CONTINUOUS
 10
10.293087014
 20
11.7541507696
 40
0.9538158545
100
AcDbArc
 50
254.2644742826
 51
256.7139235525
  0
ARC
  5
33A
100
AcDbEntity
  8
0
100
AcDbCircle
 62
7
  6
CONTINUOUS
 10
11.7419758392
 20
11.269266547
 40
0.9538158545
100
AcDbArc
 50
254.2644742826
 51
256.7139235525
  0
ARC
  5
33B
100
AcDbEntity
  8
0
100
AcDbCircle
 62
7
  6
CONTINUOUS
 10
11.7419758392
 20
11.6536699883
 40
0.9538158545
100
AcDbArc
 50
254.2644742826
 51
256.7139235525
  0
ARC
  5
33C
100
AcDbEntity
  8
0
100
AcDbCircle
 62
7
  6
CONTINUOUS
 10
11.7719502529
 20
7.61110695
 40
0.5456156927
100
AcDbArc
 50
174.0101732448
 51
180.0515018147
  0
ARC
  5
33D
100
AcDbEntity
  8
0
100
AcDbCircle
 62
7
  6
CONTINUOUS
 10
10.2251889923
 20
7.712239867
 40
0.4466865324
100
AcDbArc
 50
172.7801711135
 51
180.0156558553
  0
ARC
  5
33E
100
AcDbEntity
  8
0
100
AcDbCircle
 62
7
  6
CONTINUOUS
 10
11.6740778176
 20
7.6117590857
 40
0.4466865324
100
AcDbArc
 50
172.7801711135
 51
180.0156558553
  0
ARC
  5
33F
100
AcDbEntity
  8
0
100
AcDbCircle
 62
7
  6
CONTINUOUS
 10
10.2339138269
 20
7.7176991259
 40
0.4186690187
100
AcDbArc
 50
173.5561295875
 51
180.0124447436
  0
ARC
  5
340
100
AcDbEntity
  8
0
100
AcDbCircle
 62
7
  6
CONTINUOUS
 10
11.6828026522
 20
7.6172183446
 40
0.4186690187
100
AcDbArc
 50
173.5561295875
 51
180.0124447436
  0
ARC
  5
341
100
AcDbEntity
  8
0
100
AcDbCircle
 62
7
  6
CONTINUOUS
 10
11.1335141234
 20
6.8976221523
 40
0.3554725578
100
AcDbArc
 50
66.4793028123
 51
68.5506203984
  0
ARC
  5
342
100
AcDbEntity
  8
0
100
AcDbCircle
 62
7
  6
CONTINUOUS
 10
10.0325276871
 20
9.0025166892
 40
0.2721496679
100
AcDbArc
 50
314.0075533161
 51
318.0946315565
  0
ARC
  5
343
100
AcDbEntity
  8
0
100
AcDbCircle
 62
7
  6
CONTINUOUS
 10
11.4814165124
 20
8.9020359079
 40
0.2721496679
100
AcDbArc
 50
314.0075533161
 51
318.0946315565
  0
ARC
  5
344
100
AcDbEntity
  8
0
100
AcDbCircle
 62
7
  6
CONTINUOUS
 10
9.9764339814
 20
9.0605912581
 40
0.2721090206
100
AcDbArc
 50
129.9266338281
 51
134.0068108452
  0
ARC
  5
345
100
AcDbEntity
  8
0
100
AcDbCircle
 62
7
  6
CONTINUOUS
 10
11.4253228067
 20
8.9601104767
 40
0.2721090206
100
AcDbArc
 50
129.9266338281
 51
134.0068108453
  0
SPLINE
  5
346
100
AcDbEntity
  8
0
100
AcDbSpline
 62
7
  6
CONTINUOUS
 70
0
 71
3
 72
9
 73
5
 74
0
 42
0.0000001
 43
0.0000001
 44
0.0000000001
 40
0.0
 40
0.0
 40
0.0
 40
0.0
 40
0.257447327
 40
1.0
 40
1.0
 40
1.0
 40
1.0
 10
11.1066013174
 20
10.5130796675
 30
0.0
 10
11.1072950715
 20
10.5136483448
 30
0.0
 10
11.1099691312
 20
10.5158822588
 30
0.0
 10
11.112558122
 20
10.5182188087
 30
0.0
 10
11.1144190751
 20
10.5200163514
 30
0.0
  0
SPLINE
  5
347
100
AcDbEntity
  8
0
100
AcDbSpline
 62
7
  6
CONTINUOUS
 70
0
 71
3
 72
9
 73
5
 74
0
 42
0.0000001
 43
0.0000001
 44
0.0000000001
 40
0.0
 40
0.0
 40
0.0
 40
0.0
 40
0.2426666479
 40
1.0
 40
1.0
 40
1.0
 40
1.0
 10
11.1210493418
 20
10.5270353882
 30
0.0
 10
11.1205417139
 20
10.5264416152
 30
0.0
 10
11.1184180181
 20
10.5240220308
 30
0.0
 10
11.1161726097
 20
10.5217101359
 30
0.0
 10
11.1144190751
 20
10.5200163514
 30
0.0
  0
SPLINE
  5
348
100
AcDbEntity
  8
0
100
AcDbSpline
 62
7
  6
CONTINUOUS
 70
0
 71
3
 72
9
 73
5
 74
0
 42
0.0000001
 43
0.0000001
 44
0.0000000001
 40
0.0
 40
0.0
 40
0.0
 40
0.0
 40
0.2575156145
 40
1.0
 40
1.0
 40
1.0
 40
1.0
 10
9.8896250548
 20
10.9893595466
 30
0.0
 10
9.8890288064
 20
10.9887836149
 30
0.0
 10
9.886737919
 20
10.9865220178
 30
0.0
 10
9.8845479581
 20
10.9841572549
 30
0.0
 10
9.8829947881
 20
10.9823405098
 30
0.0
  0
SPLINE
  5
349
100
AcDbEntity
  8
0
100
AcDbSpline
 62
7
  6
CONTINUOUS
 70
0
 71
3
 72
9
 73
5
 74
0
 42
0.0000001
 43
0.0000001
 44
0.0000000001
 40
0.0
 40
0.0
 40
0.0
 40
0.0
 40
0.257447327
 40
1.0
 40
1.0
 40
1.0
 40
1.0
 10
9.8974428124
 20
10.9962962305
 30
0.0
 10
9.8967490584
 20
10.9957275532
 30
0.0
 10
9.8940749987
 20
10.9934936392
 30
0.0
 10
9.8914860079
 20
10.9911570893
 30
0.0
 10
9.8896250548
 20
10.9893595466
 30
0.0
  0
SPLINE
  5
34A
100
AcDbEntity
  8
0
100
AcDbSpline
 62
7
  6
CONTINUOUS
 70
0
 71
3
 72
23
 73
19
 74
0
 42
0.0000001
 43
0.0000001
 44
0.0000000001
 40
0.0
 40
0.0
 40
0.0
 40
0.0
 40
0.0811307299
 40
0.1602255783
 40
0.2371393132
 40
0.31173057
 40
0.3838653696
 40
0.453421182
 40
0.5202897277
 40
0.5843905181
 40
0.6456688439
 40
0.7041127545
 40
0.7597461544
 40
0.8126463244
 40
0.8629314094
 40
0.910773146
 40
0.9563796915
 40
1.0
 40
1.0
 40
1.0
 40
1.0
 10
9.8829947881
 20
10.5979370685
 30
0.0
 10
9.8851723197
 20
10.5936689356
 30
0.0
 10
9.8895314377
 20
10.5852695185
 30
0.0
 10
9.8961789302
 20
10.5729416793
 30
0.0
 10
9.9028555795
 20
10.5610705968
 30
0.0
 10
9.9095602965
 20
10.5496897432
 30
0.0
 10
9.9162921836
 20
10.5388327891
 30
0.0
 10
9.9230488506
 20
10.5285322409
 30
0.0
 10
9.9298287008
 20
10.5188198589
 30
0.0
 10
9.9366278694
 20
10.509723953
 30
0.0
 10
9.9434441135
 20
10.5012705505
 30
0.0
 10
9.9502723727
 20
10.4934797385
 30
0.0
 10
9.9571099133
 20
10.4863681661
 30
0.0
 10
9.9639510116
 20
10.4799445153
 30
0.0
 10
9.9707925613
 20
10.474213583
 30
0.0
 10
9.9776289503
 20
10.4691712965
 30
0.0
 10
9.9844562397
 20
10.4648102445
 30
0.0
 10
9.9890933635
 20
10.4622951481
 30
0.0
 10
9.9914032991
 20
10.4611545795
 30
0.0
  0
SPLINE
  5
34B
100
AcDbEntity
  8
0
100
AcDbSpline
 62
7
  6
CONTINUOUS
 70
0
 71
3
 72
23
 73
19
 74
0
 42
0.0000001
 43
0.0000001
 44
0.0000000001
 40
0.0
 40
0.0
 40
0.0
 40
0.0
 40
0.0811307299
 40
0.1602255783
 40
0.2371393132
 40
0.31173057
 40
0.3838653696
 40
0.453421182
 40
0.5202897277
 40
0.5843905181
 40
0.6456688439
 40
0.7041127545
 40
0.7597461544
 40
0.8126463244
 40
0.8629314094
 40
0.910773146
 40
0.9563796915
 40
1.0
 40
1.0
 40
1.0
 40
1.0
 10
11.1210493418
 20
10.9114388295
 30
0.0
 10
11.1188718102
 20
10.9157069624
 30
0.0
 10
11.1145126921
 20
10.9241063795
 30
0.0
 10
11.1078651996
 20
10.9364342187
 30
0.0
 10
11.1011885503
 20
10.9483053012
 30
0.0
 10
11.0944838333
 20
10.9596861548
 30
0.0
 10
11.0877519462
 20
10.9705431089
 30
0.0
 10
11.0809952793
 20
10.9808436571
 30
0.0
 10
11.074215429
 20
10.9905560391
 30
0.0
 10
11.0674162605
 20
10.999651945
 30
0.0
 10
11.0606000163
 20
11.0081053475
 30
0.0
 10
11.0537717571
 20
11.0158961595
 30
0.0
 10
11.0469342166
 20
11.0230077319
 30
0.0
 10
11.0400931183
 20
11.0294313827
 30
0.0
 10
11.0332515685
 20
11.035162315
 30
0.0
 10
11.0264151796
 20
11.0402046015
 30
0.0
 10
11.0195878901
 20
11.0445656535
 30
0.0
 10
11.0149507664
 20
11.0470807499
 30
0.0
 10
11.0126408307
 20
11.0482213185
 30
0.0
  0
SPLINE
  5
34C
100
AcDbEntity
  8
0
100
AcDbSpline
 62
7
  6
CONTINUOUS
 70
0
 71
3
 72
9
 73
5
 74
0
 42
0.0000001
 43
0.0000001
 44
0.0000000001
 40
0.0
 40
0.0
 40
0.0
 40
0.0
 40
0.4956216882
 40
1.0
 40
1.0
 40
1.0
 40
1.0
 10
11.0240977994
 20
10.4668141226
 30
0.0
 10
11.0381119366
 20
10.4737389647
 30
0.0
 10
11.0659847317
 20
10.4885361589
 30
0.0
 10
11.0930975678
 20
10.5046708141
 30
0.0
 10
11.1066013174
 20
10.5130796675
 30
0.0
  0
SPLINE
  5
34D
100
AcDbEntity
  8
0
100
AcDbSpline
 62
7
  6
CONTINUOUS
 70
0
 71
3
 72
9
 73
5
 74
0
 42
0.0000001
 43
0.0000001
 44
0.0000000001
 40
0.0
 40
0.0
 40
0.0
 40
0.0
 40
0.4956216882
 40
1.0
 40
1.0
 40
1.0
 40
1.0
 10
9.9799463305
 20
11.0425617754
 30
0.0
 10
9.9659321932
 20
11.0356369333
 30
0.0
 10
9.9380593981
 20
11.0208397391
 30
0.0
 10
9.9109465621
 20
11.0047050839
 30
0.0
 10
9.8974428124
 20
10.9962962305
 30
0.0
  0
SPLINE
  5
34E
100
AcDbEntity
  8
0
100
AcDbSpline
 62
7
  6
CONTINUOUS
 70
0
 71
3
 72
47
 73
43
 74
0
 42
0.0000001
 43
0.0000001
 44
0.0000000001
 40
0.0
 40
0.0
 40
0.0
 40
0.0
 40
0.0099875403
 40
0.0204477283
 40
0.031377153
 40
0.0427708365
 40
0.0546219042
 40
0.066922623
 40
0.0796642274
 40
0.0928364151
 40
0.1204273007
 40
0.1495986195
 40
0.1802409519
 40
0.2122340888
 40
0.2454492724
 40
0.2797501125
 40
0.3149932733
 40
0.3510301731
 40
0.3877075545
 40
0.424868394
 40
0.4623531211
 40
0.5000002041
 40
0.5376472772
 40
0.5751319828
 40
0.6122928115
 40
0.6489701916
 40
0.6850070832
 40
0.7202502161
 40
0.7545510164
 40
0.7877661686
 40
0.8197592835
 40
0.8504015909
 40
0.8795728653
 40
0.9071637058
 40
0.9203358718
 40
0.9330774483
 40
0.9453781298
 40
0.9572291666
 40
0.9686228485
 40
0.9795523166
 40
0.9900125362
 40
1.0
 40
1.0
 40
1.0
 40
1.0
 10
10.993634572
 20
11.0576100682
 30
0.0
 10
10.990644019
 20
11.0590873659
 30
0.0
 10
10.9844702978
 20
11.0620092865
 30
0.0
 10
10.9748680818
 20
11.0662086918
 30
0.0
 10
10.9647199098
 20
11.0703214757
 30
0.0
 10
10.954037459
 20
11.0743426671
 30
0.0
 10
10.9428330596
 20
11.0782679749
 30
0.0
 10
10.9311195275
 20
11.0820927013
 30
0.0
 10
10.9189102408
 20
11.0858122706
 30
0.0
 10
10.9017223763
 20
11.0907017929
 30
0.0
 10
10.8790920223
 20
11.0964972609
 30
0.0
 10
10.8506007027
 20
11.1028659236
 30
0.0
 10
10.8205006198
 20
11.1087214332
 30
0.0
 10
10.7889305844
 20
11.1140367591
 30
0.0
 10
10.7560358931
 20
11.1187869021
 30
0.0
 10
10.7219682069
 20
11.1229494195
 30
0.0
 10
10.6868847213
 20
11.126505133
 30
0.0
 10
10.6509473866
 20
11.1294372864
 30
0.0
 10
10.6143221179
 20
11.131732055
 30
0.0
 10
10.5771780734
 20
11.1333789857
 30
0.0
 10
10.539686835
 20
11.1343702057
 30
0.0
 10
10.5020215874
 20
11.1347010455
 30
0.0
 10
10.4643563471
 20
11.134370189
 30
0.0
 10
10.4268651232
 20
11.1333789529
 30
0.0
 10
10.3897210907
 20
11.1317320055
 30
0.0
 10
10.3530958298
 20
11.1294372208
 30
0.0
 10
10.3171585089
 20
11.1265050505
 30
0.0
 10
10.2820750503
 20
11.1229493225
 30
0.0
 10
10.2480073993
 20
11.1187867903
 30
0.0
 10
10.2151127413
 20
11.114036634
 30
0.0
 10
10.1835427351
 20
11.1087212923
 30
0.0
 10
10.1534426861
 20
11.1028657684
 30
0.0
 10
10.1249514078
 20
11.0964970961
 30
0.0
 10
10.1023210955
 20
11.0907016146
 30
0.0
 10
10.0851332666
 20
11.0858120828
 30
0.0
 10
10.0729240107
 20
11.0820925121
 30
0.0
 10
10.0612105101
 20
11.0782677929
 30
0.0
 10
10.0500061344
 20
11.0743424877
 30
0.0
 10
10.0393236864
 20
11.0703212779
 30
0.0
 10
10.0291755083
 20
11.0662084432
 30
0.0
 10
10.0195733099
 20
11.0620089995
 30
0.0
 10
10.0133996035
 20
11.0590870837
 30
0.0
 10
10.0104090691
 20
11.0576098059
 30
0.0
  0
SPLINE
  5
34F
100
AcDbEntity
  8
0
100
AcDbSpline
 62
7
  6
CONTINUOUS
 70
0
 71
3
 72
71
 73
67
 74
0
 42
0.0000001
 43
0.0000001
 44
0.0000000001
 40
0.0
 40
0.0
 40
0.0
 40
0.0
 40
0.0078484594
 40
0.0115252914
 40
0.0150503909
 40
0.0216951607
 40
0.0248528477
 40
0.0279249671
 40
0.0309332128
 40
0.0339008246
 40
0.0368520407
 40
0.0398115072
 40
0.0428036737
 40
0.0458521687
 40
0.0489791618
 40
0.0522050193
 40
0.0590205121
 40
0.0626448601
 40
0.0664289451
 40
0.0703831065
 40
0.0745161228
 40
0.0788351457
 40
0.0833459416
 40
0.0929593076
 40
0.1033847624
 40
0.1146355341
 40
0.1267157161
 40
0.1396206445
 40
0.1533400256
 40
0.1678573778
 40
0.1831523725
 40
0.1992001058
 40
0.2159727113
 40
0.2334389021
 40
0.251564872
 40
0.2703142876
 40
0.2896485529
 40
0.3095272434
 40
0.3299078824
 40
0.3507467036
 40
0.3719981359
 40
0.4155504597
 40
0.460180434
 40
0.5054896846
 40
0.5510718591
 40
0.5965174611
 40
0.6414185988
 40
0.6853737051
 40
0.7279923619
 40
0.7689002583
 40
0.7886021453
 40
0.8077458129
 40
0.8262916544
 40
0.8442015475
 40
0.8614402254
 40
0.8779744598
 40
0.8937742734
 40
0.9088125479
 40
0.9230660027
 40
0.9365154872
 40
0.9491464372
 40
0.9609501077
 40
0.9719246022
 40
0.9820778352
 40
0.9914268056
 40
1.0
 40
1.0
 40
1.0
 40
1.0
 10
9.9659331996
 20
11.0281240867
 30
0.0
 10
9.9636851031
 20
11.0259525921
 30
0.0
 10
9.9605278732
 20
11.0226049816
 30
0.0
 10
9.9568184625
 20
11.0178925868
 30
0.0
 10
9.9536886939
 20
11.0133495124
 30
0.0
 10
9.9511267179
 20
11.0086740525
 30
0.0
 10
9.9492291729
 20
11.0039054148
 30
0.0
 10
9.9481638467
 20
11.0003789768
 30
0.0
 10
9.9474342488
 20
10.9968452213
 30
0.0
 10
9.9470412089
 20
10.9933065889
 30
0.0
 10
9.9469850292
 20
10.9897659935
 30
0.0
 10
9.9472657843
 20
10.9862263316
 30
0.0
 10
9.9478833176
 20
10.9826904897
 30
0.0
 10
9.9488369909
 20
10.9791613246
 30
0.0
 10
9.9501253648
 20
10.9756410788
 30
0.0
 10
9.9523271693
 20
10.9708761996
 30
0.0
 10
9.9551831672
 20
10.9662175965
 30
0.0
 10
9.9585955633
 20
10.961693661
 30
0.0
 10
9.9615344112
 20
10.9582490535
 30
0.0
 10
9.9647977821
 20
10.9548254929
 30
0.0
 10
9.9683842021
 20
10.9514244556
 30
0.0
 10
9.9722913312
 20
10.9480477984
 30
0.0
 10
9.9780480617
 20
10.9434833632
 30
0.0
 10
9.9860626313
 20
10.9378678633
 30
0.0
 10
9.9967189166
 20
10.9313953947
 30
0.0
 10
10.0085856522
 20
10.9250656245
 30
0.0
 10
10.0216354085
 20
10.918894146
 30
0.0
 10
10.0358378793
 20
10.9128943451
 30
0.0
 10
10.0511599654
 20
10.9070814296
 30
0.0
 10
10.0675653316
 20
10.9014685063
 30
0.0
 10
10.0850151434
 20
10.8960698658
 30
0.0
 10
10.1034677167
 20
10.8908979617
 30
0.0
 10
10.1228789952
 20
10.8859658213
 30
0.0
 10
10.1432024475
 20
10.8812850668
 30
0.0
 10
10.1643893477
 20
10.8768672678
 30
0.0
 10
10.1863888113
 20
10.8727230711
 30
0.0
 10
10.2091479926
 20
10.8688624821
 30
0.0
 10
10.2326121681
 20
10.865295028
 30
0.0
 10
10.2567249087
 20
10.8620291074
 30
0.0
 10
10.2814282301
 20
10.8590729293
 30
0.0
 10
10.3153507458
 20
10.8555247326
 30
0.0
 10
10.3587896882
 20
10.8519303523
 30
0.0
 10
10.4118755887
 20
10.8489766186
 30
0.0
 10
10.4658282821
 20
10.8473774981
 30
0.0
 10
10.5201288236
 20
10.8471485533
 30
0.0
 10
10.5742553215
 20
10.8482920666
 30
0.0
 10
10.6276874307
 20
10.8507968075
 30
0.0
 10
10.6799118202
 20
10.8546381261
 30
0.0
 10
10.7304264004
 20
10.8597783745
 30
0.0
 10
10.771189295
 20
10.865167154
 30
0.0
 10
10.8025637845
 20
10.8701171667
 30
0.0
 10
10.8250757463
 20
10.8740735442
 30
0.0
 10
10.8468101237
 20
10.8783099565
 30
0.0
 10
10.8677147491
 20
10.8828167587
 30
0.0
 10
10.8877394408
 20
10.8875824888
 30
0.0
 10
10.9068361835
 20
10.892596015
 30
0.0
 10
10.9249592671
 20
10.8978448417
 30
0.0
 10
10.9420654068
 20
10.9033164322
 30
0.0
 10
10.9581138802
 20
10.9089975123
 30
0.0
 10
10.9730666707
 20
10.9148743357
 30
0.0
 10
10.98688838
 20
10.9209330329
 30
0.0
 10
10.9995469204
 20
10.9271586812
 30
0.0
 10
11.0110130378
 20
10.9335375622
 30
0.0
 10
11.0212615288
 20
10.9400554566
 30
0.0
 10
11.0302671671
 20
10.9466978083
 30
0.0
 10
11.0356552422
 20
10.9513962958
 30
0.0
 10
11.0381109303
 20
10.9537683085
 30
0.0
  0
SPLINE
  5
350
100
AcDbEntity
  8
0
100
AcDbSpline
 62
7
  6
CONTINUOUS
 70
0
 71
3
 72
28
 73
24
 74
0
 42
0.0000001
 43
0.0000001
 44
0.0000000001
 40
0.0
 40
0.0
 40
0.0
 40
0.0
 40
0.0679119338
 40
0.1310059334
 40
0.1898300509
 40
0.2451128907
 40
0.2717244024
 40
0.2978088965
 40
0.3235052839
 40
0.3489593586
 40
0.3743211516
 40
0.3997423533
 40
0.4253736392
 40
0.4513619957
 40
0.5049275163
 40
0.5614895859
 40
0.5911783875
 40
0.6219180812
 40
0.6868326907
 40
0.7567711825
 40
0.8321139397
 40
0.9131283559
 40
1.0
 40
1.0
 40
1.0
 40
1.0
 10
11.0381109303
 20
10.9537683085
 30
0.0
 10
11.0400255666
 20
10.9556177053
 30
0.0
 10
11.0435795561
 20
10.9593350882
 30
0.0
 10
11.0481907414
 20
10.9651913499
 30
0.0
 10
11.0518644944
 20
10.9711047776
 30
0.0
 10
11.0541630422
 20
10.9761394262
 30
0.0
 10
11.0554953643
 20
10.9801602658
 30
0.0
 10
11.0562428555
 20
10.98314387
 30
0.0
 10
11.0567501532
 20
10.9861315961
 30
0.0
 10
11.0570170879
 20
10.9891219749
 30
0.0
 10
11.057043515
 20
10.992113376
 30
0.0
 10
11.0568294311
 20
10.9951041399
 30
0.0
 10
11.0563748229
 20
10.9980927716
 30
0.0
 10
11.0554393397
 20
11.0021118972
 30
0.0
 10
11.053638988
 20
11.0071558831
 30
0.0
 10
11.0511007785
 20
11.0120306801
 30
0.0
 10
11.0486275333
 20
11.0158946562
 30
0.0
 10
11.0457477939
 20
11.0198782949
 30
0.0
 10
11.0415283871
 20
11.0248257437
 30
0.0
 10
11.0356304458
 20
11.0305919255
 30
0.0
 10
11.0288183366
 20
11.0362853814
 30
0.0
 10
11.021104382
 20
11.0418982427
 30
0.0
 10
11.0155633633
 20
11.0454553065
 30
0.0
 10
11.0126535261
 20
11.0472238821
 30
0.0
  0
SPLINE
  5
351
100
AcDbEntity
  8
0
100
AcDbSpline
 62
7
  6
CONTINUOUS
 70
0
 71
3
 72
9
 73
5
 74
0
 42
0.0000001
 43
0.0000001
 44
0.0000000001
 40
0.0
 40
0.0
 40
0.0
 40
0.0
 40
0.4848355238
 40
1.0
 40
1.0
 40
1.0
 40
1.0
 10
11.0126535261
 20
11.0472238821
 30
0.0
 10
11.0096600894
 20
11.0490432688
 30
0.0
 10
11.0033904365
 20
11.0526399909
 30
0.0
 10
10.9969717091
 20
11.0559615622
 30
0.0
 10
10.993634572
 20
11.0576100682
 30
0.0
  0
SPLINE
  5
352
100
AcDbEntity
  8
0
100
AcDbSpline
 62
7
  6
CONTINUOUS
 70
0
 71
3
 72
47
 73
43
 74
0
 42
0.0000001
 43
0.0000001
 44
0.0000000001
 40
0.0
 40
0.0
 40
0.0
 40
0.0
 40
0.0099876626
 40
0.0204479669
 40
0.0313775025
 40
0.04277129
 40
0.0546224513
 40
0.0669232498
 40
0.0796649191
 40
0.0928371598
 40
0.1204281281
 40
0.1495995024
 40
0.1802418577
 40
0.2122349738
 40
0.2454500995
 40
0.2797508632
 40
0.3149939248
 40
0.3510306998
 40
0.3877079389
 40
0.4248686282
 40
0.4623531991
 40
0.5000001113
 40
0.5376470156
 40
0.5751315709
 40
0.6122922601
 40
0.6489695026
 40
0.6850062626
 40
0.720249304
 40
0.754550053
 40
0.7877651694
 40
0.8197582656
 40
0.8504005906
 40
0.8795719424
 40
0.907162899
 40
0.9203351314
 40
0.9330767818
 40
0.9453775464
 40
0.9572286765
 40
0.9686224633
 40
0.979552049
 40
0.990012398
 40
1.0
 40
1.0
 40
1.0
 40
1.0
 10
10.0254710162
 20
10.4443257574
 30
0.0
 10
10.0283699983
 20
10.4428937374
 30
0.0
 10
10.0343546722
 20
10.4400613705
 30
0.0
 10
10.0436628421
 20
10.4359906699
 30
0.0
 10
10.0535002319
 20
10.4320039369
 30
0.0
 10
10.0638555211
 20
10.4281059898
 30
0.0
 10
10.0747167549
 20
10.4243009887
 30
0.0
 10
10.086071508
 20
10.420593488
 30
0.0
 10
10.0979068119
 20
10.4169879233
 30
0.0
 10
10.1145681667
 20
10.4122482687
 30
0.0
 10
10.1365052634
 20
10.4066304364
 30
0.0
 10
10.1641237479
 20
10.4004569759
 30
0.0
 10
10.1933016695
 20
10.3947809429
 30
0.0
 10
10.2239044675
 20
10.3896285376
 30
0.0
 10
10.2557913021
 20
10.3850239938
 30
0.0
 10
10.288815166
 20
10.3809890642
 30
0.0
 10
10.3228236837
 20
10.3775423387
 30
0.0
 10
10.3576598679
 20
10.3747000606
 30
0.0
 10
10.3931628917
 20
10.3724756298
 30
0.0
 10
10.4291687862
 20
10.3708791792
 30
0.0
 10
10.4655112276
 20
10.36991834
 30
0.0
 10
10.5020223406
 20
10.3695976376
 30
0.0
 10
10.5385334486
 20
10.3699183496
 30
0.0
 10
10.5748758821
 20
10.3708791979
 30
0.0
 10
10.6108817721
 20
10.3724756589
 30
0.0
 10
10.6463847915
 20
10.3747000985
 30
0.0
 10
10.6812209647
 20
10.377542386
 30
0.0
 10
10.7152294654
 20
10.3809891202
 30
0.0
 10
10.7482533138
 20
10.3850240584
 30
0.0
 10
10.7801401327
 20
10.3896286113
 30
0.0
 10
10.8107429099
 20
10.3947810242
 30
0.0
 10
10.8399208059
 20
10.4004570651
 30
0.0
 10
10.8675392681
 20
10.4066305302
 30
0.0
 10
10.8894763479
 20
10.4122483734
 30
0.0
 10
10.906137687
 20
10.4169880368
 30
0.0
 10
10.9179729704
 20
10.4205936007
 30
0.0
 10
10.9293276984
 20
10.4243010903
 30
0.0
 10
10.9401889122
 20
10.4281060843
 30
0.0
 10
10.9505442026
 20
10.4320040454
 30
0.0
 10
10.9603816065
 20
10.4359908256
 30
0.0
 10
10.9696897725
 20
10.4400615621
 30
0.0
 10
10.9756744425
 20
10.4428939243
 30
0.0
 10
10.9785734121
 20
10.4443259252
 30
0.0
  0
SPLINE
  5
353
100
AcDbEntity
  8
0
100
AcDbSpline
 62
7
  6
CONTINUOUS
 70
0
 71
3
 72
15
 73
11
 74
0
 42
0.0000001
 43
0.0000001
 44
0.0000000001
 40
0.0
 40
0.0
 40
0.0
 40
0.0
 40
0.1343380542
 40
0.2648697481
 40
0.3921893739
 40
0.5168787269
 40
0.6395034772
 40
0.7605881804
 40
0.8806115565
 40
1.0
 40
1.0
 40
1.0
 40
1.0
 10
9.9914032991
 20
10.4611545795
 30
0.0
 10
9.9931895738
 20
10.4602725772
 30
0.0
 10
9.9967642219
 20
10.4586377064
 30
0.0
 10
10.0021961989
 20
10.4565493965
 30
0.0
 10
10.0076123858
 20
10.4548494687
 30
0.0
 10
10.0130112229
 20
10.4535234496
 30
0.0
 10
10.0183914082
 20
10.4525548733
 30
0.0
 10
10.0237521188
 20
10.4519273281
 30
0.0
 10
10.0290924281
 20
10.451624096
 30
0.0
 10
10.0326449663
 20
10.4516269278
 30
0.0
 10
10.0344147276
 20
10.4516768884
 30
0.0
  0
SPLINE
  5
354
100
AcDbEntity
  8
0
100
AcDbSpline
 62
7
  6
CONTINUOUS
 70
0
 71
3
 72
11
 73
7
 74
0
 42
0.0000001
 43
0.0000001
 44
0.0000000001
 40
0.0
 40
0.0
 40
0.0
 40
0.0
 40
0.2690760955
 40
0.5253706249
 40
0.7689657929
 40
1.0
 40
1.0
 40
1.0
 40
1.0
 10
10.0104090691
 20
11.0576098059
 30
0.0
 10
10.007689258
 20
11.0562662612
 30
0.0
 10
10.0024184016
 20
11.0535616722
 30
0.0
 10
9.9948441549
 20
11.0493403203
 30
0.0
 10
9.987801704
 20
11.0450575359
 30
0.0
 10
9.9833491493
 20
11.0420859598
 30
0.0
 10
9.9812181423
 20
11.0405882458
 30
0.0
  0
SPLINE
  5
355
100
AcDbEntity
  8
0
100
AcDbSpline
 62
7
  6
CONTINUOUS
 70
0
 71
3
 72
9
 73
5
 74
0
 42
0.0000001
 43
0.0000001
 44
0.0000000001
 40
0.0
 40
0.0
 40
0.0
 40
0.0
 40
0.5201382929
 40
1.0
 40
1.0
 40
1.0
 40
1.0
 10
9.9812181423
 20
11.0405882458
 30
0.0
 10
9.9784183888
 20
11.0386205236
 30
0.0
 10
9.9731529408
 20
11.0346661928
 30
0.0
 10
9.9682039455
 20
11.030317459
 30
0.0
 10
9.9659331996
 20
11.0281240867
 30
0.0
  0
SPLINE
  5
356
100
AcDbEntity
  8
0
100
AcDbSpline
 62
7
  6
CONTINUOUS
 70
0
 71
3
 72
9
 73
5
 74
0
 42
0.0000001
 43
0.0000001
 44
0.0000000001
 40
0.0
 40
0.0
 40
0.0
 40
0.0
 40
0.257447327
 40
1.0
 40
1.0
 40
1.0
 40
1.0
 10
11.1066013174
 20
10.8974831088
 30
0.0
 10
11.1072950715
 20
10.8980517861
 30
0.0
 10
11.1099691312
 20
10.9002857001
 30
0.0
 10
11.112558122
 20
10.90262225
 30
0.0
 10
11.1144190751
 20
10.9044197928
 30
0.0
  0
SPLINE
  5
357
100
AcDbEntity
  8
0
100
AcDbSpline
 62
7
  6
CONTINUOUS
 70
0
 71
3
 72
9
 73
5
 74
0
 42
0.0000001
 43
0.0000001
 44
0.0000000001
 40
0.0
 40
0.0
 40
0.0
 40
0.0
 40
0.2575156145
 40
1.0
 40
1.0
 40
1.0
 40
1.0
 10
11.1144190751
 20
10.9044197928
 30
0.0
 10
11.1150153234
 20
10.9049957245
 30
0.0
 10
11.1173062108
 20
10.9072573215
 30
0.0
 10
11.1194961718
 20
10.9096220845
 30
0.0
 10
11.1210493418
 20
10.9114388295
 30
0.0
  0
SPLINE
  5
358
100
AcDbEntity
  8
0
100
AcDbSpline
 62
7
  6
CONTINUOUS
 70
0
 71
3
 72
24
 73
20
 74
0
 42
0.0000001
 43
0.0000001
 44
0.0000000001
 40
0.0
 40
0.0
 40
0.0
 40
0.0
 40
0.0419302179
 40
0.0844451594
 40
0.1280621253
 40
0.1733763194
 40
0.2210177514
 40
0.2716032397
 40
0.3256875781
 40
0.3837158672
 40
0.445996209
 40
0.4787925034
 40
0.5127003789
 40
0.5838373755
 40
0.6593156769
 40
0.7389447311
 40
0.8224675479
 40
0.9095906558
 40
1.0
 40
1.0
 40
1.0
 40
1.0
 10
9.8829947881
 20
10.9823405098
 30
0.0
 10
9.8860913808
 20
10.9824279272
 30
0.0
 10
9.8923411511
 20
10.9823038437
 30
0.0
 10
9.9017472572
 20
10.9811335616
 30
0.0
 10
9.9112157466
 20
10.9788873444
 30
0.0
 10
9.9207343503
 20
10.9754788565
 30
0.0
 10
9.9302899256
 20
10.9708337732
 30
0.0
 10
9.9398687511
 20
10.9648939074
 30
0.0
 10
9.9494574695
 20
10.9576190001
 30
0.0
 10
9.9590439951
 20
10.9489912898
 30
0.0
 10
9.9668831976
 20
10.9408239776
 30
0.0
 10
9.9731557634
 20
10.9336486662
 30
0.0
 10
9.9796326688
 20
10.9257882492
 30
0.0
 10
9.9876885237
 20
10.915151244
 30
0.0
 10
9.9971674029
 20
10.9013781929
 30
0.0
 10
10.0065994318
 20
10.8864789062
 30
0.0
 10
10.0159797126
 20
10.870541307
 30
0.0
 10
10.0253052121
 20
10.8536565367
 30
0.0
 10
10.0313791942
 20
10.8420302136
 30
0.0
 10
10.0344147276
 20
10.8360803297
 30
0.0
  0
SPLINE
  5
359
100
AcDbEntity
  8
0
100
AcDbSpline
 62
7
  6
CONTINUOUS
 70
0
 71
3
 72
21
 73
17
 74
0
 42
0.0000001
 43
0.0000001
 44
0.0000000001
 40
0.0
 40
0.0
 40
0.0
 40
0.0
 40
0.1230212981
 40
0.1847065752
 40
0.2465215318
 40
0.3084771567
 40
0.3705832678
 40
0.432847904
 40
0.4952752623
 40
0.5578663069
 40
0.6206183946
 40
0.6835249868
 40
0.7465773451
 40
0.8097643485
 40
0.8730733734
 40
1.0
 40
1.0
 40
1.0
 40
1.0
 10
10.0738875055
 20
10.825864036
 30
0.0
 10
10.0969666865
 20
10.8304113922
 30
0.0
 10
10.131799128
 20
10.8363837985
 30
0.0
 10
10.178570343
 20
10.8422939459
 30
0.0
 10
10.2138816516
 20
10.8456211599
 30
0.0
 10
10.2493660944
 20
10.8477555675
 30
0.0
 10
10.2849908155
 20
10.8486263038
 30
0.0
 10
10.320714027
 20
10.8481774086
 30
0.0
 10
10.3564876487
 20
10.8463754099
 30
0.0
 10
10.3922601749
 20
10.843212124
 30
0.0
 10
10.4279801148
 20
10.8387031734
 30
0.0
 10
10.4635997282
 20
10.8328889316
 30
0.0
 10
10.4990778677
 20
10.8258312175
 30
0.0
 10
10.5343820584
 20
10.8176055278
 30
0.0
 10
10.5812259846
 20
10.8051859758
 30
0.0
 10
10.6159863943
 20
10.7943981814
 30
0.0
 10
10.6389939801
 20
10.7866737689
 30
0.0
  0
SPLINE
  5
35A
100
AcDbEntity
  8
0
100
AcDbSpline
 62
7
  6
CONTINUOUS
 70
0
 71
3
 72
21
 73
17
 74
0
 42
0.0000001
 43
0.0000001
 44
0.0000000001
 40
0.0
 40
0.0
 40
0.0
 40
0.0
 40
0.1269266266
 40
0.1902356515
 40
0.253422655
 40
0.3164750132
 40
0.3793816055
 40
0.4421336932
 40
0.5047247377
 40
0.567152096
 40
0.6294167323
 40
0.6915228434
 40
0.7534784683
 40
0.8152934248
 40
0.8769787019
 40
1.0
 40
1.0
 40
1.0
 40
1.0
 10
10.0738875055
 20
10.4414605947
 30
0.0
 10
10.0968950913
 20
10.4337361822
 30
0.0
 10
10.131655501
 20
10.4229483878
 30
0.0
 10
10.1784994271
 20
10.4105288357
 30
0.0
 10
10.2138036179
 20
10.402303146
 30
0.0
 10
10.2492817574
 20
10.395245432
 30
0.0
 10
10.2849013708
 20
10.3894311902
 30
0.0
 10
10.3206213107
 20
10.3849222396
 30
0.0
 10
10.3563938369
 20
10.3817589537
 30
0.0
 10
10.3921674586
 20
10.3799569549
 30
0.0
 10
10.4278906701
 20
10.3795080597
 30
0.0
 10
10.4635153912
 20
10.3803787961
 30
0.0
 10
10.498999834
 20
10.3825132037
 30
0.0
 10
10.5343111426
 20
10.3858404177
 30
0.0
 10
10.5810823575
 20
10.3917505651
 30
0.0
 10
10.615914799
 20
10.3977229714
 30
0.0
 10
10.6389939801
 20
10.4022703276
 30
0.0
  0
SPLINE
  5
35B
100
AcDbEntity
  8
0
100
AcDbSpline
 62
7
  6
CONTINUOUS
 70
0
 71
3
 72
23
 73
19
 74
0
 42
0.0000001
 43
0.0000001
 44
0.0000000001
 40
0.0
 40
0.0
 40
0.0
 40
0.0
 40
0.0679978533
 40
0.1353018631
 40
0.2018554099
 40
0.2676132346
 40
0.3325395022
 40
0.3966151177
 40
0.4598412047
 40
0.5222412155
 40
0.5838618231
 40
0.6447690144
 40
0.705043352
 40
0.7647745608
 40
0.8240532209
 40
0.8829657265
 40
0.9415926228
 40
1.0
 40
1.0
 40
1.0
 40
1.0
 10
10.6929147823
 20
10.7904131958
 30
0.0
 10
10.701308571
 20
10.7956400506
 30
0.0
 10
10.7181419719
 20
10.8058315147
 30
0.0
 10
10.7436755217
 20
10.8203199817
 30
0.0
 10
10.7693659616
 20
10.8338450361
 30
0.0
 10
10.7952030457
 20
10.8463139135
 30
0.0
 10
10.8211705721
 20
10.8576380366
 30
0.0
 10
10.8472451773
 20
10.8677376626
 30
0.0
 10
10.8733976521
 20
10.8765457225
 30
0.0
 10
10.8995931349
 20
10.8840153196
 30
0.0
 10
10.9257933374
 20
10.8901237148
 30
0.0
 10
10.9519597466
 20
10.894872087
 30
0.0
 10
10.9780557981
 20
10.89828748
 30
0.0
 10
11.0040494877
 20
10.9004205066
 30
0.0
 10
11.0299152648
 20
10.9013381858
 30
0.0
 10
11.0556348009
 20
10.9011205641
 30
0.0
 10
11.0811958433
 20
10.8998554291
 30
0.0
 10
11.0981542884
 20
10.8983706143
 30
0.0
 10
11.1066013174
 20
10.8974831088
 30
0.0
  0
SPLINE
  5
35C
100
AcDbEntity
  8
0
100
AcDbSpline
 62
7
  6
CONTINUOUS
 70
0
 71
3
 72
21
 73
17
 74
0
 42
0.0000001
 43
0.0000001
 44
0.0000000001
 40
0.0
 40
0.0
 40
0.0
 40
0.0
 40
0.119195178
 40
0.1790929876
 40
0.2392477604
 40
0.2997138873
 40
0.3605475878
 40
0.4218079674
 40
0.4835540028
 40
0.5458413627
 40
0.6087209795
 40
0.672234225
 40
0.7364135972
 40
0.8012786058
 40
0.866837945
 40
1.0
 40
1.0
 40
1.0
 40
1.0
 10
10.6929147823
 20
10.4060097545
 30
0.0
 10
10.7064141021
 20
10.4045914191
 30
0.0
 10
10.7267643265
 20
10.4030228374
 30
0.0
 10
10.754001142
 20
10.4022220861
 30
0.0
 10
10.7745622704
 20
10.4023098525
 30
0.0
 10
10.7952139933
 20
10.403130718
 30
0.0
 10
10.8159471913
 20
10.4047249097
 30
0.0
 10
10.8367493901
 20
10.4071272442
 30
0.0
 10
10.8576054494
 20
10.4103671076
 30
0.0
 10
10.8784984829
 20
10.4144628875
 30
0.0
 10
10.8994091676
 20
10.4194272976
 30
0.0
 10
10.920318711
 20
10.4252577806
 30
0.0
 10
10.9412068169
 20
10.4319467003
 30
0.0
 10
10.9620562832
 20
10.4394717967
 30
0.0
 10
10.9899223174
 20
10.4506405246
 30
0.0
 10
11.0105028273
 20
10.4600964037
 30
0.0
 10
11.0240977994
 20
10.4668141226
 30
0.0
  0
SPLINE
  5
35D
100
AcDbEntity
  8
0
100
AcDbSpline
 62
7
  6
CONTINUOUS
 70
0
 71
3
 72
9
 73
5
 74
0
 42
0.0000001
 43
0.0000001
 44
0.0000000001
 40
0.0
 40
0.0
 40
0.0
 40
0.0
 40
0.257447327
 40
1.0
 40
1.0
 40
1.0
 40
1.0
 10
12.5554901427
 20
10.4125988862
 30
0.0
 10
12.5561838967
 20
10.4131675635
 30
0.0
 10
12.5588579564
 20
10.4154014775
 30
0.0
 10
12.5614469473
 20
10.4177380274
 30
0.0
 10
12.5633079004
 20
10.4195355701
 30
0.0
  0
SPLINE
  5
35E
100
AcDbEntity
  8
0
100
AcDbSpline
 62
7
  6
CONTINUOUS
 70
0
 71
3
 72
9
 73
5
 74
0
 42
0.0000001
 43
0.0000001
 44
0.0000000001
 40
0.0
 40
0.0
 40
0.0
 40
0.0
 40
0.2426666479
 40
1.0
 40
1.0
 40
1.0
 40
1.0
 10
12.569938167
 20
10.4265546069
 30
0.0
 10
12.5694305392
 20
10.4259608339
 30
0.0
 10
12.5673068434
 20
10.4235412494
 30
0.0
 10
12.565061435
 20
10.4212293546
 30
0.0
 10
12.5633079004
 20
10.4195355701
 30
0.0
  0
SPLINE
  5
35F
100
AcDbEntity
  8
0
100
AcDbSpline
 62
7
  6
CONTINUOUS
 70
0
 71
3
 72
9
 73
5
 74
0
 42
0.0000001
 43
0.0000001
 44
0.0000000001
 40
0.0
 40
0.0
 40
0.0
 40
0.0
 40
0.2575156145
 40
1.0
 40
1.0
 40
1.0
 40
1.0
 10
11.3385138801
 20
10.8888787653
 30
0.0
 10
11.3379176317
 20
10.8883028336
 30
0.0
 10
11.3356267443
 20
10.8860412365
 30
0.0
 10
11.3334367834
 20
10.8836764736
 30
0.0
 10
11.3318836134
 20
10.8818597285
 30
0.0
  0
SPLINE
  5
360
100
AcDbEntity
  8
0
100
AcDbSpline
 62
7
  6
CONTINUOUS
 70
0
 71
3
 72
9
 73
5
 74
0
 42
0.0000001
 43
0.0000001
 44
0.0000000001
 40
0.0
 40
0.0
 40
0.0
 40
0.0
 40
0.257447327
 40
1.0
 40
1.0
 40
1.0
 40
1.0
 10
11.3463316377
 20
10.8958154492
 30
0.0
 10
11.3456378837
 20
10.8952467719
 30
0.0
 10
11.342963824
 20
10.8930128579
 30
0.0
 10
11.3403748331
 20
10.890676308
 30
0.0
 10
11.3385138801
 20
10.8888787653
 30
0.0
  0
SPLINE
  5
361
100
AcDbEntity
  8
0
100
AcDbSpline
 62
7
  6
CONTINUOUS
 70
0
 71
3
 72
23
 73
19
 74
0
 42
0.0000001
 43
0.0000001
 44
0.0000000001
 40
0.0
 40
0.0
 40
0.0
 40
0.0
 40
0.0811307299
 40
0.1602255783
 40
0.2371393132
 40
0.31173057
 40
0.3838653696
 40
0.453421182
 40
0.5202897277
 40
0.5843905181
 40
0.6456688439
 40
0.7041127545
 40
0.7597461544
 40
0.8126463244
 40
0.8629314094
 40
0.910773146
 40
0.9563796915
 40
1.0
 40
1.0
 40
1.0
 40
1.0
 10
11.3318836134
 20
10.4974562872
 30
0.0
 10
11.334061145
 20
10.4931881543
 30
0.0
 10
11.338420263
 20
10.4847887372
 30
0.0
 10
11.3450677555
 20
10.472460898
 30
0.0
 10
11.3517444048
 20
10.4605898155
 30
0.0
 10
11.3584491218
 20
10.4492089619
 30
0.0
 10
11.3651810089
 20
10.4383520078
 30
0.0
 10
11.3719376758
 20
10.4280514596
 30
0.0
 10
11.3787175261
 20
10.4183390776
 30
0.0
 10
11.3855166947
 20
10.4092431717
 30
0.0
 10
11.3923329388
 20
10.4007897692
 30
0.0
 10
11.399161198
 20
10.3929989572
 30
0.0
 10
11.4059987386
 20
10.3858873848
 30
0.0
 10
11.4128398368
 20
10.379463734
 30
0.0
 10
11.4196813866
 20
10.3737328017
 30
0.0
 10
11.4265177755
 20
10.3686905152
 30
0.0
 10
11.433345065
 20
10.3643294632
 30
0.0
 10
11.4379821888
 20
10.3618143668
 30
0.0
 10
11.4402921244
 20
10.3606737982
 30
0.0
  0
SPLINE
  5
362
100
AcDbEntity
  8
0
100
AcDbSpline
 62
7
  6
CONTINUOUS
 70
0
 71
3
 72
23
 73
19
 74
0
 42
0.0000001
 43
0.0000001
 44
0.0000000001
 40
0.0
 40
0.0
 40
0.0
 40
0.0
 40
0.0811307299
 40
0.1602255783
 40
0.2371393132
 40
0.31173057
 40
0.3838653696
 40
0.453421182
 40
0.5202897277
 40
0.5843905181
 40
0.6456688439
 40
0.7041127545
 40
0.7597461544
 40
0.8126463244
 40
0.8629314094
 40
0.910773146
 40
0.9563796915
 40
1.0
 40
1.0
 40
1.0
 40
1.0
 10
12.569938167
 20
10.8109580482
 30
0.0
 10
12.5677606355
 20
10.8152261811
 30
0.0
 10
12.5634015174
 20
10.8236255982
 30
0.0
 10
12.5567540249
 20
10.8359534374
 30
0.0
 10
12.5500773756
 20
10.8478245199
 30
0.0
 10
12.5433726586
 20
10.8592053735
 30
0.0
 10
12.5366407715
 20
10.8700623276
 30
0.0
 10
12.5298841046
 20
10.8803628758
 30
0.0
 10
12.5231042543
 20
10.8900752578
 30
0.0
 10
12.5163050858
 20
10.8991711637
 30
0.0
 10
12.5094888416
 20
10.9076245662
 30
0.0
 10
12.5026605824
 20
10.9154153782
 30
0.0
 10
12.4958230419
 20
10.9225269506
 30
0.0
 10
12.4889819436
 20
10.9289506014
 30
0.0
 10
12.4821403938
 20
10.9346815337
 30
0.0
 10
12.4753040049
 20
10.9397238202
 30
0.0
 10
12.4684767154
 20
10.9440848722
 30
0.0
 10
12.4638395916
 20
10.9465999686
 30
0.0
 10
12.461529656
 20
10.9477405372
 30
0.0
  0
SPLINE
  5
363
100
AcDbEntity
  8
0
100
AcDbSpline
 62
7
  6
CONTINUOUS
 70
0
 71
3
 72
9
 73
5
 74
0
 42
0.0000001
 43
0.0000001
 44
0.0000000001
 40
0.0
 40
0.0
 40
0.0
 40
0.0
 40
0.4956216882
 40
1.0
 40
1.0
 40
1.0
 40
1.0
 10
12.4729866247
 20
10.3663333413
 30
0.0
 10
12.4870007619
 20
10.3732581834
 30
0.0
 10
12.514873557
 20
10.3880553776
 30
0.0
 10
12.5419863931
 20
10.4041900328
 30
0.0
 10
12.5554901427
 20
10.4125988862
 30
0.0
  0
SPLINE
  5
364
100
AcDbEntity
  8
0
100
AcDbSpline
 62
7
  6
CONTINUOUS
 70
0
 71
3
 72
9
 73
5
 74
0
 42
0.0000001
 43
0.0000001
 44
0.0000000001
 40
0.0
 40
0.0
 40
0.0
 40
0.0
 40
0.4956216882
 40
1.0
 40
1.0
 40
1.0
 40
1.0
 10
11.4288351557
 20
10.9420809941
 30
0.0
 10
11.4148210185
 20
10.935156152
 30
0.0
 10
11.3869482234
 20
10.9203589578
 30
0.0
 10
11.3598353873
 20
10.9042243026
 30
0.0
 10
11.3463316377
 20
10.8958154492
 30
0.0
  0
SPLINE
  5
365
100
AcDbEntity
  8
0
100
AcDbSpline
 62
7
  6
CONTINUOUS
 70
0
 71
3
 72
47
 73
43
 74
0
 42
0.0000001
 43
0.0000001
 44
0.0000000001
 40
0.0
 40
0.0
 40
0.0
 40
0.0
 40
0.0099875403
 40
0.0204477283
 40
0.031377153
 40
0.0427708365
 40
0.0546219042
 40
0.066922623
 40
0.0796642274
 40
0.0928364151
 40
0.1204273007
 40
0.1495986195
 40
0.1802409519
 40
0.2122340888
 40
0.2454492724
 40
0.2797501125
 40
0.3149932733
 40
0.3510301731
 40
0.3877075545
 40
0.424868394
 40
0.4623531211
 40
0.5000002041
 40
0.5376472772
 40
0.5751319828
 40
0.6122928115
 40
0.6489701916
 40
0.6850070832
 40
0.7202502161
 40
0.7545510164
 40
0.7877661686
 40
0.8197592835
 40
0.8504015909
 40
0.8795728653
 40
0.9071637058
 40
0.9203358718
 40
0.9330774483
 40
0.9453781298
 40
0.9572291666
 40
0.9686228485
 40
0.9795523166
 40
0.9900125362
 40
1.0
 40
1.0
 40
1.0
 40
1.0
 10
12.4425233973
 20
10.9571292869
 30
0.0
 10
12.4395328443
 20
10.9586065846
 30
0.0
 10
12.4333591231
 20
10.9615285052
 30
0.0
 10
12.4237569071
 20
10.9657279105
 30
0.0
 10
12.4136087351
 20
10.9698406944
 30
0.0
 10
12.4029262843
 20
10.9738618858
 30
0.0
 10
12.3917218849
 20
10.9777871936
 30
0.0
 10
12.3800083528
 20
10.98161192
 30
0.0
 10
12.367799066
 20
10.9853314893
 30
0.0
 10
12.3506112016
 20
10.9902210116
 30
0.0
 10
12.3279808476
 20
10.9960164796
 30
0.0
 10
12.299489528
 20
11.0023851423
 30
0.0
 10
12.2693894451
 20
11.0082406519
 30
0.0
 10
12.2378194097
 20
11.0135559778
 30
0.0
 10
12.2049247184
 20
11.0183061208
 30
0.0
 10
12.1708570321
 20
11.0224686382
 30
0.0
 10
12.1357735466
 20
11.0260243517
 30
0.0
 10
12.0998362119
 20
11.0289565051
 30
0.0
 10
12.0632109431
 20
11.0312512737
 30
0.0
 10
12.0260668987
 20
11.0328982044
 30
0.0
 10
11.9885756602
 20
11.0338894243
 30
0.0
 10
11.9509104127
 20
11.0342202642
 30
0.0
 10
11.9132451724
 20
11.0338894076
 30
0.0
 10
11.8757539485
 20
11.0328981716
 30
0.0
 10
11.838609916
 20
11.0312512242
 30
0.0
 10
11.801984655
 20
11.0289564395
 30
0.0
 10
11.7660473342
 20
11.0260242692
 30
0.0
 10
11.7309638756
 20
11.0224685412
 30
0.0
 10
11.6968962246
 20
11.018306009
 30
0.0
 10
11.6640015666
 20
11.0135558527
 30
0.0
 10
11.6324315603
 20
11.008240511
 30
0.0
 10
11.6023315114
 20
11.0023849871
 30
0.0
 10
11.573840233
 20
10.9960163148
 30
0.0
 10
11.5512099208
 20
10.9902208333
 30
0.0
 10
11.5340220919
 20
10.9853313015
 30
0.0
 10
11.521812836
 20
10.9816117307
 30
0.0
 10
11.5100993353
 20
10.9777870116
 30
0.0
 10
11.4988949597
 20
10.9738617064
 30
0.0
 10
11.4882125117
 20
10.9698404966
 30
0.0
 10
11.4780643336
 20
10.9657276619
 30
0.0
 10
11.4684621352
 20
10.9615282182
 30
0.0
 10
11.4622884288
 20
10.9586063024
 30
0.0
 10
11.4592978944
 20
10.9571290246
 30
0.0
  0
SPLINE
  5
366
100
AcDbEntity
  8
0
100
AcDbSpline
 62
7
  6
CONTINUOUS
 70
0
 71
3
 72
71
 73
67
 74
0
 42
0.0000001
 43
0.0000001
 44
0.0000000001
 40
0.0
 40
0.0
 40
0.0
 40
0.0
 40
0.0078484594
 40
0.0115252914
 40
0.0150503909
 40
0.0216951607
 40
0.0248528477
 40
0.0279249671
 40
0.0309332128
 40
0.0339008246
 40
0.0368520407
 40
0.0398115072
 40
0.0428036737
 40
0.0458521687
 40
0.0489791618
 40
0.0522050193
 40
0.0590205121
 40
0.0626448601
 40
0.0664289451
 40
0.0703831065
 40
0.0745161228
 40
0.0788351457
 40
0.0833459416
 40
0.0929593076
 40
0.1033847624
 40
0.1146355341
 40
0.1267157161
 40
0.1396206445
 40
0.1533400256
 40
0.1678573778
 40
0.1831523725
 40
0.1992001058
 40
0.2159727113
 40
0.2334389021
 40
0.251564872
 40
0.2703142876
 40
0.2896485529
 40
0.3095272434
 40
0.3299078824
 40
0.3507467036
 40
0.3719981359
 40
0.4155504597
 40
0.460180434
 40
0.5054896846
 40
0.5510718591
 40
0.5965174611
 40
0.6414185988
 40
0.6853737051
 40
0.7279923619
 40
0.7689002583
 40
0.7886021453
 40
0.8077458129
 40
0.8262916544
 40
0.8442015475
 40
0.8614402254
 40
0.8779744598
 40
0.8937742734
 40
0.9088125479
 40
0.9230660027
 40
0.9365154872
 40
0.9491464372
 40
0.9609501077
 40
0.9719246022
 40
0.9820778352
 40
0.9914268056
 40
1.0
 40
1.0
 40
1.0
 40
1.0
 10
11.4148220249
 20
10.9276433054
 30
0.0
 10
11.4125739284
 20
10.9254718108
 30
0.0
 10
11.4094166985
 20
10.9221242003
 30
0.0
 10
11.4057072878
 20
10.9174118055
 30
0.0
 10
11.4025775192
 20
10.9128687311
 30
0.0
 10
11.4000155432
 20
10.9081932712
 30
0.0
 10
11.3981179982
 20
10.9034246335
 30
0.0
 10
11.397052672
 20
10.8998981955
 30
0.0
 10
11.3963230741
 20
10.89636444
 30
0.0
 10
11.3959300342
 20
10.8928258076
 30
0.0
 10
11.3958738545
 20
10.8892852121
 30
0.0
 10
11.3961546095
 20
10.8857455503
 30
0.0
 10
11.3967721428
 20
10.8822097084
 30
0.0
 10
11.3977258161
 20
10.8786805433
 30
0.0
 10
11.3990141901
 20
10.8751602975
 30
0.0
 10
11.4012159946
 20
10.8703954183
 30
0.0
 10
11.4040719924
 20
10.8657368152
 30
0.0
 10
11.4074843886
 20
10.8612128797
 30
0.0
 10
11.4104232365
 20
10.8577682722
 30
0.0
 10
11.4136866074
 20
10.8543447116
 30
0.0
 10
11.4172730274
 20
10.8509436742
 30
0.0
 10
11.4211801565
 20
10.8475670171
 30
0.0
 10
11.426936887
 20
10.8430025819
 30
0.0
 10
11.4349514566
 20
10.837387082
 30
0.0
 10
11.4456077419
 20
10.8309146134
 30
0.0
 10
11.4574744775
 20
10.8245848432
 30
0.0
 10
11.4705242337
 20
10.8184133647
 30
0.0
 10
11.4847267046
 20
10.8124135638
 30
0.0
 10
11.5000487907
 20
10.8066006483
 30
0.0
 10
11.5164541569
 20
10.800987725
 30
0.0
 10
11.5339039687
 20
10.7955890845
 30
0.0
 10
11.552356542
 20
10.7904171804
 30
0.0
 10
11.5717678205
 20
10.78548504
 30
0.0
 10
11.5920912728
 20
10.7808042855
 30
0.0
 10
11.613278173
 20
10.7763864865
 30
0.0
 10
11.6352776366
 20
10.7722422898
 30
0.0
 10
11.6580368179
 20
10.7683817008
 30
0.0
 10
11.6815009933
 20
10.7648142466
 30
0.0
 10
11.7056137339
 20
10.761548326
 30
0.0
 10
11.7303170554
 20
10.758592148
 30
0.0
 10
11.7642395711
 20
10.7550439513
 30
0.0
 10
11.8076785135
 20
10.751449571
 30
0.0
 10
11.860764414
 20
10.7484958373
 30
0.0
 10
11.9147171074
 20
10.7468967168
 30
0.0
 10
11.9690176489
 20
10.746667772
 30
0.0
 10
12.0231441467
 20
10.7478112853
 30
0.0
 10
12.076576256
 20
10.7503160262
 30
0.0
 10
12.1288006454
 20
10.7541573448
 30
0.0
 10
12.1793152257
 20
10.7592975932
 30
0.0
 10
12.2200781202
 20
10.7646863727
 30
0.0
 10
12.2514526098
 20
10.7696363854
 30
0.0
 10
12.2739645716
 20
10.7735927628
 30
0.0
 10
12.295698949
 20
10.7778291752
 30
0.0
 10
12.3166035744
 20
10.7823359774
 30
0.0
 10
12.3366282661
 20
10.7871017075
 30
0.0
 10
12.3557250088
 20
10.7921152337
 30
0.0
 10
12.3738480923
 20
10.7973640604
 30
0.0
 10
12.3909542321
 20
10.8028356509
 30
0.0
 10
12.4070027055
 20
10.808516731
 30
0.0
 10
12.421955496
 20
10.8143935544
 30
0.0
 10
12.4357772053
 20
10.8204522516
 30
0.0
 10
12.4484357457
 20
10.8266778999
 30
0.0
 10
12.4599018631
 20
10.8330567809
 30
0.0
 10
12.4701503541
 20
10.8395746752
 30
0.0
 10
12.4791559924
 20
10.846217027
 30
0.0
 10
12.4845440675
 20
10.8509155145
 30
0.0
 10
12.4869997556
 20
10.8532875272
 30
0.0
  0
SPLINE
  5
367
100
AcDbEntity
  8
0
100
AcDbSpline
 62
7
  6
CONTINUOUS
 70
0
 71
3
 72
28
 73
24
 74
0
 42
0.0000001
 43
0.0000001
 44
0.0000000001
 40
0.0
 40
0.0
 40
0.0
 40
0.0
 40
0.0679119338
 40
0.1310059334
 40
0.1898300509
 40
0.2451128907
 40
0.2717244024
 40
0.2978088965
 40
0.3235052839
 40
0.3489593586
 40
0.3743211516
 40
0.3997423533
 40
0.4253736392
 40
0.4513619957
 40
0.5049275163
 40
0.5614895859
 40
0.5911783875
 40
0.6219180812
 40
0.6868326907
 40
0.7567711825
 40
0.8321139397
 40
0.9131283559
 40
1.0
 40
1.0
 40
1.0
 40
1.0
 10
12.4869997556
 20
10.8532875272
 30
0.0
 10
12.4889143919
 20
10.855136924
 30
0.0
 10
12.4924683814
 20
10.8588543068
 30
0.0
 10
12.4970795667
 20
10.8647105685
 30
0.0
 10
12.5007533197
 20
10.8706239962
 30
0.0
 10
12.5030518675
 20
10.8756586448
 30
0.0
 10
12.5043841896
 20
10.8796794845
 30
0.0
 10
12.5051316808
 20
10.8826630887
 30
0.0
 10
12.5056389785
 20
10.8856508148
 30
0.0
 10
12.5059059132
 20
10.8886411936
 30
0.0
 10
12.5059323403
 20
10.8916325947
 30
0.0
 10
12.5057182563
 20
10.8946233585
 30
0.0
 10
12.5052636482
 20
10.8976119903
 30
0.0
 10
12.504328165
 20
10.9016311158
 30
0.0
 10
12.5025278133
 20
10.9066751018
 30
0.0
 10
12.4999896038
 20
10.9115498988
 30
0.0
 10
12.4975163586
 20
10.9154138749
 30
0.0
 10
12.4946366191
 20
10.9193975136
 30
0.0
 10
12.4904172124
 20
10.9243449624
 30
0.0
 10
12.4845192711
 20
10.9301111442
 30
0.0
 10
12.4777071619
 20
10.9358046001
 30
0.0
 10
12.4699932072
 20
10.9414174613
 30
0.0
 10
12.4644521886
 20
10.9449745252
 30
0.0
 10
12.4615423514
 20
10.9467431008
 30
0.0
  0
SPLINE
  5
368
100
AcDbEntity
  8
0
100
AcDbSpline
 62
7
  6
CONTINUOUS
 70
0
 71
3
 72
9
 73
5
 74
0
 42
0.0000001
 43
0.0000001
 44
0.0000000001
 40
0.0
 40
0.0
 40
0.0
 40
0.0
 40
0.4848355238
 40
1.0
 40
1.0
 40
1.0
 40
1.0
 10
12.4615423514
 20
10.9467431008
 30
0.0
 10
12.4585489146
 20
10.9485624875
 30
0.0
 10
12.4522792618
 20
10.9521592096
 30
0.0
 10
12.4458605344
 20
10.9554807809
 30
0.0
 10
12.4425233973
 20
10.9571292869
 30
0.0
  0
SPLINE
  5
369
100
AcDbEntity
  8
0
100
AcDbSpline
 62
7
  6
CONTINUOUS
 70
0
 71
3
 72
47
 73
43
 74
0
 42
0.0000001
 43
0.0000001
 44
0.0000000001
 40
0.0
 40
0.0
 40
0.0
 40
0.0
 40
0.0099876626
 40
0.0204479669
 40
0.0313775025
 40
0.04277129
 40
0.0546224513
 40
0.0669232498
 40
0.0796649191
 40
0.0928371598
 40
0.1204281281
 40
0.1495995024
 40
0.1802418577
 40
0.2122349738
 40
0.2454500995
 40
0.2797508632
 40
0.3149939248
 40
0.3510306998
 40
0.3877079389
 40
0.4248686282
 40
0.4623531991
 40
0.5000001113
 40
0.5376470156
 40
0.5751315709
 40
0.6122922601
 40
0.6489695026
 40
0.6850062626
 40
0.720249304
 40
0.754550053
 40
0.7877651694
 40
0.8197582656
 40
0.8504005906
 40
0.8795719424
 40
0.907162899
 40
0.9203351314
 40
0.9330767818
 40
0.9453775464
 40
0.9572286765
 40
0.9686224633
 40
0.979552049
 40
0.990012398
 40
1.0
 40
1.0
 40
1.0
 40
1.0
 10
11.4743598415
 20
10.3438449761
 30
0.0
 10
11.4772588236
 20
10.3424129561
 30
0.0
 10
11.4832434975
 20
10.3395805891
 30
0.0
 10
11.4925516674
 20
10.3355098886
 30
0.0
 10
11.5023890572
 20
10.3315231556
 30
0.0
 10
11.5127443464
 20
10.3276252085
 30
0.0
 10
11.5236055802
 20
10.3238202074
 30
0.0
 10
11.5349603333
 20
10.3201127067
 30
0.0
 10
11.5467956372
 20
10.316507142
 30
0.0
 10
11.563456992
 20
10.3117674874
 30
0.0
 10
11.5853940887
 20
10.3061496551
 30
0.0
 10
11.6130125732
 20
10.2999761946
 30
0.0
 10
11.6421904948
 20
10.2943001616
 30
0.0
 10
11.6727932928
 20
10.2891477563
 30
0.0
 10
11.7046801274
 20
10.2845432125
 30
0.0
 10
11.7377039912
 20
10.2805082829
 30
0.0
 10
11.771712509
 20
10.2770615574
 30
0.0
 10
11.8065486932
 20
10.2742192793
 30
0.0
 10
11.842051717
 20
10.2719948485
 30
0.0
 10
11.8780576115
 20
10.2703983979
 30
0.0
 10
11.9144000529
 20
10.2694375587
 30
0.0
 10
11.9509111659
 20
10.2691168563
 30
0.0
 10
11.9874222738
 20
10.2694375683
 30
0.0
 10
12.0237647074
 20
10.2703984166
 30
0.0
 10
12.0597705974
 20
10.2719948776
 30
0.0
 10
12.0952736168
 20
10.2742193172
 30
0.0
 10
12.1301097899
 20
10.2770616047
 30
0.0
 10
12.1641182907
 20
10.2805083389
 30
0.0
 10
12.1971421391
 20
10.2845432771
 30
0.0
 10
12.229028958
 20
10.28914783
 30
0.0
 10
12.2596317351
 20
10.2943002428
 30
0.0
 10
12.2888096312
 20
10.2999762838
 30
0.0
 10
12.3164280933
 20
10.3061497489
 30
0.0
 10
12.3383651731
 20
10.3117675921
 30
0.0
 10
12.3550265123
 20
10.3165072555
 30
0.0
 10
12.3668617957
 20
10.3201128194
 30
0.0
 10
12.3782165237
 20
10.323820309
 30
0.0
 10
12.3890777375
 20
10.327625303
 30
0.0
 10
12.3994330279
 20
10.331523264
 30
0.0
 10
12.4092704317
 20
10.3355100443
 30
0.0
 10
12.4185785978
 20
10.3395807808
 30
0.0
 10
12.4245632678
 20
10.342413143
 30
0.0
 10
12.4274622374
 20
10.3438451439
 30
0.0
  0
SPLINE
  5
36A
100
AcDbEntity
  8
0
100
AcDbSpline
 62
7
  6
CONTINUOUS
 70
0
 71
3
 72
15
 73
11
 74
0
 42
0.0000001
 43
0.0000001
 44
0.0000000001
 40
0.0
 40
0.0
 40
0.0
 40
0.0
 40
0.1343380542
 40
0.2648697481
 40
0.3921893739
 40
0.5168787269
 40
0.6395034772
 40
0.7605881804
 40
0.8806115565
 40
1.0
 40
1.0
 40
1.0
 40
1.0
 10
11.4402921244
 20
10.3606737982
 30
0.0
 10
11.4420783991
 20
10.3597917958
 30
0.0
 10
11.4456530471
 20
10.358156925
 30
0.0
 10
11.4510850242
 20
10.3560686152
 30
0.0
 10
11.4565012111
 20
10.3543686874
 30
0.0
 10
11.4619000481
 20
10.3530426683
 30
0.0
 10
11.4672802335
 20
10.352074092
 30
0.0
 10
11.4726409441
 20
10.3514465468
 30
0.0
 10
11.4779812534
 20
10.3511433147
 30
0.0
 10
11.4815337916
 20
10.3511461464
 30
0.0
 10
11.4833035529
 20
10.3511961071
 30
0.0
  0
SPLINE
  5
36B
100
AcDbEntity
  8
0
100
AcDbSpline
 62
7
  6
CONTINUOUS
 70
0
 71
3
 72
11
 73
7
 74
0
 42
0.0000001
 43
0.0000001
 44
0.0000000001
 40
0.0
 40
0.0
 40
0.0
 40
0.0
 40
0.2690760955
 40
0.5253706249
 40
0.7689657929
 40
1.0
 40
1.0
 40
1.0
 40
1.0
 10
11.4592978944
 20
10.9571290246
 30
0.0
 10
11.4565780832
 20
10.9557854799
 30
0.0
 10
11.4513072269
 20
10.9530808909
 30
0.0
 10
11.4437329802
 20
10.948859539
 30
0.0
 10
11.4366905293
 20
10.9445767546
 30
0.0
 10
11.4322379745
 20
10.9416051785
 30
0.0
 10
11.4301069675
 20
10.9401074645
 30
0.0
  0
SPLINE
  5
36C
100
AcDbEntity
  8
0
100
AcDbSpline
 62
7
  6
CONTINUOUS
 70
0
 71
3
 72
9
 73
5
 74
0
 42
0.0000001
 43
0.0000001
 44
0.0000000001
 40
0.0
 40
0.0
 40
0.0
 40
0.0
 40
0.5201382929
 40
1.0
 40
1.0
 40
1.0
 40
1.0
 10
11.4301069675
 20
10.9401074645
 30
0.0
 10
11.4273072141
 20
10.9381397423
 30
0.0
 10
11.422041766
 20
10.9341854115
 30
0.0
 10
11.4170927708
 20
10.9298366776
 30
0.0
 10
11.4148220249
 20
10.9276433054
 30
0.0
  0
SPLINE
  5
36D
100
AcDbEntity
  8
0
100
AcDbSpline
 62
7
  6
CONTINUOUS
 70
0
 71
3
 72
9
 73
5
 74
0
 42
0.0000001
 43
0.0000001
 44
0.0000000001
 40
0.0
 40
0.0
 40
0.0
 40
0.0
 40
0.257447327
 40
1.0
 40
1.0
 40
1.0
 40
1.0
 10
12.5554901427
 20
10.7970023275
 30
0.0
 10
12.5561838967
 20
10.7975710048
 30
0.0
 10
12.5588579564
 20
10.7998049188
 30
0.0
 10
12.5614469473
 20
10.8021414687
 30
0.0
 10
12.5633079004
 20
10.8039390115
 30
0.0
  0
SPLINE
  5
36E
100
AcDbEntity
  8
0
100
AcDbSpline
 62
7
  6
CONTINUOUS
 70
0
 71
3
 72
9
 73
5
 74
0
 42
0.0000001
 43
0.0000001
 44
0.0000000001
 40
0.0
 40
0.0
 40
0.0
 40
0.0
 40
0.2575156145
 40
1.0
 40
1.0
 40
1.0
 40
1.0
 10
12.5633079004
 20
10.8039390115
 30
0.0
 10
12.5639041487
 20
10.8045149431
 30
0.0
 10
12.5661950361
 20
10.8067765402
 30
0.0
 10
12.5683849971
 20
10.8091413031
 30
0.0
 10
12.569938167
 20
10.8109580482
 30
0.0
  0
SPLINE
  5
36F
100
AcDbEntity
  8
0
100
AcDbSpline
 62
7
  6
CONTINUOUS
 70
0
 71
3
 72
24
 73
20
 74
0
 42
0.0000001
 43
0.0000001
 44
0.0000000001
 40
0.0
 40
0.0
 40
0.0
 40
0.0
 40
0.0419302179
 40
0.0844451594
 40
0.1280621253
 40
0.1733763194
 40
0.2210177514
 40
0.2716032397
 40
0.3256875781
 40
0.3837158672
 40
0.445996209
 40
0.4787925034
 40
0.5127003789
 40
0.5838373755
 40
0.6593156769
 40
0.7389447311
 40
0.8224675479
 40
0.9095906558
 40
1.0
 40
1.0
 40
1.0
 40
1.0
 10
11.3318836134
 20
10.8818597285
 30
0.0
 10
11.3349802061
 20
10.8819471459
 30
0.0
 10
11.3412299763
 20
10.8818230624
 30
0.0
 10
11.3506360825
 20
10.8806527803
 30
0.0
 10
11.3601045718
 20
10.8784065631
 30
0.0
 10
11.3696231756
 20
10.8749980752
 30
0.0
 10
11.3791787508
 20
10.8703529919
 30
0.0
 10
11.3887575763
 20
10.8644131261
 30
0.0
 10
11.3983462948
 20
10.8571382188
 30
0.0
 10
11.4079328204
 20
10.8485105085
 30
0.0
 10
11.4157720229
 20
10.8403431963
 30
0.0
 10
11.4220445886
 20
10.8331678849
 30
0.0
 10
11.4285214941
 20
10.8253074679
 30
0.0
 10
11.436577349
 20
10.8146704627
 30
0.0
 10
11.4460562282
 20
10.8008974115
 30
0.0
 10
11.4554882571
 20
10.7859981249
 30
0.0
 10
11.4648685378
 20
10.7700605257
 30
0.0
 10
11.4741940374
 20
10.7531757553
 30
0.0
 10
11.4802680194
 20
10.7415494323
 30
0.0
 10
11.4833035529
 20
10.7355995484
 30
0.0
  0
SPLINE
  5
370
100
AcDbEntity
  8
0
100
AcDbSpline
 62
7
  6
CONTINUOUS
 70
0
 71
3
 72
21
 73
17
 74
0
 42
0.0000001
 43
0.0000001
 44
0.0000000001
 40
0.0
 40
0.0
 40
0.0
 40
0.0
 40
0.1230212981
 40
0.1847065752
 40
0.2465215318
 40
0.3084771567
 40
0.3705832678
 40
0.432847904
 40
0.4952752623
 40
0.5578663069
 40
0.6206183946
 40
0.6835249868
 40
0.7465773451
 40
0.8097643485
 40
0.8730733734
 40
1.0
 40
1.0
 40
1.0
 40
1.0
 10
11.5227763308
 20
10.7253832547
 30
0.0
 10
11.5458555118
 20
10.7299306108
 30
0.0
 10
11.5806879533
 20
10.7359030172
 30
0.0
 10
11.6274591683
 20
10.7418131646
 30
0.0
 10
11.6627704769
 20
10.7451403786
 30
0.0
 10
11.6982549197
 20
10.7472747862
 30
0.0
 10
11.7338796407
 20
10.7481455225
 30
0.0
 10
11.7696028522
 20
10.7476966273
 30
0.0
 10
11.8053764739
 20
10.7458946286
 30
0.0
 10
11.8411490001
 20
10.7427313427
 30
0.0
 10
11.8768689401
 20
10.7382223921
 30
0.0
 10
11.9124885534
 20
10.7324081503
 30
0.0
 10
11.947966693
 20
10.7253504362
 30
0.0
 10
11.9832708837
 20
10.7171247465
 30
0.0
 10
12.0301148099
 20
10.7047051945
 30
0.0
 10
12.0648752196
 20
10.6939174001
 30
0.0
 10
12.0878828054
 20
10.6861929876
 30
0.0
  0
SPLINE
  5
371
100
AcDbEntity
  8
0
100
AcDbSpline
 62
7
  6
CONTINUOUS
 70
0
 71
3
 72
21
 73
17
 74
0
 42
0.0000001
 43
0.0000001
 44
0.0000000001
 40
0.0
 40
0.0
 40
0.0
 40
0.0
 40
0.1269266266
 40
0.1902356515
 40
0.253422655
 40
0.3164750132
 40
0.3793816055
 40
0.4421336932
 40
0.5047247377
 40
0.567152096
 40
0.6294167323
 40
0.6915228434
 40
0.7534784683
 40
0.8152934248
 40
0.8769787019
 40
1.0
 40
1.0
 40
1.0
 40
1.0
 10
11.5227763308
 20
10.3409798134
 30
0.0
 10
11.5457839166
 20
10.3332554008
 30
0.0
 10
11.5805443263
 20
10.3224676065
 30
0.0
 10
11.6273882524
 20
10.3100480544
 30
0.0
 10
11.6626924432
 20
10.3018223647
 30
0.0
 10
11.6981705827
 20
10.2947646507
 30
0.0
 10
11.7337901961
 20
10.2889504089
 30
0.0
 10
11.769510136
 20
10.2844414583
 30
0.0
 10
11.8052826622
 20
10.2812781724
 30
0.0
 10
11.8410562839
 20
10.2794761736
 30
0.0
 10
11.8767794954
 20
10.2790272784
 30
0.0
 10
11.9124042164
 20
10.2798980148
 30
0.0
 10
11.9478886592
 20
10.2820324224
 30
0.0
 10
11.9831999679
 20
10.2853596364
 30
0.0
 10
12.0299711828
 20
10.2912697837
 30
0.0
 10
12.0648036243
 20
10.2972421901
 30
0.0
 10
12.0878828054
 20
10.3017895463
 30
0.0
  0
SPLINE
  5
372
100
AcDbEntity
  8
0
100
AcDbSpline
 62
7
  6
CONTINUOUS
 70
0
 71
3
 72
23
 73
19
 74
0
 42
0.0000001
 43
0.0000001
 44
0.0000000001
 40
0.0
 40
0.0
 40
0.0
 40
0.0
 40
0.0679978533
 40
0.1353018631
 40
0.2018554099
 40
0.2676132346
 40
0.3325395022
 40
0.3966151177
 40
0.4598412047
 40
0.5222412155
 40
0.5838618231
 40
0.6447690144
 40
0.705043352
 40
0.7647745608
 40
0.8240532209
 40
0.8829657265
 40
0.9415926228
 40
1.0
 40
1.0
 40
1.0
 40
1.0
 10
12.1418036076
 20
10.6899324145
 30
0.0
 10
12.1501973963
 20
10.6951592693
 30
0.0
 10
12.1670307971
 20
10.7053507334
 30
0.0
 10
12.1925643469
 20
10.7198392003
 30
0.0
 10
12.2182547869
 20
10.7333642548
 30
0.0
 10
12.244091871
 20
10.7458331322
 30
0.0
 10
12.2700593974
 20
10.7571572553
 30
0.0
 10
12.2961340025
 20
10.7672568812
 30
0.0
 10
12.3222864774
 20
10.7760649412
 30
0.0
 10
12.3484819602
 20
10.7835345383
 30
0.0
 10
12.3746821626
 20
10.7896429335
 30
0.0
 10
12.4008485719
 20
10.7943913057
 30
0.0
 10
12.4269446233
 20
10.7978066987
 30
0.0
 10
12.452938313
 20
10.7999397253
 30
0.0
 10
12.4788040901
 20
10.8008574045
 30
0.0
 10
12.5045236262
 20
10.8006397827
 30
0.0
 10
12.5300846686
 20
10.7993746478
 30
0.0
 10
12.5470431136
 20
10.797889833
 30
0.0
 10
12.5554901427
 20
10.7970023275
 30
0.0
  0
SPLINE
  5
373
100
AcDbEntity
  8
0
100
AcDbSpline
 62
7
  6
CONTINUOUS
 70
0
 71
3
 72
21
 73
17
 74
0
 42
0.0000001
 43
0.0000001
 44
0.0000000001
 40
0.0
 40
0.0
 40
0.0
 40
0.0
 40
0.119195178
 40
0.1790929876
 40
0.2392477604
 40
0.2997138873
 40
0.3605475878
 40
0.4218079674
 40
0.4835540028
 40
0.5458413627
 40
0.6087209795
 40
0.672234225
 40
0.7364135972
 40
0.8012786058
 40
0.866837945
 40
1.0
 40
1.0
 40
1.0
 40
1.0
 10
12.1418036076
 20
10.3055289732
 30
0.0
 10
12.1553029274
 20
10.3041106378
 30
0.0
 10
12.1756531518
 20
10.3025420561
 30
0.0
 10
12.2028899673
 20
10.3017413048
 30
0.0
 10
12.2234510956
 20
10.3018290712
 30
0.0
 10
12.2441028186
 20
10.3026499367
 30
0.0
 10
12.2648360166
 20
10.3042441284
 30
0.0
 10
12.2856382154
 20
10.3066464629
 30
0.0
 10
12.3064942747
 20
10.3098863263
 30
0.0
 10
12.3273873082
 20
10.3139821062
 30
0.0
 10
12.3482979929
 20
10.3189465163
 30
0.0
 10
12.3692075363
 20
10.3247769993
 30
0.0
 10
12.3900956422
 20
10.331465919
 30
0.0
 10
12.4109451085
 20
10.3389910154
 30
0.0
 10
12.4388111427
 20
10.3501597433
 30
0.0
 10
12.4593916526
 20
10.3596156224
 30
0.0
 10
12.4729866247
 20
10.3663333413
 30
0.0
  0
SPLINE
  5
374
100
AcDbEntity
  8
0
100
AcDbSpline
 62
7
  6
CONTINUOUS
 70
0
 71
3
 72
44
 73
40
 74
0
 42
0.0000001
 43
0.0000001
 44
0.0000000001
 40
0.0
 40
0.0
 40
0.0
 40
0.0
 40
0.0840364397
 40
0.169504805
 40
0.2553475721
 40
0.3404999409
 40
0.3824882716
 40
0.4239107206
 40
0.4646400635
 40
0.5045518968
 40
0.5435251936
 40
0.5814428515
 40
0.6181922748
 40
0.6536659929
 40
0.6877623696
 40
0.7203863526
 40
0.7514502821
 40
0.7808748745
 40
0.8085904264
 40
0.834538383
 40
0.8586733676
 40
0.870052024
 40
0.8809678501
 40
0.8914203887
 40
0.9014106032
 40
0.9109412427
 40
0.9200172548
 40
0.9286457505
 40
0.9368368615
 40
0.9446038293
 40
0.9519637378
 40
0.9589382313
 40
0.965553926
 40
0.9718434876
 40
0.9778459264
 40
0.9836071464
 40
0.9891799005
 40
0.9946229937
 40
1.0
 40
1.0
 40
1.0
 40
1.0
 10
11.9757680013
 20
6.2708283068
 30
0.0
 10
11.9757680013
 20
6.2784467663
 30
0.0
 10
11.9760070769
 20
6.2938143737
 30
0.0
 10
11.9770445524
 20
6.3169431249
 30
0.0
 10
11.9787520145
 20
6.3401336019
 30
0.0
 10
11.9807233497
 20
6.3593440818
 30
0.0
 10
11.9826226238
 20
6.3745074483
 30
0.0
 10
11.9841912363
 20
6.3856521883
 30
0.0
 10
11.985905307
 20
6.3965849768
 30
0.0
 10
11.9877591648
 20
6.4072696863
 30
0.0
 10
11.9897466349
 20
6.4176709883
 30
0.0
 10
11.9918611063
 20
6.4277545097
 30
0.0
 10
11.9940955402
 20
6.4374869365
 30
0.0
 10
11.9964424982
 20
6.4468361318
 30
0.0
 10
11.9988941591
 20
6.4557712532
 30
0.0
 10
12.0014423452
 20
6.4642628617
 30
0.0
 10
12.0040785597
 20
6.4722830317
 30
0.0
 10
12.0067940136
 20
6.4798054297
 30
0.0
 10
12.0095796725
 20
6.4868055097
 30
0.0
 10
12.0124262824
 20
6.493260338
 30
0.0
 10
12.0148874542
 20
6.4982616167
 30
0.0
 10
12.0168861571
 20
6.5019664156
 30
0.0
 10
12.018365073
 20
6.5045410034
 30
0.0
 10
12.019852159
 20
6.5069644095
 30
0.0
 10
12.0213462445
 20
6.5092346647
 30
0.0
 10
12.0228461423
 20
6.5113499192
 30
0.0
 10
12.0243506114
 20
6.5133084985
 30
0.0
 10
12.0258585335
 20
6.5151087926
 30
0.0
 10
12.027368702
 20
6.5167493896
 30
0.0
 10
12.0288800089
 20
6.5182289578
 30
0.0
 10
12.0303913774
 20
6.5195462654
 30
0.0
 10
12.0319017052
 20
6.5207002471
 30
0.0
 10
12.0334100307
 20
6.5216897832
 30
0.0
 10
12.0349152918
 20
6.5225139294
 30
0.0
 10
12.0364164838
 20
6.5231716608
 30
0.0
 10
12.0379124552
 20
6.5236619674
 30
0.0
 10
12.0394019488
 20
6.5239839804
 30
0.0
 10
12.0408831835
 20
6.5241368106
 30
0.0
 10
12.0418665919
 20
6.5241255657
 30
0.0
 10
12.0423528847
 20
6.5240918355
 30
0.0
  0
SPLINE
  5
375
100
AcDbEntity
  8
0
100
AcDbSpline
 62
7
  6
CONTINUOUS
 70
0
 71
3
 72
44
 73
40
 74
0
 42
0.0000001
 43
0.0000001
 44
0.0000000001
 40
0.0
 40
0.0
 40
0.0
 40
0.0
 40
0.0840364397
 40
0.169504805
 40
0.2553475721
 40
0.3404999409
 40
0.3824882716
 40
0.4239107206
 40
0.4646400635
 40
0.5045518968
 40
0.5435251936
 40
0.5814428515
 40
0.6181922748
 40
0.6536659929
 40
0.6877623696
 40
0.7203863526
 40
0.7514502821
 40
0.7808748745
 40
0.8085904264
 40
0.834538383
 40
0.8586733676
 40
0.870052024
 40
0.8809678501
 40
0.8914203887
 40
0.9014106032
 40
0.9109412427
 40
0.9200172548
 40
0.9286457505
 40
0.9368368615
 40
0.9446038293
 40
0.9519637378
 40
0.9589382313
 40
0.965553926
 40
0.9718434876
 40
0.9778459264
 40
0.9836071464
 40
0.9891799005
 40
0.9946229937
 40
1.0
 40
1.0
 40
1.0
 40
1.0
 10
12.8169292037
 20
7.0833276844
 30
0.0
 10
12.8169292037
 20
7.0909461439
 30
0.0
 10
12.8171682793
 20
7.1063137513
 30
0.0
 10
12.8182057547
 20
7.1294425025
 30
0.0
 10
12.8199132169
 20
7.1526329795
 30
0.0
 10
12.8218845521
 20
7.1718434594
 30
0.0
 10
12.8237838262
 20
7.1870068259
 30
0.0
 10
12.8253524387
 20
7.1981515659
 30
0.0
 10
12.8270665094
 20
7.2090843544
 30
0.0
 10
12.8289203672
 20
7.2197690639
 30
0.0
 10
12.8309078373
 20
7.2301703659
 30
0.0
 10
12.8330223087
 20
7.2402538873
 30
0.0
 10
12.8352567426
 20
7.2499863141
 30
0.0
 10
12.8376037006
 20
7.2593355094
 30
0.0
 10
12.8400553614
 20
7.2682706308
 30
0.0
 10
12.8426035476
 20
7.2767622393
 30
0.0
 10
12.8452397621
 20
7.2847824093
 30
0.0
 10
12.847955216
 20
7.2923048073
 30
0.0
 10
12.8507408749
 20
7.2993048873
 30
0.0
 10
12.8535874848
 20
7.3057597156
 30
0.0
 10
12.8560486566
 20
7.3107609943
 30
0.0
 10
12.8580473595
 20
7.3144657932
 30
0.0
 10
12.8595262754
 20
7.317040381
 30
0.0
 10
12.8610133614
 20
7.3194637871
 30
0.0
 10
12.8625074469
 20
7.3217340423
 30
0.0
 10
12.8640073447
 20
7.3238492968
 30
0.0
 10
12.8655118138
 20
7.3258078761
 30
0.0
 10
12.8670197359
 20
7.3276081702
 30
0.0
 10
12.8685299044
 20
7.3292487672
 30
0.0
 10
12.8700412113
 20
7.3307283354
 30
0.0
 10
12.8715525798
 20
7.332045643
 30
0.0
 10
12.8730629076
 20
7.3331996247
 30
0.0
 10
12.8745712331
 20
7.3341891608
 30
0.0
 10
12.8760764942
 20
7.335013307
 30
0.0
 10
12.8775776862
 20
7.3356710384
 30
0.0
 10
12.8790736576
 20
7.336161345
 30
0.0
 10
12.8805631512
 20
7.336483358
 30
0.0
 10
12.8820443858
 20
7.3366361882
 30
0.0
 10
12.8830277943
 20
7.3366249433
 30
0.0
 10
12.8835140871
 20
7.3365912131
 30
0.0
  0
SPLINE
  5
376
100
AcDbEntity
  8
0
100
AcDbSpline
 62
7
  6
CONTINUOUS
 70
0
 71
3
 72
25
 73
21
 74
0
 42
0.0000001
 43
0.0000001
 44
0.0000000001
 40
0.0
 40
0.0
 40
0.0
 40
0.0
 40
0.06377716
 40
0.127343222
 40
0.190700148
 40
0.2538535537
 40
0.3168099705
 40
0.3795782475
 40
0.4421688972
 40
0.5045942157
 40
0.5668681101
 40
0.629005993
 40
0.6910246336
 40
0.7219973337
 40
0.7529470518
 40
0.8147821333
 40
0.8765547559
 40
0.9074265679
 40
0.9382904805
 40
1.0
 40
1.0
 40
1.0
 40
1.0
 10
10.4292364134
 20
8.7468081252
 30
0.0
 10
10.4292364134
 20
8.7360849967
 30
0.0
 10
10.4287232093
 20
8.7146705968
 30
0.0
 10
10.4264065926
 20
8.6826791638
 30
0.0
 10
10.4225496101
 20
8.650941456
 30
0.0
 10
10.4171611842
 20
8.619531672
 30
0.0
 10
10.4102535817
 20
8.5885218764
 30
0.0
 10
10.4018426992
 20
8.5579836585
 30
0.0
 10
10.3919478295
 20
8.5279873908
 30
0.0
 10
10.3805917479
 20
8.4986022832
 30
0.0
 10
10.3678004991
 20
8.4698959872
 30
0.0
 10
10.3536037973
 20
8.4419351531
 30
0.0
 10
10.3406227319
 20
8.4192982021
 30
0.0
 10
10.3295709299
 20
8.401629239
 30
0.0
 10
10.318088449
 20
8.3842740323
 30
0.0
 10
10.3029217453
 20
8.3631578615
 30
0.0
 10
10.2867002604
 20
8.3428575096
 30
0.0
 10
10.273120098
 20
8.3271446943
 30
0.0
 10
10.2591481048
 20
8.3117942391
 30
0.0
 10
10.2482286004
 20
8.3006898183
 30
0.0
 10
10.2407659768
 20
8.2934814909
 30
0.0
  0
SPLINE
  5
377
100
AcDbEntity
  8
0
100
AcDbSpline
 62
7
  6
CONTINUOUS
 70
0
 71
3
 72
25
 73
21
 74
0
 42
0.0000001
 43
0.0000001
 44
0.0000000001
 40
0.0
 40
0.0
 40
0.0
 40
0.0
 40
0.06377716
 40
0.127343222
 40
0.190700148
 40
0.2538535537
 40
0.3168099705
 40
0.3795782475
 40
0.4421688972
 40
0.5045942157
 40
0.5668681101
 40
0.629005993
 40
0.6910246336
 40
0.7219973337
 40
0.7529470518
 40
0.8147821333
 40
0.8765547559
 40
0.9074265679
 40
0.9382904805
 40
1.0
 40
1.0
 40
1.0
 40
1.0
 10
11.8781252387
 20
8.6463273439
 30
0.0
 10
11.8781252387
 20
8.6356042154
 30
0.0
 10
11.8776120346
 20
8.6141898155
 30
0.0
 10
11.8752954178
 20
8.5821983825
 30
0.0
 10
11.8714384354
 20
8.5504606747
 30
0.0
 10
11.8660500095
 20
8.5190508907
 30
0.0
 10
11.8591424069
 20
8.488041095
 30
0.0
 10
11.8507315245
 20
8.4575028772
 30
0.0
 10
11.8408366548
 20
8.4275066095
 30
0.0
 10
11.8294805732
 20
8.3981215019
 30
0.0
 10
11.8166893244
 20
8.3694152059
 30
0.0
 10
11.8024926226
 20
8.3414543718
 30
0.0
 10
11.7895115572
 20
8.3188174208
 30
0.0
 10
11.7784597552
 20
8.3011484577
 30
0.0
 10
11.7669772743
 20
8.283793251
 30
0.0
 10
11.7518105706
 20
8.2626770802
 30
0.0
 10
11.7355890857
 20
8.2423767283
 30
0.0
 10
11.7220089233
 20
8.226663913
 30
0.0
 10
11.7080369301
 20
8.2113134578
 30
0.0
 10
11.6971174256
 20
8.200209037
 30
0.0
 10
11.6896548021
 20
8.1930007096
 30
0.0
  0
SPLINE
  5
378
100
AcDbEntity
  8
0
100
AcDbSpline
 62
7
  6
CONTINUOUS
 70
0
 71
3
 72
47
 73
43
 74
0
 42
0.0000001
 43
0.0000001
 44
0.0000000001
 40
0.0
 40
0.0
 40
0.0
 40
0.0
 40
0.0958288778
 40
0.1428190813
 40
0.1890973258
 40
0.2345927051
 40
0.2792365599
 40
0.3229622087
 40
0.36570484
 40
0.4074019633
 40
0.4479935495
 40
0.4874221989
 40
0.5256333955
 40
0.562575849
 40
0.5982017357
 40
0.6324670006
 40
0.6653317986
 40
0.696761026
 40
0.7267248024
 40
0.7551991569
 40
0.7821669874
 40
0.8076191674
 40
0.8315558892
 40
0.8429599089
 40
0.8539904626
 40
0.8646510953
 40
0.8749464064
 40
0.8848822263
 40
0.8944655538
 40
0.903704898
 40
0.9126103679
 40
0.9211937503
 40
0.9294688928
 40
0.9374517342
 40
0.945160509
 40
0.9598347361
 40
0.9668566082
 40
0.9737035131
 40
0.9804067666
 40
0.9870000197
 40
0.9935188069
 40
1.0
 40
1.0
 40
1.0
 40
1.0
 10
10.3622598959
 20
10.2222989214
 30
0.0
 10
10.3481950648
 20
10.2232743208
 30
0.0
 10
10.3272484817
 20
10.2249615862
 30
0.0
 10
10.2995615588
 20
10.2276896808
 30
0.0
 10
10.2792699566
 20
10.2299389168
 30
0.0
 10
10.2593508565
 20
10.2324007875
 30
0.0
 10
10.23983757
 20
10.235071163
 30
0.0
 10
10.2207627238
 20
10.2379455434
 30
0.0
 10
10.2021581872
 20
10.241019115
 30
0.0
 10
10.1840550502
 20
10.2442867058
 30
0.0
 10
10.1664835445
 20
10.2477428136
 30
0.0
 10
10.1494730114
 20
10.2513816285
 30
0.0
 10
10.1330518455
 20
10.2551970435
 30
0.0
 10
10.1172474312
 20
10.2591826315
 30
0.0
 10
10.1020861026
 20
10.2633316853
 30
0.0
 10
10.0875931049
 20
10.267637236
 30
0.0
 10
10.0737925353
 20
10.2720920603
 30
0.0
 10
10.0607072865
 20
10.2766886692
 30
0.0
 10
10.0483590064
 20
10.2814193656
 30
0.0
 10
10.0367680922
 20
10.286276264
 30
0.0
 10
10.0259535029
 20
10.2912513222
 30
0.0
 10
10.0159331199
 20
10.2963362868
 30
0.0
 10
10.0081366998
 20
10.3007266445
 30
0.0
 10
10.0023211778
 20
10.3042948555
 30
0.0
 10
9.9982389784
 20
10.3069499212
 30
0.0
 10
9.9943672486
 20
10.3096260807
 30
0.0
 10
9.9907075901
 20
10.3123222957
 30
0.0
 10
9.9872614832
 20
10.3150374264
 30
0.0
 10
9.984030378
 20
10.3177704315
 30
0.0
 10
9.981015603
 20
10.3205202163
 30
0.0
 10
9.9782183892
 20
10.3232856692
 30
0.0
 10
9.9756399447
 20
10.3260657914
 30
0.0
 10
9.9732813785
 20
10.3288593938
 30
0.0
 10
9.9711435573
 20
10.3316657083
 30
0.0
 10
9.9686306922
 20
10.3353611673
 30
0.0
 10
9.9665046361
 20
10.3391439189
 30
0.0
 10
9.9648202318
 20
10.3429935648
 30
0.0
 10
9.9638002962
 20
10.3458459286
 30
0.0
 10
9.9630062913
 20
10.3487039017
 30
0.0
 10
9.9624386866
 20
10.3515663287
 30
0.0
 10
9.9620978956
 20
10.3544315344
 30
0.0
 10
9.96202208
 20
10.356344982
 30
0.0
 10
9.9620220759
 20
10.3572985133
 30
0.0
  0
SPLINE
  5
379
100
AcDbEntity
  8
0
100
AcDbSpline
 62
7
  6
CONTINUOUS
 70
0
 71
3
 72
47
 73
43
 74
0
 42
0.0000001
 43
0.0000001
 44
0.0000000001
 40
0.0
 40
0.0
 40
0.0
 40
0.0
 40
0.0958288778
 40
0.1428190813
 40
0.1890973258
 40
0.2345927051
 40
0.2792365599
 40
0.3229622087
 40
0.36570484
 40
0.4074019633
 40
0.4479935495
 40
0.4874221989
 40
0.5256333955
 40
0.562575849
 40
0.5982017357
 40
0.6324670006
 40
0.6653317986
 40
0.696761026
 40
0.7267248024
 40
0.7551991569
 40
0.7821669874
 40
0.8076191674
 40
0.8315558892
 40
0.8429599089
 40
0.8539904626
 40
0.8646510953
 40
0.8749464064
 40
0.8848822263
 40
0.8944655538
 40
0.903704898
 40
0.9126103679
 40
0.9211937503
 40
0.9294688928
 40
0.9374517342
 40
0.945160509
 40
0.9598347361
 40
0.9668566082
 40
0.9737035131
 40
0.9804067666
 40
0.9870000197
 40
0.9935188069
 40
1.0
 40
1.0
 40
1.0
 40
1.0
 10
11.8111487212
 20
10.1218181401
 30
0.0
 10
11.7970838901
 20
10.1227935395
 30
0.0
 10
11.776137307
 20
10.1244808049
 30
0.0
 10
11.7484503841
 20
10.1272088995
 30
0.0
 10
11.7281587818
 20
10.1294581355
 30
0.0
 10
11.7082396818
 20
10.1319200062
 30
0.0
 10
11.6887263953
 20
10.1345903817
 30
0.0
 10
11.6696515491
 20
10.1374647621
 30
0.0
 10
11.6510470125
 20
10.1405383337
 30
0.0
 10
11.6329438755
 20
10.1438059245
 30
0.0
 10
11.6153723697
 20
10.1472620323
 30
0.0
 10
11.5983618367
 20
10.1509008472
 30
0.0
 10
11.5819406707
 20
10.1547162622
 30
0.0
 10
11.5661362565
 20
10.1587018502
 30
0.0
 10
11.5509749279
 20
10.162850904
 30
0.0
 10
11.5364819302
 20
10.1671564547
 30
0.0
 10
11.5226813606
 20
10.171611279
 30
0.0
 10
11.5095961118
 20
10.1762078879
 30
0.0
 10
11.4972478317
 20
10.1809385843
 30
0.0
 10
11.4856569175
 20
10.1857954827
 30
0.0
 10
11.4748423282
 20
10.1907705409
 30
0.0
 10
11.4648219452
 20
10.1958555055
 30
0.0
 10
11.457025525
 20
10.2002458632
 30
0.0
 10
11.4512100031
 20
10.2038140742
 30
0.0
 10
11.4471278037
 20
10.2064691399
 30
0.0
 10
11.4432560739
 20
10.2091452994
 30
0.0
 10
11.4395964154
 20
10.2118415144
 30
0.0
 10
11.4361503085
 20
10.2145566451
 30
0.0
 10
11.4329192033
 20
10.2172896501
 30
0.0
 10
11.4299044283
 20
10.220039435
 30
0.0
 10
11.4271072145
 20
10.2228048879
 30
0.0
 10
11.42452877
 20
10.2255850101
 30
0.0
 10
11.4221702038
 20
10.2283786125
 30
0.0
 10
11.4200323826
 20
10.2311849269
 30
0.0
 10
11.4175195175
 20
10.2348803859
 30
0.0
 10
11.4153934614
 20
10.2386631376
 30
0.0
 10
11.4137090571
 20
10.2425127835
 30
0.0
 10
11.4126891215
 20
10.2453651473
 30
0.0
 10
11.4118951166
 20
10.2482231204
 30
0.0
 10
11.4113275119
 20
10.2510855474
 30
0.0
 10
11.4109867209
 20
10.2539507531
 30
0.0
 10
11.4109109052
 20
10.2558642007
 30
0.0
 10
11.4109109012
 20
10.256817732
 30
0.0
  0
SPLINE
  5
37A
100
AcDbEntity
  8
0
100
AcDbSpline
 62
7
  6
CONTINUOUS
 70
0
 71
3
 72
25
 73
21
 74
0
 42
0.0000001
 43
0.0000001
 44
0.0000000001
 40
0.0
 40
0.0
 40
0.0
 40
0.0
 40
0.0924066736
 40
0.1831271078
 40
0.270726242
 40
0.3541724978
 40
0.4328669059
 40
0.5065550984
 40
0.5752119062
 40
0.6389426284
 40
0.6979187873
 40
0.7523437976
 40
0.8024432803
 40
0.8484737048
 40
0.8907474246
 40
0.9106101645
 40
0.9296988644
 40
0.9658372559
 40
0.983111666
 40
1.0
 40
1.0
 40
1.0
 40
1.0
 10
11.4182948007
 20
8.8668038039
 30
0.0
 10
11.4165651737
 20
8.8683465774
 30
0.0
 10
11.4132519329
 20
8.8715352685
 30
0.0
 10
11.4087289281
 20
8.8766083155
 30
0.0
 10
11.4047420949
 20
8.881832828
 30
0.0
 10
11.4013265675
 20
8.8870906347
 30
0.0
 10
11.3984827706
 20
8.8922834255
 30
0.0
 10
11.3961881942
 20
8.8973359932
 30
0.0
 10
11.3944085047
 20
8.902193901
 30
0.0
 10
11.3931058621
 20
8.9068184849
 30
0.0
 10
11.3922439016
 20
8.9111818467
 30
0.0
 10
11.3917902666
 20
8.9152627665
 30
0.0
 10
11.3917177239
 20
8.9190441208
 30
0.0
 10
11.3920044167
 20
8.9225100877
 30
0.0
 10
11.392540053
 20
8.9251776462
 30
0.0
 10
11.3931442116
 20
8.927125044
 30
0.0
 10
11.3938313207
 20
8.9288797312
 30
0.0
 10
11.3946899573
 20
8.9304945082
 30
0.0
 10
11.395724902
 20
8.9319246561
 30
0.0
 10
11.3962927151
 20
8.9325686425
 30
0.0
 10
11.3965886655
 20
8.9328716913
 30
0.0
  0
SPLINE
  5
37B
100
AcDbEntity
  8
0
100
AcDbSpline
 62
7
  6
CONTINUOUS
 70
0
 71
3
 72
15
 73
11
 74
0
 42
0.0000001
 43
0.0000001
 44
0.0000000001
 40
0.0
 40
0.0
 40
0.0
 40
0.0
 40
0.1225647732
 40
0.2461424779
 40
0.3706516597
 40
0.4959748243
 40
0.621928657
 40
0.7482271799
 40
0.8744466026
 40
1.0
 40
1.0
 40
1.0
 40
1.0
 10
11.0426158833
 20
7.4331576709
 30
0.0
 10
11.0426158833
 20
7.4431164016
 30
0.0
 10
11.043417147
 20
7.4631248133
 30
0.0
 10
11.0469752366
 20
7.4930592001
 30
0.0
 10
11.0528602231
 20
7.5228537081
 30
0.0
 10
11.0610098039
 20
7.5523084729
 30
0.0
 10
11.071326935
 20
7.5812284771
 30
0.0
 10
11.0836730791
 20
7.6094197845
 30
0.0
 10
11.0978583697
 20
7.6366913054
 30
0.0
 10
11.1084297296
 20
7.6542226639
 30
0.0
 10
11.1139518122
 20
7.6628004566
 30
0.0
  0
SPLINE
  5
37C
100
AcDbEntity
  8
0
100
AcDbSpline
 62
7
  6
CONTINUOUS
 70
0
 71
3
 72
41
 73
37
 74
0
 42
0.0000001
 43
0.0000001
 44
0.0000000001
 40
0.0
 40
0.0
 40
0.0
 40
0.0
 40
0.0078190759
 40
0.0157212436
 40
0.0237412208
 40
0.0319116143
 40
0.0402628388
 40
0.0488221526
 40
0.0666506511
 40
0.0855652866
 40
0.1056841778
 40
0.1270900032
 40
0.1498358078
 40
0.1739497874
 40
0.1994391191
 40
0.2262929005
 40
0.2544843728
 40
0.2839728531
 40
0.314705582
 40
0.3466195309
 40
0.3796434145
 40
0.448676737
 40
0.4845543406
 40
0.5212199695
 40
0.5585951663
 40
0.5966060084
 40
0.6351843692
 40
0.6742686651
 40
0.7138042591
 40
0.7537435859
 40
0.7940460119
 40
0.8346772866
 40
0.8756092862
 40
0.9168184873
 40
0.9582876165
 40
1.0
 40
1.0
 40
1.0
 40
1.0
 10
11.300131621
 20
7.1604145672
 30
0.0
 10
11.2993048627
 20
7.1596159799
 30
0.0
 10
11.2975809409
 20
7.1580728065
 30
0.0
 10
11.2948121971
 20
7.1559430084
 30
0.0
 10
11.2918530232
 20
7.1539912545
 30
0.0
 10
11.2887065912
 20
7.1522201702
 30
0.0
 10
11.2853759023
 20
7.1506321733
 30
0.0
 10
11.2806303376
 20
7.1487371432
 30
0.0
 10
11.2742234829
 20
7.1468564961
 30
0.0
 10
11.26597342
 20
7.1454176916
 30
0.0
 10
11.2570960387
 20
7.1447926999
 30
0.0
 10
11.2476377376
 20
7.1450124268
 30
0.0
 10
11.237650671
 20
7.1461092184
 30
0.0
 10
11.2271949225
 20
7.1481160281
 30
0.0
 10
11.2163382283
 20
7.1510644665
 30
0.0
 10
11.2051559659
 20
7.1549830638
 30
0.0
 10
11.1937306085
 20
7.1598954188
 30
0.0
 10
11.1821507547
 20
7.1658185211
 30
0.0
 10
11.1705100203
 20
7.172761022
 30
0.0
 10
11.1589044454
 20
7.1807228381
 30
0.0
 10
11.143381313
 20
7.1928599759
 30
0.0
 10
11.1285947377
 20
7.2068220245
 30
0.0
 10
11.1147691135
 20
7.2223904592
 30
0.0
 10
11.1047586427
 20
7.235087675
 30
0.0
 10
11.095318503
 20
7.2485975446
 30
0.0
 10
11.0865140626
 20
7.2628617564
 30
0.0
 10
11.0784032949
 20
7.2778177256
 30
0.0
 10
11.0710354705
 20
7.2934015069
 30
0.0
 10
11.0644520197
 20
7.3095486345
 30
0.0
 10
11.0586870528
 20
7.3261952274
 30
0.0
 10
11.0537681526
 20
7.3432786761
 30
0.0
 10
11.0497171002
 20
7.3607381714
 30
0.0
 10
11.0465507264
 20
7.3785148214
 30
0.0
 10
11.0442812768
 20
7.3965522212
 30
0.0
 10
11.0429173865
 20
7.4147950554
 30
0.0
 10
11.0426158833
 20
7.4270256231
 30
0.0
 10
11.0426158833
 20
7.4331576709
 30
0.0
  0
SPLINE
  5
37D
100
AcDbEntity
  8
0
100
AcDbSpline
 62
7
  6
CONTINUOUS
 70
0
 71
3
 72
36
 73
32
 74
0
 42
0.0000001
 43
0.0000001
 44
0.0000000001
 40
0.0
 40
0.0
 40
0.0
 40
0.0
 40
0.0063161168
 40
0.0126711619
 40
0.0191032581
 40
0.0256490626
 40
0.0392095001
 40
0.05360793
 40
0.0690454499
 40
0.0856791324
 40
0.1036278316
 40
0.1229783533
 40
0.1437916317
 40
0.1661081543
 40
0.1899514448
 40
0.2153320271
 40
0.2422489508
 40
0.2706924073
 40
0.3006446146
 40
0.3320810971
 40
0.3649717252
 40
0.3992808975
 40
0.4349688229
 40
0.4719911741
 40
0.5103002058
 40
0.5498445536
 40
0.632416346
 40
0.7192407559
 40
0.8098108808
 40
0.9035854839
 40
1.0
 40
1.0
 40
1.0
 40
1.0
 10
12.0142635634
 20
6.1190647004
 30
0.0
 10
12.0139204571
 20
6.1190884989
 30
0.0
 10
12.01323375
 20
6.1191643324
 30
0.0
 10
12.0122113988
 20
6.1193619936
 30
0.0
 10
12.0111958502
 20
6.1196435501
 30
0.0
 10
12.0098360001
 20
6.1201361034
 30
0.0
 10
12.0081463185
 20
6.1209735337
 30
0.0
 10
12.0061825368
 20
6.1222984762
 30
0.0
 10
12.0042598754
 20
6.1239512385
 30
0.0
 10
12.0023803808
 20
6.1259279659
 30
0.0
 10
12.0005457957
 20
6.1282252298
 30
0.0
 10
11.9987582364
 20
6.1308393652
 30
0.0
 10
11.9970199878
 20
6.1337663528
 30
0.0
 10
11.9953335765
 20
6.1370017101
 30
0.0
 10
11.9937014769
 20
6.1405403746
 30
0.0
 10
11.9921263186
 20
6.1443767851
 30
0.0
 10
11.990610568
 20
6.1485048028
 30
0.0
 10
11.9891567346
 20
6.1529177931
 30
0.0
 10
11.9877671943
 20
6.1576086028
 30
0.0
 10
11.9864442333
 20
6.1625695963
 30
0.0
 10
11.9851900801
 20
6.1677926728
 30
0.0
 10
11.9840067729
 20
6.1732692763
 30
0.0
 10
11.9828963322
 20
6.1789904245
 30
0.0
 10
11.9818605668
 20
6.1849467146
 30
0.0
 10
11.9809012129
 20
6.1911283608
 30
0.0
 10
11.9797089419
 20
6.1997825835
 30
0.0
 10
11.9784307413
 20
6.2110899297
 30
0.0
 10
11.9772440762
 20
6.2251977029
 30
0.0
 10
11.9763916388
 20
6.2399406105
 30
0.0
 10
11.9758792114
 20
6.2552215059
 30
0.0
 10
11.9757680013
 20
6.2655782587
 30
0.0
 10
11.9757680013
 20
6.2708283068
 30
0.0
  0
SPLINE
  5
37E
100
AcDbEntity
  8
0
100
AcDbSpline
 62
7
  6
CONTINUOUS
 70
0
 71
3
 72
36
 73
32
 74
0
 42
0.0000001
 43
0.0000001
 44
0.0000000001
 40
0.0
 40
0.0
 40
0.0
 40
0.0
 40
0.0063161168
 40
0.0126711619
 40
0.0191032581
 40
0.0256490626
 40
0.0392095001
 40
0.05360793
 40
0.0690454499
 40
0.0856791324
 40
0.1036278316
 40
0.1229783533
 40
0.1437916317
 40
0.1661081543
 40
0.1899514448
 40
0.2153320271
 40
0.2422489508
 40
0.2706924073
 40
0.3006446146
 40
0.3320810971
 40
0.3649717252
 40
0.3992808975
 40
0.4349688229
 40
0.4719911741
 40
0.5103002058
 40
0.5498445536
 40
0.632416346
 40
0.7192407559
 40
0.8098108808
 40
0.9035854839
 40
1.0
 40
1.0
 40
1.0
 40
1.0
 10
12.8554247658
 20
6.931564078
 30
0.0
 10
12.8550816595
 20
6.9315878765
 30
0.0
 10
12.8543949524
 20
6.93166371
 30
0.0
 10
12.8533726012
 20
6.9318613712
 30
0.0
 10
12.8523570526
 20
6.9321429277
 30
0.0
 10
12.8509972025
 20
6.932635481
 30
0.0
 10
12.8493075209
 20
6.9334729113
 30
0.0
 10
12.8473437392
 20
6.9347978538
 30
0.0
 10
12.8454210778
 20
6.9364506161
 30
0.0
 10
12.8435415832
 20
6.9384273435
 30
0.0
 10
12.8417069981
 20
6.9407246074
 30
0.0
 10
12.8399194388
 20
6.9433387428
 30
0.0
 10
12.8381811902
 20
6.9462657304
 30
0.0
 10
12.8364947789
 20
6.9495010877
 30
0.0
 10
12.8348626793
 20
6.9530397522
 30
0.0
 10
12.833287521
 20
6.9568761627
 30
0.0
 10
12.8317717704
 20
6.9610041804
 30
0.0
 10
12.830317937
 20
6.9654171707
 30
0.0
 10
12.8289283967
 20
6.9701079804
 30
0.0
 10
12.8276054357
 20
6.9750689739
 30
0.0
 10
12.8263512825
 20
6.9802920504
 30
0.0
 10
12.8251679753
 20
6.9857686539
 30
0.0
 10
12.8240575346
 20
6.9914898021
 30
0.0
 10
12.8230217692
 20
6.9974460922
 30
0.0
 10
12.8220624153
 20
7.0036277384
 30
0.0
 10
12.8208701443
 20
7.0122819611
 30
0.0
 10
12.8195919437
 20
7.0235893073
 30
0.0
 10
12.8184052786
 20
7.0376970805
 30
0.0
 10
12.8175528412
 20
7.0524399881
 30
0.0
 10
12.8170404137
 20
7.0677208835
 30
0.0
 10
12.8169292037
 20
7.0780776363
 30
0.0
 10
12.8169292037
 20
7.0833276844
 30
0.0
  0
SPLINE
  5
37F
100
AcDbEntity
  8
0
100
AcDbSpline
 62
7
  6
CONTINUOUS
 70
0
 71
3
 72
52
 73
48
 74
0
 42
0.0000001
 43
0.0000001
 44
0.0000000001
 40
0.0
 40
0.0
 40
0.0
 40
0.0
 40
0.0055575409
 40
0.0111779669
 40
0.0169218944
 40
0.0228457784
 40
0.0290005385
 40
0.0354309383
 40
0.0421753664
 40
0.0492662129
 40
0.0567302428
 40
0.0645893498
 40
0.0728610114
 40
0.0815590518
 40
0.0906939685
 40
0.1002735876
 40
0.1103032329
 40
0.1207862668
 40
0.1317241336
 40
0.1431168099
 40
0.1549627623
 40
0.1672593293
 40
0.180002627
 40
0.1931878784
 40
0.2068092924
 40
0.2208603496
 40
0.2353336718
 40
0.2502212706
 40
0.2812030867
 40
0.3137301822
 40
0.3477175443
 40
0.3830726942
 40
0.4196965467
 40
0.4574841626
 40
0.4963254275
 40
0.5361056779
 40
0.5767062924
 40
0.6180052566
 40
0.6598777114
 40
0.7021964885
 40
0.7448326391
 40
0.7876559545
 40
0.8305354925
 40
0.8733400712
 40
0.9159388564
 40
0.9582016962
 40
1.0
 40
1.0
 40
1.0
 40
1.0
 10
11.0420220539
 20
10.3572991227
 30
0.0
 10
11.0420220595
 20
10.3559632672
 30
0.0
 10
11.0418725346
 20
10.3532741125
 30
0.0
 10
11.0412012803
 20
10.3492547369
 30
0.0
 10
11.040084257
 20
10.3452443166
 30
0.0
 10
11.0385235544
 20
10.3412475279
 30
0.0
 10
11.0365218227
 20
10.3372675757
 30
0.0
 10
11.0340816756
 20
10.3333075549
 30
0.0
 10
11.031205967
 20
10.3293701303
 30
0.0
 10
11.0278974437
 20
10.3254580163
 30
0.0
 10
11.0241591346
 20
10.3215737781
 30
0.0
 10
11.0199941066
 20
10.3177201899
 30
0.0
 10
11.0154058087
 20
10.3138999263
 30
0.0
 10
11.0103978546
 20
10.3101158932
 30
0.0
 10
11.0049742853
 20
10.3063708688
 30
0.0
 10
10.9991393756
 20
10.3026678371
 30
0.0
 10
10.9928978275
 20
10.2990096201
 30
0.0
 10
10.9862546089
 20
10.2953992135
 30
0.0
 10
10.9792150948
 20
10.2918394308
 30
0.0
 10
10.9717849395
 20
10.28833323
 30
0.0
 10
10.9639701787
 20
10.2848833789
 30
0.0
 10
10.9557771315
 20
10.2814927647
 30
0.0
 10
10.9472124726
 20
10.2781640847
 30
0.0
 10
10.9382831594
 20
10.2749001334
 30
0.0
 10
10.9289964797
 20
10.2717035186
 30
0.0
 10
10.9193600038
 20
10.2685769322
 30
0.0
 10
10.9093815947
 20
10.2655228542
 30
0.0
 10
10.8954464007
 20
10.2614973615
 30
0.0
 10
10.8772260028
 20
10.2566786087
 30
0.0
 10
10.8544146244
 20
10.2512975965
 30
0.0
 10
10.8304495069
 20
10.2462617993
 30
0.0
 10
10.8054090488
 20
10.2415878706
 30
0.0
 10
10.7793750125
 20
10.2372912922
 30
0.0
 10
10.7524325468
 20
10.2333862814
 30
0.0
 10
10.7246698043
 20
10.229885756
 30
0.0
 10
10.6961776663
 20
10.2268012901
 30
0.0
 10
10.6670494293
 20
10.2241430781
 30
0.0
 10
10.6373804955
 20
10.2219199024
 30
0.0
 10
10.6072680537
 20
10.220139106
 30
0.0
 10
10.576810758
 20
10.2188065693
 30
0.0
 10
10.5461084008
 20
10.2179266918
 30
0.0
 10
10.5152615828
 20
10.2175023778
 30
0.0
 10
10.4843713819
 20
10.2175350287
 30
0.0
 10
10.4535390192
 20
10.2180245346
 30
0.0
 10
10.4228655132
 20
10.2189692845
 30
0.0
 10
10.3924514512
 20
10.2203661491
 30
0.0
 10
10.3722828017
 20
10.2216038306
 30
0.0
 10
10.3622598959
 20
10.2222989214
 30
0.0
  0
SPLINE
  5
380
100
AcDbEntity
  8
0
100
AcDbSpline
 62
7
  6
CONTINUOUS
 70
0
 71
3
 72
52
 73
48
 74
0
 42
0.0000001
 43
0.0000001
 44
0.0000000001
 40
0.0
 40
0.0
 40
0.0
 40
0.0
 40
0.0055575409
 40
0.0111779669
 40
0.0169218944
 40
0.0228457784
 40
0.0290005385
 40
0.0354309383
 40
0.0421753664
 40
0.0492662129
 40
0.0567302428
 40
0.0645893498
 40
0.0728610114
 40
0.0815590518
 40
0.0906939685
 40
0.1002735876
 40
0.1103032329
 40
0.1207862668
 40
0.1317241336
 40
0.1431168099
 40
0.1549627623
 40
0.1672593293
 40
0.180002627
 40
0.1931878784
 40
0.2068092924
 40
0.2208603496
 40
0.2353336718
 40
0.2502212706
 40
0.2812030867
 40
0.3137301822
 40
0.3477175443
 40
0.3830726942
 40
0.4196965467
 40
0.4574841626
 40
0.4963254275
 40
0.5361056779
 40
0.5767062924
 40
0.6180052566
 40
0.6598777114
 40
0.7021964885
 40
0.7448326391
 40
0.7876559545
 40
0.8305354925
 40
0.8733400712
 40
0.9159388564
 40
0.9582016962
 40
1.0
 40
1.0
 40
1.0
 40
1.0
 10
12.4909108792
 20
10.2568183414
 30
0.0
 10
12.4909108848
 20
10.2554824858
 30
0.0
 10
12.4907613599
 20
10.2527933312
 30
0.0
 10
12.4900901055
 20
10.2487739556
 30
0.0
 10
12.4889730823
 20
10.2447635353
 30
0.0
 10
12.4874123796
 20
10.2407667466
 30
0.0
 10
12.485410648
 20
10.2367867944
 30
0.0
 10
12.4829705009
 20
10.2328267736
 30
0.0
 10
12.4800947923
 20
10.228889349
 30
0.0
 10
12.4767862689
 20
10.224977235
 30
0.0
 10
12.4730479599
 20
10.2210929967
 30
0.0
 10
12.4688829319
 20
10.2172394086
 30
0.0
 10
12.464294634
 20
10.2134191449
 30
0.0
 10
12.4592866799
 20
10.2096351119
 30
0.0
 10
12.4538631106
 20
10.2058900875
 30
0.0
 10
12.4480282008
 20
10.2021870557
 30
0.0
 10
12.4417866528
 20
10.1985288388
 30
0.0
 10
12.4351434342
 20
10.1949184322
 30
0.0
 10
12.4281039201
 20
10.1913586495
 30
0.0
 10
12.4206737648
 20
10.1878524487
 30
0.0
 10
12.412859004
 20
10.1844025975
 30
0.0
 10
12.4046659568
 20
10.1810119834
 30
0.0
 10
12.3961012978
 20
10.1776833034
 30
0.0
 10
12.3871719847
 20
10.1744193521
 30
0.0
 10
12.377885305
 20
10.1712227373
 30
0.0
 10
12.3682488291
 20
10.1680961509
 30
0.0
 10
12.35827042
 20
10.1650420729
 30
0.0
 10
12.344335226
 20
10.1610165802
 30
0.0
 10
12.3261148281
 20
10.1561978274
 30
0.0
 10
12.3033034497
 20
10.1508168152
 30
0.0
 10
12.2793383322
 20
10.145781018
 30
0.0
 10
12.2542978741
 20
10.1411070893
 30
0.0
 10
12.2282638378
 20
10.1368105109
 30
0.0
 10
12.2013213721
 20
10.1329055001
 30
0.0
 10
12.1735586296
 20
10.1294049747
 30
0.0
 10
12.1450664916
 20
10.1263205088
 30
0.0
 10
12.1159382546
 20
10.1236622968
 30
0.0
 10
12.0862693207
 20
10.1214391211
 30
0.0
 10
12.056156879
 20
10.1196583247
 30
0.0
 10
12.0256995833
 20
10.118325788
 30
0.0
 10
11.9949972261
 20
10.1174459105
 30
0.0
 10
11.9641504081
 20
10.1170215964
 30
0.0
 10
11.9332602072
 20
10.1170542474
 30
0.0
 10
11.9024278445
 20
10.1175437533
 30
0.0
 10
11.8717543385
 20
10.1184885032
 30
0.0
 10
11.8413402764
 20
10.1198853678
 30
0.0
 10
11.821171627
 20
10.1211230492
 30
0.0
 10
11.8111487212
 20
10.1218181401
 30
0.0
  0
SPLINE
  5
381
100
AcDbEntity
  8
0
100
AcDbSpline
 62
7
  6
CONTINUOUS
 70
0
 71
3
 72
51
 73
47
 74
0
 42
0.0000001
 43
0.0000001
 44
0.0000000001
 40
0.0
 40
0.0
 40
0.0
 40
0.0
 40
0.0149716485
 40
0.0299463565
 40
0.0449271644
 40
0.0599170744
 40
0.0749190346
 40
0.0899359198
 40
0.1049705137
 40
0.1200254925
 40
0.1351034109
 40
0.1502066862
 40
0.1653375828
 40
0.1804982023
 40
0.1956904722
 40
0.2109161327
 40
0.2261767296
 40
0.241473608
 40
0.2568079046
 40
0.2721805407
 40
0.2875922226
 40
0.303043438
 40
0.3185344523
 40
0.334065311
 40
0.3496358431
 40
0.3652456603
 40
0.3965753769
 40
0.4280524346
 40
0.4596664537
 40
0.4914042018
 40
0.5232498957
 40
0.555185552
 40
0.5871913712
 40
0.619246145
 40
0.65132769
 40
0.68341329
 40
0.7154801477
 40
0.7475058396
 40
0.7794687608
 40
0.8113485629
 40
0.8431265731
 40
0.8747861836
 40
0.9063132226
 40
0.9376962675
 40
0.9689267871
 40
1.0
 40
1.0
 40
1.0
 40
1.0
 10
9.2750698719
 20
9.2932469502
 30
0.0
 10
9.2808353314
 20
9.298815946
 30
0.0
 10
9.2925902125
 20
9.3097270618
 30
0.0
 10
9.3108608966
 20
9.3253819197
 30
0.0
 10
9.3297467948
 20
9.3403052062
 30
0.0
 10
9.3492215315
 20
9.3544760649
 30
0.0
 10
9.3692583846
 20
9.3678751157
 30
0.0
 10
9.389829767
 20
9.3804838796
 30
0.0
 10
9.4109073831
 20
9.3922849997
 30
0.0
 10
9.4324621974
 20
9.4032622871
 30
0.0
 10
9.4544645493
 20
9.4134006475
 30
0.0
 10
9.4768841778
 20
9.4226861004
 30
0.0
 10
9.4996902147
 20
9.4311059165
 30
0.0
 10
9.5228512719
 20
9.4386485476
 30
0.0
 10
9.5463354922
 20
9.4453035996
 30
0.0
 10
9.5701105636
 20
9.4510619267
 30
0.0
 10
9.594143766
 20
9.4559156682
 30
0.0
 10
9.6184020413
 20
9.459858156
 30
0.0
 10
9.6428520252
 20
9.4628839437
 30
0.0
 10
9.6674600787
 20
9.4649889326
 30
0.0
 10
9.6921923587
 20
9.4661702591
 30
0.0
 10
9.7170148449
 20
9.4664262787
 30
0.0
 10
9.7418934275
 20
9.4657566596
 30
0.0
 10
9.7667937867
 20
9.4641624041
 30
0.0
 10
9.7916820948
 20
9.4616456069
 30
0.0
 10
9.8248407298
 20
9.4570596463
 30
0.0
 10
9.8660917546
 20
9.4490321043
 30
0.0
 10
9.9149286398
 20
9.4358077621
 30
0.0
 10
9.962901815
 20
9.4190525233
 30
0.0
 10
10.0097461288
 20
9.3988589099
 30
0.0
 10
10.0552050216
 20
9.3753381757
 30
0.0
 10
10.0990289153
 20
9.3486197166
 30
0.0
 10
10.1409773722
 20
9.3188503935
 30
0.0
 10
10.1808202711
 20
9.2861938319
 30
0.0
 10
10.218338913
 20
9.2508292834
 30
0.0
 10
10.2533274717
 20
9.2129509782
 30
0.0
 10
10.2855938257
 20
9.1727667501
 30
0.0
 10
10.3149608173
 20
9.1304971364
 30
0.0
 10
10.3412671457
 20
9.0863740874
 30
0.0
 10
10.3643681347
 20
9.0406396597
 30
0.0
 10
10.3841368044
 20
8.993544878
 30
0.0
 10
10.4004641792
 20
8.9453480709
 30
0.0
 10
10.4132602856
 20
8.8963140745
 30
0.0
 10
10.4224543234
 20
8.8467111639
 30
0.0
 10
10.4279953294
 20
8.7968152759
 30
0.0
 10
10.4292364134
 20
8.7634448345
 30
0.0
 10
10.4292364134
 20
8.7468081252
 30
0.0
  0
SPLINE
  5
382
100
AcDbEntity
  8
0
100
AcDbSpline
 62
7
  6
CONTINUOUS
 70
0
 71
3
 72
39
 73
35
 74
0
 42
0.0000001
 43
0.0000001
 44
0.0000000001
 40
0.0
 40
0.0
 40
0.0
 40
0.0
 40
0.0299424711
 40
0.0599093186
 40
0.0899243248
 40
0.1200101037
 40
0.1501875627
 40
0.180475415
 40
0.2108897594
 40
0.2414437357
 40
0.2721472604
 40
0.3030068436
 40
0.3340254954
 40
0.3652027141
 40
0.3965345493
 40
0.4280137349
 40
0.4596298917
 40
0.4913697854
 40
0.5232176332
 40
0.5551554502
 40
0.5871634342
 40
0.6192203768
 40
0.6513040925
 40
0.6833918636
 40
0.7154608917
 40
0.7474887511
 40
0.7794538353
 40
0.8113357951
 40
0.8431159563
 40
0.8747777105
 40
0.9063068747
 40
0.9376920817
 40
0.9689246483
 40
1.0
 40
1.0
 40
1.0
 40
1.0
 10
9.4402274998
 20
9.1538564053
 30
0.0
 10
9.4481905347
 20
9.1615481174
 30
0.0
 10
9.4647427794
 20
9.1763107652
 30
0.0
 10
9.4912620374
 20
9.1964222715
 30
0.0
 10
9.5193366452
 20
9.214400659
 30
0.0
 10
9.5488097367
 20
9.230145074
 30
0.0
 10
9.5795192885
 20
9.2435694651
 30
0.0
 10
9.6112958033
 20
9.2546000628
 30
0.0
 10
9.6439641696
 20
9.2631765308
 30
0.0
 10
9.6773444132
 20
9.2692520382
 30
0.0
 10
9.7112527531
 20
9.2727935465
 30
0.0
 10
9.7455025922
 20
9.2737820442
 30
0.0
 10
9.779905566
 20
9.2722125538
 30
0.0
 10
9.8142725664
 20
9.2680941226
 30
0.0
 10
9.8484147613
 20
9.2614497517
 30
0.0
 10
9.8821446377
 20
9.2523163449
 30
0.0
 10
9.9152770115
 20
9.2407444142
 30
0.0
 10
9.9476300219
 20
9.2267977869
 30
0.0
 10
9.9790261052
 20
9.2105532506
 30
0.0
 10
10.0092929984
 20
9.1921002111
 30
0.0
 10
10.038264642
 20
9.1715401267
 30
0.0
 10
10.0657820707
 20
9.1489859505
 30
0.0
 10
10.0916942666
 20
9.124561518
 30
0.0
 10
10.1158590413
 20
9.0984009388
 30
0.0
 10
10.1381437577
 20
9.070647802
 30
0.0
 10
10.1584260417
 20
9.041454397
 30
0.0
 10
10.1765944423
 20
9.0109808938
 30
0.0
 10
10.1925491161
 20
8.9793945137
 30
0.0
 10
10.2062023059
 20
8.9468685951
 30
0.0
 10
10.2174788084
 20
8.913581581
 30
0.0
 10
10.2263164129
 20
8.8797163357
 30
0.0
 10
10.2326662265
 20
8.8454581939
 30
0.0
 10
10.2364931576
 20
8.810997701
 30
0.0
 10
10.2373502974
 20
8.7879504823
 30
0.0
 10
10.2373502974
 20
8.776460359
 30
0.0
  0
SPLINE
  5
383
100
AcDbEntity
  8
0
100
AcDbSpline
 62
7
  6
CONTINUOUS
 70
0
 71
3
 72
23
 73
19
 74
0
 42
0.0000001
 43
0.0000001
 44
0.0000000001
 40
0.0
 40
0.0
 40
0.0
 40
0.0
 40
0.0617101465
 40
0.1234413984
 40
0.1852146462
 40
0.2470503535
 40
0.3089683476
 40
0.3709876198
 40
0.4331261355
 40
0.4954006635
 40
0.5578266123
 40
0.620417904
 40
0.6831868136
 40
0.7461438604
 40
0.8092980134
 40
0.8726552092
 40
0.9362227185
 40
1.0
 40
1.0
 40
1.0
 40
1.0
 10
10.1071842467
 20
8.4633720128
 30
0.0
 10
10.1123382688
 20
8.468350423
 30
0.0
 10
10.122393746
 20
8.478576186
 30
0.0
 10
10.1366708392
 20
8.4946730674
 30
0.0
 10
10.1501117736
 20
8.5114938381
 30
0.0
 10
10.1626850199
 20
8.5289991744
 30
0.0
 10
10.1743617389
 20
8.5471488301
 30
0.0
 10
10.1851149699
 20
8.5659009036
 30
0.0
 10
10.1949199526
 20
8.5852121418
 30
0.0
 10
10.2037541208
 20
8.6050379868
 30
0.0
 10
10.2115971484
 20
8.6253327091
 30
0.0
 10
10.2184309906
 20
8.6460495063
 30
0.0
 10
10.2242399227
 20
8.6671406037
 30
0.0
 10
10.2290106154
 20
8.688557406
 30
0.0
 10
10.2327320664
 20
8.7102504183
 30
0.0
 10
10.235395914
 20
8.7321699936
 30
0.0
 10
10.2369958315
 20
8.7542647374
 30
0.0
 10
10.2373502974
 20
8.7690545355
 30
0.0
 10
10.2373502974
 20
8.776460359
 30
0.0
  0
SPLINE
  5
384
100
AcDbEntity
  8
0
100
AcDbSpline
 62
7
  6
CONTINUOUS
 70
0
 71
3
 72
51
 73
47
 74
0
 42
0.0000001
 43
0.0000001
 44
0.0000000001
 40
0.0
 40
0.0
 40
0.0
 40
0.0
 40
0.0149716485
 40
0.0299463565
 40
0.0449271644
 40
0.0599170744
 40
0.0749190346
 40
0.0899359198
 40
0.1049705137
 40
0.1200254925
 40
0.1351034109
 40
0.1502066862
 40
0.1653375828
 40
0.1804982023
 40
0.1956904722
 40
0.2109161327
 40
0.2261767296
 40
0.241473608
 40
0.2568079046
 40
0.2721805407
 40
0.2875922226
 40
0.303043438
 40
0.3185344523
 40
0.334065311
 40
0.3496358431
 40
0.3652456603
 40
0.3965753769
 40
0.4280524346
 40
0.4596664537
 40
0.4914042018
 40
0.5232498957
 40
0.555185552
 40
0.5871913712
 40
0.619246145
 40
0.65132769
 40
0.68341329
 40
0.7154801477
 40
0.7475058396
 40
0.7794687608
 40
0.8113485629
 40
0.8431265731
 40
0.8747861836
 40
0.9063132226
 40
0.9376962675
 40
0.9689267871
 40
1.0
 40
1.0
 40
1.0
 40
1.0
 10
10.7239586972
 20
9.1927661688
 30
0.0
 10
10.7297241567
 20
9.1983351647
 30
0.0
 10
10.7414790378
 20
9.2092462805
 30
0.0
 10
10.7597497219
 20
9.2249011384
 30
0.0
 10
10.7786356201
 20
9.2398244248
 30
0.0
 10
10.7981103568
 20
9.2539952836
 30
0.0
 10
10.8181472098
 20
9.2673943344
 30
0.0
 10
10.8387185923
 20
9.2800030983
 30
0.0
 10
10.8597962084
 20
9.2918042184
 30
0.0
 10
10.8813510226
 20
9.3027815058
 30
0.0
 10
10.9033533745
 20
9.3129198662
 30
0.0
 10
10.925773003
 20
9.3222053191
 30
0.0
 10
10.94857904
 20
9.3306251352
 30
0.0
 10
10.9717400972
 20
9.3381677662
 30
0.0
 10
10.9952243175
 20
9.3448228183
 30
0.0
 10
11.0189993889
 20
9.3505811454
 30
0.0
 10
11.0430325913
 20
9.3554348869
 30
0.0
 10
11.0672908666
 20
9.3593773747
 30
0.0
 10
11.0917408505
 20
9.3624031623
 30
0.0
 10
11.116348904
 20
9.3645081512
 30
0.0
 10
11.141081184
 20
9.3656894778
 30
0.0
 10
11.1659036702
 20
9.3659454974
 30
0.0
 10
11.1907822528
 20
9.3652758783
 30
0.0
 10
11.215682612
 20
9.3636816228
 30
0.0
 10
11.2405709201
 20
9.3611648256
 30
0.0
 10
11.273729555
 20
9.356578865
 30
0.0
 10
11.3149805799
 20
9.348551323
 30
0.0
 10
11.3638174651
 20
9.3353269808
 30
0.0
 10
11.4117906403
 20
9.318571742
 30
0.0
 10
11.458634954
 20
9.2983781285
 30
0.0
 10
11.5040938469
 20
9.2748573944
 30
0.0
 10
11.5479177406
 20
9.2481389353
 30
0.0
 10
11.5898661974
 20
9.2183696122
 30
0.0
 10
11.6297090964
 20
9.1857130506
 30
0.0
 10
11.6672277383
 20
9.150348502
 30
0.0
 10
11.702216297
 20
9.1124701969
 30
0.0
 10
11.734482651
 20
9.0722859688
 30
0.0
 10
11.7638496426
 20
9.0300163551
 30
0.0
 10
11.790155971
 20
8.9858933061
 30
0.0
 10
11.81325696
 20
8.9401588784
 30
0.0
 10
11.8330256297
 20
8.8930640967
 30
0.0
 10
11.8493530045
 20
8.8448672895
 30
0.0
 10
11.8621491109
 20
8.7958332932
 30
0.0
 10
11.8713431487
 20
8.7462303826
 30
0.0
 10
11.8768841547
 20
8.6963344946
 30
0.0
 10
11.8781252387
 20
8.6629640532
 30
0.0
 10
11.8781252387
 20
8.6463273439
 30
0.0
  0
SPLINE
  5
385
100
AcDbEntity
  8
0
100
AcDbSpline
 62
7
  6
CONTINUOUS
 70
0
 71
3
 72
39
 73
35
 74
0
 42
0.0000001
 43
0.0000001
 44
0.0000000001
 40
0.0
 40
0.0
 40
0.0
 40
0.0
 40
0.0299424711
 40
0.0599093186
 40
0.0899243248
 40
0.1200101037
 40
0.1501875627
 40
0.180475415
 40
0.2108897594
 40
0.2414437357
 40
0.2721472604
 40
0.3030068436
 40
0.3340254954
 40
0.3652027141
 40
0.3965345493
 40
0.4280137349
 40
0.4596298917
 40
0.4913697854
 40
0.5232176332
 40
0.5551554502
 40
0.5871634342
 40
0.6192203768
 40
0.6513040925
 40
0.6833918636
 40
0.7154608917
 40
0.7474887511
 40
0.7794538353
 40
0.8113357951
 40
0.8431159563
 40
0.8747777105
 40
0.9063068747
 40
0.9376920817
 40
0.9689246483
 40
1.0
 40
1.0
 40
1.0
 40
1.0
 10
10.8891163251
 20
9.053375624
 30
0.0
 10
10.89707936
 20
9.0610673361
 30
0.0
 10
10.9136316047
 20
9.0758299839
 30
0.0
 10
10.9401508627
 20
9.0959414902
 30
0.0
 10
10.9682254705
 20
9.1139198777
 30
0.0
 10
10.997698562
 20
9.1296642926
 30
0.0
 10
11.0284081138
 20
9.1430886838
 30
0.0
 10
11.0601846286
 20
9.1541192815
 30
0.0
 10
11.0928529949
 20
9.1626957495
 30
0.0
 10
11.1262332385
 20
9.1687712569
 30
0.0
 10
11.1601415784
 20
9.1723127651
 30
0.0
 10
11.1943914175
 20
9.1733012628
 30
0.0
 10
11.2287943913
 20
9.1717317724
 30
0.0
 10
11.2631613917
 20
9.1676133413
 30
0.0
 10
11.2973035866
 20
9.1609689704
 30
0.0
 10
11.331033463
 20
9.1518355636
 30
0.0
 10
11.3641658368
 20
9.1402636329
 30
0.0
 10
11.3965188471
 20
9.1263170056
 30
0.0
 10
11.4279149305
 20
9.1100724693
 30
0.0
 10
11.4581818237
 20
9.0916194298
 30
0.0
 10
11.4871534673
 20
9.0710593454
 30
0.0
 10
11.514670896
 20
9.0485051691
 30
0.0
 10
11.5405830919
 20
9.0240807367
 30
0.0
 10
11.5647478666
 20
8.9979201575
 30
0.0
 10
11.587032583
 20
8.9701670207
 30
0.0
 10
11.607314867
 20
8.9409736157
 30
0.0
 10
11.6254832675
 20
8.9105001125
 30
0.0
 10
11.6414379414
 20
8.8789137324
 30
0.0
 10
11.6550911311
 20
8.8463878138
 30
0.0
 10
11.6663676337
 20
8.8131007997
 30
0.0
 10
11.6752052382
 20
8.7792355544
 30
0.0
 10
11.6815550518
 20
8.7449774126
 30
0.0
 10
11.6853819828
 20
8.7105169197
 30
0.0
 10
11.6862391226
 20
8.687469701
 30
0.0
 10
11.6862391226
 20
8.6759795777
 30
0.0
  0
SPLINE
  5
386
100
AcDbEntity
  8
0
100
AcDbSpline
 62
7
  6
CONTINUOUS
 70
0
 71
3
 72
23
 73
19
 74
0
 42
0.0000001
 43
0.0000001
 44
0.0000000001
 40
0.0
 40
0.0
 40
0.0
 40
0.0
 40
0.0617101465
 40
0.1234413984
 40
0.1852146462
 40
0.2470503535
 40
0.3089683476
 40
0.3709876198
 40
0.4331261355
 40
0.4954006635
 40
0.5578266123
 40
0.620417904
 40
0.6831868136
 40
0.7461438604
 40
0.8092980134
 40
0.8726552092
 40
0.9362227185
 40
1.0
 40
1.0
 40
1.0
 40
1.0
 10
11.556073072
 20
8.3628912315
 30
0.0
 10
11.5612270941
 20
8.3678696417
 30
0.0
 10
11.5712825713
 20
8.3780954047
 30
0.0
 10
11.5855596645
 20
8.3941922861
 30
0.0
 10
11.5990005989
 20
8.4110130567
 30
0.0
 10
11.6115738451
 20
8.428518393
 30
0.0
 10
11.6232505642
 20
8.4466680488
 30
0.0
 10
11.6340037952
 20
8.4654201223
 30
0.0
 10
11.6438087779
 20
8.4847313605
 30
0.0
 10
11.6526429461
 20
8.5045572055
 30
0.0
 10
11.6604859737
 20
8.5248519278
 30
0.0
 10
11.6673198159
 20
8.545568725
 30
0.0
 10
11.6731287479
 20
8.5666598224
 30
0.0
 10
11.6778994407
 20
8.5880766247
 30
0.0
 10
11.6816208917
 20
8.609769637
 30
0.0
 10
11.6842847393
 20
8.6316892123
 30
0.0
 10
11.6858846568
 20
8.6537839561
 30
0.0
 10
11.6862391226
 20
8.6685737542
 30
0.0
 10
11.6862391226
 20
8.6759795777
 30
0.0
  0
SPLINE
  5
387
100
AcDbEntity
  8
0
100
AcDbSpline
 62
7
  6
CONTINUOUS
 70
0
 71
3
 72
44
 73
40
 74
0
 42
0.0000001
 43
0.0000001
 44
0.0000000001
 40
0.0
 40
0.0
 40
0.0
 40
0.0
 40
0.0149722234
 40
0.0299475064
 40
0.0449288883
 40
0.0599193732
 40
0.0749219094
 40
0.0899393698
 40
0.1049745397
 40
0.1200300962
 40
0.1351085921
 40
0.1502124456
 40
0.1804994109
 40
0.2109128653
 40
0.2414659471
 40
0.2721685722
 40
0.303027252
 40
0.3340449956
 40
0.3652213014
 40
0.3965522194
 40
0.4280304831
 40
0.4596457138
 40
0.4913846787
 40
0.5232315941
 40
0.5551684754
 40
0.5871755222
 40
0.6192315264
 40
0.6513143028
 40
0.6834011342
 40
0.7154692231
 40
0.7474961446
 40
0.7794602934
 40
0.8113413197
 40
0.8431205497
 40
0.8747813764
 40
0.9063096221
 40
0.9376938967
 40
0.9689255651
 40
1.0
 40
1.0
 40
1.0
 40
1.0
 10
9.4068249201
 20
7.6353821071
 30
0.0
 10
9.4113045589
 20
7.6397091023
 30
0.0
 10
9.4204378125
 20
7.6481868556
 30
0.0
 10
9.4346337518
 20
7.6603503507
 30
0.0
 10
9.4493076771
 20
7.671945455
 30
0.0
 10
9.4644390962
 20
7.6829559721
 30
0.0
 10
9.4800073103
 20
7.693366755
 30
0.0
 10
9.4959908246
 20
7.7031635173
 30
0.0
 10
9.5123676694
 20
7.7123328068
 30
0.0
 10
9.5291152468
 20
7.7208619146
 30
0.0
 10
9.5462108206
 20
7.72873929
 30
0.0
 10
9.569455359
 20
7.7383666193
 30
0.0
 10
9.599277436
 20
7.7487190545
 30
0.0
 10
9.6360284797
 20
7.7583671685
 30
0.0
 10
9.6735814888
 20
7.7652022202
 30
0.0
 10
9.7117283062
 20
7.7691864036
 30
0.0
 10
9.7502593928
 20
7.7702984641
 30
0.0
 10
9.7889627337
 20
7.7685327861
 30
0.0
 10
9.8276256107
 20
7.7638995503
 30
0.0
 10
9.8660355783
 20
7.7564246265
 30
0.0
 10
9.9039816912
 20
7.7461495526
 30
0.0
 10
9.9412556165
 20
7.7331311422
 30
0.0
 10
9.9776527428
 20
7.7174411611
 30
0.0
 10
10.0129733365
 20
7.6991660595
 30
0.0
 10
10.047023605
 20
7.6784064125
 30
0.0
 10
10.079616703
 20
7.655276314
 30
0.0
 10
10.1105737878
 20
7.6299028387
 30
0.0
 10
10.1397250215
 20
7.6024253677
 30
0.0
 10
10.1669104135
 20
7.5729947339
 30
0.0
 10
10.1919806989
 20
7.5417724375
 30
0.0
 10
10.2147982516
 20
7.5089298464
 30
0.0
 10
10.2352377316
 20
7.4746471729
 30
0.0
 10
10.2531867416
 20
7.4391124949
 30
0.0
 10
10.2685465592
 20
7.4025208282
 30
0.0
 10
10.2812326247
 20
7.3650729364
 30
0.0
 10
10.2911749462
 20
7.3269745434
 30
0.0
 10
10.2983184841
 20
7.2884341297
 30
0.0
 10
10.3026237713
 20
7.2496660759
 30
0.0
 10
10.3035880575
 20
7.2237379512
 30
0.0
 10
10.3035880575
 20
7.2108115652
 30
0.0
  0
SPLINE
  5
388
100
AcDbEntity
  8
0
100
AcDbSpline
 62
7
  6
CONTINUOUS
 70
0
 71
3
 72
23
 73
19
 74
0
 42
0.0000001
 43
0.0000001
 44
0.0000000001
 40
0.0
 40
0.0
 40
0.0
 40
0.0
 40
0.0617101436
 40
0.1234413945
 40
0.1852146442
 40
0.2470503545
 40
0.3089683499
 40
0.3709876203
 40
0.4331261332
 40
0.4954006601
 40
0.5578266118
 40
0.6204179016
 40
0.6831868196
 40
0.7461438598
 40
0.8092979876
 40
0.872655304
 40
0.9362225276
 40
1.0
 40
1.0
 40
1.0
 40
1.0
 10
10.1571512406
 20
6.8585871859
 30
0.0
 10
10.1629495215
 20
6.8641878906
 30
0.0
 10
10.1742619253
 20
6.8756918815
 30
0.0
 10
10.1903236732
 20
6.8938008561
 30
0.0
 10
10.2054447331
 20
6.9127242175
 30
0.0
 10
10.2195896305
 20
6.9324177256
 30
0.0
 10
10.2327259219
 20
6.9528361
 30
0.0
 10
10.2448233013
 20
6.973932185
 30
0.0
 10
10.255853917
 20
6.9956573219
 30
0.0
 10
10.2657923671
 20
7.0179613927
 30
0.0
 10
10.2746157765
 20
7.0407929541
 30
0.0
 10
10.2823038424
 20
7.0640993548
 30
0.0
 10
10.2888388772
 20
7.0878268431
 30
0.0
 10
10.2942059102
 20
7.1119207414
 30
0.0
 10
10.298392556
 20
7.13632539
 30
0.0
 10
10.3013893703
 20
7.1609848889
 30
0.0
 10
10.3031892936
 20
7.1858414779
 30
0.0
 10
10.3035880575
 20
7.2024799889
 30
0.0
 10
10.3035880575
 20
7.2108115652
 30
0.0
  0
SPLINE
  5
389
100
AcDbEntity
  8
0
100
AcDbSpline
 62
7
  6
CONTINUOUS
 70
0
 71
3
 72
44
 73
40
 74
0
 42
0.0000001
 43
0.0000001
 44
0.0000000001
 40
0.0
 40
0.0
 40
0.0
 40
0.0
 40
0.0149722234
 40
0.0299475064
 40
0.0449288883
 40
0.0599193732
 40
0.0749219094
 40
0.0899393698
 40
0.1049745397
 40
0.1200300962
 40
0.1351085921
 40
0.1502124456
 40
0.1804994109
 40
0.2109128653
 40
0.2414659471
 40
0.2721685722
 40
0.303027252
 40
0.3340449956
 40
0.3652213014
 40
0.3965522194
 40
0.4280304831
 40
0.4596457138
 40
0.4913846787
 40
0.5232315941
 40
0.5551684754
 40
0.5871755222
 40
0.6192315264
 40
0.6513143028
 40
0.6834011342
 40
0.7154692231
 40
0.7474961446
 40
0.7794602934
 40
0.8113413197
 40
0.8431205497
 40
0.8747813764
 40
0.9063096221
 40
0.9376938967
 40
0.9689255651
 40
1.0
 40
1.0
 40
1.0
 40
1.0
 10
10.8557137454
 20
7.5349013258
 30
0.0
 10
10.8601933842
 20
7.539228321
 30
0.0
 10
10.8693266378
 20
7.5477060743
 30
0.0
 10
10.8835225771
 20
7.5598695694
 30
0.0
 10
10.8981965024
 20
7.5714646737
 30
0.0
 10
10.9133279215
 20
7.5824751908
 30
0.0
 10
10.9288961355
 20
7.5928859737
 30
0.0
 10
10.9448796499
 20
7.602682736
 30
0.0
 10
10.9612564947
 20
7.6118520255
 30
0.0
 10
10.9780040721
 20
7.6203811333
 30
0.0
 10
10.9950996459
 20
7.6282585087
 30
0.0
 10
11.0183441843
 20
7.637885838
 30
0.0
 10
11.0481662613
 20
7.6482382732
 30
0.0
 10
11.0849173049
 20
7.6578863872
 30
0.0
 10
11.1224703141
 20
7.6647214389
 30
0.0
 10
11.1606171315
 20
7.6687056223
 30
0.0
 10
11.1991482181
 20
7.6698176828
 30
0.0
 10
11.237851559
 20
7.6680520048
 30
0.0
 10
11.276514436
 20
7.663418769
 30
0.0
 10
11.3149244036
 20
7.6559438452
 30
0.0
 10
11.3528705164
 20
7.6456687713
 30
0.0
 10
11.3901444418
 20
7.6326503609
 30
0.0
 10
11.4265415681
 20
7.6169603798
 30
0.0
 10
11.4618621618
 20
7.5986852782
 30
0.0
 10
11.4959124303
 20
7.5779256312
 30
0.0
 10
11.5285055283
 20
7.5547955327
 30
0.0
 10
11.5594626131
 20
7.5294220573
 30
0.0
 10
11.5886138468
 20
7.5019445864
 30
0.0
 10
11.6157992388
 20
7.4725139526
 30
0.0
 10
11.6408695242
 20
7.4412916562
 30
0.0
 10
11.6636870769
 20
7.4084490651
 30
0.0
 10
11.6841265569
 20
7.3741663916
 30
0.0
 10
11.7020755669
 20
7.3386317136
 30
0.0
 10
11.7174353845
 20
7.3020400469
 30
0.0
 10
11.73012145
 20
7.2645921551
 30
0.0
 10
11.7400637715
 20
7.2264937621
 30
0.0
 10
11.7472073094
 20
7.1879533484
 30
0.0
 10
11.7515125966
 20
7.1491852946
 30
0.0
 10
11.7524768828
 20
7.1232571698
 30
0.0
 10
11.7524768828
 20
7.1103307839
 30
0.0
  0
SPLINE
  5
38A
100
AcDbEntity
  8
0
100
AcDbSpline
 62
7
  6
CONTINUOUS
 70
0
 71
3
 72
23
 73
19
 74
0
 42
0.0000001
 43
0.0000001
 44
0.0000000001
 40
0.0
 40
0.0
 40
0.0
 40
0.0
 40
0.0617101436
 40
0.1234413945
 40
0.1852146442
 40
0.2470503545
 40
0.3089683499
 40
0.3709876203
 40
0.4331261332
 40
0.4954006601
 40
0.5578266118
 40
0.6204179016
 40
0.6831868196
 40
0.7461438598
 40
0.8092979876
 40
0.872655304
 40
0.9362225276
 40
1.0
 40
1.0
 40
1.0
 40
1.0
 10
11.6060400659
 20
6.7581064046
 30
0.0
 10
11.6118383468
 20
6.7637071093
 30
0.0
 10
11.6231507506
 20
6.7752111002
 30
0.0
 10
11.6392124985
 20
6.7933200748
 30
0.0
 10
11.6543335584
 20
6.8122434361
 30
0.0
 10
11.6684784558
 20
6.8319369443
 30
0.0
 10
11.6816147471
 20
6.8523553187
 30
0.0
 10
11.6937121266
 20
6.8734514036
 30
0.0
 10
11.7047427423
 20
6.8951765405
 30
0.0
 10
11.7146811924
 20
6.9174806114
 30
0.0
 10
11.7235046018
 20
6.9403121728
 30
0.0
 10
11.7311926677
 20
6.9636185735
 30
0.0
 10
11.7377277025
 20
6.9873460618
 30
0.0
 10
11.7430947355
 20
7.0114399601
 30
0.0
 10
11.7472813813
 20
7.0358446087
 30
0.0
 10
11.7502781956
 20
7.0605041076
 30
0.0
 10
11.7520781188
 20
7.0853606966
 30
0.0
 10
11.7524768828
 20
7.1019992075
 30
0.0
 10
11.7524768828
 20
7.1103307839
 30
0.0
  0
SPLINE
  5
38B
100
AcDbEntity
  8
0
100
AcDbSpline
 62
7
  6
CONTINUOUS
 70
0
 71
3
 72
28
 73
24
 74
0
 42
0.0000001
 43
0.0000001
 44
0.0000000001
 40
0.0
 40
0.0
 40
0.0
 40
0.0
 40
0.0165267402
 40
0.0335963138
 40
0.0513235021
 40
0.0698007878
 40
0.089101527
 40
0.109283145
 40
0.1303908933
 40
0.1524598199
 40
0.1755182396
 40
0.1995887415
 40
0.2508276286
 40
0.3063164156
 40
0.3661647003
 40
0.4304761011
 40
0.499343055
 40
0.5728218088
 40
0.6508822116
 40
0.7333233039
 40
0.8196584956
 40
0.9089974706
 40
1.0
 40
1.0
 40
1.0
 40
1.0
 10
11.4905474335
 20
8.8501761596
 30
0.0
 10
11.4902424803
 20
8.849863723
 30
0.0
 10
11.4895878302
 20
8.8492616887
 30
0.0
 10
11.4885026952
 20
8.8484456684
 30
0.0
 10
11.4873047098
 20
8.8477037235
 30
0.0
 10
11.485997593
 20
8.8470360032
 30
0.0
 10
11.4845846859
 20
8.8464426716
 30
0.0
 10
11.4830691946
 20
8.845924129
 30
0.0
 10
11.4814540691
 20
8.8454812736
 30
0.0
 10
11.4797422084
 20
8.8451149509
 30
0.0
 10
11.4779362527
 20
8.844826672
 30
0.0
 10
11.4753523606
 20
8.8445424606
 30
0.0
 10
11.4718950139
 20
8.8444043437
 30
0.0
 10
11.4674940575
 20
8.8445861866
 30
0.0
 10
11.4627760498
 20
8.8451371906
 30
0.0
 10
11.4577619426
 20
8.8460875126
 30
0.0
 10
11.4524768192
 20
8.8474726162
 30
0.0
 10
11.4469542914
 20
8.8493318852
 30
0.0
 10
11.4412416456
 20
8.8517055212
 30
0.0
 10
11.4354064068
 20
8.8546283346
 30
0.0
 10
11.4295420748
 20
8.8581198258
 30
0.0
 10
11.4237704621
 20
8.8621707738
 30
0.0
 10
11.4200888598
 20
8.8652035589
 30
0.0
 10
11.4182948007
 20
8.8668038039
 30
0.0
  0
SPLINE
  5
38C
100
AcDbEntity
  8
0
100
AcDbSpline
 62
7
  6
CONTINUOUS
 70
0
 71
3
 72
16
 73
12
 74
0
 42
0.0000001
 43
0.0000001
 44
0.0000000001
 40
0.0
 40
0.0
 40
0.0
 40
0.0
 40
0.1449885871
 40
0.2144616361
 40
0.2820590331
 40
0.4120946034
 40
0.536219802
 40
0.6556770148
 40
0.771828326
 40
0.8861190215
 40
1.0
 40
1.0
 40
1.0
 40
1.0
 10
11.3155671675
 20
7.2035540225
 30
0.0
 10
11.3155676419
 20
7.2012773309
 30
0.0
 10
11.3154597042
 20
7.1979076624
 30
0.0
 10
11.3150620742
 20
7.1934955209
 30
0.0
 10
11.31451678
 20
7.189335917
 30
0.0
 10
11.3135414984
 20
7.1843709969
 30
0.0
 10
11.3118630022
 20
7.1787393434
 30
0.0
 10
11.309688147
 20
7.1735140297
 30
0.0
 10
11.307016119
 20
7.1686991688
 30
0.0
 10
11.3038499977
 20
7.1643014414
 30
0.0
 10
11.3014178083
 20
7.1616569289
 30
0.0
 10
11.300131621
 20
7.1604145672
 30
0.0
  0
SPLINE
  5
38D
100
AcDbEntity
  8
0
100
AcDbSpline
 62
7
  6
CONTINUOUS
 70
0
 71
3
 72
23
 73
19
 74
0
 42
0.0000001
 43
0.0000001
 44
0.0000000001
 40
0.0
 40
0.0
 40
0.0
 40
0.0
 40
0.0453169911
 40
0.0921480609
 40
0.1407444322
 40
0.1913265992
 40
0.2440859371
 40
0.2991863167
 40
0.3567659539
 40
0.4169411298
 40
0.4798070473
 40
0.5454419229
 40
0.6139077668
 40
0.6852529094
 40
0.7595139345
 40
0.8367159436
 40
0.9168755606
 40
1.0
 40
1.0
 40
1.0
 40
1.0
 10
11.3136987087
 20
7.1858643981
 30
0.0
 10
11.3133583433
 20
7.1868312938
 30
0.0
 10
11.3125811428
 20
7.1887683673
 30
0.0
 10
11.3111621411
 20
7.1916215456
 30
0.0
 10
11.3094739741
 20
7.1944635233
 30
0.0
 10
11.3075181335
 20
7.1972925229
 30
0.0
 10
11.305295955
 20
7.2001071399
 30
0.0
 10
11.3028088961
 20
7.2029058687
 30
0.0
 10
11.3000585534
 20
7.2056872955
 30
0.0
 10
11.2970465346
 20
7.2084498625
 30
0.0
 10
11.293774688
 20
7.2111921368
 30
0.0
 10
11.2902448995
 20
7.2139125395
 30
0.0
 10
11.2864592633
 20
7.2166095642
 30
0.0
 10
11.2824200005
 20
7.2192816749
 30
0.0
 10
11.2781294698
 20
7.2219272879
 30
0.0
 10
11.2735902147
 20
7.2245449234
 30
0.0
 10
11.2688049212
 20
7.2271329621
 30
0.0
 10
11.2655122988
 20
7.2288072468
 30
0.0
 10
11.2638265186
 20
7.2296399931
 30
0.0
  0
SPLINE
  5
38E
100
AcDbEntity
  8
0
100
AcDbSpline
 62
7
  6
CONTINUOUS
 70
0
 71
3
 72
39
 73
35
 74
0
 42
0.0000001
 43
0.0000001
 44
0.0000000001
 40
0.0
 40
0.0
 40
0.0
 40
0.0
 40
0.0310753517
 40
0.0623079183
 40
0.0936931253
 40
0.1252222895
 40
0.1568840437
 40
0.1886642049
 40
0.2205461647
 40
0.2525112489
 40
0.2845391083
 40
0.3166081364
 40
0.3486959075
 40
0.3807796232
 40
0.4128365658
 40
0.4448445498
 40
0.4767823668
 40
0.5086302146
 40
0.5403701083
 40
0.5719862651
 40
0.6034654507
 40
0.6347972859
 40
0.6659745046
 40
0.6969931564
 40
0.7278527396
 40
0.7585562643
 40
0.7891102406
 40
0.819524585
 40
0.8498124373
 40
0.8799898963
 40
0.9100756752
 40
0.9400906814
 40
0.9700575289
 40
1.0
 40
1.0
 40
1.0
 40
1.0
 10
10.7589502745
 20
8.7402872777
 30
0.0
 10
10.7589502745
 20
8.7287971544
 30
0.0
 10
10.7598074143
 20
8.7057499357
 30
0.0
 10
10.7636343453
 20
8.6712894428
 30
0.0
 10
10.7699841589
 20
8.6370313011
 30
0.0
 10
10.7788217634
 20
8.6031660558
 30
0.0
 10
10.790098266
 20
8.5698790416
 30
0.0
 10
10.8037514557
 20
8.537353123
 30
0.0
 10
10.8197061296
 20
8.5057667429
 30
0.0
 10
10.8378745301
 20
8.4752932397
 30
0.0
 10
10.8581568141
 20
8.4460998347
 30
0.0
 10
10.8804415305
 20
8.4183466979
 30
0.0
 10
10.9046063052
 20
8.3921861187
 30
0.0
 10
10.9305185011
 20
8.3677616863
 30
0.0
 10
10.9580359298
 20
8.3452075101
 30
0.0
 10
10.9870075734
 20
8.3246474257
 30
0.0
 10
11.0172744666
 20
8.3061943862
 30
0.0
 10
11.04867055
 20
8.2899498498
 30
0.0
 10
11.0810235603
 20
8.2760032225
 30
0.0
 10
11.1141559341
 20
8.2644312919
 30
0.0
 10
11.1478858105
 20
8.255297885
 30
0.0
 10
11.1820280054
 20
8.2486535141
 30
0.0
 10
11.2163950058
 20
8.244535083
 30
0.0
 10
11.2507979796
 20
8.2429655926
 30
0.0
 10
11.2850478187
 20
8.2439540903
 30
0.0
 10
11.3189561586
 20
8.2474955985
 30
0.0
 10
11.3523364022
 20
8.2535711059
 30
0.0
 10
11.3850047685
 20
8.2621475739
 30
0.0
 10
11.4167812833
 20
8.2731781717
 30
0.0
 10
11.4474908351
 20
8.2866025628
 30
0.0
 10
11.4769639266
 20
8.3023469777
 30
0.0
 10
11.5050385344
 20
8.3203253652
 30
0.0
 10
11.5315577924
 20
8.3404368715
 30
0.0
 10
11.5481100371
 20
8.3551995193
 30
0.0
 10
11.556073072
 20
8.3628912315
 30
0.0
  0
SPLINE
  5
38F
100
AcDbEntity
  8
0
100
AcDbSpline
 62
7
  6
CONTINUOUS
 70
0
 71
3
 72
44
 73
40
 74
0
 42
0.0000001
 43
0.0000001
 44
0.0000000001
 40
0.0
 40
0.0
 40
0.0
 40
0.0
 40
0.0308701639
 40
0.0463581919
 40
0.0618795298
 40
0.0930174117
 40
0.124282045
 40
0.139961556
 40
0.155669833
 40
0.1871640255
 40
0.2187573949
 40
0.2504374625
 40
0.2821904404
 40
0.3140014454
 40
0.345854728
 40
0.3777339103
 40
0.409622231
 40
0.4415027933
 40
0.4733588152
 40
0.5051738783
 40
0.5369321728
 40
0.5686187359
 40
0.6002196814
 40
0.6317224175
 40
0.6631158496
 40
0.6943905657
 40
0.7255390006
 40
0.7565555764
 40
0.787436816
 40
0.8181814259
 40
0.8487903468
 40
0.8640468624
 40
0.8792708388
 40
0.9096201714
 40
0.9398499898
 40
0.954925119
 40
0.9699741436
 40
0.9849985684
 40
1.0
 40
1.0
 40
1.0
 40
1.0
 10
10.9647112455
 20
8.9390371255
 30
0.0
 10
10.9647112455
 20
8.9291243868
 30
0.0
 10
10.9651890529
 20
8.9142326738
 30
0.0
 10
10.9667694439
 20
8.8944231214
 30
0.0
 10
10.9689840792
 20
8.8745871725
 30
0.0
 10
10.972933917
 20
8.8498611209
 30
0.0
 10
10.9784286099
 20
8.8253800967
 30
0.0
 10
10.9837402593
 20
8.805972701
 30
0.0
 10
10.9896691337
 20
8.7866677871
 30
0.0
 10
10.9982102182
 20
8.7628324848
 30
0.0
 10
11.0102107363
 20
8.7348478009
 30
0.0
 10
11.0239230585
 20
8.7075674035
 30
0.0
 10
11.0392908035
 20
8.6811035497
 30
0.0
 10
11.0562510974
 20
8.6555642624
 30
0.0
 10
11.0747345046
 20
8.6310540245
 30
0.0
 10
11.0946653976
 20
8.6076730507
 30
0.0
 10
11.1159622415
 20
8.5855169637
 30
0.0
 10
11.13853793
 20
8.5646763827
 30
0.0
 10
11.1623001372
 20
8.5452365606
 30
0.0
 10
11.1871516947
 20
8.5272770384
 30
0.0
 10
11.2129909847
 20
8.5108713215
 30
0.0
 10
11.2397123523
 20
8.4960865809
 30
0.0
 10
11.2672065332
 20
8.4829833794
 30
0.0
 10
11.2953610959
 20
8.4716154247
 30
0.0
 10
11.3240608984
 20
8.4620293495
 30
0.0
 10
11.3531885474
 20
8.454264519
 30
0.0
 10
11.3826248982
 20
8.4483528711
 30
0.0
 10
11.4122494441
 20
8.4443187713
 30
0.0
 10
11.4419411503
 20
8.4421789505
 30
0.0
 10
11.4715776612
 20
8.4419422769
 30
0.0
 10
11.4961573727
 20
8.4433338277
 30
0.0
 10
11.5156679011
 20
8.4453985681
 30
0.0
 10
11.5350180103
 20
8.4480882896
 30
0.0
 10
11.5589517828
 20
8.4526245236
 30
0.0
 10
11.582487119
 20
8.4587226496
 30
0.0
 10
11.6009839714
 20
8.4645174157
 30
0.0
 10
11.6146685455
 20
8.4693131051
 30
0.0
 10
11.6281620581
 20
8.474556837
 30
0.0
 10
11.6370281679
 20
8.4783508953
 30
0.0
 10
11.6414241654
 20
8.4803206279
 30
0.0
  0
SPLINE
  5
390
100
AcDbEntity
  8
0
100
AcDbSpline
 62
7
  6
CONTINUOUS
 70
0
 71
3
 72
23
 73
19
 74
0
 42
0.0000001
 43
0.0000001
 44
0.0000000001
 40
0.0
 40
0.0
 40
0.0
 40
0.0
 40
0.0637774724
 40
0.127344696
 40
0.1907020124
 40
0.2538561402
 40
0.3168131804
 40
0.3795820984
 40
0.4421733882
 40
0.5045993399
 40
0.5668738668
 40
0.6290123797
 40
0.6910316501
 40
0.7529496455
 40
0.8147853558
 40
0.8765586055
 40
0.9382898564
 40
1.0
 40
1.0
 40
1.0
 40
1.0
 10
9.2603881033
 20
7.2831577278
 30
0.0
 10
9.2603881033
 20
7.2914893042
 30
0.0
 10
9.2607868672
 20
7.3081278151
 30
0.0
 10
9.2625867905
 20
7.3329844041
 30
0.0
 10
9.2655836047
 20
7.357643903
 30
0.0
 10
9.2697702506
 20
7.3820485516
 30
0.0
 10
9.2751372835
 20
7.4061424499
 30
0.0
 10
9.2816723184
 20
7.4298699382
 30
0.0
 10
9.2893603842
 20
7.4531763389
 30
0.0
 10
9.2981837936
 20
7.4760079003
 30
0.0
 10
9.3081222437
 20
7.4983119712
 30
0.0
 10
9.3191528595
 20
7.5200371081
 30
0.0
 10
9.3312502389
 20
7.541133193
 30
0.0
 10
9.3443865303
 20
7.5615515675
 30
0.0
 10
9.3585314276
 20
7.5812450756
 30
0.0
 10
9.3736524875
 20
7.6001684369
 30
0.0
 10
9.3897142354
 20
7.6182774115
 30
0.0
 10
9.4010266392
 20
7.6297814024
 30
0.0
 10
9.4068249201
 20
7.6353821071
 30
0.0
  0
SPLINE
  5
391
100
AcDbEntity
  8
0
100
AcDbSpline
 62
7
  6
CONTINUOUS
 70
0
 71
3
 72
11
 73
7
 74
0
 42
0.0000001
 43
0.0000001
 44
0.0000000001
 40
0.0
 40
0.0
 40
0.0
 40
0.0
 40
0.2551234864
 40
0.5058837001
 40
0.7536882452
 40
1.0
 40
1.0
 40
1.0
 40
1.0
 10
12.4890232753
 20
10.2684937693
 30
0.0
 10
12.4893344089
 20
10.2675332179
 30
0.0
 10
12.4898821113
 20
10.2656051873
 30
0.0
 10
12.4904753744
 20
10.2626789666
 30
0.0
 10
12.4908316205
 20
10.2597495873
 30
0.0
 10
12.4909108751
 20
10.2577931526
 30
0.0
 10
12.4909108792
 20
10.2568183414
 30
0.0
  0
SPLINE
  5
392
100
AcDbEntity
  8
0
100
AcDbSpline
 62
7
  6
CONTINUOUS
 70
0
 71
3
 72
43
 73
39
 74
0
 42
0.0000001
 43
0.0000001
 44
0.0000000001
 40
0.0
 40
0.0
 40
0.0
 40
0.0
 40
0.0309202825
 40
0.0619810447
 40
0.0931790821
 40
0.1245080736
 40
0.1559598399
 40
0.1875240469
 40
0.2191885196
 40
0.2509394355
 40
0.2827615672
 40
0.3146385386
 40
0.3465530936
 40
0.3784873755
 40
0.4104232131
 40
0.4423424101
 40
0.4742270357
 40
0.5060597114
 40
0.5378238915
 40
0.5695041344
 40
0.6010863606
 40
0.6325580952
 40
0.6639086901
 40
0.695129521
 40
0.7262141567
 40
0.7571584973
 40
0.7879608756
 40
0.8186221208
 40
0.8339029551
 40
0.8491499693
 40
0.8643639736
 40
0.8795459224
 40
0.9098137239
 40
0.9399683677
 40
0.9550094307
 40
0.9700271215
 40
0.9850233171
 40
1.0
 40
1.0
 40
1.0
 40
1.0
 10
9.4384554593
 20
7.455157596
 30
0.0
 10
9.4384554593
 20
7.4435845612
 30
0.0
 10
9.4392280654
 20
7.420378746
 30
0.0
 10
9.4426810508
 20
7.3856506396
 30
0.0
 10
9.4484151306
 20
7.3510692312
 30
0.0
 10
9.4564049175
 20
7.3167888196
 30
0.0
 10
9.4666149215
 20
7.2829599276
 30
0.0
 10
9.4790000045
 20
7.2497316671
 30
0.0
 10
9.4935054454
 20
7.2172503218
 30
0.0
 10
9.5100672105
 20
7.185658911
 30
0.0
 10
9.52861224
 20
7.1550965116
 30
0.0
 10
9.5490587757
 20
7.125697672
 30
0.0
 10
9.5713167177
 20
7.0975918211
 30
0.0
 10
9.5952880176
 20
7.0709027058
 30
0.0
 10
9.6208671094
 20
7.0457478538
 30
0.0
 10
9.6479413545
 20
7.0222380441
 30
0.0
 10
9.6763915446
 20
7.0004768305
 30
0.0
 10
9.7060924277
 20
6.980560095
 30
0.0
 10
9.7369132517
 20
6.9625756284
 30
0.0
 10
9.7687183343
 20
6.9466027452
 30
0.0
 10
9.8013676534
 20
6.9327119395
 30
0.0
 10
9.8347174518
 20
6.9209645568
 30
0.0
 10
9.8686208589
 20
6.9114125251
 30
0.0
 10
9.902928568
 20
6.9040981408
 30
0.0
 10
9.937489361
 20
6.8990538608
 30
0.0
 10
9.9721512211
 20
6.8963022133
 30
0.0
 10
10.0067603113
 20
6.8958554714
 30
0.0
 10
10.0354664157
 20
6.8974080396
 30
0.0
 10
10.0582467217
 20
6.8998029521
 30
0.0
 10
10.0752063063
 20
6.9021698763
 30
0.0
 10
10.0920389747
 20
6.9051068207
 30
0.0
 10
10.1142636781
 20
6.9097732238
 30
0.0
 10
10.1416446293
 20
6.9170115378
 30
0.0
 10
10.168409242
 20
6.9261113887
 30
0.0
 10
10.1893413218
 20
6.9344743375
 30
0.0
 10
10.2047761009
 20
6.941276277
 30
0.0
 10
10.2199406039
 20
6.9486050689
 30
0.0
 10
10.2298657375
 20
6.9538402238
 30
0.0
 10
10.2347769147
 20
6.9565425756
 30
0.0
  0
SPLINE
  5
393
100
AcDbEntity
  8
0
100
AcDbSpline
 62
7
  6
CONTINUOUS
 70
0
 71
3
 72
15
 73
11
 74
0
 42
0.0000001
 43
0.0000001
 44
0.0000000001
 40
0.0
 40
0.0
 40
0.0
 40
0.0
 40
0.1268026816
 40
0.2530372138
 40
0.3787199841
 40
0.5038739791
 40
0.6285329036
 40
0.752738808
 40
0.8765419821
 40
1.0
 40
1.0
 40
1.0
 40
1.0
 10
9.4384554593
 20
7.455157596
 30
0.0
 10
9.4384554593
 20
7.4664212267
 30
0.0
 10
9.4391840041
 20
7.4889050582
 30
0.0
 10
9.4424754287
 20
7.5224078607
 30
0.0
 10
9.4479492489
 20
7.5554773122
 30
0.0
 10
9.4555827635
 20
7.5879721618
 30
0.0
 10
9.46534387
 20
7.6197555686
 30
0.0
 10
9.4771919239
 20
7.6506937084
 30
0.0
 10
9.4910760688
 20
7.6806541658
 30
0.0
 10
9.5016661652
 20
7.6999196042
 30
0.0
 10
9.5072775566
 20
7.7093417635
 30
0.0
  0
SPLINE
  5
394
100
AcDbEntity
  8
0
100
AcDbSpline
 62
7
  6
CONTINUOUS
 70
0
 71
3
 72
15
 73
11
 74
0
 42
0.0000001
 43
0.0000001
 44
0.0000000001
 40
0.0
 40
0.0
 40
0.0
 40
0.0
 40
0.1269217366
 40
0.2532267895
 40
0.3789359499
 40
0.5040788944
 40
0.6286983953
 40
0.7528479497
 40
0.8765910699
 40
1.0
 40
1.0
 40
1.0
 40
1.0
 10
9.4510124958
 20
7.4542867626
 30
0.0
 10
9.4510124958
 20
7.4662189612
 30
0.0
 10
9.4518502086
 20
7.4900341906
 30
0.0
 10
9.4556356565
 20
7.5254862589
 30
0.0
 10
9.4619283061
 20
7.5604125235
 30
0.0
 10
9.4706974023
 20
7.5946370942
 30
0.0
 10
9.4818995452
 20
7.627990029
 30
0.0
 10
9.4954797207
 20
7.6603057051
 30
0.0
 10
9.5113691678
 20
7.6914210618
 30
0.0
 10
9.5234664053
 20
7.7112889912
 30
0.0
 10
9.5298683696
 20
7.7209647411
 30
0.0
  0
SPLINE
  5
395
100
AcDbEntity
  8
0
100
AcDbSpline
 62
7
  6
CONTINUOUS
 70
0
 71
3
 72
15
 73
11
 74
0
 42
0.0000001
 43
0.0000001
 44
0.0000000001
 40
0.0
 40
0.0
 40
0.0
 40
0.0
 40
0.1269902512
 40
0.2533343141
 40
0.3790558871
 40
0.5041893271
 40
0.6287836948
 40
0.7529003199
 40
0.8766117183
 40
1.0
 40
1.0
 40
1.0
 40
1.0
 10
9.4658617349
 20
7.458130027
 30
0.0
 10
9.4658617349
 20
7.4703873709
 30
0.0
 10
9.4667636649
 20
7.4948496432
 30
0.0
 10
9.4708397955
 20
7.5312420326
 30
0.0
 10
9.4776137171
 20
7.5670502274
 30
0.0
 10
9.4870490689
 20
7.6020760258
 30
0.0
 10
9.4990945476
 20
7.6361282829
 30
0.0
 10
9.5136851084
 20
7.6690211386
 30
0.0
 10
9.5307396041
 20
7.7005721558
 30
0.0
 10
9.5437078512
 20
7.7206236927
 30
0.0
 10
9.5505651904
 20
7.7303611078
 30
0.0
  0
SPLINE
  5
396
100
AcDbEntity
  8
0
100
AcDbSpline
 62
7
  6
CONTINUOUS
 70
0
 71
3
 72
15
 73
11
 74
0
 42
0.0000001
 43
0.0000001
 44
0.0000000001
 40
0.0
 40
0.0
 40
0.0
 40
0.0
 40
0.126815294
 40
0.2530574731
 40
0.3787433035
 40
0.5038964039
 40
0.6285513713
 40
0.7527513421
 40
0.8765478862
 40
1.0
 40
1.0
 40
1.0
 40
1.0
 10
9.5015304553
 20
7.4925833672
 30
0.0
 10
9.5015304553
 20
7.5034515854
 30
0.0
 10
9.5022396025
 20
7.5251458176
 30
0.0
 10
9.5054434673
 20
7.5574689012
 30
0.0
 10
9.5107714423
 20
7.589367774
 30
0.0
 10
9.5182010413
 20
7.6207037664
 30
0.0
 10
9.5277004653
 20
7.6513425782
 30
0.0
 10
9.5392294614
 20
7.681152913
 30
0.0
 10
9.5527376559
 20
7.7100049235
 30
0.0
 10
9.5630391402
 20
7.7285448637
 30
0.0
 10
9.5684969198
 20
7.7376084626
 30
0.0
  0
SPLINE
  5
397
100
AcDbEntity
  8
0
100
AcDbSpline
 62
7
  6
CONTINUOUS
 70
0
 71
3
 72
36
 73
32
 74
0
 42
0.0000001
 43
0.0000001
 44
0.0000000001
 40
0.0
 40
0.0
 40
0.0
 40
0.0
 40
0.0063161168
 40
0.0126711619
 40
0.0191032581
 40
0.0256490626
 40
0.0392095001
 40
0.05360793
 40
0.0690454499
 40
0.0856791324
 40
0.1036278316
 40
0.1229783533
 40
0.1437916317
 40
0.1661081543
 40
0.1899514448
 40
0.2153320271
 40
0.2422489508
 40
0.2706924073
 40
0.3006446146
 40
0.3320810971
 40
0.3649717252
 40
0.3992808975
 40
0.4349688229
 40
0.4719911741
 40
0.5103002058
 40
0.5498445536
 40
0.632416346
 40
0.7192407559
 40
0.8098108808
 40
0.9035854839
 40
1.0
 40
1.0
 40
1.0
 40
1.0
 10
12.0423528847
 20
6.5240918355
 30
0.0
 10
12.0426959911
 20
6.524068037
 30
0.0
 10
12.0433826982
 20
6.5239922035
 30
0.0
 10
12.0444050494
 20
6.5237945423
 30
0.0
 10
12.0454205979
 20
6.5235129858
 30
0.0
 10
12.0467804481
 20
6.5230204324
 30
0.0
 10
12.0484701297
 20
6.5221830021
 30
0.0
 10
12.0504339114
 20
6.5208580596
 30
0.0
 10
12.0523565728
 20
6.5192052974
 30
0.0
 10
12.0542360674
 20
6.5172285699
 30
0.0
 10
12.0560706525
 20
6.5149313061
 30
0.0
 10
12.0578582118
 20
6.5123171706
 30
0.0
 10
12.0595964603
 20
6.5093901831
 30
0.0
 10
12.0612828717
 20
6.5061548257
 30
0.0
 10
12.0629149712
 20
6.5026161613
 30
0.0
 10
12.0644901296
 20
6.4987797508
 30
0.0
 10
12.0660058802
 20
6.494651733
 30
0.0
 10
12.0674597136
 20
6.4902387428
 30
0.0
 10
12.0688492538
 20
6.4855479331
 30
0.0
 10
12.0701722149
 20
6.4805869396
 30
0.0
 10
12.0714263681
 20
6.4753638631
 30
0.0
 10
12.0726096753
 20
6.4698872595
 30
0.0
 10
12.0737201159
 20
6.4641661113
 30
0.0
 10
12.0747558813
 20
6.4582098212
 30
0.0
 10
12.0757152353
 20
6.4520281751
 30
0.0
 10
12.0769075063
 20
6.4433739524
 30
0.0
 10
12.0781857069
 20
6.4320666061
 30
0.0
 10
12.079372372
 20
6.4179588329
 30
0.0
 10
12.0802248093
 20
6.4032159254
 30
0.0
 10
12.0807372368
 20
6.38793503
 30
0.0
 10
12.0808484469
 20
6.3775782771
 30
0.0
 10
12.0808484469
 20
6.3723282291
 30
0.0
  0
SPLINE
  5
398
100
AcDbEntity
  8
0
100
AcDbSpline
 62
7
  6
CONTINUOUS
 70
0
 71
3
 72
11
 73
7
 74
0
 42
0.0000001
 43
0.0000001
 44
0.0000000001
 40
0.0
 40
0.0
 40
0.0
 40
0.0
 40
0.2551234864
 40
0.5058837001
 40
0.7536882452
 40
1.0
 40
1.0
 40
1.0
 40
1.0
 10
11.04013445
 20
10.3689745506
 30
0.0
 10
11.0404455837
 20
10.3680139992
 30
0.0
 10
11.040993286
 20
10.3660859686
 30
0.0
 10
11.0415865491
 20
10.3631597479
 30
0.0
 10
11.0419427952
 20
10.3602303686
 30
0.0
 10
11.0420220498
 20
10.3582739339
 30
0.0
 10
11.0420220539
 20
10.3572991227
 30
0.0
  0
SPLINE
  5
399
100
AcDbEntity
  8
0
100
AcDbSpline
 62
7
  6
CONTINUOUS
 70
0
 71
3
 72
71
 73
67
 74
0
 42
0.0000001
 43
0.0000001
 44
0.0000000001
 40
0.0
 40
0.0
 40
0.0
 40
0.0
 40
0.0155843069
 40
0.0311159038
 40
0.0465952632
 40
0.0620238805
 40
0.077403449
 40
0.0927362827
 40
0.1080251225
 40
0.1232731731
 40
0.1384840552
 40
0.1536617763
 40
0.1688106901
 40
0.1839354535
 40
0.1990409788
 40
0.2141323827
 40
0.2292149324
 40
0.2442939898
 40
0.259374954
 40
0.2744632038
 40
0.2895640402
 40
0.3046826299
 40
0.3198239506
 40
0.3349927394
 40
0.3501934439
 40
0.3654301775
 40
0.3807066787
 40
0.3960262758
 40
0.4113918556
 40
0.4268058385
 40
0.4422701584
 40
0.4577862477
 40
0.4733550287
 40
0.4889769093
 40
0.5046517847
 40
0.520379043
 40
0.5361575765
 40
0.5519857969
 40
0.5678616545
 40
0.5837826615
 40
0.5997459177
 40
0.6157481411
 40
0.6317856992
 40
0.6478546443
 40
0.6639507502
 40
0.6800695513
 40
0.6962063822
 40
0.7123564202
 40
0.7285147273
 40
0.7446762933
 40
0.7608360801
 40
0.7769890646
 40
0.7931302832
 40
0.8092548748
 40
0.8253581236
 40
0.841435501
 40
0.8574827062
 40
0.8734957057
 40
0.889470771
 40
0.9054045125
 40
0.9212939181
 40
0.9371363645
 40
0.9529297054
 40
0.9686721205
 40
0.9843625712
 40
1.0
 40
1.0
 40
1.0
 40
1.0
 10
10.5953756479
 20
7.1656567694
 30
0.0
 10
10.5953756479
 20
7.1756432242
 30
0.0
 10
10.5958643512
 20
7.1955858989
 30
0.0
 10
10.5980704731
 20
7.2253743106
 30
0.0
 10
10.6017432921
 20
7.254917978
 30
0.0
 10
10.6068739066
 20
7.2841446641
 30
0.0
 10
10.6134501184
 20
7.3129842641
 30
0.0
 10
10.621456098
 20
7.3413671549
 30
0.0
 10
10.6308726422
 20
7.3692249369
 30
0.0
 10
10.6416771066
 20
7.3964904278
 30
0.0
 10
10.6538435079
 20
7.4230978735
 30
0.0
 10
10.6673425654
 20
7.4489830963
 30
0.0
 10
10.6821417774
 20
7.4740836533
 30
0.0
 10
10.6982054953
 20
7.4983389903
 30
0.0
 10
10.7154950075
 20
7.5216905906
 30
0.0
 10
10.733968637
 20
7.544082117
 30
0.0
 10
10.753581841
 20
7.5654595499
 30
0.0
 10
10.7742873198
 20
7.5857713195
 30
0.0
 10
10.7960351316
 20
7.6049684319
 30
0.0
 10
10.8187728146
 20
7.6230045891
 30
0.0
 10
10.8424455157
 20
7.6398363017
 30
0.0
 10
10.8669961241
 20
7.6554229946
 30
0.0
 10
10.8923654116
 20
7.6697271054
 30
0.0
 10
10.918492178
 20
7.6827141744
 30
0.0
 10
10.9453133984
 20
7.6943529308
 30
0.0
 10
10.9727643794
 20
7.704615366
 30
0.0
 10
11.0007789171
 20
7.7134767983
 30
0.0
 10
11.0292894585
 20
7.7209159308
 30
0.0
 10
11.0582272653
 20
7.7269149011
 30
0.0
 10
11.0875225806
 20
7.7314593228
 30
0.0
 10
11.1171047972
 20
7.7345383178
 30
0.0
 10
11.1469026282
 20
7.736144541
 30
0.0
 10
11.1768442787
 20
7.736274196
 30
0.0
 10
11.206857618
 20
7.7349270423
 30
0.0
 10
11.2368703531
 20
7.7321063948
 30
0.0
 10
11.2668102022
 20
7.7278191184
 30
0.0
 10
11.2966050688
 20
7.7220756058
 30
0.0
 10
11.3261832137
 20
7.7148897515
 30
0.0
 10
11.3554734266
 20
7.7062789173
 30
0.0
 10
11.3844051969
 20
7.6962638901
 30
0.0
 10
11.4129088819
 20
7.684868831
 30
0.0
 10
11.4409158733
 20
7.6721212171
 30
0.0
 10
11.4683587613
 20
7.6580517749
 30
0.0
 10
11.4951714959
 20
7.6426944069
 30
0.0
 10
11.5212895444
 20
7.6260861088
 30
0.0
 10
11.5466500469
 20
7.6082668834
 30
0.0
 10
11.5711919687
 20
7.589279645
 30
0.0
 10
11.5948562433
 20
7.569170113
 30
0.0
 10
11.6175859154
 20
7.5479867035
 30
0.0
 10
11.6393262761
 20
7.5257804123
 30
0.0
 10
11.6600249945
 20
7.5026046931
 30
0.0
 10
11.679632243
 20
7.4785153298
 30
0.0
 10
11.6981008163
 20
7.4535703022
 30
0.0
 10
11.7153862447
 20
7.4278296479
 30
0.0
 10
11.7314469011
 20
7.4013553181
 30
0.0
 10
11.7462441001
 20
7.3742110295
 30
0.0
 10
11.759742194
 20
7.3464621134
 30
0.0
 10
11.7719086584
 20
7.3181753575
 30
0.0
 10
11.7827141659
 20
7.2894188466
 30
0.0
 10
11.7921326645
 20
7.2602617961
 30
0.0
 10
11.8001414208
 20
7.2307744002
 30
0.0
 10
11.8067211235
 20
7.2010276135
 30
0.0
 10
11.8118558209
 20
7.1710931587
 30
0.0
 10
11.8155331766
 20
7.1410427678
 30
0.0
 10
11.8177441462
 20
7.1109498633
 30
0.0
 10
11.8182378514
 20
7.0908714829
 30
0.0
 10
11.8182378514
 20
7.0808509876
 30
0.0
  0
SPLINE
  5
39A
100
AcDbEntity
  8
0
100
AcDbSpline
 62
7
  6
CONTINUOUS
 70
0
 71
3
 72
19
 73
15
 74
0
 42
0.0000001
 43
0.0000001
 44
0.0000000001
 40
0.0
 40
0.0
 40
0.0
 40
0.0
 40
0.1270553977
 40
0.2534290471
 40
0.3791484502
 40
0.5042542744
 40
0.5666074153
 40
0.6288299255
 40
0.6909312083
 40
0.7529214539
 40
0.8148115781
 40
0.8766131743
 40
0.9383384214
 40
1.0
 40
1.0
 40
1.0
 40
1.0
 10
9.5603182016
 20
7.5013679731
 30
0.0
 10
9.5603182016
 20
7.5131052417
 30
0.0
 10
9.5612298984
 20
7.5365273907
 30
0.0
 10
9.5653509251
 20
7.5713450298
 30
0.0
 10
9.5721964552
 20
7.6055488718
 30
0.0
 10
9.5801483862
 20
7.6334015618
 30
0.0
 10
9.5878235476
 20
7.6551580783
 30
0.0
 10
9.5942214475
 20
7.6711778286
 30
0.0
 10
9.6012567083
 20
7.6868910858
 30
0.0
 10
9.6089187488
 20
7.7022742531
 30
0.0
 10
9.6171959037
 20
7.7173037565
 30
0.0
 10
9.6260755739
 20
7.7319568436
 30
0.0
 10
9.6355440456
 20
7.7462108469
 30
0.0
 10
9.6422428698
 20
7.755437847
 30
0.0
 10
9.6456848025
 20
7.7599766013
 30
0.0
  0
SPLINE
  5
39B
100
AcDbEntity
  8
0
100
AcDbSpline
 62
7
  6
CONTINUOUS
 70
0
 71
3
 72
36
 73
32
 74
0
 42
0.0000001
 43
0.0000001
 44
0.0000000001
 40
0.0
 40
0.0
 40
0.0
 40
0.0
 40
0.0063161168
 40
0.0126711619
 40
0.0191032581
 40
0.0256490626
 40
0.0392095001
 40
0.05360793
 40
0.0690454499
 40
0.0856791324
 40
0.1036278316
 40
0.1229783533
 40
0.1437916317
 40
0.1661081543
 40
0.1899514448
 40
0.2153320271
 40
0.2422489508
 40
0.2706924073
 40
0.3006446146
 40
0.3320810971
 40
0.3649717252
 40
0.3992808975
 40
0.4349688229
 40
0.4719911741
 40
0.5103002058
 40
0.5498445536
 40
0.632416346
 40
0.7192407559
 40
0.8098108808
 40
0.9035854839
 40
1.0
 40
1.0
 40
1.0
 40
1.0
 10
12.8835140871
 20
7.3365912131
 30
0.0
 10
12.8838571935
 20
7.3365674146
 30
0.0
 10
12.8845439006
 20
7.3364915811
 30
0.0
 10
12.8855662518
 20
7.3362939199
 30
0.0
 10
12.8865818003
 20
7.3360123634
 30
0.0
 10
12.8879416505
 20
7.33551981
 30
0.0
 10
12.8896313321
 20
7.3346823797
 30
0.0
 10
12.8915951138
 20
7.3333574372
 30
0.0
 10
12.8935177752
 20
7.331704675
 30
0.0
 10
12.8953972698
 20
7.3297279475
 30
0.0
 10
12.8972318549
 20
7.3274306837
 30
0.0
 10
12.8990194142
 20
7.3248165483
 30
0.0
 10
12.9007576627
 20
7.3218895607
 30
0.0
 10
12.9024440741
 20
7.3186542033
 30
0.0
 10
12.9040761736
 20
7.3151155389
 30
0.0
 10
12.905651332
 20
7.3112791284
 30
0.0
 10
12.9071670826
 20
7.3071511106
 30
0.0
 10
12.908620916
 20
7.3027381204
 30
0.0
 10
12.9100104562
 20
7.2980473107
 30
0.0
 10
12.9113334173
 20
7.2930863172
 30
0.0
 10
12.9125875705
 20
7.2878632407
 30
0.0
 10
12.9137708777
 20
7.2823866372
 30
0.0
 10
12.9148813183
 20
7.2766654889
 30
0.0
 10
12.9159170837
 20
7.2707091988
 30
0.0
 10
12.9168764377
 20
7.2645275527
 30
0.0
 10
12.9180687087
 20
7.25587333
 30
0.0
 10
12.9193469092
 20
7.2445659837
 30
0.0
 10
12.9205335744
 20
7.2304582105
 30
0.0
 10
12.9213860117
 20
7.215715303
 30
0.0
 10
12.9218984392
 20
7.2004344076
 30
0.0
 10
12.9220096493
 20
7.1900776547
 30
0.0
 10
12.9220096493
 20
7.1848276067
 30
0.0
  0
SPLINE
  5
39C
100
AcDbEntity
  8
0
100
AcDbSpline
 62
7
  6
CONTINUOUS
 70
0
 71
3
 72
44
 73
40
 74
0
 42
0.0000001
 43
0.0000001
 44
0.0000000001
 40
0.0
 40
0.0
 40
0.0
 40
0.0
 40
0.0310744349
 40
0.0623061033
 40
0.0936903779
 40
0.1252186236
 40
0.1568794503
 40
0.1886586803
 40
0.2205397066
 40
0.2525038554
 40
0.2845307769
 40
0.3165988658
 40
0.3486856972
 40
0.3807684736
 40
0.4128244778
 40
0.4448315246
 40
0.4767684059
 40
0.5086153213
 40
0.5403542862
 40
0.5719695169
 40
0.6034477806
 40
0.6347786986
 40
0.6659550044
 40
0.696972748
 40
0.7278314278
 40
0.7585340529
 40
0.7890871347
 40
0.8195005891
 40
0.8497875544
 40
0.8648914079
 40
0.8799699038
 40
0.8950254603
 40
0.9100606302
 40
0.9250780906
 40
0.9400806268
 40
0.9550711117
 40
0.9700524936
 40
0.9850277766
 40
1.0
 40
1.0
 40
1.0
 40
1.0
 10
9.2603881033
 20
7.2831577278
 30
0.0
 10
9.2603881033
 20
7.2702313419
 30
0.0
 10
9.2613523894
 20
7.2443032172
 30
0.0
 10
9.2656576766
 20
7.2055351634
 30
0.0
 10
9.2728012145
 20
7.1669947496
 30
0.0
 10
9.282743536
 20
7.1288963566
 30
0.0
 10
9.2954296016
 20
7.0914484648
 30
0.0
 10
9.3107894191
 20
7.0548567981
 30
0.0
 10
9.3287384291
 20
7.0193221202
 30
0.0
 10
9.3491779091
 20
6.9850394466
 30
0.0
 10
9.3719954618
 20
6.9521968556
 30
0.0
 10
9.3970657472
 20
6.9209745591
 30
0.0
 10
9.4242511393
 20
6.8915439253
 30
0.0
 10
9.453402373
 20
6.8640664544
 30
0.0
 10
9.4843594577
 20
6.838692979
 30
0.0
 10
9.5169525557
 20
6.8155628805
 30
0.0
 10
9.5510028242
 20
6.7948032335
 30
0.0
 10
9.5863234179
 20
6.7765281319
 30
0.0
 10
9.6227205442
 20
6.7608381509
 30
0.0
 10
9.6599944696
 20
6.7478197404
 30
0.0
 10
9.6979405824
 20
6.7375446666
 30
0.0
 10
9.7363505501
 20
6.7300697428
 30
0.0
 10
9.775013427
 20
6.7254365069
 30
0.0
 10
9.8137167679
 20
6.7236708289
 30
0.0
 10
9.8522478545
 20
6.7247828894
 30
0.0
 10
9.8903946719
 20
6.7287670728
 30
0.0
 10
9.9279476811
 20
6.7356021245
 30
0.0
 10
9.9646987247
 20
6.7452502385
 30
0.0
 10
9.9945208017
 20
6.7556026737
 30
0.0
 10
10.0177653401
 20
6.765230003
 30
0.0
 10
10.0348609139
 20
6.7731073784
 30
0.0
 10
10.0516084913
 20
6.7816364862
 30
0.0
 10
10.0679853361
 20
6.7908057757
 30
0.0
 10
10.0839688505
 20
6.800602538
 30
0.0
 10
10.0995370646
 20
6.8110133209
 30
0.0
 10
10.1146684837
 20
6.822023838
 30
0.0
 10
10.129342409
 20
6.8336189423
 30
0.0
 10
10.1435383482
 20
6.8457824374
 30
0.0
 10
10.1526716019
 20
6.8542601907
 30
0.0
 10
10.1571512406
 20
6.8585871859
 30
0.0
  0
SPLINE
  5
39D
100
AcDbEntity
  8
0
100
AcDbSpline
 62
7
  6
CONTINUOUS
 70
0
 71
3
 72
43
 73
39
 74
0
 42
0.0000001
 43
0.0000001
 44
0.0000000001
 40
0.0
 40
0.0
 40
0.0
 40
0.0
 40
0.0309485948
 40
0.0620406286
 40
0.093272685
 40
0.124638059
 40
0.1561280529
 40
0.1877317075
 40
0.219436121
 40
0.2512266705
 40
0.2830872772
 40
0.3150006856
 40
0.3469487586
 40
0.3789127818
 40
0.4108737765
 40
0.4428128141
 40
0.4747113311
 40
0.5065514381
 40
0.5383162228
 40
0.5699900405
 40
0.6015587898
 40
0.6330101668
 40
0.6643338962
 40
0.6955219342
 40
0.7265686398
 40
0.7574709078
 40
0.788228259
 40
0.818842886
 40
0.8341003909
 40
0.8493242608
 40
0.8645155082
 40
0.8796753067
 40
0.909901273
 40
0.9400191537
 40
0.9550444074
 40
0.9700482213
 40
0.9850326877
 40
1.0
 40
1.0
 40
1.0
 40
1.0
 10
9.4510124958
 20
7.4542867626
 30
0.0
 10
9.4510124958
 20
7.4427585278
 30
0.0
 10
9.4517981017
 20
7.4196411959
 30
0.0
 10
9.4553085728
 20
7.3850505623
 30
0.0
 10
9.4611372961
 20
7.3506155275
 30
0.0
 10
9.4692573824
 20
7.3164961408
 30
0.0
 10
9.479631265
 20
7.282848459
 30
0.0
 10
9.4922111732
 20
7.2498269785
 30
0.0
 10
9.506939195
 20
7.217583122
 30
0.0
 10
9.5237476021
 20
7.1862647728
 30
0.0
 10
9.5425591645
 20
7.1560155494
 30
0.0
 10
9.5632875012
 20
7.1269741709
 30
0.0
 10
9.5858374767
 20
7.0992738263
 30
0.0
 10
9.6101056224
 20
7.0730415638
 30
0.0
 10
9.6359805968
 20
7.0483976981
 30
0.0
 10
9.6633437181
 20
7.0254552851
 30
0.0
 10
9.6920694975
 20
7.0043196052
 30
0.0
 10
9.7220262094
 20
6.9850876856
 30
0.0
 10
9.753076488
 20
6.9678478602
 30
0.0
 10
9.7850779349
 20
6.9526793346
 30
0.0
 10
9.817883783
 20
6.9396518501
 30
0.0
 10
9.8513435631
 20
6.9288253676
 30
0.0
 10
9.8853037747
 20
6.9202497873
 30
0.0
 10
9.919608616
 20
6.913964729
 30
0.0
 10
9.954100556
 20
6.9099992947
 30
0.0
 10
9.9886215296
 20
6.9083720104
 30
0.0
 10
10.0230119042
 20
6.9090904746
 30
0.0
 10
10.0514664008
 20
6.9116449883
 30
0.0
 10
10.0740005575
 20
6.9148561829
 30
0.0
 10
10.0907531383
 20
6.9178412188
 30
0.0
 10
10.1073556156
 20
6.921402198
 30
0.0
 10
10.1292427307
 20
6.9269062831
 30
0.0
 10
10.1561421521
 20
6.9352026678
 30
0.0
 10
10.1823386174
 20
6.945369315
 30
0.0
 10
10.2027642197
 20
6.9545853824
 30
0.0
 10
10.2177943201
 20
6.962026379
 30
0.0
 10
10.2325279237
 20
6.9699923126
 30
0.0
 10
10.2421471819
 20
6.9756501342
 30
0.0
 10
10.246900973
 20
6.9785630497
 30
0.0
  0
SPLINE
  5
39E
100
AcDbEntity
  8
0
100
AcDbSpline
 62
7
  6
CONTINUOUS
 70
0
 71
3
 72
42
 73
38
 74
0
 42
0.0000001
 43
0.0000001
 44
0.0000000001
 40
0.0
 40
0.0
 40
0.0
 40
0.0
 40
0.0309663439
 40
0.0620779826
 40
0.0933313616
 40
0.1247195196
 40
0.1562334326
 40
0.1878617345
 40
0.2195910573
 40
0.2514062643
 40
0.2832907309
 40
0.3152266407
 40
0.3471952968
 40
0.3791774436
 40
0.4111535957
 40
0.4431043702
 40
0.4750108164
 40
0.5068547413
 40
0.5386190246
 40
0.5702879226
 40
0.601847354
 40
0.6332851625
 40
0.6645913533
 40
0.6957582987
 40
0.7267809067
 40
0.7422394906
 40
0.7576613094
 40
0.7883907126
 40
0.818976777
 40
0.8494253651
 40
0.8797450237
 40
0.8948623058
 40
0.9099517207
 40
0.925015023
 40
0.9400540968
 40
0.9700627529
 40
1.0
 40
1.0
 40
1.0
 40
1.0
 10
9.4658617349
 20
7.458130027
 30
0.0
 10
9.4658617349
 20
7.4466880955
 30
0.0
 10
9.4666513913
 20
7.4237429852
 30
0.0
 10
9.4701795767
 20
7.3894132555
 30
0.0
 10
9.4760371906
 20
7.3552439713
 30
0.0
 10
9.4841965211
 20
7.3213979892
 30
0.0
 10
9.4946188546
 20
7.2880340524
 30
0.0
 10
9.5072549739
 20
7.2553092496
 30
0.0
 10
9.5220452341
 20
7.2233774612
 30
0.0
 10
9.5389198897
 20
7.192388863
 30
0.0
 10
9.557799434
 20
7.1624891747
 30
0.0
 10
9.5785949693
 20
7.1338189991
 30
0.0
 10
9.6012086222
 20
7.1065131645
 30
0.0
 10
9.6255340012
 20
7.0807001013
 30
0.0
 10
9.6514566695
 20
7.05650122
 30
0.0
 10
9.6788547016
 20
7.0340303613
 30
0.0
 10
9.7075992532
 20
7.0133932695
 30
0.0
 10
9.7375551585
 20
6.9946870987
 30
0.0
 10
9.7685815626
 20
6.9779999621
 30
0.0
 10
9.8005325587
 20
6.9634105073
 30
0.0
 10
9.8332578972
 20
6.9509875313
 30
0.0
 10
9.8666035768
 20
6.9407896873
 30
0.0
 10
9.9004130027
 20
6.9328651895
 30
0.0
 10
9.9345260553
 20
6.9272516309
 30
0.0
 10
9.9631104646
 20
6.9245183306
 30
0.0
 10
9.9859651539
 20
6.9235127267
 30
0.0
 10
10.008732511
 20
6.9232937648
 30
0.0
 10
10.0370860934
 20
6.9244885178
 30
0.0
 10
10.0708078417
 20
6.9282756045
 30
0.0
 10
10.1040313157
 20
6.9343964277
 30
0.0
 10
10.131201888
 20
6.9414264333
 30
0.0
 10
10.1525248524
 20
6.9481841798
 30
0.0
 10
10.1682821161
 20
6.9538081113
 30
0.0
 10
10.1837995927
 20
6.9599856192
 30
0.0
 10
10.2041285475
 20
6.9689430409
 30
0.0
 10
10.228861024
 20
6.9814877201
 30
0.0
 10
10.2478513595
 20
6.9929327817
 30
0.0
 10
10.2571098711
 20
6.9989859487
 30
0.0
  0
SPLINE
  5
39F
100
AcDbEntity
  8
0
100
AcDbSpline
 62
7
  6
CONTINUOUS
 70
0
 71
3
 72
11
 73
7
 74
0
 42
0.0000001
 43
0.0000001
 44
0.0000000001
 40
0.0
 40
0.0
 40
0.0
 40
0.0
 40
0.2463367855
 40
0.4941557574
 40
0.744910901
 40
1.0
 40
1.0
 40
1.0
 40
1.0
 10
9.9620220759
 20
10.3572985133
 30
0.0
 10
9.9620220719
 20
10.3582699672
 30
0.0
 10
9.962100757
 20
10.3602196149
 30
0.0
 10
9.9624544486
 20
10.3631388828
 30
0.0
 10
9.9630436118
 20
10.3660550148
 30
0.0
 10
9.9635875388
 20
10.3679765531
 30
0.0
 10
9.9638965342
 20
10.3689338914
 30
0.0
  0
SPLINE
  5
3A0
100
AcDbEntity
  8
0
100
AcDbSpline
 62
7
  6
CONTINUOUS
 70
0
 71
3
 72
43
 73
39
 74
0
 42
0.0000001
 43
0.0000001
 44
0.0000000001
 40
0.0
 40
0.0
 40
0.0
 40
0.0
 40
0.0309231122
 40
0.0619870075
 40
0.0931884514
 40
0.1245210824
 40
0.155976677
 40
0.1875448359
 40
0.2192133141
 40
0.2509682103
 40
0.2827942133
 40
0.3146748597
 40
0.3465928063
 40
0.3785301112
 40
0.4104685231
 40
0.4423897724
 40
0.4742758641
 40
0.506109367
 40
0.5378736972
 40
0.5695533905
 40
0.6011343629
 40
0.6326041533
 40
0.6639521459
 40
0.6951697695
 40
0.7262506669
 40
0.7571908329
 40
0.7879887143
 40
0.8186452717
 40
0.8339237447
 40
0.8491684091
 40
0.8643800883
 40
0.8795597649
 40
0.9098232308
 40
0.9399739972
 40
0.9550133617
 40
0.9700295319
 40
0.985024411
 40
1.0
 40
1.0
 40
1.0
 40
1.0
 10
9.5015304553
 20
7.4925833672
 30
0.0
 10
9.5015304553
 20
7.4814910998
 30
0.0
 10
9.5022725013
 20
7.459249169
 30
0.0
 10
9.5055888487
 20
7.4259640192
 30
0.0
 10
9.5110959509
 20
7.3928203708
 30
0.0
 10
9.518769326
 20
7.3599667196
 30
0.0
 10
9.5285747437
 20
7.3275479171
 30
0.0
 10
9.5404686764
 20
7.2957074468
 30
0.0
 10
9.5543983499
 20
7.2645860582
 30
0.0
 10
9.5703020328
 20
7.2343213523
 30
0.0
 10
9.5881092778
 20
7.2050471148
 30
0.0
 10
9.6077412543
 20
7.1768927536
 30
0.0
 10
9.6291110925
 20
7.1499827282
 30
0.0
 10
9.652124266
 20
7.1244360061
 30
0.0
 10
9.6766790056
 20
7.1003655421
 30
0.0
 10
9.7026667464
 20
7.0778777835
 30
0.0
 10
9.7299726011
 20
7.0570722025
 30
0.0
 10
9.7584758561
 20
7.0380408466
 30
0.0
 10
9.7880505117
 20
7.0208679475
 30
0.0
 10
9.818565832
 20
7.0056295496
 30
0.0
 10
9.8498869162
 20
6.9923931755
 30
0.0
 10
9.8818752898
 20
6.9812175276
 30
0.0
 10
9.9143895012
 20
6.9721522277
 30
0.0
 10
9.9472857698
 20
6.9652375955
 30
0.0
 10
9.9804184962
 20
6.9605044383
 30
0.0
 10
10.0136413411
 20
6.9579739815
 30
0.0
 10
10.0468062424
 20
6.957657559
 30
0.0
 10
10.0743078648
 20
6.9592425246
 30
0.0
 10
10.0961279337
 20
6.9616174219
 30
0.0
 10
10.1123703937
 20
6.9639463843
 30
0.0
 10
10.128488949
 20
6.9668226058
 30
0.0
 10
10.1497676203
 20
6.9713775966
 30
0.0
 10
10.1759768227
 20
6.9784200698
 30
0.0
 10
10.2015868327
 20
6.9872484598
 30
0.0
 10
10.221610059
 20
6.99534965
 30
0.0
 10
10.236371661
 20
7.0019335431
 30
0.0
 10
10.2508716751
 20
7.0090223388
 30
0.0
 10
10.2603595863
 20
7.0140830633
 30
0.0
 10
10.2650538623
 20
7.0166946087
 30
0.0
  0
SPLINE
  5
3A1
100
AcDbEntity
  8
0
100
AcDbSpline
 62
7
  6
CONTINUOUS
 70
0
 71
3
 72
39
 73
35
 74
0
 42
0.0000001
 43
0.0000001
 44
0.0000000001
 40
0.0
 40
0.0
 40
0.0
 40
0.0
 40
0.0309878419
 40
0.0621232182
 40
0.0934024018
 40
0.124818116
 40
0.1563609311
 40
0.1880189785
 40
0.2197783142
 40
0.2516231685
 40
0.2835362459
 40
0.3154990426
 40
0.3474921783
 40
0.3794957398
 40
0.4114896306
 40
0.4434539243
 40
0.4753692143
 40
0.5072169576
 40
0.5389798076
 40
0.5706419314
 40
0.6021893092
 40
0.6336100064
 40
0.664894416
 40
0.6960354657
 40
0.7270287849
 40
0.7578728261
 40
0.7885689366
 40
0.819121373
 40
0.8495372573
 40
0.8798264733
 40
0.9100015
 40
0.9400771853
 40
0.9700704604
 40
1.0
 40
1.0
 40
1.0
 40
1.0
 10
9.5603182016
 20
7.5013679731
 30
0.0
 10
9.5603182016
 20
7.4908324904
 30
0.0
 10
9.5610563325
 20
7.4697041944
 30
0.0
 10
9.5643538652
 20
7.4380963517
 30
0.0
 10
9.5698279455
 20
7.4066430444
 30
0.0
 10
9.5774518877
 20
7.3754987342
 30
0.0
 10
9.5871884171
 20
7.3448139233
 30
0.0
 10
9.5989901577
 20
7.3147374667
 30
0.0
 10
9.612799716
 20
7.2854150813
 30
0.0
 10
9.6285499966
 20
7.2569888526
 30
0.0
 10
9.6461645402
 20
7.2295965042
 30
0.0
 10
9.6655578912
 20
7.2033707544
 30
0.0
 10
9.6866360083
 20
7.1784386767
 30
0.0
 10
9.7092967194
 20
7.1549210956
 30
0.0
 10
9.733430194
 20
7.132931989
 30
0.0
 10
9.7589194795
 20
7.112577944
 30
0.0
 10
9.7856410737
 20
7.0939576562
 30
0.0
 10
9.8134655131
 20
7.0771614542
 30
0.0
 10
9.8422579928
 20
7.0622708644
 30
0.0
 10
9.8718790117
 20
7.0493582206
 30
0.0
 10
9.9021850288
 20
7.0384862848
 30
0.0
 10
9.9330291641
 20
7.0297079651
 30
0.0
 10
9.9642619006
 20
7.0230660601
 30
0.0
 10
9.9957317983
 20
7.018593046
 30
0.0
 10
10.0272862186
 20
7.0163109147
 30
0.0
 10
10.0587720547
 20
7.016231049
 30
0.0
 10
10.0900364691
 20
7.0183541349
 30
0.0
 10
10.1209276374
 20
7.0226701784
 30
0.0
 10
10.1512954656
 20
7.0291585237
 30
0.0
 10
10.1809923765
 20
7.0377879779
 30
0.0
 10
10.2098738172
 20
7.0485167998
 30
0.0
 10
10.2377997662
 20
7.0612934246
 30
0.0
 10
10.2646325059
 20
7.0760546246
 30
0.0
 10
10.2817239874
 20
7.0871832773
 30
0.0
 10
10.2900385721
 20
7.0930494518
 30
0.0
  0
SPLINE
  5
3A2
100
AcDbEntity
  8
0
100
AcDbSpline
 62
7
  6
CONTINUOUS
 70
0
 71
3
 72
39
 73
35
 74
0
 42
0.0000001
 43
0.0000001
 44
0.0000000001
 40
0.0
 40
0.0
 40
0.0
 40
0.0
 40
0.0306777493
 40
0.0614699592
 40
0.0923739965
 40
0.1233870504
 40
0.1545044156
 40
0.1857204979
 40
0.2170285078
 40
0.2484206777
 40
0.2798883126
 40
0.3114219032
 40
0.3430112305
 40
0.3746454793
 40
0.4063133561
 40
0.4380032108
 40
0.4697031613
 40
0.5014012186
 40
0.5330854139
 40
0.564743925
 40
0.5963652015
 40
0.6279380883
 40
0.6594519459
 40
0.6908967669
 40
0.7222632875
 40
0.7535430934
 40
0.7847287181
 40
0.8158137337
 40
0.8467928316
 40
0.8776618932
 40
0.9084180492
 40
0.9390597255
 40
0.9695866758
 40
1.0
 40
1.0
 40
1.0
 40
1.0
 10
9.7785024766
 20
7.7121178116
 30
0.0
 10
9.7785024766
 20
7.7039452357
 30
0.0
 10
9.7789463016
 20
7.6875662198
 30
0.0
 10
9.780932728
 20
7.6630268372
 30
0.0
 10
9.784235308
 20
7.6385389444
 30
0.0
 10
9.7888441888
 20
7.6141751505
 30
0.0
 10
9.7947459168
 20
7.5900063236
 30
0.0
 10
9.8019231268
 20
7.5661031836
 30
0.0
 10
9.8103548094
 20
7.5425355375
 30
0.0
 10
9.8200162635
 20
7.5193722427
 30
0.0
 10
9.8308792173
 20
7.4966809617
 30
0.0
 10
9.8429118915
 20
7.4745279776
 30
0.0
 10
9.8560790992
 20
7.452977999
 30
0.0
 10
9.8703423465
 20
7.4320939731
 30
0.0
 10
9.885659943
 20
7.4119369017
 30
0.0
 10
9.9019871236
 20
7.3925656635
 30
0.0
 10
9.9192761806
 20
7.3740368449
 30
0.0
 10
9.9374766024
 20
7.3564045749
 30
0.0
 10
9.9565352197
 20
7.3397203685
 30
0.0
 10
9.9763963606
 20
7.3240329767
 30
0.0
 10
9.9970020115
 20
7.3093882448
 30
0.0
 10
10.0182919859
 20
7.2958289795
 30
0.0
 10
10.0402040989
 20
7.2833948239
 30
0.0
 10
10.0626743477
 20
7.2721221422
 30
0.0
 10
10.0856370968
 20
7.2620439138
 30
0.0
 10
10.1090252685
 20
7.2531896364
 30
0.0
 10
10.132770536
 20
7.2455852363
 30
0.0
 10
10.1568035255
 20
7.2392529966
 30
0.0
 10
10.1810540088
 20
7.2342114898
 30
0.0
 10
10.2054511373
 20
7.2304755257
 30
0.0
 10
10.2299235342
 20
7.2280560976
 30
0.0
 10
10.2543999228
 20
7.2269603818
 30
0.0
 10
10.2788077698
 20
7.2271915932
 30
0.0
 10
10.2950185818
 20
7.22823206
 30
0.0
 10
10.3030867031
 20
7.2289736629
 30
0.0
  0
SPLINE
  5
3A3
100
AcDbEntity
  8
0
100
AcDbSpline
 62
7
  6
CONTINUOUS
 70
0
 71
3
 72
39
 73
35
 74
0
 42
0.0000001
 43
0.0000001
 44
0.0000000001
 40
0.0
 40
0.0
 40
0.0
 40
0.0
 40
0.0306705869
 40
0.0614548769
 40
0.0923500278
 40
0.123353481
 40
0.154460558
 40
0.1856658157
 40
0.2169626072
 40
0.2483433341
 40
0.2797994852
 40
0.3113217476
 40
0.3429001072
 40
0.3745239593
 40
0.4061822226
 40
0.4378634568
 40
0.469555982
 40
0.5012480009
 40
0.5329277212
 40
0.5645834785
 40
0.5962038574
 40
0.6277778127
 40
0.6592947863
 40
0.6907448208
 40
0.7221186683
 40
0.753407894
 40
0.7846049722
 40
0.8157033758
 40
0.8466976566
 40
0.8775835156
 40
0.9083578635
 40
0.9390188684
 40
0.96956599
 40
1.0
 40
1.0
 40
1.0
 40
1.0
 10
9.815244818
 20
7.7176081902
 30
0.0
 10
9.815244818
 20
7.7100177728
 30
0.0
 10
9.8156538557
 20
7.6948057146
 30
0.0
 10
9.8174846399
 20
7.6720139633
 30
0.0
 10
9.8205285871
 20
7.6492686351
 30
0.0
 10
9.8247767103
 20
7.6266361754
 30
0.0
 10
9.8302168303
 20
7.6041813817
 30
0.0
 10
9.8368331688
 20
7.5819689665
 30
0.0
 10
9.8446066623
 20
7.560062805
 30
0.0
 10
9.853514885
 20
7.5385259239
 30
0.0
 10
9.8635321697
 20
7.5174202751
 30
0.0
 10
9.8746296606
 20
7.4968065698
 30
0.0
 10
9.8867753966
 20
7.4767440993
 30
0.0
 10
9.8999344087
 20
7.4572905685
 30
0.0
 10
9.9140688203
 20
7.4385019313
 30
0.0
 10
9.929137956
 20
7.4204322306
 30
0.0
 10
9.9450984576
 20
7.4031334443
 30
0.0
 10
9.9619044081
 20
7.3866553366
 30
0.0
 10
9.9795074633
 20
7.371045316
 30
0.0
 10
9.9978569895
 20
7.3563482996
 30
0.0
 10
10.016900208
 20
7.342606584
 30
0.0
 10
10.0365823424
 20
7.3298597184
 30
0.0
 10
10.0568467803
 20
7.3181443971
 30
0.0
 10
10.0776352348
 20
7.3074943541
 30
0.0
 10
10.0988879105
 20
7.2979402661
 30
0.0
 10
10.1205436747
 20
7.2895096653
 30
0.0
 10
10.1425402307
 20
7.2822268592
 30
0.0
 10
10.1648142978
 20
7.276112861
 30
0.0
 10
10.187301784
 20
7.2711853285
 30
0.0
 10
10.209937997
 20
7.2674585128
 30
0.0
 10
10.2326577246
 20
7.2649432025
 30
0.0
 10
10.2553958079
 20
7.2636467274
 30
0.0
 10
10.2780859001
 20
7.263572831
 30
0.0
 10
10.2931668966
 20
7.2643403793
 30
0.0
 10
10.3006757755
 20
7.2649284155
 30
0.0
  0
SPLINE
  5
3A4
100
AcDbEntity
  8
0
100
AcDbSpline
 62
7
  6
CONTINUOUS
 70
0
 71
3
 72
71
 73
67
 74
0
 42
0.0000001
 43
0.0000001
 44
0.0000000001
 40
0.0
 40
0.0
 40
0.0
 40
0.0
 40
0.0155843069
 40
0.0311159038
 40
0.0465952632
 40
0.0620238805
 40
0.077403449
 40
0.0927362827
 40
0.1080251225
 40
0.1232731731
 40
0.1384840552
 40
0.1536617763
 40
0.1688106901
 40
0.1839354535
 40
0.1990409788
 40
0.2141323827
 40
0.2292149324
 40
0.2442939898
 40
0.259374954
 40
0.2744632038
 40
0.2895640402
 40
0.3046826299
 40
0.3198239506
 40
0.3349927394
 40
0.3501934439
 40
0.3654301775
 40
0.3807066787
 40
0.3960262758
 40
0.4113918556
 40
0.4268058385
 40
0.4422701584
 40
0.4577862477
 40
0.4733550287
 40
0.4889769093
 40
0.5046517847
 40
0.520379043
 40
0.5361575765
 40
0.5519857969
 40
0.5678616545
 40
0.5837826615
 40
0.5997459177
 40
0.6157481411
 40
0.6317856992
 40
0.6478546443
 40
0.6639507502
 40
0.6800695513
 40
0.6962063822
 40
0.7123564202
 40
0.7285147273
 40
0.7446762933
 40
0.7608360801
 40
0.7769890646
 40
0.7931302832
 40
0.8092548748
 40
0.8253581236
 40
0.841435501
 40
0.8574827062
 40
0.8734957057
 40
0.889470771
 40
0.9054045125
 40
0.9212939181
 40
0.9371363645
 40
0.9529297054
 40
0.9686721205
 40
0.9843625712
 40
1.0
 40
1.0
 40
1.0
 40
1.0
 10
11.8182378514
 20
7.0808509876
 30
0.0
 10
11.8182378514
 20
7.0708645328
 30
0.0
 10
11.8177491481
 20
7.0509218581
 30
0.0
 10
11.8155430261
 20
7.0211334464
 30
0.0
 10
11.8118702072
 20
6.991589779
 30
0.0
 10
11.8067395927
 20
6.9623630928
 30
0.0
 10
11.8001633808
 20
6.9335234929
 30
0.0
 10
11.7921574013
 20
6.905140602
 30
0.0
 10
11.7827408571
 20
6.87728282
 30
0.0
 10
11.7719363927
 20
6.8500173292
 30
0.0
 10
11.7597699914
 20
6.8234098835
 30
0.0
 10
11.7462709339
 20
6.7975246607
 30
0.0
 10
11.7314717218
 20
6.7724241036
 30
0.0
 10
11.715408004
 20
6.7481687667
 30
0.0
 10
11.6981184917
 20
6.7248171664
 30
0.0
 10
11.6796448623
 20
6.70242564
 30
0.0
 10
11.6600316582
 20
6.6810482071
 30
0.0
 10
11.6393261795
 20
6.6607364375
 30
0.0
 10
11.6175783677
 20
6.6415393251
 30
0.0
 10
11.5948406846
 20
6.6235031679
 30
0.0
 10
11.5711679836
 20
6.6066714552
 30
0.0
 10
11.5466173752
 20
6.5910847623
 30
0.0
 10
11.5212480876
 20
6.5767806515
 30
0.0
 10
11.4951213213
 20
6.5637935826
 30
0.0
 10
11.4683001008
 20
6.5521548262
 30
0.0
 10
11.4408491198
 20
6.5418923909
 30
0.0
 10
11.4128345821
 20
6.5330309586
 30
0.0
 10
11.3843240407
 20
6.5255918262
 30
0.0
 10
11.3553862339
 20
6.5195928558
 30
0.0
 10
11.3260909187
 20
6.5150484342
 30
0.0
 10
11.2965087021
 20
6.5119694392
 30
0.0
 10
11.266710871
 20
6.5103632159
 30
0.0
 10
11.2367692205
 20
6.510233561
 30
0.0
 10
11.2067558812
 20
6.5115807147
 30
0.0
 10
11.1767431462
 20
6.5144013622
 30
0.0
 10
11.146803297
 20
6.5186886386
 30
0.0
 10
11.1170084304
 20
6.5244321512
 30
0.0
 10
11.0874302856
 20
6.5316180055
 30
0.0
 10
11.0581400727
 20
6.5402288397
 30
0.0
 10
11.0292083023
 20
6.5502438669
 30
0.0
 10
11.0007046173
 20
6.561638926
 30
0.0
 10
10.9726976259
 20
6.5743865399
 30
0.0
 10
10.9452547379
 20
6.588455982
 30
0.0
 10
10.9184420034
 20
6.6038133501
 30
0.0
 10
10.8923239549
 20
6.6204216481
 30
0.0
 10
10.8669634523
 20
6.6382408735
 30
0.0
 10
10.8424215306
 20
6.657228112
 30
0.0
 10
10.8187572559
 20
6.6773376439
 30
0.0
 10
10.7960275839
 20
6.6985210535
 30
0.0
 10
10.7742872232
 20
6.7207273447
 30
0.0
 10
10.7535885047
 20
6.7439030638
 30
0.0
 10
10.7339812562
 20
6.7679924272
 30
0.0
 10
10.715512683
 20
6.7929374548
 30
0.0
 10
10.6982272546
 20
6.8186781091
 30
0.0
 10
10.6821665981
 20
6.8451524389
 30
0.0
 10
10.6673693992
 20
6.8722967274
 30
0.0
 10
10.6538713053
 20
6.9000456436
 30
0.0
 10
10.6417048409
 20
6.9283323994
 30
0.0
 10
10.6308993333
 20
6.9570889104
 30
0.0
 10
10.6214808347
 20
6.9862459609
 30
0.0
 10
10.6134720785
 20
7.0157333568
 30
0.0
 10
10.6068923757
 20
7.0454801435
 30
0.0
 10
10.6017576783
 20
7.0754145983
 30
0.0
 10
10.5980803226
 20
7.1054649892
 30
0.0
 10
10.5958693531
 20
7.1355578937
 30
0.0
 10
10.5953756479
 20
7.155636274
 30
0.0
 10
10.5953756479
 20
7.1656567694
 30
0.0
  0
SPLINE
  5
3A5
100
AcDbEntity
  8
0
100
AcDbSpline
 62
7
  6
CONTINUOUS
 70
0
 71
3
 72
23
 73
19
 74
0
 42
0.0000001
 43
0.0000001
 44
0.0000000001
 40
0.0
 40
0.0
 40
0.0
 40
0.0
 40
0.0618761875
 40
0.1239899092
 40
0.1863157041
 40
0.2488243029
 40
0.311483173
 40
0.3742571196
 40
0.4371089225
 40
0.4999999968
 40
0.562891071
 40
0.6257428739
 40
0.6885168205
 40
0.7511756905
 40
0.8136842891
 40
0.8760100832
 40
0.9381238031
 40
1.0
 40
1.0
 40
1.0
 40
1.0
 10
9.9969068716
 20
7.7072284577
 30
0.0
 10
9.9987881879
 20
7.6996112012
 30
0.0
 10
10.0030745062
 20
7.6844698466
 30
0.0
 10
10.011018236
 20
7.6622022175
 30
0.0
 10
10.0204520453
 20
7.6404353695
 30
0.0
 10
10.0313298934
 20
7.6192757809
 30
0.0
 10
10.0435992357
 20
7.5988252517
 30
0.0
 10
10.0572007138
 20
7.5791826219
 30
0.0
 10
10.0720685914
 20
7.560442707
 30
0.0
 10
10.0881310302
 20
7.5426960039
 30
0.0
 10
10.1053104437
 20
7.5260282157
 30
0.0
 10
10.123523869
 20
7.5105198523
 30
0.0
 10
10.1426833532
 20
7.4962458453
 30
0.0
 10
10.1626964158
 20
7.4832751771
 30
0.0
 10
10.1834663331
 20
7.4716705963
 30
0.0
 10
10.204893187
 20
7.4614881434
 30
0.0
 10
10.2268721598
 20
7.4527775214
 30
0.0
 10
10.2418558818
 20
7.4479690646
 30
0.0
 10
10.2494033697
 20
7.4458249116
 30
0.0
  0
SPLINE
  5
3A6
100
AcDbEntity
  8
0
100
AcDbSpline
 62
7
  6
CONTINUOUS
 70
0
 71
3
 72
25
 73
21
 74
0
 42
0.0000001
 43
0.0000001
 44
0.0000000001
 40
0.0
 40
0.0
 40
0.0
 40
0.0
 40
0.061590258
 40
0.1235160653
 40
0.1857489092
 40
0.2482516395
 40
0.3109796576
 40
0.3738822072
 40
0.436903794
 40
0.49998572
 40
0.5630676711
 40
0.6260893281
 40
0.6889919928
 40
0.7517201705
 40
0.8142230934
 40
0.8764561647
 40
0.9074662871
 40
0.9383957236
 40
0.9692411912
 40
1.0
 40
1.0
 40
1.0
 40
1.0
 10
9.8983265924
 20
7.7471329973
 30
0.0
 10
9.8997062291
 20
7.7349190389
 30
0.0
 10
9.9035172307
 20
7.7105301262
 30
0.0
 10
9.9122988267
 20
7.6744731339
 30
0.0
 10
9.9240973837
 20
7.6390934304
 30
0.0
 10
9.9388246494
 20
7.6046564101
 30
0.0
 10
9.956371153
 20
7.5714159077
 30
0.0
 10
9.9766067588
 20
7.5396181699
 30
0.0
 10
9.9993813418
 20
7.5094982995
 30
0.0
 10
10.0245262927
 20
7.4812792284
 30
0.0
 10
10.0518554005
 20
7.45516975
 30
0.0
 10
10.0811664591
 20
7.4313631409
 30
0.0
 10
10.1122425225
 20
7.4100358241
 30
0.0
 10
10.1448540858
 20
7.3913456687
 30
0.0
 10
10.1787582875
 20
7.3754319563
 30
0.0
 10
10.207921448
 20
7.3645676575
 30
0.0
 10
10.2316430198
 20
7.3573781589
 30
0.0
 10
10.2495782884
 20
7.3527494574
 30
0.0
 10
10.2676422207
 20
7.348887484
 30
0.0
 10
10.2797669393
 20
7.346825625
 30
0.0
 10
10.2858391139
 20
7.3459252375
 30
0.0
  0
SPLINE
  5
3A7
100
AcDbEntity
  8
0
100
AcDbSpline
 62
7
  6
CONTINUOUS
 70
0
 71
3
 72
23
 73
19
 74
0
 42
0.0000001
 43
0.0000001
 44
0.0000000001
 40
0.0
 40
0.0
 40
0.0
 40
0.0
 40
0.0637774724
 40
0.127344696
 40
0.1907020124
 40
0.2538561402
 40
0.3168131804
 40
0.3795820984
 40
0.4421733882
 40
0.5045993399
 40
0.5668738668
 40
0.6290123797
 40
0.6910316501
 40
0.7529496455
 40
0.8147853558
 40
0.8765586055
 40
0.9382898564
 40
1.0
 40
1.0
 40
1.0
 40
1.0
 10
10.7092769285
 20
7.1826769465
 30
0.0
 10
10.7092769285
 20
7.1910085229
 30
0.0
 10
10.7096756925
 20
7.2076470338
 30
0.0
 10
10.7114756157
 20
7.2325036228
 30
0.0
 10
10.71447243
 20
7.2571631217
 30
0.0
 10
10.7186590758
 20
7.2815677703
 30
0.0
 10
10.7240261088
 20
7.3056616686
 30
0.0
 10
10.7305611436
 20
7.3293891569
 30
0.0
 10
10.7382492095
 20
7.3526955576
 30
0.0
 10
10.7470726189
 20
7.375527119
 30
0.0
 10
10.757011069
 20
7.3978311899
 30
0.0
 10
10.7680416848
 20
7.4195563268
 30
0.0
 10
10.7801390642
 20
7.4406524117
 30
0.0
 10
10.7932753556
 20
7.4610707862
 30
0.0
 10
10.8074202529
 20
7.4807642943
 30
0.0
 10
10.8225413128
 20
7.4996876556
 30
0.0
 10
10.8386030607
 20
7.5177966302
 30
0.0
 10
10.8499154645
 20
7.5293006211
 30
0.0
 10
10.8557137454
 20
7.5349013258
 30
0.0
  0
SPLINE
  5
3A8
100
AcDbEntity
  8
0
100
AcDbSpline
 62
7
  6
CONTINUOUS
 70
0
 71
3
 72
43
 73
39
 74
0
 42
0.0000001
 43
0.0000001
 44
0.0000000001
 40
0.0
 40
0.0
 40
0.0
 40
0.0
 40
0.0309202825
 40
0.0619810447
 40
0.0931790821
 40
0.1245080736
 40
0.1559598399
 40
0.1875240469
 40
0.2191885196
 40
0.2509394355
 40
0.2827615672
 40
0.3146385386
 40
0.3465530936
 40
0.3784873755
 40
0.4104232131
 40
0.4423424101
 40
0.4742270357
 40
0.5060597114
 40
0.5378238915
 40
0.5695041344
 40
0.6010863606
 40
0.6325580952
 40
0.6639086901
 40
0.695129521
 40
0.7262141567
 40
0.7571584973
 40
0.7879608756
 40
0.8186221208
 40
0.8339029551
 40
0.8491499693
 40
0.8643639736
 40
0.8795459224
 40
0.9098137239
 40
0.9399683677
 40
0.9550094307
 40
0.9700271215
 40
0.9850233171
 40
1.0
 40
1.0
 40
1.0
 40
1.0
 10
10.8873442846
 20
7.3546768147
 30
0.0
 10
10.8873442846
 20
7.3431037799
 30
0.0
 10
10.8881168907
 20
7.3198979647
 30
0.0
 10
10.8915698761
 20
7.2851698583
 30
0.0
 10
10.8973039558
 20
7.2505884499
 30
0.0
 10
10.9052937428
 20
7.2163080383
 30
0.0
 10
10.9155037468
 20
7.1824791463
 30
0.0
 10
10.9278888298
 20
7.1492508858
 30
0.0
 10
10.9423942707
 20
7.1167695405
 30
0.0
 10
10.9589560358
 20
7.0851781297
 30
0.0
 10
10.9775010653
 20
7.0546157303
 30
0.0
 10
10.997947601
 20
7.0252168907
 30
0.0
 10
11.020205543
 20
6.9971110398
 30
0.0
 10
11.0441768429
 20
6.9704219245
 30
0.0
 10
11.0697559347
 20
6.9452670724
 30
0.0
 10
11.0968301798
 20
6.9217572628
 30
0.0
 10
11.1252803699
 20
6.8999960492
 30
0.0
 10
11.1549812529
 20
6.8800793137
 30
0.0
 10
11.185802077
 20
6.8620948471
 30
0.0
 10
11.2176071596
 20
6.8461219639
 30
0.0
 10
11.2502564786
 20
6.8322311581
 30
0.0
 10
11.283606277
 20
6.8204837755
 30
0.0
 10
11.3175096842
 20
6.8109317438
 30
0.0
 10
11.3518173933
 20
6.8036173595
 30
0.0
 10
11.3863781863
 20
6.7985730794
 30
0.0
 10
11.4210400464
 20
6.7958214319
 30
0.0
 10
11.4556491366
 20
6.79537469
 30
0.0
 10
11.484355241
 20
6.7969272583
 30
0.0
 10
11.507135547
 20
6.7993221707
 30
0.0
 10
11.5240951316
 20
6.8016890949
 30
0.0
 10
11.5409278
 20
6.8046260394
 30
0.0
 10
11.5631525034
 20
6.8092924425
 30
0.0
 10
11.5905334546
 20
6.8165307565
 30
0.0
 10
11.6172980673
 20
6.8256306074
 30
0.0
 10
11.638230147
 20
6.8339935562
 30
0.0
 10
11.6536649261
 20
6.8407954957
 30
0.0
 10
11.6688294292
 20
6.8481242876
 30
0.0
 10
11.6787545628
 20
6.8533594425
 30
0.0
 10
11.6836657399
 20
6.8560617943
 30
0.0
  0
SPLINE
  5
3A9
100
AcDbEntity
  8
0
100
AcDbSpline
 62
7
  6
CONTINUOUS
 70
0
 71
3
 72
15
 73
11
 74
0
 42
0.0000001
 43
0.0000001
 44
0.0000000001
 40
0.0
 40
0.0
 40
0.0
 40
0.0
 40
0.1268026816
 40
0.2530372138
 40
0.3787199841
 40
0.5038739791
 40
0.6285329036
 40
0.752738808
 40
0.8765419821
 40
1.0
 40
1.0
 40
1.0
 40
1.0
 10
10.8873442846
 20
7.3546768147
 30
0.0
 10
10.8873442846
 20
7.3659404454
 30
0.0
 10
10.8880728294
 20
7.3884242769
 30
0.0
 10
10.891364254
 20
7.4219270794
 30
0.0
 10
10.8968380742
 20
7.4549965309
 30
0.0
 10
10.9044715888
 20
7.4874913805
 30
0.0
 10
10.9142326953
 20
7.5192747873
 30
0.0
 10
10.9260807492
 20
7.5502129271
 30
0.0
 10
10.9399648941
 20
7.5801733845
 30
0.0
 10
10.9505549905
 20
7.5994388229
 30
0.0
 10
10.9561663819
 20
7.6088609822
 30
0.0
  0
SPLINE
  5
3AA
100
AcDbEntity
  8
0
100
AcDbSpline
 62
7
  6
CONTINUOUS
 70
0
 71
3
 72
15
 73
11
 74
0
 42
0.0000001
 43
0.0000001
 44
0.0000000001
 40
0.0
 40
0.0
 40
0.0
 40
0.0
 40
0.1269217366
 40
0.2532267895
 40
0.3789359499
 40
0.5040788944
 40
0.6286983953
 40
0.7528479497
 40
0.8765910699
 40
1.0
 40
1.0
 40
1.0
 40
1.0
 10
10.8999013211
 20
7.3538059813
 30
0.0
 10
10.8999013211
 20
7.3657381799
 30
0.0
 10
10.9007390339
 20
7.3895534092
 30
0.0
 10
10.9045244817
 20
7.4250054776
 30
0.0
 10
10.9108171314
 20
7.4599317422
 30
0.0
 10
10.9195862276
 20
7.4941563129
 30
0.0
 10
10.9307883705
 20
7.5275092477
 30
0.0
 10
10.944368546
 20
7.5598249238
 30
0.0
 10
10.9602579931
 20
7.5909402805
 30
0.0
 10
10.9723552306
 20
7.6108082098
 30
0.0
 10
10.9787571949
 20
7.6204839598
 30
0.0
  0
SPLINE
  5
3AB
100
AcDbEntity
  8
0
100
AcDbSpline
 62
7
  6
CONTINUOUS
 70
0
 71
3
 72
15
 73
11
 74
0
 42
0.0000001
 43
0.0000001
 44
0.0000000001
 40
0.0
 40
0.0
 40
0.0
 40
0.0
 40
0.1269902512
 40
0.2533343141
 40
0.3790558871
 40
0.5041893271
 40
0.6287836948
 40
0.7529003199
 40
0.8766117183
 40
1.0
 40
1.0
 40
1.0
 40
1.0
 10
10.9147505602
 20
7.3576492457
 30
0.0
 10
10.9147505602
 20
7.3699065895
 30
0.0
 10
10.9156524902
 20
7.3943688618
 30
0.0
 10
10.9197286207
 20
7.4307612513
 30
0.0
 10
10.9265025424
 20
7.4665694461
 30
0.0
 10
10.9359378942
 20
7.5015952445
 30
0.0
 10
10.9479833729
 20
7.5356475016
 30
0.0
 10
10.9625739337
 20
7.5685403573
 30
0.0
 10
10.9796284293
 20
7.6000913744
 30
0.0
 10
10.9925966765
 20
7.6201429114
 30
0.0
 10
10.9994540156
 20
7.6298803265
 30
0.0
  0
SPLINE
  5
3AC
100
AcDbEntity
  8
0
100
AcDbSpline
 62
7
  6
CONTINUOUS
 70
0
 71
3
 72
15
 73
11
 74
0
 42
0.0000001
 43
0.0000001
 44
0.0000000001
 40
0.0
 40
0.0
 40
0.0
 40
0.0
 40
0.126815294
 40
0.2530574731
 40
0.3787433035
 40
0.5038964039
 40
0.6285513713
 40
0.7527513421
 40
0.8765478862
 40
1.0
 40
1.0
 40
1.0
 40
1.0
 10
10.9504192806
 20
7.3921025859
 30
0.0
 10
10.9504192806
 20
7.4029708041
 30
0.0
 10
10.9511284277
 20
7.4246650363
 30
0.0
 10
10.9543322926
 20
7.4569881198
 30
0.0
 10
10.9596602676
 20
7.4888869927
 30
0.0
 10
10.9670898666
 20
7.520222985
 30
0.0
 10
10.9765892906
 20
7.5508617969
 30
0.0
 10
10.9881182867
 20
7.5806721317
 30
0.0
 10
11.0016264812
 20
7.6095241422
 30
0.0
 10
11.0119279655
 20
7.6280640824
 30
0.0
 10
11.017385745
 20
7.6371276813
 30
0.0
  0
SPLINE
  5
3AD
100
AcDbEntity
  8
0
100
AcDbSpline
 62
7
  6
CONTINUOUS
 70
0
 71
3
 72
19
 73
15
 74
0
 42
0.0000001
 43
0.0000001
 44
0.0000000001
 40
0.0
 40
0.0
 40
0.0
 40
0.0
 40
0.1270553977
 40
0.2534290471
 40
0.3791484502
 40
0.5042542744
 40
0.5666074153
 40
0.6288299255
 40
0.6909312083
 40
0.7529214539
 40
0.8148115781
 40
0.8766131743
 40
0.9383384214
 40
1.0
 40
1.0
 40
1.0
 40
1.0
 10
11.0092070269
 20
7.4008871917
 30
0.0
 10
11.0092070269
 20
7.4126244603
 30
0.0
 10
11.0101187237
 20
7.4360466094
 30
0.0
 10
11.0142397504
 20
7.4708642485
 30
0.0
 10
11.0210852805
 20
7.5050680905
 30
0.0
 10
11.0290372115
 20
7.5329207805
 30
0.0
 10
11.0367123729
 20
7.554677297
 30
0.0
 10
11.0431102728
 20
7.5706970473
 30
0.0
 10
11.0501455335
 20
7.5864103045
 30
0.0
 10
11.0578075741
 20
7.6017934718
 30
0.0
 10
11.066084729
 20
7.6168229752
 30
0.0
 10
11.0749643992
 20
7.6314760623
 30
0.0
 10
11.0844328709
 20
7.6457300655
 30
0.0
 10
11.091131695
 20
7.6549570656
 30
0.0
 10
11.0945736278
 20
7.65949582
 30
0.0
  0
SPLINE
  5
3AE
100
AcDbEntity
  8
0
100
AcDbSpline
 62
7
  6
CONTINUOUS
 70
0
 71
3
 72
25
 73
21
 74
0
 42
0.0000001
 43
0.0000001
 44
0.0000000001
 40
0.0
 40
0.0
 40
0.0
 40
0.0
 40
0.06377716
 40
0.127343222
 40
0.190700148
 40
0.2538535537
 40
0.3168099705
 40
0.3795782475
 40
0.4421688972
 40
0.5045942157
 40
0.5668681101
 40
0.629005993
 40
0.6910246336
 40
0.7219973337
 40
0.7529470518
 40
0.8147821333
 40
0.8765547559
 40
0.9074265679
 40
0.9382904805
 40
1.0
 40
1.0
 40
1.0
 40
1.0
 10
9.0865994353
 20
8.8399203159
 30
0.0
 10
9.0865994353
 20
8.8506434443
 30
0.0
 10
9.0871126394
 20
8.8720578442
 30
0.0
 10
9.0894292561
 20
8.9040492772
 30
0.0
 10
9.0932862386
 20
8.9357869851
 30
0.0
 10
9.0986746645
 20
8.967196769
 30
0.0
 10
9.105582267
 20
8.9982065647
 30
0.0
 10
9.1139931495
 20
9.0287447825
 30
0.0
 10
9.1238880192
 20
9.0587410503
 30
0.0
 10
9.1352441008
 20
9.0881261578
 30
0.0
 10
9.1480353496
 20
9.1168324539
 30
0.0
 10
9.1622320514
 20
9.1447932879
 30
0.0
 10
9.1752131168
 20
9.1674302389
 30
0.0
 10
9.1862649188
 20
9.1850992021
 30
0.0
 10
9.1977473997
 20
9.2024544088
 30
0.0
 10
9.2129141034
 20
9.2235705795
 30
0.0
 10
9.2291355883
 20
9.2438709314
 30
0.0
 10
9.2427157507
 20
9.2595837467
 30
0.0
 10
9.2566877439
 20
9.2749342019
 30
0.0
 10
9.2676072483
 20
9.2860386227
 30
0.0
 10
9.2750698719
 20
9.2932469502
 30
0.0
  0
SPLINE
  5
3AF
100
AcDbEntity
  8
0
100
AcDbSpline
 62
7
  6
CONTINUOUS
 70
0
 71
3
 72
11
 73
7
 74
0
 42
0.0000001
 43
0.0000001
 44
0.0000000001
 40
0.0
 40
0.0
 40
0.0
 40
0.0
 40
0.2463367855
 40
0.4941557574
 40
0.744910901
 40
1.0
 40
1.0
 40
1.0
 40
1.0
 10
11.4109109012
 20
10.256817732
 30
0.0
 10
11.4109108971
 20
10.2577891859
 30
0.0
 10
11.4109895823
 20
10.2597388336
 30
0.0
 10
11.4113432739
 20
10.2626581015
 30
0.0
 10
11.4119324371
 20
10.2655742335
 30
0.0
 10
11.4124763641
 20
10.2674957718
 30
0.0
 10
11.4127853594
 20
10.2684531101
 30
0.0
  0
SPLINE
  5
3B0
100
AcDbEntity
  8
0
100
AcDbSpline
 62
7
  6
CONTINUOUS
 70
0
 71
3
 72
44
 73
40
 74
0
 42
0.0000001
 43
0.0000001
 44
0.0000000001
 40
0.0
 40
0.0
 40
0.0
 40
0.0
 40
0.0310744349
 40
0.0623061033
 40
0.0936903779
 40
0.1252186236
 40
0.1568794503
 40
0.1886586803
 40
0.2205397066
 40
0.2525038554
 40
0.2845307769
 40
0.3165988658
 40
0.3486856972
 40
0.3807684736
 40
0.4128244778
 40
0.4448315246
 40
0.4767684059
 40
0.5086153213
 40
0.5403542862
 40
0.5719695169
 40
0.6034477806
 40
0.6347786986
 40
0.6659550044
 40
0.696972748
 40
0.7278314278
 40
0.7585340529
 40
0.7890871347
 40
0.8195005891
 40
0.8497875544
 40
0.8648914079
 40
0.8799699038
 40
0.8950254603
 40
0.9100606302
 40
0.9250780906
 40
0.9400806268
 40
0.9550711117
 40
0.9700524936
 40
0.9850277766
 40
1.0
 40
1.0
 40
1.0
 40
1.0
 10
10.7092769285
 20
7.1826769465
 30
0.0
 10
10.7092769285
 20
7.1697505606
 30
0.0
 10
10.7102412147
 20
7.1438224358
 30
0.0
 10
10.7145465019
 20
7.105054382
 30
0.0
 10
10.7216900398
 20
7.0665139683
 30
0.0
 10
10.7316323613
 20
7.0284155753
 30
0.0
 10
10.7443184268
 20
6.9909676835
 30
0.0
 10
10.7596782444
 20
6.9543760168
 30
0.0
 10
10.7776272544
 20
6.9188413388
 30
0.0
 10
10.7980667344
 20
6.8845586653
 30
0.0
 10
10.8208842871
 20
6.8517160742
 30
0.0
 10
10.8459545725
 20
6.8204937778
 30
0.0
 10
10.8731399645
 20
6.791063144
 30
0.0
 10
10.9022911982
 20
6.7635856731
 30
0.0
 10
10.933248283
 20
6.7382121977
 30
0.0
 10
10.965841381
 20
6.7150820992
 30
0.0
 10
10.9998916495
 20
6.6943224522
 30
0.0
 10
11.0352122432
 20
6.6760473506
 30
0.0
 10
11.0716093695
 20
6.6603573695
 30
0.0
 10
11.1088832949
 20
6.6473389591
 30
0.0
 10
11.1468294077
 20
6.6370638852
 30
0.0
 10
11.1852393753
 20
6.6295889615
 30
0.0
 10
11.2239022523
 20
6.6249557256
 30
0.0
 10
11.2626055932
 20
6.6231900476
 30
0.0
 10
11.3011366798
 20
6.6243021081
 30
0.0
 10
11.3392834972
 20
6.6282862915
 30
0.0
 10
11.3768365064
 20
6.6351213432
 30
0.0
 10
11.41358755
 20
6.6447694572
 30
0.0
 10
11.443409627
 20
6.6551218924
 30
0.0
 10
11.4666541654
 20
6.6647492217
 30
0.0
 10
11.4837497392
 20
6.6726265971
 30
0.0
 10
11.5004973166
 20
6.6811557049
 30
0.0
 10
11.5168741614
 20
6.6903249944
 30
0.0
 10
11.5328576758
 20
6.7001217567
 30
0.0
 10
11.5484258898
 20
6.7105325396
 30
0.0
 10
11.5635573089
 20
6.7215430567
 30
0.0
 10
11.5782312342
 20
6.733138161
 30
0.0
 10
11.5924271735
 20
6.7453016561
 30
0.0
 10
11.6015604271
 20
6.7537794094
 30
0.0
 10
11.6060400659
 20
6.7581064046
 30
0.0
  0
SPLINE
  5
3B1
100
AcDbEntity
  8
0
100
AcDbSpline
 62
7
  6
CONTINUOUS
 70
0
 71
3
 72
43
 73
39
 74
0
 42
0.0000001
 43
0.0000001
 44
0.0000000001
 40
0.0
 40
0.0
 40
0.0
 40
0.0
 40
0.0309485948
 40
0.0620406286
 40
0.093272685
 40
0.124638059
 40
0.1561280529
 40
0.1877317075
 40
0.219436121
 40
0.2512266705
 40
0.2830872772
 40
0.3150006856
 40
0.3469487586
 40
0.3789127818
 40
0.4108737765
 40
0.4428128141
 40
0.4747113311
 40
0.5065514381
 40
0.5383162228
 40
0.5699900405
 40
0.6015587898
 40
0.6330101668
 40
0.6643338962
 40
0.6955219342
 40
0.7265686398
 40
0.7574709078
 40
0.788228259
 40
0.818842886
 40
0.8341003909
 40
0.8493242608
 40
0.8645155082
 40
0.8796753067
 40
0.909901273
 40
0.9400191537
 40
0.9550444074
 40
0.9700482213
 40
0.9850326877
 40
1.0
 40
1.0
 40
1.0
 40
1.0
 10
10.8999013211
 20
7.3538059813
 30
0.0
 10
10.8999013211
 20
7.3422777465
 30
0.0
 10
10.9006869269
 20
7.3191604146
 30
0.0
 10
10.9041973981
 20
7.2845697809
 30
0.0
 10
10.9100261214
 20
7.2501347462
 30
0.0
 10
10.9181462077
 20
7.2160153595
 30
0.0
 10
10.9285200903
 20
7.1823676776
 30
0.0
 10
10.9410999985
 20
7.1493461972
 30
0.0
 10
10.9558280203
 20
7.1171023407
 30
0.0
 10
10.9726364274
 20
7.0857839914
 30
0.0
 10
10.9914479898
 20
7.0555347681
 30
0.0
 10
11.0121763265
 20
7.0264933896
 30
0.0
 10
11.034726302
 20
6.998793045
 30
0.0
 10
11.0589944477
 20
6.9725607825
 30
0.0
 10
11.0848694221
 20
6.9479169168
 30
0.0
 10
11.1122325434
 20
6.9249745038
 30
0.0
 10
11.1409583228
 20
6.9038388239
 30
0.0
 10
11.1709150346
 20
6.8846069043
 30
0.0
 10
11.2019653133
 20
6.8673670789
 30
0.0
 10
11.2339667602
 20
6.8521985532
 30
0.0
 10
11.2667726083
 20
6.8391710688
 30
0.0
 10
11.3002323884
 20
6.8283445863
 30
0.0
 10
11.3341926
 20
6.819769006
 30
0.0
 10
11.3684974412
 20
6.8134839477
 30
0.0
 10
11.4029893812
 20
6.8095185134
 30
0.0
 10
11.4375103549
 20
6.8078912291
 30
0.0
 10
11.4719007294
 20
6.8086096933
 30
0.0
 10
11.500355226
 20
6.811164207
 30
0.0
 10
11.5228893828
 20
6.8143754015
 30
0.0
 10
11.5396419636
 20
6.8173604375
 30
0.0
 10
11.5562444408
 20
6.8209214167
 30
0.0
 10
11.578131556
 20
6.8264255018
 30
0.0
 10
11.6050309773
 20
6.8347218865
 30
0.0
 10
11.6312274427
 20
6.8448885337
 30
0.0
 10
11.651653045
 20
6.8541046011
 30
0.0
 10
11.6666831454
 20
6.8615455977
 30
0.0
 10
11.681416749
 20
6.8695115313
 30
0.0
 10
11.6910360072
 20
6.8751693529
 30
0.0
 10
11.6957897982
 20
6.8780822684
 30
0.0
  0
SPLINE
  5
3B2
100
AcDbEntity
  8
0
100
AcDbSpline
 62
7
  6
CONTINUOUS
 70
0
 71
3
 72
42
 73
38
 74
0
 42
0.0000001
 43
0.0000001
 44
0.0000000001
 40
0.0
 40
0.0
 40
0.0
 40
0.0
 40
0.0309663439
 40
0.0620779826
 40
0.0933313616
 40
0.1247195196
 40
0.1562334326
 40
0.1878617345
 40
0.2195910573
 40
0.2514062643
 40
0.2832907309
 40
0.3152266407
 40
0.3471952968
 40
0.3791774436
 40
0.4111535957
 40
0.4431043702
 40
0.4750108164
 40
0.5068547413
 40
0.5386190246
 40
0.5702879226
 40
0.601847354
 40
0.6332851625
 40
0.6645913533
 40
0.6957582987
 40
0.7267809067
 40
0.7422394906
 40
0.7576613094
 40
0.7883907126
 40
0.818976777
 40
0.8494253651
 40
0.8797450237
 40
0.8948623058
 40
0.9099517207
 40
0.925015023
 40
0.9400540968
 40
0.9700627529
 40
1.0
 40
1.0
 40
1.0
 40
1.0
 10
10.9147505602
 20
7.3576492457
 30
0.0
 10
10.9147505602
 20
7.3462073142
 30
0.0
 10
10.9155402165
 20
7.3232622039
 30
0.0
 10
10.919068402
 20
7.2889324742
 30
0.0
 10
10.9249260158
 20
7.25476319
 30
0.0
 10
10.9330853464
 20
7.2209172079
 30
0.0
 10
10.9435076799
 20
7.1875532711
 30
0.0
 10
10.9561437992
 20
7.1548284683
 30
0.0
 10
10.9709340594
 20
7.1228966799
 30
0.0
 10
10.987808715
 20
7.0919080817
 30
0.0
 10
11.0066882593
 20
7.0620083934
 30
0.0
 10
11.0274837946
 20
7.0333382178
 30
0.0
 10
11.0500974475
 20
7.0060323832
 30
0.0
 10
11.0744228265
 20
6.98021932
 30
0.0
 10
11.1003454948
 20
6.9560204387
 30
0.0
 10
11.1277435269
 20
6.93354958
 30
0.0
 10
11.1564880784
 20
6.9129124882
 30
0.0
 10
11.1864439838
 20
6.8942063174
 30
0.0
 10
11.2174703879
 20
6.8775191808
 30
0.0
 10
11.249421384
 20
6.8629297259
 30
0.0
 10
11.2821467225
 20
6.85050675
 30
0.0
 10
11.3154924021
 20
6.840308906
 30
0.0
 10
11.349301828
 20
6.8323844082
 30
0.0
 10
11.3834148806
 20
6.8267708496
 30
0.0
 10
11.4119992898
 20
6.8240375493
 30
0.0
 10
11.4348539792
 20
6.8230319454
 30
0.0
 10
11.4576213363
 20
6.8228129835
 30
0.0
 10
11.4859749187
 20
6.8240077365
 30
0.0
 10
11.519696667
 20
6.8277948232
 30
0.0
 10
11.552920141
 20
6.8339156464
 30
0.0
 10
11.5800907133
 20
6.840945652
 30
0.0
 10
11.6014136777
 20
6.8477033984
 30
0.0
 10
11.6171709414
 20
6.85332733
 30
0.0
 10
11.632688418
 20
6.8595048379
 30
0.0
 10
11.6530173728
 20
6.8684622596
 30
0.0
 10
11.6777498493
 20
6.8810069388
 30
0.0
 10
11.6967401848
 20
6.8924520004
 30
0.0
 10
11.7059986964
 20
6.8985051673
 30
0.0
  0
SPLINE
  5
3B3
100
AcDbEntity
  8
0
100
AcDbSpline
 62
7
  6
CONTINUOUS
 70
0
 71
3
 72
43
 73
39
 74
0
 42
0.0000001
 43
0.0000001
 44
0.0000000001
 40
0.0
 40
0.0
 40
0.0
 40
0.0
 40
0.0309231122
 40
0.0619870075
 40
0.0931884514
 40
0.1245210824
 40
0.155976677
 40
0.1875448359
 40
0.2192133141
 40
0.2509682103
 40
0.2827942133
 40
0.3146748597
 40
0.3465928063
 40
0.3785301112
 40
0.4104685231
 40
0.4423897724
 40
0.4742758641
 40
0.506109367
 40
0.5378736972
 40
0.5695533905
 40
0.6011343629
 40
0.6326041533
 40
0.6639521459
 40
0.6951697695
 40
0.7262506669
 40
0.7571908329
 40
0.7879887143
 40
0.8186452717
 40
0.8339237447
 40
0.8491684091
 40
0.8643800883
 40
0.8795597649
 40
0.9098232308
 40
0.9399739972
 40
0.9550133617
 40
0.9700295319
 40
0.985024411
 40
1.0
 40
1.0
 40
1.0
 40
1.0
 10
10.9504192806
 20
7.3921025859
 30
0.0
 10
10.9504192806
 20
7.3810103184
 30
0.0
 10
10.9511613266
 20
7.3587683877
 30
0.0
 10
10.954477674
 20
7.3254832379
 30
0.0
 10
10.9599847762
 20
7.2923395895
 30
0.0
 10
10.9676581513
 20
7.2594859383
 30
0.0
 10
10.977463569
 20
7.2270671358
 30
0.0
 10
10.9893575016
 20
7.1952266655
 30
0.0
 10
11.0032871752
 20
7.1641052769
 30
0.0
 10
11.0191908581
 20
7.133840571
 30
0.0
 10
11.0369981031
 20
7.1045663335
 30
0.0
 10
11.0566300796
 20
7.0764119723
 30
0.0
 10
11.0779999178
 20
7.0495019469
 30
0.0
 10
11.1010130913
 20
7.0239552248
 30
0.0
 10
11.1255678309
 20
6.9998847608
 30
0.0
 10
11.1515555717
 20
6.9773970022
 30
0.0
 10
11.1788614264
 20
6.9565914212
 30
0.0
 10
11.2073646814
 20
6.9375600653
 30
0.0
 10
11.2369393369
 20
6.9203871662
 30
0.0
 10
11.2674546573
 20
6.9051487683
 30
0.0
 10
11.2987757415
 20
6.8919123942
 30
0.0
 10
11.3307641151
 20
6.8807367463
 30
0.0
 10
11.3632783264
 20
6.8716714464
 30
0.0
 10
11.3961745951
 20
6.8647568142
 30
0.0
 10
11.4293073215
 20
6.860023657
 30
0.0
 10
11.4625301663
 20
6.8574932002
 30
0.0
 10
11.4956950677
 20
6.8571767777
 30
0.0
 10
11.5231966901
 20
6.8587617433
 30
0.0
 10
11.545016759
 20
6.8611366406
 30
0.0
 10
11.561259219
 20
6.863465603
 30
0.0
 10
11.5773777743
 20
6.8663418245
 30
0.0
 10
11.5986564456
 20
6.8708968153
 30
0.0
 10
11.624865648
 20
6.8779392885
 30
0.0
 10
11.6504756579
 20
6.8867676785
 30
0.0
 10
11.6704988843
 20
6.8948688687
 30
0.0
 10
11.6852604863
 20
6.9014527617
 30
0.0
 10
11.6997605004
 20
6.9085415575
 30
0.0
 10
11.7092484115
 20
6.913602282
 30
0.0
 10
11.7139426876
 20
6.9162138274
 30
0.0
  0
SPLINE
  5
3B4
100
AcDbEntity
  8
0
100
AcDbSpline
 62
7
  6
CONTINUOUS
 70
0
 71
3
 72
33
 73
29
 74
0
 42
0.0000001
 43
0.0000001
 44
0.0000000001
 40
0.0
 40
0.0
 40
0.0
 40
0.0
 40
0.0714524964
 40
0.1438712185
 40
0.2169317982
 40
0.2902733384
 40
0.3634825539
 40
0.436079197
 40
0.4719784233
 40
0.5075108206
 40
0.5425964137
 40
0.5771520849
 40
0.6110926756
 40
0.6443322194
 40
0.6767854674
 40
0.7083696693
 40
0.7390063018
 40
0.7686227928
 40
0.7971542824
 40
0.8245453769
 40
0.8507513954
 40
0.8757395202
 40
0.8994898896
 40
0.9219966553
 40
0.9432685894
 40
0.9633298703
 40
0.982221045
 40
1.0
 40
1.0
 40
1.0
 40
1.0
 10
11.2263347806
 20
7.6106165091
 30
0.0
 10
11.2263347806
 20
7.600642897
 30
0.0
 10
11.2268578368
 20
7.5805573872
 30
0.0
 10
11.229145815
 20
7.5503525732
 30
0.0
 10
11.2328857194
 20
7.520027649
 30
0.0
 10
11.2379788293
 20
7.4897901864
 30
0.0
 10
11.2442821269
 20
7.459849537
 30
0.0
 10
11.2504091793
 20
7.4352322791
 30
0.0
 10
11.2557247492
 20
7.4158431542
 30
0.0
 10
11.2598599721
 20
7.401561196
 30
0.0
 10
11.2641216784
 20
7.3875124981
 30
0.0
 10
11.2684704747
 20
7.3737234089
 30
0.0
 10
11.2728648696
 20
7.3602196043
 30
0.0
 10
11.2772616419
 20
7.3470256258
 30
0.0
 10
11.2816163139
 20
7.3341645356
 30
0.0
 10
11.2858838055
 20
7.3216575803
 30
0.0
 10
11.2900191005
 20
7.3095238956
 30
0.0
 10
11.2939778564
 20
7.2977802485
 30
0.0
 10
11.2977170293
 20
7.2864408342
 30
0.0
 10
11.3011955381
 20
7.2755172079
 30
0.0
 10
11.3043747419
 20
7.2650182902
 30
0.0
 10
11.3072188188
 20
7.2549504826
 30
0.0
 10
11.3096950372
 20
7.2453178379
 30
0.0
 10
11.3117740993
 20
7.2361223443
 30
0.0
 10
11.3134300854
 20
7.2273642976
 30
0.0
 10
11.3146403831
 20
7.2190424275
 30
0.0
 10
11.3153855478
 20
7.2111551899
 30
0.0
 10
11.3155666504
 20
7.2060356768
 30
0.0
 10
11.3155671675
 20
7.2035540225
 30
0.0
  0
SPLINE
  5
3B5
100
AcDbEntity
  8
0
100
AcDbSpline
 62
7
  6
CONTINUOUS
 70
0
 71
3
 72
39
 73
35
 74
0
 42
0.0000001
 43
0.0000001
 44
0.0000000001
 40
0.0
 40
0.0
 40
0.0
 40
0.0
 40
0.0309878419
 40
0.0621232182
 40
0.0934024018
 40
0.124818116
 40
0.1563609311
 40
0.1880189785
 40
0.2197783142
 40
0.2516231685
 40
0.2835362459
 40
0.3154990426
 40
0.3474921783
 40
0.3794957398
 40
0.4114896306
 40
0.4434539243
 40
0.4753692143
 40
0.5072169576
 40
0.5389798076
 40
0.5706419314
 40
0.6021893092
 40
0.6336100064
 40
0.664894416
 40
0.6960354657
 40
0.7270287849
 40
0.7578728261
 40
0.7885689366
 40
0.819121373
 40
0.8495372573
 40
0.8798264733
 40
0.9100015
 40
0.9400771853
 40
0.9700704604
 40
1.0
 40
1.0
 40
1.0
 40
1.0
 10
11.0092070269
 20
7.4008871917
 30
0.0
 10
11.0092070269
 20
7.3903517091
 30
0.0
 10
11.0099451578
 20
7.369223413
 30
0.0
 10
11.0132426904
 20
7.3376155704
 30
0.0
 10
11.0187167708
 20
7.3061622631
 30
0.0
 10
11.026340713
 20
7.2750179529
 30
0.0
 10
11.0360772424
 20
7.244333142
 30
0.0
 10
11.047878983
 20
7.2142566854
 30
0.0
 10
11.0616885413
 20
7.1849343
 30
0.0
 10
11.0774388219
 20
7.1565080713
 30
0.0
 10
11.0950533655
 20
7.1291157228
 30
0.0
 10
11.1144467165
 20
7.1028899731
 30
0.0
 10
11.1355248336
 20
7.0779578954
 30
0.0
 10
11.1581855447
 20
7.0544403143
 30
0.0
 10
11.1823190193
 20
7.0324512077
 30
0.0
 10
11.2078083048
 20
7.0120971626
 30
0.0
 10
11.234529899
 20
6.9934768749
 30
0.0
 10
11.2623543383
 20
6.9766806729
 30
0.0
 10
11.2911468181
 20
6.9617900831
 30
0.0
 10
11.320767837
 20
6.9488774393
 30
0.0
 10
11.3510738541
 20
6.9380055035
 30
0.0
 10
11.3819179894
 20
6.9292271838
 30
0.0
 10
11.4131507259
 20
6.9225852788
 30
0.0
 10
11.4446206236
 20
6.9181122647
 30
0.0
 10
11.4761750439
 20
6.9158301334
 30
0.0
 10
11.50766088
 20
6.9157502677
 30
0.0
 10
11.5389252944
 20
6.9178733536
 30
0.0
 10
11.5698164627
 20
6.9221893971
 30
0.0
 10
11.6001842909
 20
6.9286777424
 30
0.0
 10
11.6298812018
 20
6.9373071966
 30
0.0
 10
11.6587626425
 20
6.9480360184
 30
0.0
 10
11.6866885915
 20
6.9608126433
 30
0.0
 10
11.7135213312
 20
6.9755738433
 30
0.0
 10
11.7306128127
 20
6.986702496
 30
0.0
 10
11.7389273973
 20
6.9925686705
 30
0.0
  0
SPLINE
  5
3B6
100
AcDbEntity
  8
0
100
AcDbSpline
 62
7
  6
CONTINUOUS
 70
0
 71
3
 72
39
 73
35
 74
0
 42
0.0000001
 43
0.0000001
 44
0.0000000001
 40
0.0
 40
0.0
 40
0.0
 40
0.0
 40
0.0306777493
 40
0.0614699592
 40
0.0923739965
 40
0.1233870504
 40
0.1545044156
 40
0.1857204979
 40
0.2170285078
 40
0.2484206777
 40
0.2798883126
 40
0.3114219032
 40
0.3430112305
 40
0.3746454793
 40
0.4063133561
 40
0.4380032108
 40
0.4697031613
 40
0.5014012186
 40
0.5330854139
 40
0.564743925
 40
0.5963652015
 40
0.6279380883
 40
0.6594519459
 40
0.6908967669
 40
0.7222632875
 40
0.7535430934
 40
0.7847287181
 40
0.8158137337
 40
0.8467928316
 40
0.8776618932
 40
0.9084180492
 40
0.9390597255
 40
0.9695866758
 40
1.0
 40
1.0
 40
1.0
 40
1.0
 10
11.2273913019
 20
7.6116370303
 30
0.0
 10
11.2273913019
 20
7.6034644544
 30
0.0
 10
11.2278351269
 20
7.5870854384
 30
0.0
 10
11.2298215533
 20
7.5625460559
 30
0.0
 10
11.2331241333
 20
7.5380581631
 30
0.0
 10
11.2377330141
 20
7.5136943692
 30
0.0
 10
11.2436347421
 20
7.4895255423
 30
0.0
 10
11.2508119521
 20
7.4656224023
 30
0.0
 10
11.2592436347
 20
7.4420547562
 30
0.0
 10
11.2689050888
 20
7.4188914614
 30
0.0
 10
11.2797680426
 20
7.3962001804
 30
0.0
 10
11.2918007168
 20
7.3740471963
 30
0.0
 10
11.3049679245
 20
7.3524972176
 30
0.0
 10
11.3192311718
 20
7.3316131918
 30
0.0
 10
11.3345487683
 20
7.3114561203
 30
0.0
 10
11.3508759488
 20
7.2920848822
 30
0.0
 10
11.3681650059
 20
7.2735560636
 30
0.0
 10
11.3863654277
 20
7.2559237936
 30
0.0
 10
11.405424045
 20
7.2392395872
 30
0.0
 10
11.4252851859
 20
7.2235521953
 30
0.0
 10
11.4458908367
 20
7.2089074635
 30
0.0
 10
11.4671808112
 20
7.1953481982
 30
0.0
 10
11.4890929242
 20
7.1829140426
 30
0.0
 10
11.511563173
 20
7.1716413609
 30
0.0
 10
11.5345259221
 20
7.1615631325
 30
0.0
 10
11.5579140937
 20
7.152708855
 30
0.0
 10
11.5816593613
 20
7.145104455
 30
0.0
 10
11.6056923508
 20
7.1387722153
 30
0.0
 10
11.6299428341
 20
7.1337307085
 30
0.0
 10
11.6543399626
 20
7.1299947444
 30
0.0
 10
11.6788123595
 20
7.1275753163
 30
0.0
 10
11.7032887481
 20
7.1264796005
 30
0.0
 10
11.7276965951
 20
7.1267108119
 30
0.0
 10
11.7439074071
 20
7.1277512787
 30
0.0
 10
11.7519755284
 20
7.1284928816
 30
0.0
  0
SPLINE
  5
3B7
100
AcDbEntity
  8
0
100
AcDbSpline
 62
7
  6
CONTINUOUS
 70
0
 71
3
 72
39
 73
35
 74
0
 42
0.0000001
 43
0.0000001
 44
0.0000000001
 40
0.0
 40
0.0
 40
0.0
 40
0.0
 40
0.0306705869
 40
0.0614548769
 40
0.0923500278
 40
0.123353481
 40
0.154460558
 40
0.1856658157
 40
0.2169626072
 40
0.2483433341
 40
0.2797994852
 40
0.3113217476
 40
0.3429001072
 40
0.3745239593
 40
0.4061822226
 40
0.4378634568
 40
0.469555982
 40
0.5012480009
 40
0.5329277212
 40
0.5645834785
 40
0.5962038574
 40
0.6277778127
 40
0.6592947863
 40
0.6907448208
 40
0.7221186683
 40
0.753407894
 40
0.7846049722
 40
0.8157033758
 40
0.8466976566
 40
0.8775835156
 40
0.9083578635
 40
0.9390188684
 40
0.96956599
 40
1.0
 40
1.0
 40
1.0
 40
1.0
 10
11.2641336433
 20
7.6171274089
 30
0.0
 10
11.2641336433
 20
7.6095369915
 30
0.0
 10
11.264542681
 20
7.5943249333
 30
0.0
 10
11.2663734652
 20
7.571533182
 30
0.0
 10
11.2694174124
 20
7.5487878538
 30
0.0
 10
11.2736655356
 20
7.5261553941
 30
0.0
 10
11.2791056556
 20
7.5037006004
 30
0.0
 10
11.2857219941
 20
7.4814881852
 30
0.0
 10
11.2934954876
 20
7.4595820237
 30
0.0
 10
11.3024037103
 20
7.4380451426
 30
0.0
 10
11.312420995
 20
7.4169394938
 30
0.0
 10
11.3235184859
 20
7.3963257885
 30
0.0
 10
11.3356642219
 20
7.376263318
 30
0.0
 10
11.3488232339
 20
7.3568097872
 30
0.0
 10
11.3629576456
 20
7.33802115
 30
0.0
 10
11.3780267813
 20
7.3199514492
 30
0.0
 10
11.3939872828
 20
7.3026526629
 30
0.0
 10
11.4107932334
 20
7.2861745553
 30
0.0
 10
11.4283962886
 20
7.2705645347
 30
0.0
 10
11.4467458148
 20
7.2558675183
 30
0.0
 10
11.4657890333
 20
7.2421258027
 30
0.0
 10
11.4854711676
 20
7.2293789371
 30
0.0
 10
11.5057356056
 20
7.2176636158
 30
0.0
 10
11.52652406
 20
7.2070135727
 30
0.0
 10
11.5477767358
 20
7.1974594848
 30
0.0
 10
11.5694325
 20
7.189028884
 30
0.0
 10
11.591429056
 20
7.1817460779
 30
0.0
 10
11.6137031231
 20
7.1756320797
 30
0.0
 10
11.6361906093
 20
7.1707045472
 30
0.0
 10
11.6588268223
 20
7.1669777314
 30
0.0
 10
11.6815465499
 20
7.1644624212
 30
0.0
 10
11.7042846332
 20
7.1631659461
 30
0.0
 10
11.7269747254
 20
7.1630920497
 30
0.0
 10
11.7420557218
 20
7.163859598
 30
0.0
 10
11.7495646007
 20
7.1644476342
 30
0.0
  0
SPLINE
  5
3B8
100
AcDbEntity
  8
0
100
AcDbSpline
 62
7
  6
CONTINUOUS
 70
0
 71
3
 72
39
 73
35
 74
0
 42
0.0000001
 43
0.0000001
 44
0.0000000001
 40
0.0
 40
0.0
 40
0.0
 40
0.0
 40
0.0299424713
 40
0.0599093189
 40
0.0899243252
 40
0.1200101041
 40
0.1501875624
 40
0.1804754141
 40
0.2108897589
 40
0.2414437364
 40
0.2721472611
 40
0.3030068436
 40
0.3340254952
 40
0.3652027139
 40
0.3965345487
 40
0.4280137345
 40
0.459629892
 40
0.4913697861
 40
0.5232176333
 40
0.5551554497
 40
0.5871634339
 40
0.6192203769
 40
0.6513040927
 40
0.6833918636
 40
0.7154608914
 40
0.7474887506
 40
0.7794538354
 40
0.8113357959
 40
0.8431159558
 40
0.8747777127
 40
0.9063068657
 40
0.9376920949
 40
0.9689246535
 40
1.0
 40
1.0
 40
1.0
 40
1.0
 10
10.2216045384
 20
8.8067735258
 30
0.0
 10
10.2164202697
 20
8.8017659019
 30
0.0
 10
10.2056440716
 20
8.7921548002
 30
0.0
 10
10.188378929
 20
8.7790613721
 30
0.0
 10
10.170101185
 20
8.7673566996
 30
0.0
 10
10.1509129704
 20
8.7571064382
 30
0.0
 10
10.1309197788
 20
8.7483665884
 30
0.0
 10
10.1102319485
 20
8.741185196
 30
0.0
 10
10.0889634791
 20
8.7356015618
 30
0.0
 10
10.0672315464
 20
8.7316461707
 30
0.0
 10
10.0451558049
 20
8.7293404995
 30
0.0
 10
10.022857733
 20
8.7286969406
 30
0.0
 10
10.0004599637
 20
8.7297187442
 30
0.0
 10
9.9780856154
 20
8.7324000173
 30
0.0
 10
9.955857622
 20
8.736725768
 30
0.0
 10
9.9338980665
 20
8.742671996
 30
0.0
 10
9.9123275139
 20
8.7502058155
 30
0.0
 10
9.8912643615
 20
8.7592856625
 30
0.0
 10
9.870824199
 20
8.7698615231
 30
0.0
 10
9.8511191842
 20
8.7818752099
 30
0.0
 10
9.8322574358
 20
8.7952606803
 30
0.0
 10
9.8143424509
 20
8.8099443981
 30
0.0
 10
9.7974725312
 20
8.8258457204
 30
0.0
 10
9.7817402551
 20
8.8428773465
 30
0.0
 10
9.7672319798
 20
8.8609457975
 30
0.0
 10
9.7540273715
 20
8.8799519226
 30
0.0
 10
9.7421989724
 20
8.8997914349
 30
0.0
 10
9.7318118087
 20
8.9203554816
 30
0.0
 10
9.7229230229
 20
8.9415312147
 30
0.0
 10
9.715581568
 20
8.9632024509
 30
0.0
 10
9.7098279065
 20
8.9852501363
 30
0.0
 10
9.7056939104
 20
9.0075536143
 30
0.0
 10
9.7032024141
 20
9.0299888326
 30
0.0
 10
9.7026443837
 20
9.0449935291
 30
0.0
 10
9.7026443837
 20
9.0524740769
 30
0.0
  0
SPLINE
  5
3B9
100
AcDbEntity
  8
0
100
AcDbSpline
 62
7
  6
CONTINUOUS
 70
0
 71
3
 72
23
 73
19
 74
0
 42
0.0000001
 43
0.0000001
 44
0.0000000001
 40
0.0
 40
0.0
 40
0.0
 40
0.0
 40
0.0618761875
 40
0.1239899092
 40
0.1863157041
 40
0.2488243029
 40
0.311483173
 40
0.3742571196
 40
0.4371089225
 40
0.4999999968
 40
0.562891071
 40
0.6257428739
 40
0.6885168205
 40
0.7511756905
 40
0.8136842891
 40
0.8760100832
 40
0.9381238031
 40
1.0
 40
1.0
 40
1.0
 40
1.0
 10
11.4457956969
 20
7.6067476764
 30
0.0
 10
11.4476770131
 20
7.5991304199
 30
0.0
 10
11.4519633315
 20
7.5839890653
 30
0.0
 10
11.4599070613
 20
7.5617214362
 30
0.0
 10
11.4693408706
 20
7.5399545882
 30
0.0
 10
11.4802187186
 20
7.5187949996
 30
0.0
 10
11.492488061
 20
7.4983444703
 30
0.0
 10
11.5060895391
 20
7.4787018406
 30
0.0
 10
11.5209574167
 20
7.4599619257
 30
0.0
 10
11.5370198555
 20
7.4422152226
 30
0.0
 10
11.554199269
 20
7.4255474344
 30
0.0
 10
11.5724126943
 20
7.410039071
 30
0.0
 10
11.5915721785
 20
7.395765064
 30
0.0
 10
11.6115852411
 20
7.3827943958
 30
0.0
 10
11.6323551583
 20
7.3711898149
 30
0.0
 10
11.6537820123
 20
7.3610073621
 30
0.0
 10
11.6757609851
 20
7.3522967401
 30
0.0
 10
11.6907447071
 20
7.3474882833
 30
0.0
 10
11.698292195
 20
7.3453441303
 30
0.0
  0
SPLINE
  5
3BA
100
AcDbEntity
  8
0
100
AcDbSpline
 62
7
  6
CONTINUOUS
 70
0
 71
3
 72
25
 73
21
 74
0
 42
0.0000001
 43
0.0000001
 44
0.0000000001
 40
0.0
 40
0.0
 40
0.0
 40
0.0
 40
0.061590258
 40
0.1235160653
 40
0.1857489092
 40
0.2482516395
 40
0.3109796576
 40
0.3738822072
 40
0.436903794
 40
0.49998572
 40
0.5630676711
 40
0.6260893281
 40
0.6889919928
 40
0.7517201705
 40
0.8142230934
 40
0.8764561647
 40
0.9074662871
 40
0.9383957236
 40
0.9692411912
 40
1.0
 40
1.0
 40
1.0
 40
1.0
 10
11.3472154177
 20
7.6466522159
 30
0.0
 10
11.3485950544
 20
7.6344382576
 30
0.0
 10
11.352406056
 20
7.6100493448
 30
0.0
 10
11.361187652
 20
7.5739923526
 30
0.0
 10
11.372986209
 20
7.5386126491
 30
0.0
 10
11.3877134747
 20
7.5041756288
 30
0.0
 10
11.4052599783
 20
7.4709351263
 30
0.0
 10
11.4254955841
 20
7.4391373885
 30
0.0
 10
11.4482701671
 20
7.4090175182
 30
0.0
 10
11.4734151179
 20
7.3807984471
 30
0.0
 10
11.5007442258
 20
7.3546889687
 30
0.0
 10
11.5300552844
 20
7.3308823596
 30
0.0
 10
11.5611313478
 20
7.3095550427
 30
0.0
 10
11.5937429111
 20
7.2908648874
 30
0.0
 10
11.6276471128
 20
7.2749511749
 30
0.0
 10
11.6568102733
 20
7.2640868762
 30
0.0
 10
11.6805318451
 20
7.2568973776
 30
0.0
 10
11.6984671137
 20
7.2522686761
 30
0.0
 10
11.716531046
 20
7.2484067027
 30
0.0
 10
11.7286557646
 20
7.2463448437
 30
0.0
 10
11.7347279392
 20
7.2454444562
 30
0.0
  0
SPLINE
  5
3BB
100
AcDbEntity
  8
0
100
AcDbSpline
 62
7
  6
CONTINUOUS
 70
0
 71
3
 72
51
 73
47
 74
0
 42
0.0000001
 43
0.0000001
 44
0.0000000001
 40
0.0
 40
0.0
 40
0.0
 40
0.0
 40
0.0149716485
 40
0.0299463565
 40
0.0449271644
 40
0.0599170744
 40
0.0749190346
 40
0.0899359198
 40
0.1049705137
 40
0.1200254925
 40
0.1351034109
 40
0.1502066862
 40
0.1653375828
 40
0.1804982023
 40
0.1956904722
 40
0.2109161327
 40
0.2261767296
 40
0.241473608
 40
0.2568079046
 40
0.2721805407
 40
0.2875922226
 40
0.303043438
 40
0.3185344523
 40
0.334065311
 40
0.3496358431
 40
0.3652456603
 40
0.3965753769
 40
0.4280524346
 40
0.4596664537
 40
0.4914042018
 40
0.5232498957
 40
0.555185552
 40
0.5871913712
 40
0.619246145
 40
0.65132769
 40
0.68341329
 40
0.7154801477
 40
0.7475058396
 40
0.7794687608
 40
0.8113485629
 40
0.8431265731
 40
0.8747861836
 40
0.9063132226
 40
0.9376962675
 40
0.9689267871
 40
1.0
 40
1.0
 40
1.0
 40
1.0
 10
10.2407659768
 20
8.2934814909
 30
0.0
 10
10.2350005173
 20
8.287912495
 30
0.0
 10
10.2232456362
 20
8.2770013792
 30
0.0
 10
10.2049749521
 20
8.2613465214
 30
0.0
 10
10.1860890539
 20
8.2464232349
 30
0.0
 10
10.1666143172
 20
8.2322523762
 30
0.0
 10
10.1465774641
 20
8.2188533254
 30
0.0
 10
10.1260060817
 20
8.2062445615
 30
0.0
 10
10.1049284656
 20
8.1944434413
 30
0.0
 10
10.0833736513
 20
8.1834661539
 30
0.0
 10
10.0613712994
 20
8.1733277935
 30
0.0
 10
10.0389516709
 20
8.1640423406
 30
0.0
 10
10.016145634
 20
8.1556225246
 30
0.0
 10
9.9929845768
 20
8.1480798935
 30
0.0
 10
9.9695003565
 20
8.1414248414
 30
0.0
 10
9.945725285
 20
8.1356665143
 30
0.0
 10
9.9216920827
 20
8.1308127728
 30
0.0
 10
9.8974338074
 20
8.126870285
 30
0.0
 10
9.8729838235
 20
8.1238444974
 30
0.0
 10
9.84837577
 20
8.1217395085
 30
0.0
 10
9.82364349
 20
8.1205581819
 30
0.0
 10
9.7988210038
 20
8.1203021623
 30
0.0
 10
9.7739424212
 20
8.1209717814
 30
0.0
 10
9.749042062
 20
8.122566037
 30
0.0
 10
9.7241537539
 20
8.1250828341
 30
0.0
 10
9.6909951189
 20
8.1296687947
 30
0.0
 10
9.6497440941
 20
8.1376963367
 30
0.0
 10
9.6009072089
 20
8.1509206789
 30
0.0
 10
9.5529340337
 20
8.1676759177
 30
0.0
 10
9.5060897199
 20
8.1878695312
 30
0.0
 10
9.4606308271
 20
8.2113902653
 30
0.0
 10
9.4168069334
 20
8.2381087244
 30
0.0
 10
9.3748584765
 20
8.2678780475
 30
0.0
 10
9.3350155776
 20
8.3005346091
 30
0.0
 10
9.2974969357
 20
8.3358991577
 30
0.0
 10
9.262508377
 20
8.3737774629
 30
0.0
 10
9.230242023
 20
8.4139616909
 30
0.0
 10
9.2008750314
 20
8.4562313047
 30
0.0
 10
9.174568703
 20
8.5003543536
 30
0.0
 10
9.151467714
 20
8.5460887813
 30
0.0
 10
9.1316990443
 20
8.5931835631
 30
0.0
 10
9.1153716695
 20
8.6413803702
 30
0.0
 10
9.1025755631
 20
8.6904143665
 30
0.0
 10
9.0933815253
 20
8.7400172771
 30
0.0
 10
9.0878405193
 20
8.7899131651
 30
0.0
 10
9.0865994353
 20
8.8232836065
 30
0.0
 10
9.0865994353
 20
8.8399203159
 30
0.0
  0
SPLINE
  5
3BC
100
AcDbEntity
  8
0
100
AcDbSpline
 62
7
  6
CONTINUOUS
 70
0
 71
3
 72
25
 73
21
 74
0
 42
0.0000001
 43
0.0000001
 44
0.0000000001
 40
0.0
 40
0.0
 40
0.0
 40
0.0
 40
0.06377716
 40
0.127343222
 40
0.190700148
 40
0.2538535537
 40
0.3168099705
 40
0.3795782475
 40
0.4421688972
 40
0.5045942157
 40
0.5668681101
 40
0.629005993
 40
0.6910246336
 40
0.7219973337
 40
0.7529470518
 40
0.8147821333
 40
0.8765547559
 40
0.9074265679
 40
0.9382904805
 40
1.0
 40
1.0
 40
1.0
 40
1.0
 10
10.5354882606
 20
8.7394395345
 30
0.0
 10
10.5354882606
 20
8.750162663
 30
0.0
 10
10.5360014646
 20
8.7715770629
 30
0.0
 10
10.5383180814
 20
8.8035684959
 30
0.0
 10
10.5421750639
 20
8.8353062037
 30
0.0
 10
10.5475634898
 20
8.8667159877
 30
0.0
 10
10.5544710923
 20
8.8977257834
 30
0.0
 10
10.5628819748
 20
8.9282640012
 30
0.0
 10
10.5727768444
 20
8.958260269
 30
0.0
 10
10.584132926
 20
8.9876453765
 30
0.0
 10
10.5969241749
 20
9.0163516725
 30
0.0
 10
10.6111208767
 20
9.0443125066
 30
0.0
 10
10.6241019421
 20
9.0669494576
 30
0.0
 10
10.6351537441
 20
9.0846184207
 30
0.0
 10
10.6466362249
 20
9.1019736274
 30
0.0
 10
10.6618029287
 20
9.1230897982
 30
0.0
 10
10.6780244136
 20
9.1433901501
 30
0.0
 10
10.691604576
 20
9.1591029654
 30
0.0
 10
10.7055765691
 20
9.1744534206
 30
0.0
 10
10.7164960736
 20
9.1855578414
 30
0.0
 10
10.7239586972
 20
9.1927661688
 30
0.0
  0
SPLINE
  5
3BD
100
AcDbEntity
  8
0
100
AcDbSpline
 62
7
  6
CONTINUOUS
 70
0
 71
3
 72
39
 73
35
 74
0
 42
0.0000001
 43
0.0000001
 44
0.0000000001
 40
0.0
 40
0.0
 40
0.0
 40
0.0
 40
0.0299424713
 40
0.0599093189
 40
0.0899243252
 40
0.1200101041
 40
0.1501875624
 40
0.1804754141
 40
0.2108897589
 40
0.2414437364
 40
0.2721472611
 40
0.3030068436
 40
0.3340254952
 40
0.3652027139
 40
0.3965345487
 40
0.4280137345
 40
0.459629892
 40
0.4913697861
 40
0.5232176333
 40
0.5551554497
 40
0.5871634339
 40
0.6192203769
 40
0.6513040927
 40
0.6833918636
 40
0.7154608914
 40
0.7474887506
 40
0.7794538354
 40
0.8113357959
 40
0.8431159558
 40
0.8747777127
 40
0.9063068657
 40
0.9376920949
 40
0.9689246535
 40
1.0
 40
1.0
 40
1.0
 40
1.0
 10
11.6704933637
 20
8.7062927445
 30
0.0
 10
11.665309095
 20
8.7012851206
 30
0.0
 10
11.6545328968
 20
8.6916740189
 30
0.0
 10
11.6372677542
 20
8.6785805908
 30
0.0
 10
11.6189900103
 20
8.6668759183
 30
0.0
 10
11.5998017957
 20
8.6566256569
 30
0.0
 10
11.5798086041
 20
8.6478858071
 30
0.0
 10
11.5591207737
 20
8.6407044147
 30
0.0
 10
11.5378523044
 20
8.6351207805
 30
0.0
 10
11.5161203717
 20
8.6311653894
 30
0.0
 10
11.4940446302
 20
8.6288597182
 30
0.0
 10
11.4717465583
 20
8.6282161592
 30
0.0
 10
11.449348789
 20
8.6292379629
 30
0.0
 10
11.4269744407
 20
8.631919236
 30
0.0
 10
11.4047464472
 20
8.6362449867
 30
0.0
 10
11.3827868918
 20
8.6421912146
 30
0.0
 10
11.3612163392
 20
8.6497250342
 30
0.0
 10
11.3401531868
 20
8.6588048812
 30
0.0
 10
11.3197130243
 20
8.6693807418
 30
0.0
 10
11.3000080095
 20
8.6813944286
 30
0.0
 10
11.2811462611
 20
8.694779899
 30
0.0
 10
11.2632312762
 20
8.7094636168
 30
0.0
 10
11.2463613565
 20
8.725364939
 30
0.0
 10
11.2306290804
 20
8.7423965651
 30
0.0
 10
11.2161208051
 20
8.7604650162
 30
0.0
 10
11.2029161968
 20
8.7794711413
 30
0.0
 10
11.1910877977
 20
8.7993106536
 30
0.0
 10
11.180700634
 20
8.8198747003
 30
0.0
 10
11.1718118482
 20
8.8410504334
 30
0.0
 10
11.1644703932
 20
8.8627216696
 30
0.0
 10
11.1587167318
 20
8.884769355
 30
0.0
 10
11.1545827357
 20
8.907072833
 30
0.0
 10
11.1520912393
 20
8.9295080512
 30
0.0
 10
11.1515332089
 20
8.9445127478
 30
0.0
 10
11.1515332089
 20
8.9519932956
 30
0.0
  0
SPLINE
  5
3BE
100
AcDbEntity
  8
0
100
AcDbSpline
 62
7
  6
CONTINUOUS
 70
0
 71
3
 72
50
 73
46
 74
0
 42
0.0000001
 43
0.0000001
 44
0.0000000001
 40
0.0
 40
0.0
 40
0.0
 40
0.0
 40
0.0310682083
 40
0.0622931057
 40
0.093670003
 40
0.1251904414
 40
0.1568431274
 40
0.1886140403
 40
0.2204867456
 40
0.2524427563
 40
0.284461921
 40
0.3165228319
 40
0.3486032567
 40
0.3806805784
 40
0.4127322406
 40
0.4447361933
 40
0.4766713317
 40
0.5085179187
 40
0.5402579933
 40
0.5718757482
 40
0.6033578732
 40
0.6346938664
 40
0.6658762841
 40
0.6814110899
 40
0.6969062177
 40
0.7123616793
 40
0.7277777025
 40
0.7431547316
 40
0.7584934306
 40
0.7737946777
 40
0.7890595607
 40
0.8042893765
 40
0.8194856234
 40
0.8346499914
 40
0.8497843566
 40
0.8648907718
 40
0.8799714526
 40
0.8950287663
 40
0.910065221
 40
0.9250834486
 40
0.9400861887
 40
0.9550762758
 40
0.9700566208
 40
0.9850301923
 40
1.0
 40
1.0
 40
1.0
 40
1.0
 10
9.0907405368
 20
8.843920313
 30
0.0
 10
9.0907405368
 20
8.8273459552
 30
0.0
 10
9.0919723126
 20
8.7941009897
 30
0.0
 10
9.097471989
 20
8.7443910418
 30
0.0
 10
9.1065976937
 20
8.6949698387
 30
0.0
 10
9.1192992857
 20
8.6461102592
 30
0.0
 10
9.1355069534
 20
8.5980776298
 30
0.0
 10
9.1551320752
 20
8.5511339201
 30
0.0
 10
9.1780672995
 20
8.5055347316
 30
0.0
 10
9.20418741
 20
8.4615284335
 30
0.0
 10
9.2333499448
 20
8.4193547181
 30
0.0
 10
9.2653958076
 20
8.3792432144
 30
0.0
 10
9.3001504167
 20
8.3414124544
 30
0.0
 10
9.3374243743
 20
8.3060684955
 30
0.0
 10
9.3770146276
 20
8.2734038973
 30
0.0
 10
9.418705606
 20
8.2435967752
 30
0.0
 10
9.4622702011
 20
8.2168095841
 30
0.0
 10
9.5074711969
 20
8.1931885449
 30
0.0
 10
9.5540624449
 20
8.17286264
 30
0.0
 10
9.6017900148
 20
8.1559429254
 30
0.0
 10
9.6503944125
 20
8.1425221081
 30
0.0
 10
9.6996089371
 20
8.1326738086
 30
0.0
 10
9.7409648488
 20
8.1274822623
 30
0.0
 10
9.7740794008
 20
8.1251669831
 30
0.0
 10
9.7988710095
 20
8.1243498919
 30
0.0
 10
9.8236122154
 20
8.1244514679
 30
0.0
 10
9.8482696669
 20
8.1254715542
 30
0.0
 10
9.8728095904
 20
8.1274088263
 30
0.0
 10
9.8971985196
 20
8.1302605982
 30
0.0
 10
9.9214031517
 20
8.1340230081
 30
0.0
 10
9.9453904316
 20
8.1386909912
 30
0.0
 10
9.9691276146
 20
8.1442581413
 30
0.0
 10
9.9925822927
 20
8.150716866
 30
0.0
 10
10.0157224201
 20
8.1580584194
 30
0.0
 10
10.0385164009
 20
8.1662727651
 30
0.0
 10
10.0609331169
 20
8.1753486717
 30
0.0
 10
10.0829419334
 20
8.1852738038
 30
0.0
 10
10.1045127833
 20
8.1960346235
 30
0.0
 10
10.1256162252
 20
8.2076164021
 30
0.0
 10
10.1462234184
 20
8.2200033556
 30
0.0
 10
10.1663061975
 20
8.2331786123
 30
0.0
 10
10.1858371334
 20
8.2471241108
 30
0.0
 10
10.2047896424
 20
8.2618209047
 30
0.0
 10
10.2231374349
 20
8.2772486336
 30
0.0
 10
10.2349510529
 20
8.2880084608
 30
0.0
 10
10.2407476562
 20
8.2935018901
 30
0.0
  0
SPLINE
  5
3BF
100
AcDbEntity
  8
0
100
AcDbSpline
 62
7
  6
CONTINUOUS
 70
0
 71
3
 72
23
 73
19
 74
0
 42
0.0000001
 43
0.0000001
 44
0.0000000001
 40
0.0
 40
0.0
 40
0.0
 40
0.0
 40
0.0637694714
 40
0.1273305168
 40
0.1906845707
 40
0.2538373794
 40
0.3167951136
 40
0.3795663683
 40
0.4421612904
 40
0.5045917704
 40
0.5668712604
 40
0.6290146779
 40
0.6910382663
 40
0.752959445
 40
0.8147966436
 40
0.876569124
 40
0.938296792
 40
1.0
 40
1.0
 40
1.0
 40
1.0
 10
9.0907405368
 20
8.843920313
 30
0.0
 10
9.0907405368
 20
8.8545197035
 30
0.0
 10
9.0912419772
 20
8.8756873512
 30
0.0
 10
9.0935053939
 20
8.9073124897
 30
0.0
 10
9.0972739428
 20
8.9386913896
 30
0.0
 10
9.1025390591
 20
8.9697523386
 30
0.0
 10
9.1092890639
 20
9.0004257442
 30
0.0
 10
9.117508764
 20
9.0306424104
 30
0.0
 10
9.1271797412
 20
9.060334304
 30
0.0
 10
9.138280265
 20
9.0894345227
 30
0.0
 10
9.1507853938
 20
9.117877498
 30
0.0
 10
9.1646670114
 20
9.1455991328
 30
0.0
 10
9.1798938834
 20
9.1725369469
 30
0.0
 10
9.1964317529
 20
9.1986302407
 30
0.0
 10
9.2142433336
 20
9.2238201469
 30
0.0
 10
9.2332887109
 20
9.2480500853
 30
0.0
 10
9.2535242487
 20
9.2712646972
 30
0.0
 10
9.2677807214
 20
9.2860324685
 30
0.0
 10
9.275089247
 20
9.2932276007
 30
0.0
  0
SPLINE
  5
3C0
100
AcDbEntity
  8
0
100
AcDbSpline
 62
7
  6
CONTINUOUS
 70
0
 71
3
 72
51
 73
47
 74
0
 42
0.0000001
 43
0.0000001
 44
0.0000000001
 40
0.0
 40
0.0
 40
0.0
 40
0.0
 40
0.0149716485
 40
0.0299463565
 40
0.0449271644
 40
0.0599170744
 40
0.0749190346
 40
0.0899359198
 40
0.1049705137
 40
0.1200254925
 40
0.1351034109
 40
0.1502066862
 40
0.1653375828
 40
0.1804982023
 40
0.1956904722
 40
0.2109161327
 40
0.2261767296
 40
0.241473608
 40
0.2568079046
 40
0.2721805407
 40
0.2875922226
 40
0.303043438
 40
0.3185344523
 40
0.334065311
 40
0.3496358431
 40
0.3652456603
 40
0.3965753769
 40
0.4280524346
 40
0.4596664537
 40
0.4914042018
 40
0.5232498957
 40
0.555185552
 40
0.5871913712
 40
0.619246145
 40
0.65132769
 40
0.68341329
 40
0.7154801477
 40
0.7475058396
 40
0.7794687608
 40
0.8113485629
 40
0.8431265731
 40
0.8747861836
 40
0.9063132226
 40
0.9376962675
 40
0.9689267871
 40
1.0
 40
1.0
 40
1.0
 40
1.0
 10
11.6896548021
 20
8.1930007096
 30
0.0
 10
11.6838893426
 20
8.1874317137
 30
0.0
 10
11.6721344615
 20
8.1765205979
 30
0.0
 10
11.6538637773
 20
8.1608657401
 30
0.0
 10
11.6349778792
 20
8.1459424536
 30
0.0
 10
11.6155031425
 20
8.1317715949
 30
0.0
 10
11.5954662894
 20
8.118372544
 30
0.0
 10
11.5748949069
 20
8.1057637802
 30
0.0
 10
11.5538172909
 20
8.09396266
 30
0.0
 10
11.5322624766
 20
8.0829853726
 30
0.0
 10
11.5102601247
 20
8.0728470122
 30
0.0
 10
11.4878404962
 20
8.0635615593
 30
0.0
 10
11.4650344593
 20
8.0551417432
 30
0.0
 10
11.4418734021
 20
8.0475991122
 30
0.0
 10
11.4183891818
 20
8.0409440601
 30
0.0
 10
11.3946141103
 20
8.035185733
 30
0.0
 10
11.370580908
 20
8.0303319915
 30
0.0
 10
11.3463226327
 20
8.0263895037
 30
0.0
 10
11.3218726488
 20
8.0233637161
 30
0.0
 10
11.2972645953
 20
8.0212587272
 30
0.0
 10
11.2725323153
 20
8.0200774006
 30
0.0
 10
11.2477098291
 20
8.019821381
 30
0.0
 10
11.2228312464
 20
8.0204910001
 30
0.0
 10
11.1979308873
 20
8.0220852556
 30
0.0
 10
11.1730425792
 20
8.0246020528
 30
0.0
 10
11.1398839442
 20
8.0291880134
 30
0.0
 10
11.0986329194
 20
8.0372155554
 30
0.0
 10
11.0497960342
 20
8.0504398976
 30
0.0
 10
11.001822859
 20
8.0671951364
 30
0.0
 10
10.9549785452
 20
8.0873887499
 30
0.0
 10
10.9095196523
 20
8.110909484
 30
0.0
 10
10.8656957587
 20
8.1376279431
 30
0.0
 10
10.8237473018
 20
8.1673972662
 30
0.0
 10
10.7839044029
 20
8.2000538278
 30
0.0
 10
10.746385761
 20
8.2354183764
 30
0.0
 10
10.7113972022
 20
8.2732966816
 30
0.0
 10
10.6791308483
 20
8.3134809096
 30
0.0
 10
10.6497638566
 20
8.3557505234
 30
0.0
 10
10.6234575283
 20
8.3998735723
 30
0.0
 10
10.6003565393
 20
8.445608
 30
0.0
 10
10.5805878696
 20
8.4927027817
 30
0.0
 10
10.5642604948
 20
8.5408995889
 30
0.0
 10
10.5514643884
 20
8.5899335852
 30
0.0
 10
10.5422703505
 20
8.6395364958
 30
0.0
 10
10.5367293446
 20
8.6894323838
 30
0.0
 10
10.5354882606
 20
8.7228028252
 30
0.0
 10
10.5354882606
 20
8.7394395345
 30
0.0
  0
SPLINE
  5
3C1
100
AcDbEntity
  8
0
100
AcDbSpline
 62
7
  6
CONTINUOUS
 70
0
 71
3
 72
71
 73
67
 74
0
 42
0.0000001
 43
0.0000001
 44
0.0000000001
 40
0.0
 40
0.0
 40
0.0
 40
0.0
 40
0.0155842565
 40
0.0311159319
 40
0.0465952524
 40
0.0620238826
 40
0.0774034482
 40
0.0927362827
 40
0.1080251231
 40
0.1232731738
 40
0.1384840558
 40
0.1536617763
 40
0.1688106896
 40
0.1839354527
 40
0.199040978
 40
0.2141323822
 40
0.2292149324
 40
0.2442939901
 40
0.2593749544
 40
0.2744632041
 40
0.2895640403
 40
0.3046826298
 40
0.3198239504
 40
0.3349927394
 40
0.3501934439
 40
0.3654301774
 40
0.3807066784
 40
0.3960262752
 40
0.411391855
 40
0.4268058382
 40
0.4422701586
 40
0.4577862484
 40
0.4733550295
 40
0.4889769098
 40
0.5046517845
 40
0.5203790422
 40
0.5361575755
 40
0.5519857963
 40
0.5678616545
 40
0.5837826618
 40
0.5997459181
 40
0.6157481413
 40
0.6317856992
 40
0.6478546441
 40
0.6639507502
 40
0.6800695513
 40
0.6962063821
 40
0.7123564199
 40
0.7285147268
 40
0.7446762929
 40
0.76083608
 40
0.776989065
 40
0.7931302839
 40
0.8092548753
 40
0.8253581235
 40
0.8414355003
 40
0.8574827053
 40
0.8734957053
 40
0.889470771
 40
0.9054045131
 40
0.921293919
 40
0.9371363621
 40
0.9529297157
 40
0.968672092
 40
0.9843626215
 40
1.0
 40
1.0
 40
1.0
 40
1.0
 10
9.254947937
 20
8.8325324911
 30
0.0
 10
9.254947937
 20
8.8408150687
 30
0.0
 10
9.2553532705
 20
8.8573552156
 30
0.0
 10
9.2571829737
 20
8.8820612393
 30
0.0
 10
9.2602291741
 20
8.9065643055
 30
0.0
 10
9.264484407
 20
8.9308044342
 30
0.0
 10
9.2699386113
 20
8.9547235389
 30
0.0
 10
9.2765786339
 20
8.9782638517
 30
0.0
 10
9.2843885609
 20
9.0013686484
 30
0.0
 10
9.2933496159
 20
9.0239822044
 30
0.0
 10
9.3034402419
 20
9.0460499859
 30
0.0
 10
9.3146361491
 20
9.0675187674
 30
0.0
 10
9.3269103775
 20
9.0883367629
 30
0.0
 10
9.3402333603
 20
9.1084537508
 30
0.0
 10
9.3545729946
 20
9.1278211972
 30
0.0
 10
9.369894718
 20
9.1463923741
 30
0.0
 10
9.3861615936
 20
9.1641224722
 30
0.0
 10
9.4033343882
 20
9.1809687221
 30
0.0
 10
9.4213716765
 20
9.1968904927
 30
0.0
 10
9.440229946
 20
9.2118493873
 30
0.0
 10
9.4598637019
 20
9.225809338
 30
0.0
 10
9.4802255784
 20
9.2387366919
 30
0.0
 10
9.5012664542
 20
9.2506002938
 30
0.0
 10
9.5229355731
 20
9.2613715583
 30
0.0
 10
9.5451806621
 20
9.2710245514
 30
0.0
 10
9.5679480632
 20
9.2795360475
 30
0.0
 10
9.5911828679
 20
9.2868855774
 30
0.0
 10
9.6148290493
 20
9.2930554783
 30
0.0
 10
9.6388295978
 20
9.2980309338
 30
0.0
 10
9.6631266592
 20
9.3018000088
 30
0.0
 10
9.6876616734
 20
9.3043536744
 30
0.0
 10
9.7123755148
 20
9.3056858401
 30
0.0
 10
9.7372086366
 20
9.3057933648
 30
0.0
 10
9.762101215
 20
9.3046760535
 30
0.0
 10
9.7869932925
 20
9.302336658
 30
0.0
 10
9.8118249206
 20
9.2987808691
 30
0.0
 10
9.8365363037
 20
9.2940173021
 30
0.0
 10
9.8610679409
 20
9.2880574734
 30
0.0
 10
9.8853607702
 20
9.2809157816
 30
0.0
 10
9.909356312
 20
9.2726094736
 30
0.0
 10
9.9329968066
 20
9.2631585912
 30
0.0
 10
9.9562253526
 20
9.2525859251
 30
0.0
 10
9.9789860416
 20
9.2409169589
 30
0.0
 10
10.0012240927
 20
9.228179809
 30
0.0
 10
10.0228859811
 20
9.2144051554
 30
0.0
 10
10.0439195707
 20
9.1996261745
 30
0.0
 10
10.0642742426
 20
9.1838784632
 30
0.0
 10
10.0839010098
 20
9.1671999422
 30
0.0
 10
10.1027526351
 20
9.1496307669
 30
0.0
 10
10.1207837437
 20
9.1312132314
 30
0.0
 10
10.1379509313
 20
9.1119916674
 30
0.0
 10
10.1542128674
 20
9.0920123379
 30
0.0
 10
10.1695303974
 20
9.0713233293
 30
0.0
 10
10.1838666447
 20
9.049974441
 30
0.0
 10
10.1971870885
 20
9.0280170569
 30
0.0
 10
10.2094596471
 20
9.0055040234
 30
0.0
 10
10.2206547551
 20
8.9824895237
 30
0.0
 10
10.2307454334
 20
8.9590289485
 30
0.0
 10
10.2397073534
 20
8.935178764
 30
0.0
 10
10.2475189016
 20
8.9109963751
 30
0.0
 10
10.2541612271
 20
8.8865400042
 30
0.0
 10
10.2596183267
 20
8.861868494
 30
0.0
 10
10.2638769461
 20
8.8370413538
 30
0.0
 10
10.2669269088
 20
8.8121180192
 30
0.0
 10
10.2687606328
 20
8.7871594538
 30
0.0
 10
10.2691701147
 20
8.7705067546
 30
0.0
 10
10.2691701147
 20
8.7621959442
 30
0.0
  0
SPLINE
  5
3C2
100
AcDbEntity
  8
0
100
AcDbSpline
 62
7
  6
CONTINUOUS
 70
0
 71
3
 72
23
 73
19
 74
0
 42
0.0000001
 43
0.0000001
 44
0.0000000001
 40
0.0
 40
0.0
 40
0.0
 40
0.0
 40
0.0637772815
 40
0.1273447908
 40
0.1907019866
 40
0.2538561396
 40
0.3168131864
 40
0.379582096
 40
0.4421733877
 40
0.5045993365
 40
0.5668738645
 40
0.6290123802
 40
0.6910316524
 40
0.7529496465
 40
0.8147853538
 40
0.8765586016
 40
0.9382898535
 40
1.0
 40
1.0
 40
1.0
 40
1.0
 10
9.3100614492
 20
8.840768059
 30
0.0
 10
9.3100614492
 20
8.8481738825
 30
0.0
 10
9.310415915
 20
8.8629636806
 30
0.0
 10
9.3120158325
 20
8.8850584244
 30
0.0
 10
9.3146796802
 20
8.9069779997
 30
0.0
 10
9.3184011311
 20
8.928671012
 30
0.0
 10
9.3231718239
 20
8.9500878143
 30
0.0
 10
9.3289807559
 20
8.9711789117
 30
0.0
 10
9.3358145981
 20
8.991895709
 30
0.0
 10
9.3436576257
 20
9.0121904312
 30
0.0
 10
9.3524917939
 20
9.0320162762
 30
0.0
 10
9.3622967767
 20
9.0513275144
 30
0.0
 10
9.3730500076
 20
9.070079588
 30
0.0
 10
9.3847267267
 20
9.0882292437
 30
0.0
 10
9.3972999729
 20
9.10573458
 30
0.0
 10
9.4107409073
 20
9.1225553506
 30
0.0
 10
9.4250180005
 20
9.1386522321
 30
0.0
 10
9.4350734778
 20
9.148877995
 30
0.0
 10
9.4402274998
 20
9.1538564053
 30
0.0
  0
SPLINE
  5
3C3
100
AcDbEntity
  8
0
100
AcDbSpline
 62
7
  6
CONTINUOUS
 70
0
 71
3
 72
23
 73
19
 74
0
 42
0.0000001
 43
0.0000001
 44
0.0000000001
 40
0.0
 40
0.0
 40
0.0
 40
0.0
 40
0.063776763
 40
0.1273450105
 40
0.1907019658
 40
0.2538561083
 40
0.3168132129
 40
0.3795820829
 40
0.4421733857
 40
0.5045993396
 40
0.5668738671
 40
0.6290123792
 40
0.6910316488
 40
0.752949646
 40
0.8147853557
 40
0.8765586025
 40
0.9382898529
 40
1.0
 40
1.0
 40
1.0
 40
1.0
 10
9.7026443837
 20
9.0524740769
 30
0.0
 10
9.7026443837
 20
9.0572955373
 30
0.0
 10
9.7028751719
 20
9.066924328
 30
0.0
 10
9.7039167604
 20
9.0813089268
 30
0.0
 10
9.7056510478
 20
9.0955795195
 30
0.0
 10
9.7080738562
 20
9.1097025613
 30
0.0
 10
9.7111797901
 20
9.1236457897
 30
0.0
 10
9.7149616566
 20
9.1373769719
 30
0.0
 10
9.7194107553
 20
9.1508644736
 30
0.0
 10
9.7245168805
 20
9.1640771898
 30
0.0
 10
9.7302683079
 20
9.1769846343
 30
0.0
 10
9.7366517724
 20
9.1895570478
 30
0.0
 10
9.7436525663
 20
9.2017654325
 30
0.0
 10
9.7512545809
 20
9.2135816253
 30
0.0
 10
9.7594402966
 20
9.2249783233
 30
0.0
 10
9.7681909115
 20
9.2359293402
 30
0.0
 10
9.7774858927
 20
9.2464090812
 30
0.0
 10
9.7840324222
 20
9.2530664841
 30
0.0
 10
9.7873879061
 20
9.2563076358
 30
0.0
  0
SPLINE
  5
3C4
100
AcDbEntity
  8
0
100
AcDbSpline
 62
7
  6
CONTINUOUS
 70
0
 71
3
 72
15
 73
11
 74
0
 42
0.0000001
 43
0.0000001
 44
0.0000000001
 40
0.0
 40
0.0
 40
0.0
 40
0.0
 40
0.1265784867
 40
0.2526743556
 40
0.37829467
 40
0.5034557216
 40
0.6281776547
 40
0.7524870743
 40
0.8764156172
 40
1.0
 40
1.0
 40
1.0
 40
1.0
 10
9.5158224202
 20
9.0395179068
 30
0.0
 10
9.5158224202
 20
9.0480554013
 30
0.0
 10
9.5162933927
 20
9.0651016987
 30
0.0
 10
9.5184201352
 20
9.0905409623
 30
0.0
 10
9.5219594819
 20
9.1157268437
 30
0.0
 10
9.5269006034
 20
9.1405810859
 30
0.0
 10
9.5332284922
 20
9.1650277541
 30
0.0
 10
9.5409239416
 20
9.188992068
 30
0.0
 10
9.5499629759
 20
9.2123995469
 30
0.0
 10
9.5568763664
 20
9.227607403
 30
0.0
 10
9.5605464531
 20
9.2350915072
 30
0.0
  0
SPLINE
  5
3C5
100
AcDbEntity
  8
0
100
AcDbSpline
 62
7
  6
CONTINUOUS
 70
0
 71
3
 72
71
 73
67
 74
0
 42
0.0000001
 43
0.0000001
 44
0.0000000001
 40
0.0
 40
0.0
 40
0.0
 40
0.0
 40
0.0155843069
 40
0.0311159038
 40
0.0465952632
 40
0.0620238805
 40
0.077403449
 40
0.0927362827
 40
0.1080251225
 40
0.1232731731
 40
0.1384840552
 40
0.1536617763
 40
0.1688106901
 40
0.1839354535
 40
0.1990409788
 40
0.2141323827
 40
0.2292149324
 40
0.2442939898
 40
0.259374954
 40
0.2744632038
 40
0.2895640402
 40
0.3046826299
 40
0.3198239506
 40
0.3349927394
 40
0.3501934439
 40
0.3654301775
 40
0.3807066787
 40
0.3960262758
 40
0.4113918556
 40
0.4268058385
 40
0.4422701584
 40
0.4577862477
 40
0.4733550287
 40
0.4889769093
 40
0.5046517847
 40
0.520379043
 40
0.5361575765
 40
0.5519857969
 40
0.5678616545
 40
0.5837826615
 40
0.5997459177
 40
0.6157481411
 40
0.6317856992
 40
0.6478546443
 40
0.6639507502
 40
0.6800695513
 40
0.6962063822
 40
0.7123564202
 40
0.7285147273
 40
0.7446762933
 40
0.7608360801
 40
0.7769890646
 40
0.7931302832
 40
0.8092548748
 40
0.8253581236
 40
0.841435501
 40
0.8574827062
 40
0.8734957057
 40
0.889470771
 40
0.9054045125
 40
0.9212939181
 40
0.9371363645
 40
0.9529297054
 40
0.9686721205
 40
0.9843625712
 40
1.0
 40
1.0
 40
1.0
 40
1.0
 10
9.1464868226
 20
7.2661375507
 30
0.0
 10
9.1464868226
 20
7.2761240055
 30
0.0
 10
9.1469755259
 20
7.2960666802
 30
0.0
 10
9.1491816479
 20
7.3258550919
 30
0.0
 10
9.1528544668
 20
7.3553987593
 30
0.0
 10
9.1579850813
 20
7.3846254455
 30
0.0
 10
9.1645612931
 20
7.4134650454
 30
0.0
 10
9.1725672727
 20
7.4418479363
 30
0.0
 10
9.1819838169
 20
7.4697057183
 30
0.0
 10
9.1927882813
 20
7.4969712091
 30
0.0
 10
9.2049546826
 20
7.5235786548
 30
0.0
 10
9.2184537401
 20
7.5494638776
 30
0.0
 10
9.2332529522
 20
7.5745644347
 30
0.0
 10
9.24931667
 20
7.5988197716
 30
0.0
 10
9.2666061822
 20
7.6221713719
 30
0.0
 10
9.2850798117
 20
7.6445628983
 30
0.0
 10
9.3046930157
 20
7.6659403312
 30
0.0
 10
9.3253984945
 20
7.6862521008
 30
0.0
 10
9.3471463063
 20
7.7054492132
 30
0.0
 10
9.3698839894
 20
7.7234853704
 30
0.0
 10
9.3935566904
 20
7.740317083
 30
0.0
 10
9.4181072988
 20
7.7559037759
 30
0.0
 10
9.4434765863
 20
7.7702078867
 30
0.0
 10
9.4696033527
 20
7.7831949557
 30
0.0
 10
9.4964245732
 20
7.7948337121
 30
0.0
 10
9.5238755541
 20
7.8050961474
 30
0.0
 10
9.5518900918
 20
7.8139575796
 30
0.0
 10
9.5804006332
 20
7.8213967121
 30
0.0
 10
9.6093384401
 20
7.8273956824
 30
0.0
 10
9.6386337553
 20
7.8319401041
 30
0.0
 10
9.6682159719
 20
7.8350190991
 30
0.0
 10
9.6980138029
 20
7.8366253223
 30
0.0
 10
9.7279554534
 20
7.8367549773
 30
0.0
 10
9.7579687928
 20
7.8354078236
 30
0.0
 10
9.7879815278
 20
7.8325871761
 30
0.0
 10
9.817921377
 20
7.8282998997
 30
0.0
 10
9.8477162436
 20
7.8225563871
 30
0.0
 10
9.8772943884
 20
7.8153705328
 30
0.0
 10
9.9065846013
 20
7.8067596986
 30
0.0
 10
9.9355163716
 20
7.7967446714
 30
0.0
 10
9.9640200566
 20
7.7853496123
 30
0.0
 10
9.992027048
 20
7.7726019984
 30
0.0
 10
10.0194699361
 20
7.7585325563
 30
0.0
 10
10.0462826706
 20
7.7431751882
 30
0.0
 10
10.0724007191
 20
7.7265668901
 30
0.0
 10
10.0977612217
 20
7.7087476647
 30
0.0
 10
10.1223031434
 20
7.6897604263
 30
0.0
 10
10.145967418
 20
7.6696508943
 30
0.0
 10
10.1686970901
 20
7.6484674848
 30
0.0
 10
10.1904374508
 20
7.6262611936
 30
0.0
 10
10.2111361693
 20
7.6030854744
 30
0.0
 10
10.2307434177
 20
7.5789961111
 30
0.0
 10
10.249211991
 20
7.5540510835
 30
0.0
 10
10.2664974194
 20
7.5283104292
 30
0.0
 10
10.2825580758
 20
7.5018360994
 30
0.0
 10
10.2973552748
 20
7.4746918109
 30
0.0
 10
10.3108533687
 20
7.4469428947
 30
0.0
 10
10.3230198331
 20
7.4186561388
 30
0.0
 10
10.3338253407
 20
7.3898996279
 30
0.0
 10
10.3432438393
 20
7.3607425774
 30
0.0
 10
10.3512525955
 20
7.3312551815
 30
0.0
 10
10.3578322982
 20
7.3015083948
 30
0.0
 10
10.3629669956
 20
7.27157394
 30
0.0
 10
10.3666443513
 20
7.2415235491
 30
0.0
 10
10.3688553209
 20
7.2114306446
 30
0.0
 10
10.3693490261
 20
7.1913522642
 30
0.0
 10
10.3693490261
 20
7.1813317689
 30
0.0
  0
SPLINE
  5
3C6
100
AcDbEntity
  8
0
100
AcDbSpline
 62
7
  6
CONTINUOUS
 70
0
 71
3
 72
71
 73
67
 74
0
 42
0.0000001
 43
0.0000001
 44
0.0000000001
 40
0.0
 40
0.0
 40
0.0
 40
0.0
 40
0.0156373785
 40
0.031327908
 40
0.0470702843
 40
0.0628636379
 40
0.078706081
 40
0.0945954869
 40
0.110529229
 40
0.1265042947
 40
0.1425172947
 40
0.1585644997
 40
0.1746418765
 40
0.1907451247
 40
0.2068697161
 40
0.223010935
 40
0.23916392
 40
0.2553237071
 40
0.2714852732
 40
0.2876435801
 40
0.3037936179
 40
0.3199304487
 40
0.3360492498
 40
0.3521453559
 40
0.3682143008
 40
0.3842518587
 40
0.4002540819
 40
0.4162173382
 40
0.4321383455
 40
0.4480142037
 40
0.4638424245
 40
0.4796209578
 40
0.4953482155
 40
0.5110230902
 40
0.5266449705
 40
0.5422137516
 40
0.5577298414
 40
0.5731941618
 40
0.588608145
 40
0.6039737248
 40
0.6192933216
 40
0.6345698226
 40
0.6498065561
 40
0.6650072606
 40
0.6801760496
 40
0.6953173702
 40
0.7104359597
 40
0.7255367959
 40
0.7406250456
 40
0.7557060099
 40
0.7707850676
 40
0.7858676178
 40
0.800959022
 40
0.8160645473
 40
0.8311893104
 40
0.8463382237
 40
0.8615159442
 40
0.8767268262
 40
0.8919748769
 40
0.9072637173
 40
0.9225965518
 40
0.9379761174
 40
0.9534047476
 40
0.9688840681
 40
0.9844157435
 40
1.0
 40
1.0
 40
1.0
 40
1.0
 10
9.254947937
 20
8.8325324911
 30
0.0
 10
9.254947937
 20
8.8242216807
 30
0.0
 10
9.2553574189
 20
8.8075689815
 30
0.0
 10
9.2571911429
 20
8.7826104161
 30
0.0
 10
9.2602411056
 20
8.7576870815
 30
0.0
 10
9.264499725
 20
8.7328599413
 30
0.0
 10
9.2699568246
 20
8.7081884311
 30
0.0
 10
9.2765991501
 20
8.6837320602
 30
0.0
 10
9.2844106983
 20
8.6595496713
 30
0.0
 10
9.2933726183
 20
8.6356994868
 30
0.0
 10
9.3034632966
 20
8.6122389116
 30
0.0
 10
9.3146584046
 20
8.5892244119
 30
0.0
 10
9.3269309632
 20
8.5667113784
 30
0.0
 10
9.340251407
 20
8.5447539942
 30
0.0
 10
9.3545876543
 20
8.523405106
 30
0.0
 10
9.3699051843
 20
8.5027160974
 30
0.0
 10
9.3861671204
 20
8.4827367679
 30
0.0
 10
9.403334308
 20
8.4635152039
 30
0.0
 10
9.4213654166
 20
8.4450976684
 30
0.0
 10
9.4402170419
 20
8.4275284931
 30
0.0
 10
9.4598438091
 20
8.410849972
 30
0.0
 10
9.480198481
 20
8.3951022608
 30
0.0
 10
9.5012320705
 20
8.3803232799
 30
0.0
 10
9.522893959
 20
8.3665486263
 30
0.0
 10
9.5451320101
 20
8.3538114764
 30
0.0
 10
9.5678926991
 20
8.3421425102
 30
0.0
 10
9.5911212451
 20
8.331569844
 30
0.0
 10
9.6147617397
 20
8.3221189617
 30
0.0
 10
9.6387572815
 20
8.3138126537
 30
0.0
 10
9.6630501108
 20
8.3066709619
 30
0.0
 10
9.687581748
 20
8.3007111332
 30
0.0
 10
9.7122931311
 20
8.2959475662
 30
0.0
 10
9.7371247592
 20
8.2923917773
 30
0.0
 10
9.7620168367
 20
8.2900523818
 30
0.0
 10
9.7869094151
 20
8.2889350704
 30
0.0
 10
9.8117425369
 20
8.2890425952
 30
0.0
 10
9.8364563783
 20
8.2903747609
 30
0.0
 10
9.8609913925
 20
8.2929284265
 30
0.0
 10
9.8852884539
 20
8.2966975015
 30
0.0
 10
9.9092890024
 20
8.301672957
 30
0.0
 10
9.9329351838
 20
8.3078428579
 30
0.0
 10
9.9561699885
 20
8.3151923878
 30
0.0
 10
9.9789373896
 20
8.3237038839
 30
0.0
 10
10.0011824786
 20
8.333356877
 30
0.0
 10
10.0228515975
 20
8.3441281414
 30
0.0
 10
10.0438924733
 20
8.3559917434
 30
0.0
 10
10.0642543498
 20
8.3689190973
 30
0.0
 10
10.0838881057
 20
8.382879048
 30
0.0
 10
10.1027463752
 20
8.3978379426
 30
0.0
 10
10.1207836635
 20
8.4137597132
 30
0.0
 10
10.1379564581
 20
8.430605963
 30
0.0
 10
10.1542233337
 20
8.4483360612
 30
0.0
 10
10.1695450571
 20
8.4669072381
 30
0.0
 10
10.1838846914
 20
8.4862746845
 30
0.0
 10
10.1972076742
 20
8.5063916724
 30
0.0
 10
10.2094819026
 20
8.5272096678
 30
0.0
 10
10.2206778098
 20
8.5486784494
 30
0.0
 10
10.2307684358
 20
8.5707462309
 30
0.0
 10
10.2397294908
 20
8.5933597868
 30
0.0
 10
10.2475394178
 20
8.6164645836
 30
0.0
 10
10.2541794404
 20
8.6400048964
 30
0.0
 10
10.2596336447
 20
8.6639240011
 30
0.0
 10
10.2638888776
 20
8.6881641297
 30
0.0
 10
10.266935078
 20
8.7126671959
 30
0.0
 10
10.2687647812
 20
8.7373732196
 30
0.0
 10
10.2691701147
 20
8.7539133666
 30
0.0
 10
10.2691701147
 20
8.7621959442
 30
0.0
  0
SPLINE
  5
3C7
100
AcDbEntity
  8
0
100
AcDbSpline
 62
7
  6
CONTINUOUS
 70
0
 71
3
 72
39
 73
35
 74
0
 42
0.0000001
 43
0.0000001
 44
0.0000000001
 40
0.0
 40
0.0
 40
0.0
 40
0.0
 40
0.0310753517
 40
0.0623079183
 40
0.0936931253
 40
0.1252222895
 40
0.1568840437
 40
0.1886642049
 40
0.2205461647
 40
0.2525112489
 40
0.2845391083
 40
0.3166081364
 40
0.3486959075
 40
0.3807796232
 40
0.4128365658
 40
0.4448445498
 40
0.4767823668
 40
0.5086302146
 40
0.5403701083
 40
0.5719862651
 40
0.6034654507
 40
0.6347972859
 40
0.6659745046
 40
0.6969931564
 40
0.7278527396
 40
0.7585562643
 40
0.7891102406
 40
0.819524585
 40
0.8498124373
 40
0.8799898963
 40
0.9100756752
 40
0.9400906814
 40
0.9700575289
 40
1.0
 40
1.0
 40
1.0
 40
1.0
 10
9.3100614492
 20
8.840768059
 30
0.0
 10
9.3100614492
 20
8.8292779357
 30
0.0
 10
9.310918589
 20
8.806230717
 30
0.0
 10
9.31474552
 20
8.7717702241
 30
0.0
 10
9.3210953336
 20
8.7375120824
 30
0.0
 10
9.3299329382
 20
8.7036468371
 30
0.0
 10
9.3412094407
 20
8.6703598229
 30
0.0
 10
9.3548626304
 20
8.6378339043
 30
0.0
 10
9.3708173043
 20
8.6062475243
 30
0.0
 10
9.3889857048
 20
8.575774021
 30
0.0
 10
9.4092679889
 20
8.546580616
 30
0.0
 10
9.4315527052
 20
8.5188274792
 30
0.0
 10
9.4557174799
 20
8.4926669001
 30
0.0
 10
9.4816296758
 20
8.4682424676
 30
0.0
 10
9.5091471045
 20
8.4456882914
 30
0.0
 10
9.5381187481
 20
8.425128207
 30
0.0
 10
9.5683856414
 20
8.4066751675
 30
0.0
 10
9.5997817247
 20
8.3904306311
 30
0.0
 10
9.632134735
 20
8.3764840038
 30
0.0
 10
9.6652671088
 20
8.3649120732
 30
0.0
 10
9.6989969852
 20
8.3557786663
 30
0.0
 10
9.7331391801
 20
8.3491342954
 30
0.0
 10
9.7675061805
 20
8.3450158643
 30
0.0
 10
9.8019091543
 20
8.3434463739
 30
0.0
 10
9.8361589934
 20
8.3444348716
 30
0.0
 10
9.8700673334
 20
8.3479763798
 30
0.0
 10
9.9034475769
 20
8.3540518872
 30
0.0
 10
9.9361159432
 20
8.3626283552
 30
0.0
 10
9.967892458
 20
8.373658953
 30
0.0
 10
9.9986020098
 20
8.3870833441
 30
0.0
 10
10.0280751013
 20
8.402827759
 30
0.0
 10
10.0561497091
 20
8.4208061465
 30
0.0
 10
10.0826689672
 20
8.4409176528
 30
0.0
 10
10.0992212118
 20
8.4556803006
 30
0.0
 10
10.1071842467
 20
8.4633720128
 30
0.0
  0
SPLINE
  5
3C8
100
AcDbEntity
  8
0
100
AcDbSpline
 62
7
  6
CONTINUOUS
 70
0
 71
3
 72
44
 73
40
 74
0
 42
0.0000001
 43
0.0000001
 44
0.0000000001
 40
0.0
 40
0.0
 40
0.0
 40
0.0
 40
0.0308701639
 40
0.0463581919
 40
0.0618795298
 40
0.0930174117
 40
0.124282045
 40
0.139961556
 40
0.155669833
 40
0.1871640255
 40
0.2187573949
 40
0.2504374625
 40
0.2821904404
 40
0.3140014454
 40
0.345854728
 40
0.3777339103
 40
0.409622231
 40
0.4415027933
 40
0.4733588152
 40
0.5051738783
 40
0.5369321728
 40
0.5686187359
 40
0.6002196814
 40
0.6317224175
 40
0.6631158496
 40
0.6943905657
 40
0.7255390006
 40
0.7565555764
 40
0.787436816
 40
0.8181814259
 40
0.8487903468
 40
0.8640468624
 40
0.8792708388
 40
0.9096201714
 40
0.9398499898
 40
0.954925119
 40
0.9699741436
 40
0.9849985684
 40
1.0
 40
1.0
 40
1.0
 40
1.0
 10
9.5158224202
 20
9.0395179068
 30
0.0
 10
9.5158224202
 20
9.0296051681
 30
0.0
 10
9.5163002276
 20
9.0147134551
 30
0.0
 10
9.5178806186
 20
8.9949039027
 30
0.0
 10
9.5200952539
 20
8.9750679538
 30
0.0
 10
9.5240450918
 20
8.9503419022
 30
0.0
 10
9.5295397847
 20
8.9258608781
 30
0.0
 10
9.534851434
 20
8.9064534823
 30
0.0
 10
9.5407803084
 20
8.8871485684
 30
0.0
 10
9.5493213929
 20
8.8633132661
 30
0.0
 10
9.561321911
 20
8.8353285822
 30
0.0
 10
9.5750342332
 20
8.8080481849
 30
0.0
 10
9.5904019782
 20
8.781584331
 30
0.0
 10
9.6073622721
 20
8.7560450437
 30
0.0
 10
9.6258456793
 20
8.7315348058
 30
0.0
 10
9.6457765723
 20
8.708153832
 30
0.0
 10
9.6670734163
 20
8.685997745
 30
0.0
 10
9.6896491047
 20
8.665157164
 30
0.0
 10
9.7134113119
 20
8.6457173419
 30
0.0
 10
9.7382628694
 20
8.6277578197
 30
0.0
 10
9.7641021594
 20
8.6113521028
 30
0.0
 10
9.790823527
 20
8.5965673622
 30
0.0
 10
9.8183177079
 20
8.5834641607
 30
0.0
 10
9.8464722706
 20
8.572096206
 30
0.0
 10
9.8751720731
 20
8.5625101308
 30
0.0
 10
9.9042997221
 20
8.5547453003
 30
0.0
 10
9.9337360729
 20
8.5488336524
 30
0.0
 10
9.9633606189
 20
8.5447995526
 30
0.0
 10
9.993052325
 20
8.5426597318
 30
0.0
 10
10.0226888359
 20
8.5424230582
 30
0.0
 10
10.0472685474
 20
8.543814609
 30
0.0
 10
10.0667790758
 20
8.5458793494
 30
0.0
 10
10.086129185
 20
8.5485690709
 30
0.0
 10
10.1100629575
 20
8.5531053049
 30
0.0
 10
10.1335982937
 20
8.559203431
 30
0.0
 10
10.1520951461
 20
8.564998197
 30
0.0
 10
10.1657797202
 20
8.5697938864
 30
0.0
 10
10.1792732328
 20
8.5750376183
 30
0.0
 10
10.1881393426
 20
8.5788316766
 30
0.0
 10
10.1925353402
 20
8.5808014092
 30
0.0
  0
SPLINE
  5
3C9
100
AcDbEntity
  8
0
100
AcDbSpline
 62
7
  6
CONTINUOUS
 70
0
 71
3
 72
34
 73
30
 74
0
 42
0.0000001
 43
0.0000001
 44
0.0000000001
 40
0.0
 40
0.0
 40
0.0
 40
0.0
 40
0.0951636975
 40
0.1890543252
 40
0.2804495234
 40
0.3681957603
 40
0.4512704553
 40
0.4907849965
 40
0.5288313516
 40
0.5653375915
 40
0.600249402
 40
0.6335280302
 40
0.6651527065
 40
0.6951207698
 40
0.7234470516
 40
0.7501663304
 40
0.775330849
 40
0.7990136904
 40
0.8213058984
 40
0.8423193524
 40
0.8621841443
 40
0.8810494309
 40
0.8990804317
 40
0.9164556928
 40
0.93336236
 40
0.9499900758
 40
0.9665245121
 40
0.9831411754
 40
1.0
 40
1.0
 40
1.0
 40
1.0
 10
11.4582845094
 20
8.9054308986
 30
0.0
 10
11.459918694
 20
8.9039732567
 30
0.0
 10
11.4631344332
 20
8.9010427484
 30
0.0
 10
11.4678078226
 20
8.8965915718
 30
0.0
 10
11.4722526113
 20
8.8921502346
 30
0.0
 10
11.4764034773
 20
8.8877698754
 30
0.0
 10
11.4796189335
 20
8.884150774
 30
0.0
 10
11.4819910249
 20
8.8813155982
 30
0.0
 10
11.4836314517
 20
8.8792662593
 30
0.0
 10
11.4851579338
 20
8.8772622646
 30
0.0
 10
11.486566089
 20
8.8753070725
 30
0.0
 10
11.4878522481
 20
8.8734036398
 30
0.0
 10
11.4890134978
 20
8.8715544912
 30
0.0
 10
11.4900477076
 20
8.8697617432
 30
0.0
 10
11.4909533645
 20
8.8680270327
 30
0.0
 10
11.4917297819
 20
8.86635172
 30
0.0
 10
11.4923766891
 20
8.8647366909
 30
0.0
 10
11.4928946099
 20
8.8631826594
 30
0.0
 10
11.4932842798
 20
8.861689955
 30
0.0
 10
11.4935471106
 20
8.8602588169
 30
0.0
 10
11.4936845895
 20
8.858889271
 30
0.0
 10
11.4936987039
 20
8.8575813374
 30
0.0
 10
11.4935915364
 20
8.8563350203
 30
0.0
 10
11.4933655144
 20
8.855150395
 30
0.0
 10
11.4930233266
 20
8.8540275859
 30
0.0
 10
11.492567907
 20
8.8529667611
 30
0.0
 10
11.4920024526
 20
8.8519679789
 30
0.0
 10
11.4913303908
 20
8.8510313244
 30
0.0
 10
11.4908184026
 20
8.8504537781
 30
0.0
 10
11.4905474335
 20
8.8501761596
 30
0.0
  0
SPLINE
  5
3CA
100
AcDbEntity
  8
0
100
AcDbSpline
 62
7
  6
CONTINUOUS
 70
0
 71
3
 72
50
 73
46
 74
0
 42
0.0000001
 43
0.0000001
 44
0.0000000001
 40
0.0
 40
0.0
 40
0.0
 40
0.0
 40
0.0310682083
 40
0.0622931057
 40
0.093670003
 40
0.1251904414
 40
0.1568431274
 40
0.1886140403
 40
0.2204867456
 40
0.2524427563
 40
0.284461921
 40
0.3165228319
 40
0.3486032567
 40
0.3806805784
 40
0.4127322406
 40
0.4447361933
 40
0.4766713317
 40
0.5085179187
 40
0.5402579933
 40
0.5718757482
 40
0.6033578732
 40
0.6346938664
 40
0.6658762841
 40
0.6814110899
 40
0.6969062177
 40
0.7123616793
 40
0.7277777025
 40
0.7431547316
 40
0.7584934306
 40
0.7737946777
 40
0.7890595607
 40
0.8042893765
 40
0.8194856234
 40
0.8346499914
 40
0.8497843566
 40
0.8648907718
 40
0.8799714526
 40
0.8950287663
 40
0.910065221
 40
0.9250834486
 40
0.9400861887
 40
0.9550762758
 40
0.9700566208
 40
0.9850301923
 40
1.0
 40
1.0
 40
1.0
 40
1.0
 10
10.5396293621
 20
8.7434395317
 30
0.0
 10
10.5396293621
 20
8.7268651739
 30
0.0
 10
10.5408611379
 20
8.6936202084
 30
0.0
 10
10.5463608142
 20
8.6439102605
 30
0.0
 10
10.555486519
 20
8.5944890574
 30
0.0
 10
10.568188111
 20
8.5456294779
 30
0.0
 10
10.5843957787
 20
8.4975968485
 30
0.0
 10
10.6040209005
 20
8.4506531388
 30
0.0
 10
10.6269561248
 20
8.4050539503
 30
0.0
 10
10.6530762353
 20
8.3610476522
 30
0.0
 10
10.6822387701
 20
8.3188739368
 30
0.0
 10
10.7142846328
 20
8.2787624331
 30
0.0
 10
10.749039242
 20
8.2409316731
 30
0.0
 10
10.7863131996
 20
8.2055877141
 30
0.0
 10
10.8259034529
 20
8.172923116
 30
0.0
 10
10.8675944312
 20
8.1431159939
 30
0.0
 10
10.9111590264
 20
8.1163288028
 30
0.0
 10
10.9563600222
 20
8.0927077636
 30
0.0
 10
11.0029512702
 20
8.0723818587
 30
0.0
 10
11.0506788401
 20
8.0554621441
 30
0.0
 10
11.0992832378
 20
8.0420413268
 30
0.0
 10
11.1484977624
 20
8.0321930272
 30
0.0
 10
11.189853674
 20
8.027001481
 30
0.0
 10
11.2229682261
 20
8.0246862018
 30
0.0
 10
11.2477598348
 20
8.0238691106
 30
0.0
 10
11.2725010407
 20
8.0239706865
 30
0.0
 10
11.2971584921
 20
8.0249907729
 30
0.0
 10
11.3216984157
 20
8.026928045
 30
0.0
 10
11.3460873449
 20
8.0297798169
 30
0.0
 10
11.370291977
 20
8.0335422268
 30
0.0
 10
11.3942792569
 20
8.0382102099
 30
0.0
 10
11.4180164398
 20
8.04377736
 30
0.0
 10
11.441471118
 20
8.0502360847
 30
0.0
 10
11.4646112454
 20
8.0575776381
 30
0.0
 10
11.4874052262
 20
8.0657919837
 30
0.0
 10
11.5098219422
 20
8.0748678904
 30
0.0
 10
11.5318307587
 20
8.0847930224
 30
0.0
 10
11.5534016086
 20
8.0955538422
 30
0.0
 10
11.5745050505
 20
8.1071356208
 30
0.0
 10
11.5951122437
 20
8.1195225742
 30
0.0
 10
11.6151950228
 20
8.132697831
 30
0.0
 10
11.6347259587
 20
8.1466433294
 30
0.0
 10
11.6536784677
 20
8.1613401234
 30
0.0
 10
11.6720262601
 20
8.1767678522
 30
0.0
 10
11.6838398782
 20
8.1875276795
 30
0.0
 10
11.6896364815
 20
8.1930211087
 30
0.0
  0
SPLINE
  5
3CB
100
AcDbEntity
  8
0
100
AcDbSpline
 62
7
  6
CONTINUOUS
 70
0
 71
3
 72
23
 73
19
 74
0
 42
0.0000001
 43
0.0000001
 44
0.0000000001
 40
0.0
 40
0.0
 40
0.0
 40
0.0
 40
0.0637694714
 40
0.1273305168
 40
0.1906845707
 40
0.2538373794
 40
0.3167951136
 40
0.3795663683
 40
0.4421612904
 40
0.5045917704
 40
0.5668712604
 40
0.6290146779
 40
0.6910382663
 40
0.752959445
 40
0.8147966436
 40
0.876569124
 40
0.938296792
 40
1.0
 40
1.0
 40
1.0
 40
1.0
 10
10.5396293621
 20
8.7434395317
 30
0.0
 10
10.5396293621
 20
8.7540389222
 30
0.0
 10
10.5401308025
 20
8.7752065699
 30
0.0
 10
10.5423942192
 20
8.8068317084
 30
0.0
 10
10.5461627681
 20
8.8382106083
 30
0.0
 10
10.5514278844
 20
8.8692715573
 30
0.0
 10
10.5581778892
 20
8.8999449629
 30
0.0
 10
10.5663975892
 20
8.9301616291
 30
0.0
 10
10.5760685665
 20
8.9598535227
 30
0.0
 10
10.5871690903
 20
8.9889537413
 30
0.0
 10
10.5996742191
 20
9.0173967167
 30
0.0
 10
10.6135558367
 20
9.0451183515
 30
0.0
 10
10.6287827087
 20
9.0720561656
 30
0.0
 10
10.6453205781
 20
9.0981494594
 30
0.0
 10
10.6631321589
 20
9.1233393656
 30
0.0
 10
10.6821775362
 20
9.147569304
 30
0.0
 10
10.702413074
 20
9.1707839159
 30
0.0
 10
10.7166695467
 20
9.1855516871
 30
0.0
 10
10.7239780723
 20
9.1927468194
 30
0.0
  0
SPLINE
  5
3CC
100
AcDbEntity
  8
0
100
AcDbSpline
 62
7
  6
CONTINUOUS
 70
0
 71
3
 72
71
 73
67
 74
0
 42
0.0000001
 43
0.0000001
 44
0.0000000001
 40
0.0
 40
0.0
 40
0.0
 40
0.0
 40
0.0155842565
 40
0.0311159319
 40
0.0465952524
 40
0.0620238826
 40
0.0774034482
 40
0.0927362827
 40
0.1080251231
 40
0.1232731738
 40
0.1384840558
 40
0.1536617763
 40
0.1688106896
 40
0.1839354527
 40
0.199040978
 40
0.2141323822
 40
0.2292149324
 40
0.2442939901
 40
0.2593749544
 40
0.2744632041
 40
0.2895640403
 40
0.3046826298
 40
0.3198239504
 40
0.3349927394
 40
0.3501934439
 40
0.3654301774
 40
0.3807066784
 40
0.3960262752
 40
0.411391855
 40
0.4268058382
 40
0.4422701586
 40
0.4577862484
 40
0.4733550295
 40
0.4889769098
 40
0.5046517845
 40
0.5203790422
 40
0.5361575755
 40
0.5519857963
 40
0.5678616545
 40
0.5837826618
 40
0.5997459181
 40
0.6157481413
 40
0.6317856992
 40
0.6478546441
 40
0.6639507502
 40
0.6800695513
 40
0.6962063821
 40
0.7123564199
 40
0.7285147268
 40
0.7446762929
 40
0.76083608
 40
0.776989065
 40
0.7931302839
 40
0.8092548753
 40
0.8253581235
 40
0.8414355003
 40
0.8574827053
 40
0.8734957053
 40
0.889470771
 40
0.9054045131
 40
0.921293919
 40
0.9371363621
 40
0.9529297157
 40
0.968672092
 40
0.9843626215
 40
1.0
 40
1.0
 40
1.0
 40
1.0
 10
10.7038367623
 20
8.7320517098
 30
0.0
 10
10.7038367623
 20
8.7403342874
 30
0.0
 10
10.7042420958
 20
8.7568744343
 30
0.0
 10
10.706071799
 20
8.781580458
 30
0.0
 10
10.7091179993
 20
8.8060835242
 30
0.0
 10
10.7133732322
 20
8.8303236529
 30
0.0
 10
10.7188274366
 20
8.8542427575
 30
0.0
 10
10.7254674591
 20
8.8777830704
 30
0.0
 10
10.7332773862
 20
8.9008878671
 30
0.0
 10
10.7422384411
 20
8.9235014231
 30
0.0
 10
10.7523290672
 20
8.9455692046
 30
0.0
 10
10.7635249744
 20
8.9670379861
 30
0.0
 10
10.7757992028
 20
8.9878559816
 30
0.0
 10
10.7891221856
 20
9.0079729695
 30
0.0
 10
10.8034618198
 20
9.0273404159
 30
0.0
 10
10.8187835433
 20
9.0459115928
 30
0.0
 10
10.8350504189
 20
9.0636416909
 30
0.0
 10
10.8522232135
 20
9.0804879408
 30
0.0
 10
10.8702605018
 20
9.0964097113
 30
0.0
 10
10.8891187713
 20
9.111368606
 30
0.0
 10
10.9087525272
 20
9.1253285567
 30
0.0
 10
10.9291144037
 20
9.1382559106
 30
0.0
 10
10.9501552795
 20
9.1501195125
 30
0.0
 10
10.9718243984
 20
9.160890777
 30
0.0
 10
10.9940694874
 20
9.1705437701
 30
0.0
 10
11.0168368885
 20
9.1790552662
 30
0.0
 10
11.0400716932
 20
9.1864047961
 30
0.0
 10
11.0637178745
 20
9.192574697
 30
0.0
 10
11.0877184231
 20
9.1975501525
 30
0.0
 10
11.1120154845
 20
9.2013192275
 30
0.0
 10
11.1365504987
 20
9.2038728931
 30
0.0
 10
11.1612643401
 20
9.2052050588
 30
0.0
 10
11.1860974619
 20
9.2053125835
 30
0.0
 10
11.2109900403
 20
9.2041952721
 30
0.0
 10
11.2358821177
 20
9.2018558767
 30
0.0
 10
11.2607137459
 20
9.1983000877
 30
0.0
 10
11.285425129
 20
9.1935365207
 30
0.0
 10
11.3099567662
 20
9.1875766921
 30
0.0
 10
11.3342495954
 20
9.1804350002
 30
0.0
 10
11.3582451372
 20
9.1721286923
 30
0.0
 10
11.3818856319
 20
9.1626778099
 30
0.0
 10
11.4051141779
 20
9.1521051438
 30
0.0
 10
11.4278748669
 20
9.1404361776
 30
0.0
 10
11.450112918
 20
9.1276990276
 30
0.0
 10
11.4717748064
 20
9.1139243741
 30
0.0
 10
11.492808396
 20
9.0991453932
 30
0.0
 10
11.5131630679
 20
9.0833976819
 30
0.0
 10
11.532789835
 20
9.0667191609
 30
0.0
 10
11.5516414604
 20
9.0491499856
 30
0.0
 10
11.569672569
 20
9.0307324501
 30
0.0
 10
11.5868397566
 20
9.0115108861
 30
0.0
 10
11.6031016927
 20
8.9915315566
 30
0.0
 10
11.6184192226
 20
8.970842548
 30
0.0
 10
11.63275547
 20
8.9494936597
 30
0.0
 10
11.6460759137
 20
8.9275362756
 30
0.0
 10
11.6583484724
 20
8.9050232421
 30
0.0
 10
11.6695435804
 20
8.8820087424
 30
0.0
 10
11.6796342586
 20
8.8585481672
 30
0.0
 10
11.6885961787
 20
8.8346979826
 30
0.0
 10
11.6964077268
 20
8.8105155938
 30
0.0
 10
11.7030500524
 20
8.7860592229
 30
0.0
 10
11.708507152
 20
8.7613877127
 30
0.0
 10
11.7127657714
 20
8.7365605725
 30
0.0
 10
11.7158157341
 20
8.7116372379
 30
0.0
 10
11.7176494581
 20
8.6866786725
 30
0.0
 10
11.71805894
 20
8.6700259733
 30
0.0
 10
11.71805894
 20
8.6617151629
 30
0.0
  0
SPLINE
  5
3CD
100
AcDbEntity
  8
0
100
AcDbSpline
 62
7
  6
CONTINUOUS
 70
0
 71
3
 72
23
 73
19
 74
0
 42
0.0000001
 43
0.0000001
 44
0.0000000001
 40
0.0
 40
0.0
 40
0.0
 40
0.0
 40
0.0637772815
 40
0.1273447908
 40
0.1907019866
 40
0.2538561396
 40
0.3168131864
 40
0.379582096
 40
0.4421733877
 40
0.5045993365
 40
0.5668738645
 40
0.6290123802
 40
0.6910316524
 40
0.7529496465
 40
0.8147853538
 40
0.8765586016
 40
0.9382898535
 40
1.0
 40
1.0
 40
1.0
 40
1.0
 10
10.7589502745
 20
8.7402872777
 30
0.0
 10
10.7589502745
 20
8.7476931012
 30
0.0
 10
10.7593047403
 20
8.7624828993
 30
0.0
 10
10.7609046578
 20
8.7845776431
 30
0.0
 10
10.7635685054
 20
8.8064972184
 30
0.0
 10
10.7672899564
 20
8.8281902307
 30
0.0
 10
10.7720606492
 20
8.849607033
 30
0.0
 10
10.7778695812
 20
8.8706981304
 30
0.0
 10
10.7847034234
 20
8.8914149277
 30
0.0
 10
10.792546451
 20
8.9117096499
 30
0.0
 10
10.8013806192
 20
8.9315354949
 30
0.0
 10
10.8111856019
 20
8.9508467331
 30
0.0
 10
10.8219388329
 20
8.9695988067
 30
0.0
 10
10.833615552
 20
8.9877484624
 30
0.0
 10
10.8461887982
 20
9.0052537987
 30
0.0
 10
10.8596297326
 20
9.0220745693
 30
0.0
 10
10.8739068258
 20
9.0381714508
 30
0.0
 10
10.883962303
 20
9.0483972137
 30
0.0
 10
10.8891163251
 20
9.053375624
 30
0.0
  0
SPLINE
  5
3CE
100
AcDbEntity
  8
0
100
AcDbSpline
 62
7
  6
CONTINUOUS
 70
0
 71
3
 72
23
 73
19
 74
0
 42
0.0000001
 43
0.0000001
 44
0.0000000001
 40
0.0
 40
0.0
 40
0.0
 40
0.0
 40
0.063776763
 40
0.1273450105
 40
0.1907019658
 40
0.2538561083
 40
0.3168132129
 40
0.3795820829
 40
0.4421733857
 40
0.5045993396
 40
0.5668738671
 40
0.6290123792
 40
0.6910316488
 40
0.752949646
 40
0.8147853557
 40
0.8765586025
 40
0.9382898529
 40
1.0
 40
1.0
 40
1.0
 40
1.0
 10
11.1515332089
 20
8.9519932956
 30
0.0
 10
11.1515332089
 20
8.956814756
 30
0.0
 10
11.1517639972
 20
8.9664435467
 30
0.0
 10
11.1528055857
 20
8.9808281455
 30
0.0
 10
11.1545398731
 20
8.9950987382
 30
0.0
 10
11.1569626815
 20
9.00922178
 30
0.0
 10
11.1600686154
 20
9.0231650083
 30
0.0
 10
11.1638504819
 20
9.0368961906
 30
0.0
 10
11.1682995805
 20
9.0503836923
 30
0.0
 10
11.1734057058
 20
9.0635964085
 30
0.0
 10
11.1791571332
 20
9.076503853
 30
0.0
 10
11.1855405977
 20
9.0890762665
 30
0.0
 10
11.1925413916
 20
9.1012846512
 30
0.0
 10
11.2001434062
 20
9.113100844
 30
0.0
 10
11.2083291219
 20
9.1244975419
 30
0.0
 10
11.2170797368
 20
9.1354485588
 30
0.0
 10
11.226374718
 20
9.1459282999
 30
0.0
 10
11.2329212475
 20
9.1525857028
 30
0.0
 10
11.2362767314
 20
9.1558268544
 30
0.0
  0
SPLINE
  5
3CF
100
AcDbEntity
  8
0
100
AcDbSpline
 62
7
  6
CONTINUOUS
 70
0
 71
3
 72
15
 73
11
 74
0
 42
0.0000001
 43
0.0000001
 44
0.0000000001
 40
0.0
 40
0.0
 40
0.0
 40
0.0
 40
0.1265784867
 40
0.2526743556
 40
0.37829467
 40
0.5034557216
 40
0.6281776547
 40
0.7524870743
 40
0.8764156172
 40
1.0
 40
1.0
 40
1.0
 40
1.0
 10
10.9647112455
 20
8.9390371255
 30
0.0
 10
10.9647112455
 20
8.94757462
 30
0.0
 10
10.965182218
 20
8.9646209174
 30
0.0
 10
10.9673089605
 20
8.9900601809
 30
0.0
 10
10.9708483072
 20
9.0152460624
 30
0.0
 10
10.9757894286
 20
9.0401003046
 30
0.0
 10
10.9821173175
 20
9.0645469728
 30
0.0
 10
10.9898127669
 20
9.0885112867
 30
0.0
 10
10.9988518012
 20
9.1119187656
 30
0.0
 10
11.0057651917
 20
9.1271266217
 30
0.0
 10
11.0094352784
 20
9.1346107259
 30
0.0
  0
SPLINE
  5
3D0
100
AcDbEntity
  8
0
100
AcDbSpline
 62
7
  6
CONTINUOUS
 70
0
 71
3
 72
71
 73
67
 74
0
 42
0.0000001
 43
0.0000001
 44
0.0000000001
 40
0.0
 40
0.0
 40
0.0
 40
0.0
 40
0.0155843069
 40
0.0311159038
 40
0.0465952632
 40
0.0620238805
 40
0.077403449
 40
0.0927362827
 40
0.1080251225
 40
0.1232731731
 40
0.1384840552
 40
0.1536617763
 40
0.1688106901
 40
0.1839354535
 40
0.1990409788
 40
0.2141323827
 40
0.2292149324
 40
0.2442939898
 40
0.259374954
 40
0.2744632038
 40
0.2895640402
 40
0.3046826299
 40
0.3198239506
 40
0.3349927394
 40
0.3501934439
 40
0.3654301775
 40
0.3807066787
 40
0.3960262758
 40
0.4113918556
 40
0.4268058385
 40
0.4422701584
 40
0.4577862477
 40
0.4733550287
 40
0.4889769093
 40
0.5046517847
 40
0.520379043
 40
0.5361575765
 40
0.5519857969
 40
0.5678616545
 40
0.5837826615
 40
0.5997459177
 40
0.6157481411
 40
0.6317856992
 40
0.6478546443
 40
0.6639507502
 40
0.6800695513
 40
0.6962063822
 40
0.7123564202
 40
0.7285147273
 40
0.7446762933
 40
0.7608360801
 40
0.7769890646
 40
0.7931302832
 40
0.8092548748
 40
0.8253581236
 40
0.841435501
 40
0.8574827062
 40
0.8734957057
 40
0.889470771
 40
0.9054045125
 40
0.9212939181
 40
0.9371363645
 40
0.9529297054
 40
0.9686721205
 40
0.9843625712
 40
1.0
 40
1.0
 40
1.0
 40
1.0
 10
10.3693490261
 20
7.1813317689
 30
0.0
 10
10.3693490261
 20
7.1713453141
 30
0.0
 10
10.3688603228
 20
7.1514026394
 30
0.0
 10
10.3666542008
 20
7.1216142277
 30
0.0
 10
10.3629813819
 20
7.0920705603
 30
0.0
 10
10.3578507674
 20
7.0628438741
 30
0.0
 10
10.3512745555
 20
7.0340042742
 30
0.0
 10
10.343268576
 20
7.0056213833
 30
0.0
 10
10.3338520318
 20
6.9777636013
 30
0.0
 10
10.3230475674
 20
6.9504981105
 30
0.0
 10
10.3108811661
 20
6.9238906648
 30
0.0
 10
10.2973821086
 20
6.898005442
 30
0.0
 10
10.2825828965
 20
6.8729048849
 30
0.0
 10
10.2665191787
 20
6.848649548
 30
0.0
 10
10.2492296664
 20
6.8252979477
 30
0.0
 10
10.230756037
 20
6.8029064213
 30
0.0
 10
10.211142833
 20
6.7815289884
 30
0.0
 10
10.1904373542
 20
6.7612172188
 30
0.0
 10
10.1686895424
 20
6.7420201064
 30
0.0
 10
10.1459518593
 20
6.7239839492
 30
0.0
 10
10.1222791583
 20
6.7071522365
 30
0.0
 10
10.0977285499
 20
6.6915655437
 30
0.0
 10
10.0723592624
 20
6.6772614328
 30
0.0
 10
10.046232496
 20
6.6642743639
 30
0.0
 10
10.0194112755
 20
6.6526356075
 30
0.0
 10
9.9919602946
 20
6.6423731722
 30
0.0
 10
9.9639457568
 20
6.6335117399
 30
0.0
 10
9.9354352155
 20
6.6260726075
 30
0.0
 10
9.9064974086
 20
6.6200736372
 30
0.0
 10
9.8772020934
 20
6.6155292155
 30
0.0
 10
9.8476198768
 20
6.6124502205
 30
0.0
 10
9.8178220458
 20
6.6108439973
 30
0.0
 10
9.7878803953
 20
6.6107143423
 30
0.0
 10
9.7578670559
 20
6.612061496
 30
0.0
 10
9.7278543209
 20
6.6148821435
 30
0.0
 10
9.6979144717
 20
6.6191694199
 30
0.0
 10
9.6681196051
 20
6.6249129325
 30
0.0
 10
9.6385414603
 20
6.6320987868
 30
0.0
 10
9.6092512474
 20
6.640709621
 30
0.0
 10
9.5803194771
 20
6.6507246482
 30
0.0
 10
9.5518157921
 20
6.6621197073
 30
0.0
 10
9.5238088007
 20
6.6748673212
 30
0.0
 10
9.4963659126
 20
6.6889367633
 30
0.0
 10
9.4695531781
 20
6.7042941314
 30
0.0
 10
9.4434351296
 20
6.7209024295
 30
0.0
 10
9.418074627
 20
6.7387216549
 30
0.0
 10
9.3935327053
 20
6.7577088933
 30
0.0
 10
9.3698684307
 20
6.7778184252
 30
0.0
 10
9.3471387586
 20
6.7990018348
 30
0.0
 10
9.3253983979
 20
6.821208126
 30
0.0
 10
9.3046996794
 20
6.8443838452
 30
0.0
 10
9.285092431
 20
6.8684732085
 30
0.0
 10
9.2666238577
 20
6.8934182361
 30
0.0
 10
9.2493384293
 20
6.9191588904
 30
0.0
 10
9.2332777728
 20
6.9456332202
 30
0.0
 10
9.2184805739
 20
6.9727775087
 30
0.0
 10
9.20498248
 20
7.0005264249
 30
0.0
 10
9.1928160156
 20
7.0288131808
 30
0.0
 10
9.182010508
 20
7.0575696917
 30
0.0
 10
9.1725920094
 20
7.0867267422
 30
0.0
 10
9.1645832532
 20
7.1162141381
 30
0.0
 10
9.1580035505
 20
7.1459609248
 30
0.0
 10
9.1528688531
 20
7.1758953796
 30
0.0
 10
9.1491914974
 20
7.2059457705
 30
0.0
 10
9.1469805278
 20
7.236038675
 30
0.0
 10
9.1464868226
 20
7.2561170554
 30
0.0
 10
9.1464868226
 20
7.2661375507
 30
0.0
  0
SPLINE
  5
3D1
100
AcDbEntity
  8
0
100
AcDbSpline
 62
7
  6
CONTINUOUS
 70
0
 71
3
 72
22
 73
18
 74
0
 42
0.0000001
 43
0.0000001
 44
0.0000000001
 40
0.0
 40
0.0
 40
0.0
 40
0.0
 40
0.04624721
 40
0.0948678166
 40
0.1458413668
 40
0.1991378638
 40
0.2547192573
 40
0.3125403891
 40
0.3725493434
 40
0.4346885552
 40
0.4988951048
 40
0.5651010319
 40
0.6332341269
 40
0.703217903
 40
0.7749720371
 40
0.8484128494
 40
1.0
 40
1.0
 40
1.0
 40
1.0
 10
11.2638265186
 20
7.2296399931
 30
0.0
 10
11.2611678728
 20
7.2309533183
 30
0.0
 10
11.2556645839
 20
7.2335479029
 30
0.0
 10
11.2470813804
 20
7.2372626797
 30
0.0
 10
11.2379737788
 20
7.2408931494
 30
0.0
 10
11.228354224
 20
7.2444343364
 30
0.0
 10
11.2182356778
 20
7.2478814265
 30
0.0
 10
11.2076318583
 20
7.2512296703
 30
0.0
 10
11.1965571645
 20
7.2544745175
 30
0.0
 10
11.1850266475
 20
7.257611503
 30
0.0
 10
11.1730559939
 20
7.2606363143
 30
0.0
 10
11.1606615092
 20
7.2635448297
 30
0.0
 10
11.1478600748
 20
7.2663330344
 30
0.0
 10
11.1346691529
 20
7.2689971035
 30
0.0
 10
11.1211066927
 20
7.2715334271
 30
0.0
 10
11.1023548172
 20
7.2747742727
 30
0.0
 10
11.0880889265
 20
7.2769488072
 30
0.0
 10
11.0784635587
 20
7.2782993569
 30
0.0
  0
SPLINE
  5
3D2
100
AcDbEntity
  8
0
100
AcDbSpline
 62
7
  6
CONTINUOUS
 70
0
 71
3
 72
33
 73
29
 74
0
 42
0.0000001
 43
0.0000001
 44
0.0000000001
 40
0.0
 40
0.0
 40
0.0
 40
0.0
 40
0.0168932395
 40
0.0336843587
 40
0.0505298154
 40
0.0675941465
 40
0.085044516
 40
0.1030464075
 40
0.1217590179
 40
0.1413314466
 40
0.161900341
 40
0.1835881254
 40
0.206501875
 40
0.2307336511
 40
0.256359192
 40
0.2834397316
 40
0.3120200744
 40
0.3421308671
 40
0.3737865313
 40
0.4069871542
 40
0.4417174558
 40
0.4779469612
 40
0.5547055769
 40
0.6367380088
 40
0.7232974075
 40
0.8134465724
 40
0.9060850656
 40
1.0
 40
1.0
 40
1.0
 40
1.0
 10
11.3965886655
 20
8.9328716913
 30
0.0
 10
11.3968729002
 20
8.9331627434
 30
0.0
 10
11.3974685293
 20
8.9337157675
 30
0.0
 10
11.3984416867
 20
8.9344497365
 30
0.0
 10
11.3994894314
 20
8.935080963
 30
0.0
 10
11.4006113969
 20
8.935606697
 30
0.0
 10
11.4018073441
 20
8.9360244714
 30
0.0
 10
11.4030770084
 20
8.93633203
 30
0.0
 10
11.4044202233
 20
8.9365272517
 30
0.0
 10
11.4058368712
 20
8.9366082665
 30
0.0
 10
11.4073268861
 20
8.9365733743
 30
0.0
 10
11.4088901851
 20
8.9364210267
 30
0.0
 10
11.4105266366
 20
8.9361500012
 30
0.0
 10
11.412235945
 20
8.9357591906
 30
0.0
 10
11.4140176832
 20
8.9352479931
 30
0.0
 10
11.4158711132
 20
8.9346159853
 30
0.0
 10
11.4177952934
 20
8.933863373
 30
0.0
 10
11.4197888641
 20
8.932990676
 30
0.0
 10
11.4218501702
 20
8.9319990916
 30
0.0
 10
11.4239770814
 20
8.9308902849
 30
0.0
 10
11.4261670758
 20
8.9296666003
 30
0.0
 10
11.4292262802
 20
8.9278505298
 30
0.0
 10
11.4331772065
 20
8.9253085048
 30
0.0
 10
11.4380198271
 20
8.9219214301
 30
0.0
 10
11.4430083796
 20
8.9181864055
 30
0.0
 10
11.4480917347
 20
8.9141563495
 30
0.0
 10
11.4532110597
 20
8.9098899711
 30
0.0
 10
11.4565967298
 20
8.9069363456
 30
0.0
 10
11.4582845094
 20
8.9054308986
 30
0.0
  0
SPLINE
  5
3D3
100
AcDbEntity
  8
0
100
AcDbSpline
 62
7
  6
CONTINUOUS
 70
0
 71
3
 72
19
 73
15
 74
0
 42
0.0000001
 43
0.0000001
 44
0.0000000001
 40
0.0
 40
0.0
 40
0.0
 40
0.0
 40
0.1457645565
 40
0.2865136524
 40
0.4217431412
 40
0.5509809322
 40
0.6132170156
 40
0.6737950927
 40
0.7326675934
 40
0.7897895808
 40
0.845119786
 40
0.8986201707
 40
0.9502568416
 40
1.0
 40
1.0
 40
1.0
 40
1.0
 10
11.0825412754
 20
7.2705885316
 30
0.0
 10
11.0915094691
 20
7.2693917236
 30
0.0
 10
11.1091140981
 20
7.2668606666
 30
0.0
 10
11.1349396931
 20
7.2625671618
 30
0.0
 10
11.1596491254
 20
7.2578562481
 30
0.0
 10
11.179467401
 20
7.2535466704
 30
0.0
 10
11.1946804861
 20
7.2498937135
 30
0.0
 10
11.2056059607
 20
7.2470965326
 30
0.0
 10
11.2161796018
 20
7.2442104246
 30
0.0
 10
11.2263906013
 20
7.2412382697
 30
0.0
 10
11.2362285149
 20
7.2381831928
 30
0.0
 10
11.2456833063
 20
7.235048278
 30
0.0
 10
11.2547452617
 20
7.2318368127
 30
0.0
 10
11.2606295479
 20
7.2296048618
 30
0.0
 10
11.2635029966
 20
7.2284750384
 30
0.0
  0
SPLINE
  5
3D4
100
AcDbEntity
  8
0
100
AcDbSpline
 62
7
  6
CONTINUOUS
 70
0
 71
3
 72
44
 73
40
 74
0
 42
0.0000001
 43
0.0000001
 44
0.0000000001
 40
0.0
 40
0.0
 40
0.0
 40
0.0
 40
0.0840364397
 40
0.169504805
 40
0.2553475721
 40
0.3404999409
 40
0.3824882716
 40
0.4239107206
 40
0.4646400635
 40
0.5045518968
 40
0.5435251936
 40
0.5814428515
 40
0.6181922748
 40
0.6536659929
 40
0.6877623696
 40
0.7203863526
 40
0.7514502821
 40
0.7808748745
 40
0.8085904264
 40
0.834538383
 40
0.8586733676
 40
0.870052024
 40
0.8809678501
 40
0.8914203887
 40
0.9014106032
 40
0.9109412427
 40
0.9200172548
 40
0.9286457505
 40
0.9368368615
 40
0.9446038293
 40
0.9519637378
 40
0.9589382313
 40
0.965553926
 40
0.9718434876
 40
0.9778459264
 40
0.9836071464
 40
0.9891799005
 40
0.9946229937
 40
1.0
 40
1.0
 40
1.0
 40
1.0
 10
12.0808484469
 20
6.3723282291
 30
0.0
 10
12.0808484469
 20
6.3647097695
 30
0.0
 10
12.0806093713
 20
6.3493421621
 30
0.0
 10
12.0795718958
 20
6.326213411
 30
0.0
 10
12.0778644336
 20
6.303022934
 30
0.0
 10
12.0758930985
 20
6.2838124541
 30
0.0
 10
12.0739938243
 20
6.2686490876
 30
0.0
 10
12.0724252119
 20
6.2575043476
 30
0.0
 10
12.0707111412
 20
6.2465715591
 30
0.0
 10
12.0688572834
 20
6.2358868496
 30
0.0
 10
12.0668698133
 20
6.2254855476
 30
0.0
 10
12.0647553418
 20
6.2154020262
 30
0.0
 10
12.062520908
 20
6.2056695994
 30
0.0
 10
12.06017395
 20
6.1963204041
 30
0.0
 10
12.0577222891
 20
6.1873852827
 30
0.0
 10
12.0551741029
 20
6.1788936742
 30
0.0
 10
12.0525378884
 20
6.1708735042
 30
0.0
 10
12.0498224346
 20
6.1633511062
 30
0.0
 10
12.0470367756
 20
6.1563510261
 30
0.0
 10
12.0441901658
 20
6.1498961979
 30
0.0
 10
12.0417289939
 20
6.1448949192
 30
0.0
 10
12.0397302911
 20
6.1411901203
 30
0.0
 10
12.0382513752
 20
6.1386155324
 30
0.0
 10
12.0367642892
 20
6.1361921263
 30
0.0
 10
12.0352702037
 20
6.1339218711
 30
0.0
 10
12.0337703058
 20
6.1318066167
 30
0.0
 10
12.0322658368
 20
6.1298480373
 30
0.0
 10
12.0307579147
 20
6.1280477433
 30
0.0
 10
12.0292477462
 20
6.1264071463
 30
0.0
 10
12.0277364393
 20
6.124927578
 30
0.0
 10
12.0262250707
 20
6.1236102705
 30
0.0
 10
12.0247147429
 20
6.1224562888
 30
0.0
 10
12.0232064174
 20
6.1214667527
 30
0.0
 10
12.0217011564
 20
6.1206426065
 30
0.0
 10
12.0201999643
 20
6.1199848751
 30
0.0
 10
12.018703993
 20
6.1194945684
 30
0.0
 10
12.0172144994
 20
6.1191725554
 30
0.0
 10
12.0157332647
 20
6.1190197252
 30
0.0
 10
12.0147498563
 20
6.1190309701
 30
0.0
 10
12.0142635634
 20
6.1190647004
 30
0.0
  0
SPLINE
  5
3D5
100
AcDbEntity
  8
0
100
AcDbSpline
 62
7
  6
CONTINUOUS
 70
0
 71
3
 72
71
 73
67
 74
0
 42
0.0000001
 43
0.0000001
 44
0.0000000001
 40
0.0
 40
0.0
 40
0.0
 40
0.0
 40
0.0156373785
 40
0.031327908
 40
0.0470702843
 40
0.0628636379
 40
0.078706081
 40
0.0945954869
 40
0.110529229
 40
0.1265042947
 40
0.1425172947
 40
0.1585644997
 40
0.1746418765
 40
0.1907451247
 40
0.2068697161
 40
0.223010935
 40
0.23916392
 40
0.2553237071
 40
0.2714852732
 40
0.2876435801
 40
0.3037936179
 40
0.3199304487
 40
0.3360492498
 40
0.3521453559
 40
0.3682143008
 40
0.3842518587
 40
0.4002540819
 40
0.4162173382
 40
0.4321383455
 40
0.4480142037
 40
0.4638424245
 40
0.4796209578
 40
0.4953482155
 40
0.5110230902
 40
0.5266449705
 40
0.5422137516
 40
0.5577298414
 40
0.5731941618
 40
0.588608145
 40
0.6039737248
 40
0.6192933216
 40
0.6345698226
 40
0.6498065561
 40
0.6650072606
 40
0.6801760496
 40
0.6953173702
 40
0.7104359597
 40
0.7255367959
 40
0.7406250456
 40
0.7557060099
 40
0.7707850676
 40
0.7858676178
 40
0.800959022
 40
0.8160645473
 40
0.8311893104
 40
0.8463382237
 40
0.8615159442
 40
0.8767268262
 40
0.8919748769
 40
0.9072637173
 40
0.9225965518
 40
0.9379761174
 40
0.9534047476
 40
0.9688840681
 40
0.9844157435
 40
1.0
 40
1.0
 40
1.0
 40
1.0
 10
10.7038367623
 20
8.7320517098
 30
0.0
 10
10.7038367623
 20
8.7237408994
 30
0.0
 10
10.7042462442
 20
8.7070882001
 30
0.0
 10
10.7060799682
 20
8.6821296348
 30
0.0
 10
10.7091299309
 20
8.6572063001
 30
0.0
 10
10.7133885503
 20
8.63237916
 30
0.0
 10
10.7188456499
 20
8.6077076498
 30
0.0
 10
10.7254879754
 20
8.5832512789
 30
0.0
 10
10.7332995236
 20
8.55906889
 30
0.0
 10
10.7422614436
 20
8.5352187055
 30
0.0
 10
10.7523521219
 20
8.5117581302
 30
0.0
 10
10.7635472298
 20
8.4887436306
 30
0.0
 10
10.7758197885
 20
8.4662305971
 30
0.0
 10
10.7891402323
 20
8.4442732129
 30
0.0
 10
10.8034764796
 20
8.4229243247
 30
0.0
 10
10.8187940096
 20
8.4022353161
 30
0.0
 10
10.8350559457
 20
8.3822559866
 30
0.0
 10
10.8522231333
 20
8.3630344226
 30
0.0
 10
10.8702542419
 20
8.3446168871
 30
0.0
 10
10.8891058672
 20
8.3270477118
 30
0.0
 10
10.9087326344
 20
8.3103691907
 30
0.0
 10
10.9290873063
 20
8.2946214795
 30
0.0
 10
10.9501208958
 20
8.2798424986
 30
0.0
 10
10.9717827843
 20
8.266067845
 30
0.0
 10
10.9940208353
 20
8.2533306951
 30
0.0
 10
11.0167815244
 20
8.2416617289
 30
0.0
 10
11.0400100703
 20
8.2310890627
 30
0.0
 10
11.063650565
 20
8.2216381804
 30
0.0
 10
11.0876461068
 20
8.2133318724
 30
0.0
 10
11.111938936
 20
8.2061901806
 30
0.0
 10
11.1364705732
 20
8.2002303519
 30
0.0
 10
11.1611819564
 20
8.1954667849
 30
0.0
 10
11.1860135845
 20
8.191910996
 30
0.0
 10
11.2109056619
 20
8.1895716005
 30
0.0
 10
11.2357982404
 20
8.1884542891
 30
0.0
 10
11.2606313622
 20
8.1885618139
 30
0.0
 10
11.2853452036
 20
8.1898939795
 30
0.0
 10
11.3098802178
 20
8.1924476452
 30
0.0
 10
11.3341772792
 20
8.1962167202
 30
0.0
 10
11.3581778277
 20
8.2011921756
 30
0.0
 10
11.3818240091
 20
8.2073620766
 30
0.0
 10
11.4050588137
 20
8.2147116065
 30
0.0
 10
11.4278262149
 20
8.2232231026
 30
0.0
 10
11.4500713038
 20
8.2328760957
 30
0.0
 10
11.4717404228
 20
8.2436473601
 30
0.0
 10
11.4927812986
 20
8.2555109621
 30
0.0
 10
11.5131431751
 20
8.268438316
 30
0.0
 10
11.5327769309
 20
8.2823982666
 30
0.0
 10
11.5516352005
 20
8.2973571613
 30
0.0
 10
11.5696724888
 20
8.3132789319
 30
0.0
 10
11.5868452834
 20
8.3301251817
 30
0.0
 10
11.603112159
 20
8.3478552799
 30
0.0
 10
11.6184338824
 20
8.3664264568
 30
0.0
 10
11.6327735167
 20
8.3857939032
 30
0.0
 10
11.6460964995
 20
8.4059108911
 30
0.0
 10
11.6583707279
 20
8.4267288865
 30
0.0
 10
11.6695666351
 20
8.4481976681
 30
0.0
 10
11.6796572611
 20
8.4702654496
 30
0.0
 10
11.6886183161
 20
8.4928790055
 30
0.0
 10
11.6964282431
 20
8.5159838023
 30
0.0
 10
11.7030682656
 20
8.5395241151
 30
0.0
 10
11.70852247
 20
8.5634432198
 30
0.0
 10
11.7127777029
 20
8.5876833484
 30
0.0
 10
11.7158239032
 20
8.6121864146
 30
0.0
 10
11.7176536065
 20
8.6368924383
 30
0.0
 10
11.71805894
 20
8.6534325853
 30
0.0
 10
11.71805894
 20
8.6617151629
 30
0.0
  0
SPLINE
  5
3D6
100
AcDbEntity
  8
0
100
AcDbSpline
 62
7
  6
CONTINUOUS
 70
0
 71
3
 72
44
 73
40
 74
0
 42
0.0000001
 43
0.0000001
 44
0.0000000001
 40
0.0
 40
0.0
 40
0.0
 40
0.0
 40
0.0840364397
 40
0.169504805
 40
0.2553475721
 40
0.3404999409
 40
0.3824882716
 40
0.4239107206
 40
0.4646400635
 40
0.5045518968
 40
0.5435251936
 40
0.5814428515
 40
0.6181922748
 40
0.6536659929
 40
0.6877623696
 40
0.7203863526
 40
0.7514502821
 40
0.7808748745
 40
0.8085904264
 40
0.834538383
 40
0.8586733676
 40
0.870052024
 40
0.8809678501
 40
0.8914203887
 40
0.9014106032
 40
0.9109412427
 40
0.9200172548
 40
0.9286457505
 40
0.9368368615
 40
0.9446038293
 40
0.9519637378
 40
0.9589382313
 40
0.965553926
 40
0.9718434876
 40
0.9778459264
 40
0.9836071464
 40
0.9891799005
 40
0.9946229937
 40
1.0
 40
1.0
 40
1.0
 40
1.0
 10
12.9220096493
 20
7.1848276067
 30
0.0
 10
12.9220096493
 20
7.1772091471
 30
0.0
 10
12.9217705737
 20
7.1618415397
 30
0.0
 10
12.9207330982
 20
7.1387127886
 30
0.0
 10
12.919025636
 20
7.1155223116
 30
0.0
 10
12.9170543009
 20
7.0963118317
 30
0.0
 10
12.9151550267
 20
7.0811484652
 30
0.0
 10
12.9135864143
 20
7.0700037252
 30
0.0
 10
12.9118723436
 20
7.0590709367
 30
0.0
 10
12.9100184857
 20
7.0483862272
 30
0.0
 10
12.9080310156
 20
7.0379849252
 30
0.0
 10
12.9059165442
 20
7.0279014038
 30
0.0
 10
12.9036821104
 20
7.018168977
 30
0.0
 10
12.9013351524
 20
7.0088197817
 30
0.0
 10
12.8988834915
 20
6.9998846603
 30
0.0
 10
12.8963353053
 20
6.9913930518
 30
0.0
 10
12.8936990908
 20
6.9833728818
 30
0.0
 10
12.8909836369
 20
6.9758504838
 30
0.0
 10
12.888197978
 20
6.9688504037
 30
0.0
 10
12.8853513682
 20
6.9623955755
 30
0.0
 10
12.8828901963
 20
6.9573942968
 30
0.0
 10
12.8808914935
 20
6.9536894979
 30
0.0
 10
12.8794125776
 20
6.95111491
 30
0.0
 10
12.8779254915
 20
6.9486915039
 30
0.0
 10
12.8764314061
 20
6.9464212487
 30
0.0
 10
12.8749315082
 20
6.9443059943
 30
0.0
 10
12.8734270392
 20
6.9423474149
 30
0.0
 10
12.8719191171
 20
6.9405471209
 30
0.0
 10
12.8704089486
 20
6.9389065239
 30
0.0
 10
12.8688976417
 20
6.9374269556
 30
0.0
 10
12.8673862731
 20
6.9361096481
 30
0.0
 10
12.8658759453
 20
6.9349556664
 30
0.0
 10
12.8643676198
 20
6.9339661303
 30
0.0
 10
12.8628623588
 20
6.9331419841
 30
0.0
 10
12.8613611667
 20
6.9324842527
 30
0.0
 10
12.8598651954
 20
6.931993946
 30
0.0
 10
12.8583757018
 20
6.931671933
 30
0.0
 10
12.8568944671
 20
6.9315191028
 30
0.0
 10
12.8559110587
 20
6.9315303477
 30
0.0
 10
12.8554247658
 20
6.931564078
 30
0.0
  0
SPLINE
  5
3D7
100
AcDbEntity
  8
0
100
AcDbSpline
 62
4
  6
CONTINUOUS
 70
0
 71
3
 72
281
 73
277
 74
0
 42
0.0000001
 43
0.0000001
 44
0.0000000001
 40
0.0
 40
0.0
 40
0.0
 40
0.0
 40
0.015625
 40
0.0234375
 40
0.03125
 40
0.0390625
 40
0.046875
 40
0.05078125
 40
0.0546875
 40
0.056640625
 40
0.05859375
 40
0.060546875
 40
0.0615234375
 40
0.0620117188
 40
0.0625
 40
0.0629882812
 40
0.0634765625
 40
0.064453125
 40
0.06640625
 40
0.068359375
 40
0.0703125
 40
0.07421875
 40
0.078125
 40
0.0859375
 40
0.09375
 40
0.1015625
 40
0.109375
 40
0.11328125
 40
0.1171875
 40
0.119140625
 40
0.12109375
 40
0.123046875
 40
0.1240234375
 40
0.1245117188
 40
0.125
 40
0.1254882812
 40
0.1259765625
 40
0.126953125
 40
0.12890625
 40
0.130859375
 40
0.1328125
 40
0.13671875
 40
0.140625
 40
0.1484375
 40
0.15625
 40
0.1640625
 40
0.171875
 40
0.17578125
 40
0.1796875
 40
0.181640625
 40
0.18359375
 40
0.185546875
 40
0.1865234375
 40
0.1870117188
 40
0.1875
 40
0.1879882812
 40
0.1884765625
 40
0.189453125
 40
0.19140625
 40
0.193359375
 40
0.1953125
 40
0.19921875
 40
0.203125
 40
0.2109375
 40
0.21875
 40
0.2265625
 40
0.234375
 40
0.23828125
 40
0.2421875
 40
0.24609375
 40
0.248046875
 40
0.2490234375
 40
0.25
 40
0.2509765625
 40
0.251953125
 40
0.25390625
 40
0.2578125
 40
0.26171875
 40
0.265625
 40
0.2734375
 40
0.28125
 40
0.2890625
 40
0.296875
 40
0.30078125
 40
0.3046875
 40
0.30859375
 40
0.310546875
 40
0.3115234375
 40
0.3125
 40
0.3134765625
 40
0.314453125
 40
0.31640625
 40
0.3203125
 40
0.32421875
 40
0.328125
 40
0.3359375
 40
0.34375
 40
0.3515625
 40
0.359375
 40
0.3671875
 40
0.37109375
 40
0.373046875
 40
0.375
 40
0.376953125
 40
0.37890625
 40
0.3828125
 40
0.390625
 40
0.3984375
 40
0.40625
 40
0.4140625
 40
0.421875
 40
0.4296875
 40
0.43359375
 40
0.435546875
 40
0.4375
 40
0.439453125
 40
0.44140625
 40
0.4453125
 40
0.453125
 40
0.4609375
 40
0.46875
 40
0.4765625
 40
0.484375
 40
0.48828125
 40
0.4921875
 40
0.49609375
 40
0.498046875
 40
0.4990234375
 40
0.5
 40
0.5009765625
 40
0.501953125
 40
0.50390625
 40
0.5078125
 40
0.51171875
 40
0.515625
 40
0.5234375
 40
0.53125
 40
0.5390625
 40
0.546875
 40
0.55078125
 40
0.5546875
 40
0.55859375
 40
0.560546875
 40
0.5615234375
 40
0.5625
 40
0.5634765625
 40
0.564453125
 40
0.56640625
 40
0.5703125
 40
0.57421875
 40
0.578125
 40
0.5859375
 40
0.59375
 40
0.6015625
 40
0.609375
 40
0.61328125
 40
0.6171875
 40
0.619140625
 40
0.62109375
 40
0.623046875
 40
0.6240234375
 40
0.6245117188
 40
0.625
 40
0.6254882812
 40
0.6259765625
 40
0.626953125
 40
0.62890625
 40
0.630859375
 40
0.6328125
 40
0.63671875
 40
0.640625
 40
0.6484375
 40
0.65625
 40
0.6640625
 40
0.671875
 40
0.67578125
 40
0.6796875
 40
0.681640625
 40
0.68359375
 40
0.685546875
 40
0.6865234375
 40
0.6870117188
 40
0.6875
 40
0.6879882812
 40
0.6884765625
 40
0.689453125
 40
0.69140625
 40
0.693359375
 40
0.6953125
 40
0.69921875
 40
0.703125
 40
0.7109375
 40
0.71875
 40
0.7265625
 40
0.734375
 40
0.73828125
 40
0.7421875
 40
0.744140625
 40
0.74609375
 40
0.748046875
 40
0.7490234375
 40
0.7495117188
 40
0.75
 40
0.7504882812
 40
0.7509765625
 40
0.751953125
 40
0.75390625
 40
0.755859375
 40
0.7578125
 40
0.76171875
 40
0.765625
 40
0.7734375
 40
0.78125
 40
0.7890625
 40
0.796875
 40
0.80078125
 40
0.8046875
 40
0.806640625
 40
0.80859375
 40
0.810546875
 40
0.8115234375
 40
0.8120117188
 40
0.8125
 40
0.8129882812
 40
0.8134765625
 40
0.814453125
 40
0.81640625
 40
0.818359375
 40
0.8203125
 40
0.82421875
 40
0.828125
 40
0.8359375
 40
0.84375
 40
0.8515625
 40
0.859375
 40
0.86328125
 40
0.8671875
 40
0.869140625
 40
0.87109375
 40
0.873046875
 40
0.8740234375
 40
0.8745117188
 40
0.875
 40
0.8754882812
 40
0.8759765625
 40
0.876953125
 40
0.87890625
 40
0.880859375
 40
0.8828125
 40
0.88671875
 40
0.890625
 40
0.8984375
 40
0.90625
 40
0.9140625
 40
0.921875
 40
0.92578125
 40
0.9296875
 40
0.931640625
 40
0.93359375
 40
0.935546875
 40
0.9365234375
 40
0.9370117188
 40
0.9375
 40
0.9379882812
 40
0.9384765625
 40
0.939453125
 40
0.94140625
 40
0.943359375
 40
0.9453125
 40
0.94921875
 40
0.953125
 40
0.9609375
 40
0.96875
 40
0.9765625
 40
0.984375
 40
1.0
 40
1.0
 40
1.0
 40
1.0
 10
12.3326791699
 20
8.1175927916
 30
0.0
 10
12.3319250973
 20
8.1165884747
 30
0.0
 10
12.3307939884
 20
8.1150819996
 30
0.0
 10
12.3292858432
 20
8.1130733653
 30
0.0
 10
12.3281547342
 20
8.1115668916
 30
0.0
 10
12.3270236256
 20
8.11006041
 30
0.0
 10
12.3260810337
 20
8.1088050334
 30
0.0
 10
12.3253269633
 20
8.1078006767
 30
0.0
 10
12.3248556623
 20
8.10717308
 30
0.0
 10
12.3244786376
 20
8.1066707135
 30
0.0
 10
12.3241958248
 20
8.1062947303
 30
0.0
 10
12.3239602883
 20
8.1059788926
 30
0.0
 10
12.3237951364
 20
8.1057627485
 30
0.0
 10
12.3237011955
 20
8.1056315205
 30
0.0
 10
12.323629524
 20
8.1055548386
 30
0.0
 10
12.3235624996
 20
8.1053950589
 30
0.0
 10
12.3234715127
 20
8.1052110048
 30
0.0
 10
12.3233130409
 20
8.1048754052
 30
0.0
 10
12.3230862577
 20
8.1044030376
 30
0.0
 10
12.3228142869
 20
8.1038331745
 30
0.0
 10
12.3224516002
 20
8.1030744126
 30
0.0
 10
12.3219982619
 20
8.1021255987
 30
0.0
 10
12.3212729095
 20
8.1006076985
 30
0.0
 10
12.3203662228
 20
8.0987102536
 30
0.0
 10
12.319278197
 20
8.0964333514
 30
0.0
 10
12.3181901724
 20
8.0941564341
 30
0.0
 10
12.3172834825
 20
8.0922590268
 30
0.0
 10
12.3165581366
 20
8.0907410514
 30
0.0
 10
12.3161047816
 20
8.0897924288
 30
0.0
 10
12.3157421293
 20
8.0890332742
 30
0.0
 10
12.3154700532
 20
8.0884646107
 30
0.0
 10
12.3152435995
 20
8.0879884896
 30
0.0
 10
12.3150845396
 20
8.0876595908
 30
0.0
 10
12.3149944949
 20
8.0874648003
 30
0.0
 10
12.3149245763
 20
8.0873379993
 30
0.0
 10
12.3148637746
 20
8.0871374548
 30
0.0
 10
12.3147795256
 20
8.0868957847
 30
0.0
 10
12.3146335715
 20
8.0864608773
 30
0.0
 10
12.314424291
 20
8.0858458468
 30
0.0
 10
12.3141734859
 20
8.0851051282
 30
0.0
 10
12.3138389633
 20
8.0841184402
 30
0.0
 10
12.3134208498
 20
8.0828847594
 30
0.0
 10
12.3127518459
 20
8.0809110495
 30
0.0
 10
12.3119155988
 20
8.0784438502
 30
0.0
 10
12.3109120987
 20
8.0754832393
 30
0.0
 10
12.3099086005
 20
8.0725226147
 30
0.0
 10
12.3090723484
 20
8.0700554496
 30
0.0
 10
12.3084033546
 20
8.0680816713
 30
0.0
 10
12.3079852156
 20
8.0668481644
 30
0.0
 10
12.3076507452
 20
8.0658611194
 30
0.0
 10
12.307399781
 20
8.0651214916
 30
0.0
 10
12.3071909983
 20
8.0645030483
 30
0.0
 10
12.3070441554
 20
8.0640742333
 30
0.0
 10
12.3069613304
 20
8.0638228017
 30
0.0
 10
12.3068961544
 20
8.0636522414
 30
0.0
 10
12.3068426649
 20
8.0634128246
 30
0.0
 10
12.3067672692
 20
8.0631176202
 30
0.0
 10
12.3066372259
 20
8.062589822
 30
0.0
 10
12.3064504569
 20
8.0618416752
 30
0.0
 10
12.3062267591
 20
8.0609413947
 30
0.0
 10
12.3059283468
 20
8.0597418955
 30
0.0
 10
12.3055553824
 20
8.0582422218
 30
0.0
 10
12.3049586107
 20
8.0558429118
 30
0.0
 10
12.304212657
 20
8.0528437144
 30
0.0
 10
12.3033175032
 20
8.0492447132
 30
0.0
 10
12.3024223693
 20
8.0456456648
 30
0.0
 10
12.3016763658
 20
8.0426465855
 30
0.0
 10
12.3010796937
 20
8.0402470393
 30
0.0
 10
12.3006318325
 20
8.0384481513
 30
0.0
 10
12.3002597508
 20
8.0369466235
 30
0.0
 10
12.2999970644
 20
8.0359003708
 30
0.0
 10
12.2998504387
 20
8.0352949912
 30
0.0
 10
12.2997306637
 20
8.034862143
 30
0.0
 10
12.299648371
 20
8.0343483092
 30
0.0
 10
12.2995255732
 20
8.0336914462
 30
0.0
 10
12.2993167685
 20
8.0325287744
 30
0.0
 10
12.2990152913
 20
8.0308746957
 30
0.0
 10
12.2986548819
 20
8.0288868558
 30
0.0
 10
12.2981738597
 20
8.0262374318
 30
0.0
 10
12.2975727466
 20
8.0229252968
 30
0.0
 10
12.2968513353
 20
8.0189508947
 30
0.0
 10
12.2961299627
 20
8.0149764213
 30
0.0
 10
12.2955287527
 20
8.0116644644
 30
0.0
 10
12.2950479242
 20
8.0090146844
 30
0.0
 10
12.2946869239
 20
8.0070279302
 30
0.0
 10
12.2943872954
 20
8.005370455
 30
0.0
 10
12.2941751906
 20
8.0042138464
 30
0.0
 10
12.2940576803
 20
8.0035472685
 30
0.0
 10
12.2939591457
 20
8.0030632757
 30
0.0
 10
12.2939003726
 20
8.0025183498
 30
0.0
 10
12.2938081392
 20
8.0018130361
 30
0.0
 10
12.2936531926
 20
8.0005688343
 30
0.0
 10
12.293428462
 20
7.9987965806
 30
0.0
 10
12.2931602316
 20
7.9966676598
 30
0.0
 10
12.2928020841
 20
7.9938298741
 30
0.0
 10
12.2923545868
 20
7.9902823681
 30
0.0
 10
12.2918174523
 20
7.9860255121
 30
0.0
 10
12.2912805693
 20
7.9817684895
 30
0.0
 10
12.2907428183
 20
7.977511982
 30
0.0
 10
12.2902973761
 20
7.9739633144
 30
0.0
 10
12.2899803107
 20
7.9714823355
 30
0.0
 10
12.2898073353
 20
7.9700598123
 30
0.0
 10
12.289654491
 20
7.9690065004
 30
0.0
 10
12.2895899954
 20
7.9679012768
 30
0.0
 10
12.2894731842
 20
7.9664457527
 30
0.0
 10
12.2892831234
 20
7.9638901488
 30
0.0
 10
12.2890040961
 20
7.9602436982
 30
0.0
 10
12.2886725001
 20
7.9558660637
 30
0.0
 10
12.2883399759
 20
7.9514889449
 30
0.0
 10
12.2880079281
 20
7.947111657
 30
0.0
 10
12.2876749026
 20
7.9427345297
 30
0.0
 10
12.2874002433
 20
7.939086529
 30
0.0
 10
12.2872023996
 20
7.936533687
 30
0.0
 10
12.2870980568
 20
7.9350737383
 30
0.0
 10
12.2869952624
 20
7.9339821057
 30
0.0
 10
12.286986262
 20
7.9328777483
 30
0.0
 10
12.286941545
 20
7.9314097103
 30
0.0
 10
12.2868785336
 20
7.9288385758
 30
0.0
 10
12.2867805463
 20
7.9251666073
 30
0.0
 10
12.2866663805
 20
7.9207597839
 30
0.0
 10
12.2865512925
 20
7.9163530763
 30
0.0
 10
12.2864364746
 20
7.9119463669
 30
0.0
 10
12.2863406611
 20
7.9082740184
 30
0.0
 10
12.2862641918
 20
7.905336358
 30
0.0
 10
12.2862063743
 20
7.9031325118
 30
0.0
 10
12.2861596695
 20
7.9012978855
 30
0.0
 10
12.2861240791
 20
7.9000098944
 30
0.0
 10
12.2861082652
 20
7.899279759
 30
0.0
 10
12.2860836623
 20
7.898715651
 30
0.0
 10
12.2861077673
 20
7.898214639
 30
0.0
 10
12.2861229174
 20
7.8975246145
 30
0.0
 10
12.286157346
 20
7.8963273256
 30
0.0
 10
12.2862023912
 20
7.894611552
 30
0.0
 10
12.2862582169
 20
7.8925549185
 30
0.0
 10
12.2863320322
 20
7.8898119384
 30
0.0
 10
12.2864245151
 20
7.8863834909
 30
0.0
 10
12.2865353971
 20
7.8822692249
 30
0.0
 10
12.286646327
 20
7.8781550307
 30
0.0
 10
12.2867386899
 20
7.8747264036
 30
0.0
 10
12.2868127451
 20
7.8719837826
 30
0.0
 10
12.2868678392
 20
7.8699260542
 30
0.0
 10
12.2869151734
 20
7.8682137058
 30
0.0
 10
12.2869455157
 20
7.8670103024
 30
0.0
 10
12.2869672131
 20
7.8663300749
 30
0.0
 10
12.286971207
 20
7.8657989695
 30
0.0
 10
12.2870221382
 20
7.8653478872
 30
0.0
 10
12.2870736742
 20
7.8647185313
 30
0.0
 10
12.2871714903
 20
7.8636301636
 30
0.0
 10
12.2873072396
 20
7.8620685532
 30
0.0
 10
12.2874718457
 20
7.8601975312
 30
0.0
 10
12.2876907243
 20
7.8577018185
 30
0.0
 10
12.2879645272
 20
7.8545825267
 30
0.0
 10
12.2882930025
 20
7.8508392256
 30
0.0
 10
12.2886215033
 20
7.84709597
 30
0.0
 10
12.2888952421
 20
7.8439765646
 30
0.0
 10
12.289114249
 20
7.8414810792
 30
0.0
 10
12.2892510946
 20
7.8399213164
 30
0.0
 10
12.2893606481
 20
7.838673699
 30
0.0
 10
12.2894426024
 20
7.8377374582
 30
0.0
 10
12.2895115681
 20
7.8369589362
 30
0.0
 10
12.2895585285
 20
7.8364106765
 30
0.0
 10
12.2895874171
 20
7.8361025291
 30
0.0
 10
12.2896032971
 20
7.8358569281
 30
0.0
 10
12.2896412962
 20
7.835666717
 30
0.0
 10
12.2896842462
 20
7.8353937817
 30
0.0
 10
12.2897630035
 20
7.8349251467
 30
0.0
 10
12.2898736345
 20
7.8342509619
 30
0.0
 10
12.2900071962
 20
7.8334439545
 30
0.0
 10
12.2901849975
 20
7.832367241
 30
0.0
 10
12.2904073453
 20
7.8310215902
 30
0.0
 10
12.290763048
 20
7.8288684141
 30
0.0
 10
12.291207695
 20
7.8261769905
 30
0.0
 10
12.2917412629
 20
7.8229472608
 30
0.0
 10
12.2922748349
 20
7.8197175425
 30
0.0
 10
12.2927194714
 20
7.8170260902
 30
0.0
 10
12.2930751951
 20
7.8148729716
 30
0.0
 10
12.2932974897
 20
7.8135271746
 30
0.0
 10
12.2934754001
 20
7.812450761
 30
0.0
 10
12.2936086284
 20
7.8116428377
 30
0.0
 10
12.2937203027
 20
7.8109715187
 30
0.0
 10
12.2937971975
 20
7.8104977677
 30
0.0
 10
12.2938431317
 20
7.8102330295
 30
0.0
 10
12.2938719644
 20
7.8100176394
 30
0.0
 10
12.2939222718
 20
7.8098666068
 30
0.0
 10
12.2939818577
 20
7.8096427814
 30
0.0
 10
12.294089623
 20
7.8092615462
 30
0.0
 10
12.2942417488
 20
7.8087114563
 30
0.0
 10
12.2944250808
 20
7.808053689
 30
0.0
 10
12.2946692507
 20
7.8071758484
 30
0.0
 10
12.2949745564
 20
7.8060788275
 30
0.0
 10
12.2954629934
 20
7.8043234377
 30
0.0
 10
12.2960735576
 20
7.8021292545
 30
0.0
 10
12.2968062266
 20
7.7994962095
 30
0.0
 10
12.2975388991
 20
7.7968631788
 30
0.0
 10
12.2981494544
 20
7.7946689598
 30
0.0
 10
12.2986379092
 20
7.7929136417
 30
0.0
 10
12.2989431696
 20
7.7918164385
 30
0.0
 10
12.2991874325
 20
7.7909389721
 30
0.0
 10
12.2993704802
 20
7.7902800615
 30
0.0
 10
12.2995234957
 20
7.7897335487
 30
0.0
 10
12.2996296727
 20
7.7893459278
 30
0.0
 10
12.2996918034
 20
7.7891323339
 30
0.0
 10
12.299734294
 20
7.7889498734
 30
0.0
 10
12.2997924852
 20
7.7888525213
 30
0.0
 10
12.2998645969
 20
7.7886930318
 30
0.0
 10
12.2999933439
 20
7.7884277567
 30
0.0
 10
12.3001759343
 20
7.7880415609
 30
0.0
 10
12.3003956137
 20
7.7875812212
 30
0.0
 10
12.3006883202
 20
7.7869663538
 30
0.0
 10
12.3010542715
 20
7.7861981398
 30
0.0
 10
12.3016397555
 20
7.7849687904
 30
0.0
 10
12.3023716237
 20
7.7834321752
 30
0.0
 10
12.3032498596
 20
7.7815882042
 30
0.0
 10
12.3041280982
 20
7.7797442497
 30
0.0
 10
12.3048599595
 20
7.7782075931
 30
0.0
 10
12.3054454574
 20
7.7769783263
 30
0.0
 10
12.3058113734
 20
7.7762099023
 30
0.0
 10
12.3061041525
 20
7.775595466
 30
0.0
 10
12.30632361
 20
7.7751338094
 30
0.0
 10
12.3065068946
 20
7.7747517339
 30
0.0
 10
12.3066344023
 20
7.7744791035
 30
0.0
 10
12.3067084998
 20
7.7743313989
 30
0.0
 10
12.3067605912
 20
7.7741978471
 30
0.0
 10
12.3068259915
 20
7.7741513467
 30
0.0
 10
12.3069085497
 20
7.7740589817
 30
0.0
 10
12.3070551894
 20
7.7739114904
 30
0.0
 10
12.3072635439
 20
7.773693392
 30
0.0
 10
12.3075140534
 20
7.7734348399
 30
0.0
 10
12.3078478969
 20
7.773088998
 30
0.0
 10
12.3082652592
 20
7.7726570742
 30
0.0
 10
12.3089330066
 20
7.7719657845
 30
0.0
 10
12.3097677019
 20
7.7711017455
 30
0.0
 10
12.3107693313
 20
7.7700648651
 30
0.0
 10
12.3117709628
 20
7.7690280019
 30
0.0
 10
12.3126056528
 20
7.76816392
 30
0.0
 10
12.3132734109
 20
7.7674727159
 30
0.0
 10
12.3136907458
 20
7.7670405745
 30
0.0
 10
12.3140246457
 20
7.7666951792
 30
0.0
 10
12.314274983
 20
7.7664352627
 30
0.0
 10
12.314483876
 20
7.7662214331
 30
0.0
 10
12.3146295544
 20
7.7660663214
 30
0.0
 10
12.314713653
 20
7.765986166
 30
0.0
 10
12.3147743217
 20
7.7659021617
 30
0.0
 10
12.3148441844
 20
7.7659094686
 30
0.0
 10
12.3149341277
 20
7.7658873608
 30
0.0
 10
12.3150930226
 20
7.7658635117
 30
0.0
 10
12.3153192343
 20
7.7658216833
 30
0.0
 10
12.3155910226
 20
7.7657748101
 30
0.0
 10
12.3159532903
 20
7.7657111525
 30
0.0
 10
12.3164061649
 20
7.7656319776
 30
0.0
 10
12.3171307418
 20
7.7655050759
 30
0.0
 10
12.3180364707
 20
7.7653465254
 30
0.0
 10
12.3191233419
 20
7.7651562296
 30
0.0
 10
12.3202102147
 20
7.7649659517
 30
0.0
 10
12.3211159397
 20
7.7648073567
 30
0.0
 10
12.3218405244
 20
7.764680544
 30
0.0
 10
12.3222933793
 20
7.7646011429
 30
0.0
 10
12.3226556874
 20
7.7645379497
 30
0.0
 10
12.3229273524
 20
7.7644896575
 30
0.0
 10
12.3231539497
 20
7.7644522687
 30
0.0
 10
12.3233121562
 20
7.7644204941
 30
0.0
 10
12.3234032027
 20
7.764411085
 30
0.0
 10
12.3234696768
 20
7.7643793856
 30
0.0
 10
12.3235430724
 20
7.7644418826
 30
0.0
 10
12.3236385188
 20
7.7644923553
 30
0.0
 10
12.323806675
 20
7.764595991
 30
0.0
 10
12.3240463099
 20
7.7647360385
 30
0.0
 10
12.3243341236
 20
7.7649075213
 30
0.0
 10
12.3247177873
 20
7.7651349685
 30
0.0
 10
12.3251973969
 20
7.7654196872
 30
0.0
 10
12.3259647556
 20
7.7658750081
 30
0.0
 10
12.3269239597
 20
7.7664442378
 30
0.0
 10
12.3280750021
 20
7.7671272797
 30
0.0
 10
12.3292260452
 20
7.7678103307
 30
0.0
 10
12.3307607691
 20
7.7687210621
 30
0.0
 10
12.331911812
 20
7.7694041114
 30
0.0
 10
12.332679174
 20
7.7698594775
 30
0.0
  0
SPLINE
  5
3D8
100
AcDbEntity
  8
0
100
AcDbSpline
 62
4
  6
CONTINUOUS
 70
0
 71
3
 72
281
 73
277
 74
0
 42
0.0000001
 43
0.0000001
 44
0.0000000001
 40
0.0
 40
0.0
 40
0.0
 40
0.0
 40
0.015625
 40
0.0234375
 40
0.03125
 40
0.0390625
 40
0.046875
 40
0.05078125
 40
0.0546875
 40
0.056640625
 40
0.05859375
 40
0.060546875
 40
0.0615234375
 40
0.0620117188
 40
0.0625
 40
0.0629882812
 40
0.0634765625
 40
0.064453125
 40
0.06640625
 40
0.068359375
 40
0.0703125
 40
0.07421875
 40
0.078125
 40
0.0859375
 40
0.09375
 40
0.1015625
 40
0.109375
 40
0.11328125
 40
0.1171875
 40
0.119140625
 40
0.12109375
 40
0.123046875
 40
0.1240234375
 40
0.1245117188
 40
0.125
 40
0.1254882812
 40
0.1259765625
 40
0.126953125
 40
0.12890625
 40
0.130859375
 40
0.1328125
 40
0.13671875
 40
0.140625
 40
0.1484375
 40
0.15625
 40
0.1640625
 40
0.171875
 40
0.17578125
 40
0.1796875
 40
0.181640625
 40
0.18359375
 40
0.185546875
 40
0.1865234375
 40
0.1870117188
 40
0.1875
 40
0.1879882812
 40
0.1884765625
 40
0.189453125
 40
0.19140625
 40
0.193359375
 40
0.1953125
 40
0.19921875
 40
0.203125
 40
0.2109375
 40
0.21875
 40
0.2265625
 40
0.234375
 40
0.23828125
 40
0.2421875
 40
0.24609375
 40
0.248046875
 40
0.2490234375
 40
0.25
 40
0.2509765625
 40
0.251953125
 40
0.25390625
 40
0.2578125
 40
0.26171875
 40
0.265625
 40
0.2734375
 40
0.28125
 40
0.2890625
 40
0.296875
 40
0.30078125
 40
0.3046875
 40
0.30859375
 40
0.310546875
 40
0.3115234375
 40
0.3125
 40
0.3134765625
 40
0.314453125
 40
0.31640625
 40
0.3203125
 40
0.32421875
 40
0.328125
 40
0.3359375
 40
0.34375
 40
0.3515625
 40
0.359375
 40
0.3671875
 40
0.37109375
 40
0.373046875
 40
0.375
 40
0.376953125
 40
0.37890625
 40
0.3828125
 40
0.390625
 40
0.3984375
 40
0.40625
 40
0.4140625
 40
0.421875
 40
0.4296875
 40
0.43359375
 40
0.435546875
 40
0.4375
 40
0.439453125
 40
0.44140625
 40
0.4453125
 40
0.453125
 40
0.4609375
 40
0.46875
 40
0.4765625
 40
0.484375
 40
0.48828125
 40
0.4921875
 40
0.49609375
 40
0.498046875
 40
0.4990234375
 40
0.5
 40
0.5009765625
 40
0.501953125
 40
0.50390625
 40
0.5078125
 40
0.51171875
 40
0.515625
 40
0.5234375
 40
0.53125
 40
0.5390625
 40
0.546875
 40
0.55078125
 40
0.5546875
 40
0.55859375
 40
0.560546875
 40
0.5615234375
 40
0.5625
 40
0.5634765625
 40
0.564453125
 40
0.56640625
 40
0.5703125
 40
0.57421875
 40
0.578125
 40
0.5859375
 40
0.59375
 40
0.6015625
 40
0.609375
 40
0.61328125
 40
0.6171875
 40
0.619140625
 40
0.62109375
 40
0.623046875
 40
0.6240234375
 40
0.6245117188
 40
0.625
 40
0.6254882812
 40
0.6259765625
 40
0.626953125
 40
0.62890625
 40
0.630859375
 40
0.6328125
 40
0.63671875
 40
0.640625
 40
0.6484375
 40
0.65625
 40
0.6640625
 40
0.671875
 40
0.67578125
 40
0.6796875
 40
0.681640625
 40
0.68359375
 40
0.685546875
 40
0.6865234375
 40
0.6870117188
 40
0.6875
 40
0.6879882812
 40
0.6884765625
 40
0.689453125
 40
0.69140625
 40
0.693359375
 40
0.6953125
 40
0.69921875
 40
0.703125
 40
0.7109375
 40
0.71875
 40
0.7265625
 40
0.734375
 40
0.73828125
 40
0.7421875
 40
0.744140625
 40
0.74609375
 40
0.748046875
 40
0.7490234375
 40
0.7495117188
 40
0.75
 40
0.7504882812
 40
0.7509765625
 40
0.751953125
 40
0.75390625
 40
0.755859375
 40
0.7578125
 40
0.76171875
 40
0.765625
 40
0.7734375
 40
0.78125
 40
0.7890625
 40
0.796875
 40
0.80078125
 40
0.8046875
 40
0.806640625
 40
0.80859375
 40
0.810546875
 40
0.8115234375
 40
0.8120117188
 40
0.8125
 40
0.8129882812
 40
0.8134765625
 40
0.814453125
 40
0.81640625
 40
0.818359375
 40
0.8203125
 40
0.82421875
 40
0.828125
 40
0.8359375
 40
0.84375
 40
0.8515625
 40
0.859375
 40
0.86328125
 40
0.8671875
 40
0.869140625
 40
0.87109375
 40
0.873046875
 40
0.8740234375
 40
0.8745117188
 40
0.875
 40
0.8754882812
 40
0.8759765625
 40
0.876953125
 40
0.87890625
 40
0.880859375
 40
0.8828125
 40
0.88671875
 40
0.890625
 40
0.8984375
 40
0.90625
 40
0.9140625
 40
0.921875
 40
0.92578125
 40
0.9296875
 40
0.931640625
 40
0.93359375
 40
0.935546875
 40
0.9365234375
 40
0.9370117188
 40
0.9375
 40
0.9379882812
 40
0.9384765625
 40
0.939453125
 40
0.94140625
 40
0.943359375
 40
0.9453125
 40
0.94921875
 40
0.953125
 40
0.9609375
 40
0.96875
 40
0.9765625
 40
0.984375
 40
1.0
 40
1.0
 40
1.0
 40
1.0
 10
12.3326791699
 20
7.7698594735
 30
0.0
 10
12.3334332426
 20
7.7708637904
 30
0.0
 10
12.3345643515
 20
7.7723702655
 30
0.0
 10
12.3360724967
 20
7.7743788999
 30
0.0
 10
12.3372036057
 20
7.7758853735
 30
0.0
 10
12.3383347143
 20
7.7773918551
 30
0.0
 10
12.3392773062
 20
7.7786472317
 30
0.0
 10
12.3400313765
 20
7.7796515884
 30
0.0
 10
12.3405026776
 20
7.7802791851
 30
0.0
 10
12.3408797023
 20
7.7807815516
 30
0.0
 10
12.341162515
 20
7.7811575348
 30
0.0
 10
12.3413980515
 20
7.7814733726
 30
0.0
 10
12.3415632034
 20
7.7816895167
 30
0.0
 10
12.3416571444
 20
7.7818207446
 30
0.0
 10
12.3417288158
 20
7.7818974265
 30
0.0
 10
12.3417958403
 20
7.7820572062
 30
0.0
 10
12.3418868272
 20
7.7822412603
 30
0.0
 10
12.342045299
 20
7.78257686
 30
0.0
 10
12.3422720822
 20
7.7830492275
 30
0.0
 10
12.342544053
 20
7.7836190906
 30
0.0
 10
12.3429067397
 20
7.7843778526
 30
0.0
 10
12.3433600779
 20
7.7853266664
 30
0.0
 10
12.3440854304
 20
7.7868445666
 30
0.0
 10
12.344992117
 20
7.7887420115
 30
0.0
 10
12.3460801429
 20
7.7910189138
 30
0.0
 10
12.3471681675
 20
7.793295831
 30
0.0
 10
12.3480748574
 20
7.7951932383
 30
0.0
 10
12.3488002033
 20
7.7967112137
 30
0.0
 10
12.3492535583
 20
7.7976598363
 30
0.0
 10
12.3496162106
 20
7.7984189909
 30
0.0
 10
12.3498882866
 20
7.7989876544
 30
0.0
 10
12.3501147404
 20
7.7994637755
 30
0.0
 10
12.3502738003
 20
7.7997926743
 30
0.0
 10
12.350363845
 20
7.7999874648
 30
0.0
 10
12.3504337635
 20
7.8001142658
 30
0.0
 10
12.3504945652
 20
7.8003148103
 30
0.0
 10
12.3505788143
 20
7.8005564805
 30
0.0
 10
12.3507247684
 20
7.8009913878
 30
0.0
 10
12.3509340489
 20
7.8016064184
 30
0.0
 10
12.351184854
 20
7.8023471369
 30
0.0
 10
12.3515193765
 20
7.8033338249
 30
0.0
 10
12.3519374901
 20
7.8045675057
 30
0.0
 10
12.3526064939
 20
7.8065412156
 30
0.0
 10
12.3534427411
 20
7.8090084149
 30
0.0
 10
12.3544462412
 20
7.8119690258
 30
0.0
 10
12.3554497393
 20
7.8149296505
 30
0.0
 10
12.3562859915
 20
7.8173968155
 30
0.0
 10
12.3569549853
 20
7.8193705939
 30
0.0
 10
12.3573731242
 20
7.8206041007
 30
0.0
 10
12.3577075947
 20
7.8215911457
 30
0.0
 10
12.3579585589
 20
7.8223307735
 30
0.0
 10
12.3581673416
 20
7.8229492168
 30
0.0
 10
12.3583141845
 20
7.8233780318
 30
0.0
 10
12.3583970094
 20
7.8236294635
 30
0.0
 10
12.3584621854
 20
7.8238000238
 30
0.0
 10
12.3585156749
 20
7.8240394405
 30
0.0
 10
12.3585910707
 20
7.8243346449
 30
0.0
 10
12.3587211139
 20
7.8248624431
 30
0.0
 10
12.358907883
 20
7.82561059
 30
0.0
 10
12.3591315808
 20
7.8265108704
 30
0.0
 10
12.3594299931
 20
7.8277103697
 30
0.0
 10
12.3598029575
 20
7.8292100433
 30
0.0
 10
12.3603997292
 20
7.8316093533
 30
0.0
 10
12.3611456829
 20
7.8346085508
 30
0.0
 10
12.3620408367
 20
7.8382075519
 30
0.0
 10
12.3629359706
 20
7.8418066003
 30
0.0
 10
12.3636819741
 20
7.8448056796
 30
0.0
 10
12.3642786462
 20
7.8472052258
 30
0.0
 10
12.3647265074
 20
7.8490041138
 30
0.0
 10
12.365098589
 20
7.8505056416
 30
0.0
 10
12.3653612755
 20
7.8515518943
 30
0.0
 10
12.3655079012
 20
7.8521572739
 30
0.0
 10
12.3656276761
 20
7.8525901221
 30
0.0
 10
12.3657099688
 20
7.8531039559
 30
0.0
 10
12.3658327667
 20
7.8537608189
 30
0.0
 10
12.3660415714
 20
7.8549234907
 30
0.0
 10
12.3663430486
 20
7.8565775695
 30
0.0
 10
12.3667034579
 20
7.8585654093
 30
0.0
 10
12.3671844801
 20
7.8612148334
 30
0.0
 10
12.3677855933
 20
7.8645269683
 30
0.0
 10
12.3685070046
 20
7.8685013705
 30
0.0
 10
12.3692283772
 20
7.8724758438
 30
0.0
 10
12.3698295872
 20
7.8757878008
 30
0.0
 10
12.3703104157
 20
7.8784375808
 30
0.0
 10
12.370671416
 20
7.8804243349
 30
0.0
 10
12.3709710445
 20
7.8820818102
 30
0.0
 10
12.3711831493
 20
7.8832384187
 30
0.0
 10
12.3713006595
 20
7.8839049966
 30
0.0
 10
12.3713991941
 20
7.8843889894
 30
0.0
 10
12.3714579673
 20
7.8849339153
 30
0.0
 10
12.3715502007
 20
7.885639229
 30
0.0
 10
12.3717051472
 20
7.8868834308
 30
0.0
 10
12.3719298779
 20
7.8886556845
 30
0.0
 10
12.3721981082
 20
7.8907846053
 30
0.0
 10
12.3725562558
 20
7.8936223911
 30
0.0
 10
12.3730037531
 20
7.897169897
 30
0.0
 10
12.3735408875
 20
7.901426753
 30
0.0
 10
12.3740777706
 20
7.9056837756
 30
0.0
 10
12.3746155216
 20
7.9099402831
 30
0.0
 10
12.3750609638
 20
7.9134889507
 30
0.0
 10
12.3753780292
 20
7.9159699296
 30
0.0
 10
12.3755510045
 20
7.9173924529
 30
0.0
 10
12.3757038489
 20
7.9184457647
 30
0.0
 10
12.3757683445
 20
7.9195509883
 30
0.0
 10
12.3758851557
 20
7.9210065124
 30
0.0
 10
12.3760752165
 20
7.9235621163
 30
0.0
 10
12.3763542438
 20
7.9272085669
 30
0.0
 10
12.3766858397
 20
7.9315862015
 30
0.0
 10
12.377018364
 20
7.9359633203
 30
0.0
 10
12.3773504118
 20
7.9403406082
 30
0.0
 10
12.3776834372
 20
7.9447177354
 30
0.0
 10
12.3779580966
 20
7.9483657361
 30
0.0
 10
12.3781559403
 20
7.9509185781
 30
0.0
 10
12.378260283
 20
7.9523785268
 30
0.0
 10
12.3783630775
 20
7.9534701594
 30
0.0
 10
12.3783720779
 20
7.9545745168
 30
0.0
 10
12.3784167949
 20
7.9560425549
 30
0.0
 10
12.3784798063
 20
7.9586136894
 30
0.0
 10
12.3785777936
 20
7.9622856578
 30
0.0
 10
12.3786919593
 20
7.9666924812
 30
0.0
 10
12.3788070474
 20
7.9710991889
 30
0.0
 10
12.3789218653
 20
7.9755058983
 30
0.0
 10
12.3790176788
 20
7.9791782467
 30
0.0
 10
12.379094148
 20
7.9821159071
 30
0.0
 10
12.3791519656
 20
7.9843197533
 30
0.0
 10
12.3791986704
 20
7.9861543796
 30
0.0
 10
12.3792342607
 20
7.9874423707
 30
0.0
 10
12.3792500747
 20
7.9881725061
 30
0.0
 10
12.3792746776
 20
7.9887366141
 30
0.0
 10
12.3792505726
 20
7.9892376261
 30
0.0
 10
12.3792354225
 20
7.9899276507
 30
0.0
 10
12.3792009939
 20
7.9911249395
 30
0.0
 10
12.3791559487
 20
7.9928407131
 30
0.0
 10
12.3791001229
 20
7.9948973467
 30
0.0
 10
12.3790263076
 20
7.9976403267
 30
0.0
 10
12.3789338248
 20
8.0010687742
 30
0.0
 10
12.3788229428
 20
8.0051830402
 30
0.0
 10
12.3787120129
 20
8.0092972344
 30
0.0
 10
12.3786196499
 20
8.0127258615
 30
0.0
 10
12.3785455947
 20
8.0154684825
 30
0.0
 10
12.3784905007
 20
8.017526211
 30
0.0
 10
12.3784431665
 20
8.0192385594
 30
0.0
 10
12.3784128242
 20
8.0204419627
 30
0.0
 10
12.3783911268
 20
8.0211221903
 30
0.0
 10
12.3783871329
 20
8.0216532956
 30
0.0
 10
12.3783362017
 20
8.0221043779
 30
0.0
 10
12.3782846657
 20
8.0227337338
 30
0.0
 10
12.3781868496
 20
8.0238221016
 30
0.0
 10
12.3780511003
 20
8.0253837119
 30
0.0
 10
12.3778864941
 20
8.0272547339
 30
0.0
 10
12.3776676156
 20
8.0297504466
 30
0.0
 10
12.3773938126
 20
8.0328697384
 30
0.0
 10
12.3770653374
 20
8.0366130395
 30
0.0
 10
12.3767368365
 20
8.0403562952
 30
0.0
 10
12.3764630978
 20
8.0434757005
 30
0.0
 10
12.3762440909
 20
8.045971186
 30
0.0
 10
12.3761072453
 20
8.0475309487
 30
0.0
 10
12.3759976918
 20
8.0487785662
 30
0.0
 10
12.3759157375
 20
8.049714807
 30
0.0
 10
12.3758467718
 20
8.0504933289
 30
0.0
 10
12.3757998114
 20
8.0510415887
 30
0.0
 10
12.3757709227
 20
8.051349736
 30
0.0
 10
12.3757550428
 20
8.0515953371
 30
0.0
 10
12.3757170437
 20
8.0517855481
 30
0.0
 10
12.3756740937
 20
8.0520584834
 30
0.0
 10
12.3755953364
 20
8.0525271184
 30
0.0
 10
12.3754847054
 20
8.0532013033
 30
0.0
 10
12.3753511437
 20
8.0540083106
 30
0.0
 10
12.3751733424
 20
8.0550850241
 30
0.0
 10
12.3749509946
 20
8.0564306749
 30
0.0
 10
12.3745952919
 20
8.058583851
 30
0.0
 10
12.3741506449
 20
8.0612752746
 30
0.0
 10
12.373617077
 20
8.0645050044
 30
0.0
 10
12.3730835049
 20
8.0677347226
 30
0.0
 10
12.3726388684
 20
8.0704261749
 30
0.0
 10
12.3722831448
 20
8.0725792935
 30
0.0
 10
12.3720608502
 20
8.0739250905
 30
0.0
 10
12.3718829397
 20
8.0750015041
 30
0.0
 10
12.3717497115
 20
8.0758094274
 30
0.0
 10
12.3716380371
 20
8.0764807464
 30
0.0
 10
12.3715611423
 20
8.0769544975
 30
0.0
 10
12.3715152081
 20
8.0772192356
 30
0.0
 10
12.3714863755
 20
8.0774346257
 30
0.0
 10
12.3714360681
 20
8.0775856583
 30
0.0
 10
12.3713764822
 20
8.0778094837
 30
0.0
 10
12.3712687169
 20
8.0781907189
 30
0.0
 10
12.3711165911
 20
8.0787408088
 30
0.0
 10
12.3709332591
 20
8.0793985761
 30
0.0
 10
12.3706890892
 20
8.0802764167
 30
0.0
 10
12.3703837835
 20
8.0813734376
 30
0.0
 10
12.3698953465
 20
8.0831288274
 30
0.0
 10
12.3692847823
 20
8.0853230106
 30
0.0
 10
12.3685521133
 20
8.0879560556
 30
0.0
 10
12.3678194408
 20
8.0905890863
 30
0.0
 10
12.3672088855
 20
8.0927833053
 30
0.0
 10
12.3667204307
 20
8.0945386234
 30
0.0
 10
12.3664151703
 20
8.0956358266
 30
0.0
 10
12.3661709073
 20
8.096513293
 30
0.0
 10
12.3659878597
 20
8.0971722036
 30
0.0
 10
12.3658348442
 20
8.0977187164
 30
0.0
 10
12.3657286671
 20
8.0981063373
 30
0.0
 10
12.3656665365
 20
8.0983199312
 30
0.0
 10
12.3656240458
 20
8.0985023917
 30
0.0
 10
12.3655658547
 20
8.0985997438
 30
0.0
 10
12.365493743
 20
8.0987592334
 30
0.0
 10
12.365364996
 20
8.0990245085
 30
0.0
 10
12.3651824056
 20
8.0994107042
 30
0.0
 10
12.3649627262
 20
8.0998710439
 30
0.0
 10
12.3646700197
 20
8.1004859113
 30
0.0
 10
12.3643040683
 20
8.1012541253
 30
0.0
 10
12.3637185843
 20
8.1024834747
 30
0.0
 10
12.3629867161
 20
8.1040200899
 30
0.0
 10
12.3621084803
 20
8.105864061
 30
0.0
 10
12.3612302416
 20
8.1077080155
 30
0.0
 10
12.3604983804
 20
8.109244672
 30
0.0
 10
12.3599128825
 20
8.1104739388
 30
0.0
 10
12.3595469665
 20
8.1112423628
 30
0.0
 10
12.3592541874
 20
8.1118567991
 30
0.0
 10
12.3590347299
 20
8.1123184557
 30
0.0
 10
12.3588514453
 20
8.1127005313
 30
0.0
 10
12.3587239376
 20
8.1129731617
 30
0.0
 10
12.3586498401
 20
8.1131208662
 30
0.0
 10
12.3585977487
 20
8.113254418
 30
0.0
 10
12.3585323483
 20
8.1133009184
 30
0.0
 10
12.3584497902
 20
8.1133932834
 30
0.0
 10
12.3583031504
 20
8.1135407747
 30
0.0
 10
12.3580947959
 20
8.1137588731
 30
0.0
 10
12.3578442865
 20
8.1140174252
 30
0.0
 10
12.3575104429
 20
8.1143632671
 30
0.0
 10
12.3570930806
 20
8.1147951909
 30
0.0
 10
12.3564253333
 20
8.1154864806
 30
0.0
 10
12.355590638
 20
8.1163505197
 30
0.0
 10
12.3545890086
 20
8.1173874
 30
0.0
 10
12.353587377
 20
8.1184242633
 30
0.0
 10
12.3527526871
 20
8.1192883451
 30
0.0
 10
12.352084929
 20
8.1199795492
 30
0.0
 10
12.3516675941
 20
8.1204116906
 30
0.0
 10
12.3513336942
 20
8.1207570859
 30
0.0
 10
12.3510833569
 20
8.1210170024
 30
0.0
 10
12.3508744638
 20
8.1212308321
 30
0.0
 10
12.3507287855
 20
8.1213859437
 30
0.0
 10
12.3506446869
 20
8.1214660991
 30
0.0
 10
12.3505840182
 20
8.1215501034
 30
0.0
 10
12.3505141555
 20
8.1215427965
 30
0.0
 10
12.3504242122
 20
8.1215649043
 30
0.0
 10
12.3502653172
 20
8.1215887534
 30
0.0
 10
12.3500391056
 20
8.1216305818
 30
0.0
 10
12.3497673172
 20
8.1216774551
 30
0.0
 10
12.3494050496
 20
8.1217411127
 30
0.0
 10
12.348952175
 20
8.1218202875
 30
0.0
 10
12.3482275981
 20
8.1219471892
 30
0.0
 10
12.3473218692
 20
8.1221057397
 30
0.0
 10
12.3462349979
 20
8.1222960355
 30
0.0
 10
12.3451481252
 20
8.1224863134
 30
0.0
 10
12.3442424001
 20
8.1226449084
 30
0.0
 10
12.3435178154
 20
8.1227717211
 30
0.0
 10
12.3430649605
 20
8.1228511223
 30
0.0
 10
12.3427026525
 20
8.1229143154
 30
0.0
 10
12.3424309875
 20
8.1229626076
 30
0.0
 10
12.3422043901
 20
8.1229999964
 30
0.0
 10
12.3420461837
 20
8.123031771
 30
0.0
 10
12.3419551372
 20
8.1230411801
 30
0.0
 10
12.341888663
 20
8.1230728796
 30
0.0
 10
12.3418152675
 20
8.1230103825
 30
0.0
 10
12.3417198211
 20
8.1229599098
 30
0.0
 10
12.3415516649
 20
8.1228562741
 30
0.0
 10
12.34131203
 20
8.1227162266
 30
0.0
 10
12.3410242163
 20
8.1225447438
 30
0.0
 10
12.3406405526
 20
8.1223172966
 30
0.0
 10
12.3401609429
 20
8.1220325779
 30
0.0
 10
12.3393935843
 20
8.121577257
 30
0.0
 10
12.3384343802
 20
8.1210080273
 30
0.0
 10
12.3372833378
 20
8.1203249854
 30
0.0
 10
12.3361322947
 20
8.1196419344
 30
0.0
 10
12.3345975708
 20
8.118731203
 30
0.0
 10
12.3334465278
 20
8.1180481537
 30
0.0
 10
12.3326791659
 20
8.1175927877
 30
0.0
  0
ENDSEC
  0
SECTION
  2
OBJECTS
  0
DICTIONARY
  5
C
100
AcDbDictionary
280
0
281
1
  3
ACAD_GROUP
350
D
  3
ACAD_MLINESTYLE
350
17
  3
ACAD_LAYOUT
350
1A
  3
ACAD_PLOTSETTINGS
350
19
  3
ACAD_PLOTSTYLENAME
350
E
  3
ACAD_IMAGE_DICT
350
       3DA
  3
ACAD_IMAGE_VARS
350
       3DB
  3
ACAD_TABLESTYLE
350
       3DC
  0
IMAGEDEF_REACTOR
  5
3D9
100
AcDbRasterImageDefReactor
 90
2
330
28F
  0
DICTIONARY
  5
D
102
{ACAD_REACTORS
330
C
102
}
100
AcDbDictionary
280
0
281
1
  0
ACDBDICTIONARYWDFLT
  5
E
102
{ACAD_REACTORS
330
C
102
}
100
AcDbDictionary
281
1
  3
Normal
350
F
100
AcDbDictionaryWithDefault
340
F
  0
DICTIONARY
  5
3DA
330
C
100
AcDbDictionary
281
1
  3
BNW_assy_2_img_1
350
       3DF
  0
RASTERVARIABLES
  5
3DB
330
C
100
AcDbRasterVariables
 90
0
 70
0
 71
1
 72
5
  0
DICTIONARY
  5
17
102
{ACAD_REACTORS
330
C
102
}
100
AcDbDictionary
280
0
281
1
  3
Standard
350
18
  0
DICTIONARY
  5
3DC
330
C
100
AcDbDictionary
281
1
  3
Standard
350
       3E0
  3
Standard1
350
       3E1
  0
DICTIONARY
  5
19
102
{ACAD_REACTORS
330
C
102
}
100
AcDbDictionary
281
1
  0
DICTIONARY
  5
1A
102
{ACAD_REACTORS
330
C
102
}
100
AcDbDictionary
281
1
  3
Model
350
3DD
  3
Layout1
350
3DE
  0
ACDBPLACEHOLDER
  5
F
102
{ACAD_REACTORS
330
E
102
}
  0
MLINESTYLE
  5
18
102
{ACAD_REACTORS
330
17
102
}
100
AcDbMlineStyle
  2
STANDARD
 70
0
  3

 62
256
 51
90.0
 52
90.0
 71
2
 49
0.5
 62
256
  6
BYLAYER
 49
-0.5
 62
256
  6
BYLAYER
  0
LAYOUT
  5
3DD
102
{ACAD_REACTORS
330
1A
102
}
100
AcDbPlotSettings
  1

  2
none_device
  4
ANSI_C_(22.00_x_17.00_Inches)
  6

 40
0.0
 41
0.0
 42
0.0
 43
0.0
 44
558.8
 45
431.8
 46
0.0
 47
0.0
 48
0.0
 49
0.0
140
0.0
141
0.0
142
1.0
143
1.0
 70
1024
 72
0
 73
0
 74
0
  7

 75
0
147
1.0
148
0.0
149
0.0
100
AcDbLayout
  1
Model
 70
0
 71
0
 10
0.0
 20
0.0
 11
22.0
 21
17.0
 12
0.0
 22
0.0
 32
0.0
 14
0.0
 24
0.0
 34
0.0
 15
0.0
 25
0.0
 35
0.0
146
0.0
 13
0.0
 23
0.0
 33
0.0
 16
1.0
 26
0.0
 36
0.0
 17
0.0
 27
1.0
 37
0.0
 76
0
330
20C
345
0
346
0
  0
LAYOUT
  5
3DE
102
{ACAD_REACTORS
330
1A
102
}
100
AcDbPlotSettings
  1

  2
none_device
  4
ANSI_C_(22.00_x_17.00_Inches)
  6

 40
0.0
 41
0.0
 42
0.0
 43
0.0
 44
558.8
 45
431.8
 46
0.0
 47
0.0
 48
0.0
 49
0.0
140
0.0
141
0.0
142
1.0
143
1.0
 70
0
 72
0
 73
0
 74
0
  7

 75
0
147
1.0
148
0.0
149
0.0
100
AcDbLayout
  1
Layout1
 70
0
 71
1
 10
0.0
 20
0.0
 11
22.0
 21
17.0
 12
0.0
 22
0.0
 32
0.0
 14
0.0
 24
0.0
 34
0.0
 15
0.0
 25
0.0
 35
0.0
146
0.0
 13
0.0
 23
0.0
 33
0.0
 16
1.0
 26
0.0
 36
0.0
 17
0.0
 27
1.0
 37
0.0
 76
0
330
20D
345
0
346
0
  0
IMAGEDEF
  5
3DF
102
{ACAD_REACTORS
330
3DA
330
3D9
102
}
100
AcDbRasterImageDef
 90
0
  1
BNW_assy_2_img_1.png
 10
369.0
 20
92.0
 11
0.0066666667
 21
0.0066666667
280
1
281
0
  0
TABLESTYLE
  5
3E0
102
{ACAD_REACTORS
330
3DC
330
292
330
293
102
}
330
3DC
100
AcDbTableStyle
  3
Standard
 70
0
 71
0
 40
0.06
 41
0.06
280
1
281
1
  7
Standard
140
0.18
170
1
 62
0
 63
7
283
0
  7
Standard
140
0.18
170
1
 62
0
 63
7
283
0
  7
Standard
140
0.18
170
1
 62
0
 63
7
283
0
  0
TABLESTYLE
  5
3E1
102
{ACAD_REACTORS
330
3DC
330
291
102
}
330
3DC
100
AcDbTableStyle
  3
Standard1
 70
1
 71
0
 40
0.06
 41
0.06
280
1
281
1
  7
Standard
140
0.18
170
1
 62
0
 63
7
283
0
  7
Standard
140
0.18
170
1
 62
0
 63
7
283
0
  7
Standard
140
0.18
170
1
 62
0
 63
7
283
0
  0
ENDSEC
  0
EOF
