999
DXF file: BMC_assy_2.dxf
999
Pro/ENGINEER 2014200 by Parametric Technology Corporation
  0
SECTION
  2
HEADER
  9
$ACADVER
  1
AC1021
  9
$DWGCODEPAGE
  3
ANSI_1252
  9
$EXTMAX
 10
22.0
 20
17.0
 30
0.0
  9
$EXTMIN
 10
0.0
 20
0.0
 30
0.0
  9
$LIMMIN
 10
0.0
 20
0.0
  9
$LIMMAX
 10
22.0
 20
17.0
  9
$VIEWCTR
 10
11.0
 20
8.5
  9
$VIEWSIZE
 40
17.0
  9
$CLAYER
  8
0
  9
$LTSCALE
 40
1.21
  9
$CELTYPE
  6
BYLAYER
  9
$DIMSCALE
 40
1.0
  9
$DIMASZ
 40
0.1875
  9
$DIMEXO
 40
0.0625
  9
$DIMDLI
 40
0.836
  9
$DIMEXE
 40
0.125
  9
$DIMCEN
 40
0.198
  9
$DIMLFAC
 40
1.0
  9
$DIMBLK
  1
_FILLED
  9
$DIMTXT
 40
0.1
  9
$DIMTOL
 70
0
  9
$DIMLIM
 70
0
  9
$DIMTFAC
 40
1.0
  9
$DIMGAP
 40
0.09
  9
$DIMDSEP
 70
46
  9
$AUNITS
 70
0
  9
$PDMODE
 70
3
  9
$PDSIZE
 40
0.3125
  9
$HANDSEED
  5
3DC
  9
$TILEMODE
 70
1
  9
$MEASUREMENT
 70
0
  9
$INSUNITS
 70
1
  0
ENDSEC
  0
SECTION
  2
CLASSES
  0
CLASS
  1
ACDBDICTIONARYWDFLT
  2
AcDbDictionaryWithDefault
  3
AutoCAD 2000
 90
0
 91
1
280
0
281
0
  0
CLASS
  1
ACDBPLACEHOLDER
  2
AcDbPlaceHolder
  3
AutoCAD 2000
 90
0
 91
1
280
0
281
0
  0
CLASS
  1
LAYOUT
  2
AcDbLayout
  3
AutoCAD 2000
 90
0
 91
0
280
0
281
0
  0
CLASS
  1
RASTERVARIABLES
  2
AcDbRasterVariables
  3
ISM
 90
0
 91
1
280
0
281
0
  0
CLASS
  1
IMAGEDEF
  2
AcDbRasterImageDef
  3
ISM
 90
0
 91
1
280
0
281
0
  0
CLASS
  1
IMAGEDEF_REACTOR
  2
AcDbRasterImageDefReactor
  3
ISM
 90
0
 91
1
280
0
281
0
  0
CLASS
  1
IMAGE
  2
AcDbRasterImage
  3
ISM
 90
127
 91
1
280
0
281
1
  0
CLASS
  1
TABLESTYLE
  2
AcDbTableStyle
  3
ObjectDBX Classes
 90
2047
 91
1
280
0
281
0
  0
CLASS
  1
ACAD_TABLE
  2
AcDbTable
  3
ObjectDBX Classes
 90
1025
 91
3
280
0
281
1
  0
ENDSEC
  0
SECTION
  2
TABLES
  0
TABLE
  2
VPORT
  5
8
100
AcDbSymbolTable
 70
2
  0
VPORT
  5
1F4
100
AcDbSymbolTableRecord
100
AcDbViewportTableRecord
  2
*ACTIVE
 70
0
 10
0.0
 20
0.0
 11
1.0
 21
1.0
 12
11.0
 22
8.5
 13
0.0
 23
0.0
 14
1.0
 24
1.0
 15
0.0
 25
0.0
 16
0.0
 26
0.0
 36
1.0
 17
0.0
 27
0.0
 37
0.0
 40
17.0
 41
1.2941176471
 42
50.0
 43
0.0
 44
0.0
 50
0.0
 51
0.0
 71
0
 72
100
 73
1
 74
1
 75
0
 76
0
 77
0
 78
0
  0
ENDTAB
  0
TABLE
  2
LTYPE
  5
5
100
AcDbSymbolTable
 70
6
  0
LTYPE
  5
14
100
AcDbSymbolTableRecord
100
AcDbLinetypeTableRecord
  2
BYBLOCK
 70
0
  3

 72
65
 73
0
 40
0.0
  0
LTYPE
  5
15
100
AcDbSymbolTableRecord
100
AcDbLinetypeTableRecord
  2
BYLAYER
 70
0
  3

 72
65
 73
0
 40
0.0
  0
LTYPE
  5
16
100
AcDbSymbolTableRecord
100
AcDbLinetypeTableRecord
  2
CONTINUOUS
 70
64
  3
Solid line
 72
65
 73
0
 40
0.0
  0
LTYPE
  5
1F5
100
AcDbSymbolTableRecord
100
AcDbLinetypeTableRecord
  2
CENTER
 70
64
  3
____ _ ____ _ ____ _ ____ _ ____ _ ____ _ ____
 72
65
 73
4
 40
0.6
 49
0.375
 74
0
 49
-0.075
 74
0
 49
0.075
 74
0
 49
-0.075
 74
0
  0
LTYPE
  5
1F6
100
AcDbSymbolTableRecord
100
AcDbLinetypeTableRecord
  2
HIDDEN
 70
64
  3
- - - - - - - - - - - - - - - - - - - -
 72
65
 73
2
 40
0.2
 49
0.1
 74
0
 49
-0.1
 74
0
  0
LTYPE
  5
1F7
100
AcDbSymbolTableRecord
100
AcDbLinetypeTableRecord
  2
PHANTOM
 70
64
  3
_____ _ _ _____ _ _ _____ _ _ _____
 72
65
 73
6
 40
0.8
 49
0.45
 74
0
 49
-0.05
 74
0
 49
0.1
 74
0
 49
-0.05
 74
0
 49
0.1
 74
0
 49
-0.05
 74
0
  0
LTYPE
  5
1F8
100
AcDbSymbolTableRecord
100
AcDbLinetypeTableRecord
  2
DOT
 70
64
  3
. . . . . . . . . . . . . . . . . . . .
 72
65
 73
2
 40
0.2
 49
0.1
 74
0
 49
-0.1
 74
0
  0
LTYPE
  5
1F9
100
AcDbSymbolTableRecord
100
AcDbLinetypeTableRecord
  2
DASHED
 70
64
  3
- - - - - - - - - - - - - - - - - - - -
 72
65
 73
2
 40
0.2
 49
0.1
 74
0
 49
-0.1
 74
0
  0
ENDTAB
  0
TABLE
  2
LAYER
  5
2
100
AcDbSymbolTable
 70
36
  0
LAYER
  5
10
100
AcDbSymbolTableRecord
100
AcDbLayerTableRecord
  2
0
 70
0
 62
7
  6
CONTINUOUS
370
-3
390
F
  0
LAYER
  5
1FA
100
AcDbSymbolTableRecord
100
AcDbLayerTableRecord
  2
DEFAULT_1
 70
0
 62
7
  6
CENTER
370
-3
390
F
  0
LAYER
  5
1FB
100
AcDbSymbolTableRecord
100
AcDbLayerTableRecord
  2
DEFAULT_2
 70
0
 62
8
  6
HIDDEN
370
-3
390
F
  0
LAYER
  5
1FC
100
AcDbSymbolTableRecord
100
AcDbLayerTableRecord
  2
DEFAULT_3
 70
0
 62
7
  6
PHANTOM
370
-3
390
F
  0
LAYER
  5
1FD
100
AcDbSymbolTableRecord
100
AcDbLayerTableRecord
  2
01___PRT_ALL_DTM_PLN
 70
0
 62
7
  6
CONTINUOUS
370
-3
390
F
  0
LAYER
  5
1FE
100
AcDbSymbolTableRecord
100
AcDbLayerTableRecord
  2
01___PRT_DEF_DTM_PLN
 70
0
 62
7
  6
CONTINUOUS
370
-3
390
F
  0
LAYER
  5
1FF
100
AcDbSymbolTableRecord
100
AcDbLayerTableRecord
  2
02___PRT_ALL_AXES
 70
0
 62
7
  6
CONTINUOUS
370
-3
390
F
  0
LAYER
  5
200
100
AcDbSymbolTableRecord
100
AcDbLayerTableRecord
  2
03___PRT_ALL_CURVES
 70
0
 62
7
  6
CONTINUOUS
370
-3
390
F
  0
LAYER
  5
201
100
AcDbSymbolTableRecord
100
AcDbLayerTableRecord
  2
04___PRT_ALL_DTM_PNT
 70
0
 62
7
  6
CONTINUOUS
370
-3
390
F
  0
LAYER
  5
202
100
AcDbSymbolTableRecord
100
AcDbLayerTableRecord
  2
05___PRT_ALL_DTM_CSYS
 70
0
 62
7
  6
CONTINUOUS
370
-3
390
F
  0
LAYER
  5
203
100
AcDbSymbolTableRecord
100
AcDbLayerTableRecord
  2
05___PRT_DEF_DTM_CSYS
 70
0
 62
7
  6
CONTINUOUS
370
-3
390
F
  0
LAYER
  5
204
100
AcDbSymbolTableRecord
100
AcDbLayerTableRecord
  2
06___PRT_ALL_SURFS
 70
0
 62
7
  6
CONTINUOUS
370
-3
390
F
  0
LAYER
  5
205
100
AcDbSymbolTableRecord
100
AcDbLayerTableRecord
  2
DATUM_PLANES
 70
0
 62
7
  6
CONTINUOUS
370
-3
390
F
  0
LAYER
  5
206
100
AcDbSymbolTableRecord
100
AcDbLayerTableRecord
  2
PORT_AREAS
 70
0
 62
7
  6
CONTINUOUS
370
-3
390
F
  0
LAYER
  5
207
100
AcDbSymbolTableRecord
100
AcDbLayerTableRecord
  2
SUNNBOMCOSMETIC
 70
0
 62
7
  6
CONTINUOUS
370
-3
390
F
  0
LAYER
  5
208
100
AcDbSymbolTableRecord
100
AcDbLayerTableRecord
  2
SUNNBOMSTAMPING
 70
0
 62
7
  6
CONTINUOUS
370
-3
390
F
  0
LAYER
  5
209
100
AcDbSymbolTableRecord
100
AcDbLayerTableRecord
  2
THREADS
 70
0
 62
7
  6
CONTINUOUS
370
-3
390
F
  0
ENDTAB
  0
TABLE
  2
STYLE
  5
3
100
AcDbSymbolTable
 70
1
  0
STYLE
  5
11
100
AcDbSymbolTableRecord
100
AcDbTextStyleTableRecord
  2
STANDARD
 70
0
 40
0.0
 41
0.8
 50
0.0
 71
0
 42
0.2
  3
txt
  4

  0
STYLE
  5
20A
100
AcDbSymbolTableRecord
100
AcDbTextStyleTableRecord
  2
TEXTSTYLE_1
 70
0
 40
0.0
 41
0.8
 50
0.0
 71
0
 42
0.2
  3
gdt
  4

  0
ENDTAB
  0
TABLE
  2
VIEW
  5
6
100
AcDbSymbolTable
 70
0
  0
ENDTAB
  0
TABLE
  2
UCS
  5
7
100
AcDbSymbolTable
 70
0
  0
ENDTAB
  0
TABLE
  2
APPID
  5
9
100
AcDbSymbolTable
 70
1
  0
APPID
  5
20B
100
AcDbSymbolTableRecord
100
AcDbRegAppTableRecord
  2
ACAD
 70
0
  0
ENDTAB
  0
TABLE
  2
BLOCK_RECORD
  5
1
100
AcDbSymbolTable
 70
0
  0
BLOCK_RECORD
  5
20C
100
AcDbSymbolTableRecord
100
AcDbBlockTableRecord
  2
*Model_Space
  0
BLOCK_RECORD
  5
20D
100
AcDbSymbolTableRecord
100
AcDbBlockTableRecord
  2
*Paper_Space
  0
BLOCK_RECORD
  5
20E
100
AcDbSymbolTableRecord
100
AcDbBlockTableRecord
  2
SUN_FIRST_THIRD_ANGLE_BL0
  0
BLOCK_RECORD
  5
20F
100
AcDbSymbolTableRecord
100
AcDbBlockTableRecord
  2
*T1
  0
BLOCK_RECORD
  5
210
100
AcDbSymbolTableRecord
100
AcDbBlockTableRecord
  2
*T2
  0
BLOCK_RECORD
  5
211
100
AcDbSymbolTableRecord
100
AcDbBlockTableRecord
  2
*T3
  0
ENDTAB
  0
TABLE
  2
DIMSTYLE
  5
A
100
AcDbSymbolTable
 70
1
100
AcDbDimStyleTable
 71
0
  0
DIMSTYLE
105
212
100
AcDbSymbolTableRecord
100
AcDbDimStyleTableRecord
  2
STANDARD
 70
0
  3

  4

 40
1.0
 41
0.1875
 42
0.0625
 43
0.38
 44
0.125
 45
0.0
 46
0.0
 47
0.001
 48
0.001
140
0.1
141
0.09
142
0.0
143
25.4
144
1.0
145
0.0
146
1.0
147
0.09
 71
0.0
 72
0.0
 73
1
 74
1
 75
0
 76
0
 77
0
 78
4
170
0
171
2
172
0
173
0
174
0
175
0
176
0
177
0
178
0
270
2
271
3
272
3
273
2
274
2
275
0
280
0
281
0
282
0
283
1
284
4
285
0
286
0
287
3
288
0
340
11
278
46
  0
ENDTAB
  0
ENDSEC
  0
SECTION
  2
BLOCKS
  0
BLOCK
  5
20
100
AcDbEntity
  8
0
100
AcDbBlockBegin
  2
*Model_Space
 70
0
 10
0.0
 20
0.0
 30
0.0
  3
*Model_Space
  1

  0
ENDBLK
  5
21
100
AcDbEntity
  8
0
100
AcDbBlockEnd
  0
BLOCK
  5
1C
100
AcDbEntity
  8
0
100
AcDbBlockBegin
  2
*Paper_Space
 70
0
 10
0.0
 20
0.0
 30
0.0
  3
*Paper_Space
  1

  0
ENDBLK
  5
1D
100
AcDbEntity
  8
0
100
AcDbBlockEnd
  0
BLOCK
  5
213
100
AcDbEntity
  8
0
100
AcDbBlockBegin
 62
2
  6
CONTINUOUS
  2
SUN_FIRST_THIRD_ANGLE_BL0
 70
64
 10
20.4816717061
 20
1.2289683772
  3
SUN_FIRST_THIRD_ANGLE_BL0
  1

  0
TEXT
  5
214
100
AcDbEntity
  8
0
100
AcDbText
 62
2
  6
CONTINUOUS
 10
19.4750896608
 20
1.4136269581
  7
STANDARD
 40
0.08
  1
FIRST ANGLE
 41
0.8
 72
0
100
AcDbText
  0
TEXT
  5
215
100
AcDbEntity
  8
0
100
AcDbText
 62
2
  6
CONTINUOUS
 10
20.7842537513
 20
1.4047600029
  7
STANDARD
 40
0.08
  1
THIRD ANGLE
 41
0.8
 72
0
100
AcDbText
  0
LINE
  5
216
100
AcDbEntity
  8
0
100
AcDbLine
 62
7
  6
CONTINUOUS
 10
19.4767170086
 20
1.1727031207
 11
19.6334271527
 21
1.1717972817
  0
LINE
  5
217
100
AcDbEntity
  8
0
100
AcDbLine
 62
7
  6
CONTINUOUS
 10
19.6596964832
 20
1.1717972817
 11
19.6950230232
 21
1.171593082
  0
LINE
  5
218
100
AcDbEntity
  8
0
100
AcDbLine
 62
7
  6
CONTINUOUS
 10
19.7194818561
 20
1.1708914427
 11
19.8852396156
 21
1.1699333054
  0
LINE
  5
219
100
AcDbEntity
  8
0
100
AcDbLine
 62
7
  6
CONTINUOUS
 10
19.4758111696
 20
1.2723454088
 11
19.88525039
 21
1.3511534004
  0
LINE
  5
21A
100
AcDbEntity
  8
0
100
AcDbLine
 62
7
  6
CONTINUOUS
 10
19.88525039
 20
1.3511534004
 11
19.8831348489
 21
0.9851647912
  0
LINE
  5
21B
100
AcDbEntity
  8
0
100
AcDbLine
 62
7
  6
CONTINUOUS
 10
19.8831348489
 20
0.9851647912
 11
19.4767170086
 21
1.0658141206
  0
LINE
  5
21C
100
AcDbEntity
  8
0
100
AcDbLine
 62
7
  6
CONTINUOUS
 10
19.4767170086
 20
1.0658141206
 11
19.4779056764
 21
1.2714536432
  0
CIRCLE
  5
21D
100
AcDbEntity
  8
0
100
AcDbCircle
 62
7
  6
CONTINUOUS
 10
20.2068232291
 20
1.1717972817
 40
0.175742101
  0
CIRCLE
  5
21E
100
AcDbEntity
  8
0
100
AcDbCircle
 62
7
  6
CONTINUOUS
 10
20.2068232291
 20
1.1717972817
 40
0.1005522074
  0
LINE
  5
21F
100
AcDbEntity
  8
0
100
AcDbLine
 62
7
  6
CONTINUOUS
 10
20.2077290681
 20
1.3756110529
 11
20.2071171714
 21
1.2379342989
  0
LINE
  5
220
100
AcDbEntity
  8
0
100
AcDbLine
 62
7
  6
CONTINUOUS
 10
20.2077290681
 20
1.2016899681
 11
20.2074674401
 21
1.1428236749
  0
LINE
  5
221
100
AcDbEntity
  8
0
100
AcDbLine
 62
7
  6
CONTINUOUS
 10
20.208634907
 20
1.101141841
 11
20.2080230104
 21
0.963465087
  0
LINE
  5
222
100
AcDbEntity
  8
0
100
AcDbLine
 62
7
  6
CONTINUOUS
 10
20.0066328138
 20
1.1745147986
 11
20.1443095678
 21
1.1739029019
  0
LINE
  5
223
100
AcDbEntity
  8
0
100
AcDbLine
 62
7
  6
CONTINUOUS
 10
20.1832714155
 20
1.1727031207
 11
20.238153505
 21
1.172335442
  0
LINE
  5
224
100
AcDbEntity
  8
0
100
AcDbLine
 62
7
  6
CONTINUOUS
 10
20.2756669918
 20
1.1717972817
 11
20.407916871
 21
1.1712095044
  0
CIRCLE
  5
225
100
AcDbEntity
  8
0
100
AcDbCircle
 62
7
  6
CONTINUOUS
 10
20.7509457401
 20
1.1693297793
 40
0.1722024983
  0
CIRCLE
  5
226
100
AcDbEntity
  8
0
100
AcDbCircle
 62
7
  6
CONTINUOUS
 10
20.7509457401
 20
1.1693297793
 40
0.0985164967
  0
LINE
  5
227
100
AcDbEntity
  8
0
100
AcDbLine
 62
7
  6
CONTINUOUS
 10
20.7169767782
 20
1.170462078
 11
20.7825395137
 21
1.1682766535
  0
LINE
  5
228
100
AcDbEntity
  8
0
100
AcDbLine
 62
7
  6
CONTINUOUS
 10
20.8177513651
 20
1.1693297793
 11
20.947965719
 21
1.1693297793
  0
LINE
  5
229
100
AcDbEntity
  8
0
100
AcDbLine
 62
7
  6
CONTINUOUS
 10
20.6875370113
 20
1.170462078
 11
20.5573226574
 21
1.170462078
  0
LINE
  5
22A
100
AcDbEntity
  8
0
100
AcDbLine
 62
7
  6
CONTINUOUS
 10
20.7486811426
 20
1.1987695462
 11
20.7486811426
 21
1.1432869085
  0
LINE
  5
22B
100
AcDbEntity
  8
0
100
AcDbLine
 62
7
  6
CONTINUOUS
 10
20.7498134414
 20
1.1059210505
 11
20.7498134414
 21
0.9757066966
  0
LINE
  5
22C
100
AcDbEntity
  8
0
100
AcDbLine
 62
7
  6
CONTINUOUS
 10
20.7486811426
 20
1.2338708068
 11
20.7486811426
 21
1.3640851607
  0
LINE
  5
22D
100
AcDbEntity
  8
0
100
AcDbLine
 62
7
  6
CONTINUOUS
 10
21.0702539817
 20
1.2701043662
 11
21.4790138229
 21
1.3448360823
  0
LINE
  5
22E
100
AcDbEntity
  8
0
100
AcDbLine
 62
7
  6
CONTINUOUS
 10
21.4790138229
 20
1.3448360823
 11
21.4790138229
 21
0.9779712941
  0
LINE
  5
22F
100
AcDbEntity
  8
0
100
AcDbLine
 62
7
  6
CONTINUOUS
 10
21.4790138229
 20
0.9779712941
 11
21.069121683
 21
1.0617614
  0
LINE
  5
230
100
AcDbEntity
  8
0
100
AcDbLine
 62
7
  6
CONTINUOUS
 10
21.0702539817
 20
1.2701043662
 11
21.069121683
 21
1.0617614
  0
LINE
  5
231
100
AcDbEntity
  8
0
100
AcDbLine
 62
7
  6
CONTINUOUS
 10
21.4790138229
 20
1.1693297793
 11
21.3159628059
 21
1.1693297793
  0
LINE
  5
232
100
AcDbEntity
  8
0
100
AcDbLine
 62
7
  6
CONTINUOUS
 10
21.2876553377
 20
1.1693297793
 11
21.2502894796
 21
1.1693297793
  0
LINE
  5
233
100
AcDbEntity
  8
0
100
AcDbLine
 62
7
  6
CONTINUOUS
 10
21.2208497126
 20
1.1659328831
 11
21.0713862804
 21
1.1659328831
  0
LINE
  5
234
100
AcDbEntity
  8
0
100
AcDbLine
 62
7
  6
CONTINUOUS
 10
20.4796138713
 20
1.5284908897
 11
20.4766766948
 21
0.9294458646
  0
ENDBLK
  5
235
100
AcDbEntity
  8
0
  6
BYBLOCK
 62
0
100
AcDbBlockEnd
  0
BLOCK
  5
236
100
AcDbEntity
  8
0
100
AcDbBlockBegin
  2
*T1
 70
1
 10
0.0
 20
0.0
  3
*T1
  1

  0
LINE
  5
237
100
AcDbEntity
  8
0
100
AcDbLine
 62
2
  6
CONTINUOUS
 10
9.275
 20
0.0
 11
-0.0
 21
0.0
  0
LINE
  5
238
100
AcDbEntity
  8
0
100
AcDbLine
 62
2
  6
CONTINUOUS
 10
9.275
 20
0.0
 11
9.275
 21
1.25
  0
LINE
  5
239
100
AcDbEntity
  8
0
100
AcDbLine
 62
2
  6
CONTINUOUS
 10
9.275
 20
0.625
 11
-0.0
 21
0.625
  0
LINE
  5
23A
100
AcDbEntity
  8
0
100
AcDbLine
 62
2
  6
CONTINUOUS
 10
9.275
 20
1.25
 11
-0.0
 21
1.25
  0
LINE
  5
23B
100
AcDbEntity
  8
0
100
AcDbLine
 62
2
  6
CONTINUOUS
 10
6.8
 20
0.0
 11
6.8
 21
1.25
  0
LINE
  5
23C
100
AcDbEntity
  8
0
100
AcDbLine
 62
2
  6
CONTINUOUS
 10
6.4
 20
0.0
 11
6.4
 21
0.625
  0
LINE
  5
23D
100
AcDbEntity
  8
0
100
AcDbLine
 62
2
  6
CONTINUOUS
 10
5.9
 20
0.0
 11
5.9
 21
0.625
  0
LINE
  5
23E
100
AcDbEntity
  8
0
100
AcDbLine
 62
2
  6
CONTINUOUS
 10
5.2
 20
0.0
 11
5.2
 21
0.625
  0
LINE
  5
23F
100
AcDbEntity
  8
0
100
AcDbLine
 62
2
  6
CONTINUOUS
 10
4.1
 20
0.0
 11
4.1
 21
1.25
  0
LINE
  5
240
100
AcDbEntity
  8
0
100
AcDbLine
 62
2
  6
CONTINUOUS
 10
-0.0
 20
0.0
 11
-0.0
 21
1.25
  0
MTEXT
  5
241
100
AcDbEntity
  8
0
100
AcDbMText
 62
2
  6
CONTINUOUS
  7
STANDARD
 71
2
 72
1
 10
6.6
 20
0.325
 30
0.0
 11
1.0
 21
0.0
 31
0.0
 44
0.9
  1
2
 40
0.125
 41
0.2
  0
MTEXT
  5
242
100
AcDbEntity
  8
0
100
AcDbMText
 62
2
  6
CONTINUOUS
  7
STANDARD
 71
2
 72
1
 10
6.15
 20
0.325
 30
0.0
 11
1.0
 21
0.0
 31
0.0
 44
0.9
  1
C
 40
0.125
 41
0.2
  0
MTEXT
  5
243
100
AcDbEntity
  8
0
100
AcDbMText
 62
2
  6
CONTINUOUS
  7
STANDARD
 71
2
 72
1
 10
5.55
 20
0.325
 30
0.0
 11
1.0
 21
0.0
 31
0.0
 44
0.9
  1
1.000
 40
0.125
 41
1.0
  0
MTEXT
  5
244
100
AcDbEntity
  8
0
100
AcDbMText
 62
2
  6
CONTINUOUS
  7
STANDARD
 71
2
 72
1
 10
4.65
 20
0.325
 30
0.0
 11
1.0
 21
0.0
 31
0.0
 44
0.9
  1
Sep-27-22
 40
0.125
 41
1.8
  0
MTEXT
  5
245
100
AcDbEntity
  8
0
100
AcDbMText
 62
2
  6
CONTINUOUS
  7
STANDARD
 71
2
 72
1
 10
2.05
 20
0.4625
 30
0.0
 11
1.0
 21
0.0
 31
0.0
 44
0.9
  1
T-2A Line mount\PCushion lock
 40
0.125
 41
3.0
  0
MTEXT
  5
246
100
AcDbEntity
  8
0
100
AcDbMText
 62
2
  6
CONTINUOUS
  7
STANDARD
 71
1
 72
1
 10
6.45
 20
0.5625
 30
0.0
 11
1.0
 21
0.0
 31
0.0
 44
0.9
  1
SHEET
 40
0.06
 41
0.48
  0
MTEXT
  5
247
100
AcDbEntity
  8
0
100
AcDbMText
 62
2
  6
CONTINUOUS
  7
STANDARD
 71
1
 72
1
 10
5.95
 20
0.5625
 30
0.0
 11
1.0
 21
0.0
 31
0.0
 44
0.9
  1
DWG SIZE
 40
0.06
 41
0.768
  0
MTEXT
  5
248
100
AcDbEntity
  8
0
100
AcDbMText
 62
2
  6
CONTINUOUS
  7
STANDARD
 71
1
 72
1
 10
5.25
 20
0.5625
 30
0.0
 11
1.0
 21
0.0
 31
0.0
 44
0.9
  1
SCALE
 40
0.06
 41
0.48
  0
MTEXT
  5
249
100
AcDbEntity
  8
0
100
AcDbMText
 62
2
  6
CONTINUOUS
  7
STANDARD
 71
1
 72
1
 10
4.15
 20
0.5625
 30
0.0
 11
1.0
 21
0.0
 31
0.0
 44
0.9
  1
DATE
 40
0.06
 41
0.384
  0
MTEXT
  5
24A
100
AcDbEntity
  8
0
100
AcDbMText
 62
2
  6
CONTINUOUS
  7
STANDARD
 71
1
 72
1
 10
0.05
 20
0.5625
 30
0.0
 11
1.0
 21
0.0
 31
0.0
 44
0.9
  1
DESCRIPTION
 40
0.06
 41
1.056
  0
MTEXT
  5
24B
100
AcDbEntity
  8
0
100
AcDbMText
 62
2
  6
CONTINUOUS
  7
STANDARD
 71
2
 72
1
 10
5.45
 20
1.0375
 30
0.0
 11
1.0
 21
0.0
 31
0.0
 44
0.9
  1
ALL DIMENSIONS IN INCH\PVIEWS ARE THIRD ANGLE
 40
0.12
 41
4.224
  0
MTEXT
  5
24C
100
AcDbEntity
  8
0
100
AcDbMText
 62
2
  6
CONTINUOUS
  7
STANDARD
 71
2
 72
1
 10
2.05
 20
0.95
 30
0.0
 11
1.0
 21
0.0
 31
0.0
 44
0.9
  1
BMC
 40
0.125
 41
0.6
  0
MTEXT
  5
24D
100
AcDbEntity
  8
0
100
AcDbMText
 62
2
  6
CONTINUOUS
  7
STANDARD
 71
1
 72
1
 10
0.05
 20
1.1875
 30
0.0
 11
1.0
 21
0.0
 31
0.0
 44
0.9
  1
MODEL
 40
0.06
 41
0.48
  0
ENDBLK
  5
24E
100
AcDbEntity
  8
0
  6
BYBLOCK
 62
0
100
AcDbBlockEnd
  0
BLOCK
  5
24F
100
AcDbEntity
  8
0
100
AcDbBlockBegin
  2
*T2
 70
1
 10
0.0
 20
0.0
  3
*T2
  1

  0
LINE
  5
250
100
AcDbEntity
  8
0
100
AcDbLine
 62
2
  6
CONTINUOUS
 10
0.0
 20
0.0
 11
9.055
 21
0.0
  0
LINE
  5
251
100
AcDbEntity
  8
0
100
AcDbLine
 62
2
  6
CONTINUOUS
 10
0.0
 20
0.0
 11
0.0
 21
-2.594
  0
LINE
  5
252
100
AcDbEntity
  8
0
100
AcDbLine
 62
2
  6
CONTINUOUS
 10
0.0
 20
-0.344
 11
9.055
 21
-0.344
  0
LINE
  5
253
100
AcDbEntity
  8
0
100
AcDbLine
 62
2
  6
CONTINUOUS
 10
0.0
 20
-0.594
 11
9.055
 21
-0.594
  0
LINE
  5
254
100
AcDbEntity
  8
0
100
AcDbLine
 62
2
  6
CONTINUOUS
 10
0.0
 20
-0.844
 11
9.055
 21
-0.844
  0
LINE
  5
255
100
AcDbEntity
  8
0
100
AcDbLine
 62
2
  6
CONTINUOUS
 10
0.0
 20
-1.094
 11
9.055
 21
-1.094
  0
LINE
  5
256
100
AcDbEntity
  8
0
100
AcDbLine
 62
2
  6
CONTINUOUS
 10
0.0
 20
-1.344
 11
9.055
 21
-1.344
  0
LINE
  5
257
100
AcDbEntity
  8
0
100
AcDbLine
 62
2
  6
CONTINUOUS
 10
0.0
 20
-1.594
 11
9.055
 21
-1.594
  0
LINE
  5
258
100
AcDbEntity
  8
0
100
AcDbLine
 62
2
  6
CONTINUOUS
 10
0.0
 20
-1.844
 11
9.055
 21
-1.844
  0
LINE
  5
259
100
AcDbEntity
  8
0
100
AcDbLine
 62
2
  6
CONTINUOUS
 10
0.0
 20
-2.094
 11
9.055
 21
-2.094
  0
LINE
  5
25A
100
AcDbEntity
  8
0
100
AcDbLine
 62
2
  6
CONTINUOUS
 10
0.0
 20
-2.344
 11
9.055
 21
-2.344
  0
LINE
  5
25B
100
AcDbEntity
  8
0
100
AcDbLine
 62
2
  6
CONTINUOUS
 10
0.0
 20
-2.594
 11
9.055
 21
-2.594
  0
LINE
  5
25C
100
AcDbEntity
  8
0
100
AcDbLine
 62
2
  6
CONTINUOUS
 10
3.055
 20
0.0
 11
3.055
 21
-2.594
  0
LINE
  5
25D
100
AcDbEntity
  8
0
100
AcDbLine
 62
2
  6
CONTINUOUS
 10
9.055
 20
0.0
 11
9.055
 21
-2.594
  0
MTEXT
  5
25E
100
AcDbEntity
  8
0
100
AcDbMText
 62
2
  6
CONTINUOUS
  7
STANDARD
 71
2
 72
1
 10
1.5275
 20
-0.0995
 30
0.0
 11
1.0
 21
0.0
 31
0.0
 44
0.9
  1
Technical Data
 40
0.145
 41
3.248
  0
MTEXT
  5
25F
100
AcDbEntity
  8
0
100
AcDbMText
 62
2
  6
CONTINUOUS
  7
STANDARD
 71
2
 72
1
 10
4.555
 20
-0.0995
 30
0.0
 11
1.0
 21
0.0
 31
0.0
 44
0.9
  1
U.S. Units
 40
0.145
 41
2.32
  0
MTEXT
  5
260
100
AcDbEntity
  8
0
100
AcDbMText
 62
2
  6
CONTINUOUS
  7
STANDARD
 71
2
 72
1
 10
7.555
 20
-0.0995
 30
0.0
 11
1.0
 21
0.0
 31
0.0
 44
0.9
  1
Metric Units
 40
0.145
 41
2.784
  0
MTEXT
  5
261
100
AcDbEntity
  8
0
100
AcDbMText
 62
2
  6
CONTINUOUS
  7
STANDARD
 71
2
 72
1
 10
1.5275
 20
-0.4065
 30
0.0
 11
1.0
 21
0.0
 31
0.0
 44
0.9
  1
Cavity
 40
0.125
 41
1.2
  0
MTEXT
  5
262
100
AcDbEntity
  8
0
100
AcDbMText
 62
2
  6
CONTINUOUS
  7
STANDARD
 71
2
 72
1
 10
6.055
 20
-0.4065
 30
0.0
 11
1.0
 21
0.0
 31
0.0
 44
0.9
  1
T-2A
 40
0.125
 41
0.8
  0
MTEXT
  5
263
100
AcDbEntity
  8
0
100
AcDbMText
 62
2
  6
CONTINUOUS
  7
STANDARD
 71
2
 72
1
 10
1.5275
 20
-0.6565
 30
0.0
 11
1.0
 21
0.0
 31
0.0
 44
0.9
  1
Body Features
 40
0.125
 41
2.6
  0
MTEXT
  5
264
100
AcDbEntity
  8
0
100
AcDbMText
 62
2
  6
CONTINUOUS
  7
STANDARD
 71
2
 72
1
 10
6.055
 20
-0.6565
 30
0.0
 11
1.0
 21
0.0
 31
0.0
 44
0.9
  1
Cushion lock
 40
0.125
 41
2.4
  0
MTEXT
  5
265
100
AcDbEntity
  8
0
100
AcDbMText
 62
2
  6
CONTINUOUS
  7
STANDARD
 71
2
 72
1
 10
1.5275
 20
-0.9065
 30
0.0
 11
1.0
 21
0.0
 31
0.0
 44
0.9
  1
Body Type
 40
0.125
 41
1.8
  0
MTEXT
  5
266
100
AcDbEntity
  8
0
100
AcDbMText
 62
2
  6
CONTINUOUS
  7
STANDARD
 71
2
 72
1
 10
6.055
 20
-0.9065
 30
0.0
 11
1.0
 21
0.0
 31
0.0
 44
0.9
  1
Line mount
 40
0.125
 41
2.0
  0
MTEXT
  5
267
100
AcDbEntity
  8
0
100
AcDbMText
 62
2
  6
CONTINUOUS
  7
STANDARD
 71
2
 72
1
 10
1.5275
 20
-1.1565
 30
0.0
 11
1.0
 21
0.0
 31
0.0
 44
0.9
  1
Interface
 40
0.125
 41
1.8
  0
MTEXT
  5
268
100
AcDbEntity
  8
0
100
AcDbMText
 62
2
  6
CONTINUOUS
  7
STANDARD
 71
2
 72
1
 10
6.055
 20
-1.1565
 30
0.0
 11
1.0
 21
0.0
 31
0.0
 44
0.9
  1
None
 40
0.125
 41
0.8
  0
MTEXT
  5
269
100
AcDbEntity
  8
0
100
AcDbMText
 62
2
  6
CONTINUOUS
  7
STANDARD
 71
2
 72
1
 10
1.5275
 20
-1.4065
 30
0.0
 11
1.0
 21
0.0
 31
0.0
 44
0.9
  1
Open Cavity Quantity
 40
0.125
 41
4.0
  0
MTEXT
  5
26A
100
AcDbEntity
  8
0
100
AcDbMText
 62
2
  6
CONTINUOUS
  7
STANDARD
 71
2
 72
1
 10
6.055
 20
-1.4065
 30
0.0
 11
1.0
 21
0.0
 31
0.0
 44
0.9
  1
2
 40
0.125
 41
0.2
  0
MTEXT
  5
26B
100
AcDbEntity
  8
0
100
AcDbMText
 62
2
  6
CONTINUOUS
  7
STANDARD
 71
2
 72
1
 10
1.5275
 20
-1.6565
 30
0.0
 11
1.0
 21
0.0
 31
0.0
 44
0.9
  1
Weight
 40
0.125
 41
1.2
  0
MTEXT
  5
26C
100
AcDbEntity
  8
0
100
AcDbMText
 62
2
  6
CONTINUOUS
  7
STANDARD
 71
2
 72
1
 10
4.555
 20
-1.6565
 30
0.0
 11
1.0
 21
0.0
 31
0.0
 44
0.9
  1
4.039 lb.
 40
0.125
 41
1.8
  0
MTEXT
  5
26D
100
AcDbEntity
  8
0
100
AcDbMText
 62
2
  6
CONTINUOUS
  7
STANDARD
 71
2
 72
1
 10
7.555
 20
-1.6565
 30
0.0
 11
1.0
 21
0.0
 31
0.0
 44
0.9
  1
1,832 kg.
 40
0.125
 41
1.8
  0
MTEXT
  5
26E
100
AcDbEntity
  8
0
100
AcDbMText
 62
2
  6
CONTINUOUS
  7
STANDARD
 71
2
 72
1
 10
1.5275
 20
-1.9065
 30
0.0
 11
1.0
 21
0.0
 31
0.0
 44
0.9
  1
Mounting Hole Diameter
 40
0.125
 41
4.4
  0
MTEXT
  5
26F
100
AcDbEntity
  8
0
100
AcDbMText
 62
2
  6
CONTINUOUS
  7
STANDARD
 71
2
 72
1
 10
4.555
 20
-1.9065
 30
0.0
 11
1.0
 21
0.0
 31
0.0
 44
0.9
  1
.41 in.
 40
0.125
 41
1.4
  0
MTEXT
  5
270
100
AcDbEntity
  8
0
100
AcDbMText
 62
2
  6
CONTINUOUS
  7
STANDARD
 71
2
 72
1
 10
7.555
 20
-1.9065
 30
0.0
 11
1.0
 21
0.0
 31
0.0
 44
0.9
  1
10,4 mm
 40
0.125
 41
1.4
  0
MTEXT
  5
271
100
AcDbEntity
  8
0
100
AcDbMText
 62
2
  6
CONTINUOUS
  7
STANDARD
 71
2
 72
1
 10
1.5275
 20
-2.1565
 30
0.0
 11
1.0
 21
0.0
 31
0.0
 44
0.9
  1
Mounting Hole Depth
 40
0.125
 41
3.8
  0
MTEXT
  5
272
100
AcDbEntity
  8
0
100
AcDbMText
 62
2
  6
CONTINUOUS
  7
STANDARD
 71
2
 72
1
 10
6.055
 20
-2.1565
 30
0.0
 11
1.0
 21
0.0
 31
0.0
 44
0.9
  1
Through
 40
0.125
 41
1.4
  0
MTEXT
  5
273
100
AcDbEntity
  8
0
100
AcDbMText
 62
2
  6
CONTINUOUS
  7
STANDARD
 71
2
 72
1
 10
1.5275
 20
-2.4065
 30
0.0
 11
1.0
 21
0.0
 31
0.0
 44
0.9
  1
Mounting Hole Quantity
 40
0.125
 41
4.4
  0
MTEXT
  5
274
100
AcDbEntity
  8
0
100
AcDbMText
 62
2
  6
CONTINUOUS
  7
STANDARD
 71
2
 72
1
 10
6.055
 20
-2.4065
 30
0.0
 11
1.0
 21
0.0
 31
0.0
 44
0.9
  1
2
 40
0.125
 41
0.2
  0
ENDBLK
  5
275
100
AcDbEntity
  8
0
  6
BYBLOCK
 62
0
100
AcDbBlockEnd
  0
BLOCK
  5
276
100
AcDbEntity
  8
0
100
AcDbBlockBegin
  2
*T3
 70
1
 10
0.0
 20
0.0
  3
*T3
  1

  0
LINE
  5
277
100
AcDbEntity
  8
0
100
AcDbLine
 62
2
  6
CONTINUOUS
 10
0.0
 20
0.0
 11
4.6
 21
0.0
  0
LINE
  5
278
100
AcDbEntity
  8
0
100
AcDbLine
 62
2
  6
CONTINUOUS
 10
0.0
 20
0.0
 11
0.0
 21
-1.18775
  0
LINE
  5
279
100
AcDbEntity
  8
0
100
AcDbLine
 62
2
  6
CONTINUOUS
 10
0.0
 20
-0.34375
 11
4.6
 21
-0.34375
  0
LINE
  5
27A
100
AcDbEntity
  8
0
100
AcDbLine
 62
2
  6
CONTINUOUS
 10
0.0
 20
-0.68775
 11
4.6
 21
-0.68775
  0
LINE
  5
27B
100
AcDbEntity
  8
0
100
AcDbLine
 62
2
  6
CONTINUOUS
 10
0.0
 20
-0.93775
 11
4.6
 21
-0.93775
  0
LINE
  5
27C
100
AcDbEntity
  8
0
100
AcDbLine
 62
2
  6
CONTINUOUS
 10
0.0
 20
-1.18775
 11
4.6
 21
-1.18775
  0
LINE
  5
27D
100
AcDbEntity
  8
0
100
AcDbLine
 62
2
  6
CONTINUOUS
 10
1.3
 20
-0.34375
 11
1.3
 21
-1.18775
  0
LINE
  5
27E
100
AcDbEntity
  8
0
100
AcDbLine
 62
2
  6
CONTINUOUS
 10
3.3
 20
-0.34375
 11
3.3
 21
-1.18775
  0
LINE
  5
27F
100
AcDbEntity
  8
0
100
AcDbLine
 62
2
  6
CONTINUOUS
 10
4.6
 20
0.0
 11
4.6
 21
-1.18775
  0
MTEXT
  5
280
100
AcDbEntity
  8
0
100
AcDbMText
 62
2
  6
CONTINUOUS
  7
STANDARD
 71
2
 72
1
 10
2.3
 20
-0.099375
 30
0.0
 11
1.0
 21
0.0
 31
0.0
 44
0.9
  1
Port Headings
 40
0.145
 41
3.016
  0
MTEXT
  5
281
100
AcDbEntity
  8
0
100
AcDbMText
 62
2
  6
CONTINUOUS
  7
STANDARD
 71
2
 72
1
 10
0.65
 20
-0.44325
 30
0.0
 11
1.0
 21
0.0
 31
0.0
 44
0.9
  1
Product
 40
0.145
 41
1.624
  0
MTEXT
  5
282
100
AcDbEntity
  8
0
100
AcDbMText
 62
2
  6
CONTINUOUS
  7
STANDARD
 71
2
 72
1
 10
2.3
 20
-0.44325
 30
0.0
 11
1.0
 21
0.0
 31
0.0
 44
0.9
  1
Port
 40
0.145
 41
0.928
  0
MTEXT
  5
283
100
AcDbEntity
  8
0
100
AcDbMText
 62
2
  6
CONTINUOUS
  7
STANDARD
 71
2
 72
1
 10
3.95
 20
-0.44325
 30
0.0
 11
1.0
 21
0.0
 31
0.0
 44
0.9
  1
Size
 40
0.145
 41
0.928
  0
MTEXT
  5
284
100
AcDbEntity
  8
0
100
AcDbMText
 62
2
  6
CONTINUOUS
  7
STANDARD
 71
2
 72
1
 10
0.65
 20
-0.75025
 30
0.0
 11
1.0
 21
0.0
 31
0.0
 44
0.9
  1
BMC
 40
0.125
 41
0.6
  0
MTEXT
  5
285
100
AcDbEntity
  8
0
100
AcDbMText
 62
2
  6
CONTINUOUS
  7
STANDARD
 71
2
 72
1
 10
2.3
 20
-0.75025
 30
0.0
 11
1.0
 21
0.0
 31
0.0
 44
0.9
  1
Ports C1, C2, V1, V2
 40
0.125
 41
4.0
  0
MTEXT
  5
286
100
AcDbEntity
  8
0
100
AcDbMText
 62
2
  6
CONTINUOUS
  7
STANDARD
 71
2
 72
1
 10
3.95
 20
-0.75025
 30
0.0
 11
1.0
 21
0.0
 31
0.0
 44
0.9
  1
1/2" NPTF
 40
0.125
 41
1.8
  0
MTEXT
  5
287
100
AcDbEntity
  8
0
100
AcDbMText
 62
2
  6
CONTINUOUS
  7
STANDARD
 71
2
 72
1
 10
0.65
 20
-1.00025
 30
0.0
 11
1.0
 21
0.0
 31
0.0
 44
0.9
  1
BMC
 40
0.125
 41
0.6
  0
MTEXT
  5
288
100
AcDbEntity
  8
0
100
AcDbMText
 62
2
  6
CONTINUOUS
  7
STANDARD
 71
2
 72
1
 10
2.3
 20
-1.00025
 30
0.0
 11
1.0
 21
0.0
 31
0.0
 44
0.9
  1
Port T
 40
0.125
 41
1.2
  0
MTEXT
  5
289
100
AcDbEntity
  8
0
100
AcDbMText
 62
2
  6
CONTINUOUS
  7
STANDARD
 71
2
 72
1
 10
3.95
 20
-1.00025
 30
0.0
 11
1.0
 21
0.0
 31
0.0
 44
0.9
  1
1/2" NPTF
 40
0.125
 41
1.8
  0
ENDBLK
  5
28A
100
AcDbEntity
  8
0
  6
BYBLOCK
 62
0
100
AcDbBlockEnd
  0
ENDSEC
  0
SECTION
  2
ENTITIES
  0
IMAGE
  5
28B
100
AcDbEntity
  8
0
100
AcDbRasterImage
 62
7
  6
CONTINUOUS
 10
19.2297077316
 20
0.3094318264
 30
0.0
 11
0.0066666667
 21
0.0
 31
0.0
 12
0.0
 22
0.0066666667
 32
0.0
 13
369.0
 23
92.0
340
       3D9
 70
9
280
0
281
50
282
50
283
0
360
       3D3
 71
1
 91
2
 14
-0.5
 24
-0.5
 14
368.5
 24
91.5
  0
INSERT
  5
28C
100
AcDbEntity
  8
0
100
AcDbBlockReference
 62
2
  6
CONTINUOUS
  2
SUN_FIRST_THIRD_ANGLE_BL0
 10
20.4816717061
 20
1.2289683772
  0
ACAD_TABLE
  5
28D
100
AcDbEntity
  8
0
 62
2
  6
CONTINUOUS
100
AcDbBlockReference
  2
*T1
 10
12.42375
 20
0.30125
 30
0.0
100
AcDbTable
342
       3DB
343
20F
 11
1.0
 21
0.0
 31
0.0
 90
6
 91
4
 92
6
 93
20
 94
0
 95
0
 96
0
 70
1
 41
0.0
141
0.525
141
0.1
141
0.525
141
0.1
142
4.1
142
1.1
142
0.7
142
0.5
142
0.4
142
2.475
171
1
172
0
173
0
174
0
175
1
176
1
 91
33
178
0
145
0.0
301
CELL_VALUE
 90
4
  1
T-2A Line mount\PCushion lock
304
ACVALUE_END
170
2
140
0.125
171
1
172
0
173
0
174
0
175
1
176
1
 91
33
178
0
145
0.0
301
CELL_VALUE
 90
4
  1
Sep-27-22
304
ACVALUE_END
170
5
140
0.125
171
1
172
0
173
0
174
0
175
1
176
1
 91
33
178
0
145
0.0
301
CELL_VALUE
 90
4
  1
1.000
304
ACVALUE_END
170
5
140
0.125
171
1
172
0
173
0
174
0
175
1
176
1
 91
33
178
0
145
0.0
301
CELL_VALUE
 90
4
  1
C
304
ACVALUE_END
170
5
140
0.125
171
1
172
0
173
0
174
0
175
1
176
1
 91
33
178
0
145
0.0
301
CELL_VALUE
 90
4
  1
2
304
ACVALUE_END
170
5
140
0.125
171
1
172
0
173
0
174
0
175
1
176
1
 91
33
178
0
145
0.0
301
CELL_VALUE
 90
4
  1
 
304
ACVALUE_END
170
1
140
0.125
171
1
172
0
173
0
174
0
175
1
176
1
 91
33
178
0
145
0.0
301
CELL_VALUE
 90
4
  1
DESCRIPTION
304
ACVALUE_END
170
1
140
0.06
171
1
172
0
173
0
174
0
175
1
176
1
 91
33
178
0
145
0.0
301
CELL_VALUE
 90
4
  1
DATE
304
ACVALUE_END
170
1
140
0.06
171
1
172
0
173
0
174
0
175
1
176
1
 91
33
178
0
145
0.0
301
CELL_VALUE
 90
4
  1
SCALE
304
ACVALUE_END
170
1
140
0.06
171
1
172
0
173
0
174
0
175
1
176
1
 91
33
178
0
145
0.0
301
CELL_VALUE
 90
4
  1
DWG SIZE
304
ACVALUE_END
170
1
140
0.06
171
1
172
0
173
0
174
0
175
1
176
1
 91
33
178
0
145
0.0
301
CELL_VALUE
 90
4
  1
SHEET
304
ACVALUE_END
170
1
140
0.06
171
1
172
0
173
0
174
0
175
1
176
1
 91
33
178
0
145
0.0
301
CELL_VALUE
 90
4
  1
 
304
ACVALUE_END
170
1
140
0.125
171
1
172
0
173
0
174
0
175
1
176
1
 91
33
178
0
145
0.0
301
CELL_VALUE
 90
4
  1
BMC
304
ACVALUE_END
170
5
140
0.125
171
1
172
0
173
0
174
0
175
4
176
1
 91
33
178
0
145
0.0
301
CELL_VALUE
 90
4
  1
ALL DIMENSIONS IN INCH\PVIEWS ARE THIRD ANGLE
304
ACVALUE_END
170
5
140
0.12
171
1
172
0
173
1
174
0
175
1
176
1
 91
1
178
0
145
0.0
170
1
171
1
172
0
173
1
174
0
175
1
176
1
 91
1
178
0
145
0.0
170
1
171
1
172
0
173
1
174
0
175
1
176
1
 91
1
178
0
145
0.0
170
5
171
1
172
0
173
0
174
0
175
1
176
1
 91
33
178
0
145
0.0
301
CELL_VALUE
 90
4
  1
 
304
ACVALUE_END
170
1
140
0.125
171
1
172
0
173
0
174
0
175
1
176
1
 91
33
178
0
145
0.0
301
CELL_VALUE
 90
4
  1
MODEL
304
ACVALUE_END
170
1
140
0.06
171
1
172
0
173
0
174
0
175
1
176
1
 91
33
178
0
145
0.0
301
CELL_VALUE
 90
4
  1
 
304
ACVALUE_END
170
1
140
0.125
171
1
172
0
173
0
174
0
175
1
176
1
 91
33
178
0
145
0.0
301
CELL_VALUE
 90
4
  1
 
304
ACVALUE_END
170
1
140
0.125
171
1
172
0
173
0
174
0
175
1
176
1
 91
33
178
0
145
0.0
301
CELL_VALUE
 90
4
  1
 
304
ACVALUE_END
170
1
140
0.125
171
1
172
0
173
0
174
0
175
1
176
1
 91
33
178
0
145
0.0
301
CELL_VALUE
 90
4
  1
 
304
ACVALUE_END
170
1
140
0.125
171
1
172
0
173
0
174
0
175
1
176
1
 91
33
178
0
145
0.0
301
CELL_VALUE
 90
4
  1
 
304
ACVALUE_END
170
1
140
0.125
  0
ACAD_TABLE
  5
28E
100
AcDbEntity
  8
0
 62
2
  6
CONTINUOUS
100
AcDbBlockReference
  2
*T2
 10
12.4237499994
 20
16.47875
 30
0.0
100
AcDbTable
342
       3DA
343
210
 11
1.0
 21
0.0
 31
0.0
 90
22
 91
10
 92
3
 93
16
 94
0
 95
0
 96
0
 41
0.028
141
0.344
141
0.25
141
0.25
141
0.25
141
0.25
141
0.25
141
0.25
141
0.25
141
0.25
141
0.25
142
3.055
142
3.0
142
3.0
171
1
172
0
173
0
174
0
175
1
176
1
 91
33
178
0
145
0.0
301
CELL_VALUE
 90
4
  1
Technical Data
304
ACVALUE_END
170
5
140
0.145
171
1
172
0
173
0
174
0
175
1
176
1
 91
33
178
0
145
0.0
301
CELL_VALUE
 90
4
  1
U.S. Units
304
ACVALUE_END
170
5
140
0.145
171
1
172
0
173
0
174
0
175
1
176
1
 91
33
178
0
145
0.0
301
CELL_VALUE
 90
4
  1
Metric Units
304
ACVALUE_END
170
5
140
0.145
171
1
172
0
173
0
174
0
175
1
176
1
 91
33
178
0
145
0.0
301
CELL_VALUE
 90
4
  1
Cavity
304
ACVALUE_END
170
5
140
0.125
171
1
172
0
173
0
174
0
175
2
176
1
 91
33
178
0
145
0.0
301
CELL_VALUE
 90
4
  1
T-2A
304
ACVALUE_END
170
5
140
0.125
171
1
172
0
173
1
174
0
175
1
176
1
 91
1
178
0
145
0.0
170
1
171
1
172
0
173
0
174
0
175
1
176
1
 91
33
178
0
145
0.0
301
CELL_VALUE
 90
4
  1
Body Features
304
ACVALUE_END
170
5
140
0.125
171
1
172
0
173
0
174
0
175
2
176
1
 91
33
178
0
145
0.0
301
CELL_VALUE
 90
4
  1
Cushion lock
304
ACVALUE_END
170
5
140
0.125
171
1
172
0
173
1
174
0
175
1
176
1
 91
1
178
0
145
0.0
170
1
171
1
172
0
173
0
174
0
175
1
176
1
 91
33
178
0
145
0.0
301
CELL_VALUE
 90
4
  1
Body Type
304
ACVALUE_END
170
5
140
0.125
171
1
172
0
173
0
174
0
175
2
176
1
 91
33
178
0
145
0.0
301
CELL_VALUE
 90
4
  1
Line mount
304
ACVALUE_END
170
5
140
0.125
171
1
172
0
173
1
174
0
175
1
176
1
 91
1
178
0
145
0.0
170
1
171
1
172
0
173
0
174
0
175
1
176
1
 91
33
178
0
145
0.0
301
CELL_VALUE
 90
4
  1
Interface
304
ACVALUE_END
170
5
140
0.125
171
1
172
0
173
0
174
0
175
2
176
1
 91
33
178
0
145
0.0
301
CELL_VALUE
 90
4
  1
None
304
ACVALUE_END
170
5
140
0.125
171
1
172
0
173
1
174
0
175
1
176
1
 91
1
178
0
145
0.0
170
1
171
1
172
0
173
0
174
0
175
1
176
1
 91
33
178
0
145
0.0
301
CELL_VALUE
 90
4
  1
Open Cavity Quantity
304
ACVALUE_END
170
5
140
0.125
171
1
172
0
173
0
174
0
175
2
176
1
 91
33
178
0
145
0.0
301
CELL_VALUE
 90
4
  1
2
304
ACVALUE_END
170
5
140
0.125
171
1
172
0
173
1
174
0
175
1
176
1
 91
1
178
0
145
0.0
170
1
171
1
172
0
173
0
174
0
175
1
176
1
 91
33
178
0
145
0.0
301
CELL_VALUE
 90
4
  1
Weight
304
ACVALUE_END
170
5
140
0.125
171
1
172
0
173
0
174
0
175
1
176
1
 91
33
178
0
145
0.0
301
CELL_VALUE
 90
4
  1
4.039 lb.
304
ACVALUE_END
170
5
140
0.125
171
1
172
0
173
0
174
0
175
1
176
1
 91
33
178
0
145
0.0
301
CELL_VALUE
 90
4
  1
1,832 kg.
304
ACVALUE_END
170
5
140
0.125
171
1
172
0
173
0
174
0
175
1
176
1
 91
33
178
0
145
0.0
301
CELL_VALUE
 90
4
  1
Mounting Hole Diameter
304
ACVALUE_END
170
5
140
0.125
171
1
172
0
173
0
174
0
175
1
176
1
 91
33
178
0
145
0.0
301
CELL_VALUE
 90
4
  1
.41 in.
304
ACVALUE_END
170
5
140
0.125
171
1
172
0
173
0
174
0
175
1
176
1
 91
33
178
0
145
0.0
301
CELL_VALUE
 90
4
  1
10,4 mm
304
ACVALUE_END
170
5
140
0.125
171
1
172
0
173
0
174
0
175
1
176
1
 91
33
178
0
145
0.0
301
CELL_VALUE
 90
4
  1
Mounting Hole Depth
304
ACVALUE_END
170
5
140
0.125
171
1
172
0
173
0
174
0
175
2
176
1
 91
33
178
0
145
0.0
301
CELL_VALUE
 90
4
  1
Through
304
ACVALUE_END
170
5
140
0.125
171
1
172
0
173
1
174
0
175
1
176
1
 91
1
178
0
145
0.0
170
1
171
1
172
0
173
0
174
0
175
1
176
1
 91
33
178
0
145
0.0
301
CELL_VALUE
 90
4
  1
Mounting Hole Quantity
304
ACVALUE_END
170
5
140
0.125
171
1
172
0
173
0
174
0
175
2
176
1
 91
33
178
0
145
0.0
301
CELL_VALUE
 90
4
  1
2
304
ACVALUE_END
170
5
140
0.125
171
1
172
0
173
1
174
0
175
1
176
1
 91
1
178
0
145
0.0
170
1
  0
ACAD_TABLE
  5
28F
100
AcDbEntity
  8
0
 62
2
  6
CONTINUOUS
100
AcDbBlockReference
  2
*T3
 10
0.52125
 20
1.709
 30
0.0
100
AcDbTable
342
       3DA
343
211
 11
1.0
 21
0.0
 31
0.0
 90
22
 91
4
 92
3
 93
16
 94
0
 95
0
 96
0
 41
0.05
141
0.34375
141
0.344
141
0.25
141
0.25
142
1.3
142
2.0
142
1.3
171
1
172
0
173
0
174
0
175
3
176
1
 91
33
178
0
145
0.0
301
CELL_VALUE
 90
4
  1
Port Headings
304
ACVALUE_END
170
5
140
0.145
171
1
172
0
173
1
174
0
175
1
176
1
 91
1
178
0
145
0.0
170
1
171
1
172
0
173
1
174
0
175
1
176
1
 91
1
178
0
145
0.0
170
1
171
1
172
0
173
0
174
0
175
1
176
1
 91
33
178
0
145
0.0
301
CELL_VALUE
 90
4
  1
Product
304
ACVALUE_END
170
5
140
0.145
171
1
172
0
173
0
174
0
175
1
176
1
 91
33
178
0
145
0.0
301
CELL_VALUE
 90
4
  1
Port
304
ACVALUE_END
170
5
140
0.145
171
1
172
0
173
0
174
0
175
1
176
1
 91
33
178
0
145
0.0
301
CELL_VALUE
 90
4
  1
Size
304
ACVALUE_END
170
5
140
0.145
171
1
172
0
173
0
174
0
175
1
176
1
 91
33
178
0
145
0.0
301
CELL_VALUE
 90
4
  1
BMC
304
ACVALUE_END
170
5
140
0.125
171
1
172
0
173
0
174
0
175
1
176
1
 91
33
178
0
145
0.0
301
CELL_VALUE
 90
4
  1
Ports C1, C2, V1, V2
304
ACVALUE_END
170
5
140
0.125
171
1
172
0
173
0
174
0
175
1
176
1
 91
33
178
0
145
0.0
301
CELL_VALUE
 90
4
  1
1/2" NPTF
304
ACVALUE_END
170
5
140
0.125
171
1
172
0
173
0
174
0
175
1
176
1
 91
33
178
0
145
0.0
301
CELL_VALUE
 90
4
  1
BMC
304
ACVALUE_END
170
5
140
0.125
171
1
172
0
173
0
174
0
175
1
176
1
 91
33
178
0
145
0.0
301
CELL_VALUE
 90
4
  1
Port T
304
ACVALUE_END
170
5
140
0.125
171
1
172
0
173
0
174
0
175
1
176
1
 91
33
178
0
145
0.0
301
CELL_VALUE
 90
4
  1
1/2" NPTF
304
ACVALUE_END
170
5
140
0.125
  0
MTEXT
  5
290
100
AcDbEntity
  8
0
100
AcDbMText
 62
2
  6
CONTINUOUS
  7
STANDARD
 71
1
 72
1
 10
0.52125
 20
5.75995
 30
0.0
 11
1.0
 21
0.0
 31
0.0
 44
0.6
  3
Notes\P \P1. Important: Carefully consider\P   the maximum system pressure. The\P   pressure rating of the manifold is\P   dependent on the manifold material,\P   with the port type/size a secondary\P   consideration. Manifolds\P   constructed of alu
  1
minum are not\P   rated for pressures higher than\P   3000 psi (210 bar), regardless of\P   the port type/size specified.
 40
0.1
 41
3.04
  0
LINE
  5
291
100
AcDbEntity
  8
0
100
AcDbLine
 62
7
  6
CONTINUOUS
 10
0.30125
 20
0.30125
 11
0.30125
 21
16.69875
  0
LINE
  5
292
100
AcDbEntity
  8
0
100
AcDbLine
 62
7
  6
CONTINUOUS
 10
0.30125
 20
0.30125
 11
21.69875
 21
0.30125
  0
LINE
  5
293
100
AcDbEntity
  8
0
100
AcDbLine
 62
7
  6
CONTINUOUS
 10
0.30125
 20
16.69875
 11
21.69875
 21
16.69875
  0
LINE
  5
294
100
AcDbEntity
  8
0
100
AcDbLine
 62
7
  6
CONTINUOUS
 10
21.69875
 20
0.30125
 11
21.69875
 21
16.69875
  0
LINE
  5
295
100
AcDbEntity
  8
0
100
AcDbLine
 62
7
  6
CONTINUOUS
 10
9.9797389406
 20
11.042459385
 11
10.0104129546
 21
11.0576117606
  0
LINE
  5
296
100
AcDbEntity
  8
0
100
AcDbLine
 62
7
  6
CONTINUOUS
 10
9.0334735117
 20
6.066567696
 11
11.9312511623
 21
5.8656061334
  0
LINE
  5
297
100
AcDbEntity
  8
0
100
AcDbLine
 62
7
  6
CONTINUOUS
 10
9.9153750745
 20
10.5406413055
 11
9.0334735117
 21
9.6887897593
  0
LINE
  5
298
100
AcDbEntity
  8
0
100
AcDbLine
 62
7
  6
CONTINUOUS
 10
9.0334735117
 20
9.6887897593
 11
9.0334735117
 21
6.066567696
  0
LINE
  5
299
100
AcDbEntity
  8
0
100
AcDbLine
 62
7
  6
CONTINUOUS
 10
11.4286277659
 20
10.9419786037
 11
11.4593017799
 21
10.9571309793
  0
LINE
  5
29A
100
AcDbEntity
  8
0
100
AcDbLine
 62
7
  6
CONTINUOUS
 10
10.9785728782
 20
10.444325627
 11
11.0243051893
 21
10.466916513
  0
LINE
  5
29B
100
AcDbEntity
  8
0
100
AcDbLine
 62
7
  6
CONTINUOUS
 10
9.8829947881
 20
10.5979370685
 11
9.8829947881
 21
10.9823405098
  0
LINE
  5
29C
100
AcDbEntity
  8
0
100
AcDbLine
 62
4
  6
CONTINUOUS
 10
9.7796512562
 20
8.2055399968
 11
9.8158734761
 21
8.0871168739
  0
LINE
  5
29D
100
AcDbEntity
  8
0
100
AcDbLine
 62
4
  6
CONTINUOUS
 10
9.9607623554
 20
8.1736613799
 11
9.9607623554
 21
8.1543428672
  0
LINE
  5
29E
100
AcDbEntity
  8
0
100
AcDbLine
 62
7
  6
CONTINUOUS
 10
9.9640220649
 20
10.3456255239
 11
9.9640220649
 21
10.480128915
  0
LINE
  5
29F
100
AcDbEntity
  8
0
100
AcDbLine
 62
7
  6
CONTINUOUS
 10
10.0344147276
 20
10.4516768884
 11
10.0344147276
 21
10.8360803297
  0
LINE
  5
2A0
100
AcDbEntity
  8
0
100
AcDbLine
 62
7
  6
CONTINUOUS
 10
10.0738875055
 20
10.4414605947
 11
10.0738875055
 21
10.825864036
  0
LINE
  5
2A1
100
AcDbEntity
  8
0
100
AcDbLine
 62
4
  6
CONTINUOUS
 10
9.9100512476
 20
8.1095633991
 11
9.9028068036
 21
8.0810880271
  0
LINE
  5
2A2
100
AcDbEntity
  8
0
100
AcDbLine
 62
4
  6
CONTINUOUS
 10
9.8158734761
 20
8.0871168739
 11
9.8520956959
 21
8.2005159578
  0
LINE
  5
2A3
100
AcDbEntity
  8
0
100
AcDbLine
 62
7
  6
CONTINUOUS
 10
12.4274617035
 20
10.3438448457
 11
12.4731940146
 21
10.3664357317
  0
LINE
  5
2A4
100
AcDbEntity
  8
0
100
AcDbLine
 62
4
  6
CONTINUOUS
 10
9.9390290235
 20
8.1944871111
 11
9.9535179114
 21
8.183823047
  0
LINE
  5
2A5
100
AcDbEntity
  8
0
100
AcDbLine
 62
4
  6
CONTINUOUS
 10
9.9535179114
 20
8.183823047
 11
9.9607623554
 21
8.1736613799
  0
LINE
  5
2A6
100
AcDbEntity
  8
0
100
AcDbLine
 62
4
  6
CONTINUOUS
 10
9.9028068036
 20
8.177680611
 11
9.9100512476
 21
8.1868374704
  0
LINE
  5
2A7
100
AcDbEntity
  8
0
100
AcDbLine
 62
4
  6
CONTINUOUS
 10
9.9245401355
 20
8.1278771074
 11
9.9100512476
 21
8.1095633991
  0
LINE
  5
2A8
100
AcDbEntity
  8
0
100
AcDbLine
 62
4
  6
CONTINUOUS
 10
9.9607623554
 20
8.1543428672
 11
9.9535179114
 21
8.1451860079
  0
LINE
  5
2A9
100
AcDbEntity
  8
0
100
AcDbLine
 62
4
  6
CONTINUOUS
 10
9.9028068036
 20
8.0810880271
 11
9.9607623554
 21
8.077068796
  0
LINE
  5
2AA
100
AcDbEntity
  8
0
100
AcDbLine
 62
7
  6
CONTINUOUS
 10
10.6389939801
 20
10.4022703276
 11
10.6389939801
 21
10.7866737689
  0
LINE
  5
2AB
100
AcDbEntity
  8
0
100
AcDbLine
 62
7
  6
CONTINUOUS
 10
10.6929147823
 20
10.4060097545
 11
10.6929147823
 21
10.7904131958
  0
LINE
  5
2AC
100
AcDbEntity
  8
0
100
AcDbLine
 62
4
  6
CONTINUOUS
 10
9.9100512476
 20
8.1868374704
 11
9.9245401355
 21
8.1954919189
  0
LINE
  5
2AD
100
AcDbEntity
  8
0
100
AcDbLine
 62
4
  6
CONTINUOUS
 10
9.9535179114
 20
8.1451860079
 11
9.9245401355
 21
8.1278771074
  0
LINE
  5
2AE
100
AcDbEntity
  8
0
100
AcDbLine
 62
4
  6
CONTINUOUS
 10
9.9245401355
 20
8.1954919189
 11
9.9390290235
 21
8.1944871111
  0
LINE
  5
2AF
100
AcDbEntity
  8
0
100
AcDbLine
 62
7
  6
CONTINUOUS
 10
12.9665264883
 20
10.4878274306
 11
11.9312511623
 21
9.4878281966
  0
LINE
  5
2B0
100
AcDbEntity
  8
0
100
AcDbLine
 62
4
  6
CONTINUOUS
 10
11.1319475853
 20
8.1117579278
 11
11.1681698051
 21
7.9933348049
  0
LINE
  5
2B1
100
AcDbEntity
  8
0
100
AcDbLine
 62
7
  6
CONTINUOUS
 10
11.0400220649
 20
10.3456664588
 11
11.0400220649
 21
10.4751288256
  0
LINE
  5
2B2
100
AcDbEntity
  8
0
100
AcDbLine
 62
7
  6
CONTINUOUS
 10
11.1066013174
 20
10.5130796675
 11
11.1066013174
 21
10.8974831088
  0
LINE
  5
2B3
100
AcDbEntity
  8
0
100
AcDbLine
 62
7
  6
CONTINUOUS
 10
11.1210493418
 20
10.5270353882
 11
11.1210493418
 21
10.9114388295
  0
LINE
  5
2B4
100
AcDbEntity
  8
0
100
AcDbLine
 62
4
  6
CONTINUOUS
 10
12.4233766875
 20
8.2361095058
 11
12.4255951349
 21
8.2354925701
  0
LINE
  5
2B5
100
AcDbEntity
  8
0
100
AcDbLine
 62
4
  6
CONTINUOUS
 10
11.2840809085
 20
8.101207446
 11
11.2840809085
 21
7.9852963426
  0
LINE
  5
2B6
100
AcDbEntity
  8
0
100
AcDbLine
 62
7
  6
CONTINUOUS
 10
11.3318836134
 20
10.4974562872
 11
11.3318836134
 21
10.8818597285
  0
LINE
  5
2B7
100
AcDbEntity
  8
0
100
AcDbLine
 62
7
  6
CONTINUOUS
 10
11.4129108902
 20
10.2451447426
 11
11.4129108902
 21
10.3796481337
  0
LINE
  5
2B8
100
AcDbEntity
  8
0
100
AcDbLine
 62
4
  6
CONTINUOUS
 10
11.1681698051
 20
7.9933348049
 11
11.2043920249
 21
8.1067338889
  0
LINE
  5
2B9
100
AcDbEntity
  8
0
100
AcDbLine
 62
4
  6
CONTINUOUS
 10
12.5919786607
 20
8.6578346479
 11
12.5831048766
 21
8.6547828062
  0
LINE
  5
2BA
100
AcDbEntity
  8
0
100
AcDbLine
 62
4
  6
CONTINUOUS
 10
12.3198491592
 20
7.8148702433
 11
12.3316808771
 21
7.8042205001
  0
LINE
  5
2BB
100
AcDbEntity
  8
0
100
AcDbLine
 62
7
  6
CONTINUOUS
 10
11.4833035529
 20
10.3511961071
 11
11.4833035529
 21
10.7355995484
  0
LINE
  5
2BC
100
AcDbEntity
  8
0
100
AcDbLine
 62
7
  6
CONTINUOUS
 10
11.5227763308
 20
10.3409798134
 11
11.5227763308
 21
10.7253832547
  0
LINE
  5
2BD
100
AcDbEntity
  8
0
100
AcDbLine
 62
4
  6
CONTINUOUS
 10
12.5660967784
 20
8.0748055001
 11
12.5779284955
 21
8.0641557542
  0
LINE
  5
2BE
100
AcDbEntity
  8
0
100
AcDbLine
 62
7
  6
CONTINUOUS
 10
11.9312511623
 20
9.4878281966
 11
11.9312511623
 21
5.8656061334
  0
LINE
  5
2BF
100
AcDbEntity
  8
0
100
AcDbLine
 62
7
  6
CONTINUOUS
 10
12.0878828054
 20
10.3017895463
 11
12.0878828054
 21
10.6861929876
  0
LINE
  5
2C0
100
AcDbEntity
  8
0
100
AcDbLine
 62
4
  6
CONTINUOUS
 10
12.3080174392
 20
8.4608232219
 11
12.3168912274
 21
8.4693946437
  0
LINE
  5
2C1
100
AcDbEntity
  8
0
100
AcDbLine
 62
4
  6
CONTINUOUS
 10
12.5490886845
 20
8.6936801776
 11
12.5498281641
 21
8.69439446
  0
LINE
  5
2C2
100
AcDbEntity
  8
0
100
AcDbLine
 62
4
  6
CONTINUOUS
 10
12.4958459652
 20
8.6091342008
 11
12.4847537277
 21
8.5984199215
  0
LINE
  5
2C3
100
AcDbEntity
  8
0
100
AcDbLine
 62
4
  6
CONTINUOUS
 10
12.4011922141
 20
8.5177056926
 11
12.4122844516
 21
8.5284199719
  0
LINE
  5
2C4
100
AcDbEntity
  8
0
100
AcDbLine
 62
4
  6
CONTINUOUS
 10
12.4470401232
 20
8.5619913747
 11
12.4559139073
 21
8.5705627924
  0
LINE
  5
2C5
100
AcDbEntity
  8
0
100
AcDbLine
 62
4
  6
CONTINUOUS
 10
12.4647877062
 20
8.5791342245
 11
12.4736614902
 21
8.5877056422
  0
LINE
  5
2C6
100
AcDbEntity
  8
0
100
AcDbLine
 62
4
  6
CONTINUOUS
 10
12.5631388402
 20
8.6741341305
 11
12.5720126539
 21
8.6827055768
  0
LINE
  5
2C7
100
AcDbEntity
  8
0
100
AcDbLine
 62
4
  6
CONTINUOUS
 10
12.5831048766
 20
8.6934198418
 11
12.5919786607
 21
8.7019912596
  0
LINE
  5
2C8
100
AcDbEntity
  8
0
100
AcDbLine
 62
4
  6
CONTINUOUS
 10
12.4891906198
 20
8.5613088067
 11
12.4980644039
 21
8.5698802244
  0
LINE
  5
2C9
100
AcDbEntity
  8
0
100
AcDbLine
 62
4
  6
CONTINUOUS
 10
12.5720126539
 20
8.5999119295
 11
12.5631388402
 21
8.5913404832
  0
LINE
  5
2CA
100
AcDbEntity
  8
0
100
AcDbLine
 62
4
  6
CONTINUOUS
 10
12.5357780084
 20
8.5649119476
 11
12.5313411164
 21
8.5606262387
  0
LINE
  5
2CB
100
AcDbEntity
  8
0
100
AcDbLine
 62
4
  6
CONTINUOUS
 10
12.4980644039
 20
8.5284834008
 11
12.4891906198
 21
8.5199119831
  0
LINE
  5
2CC
100
AcDbEntity
  8
0
100
AcDbLine
 62
4
  6
CONTINUOUS
 10
12.4559139073
 20
8.4877691451
 11
12.4470401232
 21
8.4791977274
  0
LINE
  5
2CD
100
AcDbEntity
  8
0
100
AcDbLine
 62
4
  6
CONTINUOUS
 10
12.305798992
 20
8.342769263
 11
12.3146727805
 21
8.3513406849
  0
LINE
  5
2CE
100
AcDbEntity
  8
0
100
AcDbLine
 62
4
  6
CONTINUOUS
 10
12.332420356
 20
8.3684835275
 11
12.3390756996
 21
8.3749120962
  0
LINE
  5
2CF
100
AcDbEntity
  8
0
100
AcDbLine
 62
4
  6
CONTINUOUS
 10
12.5091566414
 20
8.5391976801
 11
12.5202488789
 21
8.5499119594
  0
LINE
  5
2D0
100
AcDbEntity
  8
0
100
AcDbLine
 62
4
  6
CONTINUOUS
 10
12.5831048766
 20
8.6106261945
 11
12.5919786607
 21
8.6191976123
  0
LINE
  5
2D1
100
AcDbEntity
  8
0
100
AcDbLine
 62
4
  6
CONTINUOUS
 10
12.4233766891
 20
8.4287427221
 11
12.4278135811
 21
8.433028431
  0
LINE
  5
2D2
100
AcDbEntity
  8
0
100
AcDbLine
 62
7
  6
CONTINUOUS
 10
9.0334735117
 20
9.6887897593
 11
11.9312511623
 21
9.4878281966
  0
LINE
  5
2D3
100
AcDbEntity
  8
0
100
AcDbLine
 62
4
  6
CONTINUOUS
 10
12.4470401232
 20
8.4791977274
 11
12.4426032312
 21
8.4831913835
  0
LINE
  5
2D4
100
AcDbEntity
  8
0
100
AcDbLine
 62
4
  6
CONTINUOUS
 10
12.4891906198
 20
8.5199119831
 11
12.4847537277
 21
8.5239056391
  0
LINE
  5
2D5
100
AcDbEntity
  8
0
100
AcDbLine
 62
4
  6
CONTINUOUS
 10
12.3486889704
 20
7.9089622792
 11
12.3531258643
 21
7.8966892618
  0
LINE
  5
2D6
100
AcDbEntity
  8
0
100
AcDbLine
 62
4
  6
CONTINUOUS
 10
12.3745708524
 20
7.9339622589
 11
12.3834446438
 21
7.8266225803
  0
LINE
  5
2D7
100
AcDbEntity
  8
0
100
AcDbLine
 62
7
  6
CONTINUOUS
 10
12.1418036076
 20
10.3055289732
 11
12.1418036076
 21
10.6899324145
  0
LINE
  5
2D8
100
AcDbEntity
  8
0
100
AcDbLine
 62
4
  6
CONTINUOUS
 10
12.3035805448
 20
8.4234200547
 11
12.3035805448
 21
8.4399787828
  0
LINE
  5
2D9
100
AcDbEntity
  8
0
100
AcDbLine
 62
4
  6
CONTINUOUS
 10
12.3191096743
 20
8.3721851254
 11
12.3191096743
 21
8.3887438552
  0
LINE
  5
2DA
100
AcDbEntity
  8
0
100
AcDbLine
 62
4
  6
CONTINUOUS
 10
12.3279834621
 20
8.4801089203
 11
12.3279834621
 21
8.3807565467
  0
LINE
  5
2DB
100
AcDbEntity
  8
0
100
AcDbLine
 62
4
  6
CONTINUOUS
 10
12.3375967366
 20
7.7823369
 11
12.3375967366
 21
7.8982480035
  0
LINE
  5
2DC
100
AcDbEntity
  8
0
100
AcDbLine
 62
4
  6
CONTINUOUS
 10
12.3435125917
 20
8.3957565349
 11
12.3435125917
 21
8.4951089085
  0
LINE
  5
2DD
100
AcDbEntity
  8
0
100
AcDbLine
 62
4
  6
CONTINUOUS
 10
12.3035805448
 20
8.4399787828
 11
12.3080174392
 21
8.4608232219
  0
LINE
  5
2DE
100
AcDbEntity
  8
0
100
AcDbLine
 62
4
  6
CONTINUOUS
 10
12.3146727805
 20
8.3513406849
 11
12.3191096743
 21
8.3721851254
  0
LINE
  5
2DF
100
AcDbEntity
  8
0
100
AcDbLine
 62
4
  6
CONTINUOUS
 10
12.3390756996
 20
8.3749120962
 11
12.3435125917
 21
8.3957565349
  0
LINE
  5
2E0
100
AcDbEntity
  8
0
100
AcDbLine
 62
4
  6
CONTINUOUS
 10
12.4426032312
 20
8.5494262983
 11
12.4470401232
 21
8.5619913747
  0
LINE
  5
2E1
100
AcDbEntity
  8
0
100
AcDbLine
 62
4
  6
CONTINUOUS
 10
12.4167213462
 20
8.2296809394
 11
12.4233766875
 21
8.2361095058
  0
LINE
  5
2E2
100
AcDbEntity
  8
0
100
AcDbLine
 62
4
  6
CONTINUOUS
 10
12.4721825226
 20
8.2832523252
 11
12.4810563104
 21
8.2918237465
  0
LINE
  5
2E3
100
AcDbEntity
  8
0
100
AcDbLine
 62
4
  6
CONTINUOUS
 10
12.4167213462
 20
8.1717253877
 11
12.4278135818
 21
8.1824396652
  0
LINE
  5
2E4
100
AcDbEntity
  8
0
100
AcDbLine
 62
4
  6
CONTINUOUS
 10
12.4810563104
 20
8.1759126431
 11
12.4721825226
 21
8.1673412218
  0
LINE
  5
2E5
100
AcDbEntity
  8
0
100
AcDbLine
 62
4
  6
CONTINUOUS
 10
12.4278135818
 20
8.1244841135
 11
12.4167213462
 21
8.113769836
  0
LINE
  5
2E6
100
AcDbEntity
  8
0
100
AcDbLine
 62
7
  6
CONTINUOUS
 10
10.0254712516
 20
10.444325627
 11
9.9911950595
 21
10.4612574096
  0
LINE
  5
2E7
100
AcDbEntity
  8
0
100
AcDbLine
 62
4
  6
CONTINUOUS
 10
12.4255951349
 20
8.2354925701
 11
12.4300320288
 21
8.2259793442
  0
LINE
  5
2E8
100
AcDbEntity
  8
0
100
AcDbLine
 62
4
  6
CONTINUOUS
 10
12.3191096743
 20
8.3887438552
 11
12.3035805448
 21
8.4234200547
  0
LINE
  5
2E9
100
AcDbEntity
  8
0
100
AcDbLine
 62
4
  6
CONTINUOUS
 10
12.3035805448
 20
8.3489057723
 11
12.305798992
 21
8.342769263
  0
LINE
  5
2EA
100
AcDbEntity
  8
0
100
AcDbLine
 62
4
  6
CONTINUOUS
 10
12.469964083
 20
7.9101939461
 11
12.465527191
 21
7.922466967
  0
LINE
  5
2EB
100
AcDbEntity
  8
0
100
AcDbLine
 62
4
  6
CONTINUOUS
 10
12.3279834621
 20
8.3807565467
 11
12.332420356
 21
8.3684835275
  0
LINE
  5
2EC
100
AcDbEntity
  8
0
100
AcDbLine
 62
4
  6
CONTINUOUS
 10
12.4958459557
 20
7.9351939168
 11
12.4914090637
 21
7.9474669378
  0
LINE
  5
2ED
100
AcDbEntity
  8
0
100
AcDbLine
 62
4
  6
CONTINUOUS
 10
12.3168912274
 20
8.4693946437
 11
12.3191096743
 21
8.4632581315
  0
LINE
  5
2EE
100
AcDbEntity
  8
0
100
AcDbLine
 62
4
  6
CONTINUOUS
 10
12.4278135818
 20
8.1824396652
 11
12.4322504757
 21
8.1701666478
  0
LINE
  5
2EF
100
AcDbEntity
  8
0
100
AcDbLine
 62
4
  6
CONTINUOUS
 10
12.5025013012
 20
8.0575335907
 11
12.5069381932
 21
8.0452605715
  0
LINE
  5
2F0
100
AcDbEntity
  8
0
100
AcDbLine
 62
4
  6
CONTINUOUS
 10
12.4721825226
 20
8.1673412218
 11
12.4677456305
 21
8.1796142427
  0
LINE
  5
2F1
100
AcDbEntity
  8
0
100
AcDbLine
 62
4
  6
CONTINUOUS
 10
12.5269042148
 20
8.0811049966
 11
12.5313411069
 21
8.0688319774
  0
LINE
  5
2F2
100
AcDbEntity
  8
0
100
AcDbLine
 62
4
  6
CONTINUOUS
 10
12.4122844516
 20
8.5284199719
 11
12.4145028976
 21
8.5222834589
  0
LINE
  5
2F3
100
AcDbEntity
  8
0
100
AcDbLine
 62
4
  6
CONTINUOUS
 10
12.3523863794
 20
8.5036803298
 11
12.367915509
 21
8.4027692145
  0
LINE
  5
2F4
100
AcDbEntity
  8
0
100
AcDbLine
 62
4
  6
CONTINUOUS
 10
12.4233766891
 20
8.5391342512
 11
12.4300320346
 21
8.4627691744
  0
LINE
  5
2F5
100
AcDbEntity
  8
0
100
AcDbLine
 62
4
  6
CONTINUOUS
 10
12.3523863794
 20
8.3877692264
 11
12.3523863794
 21
8.5036803298
  0
LINE
  5
2F6
100
AcDbEntity
  8
0
100
AcDbLine
 62
4
  6
CONTINUOUS
 10
12.3531258643
 20
7.8966892618
 11
12.3531258643
 21
7.8138956162
  0
LINE
  5
2F7
100
AcDbEntity
  8
0
100
AcDbLine
 62
4
  6
CONTINUOUS
 10
12.367915509
 20
8.4027692145
 11
12.367915509
 21
8.518680318
  0
LINE
  5
2F8
100
AcDbEntity
  8
0
100
AcDbLine
 62
4
  6
CONTINUOUS
 10
12.4011922194
 20
7.8437654229
 11
12.4011922194
 21
7.9596765264
  0
LINE
  5
2F9
100
AcDbEntity
  8
0
100
AcDbLine
 62
4
  6
CONTINUOUS
 10
12.4011922141
 20
8.4349120453
 11
12.4011922141
 21
8.5508231488
  0
LINE
  5
2FA
100
AcDbEntity
  8
0
100
AcDbLine
 62
4
  6
CONTINUOUS
 10
12.4145028976
 20
8.5222834589
 11
12.4145028976
 21
8.4477691791
  0
LINE
  5
2FB
100
AcDbEntity
  8
0
100
AcDbLine
 62
4
  6
CONTINUOUS
 10
12.4167213462
 20
8.113769836
 11
12.4167213462
 21
8.2296809394
  0
LINE
  5
2FC
100
AcDbEntity
  8
0
100
AcDbLine
 62
4
  6
CONTINUOUS
 10
12.418939795
 20
7.8609082655
 11
12.418939795
 21
7.976819369
  0
LINE
  5
2FD
100
AcDbEntity
  8
0
100
AcDbLine
 62
4
  6
CONTINUOUS
 10
12.4300320288
 20
8.2259793442
 11
12.4300320288
 21
8.2011412486
  0
LINE
  5
2FE
100
AcDbEntity
  8
0
100
AcDbLine
 62
4
  6
CONTINUOUS
 10
12.4322504757
 20
8.1701666478
 11
12.4322504757
 21
8.145328554
  0
LINE
  5
2FF
100
AcDbEntity
  8
0
100
AcDbLine
 62
4
  6
CONTINUOUS
 10
12.4411242635
 20
8.1373412455
 11
12.4411242635
 21
8.2532523489
  0
LINE
  5
300
100
AcDbEntity
  8
0
100
AcDbLine
 62
4
  6
CONTINUOUS
 10
12.4426032312
 20
8.4831913835
 11
12.4426032312
 21
8.5494262983
  0
LINE
  5
301
100
AcDbEntity
  8
0
100
AcDbLine
 62
4
  6
CONTINUOUS
 10
12.4559139073
 20
8.6036802486
 11
12.4559139073
 21
8.4877691451
  0
LINE
  5
302
100
AcDbEntity
  8
0
100
AcDbLine
 62
4
  6
CONTINUOUS
 10
12.4588718391
 20
8.2703951915
 11
12.4588718391
 21
8.1544840881
  0
LINE
  5
303
100
AcDbEntity
  8
0
100
AcDbLine
 62
4
  6
CONTINUOUS
 10
12.4647877062
 20
8.4963405772
 11
12.4647877062
 21
8.5791342245
  0
LINE
  5
304
100
AcDbEntity
  8
0
100
AcDbLine
 62
4
  6
CONTINUOUS
 10
12.465527191
 20
7.922466967
 11
12.465527191
 21
8.0052606126
  0
LINE
  5
305
100
AcDbEntity
  8
0
100
AcDbLine
 62
4
  6
CONTINUOUS
 10
12.4677456305
 20
8.1796142427
 11
12.4677456305
 21
8.2624078883
  0
LINE
  5
306
100
AcDbEntity
  8
0
100
AcDbLine
 62
4
  6
CONTINUOUS
 10
12.4751404493
 20
8.5808548395
 11
12.4751404493
 21
8.5642961115
  0
LINE
  5
307
100
AcDbEntity
  8
0
100
AcDbLine
 62
4
  6
CONTINUOUS
 10
12.4847537277
 20
8.5239056391
 11
12.4847537277
 21
8.5487437338
  0
LINE
  5
308
100
AcDbEntity
  8
0
100
AcDbLine
 62
7
  6
CONTINUOUS
 10
12.4889108902
 20
10.2451856774
 11
12.4889108902
 21
10.3746480443
  0
LINE
  5
309
100
AcDbEntity
  8
0
100
AcDbLine
 62
4
  6
CONTINUOUS
 10
12.4914090637
 20
7.9474669378
 11
12.4914090637
 21
8.0302605833
  0
LINE
  5
30A
100
AcDbEntity
  8
0
100
AcDbLine
 62
4
  6
CONTINUOUS
 10
12.4980644039
 20
8.5284834008
 11
12.4980644039
 21
8.59471832
  0
LINE
  5
30B
100
AcDbEntity
  8
0
100
AcDbLine
 62
4
  6
CONTINUOUS
 10
12.5069381879
 20
8.6198484658
 11
12.5069381879
 21
8.5453341834
  0
LINE
  5
30C
100
AcDbEntity
  8
0
100
AcDbLine
 62
4
  6
CONTINUOUS
 10
12.5069381932
 20
8.0452605715
 11
12.5069381932
 21
7.9624669259
  0
LINE
  5
30D
100
AcDbEntity
  8
0
100
AcDbLine
 62
4
  6
CONTINUOUS
 10
12.5158119773
 20
7.9544796139
 11
12.5158119773
 21
8.0703907173
  0
LINE
  5
30E
100
AcDbEntity
  8
0
100
AcDbLine
 62
4
  6
CONTINUOUS
 10
12.5202488789
 20
8.5499119594
 11
12.5202488789
 21
8.6327056067
  0
LINE
  5
30F
100
AcDbEntity
  8
0
100
AcDbLine
 62
4
  6
CONTINUOUS
 10
12.5291226629
 20
8.5667627421
 11
12.5291226629
 21
8.6743944806
  0
LINE
  5
310
100
AcDbEntity
  8
0
100
AcDbLine
 62
4
  6
CONTINUOUS
 10
12.5313411069
 20
8.0688319774
 11
12.5313411069
 21
7.9860383318
  0
LINE
  5
311
100
AcDbEntity
  8
0
100
AcDbLine
 62
4
  6
CONTINUOUS
 10
12.5439123183
 20
7.9816224605
 11
12.5439123183
 21
8.0975335639
  0
LINE
  5
312
100
AcDbEntity
  8
0
100
AcDbLine
 62
4
  6
CONTINUOUS
 10
12.5490886845
 20
8.5777690742
 11
12.5490886845
 21
8.6605627215
  0
LINE
  5
313
100
AcDbEntity
  8
0
100
AcDbLine
 62
4
  6
CONTINUOUS
 10
12.5490886845
 20
8.6854008101
 11
12.5490886845
 21
8.6936801776
  0
LINE
  5
314
100
AcDbEntity
  8
0
100
AcDbLine
 62
7
  6
CONTINUOUS
 10
12.5554901427
 20
10.4125988862
 11
12.5554901427
 21
10.7970023275
  0
LINE
  5
315
100
AcDbEntity
  8
0
100
AcDbLine
 62
4
  6
CONTINUOUS
 10
12.5609204016
 20
8.5974770008
 11
12.5609204016
 21
8.6637119157
  0
LINE
  5
316
100
AcDbEntity
  8
0
100
AcDbLine
 62
4
  6
CONTINUOUS
 10
12.3656970646
 20
7.8094797341
 11
12.3745708524
 21
7.9339622589
  0
LINE
  5
317
100
AcDbEntity
  8
0
100
AcDbLine
 62
4
  6
CONTINUOUS
 10
12.4278135811
 20
8.433028431
 11
12.4366873652
 21
8.5519913778
  0
LINE
  5
318
100
AcDbEntity
  8
0
100
AcDbLine
 62
4
  6
CONTINUOUS
 10
12.5498281641
 20
8.69439446
 11
12.5490886845
 21
8.6854008101
  0
LINE
  5
319
100
AcDbEntity
  8
0
100
AcDbLine
 62
4
  6
CONTINUOUS
 10
12.4499980513
 20
8.1955888544
 11
12.4588718391
 21
8.2703951915
  0
LINE
  5
31A
100
AcDbEntity
  8
0
100
AcDbLine
 62
4
  6
CONTINUOUS
 10
12.4300320288
 20
8.2011412486
 11
12.4255951349
 21
8.1802968099
  0
LINE
  5
31B
100
AcDbEntity
  8
0
100
AcDbLine
 62
4
  6
CONTINUOUS
 10
12.3531258643
 20
7.8138956162
 11
12.3486889704
 21
7.7930511758
  0
LINE
  5
31C
100
AcDbEntity
  8
0
100
AcDbLine
 62
4
  6
CONTINUOUS
 10
12.4322504757
 20
8.145328554
 11
12.4278135818
 21
8.1244841135
  0
LINE
  5
31D
100
AcDbEntity
  8
0
100
AcDbLine
 62
4
  6
CONTINUOUS
 10
12.4677456305
 20
8.2624078883
 11
12.4721825226
 21
8.2832523252
  0
LINE
  5
31E
100
AcDbEntity
  8
0
100
AcDbLine
 62
4
  6
CONTINUOUS
 10
12.5609204016
 20
8.6637119157
 11
12.5631388402
 21
8.6741341305
  0
LINE
  5
31F
100
AcDbEntity
  8
0
100
AcDbLine
 62
4
  6
CONTINUOUS
 10
12.580886438
 20
8.6829976271
 11
12.5831048766
 21
8.6934198418
  0
LINE
  5
320
100
AcDbEntity
  8
0
100
AcDbLine
 62
4
  6
CONTINUOUS
 10
12.5919786607
 20
8.6191976123
 11
12.5941970993
 21
8.6296198245
  0
LINE
  5
321
100
AcDbEntity
  8
0
100
AcDbLine
 62
4
  6
CONTINUOUS
 10
12.465527191
 20
8.0052606126
 11
12.469964083
 21
8.0261050495
  0
LINE
  5
322
100
AcDbEntity
  8
0
100
AcDbLine
 62
4
  6
CONTINUOUS
 10
12.4914090637
 20
8.0302605833
 11
12.4958459557
 21
8.0511050203
  0
LINE
  5
323
100
AcDbEntity
  8
0
100
AcDbLine
 62
4
  6
CONTINUOUS
 10
12.4847537277
 20
8.5487437338
 11
12.4891906198
 21
8.5613088067
  0
LINE
  5
324
100
AcDbEntity
  8
0
100
AcDbLine
 62
4
  6
CONTINUOUS
 10
12.3316808771
 20
7.8483771135
 11
12.3198491592
 21
7.8148702433
  0
LINE
  5
325
100
AcDbEntity
  8
0
100
AcDbLine
 62
4
  6
CONTINUOUS
 10
12.3375967366
 20
7.8982480035
 11
12.3486889704
 21
7.9089622792
  0
LINE
  5
326
100
AcDbEntity
  8
0
100
AcDbLine
 62
4
  6
CONTINUOUS
 10
12.3923184279
 20
7.9511051015
 11
12.4100660035
 21
7.9682479441
  0
LINE
  5
327
100
AcDbEntity
  8
0
100
AcDbLine
 62
4
  6
CONTINUOUS
 10
12.418939795
 20
7.976819369
 11
12.4322504785
 21
7.9896765027
  0
LINE
  5
328
100
AcDbEntity
  8
0
100
AcDbLine
 62
4
  6
CONTINUOUS
 10
12.469964083
 20
8.0261050495
 11
12.4788378671
 21
8.0346764672
  0
LINE
  5
329
100
AcDbEntity
  8
0
100
AcDbLine
 62
4
  6
CONTINUOUS
 10
12.4958459557
 20
8.0511050203
 11
12.5025013012
 21
8.0575335907
  0
LINE
  5
32A
100
AcDbEntity
  8
0
100
AcDbLine
 62
4
  6
CONTINUOUS
 10
12.5158119773
 20
8.0703907173
 11
12.5269042148
 21
8.0811049966
  0
LINE
  5
32B
100
AcDbEntity
  8
0
100
AcDbLine
 62
4
  6
CONTINUOUS
 10
12.5439123183
 20
8.0975335639
 11
12.5572229944
 21
8.1103906905
  0
LINE
  5
32C
100
AcDbEntity
  8
0
100
AcDbLine
 62
4
  6
CONTINUOUS
 10
12.5527861023
 20
8.0564287975
 11
12.5439123183
 21
8.0478573797
  0
LINE
  5
32D
100
AcDbEntity
  8
0
100
AcDbLine
 62
4
  6
CONTINUOUS
 10
12.4278135864
 20
7.9357146096
 11
12.418939795
 21
7.9271431847
  0
LINE
  5
32E
100
AcDbEntity
  8
0
100
AcDbLine
 62
4
  6
CONTINUOUS
 10
12.3686549938
 20
7.8454543342
 11
12.3804867109
 21
7.8568828959
  0
LINE
  5
32F
100
AcDbEntity
  8
0
100
AcDbLine
 62
4
  6
CONTINUOUS
 10
12.5269042148
 20
7.9651938932
 11
12.5158119773
 21
7.9544796139
  0
LINE
  5
330
100
AcDbEntity
  8
0
100
AcDbLine
 62
4
  6
CONTINUOUS
 10
12.5025013012
 20
7.9416224873
 11
12.4958459557
 21
7.9351939168
  0
LINE
  5
331
100
AcDbEntity
  8
0
100
AcDbLine
 62
4
  6
CONTINUOUS
 10
12.4788378671
 20
7.9187653638
 11
12.469964083
 21
7.9101939461
  0
LINE
  5
332
100
AcDbEntity
  8
0
100
AcDbLine
 62
4
  6
CONTINUOUS
 10
12.3486889704
 20
7.7930511758
 11
12.3375967366
 21
7.7823369
  0
LINE
  5
333
100
AcDbEntity
  8
0
100
AcDbLine
 62
4
  6
CONTINUOUS
 10
12.418939795
 20
7.8609082655
 11
12.4322504785
 21
7.8737653993
  0
LINE
  5
334
100
AcDbEntity
  8
0
100
AcDbLine
 62
4
  6
CONTINUOUS
 10
12.5439123183
 20
7.9816224605
 11
12.5572229944
 21
7.9944795871
  0
LINE
  5
335
100
AcDbEntity
  8
0
100
AcDbLine
 62
4
  6
CONTINUOUS
 10
12.5831048766
 20
8.6547828062
 11
12.580886438
 21
8.6581595349
  0
LINE
  5
336
100
AcDbEntity
  8
0
100
AcDbLine
 62
4
  6
CONTINUOUS
 10
12.5941970993
 20
8.6544579192
 11
12.5919786607
 21
8.6578346479
  0
LINE
  5
337
100
AcDbEntity
  8
0
100
AcDbLine
 62
4
  6
CONTINUOUS
 10
12.5069381879
 20
8.5453341834
 11
12.5091566414
 21
8.5391976801
  0
LINE
  5
338
100
AcDbEntity
  8
0
100
AcDbLine
 62
4
  6
CONTINUOUS
 10
12.5313411164
 20
8.5606262387
 11
12.5291226629
 21
8.5667627421
  0
LINE
  5
339
100
AcDbEntity
  8
0
100
AcDbLine
 62
4
  6
CONTINUOUS
 10
12.5631388402
 20
8.5913404832
 11
12.5609204016
 21
8.5974770008
  0
LINE
  5
33A
100
AcDbEntity
  8
0
100
AcDbLine
 62
4
  6
CONTINUOUS
 10
12.580886438
 20
8.6167627122
 11
12.5831048766
 21
8.6106261945
  0
LINE
  5
33B
100
AcDbEntity
  8
0
100
AcDbLine
 62
4
  6
CONTINUOUS
 10
12.4736614902
 20
8.5877056422
 11
12.4751404493
 21
8.5808548395
  0
LINE
  5
33C
100
AcDbEntity
  8
0
100
AcDbLine
 62
4
  6
CONTINUOUS
 10
12.4411242635
 20
8.2532523489
 11
12.4499980513
 21
8.1955888544
  0
LINE
  5
33D
100
AcDbEntity
  8
0
100
AcDbLine
 62
4
  6
CONTINUOUS
 10
12.4980644039
 20
8.59471832
 11
12.4958459652
 21
8.6091342008
  0
LINE
  5
33E
100
AcDbEntity
  8
0
100
AcDbLine
 62
7
  6
CONTINUOUS
 10
12.569938167
 20
10.4265546069
 11
12.569938167
 21
10.8109580482
  0
LINE
  5
33F
100
AcDbEntity
  8
0
100
AcDbLine
 62
4
  6
CONTINUOUS
 10
12.580886438
 20
8.6581595349
 11
12.580886438
 21
8.6829976271
  0
LINE
  5
340
100
AcDbEntity
  8
0
100
AcDbLine
 62
4
  6
CONTINUOUS
 10
12.5941970993
 20
8.6296198245
 11
12.5941970993
 21
8.6544579192
  0
LINE
  5
341
100
AcDbEntity
  8
0
100
AcDbLine
 62
4
  6
CONTINUOUS
 10
12.5069381932
 20
7.9624669259
 11
12.5025013012
 21
7.9416224873
  0
LINE
  5
342
100
AcDbEntity
  8
0
100
AcDbLine
 62
4
  6
CONTINUOUS
 10
12.5313411069
 20
7.9860383318
 11
12.5269042148
 21
7.9651938932
  0
LINE
  5
343
100
AcDbEntity
  8
0
100
AcDbLine
 62
4
  6
CONTINUOUS
 10
12.5779284955
 20
8.0641557542
 11
12.5660967784
 21
8.0306488867
  0
LINE
  5
344
100
AcDbEntity
  8
0
100
AcDbLine
 62
4
  6
CONTINUOUS
 10
12.5919786607
 20
8.7019912596
 11
12.5941970993
 21
8.6958547393
  0
LINE
  5
345
100
AcDbEntity
  8
0
100
AcDbLine
 62
7
  6
CONTINUOUS
 10
12.9665264883
 20
6.8656053674
 11
12.9665264883
 21
10.4878274306
  0
LINE
  5
346
100
AcDbEntity
  8
0
100
AcDbLine
 62
7
  6
CONTINUOUS
 10
11.4743600769
 20
10.3438448457
 11
11.4400838848
 21
10.3607766283
  0
LINE
  5
347
100
AcDbEntity
  8
0
100
AcDbLine
 62
7
  6
CONTINUOUS
 10
11.1210493418
 20
10.6158117054
 11
11.3318836134
 21
10.601190299
  0
LINE
  5
348
100
AcDbEntity
  8
0
100
AcDbLine
 62
7
  6
CONTINUOUS
 10
12.569938167
 20
10.5153309241
 11
12.9665264883
 21
10.4878274306
  0
LINE
  5
349
100
AcDbEntity
  8
0
100
AcDbLine
 62
7
  6
CONTINUOUS
 10
11.0128490703
 20
11.0481184884
 11
10.9936311753
 21
11.0576117606
  0
LINE
  5
34A
100
AcDbEntity
  8
0
100
AcDbLine
 62
7
  6
CONTINUOUS
 10
11.9312511623
 20
5.8656061334
 11
12.9665264883
 21
6.8656053674
  0
LINE
  5
34B
100
AcDbEntity
  8
0
100
AcDbLine
 62
7
  6
CONTINUOUS
 10
12.4617378956
 20
10.9476377071
 11
12.4425200006
 21
10.9571309793
  0
ARC
  5
34C
100
AcDbEntity
  8
0
100
AcDbCircle
 62
7
  6
CONTINUOUS
 10
10.5113761448
 20
12.6330865138
 40
2.234463508
100
AcDbArc
 50
273.2741391254
 51
274.6601229449
  0
ARC
  5
34D
100
AcDbEntity
  8
0
100
AcDbCircle
 62
7
  6
CONTINUOUS
 10
10.5113761448
 20
13.0174899551
 40
2.234463508
100
AcDbArc
 50
273.2741391254
 51
274.6601229449
  0
ARC
  5
34E
100
AcDbEntity
  8
0
100
AcDbCircle
 62
7
  6
CONTINUOUS
 10
11.9602649701
 20
12.5326057324
 40
2.234463508
100
AcDbArc
 50
273.2741391254
 51
274.6601229449
  0
ARC
  5
34F
100
AcDbEntity
  8
0
100
AcDbCircle
 62
7
  6
CONTINUOUS
 10
11.9602649701
 20
12.9170091738
 40
2.234463508
100
AcDbArc
 50
273.2741391254
 51
274.6601229449
  0
ARC
  5
350
100
AcDbEntity
  8
0
100
AcDbCircle
 62
7
  6
CONTINUOUS
 10
10.293087014
 20
11.3697473283
 40
0.9538158545
100
AcDbArc
 50
254.2644742826
 51
256.7139235525
  0
ARC
  5
351
100
AcDbEntity
  8
0
100
AcDbCircle
 62
7
  6
CONTINUOUS
 10
10.293087014
 20
11.7541507696
 40
0.9538158545
100
AcDbArc
 50
254.2644742826
 51
256.7139235525
  0
ARC
  5
352
100
AcDbEntity
  8
0
100
AcDbCircle
 62
7
  6
CONTINUOUS
 10
11.7419758392
 20
11.269266547
 40
0.9538158545
100
AcDbArc
 50
254.2644742826
 51
256.7139235525
  0
ARC
  5
353
100
AcDbEntity
  8
0
100
AcDbCircle
 62
7
  6
CONTINUOUS
 10
11.7419758392
 20
11.6536699883
 40
0.9538158545
100
AcDbArc
 50
254.2644742826
 51
256.7139235525
  0
ARC
  5
354
100
AcDbEntity
  8
0
100
AcDbCircle
 62
7
  6
CONTINUOUS
 10
11.7719502529
 20
7.61110695
 40
0.5456156927
100
AcDbArc
 50
174.0101732448
 51
180.0515018147
  0
ARC
  5
355
100
AcDbEntity
  8
0
100
AcDbCircle
 62
7
  6
CONTINUOUS
 10
10.2251889923
 20
7.712239867
 40
0.4466865324
100
AcDbArc
 50
172.7801711135
 51
180.0156558553
  0
ARC
  5
356
100
AcDbEntity
  8
0
100
AcDbCircle
 62
7
  6
CONTINUOUS
 10
11.6740778176
 20
7.6117590857
 40
0.4466865324
100
AcDbArc
 50
172.7801711135
 51
180.0156558553
  0
ARC
  5
357
100
AcDbEntity
  8
0
100
AcDbCircle
 62
7
  6
CONTINUOUS
 10
10.2339138269
 20
7.7176991259
 40
0.4186690187
100
AcDbArc
 50
173.5561295875
 51
180.0124447436
  0
ARC
  5
358
100
AcDbEntity
  8
0
100
AcDbCircle
 62
7
  6
CONTINUOUS
 10
11.6828026522
 20
7.6172183446
 40
0.4186690187
100
AcDbArc
 50
173.5561295875
 51
180.0124447436
  0
SPLINE
  5
359
100
AcDbEntity
  8
0
100
AcDbSpline
 62
7
  6
CONTINUOUS
 70
0
 71
3
 72
9
 73
5
 74
0
 42
0.0000001
 43
0.0000001
 44
0.0000000001
 40
0.0
 40
0.0
 40
0.0
 40
0.0
 40
0.4956216882
 40
1.0
 40
1.0
 40
1.0
 40
1.0
 10
11.0240977994
 20
10.4668141226
 30
0.0
 10
11.0381119366
 20
10.4737389647
 30
0.0
 10
11.0659847317
 20
10.4885361589
 30
0.0
 10
11.0930975678
 20
10.5046708141
 30
0.0
 10
11.1066013174
 20
10.5130796675
 30
0.0
  0
SPLINE
  5
35A
100
AcDbEntity
  8
0
100
AcDbSpline
 62
7
  6
CONTINUOUS
 70
0
 71
3
 72
9
 73
5
 74
0
 42
0.0000001
 43
0.0000001
 44
0.0000000001
 40
0.0
 40
0.0
 40
0.0
 40
0.0
 40
0.4956216882
 40
1.0
 40
1.0
 40
1.0
 40
1.0
 10
9.9799463305
 20
11.0425617754
 30
0.0
 10
9.9659321932
 20
11.0356369333
 30
0.0
 10
9.9380593981
 20
11.0208397391
 30
0.0
 10
9.9109465621
 20
11.0047050839
 30
0.0
 10
9.8974428124
 20
10.9962962305
 30
0.0
  0
SPLINE
  5
35B
100
AcDbEntity
  8
0
100
AcDbSpline
 62
7
  6
CONTINUOUS
 70
0
 71
3
 72
47
 73
43
 74
0
 42
0.0000001
 43
0.0000001
 44
0.0000000001
 40
0.0
 40
0.0
 40
0.0
 40
0.0
 40
0.0099875403
 40
0.0204477283
 40
0.031377153
 40
0.0427708365
 40
0.0546219042
 40
0.066922623
 40
0.0796642274
 40
0.0928364151
 40
0.1204273007
 40
0.1495986195
 40
0.1802409519
 40
0.2122340888
 40
0.2454492724
 40
0.2797501125
 40
0.3149932733
 40
0.3510301731
 40
0.3877075545
 40
0.424868394
 40
0.4623531211
 40
0.5000002041
 40
0.5376472772
 40
0.5751319828
 40
0.6122928115
 40
0.6489701916
 40
0.6850070832
 40
0.7202502161
 40
0.7545510164
 40
0.7877661686
 40
0.8197592835
 40
0.8504015909
 40
0.8795728653
 40
0.9071637058
 40
0.9203358718
 40
0.9330774483
 40
0.9453781298
 40
0.9572291666
 40
0.9686228485
 40
0.9795523166
 40
0.9900125362
 40
1.0
 40
1.0
 40
1.0
 40
1.0
 10
10.993634572
 20
11.0576100682
 30
0.0
 10
10.990644019
 20
11.0590873659
 30
0.0
 10
10.9844702978
 20
11.0620092865
 30
0.0
 10
10.9748680818
 20
11.0662086918
 30
0.0
 10
10.9647199098
 20
11.0703214757
 30
0.0
 10
10.954037459
 20
11.0743426671
 30
0.0
 10
10.9428330596
 20
11.0782679749
 30
0.0
 10
10.9311195275
 20
11.0820927013
 30
0.0
 10
10.9189102408
 20
11.0858122706
 30
0.0
 10
10.9017223763
 20
11.0907017929
 30
0.0
 10
10.8790920223
 20
11.0964972609
 30
0.0
 10
10.8506007027
 20
11.1028659236
 30
0.0
 10
10.8205006198
 20
11.1087214332
 30
0.0
 10
10.7889305844
 20
11.1140367591
 30
0.0
 10
10.7560358931
 20
11.1187869021
 30
0.0
 10
10.7219682069
 20
11.1229494195
 30
0.0
 10
10.6868847213
 20
11.126505133
 30
0.0
 10
10.6509473866
 20
11.1294372864
 30
0.0
 10
10.6143221179
 20
11.131732055
 30
0.0
 10
10.5771780734
 20
11.1333789857
 30
0.0
 10
10.539686835
 20
11.1343702057
 30
0.0
 10
10.5020215874
 20
11.1347010455
 30
0.0
 10
10.4643563471
 20
11.134370189
 30
0.0
 10
10.4268651232
 20
11.1333789529
 30
0.0
 10
10.3897210907
 20
11.1317320055
 30
0.0
 10
10.3530958298
 20
11.1294372208
 30
0.0
 10
10.3171585089
 20
11.1265050505
 30
0.0
 10
10.2820750503
 20
11.1229493225
 30
0.0
 10
10.2480073993
 20
11.1187867903
 30
0.0
 10
10.2151127413
 20
11.114036634
 30
0.0
 10
10.1835427351
 20
11.1087212923
 30
0.0
 10
10.1534426861
 20
11.1028657684
 30
0.0
 10
10.1249514078
 20
11.0964970961
 30
0.0
 10
10.1023210955
 20
11.0907016146
 30
0.0
 10
10.0851332666
 20
11.0858120828
 30
0.0
 10
10.0729240107
 20
11.0820925121
 30
0.0
 10
10.0612105101
 20
11.0782677929
 30
0.0
 10
10.0500061344
 20
11.0743424877
 30
0.0
 10
10.0393236864
 20
11.0703212779
 30
0.0
 10
10.0291755083
 20
11.0662084432
 30
0.0
 10
10.0195733099
 20
11.0620089995
 30
0.0
 10
10.0133996035
 20
11.0590870837
 30
0.0
 10
10.0104090691
 20
11.0576098059
 30
0.0
  0
SPLINE
  5
35C
100
AcDbEntity
  8
0
100
AcDbSpline
 62
7
  6
CONTINUOUS
 70
0
 71
3
 72
9
 73
5
 74
0
 42
0.0000001
 43
0.0000001
 44
0.0000000001
 40
0.0
 40
0.0
 40
0.0
 40
0.0
 40
0.257447327
 40
1.0
 40
1.0
 40
1.0
 40
1.0
 10
11.1066013174
 20
10.5130796675
 30
0.0
 10
11.1072950715
 20
10.5136483448
 30
0.0
 10
11.1099691312
 20
10.5158822588
 30
0.0
 10
11.112558122
 20
10.5182188087
 30
0.0
 10
11.1144190751
 20
10.5200163514
 30
0.0
  0
SPLINE
  5
35D
100
AcDbEntity
  8
0
100
AcDbSpline
 62
7
  6
CONTINUOUS
 70
0
 71
3
 72
9
 73
5
 74
0
 42
0.0000001
 43
0.0000001
 44
0.0000000001
 40
0.0
 40
0.0
 40
0.0
 40
0.0
 40
0.2426666479
 40
1.0
 40
1.0
 40
1.0
 40
1.0
 10
11.1210493418
 20
10.5270353882
 30
0.0
 10
11.1205417139
 20
10.5264416152
 30
0.0
 10
11.1184180181
 20
10.5240220308
 30
0.0
 10
11.1161726097
 20
10.5217101359
 30
0.0
 10
11.1144190751
 20
10.5200163514
 30
0.0
  0
SPLINE
  5
35E
100
AcDbEntity
  8
0
100
AcDbSpline
 62
7
  6
CONTINUOUS
 70
0
 71
3
 72
9
 73
5
 74
0
 42
0.0000001
 43
0.0000001
 44
0.0000000001
 40
0.0
 40
0.0
 40
0.0
 40
0.0
 40
0.2575156145
 40
1.0
 40
1.0
 40
1.0
 40
1.0
 10
9.8896250548
 20
10.9893595466
 30
0.0
 10
9.8890288064
 20
10.9887836149
 30
0.0
 10
9.886737919
 20
10.9865220178
 30
0.0
 10
9.8845479581
 20
10.9841572549
 30
0.0
 10
9.8829947881
 20
10.9823405098
 30
0.0
  0
SPLINE
  5
35F
100
AcDbEntity
  8
0
100
AcDbSpline
 62
7
  6
CONTINUOUS
 70
0
 71
3
 72
9
 73
5
 74
0
 42
0.0000001
 43
0.0000001
 44
0.0000000001
 40
0.0
 40
0.0
 40
0.0
 40
0.0
 40
0.257447327
 40
1.0
 40
1.0
 40
1.0
 40
1.0
 10
9.8974428124
 20
10.9962962305
 30
0.0
 10
9.8967490584
 20
10.9957275532
 30
0.0
 10
9.8940749987
 20
10.9934936392
 30
0.0
 10
9.8914860079
 20
10.9911570893
 30
0.0
 10
9.8896250548
 20
10.9893595466
 30
0.0
  0
SPLINE
  5
360
100
AcDbEntity
  8
0
100
AcDbSpline
 62
7
  6
CONTINUOUS
 70
0
 71
3
 72
23
 73
19
 74
0
 42
0.0000001
 43
0.0000001
 44
0.0000000001
 40
0.0
 40
0.0
 40
0.0
 40
0.0
 40
0.0811307299
 40
0.1602255783
 40
0.2371393132
 40
0.31173057
 40
0.3838653696
 40
0.453421182
 40
0.5202897277
 40
0.5843905181
 40
0.6456688439
 40
0.7041127545
 40
0.7597461544
 40
0.8126463244
 40
0.8629314094
 40
0.910773146
 40
0.9563796915
 40
1.0
 40
1.0
 40
1.0
 40
1.0
 10
9.8829947881
 20
10.5979370685
 30
0.0
 10
9.8851723197
 20
10.5936689356
 30
0.0
 10
9.8895314377
 20
10.5852695185
 30
0.0
 10
9.8961789302
 20
10.5729416793
 30
0.0
 10
9.9028555795
 20
10.5610705968
 30
0.0
 10
9.9095602965
 20
10.5496897432
 30
0.0
 10
9.9162921836
 20
10.5388327891
 30
0.0
 10
9.9230488506
 20
10.5285322409
 30
0.0
 10
9.9298287008
 20
10.5188198589
 30
0.0
 10
9.9366278694
 20
10.509723953
 30
0.0
 10
9.9434441135
 20
10.5012705505
 30
0.0
 10
9.9502723727
 20
10.4934797385
 30
0.0
 10
9.9571099133
 20
10.4863681661
 30
0.0
 10
9.9639510116
 20
10.4799445153
 30
0.0
 10
9.9707925613
 20
10.474213583
 30
0.0
 10
9.9776289503
 20
10.4691712965
 30
0.0
 10
9.9844562397
 20
10.4648102445
 30
0.0
 10
9.9890933635
 20
10.4622951481
 30
0.0
 10
9.9914032991
 20
10.4611545795
 30
0.0
  0
SPLINE
  5
361
100
AcDbEntity
  8
0
100
AcDbSpline
 62
7
  6
CONTINUOUS
 70
0
 71
3
 72
23
 73
19
 74
0
 42
0.0000001
 43
0.0000001
 44
0.0000000001
 40
0.0
 40
0.0
 40
0.0
 40
0.0
 40
0.0811307299
 40
0.1602255783
 40
0.2371393132
 40
0.31173057
 40
0.3838653696
 40
0.453421182
 40
0.5202897277
 40
0.5843905181
 40
0.6456688439
 40
0.7041127545
 40
0.7597461544
 40
0.8126463244
 40
0.8629314094
 40
0.910773146
 40
0.9563796915
 40
1.0
 40
1.0
 40
1.0
 40
1.0
 10
11.1210493418
 20
10.9114388295
 30
0.0
 10
11.1188718102
 20
10.9157069624
 30
0.0
 10
11.1145126921
 20
10.9241063795
 30
0.0
 10
11.1078651996
 20
10.9364342187
 30
0.0
 10
11.1011885503
 20
10.9483053012
 30
0.0
 10
11.0944838333
 20
10.9596861548
 30
0.0
 10
11.0877519462
 20
10.9705431089
 30
0.0
 10
11.0809952793
 20
10.9808436571
 30
0.0
 10
11.074215429
 20
10.9905560391
 30
0.0
 10
11.0674162605
 20
10.999651945
 30
0.0
 10
11.0606000163
 20
11.0081053475
 30
0.0
 10
11.0537717571
 20
11.0158961595
 30
0.0
 10
11.0469342166
 20
11.0230077319
 30
0.0
 10
11.0400931183
 20
11.0294313827
 30
0.0
 10
11.0332515685
 20
11.035162315
 30
0.0
 10
11.0264151796
 20
11.0402046015
 30
0.0
 10
11.0195878901
 20
11.0445656535
 30
0.0
 10
11.0149507664
 20
11.0470807499
 30
0.0
 10
11.0126408307
 20
11.0482213185
 30
0.0
  0
SPLINE
  5
362
100
AcDbEntity
  8
0
100
AcDbSpline
 62
7
  6
CONTINUOUS
 70
0
 71
3
 72
71
 73
67
 74
0
 42
0.0000001
 43
0.0000001
 44
0.0000000001
 40
0.0
 40
0.0
 40
0.0
 40
0.0
 40
0.0078484594
 40
0.0115252914
 40
0.0150503909
 40
0.0216951607
 40
0.0248528477
 40
0.0279249671
 40
0.0309332128
 40
0.0339008246
 40
0.0368520407
 40
0.0398115072
 40
0.0428036737
 40
0.0458521687
 40
0.0489791618
 40
0.0522050193
 40
0.0590205121
 40
0.0626448601
 40
0.0664289451
 40
0.0703831065
 40
0.0745161228
 40
0.0788351457
 40
0.0833459416
 40
0.0929593076
 40
0.1033847624
 40
0.1146355341
 40
0.1267157161
 40
0.1396206445
 40
0.1533400256
 40
0.1678573778
 40
0.1831523725
 40
0.1992001058
 40
0.2159727113
 40
0.2334389021
 40
0.251564872
 40
0.2703142876
 40
0.2896485529
 40
0.3095272434
 40
0.3299078824
 40
0.3507467036
 40
0.3719981359
 40
0.4155504597
 40
0.460180434
 40
0.5054896846
 40
0.5510718591
 40
0.5965174611
 40
0.6414185988
 40
0.6853737051
 40
0.7279923619
 40
0.7689002583
 40
0.7886021453
 40
0.8077458129
 40
0.8262916544
 40
0.8442015475
 40
0.8614402254
 40
0.8779744598
 40
0.8937742734
 40
0.9088125479
 40
0.9230660027
 40
0.9365154872
 40
0.9491464372
 40
0.9609501077
 40
0.9719246022
 40
0.9820778352
 40
0.9914268056
 40
1.0
 40
1.0
 40
1.0
 40
1.0
 10
9.9659331996
 20
11.0281240867
 30
0.0
 10
9.9636851031
 20
11.0259525921
 30
0.0
 10
9.9605278732
 20
11.0226049816
 30
0.0
 10
9.9568184625
 20
11.0178925868
 30
0.0
 10
9.9536886939
 20
11.0133495124
 30
0.0
 10
9.9511267179
 20
11.0086740525
 30
0.0
 10
9.9492291729
 20
11.0039054148
 30
0.0
 10
9.9481638467
 20
11.0003789768
 30
0.0
 10
9.9474342488
 20
10.9968452213
 30
0.0
 10
9.9470412089
 20
10.9933065889
 30
0.0
 10
9.9469850292
 20
10.9897659935
 30
0.0
 10
9.9472657843
 20
10.9862263316
 30
0.0
 10
9.9478833176
 20
10.9826904897
 30
0.0
 10
9.9488369909
 20
10.9791613246
 30
0.0
 10
9.9501253648
 20
10.9756410788
 30
0.0
 10
9.9523271693
 20
10.9708761996
 30
0.0
 10
9.9551831672
 20
10.9662175965
 30
0.0
 10
9.9585955633
 20
10.961693661
 30
0.0
 10
9.9615344112
 20
10.9582490535
 30
0.0
 10
9.9647977821
 20
10.9548254929
 30
0.0
 10
9.9683842021
 20
10.9514244556
 30
0.0
 10
9.9722913312
 20
10.9480477984
 30
0.0
 10
9.9780480617
 20
10.9434833632
 30
0.0
 10
9.9860626313
 20
10.9378678633
 30
0.0
 10
9.9967189166
 20
10.9313953947
 30
0.0
 10
10.0085856522
 20
10.9250656245
 30
0.0
 10
10.0216354085
 20
10.918894146
 30
0.0
 10
10.0358378793
 20
10.9128943451
 30
0.0
 10
10.0511599654
 20
10.9070814296
 30
0.0
 10
10.0675653316
 20
10.9014685063
 30
0.0
 10
10.0850151434
 20
10.8960698658
 30
0.0
 10
10.1034677167
 20
10.8908979617
 30
0.0
 10
10.1228789952
 20
10.8859658213
 30
0.0
 10
10.1432024475
 20
10.8812850668
 30
0.0
 10
10.1643893477
 20
10.8768672678
 30
0.0
 10
10.1863888113
 20
10.8727230711
 30
0.0
 10
10.2091479926
 20
10.8688624821
 30
0.0
 10
10.2326121681
 20
10.865295028
 30
0.0
 10
10.2567249087
 20
10.8620291074
 30
0.0
 10
10.2814282301
 20
10.8590729293
 30
0.0
 10
10.3153507458
 20
10.8555247326
 30
0.0
 10
10.3587896882
 20
10.8519303523
 30
0.0
 10
10.4118755887
 20
10.8489766186
 30
0.0
 10
10.4658282821
 20
10.8473774981
 30
0.0
 10
10.5201288236
 20
10.8471485533
 30
0.0
 10
10.5742553215
 20
10.8482920666
 30
0.0
 10
10.6276874307
 20
10.8507968075
 30
0.0
 10
10.6799118202
 20
10.8546381261
 30
0.0
 10
10.7304264004
 20
10.8597783745
 30
0.0
 10
10.771189295
 20
10.865167154
 30
0.0
 10
10.8025637845
 20
10.8701171667
 30
0.0
 10
10.8250757463
 20
10.8740735442
 30
0.0
 10
10.8468101237
 20
10.8783099565
 30
0.0
 10
10.8677147491
 20
10.8828167587
 30
0.0
 10
10.8877394408
 20
10.8875824888
 30
0.0
 10
10.9068361835
 20
10.892596015
 30
0.0
 10
10.9249592671
 20
10.8978448417
 30
0.0
 10
10.9420654068
 20
10.9033164322
 30
0.0
 10
10.9581138802
 20
10.9089975123
 30
0.0
 10
10.9730666707
 20
10.9148743357
 30
0.0
 10
10.98688838
 20
10.9209330329
 30
0.0
 10
10.9995469204
 20
10.9271586812
 30
0.0
 10
11.0110130378
 20
10.9335375622
 30
0.0
 10
11.0212615288
 20
10.9400554566
 30
0.0
 10
11.0302671671
 20
10.9466978083
 30
0.0
 10
11.0356552422
 20
10.9513962958
 30
0.0
 10
11.0381109303
 20
10.9537683085
 30
0.0
  0
SPLINE
  5
363
100
AcDbEntity
  8
0
100
AcDbSpline
 62
7
  6
CONTINUOUS
 70
0
 71
3
 72
28
 73
24
 74
0
 42
0.0000001
 43
0.0000001
 44
0.0000000001
 40
0.0
 40
0.0
 40
0.0
 40
0.0
 40
0.0679119338
 40
0.1310059334
 40
0.1898300509
 40
0.2451128907
 40
0.2717244024
 40
0.2978088965
 40
0.3235052839
 40
0.3489593586
 40
0.3743211516
 40
0.3997423533
 40
0.4253736392
 40
0.4513619957
 40
0.5049275163
 40
0.5614895859
 40
0.5911783875
 40
0.6219180812
 40
0.6868326907
 40
0.7567711825
 40
0.8321139397
 40
0.9131283559
 40
1.0
 40
1.0
 40
1.0
 40
1.0
 10
11.0381109303
 20
10.9537683085
 30
0.0
 10
11.0400255666
 20
10.9556177053
 30
0.0
 10
11.0435795561
 20
10.9593350882
 30
0.0
 10
11.0481907414
 20
10.9651913499
 30
0.0
 10
11.0518644944
 20
10.9711047776
 30
0.0
 10
11.0541630422
 20
10.9761394262
 30
0.0
 10
11.0554953643
 20
10.9801602658
 30
0.0
 10
11.0562428555
 20
10.98314387
 30
0.0
 10
11.0567501532
 20
10.9861315961
 30
0.0
 10
11.0570170879
 20
10.9891219749
 30
0.0
 10
11.057043515
 20
10.992113376
 30
0.0
 10
11.0568294311
 20
10.9951041399
 30
0.0
 10
11.0563748229
 20
10.9980927716
 30
0.0
 10
11.0554393397
 20
11.0021118972
 30
0.0
 10
11.053638988
 20
11.0071558831
 30
0.0
 10
11.0511007785
 20
11.0120306801
 30
0.0
 10
11.0486275333
 20
11.0158946562
 30
0.0
 10
11.0457477939
 20
11.0198782949
 30
0.0
 10
11.0415283871
 20
11.0248257437
 30
0.0
 10
11.0356304458
 20
11.0305919255
 30
0.0
 10
11.0288183366
 20
11.0362853814
 30
0.0
 10
11.021104382
 20
11.0418982427
 30
0.0
 10
11.0155633633
 20
11.0454553065
 30
0.0
 10
11.0126535261
 20
11.0472238821
 30
0.0
  0
SPLINE
  5
364
100
AcDbEntity
  8
0
100
AcDbSpline
 62
7
  6
CONTINUOUS
 70
0
 71
3
 72
9
 73
5
 74
0
 42
0.0000001
 43
0.0000001
 44
0.0000000001
 40
0.0
 40
0.0
 40
0.0
 40
0.0
 40
0.4848355238
 40
1.0
 40
1.0
 40
1.0
 40
1.0
 10
11.0126535261
 20
11.0472238821
 30
0.0
 10
11.0096600894
 20
11.0490432688
 30
0.0
 10
11.0033904365
 20
11.0526399909
 30
0.0
 10
10.9969717091
 20
11.0559615622
 30
0.0
 10
10.993634572
 20
11.0576100682
 30
0.0
  0
SPLINE
  5
365
100
AcDbEntity
  8
0
100
AcDbSpline
 62
7
  6
CONTINUOUS
 70
0
 71
3
 72
9
 73
5
 74
0
 42
0.0000001
 43
0.0000001
 44
0.0000000001
 40
0.0
 40
0.0
 40
0.0
 40
0.0
 40
0.257447327
 40
1.0
 40
1.0
 40
1.0
 40
1.0
 10
11.1066013174
 20
10.8974831088
 30
0.0
 10
11.1072950715
 20
10.8980517861
 30
0.0
 10
11.1099691312
 20
10.9002857001
 30
0.0
 10
11.112558122
 20
10.90262225
 30
0.0
 10
11.1144190751
 20
10.9044197928
 30
0.0
  0
SPLINE
  5
366
100
AcDbEntity
  8
0
100
AcDbSpline
 62
7
  6
CONTINUOUS
 70
0
 71
3
 72
9
 73
5
 74
0
 42
0.0000001
 43
0.0000001
 44
0.0000000001
 40
0.0
 40
0.0
 40
0.0
 40
0.0
 40
0.2575156145
 40
1.0
 40
1.0
 40
1.0
 40
1.0
 10
11.1144190751
 20
10.9044197928
 30
0.0
 10
11.1150153234
 20
10.9049957245
 30
0.0
 10
11.1173062108
 20
10.9072573215
 30
0.0
 10
11.1194961718
 20
10.9096220845
 30
0.0
 10
11.1210493418
 20
10.9114388295
 30
0.0
  0
SPLINE
  5
367
100
AcDbEntity
  8
0
100
AcDbSpline
 62
7
  6
CONTINUOUS
 70
0
 71
3
 72
24
 73
20
 74
0
 42
0.0000001
 43
0.0000001
 44
0.0000000001
 40
0.0
 40
0.0
 40
0.0
 40
0.0
 40
0.0419302179
 40
0.0844451594
 40
0.1280621253
 40
0.1733763194
 40
0.2210177514
 40
0.2716032397
 40
0.3256875781
 40
0.3837158672
 40
0.445996209
 40
0.4787925034
 40
0.5127003789
 40
0.5838373755
 40
0.6593156769
 40
0.7389447311
 40
0.8224675479
 40
0.9095906558
 40
1.0
 40
1.0
 40
1.0
 40
1.0
 10
9.8829947881
 20
10.9823405098
 30
0.0
 10
9.8860913808
 20
10.9824279272
 30
0.0
 10
9.8923411511
 20
10.9823038437
 30
0.0
 10
9.9017472572
 20
10.9811335616
 30
0.0
 10
9.9112157466
 20
10.9788873444
 30
0.0
 10
9.9207343503
 20
10.9754788565
 30
0.0
 10
9.9302899256
 20
10.9708337732
 30
0.0
 10
9.9398687511
 20
10.9648939074
 30
0.0
 10
9.9494574695
 20
10.9576190001
 30
0.0
 10
9.9590439951
 20
10.9489912898
 30
0.0
 10
9.9668831976
 20
10.9408239776
 30
0.0
 10
9.9731557634
 20
10.9336486662
 30
0.0
 10
9.9796326688
 20
10.9257882492
 30
0.0
 10
9.9876885237
 20
10.915151244
 30
0.0
 10
9.9971674029
 20
10.9013781929
 30
0.0
 10
10.0065994318
 20
10.8864789062
 30
0.0
 10
10.0159797126
 20
10.870541307
 30
0.0
 10
10.0253052121
 20
10.8536565367
 30
0.0
 10
10.0313791942
 20
10.8420302136
 30
0.0
 10
10.0344147276
 20
10.8360803297
 30
0.0
  0
SPLINE
  5
368
100
AcDbEntity
  8
0
100
AcDbSpline
 62
7
  6
CONTINUOUS
 70
0
 71
3
 72
21
 73
17
 74
0
 42
0.0000001
 43
0.0000001
 44
0.0000000001
 40
0.0
 40
0.0
 40
0.0
 40
0.0
 40
0.1230212981
 40
0.1847065752
 40
0.2465215318
 40
0.3084771567
 40
0.3705832678
 40
0.432847904
 40
0.4952752623
 40
0.5578663069
 40
0.6206183946
 40
0.6835249868
 40
0.7465773451
 40
0.8097643485
 40
0.8730733734
 40
1.0
 40
1.0
 40
1.0
 40
1.0
 10
10.0738875055
 20
10.825864036
 30
0.0
 10
10.0969666865
 20
10.8304113922
 30
0.0
 10
10.131799128
 20
10.8363837985
 30
0.0
 10
10.178570343
 20
10.8422939459
 30
0.0
 10
10.2138816516
 20
10.8456211599
 30
0.0
 10
10.2493660944
 20
10.8477555675
 30
0.0
 10
10.2849908155
 20
10.8486263038
 30
0.0
 10
10.320714027
 20
10.8481774086
 30
0.0
 10
10.3564876487
 20
10.8463754099
 30
0.0
 10
10.3922601749
 20
10.843212124
 30
0.0
 10
10.4279801148
 20
10.8387031734
 30
0.0
 10
10.4635997282
 20
10.8328889316
 30
0.0
 10
10.4990778677
 20
10.8258312175
 30
0.0
 10
10.5343820584
 20
10.8176055278
 30
0.0
 10
10.5812259846
 20
10.8051859758
 30
0.0
 10
10.6159863943
 20
10.7943981814
 30
0.0
 10
10.6389939801
 20
10.7866737689
 30
0.0
  0
SPLINE
  5
369
100
AcDbEntity
  8
0
100
AcDbSpline
 62
7
  6
CONTINUOUS
 70
0
 71
3
 72
21
 73
17
 74
0
 42
0.0000001
 43
0.0000001
 44
0.0000000001
 40
0.0
 40
0.0
 40
0.0
 40
0.0
 40
0.1269266266
 40
0.1902356515
 40
0.253422655
 40
0.3164750132
 40
0.3793816055
 40
0.4421336932
 40
0.5047247377
 40
0.567152096
 40
0.6294167323
 40
0.6915228434
 40
0.7534784683
 40
0.8152934248
 40
0.8769787019
 40
1.0
 40
1.0
 40
1.0
 40
1.0
 10
10.0738875055
 20
10.4414605947
 30
0.0
 10
10.0968950913
 20
10.4337361822
 30
0.0
 10
10.131655501
 20
10.4229483878
 30
0.0
 10
10.1784994271
 20
10.4105288357
 30
0.0
 10
10.2138036179
 20
10.402303146
 30
0.0
 10
10.2492817574
 20
10.395245432
 30
0.0
 10
10.2849013708
 20
10.3894311902
 30
0.0
 10
10.3206213107
 20
10.3849222396
 30
0.0
 10
10.3563938369
 20
10.3817589537
 30
0.0
 10
10.3921674586
 20
10.3799569549
 30
0.0
 10
10.4278906701
 20
10.3795080597
 30
0.0
 10
10.4635153912
 20
10.3803787961
 30
0.0
 10
10.498999834
 20
10.3825132037
 30
0.0
 10
10.5343111426
 20
10.3858404177
 30
0.0
 10
10.5810823575
 20
10.3917505651
 30
0.0
 10
10.615914799
 20
10.3977229714
 30
0.0
 10
10.6389939801
 20
10.4022703276
 30
0.0
  0
SPLINE
  5
36A
100
AcDbEntity
  8
0
100
AcDbSpline
 62
7
  6
CONTINUOUS
 70
0
 71
3
 72
23
 73
19
 74
0
 42
0.0000001
 43
0.0000001
 44
0.0000000001
 40
0.0
 40
0.0
 40
0.0
 40
0.0
 40
0.0679978533
 40
0.1353018631
 40
0.2018554099
 40
0.2676132346
 40
0.3325395022
 40
0.3966151177
 40
0.4598412047
 40
0.5222412155
 40
0.5838618231
 40
0.6447690144
 40
0.705043352
 40
0.7647745608
 40
0.8240532209
 40
0.8829657265
 40
0.9415926228
 40
1.0
 40
1.0
 40
1.0
 40
1.0
 10
10.6929147823
 20
10.7904131958
 30
0.0
 10
10.701308571
 20
10.7956400506
 30
0.0
 10
10.7181419719
 20
10.8058315147
 30
0.0
 10
10.7436755217
 20
10.8203199817
 30
0.0
 10
10.7693659616
 20
10.8338450361
 30
0.0
 10
10.7952030457
 20
10.8463139135
 30
0.0
 10
10.8211705721
 20
10.8576380366
 30
0.0
 10
10.8472451773
 20
10.8677376626
 30
0.0
 10
10.8733976521
 20
10.8765457225
 30
0.0
 10
10.8995931349
 20
10.8840153196
 30
0.0
 10
10.9257933374
 20
10.8901237148
 30
0.0
 10
10.9519597466
 20
10.894872087
 30
0.0
 10
10.9780557981
 20
10.89828748
 30
0.0
 10
11.0040494877
 20
10.9004205066
 30
0.0
 10
11.0299152648
 20
10.9013381858
 30
0.0
 10
11.0556348009
 20
10.9011205641
 30
0.0
 10
11.0811958433
 20
10.8998554291
 30
0.0
 10
11.0981542884
 20
10.8983706143
 30
0.0
 10
11.1066013174
 20
10.8974831088
 30
0.0
  0
SPLINE
  5
36B
100
AcDbEntity
  8
0
100
AcDbSpline
 62
7
  6
CONTINUOUS
 70
0
 71
3
 72
21
 73
17
 74
0
 42
0.0000001
 43
0.0000001
 44
0.0000000001
 40
0.0
 40
0.0
 40
0.0
 40
0.0
 40
0.119195178
 40
0.1790929876
 40
0.2392477604
 40
0.2997138873
 40
0.3605475878
 40
0.4218079674
 40
0.4835540028
 40
0.5458413627
 40
0.6087209795
 40
0.672234225
 40
0.7364135972
 40
0.8012786058
 40
0.866837945
 40
1.0
 40
1.0
 40
1.0
 40
1.0
 10
10.6929147823
 20
10.4060097545
 30
0.0
 10
10.7064141021
 20
10.4045914191
 30
0.0
 10
10.7267643265
 20
10.4030228374
 30
0.0
 10
10.754001142
 20
10.4022220861
 30
0.0
 10
10.7745622704
 20
10.4023098525
 30
0.0
 10
10.7952139933
 20
10.403130718
 30
0.0
 10
10.8159471913
 20
10.4047249097
 30
0.0
 10
10.8367493901
 20
10.4071272442
 30
0.0
 10
10.8576054494
 20
10.4103671076
 30
0.0
 10
10.8784984829
 20
10.4144628875
 30
0.0
 10
10.8994091676
 20
10.4194272976
 30
0.0
 10
10.920318711
 20
10.4252577806
 30
0.0
 10
10.9412068169
 20
10.4319467003
 30
0.0
 10
10.9620562832
 20
10.4394717967
 30
0.0
 10
10.9899223174
 20
10.4506405246
 30
0.0
 10
11.0105028273
 20
10.4600964037
 30
0.0
 10
11.0240977994
 20
10.4668141226
 30
0.0
  0
SPLINE
  5
36C
100
AcDbEntity
  8
0
100
AcDbSpline
 62
7
  6
CONTINUOUS
 70
0
 71
3
 72
47
 73
43
 74
0
 42
0.0000001
 43
0.0000001
 44
0.0000000001
 40
0.0
 40
0.0
 40
0.0
 40
0.0
 40
0.0099876626
 40
0.0204479669
 40
0.0313775025
 40
0.04277129
 40
0.0546224513
 40
0.0669232498
 40
0.0796649191
 40
0.0928371598
 40
0.1204281281
 40
0.1495995024
 40
0.1802418577
 40
0.2122349738
 40
0.2454500995
 40
0.2797508632
 40
0.3149939248
 40
0.3510306998
 40
0.3877079389
 40
0.4248686282
 40
0.4623531991
 40
0.5000001113
 40
0.5376470156
 40
0.5751315709
 40
0.6122922601
 40
0.6489695026
 40
0.6850062626
 40
0.720249304
 40
0.754550053
 40
0.7877651694
 40
0.8197582656
 40
0.8504005906
 40
0.8795719424
 40
0.907162899
 40
0.9203351314
 40
0.9330767818
 40
0.9453775464
 40
0.9572286765
 40
0.9686224633
 40
0.979552049
 40
0.990012398
 40
1.0
 40
1.0
 40
1.0
 40
1.0
 10
10.0254710162
 20
10.4443257574
 30
0.0
 10
10.0283699983
 20
10.4428937374
 30
0.0
 10
10.0343546722
 20
10.4400613705
 30
0.0
 10
10.0436628421
 20
10.4359906699
 30
0.0
 10
10.0535002319
 20
10.4320039369
 30
0.0
 10
10.0638555211
 20
10.4281059898
 30
0.0
 10
10.0747167549
 20
10.4243009887
 30
0.0
 10
10.086071508
 20
10.420593488
 30
0.0
 10
10.0979068119
 20
10.4169879233
 30
0.0
 10
10.1145681667
 20
10.4122482687
 30
0.0
 10
10.1365052634
 20
10.4066304364
 30
0.0
 10
10.1641237479
 20
10.4004569759
 30
0.0
 10
10.1933016695
 20
10.3947809429
 30
0.0
 10
10.2239044675
 20
10.3896285376
 30
0.0
 10
10.2557913021
 20
10.3850239938
 30
0.0
 10
10.288815166
 20
10.3809890642
 30
0.0
 10
10.3228236837
 20
10.3775423387
 30
0.0
 10
10.3576598679
 20
10.3747000606
 30
0.0
 10
10.3931628917
 20
10.3724756298
 30
0.0
 10
10.4291687862
 20
10.3708791792
 30
0.0
 10
10.4655112276
 20
10.36991834
 30
0.0
 10
10.5020223406
 20
10.3695976376
 30
0.0
 10
10.5385334486
 20
10.3699183496
 30
0.0
 10
10.5748758821
 20
10.3708791979
 30
0.0
 10
10.6108817721
 20
10.3724756589
 30
0.0
 10
10.6463847915
 20
10.3747000985
 30
0.0
 10
10.6812209647
 20
10.377542386
 30
0.0
 10
10.7152294654
 20
10.3809891202
 30
0.0
 10
10.7482533138
 20
10.3850240584
 30
0.0
 10
10.7801401327
 20
10.3896286113
 30
0.0
 10
10.8107429099
 20
10.3947810242
 30
0.0
 10
10.8399208059
 20
10.4004570651
 30
0.0
 10
10.8675392681
 20
10.4066305302
 30
0.0
 10
10.8894763479
 20
10.4122483734
 30
0.0
 10
10.906137687
 20
10.4169880368
 30
0.0
 10
10.9179729704
 20
10.4205936007
 30
0.0
 10
10.9293276984
 20
10.4243010903
 30
0.0
 10
10.9401889122
 20
10.4281060843
 30
0.0
 10
10.9505442026
 20
10.4320040454
 30
0.0
 10
10.9603816065
 20
10.4359908256
 30
0.0
 10
10.9696897725
 20
10.4400615621
 30
0.0
 10
10.9756744425
 20
10.4428939243
 30
0.0
 10
10.9785734121
 20
10.4443259252
 30
0.0
  0
SPLINE
  5
36D
100
AcDbEntity
  8
0
100
AcDbSpline
 62
7
  6
CONTINUOUS
 70
0
 71
3
 72
15
 73
11
 74
0
 42
0.0000001
 43
0.0000001
 44
0.0000000001
 40
0.0
 40
0.0
 40
0.0
 40
0.0
 40
0.1343380542
 40
0.2648697481
 40
0.3921893739
 40
0.5168787269
 40
0.6395034772
 40
0.7605881804
 40
0.8806115565
 40
1.0
 40
1.0
 40
1.0
 40
1.0
 10
9.9914032991
 20
10.4611545795
 30
0.0
 10
9.9931895738
 20
10.4602725772
 30
0.0
 10
9.9967642219
 20
10.4586377064
 30
0.0
 10
10.0021961989
 20
10.4565493965
 30
0.0
 10
10.0076123858
 20
10.4548494687
 30
0.0
 10
10.0130112229
 20
10.4535234496
 30
0.0
 10
10.0183914082
 20
10.4525548733
 30
0.0
 10
10.0237521188
 20
10.4519273281
 30
0.0
 10
10.0290924281
 20
10.451624096
 30
0.0
 10
10.0326449663
 20
10.4516269278
 30
0.0
 10
10.0344147276
 20
10.4516768884
 30
0.0
  0
SPLINE
  5
36E
100
AcDbEntity
  8
0
100
AcDbSpline
 62
7
  6
CONTINUOUS
 70
0
 71
3
 72
11
 73
7
 74
0
 42
0.0000001
 43
0.0000001
 44
0.0000000001
 40
0.0
 40
0.0
 40
0.0
 40
0.0
 40
0.2690760955
 40
0.5253706249
 40
0.7689657929
 40
1.0
 40
1.0
 40
1.0
 40
1.0
 10
10.0104090691
 20
11.0576098059
 30
0.0
 10
10.007689258
 20
11.0562662612
 30
0.0
 10
10.0024184016
 20
11.0535616722
 30
0.0
 10
9.9948441549
 20
11.0493403203
 30
0.0
 10
9.987801704
 20
11.0450575359
 30
0.0
 10
9.9833491493
 20
11.0420859598
 30
0.0
 10
9.9812181423
 20
11.0405882458
 30
0.0
  0
SPLINE
  5
36F
100
AcDbEntity
  8
0
100
AcDbSpline
 62
7
  6
CONTINUOUS
 70
0
 71
3
 72
9
 73
5
 74
0
 42
0.0000001
 43
0.0000001
 44
0.0000000001
 40
0.0
 40
0.0
 40
0.0
 40
0.0
 40
0.5201382929
 40
1.0
 40
1.0
 40
1.0
 40
1.0
 10
9.9812181423
 20
11.0405882458
 30
0.0
 10
9.9784183888
 20
11.0386205236
 30
0.0
 10
9.9731529408
 20
11.0346661928
 30
0.0
 10
9.9682039455
 20
11.030317459
 30
0.0
 10
9.9659331996
 20
11.0281240867
 30
0.0
  0
SPLINE
  5
370
100
AcDbEntity
  8
0
100
AcDbSpline
 62
7
  6
CONTINUOUS
 70
0
 71
3
 72
9
 73
5
 74
0
 42
0.0000001
 43
0.0000001
 44
0.0000000001
 40
0.0
 40
0.0
 40
0.0
 40
0.0
 40
0.4956216882
 40
1.0
 40
1.0
 40
1.0
 40
1.0
 10
12.4729866247
 20
10.3663333413
 30
0.0
 10
12.4870007619
 20
10.3732581834
 30
0.0
 10
12.514873557
 20
10.3880553776
 30
0.0
 10
12.5419863931
 20
10.4041900328
 30
0.0
 10
12.5554901427
 20
10.4125988862
 30
0.0
  0
SPLINE
  5
371
100
AcDbEntity
  8
0
100
AcDbSpline
 62
7
  6
CONTINUOUS
 70
0
 71
3
 72
9
 73
5
 74
0
 42
0.0000001
 43
0.0000001
 44
0.0000000001
 40
0.0
 40
0.0
 40
0.0
 40
0.0
 40
0.4956216882
 40
1.0
 40
1.0
 40
1.0
 40
1.0
 10
11.4288351557
 20
10.9420809941
 30
0.0
 10
11.4148210185
 20
10.935156152
 30
0.0
 10
11.3869482234
 20
10.9203589578
 30
0.0
 10
11.3598353873
 20
10.9042243026
 30
0.0
 10
11.3463316377
 20
10.8958154492
 30
0.0
  0
SPLINE
  5
372
100
AcDbEntity
  8
0
100
AcDbSpline
 62
7
  6
CONTINUOUS
 70
0
 71
3
 72
47
 73
43
 74
0
 42
0.0000001
 43
0.0000001
 44
0.0000000001
 40
0.0
 40
0.0
 40
0.0
 40
0.0
 40
0.0099875403
 40
0.0204477283
 40
0.031377153
 40
0.0427708365
 40
0.0546219042
 40
0.066922623
 40
0.0796642274
 40
0.0928364151
 40
0.1204273007
 40
0.1495986195
 40
0.1802409519
 40
0.2122340888
 40
0.2454492724
 40
0.2797501125
 40
0.3149932733
 40
0.3510301731
 40
0.3877075545
 40
0.424868394
 40
0.4623531211
 40
0.5000002041
 40
0.5376472772
 40
0.5751319828
 40
0.6122928115
 40
0.6489701916
 40
0.6850070832
 40
0.7202502161
 40
0.7545510164
 40
0.7877661686
 40
0.8197592835
 40
0.8504015909
 40
0.8795728653
 40
0.9071637058
 40
0.9203358718
 40
0.9330774483
 40
0.9453781298
 40
0.9572291666
 40
0.9686228485
 40
0.9795523166
 40
0.9900125362
 40
1.0
 40
1.0
 40
1.0
 40
1.0
 10
12.4425233973
 20
10.9571292869
 30
0.0
 10
12.4395328443
 20
10.9586065846
 30
0.0
 10
12.4333591231
 20
10.9615285052
 30
0.0
 10
12.4237569071
 20
10.9657279105
 30
0.0
 10
12.4136087351
 20
10.9698406944
 30
0.0
 10
12.4029262843
 20
10.9738618858
 30
0.0
 10
12.3917218849
 20
10.9777871936
 30
0.0
 10
12.3800083528
 20
10.98161192
 30
0.0
 10
12.367799066
 20
10.9853314893
 30
0.0
 10
12.3506112016
 20
10.9902210116
 30
0.0
 10
12.3279808476
 20
10.9960164796
 30
0.0
 10
12.299489528
 20
11.0023851423
 30
0.0
 10
12.2693894451
 20
11.0082406519
 30
0.0
 10
12.2378194097
 20
11.0135559778
 30
0.0
 10
12.2049247184
 20
11.0183061208
 30
0.0
 10
12.1708570321
 20
11.0224686382
 30
0.0
 10
12.1357735466
 20
11.0260243517
 30
0.0
 10
12.0998362119
 20
11.0289565051
 30
0.0
 10
12.0632109431
 20
11.0312512737
 30
0.0
 10
12.0260668987
 20
11.0328982044
 30
0.0
 10
11.9885756602
 20
11.0338894243
 30
0.0
 10
11.9509104127
 20
11.0342202642
 30
0.0
 10
11.9132451724
 20
11.0338894076
 30
0.0
 10
11.8757539485
 20
11.0328981716
 30
0.0
 10
11.838609916
 20
11.0312512242
 30
0.0
 10
11.801984655
 20
11.0289564395
 30
0.0
 10
11.7660473342
 20
11.0260242692
 30
0.0
 10
11.7309638756
 20
11.0224685412
 30
0.0
 10
11.6968962246
 20
11.018306009
 30
0.0
 10
11.6640015666
 20
11.0135558527
 30
0.0
 10
11.6324315603
 20
11.008240511
 30
0.0
 10
11.6023315114
 20
11.0023849871
 30
0.0
 10
11.573840233
 20
10.9960163148
 30
0.0
 10
11.5512099208
 20
10.9902208333
 30
0.0
 10
11.5340220919
 20
10.9853313015
 30
0.0
 10
11.521812836
 20
10.9816117307
 30
0.0
 10
11.5100993353
 20
10.9777870116
 30
0.0
 10
11.4988949597
 20
10.9738617064
 30
0.0
 10
11.4882125117
 20
10.9698404966
 30
0.0
 10
11.4780643336
 20
10.9657276619
 30
0.0
 10
11.4684621352
 20
10.9615282182
 30
0.0
 10
11.4622884288
 20
10.9586063024
 30
0.0
 10
11.4592978944
 20
10.9571290246
 30
0.0
  0
SPLINE
  5
373
100
AcDbEntity
  8
0
100
AcDbSpline
 62
7
  6
CONTINUOUS
 70
0
 71
3
 72
9
 73
5
 74
0
 42
0.0000001
 43
0.0000001
 44
0.0000000001
 40
0.0
 40
0.0
 40
0.0
 40
0.0
 40
0.257447327
 40
1.0
 40
1.0
 40
1.0
 40
1.0
 10
12.5554901427
 20
10.4125988862
 30
0.0
 10
12.5561838967
 20
10.4131675635
 30
0.0
 10
12.5588579564
 20
10.4154014775
 30
0.0
 10
12.5614469473
 20
10.4177380274
 30
0.0
 10
12.5633079004
 20
10.4195355701
 30
0.0
  0
SPLINE
  5
374
100
AcDbEntity
  8
0
100
AcDbSpline
 62
7
  6
CONTINUOUS
 70
0
 71
3
 72
9
 73
5
 74
0
 42
0.0000001
 43
0.0000001
 44
0.0000000001
 40
0.0
 40
0.0
 40
0.0
 40
0.0
 40
0.2426666479
 40
1.0
 40
1.0
 40
1.0
 40
1.0
 10
12.569938167
 20
10.4265546069
 30
0.0
 10
12.5694305392
 20
10.4259608339
 30
0.0
 10
12.5673068434
 20
10.4235412494
 30
0.0
 10
12.565061435
 20
10.4212293546
 30
0.0
 10
12.5633079004
 20
10.4195355701
 30
0.0
  0
SPLINE
  5
375
100
AcDbEntity
  8
0
100
AcDbSpline
 62
7
  6
CONTINUOUS
 70
0
 71
3
 72
9
 73
5
 74
0
 42
0.0000001
 43
0.0000001
 44
0.0000000001
 40
0.0
 40
0.0
 40
0.0
 40
0.0
 40
0.2575156145
 40
1.0
 40
1.0
 40
1.0
 40
1.0
 10
11.3385138801
 20
10.8888787653
 30
0.0
 10
11.3379176317
 20
10.8883028336
 30
0.0
 10
11.3356267443
 20
10.8860412365
 30
0.0
 10
11.3334367834
 20
10.8836764736
 30
0.0
 10
11.3318836134
 20
10.8818597285
 30
0.0
  0
SPLINE
  5
376
100
AcDbEntity
  8
0
100
AcDbSpline
 62
7
  6
CONTINUOUS
 70
0
 71
3
 72
9
 73
5
 74
0
 42
0.0000001
 43
0.0000001
 44
0.0000000001
 40
0.0
 40
0.0
 40
0.0
 40
0.0
 40
0.257447327
 40
1.0
 40
1.0
 40
1.0
 40
1.0
 10
11.3463316377
 20
10.8958154492
 30
0.0
 10
11.3456378837
 20
10.8952467719
 30
0.0
 10
11.342963824
 20
10.8930128579
 30
0.0
 10
11.3403748331
 20
10.890676308
 30
0.0
 10
11.3385138801
 20
10.8888787653
 30
0.0
  0
SPLINE
  5
377
100
AcDbEntity
  8
0
100
AcDbSpline
 62
7
  6
CONTINUOUS
 70
0
 71
3
 72
23
 73
19
 74
0
 42
0.0000001
 43
0.0000001
 44
0.0000000001
 40
0.0
 40
0.0
 40
0.0
 40
0.0
 40
0.0811307299
 40
0.1602255783
 40
0.2371393132
 40
0.31173057
 40
0.3838653696
 40
0.453421182
 40
0.5202897277
 40
0.5843905181
 40
0.6456688439
 40
0.7041127545
 40
0.7597461544
 40
0.8126463244
 40
0.8629314094
 40
0.910773146
 40
0.9563796915
 40
1.0
 40
1.0
 40
1.0
 40
1.0
 10
11.3318836134
 20
10.4974562872
 30
0.0
 10
11.334061145
 20
10.4931881543
 30
0.0
 10
11.338420263
 20
10.4847887372
 30
0.0
 10
11.3450677555
 20
10.472460898
 30
0.0
 10
11.3517444048
 20
10.4605898155
 30
0.0
 10
11.3584491218
 20
10.4492089619
 30
0.0
 10
11.3651810089
 20
10.4383520078
 30
0.0
 10
11.3719376758
 20
10.4280514596
 30
0.0
 10
11.3787175261
 20
10.4183390776
 30
0.0
 10
11.3855166947
 20
10.4092431717
 30
0.0
 10
11.3923329388
 20
10.4007897692
 30
0.0
 10
11.399161198
 20
10.3929989572
 30
0.0
 10
11.4059987386
 20
10.3858873848
 30
0.0
 10
11.4128398368
 20
10.379463734
 30
0.0
 10
11.4196813866
 20
10.3737328017
 30
0.0
 10
11.4265177755
 20
10.3686905152
 30
0.0
 10
11.433345065
 20
10.3643294632
 30
0.0
 10
11.4379821888
 20
10.3618143668
 30
0.0
 10
11.4402921244
 20
10.3606737982
 30
0.0
  0
SPLINE
  5
378
100
AcDbEntity
  8
0
100
AcDbSpline
 62
7
  6
CONTINUOUS
 70
0
 71
3
 72
23
 73
19
 74
0
 42
0.0000001
 43
0.0000001
 44
0.0000000001
 40
0.0
 40
0.0
 40
0.0
 40
0.0
 40
0.0811307299
 40
0.1602255783
 40
0.2371393132
 40
0.31173057
 40
0.3838653696
 40
0.453421182
 40
0.5202897277
 40
0.5843905181
 40
0.6456688439
 40
0.7041127545
 40
0.7597461544
 40
0.8126463244
 40
0.8629314094
 40
0.910773146
 40
0.9563796915
 40
1.0
 40
1.0
 40
1.0
 40
1.0
 10
12.569938167
 20
10.8109580482
 30
0.0
 10
12.5677606355
 20
10.8152261811
 30
0.0
 10
12.5634015174
 20
10.8236255982
 30
0.0
 10
12.5567540249
 20
10.8359534374
 30
0.0
 10
12.5500773756
 20
10.8478245199
 30
0.0
 10
12.5433726586
 20
10.8592053735
 30
0.0
 10
12.5366407715
 20
10.8700623276
 30
0.0
 10
12.5298841046
 20
10.8803628758
 30
0.0
 10
12.5231042543
 20
10.8900752578
 30
0.0
 10
12.5163050858
 20
10.8991711637
 30
0.0
 10
12.5094888416
 20
10.9076245662
 30
0.0
 10
12.5026605824
 20
10.9154153782
 30
0.0
 10
12.4958230419
 20
10.9225269506
 30
0.0
 10
12.4889819436
 20
10.9289506014
 30
0.0
 10
12.4821403938
 20
10.9346815337
 30
0.0
 10
12.4753040049
 20
10.9397238202
 30
0.0
 10
12.4684767154
 20
10.9440848722
 30
0.0
 10
12.4638395916
 20
10.9465999686
 30
0.0
 10
12.461529656
 20
10.9477405372
 30
0.0
  0
SPLINE
  5
379
100
AcDbEntity
  8
0
100
AcDbSpline
 62
7
  6
CONTINUOUS
 70
0
 71
3
 72
71
 73
67
 74
0
 42
0.0000001
 43
0.0000001
 44
0.0000000001
 40
0.0
 40
0.0
 40
0.0
 40
0.0
 40
0.0078484594
 40
0.0115252914
 40
0.0150503909
 40
0.0216951607
 40
0.0248528477
 40
0.0279249671
 40
0.0309332128
 40
0.0339008246
 40
0.0368520407
 40
0.0398115072
 40
0.0428036737
 40
0.0458521687
 40
0.0489791618
 40
0.0522050193
 40
0.0590205121
 40
0.0626448601
 40
0.0664289451
 40
0.0703831065
 40
0.0745161228
 40
0.0788351457
 40
0.0833459416
 40
0.0929593076
 40
0.1033847624
 40
0.1146355341
 40
0.1267157161
 40
0.1396206445
 40
0.1533400256
 40
0.1678573778
 40
0.1831523725
 40
0.1992001058
 40
0.2159727113
 40
0.2334389021
 40
0.251564872
 40
0.2703142876
 40
0.2896485529
 40
0.3095272434
 40
0.3299078824
 40
0.3507467036
 40
0.3719981359
 40
0.4155504597
 40
0.460180434
 40
0.5054896846
 40
0.5510718591
 40
0.5965174611
 40
0.6414185988
 40
0.6853737051
 40
0.7279923619
 40
0.7689002583
 40
0.7886021453
 40
0.8077458129
 40
0.8262916544
 40
0.8442015475
 40
0.8614402254
 40
0.8779744598
 40
0.8937742734
 40
0.9088125479
 40
0.9230660027
 40
0.9365154872
 40
0.9491464372
 40
0.9609501077
 40
0.9719246022
 40
0.9820778352
 40
0.9914268056
 40
1.0
 40
1.0
 40
1.0
 40
1.0
 10
11.4148220249
 20
10.9276433054
 30
0.0
 10
11.4125739284
 20
10.9254718108
 30
0.0
 10
11.4094166985
 20
10.9221242003
 30
0.0
 10
11.4057072878
 20
10.9174118055
 30
0.0
 10
11.4025775192
 20
10.9128687311
 30
0.0
 10
11.4000155432
 20
10.9081932712
 30
0.0
 10
11.3981179982
 20
10.9034246335
 30
0.0
 10
11.397052672
 20
10.8998981955
 30
0.0
 10
11.3963230741
 20
10.89636444
 30
0.0
 10
11.3959300342
 20
10.8928258076
 30
0.0
 10
11.3958738545
 20
10.8892852121
 30
0.0
 10
11.3961546095
 20
10.8857455503
 30
0.0
 10
11.3967721428
 20
10.8822097084
 30
0.0
 10
11.3977258161
 20
10.8786805433
 30
0.0
 10
11.3990141901
 20
10.8751602975
 30
0.0
 10
11.4012159946
 20
10.8703954183
 30
0.0
 10
11.4040719924
 20
10.8657368152
 30
0.0
 10
11.4074843886
 20
10.8612128797
 30
0.0
 10
11.4104232365
 20
10.8577682722
 30
0.0
 10
11.4136866074
 20
10.8543447116
 30
0.0
 10
11.4172730274
 20
10.8509436742
 30
0.0
 10
11.4211801565
 20
10.8475670171
 30
0.0
 10
11.426936887
 20
10.8430025819
 30
0.0
 10
11.4349514566
 20
10.837387082
 30
0.0
 10
11.4456077419
 20
10.8309146134
 30
0.0
 10
11.4574744775
 20
10.8245848432
 30
0.0
 10
11.4705242337
 20
10.8184133647
 30
0.0
 10
11.4847267046
 20
10.8124135638
 30
0.0
 10
11.5000487907
 20
10.8066006483
 30
0.0
 10
11.5164541569
 20
10.800987725
 30
0.0
 10
11.5339039687
 20
10.7955890845
 30
0.0
 10
11.552356542
 20
10.7904171804
 30
0.0
 10
11.5717678205
 20
10.78548504
 30
0.0
 10
11.5920912728
 20
10.7808042855
 30
0.0
 10
11.613278173
 20
10.7763864865
 30
0.0
 10
11.6352776366
 20
10.7722422898
 30
0.0
 10
11.6580368179
 20
10.7683817008
 30
0.0
 10
11.6815009933
 20
10.7648142466
 30
0.0
 10
11.7056137339
 20
10.761548326
 30
0.0
 10
11.7303170554
 20
10.758592148
 30
0.0
 10
11.7642395711
 20
10.7550439513
 30
0.0
 10
11.8076785135
 20
10.751449571
 30
0.0
 10
11.860764414
 20
10.7484958373
 30
0.0
 10
11.9147171074
 20
10.7468967168
 30
0.0
 10
11.9690176489
 20
10.746667772
 30
0.0
 10
12.0231441467
 20
10.7478112853
 30
0.0
 10
12.076576256
 20
10.7503160262
 30
0.0
 10
12.1288006454
 20
10.7541573448
 30
0.0
 10
12.1793152257
 20
10.7592975932
 30
0.0
 10
12.2200781202
 20
10.7646863727
 30
0.0
 10
12.2514526098
 20
10.7696363854
 30
0.0
 10
12.2739645716
 20
10.7735927628
 30
0.0
 10
12.295698949
 20
10.7778291752
 30
0.0
 10
12.3166035744
 20
10.7823359774
 30
0.0
 10
12.3366282661
 20
10.7871017075
 30
0.0
 10
12.3557250088
 20
10.7921152337
 30
0.0
 10
12.3738480923
 20
10.7973640604
 30
0.0
 10
12.3909542321
 20
10.8028356509
 30
0.0
 10
12.4070027055
 20
10.808516731
 30
0.0
 10
12.421955496
 20
10.8143935544
 30
0.0
 10
12.4357772053
 20
10.8204522516
 30
0.0
 10
12.4484357457
 20
10.8266778999
 30
0.0
 10
12.4599018631
 20
10.8330567809
 30
0.0
 10
12.4701503541
 20
10.8395746752
 30
0.0
 10
12.4791559924
 20
10.846217027
 30
0.0
 10
12.4845440675
 20
10.8509155145
 30
0.0
 10
12.4869997556
 20
10.8532875272
 30
0.0
  0
SPLINE
  5
37A
100
AcDbEntity
  8
0
100
AcDbSpline
 62
7
  6
CONTINUOUS
 70
0
 71
3
 72
28
 73
24
 74
0
 42
0.0000001
 43
0.0000001
 44
0.0000000001
 40
0.0
 40
0.0
 40
0.0
 40
0.0
 40
0.0679119338
 40
0.1310059334
 40
0.1898300509
 40
0.2451128907
 40
0.2717244024
 40
0.2978088965
 40
0.3235052839
 40
0.3489593586
 40
0.3743211516
 40
0.3997423533
 40
0.4253736392
 40
0.4513619957
 40
0.5049275163
 40
0.5614895859
 40
0.5911783875
 40
0.6219180812
 40
0.6868326907
 40
0.7567711825
 40
0.8321139397
 40
0.9131283559
 40
1.0
 40
1.0
 40
1.0
 40
1.0
 10
12.4869997556
 20
10.8532875272
 30
0.0
 10
12.4889143919
 20
10.855136924
 30
0.0
 10
12.4924683814
 20
10.8588543068
 30
0.0
 10
12.4970795667
 20
10.8647105685
 30
0.0
 10
12.5007533197
 20
10.8706239962
 30
0.0
 10
12.5030518675
 20
10.8756586448
 30
0.0
 10
12.5043841896
 20
10.8796794845
 30
0.0
 10
12.5051316808
 20
10.8826630887
 30
0.0
 10
12.5056389785
 20
10.8856508148
 30
0.0
 10
12.5059059132
 20
10.8886411936
 30
0.0
 10
12.5059323403
 20
10.8916325947
 30
0.0
 10
12.5057182563
 20
10.8946233585
 30
0.0
 10
12.5052636482
 20
10.8976119903
 30
0.0
 10
12.504328165
 20
10.9016311158
 30
0.0
 10
12.5025278133
 20
10.9066751018
 30
0.0
 10
12.4999896038
 20
10.9115498988
 30
0.0
 10
12.4975163586
 20
10.9154138749
 30
0.0
 10
12.4946366191
 20
10.9193975136
 30
0.0
 10
12.4904172124
 20
10.9243449624
 30
0.0
 10
12.4845192711
 20
10.9301111442
 30
0.0
 10
12.4777071619
 20
10.9358046001
 30
0.0
 10
12.4699932072
 20
10.9414174613
 30
0.0
 10
12.4644521886
 20
10.9449745252
 30
0.0
 10
12.4615423514
 20
10.9467431008
 30
0.0
  0
SPLINE
  5
37B
100
AcDbEntity
  8
0
100
AcDbSpline
 62
7
  6
CONTINUOUS
 70
0
 71
3
 72
9
 73
5
 74
0
 42
0.0000001
 43
0.0000001
 44
0.0000000001
 40
0.0
 40
0.0
 40
0.0
 40
0.0
 40
0.4848355238
 40
1.0
 40
1.0
 40
1.0
 40
1.0
 10
12.4615423514
 20
10.9467431008
 30
0.0
 10
12.4585489146
 20
10.9485624875
 30
0.0
 10
12.4522792618
 20
10.9521592096
 30
0.0
 10
12.4458605344
 20
10.9554807809
 30
0.0
 10
12.4425233973
 20
10.9571292869
 30
0.0
  0
SPLINE
  5
37C
100
AcDbEntity
  8
0
100
AcDbSpline
 62
7
  6
CONTINUOUS
 70
0
 71
3
 72
9
 73
5
 74
0
 42
0.0000001
 43
0.0000001
 44
0.0000000001
 40
0.0
 40
0.0
 40
0.0
 40
0.0
 40
0.257447327
 40
1.0
 40
1.0
 40
1.0
 40
1.0
 10
12.5554901427
 20
10.7970023275
 30
0.0
 10
12.5561838967
 20
10.7975710048
 30
0.0
 10
12.5588579564
 20
10.7998049188
 30
0.0
 10
12.5614469473
 20
10.8021414687
 30
0.0
 10
12.5633079004
 20
10.8039390115
 30
0.0
  0
SPLINE
  5
37D
100
AcDbEntity
  8
0
100
AcDbSpline
 62
7
  6
CONTINUOUS
 70
0
 71
3
 72
9
 73
5
 74
0
 42
0.0000001
 43
0.0000001
 44
0.0000000001
 40
0.0
 40
0.0
 40
0.0
 40
0.0
 40
0.2575156145
 40
1.0
 40
1.0
 40
1.0
 40
1.0
 10
12.5633079004
 20
10.8039390115
 30
0.0
 10
12.5639041487
 20
10.8045149431
 30
0.0
 10
12.5661950361
 20
10.8067765402
 30
0.0
 10
12.5683849971
 20
10.8091413031
 30
0.0
 10
12.569938167
 20
10.8109580482
 30
0.0
  0
SPLINE
  5
37E
100
AcDbEntity
  8
0
100
AcDbSpline
 62
7
  6
CONTINUOUS
 70
0
 71
3
 72
24
 73
20
 74
0
 42
0.0000001
 43
0.0000001
 44
0.0000000001
 40
0.0
 40
0.0
 40
0.0
 40
0.0
 40
0.0419302179
 40
0.0844451594
 40
0.1280621253
 40
0.1733763194
 40
0.2210177514
 40
0.2716032397
 40
0.3256875781
 40
0.3837158672
 40
0.445996209
 40
0.4787925034
 40
0.5127003789
 40
0.5838373755
 40
0.6593156769
 40
0.7389447311
 40
0.8224675479
 40
0.9095906558
 40
1.0
 40
1.0
 40
1.0
 40
1.0
 10
11.3318836134
 20
10.8818597285
 30
0.0
 10
11.3349802061
 20
10.8819471459
 30
0.0
 10
11.3412299763
 20
10.8818230624
 30
0.0
 10
11.3506360825
 20
10.8806527803
 30
0.0
 10
11.3601045718
 20
10.8784065631
 30
0.0
 10
11.3696231756
 20
10.8749980752
 30
0.0
 10
11.3791787508
 20
10.8703529919
 30
0.0
 10
11.3887575763
 20
10.8644131261
 30
0.0
 10
11.3983462948
 20
10.8571382188
 30
0.0
 10
11.4079328204
 20
10.8485105085
 30
0.0
 10
11.4157720229
 20
10.8403431963
 30
0.0
 10
11.4220445886
 20
10.8331678849
 30
0.0
 10
11.4285214941
 20
10.8253074679
 30
0.0
 10
11.436577349
 20
10.8146704627
 30
0.0
 10
11.4460562282
 20
10.8008974115
 30
0.0
 10
11.4554882571
 20
10.7859981249
 30
0.0
 10
11.4648685378
 20
10.7700605257
 30
0.0
 10
11.4741940374
 20
10.7531757553
 30
0.0
 10
11.4802680194
 20
10.7415494323
 30
0.0
 10
11.4833035529
 20
10.7355995484
 30
0.0
  0
SPLINE
  5
37F
100
AcDbEntity
  8
0
100
AcDbSpline
 62
7
  6
CONTINUOUS
 70
0
 71
3
 72
21
 73
17
 74
0
 42
0.0000001
 43
0.0000001
 44
0.0000000001
 40
0.0
 40
0.0
 40
0.0
 40
0.0
 40
0.1230212981
 40
0.1847065752
 40
0.2465215318
 40
0.3084771567
 40
0.3705832678
 40
0.432847904
 40
0.4952752623
 40
0.5578663069
 40
0.6206183946
 40
0.6835249868
 40
0.7465773451
 40
0.8097643485
 40
0.8730733734
 40
1.0
 40
1.0
 40
1.0
 40
1.0
 10
11.5227763308
 20
10.7253832547
 30
0.0
 10
11.5458555118
 20
10.7299306108
 30
0.0
 10
11.5806879533
 20
10.7359030172
 30
0.0
 10
11.6274591683
 20
10.7418131646
 30
0.0
 10
11.6627704769
 20
10.7451403786
 30
0.0
 10
11.6982549197
 20
10.7472747862
 30
0.0
 10
11.7338796407
 20
10.7481455225
 30
0.0
 10
11.7696028522
 20
10.7476966273
 30
0.0
 10
11.8053764739
 20
10.7458946286
 30
0.0
 10
11.8411490001
 20
10.7427313427
 30
0.0
 10
11.8768689401
 20
10.7382223921
 30
0.0
 10
11.9124885534
 20
10.7324081503
 30
0.0
 10
11.947966693
 20
10.7253504362
 30
0.0
 10
11.9832708837
 20
10.7171247465
 30
0.0
 10
12.0301148099
 20
10.7047051945
 30
0.0
 10
12.0648752196
 20
10.6939174001
 30
0.0
 10
12.0878828054
 20
10.6861929876
 30
0.0
  0
SPLINE
  5
380
100
AcDbEntity
  8
0
100
AcDbSpline
 62
7
  6
CONTINUOUS
 70
0
 71
3
 72
21
 73
17
 74
0
 42
0.0000001
 43
0.0000001
 44
0.0000000001
 40
0.0
 40
0.0
 40
0.0
 40
0.0
 40
0.1269266266
 40
0.1902356515
 40
0.253422655
 40
0.3164750132
 40
0.3793816055
 40
0.4421336932
 40
0.5047247377
 40
0.567152096
 40
0.6294167323
 40
0.6915228434
 40
0.7534784683
 40
0.8152934248
 40
0.8769787019
 40
1.0
 40
1.0
 40
1.0
 40
1.0
 10
11.5227763308
 20
10.3409798134
 30
0.0
 10
11.5457839166
 20
10.3332554008
 30
0.0
 10
11.5805443263
 20
10.3224676065
 30
0.0
 10
11.6273882524
 20
10.3100480544
 30
0.0
 10
11.6626924432
 20
10.3018223647
 30
0.0
 10
11.6981705827
 20
10.2947646507
 30
0.0
 10
11.7337901961
 20
10.2889504089
 30
0.0
 10
11.769510136
 20
10.2844414583
 30
0.0
 10
11.8052826622
 20
10.2812781724
 30
0.0
 10
11.8410562839
 20
10.2794761736
 30
0.0
 10
11.8767794954
 20
10.2790272784
 30
0.0
 10
11.9124042164
 20
10.2798980148
 30
0.0
 10
11.9478886592
 20
10.2820324224
 30
0.0
 10
11.9831999679
 20
10.2853596364
 30
0.0
 10
12.0299711828
 20
10.2912697837
 30
0.0
 10
12.0648036243
 20
10.2972421901
 30
0.0
 10
12.0878828054
 20
10.3017895463
 30
0.0
  0
SPLINE
  5
381
100
AcDbEntity
  8
0
100
AcDbSpline
 62
7
  6
CONTINUOUS
 70
0
 71
3
 72
23
 73
19
 74
0
 42
0.0000001
 43
0.0000001
 44
0.0000000001
 40
0.0
 40
0.0
 40
0.0
 40
0.0
 40
0.0679978533
 40
0.1353018631
 40
0.2018554099
 40
0.2676132346
 40
0.3325395022
 40
0.3966151177
 40
0.4598412047
 40
0.5222412155
 40
0.5838618231
 40
0.6447690144
 40
0.705043352
 40
0.7647745608
 40
0.8240532209
 40
0.8829657265
 40
0.9415926228
 40
1.0
 40
1.0
 40
1.0
 40
1.0
 10
12.1418036076
 20
10.6899324145
 30
0.0
 10
12.1501973963
 20
10.6951592693
 30
0.0
 10
12.1670307971
 20
10.7053507334
 30
0.0
 10
12.1925643469
 20
10.7198392003
 30
0.0
 10
12.2182547869
 20
10.7333642548
 30
0.0
 10
12.244091871
 20
10.7458331322
 30
0.0
 10
12.2700593974
 20
10.7571572553
 30
0.0
 10
12.2961340025
 20
10.7672568812
 30
0.0
 10
12.3222864774
 20
10.7760649412
 30
0.0
 10
12.3484819602
 20
10.7835345383
 30
0.0
 10
12.3746821626
 20
10.7896429335
 30
0.0
 10
12.4008485719
 20
10.7943913057
 30
0.0
 10
12.4269446233
 20
10.7978066987
 30
0.0
 10
12.452938313
 20
10.7999397253
 30
0.0
 10
12.4788040901
 20
10.8008574045
 30
0.0
 10
12.5045236262
 20
10.8006397827
 30
0.0
 10
12.5300846686
 20
10.7993746478
 30
0.0
 10
12.5470431136
 20
10.797889833
 30
0.0
 10
12.5554901427
 20
10.7970023275
 30
0.0
  0
SPLINE
  5
382
100
AcDbEntity
  8
0
100
AcDbSpline
 62
7
  6
CONTINUOUS
 70
0
 71
3
 72
21
 73
17
 74
0
 42
0.0000001
 43
0.0000001
 44
0.0000000001
 40
0.0
 40
0.0
 40
0.0
 40
0.0
 40
0.119195178
 40
0.1790929876
 40
0.2392477604
 40
0.2997138873
 40
0.3605475878
 40
0.4218079674
 40
0.4835540028
 40
0.5458413627
 40
0.6087209795
 40
0.672234225
 40
0.7364135972
 40
0.8012786058
 40
0.866837945
 40
1.0
 40
1.0
 40
1.0
 40
1.0
 10
12.1418036076
 20
10.3055289732
 30
0.0
 10
12.1553029274
 20
10.3041106378
 30
0.0
 10
12.1756531518
 20
10.3025420561
 30
0.0
 10
12.2028899673
 20
10.3017413048
 30
0.0
 10
12.2234510956
 20
10.3018290712
 30
0.0
 10
12.2441028186
 20
10.3026499367
 30
0.0
 10
12.2648360166
 20
10.3042441284
 30
0.0
 10
12.2856382154
 20
10.3066464629
 30
0.0
 10
12.3064942747
 20
10.3098863263
 30
0.0
 10
12.3273873082
 20
10.3139821062
 30
0.0
 10
12.3482979929
 20
10.3189465163
 30
0.0
 10
12.3692075363
 20
10.3247769993
 30
0.0
 10
12.3900956422
 20
10.331465919
 30
0.0
 10
12.4109451085
 20
10.3389910154
 30
0.0
 10
12.4388111427
 20
10.3501597433
 30
0.0
 10
12.4593916526
 20
10.3596156224
 30
0.0
 10
12.4729866247
 20
10.3663333413
 30
0.0
  0
SPLINE
  5
383
100
AcDbEntity
  8
0
100
AcDbSpline
 62
7
  6
CONTINUOUS
 70
0
 71
3
 72
47
 73
43
 74
0
 42
0.0000001
 43
0.0000001
 44
0.0000000001
 40
0.0
 40
0.0
 40
0.0
 40
0.0
 40
0.0099876626
 40
0.0204479669
 40
0.0313775025
 40
0.04277129
 40
0.0546224513
 40
0.0669232498
 40
0.0796649191
 40
0.0928371598
 40
0.1204281281
 40
0.1495995024
 40
0.1802418577
 40
0.2122349738
 40
0.2454500995
 40
0.2797508632
 40
0.3149939248
 40
0.3510306998
 40
0.3877079389
 40
0.4248686282
 40
0.4623531991
 40
0.5000001113
 40
0.5376470156
 40
0.5751315709
 40
0.6122922601
 40
0.6489695026
 40
0.6850062626
 40
0.720249304
 40
0.754550053
 40
0.7877651694
 40
0.8197582656
 40
0.8504005906
 40
0.8795719424
 40
0.907162899
 40
0.9203351314
 40
0.9330767818
 40
0.9453775464
 40
0.9572286765
 40
0.9686224633
 40
0.979552049
 40
0.990012398
 40
1.0
 40
1.0
 40
1.0
 40
1.0
 10
11.4743598415
 20
10.3438449761
 30
0.0
 10
11.4772588236
 20
10.3424129561
 30
0.0
 10
11.4832434975
 20
10.3395805891
 30
0.0
 10
11.4925516674
 20
10.3355098886
 30
0.0
 10
11.5023890572
 20
10.3315231556
 30
0.0
 10
11.5127443464
 20
10.3276252085
 30
0.0
 10
11.5236055802
 20
10.3238202074
 30
0.0
 10
11.5349603333
 20
10.3201127067
 30
0.0
 10
11.5467956372
 20
10.316507142
 30
0.0
 10
11.563456992
 20
10.3117674874
 30
0.0
 10
11.5853940887
 20
10.3061496551
 30
0.0
 10
11.6130125732
 20
10.2999761946
 30
0.0
 10
11.6421904948
 20
10.2943001616
 30
0.0
 10
11.6727932928
 20
10.2891477563
 30
0.0
 10
11.7046801274
 20
10.2845432125
 30
0.0
 10
11.7377039912
 20
10.2805082829
 30
0.0
 10
11.771712509
 20
10.2770615574
 30
0.0
 10
11.8065486932
 20
10.2742192793
 30
0.0
 10
11.842051717
 20
10.2719948485
 30
0.0
 10
11.8780576115
 20
10.2703983979
 30
0.0
 10
11.9144000529
 20
10.2694375587
 30
0.0
 10
11.9509111659
 20
10.2691168563
 30
0.0
 10
11.9874222738
 20
10.2694375683
 30
0.0
 10
12.0237647074
 20
10.2703984166
 30
0.0
 10
12.0597705974
 20
10.2719948776
 30
0.0
 10
12.0952736168
 20
10.2742193172
 30
0.0
 10
12.1301097899
 20
10.2770616047
 30
0.0
 10
12.1641182907
 20
10.2805083389
 30
0.0
 10
12.1971421391
 20
10.2845432771
 30
0.0
 10
12.229028958
 20
10.28914783
 30
0.0
 10
12.2596317351
 20
10.2943002428
 30
0.0
 10
12.2888096312
 20
10.2999762838
 30
0.0
 10
12.3164280933
 20
10.3061497489
 30
0.0
 10
12.3383651731
 20
10.3117675921
 30
0.0
 10
12.3550265123
 20
10.3165072555
 30
0.0
 10
12.3668617957
 20
10.3201128194
 30
0.0
 10
12.3782165237
 20
10.323820309
 30
0.0
 10
12.3890777375
 20
10.327625303
 30
0.0
 10
12.3994330279
 20
10.331523264
 30
0.0
 10
12.4092704317
 20
10.3355100443
 30
0.0
 10
12.4185785978
 20
10.3395807808
 30
0.0
 10
12.4245632678
 20
10.342413143
 30
0.0
 10
12.4274622374
 20
10.3438451439
 30
0.0
  0
SPLINE
  5
384
100
AcDbEntity
  8
0
100
AcDbSpline
 62
7
  6
CONTINUOUS
 70
0
 71
3
 72
15
 73
11
 74
0
 42
0.0000001
 43
0.0000001
 44
0.0000000001
 40
0.0
 40
0.0
 40
0.0
 40
0.0
 40
0.1343380542
 40
0.2648697481
 40
0.3921893739
 40
0.5168787269
 40
0.6395034772
 40
0.7605881804
 40
0.8806115565
 40
1.0
 40
1.0
 40
1.0
 40
1.0
 10
11.4402921244
 20
10.3606737982
 30
0.0
 10
11.4420783991
 20
10.3597917958
 30
0.0
 10
11.4456530471
 20
10.358156925
 30
0.0
 10
11.4510850242
 20
10.3560686152
 30
0.0
 10
11.4565012111
 20
10.3543686874
 30
0.0
 10
11.4619000481
 20
10.3530426683
 30
0.0
 10
11.4672802335
 20
10.352074092
 30
0.0
 10
11.4726409441
 20
10.3514465468
 30
0.0
 10
11.4779812534
 20
10.3511433147
 30
0.0
 10
11.4815337916
 20
10.3511461464
 30
0.0
 10
11.4833035529
 20
10.3511961071
 30
0.0
  0
SPLINE
  5
385
100
AcDbEntity
  8
0
100
AcDbSpline
 62
7
  6
CONTINUOUS
 70
0
 71
3
 72
11
 73
7
 74
0
 42
0.0000001
 43
0.0000001
 44
0.0000000001
 40
0.0
 40
0.0
 40
0.0
 40
0.0
 40
0.2690760955
 40
0.5253706249
 40
0.7689657929
 40
1.0
 40
1.0
 40
1.0
 40
1.0
 10
11.4592978944
 20
10.9571290246
 30
0.0
 10
11.4565780832
 20
10.9557854799
 30
0.0
 10
11.4513072269
 20
10.9530808909
 30
0.0
 10
11.4437329802
 20
10.948859539
 30
0.0
 10
11.4366905293
 20
10.9445767546
 30
0.0
 10
11.4322379745
 20
10.9416051785
 30
0.0
 10
11.4301069675
 20
10.9401074645
 30
0.0
  0
SPLINE
  5
386
100
AcDbEntity
  8
0
100
AcDbSpline
 62
7
  6
CONTINUOUS
 70
0
 71
3
 72
9
 73
5
 74
0
 42
0.0000001
 43
0.0000001
 44
0.0000000001
 40
0.0
 40
0.0
 40
0.0
 40
0.0
 40
0.5201382929
 40
1.0
 40
1.0
 40
1.0
 40
1.0
 10
11.4301069675
 20
10.9401074645
 30
0.0
 10
11.4273072141
 20
10.9381397423
 30
0.0
 10
11.422041766
 20
10.9341854115
 30
0.0
 10
11.4170927708
 20
10.9298366776
 30
0.0
 10
11.4148220249
 20
10.9276433054
 30
0.0
  0
SPLINE
  5
387
100
AcDbEntity
  8
0
100
AcDbSpline
 62
7
  6
CONTINUOUS
 70
0
 71
3
 72
44
 73
40
 74
0
 42
0.0000001
 43
0.0000001
 44
0.0000000001
 40
0.0
 40
0.0
 40
0.0
 40
0.0
 40
0.0840364397
 40
0.169504805
 40
0.2553475721
 40
0.3404999409
 40
0.3824882716
 40
0.4239107206
 40
0.4646400635
 40
0.5045518968
 40
0.5435251936
 40
0.5814428515
 40
0.6181922748
 40
0.6536659929
 40
0.6877623696
 40
0.7203863526
 40
0.7514502821
 40
0.7808748745
 40
0.8085904264
 40
0.834538383
 40
0.8586733676
 40
0.870052024
 40
0.8809678501
 40
0.8914203887
 40
0.9014106032
 40
0.9109412427
 40
0.9200172548
 40
0.9286457505
 40
0.9368368615
 40
0.9446038293
 40
0.9519637378
 40
0.9589382313
 40
0.965553926
 40
0.9718434876
 40
0.9778459264
 40
0.9836071464
 40
0.9891799005
 40
0.9946229937
 40
1.0
 40
1.0
 40
1.0
 40
1.0
 10
11.9757680013
 20
6.2708283068
 30
0.0
 10
11.9757680013
 20
6.2784467663
 30
0.0
 10
11.9760070769
 20
6.2938143737
 30
0.0
 10
11.9770445524
 20
6.3169431249
 30
0.0
 10
11.9787520145
 20
6.3401336019
 30
0.0
 10
11.9807233497
 20
6.3593440818
 30
0.0
 10
11.9826226238
 20
6.3745074483
 30
0.0
 10
11.9841912363
 20
6.3856521883
 30
0.0
 10
11.985905307
 20
6.3965849768
 30
0.0
 10
11.9877591648
 20
6.4072696863
 30
0.0
 10
11.9897466349
 20
6.4176709883
 30
0.0
 10
11.9918611063
 20
6.4277545097
 30
0.0
 10
11.9940955402
 20
6.4374869365
 30
0.0
 10
11.9964424982
 20
6.4468361318
 30
0.0
 10
11.9988941591
 20
6.4557712532
 30
0.0
 10
12.0014423452
 20
6.4642628617
 30
0.0
 10
12.0040785597
 20
6.4722830317
 30
0.0
 10
12.0067940136
 20
6.4798054297
 30
0.0
 10
12.0095796725
 20
6.4868055097
 30
0.0
 10
12.0124262824
 20
6.493260338
 30
0.0
 10
12.0148874542
 20
6.4982616167
 30
0.0
 10
12.0168861571
 20
6.5019664156
 30
0.0
 10
12.018365073
 20
6.5045410034
 30
0.0
 10
12.019852159
 20
6.5069644095
 30
0.0
 10
12.0213462445
 20
6.5092346647
 30
0.0
 10
12.0228461423
 20
6.5113499192
 30
0.0
 10
12.0243506114
 20
6.5133084985
 30
0.0
 10
12.0258585335
 20
6.5151087926
 30
0.0
 10
12.027368702
 20
6.5167493896
 30
0.0
 10
12.0288800089
 20
6.5182289578
 30
0.0
 10
12.0303913774
 20
6.5195462654
 30
0.0
 10
12.0319017052
 20
6.5207002471
 30
0.0
 10
12.0334100307
 20
6.5216897832
 30
0.0
 10
12.0349152918
 20
6.5225139294
 30
0.0
 10
12.0364164838
 20
6.5231716608
 30
0.0
 10
12.0379124552
 20
6.5236619674
 30
0.0
 10
12.0394019488
 20
6.5239839804
 30
0.0
 10
12.0408831835
 20
6.5241368106
 30
0.0
 10
12.0418665919
 20
6.5241255657
 30
0.0
 10
12.0423528847
 20
6.5240918355
 30
0.0
  0
SPLINE
  5
388
100
AcDbEntity
  8
0
100
AcDbSpline
 62
7
  6
CONTINUOUS
 70
0
 71
3
 72
44
 73
40
 74
0
 42
0.0000001
 43
0.0000001
 44
0.0000000001
 40
0.0
 40
0.0
 40
0.0
 40
0.0
 40
0.0840364397
 40
0.169504805
 40
0.2553475721
 40
0.3404999409
 40
0.3824882716
 40
0.4239107206
 40
0.4646400635
 40
0.5045518968
 40
0.5435251936
 40
0.5814428515
 40
0.6181922748
 40
0.6536659929
 40
0.6877623696
 40
0.7203863526
 40
0.7514502821
 40
0.7808748745
 40
0.8085904264
 40
0.834538383
 40
0.8586733676
 40
0.870052024
 40
0.8809678501
 40
0.8914203887
 40
0.9014106032
 40
0.9109412427
 40
0.9200172548
 40
0.9286457505
 40
0.9368368615
 40
0.9446038293
 40
0.9519637378
 40
0.9589382313
 40
0.965553926
 40
0.9718434876
 40
0.9778459264
 40
0.9836071464
 40
0.9891799005
 40
0.9946229937
 40
1.0
 40
1.0
 40
1.0
 40
1.0
 10
12.8169292037
 20
7.0833276844
 30
0.0
 10
12.8169292037
 20
7.0909461439
 30
0.0
 10
12.8171682793
 20
7.1063137513
 30
0.0
 10
12.8182057547
 20
7.1294425025
 30
0.0
 10
12.8199132169
 20
7.1526329795
 30
0.0
 10
12.8218845521
 20
7.1718434594
 30
0.0
 10
12.8237838262
 20
7.1870068259
 30
0.0
 10
12.8253524387
 20
7.1981515659
 30
0.0
 10
12.8270665094
 20
7.2090843544
 30
0.0
 10
12.8289203672
 20
7.2197690639
 30
0.0
 10
12.8309078373
 20
7.2301703659
 30
0.0
 10
12.8330223087
 20
7.2402538873
 30
0.0
 10
12.8352567426
 20
7.2499863141
 30
0.0
 10
12.8376037006
 20
7.2593355094
 30
0.0
 10
12.8400553614
 20
7.2682706308
 30
0.0
 10
12.8426035476
 20
7.2767622393
 30
0.0
 10
12.8452397621
 20
7.2847824093
 30
0.0
 10
12.847955216
 20
7.2923048073
 30
0.0
 10
12.8507408749
 20
7.2993048873
 30
0.0
 10
12.8535874848
 20
7.3057597156
 30
0.0
 10
12.8560486566
 20
7.3107609943
 30
0.0
 10
12.8580473595
 20
7.3144657932
 30
0.0
 10
12.8595262754
 20
7.317040381
 30
0.0
 10
12.8610133614
 20
7.3194637871
 30
0.0
 10
12.8625074469
 20
7.3217340423
 30
0.0
 10
12.8640073447
 20
7.3238492968
 30
0.0
 10
12.8655118138
 20
7.3258078761
 30
0.0
 10
12.8670197359
 20
7.3276081702
 30
0.0
 10
12.8685299044
 20
7.3292487672
 30
0.0
 10
12.8700412113
 20
7.3307283354
 30
0.0
 10
12.8715525798
 20
7.332045643
 30
0.0
 10
12.8730629076
 20
7.3331996247
 30
0.0
 10
12.8745712331
 20
7.3341891608
 30
0.0
 10
12.8760764942
 20
7.335013307
 30
0.0
 10
12.8775776862
 20
7.3356710384
 30
0.0
 10
12.8790736576
 20
7.336161345
 30
0.0
 10
12.8805631512
 20
7.336483358
 30
0.0
 10
12.8820443858
 20
7.3366361882
 30
0.0
 10
12.8830277943
 20
7.3366249433
 30
0.0
 10
12.8835140871
 20
7.3365912131
 30
0.0
  0
SPLINE
  5
389
100
AcDbEntity
  8
0
100
AcDbSpline
 62
7
  6
CONTINUOUS
 70
0
 71
3
 72
47
 73
43
 74
0
 42
0.0000001
 43
0.0000001
 44
0.0000000001
 40
0.0
 40
0.0
 40
0.0
 40
0.0
 40
0.0958288778
 40
0.1428190813
 40
0.1890973258
 40
0.2345927051
 40
0.2792365599
 40
0.3229622087
 40
0.36570484
 40
0.4074019633
 40
0.4479935495
 40
0.4874221989
 40
0.5256333955
 40
0.562575849
 40
0.5982017357
 40
0.6324670006
 40
0.6653317986
 40
0.696761026
 40
0.7267248024
 40
0.7551991569
 40
0.7821669874
 40
0.8076191674
 40
0.8315558892
 40
0.8429599089
 40
0.8539904626
 40
0.8646510953
 40
0.8749464064
 40
0.8848822263
 40
0.8944655538
 40
0.903704898
 40
0.9126103679
 40
0.9211937503
 40
0.9294688928
 40
0.9374517342
 40
0.945160509
 40
0.9598347361
 40
0.9668566082
 40
0.9737035131
 40
0.9804067666
 40
0.9870000197
 40
0.9935188069
 40
1.0
 40
1.0
 40
1.0
 40
1.0
 10
10.3622598959
 20
10.2222989214
 30
0.0
 10
10.3481950648
 20
10.2232743208
 30
0.0
 10
10.3272484817
 20
10.2249615862
 30
0.0
 10
10.2995615588
 20
10.2276896808
 30
0.0
 10
10.2792699566
 20
10.2299389168
 30
0.0
 10
10.2593508565
 20
10.2324007875
 30
0.0
 10
10.23983757
 20
10.235071163
 30
0.0
 10
10.2207627238
 20
10.2379455434
 30
0.0
 10
10.2021581872
 20
10.241019115
 30
0.0
 10
10.1840550502
 20
10.2442867058
 30
0.0
 10
10.1664835445
 20
10.2477428136
 30
0.0
 10
10.1494730114
 20
10.2513816285
 30
0.0
 10
10.1330518455
 20
10.2551970435
 30
0.0
 10
10.1172474312
 20
10.2591826315
 30
0.0
 10
10.1020861026
 20
10.2633316853
 30
0.0
 10
10.0875931049
 20
10.267637236
 30
0.0
 10
10.0737925353
 20
10.2720920603
 30
0.0
 10
10.0607072865
 20
10.2766886692
 30
0.0
 10
10.0483590064
 20
10.2814193656
 30
0.0
 10
10.0367680922
 20
10.286276264
 30
0.0
 10
10.0259535029
 20
10.2912513222
 30
0.0
 10
10.0159331199
 20
10.2963362868
 30
0.0
 10
10.0081366998
 20
10.3007266445
 30
0.0
 10
10.0023211778
 20
10.3042948555
 30
0.0
 10
9.9982389784
 20
10.3069499212
 30
0.0
 10
9.9943672486
 20
10.3096260807
 30
0.0
 10
9.9907075901
 20
10.3123222957
 30
0.0
 10
9.9872614832
 20
10.3150374264
 30
0.0
 10
9.984030378
 20
10.3177704315
 30
0.0
 10
9.981015603
 20
10.3205202163
 30
0.0
 10
9.9782183892
 20
10.3232856692
 30
0.0
 10
9.9756399447
 20
10.3260657914
 30
0.0
 10
9.9732813785
 20
10.3288593938
 30
0.0
 10
9.9711435573
 20
10.3316657083
 30
0.0
 10
9.9686306922
 20
10.3353611673
 30
0.0
 10
9.9665046361
 20
10.3391439189
 30
0.0
 10
9.9648202318
 20
10.3429935648
 30
0.0
 10
9.9638002962
 20
10.3458459286
 30
0.0
 10
9.9630062913
 20
10.3487039017
 30
0.0
 10
9.9624386866
 20
10.3515663287
 30
0.0
 10
9.9620978956
 20
10.3544315344
 30
0.0
 10
9.96202208
 20
10.356344982
 30
0.0
 10
9.9620220759
 20
10.3572985133
 30
0.0
  0
SPLINE
  5
38A
100
AcDbEntity
  8
0
100
AcDbSpline
 62
7
  6
CONTINUOUS
 70
0
 71
3
 72
47
 73
43
 74
0
 42
0.0000001
 43
0.0000001
 44
0.0000000001
 40
0.0
 40
0.0
 40
0.0
 40
0.0
 40
0.0958288778
 40
0.1428190813
 40
0.1890973258
 40
0.2345927051
 40
0.2792365599
 40
0.3229622087
 40
0.36570484
 40
0.4074019633
 40
0.4479935495
 40
0.4874221989
 40
0.5256333955
 40
0.562575849
 40
0.5982017357
 40
0.6324670006
 40
0.6653317986
 40
0.696761026
 40
0.7267248024
 40
0.7551991569
 40
0.7821669874
 40
0.8076191674
 40
0.8315558892
 40
0.8429599089
 40
0.8539904626
 40
0.8646510953
 40
0.8749464064
 40
0.8848822263
 40
0.8944655538
 40
0.903704898
 40
0.9126103679
 40
0.9211937503
 40
0.9294688928
 40
0.9374517342
 40
0.945160509
 40
0.9598347361
 40
0.9668566082
 40
0.9737035131
 40
0.9804067666
 40
0.9870000197
 40
0.9935188069
 40
1.0
 40
1.0
 40
1.0
 40
1.0
 10
11.8111487212
 20
10.1218181401
 30
0.0
 10
11.7970838901
 20
10.1227935395
 30
0.0
 10
11.776137307
 20
10.1244808049
 30
0.0
 10
11.7484503841
 20
10.1272088995
 30
0.0
 10
11.7281587818
 20
10.1294581355
 30
0.0
 10
11.7082396818
 20
10.1319200062
 30
0.0
 10
11.6887263953
 20
10.1345903817
 30
0.0
 10
11.6696515491
 20
10.1374647621
 30
0.0
 10
11.6510470125
 20
10.1405383337
 30
0.0
 10
11.6329438755
 20
10.1438059245
 30
0.0
 10
11.6153723697
 20
10.1472620323
 30
0.0
 10
11.5983618367
 20
10.1509008472
 30
0.0
 10
11.5819406707
 20
10.1547162622
 30
0.0
 10
11.5661362565
 20
10.1587018502
 30
0.0
 10
11.5509749279
 20
10.162850904
 30
0.0
 10
11.5364819302
 20
10.1671564547
 30
0.0
 10
11.5226813606
 20
10.171611279
 30
0.0
 10
11.5095961118
 20
10.1762078879
 30
0.0
 10
11.4972478317
 20
10.1809385843
 30
0.0
 10
11.4856569175
 20
10.1857954827
 30
0.0
 10
11.4748423282
 20
10.1907705409
 30
0.0
 10
11.4648219452
 20
10.1958555055
 30
0.0
 10
11.457025525
 20
10.2002458632
 30
0.0
 10
11.4512100031
 20
10.2038140742
 30
0.0
 10
11.4471278037
 20
10.2064691399
 30
0.0
 10
11.4432560739
 20
10.2091452994
 30
0.0
 10
11.4395964154
 20
10.2118415144
 30
0.0
 10
11.4361503085
 20
10.2145566451
 30
0.0
 10
11.4329192033
 20
10.2172896501
 30
0.0
 10
11.4299044283
 20
10.220039435
 30
0.0
 10
11.4271072145
 20
10.2228048879
 30
0.0
 10
11.42452877
 20
10.2255850101
 30
0.0
 10
11.4221702038
 20
10.2283786125
 30
0.0
 10
11.4200323826
 20
10.2311849269
 30
0.0
 10
11.4175195175
 20
10.2348803859
 30
0.0
 10
11.4153934614
 20
10.2386631376
 30
0.0
 10
11.4137090571
 20
10.2425127835
 30
0.0
 10
11.4126891215
 20
10.2453651473
 30
0.0
 10
11.4118951166
 20
10.2482231204
 30
0.0
 10
11.4113275119
 20
10.2510855474
 30
0.0
 10
11.4109867209
 20
10.2539507531
 30
0.0
 10
11.4109109052
 20
10.2558642007
 30
0.0
 10
11.4109109012
 20
10.256817732
 30
0.0
  0
SPLINE
  5
38B
100
AcDbEntity
  8
0
100
AcDbSpline
 62
7
  6
CONTINUOUS
 70
0
 71
3
 72
23
 73
19
 74
0
 42
0.0000001
 43
0.0000001
 44
0.0000000001
 40
0.0
 40
0.0
 40
0.0
 40
0.0
 40
0.0637769127
 40
0.127344953
 40
0.1907019652
 40
0.2538561227
 40
0.3168132057
 40
0.3795820872
 40
0.4421733866
 40
0.5045993385
 40
0.5668738691
 40
0.6290123824
 40
0.6910316505
 40
0.7529496453
 40
0.8147853569
 40
0.8765586065
 40
0.9382898561
 40
1.0
 40
1.0
 40
1.0
 40
1.0
 10
10.1177581507
 20
8.7894432091
 30
0.0
 10
10.1177581507
 20
8.7840200176
 30
0.0
 10
10.1174985653
 20
8.7731895586
 30
0.0
 10
10.1163269788
 20
8.7570097623
 30
0.0
 10
10.1143762542
 20
8.7409582112
 30
0.0
 10
10.1116510792
 20
8.7250726094
 30
0.0
 10
10.1081575296
 20
8.7093892646
 30
0.0
 10
10.1039036853
 20
8.693944432
 30
0.0
 10
10.0988993313
 20
8.6787736922
 30
0.0
 10
10.0931559618
 20
8.6639120294
 30
0.0
 10
10.0866867696
 20
8.6493937296
 30
0.0
 10
10.0795066433
 20
8.635252281
 30
0.0
 10
10.0716321409
 20
8.6215202956
 30
0.0
 10
10.0630813941
 20
8.608229443
 30
0.0
 10
10.0538741178
 20
8.595410425
 30
0.0
 10
10.0440314223
 20
8.5830927228
 30
0.0
 10
10.0335764095
 20
8.5713051272
 30
0.0
 10
10.0262128894
 20
8.5638168645
 30
0.0
 10
10.0224386319
 20
8.560171227
 30
0.0
  0
SPLINE
  5
38C
100
AcDbEntity
  8
0
100
AcDbSpline
 62
7
  6
CONTINUOUS
 70
0
 71
3
 72
23
 73
19
 74
0
 42
0.0000001
 43
0.0000001
 44
0.0000000001
 40
0.0
 40
0.0
 40
0.0
 40
0.0
 40
0.0637769127
 40
0.127344953
 40
0.1907019652
 40
0.2538561227
 40
0.3168132057
 40
0.3795820872
 40
0.4421733866
 40
0.5045993385
 40
0.5668738691
 40
0.6290123824
 40
0.6910316505
 40
0.7529496453
 40
0.8147853569
 40
0.8765586065
 40
0.9382898561
 40
1.0
 40
1.0
 40
1.0
 40
1.0
 10
11.566646976
 20
8.6889624278
 30
0.0
 10
11.566646976
 20
8.6835392363
 30
0.0
 10
11.5663873906
 20
8.6727087772
 30
0.0
 10
11.5652158041
 20
8.656528981
 30
0.0
 10
11.5632650794
 20
8.6404774299
 30
0.0
 10
11.5605399045
 20
8.6245918281
 30
0.0
 10
11.5570463549
 20
8.6089084833
 30
0.0
 10
11.5527925106
 20
8.5934636507
 30
0.0
 10
11.5477881566
 20
8.5782929109
 30
0.0
 10
11.5420447871
 20
8.5634312481
 30
0.0
 10
11.5355755948
 20
8.5489129483
 30
0.0
 10
11.5283954686
 20
8.5347714997
 30
0.0
 10
11.5205209662
 20
8.5210395143
 30
0.0
 10
11.5119702194
 20
8.5077486617
 30
0.0
 10
11.5027629431
 20
8.4949296437
 30
0.0
 10
11.4929202476
 20
8.4826119415
 30
0.0
 10
11.4824652348
 20
8.4708243459
 30
0.0
 10
11.4751017147
 20
8.4633360831
 30
0.0
 10
11.4713274572
 20
8.4596904456
 30
0.0
  0
SPLINE
  5
38D
100
AcDbEntity
  8
0
100
AcDbSpline
 62
7
  6
CONTINUOUS
 70
0
 71
3
 72
15
 73
11
 74
0
 42
0.0000001
 43
0.0000001
 44
0.0000000001
 40
0.0
 40
0.0
 40
0.0
 40
0.0
 40
0.1225647732
 40
0.2461424779
 40
0.3706516597
 40
0.4959748243
 40
0.621928657
 40
0.7482271799
 40
0.8744466026
 40
1.0
 40
1.0
 40
1.0
 40
1.0
 10
11.0426158833
 20
7.4331576709
 30
0.0
 10
11.0426158833
 20
7.4431164016
 30
0.0
 10
11.043417147
 20
7.4631248133
 30
0.0
 10
11.0469752366
 20
7.4930592001
 30
0.0
 10
11.0528602231
 20
7.5228537081
 30
0.0
 10
11.0610098039
 20
7.5523084729
 30
0.0
 10
11.071326935
 20
7.5812284771
 30
0.0
 10
11.0836730791
 20
7.6094197845
 30
0.0
 10
11.0978583697
 20
7.6366913054
 30
0.0
 10
11.1084297296
 20
7.6542226639
 30
0.0
 10
11.1139518122
 20
7.6628004566
 30
0.0
  0
SPLINE
  5
38E
100
AcDbEntity
  8
0
100
AcDbSpline
 62
7
  6
CONTINUOUS
 70
0
 71
3
 72
41
 73
37
 74
0
 42
0.0000001
 43
0.0000001
 44
0.0000000001
 40
0.0
 40
0.0
 40
0.0
 40
0.0
 40
0.0078190759
 40
0.0157212436
 40
0.0237412208
 40
0.0319116143
 40
0.0402628388
 40
0.0488221526
 40
0.0666506511
 40
0.0855652866
 40
0.1056841778
 40
0.1270900032
 40
0.1498358078
 40
0.1739497874
 40
0.1994391191
 40
0.2262929005
 40
0.2544843728
 40
0.2839728531
 40
0.314705582
 40
0.3466195309
 40
0.3796434145
 40
0.448676737
 40
0.4845543406
 40
0.5212199695
 40
0.5585951663
 40
0.5966060084
 40
0.6351843692
 40
0.6742686651
 40
0.7138042591
 40
0.7537435859
 40
0.7940460119
 40
0.8346772866
 40
0.8756092862
 40
0.9168184873
 40
0.9582876165
 40
1.0
 40
1.0
 40
1.0
 40
1.0
 10
11.300131621
 20
7.1604145672
 30
0.0
 10
11.2993048627
 20
7.1596159799
 30
0.0
 10
11.2975809409
 20
7.1580728065
 30
0.0
 10
11.2948121971
 20
7.1559430084
 30
0.0
 10
11.2918530232
 20
7.1539912545
 30
0.0
 10
11.2887065912
 20
7.1522201702
 30
0.0
 10
11.2853759023
 20
7.1506321733
 30
0.0
 10
11.2806303376
 20
7.1487371432
 30
0.0
 10
11.2742234829
 20
7.1468564961
 30
0.0
 10
11.26597342
 20
7.1454176916
 30
0.0
 10
11.2570960387
 20
7.1447926999
 30
0.0
 10
11.2476377376
 20
7.1450124268
 30
0.0
 10
11.237650671
 20
7.1461092184
 30
0.0
 10
11.2271949225
 20
7.1481160281
 30
0.0
 10
11.2163382283
 20
7.1510644665
 30
0.0
 10
11.2051559659
 20
7.1549830638
 30
0.0
 10
11.1937306085
 20
7.1598954188
 30
0.0
 10
11.1821507547
 20
7.1658185211
 30
0.0
 10
11.1705100203
 20
7.172761022
 30
0.0
 10
11.1589044454
 20
7.1807228381
 30
0.0
 10
11.143381313
 20
7.1928599759
 30
0.0
 10
11.1285947377
 20
7.2068220245
 30
0.0
 10
11.1147691135
 20
7.2223904592
 30
0.0
 10
11.1047586427
 20
7.235087675
 30
0.0
 10
11.095318503
 20
7.2485975446
 30
0.0
 10
11.0865140626
 20
7.2628617564
 30
0.0
 10
11.0784032949
 20
7.2778177256
 30
0.0
 10
11.0710354705
 20
7.2934015069
 30
0.0
 10
11.0644520197
 20
7.3095486345
 30
0.0
 10
11.0586870528
 20
7.3261952274
 30
0.0
 10
11.0537681526
 20
7.3432786761
 30
0.0
 10
11.0497171002
 20
7.3607381714
 30
0.0
 10
11.0465507264
 20
7.3785148214
 30
0.0
 10
11.0442812768
 20
7.3965522212
 30
0.0
 10
11.0429173865
 20
7.4147950554
 30
0.0
 10
11.0426158833
 20
7.4270256231
 30
0.0
 10
11.0426158833
 20
7.4331576709
 30
0.0
  0
SPLINE
  5
38F
100
AcDbEntity
  8
0
100
AcDbSpline
 62
7
  6
CONTINUOUS
 70
0
 71
3
 72
36
 73
32
 74
0
 42
0.0000001
 43
0.0000001
 44
0.0000000001
 40
0.0
 40
0.0
 40
0.0
 40
0.0
 40
0.0063161168
 40
0.0126711619
 40
0.0191032581
 40
0.0256490626
 40
0.0392095001
 40
0.05360793
 40
0.0690454499
 40
0.0856791324
 40
0.1036278316
 40
0.1229783533
 40
0.1437916317
 40
0.1661081543
 40
0.1899514448
 40
0.2153320271
 40
0.2422489508
 40
0.2706924073
 40
0.3006446146
 40
0.3320810971
 40
0.3649717252
 40
0.3992808975
 40
0.4349688229
 40
0.4719911741
 40
0.5103002058
 40
0.5498445536
 40
0.632416346
 40
0.7192407559
 40
0.8098108808
 40
0.9035854839
 40
1.0
 40
1.0
 40
1.0
 40
1.0
 10
12.0142635634
 20
6.1190647004
 30
0.0
 10
12.0139204571
 20
6.1190884989
 30
0.0
 10
12.01323375
 20
6.1191643324
 30
0.0
 10
12.0122113988
 20
6.1193619936
 30
0.0
 10
12.0111958502
 20
6.1196435501
 30
0.0
 10
12.0098360001
 20
6.1201361034
 30
0.0
 10
12.0081463185
 20
6.1209735337
 30
0.0
 10
12.0061825368
 20
6.1222984762
 30
0.0
 10
12.0042598754
 20
6.1239512385
 30
0.0
 10
12.0023803808
 20
6.1259279659
 30
0.0
 10
12.0005457957
 20
6.1282252298
 30
0.0
 10
11.9987582364
 20
6.1308393652
 30
0.0
 10
11.9970199878
 20
6.1337663528
 30
0.0
 10
11.9953335765
 20
6.1370017101
 30
0.0
 10
11.9937014769
 20
6.1405403746
 30
0.0
 10
11.9921263186
 20
6.1443767851
 30
0.0
 10
11.990610568
 20
6.1485048028
 30
0.0
 10
11.9891567346
 20
6.1529177931
 30
0.0
 10
11.9877671943
 20
6.1576086028
 30
0.0
 10
11.9864442333
 20
6.1625695963
 30
0.0
 10
11.9851900801
 20
6.1677926728
 30
0.0
 10
11.9840067729
 20
6.1732692763
 30
0.0
 10
11.9828963322
 20
6.1789904245
 30
0.0
 10
11.9818605668
 20
6.1849467146
 30
0.0
 10
11.9809012129
 20
6.1911283608
 30
0.0
 10
11.9797089419
 20
6.1997825835
 30
0.0
 10
11.9784307413
 20
6.2110899297
 30
0.0
 10
11.9772440762
 20
6.2251977029
 30
0.0
 10
11.9763916388
 20
6.2399406105
 30
0.0
 10
11.9758792114
 20
6.2552215059
 30
0.0
 10
11.9757680013
 20
6.2655782587
 30
0.0
 10
11.9757680013
 20
6.2708283068
 30
0.0
  0
SPLINE
  5
390
100
AcDbEntity
  8
0
100
AcDbSpline
 62
7
  6
CONTINUOUS
 70
0
 71
3
 72
36
 73
32
 74
0
 42
0.0000001
 43
0.0000001
 44
0.0000000001
 40
0.0
 40
0.0
 40
0.0
 40
0.0
 40
0.0063161168
 40
0.0126711619
 40
0.0191032581
 40
0.0256490626
 40
0.0392095001
 40
0.05360793
 40
0.0690454499
 40
0.0856791324
 40
0.1036278316
 40
0.1229783533
 40
0.1437916317
 40
0.1661081543
 40
0.1899514448
 40
0.2153320271
 40
0.2422489508
 40
0.2706924073
 40
0.3006446146
 40
0.3320810971
 40
0.3649717252
 40
0.3992808975
 40
0.4349688229
 40
0.4719911741
 40
0.5103002058
 40
0.5498445536
 40
0.632416346
 40
0.7192407559
 40
0.8098108808
 40
0.9035854839
 40
1.0
 40
1.0
 40
1.0
 40
1.0
 10
12.8554247658
 20
6.931564078
 30
0.0
 10
12.8550816595
 20
6.9315878765
 30
0.0
 10
12.8543949524
 20
6.93166371
 30
0.0
 10
12.8533726012
 20
6.9318613712
 30
0.0
 10
12.8523570526
 20
6.9321429277
 30
0.0
 10
12.8509972025
 20
6.932635481
 30
0.0
 10
12.8493075209
 20
6.9334729113
 30
0.0
 10
12.8473437392
 20
6.9347978538
 30
0.0
 10
12.8454210778
 20
6.9364506161
 30
0.0
 10
12.8435415832
 20
6.9384273435
 30
0.0
 10
12.8417069981
 20
6.9407246074
 30
0.0
 10
12.8399194388
 20
6.9433387428
 30
0.0
 10
12.8381811902
 20
6.9462657304
 30
0.0
 10
12.8364947789
 20
6.9495010877
 30
0.0
 10
12.8348626793
 20
6.9530397522
 30
0.0
 10
12.833287521
 20
6.9568761627
 30
0.0
 10
12.8317717704
 20
6.9610041804
 30
0.0
 10
12.830317937
 20
6.9654171707
 30
0.0
 10
12.8289283967
 20
6.9701079804
 30
0.0
 10
12.8276054357
 20
6.9750689739
 30
0.0
 10
12.8263512825
 20
6.9802920504
 30
0.0
 10
12.8251679753
 20
6.9857686539
 30
0.0
 10
12.8240575346
 20
6.9914898021
 30
0.0
 10
12.8230217692
 20
6.9974460922
 30
0.0
 10
12.8220624153
 20
7.0036277384
 30
0.0
 10
12.8208701443
 20
7.0122819611
 30
0.0
 10
12.8195919437
 20
7.0235893073
 30
0.0
 10
12.8184052786
 20
7.0376970805
 30
0.0
 10
12.8175528412
 20
7.0524399881
 30
0.0
 10
12.8170404137
 20
7.0677208835
 30
0.0
 10
12.8169292037
 20
7.0780776363
 30
0.0
 10
12.8169292037
 20
7.0833276844
 30
0.0
  0
SPLINE
  5
391
100
AcDbEntity
  8
0
100
AcDbSpline
 62
7
  6
CONTINUOUS
 70
0
 71
3
 72
52
 73
48
 74
0
 42
0.0000001
 43
0.0000001
 44
0.0000000001
 40
0.0
 40
0.0
 40
0.0
 40
0.0
 40
0.0055575409
 40
0.0111779669
 40
0.0169218944
 40
0.0228457784
 40
0.0290005385
 40
0.0354309383
 40
0.0421753664
 40
0.0492662129
 40
0.0567302428
 40
0.0645893498
 40
0.0728610114
 40
0.0815590518
 40
0.0906939685
 40
0.1002735876
 40
0.1103032329
 40
0.1207862668
 40
0.1317241336
 40
0.1431168099
 40
0.1549627623
 40
0.1672593293
 40
0.180002627
 40
0.1931878784
 40
0.2068092924
 40
0.2208603496
 40
0.2353336718
 40
0.2502212706
 40
0.2812030867
 40
0.3137301822
 40
0.3477175443
 40
0.3830726942
 40
0.4196965467
 40
0.4574841626
 40
0.4963254275
 40
0.5361056779
 40
0.5767062924
 40
0.6180052566
 40
0.6598777114
 40
0.7021964885
 40
0.7448326391
 40
0.7876559545
 40
0.8305354925
 40
0.8733400712
 40
0.9159388564
 40
0.9582016962
 40
1.0
 40
1.0
 40
1.0
 40
1.0
 10
11.0420220539
 20
10.3572991227
 30
0.0
 10
11.0420220595
 20
10.3559632672
 30
0.0
 10
11.0418725346
 20
10.3532741125
 30
0.0
 10
11.0412012803
 20
10.3492547369
 30
0.0
 10
11.040084257
 20
10.3452443166
 30
0.0
 10
11.0385235544
 20
10.3412475279
 30
0.0
 10
11.0365218227
 20
10.3372675757
 30
0.0
 10
11.0340816756
 20
10.3333075549
 30
0.0
 10
11.031205967
 20
10.3293701303
 30
0.0
 10
11.0278974437
 20
10.3254580163
 30
0.0
 10
11.0241591346
 20
10.3215737781
 30
0.0
 10
11.0199941066
 20
10.3177201899
 30
0.0
 10
11.0154058087
 20
10.3138999263
 30
0.0
 10
11.0103978546
 20
10.3101158932
 30
0.0
 10
11.0049742853
 20
10.3063708688
 30
0.0
 10
10.9991393756
 20
10.3026678371
 30
0.0
 10
10.9928978275
 20
10.2990096201
 30
0.0
 10
10.9862546089
 20
10.2953992135
 30
0.0
 10
10.9792150948
 20
10.2918394308
 30
0.0
 10
10.9717849395
 20
10.28833323
 30
0.0
 10
10.9639701787
 20
10.2848833789
 30
0.0
 10
10.9557771315
 20
10.2814927647
 30
0.0
 10
10.9472124726
 20
10.2781640847
 30
0.0
 10
10.9382831594
 20
10.2749001334
 30
0.0
 10
10.9289964797
 20
10.2717035186
 30
0.0
 10
10.9193600038
 20
10.2685769322
 30
0.0
 10
10.9093815947
 20
10.2655228542
 30
0.0
 10
10.8954464007
 20
10.2614973615
 30
0.0
 10
10.8772260028
 20
10.2566786087
 30
0.0
 10
10.8544146244
 20
10.2512975965
 30
0.0
 10
10.8304495069
 20
10.2462617993
 30
0.0
 10
10.8054090488
 20
10.2415878706
 30
0.0
 10
10.7793750125
 20
10.2372912922
 30
0.0
 10
10.7524325468
 20
10.2333862814
 30
0.0
 10
10.7246698043
 20
10.229885756
 30
0.0
 10
10.6961776663
 20
10.2268012901
 30
0.0
 10
10.6670494293
 20
10.2241430781
 30
0.0
 10
10.6373804955
 20
10.2219199024
 30
0.0
 10
10.6072680537
 20
10.220139106
 30
0.0
 10
10.576810758
 20
10.2188065693
 30
0.0
 10
10.5461084008
 20
10.2179266918
 30
0.0
 10
10.5152615828
 20
10.2175023778
 30
0.0
 10
10.4843713819
 20
10.2175350287
 30
0.0
 10
10.4535390192
 20
10.2180245346
 30
0.0
 10
10.4228655132
 20
10.2189692845
 30
0.0
 10
10.3924514512
 20
10.2203661491
 30
0.0
 10
10.3722828017
 20
10.2216038306
 30
0.0
 10
10.3622598959
 20
10.2222989214
 30
0.0
  0
SPLINE
  5
392
100
AcDbEntity
  8
0
100
AcDbSpline
 62
7
  6
CONTINUOUS
 70
0
 71
3
 72
52
 73
48
 74
0
 42
0.0000001
 43
0.0000001
 44
0.0000000001
 40
0.0
 40
0.0
 40
0.0
 40
0.0
 40
0.0055575409
 40
0.0111779669
 40
0.0169218944
 40
0.0228457784
 40
0.0290005385
 40
0.0354309383
 40
0.0421753664
 40
0.0492662129
 40
0.0567302428
 40
0.0645893498
 40
0.0728610114
 40
0.0815590518
 40
0.0906939685
 40
0.1002735876
 40
0.1103032329
 40
0.1207862668
 40
0.1317241336
 40
0.1431168099
 40
0.1549627623
 40
0.1672593293
 40
0.180002627
 40
0.1931878784
 40
0.2068092924
 40
0.2208603496
 40
0.2353336718
 40
0.2502212706
 40
0.2812030867
 40
0.3137301822
 40
0.3477175443
 40
0.3830726942
 40
0.4196965467
 40
0.4574841626
 40
0.4963254275
 40
0.5361056779
 40
0.5767062924
 40
0.6180052566
 40
0.6598777114
 40
0.7021964885
 40
0.7448326391
 40
0.7876559545
 40
0.8305354925
 40
0.8733400712
 40
0.9159388564
 40
0.9582016962
 40
1.0
 40
1.0
 40
1.0
 40
1.0
 10
12.4909108792
 20
10.2568183414
 30
0.0
 10
12.4909108848
 20
10.2554824858
 30
0.0
 10
12.4907613599
 20
10.2527933312
 30
0.0
 10
12.4900901055
 20
10.2487739556
 30
0.0
 10
12.4889730823
 20
10.2447635353
 30
0.0
 10
12.4874123796
 20
10.2407667466
 30
0.0
 10
12.485410648
 20
10.2367867944
 30
0.0
 10
12.4829705009
 20
10.2328267736
 30
0.0
 10
12.4800947923
 20
10.228889349
 30
0.0
 10
12.4767862689
 20
10.224977235
 30
0.0
 10
12.4730479599
 20
10.2210929967
 30
0.0
 10
12.4688829319
 20
10.2172394086
 30
0.0
 10
12.464294634
 20
10.2134191449
 30
0.0
 10
12.4592866799
 20
10.2096351119
 30
0.0
 10
12.4538631106
 20
10.2058900875
 30
0.0
 10
12.4480282008
 20
10.2021870557
 30
0.0
 10
12.4417866528
 20
10.1985288388
 30
0.0
 10
12.4351434342
 20
10.1949184322
 30
0.0
 10
12.4281039201
 20
10.1913586495
 30
0.0
 10
12.4206737648
 20
10.1878524487
 30
0.0
 10
12.412859004
 20
10.1844025975
 30
0.0
 10
12.4046659568
 20
10.1810119834
 30
0.0
 10
12.3961012978
 20
10.1776833034
 30
0.0
 10
12.3871719847
 20
10.1744193521
 30
0.0
 10
12.377885305
 20
10.1712227373
 30
0.0
 10
12.3682488291
 20
10.1680961509
 30
0.0
 10
12.35827042
 20
10.1650420729
 30
0.0
 10
12.344335226
 20
10.1610165802
 30
0.0
 10
12.3261148281
 20
10.1561978274
 30
0.0
 10
12.3033034497
 20
10.1508168152
 30
0.0
 10
12.2793383322
 20
10.145781018
 30
0.0
 10
12.2542978741
 20
10.1411070893
 30
0.0
 10
12.2282638378
 20
10.1368105109
 30
0.0
 10
12.2013213721
 20
10.1329055001
 30
0.0
 10
12.1735586296
 20
10.1294049747
 30
0.0
 10
12.1450664916
 20
10.1263205088
 30
0.0
 10
12.1159382546
 20
10.1236622968
 30
0.0
 10
12.0862693207
 20
10.1214391211
 30
0.0
 10
12.056156879
 20
10.1196583247
 30
0.0
 10
12.0256995833
 20
10.118325788
 30
0.0
 10
11.9949972261
 20
10.1174459105
 30
0.0
 10
11.9641504081
 20
10.1170215964
 30
0.0
 10
11.9332602072
 20
10.1170542474
 30
0.0
 10
11.9024278445
 20
10.1175437533
 30
0.0
 10
11.8717543385
 20
10.1184885032
 30
0.0
 10
11.8413402764
 20
10.1198853678
 30
0.0
 10
11.821171627
 20
10.1211230492
 30
0.0
 10
11.8111487212
 20
10.1218181401
 30
0.0
  0
SPLINE
  5
393
100
AcDbEntity
  8
0
100
AcDbSpline
 62
7
  6
CONTINUOUS
 70
0
 71
3
 72
39
 73
35
 74
0
 42
0.0000001
 43
0.0000001
 44
0.0000000001
 40
0.0
 40
0.0
 40
0.0
 40
0.0
 40
0.029942471
 40
0.0599093183
 40
0.0899243244
 40
0.1200101034
 40
0.1501875624
 40
0.1804754148
 40
0.2108897596
 40
0.2414437361
 40
0.2721472598
 40
0.3030068424
 40
0.3340254951
 40
0.3652027149
 40
0.3965345496
 40
0.4280137343
 40
0.459629891
 40
0.4913697854
 40
0.5232176334
 40
0.5551554501
 40
0.5871634341
 40
0.6192203766
 40
0.6513040925
 40
0.6833918636
 40
0.7154608915
 40
0.7474887505
 40
0.7794538351
 40
0.8113357956
 40
0.8431159562
 40
0.8747777121
 40
0.9063068677
 40
0.9376920929
 40
0.9689246489
 40
1.0
 40
1.0
 40
1.0
 40
1.0
 10
9.5340317733
 20
9.065807184
 30
0.0
 10
9.5398630533
 20
9.0714397443
 30
0.0
 10
9.5519841036
 20
9.0822503287
 30
0.0
 10
9.5714039381
 20
9.0969778153
 30
0.0
 10
9.591962736
 20
9.1101432429
 30
0.0
 10
9.6135456371
 20
9.1216727436
 30
0.0
 10
9.6360339837
 20
9.1315033181
 30
0.0
 10
9.6593036613
 20
9.1395809317
 30
0.0
 10
9.6832264363
 20
9.1458613992
 30
0.0
 10
9.7076705113
 20
9.1503104343
 30
0.0
 10
9.7325013033
 20
9.1529038684
 30
0.0
 10
9.7575821749
 20
9.1536277498
 30
0.0
 10
9.7827751862
 20
9.1524784118
 30
0.0
 10
9.8079418518
 20
9.1494625007
 30
0.0
 10
9.8329438974
 20
9.1445968911
 30
0.0
 10
9.8576440079
 20
9.1379085864
 30
0.0
 10
9.8819065706
 20
9.1294345617
 30
0.0
 10
9.9055984055
 20
9.1192215509
 30
0.0
 10
9.9285894954
 20
9.1073258124
 30
0.0
 10
9.9507536903
 20
9.0938128073
 30
0.0
 10
9.9719693819
 20
9.0787568268
 30
0.0
 10
9.9921201637
 20
9.0622405899
 30
0.0
 10
10.011095459
 20
9.0443547925
 30
0.0
 10
10.0287911218
 20
9.0251976177
 30
0.0
 10
10.0451100238
 20
9.0048742189
 30
0.0
 10
10.0599625613
 20
8.9834961254
 30
0.0
 10
10.0732671423
 20
8.9611806409
 30
0.0
 10
10.0849506307
 20
8.9380502046
 30
0.0
 10
10.0949487432
 20
8.9142317425
 30
0.0
 10
10.1032064106
 20
8.8898559348
 30
0.0
 10
10.1096781244
 20
8.8650566977
 30
0.0
 10
10.1143280422
 20
8.8399697466
 30
0.0
 10
10.1171304775
 20
8.8147346137
 30
0.0
 10
10.1177581507
 20
8.7978573304
 30
0.0
 10
10.1177581507
 20
8.7894432091
 30
0.0
  0
SPLINE
  5
394
100
AcDbEntity
  8
0
100
AcDbSpline
 62
7
  6
CONTINUOUS
 70
0
 71
3
 72
39
 73
35
 74
0
 42
0.0000001
 43
0.0000001
 44
0.0000000001
 40
0.0
 40
0.0
 40
0.0
 40
0.0
 40
0.029942471
 40
0.0599093183
 40
0.0899243244
 40
0.1200101034
 40
0.1501875624
 40
0.1804754148
 40
0.2108897596
 40
0.2414437361
 40
0.2721472598
 40
0.3030068424
 40
0.3340254951
 40
0.3652027149
 40
0.3965345496
 40
0.4280137343
 40
0.459629891
 40
0.4913697854
 40
0.5232176334
 40
0.5551554501
 40
0.5871634341
 40
0.6192203766
 40
0.6513040925
 40
0.6833918636
 40
0.7154608915
 40
0.7474887505
 40
0.7794538351
 40
0.8113357956
 40
0.8431159562
 40
0.8747777121
 40
0.9063068677
 40
0.9376920929
 40
0.9689246489
 40
1.0
 40
1.0
 40
1.0
 40
1.0
 10
10.9829205986
 20
8.9653264027
 30
0.0
 10
10.9887518786
 20
8.970958963
 30
0.0
 10
11.0008729289
 20
8.9817695474
 30
0.0
 10
11.0202927634
 20
8.996497034
 30
0.0
 10
11.0408515613
 20
9.0096624616
 30
0.0
 10
11.0624344624
 20
9.0211919623
 30
0.0
 10
11.0849228089
 20
9.0310225367
 30
0.0
 10
11.1081924866
 20
9.0391001504
 30
0.0
 10
11.1321152615
 20
9.0453806179
 30
0.0
 10
11.1565593366
 20
9.049829653
 30
0.0
 10
11.1813901286
 20
9.0524230871
 30
0.0
 10
11.2064710002
 20
9.0531469684
 30
0.0
 10
11.2316640115
 20
9.0519976305
 30
0.0
 10
11.2568306771
 20
9.0489817193
 30
0.0
 10
11.2818327227
 20
9.0441161098
 30
0.0
 10
11.3065328332
 20
9.0374278051
 30
0.0
 10
11.3307953959
 20
9.0289537804
 30
0.0
 10
11.3544872308
 20
9.0187407696
 30
0.0
 10
11.3774783207
 20
9.006845031
 30
0.0
 10
11.3996425155
 20
8.993332026
 30
0.0
 10
11.4208582072
 20
8.9782760455
 30
0.0
 10
11.441008989
 20
8.9617598086
 30
0.0
 10
11.4599842842
 20
8.9438740112
 30
0.0
 10
11.4776799471
 20
8.9247168364
 30
0.0
 10
11.4939988491
 20
8.9043934376
 30
0.0
 10
11.5088513865
 20
8.8830153441
 30
0.0
 10
11.5221559676
 20
8.8606998596
 30
0.0
 10
11.533839456
 20
8.8375694233
 30
0.0
 10
11.5438375685
 20
8.8137509611
 30
0.0
 10
11.5520952359
 20
8.7893751534
 30
0.0
 10
11.5585669497
 20
8.7645759164
 30
0.0
 10
11.5632168675
 20
8.7394889653
 30
0.0
 10
11.5660193028
 20
8.7142538324
 30
0.0
 10
11.566646976
 20
8.6973765491
 30
0.0
 10
11.566646976
 20
8.6889624278
 30
0.0
  0
SPLINE
  5
395
100
AcDbEntity
  8
0
100
AcDbSpline
 62
7
  6
CONTINUOUS
 70
0
 71
3
 72
44
 73
40
 74
0
 42
0.0000001
 43
0.0000001
 44
0.0000000001
 40
0.0
 40
0.0
 40
0.0
 40
0.0
 40
0.0149722234
 40
0.0299475064
 40
0.0449288883
 40
0.0599193732
 40
0.0749219094
 40
0.0899393698
 40
0.1049745397
 40
0.1200300962
 40
0.1351085921
 40
0.1502124456
 40
0.1804994109
 40
0.2109128653
 40
0.2414659471
 40
0.2721685722
 40
0.303027252
 40
0.3340449956
 40
0.3652213014
 40
0.3965522194
 40
0.4280304831
 40
0.4596457138
 40
0.4913846787
 40
0.5232315941
 40
0.5551684754
 40
0.5871755222
 40
0.6192315264
 40
0.6513143028
 40
0.6834011342
 40
0.7154692231
 40
0.7474961446
 40
0.7794602934
 40
0.8113413197
 40
0.8431205497
 40
0.8747813764
 40
0.9063096221
 40
0.9376938967
 40
0.9689255651
 40
1.0
 40
1.0
 40
1.0
 40
1.0
 10
9.4068249201
 20
7.6353821071
 30
0.0
 10
9.4113045589
 20
7.6397091023
 30
0.0
 10
9.4204378125
 20
7.6481868556
 30
0.0
 10
9.4346337518
 20
7.6603503507
 30
0.0
 10
9.4493076771
 20
7.671945455
 30
0.0
 10
9.4644390962
 20
7.6829559721
 30
0.0
 10
9.4800073103
 20
7.693366755
 30
0.0
 10
9.4959908246
 20
7.7031635173
 30
0.0
 10
9.5123676694
 20
7.7123328068
 30
0.0
 10
9.5291152468
 20
7.7208619146
 30
0.0
 10
9.5462108206
 20
7.72873929
 30
0.0
 10
9.569455359
 20
7.7383666193
 30
0.0
 10
9.599277436
 20
7.7487190545
 30
0.0
 10
9.6360284797
 20
7.7583671685
 30
0.0
 10
9.6735814888
 20
7.7652022202
 30
0.0
 10
9.7117283062
 20
7.7691864036
 30
0.0
 10
9.7502593928
 20
7.7702984641
 30
0.0
 10
9.7889627337
 20
7.7685327861
 30
0.0
 10
9.8276256107
 20
7.7638995503
 30
0.0
 10
9.8660355783
 20
7.7564246265
 30
0.0
 10
9.9039816912
 20
7.7461495526
 30
0.0
 10
9.9412556165
 20
7.7331311422
 30
0.0
 10
9.9776527428
 20
7.7174411611
 30
0.0
 10
10.0129733365
 20
7.6991660595
 30
0.0
 10
10.047023605
 20
7.6784064125
 30
0.0
 10
10.079616703
 20
7.655276314
 30
0.0
 10
10.1105737878
 20
7.6299028387
 30
0.0
 10
10.1397250215
 20
7.6024253677
 30
0.0
 10
10.1669104135
 20
7.5729947339
 30
0.0
 10
10.1919806989
 20
7.5417724375
 30
0.0
 10
10.2147982516
 20
7.5089298464
 30
0.0
 10
10.2352377316
 20
7.4746471729
 30
0.0
 10
10.2531867416
 20
7.4391124949
 30
0.0
 10
10.2685465592
 20
7.4025208282
 30
0.0
 10
10.2812326247
 20
7.3650729364
 30
0.0
 10
10.2911749462
 20
7.3269745434
 30
0.0
 10
10.2983184841
 20
7.2884341297
 30
0.0
 10
10.3026237713
 20
7.2496660759
 30
0.0
 10
10.3035880575
 20
7.2237379512
 30
0.0
 10
10.3035880575
 20
7.2108115652
 30
0.0
  0
SPLINE
  5
396
100
AcDbEntity
  8
0
100
AcDbSpline
 62
7
  6
CONTINUOUS
 70
0
 71
3
 72
23
 73
19
 74
0
 42
0.0000001
 43
0.0000001
 44
0.0000000001
 40
0.0
 40
0.0
 40
0.0
 40
0.0
 40
0.0617101436
 40
0.1234413945
 40
0.1852146442
 40
0.2470503545
 40
0.3089683499
 40
0.3709876203
 40
0.4331261332
 40
0.4954006601
 40
0.5578266118
 40
0.6204179016
 40
0.6831868196
 40
0.7461438598
 40
0.8092979876
 40
0.872655304
 40
0.9362225276
 40
1.0
 40
1.0
 40
1.0
 40
1.0
 10
10.1571512406
 20
6.8585871859
 30
0.0
 10
10.1629495215
 20
6.8641878906
 30
0.0
 10
10.1742619253
 20
6.8756918815
 30
0.0
 10
10.1903236732
 20
6.8938008561
 30
0.0
 10
10.2054447331
 20
6.9127242175
 30
0.0
 10
10.2195896305
 20
6.9324177256
 30
0.0
 10
10.2327259219
 20
6.9528361
 30
0.0
 10
10.2448233013
 20
6.973932185
 30
0.0
 10
10.255853917
 20
6.9956573219
 30
0.0
 10
10.2657923671
 20
7.0179613927
 30
0.0
 10
10.2746157765
 20
7.0407929541
 30
0.0
 10
10.2823038424
 20
7.0640993548
 30
0.0
 10
10.2888388772
 20
7.0878268431
 30
0.0
 10
10.2942059102
 20
7.1119207414
 30
0.0
 10
10.298392556
 20
7.13632539
 30
0.0
 10
10.3013893703
 20
7.1609848889
 30
0.0
 10
10.3031892936
 20
7.1858414779
 30
0.0
 10
10.3035880575
 20
7.2024799889
 30
0.0
 10
10.3035880575
 20
7.2108115652
 30
0.0
  0
SPLINE
  5
397
100
AcDbEntity
  8
0
100
AcDbSpline
 62
7
  6
CONTINUOUS
 70
0
 71
3
 72
44
 73
40
 74
0
 42
0.0000001
 43
0.0000001
 44
0.0000000001
 40
0.0
 40
0.0
 40
0.0
 40
0.0
 40
0.0149722234
 40
0.0299475064
 40
0.0449288883
 40
0.0599193732
 40
0.0749219094
 40
0.0899393698
 40
0.1049745397
 40
0.1200300962
 40
0.1351085921
 40
0.1502124456
 40
0.1804994109
 40
0.2109128653
 40
0.2414659471
 40
0.2721685722
 40
0.303027252
 40
0.3340449956
 40
0.3652213014
 40
0.3965522194
 40
0.4280304831
 40
0.4596457138
 40
0.4913846787
 40
0.5232315941
 40
0.5551684754
 40
0.5871755222
 40
0.6192315264
 40
0.6513143028
 40
0.6834011342
 40
0.7154692231
 40
0.7474961446
 40
0.7794602934
 40
0.8113413197
 40
0.8431205497
 40
0.8747813764
 40
0.9063096221
 40
0.9376938967
 40
0.9689255651
 40
1.0
 40
1.0
 40
1.0
 40
1.0
 10
10.8557137454
 20
7.5349013258
 30
0.0
 10
10.8601933842
 20
7.539228321
 30
0.0
 10
10.8693266378
 20
7.5477060743
 30
0.0
 10
10.8835225771
 20
7.5598695694
 30
0.0
 10
10.8981965024
 20
7.5714646737
 30
0.0
 10
10.9133279215
 20
7.5824751908
 30
0.0
 10
10.9288961355
 20
7.5928859737
 30
0.0
 10
10.9448796499
 20
7.602682736
 30
0.0
 10
10.9612564947
 20
7.6118520255
 30
0.0
 10
10.9780040721
 20
7.6203811333
 30
0.0
 10
10.9950996459
 20
7.6282585087
 30
0.0
 10
11.0183441843
 20
7.637885838
 30
0.0
 10
11.0481662613
 20
7.6482382732
 30
0.0
 10
11.0849173049
 20
7.6578863872
 30
0.0
 10
11.1224703141
 20
7.6647214389
 30
0.0
 10
11.1606171315
 20
7.6687056223
 30
0.0
 10
11.1991482181
 20
7.6698176828
 30
0.0
 10
11.237851559
 20
7.6680520048
 30
0.0
 10
11.276514436
 20
7.663418769
 30
0.0
 10
11.3149244036
 20
7.6559438452
 30
0.0
 10
11.3528705164
 20
7.6456687713
 30
0.0
 10
11.3901444418
 20
7.6326503609
 30
0.0
 10
11.4265415681
 20
7.6169603798
 30
0.0
 10
11.4618621618
 20
7.5986852782
 30
0.0
 10
11.4959124303
 20
7.5779256312
 30
0.0
 10
11.5285055283
 20
7.5547955327
 30
0.0
 10
11.5594626131
 20
7.5294220573
 30
0.0
 10
11.5886138468
 20
7.5019445864
 30
0.0
 10
11.6157992388
 20
7.4725139526
 30
0.0
 10
11.6408695242
 20
7.4412916562
 30
0.0
 10
11.6636870769
 20
7.4084490651
 30
0.0
 10
11.6841265569
 20
7.3741663916
 30
0.0
 10
11.7020755669
 20
7.3386317136
 30
0.0
 10
11.7174353845
 20
7.3020400469
 30
0.0
 10
11.73012145
 20
7.2645921551
 30
0.0
 10
11.7400637715
 20
7.2264937621
 30
0.0
 10
11.7472073094
 20
7.1879533484
 30
0.0
 10
11.7515125966
 20
7.1491852946
 30
0.0
 10
11.7524768828
 20
7.1232571698
 30
0.0
 10
11.7524768828
 20
7.1103307839
 30
0.0
  0
SPLINE
  5
398
100
AcDbEntity
  8
0
100
AcDbSpline
 62
7
  6
CONTINUOUS
 70
0
 71
3
 72
23
 73
19
 74
0
 42
0.0000001
 43
0.0000001
 44
0.0000000001
 40
0.0
 40
0.0
 40
0.0
 40
0.0
 40
0.0617101436
 40
0.1234413945
 40
0.1852146442
 40
0.2470503545
 40
0.3089683499
 40
0.3709876203
 40
0.4331261332
 40
0.4954006601
 40
0.5578266118
 40
0.6204179016
 40
0.6831868196
 40
0.7461438598
 40
0.8092979876
 40
0.872655304
 40
0.9362225276
 40
1.0
 40
1.0
 40
1.0
 40
1.0
 10
11.6060400659
 20
6.7581064046
 30
0.0
 10
11.6118383468
 20
6.7637071093
 30
0.0
 10
11.6231507506
 20
6.7752111002
 30
0.0
 10
11.6392124985
 20
6.7933200748
 30
0.0
 10
11.6543335584
 20
6.8122434361
 30
0.0
 10
11.6684784558
 20
6.8319369443
 30
0.0
 10
11.6816147471
 20
6.8523553187
 30
0.0
 10
11.6937121266
 20
6.8734514036
 30
0.0
 10
11.7047427423
 20
6.8951765405
 30
0.0
 10
11.7146811924
 20
6.9174806114
 30
0.0
 10
11.7235046018
 20
6.9403121728
 30
0.0
 10
11.7311926677
 20
6.9636185735
 30
0.0
 10
11.7377277025
 20
6.9873460618
 30
0.0
 10
11.7430947355
 20
7.0114399601
 30
0.0
 10
11.7472813813
 20
7.0358446087
 30
0.0
 10
11.7502781956
 20
7.0605041076
 30
0.0
 10
11.7520781188
 20
7.0853606966
 30
0.0
 10
11.7524768828
 20
7.1019992075
 30
0.0
 10
11.7524768828
 20
7.1103307839
 30
0.0
  0
SPLINE
  5
399
100
AcDbEntity
  8
0
100
AcDbSpline
 62
7
  6
CONTINUOUS
 70
0
 71
3
 72
32
 73
28
 74
0
 42
0.0000001
 43
0.0000001
 44
0.0000000001
 40
0.0
 40
0.0
 40
0.0
 40
0.0
 40
0.0382708648
 40
0.073967946
 40
0.0911427163
 40
0.1080558296
 40
0.1249006124
 40
0.1418995913
 40
0.1592995557
 40
0.1773638675
 40
0.196357966
 40
0.2165433422
 40
0.2381626529
 40
0.2614382442
 40
0.2865603721
 40
0.3136875996
 40
0.3429394461
 40
0.3743928464
 40
0.4080834226
 40
0.4439960725
 40
0.4820745459
 40
0.5222176735
 40
0.6081092907
 40
0.7003132878
 40
0.7972897681
 40
0.8975894444
 40
1.0
 40
1.0
 40
1.0
 40
1.0
 10
11.3159660315
 20
9.0115296327
 30
0.0
 10
11.3155696021
 20
9.0110460501
 30
0.0
 10
11.314741935
 20
9.0101586915
 30
0.0
 10
11.3135500021
 20
9.0092499212
 30
0.0
 10
11.3125442072
 20
9.0087084076
 30
0.0
 10
11.3117699112
 20
9.008398233
 30
0.0
 10
11.3109665076
 20
9.0081842182
 30
0.0
 10
11.3101345404
 20
9.0080717138
 30
0.0
 10
11.3092750289
 20
9.008066338
 30
0.0
 10
11.3083893811
 20
9.0081734103
 30
0.0
 10
11.3074792722
 20
9.0083983588
 30
0.0
 10
11.306546644
 20
9.0087462764
 30
0.0
 10
11.3055937194
 20
9.0092222181
 30
0.0
 10
11.3046231555
 20
9.0098308793
 30
0.0
 10
11.3036381156
 20
9.0105765203
 30
0.0
 10
11.3026423775
 20
9.0114625958
 30
0.0
 10
11.3016404247
 20
9.012491546
 30
0.0
 10
11.3006372241
 20
9.0136643002
 30
0.0
 10
11.299638513
 20
9.0149802493
 30
0.0
 10
11.2986501479
 20
9.0164367084
 30
0.0
 10
11.2976783818
 20
9.0180291304
 30
0.0
 10
11.2963837872
 20
9.0203781861
 30
0.0
 10
11.2948574005
 20
9.0236049126
 30
0.0
 10
11.2932166272
 20
9.0277921494
 30
0.0
 10
11.2917534546
 20
9.0322925423
 30
0.0
 10
11.2904813265
 20
9.0370228753
 30
0.0
 10
11.2897675838
 20
9.0402583559
 30
0.0
 10
11.2894401909
 20
9.041899298
 30
0.0
  0
SPLINE
  5
39A
100
AcDbEntity
  8
0
100
AcDbSpline
 62
7
  6
CONTINUOUS
 70
0
 71
3
 72
16
 73
12
 74
0
 42
0.0000001
 43
0.0000001
 44
0.0000000001
 40
0.0
 40
0.0
 40
0.0
 40
0.0
 40
0.1449885871
 40
0.2144616361
 40
0.2820590331
 40
0.4120946034
 40
0.536219802
 40
0.6556770148
 40
0.771828326
 40
0.8861190215
 40
1.0
 40
1.0
 40
1.0
 40
1.0
 10
11.3155671675
 20
7.2035540225
 30
0.0
 10
11.3155676419
 20
7.2012773309
 30
0.0
 10
11.3154597042
 20
7.1979076624
 30
0.0
 10
11.3150620742
 20
7.1934955209
 30
0.0
 10
11.31451678
 20
7.189335917
 30
0.0
 10
11.3135414984
 20
7.1843709969
 30
0.0
 10
11.3118630022
 20
7.1787393434
 30
0.0
 10
11.309688147
 20
7.1735140297
 30
0.0
 10
11.307016119
 20
7.1686991688
 30
0.0
 10
11.3038499977
 20
7.1643014414
 30
0.0
 10
11.3014178083
 20
7.1616569289
 30
0.0
 10
11.300131621
 20
7.1604145672
 30
0.0
  0
SPLINE
  5
39B
100
AcDbEntity
  8
0
100
AcDbSpline
 62
7
  6
CONTINUOUS
 70
0
 71
3
 72
44
 73
40
 74
0
 42
0.0000001
 43
0.0000001
 44
0.0000000001
 40
0.0
 40
0.0
 40
0.0
 40
0.0
 40
0.0310744349
 40
0.0623061033
 40
0.0936903779
 40
0.1252186236
 40
0.1568794503
 40
0.1886586803
 40
0.2205397066
 40
0.2525038554
 40
0.2845307769
 40
0.3165988658
 40
0.3486856972
 40
0.3807684736
 40
0.4128244778
 40
0.4448315246
 40
0.4767684059
 40
0.5086153213
 40
0.5403542862
 40
0.5719695169
 40
0.6034477806
 40
0.6347786986
 40
0.6659550044
 40
0.696972748
 40
0.7278314278
 40
0.7585340529
 40
0.7890871347
 40
0.8195005891
 40
0.8497875544
 40
0.8648914079
 40
0.8799699038
 40
0.8950254603
 40
0.9100606302
 40
0.9250780906
 40
0.9400806268
 40
0.9550711117
 40
0.9700524936
 40
0.9850277766
 40
1.0
 40
1.0
 40
1.0
 40
1.0
 10
9.2603881033
 20
7.2831577278
 30
0.0
 10
9.2603881033
 20
7.2702313419
 30
0.0
 10
9.2613523894
 20
7.2443032172
 30
0.0
 10
9.2656576766
 20
7.2055351634
 30
0.0
 10
9.2728012145
 20
7.1669947496
 30
0.0
 10
9.282743536
 20
7.1288963566
 30
0.0
 10
9.2954296016
 20
7.0914484648
 30
0.0
 10
9.3107894191
 20
7.0548567981
 30
0.0
 10
9.3287384291
 20
7.0193221202
 30
0.0
 10
9.3491779091
 20
6.9850394466
 30
0.0
 10
9.3719954618
 20
6.9521968556
 30
0.0
 10
9.3970657472
 20
6.9209745591
 30
0.0
 10
9.4242511393
 20
6.8915439253
 30
0.0
 10
9.453402373
 20
6.8640664544
 30
0.0
 10
9.4843594577
 20
6.838692979
 30
0.0
 10
9.5169525557
 20
6.8155628805
 30
0.0
 10
9.5510028242
 20
6.7948032335
 30
0.0
 10
9.5863234179
 20
6.7765281319
 30
0.0
 10
9.6227205442
 20
6.7608381509
 30
0.0
 10
9.6599944696
 20
6.7478197404
 30
0.0
 10
9.6979405824
 20
6.7375446666
 30
0.0
 10
9.7363505501
 20
6.7300697428
 30
0.0
 10
9.775013427
 20
6.7254365069
 30
0.0
 10
9.8137167679
 20
6.7236708289
 30
0.0
 10
9.8522478545
 20
6.7247828894
 30
0.0
 10
9.8903946719
 20
6.7287670728
 30
0.0
 10
9.9279476811
 20
6.7356021245
 30
0.0
 10
9.9646987247
 20
6.7452502385
 30
0.0
 10
9.9945208017
 20
6.7556026737
 30
0.0
 10
10.0177653401
 20
6.765230003
 30
0.0
 10
10.0348609139
 20
6.7731073784
 30
0.0
 10
10.0516084913
 20
6.7816364862
 30
0.0
 10
10.0679853361
 20
6.7908057757
 30
0.0
 10
10.0839688505
 20
6.800602538
 30
0.0
 10
10.0995370646
 20
6.8110133209
 30
0.0
 10
10.1146684837
 20
6.822023838
 30
0.0
 10
10.129342409
 20
6.8336189423
 30
0.0
 10
10.1435383482
 20
6.8457824374
 30
0.0
 10
10.1526716019
 20
6.8542601907
 30
0.0
 10
10.1571512406
 20
6.8585871859
 30
0.0
  0
SPLINE
  5
39C
100
AcDbEntity
  8
0
100
AcDbSpline
 62
7
  6
CONTINUOUS
 70
0
 71
3
 72
43
 73
39
 74
0
 42
0.0000001
 43
0.0000001
 44
0.0000000001
 40
0.0
 40
0.0
 40
0.0
 40
0.0
 40
0.0309485948
 40
0.0620406286
 40
0.093272685
 40
0.124638059
 40
0.1561280529
 40
0.1877317075
 40
0.219436121
 40
0.2512266705
 40
0.2830872772
 40
0.3150006856
 40
0.3469487586
 40
0.3789127818
 40
0.4108737765
 40
0.4428128141
 40
0.4747113311
 40
0.5065514381
 40
0.5383162228
 40
0.5699900405
 40
0.6015587898
 40
0.6330101668
 40
0.6643338962
 40
0.6955219342
 40
0.7265686398
 40
0.7574709078
 40
0.788228259
 40
0.818842886
 40
0.8341003909
 40
0.8493242608
 40
0.8645155082
 40
0.8796753067
 40
0.909901273
 40
0.9400191537
 40
0.9550444074
 40
0.9700482213
 40
0.9850326877
 40
1.0
 40
1.0
 40
1.0
 40
1.0
 10
9.4510124958
 20
7.4542867626
 30
0.0
 10
9.4510124958
 20
7.4427585278
 30
0.0
 10
9.4517981017
 20
7.4196411959
 30
0.0
 10
9.4553085728
 20
7.3850505623
 30
0.0
 10
9.4611372961
 20
7.3506155275
 30
0.0
 10
9.4692573824
 20
7.3164961408
 30
0.0
 10
9.479631265
 20
7.282848459
 30
0.0
 10
9.4922111732
 20
7.2498269785
 30
0.0
 10
9.506939195
 20
7.217583122
 30
0.0
 10
9.5237476021
 20
7.1862647728
 30
0.0
 10
9.5425591645
 20
7.1560155494
 30
0.0
 10
9.5632875012
 20
7.1269741709
 30
0.0
 10
9.5858374767
 20
7.0992738263
 30
0.0
 10
9.6101056224
 20
7.0730415638
 30
0.0
 10
9.6359805968
 20
7.0483976981
 30
0.0
 10
9.6633437181
 20
7.0254552851
 30
0.0
 10
9.6920694975
 20
7.0043196052
 30
0.0
 10
9.7220262094
 20
6.9850876856
 30
0.0
 10
9.753076488
 20
6.9678478602
 30
0.0
 10
9.7850779349
 20
6.9526793346
 30
0.0
 10
9.817883783
 20
6.9396518501
 30
0.0
 10
9.8513435631
 20
6.9288253676
 30
0.0
 10
9.8853037747
 20
6.9202497873
 30
0.0
 10
9.919608616
 20
6.913964729
 30
0.0
 10
9.954100556
 20
6.9099992947
 30
0.0
 10
9.9886215296
 20
6.9083720104
 30
0.0
 10
10.0230119042
 20
6.9090904746
 30
0.0
 10
10.0514664008
 20
6.9116449883
 30
0.0
 10
10.0740005575
 20
6.9148561829
 30
0.0
 10
10.0907531383
 20
6.9178412188
 30
0.0
 10
10.1073556156
 20
6.921402198
 30
0.0
 10
10.1292427307
 20
6.9269062831
 30
0.0
 10
10.1561421521
 20
6.9352026678
 30
0.0
 10
10.1823386174
 20
6.945369315
 30
0.0
 10
10.2027642197
 20
6.9545853824
 30
0.0
 10
10.2177943201
 20
6.962026379
 30
0.0
 10
10.2325279237
 20
6.9699923126
 30
0.0
 10
10.2421471819
 20
6.9756501342
 30
0.0
 10
10.246900973
 20
6.9785630497
 30
0.0
  0
SPLINE
  5
39D
100
AcDbEntity
  8
0
100
AcDbSpline
 62
7
  6
CONTINUOUS
 70
0
 71
3
 72
44
 73
40
 74
0
 42
0.0000001
 43
0.0000001
 44
0.0000000001
 40
0.0
 40
0.0
 40
0.0
 40
0.0
 40
0.0840364397
 40
0.169504805
 40
0.2553475721
 40
0.3404999409
 40
0.3824882716
 40
0.4239107206
 40
0.4646400635
 40
0.5045518968
 40
0.5435251936
 40
0.5814428515
 40
0.6181922748
 40
0.6536659929
 40
0.6877623696
 40
0.7203863526
 40
0.7514502821
 40
0.7808748745
 40
0.8085904264
 40
0.834538383
 40
0.8586733676
 40
0.870052024
 40
0.8809678501
 40
0.8914203887
 40
0.9014106032
 40
0.9109412427
 40
0.9200172548
 40
0.9286457505
 40
0.9368368615
 40
0.9446038293
 40
0.9519637378
 40
0.9589382313
 40
0.965553926
 40
0.9718434876
 40
0.9778459264
 40
0.9836071464
 40
0.9891799005
 40
0.9946229937
 40
1.0
 40
1.0
 40
1.0
 40
1.0
 10
12.0808484469
 20
6.3723282291
 30
0.0
 10
12.0808484469
 20
6.3647097695
 30
0.0
 10
12.0806093713
 20
6.3493421621
 30
0.0
 10
12.0795718958
 20
6.326213411
 30
0.0
 10
12.0778644336
 20
6.303022934
 30
0.0
 10
12.0758930985
 20
6.2838124541
 30
0.0
 10
12.0739938243
 20
6.2686490876
 30
0.0
 10
12.0724252119
 20
6.2575043476
 30
0.0
 10
12.0707111412
 20
6.2465715591
 30
0.0
 10
12.0688572834
 20
6.2358868496
 30
0.0
 10
12.0668698133
 20
6.2254855476
 30
0.0
 10
12.0647553418
 20
6.2154020262
 30
0.0
 10
12.062520908
 20
6.2056695994
 30
0.0
 10
12.06017395
 20
6.1963204041
 30
0.0
 10
12.0577222891
 20
6.1873852827
 30
0.0
 10
12.0551741029
 20
6.1788936742
 30
0.0
 10
12.0525378884
 20
6.1708735042
 30
0.0
 10
12.0498224346
 20
6.1633511062
 30
0.0
 10
12.0470367756
 20
6.1563510261
 30
0.0
 10
12.0441901658
 20
6.1498961979
 30
0.0
 10
12.0417289939
 20
6.1448949192
 30
0.0
 10
12.0397302911
 20
6.1411901203
 30
0.0
 10
12.0382513752
 20
6.1386155324
 30
0.0
 10
12.0367642892
 20
6.1361921263
 30
0.0
 10
12.0352702037
 20
6.1339218711
 30
0.0
 10
12.0337703058
 20
6.1318066167
 30
0.0
 10
12.0322658368
 20
6.1298480373
 30
0.0
 10
12.0307579147
 20
6.1280477433
 30
0.0
 10
12.0292477462
 20
6.1264071463
 30
0.0
 10
12.0277364393
 20
6.124927578
 30
0.0
 10
12.0262250707
 20
6.1236102705
 30
0.0
 10
12.0247147429
 20
6.1224562888
 30
0.0
 10
12.0232064174
 20
6.1214667527
 30
0.0
 10
12.0217011564
 20
6.1206426065
 30
0.0
 10
12.0201999643
 20
6.1199848751
 30
0.0
 10
12.018703993
 20
6.1194945684
 30
0.0
 10
12.0172144994
 20
6.1191725554
 30
0.0
 10
12.0157332647
 20
6.1190197252
 30
0.0
 10
12.0147498563
 20
6.1190309701
 30
0.0
 10
12.0142635634
 20
6.1190647004
 30
0.0
  0
SPLINE
  5
39E
100
AcDbEntity
  8
0
100
AcDbSpline
 62
7
  6
CONTINUOUS
 70
0
 71
3
 72
42
 73
38
 74
0
 42
0.0000001
 43
0.0000001
 44
0.0000000001
 40
0.0
 40
0.0
 40
0.0
 40
0.0
 40
0.0309663439
 40
0.0620779826
 40
0.0933313616
 40
0.1247195196
 40
0.1562334326
 40
0.1878617345
 40
0.2195910573
 40
0.2514062643
 40
0.2832907309
 40
0.3152266407
 40
0.3471952968
 40
0.3791774436
 40
0.4111535957
 40
0.4431043702
 40
0.4750108164
 40
0.5068547413
 40
0.5386190246
 40
0.5702879226
 40
0.601847354
 40
0.6332851625
 40
0.6645913533
 40
0.6957582987
 40
0.7267809067
 40
0.7422394906
 40
0.7576613094
 40
0.7883907126
 40
0.818976777
 40
0.8494253651
 40
0.8797450237
 40
0.8948623058
 40
0.9099517207
 40
0.925015023
 40
0.9400540968
 40
0.9700627529
 40
1.0
 40
1.0
 40
1.0
 40
1.0
 10
9.4658617349
 20
7.458130027
 30
0.0
 10
9.4658617349
 20
7.4466880955
 30
0.0
 10
9.4666513913
 20
7.4237429852
 30
0.0
 10
9.4701795767
 20
7.3894132555
 30
0.0
 10
9.4760371906
 20
7.3552439713
 30
0.0
 10
9.4841965211
 20
7.3213979892
 30
0.0
 10
9.4946188546
 20
7.2880340524
 30
0.0
 10
9.5072549739
 20
7.2553092496
 30
0.0
 10
9.5220452341
 20
7.2233774612
 30
0.0
 10
9.5389198897
 20
7.192388863
 30
0.0
 10
9.557799434
 20
7.1624891747
 30
0.0
 10
9.5785949693
 20
7.1338189991
 30
0.0
 10
9.6012086222
 20
7.1065131645
 30
0.0
 10
9.6255340012
 20
7.0807001013
 30
0.0
 10
9.6514566695
 20
7.05650122
 30
0.0
 10
9.6788547016
 20
7.0340303613
 30
0.0
 10
9.7075992532
 20
7.0133932695
 30
0.0
 10
9.7375551585
 20
6.9946870987
 30
0.0
 10
9.7685815626
 20
6.9779999621
 30
0.0
 10
9.8005325587
 20
6.9634105073
 30
0.0
 10
9.8332578972
 20
6.9509875313
 30
0.0
 10
9.8666035768
 20
6.9407896873
 30
0.0
 10
9.9004130027
 20
6.9328651895
 30
0.0
 10
9.9345260553
 20
6.9272516309
 30
0.0
 10
9.9631104646
 20
6.9245183306
 30
0.0
 10
9.9859651539
 20
6.9235127267
 30
0.0
 10
10.008732511
 20
6.9232937648
 30
0.0
 10
10.0370860934
 20
6.9244885178
 30
0.0
 10
10.0708078417
 20
6.9282756045
 30
0.0
 10
10.1040313157
 20
6.9343964277
 30
0.0
 10
10.131201888
 20
6.9414264333
 30
0.0
 10
10.1525248524
 20
6.9481841798
 30
0.0
 10
10.1682821161
 20
6.9538081113
 30
0.0
 10
10.1837995927
 20
6.9599856192
 30
0.0
 10
10.2041285475
 20
6.9689430409
 30
0.0
 10
10.228861024
 20
6.9814877201
 30
0.0
 10
10.2478513595
 20
6.9929327817
 30
0.0
 10
10.2571098711
 20
6.9989859487
 30
0.0
  0
SPLINE
  5
39F
100
AcDbEntity
  8
0
100
AcDbSpline
 62
7
  6
CONTINUOUS
 70
0
 71
3
 72
43
 73
39
 74
0
 42
0.0000001
 43
0.0000001
 44
0.0000000001
 40
0.0
 40
0.0
 40
0.0
 40
0.0
 40
0.0309231122
 40
0.0619870075
 40
0.0931884514
 40
0.1245210824
 40
0.155976677
 40
0.1875448359
 40
0.2192133141
 40
0.2509682103
 40
0.2827942133
 40
0.3146748597
 40
0.3465928063
 40
0.3785301112
 40
0.4104685231
 40
0.4423897724
 40
0.4742758641
 40
0.506109367
 40
0.5378736972
 40
0.5695533905
 40
0.6011343629
 40
0.6326041533
 40
0.6639521459
 40
0.6951697695
 40
0.7262506669
 40
0.7571908329
 40
0.7879887143
 40
0.8186452717
 40
0.8339237447
 40
0.8491684091
 40
0.8643800883
 40
0.8795597649
 40
0.9098232308
 40
0.9399739972
 40
0.9550133617
 40
0.9700295319
 40
0.985024411
 40
1.0
 40
1.0
 40
1.0
 40
1.0
 10
9.5015304553
 20
7.4925833672
 30
0.0
 10
9.5015304553
 20
7.4814910998
 30
0.0
 10
9.5022725013
 20
7.459249169
 30
0.0
 10
9.5055888487
 20
7.4259640192
 30
0.0
 10
9.5110959509
 20
7.3928203708
 30
0.0
 10
9.518769326
 20
7.3599667196
 30
0.0
 10
9.5285747437
 20
7.3275479171
 30
0.0
 10
9.5404686764
 20
7.2957074468
 30
0.0
 10
9.5543983499
 20
7.2645860582
 30
0.0
 10
9.5703020328
 20
7.2343213523
 30
0.0
 10
9.5881092778
 20
7.2050471148
 30
0.0
 10
9.6077412543
 20
7.1768927536
 30
0.0
 10
9.6291110925
 20
7.1499827282
 30
0.0
 10
9.652124266
 20
7.1244360061
 30
0.0
 10
9.6766790056
 20
7.1003655421
 30
0.0
 10
9.7026667464
 20
7.0778777835
 30
0.0
 10
9.7299726011
 20
7.0570722025
 30
0.0
 10
9.7584758561
 20
7.0380408466
 30
0.0
 10
9.7880505117
 20
7.0208679475
 30
0.0
 10
9.818565832
 20
7.0056295496
 30
0.0
 10
9.8498869162
 20
6.9923931755
 30
0.0
 10
9.8818752898
 20
6.9812175276
 30
0.0
 10
9.9143895012
 20
6.9721522277
 30
0.0
 10
9.9472857698
 20
6.9652375955
 30
0.0
 10
9.9804184962
 20
6.9605044383
 30
0.0
 10
10.0136413411
 20
6.9579739815
 30
0.0
 10
10.0468062424
 20
6.957657559
 30
0.0
 10
10.0743078648
 20
6.9592425246
 30
0.0
 10
10.0961279337
 20
6.9616174219
 30
0.0
 10
10.1123703937
 20
6.9639463843
 30
0.0
 10
10.128488949
 20
6.9668226058
 30
0.0
 10
10.1497676203
 20
6.9713775966
 30
0.0
 10
10.1759768227
 20
6.9784200698
 30
0.0
 10
10.2015868327
 20
6.9872484598
 30
0.0
 10
10.221610059
 20
6.99534965
 30
0.0
 10
10.236371661
 20
7.0019335431
 30
0.0
 10
10.2508716751
 20
7.0090223388
 30
0.0
 10
10.2603595863
 20
7.0140830633
 30
0.0
 10
10.2650538623
 20
7.0166946087
 30
0.0
  0
SPLINE
  5
3A0
100
AcDbEntity
  8
0
100
AcDbSpline
 62
7
  6
CONTINUOUS
 70
0
 71
3
 72
39
 73
35
 74
0
 42
0.0000001
 43
0.0000001
 44
0.0000000001
 40
0.0
 40
0.0
 40
0.0
 40
0.0
 40
0.0309878419
 40
0.0621232182
 40
0.0934024018
 40
0.124818116
 40
0.1563609311
 40
0.1880189785
 40
0.2197783142
 40
0.2516231685
 40
0.2835362459
 40
0.3154990426
 40
0.3474921783
 40
0.3794957398
 40
0.4114896306
 40
0.4434539243
 40
0.4753692143
 40
0.5072169576
 40
0.5389798076
 40
0.5706419314
 40
0.6021893092
 40
0.6336100064
 40
0.664894416
 40
0.6960354657
 40
0.7270287849
 40
0.7578728261
 40
0.7885689366
 40
0.819121373
 40
0.8495372573
 40
0.8798264733
 40
0.9100015
 40
0.9400771853
 40
0.9700704604
 40
1.0
 40
1.0
 40
1.0
 40
1.0
 10
9.5603182016
 20
7.5013679731
 30
0.0
 10
9.5603182016
 20
7.4908324904
 30
0.0
 10
9.5610563325
 20
7.4697041944
 30
0.0
 10
9.5643538652
 20
7.4380963517
 30
0.0
 10
9.5698279455
 20
7.4066430444
 30
0.0
 10
9.5774518877
 20
7.3754987342
 30
0.0
 10
9.5871884171
 20
7.3448139233
 30
0.0
 10
9.5989901577
 20
7.3147374667
 30
0.0
 10
9.612799716
 20
7.2854150813
 30
0.0
 10
9.6285499966
 20
7.2569888526
 30
0.0
 10
9.6461645402
 20
7.2295965042
 30
0.0
 10
9.6655578912
 20
7.2033707544
 30
0.0
 10
9.6866360083
 20
7.1784386767
 30
0.0
 10
9.7092967194
 20
7.1549210956
 30
0.0
 10
9.733430194
 20
7.132931989
 30
0.0
 10
9.7589194795
 20
7.112577944
 30
0.0
 10
9.7856410737
 20
7.0939576562
 30
0.0
 10
9.8134655131
 20
7.0771614542
 30
0.0
 10
9.8422579928
 20
7.0622708644
 30
0.0
 10
9.8718790117
 20
7.0493582206
 30
0.0
 10
9.9021850288
 20
7.0384862848
 30
0.0
 10
9.9330291641
 20
7.0297079651
 30
0.0
 10
9.9642619006
 20
7.0230660601
 30
0.0
 10
9.9957317983
 20
7.018593046
 30
0.0
 10
10.0272862186
 20
7.0163109147
 30
0.0
 10
10.0587720547
 20
7.016231049
 30
0.0
 10
10.0900364691
 20
7.0183541349
 30
0.0
 10
10.1209276374
 20
7.0226701784
 30
0.0
 10
10.1512954656
 20
7.0291585237
 30
0.0
 10
10.1809923765
 20
7.0377879779
 30
0.0
 10
10.2098738172
 20
7.0485167998
 30
0.0
 10
10.2377997662
 20
7.0612934246
 30
0.0
 10
10.2646325059
 20
7.0760546246
 30
0.0
 10
10.2817239874
 20
7.0871832773
 30
0.0
 10
10.2900385721
 20
7.0930494518
 30
0.0
  0
SPLINE
  5
3A1
100
AcDbEntity
  8
0
100
AcDbSpline
 62
7
  6
CONTINUOUS
 70
0
 71
3
 72
11
 73
7
 74
0
 42
0.0000001
 43
0.0000001
 44
0.0000000001
 40
0.0
 40
0.0
 40
0.0
 40
0.0
 40
0.2463367855
 40
0.4941557574
 40
0.744910901
 40
1.0
 40
1.0
 40
1.0
 40
1.0
 10
11.4109109012
 20
10.256817732
 30
0.0
 10
11.4109108971
 20
10.2577891859
 30
0.0
 10
11.4109895823
 20
10.2597388336
 30
0.0
 10
11.4113432739
 20
10.2626581015
 30
0.0
 10
11.4119324371
 20
10.2655742335
 30
0.0
 10
11.4124763641
 20
10.2674957718
 30
0.0
 10
11.4127853594
 20
10.2684531101
 30
0.0
  0
SPLINE
  5
3A2
100
AcDbEntity
  8
0
100
AcDbSpline
 62
7
  6
CONTINUOUS
 70
0
 71
3
 72
39
 73
35
 74
0
 42
0.0000001
 43
0.0000001
 44
0.0000000001
 40
0.0
 40
0.0
 40
0.0
 40
0.0
 40
0.0306777493
 40
0.0614699592
 40
0.0923739965
 40
0.1233870504
 40
0.1545044156
 40
0.1857204979
 40
0.2170285078
 40
0.2484206777
 40
0.2798883126
 40
0.3114219032
 40
0.3430112305
 40
0.3746454793
 40
0.4063133561
 40
0.4380032108
 40
0.4697031613
 40
0.5014012186
 40
0.5330854139
 40
0.564743925
 40
0.5963652015
 40
0.6279380883
 40
0.6594519459
 40
0.6908967669
 40
0.7222632875
 40
0.7535430934
 40
0.7847287181
 40
0.8158137337
 40
0.8467928316
 40
0.8776618932
 40
0.9084180492
 40
0.9390597255
 40
0.9695866758
 40
1.0
 40
1.0
 40
1.0
 40
1.0
 10
9.7785024766
 20
7.7121178116
 30
0.0
 10
9.7785024766
 20
7.7039452357
 30
0.0
 10
9.7789463016
 20
7.6875662198
 30
0.0
 10
9.780932728
 20
7.6630268372
 30
0.0
 10
9.784235308
 20
7.6385389444
 30
0.0
 10
9.7888441888
 20
7.6141751505
 30
0.0
 10
9.7947459168
 20
7.5900063236
 30
0.0
 10
9.8019231268
 20
7.5661031836
 30
0.0
 10
9.8103548094
 20
7.5425355375
 30
0.0
 10
9.8200162635
 20
7.5193722427
 30
0.0
 10
9.8308792173
 20
7.4966809617
 30
0.0
 10
9.8429118915
 20
7.4745279776
 30
0.0
 10
9.8560790992
 20
7.452977999
 30
0.0
 10
9.8703423465
 20
7.4320939731
 30
0.0
 10
9.885659943
 20
7.4119369017
 30
0.0
 10
9.9019871236
 20
7.3925656635
 30
0.0
 10
9.9192761806
 20
7.3740368449
 30
0.0
 10
9.9374766024
 20
7.3564045749
 30
0.0
 10
9.9565352197
 20
7.3397203685
 30
0.0
 10
9.9763963606
 20
7.3240329767
 30
0.0
 10
9.9970020115
 20
7.3093882448
 30
0.0
 10
10.0182919859
 20
7.2958289795
 30
0.0
 10
10.0402040989
 20
7.2833948239
 30
0.0
 10
10.0626743477
 20
7.2721221422
 30
0.0
 10
10.0856370968
 20
7.2620439138
 30
0.0
 10
10.1090252685
 20
7.2531896364
 30
0.0
 10
10.132770536
 20
7.2455852363
 30
0.0
 10
10.1568035255
 20
7.2392529966
 30
0.0
 10
10.1810540088
 20
7.2342114898
 30
0.0
 10
10.2054511373
 20
7.2304755257
 30
0.0
 10
10.2299235342
 20
7.2280560976
 30
0.0
 10
10.2543999228
 20
7.2269603818
 30
0.0
 10
10.2788077698
 20
7.2271915932
 30
0.0
 10
10.2950185818
 20
7.22823206
 30
0.0
 10
10.3030867031
 20
7.2289736629
 30
0.0
  0
SPLINE
  5
3A3
100
AcDbEntity
  8
0
100
AcDbSpline
 62
7
  6
CONTINUOUS
 70
0
 71
3
 72
39
 73
35
 74
0
 42
0.0000001
 43
0.0000001
 44
0.0000000001
 40
0.0
 40
0.0
 40
0.0
 40
0.0
 40
0.0306705869
 40
0.0614548769
 40
0.0923500278
 40
0.123353481
 40
0.154460558
 40
0.1856658157
 40
0.2169626072
 40
0.2483433341
 40
0.2797994852
 40
0.3113217476
 40
0.3429001072
 40
0.3745239593
 40
0.4061822226
 40
0.4378634568
 40
0.469555982
 40
0.5012480009
 40
0.5329277212
 40
0.5645834785
 40
0.5962038574
 40
0.6277778127
 40
0.6592947863
 40
0.6907448208
 40
0.7221186683
 40
0.753407894
 40
0.7846049722
 40
0.8157033758
 40
0.8466976566
 40
0.8775835156
 40
0.9083578635
 40
0.9390188684
 40
0.96956599
 40
1.0
 40
1.0
 40
1.0
 40
1.0
 10
9.815244818
 20
7.7176081902
 30
0.0
 10
9.815244818
 20
7.7100177728
 30
0.0
 10
9.8156538557
 20
7.6948057146
 30
0.0
 10
9.8174846399
 20
7.6720139633
 30
0.0
 10
9.8205285871
 20
7.6492686351
 30
0.0
 10
9.8247767103
 20
7.6266361754
 30
0.0
 10
9.8302168303
 20
7.6041813817
 30
0.0
 10
9.8368331688
 20
7.5819689665
 30
0.0
 10
9.8446066623
 20
7.560062805
 30
0.0
 10
9.853514885
 20
7.5385259239
 30
0.0
 10
9.8635321697
 20
7.5174202751
 30
0.0
 10
9.8746296606
 20
7.4968065698
 30
0.0
 10
9.8867753966
 20
7.4767440993
 30
0.0
 10
9.8999344087
 20
7.4572905685
 30
0.0
 10
9.9140688203
 20
7.4385019313
 30
0.0
 10
9.929137956
 20
7.4204322306
 30
0.0
 10
9.9450984576
 20
7.4031334443
 30
0.0
 10
9.9619044081
 20
7.3866553366
 30
0.0
 10
9.9795074633
 20
7.371045316
 30
0.0
 10
9.9978569895
 20
7.3563482996
 30
0.0
 10
10.016900208
 20
7.342606584
 30
0.0
 10
10.0365823424
 20
7.3298597184
 30
0.0
 10
10.0568467803
 20
7.3181443971
 30
0.0
 10
10.0776352348
 20
7.3074943541
 30
0.0
 10
10.0988879105
 20
7.2979402661
 30
0.0
 10
10.1205436747
 20
7.2895096653
 30
0.0
 10
10.1425402307
 20
7.2822268592
 30
0.0
 10
10.1648142978
 20
7.276112861
 30
0.0
 10
10.187301784
 20
7.2711853285
 30
0.0
 10
10.209937997
 20
7.2674585128
 30
0.0
 10
10.2326577246
 20
7.2649432025
 30
0.0
 10
10.2553958079
 20
7.2636467274
 30
0.0
 10
10.2780859001
 20
7.263572831
 30
0.0
 10
10.2931668966
 20
7.2643403793
 30
0.0
 10
10.3006757755
 20
7.2649284155
 30
0.0
  0
SPLINE
  5
3A4
100
AcDbEntity
  8
0
100
AcDbSpline
 62
7
  6
CONTINUOUS
 70
0
 71
3
 72
23
 73
19
 74
0
 42
0.0000001
 43
0.0000001
 44
0.0000000001
 40
0.0
 40
0.0
 40
0.0
 40
0.0
 40
0.0618761875
 40
0.1239899092
 40
0.1863157041
 40
0.2488243029
 40
0.311483173
 40
0.3742571196
 40
0.4371089225
 40
0.4999999968
 40
0.562891071
 40
0.6257428739
 40
0.6885168205
 40
0.7511756905
 40
0.8136842891
 40
0.8760100832
 40
0.9381238031
 40
1.0
 40
1.0
 40
1.0
 40
1.0
 10
9.9969068716
 20
7.7072284577
 30
0.0
 10
9.9987881879
 20
7.6996112012
 30
0.0
 10
10.0030745062
 20
7.6844698466
 30
0.0
 10
10.011018236
 20
7.6622022175
 30
0.0
 10
10.0204520453
 20
7.6404353695
 30
0.0
 10
10.0313298934
 20
7.6192757809
 30
0.0
 10
10.0435992357
 20
7.5988252517
 30
0.0
 10
10.0572007138
 20
7.5791826219
 30
0.0
 10
10.0720685914
 20
7.560442707
 30
0.0
 10
10.0881310302
 20
7.5426960039
 30
0.0
 10
10.1053104437
 20
7.5260282157
 30
0.0
 10
10.123523869
 20
7.5105198523
 30
0.0
 10
10.1426833532
 20
7.4962458453
 30
0.0
 10
10.1626964158
 20
7.4832751771
 30
0.0
 10
10.1834663331
 20
7.4716705963
 30
0.0
 10
10.204893187
 20
7.4614881434
 30
0.0
 10
10.2268721598
 20
7.4527775214
 30
0.0
 10
10.2418558818
 20
7.4479690646
 30
0.0
 10
10.2494033697
 20
7.4458249116
 30
0.0
  0
SPLINE
  5
3A5
100
AcDbEntity
  8
0
100
AcDbSpline
 62
7
  6
CONTINUOUS
 70
0
 71
3
 72
25
 73
21
 74
0
 42
0.0000001
 43
0.0000001
 44
0.0000000001
 40
0.0
 40
0.0
 40
0.0
 40
0.0
 40
0.061590258
 40
0.1235160653
 40
0.1857489092
 40
0.2482516395
 40
0.3109796576
 40
0.3738822072
 40
0.436903794
 40
0.49998572
 40
0.5630676711
 40
0.6260893281
 40
0.6889919928
 40
0.7517201705
 40
0.8142230934
 40
0.8764561647
 40
0.9074662871
 40
0.9383957236
 40
0.9692411912
 40
1.0
 40
1.0
 40
1.0
 40
1.0
 10
9.8983265924
 20
7.7471329973
 30
0.0
 10
9.8997062291
 20
7.7349190389
 30
0.0
 10
9.9035172307
 20
7.7105301262
 30
0.0
 10
9.9122988267
 20
7.6744731339
 30
0.0
 10
9.9240973837
 20
7.6390934304
 30
0.0
 10
9.9388246494
 20
7.6046564101
 30
0.0
 10
9.956371153
 20
7.5714159077
 30
0.0
 10
9.9766067588
 20
7.5396181699
 30
0.0
 10
9.9993813418
 20
7.5094982995
 30
0.0
 10
10.0245262927
 20
7.4812792284
 30
0.0
 10
10.0518554005
 20
7.45516975
 30
0.0
 10
10.0811664591
 20
7.4313631409
 30
0.0
 10
10.1122425225
 20
7.4100358241
 30
0.0
 10
10.1448540858
 20
7.3913456687
 30
0.0
 10
10.1787582875
 20
7.3754319563
 30
0.0
 10
10.207921448
 20
7.3645676575
 30
0.0
 10
10.2316430198
 20
7.3573781589
 30
0.0
 10
10.2495782884
 20
7.3527494574
 30
0.0
 10
10.2676422207
 20
7.348887484
 30
0.0
 10
10.2797669393
 20
7.346825625
 30
0.0
 10
10.2858391139
 20
7.3459252375
 30
0.0
  0
SPLINE
  5
3A6
100
AcDbEntity
  8
0
100
AcDbSpline
 62
7
  6
CONTINUOUS
 70
0
 71
3
 72
23
 73
19
 74
0
 42
0.0000001
 43
0.0000001
 44
0.0000000001
 40
0.0
 40
0.0
 40
0.0
 40
0.0
 40
0.0637774724
 40
0.127344696
 40
0.1907020124
 40
0.2538561402
 40
0.3168131804
 40
0.3795820984
 40
0.4421733882
 40
0.5045993399
 40
0.5668738668
 40
0.6290123797
 40
0.6910316501
 40
0.7529496455
 40
0.8147853558
 40
0.8765586055
 40
0.9382898564
 40
1.0
 40
1.0
 40
1.0
 40
1.0
 10
10.7092769285
 20
7.1826769465
 30
0.0
 10
10.7092769285
 20
7.1910085229
 30
0.0
 10
10.7096756925
 20
7.2076470338
 30
0.0
 10
10.7114756157
 20
7.2325036228
 30
0.0
 10
10.71447243
 20
7.2571631217
 30
0.0
 10
10.7186590758
 20
7.2815677703
 30
0.0
 10
10.7240261088
 20
7.3056616686
 30
0.0
 10
10.7305611436
 20
7.3293891569
 30
0.0
 10
10.7382492095
 20
7.3526955576
 30
0.0
 10
10.7470726189
 20
7.375527119
 30
0.0
 10
10.757011069
 20
7.3978311899
 30
0.0
 10
10.7680416848
 20
7.4195563268
 30
0.0
 10
10.7801390642
 20
7.4406524117
 30
0.0
 10
10.7932753556
 20
7.4610707862
 30
0.0
 10
10.8074202529
 20
7.4807642943
 30
0.0
 10
10.8225413128
 20
7.4996876556
 30
0.0
 10
10.8386030607
 20
7.5177966302
 30
0.0
 10
10.8499154645
 20
7.5293006211
 30
0.0
 10
10.8557137454
 20
7.5349013258
 30
0.0
  0
SPLINE
  5
3A7
100
AcDbEntity
  8
0
100
AcDbSpline
 62
7
  6
CONTINUOUS
 70
0
 71
3
 72
43
 73
39
 74
0
 42
0.0000001
 43
0.0000001
 44
0.0000000001
 40
0.0
 40
0.0
 40
0.0
 40
0.0
 40
0.0309202825
 40
0.0619810447
 40
0.0931790821
 40
0.1245080736
 40
0.1559598399
 40
0.1875240469
 40
0.2191885196
 40
0.2509394355
 40
0.2827615672
 40
0.3146385386
 40
0.3465530936
 40
0.3784873755
 40
0.4104232131
 40
0.4423424101
 40
0.4742270357
 40
0.5060597114
 40
0.5378238915
 40
0.5695041344
 40
0.6010863606
 40
0.6325580952
 40
0.6639086901
 40
0.695129521
 40
0.7262141567
 40
0.7571584973
 40
0.7879608756
 40
0.8186221208
 40
0.8339029551
 40
0.8491499693
 40
0.8643639736
 40
0.8795459224
 40
0.9098137239
 40
0.9399683677
 40
0.9550094307
 40
0.9700271215
 40
0.9850233171
 40
1.0
 40
1.0
 40
1.0
 40
1.0
 10
10.8873442846
 20
7.3546768147
 30
0.0
 10
10.8873442846
 20
7.3431037799
 30
0.0
 10
10.8881168907
 20
7.3198979647
 30
0.0
 10
10.8915698761
 20
7.2851698583
 30
0.0
 10
10.8973039558
 20
7.2505884499
 30
0.0
 10
10.9052937428
 20
7.2163080383
 30
0.0
 10
10.9155037468
 20
7.1824791463
 30
0.0
 10
10.9278888298
 20
7.1492508858
 30
0.0
 10
10.9423942707
 20
7.1167695405
 30
0.0
 10
10.9589560358
 20
7.0851781297
 30
0.0
 10
10.9775010653
 20
7.0546157303
 30
0.0
 10
10.997947601
 20
7.0252168907
 30
0.0
 10
11.020205543
 20
6.9971110398
 30
0.0
 10
11.0441768429
 20
6.9704219245
 30
0.0
 10
11.0697559347
 20
6.9452670724
 30
0.0
 10
11.0968301798
 20
6.9217572628
 30
0.0
 10
11.1252803699
 20
6.8999960492
 30
0.0
 10
11.1549812529
 20
6.8800793137
 30
0.0
 10
11.185802077
 20
6.8620948471
 30
0.0
 10
11.2176071596
 20
6.8461219639
 30
0.0
 10
11.2502564786
 20
6.8322311581
 30
0.0
 10
11.283606277
 20
6.8204837755
 30
0.0
 10
11.3175096842
 20
6.8109317438
 30
0.0
 10
11.3518173933
 20
6.8036173595
 30
0.0
 10
11.3863781863
 20
6.7985730794
 30
0.0
 10
11.4210400464
 20
6.7958214319
 30
0.0
 10
11.4556491366
 20
6.79537469
 30
0.0
 10
11.484355241
 20
6.7969272583
 30
0.0
 10
11.507135547
 20
6.7993221707
 30
0.0
 10
11.5240951316
 20
6.8016890949
 30
0.0
 10
11.5409278
 20
6.8046260394
 30
0.0
 10
11.5631525034
 20
6.8092924425
 30
0.0
 10
11.5905334546
 20
6.8165307565
 30
0.0
 10
11.6172980673
 20
6.8256306074
 30
0.0
 10
11.638230147
 20
6.8339935562
 30
0.0
 10
11.6536649261
 20
6.8407954957
 30
0.0
 10
11.6688294292
 20
6.8481242876
 30
0.0
 10
11.6787545628
 20
6.8533594425
 30
0.0
 10
11.6836657399
 20
6.8560617943
 30
0.0
  0
SPLINE
  5
3A8
100
AcDbEntity
  8
0
100
AcDbSpline
 62
7
  6
CONTINUOUS
 70
0
 71
3
 72
15
 73
11
 74
0
 42
0.0000001
 43
0.0000001
 44
0.0000000001
 40
0.0
 40
0.0
 40
0.0
 40
0.0
 40
0.1268026816
 40
0.2530372138
 40
0.3787199841
 40
0.5038739791
 40
0.6285329036
 40
0.752738808
 40
0.8765419821
 40
1.0
 40
1.0
 40
1.0
 40
1.0
 10
10.8873442846
 20
7.3546768147
 30
0.0
 10
10.8873442846
 20
7.3659404454
 30
0.0
 10
10.8880728294
 20
7.3884242769
 30
0.0
 10
10.891364254
 20
7.4219270794
 30
0.0
 10
10.8968380742
 20
7.4549965309
 30
0.0
 10
10.9044715888
 20
7.4874913805
 30
0.0
 10
10.9142326953
 20
7.5192747873
 30
0.0
 10
10.9260807492
 20
7.5502129271
 30
0.0
 10
10.9399648941
 20
7.5801733845
 30
0.0
 10
10.9505549905
 20
7.5994388229
 30
0.0
 10
10.9561663819
 20
7.6088609822
 30
0.0
  0
SPLINE
  5
3A9
100
AcDbEntity
  8
0
100
AcDbSpline
 62
7
  6
CONTINUOUS
 70
0
 71
3
 72
15
 73
11
 74
0
 42
0.0000001
 43
0.0000001
 44
0.0000000001
 40
0.0
 40
0.0
 40
0.0
 40
0.0
 40
0.1269217366
 40
0.2532267895
 40
0.3789359499
 40
0.5040788944
 40
0.6286983953
 40
0.7528479497
 40
0.8765910699
 40
1.0
 40
1.0
 40
1.0
 40
1.0
 10
10.8999013211
 20
7.3538059813
 30
0.0
 10
10.8999013211
 20
7.3657381799
 30
0.0
 10
10.9007390339
 20
7.3895534092
 30
0.0
 10
10.9045244817
 20
7.4250054776
 30
0.0
 10
10.9108171314
 20
7.4599317422
 30
0.0
 10
10.9195862276
 20
7.4941563129
 30
0.0
 10
10.9307883705
 20
7.5275092477
 30
0.0
 10
10.944368546
 20
7.5598249238
 30
0.0
 10
10.9602579931
 20
7.5909402805
 30
0.0
 10
10.9723552306
 20
7.6108082098
 30
0.0
 10
10.9787571949
 20
7.6204839598
 30
0.0
  0
SPLINE
  5
3AA
100
AcDbEntity
  8
0
100
AcDbSpline
 62
7
  6
CONTINUOUS
 70
0
 71
3
 72
15
 73
11
 74
0
 42
0.0000001
 43
0.0000001
 44
0.0000000001
 40
0.0
 40
0.0
 40
0.0
 40
0.0
 40
0.1269902512
 40
0.2533343141
 40
0.3790558871
 40
0.5041893271
 40
0.6287836948
 40
0.7529003199
 40
0.8766117183
 40
1.0
 40
1.0
 40
1.0
 40
1.0
 10
10.9147505602
 20
7.3576492457
 30
0.0
 10
10.9147505602
 20
7.3699065895
 30
0.0
 10
10.9156524902
 20
7.3943688618
 30
0.0
 10
10.9197286207
 20
7.4307612513
 30
0.0
 10
10.9265025424
 20
7.4665694461
 30
0.0
 10
10.9359378942
 20
7.5015952445
 30
0.0
 10
10.9479833729
 20
7.5356475016
 30
0.0
 10
10.9625739337
 20
7.5685403573
 30
0.0
 10
10.9796284293
 20
7.6000913744
 30
0.0
 10
10.9925966765
 20
7.6201429114
 30
0.0
 10
10.9994540156
 20
7.6298803265
 30
0.0
  0
SPLINE
  5
3AB
100
AcDbEntity
  8
0
100
AcDbSpline
 62
7
  6
CONTINUOUS
 70
0
 71
3
 72
15
 73
11
 74
0
 42
0.0000001
 43
0.0000001
 44
0.0000000001
 40
0.0
 40
0.0
 40
0.0
 40
0.0
 40
0.126815294
 40
0.2530574731
 40
0.3787433035
 40
0.5038964039
 40
0.6285513713
 40
0.7527513421
 40
0.8765478862
 40
1.0
 40
1.0
 40
1.0
 40
1.0
 10
10.9504192806
 20
7.3921025859
 30
0.0
 10
10.9504192806
 20
7.4029708041
 30
0.0
 10
10.9511284277
 20
7.4246650363
 30
0.0
 10
10.9543322926
 20
7.4569881198
 30
0.0
 10
10.9596602676
 20
7.4888869927
 30
0.0
 10
10.9670898666
 20
7.520222985
 30
0.0
 10
10.9765892906
 20
7.5508617969
 30
0.0
 10
10.9881182867
 20
7.5806721317
 30
0.0
 10
11.0016264812
 20
7.6095241422
 30
0.0
 10
11.0119279655
 20
7.6280640824
 30
0.0
 10
11.017385745
 20
7.6371276813
 30
0.0
  0
SPLINE
  5
3AC
100
AcDbEntity
  8
0
100
AcDbSpline
 62
7
  6
CONTINUOUS
 70
0
 71
3
 72
19
 73
15
 74
0
 42
0.0000001
 43
0.0000001
 44
0.0000000001
 40
0.0
 40
0.0
 40
0.0
 40
0.0
 40
0.1270553977
 40
0.2534290471
 40
0.3791484502
 40
0.5042542744
 40
0.5666074153
 40
0.6288299255
 40
0.6909312083
 40
0.7529214539
 40
0.8148115781
 40
0.8766131743
 40
0.9383384214
 40
1.0
 40
1.0
 40
1.0
 40
1.0
 10
11.0092070269
 20
7.4008871917
 30
0.0
 10
11.0092070269
 20
7.4126244603
 30
0.0
 10
11.0101187237
 20
7.4360466094
 30
0.0
 10
11.0142397504
 20
7.4708642485
 30
0.0
 10
11.0210852805
 20
7.5050680905
 30
0.0
 10
11.0290372115
 20
7.5329207805
 30
0.0
 10
11.0367123729
 20
7.554677297
 30
0.0
 10
11.0431102728
 20
7.5706970473
 30
0.0
 10
11.0501455335
 20
7.5864103045
 30
0.0
 10
11.0578075741
 20
7.6017934718
 30
0.0
 10
11.066084729
 20
7.6168229752
 30
0.0
 10
11.0749643992
 20
7.6314760623
 30
0.0
 10
11.0844328709
 20
7.6457300655
 30
0.0
 10
11.091131695
 20
7.6549570656
 30
0.0
 10
11.0945736278
 20
7.65949582
 30
0.0
  0
SPLINE
  5
3AD
100
AcDbEntity
  8
0
100
AcDbSpline
 62
7
  6
CONTINUOUS
 70
0
 71
3
 72
11
 73
7
 74
0
 42
0.0000001
 43
0.0000001
 44
0.0000000001
 40
0.0
 40
0.0
 40
0.0
 40
0.0
 40
0.2551234864
 40
0.5058837001
 40
0.7536882452
 40
1.0
 40
1.0
 40
1.0
 40
1.0
 10
11.04013445
 20
10.3689745506
 30
0.0
 10
11.0404455837
 20
10.3680139992
 30
0.0
 10
11.040993286
 20
10.3660859686
 30
0.0
 10
11.0415865491
 20
10.3631597479
 30
0.0
 10
11.0419427952
 20
10.3602303686
 30
0.0
 10
11.0420220498
 20
10.3582739339
 30
0.0
 10
11.0420220539
 20
10.3572991227
 30
0.0
  0
SPLINE
  5
3AE
100
AcDbEntity
  8
0
100
AcDbSpline
 62
7
  6
CONTINUOUS
 70
0
 71
3
 72
44
 73
40
 74
0
 42
0.0000001
 43
0.0000001
 44
0.0000000001
 40
0.0
 40
0.0
 40
0.0
 40
0.0
 40
0.0310744349
 40
0.0623061033
 40
0.0936903779
 40
0.1252186236
 40
0.1568794503
 40
0.1886586803
 40
0.2205397066
 40
0.2525038554
 40
0.2845307769
 40
0.3165988658
 40
0.3486856972
 40
0.3807684736
 40
0.4128244778
 40
0.4448315246
 40
0.4767684059
 40
0.5086153213
 40
0.5403542862
 40
0.5719695169
 40
0.6034477806
 40
0.6347786986
 40
0.6659550044
 40
0.696972748
 40
0.7278314278
 40
0.7585340529
 40
0.7890871347
 40
0.8195005891
 40
0.8497875544
 40
0.8648914079
 40
0.8799699038
 40
0.8950254603
 40
0.9100606302
 40
0.9250780906
 40
0.9400806268
 40
0.9550711117
 40
0.9700524936
 40
0.9850277766
 40
1.0
 40
1.0
 40
1.0
 40
1.0
 10
10.7092769285
 20
7.1826769465
 30
0.0
 10
10.7092769285
 20
7.1697505606
 30
0.0
 10
10.7102412147
 20
7.1438224358
 30
0.0
 10
10.7145465019
 20
7.105054382
 30
0.0
 10
10.7216900398
 20
7.0665139683
 30
0.0
 10
10.7316323613
 20
7.0284155753
 30
0.0
 10
10.7443184268
 20
6.9909676835
 30
0.0
 10
10.7596782444
 20
6.9543760168
 30
0.0
 10
10.7776272544
 20
6.9188413388
 30
0.0
 10
10.7980667344
 20
6.8845586653
 30
0.0
 10
10.8208842871
 20
6.8517160742
 30
0.0
 10
10.8459545725
 20
6.8204937778
 30
0.0
 10
10.8731399645
 20
6.791063144
 30
0.0
 10
10.9022911982
 20
6.7635856731
 30
0.0
 10
10.933248283
 20
6.7382121977
 30
0.0
 10
10.965841381
 20
6.7150820992
 30
0.0
 10
10.9998916495
 20
6.6943224522
 30
0.0
 10
11.0352122432
 20
6.6760473506
 30
0.0
 10
11.0716093695
 20
6.6603573695
 30
0.0
 10
11.1088832949
 20
6.6473389591
 30
0.0
 10
11.1468294077
 20
6.6370638852
 30
0.0
 10
11.1852393753
 20
6.6295889615
 30
0.0
 10
11.2239022523
 20
6.6249557256
 30
0.0
 10
11.2626055932
 20
6.6231900476
 30
0.0
 10
11.3011366798
 20
6.6243021081
 30
0.0
 10
11.3392834972
 20
6.6282862915
 30
0.0
 10
11.3768365064
 20
6.6351213432
 30
0.0
 10
11.41358755
 20
6.6447694572
 30
0.0
 10
11.443409627
 20
6.6551218924
 30
0.0
 10
11.4666541654
 20
6.6647492217
 30
0.0
 10
11.4837497392
 20
6.6726265971
 30
0.0
 10
11.5004973166
 20
6.6811557049
 30
0.0
 10
11.5168741614
 20
6.6903249944
 30
0.0
 10
11.5328576758
 20
6.7001217567
 30
0.0
 10
11.5484258898
 20
6.7105325396
 30
0.0
 10
11.5635573089
 20
6.7215430567
 30
0.0
 10
11.5782312342
 20
6.733138161
 30
0.0
 10
11.5924271735
 20
6.7453016561
 30
0.0
 10
11.6015604271
 20
6.7537794094
 30
0.0
 10
11.6060400659
 20
6.7581064046
 30
0.0
  0
SPLINE
  5
3AF
100
AcDbEntity
  8
0
100
AcDbSpline
 62
7
  6
CONTINUOUS
 70
0
 71
3
 72
43
 73
39
 74
0
 42
0.0000001
 43
0.0000001
 44
0.0000000001
 40
0.0
 40
0.0
 40
0.0
 40
0.0
 40
0.0309485948
 40
0.0620406286
 40
0.093272685
 40
0.124638059
 40
0.1561280529
 40
0.1877317075
 40
0.219436121
 40
0.2512266705
 40
0.2830872772
 40
0.3150006856
 40
0.3469487586
 40
0.3789127818
 40
0.4108737765
 40
0.4428128141
 40
0.4747113311
 40
0.5065514381
 40
0.5383162228
 40
0.5699900405
 40
0.6015587898
 40
0.6330101668
 40
0.6643338962
 40
0.6955219342
 40
0.7265686398
 40
0.7574709078
 40
0.788228259
 40
0.818842886
 40
0.8341003909
 40
0.8493242608
 40
0.8645155082
 40
0.8796753067
 40
0.909901273
 40
0.9400191537
 40
0.9550444074
 40
0.9700482213
 40
0.9850326877
 40
1.0
 40
1.0
 40
1.0
 40
1.0
 10
10.8999013211
 20
7.3538059813
 30
0.0
 10
10.8999013211
 20
7.3422777465
 30
0.0
 10
10.9006869269
 20
7.3191604146
 30
0.0
 10
10.9041973981
 20
7.2845697809
 30
0.0
 10
10.9100261214
 20
7.2501347462
 30
0.0
 10
10.9181462077
 20
7.2160153595
 30
0.0
 10
10.9285200903
 20
7.1823676776
 30
0.0
 10
10.9410999985
 20
7.1493461972
 30
0.0
 10
10.9558280203
 20
7.1171023407
 30
0.0
 10
10.9726364274
 20
7.0857839914
 30
0.0
 10
10.9914479898
 20
7.0555347681
 30
0.0
 10
11.0121763265
 20
7.0264933896
 30
0.0
 10
11.034726302
 20
6.998793045
 30
0.0
 10
11.0589944477
 20
6.9725607825
 30
0.0
 10
11.0848694221
 20
6.9479169168
 30
0.0
 10
11.1122325434
 20
6.9249745038
 30
0.0
 10
11.1409583228
 20
6.9038388239
 30
0.0
 10
11.1709150346
 20
6.8846069043
 30
0.0
 10
11.2019653133
 20
6.8673670789
 30
0.0
 10
11.2339667602
 20
6.8521985532
 30
0.0
 10
11.2667726083
 20
6.8391710688
 30
0.0
 10
11.3002323884
 20
6.8283445863
 30
0.0
 10
11.3341926
 20
6.819769006
 30
0.0
 10
11.3684974412
 20
6.8134839477
 30
0.0
 10
11.4029893812
 20
6.8095185134
 30
0.0
 10
11.4375103549
 20
6.8078912291
 30
0.0
 10
11.4719007294
 20
6.8086096933
 30
0.0
 10
11.500355226
 20
6.811164207
 30
0.0
 10
11.5228893828
 20
6.8143754015
 30
0.0
 10
11.5396419636
 20
6.8173604375
 30
0.0
 10
11.5562444408
 20
6.8209214167
 30
0.0
 10
11.578131556
 20
6.8264255018
 30
0.0
 10
11.6050309773
 20
6.8347218865
 30
0.0
 10
11.6312274427
 20
6.8448885337
 30
0.0
 10
11.651653045
 20
6.8541046011
 30
0.0
 10
11.6666831454
 20
6.8615455977
 30
0.0
 10
11.681416749
 20
6.8695115313
 30
0.0
 10
11.6910360072
 20
6.8751693529
 30
0.0
 10
11.6957897982
 20
6.8780822684
 30
0.0
  0
SPLINE
  5
3B0
100
AcDbEntity
  8
0
100
AcDbSpline
 62
7
  6
CONTINUOUS
 70
0
 71
3
 72
39
 73
35
 74
0
 42
0.0000001
 43
0.0000001
 44
0.0000000001
 40
0.0
 40
0.0
 40
0.0
 40
0.0
 40
0.029942471
 40
0.0599093183
 40
0.0899243244
 40
0.1200101034
 40
0.1501875624
 40
0.1804754148
 40
0.2108897596
 40
0.2414437361
 40
0.2721472598
 40
0.3030068424
 40
0.3340254951
 40
0.3652027149
 40
0.3965345496
 40
0.4280137343
 40
0.459629891
 40
0.4913697854
 40
0.5232176334
 40
0.5551554501
 40
0.5871634341
 40
0.6192203766
 40
0.6513040925
 40
0.6833918636
 40
0.7154608915
 40
0.7474887505
 40
0.7794538351
 40
0.8113357956
 40
0.8431159562
 40
0.8747777121
 40
0.9063068677
 40
0.9376920929
 40
0.9689246489
 40
1.0
 40
1.0
 40
1.0
 40
1.0
 10
10.0224386319
 20
8.560171227
 30
0.0
 10
10.016607352
 20
8.5545386667
 30
0.0
 10
10.0044863016
 20
8.5437280823
 30
0.0
 10
9.9850664671
 20
8.5290005956
 30
0.0
 10
9.9645076692
 20
8.515835168
 30
0.0
 10
9.9429247682
 20
8.5043056673
 30
0.0
 10
9.9204364216
 20
8.4944750929
 30
0.0
 10
9.8971667439
 20
8.4863974792
 30
0.0
 10
9.873243969
 20
8.4801170118
 30
0.0
 10
9.848799894
 20
8.4756679767
 30
0.0
 10
9.8239691019
 20
8.4730745425
 30
0.0
 10
9.7988882303
 20
8.4723506612
 30
0.0
 10
9.7736952191
 20
8.4734999991
 30
0.0
 10
9.7485285534
 20
8.4765159103
 30
0.0
 10
9.7235265078
 20
8.4813815199
 30
0.0
 10
9.6988263973
 20
8.4880698245
 30
0.0
 10
9.6745638346
 20
8.4965438493
 30
0.0
 10
9.6508719997
 20
8.5067568601
 30
0.0
 10
9.6278809098
 20
8.5186525986
 30
0.0
 10
9.605716715
 20
8.5321656036
 30
0.0
 10
9.5845010233
 20
8.5472215842
 30
0.0
 10
9.5643502416
 20
8.5637378211
 30
0.0
 10
9.5453749463
 20
8.5816236185
 30
0.0
 10
9.5276792835
 20
8.6007807933
 30
0.0
 10
9.5113603814
 20
8.6211041921
 30
0.0
 10
9.496507844
 20
8.6424822856
 30
0.0
 10
9.483203263
 20
8.66479777
 30
0.0
 10
9.4715197745
 20
8.6879282064
 30
0.0
 10
9.4615216621
 20
8.7117466685
 30
0.0
 10
9.4532639947
 20
8.7361224762
 30
0.0
 10
9.4467922809
 20
8.7609217132
 30
0.0
 10
9.442142363
 20
8.7860086643
 30
0.0
 10
9.4393399277
 20
8.8112437973
 30
0.0
 10
9.4387122546
 20
8.8281210805
 30
0.0
 10
9.4387122546
 20
8.8365352019
 30
0.0
  0
SPLINE
  5
3B1
100
AcDbEntity
  8
0
100
AcDbSpline
 62
7
  6
CONTINUOUS
 70
0
 71
3
 72
42
 73
38
 74
0
 42
0.0000001
 43
0.0000001
 44
0.0000000001
 40
0.0
 40
0.0
 40
0.0
 40
0.0
 40
0.0309663439
 40
0.0620779826
 40
0.0933313616
 40
0.1247195196
 40
0.1562334326
 40
0.1878617345
 40
0.2195910573
 40
0.2514062643
 40
0.2832907309
 40
0.3152266407
 40
0.3471952968
 40
0.3791774436
 40
0.4111535957
 40
0.4431043702
 40
0.4750108164
 40
0.5068547413
 40
0.5386190246
 40
0.5702879226
 40
0.601847354
 40
0.6332851625
 40
0.6645913533
 40
0.6957582987
 40
0.7267809067
 40
0.7422394906
 40
0.7576613094
 40
0.7883907126
 40
0.818976777
 40
0.8494253651
 40
0.8797450237
 40
0.8948623058
 40
0.9099517207
 40
0.925015023
 40
0.9400540968
 40
0.9700627529
 40
1.0
 40
1.0
 40
1.0
 40
1.0
 10
10.9147505602
 20
7.3576492457
 30
0.0
 10
10.9147505602
 20
7.3462073142
 30
0.0
 10
10.9155402165
 20
7.3232622039
 30
0.0
 10
10.919068402
 20
7.2889324742
 30
0.0
 10
10.9249260158
 20
7.25476319
 30
0.0
 10
10.9330853464
 20
7.2209172079
 30
0.0
 10
10.9435076799
 20
7.1875532711
 30
0.0
 10
10.9561437992
 20
7.1548284683
 30
0.0
 10
10.9709340594
 20
7.1228966799
 30
0.0
 10
10.987808715
 20
7.0919080817
 30
0.0
 10
11.0066882593
 20
7.0620083934
 30
0.0
 10
11.0274837946
 20
7.0333382178
 30
0.0
 10
11.0500974475
 20
7.0060323832
 30
0.0
 10
11.0744228265
 20
6.98021932
 30
0.0
 10
11.1003454948
 20
6.9560204387
 30
0.0
 10
11.1277435269
 20
6.93354958
 30
0.0
 10
11.1564880784
 20
6.9129124882
 30
0.0
 10
11.1864439838
 20
6.8942063174
 30
0.0
 10
11.2174703879
 20
6.8775191808
 30
0.0
 10
11.249421384
 20
6.8629297259
 30
0.0
 10
11.2821467225
 20
6.85050675
 30
0.0
 10
11.3154924021
 20
6.840308906
 30
0.0
 10
11.349301828
 20
6.8323844082
 30
0.0
 10
11.3834148806
 20
6.8267708496
 30
0.0
 10
11.4119992898
 20
6.8240375493
 30
0.0
 10
11.4348539792
 20
6.8230319454
 30
0.0
 10
11.4576213363
 20
6.8228129835
 30
0.0
 10
11.4859749187
 20
6.8240077365
 30
0.0
 10
11.519696667
 20
6.8277948232
 30
0.0
 10
11.552920141
 20
6.8339156464
 30
0.0
 10
11.5800907133
 20
6.840945652
 30
0.0
 10
11.6014136777
 20
6.8477033984
 30
0.0
 10
11.6171709414
 20
6.85332733
 30
0.0
 10
11.632688418
 20
6.8595048379
 30
0.0
 10
11.6530173728
 20
6.8684622596
 30
0.0
 10
11.6777498493
 20
6.8810069388
 30
0.0
 10
11.6967401848
 20
6.8924520004
 30
0.0
 10
11.7059986964
 20
6.8985051673
 30
0.0
  0
SPLINE
  5
3B2
100
AcDbEntity
  8
0
100
AcDbSpline
 62
7
  6
CONTINUOUS
 70
0
 71
3
 72
44
 73
40
 74
0
 42
0.0000001
 43
0.0000001
 44
0.0000000001
 40
0.0
 40
0.0
 40
0.0
 40
0.0
 40
0.0840364397
 40
0.169504805
 40
0.2553475721
 40
0.3404999409
 40
0.3824882716
 40
0.4239107206
 40
0.4646400635
 40
0.5045518968
 40
0.5435251936
 40
0.5814428515
 40
0.6181922748
 40
0.6536659929
 40
0.6877623696
 40
0.7203863526
 40
0.7514502821
 40
0.7808748745
 40
0.8085904264
 40
0.834538383
 40
0.8586733676
 40
0.870052024
 40
0.8809678501
 40
0.8914203887
 40
0.9014106032
 40
0.9109412427
 40
0.9200172548
 40
0.9286457505
 40
0.9368368615
 40
0.9446038293
 40
0.9519637378
 40
0.9589382313
 40
0.965553926
 40
0.9718434876
 40
0.9778459264
 40
0.9836071464
 40
0.9891799005
 40
0.9946229937
 40
1.0
 40
1.0
 40
1.0
 40
1.0
 10
12.9220096493
 20
7.1848276067
 30
0.0
 10
12.9220096493
 20
7.1772091471
 30
0.0
 10
12.9217705737
 20
7.1618415397
 30
0.0
 10
12.9207330982
 20
7.1387127886
 30
0.0
 10
12.919025636
 20
7.1155223116
 30
0.0
 10
12.9170543009
 20
7.0963118317
 30
0.0
 10
12.9151550267
 20
7.0811484652
 30
0.0
 10
12.9135864143
 20
7.0700037252
 30
0.0
 10
12.9118723436
 20
7.0590709367
 30
0.0
 10
12.9100184857
 20
7.0483862272
 30
0.0
 10
12.9080310156
 20
7.0379849252
 30
0.0
 10
12.9059165442
 20
7.0279014038
 30
0.0
 10
12.9036821104
 20
7.018168977
 30
0.0
 10
12.9013351524
 20
7.0088197817
 30
0.0
 10
12.8988834915
 20
6.9998846603
 30
0.0
 10
12.8963353053
 20
6.9913930518
 30
0.0
 10
12.8936990908
 20
6.9833728818
 30
0.0
 10
12.8909836369
 20
6.9758504838
 30
0.0
 10
12.888197978
 20
6.9688504037
 30
0.0
 10
12.8853513682
 20
6.9623955755
 30
0.0
 10
12.8828901963
 20
6.9573942968
 30
0.0
 10
12.8808914935
 20
6.9536894979
 30
0.0
 10
12.8794125776
 20
6.95111491
 30
0.0
 10
12.8779254915
 20
6.9486915039
 30
0.0
 10
12.8764314061
 20
6.9464212487
 30
0.0
 10
12.8749315082
 20
6.9443059943
 30
0.0
 10
12.8734270392
 20
6.9423474149
 30
0.0
 10
12.8719191171
 20
6.9405471209
 30
0.0
 10
12.8704089486
 20
6.9389065239
 30
0.0
 10
12.8688976417
 20
6.9374269556
 30
0.0
 10
12.8673862731
 20
6.9361096481
 30
0.0
 10
12.8658759453
 20
6.9349556664
 30
0.0
 10
12.8643676198
 20
6.9339661303
 30
0.0
 10
12.8628623588
 20
6.9331419841
 30
0.0
 10
12.8613611667
 20
6.9324842527
 30
0.0
 10
12.8598651954
 20
6.931993946
 30
0.0
 10
12.8583757018
 20
6.931671933
 30
0.0
 10
12.8568944671
 20
6.9315191028
 30
0.0
 10
12.8559110587
 20
6.9315303477
 30
0.0
 10
12.8554247658
 20
6.931564078
 30
0.0
  0
SPLINE
  5
3B3
100
AcDbEntity
  8
0
100
AcDbSpline
 62
7
  6
CONTINUOUS
 70
0
 71
3
 72
39
 73
35
 74
0
 42
0.0000001
 43
0.0000001
 44
0.0000000001
 40
0.0
 40
0.0
 40
0.0
 40
0.0
 40
0.029942471
 40
0.0599093183
 40
0.0899243244
 40
0.1200101034
 40
0.1501875624
 40
0.1804754148
 40
0.2108897596
 40
0.2414437361
 40
0.2721472598
 40
0.3030068424
 40
0.3340254951
 40
0.3652027149
 40
0.3965345496
 40
0.4280137343
 40
0.459629891
 40
0.4913697854
 40
0.5232176334
 40
0.5551554501
 40
0.5871634341
 40
0.6192203766
 40
0.6513040925
 40
0.6833918636
 40
0.7154608915
 40
0.7474887505
 40
0.7794538351
 40
0.8113357956
 40
0.8431159562
 40
0.8747777121
 40
0.9063068677
 40
0.9376920929
 40
0.9689246489
 40
1.0
 40
1.0
 40
1.0
 40
1.0
 10
11.4713274572
 20
8.4596904456
 30
0.0
 10
11.4654961772
 20
8.4540578854
 30
0.0
 10
11.4533751269
 20
8.4432473009
 30
0.0
 10
11.4339552924
 20
8.4285198143
 30
0.0
 10
11.4133964945
 20
8.4153543867
 30
0.0
 10
11.3918135934
 20
8.403824886
 30
0.0
 10
11.3693252469
 20
8.3939943116
 30
0.0
 10
11.3460555692
 20
8.3859166979
 30
0.0
 10
11.3221327943
 20
8.3796362305
 30
0.0
 10
11.2976887192
 20
8.3751871953
 30
0.0
 10
11.2728579272
 20
8.3725937612
 30
0.0
 10
11.2477770556
 20
8.3718698799
 30
0.0
 10
11.2225840444
 20
8.3730192178
 30
0.0
 10
11.1974173787
 20
8.376035129
 30
0.0
 10
11.1724153331
 20
8.3809007386
 30
0.0
 10
11.1477152226
 20
8.3875890432
 30
0.0
 10
11.1234526599
 20
8.396063068
 30
0.0
 10
11.099760825
 20
8.4062760787
 30
0.0
 10
11.0767697351
 20
8.4181718173
 30
0.0
 10
11.0546055403
 20
8.4316848223
 30
0.0
 10
11.0333898486
 20
8.4467408029
 30
0.0
 10
11.0132390668
 20
8.4632570398
 30
0.0
 10
10.9942637716
 20
8.4811428371
 30
0.0
 10
10.9765681087
 20
8.500300012
 30
0.0
 10
10.9602492067
 20
8.5206234108
 30
0.0
 10
10.9453966693
 20
8.5420015043
 30
0.0
 10
10.9320920883
 20
8.5643169887
 30
0.0
 10
10.9204085998
 20
8.587447425
 30
0.0
 10
10.9104104873
 20
8.6112658872
 30
0.0
 10
10.9021528199
 20
8.6356416949
 30
0.0
 10
10.8956811061
 20
8.6604409319
 30
0.0
 10
10.8910311883
 20
8.685527883
 30
0.0
 10
10.888228753
 20
8.710763016
 30
0.0
 10
10.8876010798
 20
8.7276402992
 30
0.0
 10
10.8876010798
 20
8.7360544206
 30
0.0
  0
SPLINE
  5
3B4
100
AcDbEntity
  8
0
100
AcDbSpline
 62
7
  6
CONTINUOUS
 70
0
 71
3
 72
43
 73
39
 74
0
 42
0.0000001
 43
0.0000001
 44
0.0000000001
 40
0.0
 40
0.0
 40
0.0
 40
0.0
 40
0.0309231122
 40
0.0619870075
 40
0.0931884514
 40
0.1245210824
 40
0.155976677
 40
0.1875448359
 40
0.2192133141
 40
0.2509682103
 40
0.2827942133
 40
0.3146748597
 40
0.3465928063
 40
0.3785301112
 40
0.4104685231
 40
0.4423897724
 40
0.4742758641
 40
0.506109367
 40
0.5378736972
 40
0.5695533905
 40
0.6011343629
 40
0.6326041533
 40
0.6639521459
 40
0.6951697695
 40
0.7262506669
 40
0.7571908329
 40
0.7879887143
 40
0.8186452717
 40
0.8339237447
 40
0.8491684091
 40
0.8643800883
 40
0.8795597649
 40
0.9098232308
 40
0.9399739972
 40
0.9550133617
 40
0.9700295319
 40
0.985024411
 40
1.0
 40
1.0
 40
1.0
 40
1.0
 10
10.9504192806
 20
7.3921025859
 30
0.0
 10
10.9504192806
 20
7.3810103184
 30
0.0
 10
10.9511613266
 20
7.3587683877
 30
0.0
 10
10.954477674
 20
7.3254832379
 30
0.0
 10
10.9599847762
 20
7.2923395895
 30
0.0
 10
10.9676581513
 20
7.2594859383
 30
0.0
 10
10.977463569
 20
7.2270671358
 30
0.0
 10
10.9893575016
 20
7.1952266655
 30
0.0
 10
11.0032871752
 20
7.1641052769
 30
0.0
 10
11.0191908581
 20
7.133840571
 30
0.0
 10
11.0369981031
 20
7.1045663335
 30
0.0
 10
11.0566300796
 20
7.0764119723
 30
0.0
 10
11.0779999178
 20
7.0495019469
 30
0.0
 10
11.1010130913
 20
7.0239552248
 30
0.0
 10
11.1255678309
 20
6.9998847608
 30
0.0
 10
11.1515555717
 20
6.9773970022
 30
0.0
 10
11.1788614264
 20
6.9565914212
 30
0.0
 10
11.2073646814
 20
6.9375600653
 30
0.0
 10
11.2369393369
 20
6.9203871662
 30
0.0
 10
11.2674546573
 20
6.9051487683
 30
0.0
 10
11.2987757415
 20
6.8919123942
 30
0.0
 10
11.3307641151
 20
6.8807367463
 30
0.0
 10
11.3632783264
 20
6.8716714464
 30
0.0
 10
11.3961745951
 20
6.8647568142
 30
0.0
 10
11.4293073215
 20
6.860023657
 30
0.0
 10
11.4625301663
 20
6.8574932002
 30
0.0
 10
11.4956950677
 20
6.8571767777
 30
0.0
 10
11.5231966901
 20
6.8587617433
 30
0.0
 10
11.545016759
 20
6.8611366406
 30
0.0
 10
11.561259219
 20
6.863465603
 30
0.0
 10
11.5773777743
 20
6.8663418245
 30
0.0
 10
11.5986564456
 20
6.8708968153
 30
0.0
 10
11.624865648
 20
6.8779392885
 30
0.0
 10
11.6504756579
 20
6.8867676785
 30
0.0
 10
11.6704988843
 20
6.8948688687
 30
0.0
 10
11.6852604863
 20
6.9014527617
 30
0.0
 10
11.6997605004
 20
6.9085415575
 30
0.0
 10
11.7092484115
 20
6.913602282
 30
0.0
 10
11.7139426876
 20
6.9162138274
 30
0.0
  0
SPLINE
  5
3B5
100
AcDbEntity
  8
0
100
AcDbSpline
 62
7
  6
CONTINUOUS
 70
0
 71
3
 72
11
 73
7
 74
0
 42
0.0000001
 43
0.0000001
 44
0.0000000001
 40
0.0
 40
0.0
 40
0.0
 40
0.0
 40
0.2551234864
 40
0.5058837001
 40
0.7536882452
 40
1.0
 40
1.0
 40
1.0
 40
1.0
 10
12.4890232753
 20
10.2684937693
 30
0.0
 10
12.4893344089
 20
10.2675332179
 30
0.0
 10
12.4898821113
 20
10.2656051873
 30
0.0
 10
12.4904753744
 20
10.2626789666
 30
0.0
 10
12.4908316205
 20
10.2597495873
 30
0.0
 10
12.4909108751
 20
10.2577931526
 30
0.0
 10
12.4909108792
 20
10.2568183414
 30
0.0
  0
SPLINE
  5
3B6
100
AcDbEntity
  8
0
100
AcDbSpline
 62
7
  6
CONTINUOUS
 70
0
 71
3
 72
33
 73
29
 74
0
 42
0.0000001
 43
0.0000001
 44
0.0000000001
 40
0.0
 40
0.0
 40
0.0
 40
0.0
 40
0.0714524964
 40
0.1438712185
 40
0.2169317982
 40
0.2902733384
 40
0.3634825539
 40
0.436079197
 40
0.4719784233
 40
0.5075108206
 40
0.5425964137
 40
0.5771520849
 40
0.6110926756
 40
0.6443322194
 40
0.6767854674
 40
0.7083696693
 40
0.7390063018
 40
0.7686227928
 40
0.7971542824
 40
0.8245453769
 40
0.8507513954
 40
0.8757395202
 40
0.8994898896
 40
0.9219966553
 40
0.9432685894
 40
0.9633298703
 40
0.982221045
 40
1.0
 40
1.0
 40
1.0
 40
1.0
 10
11.2263347806
 20
7.6106165091
 30
0.0
 10
11.2263347806
 20
7.600642897
 30
0.0
 10
11.2268578368
 20
7.5805573872
 30
0.0
 10
11.229145815
 20
7.5503525732
 30
0.0
 10
11.2328857194
 20
7.520027649
 30
0.0
 10
11.2379788293
 20
7.4897901864
 30
0.0
 10
11.2442821269
 20
7.459849537
 30
0.0
 10
11.2504091793
 20
7.4352322791
 30
0.0
 10
11.2557247492
 20
7.4158431542
 30
0.0
 10
11.2598599721
 20
7.401561196
 30
0.0
 10
11.2641216784
 20
7.3875124981
 30
0.0
 10
11.2684704747
 20
7.3737234089
 30
0.0
 10
11.2728648696
 20
7.3602196043
 30
0.0
 10
11.2772616419
 20
7.3470256258
 30
0.0
 10
11.2816163139
 20
7.3341645356
 30
0.0
 10
11.2858838055
 20
7.3216575803
 30
0.0
 10
11.2900191005
 20
7.3095238956
 30
0.0
 10
11.2939778564
 20
7.2977802485
 30
0.0
 10
11.2977170293
 20
7.2864408342
 30
0.0
 10
11.3011955381
 20
7.2755172079
 30
0.0
 10
11.3043747419
 20
7.2650182902
 30
0.0
 10
11.3072188188
 20
7.2549504826
 30
0.0
 10
11.3096950372
 20
7.2453178379
 30
0.0
 10
11.3117740993
 20
7.2361223443
 30
0.0
 10
11.3134300854
 20
7.2273642976
 30
0.0
 10
11.3146403831
 20
7.2190424275
 30
0.0
 10
11.3153855478
 20
7.2111551899
 30
0.0
 10
11.3155666504
 20
7.2060356768
 30
0.0
 10
11.3155671675
 20
7.2035540225
 30
0.0
  0
SPLINE
  5
3B7
100
AcDbEntity
  8
0
100
AcDbSpline
 62
7
  6
CONTINUOUS
 70
0
 71
3
 72
39
 73
35
 74
0
 42
0.0000001
 43
0.0000001
 44
0.0000000001
 40
0.0
 40
0.0
 40
0.0
 40
0.0
 40
0.0309878419
 40
0.0621232182
 40
0.0934024018
 40
0.124818116
 40
0.1563609311
 40
0.1880189785
 40
0.2197783142
 40
0.2516231685
 40
0.2835362459
 40
0.3154990426
 40
0.3474921783
 40
0.3794957398
 40
0.4114896306
 40
0.4434539243
 40
0.4753692143
 40
0.5072169576
 40
0.5389798076
 40
0.5706419314
 40
0.6021893092
 40
0.6336100064
 40
0.664894416
 40
0.6960354657
 40
0.7270287849
 40
0.7578728261
 40
0.7885689366
 40
0.819121373
 40
0.8495372573
 40
0.8798264733
 40
0.9100015
 40
0.9400771853
 40
0.9700704604
 40
1.0
 40
1.0
 40
1.0
 40
1.0
 10
11.0092070269
 20
7.4008871917
 30
0.0
 10
11.0092070269
 20
7.3903517091
 30
0.0
 10
11.0099451578
 20
7.369223413
 30
0.0
 10
11.0132426904
 20
7.3376155704
 30
0.0
 10
11.0187167708
 20
7.3061622631
 30
0.0
 10
11.026340713
 20
7.2750179529
 30
0.0
 10
11.0360772424
 20
7.244333142
 30
0.0
 10
11.047878983
 20
7.2142566854
 30
0.0
 10
11.0616885413
 20
7.1849343
 30
0.0
 10
11.0774388219
 20
7.1565080713
 30
0.0
 10
11.0950533655
 20
7.1291157228
 30
0.0
 10
11.1144467165
 20
7.1028899731
 30
0.0
 10
11.1355248336
 20
7.0779578954
 30
0.0
 10
11.1581855447
 20
7.0544403143
 30
0.0
 10
11.1823190193
 20
7.0324512077
 30
0.0
 10
11.2078083048
 20
7.0120971626
 30
0.0
 10
11.234529899
 20
6.9934768749
 30
0.0
 10
11.2623543383
 20
6.9766806729
 30
0.0
 10
11.2911468181
 20
6.9617900831
 30
0.0
 10
11.320767837
 20
6.9488774393
 30
0.0
 10
11.3510738541
 20
6.9380055035
 30
0.0
 10
11.3819179894
 20
6.9292271838
 30
0.0
 10
11.4131507259
 20
6.9225852788
 30
0.0
 10
11.4446206236
 20
6.9181122647
 30
0.0
 10
11.4761750439
 20
6.9158301334
 30
0.0
 10
11.50766088
 20
6.9157502677
 30
0.0
 10
11.5389252944
 20
6.9178733536
 30
0.0
 10
11.5698164627
 20
6.9221893971
 30
0.0
 10
11.6001842909
 20
6.9286777424
 30
0.0
 10
11.6298812018
 20
6.9373071966
 30
0.0
 10
11.6587626425
 20
6.9480360184
 30
0.0
 10
11.6866885915
 20
6.9608126433
 30
0.0
 10
11.7135213312
 20
6.9755738433
 30
0.0
 10
11.7306128127
 20
6.986702496
 30
0.0
 10
11.7389273973
 20
6.9925686705
 30
0.0
  0
SPLINE
  5
3B8
100
AcDbEntity
  8
0
100
AcDbSpline
 62
7
  6
CONTINUOUS
 70
0
 71
3
 72
39
 73
35
 74
0
 42
0.0000001
 43
0.0000001
 44
0.0000000001
 40
0.0
 40
0.0
 40
0.0
 40
0.0
 40
0.0306777493
 40
0.0614699592
 40
0.0923739965
 40
0.1233870504
 40
0.1545044156
 40
0.1857204979
 40
0.2170285078
 40
0.2484206777
 40
0.2798883126
 40
0.3114219032
 40
0.3430112305
 40
0.3746454793
 40
0.4063133561
 40
0.4380032108
 40
0.4697031613
 40
0.5014012186
 40
0.5330854139
 40
0.564743925
 40
0.5963652015
 40
0.6279380883
 40
0.6594519459
 40
0.6908967669
 40
0.7222632875
 40
0.7535430934
 40
0.7847287181
 40
0.8158137337
 40
0.8467928316
 40
0.8776618932
 40
0.9084180492
 40
0.9390597255
 40
0.9695866758
 40
1.0
 40
1.0
 40
1.0
 40
1.0
 10
11.2273913019
 20
7.6116370303
 30
0.0
 10
11.2273913019
 20
7.6034644544
 30
0.0
 10
11.2278351269
 20
7.5870854384
 30
0.0
 10
11.2298215533
 20
7.5625460559
 30
0.0
 10
11.2331241333
 20
7.5380581631
 30
0.0
 10
11.2377330141
 20
7.5136943692
 30
0.0
 10
11.2436347421
 20
7.4895255423
 30
0.0
 10
11.2508119521
 20
7.4656224023
 30
0.0
 10
11.2592436347
 20
7.4420547562
 30
0.0
 10
11.2689050888
 20
7.4188914614
 30
0.0
 10
11.2797680426
 20
7.3962001804
 30
0.0
 10
11.2918007168
 20
7.3740471963
 30
0.0
 10
11.3049679245
 20
7.3524972176
 30
0.0
 10
11.3192311718
 20
7.3316131918
 30
0.0
 10
11.3345487683
 20
7.3114561203
 30
0.0
 10
11.3508759488
 20
7.2920848822
 30
0.0
 10
11.3681650059
 20
7.2735560636
 30
0.0
 10
11.3863654277
 20
7.2559237936
 30
0.0
 10
11.405424045
 20
7.2392395872
 30
0.0
 10
11.4252851859
 20
7.2235521953
 30
0.0
 10
11.4458908367
 20
7.2089074635
 30
0.0
 10
11.4671808112
 20
7.1953481982
 30
0.0
 10
11.4890929242
 20
7.1829140426
 30
0.0
 10
11.511563173
 20
7.1716413609
 30
0.0
 10
11.5345259221
 20
7.1615631325
 30
0.0
 10
11.5579140937
 20
7.152708855
 30
0.0
 10
11.5816593613
 20
7.145104455
 30
0.0
 10
11.6056923508
 20
7.1387722153
 30
0.0
 10
11.6299428341
 20
7.1337307085
 30
0.0
 10
11.6543399626
 20
7.1299947444
 30
0.0
 10
11.6788123595
 20
7.1275753163
 30
0.0
 10
11.7032887481
 20
7.1264796005
 30
0.0
 10
11.7276965951
 20
7.1267108119
 30
0.0
 10
11.7439074071
 20
7.1277512787
 30
0.0
 10
11.7519755284
 20
7.1284928816
 30
0.0
  0
SPLINE
  5
3B9
100
AcDbEntity
  8
0
100
AcDbSpline
 62
7
  6
CONTINUOUS
 70
0
 71
3
 72
39
 73
35
 74
0
 42
0.0000001
 43
0.0000001
 44
0.0000000001
 40
0.0
 40
0.0
 40
0.0
 40
0.0
 40
0.0306705869
 40
0.0614548769
 40
0.0923500278
 40
0.123353481
 40
0.154460558
 40
0.1856658157
 40
0.2169626072
 40
0.2483433341
 40
0.2797994852
 40
0.3113217476
 40
0.3429001072
 40
0.3745239593
 40
0.4061822226
 40
0.4378634568
 40
0.469555982
 40
0.5012480009
 40
0.5329277212
 40
0.5645834785
 40
0.5962038574
 40
0.6277778127
 40
0.6592947863
 40
0.6907448208
 40
0.7221186683
 40
0.753407894
 40
0.7846049722
 40
0.8157033758
 40
0.8466976566
 40
0.8775835156
 40
0.9083578635
 40
0.9390188684
 40
0.96956599
 40
1.0
 40
1.0
 40
1.0
 40
1.0
 10
11.2641336433
 20
7.6171274089
 30
0.0
 10
11.2641336433
 20
7.6095369915
 30
0.0
 10
11.264542681
 20
7.5943249333
 30
0.0
 10
11.2663734652
 20
7.571533182
 30
0.0
 10
11.2694174124
 20
7.5487878538
 30
0.0
 10
11.2736655356
 20
7.5261553941
 30
0.0
 10
11.2791056556
 20
7.5037006004
 30
0.0
 10
11.2857219941
 20
7.4814881852
 30
0.0
 10
11.2934954876
 20
7.4595820237
 30
0.0
 10
11.3024037103
 20
7.4380451426
 30
0.0
 10
11.312420995
 20
7.4169394938
 30
0.0
 10
11.3235184859
 20
7.3963257885
 30
0.0
 10
11.3356642219
 20
7.376263318
 30
0.0
 10
11.3488232339
 20
7.3568097872
 30
0.0
 10
11.3629576456
 20
7.33802115
 30
0.0
 10
11.3780267813
 20
7.3199514492
 30
0.0
 10
11.3939872828
 20
7.3026526629
 30
0.0
 10
11.4107932334
 20
7.2861745553
 30
0.0
 10
11.4283962886
 20
7.2705645347
 30
0.0
 10
11.4467458148
 20
7.2558675183
 30
0.0
 10
11.4657890333
 20
7.2421258027
 30
0.0
 10
11.4854711676
 20
7.2293789371
 30
0.0
 10
11.5057356056
 20
7.2176636158
 30
0.0
 10
11.52652406
 20
7.2070135727
 30
0.0
 10
11.5477767358
 20
7.1974594848
 30
0.0
 10
11.5694325
 20
7.189028884
 30
0.0
 10
11.591429056
 20
7.1817460779
 30
0.0
 10
11.6137031231
 20
7.1756320797
 30
0.0
 10
11.6361906093
 20
7.1707045472
 30
0.0
 10
11.6588268223
 20
7.1669777314
 30
0.0
 10
11.6815465499
 20
7.1644624212
 30
0.0
 10
11.7042846332
 20
7.1631659461
 30
0.0
 10
11.7269747254
 20
7.1630920497
 30
0.0
 10
11.7420557218
 20
7.163859598
 30
0.0
 10
11.7495646007
 20
7.1644476342
 30
0.0
  0
SPLINE
  5
3BA
100
AcDbEntity
  8
0
100
AcDbSpline
 62
7
  6
CONTINUOUS
 70
0
 71
3
 72
23
 73
19
 74
0
 42
0.0000001
 43
0.0000001
 44
0.0000000001
 40
0.0
 40
0.0
 40
0.0
 40
0.0
 40
0.0618761875
 40
0.1239899092
 40
0.1863157041
 40
0.2488243029
 40
0.311483173
 40
0.3742571196
 40
0.4371089225
 40
0.4999999968
 40
0.562891071
 40
0.6257428739
 40
0.6885168205
 40
0.7511756905
 40
0.8136842891
 40
0.8760100832
 40
0.9381238031
 40
1.0
 40
1.0
 40
1.0
 40
1.0
 10
11.4457956969
 20
7.6067476764
 30
0.0
 10
11.4476770131
 20
7.5991304199
 30
0.0
 10
11.4519633315
 20
7.5839890653
 30
0.0
 10
11.4599070613
 20
7.5617214362
 30
0.0
 10
11.4693408706
 20
7.5399545882
 30
0.0
 10
11.4802187186
 20
7.5187949996
 30
0.0
 10
11.492488061
 20
7.4983444703
 30
0.0
 10
11.5060895391
 20
7.4787018406
 30
0.0
 10
11.5209574167
 20
7.4599619257
 30
0.0
 10
11.5370198555
 20
7.4422152226
 30
0.0
 10
11.554199269
 20
7.4255474344
 30
0.0
 10
11.5724126943
 20
7.410039071
 30
0.0
 10
11.5915721785
 20
7.395765064
 30
0.0
 10
11.6115852411
 20
7.3827943958
 30
0.0
 10
11.6323551583
 20
7.3711898149
 30
0.0
 10
11.6537820123
 20
7.3610073621
 30
0.0
 10
11.6757609851
 20
7.3522967401
 30
0.0
 10
11.6907447071
 20
7.3474882833
 30
0.0
 10
11.698292195
 20
7.3453441303
 30
0.0
  0
SPLINE
  5
3BB
100
AcDbEntity
  8
0
100
AcDbSpline
 62
7
  6
CONTINUOUS
 70
0
 71
3
 72
25
 73
21
 74
0
 42
0.0000001
 43
0.0000001
 44
0.0000000001
 40
0.0
 40
0.0
 40
0.0
 40
0.0
 40
0.061590258
 40
0.1235160653
 40
0.1857489092
 40
0.2482516395
 40
0.3109796576
 40
0.3738822072
 40
0.436903794
 40
0.49998572
 40
0.5630676711
 40
0.6260893281
 40
0.6889919928
 40
0.7517201705
 40
0.8142230934
 40
0.8764561647
 40
0.9074662871
 40
0.9383957236
 40
0.9692411912
 40
1.0
 40
1.0
 40
1.0
 40
1.0
 10
11.3472154177
 20
7.6466522159
 30
0.0
 10
11.3485950544
 20
7.6344382576
 30
0.0
 10
11.352406056
 20
7.6100493448
 30
0.0
 10
11.361187652
 20
7.5739923526
 30
0.0
 10
11.372986209
 20
7.5386126491
 30
0.0
 10
11.3877134747
 20
7.5041756288
 30
0.0
 10
11.4052599783
 20
7.4709351263
 30
0.0
 10
11.4254955841
 20
7.4391373885
 30
0.0
 10
11.4482701671
 20
7.4090175182
 30
0.0
 10
11.4734151179
 20
7.3807984471
 30
0.0
 10
11.5007442258
 20
7.3546889687
 30
0.0
 10
11.5300552844
 20
7.3308823596
 30
0.0
 10
11.5611313478
 20
7.3095550427
 30
0.0
 10
11.5937429111
 20
7.2908648874
 30
0.0
 10
11.6276471128
 20
7.2749511749
 30
0.0
 10
11.6568102733
 20
7.2640868762
 30
0.0
 10
11.6805318451
 20
7.2568973776
 30
0.0
 10
11.6984671137
 20
7.2522686761
 30
0.0
 10
11.716531046
 20
7.2484067027
 30
0.0
 10
11.7286557646
 20
7.2463448437
 30
0.0
 10
11.7347279392
 20
7.2454444562
 30
0.0
  0
SPLINE
  5
3BC
100
AcDbEntity
  8
0
100
AcDbSpline
 62
7
  6
CONTINUOUS
 70
0
 71
3
 72
71
 73
67
 74
0
 42
0.0000001
 43
0.0000001
 44
0.0000000001
 40
0.0
 40
0.0
 40
0.0
 40
0.0
 40
0.0155842125
 40
0.0311159548
 40
0.0465952452
 40
0.0620238832
 40
0.077403449
 40
0.0927362827
 40
0.1080251236
 40
0.1232731733
 40
0.1384840551
 40
0.1536617757
 40
0.1688106896
 40
0.1839354533
 40
0.1990409787
 40
0.2141323824
 40
0.2292149319
 40
0.2442939892
 40
0.2593749538
 40
0.2744632042
 40
0.289564041
 40
0.3046826304
 40
0.3198239505
 40
0.3349927388
 40
0.3501934431
 40
0.365430177
 40
0.3807066786
 40
0.3960262757
 40
0.4113918552
 40
0.4268058381
 40
0.4422701582
 40
0.4577862482
 40
0.4733550295
 40
0.4889769098
 40
0.5046517844
 40
0.5203790421
 40
0.5361575756
 40
0.5519857966
 40
0.5678616546
 40
0.5837826615
 40
0.5997459176
 40
0.6157481409
 40
0.6317856994
 40
0.6478546448
 40
0.6639507505
 40
0.6800695509
 40
0.6962063814
 40
0.7123564195
 40
0.7285147271
 40
0.7446762936
 40
0.7608360803
 40
0.7769890646
 40
0.7931302831
 40
0.8092548749
 40
0.8253581239
 40
0.841435501
 40
0.8574827056
 40
0.873495705
 40
0.8894707701
 40
0.9054045133
 40
0.9212939187
 40
0.9371363615
 40
0.9529297228
 40
0.9686720688
 40
0.9843626653
 40
1.0
 40
1.0
 40
1.0
 40
1.0
 10
9.3425697944
 20
8.8221687112
 30
0.0
 10
9.3425697944
 20
8.8289525175
 30
0.0
 10
9.3429017898
 20
8.842499695
 30
0.0
 10
9.344400391
 20
8.8627351027
 30
0.0
 10
9.3468953874
 20
8.8828042986
 30
0.0
 10
9.3503806144
 20
8.9026581103
 30
0.0
 10
9.3548478649
 20
8.9222489999
 30
0.0
 10
9.360286361
 20
8.9415296367
 30
0.0
 10
9.3666830735
 20
8.9604535614
 30
0.0
 10
9.3740226084
 20
8.9789751383
 30
0.0
 10
9.3822873075
 20
8.9970497034
 30
0.0
 10
9.3914572806
 20
9.0146336621
 30
0.0
 10
9.4015104504
 20
9.031684597
 30
0.0
 10
9.4124226092
 20
9.0481613681
 30
0.0
 10
9.4241674637
 20
9.0640242207
 30
0.0
 10
9.4367166929
 20
9.0792348913
 30
0.0
 10
9.4500400367
 20
9.0937566865
 30
0.0
 10
9.4641053646
 20
9.1075545754
 30
0.0
 10
9.4788787543
 20
9.1205952737
 30
0.0
 10
9.4943245755
 20
9.1328473217
 30
0.0
 10
9.5104055636
 20
9.144281177
 30
0.0
 10
9.5270829158
 20
9.1548692862
 30
0.0
 10
9.5443163963
 20
9.1645861372
 30
0.0
 10
9.5620644322
 20
9.1734083227
 30
0.0
 10
9.5802842137
 20
9.1813145961
 30
0.0
 10
9.5989317994
 20
9.1882859183
 30
0.0
 10
9.6179622135
 20
9.1943055268
 30
0.0
 10
9.6373295639
 20
9.1993589629
 30
0.0
 10
9.6569871564
 20
9.2034340951
 30
0.0
 10
9.6768876058
 20
9.2065211491
 30
0.0
 10
9.6969829497
 20
9.2086127301
 30
0.0
 10
9.7172247628
 20
9.2097038373
 30
0.0
 10
9.7375642722
 20
9.2097919021
 30
0.0
 10
9.7579524792
 20
9.2088767694
 30
0.0
 10
9.7783402759
 20
9.2069606946
 30
0.0
 10
9.7986785623
 20
9.2040483372
 30
0.0
 10
9.818918362
 20
9.2001467488
 30
0.0
 10
9.8390109395
 20
9.1952653583
 30
0.0
 10
9.8589079225
 20
9.1894159707
 30
0.0
 10
9.8785614143
 20
9.1826127117
 30
0.0
 10
9.8979241073
 20
9.1748719952
 30
0.0
 10
9.9169493955
 20
9.1662124841
 30
0.0
 10
9.9355914837
 20
9.1566550435
 30
0.0
 10
9.9538055003
 20
9.1462226998
 30
0.0
 10
9.9715476139
 20
9.1349405964
 30
0.0
 10
9.9887751269
 20
9.1228359109
 30
0.0
 10
10.0054465783
 20
9.1099377938
 30
0.0
 10
10.0215218424
 20
9.0962772988
 30
0.0
 10
10.0369622216
 20
9.0818873068
 30
0.0
 10
10.0517305497
 20
9.0668024593
 30
0.0
 10
10.0657912853
 20
9.0510590762
 30
0.0
 10
10.0791105835
 20
9.0346950535
 30
0.0
 10
10.091656378
 20
9.0177497769
 30
0.0
 10
10.1033984582
 20
9.0002640277
 30
0.0
 10
10.1143085374
 20
8.9822798844
 30
0.0
 10
10.1243603398
 20
8.9638406335
 30
0.0
 10
10.1335296584
 20
8.9449906589
 30
0.0
 10
10.1417944003
 20
8.9257753298
 30
0.0
 10
10.1491346437
 20
8.9062408947
 30
0.0
 10
10.1555326837
 20
8.88643437
 30
0.0
 10
10.1609730662
 20
8.8664034378
 30
0.0
 10
10.1654426881
 20
8.8461962924
 30
0.0
 10
10.1689306889
 20
8.8258616908
 30
0.0
 10
10.1714287667
 20
8.8054482751
 30
0.0
 10
10.1729306613
 20
8.7850060236
 30
0.0
 10
10.1732660543
 20
8.7713666603
 30
0.0
 10
10.1732660543
 20
8.7645597299
 30
0.0
  0
SPLINE
  5
3BD
100
AcDbEntity
  8
0
100
AcDbSpline
 62
7
  6
CONTINUOUS
 70
0
 71
3
 72
71
 73
67
 74
0
 42
0.0000001
 43
0.0000001
 44
0.0000000001
 40
0.0
 40
0.0
 40
0.0
 40
0.0
 40
0.0155843069
 40
0.0311159038
 40
0.0465952632
 40
0.0620238805
 40
0.077403449
 40
0.0927362827
 40
0.1080251225
 40
0.1232731731
 40
0.1384840552
 40
0.1536617763
 40
0.1688106901
 40
0.1839354535
 40
0.1990409788
 40
0.2141323827
 40
0.2292149324
 40
0.2442939898
 40
0.259374954
 40
0.2744632038
 40
0.2895640402
 40
0.3046826299
 40
0.3198239506
 40
0.3349927394
 40
0.3501934439
 40
0.3654301775
 40
0.3807066787
 40
0.3960262758
 40
0.4113918556
 40
0.4268058385
 40
0.4422701584
 40
0.4577862477
 40
0.4733550287
 40
0.4889769093
 40
0.5046517847
 40
0.520379043
 40
0.5361575765
 40
0.5519857969
 40
0.5678616545
 40
0.5837826615
 40
0.5997459177
 40
0.6157481411
 40
0.6317856992
 40
0.6478546443
 40
0.6639507502
 40
0.6800695513
 40
0.6962063822
 40
0.7123564202
 40
0.7285147273
 40
0.7446762933
 40
0.7608360801
 40
0.7769890646
 40
0.7931302832
 40
0.8092548748
 40
0.8253581236
 40
0.841435501
 40
0.8574827062
 40
0.8734957057
 40
0.889470771
 40
0.9054045125
 40
0.9212939181
 40
0.9371363645
 40
0.9529297054
 40
0.9686721205
 40
0.9843625712
 40
1.0
 40
1.0
 40
1.0
 40
1.0
 10
10.3693490261
 20
7.1813317689
 30
0.0
 10
10.3693490261
 20
7.1713453141
 30
0.0
 10
10.3688603228
 20
7.1514026394
 30
0.0
 10
10.3666542008
 20
7.1216142277
 30
0.0
 10
10.3629813819
 20
7.0920705603
 30
0.0
 10
10.3578507674
 20
7.0628438741
 30
0.0
 10
10.3512745555
 20
7.0340042742
 30
0.0
 10
10.343268576
 20
7.0056213833
 30
0.0
 10
10.3338520318
 20
6.9777636013
 30
0.0
 10
10.3230475674
 20
6.9504981105
 30
0.0
 10
10.3108811661
 20
6.9238906648
 30
0.0
 10
10.2973821086
 20
6.898005442
 30
0.0
 10
10.2825828965
 20
6.8729048849
 30
0.0
 10
10.2665191787
 20
6.848649548
 30
0.0
 10
10.2492296664
 20
6.8252979477
 30
0.0
 10
10.230756037
 20
6.8029064213
 30
0.0
 10
10.211142833
 20
6.7815289884
 30
0.0
 10
10.1904373542
 20
6.7612172188
 30
0.0
 10
10.1686895424
 20
6.7420201064
 30
0.0
 10
10.1459518593
 20
6.7239839492
 30
0.0
 10
10.1222791583
 20
6.7071522365
 30
0.0
 10
10.0977285499
 20
6.6915655437
 30
0.0
 10
10.0723592624
 20
6.6772614328
 30
0.0
 10
10.046232496
 20
6.6642743639
 30
0.0
 10
10.0194112755
 20
6.6526356075
 30
0.0
 10
9.9919602946
 20
6.6423731722
 30
0.0
 10
9.9639457568
 20
6.6335117399
 30
0.0
 10
9.9354352155
 20
6.6260726075
 30
0.0
 10
9.9064974086
 20
6.6200736372
 30
0.0
 10
9.8772020934
 20
6.6155292155
 30
0.0
 10
9.8476198768
 20
6.6124502205
 30
0.0
 10
9.8178220458
 20
6.6108439973
 30
0.0
 10
9.7878803953
 20
6.6107143423
 30
0.0
 10
9.7578670559
 20
6.612061496
 30
0.0
 10
9.7278543209
 20
6.6148821435
 30
0.0
 10
9.6979144717
 20
6.6191694199
 30
0.0
 10
9.6681196051
 20
6.6249129325
 30
0.0
 10
9.6385414603
 20
6.6320987868
 30
0.0
 10
9.6092512474
 20
6.640709621
 30
0.0
 10
9.5803194771
 20
6.6507246482
 30
0.0
 10
9.5518157921
 20
6.6621197073
 30
0.0
 10
9.5238088007
 20
6.6748673212
 30
0.0
 10
9.4963659126
 20
6.6889367633
 30
0.0
 10
9.4695531781
 20
6.7042941314
 30
0.0
 10
9.4434351296
 20
6.7209024295
 30
0.0
 10
9.418074627
 20
6.7387216549
 30
0.0
 10
9.3935327053
 20
6.7577088933
 30
0.0
 10
9.3698684307
 20
6.7778184252
 30
0.0
 10
9.3471387586
 20
6.7990018348
 30
0.0
 10
9.3253983979
 20
6.821208126
 30
0.0
 10
9.3046996794
 20
6.8443838452
 30
0.0
 10
9.285092431
 20
6.8684732085
 30
0.0
 10
9.2666238577
 20
6.8934182361
 30
0.0
 10
9.2493384293
 20
6.9191588904
 30
0.0
 10
9.2332777728
 20
6.9456332202
 30
0.0
 10
9.2184805739
 20
6.9727775087
 30
0.0
 10
9.20498248
 20
7.0005264249
 30
0.0
 10
9.1928160156
 20
7.0288131808
 30
0.0
 10
9.182010508
 20
7.0575696917
 30
0.0
 10
9.1725920094
 20
7.0867267422
 30
0.0
 10
9.1645832532
 20
7.1162141381
 30
0.0
 10
9.1580035505
 20
7.1459609248
 30
0.0
 10
9.1528688531
 20
7.1758953796
 30
0.0
 10
9.1491914974
 20
7.2059457705
 30
0.0
 10
9.1469805278
 20
7.236038675
 30
0.0
 10
9.1464868226
 20
7.2561170554
 30
0.0
 10
9.1464868226
 20
7.2661375507
 30
0.0
  0
SPLINE
  5
3BE
100
AcDbEntity
  8
0
100
AcDbSpline
 62
7
  6
CONTINUOUS
 70
0
 71
3
 72
71
 73
67
 74
0
 42
0.0000001
 43
0.0000001
 44
0.0000000001
 40
0.0
 40
0.0
 40
0.0
 40
0.0
 40
0.0155843069
 40
0.0311159038
 40
0.0465952632
 40
0.0620238805
 40
0.077403449
 40
0.0927362827
 40
0.1080251225
 40
0.1232731731
 40
0.1384840552
 40
0.1536617763
 40
0.1688106901
 40
0.1839354535
 40
0.1990409788
 40
0.2141323827
 40
0.2292149324
 40
0.2442939898
 40
0.259374954
 40
0.2744632038
 40
0.2895640402
 40
0.3046826299
 40
0.3198239506
 40
0.3349927394
 40
0.3501934439
 40
0.3654301775
 40
0.3807066787
 40
0.3960262758
 40
0.4113918556
 40
0.4268058385
 40
0.4422701584
 40
0.4577862477
 40
0.4733550287
 40
0.4889769093
 40
0.5046517847
 40
0.520379043
 40
0.5361575765
 40
0.5519857969
 40
0.5678616545
 40
0.5837826615
 40
0.5997459177
 40
0.6157481411
 40
0.6317856992
 40
0.6478546443
 40
0.6639507502
 40
0.6800695513
 40
0.6962063822
 40
0.7123564202
 40
0.7285147273
 40
0.7446762933
 40
0.7608360801
 40
0.7769890646
 40
0.7931302832
 40
0.8092548748
 40
0.8253581236
 40
0.841435501
 40
0.8574827062
 40
0.8734957057
 40
0.889470771
 40
0.9054045125
 40
0.9212939181
 40
0.9371363645
 40
0.9529297054
 40
0.9686721205
 40
0.9843625712
 40
1.0
 40
1.0
 40
1.0
 40
1.0
 10
11.8182378514
 20
7.0808509876
 30
0.0
 10
11.8182378514
 20
7.0708645328
 30
0.0
 10
11.8177491481
 20
7.0509218581
 30
0.0
 10
11.8155430261
 20
7.0211334464
 30
0.0
 10
11.8118702072
 20
6.991589779
 30
0.0
 10
11.8067395927
 20
6.9623630928
 30
0.0
 10
11.8001633808
 20
6.9335234929
 30
0.0
 10
11.7921574013
 20
6.905140602
 30
0.0
 10
11.7827408571
 20
6.87728282
 30
0.0
 10
11.7719363927
 20
6.8500173292
 30
0.0
 10
11.7597699914
 20
6.8234098835
 30
0.0
 10
11.7462709339
 20
6.7975246607
 30
0.0
 10
11.7314717218
 20
6.7724241036
 30
0.0
 10
11.715408004
 20
6.7481687667
 30
0.0
 10
11.6981184917
 20
6.7248171664
 30
0.0
 10
11.6796448623
 20
6.70242564
 30
0.0
 10
11.6600316582
 20
6.6810482071
 30
0.0
 10
11.6393261795
 20
6.6607364375
 30
0.0
 10
11.6175783677
 20
6.6415393251
 30
0.0
 10
11.5948406846
 20
6.6235031679
 30
0.0
 10
11.5711679836
 20
6.6066714552
 30
0.0
 10
11.5466173752
 20
6.5910847623
 30
0.0
 10
11.5212480876
 20
6.5767806515
 30
0.0
 10
11.4951213213
 20
6.5637935826
 30
0.0
 10
11.4683001008
 20
6.5521548262
 30
0.0
 10
11.4408491198
 20
6.5418923909
 30
0.0
 10
11.4128345821
 20
6.5330309586
 30
0.0
 10
11.3843240407
 20
6.5255918262
 30
0.0
 10
11.3553862339
 20
6.5195928558
 30
0.0
 10
11.3260909187
 20
6.5150484342
 30
0.0
 10
11.2965087021
 20
6.5119694392
 30
0.0
 10
11.266710871
 20
6.5103632159
 30
0.0
 10
11.2367692205
 20
6.510233561
 30
0.0
 10
11.2067558812
 20
6.5115807147
 30
0.0
 10
11.1767431462
 20
6.5144013622
 30
0.0
 10
11.146803297
 20
6.5186886386
 30
0.0
 10
11.1170084304
 20
6.5244321512
 30
0.0
 10
11.0874302856
 20
6.5316180055
 30
0.0
 10
11.0581400727
 20
6.5402288397
 30
0.0
 10
11.0292083023
 20
6.5502438669
 30
0.0
 10
11.0007046173
 20
6.561638926
 30
0.0
 10
10.9726976259
 20
6.5743865399
 30
0.0
 10
10.9452547379
 20
6.588455982
 30
0.0
 10
10.9184420034
 20
6.6038133501
 30
0.0
 10
10.8923239549
 20
6.6204216481
 30
0.0
 10
10.8669634523
 20
6.6382408735
 30
0.0
 10
10.8424215306
 20
6.657228112
 30
0.0
 10
10.8187572559
 20
6.6773376439
 30
0.0
 10
10.7960275839
 20
6.6985210535
 30
0.0
 10
10.7742872232
 20
6.7207273447
 30
0.0
 10
10.7535885047
 20
6.7439030638
 30
0.0
 10
10.7339812562
 20
6.7679924272
 30
0.0
 10
10.715512683
 20
6.7929374548
 30
0.0
 10
10.6982272546
 20
6.8186781091
 30
0.0
 10
10.6821665981
 20
6.8451524389
 30
0.0
 10
10.6673693992
 20
6.8722967274
 30
0.0
 10
10.6538713053
 20
6.9000456436
 30
0.0
 10
10.6417048409
 20
6.9283323994
 30
0.0
 10
10.6308993333
 20
6.9570889104
 30
0.0
 10
10.6214808347
 20
6.9862459609
 30
0.0
 10
10.6134720785
 20
7.0157333568
 30
0.0
 10
10.6068923757
 20
7.0454801435
 30
0.0
 10
10.6017576783
 20
7.0754145983
 30
0.0
 10
10.5980803226
 20
7.1054649892
 30
0.0
 10
10.5958693531
 20
7.1355578937
 30
0.0
 10
10.5953756479
 20
7.155636274
 30
0.0
 10
10.5953756479
 20
7.1656567694
 30
0.0
  0
SPLINE
  5
3BF
100
AcDbEntity
  8
0
100
AcDbSpline
 62
7
  6
CONTINUOUS
 70
0
 71
3
 72
71
 73
67
 74
0
 42
0.0000001
 43
0.0000001
 44
0.0000000001
 40
0.0
 40
0.0
 40
0.0
 40
0.0
 40
0.0155842125
 40
0.0311159548
 40
0.0465952452
 40
0.0620238832
 40
0.077403449
 40
0.0927362827
 40
0.1080251236
 40
0.1232731733
 40
0.1384840551
 40
0.1536617757
 40
0.1688106896
 40
0.1839354533
 40
0.1990409787
 40
0.2141323824
 40
0.2292149319
 40
0.2442939892
 40
0.2593749538
 40
0.2744632042
 40
0.289564041
 40
0.3046826304
 40
0.3198239505
 40
0.3349927388
 40
0.3501934431
 40
0.365430177
 40
0.3807066786
 40
0.3960262757
 40
0.4113918552
 40
0.4268058381
 40
0.4422701582
 40
0.4577862482
 40
0.4733550295
 40
0.4889769098
 40
0.5046517844
 40
0.5203790421
 40
0.5361575756
 40
0.5519857966
 40
0.5678616546
 40
0.5837826615
 40
0.5997459176
 40
0.6157481409
 40
0.6317856994
 40
0.6478546448
 40
0.6639507505
 40
0.6800695509
 40
0.6962063814
 40
0.7123564195
 40
0.7285147271
 40
0.7446762936
 40
0.7608360803
 40
0.7769890646
 40
0.7931302831
 40
0.8092548749
 40
0.8253581239
 40
0.841435501
 40
0.8574827056
 40
0.873495705
 40
0.8894707701
 40
0.9054045133
 40
0.9212939187
 40
0.9371363615
 40
0.9529297228
 40
0.9686720688
 40
0.9843626653
 40
1.0
 40
1.0
 40
1.0
 40
1.0
 10
10.1732660543
 20
8.7645597299
 30
0.0
 10
10.1732660543
 20
8.7577759236
 30
0.0
 10
10.1729340589
 20
8.744228746
 30
0.0
 10
10.1714354577
 20
8.7239933383
 30
0.0
 10
10.1689404613
 20
8.7039241424
 30
0.0
 10
10.1654552343
 20
8.6840703308
 30
0.0
 10
10.1609879838
 20
8.6644794411
 30
0.0
 10
10.1555494877
 20
8.6451988043
 30
0.0
 10
10.1491527752
 20
8.6262748796
 30
0.0
 10
10.1418132403
 20
8.6077533027
 30
0.0
 10
10.1335485412
 20
8.5896787376
 30
0.0
 10
10.1243785681
 20
8.5720947789
 30
0.0
 10
10.1143253983
 20
8.555043844
 30
0.0
 10
10.1034132395
 20
8.538567073
 30
0.0
 10
10.091668385
 20
8.5227042203
 30
0.0
 10
10.0791191557
 20
8.5074935498
 30
0.0
 10
10.065795812
 20
8.4929717545
 30
0.0
 10
10.0517304841
 20
8.4791738657
 30
0.0
 10
10.0369570944
 20
8.4661331673
 30
0.0
 10
10.0215112732
 20
8.4538811194
 30
0.0
 10
10.0054302851
 20
8.4424472641
 30
0.0
 10
9.9887529329
 20
8.4318591548
 30
0.0
 10
9.9715194524
 20
8.4221423038
 30
0.0
 10
9.9537714165
 20
8.4133201184
 30
0.0
 10
9.935551635
 20
8.4054138449
 30
0.0
 10
9.9169040493
 20
8.3984425227
 30
0.0
 10
9.8978736352
 20
8.3924229142
 30
0.0
 10
9.8785062848
 20
8.3873694781
 30
0.0
 10
9.8588486923
 20
8.383294346
 30
0.0
 10
9.8389482429
 20
8.380207292
 30
0.0
 10
9.818852899
 20
8.3781157109
 30
0.0
 10
9.7986110859
 20
8.3770246037
 30
0.0
 10
9.7782715765
 20
8.376936539
 30
0.0
 10
9.7578833695
 20
8.3778516716
 30
0.0
 10
9.7374955728
 20
8.3797677465
 30
0.0
 10
9.7171572864
 20
8.3826801039
 30
0.0
 10
9.6969174867
 20
8.3865816922
 30
0.0
 10
9.6768249092
 20
8.3914630828
 30
0.0
 10
9.6569279262
 20
8.3973124703
 30
0.0
 10
9.6372744344
 20
8.4041157293
 30
0.0
 10
9.6179117414
 20
8.4118564458
 30
0.0
 10
9.5988864532
 20
8.4205159569
 30
0.0
 10
9.580244365
 20
8.4300733975
 30
0.0
 10
9.5620303484
 20
8.4405057412
 30
0.0
 10
9.5442882348
 20
8.4517878446
 30
0.0
 10
9.5270607218
 20
8.4638925301
 30
0.0
 10
9.5103892704
 20
8.4767906472
 30
0.0
 10
9.4943140062
 20
8.4904511422
 30
0.0
 10
9.4788736271
 20
8.5048411343
 30
0.0
 10
9.464105299
 20
8.5199259817
 30
0.0
 10
9.4500445634
 20
8.5356693648
 30
0.0
 10
9.4367252652
 20
8.5520333875
 30
0.0
 10
9.4241794707
 20
8.5689786642
 30
0.0
 10
9.4124373905
 20
8.5864644134
 30
0.0
 10
9.4015273113
 20
8.6044485566
 30
0.0
 10
9.3914755089
 20
8.6228878076
 30
0.0
 10
9.3823061903
 20
8.6417377821
 30
0.0
 10
9.3740414484
 20
8.6609531113
 30
0.0
 10
9.366701205
 20
8.6804875464
 30
0.0
 10
9.360303165
 20
8.7002940711
 30
0.0
 10
9.3548627825
 20
8.7203250033
 30
0.0
 10
9.3503931606
 20
8.7405321486
 30
0.0
 10
9.3469051598
 20
8.7608667502
 30
0.0
 10
9.344407082
 20
8.781280166
 30
0.0
 10
9.3429051874
 20
8.8017224174
 30
0.0
 10
9.3425697944
 20
8.8153617808
 30
0.0
 10
9.3425697944
 20
8.8221687112
 30
0.0
  0
SPLINE
  5
3C0
100
AcDbEntity
  8
0
100
AcDbSpline
 62
7
  6
CONTINUOUS
 70
0
 71
3
 72
36
 73
32
 74
0
 42
0.0000001
 43
0.0000001
 44
0.0000000001
 40
0.0
 40
0.0
 40
0.0
 40
0.0
 40
0.0063161168
 40
0.0126711619
 40
0.0191032581
 40
0.0256490626
 40
0.0392095001
 40
0.05360793
 40
0.0690454499
 40
0.0856791324
 40
0.1036278316
 40
0.1229783533
 40
0.1437916317
 40
0.1661081543
 40
0.1899514448
 40
0.2153320271
 40
0.2422489508
 40
0.2706924073
 40
0.3006446146
 40
0.3320810971
 40
0.3649717252
 40
0.3992808975
 40
0.4349688229
 40
0.4719911741
 40
0.5103002058
 40
0.5498445536
 40
0.632416346
 40
0.7192407559
 40
0.8098108808
 40
0.9035854839
 40
1.0
 40
1.0
 40
1.0
 40
1.0
 10
12.0423528847
 20
6.5240918355
 30
0.0
 10
12.0426959911
 20
6.524068037
 30
0.0
 10
12.0433826982
 20
6.5239922035
 30
0.0
 10
12.0444050494
 20
6.5237945423
 30
0.0
 10
12.0454205979
 20
6.5235129858
 30
0.0
 10
12.0467804481
 20
6.5230204324
 30
0.0
 10
12.0484701297
 20
6.5221830021
 30
0.0
 10
12.0504339114
 20
6.5208580596
 30
0.0
 10
12.0523565728
 20
6.5192052974
 30
0.0
 10
12.0542360674
 20
6.5172285699
 30
0.0
 10
12.0560706525
 20
6.5149313061
 30
0.0
 10
12.0578582118
 20
6.5123171706
 30
0.0
 10
12.0595964603
 20
6.5093901831
 30
0.0
 10
12.0612828717
 20
6.5061548257
 30
0.0
 10
12.0629149712
 20
6.5026161613
 30
0.0
 10
12.0644901296
 20
6.4987797508
 30
0.0
 10
12.0660058802
 20
6.494651733
 30
0.0
 10
12.0674597136
 20
6.4902387428
 30
0.0
 10
12.0688492538
 20
6.4855479331
 30
0.0
 10
12.0701722149
 20
6.4805869396
 30
0.0
 10
12.0714263681
 20
6.4753638631
 30
0.0
 10
12.0726096753
 20
6.4698872595
 30
0.0
 10
12.0737201159
 20
6.4641661113
 30
0.0
 10
12.0747558813
 20
6.4582098212
 30
0.0
 10
12.0757152353
 20
6.4520281751
 30
0.0
 10
12.0769075063
 20
6.4433739524
 30
0.0
 10
12.0781857069
 20
6.4320666061
 30
0.0
 10
12.079372372
 20
6.4179588329
 30
0.0
 10
12.0802248093
 20
6.4032159254
 30
0.0
 10
12.0807372368
 20
6.38793503
 30
0.0
 10
12.0808484469
 20
6.3775782771
 30
0.0
 10
12.0808484469
 20
6.3723282291
 30
0.0
  0
SPLINE
  5
3C1
100
AcDbEntity
  8
0
100
AcDbSpline
 62
7
  6
CONTINUOUS
 70
0
 71
3
 72
23
 73
19
 74
0
 42
0.0000001
 43
0.0000001
 44
0.0000000001
 40
0.0
 40
0.0
 40
0.0
 40
0.0
 40
0.0637769127
 40
0.127344953
 40
0.1907019652
 40
0.2538561227
 40
0.3168132057
 40
0.3795820872
 40
0.4421733866
 40
0.5045993385
 40
0.5668738691
 40
0.6290123824
 40
0.6910316505
 40
0.7529496453
 40
0.8147853569
 40
0.8765586065
 40
0.9382898561
 40
1.0
 40
1.0
 40
1.0
 40
1.0
 10
9.4387122546
 20
8.8365352019
 30
0.0
 10
9.4387122546
 20
8.8419583933
 30
0.0
 10
9.4389718399
 20
8.8527888524
 30
0.0
 10
9.4401434264
 20
8.8689686487
 30
0.0
 10
9.4420941511
 20
8.8850201998
 30
0.0
 10
9.444819326
 20
8.9009058016
 30
0.0
 10
9.4483128756
 20
8.9165891463
 30
0.0
 10
9.45256672
 20
8.9320339789
 30
0.0
 10
9.4575710739
 20
8.9472047188
 30
0.0
 10
9.4633144434
 20
8.9620663816
 30
0.0
 10
9.4697836357
 20
8.9765846813
 30
0.0
 10
9.4769637619
 20
8.99072613
 30
0.0
 10
9.4848382643
 20
9.0044581153
 30
0.0
 10
9.4933890111
 20
9.0177489679
 30
0.0
 10
9.5025962874
 20
9.0305679859
 30
0.0
 10
9.5124389829
 20
9.0428856882
 30
0.0
 10
9.5228939958
 20
9.0546732837
 30
0.0
 10
9.5302575158
 20
9.0621615465
 30
0.0
 10
9.5340317733
 20
9.065807184
 30
0.0
  0
SPLINE
  5
3C2
100
AcDbEntity
  8
0
100
AcDbSpline
 62
7
  6
CONTINUOUS
 70
0
 71
3
 72
71
 73
67
 74
0
 42
0.0000001
 43
0.0000001
 44
0.0000000001
 40
0.0
 40
0.0
 40
0.0
 40
0.0
 40
0.0155842125
 40
0.0311159548
 40
0.0465952452
 40
0.0620238832
 40
0.077403449
 40
0.0927362827
 40
0.1080251236
 40
0.1232731733
 40
0.1384840551
 40
0.1536617757
 40
0.1688106896
 40
0.1839354533
 40
0.1990409787
 40
0.2141323824
 40
0.2292149319
 40
0.2442939892
 40
0.2593749538
 40
0.2744632042
 40
0.289564041
 40
0.3046826304
 40
0.3198239505
 40
0.3349927388
 40
0.3501934431
 40
0.365430177
 40
0.3807066786
 40
0.3960262757
 40
0.4113918552
 40
0.4268058381
 40
0.4422701582
 40
0.4577862482
 40
0.4733550295
 40
0.4889769098
 40
0.5046517844
 40
0.5203790421
 40
0.5361575756
 40
0.5519857966
 40
0.5678616546
 40
0.5837826615
 40
0.5997459176
 40
0.6157481409
 40
0.6317856994
 40
0.6478546448
 40
0.6639507505
 40
0.6800695509
 40
0.6962063814
 40
0.7123564195
 40
0.7285147271
 40
0.7446762936
 40
0.7608360803
 40
0.7769890646
 40
0.7931302831
 40
0.8092548749
 40
0.8253581239
 40
0.841435501
 40
0.8574827056
 40
0.873495705
 40
0.8894707701
 40
0.9054045133
 40
0.9212939187
 40
0.9371363615
 40
0.9529297228
 40
0.9686720688
 40
0.9843626653
 40
1.0
 40
1.0
 40
1.0
 40
1.0
 10
11.6221548795
 20
8.6640789486
 30
0.0
 10
11.6221548795
 20
8.6572951423
 30
0.0
 10
11.6218228842
 20
8.6437479647
 30
0.0
 10
11.620324283
 20
8.623512557
 30
0.0
 10
11.6178292866
 20
8.6034433611
 30
0.0
 10
11.6143440596
 20
8.5835895495
 30
0.0
 10
11.6098768091
 20
8.5639986598
 30
0.0
 10
11.604438313
 20
8.544718023
 30
0.0
 10
11.5980416005
 20
8.5257940983
 30
0.0
 10
11.5907020656
 20
8.5072725214
 30
0.0
 10
11.5824373665
 20
8.4891979563
 30
0.0
 10
11.5732673934
 20
8.4716139976
 30
0.0
 10
11.5632142236
 20
8.4545630627
 30
0.0
 10
11.5523020648
 20
8.4380862917
 30
0.0
 10
11.5405572103
 20
8.422223439
 30
0.0
 10
11.528007981
 20
8.4070127685
 30
0.0
 10
11.5146846373
 20
8.3924909732
 30
0.0
 10
11.5006193094
 20
8.3786930843
 30
0.0
 10
11.4858459197
 20
8.365652386
 30
0.0
 10
11.4704000985
 20
8.3534003381
 30
0.0
 10
11.4543191104
 20
8.3419664827
 30
0.0
 10
11.4376417582
 20
8.3313783735
 30
0.0
 10
11.4204082777
 20
8.3216615225
 30
0.0
 10
11.4026602418
 20
8.312839337
 30
0.0
 10
11.3844404603
 20
8.3049330636
 30
0.0
 10
11.3657928746
 20
8.2979617414
 30
0.0
 10
11.3467624605
 20
8.2919421329
 30
0.0
 10
11.3273951101
 20
8.2868886968
 30
0.0
 10
11.3077375176
 20
8.2828135647
 30
0.0
 10
11.2878370682
 20
8.2797265107
 30
0.0
 10
11.2677417242
 20
8.2776349296
 30
0.0
 10
11.2474999112
 20
8.2765438224
 30
0.0
 10
11.2271604018
 20
8.2764557576
 30
0.0
 10
11.2067721948
 20
8.2773708903
 30
0.0
 10
11.186384398
 20
8.2792869652
 30
0.0
 10
11.1660461117
 20
8.2821993225
 30
0.0
 10
11.1458063119
 20
8.2861009109
 30
0.0
 10
11.1257137345
 20
8.2909823014
 30
0.0
 10
11.1058167515
 20
8.296831689
 30
0.0
 10
11.0861632597
 20
8.303634948
 30
0.0
 10
11.0668005666
 20
8.3113756645
 30
0.0
 10
11.0477752785
 20
8.3200351756
 30
0.0
 10
11.0291331903
 20
8.3295926162
 30
0.0
 10
11.0109191737
 20
8.3400249599
 30
0.0
 10
10.9931770601
 20
8.3513070633
 30
0.0
 10
10.9759495471
 20
8.3634117488
 30
0.0
 10
10.9592780957
 20
8.3763098659
 30
0.0
 10
10.9432028315
 20
8.3899703609
 30
0.0
 10
10.9277624524
 20
8.404360353
 30
0.0
 10
10.9129941243
 20
8.4194452004
 30
0.0
 10
10.8989333886
 20
8.4351885835
 30
0.0
 10
10.8856140905
 20
8.4515526062
 30
0.0
 10
10.873068296
 20
8.4684978829
 30
0.0
 10
10.8613262157
 20
8.485983632
 30
0.0
 10
10.8504161366
 20
8.5039677753
 30
0.0
 10
10.8403643342
 20
8.5224070262
 30
0.0
 10
10.8311950156
 20
8.5412570008
 30
0.0
 10
10.8229302736
 20
8.5604723299
 30
0.0
 10
10.8155900303
 20
8.5800067651
 30
0.0
 10
10.8091919903
 20
8.5998132898
 30
0.0
 10
10.8037516078
 20
8.619844222
 30
0.0
 10
10.7992819858
 20
8.6400513673
 30
0.0
 10
10.7957939851
 20
8.6603859689
 30
0.0
 10
10.7932959073
 20
8.6807993846
 30
0.0
 10
10.7917940127
 20
8.7012416361
 30
0.0
 10
10.7914586197
 20
8.7148809995
 30
0.0
 10
10.7914586197
 20
8.7216879298
 30
0.0
  0
SPLINE
  5
3C3
100
AcDbEntity
  8
0
100
AcDbSpline
 62
7
  6
CONTINUOUS
 70
0
 71
3
 72
36
 73
32
 74
0
 42
0.0000001
 43
0.0000001
 44
0.0000000001
 40
0.0
 40
0.0
 40
0.0
 40
0.0
 40
0.0063161168
 40
0.0126711619
 40
0.0191032581
 40
0.0256490626
 40
0.0392095001
 40
0.05360793
 40
0.0690454499
 40
0.0856791324
 40
0.1036278316
 40
0.1229783533
 40
0.1437916317
 40
0.1661081543
 40
0.1899514448
 40
0.2153320271
 40
0.2422489508
 40
0.2706924073
 40
0.3006446146
 40
0.3320810971
 40
0.3649717252
 40
0.3992808975
 40
0.4349688229
 40
0.4719911741
 40
0.5103002058
 40
0.5498445536
 40
0.632416346
 40
0.7192407559
 40
0.8098108808
 40
0.9035854839
 40
1.0
 40
1.0
 40
1.0
 40
1.0
 10
12.8835140871
 20
7.3365912131
 30
0.0
 10
12.8838571935
 20
7.3365674146
 30
0.0
 10
12.8845439006
 20
7.3364915811
 30
0.0
 10
12.8855662518
 20
7.3362939199
 30
0.0
 10
12.8865818003
 20
7.3360123634
 30
0.0
 10
12.8879416505
 20
7.33551981
 30
0.0
 10
12.8896313321
 20
7.3346823797
 30
0.0
 10
12.8915951138
 20
7.3333574372
 30
0.0
 10
12.8935177752
 20
7.331704675
 30
0.0
 10
12.8953972698
 20
7.3297279475
 30
0.0
 10
12.8972318549
 20
7.3274306837
 30
0.0
 10
12.8990194142
 20
7.3248165483
 30
0.0
 10
12.9007576627
 20
7.3218895607
 30
0.0
 10
12.9024440741
 20
7.3186542033
 30
0.0
 10
12.9040761736
 20
7.3151155389
 30
0.0
 10
12.905651332
 20
7.3112791284
 30
0.0
 10
12.9071670826
 20
7.3071511106
 30
0.0
 10
12.908620916
 20
7.3027381204
 30
0.0
 10
12.9100104562
 20
7.2980473107
 30
0.0
 10
12.9113334173
 20
7.2930863172
 30
0.0
 10
12.9125875705
 20
7.2878632407
 30
0.0
 10
12.9137708777
 20
7.2823866372
 30
0.0
 10
12.9148813183
 20
7.2766654889
 30
0.0
 10
12.9159170837
 20
7.2707091988
 30
0.0
 10
12.9168764377
 20
7.2645275527
 30
0.0
 10
12.9180687087
 20
7.25587333
 30
0.0
 10
12.9193469092
 20
7.2445659837
 30
0.0
 10
12.9205335744
 20
7.2304582105
 30
0.0
 10
12.9213860117
 20
7.215715303
 30
0.0
 10
12.9218984392
 20
7.2004344076
 30
0.0
 10
12.9220096493
 20
7.1900776547
 30
0.0
 10
12.9220096493
 20
7.1848276067
 30
0.0
  0
SPLINE
  5
3C4
100
AcDbEntity
  8
0
100
AcDbSpline
 62
7
  6
CONTINUOUS
 70
0
 71
3
 72
71
 73
67
 74
0
 42
0.0000001
 43
0.0000001
 44
0.0000000001
 40
0.0
 40
0.0
 40
0.0
 40
0.0
 40
0.0155842125
 40
0.0311159548
 40
0.0465952452
 40
0.0620238832
 40
0.077403449
 40
0.0927362827
 40
0.1080251236
 40
0.1232731733
 40
0.1384840551
 40
0.1536617757
 40
0.1688106896
 40
0.1839354533
 40
0.1990409787
 40
0.2141323824
 40
0.2292149319
 40
0.2442939892
 40
0.2593749538
 40
0.2744632042
 40
0.289564041
 40
0.3046826304
 40
0.3198239505
 40
0.3349927388
 40
0.3501934431
 40
0.365430177
 40
0.3807066786
 40
0.3960262757
 40
0.4113918552
 40
0.4268058381
 40
0.4422701582
 40
0.4577862482
 40
0.4733550295
 40
0.4889769098
 40
0.5046517844
 40
0.5203790421
 40
0.5361575756
 40
0.5519857966
 40
0.5678616546
 40
0.5837826615
 40
0.5997459176
 40
0.6157481409
 40
0.6317856994
 40
0.6478546448
 40
0.6639507505
 40
0.6800695509
 40
0.6962063814
 40
0.7123564195
 40
0.7285147271
 40
0.7446762936
 40
0.7608360803
 40
0.7769890646
 40
0.7931302831
 40
0.8092548749
 40
0.8253581239
 40
0.841435501
 40
0.8574827056
 40
0.873495705
 40
0.8894707701
 40
0.9054045133
 40
0.9212939187
 40
0.9371363615
 40
0.9529297228
 40
0.9686720688
 40
0.9843626653
 40
1.0
 40
1.0
 40
1.0
 40
1.0
 10
10.7914586197
 20
8.7216879298
 30
0.0
 10
10.7914586197
 20
8.7284717362
 30
0.0
 10
10.7917906151
 20
8.7420189137
 30
0.0
 10
10.7932892163
 20
8.7622543214
 30
0.0
 10
10.7957842127
 20
8.7823235173
 30
0.0
 10
10.7992694396
 20
8.8021773289
 30
0.0
 10
10.8037366902
 20
8.8217682186
 30
0.0
 10
10.8091751863
 20
8.8410488554
 30
0.0
 10
10.8155718988
 20
8.8599727801
 30
0.0
 10
10.8229114337
 20
8.878494357
 30
0.0
 10
10.8311761328
 20
8.8965689221
 30
0.0
 10
10.8403461059
 20
8.9141528808
 30
0.0
 10
10.8503992757
 20
8.9312038157
 30
0.0
 10
10.8613114345
 20
8.9476805867
 30
0.0
 10
10.873056289
 20
8.9635434394
 30
0.0
 10
10.8856055182
 20
8.9787541099
 30
0.0
 10
10.898928862
 20
8.9932759052
 30
0.0
 10
10.9129941899
 20
9.0070737941
 30
0.0
 10
10.9277675796
 20
9.0201144924
 30
0.0
 10
10.9432134007
 20
9.0323665404
 30
0.0
 10
10.9592943889
 20
9.0438003957
 30
0.0
 10
10.975971741
 20
9.0543885049
 30
0.0
 10
10.9932052216
 20
9.0641053559
 30
0.0
 10
11.0109532574
 20
9.0729275414
 30
0.0
 10
11.029173039
 20
9.0808338148
 30
0.0
 10
11.0478206247
 20
9.087805137
 30
0.0
 10
11.0668510388
 20
9.0938247455
 30
0.0
 10
11.0862183892
 20
9.0988781816
 30
0.0
 10
11.1058759817
 20
9.1029533137
 30
0.0
 10
11.1257764311
 20
9.1060403678
 30
0.0
 10
11.145871775
 20
9.1081319488
 30
0.0
 10
11.1661135881
 20
9.109223056
 30
0.0
 10
11.1864530975
 20
9.1093111208
 30
0.0
 10
11.2068413045
 20
9.1083959881
 30
0.0
 10
11.2272291012
 20
9.1064799133
 30
0.0
 10
11.2475673875
 20
9.1035675559
 30
0.0
 10
11.2678071873
 20
9.0996659675
 30
0.0
 10
11.2878997648
 20
9.094784577
 30
0.0
 10
11.3077967478
 20
9.0889351894
 30
0.0
 10
11.3274502396
 20
9.0821319304
 30
0.0
 10
11.3468129326
 20
9.0743912139
 30
0.0
 10
11.3658382208
 20
9.0657317028
 30
0.0
 10
11.3844803089
 20
9.0561742622
 30
0.0
 10
11.4026943255
 20
9.0457419185
 30
0.0
 10
11.4204364392
 20
9.0344598151
 30
0.0
 10
11.4376639522
 20
9.0223551296
 30
0.0
 10
11.4543354036
 20
9.0094570125
 30
0.0
 10
11.4704106677
 20
8.9957965175
 30
0.0
 10
11.4858510469
 20
8.9814065254
 30
0.0
 10
11.5006193749
 20
8.966321678
 30
0.0
 10
11.5146801106
 20
8.9505782949
 30
0.0
 10
11.5279994088
 20
8.9342142722
 30
0.0
 10
11.5405452033
 20
8.9172689955
 30
0.0
 10
11.5522872835
 20
8.8997832464
 30
0.0
 10
11.5631973627
 20
8.8817991031
 30
0.0
 10
11.5732491651
 20
8.8633598522
 30
0.0
 10
11.5824184837
 20
8.8445098776
 30
0.0
 10
11.5906832256
 20
8.8252945485
 30
0.0
 10
11.598023469
 20
8.8057601133
 30
0.0
 10
11.604421509
 20
8.7859535886
 30
0.0
 10
11.6098618915
 20
8.7659226565
 30
0.0
 10
11.6143315134
 20
8.7457155111
 30
0.0
 10
11.6178195142
 20
8.7253809095
 30
0.0
 10
11.6203175919
 20
8.7049674938
 30
0.0
 10
11.6218194865
 20
8.6845252423
 30
0.0
 10
11.6221548795
 20
8.6708858789
 30
0.0
 10
11.6221548795
 20
8.6640789486
 30
0.0
  0
SPLINE
  5
3C5
100
AcDbEntity
  8
0
100
AcDbSpline
 62
7
  6
CONTINUOUS
 70
0
 71
3
 72
15
 73
11
 74
0
 42
0.0000001
 43
0.0000001
 44
0.0000000001
 40
0.0
 40
0.0
 40
0.0
 40
0.0
 40
0.1518181656
 40
0.296462274
 40
0.4336365354
 40
0.5630580286
 40
0.6844944576
 40
0.7977753732
 40
0.9028751488
 40
1.0
 40
1.0
 40
1.0
 40
1.0
 10
11.3229156147
 20
9.0313737387
 30
0.0
 10
11.3227404963
 20
9.0303136816
 30
0.0
 10
11.3223700267
 20
9.0282481871
 30
0.0
 10
11.3217280819
 20
9.025246555
 30
0.0
 10
11.3210076461
 20
9.0224258475
 30
0.0
 10
11.3202032324
 20
9.0197989116
 30
0.0
 10
11.3193095287
 20
9.0173800665
 30
0.0
 10
11.3183207181
 20
9.0151851579
 30
0.0
 10
11.3172313974
 20
9.0132326274
 30
0.0
 10
11.3164017994
 20
9.0120612023
 30
0.0
 10
11.3159660315
 20
9.0115296327
 30
0.0
  0
SPLINE
  5
3C6
100
AcDbEntity
  8
0
100
AcDbSpline
 62
7
  6
CONTINUOUS
 70
0
 71
3
 72
23
 73
19
 74
0
 42
0.0000001
 43
0.0000001
 44
0.0000000001
 40
0.0
 40
0.0
 40
0.0
 40
0.0
 40
0.0637769127
 40
0.127344953
 40
0.1907019652
 40
0.2538561227
 40
0.3168132057
 40
0.3795820872
 40
0.4421733866
 40
0.5045993385
 40
0.5668738691
 40
0.6290123824
 40
0.6910316505
 40
0.7529496453
 40
0.8147853569
 40
0.8765586065
 40
0.9382898561
 40
1.0
 40
1.0
 40
1.0
 40
1.0
 10
10.8876010798
 20
8.7360544206
 30
0.0
 10
10.8876010798
 20
8.741477612
 30
0.0
 10
10.8878606652
 20
8.7523080711
 30
0.0
 10
10.8890322517
 20
8.7684878674
 30
0.0
 10
10.8909829764
 20
8.7845394185
 30
0.0
 10
10.8937081513
 20
8.8004250203
 30
0.0
 10
10.8972017009
 20
8.816108365
 30
0.0
 10
10.9014555453
 20
8.8315531976
 30
0.0
 10
10.9064598992
 20
8.8467239375
 30
0.0
 10
10.9122032687
 20
8.8615856003
 30
0.0
 10
10.918672461
 20
8.8761039
 30
0.0
 10
10.9258525872
 20
8.8902453487
 30
0.0
 10
10.9337270896
 20
8.903977334
 30
0.0
 10
10.9422778364
 20
8.9172681866
 30
0.0
 10
10.9514851127
 20
8.9300872046
 30
0.0
 10
10.9613278082
 20
8.9424049069
 30
0.0
 10
10.971782821
 20
8.9541925024
 30
0.0
 10
10.9791463411
 20
8.9616807652
 30
0.0
 10
10.9829205986
 20
8.9653264027
 30
0.0
  0
SPLINE
  5
3C7
100
AcDbEntity
  8
0
100
AcDbSpline
 62
7
  6
CONTINUOUS
 70
0
 71
3
 72
71
 73
67
 74
0
 42
0.0000001
 43
0.0000001
 44
0.0000000001
 40
0.0
 40
0.0
 40
0.0
 40
0.0
 40
0.0155843069
 40
0.0311159038
 40
0.0465952632
 40
0.0620238805
 40
0.077403449
 40
0.0927362827
 40
0.1080251225
 40
0.1232731731
 40
0.1384840552
 40
0.1536617763
 40
0.1688106901
 40
0.1839354535
 40
0.1990409788
 40
0.2141323827
 40
0.2292149324
 40
0.2442939898
 40
0.259374954
 40
0.2744632038
 40
0.2895640402
 40
0.3046826299
 40
0.3198239506
 40
0.3349927394
 40
0.3501934439
 40
0.3654301775
 40
0.3807066787
 40
0.3960262758
 40
0.4113918556
 40
0.4268058385
 40
0.4422701584
 40
0.4577862477
 40
0.4733550287
 40
0.4889769093
 40
0.5046517847
 40
0.520379043
 40
0.5361575765
 40
0.5519857969
 40
0.5678616545
 40
0.5837826615
 40
0.5997459177
 40
0.6157481411
 40
0.6317856992
 40
0.6478546443
 40
0.6639507502
 40
0.6800695513
 40
0.6962063822
 40
0.7123564202
 40
0.7285147273
 40
0.7446762933
 40
0.7608360801
 40
0.7769890646
 40
0.7931302832
 40
0.8092548748
 40
0.8253581236
 40
0.841435501
 40
0.8574827062
 40
0.8734957057
 40
0.889470771
 40
0.9054045125
 40
0.9212939181
 40
0.9371363645
 40
0.9529297054
 40
0.9686721205
 40
0.9843625712
 40
1.0
 40
1.0
 40
1.0
 40
1.0
 10
9.1464868226
 20
7.2661375507
 30
0.0
 10
9.1464868226
 20
7.2761240055
 30
0.0
 10
9.1469755259
 20
7.2960666802
 30
0.0
 10
9.1491816479
 20
7.3258550919
 30
0.0
 10
9.1528544668
 20
7.3553987593
 30
0.0
 10
9.1579850813
 20
7.3846254455
 30
0.0
 10
9.1645612931
 20
7.4134650454
 30
0.0
 10
9.1725672727
 20
7.4418479363
 30
0.0
 10
9.1819838169
 20
7.4697057183
 30
0.0
 10
9.1927882813
 20
7.4969712091
 30
0.0
 10
9.2049546826
 20
7.5235786548
 30
0.0
 10
9.2184537401
 20
7.5494638776
 30
0.0
 10
9.2332529522
 20
7.5745644347
 30
0.0
 10
9.24931667
 20
7.5988197716
 30
0.0
 10
9.2666061822
 20
7.6221713719
 30
0.0
 10
9.2850798117
 20
7.6445628983
 30
0.0
 10
9.3046930157
 20
7.6659403312
 30
0.0
 10
9.3253984945
 20
7.6862521008
 30
0.0
 10
9.3471463063
 20
7.7054492132
 30
0.0
 10
9.3698839894
 20
7.7234853704
 30
0.0
 10
9.3935566904
 20
7.740317083
 30
0.0
 10
9.4181072988
 20
7.7559037759
 30
0.0
 10
9.4434765863
 20
7.7702078867
 30
0.0
 10
9.4696033527
 20
7.7831949557
 30
0.0
 10
9.4964245732
 20
7.7948337121
 30
0.0
 10
9.5238755541
 20
7.8050961474
 30
0.0
 10
9.5518900918
 20
7.8139575796
 30
0.0
 10
9.5804006332
 20
7.8213967121
 30
0.0
 10
9.6093384401
 20
7.8273956824
 30
0.0
 10
9.6386337553
 20
7.8319401041
 30
0.0
 10
9.6682159719
 20
7.8350190991
 30
0.0
 10
9.6980138029
 20
7.8366253223
 30
0.0
 10
9.7279554534
 20
7.8367549773
 30
0.0
 10
9.7579687928
 20
7.8354078236
 30
0.0
 10
9.7879815278
 20
7.8325871761
 30
0.0
 10
9.817921377
 20
7.8282998997
 30
0.0
 10
9.8477162436
 20
7.8225563871
 30
0.0
 10
9.8772943884
 20
7.8153705328
 30
0.0
 10
9.9065846013
 20
7.8067596986
 30
0.0
 10
9.9355163716
 20
7.7967446714
 30
0.0
 10
9.9640200566
 20
7.7853496123
 30
0.0
 10
9.992027048
 20
7.7726019984
 30
0.0
 10
10.0194699361
 20
7.7585325563
 30
0.0
 10
10.0462826706
 20
7.7431751882
 30
0.0
 10
10.0724007191
 20
7.7265668901
 30
0.0
 10
10.0977612217
 20
7.7087476647
 30
0.0
 10
10.1223031434
 20
7.6897604263
 30
0.0
 10
10.145967418
 20
7.6696508943
 30
0.0
 10
10.1686970901
 20
7.6484674848
 30
0.0
 10
10.1904374508
 20
7.6262611936
 30
0.0
 10
10.2111361693
 20
7.6030854744
 30
0.0
 10
10.2307434177
 20
7.5789961111
 30
0.0
 10
10.249211991
 20
7.5540510835
 30
0.0
 10
10.2664974194
 20
7.5283104292
 30
0.0
 10
10.2825580758
 20
7.5018360994
 30
0.0
 10
10.2973552748
 20
7.4746918109
 30
0.0
 10
10.3108533687
 20
7.4469428947
 30
0.0
 10
10.3230198331
 20
7.4186561388
 30
0.0
 10
10.3338253407
 20
7.3898996279
 30
0.0
 10
10.3432438393
 20
7.3607425774
 30
0.0
 10
10.3512525955
 20
7.3312551815
 30
0.0
 10
10.3578322982
 20
7.3015083948
 30
0.0
 10
10.3629669956
 20
7.27157394
 30
0.0
 10
10.3666443513
 20
7.2415235491
 30
0.0
 10
10.3688553209
 20
7.2114306446
 30
0.0
 10
10.3693490261
 20
7.1913522642
 30
0.0
 10
10.3693490261
 20
7.1813317689
 30
0.0
  0
SPLINE
  5
3C8
100
AcDbEntity
  8
0
100
AcDbSpline
 62
7
  6
CONTINUOUS
 70
0
 71
3
 72
11
 73
7
 74
0
 42
0.0000001
 43
0.0000001
 44
0.0000000001
 40
0.0
 40
0.0
 40
0.0
 40
0.0
 40
0.2463367855
 40
0.4941557574
 40
0.744910901
 40
1.0
 40
1.0
 40
1.0
 40
1.0
 10
9.9620220759
 20
10.3572985133
 30
0.0
 10
9.9620220719
 20
10.3582699672
 30
0.0
 10
9.962100757
 20
10.3602196149
 30
0.0
 10
9.9624544486
 20
10.3631388828
 30
0.0
 10
9.9630436118
 20
10.3660550148
 30
0.0
 10
9.9635875388
 20
10.3679765531
 30
0.0
 10
9.9638965342
 20
10.3689338914
 30
0.0
  0
SPLINE
  5
3C9
100
AcDbEntity
  8
0
100
AcDbSpline
 62
7
  6
CONTINUOUS
 70
0
 71
3
 72
23
 73
19
 74
0
 42
0.0000001
 43
0.0000001
 44
0.0000000001
 40
0.0
 40
0.0
 40
0.0
 40
0.0
 40
0.0637774724
 40
0.127344696
 40
0.1907020124
 40
0.2538561402
 40
0.3168131804
 40
0.3795820984
 40
0.4421733882
 40
0.5045993399
 40
0.5668738668
 40
0.6290123797
 40
0.6910316501
 40
0.7529496455
 40
0.8147853558
 40
0.8765586055
 40
0.9382898564
 40
1.0
 40
1.0
 40
1.0
 40
1.0
 10
9.2603881033
 20
7.2831577278
 30
0.0
 10
9.2603881033
 20
7.2914893042
 30
0.0
 10
9.2607868672
 20
7.3081278151
 30
0.0
 10
9.2625867905
 20
7.3329844041
 30
0.0
 10
9.2655836047
 20
7.357643903
 30
0.0
 10
9.2697702506
 20
7.3820485516
 30
0.0
 10
9.2751372835
 20
7.4061424499
 30
0.0
 10
9.2816723184
 20
7.4298699382
 30
0.0
 10
9.2893603842
 20
7.4531763389
 30
0.0
 10
9.2981837936
 20
7.4760079003
 30
0.0
 10
9.3081222437
 20
7.4983119712
 30
0.0
 10
9.3191528595
 20
7.5200371081
 30
0.0
 10
9.3312502389
 20
7.541133193
 30
0.0
 10
9.3443865303
 20
7.5615515675
 30
0.0
 10
9.3585314276
 20
7.5812450756
 30
0.0
 10
9.3736524875
 20
7.6001684369
 30
0.0
 10
9.3897142354
 20
7.6182774115
 30
0.0
 10
9.4010266392
 20
7.6297814024
 30
0.0
 10
9.4068249201
 20
7.6353821071
 30
0.0
  0
SPLINE
  5
3CA
100
AcDbEntity
  8
0
100
AcDbSpline
 62
7
  6
CONTINUOUS
 70
0
 71
3
 72
71
 73
67
 74
0
 42
0.0000001
 43
0.0000001
 44
0.0000000001
 40
0.0
 40
0.0
 40
0.0
 40
0.0
 40
0.0155843069
 40
0.0311159038
 40
0.0465952632
 40
0.0620238805
 40
0.077403449
 40
0.0927362827
 40
0.1080251225
 40
0.1232731731
 40
0.1384840552
 40
0.1536617763
 40
0.1688106901
 40
0.1839354535
 40
0.1990409788
 40
0.2141323827
 40
0.2292149324
 40
0.2442939898
 40
0.259374954
 40
0.2744632038
 40
0.2895640402
 40
0.3046826299
 40
0.3198239506
 40
0.3349927394
 40
0.3501934439
 40
0.3654301775
 40
0.3807066787
 40
0.3960262758
 40
0.4113918556
 40
0.4268058385
 40
0.4422701584
 40
0.4577862477
 40
0.4733550287
 40
0.4889769093
 40
0.5046517847
 40
0.520379043
 40
0.5361575765
 40
0.5519857969
 40
0.5678616545
 40
0.5837826615
 40
0.5997459177
 40
0.6157481411
 40
0.6317856992
 40
0.6478546443
 40
0.6639507502
 40
0.6800695513
 40
0.6962063822
 40
0.7123564202
 40
0.7285147273
 40
0.7446762933
 40
0.7608360801
 40
0.7769890646
 40
0.7931302832
 40
0.8092548748
 40
0.8253581236
 40
0.841435501
 40
0.8574827062
 40
0.8734957057
 40
0.889470771
 40
0.9054045125
 40
0.9212939181
 40
0.9371363645
 40
0.9529297054
 40
0.9686721205
 40
0.9843625712
 40
1.0
 40
1.0
 40
1.0
 40
1.0
 10
10.5953756479
 20
7.1656567694
 30
0.0
 10
10.5953756479
 20
7.1756432242
 30
0.0
 10
10.5958643512
 20
7.1955858989
 30
0.0
 10
10.5980704731
 20
7.2253743106
 30
0.0
 10
10.6017432921
 20
7.254917978
 30
0.0
 10
10.6068739066
 20
7.2841446641
 30
0.0
 10
10.6134501184
 20
7.3129842641
 30
0.0
 10
10.621456098
 20
7.3413671549
 30
0.0
 10
10.6308726422
 20
7.3692249369
 30
0.0
 10
10.6416771066
 20
7.3964904278
 30
0.0
 10
10.6538435079
 20
7.4230978735
 30
0.0
 10
10.6673425654
 20
7.4489830963
 30
0.0
 10
10.6821417774
 20
7.4740836533
 30
0.0
 10
10.6982054953
 20
7.4983389903
 30
0.0
 10
10.7154950075
 20
7.5216905906
 30
0.0
 10
10.733968637
 20
7.544082117
 30
0.0
 10
10.753581841
 20
7.5654595499
 30
0.0
 10
10.7742873198
 20
7.5857713195
 30
0.0
 10
10.7960351316
 20
7.6049684319
 30
0.0
 10
10.8187728146
 20
7.6230045891
 30
0.0
 10
10.8424455157
 20
7.6398363017
 30
0.0
 10
10.8669961241
 20
7.6554229946
 30
0.0
 10
10.8923654116
 20
7.6697271054
 30
0.0
 10
10.918492178
 20
7.6827141744
 30
0.0
 10
10.9453133984
 20
7.6943529308
 30
0.0
 10
10.9727643794
 20
7.704615366
 30
0.0
 10
11.0007789171
 20
7.7134767983
 30
0.0
 10
11.0292894585
 20
7.7209159308
 30
0.0
 10
11.0582272653
 20
7.7269149011
 30
0.0
 10
11.0875225806
 20
7.7314593228
 30
0.0
 10
11.1171047972
 20
7.7345383178
 30
0.0
 10
11.1469026282
 20
7.736144541
 30
0.0
 10
11.1768442787
 20
7.736274196
 30
0.0
 10
11.206857618
 20
7.7349270423
 30
0.0
 10
11.2368703531
 20
7.7321063948
 30
0.0
 10
11.2668102022
 20
7.7278191184
 30
0.0
 10
11.2966050688
 20
7.7220756058
 30
0.0
 10
11.3261832137
 20
7.7148897515
 30
0.0
 10
11.3554734266
 20
7.7062789173
 30
0.0
 10
11.3844051969
 20
7.6962638901
 30
0.0
 10
11.4129088819
 20
7.684868831
 30
0.0
 10
11.4409158733
 20
7.6721212171
 30
0.0
 10
11.4683587613
 20
7.6580517749
 30
0.0
 10
11.4951714959
 20
7.6426944069
 30
0.0
 10
11.5212895444
 20
7.6260861088
 30
0.0
 10
11.5466500469
 20
7.6082668834
 30
0.0
 10
11.5711919687
 20
7.589279645
 30
0.0
 10
11.5948562433
 20
7.569170113
 30
0.0
 10
11.6175859154
 20
7.5479867035
 30
0.0
 10
11.6393262761
 20
7.5257804123
 30
0.0
 10
11.6600249945
 20
7.5026046931
 30
0.0
 10
11.679632243
 20
7.4785153298
 30
0.0
 10
11.6981008163
 20
7.4535703022
 30
0.0
 10
11.7153862447
 20
7.4278296479
 30
0.0
 10
11.7314469011
 20
7.4013553181
 30
0.0
 10
11.7462441001
 20
7.3742110295
 30
0.0
 10
11.759742194
 20
7.3464621134
 30
0.0
 10
11.7719086584
 20
7.3181753575
 30
0.0
 10
11.7827141659
 20
7.2894188466
 30
0.0
 10
11.7921326645
 20
7.2602617961
 30
0.0
 10
11.8001414208
 20
7.2307744002
 30
0.0
 10
11.8067211235
 20
7.2010276135
 30
0.0
 10
11.8118558209
 20
7.1710931587
 30
0.0
 10
11.8155331766
 20
7.1410427678
 30
0.0
 10
11.8177441462
 20
7.1109498633
 30
0.0
 10
11.8182378514
 20
7.0908714829
 30
0.0
 10
11.8182378514
 20
7.0808509876
 30
0.0
  0
SPLINE
  5
3CB
100
AcDbEntity
  8
0
100
AcDbSpline
 62
7
  6
CONTINUOUS
 70
0
 71
3
 72
43
 73
39
 74
0
 42
0.0000001
 43
0.0000001
 44
0.0000000001
 40
0.0
 40
0.0
 40
0.0
 40
0.0
 40
0.0309202825
 40
0.0619810447
 40
0.0931790821
 40
0.1245080736
 40
0.1559598399
 40
0.1875240469
 40
0.2191885196
 40
0.2509394355
 40
0.2827615672
 40
0.3146385386
 40
0.3465530936
 40
0.3784873755
 40
0.4104232131
 40
0.4423424101
 40
0.4742270357
 40
0.5060597114
 40
0.5378238915
 40
0.5695041344
 40
0.6010863606
 40
0.6325580952
 40
0.6639086901
 40
0.695129521
 40
0.7262141567
 40
0.7571584973
 40
0.7879608756
 40
0.8186221208
 40
0.8339029551
 40
0.8491499693
 40
0.8643639736
 40
0.8795459224
 40
0.9098137239
 40
0.9399683677
 40
0.9550094307
 40
0.9700271215
 40
0.9850233171
 40
1.0
 40
1.0
 40
1.0
 40
1.0
 10
9.4384554593
 20
7.455157596
 30
0.0
 10
9.4384554593
 20
7.4435845612
 30
0.0
 10
9.4392280654
 20
7.420378746
 30
0.0
 10
9.4426810508
 20
7.3856506396
 30
0.0
 10
9.4484151306
 20
7.3510692312
 30
0.0
 10
9.4564049175
 20
7.3167888196
 30
0.0
 10
9.4666149215
 20
7.2829599276
 30
0.0
 10
9.4790000045
 20
7.2497316671
 30
0.0
 10
9.4935054454
 20
7.2172503218
 30
0.0
 10
9.5100672105
 20
7.185658911
 30
0.0
 10
9.52861224
 20
7.1550965116
 30
0.0
 10
9.5490587757
 20
7.125697672
 30
0.0
 10
9.5713167177
 20
7.0975918211
 30
0.0
 10
9.5952880176
 20
7.0709027058
 30
0.0
 10
9.6208671094
 20
7.0457478538
 30
0.0
 10
9.6479413545
 20
7.0222380441
 30
0.0
 10
9.6763915446
 20
7.0004768305
 30
0.0
 10
9.7060924277
 20
6.980560095
 30
0.0
 10
9.7369132517
 20
6.9625756284
 30
0.0
 10
9.7687183343
 20
6.9466027452
 30
0.0
 10
9.8013676534
 20
6.9327119395
 30
0.0
 10
9.8347174518
 20
6.9209645568
 30
0.0
 10
9.8686208589
 20
6.9114125251
 30
0.0
 10
9.902928568
 20
6.9040981408
 30
0.0
 10
9.937489361
 20
6.8990538608
 30
0.0
 10
9.9721512211
 20
6.8963022133
 30
0.0
 10
10.0067603113
 20
6.8958554714
 30
0.0
 10
10.0354664157
 20
6.8974080396
 30
0.0
 10
10.0582467217
 20
6.8998029521
 30
0.0
 10
10.0752063063
 20
6.9021698763
 30
0.0
 10
10.0920389747
 20
6.9051068207
 30
0.0
 10
10.1142636781
 20
6.9097732238
 30
0.0
 10
10.1416446293
 20
6.9170115378
 30
0.0
 10
10.168409242
 20
6.9261113887
 30
0.0
 10
10.1893413218
 20
6.9344743375
 30
0.0
 10
10.2047761009
 20
6.941276277
 30
0.0
 10
10.2199406039
 20
6.9486050689
 30
0.0
 10
10.2298657375
 20
6.9538402238
 30
0.0
 10
10.2347769147
 20
6.9565425756
 30
0.0
  0
SPLINE
  5
3CC
100
AcDbEntity
  8
0
100
AcDbSpline
 62
7
  6
CONTINUOUS
 70
0
 71
3
 72
15
 73
11
 74
0
 42
0.0000001
 43
0.0000001
 44
0.0000000001
 40
0.0
 40
0.0
 40
0.0
 40
0.0
 40
0.1268026816
 40
0.2530372138
 40
0.3787199841
 40
0.5038739791
 40
0.6285329036
 40
0.752738808
 40
0.8765419821
 40
1.0
 40
1.0
 40
1.0
 40
1.0
 10
9.4384554593
 20
7.455157596
 30
0.0
 10
9.4384554593
 20
7.4664212267
 30
0.0
 10
9.4391840041
 20
7.4889050582
 30
0.0
 10
9.4424754287
 20
7.5224078607
 30
0.0
 10
9.4479492489
 20
7.5554773122
 30
0.0
 10
9.4555827635
 20
7.5879721618
 30
0.0
 10
9.46534387
 20
7.6197555686
 30
0.0
 10
9.4771919239
 20
7.6506937084
 30
0.0
 10
9.4910760688
 20
7.6806541658
 30
0.0
 10
9.5016661652
 20
7.6999196042
 30
0.0
 10
9.5072775566
 20
7.7093417635
 30
0.0
  0
SPLINE
  5
3CD
100
AcDbEntity
  8
0
100
AcDbSpline
 62
7
  6
CONTINUOUS
 70
0
 71
3
 72
15
 73
11
 74
0
 42
0.0000001
 43
0.0000001
 44
0.0000000001
 40
0.0
 40
0.0
 40
0.0
 40
0.0
 40
0.1269217366
 40
0.2532267895
 40
0.3789359499
 40
0.5040788944
 40
0.6286983953
 40
0.7528479497
 40
0.8765910699
 40
1.0
 40
1.0
 40
1.0
 40
1.0
 10
9.4510124958
 20
7.4542867626
 30
0.0
 10
9.4510124958
 20
7.4662189612
 30
0.0
 10
9.4518502086
 20
7.4900341906
 30
0.0
 10
9.4556356565
 20
7.5254862589
 30
0.0
 10
9.4619283061
 20
7.5604125235
 30
0.0
 10
9.4706974023
 20
7.5946370942
 30
0.0
 10
9.4818995452
 20
7.627990029
 30
0.0
 10
9.4954797207
 20
7.6603057051
 30
0.0
 10
9.5113691678
 20
7.6914210618
 30
0.0
 10
9.5234664053
 20
7.7112889912
 30
0.0
 10
9.5298683696
 20
7.7209647411
 30
0.0
  0
SPLINE
  5
3CE
100
AcDbEntity
  8
0
100
AcDbSpline
 62
7
  6
CONTINUOUS
 70
0
 71
3
 72
15
 73
11
 74
0
 42
0.0000001
 43
0.0000001
 44
0.0000000001
 40
0.0
 40
0.0
 40
0.0
 40
0.0
 40
0.1269902512
 40
0.2533343141
 40
0.3790558871
 40
0.5041893271
 40
0.6287836948
 40
0.7529003199
 40
0.8766117183
 40
1.0
 40
1.0
 40
1.0
 40
1.0
 10
9.4658617349
 20
7.458130027
 30
0.0
 10
9.4658617349
 20
7.4703873709
 30
0.0
 10
9.4667636649
 20
7.4948496432
 30
0.0
 10
9.4708397955
 20
7.5312420326
 30
0.0
 10
9.4776137171
 20
7.5670502274
 30
0.0
 10
9.4870490689
 20
7.6020760258
 30
0.0
 10
9.4990945476
 20
7.6361282829
 30
0.0
 10
9.5136851084
 20
7.6690211386
 30
0.0
 10
9.5307396041
 20
7.7005721558
 30
0.0
 10
9.5437078512
 20
7.7206236927
 30
0.0
 10
9.5505651904
 20
7.7303611078
 30
0.0
  0
SPLINE
  5
3CF
100
AcDbEntity
  8
0
100
AcDbSpline
 62
7
  6
CONTINUOUS
 70
0
 71
3
 72
15
 73
11
 74
0
 42
0.0000001
 43
0.0000001
 44
0.0000000001
 40
0.0
 40
0.0
 40
0.0
 40
0.0
 40
0.126815294
 40
0.2530574731
 40
0.3787433035
 40
0.5038964039
 40
0.6285513713
 40
0.7527513421
 40
0.8765478862
 40
1.0
 40
1.0
 40
1.0
 40
1.0
 10
9.5015304553
 20
7.4925833672
 30
0.0
 10
9.5015304553
 20
7.5034515854
 30
0.0
 10
9.5022396025
 20
7.5251458176
 30
0.0
 10
9.5054434673
 20
7.5574689012
 30
0.0
 10
9.5107714423
 20
7.589367774
 30
0.0
 10
9.5182010413
 20
7.6207037664
 30
0.0
 10
9.5277004653
 20
7.6513425782
 30
0.0
 10
9.5392294614
 20
7.681152913
 30
0.0
 10
9.5527376559
 20
7.7100049235
 30
0.0
 10
9.5630391402
 20
7.7285448637
 30
0.0
 10
9.5684969198
 20
7.7376084626
 30
0.0
  0
SPLINE
  5
3D0
100
AcDbEntity
  8
0
100
AcDbSpline
 62
7
  6
CONTINUOUS
 70
0
 71
3
 72
19
 73
15
 74
0
 42
0.0000001
 43
0.0000001
 44
0.0000000001
 40
0.0
 40
0.0
 40
0.0
 40
0.0
 40
0.1270553977
 40
0.2534290471
 40
0.3791484502
 40
0.5042542744
 40
0.5666074153
 40
0.6288299255
 40
0.6909312083
 40
0.7529214539
 40
0.8148115781
 40
0.8766131743
 40
0.9383384214
 40
1.0
 40
1.0
 40
1.0
 40
1.0
 10
9.5603182016
 20
7.5013679731
 30
0.0
 10
9.5603182016
 20
7.5131052417
 30
0.0
 10
9.5612298984
 20
7.5365273907
 30
0.0
 10
9.5653509251
 20
7.5713450298
 30
0.0
 10
9.5721964552
 20
7.6055488718
 30
0.0
 10
9.5801483862
 20
7.6334015618
 30
0.0
 10
9.5878235476
 20
7.6551580783
 30
0.0
 10
9.5942214475
 20
7.6711778286
 30
0.0
 10
9.6012567083
 20
7.6868910858
 30
0.0
 10
9.6089187488
 20
7.7022742531
 30
0.0
 10
9.6171959037
 20
7.7173037565
 30
0.0
 10
9.6260755739
 20
7.7319568436
 30
0.0
 10
9.6355440456
 20
7.7462108469
 30
0.0
 10
9.6422428698
 20
7.755437847
 30
0.0
 10
9.6456848025
 20
7.7599766013
 30
0.0
  0
SPLINE
  5
3D1
100
AcDbEntity
  8
0
100
AcDbSpline
 62
4
  6
CONTINUOUS
 70
0
 71
3
 72
289
 73
285
 74
0
 42
0.0000001
 43
0.0000001
 44
0.0000000001
 40
0.0
 40
0.0
 40
0.0
 40
0.0
 40
0.015625
 40
0.0234375
 40
0.03125
 40
0.0390625
 40
0.046875
 40
0.05078125
 40
0.0546875
 40
0.056640625
 40
0.05859375
 40
0.060546875
 40
0.0615234375
 40
0.0620117188
 40
0.0625
 40
0.0629882812
 40
0.0634765625
 40
0.064453125
 40
0.06640625
 40
0.068359375
 40
0.0703125
 40
0.07421875
 40
0.078125
 40
0.0859375
 40
0.09375
 40
0.1015625
 40
0.109375
 40
0.11328125
 40
0.1171875
 40
0.119140625
 40
0.12109375
 40
0.123046875
 40
0.1240234375
 40
0.1245117188
 40
0.125
 40
0.1254882812
 40
0.1259765625
 40
0.126953125
 40
0.12890625
 40
0.130859375
 40
0.1328125
 40
0.13671875
 40
0.140625
 40
0.1484375
 40
0.15625
 40
0.1640625
 40
0.171875
 40
0.17578125
 40
0.1796875
 40
0.181640625
 40
0.18359375
 40
0.185546875
 40
0.1865234375
 40
0.1870117188
 40
0.1875
 40
0.1879882812
 40
0.1884765625
 40
0.189453125
 40
0.19140625
 40
0.193359375
 40
0.1953125
 40
0.19921875
 40
0.203125
 40
0.2109375
 40
0.21875
 40
0.2265625
 40
0.234375
 40
0.23828125
 40
0.2421875
 40
0.24609375
 40
0.248046875
 40
0.2490234375
 40
0.25
 40
0.2509765625
 40
0.251953125
 40
0.25390625
 40
0.2578125
 40
0.26171875
 40
0.265625
 40
0.2734375
 40
0.28125
 40
0.2890625
 40
0.296875
 40
0.30078125
 40
0.3046875
 40
0.30859375
 40
0.310546875
 40
0.3115234375
 40
0.3125
 40
0.3134765625
 40
0.314453125
 40
0.31640625
 40
0.3203125
 40
0.32421875
 40
0.328125
 40
0.3359375
 40
0.34375
 40
0.3515625
 40
0.359375
 40
0.36328125
 40
0.3671875
 40
0.37109375
 40
0.373046875
 40
0.3740234375
 40
0.375
 40
0.3759765625
 40
0.376953125
 40
0.37890625
 40
0.3828125
 40
0.38671875
 40
0.390625
 40
0.3984375
 40
0.40625
 40
0.4140625
 40
0.421875
 40
0.4296875
 40
0.43359375
 40
0.435546875
 40
0.4375
 40
0.439453125
 40
0.44140625
 40
0.4453125
 40
0.453125
 40
0.4609375
 40
0.46875
 40
0.4765625
 40
0.484375
 40
0.48828125
 40
0.4921875
 40
0.49609375
 40
0.498046875
 40
0.4990234375
 40
0.5
 40
0.5009765625
 40
0.501953125
 40
0.50390625
 40
0.5078125
 40
0.51171875
 40
0.515625
 40
0.5234375
 40
0.53125
 40
0.5390625
 40
0.546875
 40
0.55078125
 40
0.5546875
 40
0.55859375
 40
0.560546875
 40
0.5615234375
 40
0.5625
 40
0.5634765625
 40
0.564453125
 40
0.56640625
 40
0.5703125
 40
0.57421875
 40
0.578125
 40
0.5859375
 40
0.59375
 40
0.6015625
 40
0.609375
 40
0.61328125
 40
0.6171875
 40
0.619140625
 40
0.62109375
 40
0.623046875
 40
0.6240234375
 40
0.6245117188
 40
0.625
 40
0.6254882812
 40
0.6259765625
 40
0.626953125
 40
0.62890625
 40
0.630859375
 40
0.6328125
 40
0.63671875
 40
0.640625
 40
0.6484375
 40
0.65625
 40
0.6640625
 40
0.671875
 40
0.67578125
 40
0.6796875
 40
0.681640625
 40
0.68359375
 40
0.685546875
 40
0.6865234375
 40
0.6870117188
 40
0.6875
 40
0.6879882812
 40
0.6884765625
 40
0.689453125
 40
0.69140625
 40
0.693359375
 40
0.6953125
 40
0.69921875
 40
0.703125
 40
0.7109375
 40
0.71875
 40
0.7265625
 40
0.734375
 40
0.73828125
 40
0.7421875
 40
0.744140625
 40
0.74609375
 40
0.748046875
 40
0.7490234375
 40
0.7495117188
 40
0.75
 40
0.7504882812
 40
0.7509765625
 40
0.751953125
 40
0.75390625
 40
0.755859375
 40
0.7578125
 40
0.76171875
 40
0.765625
 40
0.7734375
 40
0.78125
 40
0.7890625
 40
0.796875
 40
0.80078125
 40
0.8046875
 40
0.806640625
 40
0.80859375
 40
0.810546875
 40
0.8115234375
 40
0.8120117188
 40
0.8125
 40
0.8129882812
 40
0.8134765625
 40
0.814453125
 40
0.81640625
 40
0.818359375
 40
0.8203125
 40
0.82421875
 40
0.828125
 40
0.8359375
 40
0.84375
 40
0.8515625
 40
0.85546875
 40
0.859375
 40
0.86328125
 40
0.8671875
 40
0.869140625
 40
0.87109375
 40
0.873046875
 40
0.8740234375
 40
0.8745117188
 40
0.875
 40
0.8754882812
 40
0.8759765625
 40
0.876953125
 40
0.87890625
 40
0.880859375
 40
0.8828125
 40
0.88671875
 40
0.890625
 40
0.89453125
 40
0.8984375
 40
0.90625
 40
0.9140625
 40
0.91796875
 40
0.921875
 40
0.92578125
 40
0.9296875
 40
0.931640625
 40
0.93359375
 40
0.935546875
 40
0.9365234375
 40
0.9370117188
 40
0.9375
 40
0.9379882812
 40
0.9384765625
 40
0.939453125
 40
0.94140625
 40
0.943359375
 40
0.9453125
 40
0.94921875
 40
0.953125
 40
0.95703125
 40
0.9609375
 40
0.96875
 40
0.9765625
 40
0.984375
 40
1.0
 40
1.0
 40
1.0
 40
1.0
 10
12.3349050144
 20
8.2352675324
 30
0.0
 10
12.3357445486
 20
8.2363856718
 30
0.0
 10
12.3370038499
 20
8.2380628808
 30
0.0
 10
12.3386829181
 20
8.2402991603
 30
0.0
 10
12.3399422195
 20
8.2419763676
 30
0.0
 10
12.3412015203
 20
8.2436535837
 30
0.0
 10
12.3422509393
 20
8.2450512363
 30
0.0
 10
12.3430904709
 20
8.2461694201
 30
0.0
 10
12.3436151861
 20
8.2468681444
 30
0.0
 10
12.3440349402
 20
8.2474274457
 30
0.0
 10
12.3443498051
 20
8.2478460403
 30
0.0
 10
12.3446120357
 20
8.248197673
 30
0.0
 10
12.3447959049
 20
8.2484383135
 30
0.0
 10
12.3449004925
 20
8.2485844139
 30
0.0
 10
12.3449802866
 20
8.2486697864
 30
0.0
 10
12.3450549072
 20
8.2488476745
 30
0.0
 10
12.345156206
 20
8.2490525881
 30
0.0
 10
12.3453326379
 20
8.2494262223
 30
0.0
 10
12.3455851232
 20
8.2499521248
 30
0.0
 10
12.3458879173
 20
8.2505865724
 30
0.0
 10
12.3462917085
 20
8.2514313274
 30
0.0
 10
12.3467964251
 20
8.2524876735
 30
0.0
 10
12.3476039841
 20
8.2541776023
 30
0.0
 10
12.3486134286
 20
8.2562900909
 30
0.0
 10
12.349824764
 20
8.258825042
 30
0.0
 10
12.351036098
 20
8.2613600099
 30
0.0
 10
12.3520455461
 20
8.2634724566
 30
0.0
 10
12.3528530978
 20
8.2651624692
 30
0.0
 10
12.3533578331
 20
8.2662186023
 30
0.0
 10
12.3537615859
 20
8.2670637944
 30
0.0
 10
12.3540644973
 20
8.2676969064
 30
0.0
 10
12.3543166158
 20
8.2682269879
 30
0.0
 10
12.3544937024
 20
8.2685931618
 30
0.0
 10
12.3545939522
 20
8.2688100286
 30
0.0
 10
12.3546717949
 20
8.2689512004
 30
0.0
 10
12.3547394874
 20
8.2691744733
 30
0.0
 10
12.3548332847
 20
8.2694435327
 30
0.0
 10
12.3549957803
 20
8.2699277295
 30
0.0
 10
12.3552287792
 20
8.2706124635
 30
0.0
 10
12.3555080089
 20
8.2714371302
 30
0.0
 10
12.355880444
 20
8.2725356428
 30
0.0
 10
12.3563459437
 20
8.2739091407
 30
0.0
 10
12.357090768
 20
8.2761065377
 30
0.0
 10
12.3580217898
 20
8.2788533528
 30
0.0
 10
12.3591390199
 20
8.2821494996
 30
0.0
 10
12.3602562478
 20
8.2854456616
 30
0.0
 10
12.3611872751
 20
8.2881924387
 30
0.0
 10
12.3619320883
 20
8.2903899118
 30
0.0
 10
12.3623976163
 20
8.291763216
 30
0.0
 10
12.3627699934
 20
8.2928621262
 30
0.0
 10
12.3630494002
 20
8.2936855784
 30
0.0
 10
12.3632818449
 20
8.2943741119
 30
0.0
 10
12.36344533
 20
8.294851526
 30
0.0
 10
12.3635375418
 20
8.2951314532
 30
0.0
 10
12.3636101044
 20
8.2953213437
 30
0.0
 10
12.363669656
 20
8.2955878943
 30
0.0
 10
12.3637535966
 20
8.2959165552
 30
0.0
 10
12.3638983781
 20
8.2965041705
 30
0.0
 10
12.3641063143
 20
8.2973371073
 30
0.0
 10
12.3643553646
 20
8.2983394195
 30
0.0
 10
12.3646875968
 20
8.299674862
 30
0.0
 10
12.3651028306
 20
8.3013444986
 30
0.0
 10
12.3657672364
 20
8.3040157304
 30
0.0
 10
12.3665977315
 20
8.3073548368
 30
0.0
 10
12.367594336
 20
8.3113617246
 30
0.0
 10
12.3685909184
 20
8.3153686651
 30
0.0
 10
12.369421469
 20
8.31870764
 30
0.0
 10
12.3700857639
 20
8.3213791347
 30
0.0
 10
12.3705843826
 20
8.3233818967
 30
0.0
 10
12.3709986336
 20
8.3250535975
 30
0.0
 10
12.3712910912
 20
8.3262184255
 30
0.0
 10
12.3714543344
 20
8.3268924148
 30
0.0
 10
12.3715876838
 20
8.3273743191
 30
0.0
 10
12.3716793031
 20
8.3279463874
 30
0.0
 10
12.371816018
 20
8.3286776948
 30
0.0
 10
12.3720484872
 20
8.3299721361
 30
0.0
 10
12.3723841318
 20
8.3318136771
 30
0.0
 10
12.3727853876
 20
8.3340268054
 30
0.0
 10
12.3733209256
 20
8.3369764974
 30
0.0
 10
12.3739901649
 20
8.3406640076
 30
0.0
 10
12.3747933362
 20
8.3450888419
 30
0.0
 10
12.3755964643
 20
8.3495137554
 30
0.0
 10
12.3762658114
 20
8.3532010674
 30
0.0
 10
12.3768011337
 20
8.3561511558
 30
0.0
 10
12.3772030474
 20
8.3583630753
 30
0.0
 10
12.3775366338
 20
8.3602083977
 30
0.0
 10
12.3777727772
 20
8.3614960886
 30
0.0
 10
12.3779036052
 20
8.3622382119
 30
0.0
 10
12.3780133071
 20
8.3627770572
 30
0.0
 10
12.3780787412
 20
8.3633837414
 30
0.0
 10
12.3781814277
 20
8.3641689907
 30
0.0
 10
12.3783539349
 20
8.3655542019
 30
0.0
 10
12.3786041349
 20
8.3675273111
 30
0.0
 10
12.378902765
 20
8.3698975093
 30
0.0
 10
12.379301501
 20
8.3730569116
 30
0.0
 10
12.3797997266
 20
8.3770064611
 30
0.0
 10
12.3803976869
 20
8.3817457898
 30
0.0
 10
12.3809956002
 20
8.386485167
 30
0.0
 10
12.381493943
 20
8.3904345952
 30
0.0
 10
12.3818924446
 20
8.3935942402
 30
0.0
 10
12.3821917896
 20
8.3959636984
 30
0.0
 10
12.3824397532
 20
8.3979391227
 30
0.0
 10
12.3826162528
 20
8.399320201
 30
0.0
 10
12.3827125424
 20
8.4001120722
 30
0.0
 10
12.3827976258
 20
8.4006984158
 30
0.0
 10
12.3828335283
 20
8.401313657
 30
0.0
 10
12.3828985532
 20
8.4021238987
 30
0.0
 10
12.383004354
 20
8.4035465181
 30
0.0
 10
12.3831596768
 20
8.4055763761
 30
0.0
 10
12.3833442751
 20
8.4080132569
 30
0.0
 10
12.3835910332
 20
8.4112620637
 30
0.0
 10
12.3838992502
 20
8.4153232005
 30
0.0
 10
12.3842692774
 20
8.4201965004
 30
0.0
 10
12.3846390063
 20
8.425069852
 30
0.0
 10
12.3850097614
 20
8.4299430613
 30
0.0
 10
12.385315552
 20
8.4340045001
 30
0.0
 10
12.3855358176
 20
8.4368466643
 30
0.0
 10
12.3856519859
 20
8.4384720738
 30
0.0
 10
12.3857664303
 20
8.4396874248
 30
0.0
 10
12.3857764508
 20
8.4409169427
 30
0.0
 10
12.3858262358
 20
8.4425513583
 30
0.0
 10
12.3858963884
 20
8.445413888
 30
0.0
 10
12.386005481
 20
8.4495020128
 30
0.0
 10
12.3861325855
 20
8.4544082761
 30
0.0
 10
12.3862607169
 20
8.4593144105
 30
0.0
 10
12.3863885474
 20
8.4642205468
 30
0.0
 10
12.3864952198
 20
8.4683090947
 30
0.0
 10
12.3865803556
 20
8.4715796898
 30
0.0
 10
12.3866447258
 20
8.4740333052
 30
0.0
 10
12.3866967238
 20
8.4760758558
 30
0.0
 10
12.3867363477
 20
8.4775098192
 30
0.0
 10
12.3867539539
 20
8.4783227033
 30
0.0
 10
12.3867813451
 20
8.4789507434
 30
0.0
 10
12.3867545082
 20
8.4795085368
 30
0.0
 10
12.3867376411
 20
8.4802767641
 30
0.0
 10
12.3866993106
 20
8.4816097457
 30
0.0
 10
12.3866491603
 20
8.4835199736
 30
0.0
 10
12.3865870076
 20
8.4858096922
 30
0.0
 10
12.3865048266
 20
8.4888635432
 30
0.0
 10
12.3864018623
 20
8.4926805481
 30
0.0
 10
12.3862784137
 20
8.4972610975
 30
0.0
 10
12.3861549118
 20
8.5018415669
 30
0.0
 10
12.386052081
 20
8.5056587716
 30
0.0
 10
12.3859696329
 20
8.508712223
 30
0.0
 10
12.3859082949
 20
8.5110031606
 30
0.0
 10
12.3858555961
 20
8.5129095751
 30
0.0
 10
12.385821815
 20
8.5142493641
 30
0.0
 10
12.3857976586
 20
8.5150066841
 30
0.0
 10
12.3857932121
 20
8.5155979814
 30
0.0
 10
12.3857365087
 20
8.5161001863
 30
0.0
 10
12.3856791319
 20
8.5168008692
 30
0.0
 10
12.3855702299
 20
8.5180125853
 30
0.0
 10
12.3854190958
 20
8.5197511781
 30
0.0
 10
12.3852358343
 20
8.5218342492
 30
0.0
 10
12.3849921495
 20
8.5246128093
 30
0.0
 10
12.3846873155
 20
8.5280856207
 30
0.0
 10
12.3843216131
 20
8.5322531626
 30
0.0
 10
12.3839558821
 20
8.5364206538
 30
0.0
 10
12.3836511197
 20
8.5398935917
 30
0.0
 10
12.383407292
 20
8.5426718987
 30
0.0
 10
12.3832549372
 20
8.5444084346
 30
0.0
 10
12.3831329677
 20
8.5457974486
 30
0.0
 10
12.3830417252
 20
8.5468397967
 30
0.0
 10
12.3829649434
 20
8.5477065511
 30
0.0
 10
12.3829126609
 20
8.5483169469
 30
0.0
 10
12.3828804981
 20
8.5486600177
 30
0.0
 10
12.3828628185
 20
8.5489334535
 30
0.0
 10
12.3828205128
 20
8.5491452217
 30
0.0
 10
12.3827726952
 20
8.5494490897
 30
0.0
 10
12.382685012
 20
8.5499708367
 30
0.0
 10
12.3825618428
 20
8.5507214291
 30
0.0
 10
12.3824131441
 20
8.5516198973
 30
0.0
 10
12.382215192
 20
8.5528186383
 30
0.0
 10
12.3819676448
 20
8.5543167962
 30
0.0
 10
12.3815716291
 20
8.5567139989
 30
0.0
 10
12.3810765888
 20
8.5597104503
 30
0.0
 10
12.38048255
 20
8.5633062161
 30
0.0
 10
12.3798885064
 20
8.566901969
 30
0.0
 10
12.3793934778
 20
8.5698984525
 30
0.0
 10
12.3789974388
 20
8.5722955911
 30
0.0
 10
12.3787499508
 20
8.5737939117
 30
0.0
 10
12.3785518772
 20
8.5749923188
 30
0.0
 10
12.3784035497
 20
8.5758918068
 30
0.0
 10
12.378279219
 20
8.5766392086
 30
0.0
 10
12.3781936094
 20
8.5771666514
 30
0.0
 10
12.3781424693
 20
8.5774613932
 30
0.0
 10
12.378110369
 20
8.5777011942
 30
0.0
 10
12.3780543601
 20
8.5778693438
 30
0.0
 10
12.3779880211
 20
8.5781185361
 30
0.0
 10
12.3778680424
 20
8.5785429779
 30
0.0
 10
12.3776986757
 20
8.5791554113
 30
0.0
 10
12.377494566
 20
8.5798877256
 30
0.0
 10
12.3772227236
 20
8.5808650548
 30
0.0
 10
12.3768828165
 20
8.5820864046
 30
0.0
 10
12.3763390234
 20
8.5840407386
 30
0.0
 10
12.3756592619
 20
8.5864835958
 30
0.0
 10
12.3748435572
 20
8.5894150525
 30
0.0
 10
12.3740278484
 20
8.5923464933
 30
0.0
 10
12.3733480969
 20
8.5947893904
 30
0.0
 10
12.3728042839
 20
8.5967436446
 30
0.0
 10
12.3724644273
 20
8.5979651974
 30
0.0
 10
12.3721924812
 20
8.59894211
 30
0.0
 10
12.3719886882
 20
8.5996756971
 30
0.0
 10
12.3718183309
 20
8.600284148
 30
0.0
 10
12.3717001205
 20
8.6007156993
 30
0.0
 10
12.3716309483
 20
8.6009535005
 30
0.0
 10
12.3715836421
 20
8.6011566398
 30
0.0
 10
12.371518856
 20
8.6012650251
 30
0.0
 10
12.3714385716
 20
8.6014425902
 30
0.0
 10
12.3712952333
 20
8.6017379298
 30
0.0
 10
12.3710919493
 20
8.6021678944
 30
0.0
 10
12.3708473729
 20
8.6026804059
 30
0.0
 10
12.3705214931
 20
8.6033649582
 30
0.0
 10
12.3701140672
 20
8.6042202365
 30
0.0
 10
12.3694622284
 20
8.6055889121
 30
0.0
 10
12.3686474151
 20
8.607299677
 30
0.0
 10
12.3676696459
 20
8.6093526314
 30
0.0
 10
12.3666918736
 20
8.6114055674
 30
0.0
 10
12.3658770681
 20
8.6131163783
 30
0.0
 10
12.3652252137
 20
8.6144849619
 30
0.0
 10
12.3648178273
 20
8.615340474
 30
0.0
 10
12.3644918666
 20
8.6160245464
 30
0.0
 10
12.3642475372
 20
8.616538524
 30
0.0
 10
12.3640434803
 20
8.6169639015
 30
0.0
 10
12.3639015218
 20
8.61726743
 30
0.0
 10
12.3638190266
 20
8.6174318744
 30
0.0
 10
12.3637610315
 20
8.6175805621
 30
0.0
 10
12.3636882191
 20
8.6176323325
 30
0.0
 10
12.3635963043
 20
8.6177351655
 30
0.0
 10
12.3634330454
 20
8.6178993725
 30
0.0
 10
12.3632010774
 20
8.6181421887
 30
0.0
 10
12.3629221769
 20
8.6184300434
 30
0.0
 10
12.3625504978
 20
8.6188150807
 30
0.0
 10
12.3620858344
 20
8.6192959558
 30
0.0
 10
12.361342409
 20
8.6200655916
 30
0.0
 10
12.360413115
 20
8.6210275557
 30
0.0
 10
12.3592979674
 20
8.6221819466
 30
0.0
 10
12.3583686767
 20
8.6231439332
 30
0.0
 10
12.3576252439
 20
8.6239135193
 30
0.0
 10
12.3570676706
 20
8.624490722
 30
0.0
 10
12.3565100923
 20
8.6250678739
 30
0.0
 10
12.3560454595
 20
8.6255489921
 30
0.0
 10
12.3556737177
 20
8.6259335321
 30
0.0
 10
12.3553950088
 20
8.6262229058
 30
0.0
 10
12.3551624412
 20
8.6264609695
 30
0.0
 10
12.3550002526
 20
8.6266336604
 30
0.0
 10
12.3549066229
 20
8.6267229001
 30
0.0
 10
12.3548390784
 20
8.6268164249
 30
0.0
 10
12.3547612979
 20
8.6268082899
 30
0.0
 10
12.354661161
 20
8.6268329033
 30
0.0
 10
12.354484258
 20
8.6268594552
 30
0.0
 10
12.354232409
 20
8.6269060242
 30
0.0
 10
12.353929818
 20
8.6269582097
 30
0.0
 10
12.3535264934
 20
8.627029082
 30
0.0
 10
12.3530222929
 20
8.6271172291
 30
0.0
 10
12.3524172716
 20
8.6272231956
 30
0.0
 10
12.351812245
 20
8.6273291113
 30
0.0
 10
12.3510055448
 20
8.62747035
 30
0.0
 10
12.3499971689
 20
8.6276468917
 30
0.0
 10
12.3489887934
 20
8.627823438
 30
0.0
 10
12.3481820925
 20
8.6279646695
 30
0.0
 10
12.3475770679
 20
8.6280706069
 30
0.0
 10
12.3469720394
 20
8.6281764919
 30
0.0
 10
12.3464678611
 20
8.6282648926
 30
0.0
 10
12.3460644915
 20
8.6283352475
 30
0.0
 10
12.3457620377
 20
8.6283890129
 30
0.0
 10
12.3455097593
 20
8.6284306391
 30
0.0
 10
12.3453336228
 20
8.6284660148
 30
0.0
 10
12.3452322578
 20
8.6284764903
 30
0.0
 10
12.3451582499
 20
8.6285117823
 30
0.0
 10
12.3450765362
 20
8.6284422022
 30
0.0
 10
12.3449702725
 20
8.6283860094
 30
0.0
 10
12.3447830586
 20
8.6282706283
 30
0.0
 10
12.344516265
 20
8.6281147087
 30
0.0
 10
12.3441958325
 20
8.6279237912
 30
0.0
 10
12.343768687
 20
8.6276705668
 30
0.0
 10
12.3432347215
 20
8.6273535791
 30
0.0
 10
12.3425939773
 20
8.6269733898
 30
0.0
 10
12.3419532292
 20
8.6265931482
 30
0.0
 10
12.3410988999
 20
8.6260861776
 30
0.0
 10
12.3400309877
 20
8.6254524581
 30
0.0
 10
12.3387494933
 20
8.6246919974
 30
0.0
 10
12.337040834
 20
8.6236780489
 30
0.0
 10
12.3357593395
 20
8.6229175877
 30
0.0
 10
12.3349050099
 20
8.6224106135
 30
0.0
  0
SPLINE
  5
3D2
100
AcDbEntity
  8
0
100
AcDbSpline
 62
4
  6
CONTINUOUS
 70
0
 71
3
 72
289
 73
285
 74
0
 42
0.0000001
 43
0.0000001
 44
0.0000000001
 40
0.0
 40
0.0
 40
0.0
 40
0.0
 40
0.015625
 40
0.0234375
 40
0.03125
 40
0.0390625
 40
0.046875
 40
0.05078125
 40
0.0546875
 40
0.056640625
 40
0.05859375
 40
0.060546875
 40
0.0615234375
 40
0.0620117188
 40
0.0625
 40
0.0629882812
 40
0.0634765625
 40
0.064453125
 40
0.06640625
 40
0.068359375
 40
0.0703125
 40
0.07421875
 40
0.078125
 40
0.0859375
 40
0.09375
 40
0.1015625
 40
0.109375
 40
0.11328125
 40
0.1171875
 40
0.119140625
 40
0.12109375
 40
0.123046875
 40
0.1240234375
 40
0.1245117188
 40
0.125
 40
0.1254882812
 40
0.1259765625
 40
0.126953125
 40
0.12890625
 40
0.130859375
 40
0.1328125
 40
0.13671875
 40
0.140625
 40
0.1484375
 40
0.15625
 40
0.1640625
 40
0.171875
 40
0.17578125
 40
0.1796875
 40
0.181640625
 40
0.18359375
 40
0.185546875
 40
0.1865234375
 40
0.1870117188
 40
0.1875
 40
0.1879882812
 40
0.1884765625
 40
0.189453125
 40
0.19140625
 40
0.193359375
 40
0.1953125
 40
0.19921875
 40
0.203125
 40
0.2109375
 40
0.21875
 40
0.2265625
 40
0.234375
 40
0.23828125
 40
0.2421875
 40
0.24609375
 40
0.248046875
 40
0.2490234375
 40
0.25
 40
0.2509765625
 40
0.251953125
 40
0.25390625
 40
0.2578125
 40
0.26171875
 40
0.265625
 40
0.2734375
 40
0.28125
 40
0.2890625
 40
0.296875
 40
0.30078125
 40
0.3046875
 40
0.30859375
 40
0.310546875
 40
0.3115234375
 40
0.3125
 40
0.3134765625
 40
0.314453125
 40
0.31640625
 40
0.3203125
 40
0.32421875
 40
0.328125
 40
0.3359375
 40
0.34375
 40
0.3515625
 40
0.359375
 40
0.36328125
 40
0.3671875
 40
0.37109375
 40
0.373046875
 40
0.3740234375
 40
0.375
 40
0.3759765625
 40
0.376953125
 40
0.37890625
 40
0.3828125
 40
0.38671875
 40
0.390625
 40
0.3984375
 40
0.40625
 40
0.4140625
 40
0.421875
 40
0.4296875
 40
0.43359375
 40
0.435546875
 40
0.4375
 40
0.439453125
 40
0.44140625
 40
0.4453125
 40
0.453125
 40
0.4609375
 40
0.46875
 40
0.4765625
 40
0.484375
 40
0.48828125
 40
0.4921875
 40
0.49609375
 40
0.498046875
 40
0.4990234375
 40
0.5
 40
0.5009765625
 40
0.501953125
 40
0.50390625
 40
0.5078125
 40
0.51171875
 40
0.515625
 40
0.5234375
 40
0.53125
 40
0.5390625
 40
0.546875
 40
0.55078125
 40
0.5546875
 40
0.55859375
 40
0.560546875
 40
0.5615234375
 40
0.5625
 40
0.5634765625
 40
0.564453125
 40
0.56640625
 40
0.5703125
 40
0.57421875
 40
0.578125
 40
0.5859375
 40
0.59375
 40
0.6015625
 40
0.609375
 40
0.61328125
 40
0.6171875
 40
0.619140625
 40
0.62109375
 40
0.623046875
 40
0.6240234375
 40
0.6245117188
 40
0.625
 40
0.6254882812
 40
0.6259765625
 40
0.626953125
 40
0.62890625
 40
0.630859375
 40
0.6328125
 40
0.63671875
 40
0.640625
 40
0.6484375
 40
0.65625
 40
0.6640625
 40
0.671875
 40
0.67578125
 40
0.6796875
 40
0.681640625
 40
0.68359375
 40
0.685546875
 40
0.6865234375
 40
0.6870117188
 40
0.6875
 40
0.6879882812
 40
0.6884765625
 40
0.689453125
 40
0.69140625
 40
0.693359375
 40
0.6953125
 40
0.69921875
 40
0.703125
 40
0.7109375
 40
0.71875
 40
0.7265625
 40
0.734375
 40
0.73828125
 40
0.7421875
 40
0.744140625
 40
0.74609375
 40
0.748046875
 40
0.7490234375
 40
0.7495117188
 40
0.75
 40
0.7504882812
 40
0.7509765625
 40
0.751953125
 40
0.75390625
 40
0.755859375
 40
0.7578125
 40
0.76171875
 40
0.765625
 40
0.7734375
 40
0.78125
 40
0.7890625
 40
0.796875
 40
0.80078125
 40
0.8046875
 40
0.806640625
 40
0.80859375
 40
0.810546875
 40
0.8115234375
 40
0.8120117188
 40
0.8125
 40
0.8129882812
 40
0.8134765625
 40
0.814453125
 40
0.81640625
 40
0.818359375
 40
0.8203125
 40
0.82421875
 40
0.828125
 40
0.8359375
 40
0.84375
 40
0.8515625
 40
0.85546875
 40
0.859375
 40
0.86328125
 40
0.8671875
 40
0.869140625
 40
0.87109375
 40
0.873046875
 40
0.8740234375
 40
0.8745117188
 40
0.875
 40
0.8754882812
 40
0.8759765625
 40
0.876953125
 40
0.87890625
 40
0.880859375
 40
0.8828125
 40
0.88671875
 40
0.890625
 40
0.89453125
 40
0.8984375
 40
0.90625
 40
0.9140625
 40
0.91796875
 40
0.921875
 40
0.92578125
 40
0.9296875
 40
0.931640625
 40
0.93359375
 40
0.935546875
 40
0.9365234375
 40
0.9370117188
 40
0.9375
 40
0.9379882812
 40
0.9384765625
 40
0.939453125
 40
0.94140625
 40
0.943359375
 40
0.9453125
 40
0.94921875
 40
0.953125
 40
0.95703125
 40
0.9609375
 40
0.96875
 40
0.9765625
 40
0.984375
 40
1.0
 40
1.0
 40
1.0
 40
1.0
 10
12.3349050144
 20
8.6224106179
 30
0.0
 10
12.3340654803
 20
8.6212924784
 30
0.0
 10
12.332806179
 20
8.6196152695
 30
0.0
 10
12.3311271107
 20
8.61737899
 30
0.0
 10
12.3298678094
 20
8.6157017827
 30
0.0
 10
12.3286085085
 20
8.6140245665
 30
0.0
 10
12.3275590896
 20
8.612626914
 30
0.0
 10
12.3267195579
 20
8.6115087302
 30
0.0
 10
12.3261948428
 20
8.6108100059
 30
0.0
 10
12.3257750886
 20
8.6102507046
 30
0.0
 10
12.3254602238
 20
8.6098321099
 30
0.0
 10
12.3251979931
 20
8.6094804772
 30
0.0
 10
12.325014124
 20
8.6092398368
 30
0.0
 10
12.3249095364
 20
8.6090937363
 30
0.0
 10
12.3248297422
 20
8.6090083638
 30
0.0
 10
12.3247551216
 20
8.6088304758
 30
0.0
 10
12.3246538229
 20
8.6086255622
 30
0.0
 10
12.324477391
 20
8.608251928
 30
0.0
 10
12.3242249057
 20
8.6077260255
 30
0.0
 10
12.3239221116
 20
8.6070915779
 30
0.0
 10
12.3235183203
 20
8.6062468229
 30
0.0
 10
12.3230136038
 20
8.6051904768
 30
0.0
 10
12.3222060447
 20
8.603500548
 30
0.0
 10
12.3211966003
 20
8.6013880594
 30
0.0
 10
12.3199852649
 20
8.5988531083
 30
0.0
 10
12.3187739309
 20
8.5963181404
 30
0.0
 10
12.3177644828
 20
8.5942056937
 30
0.0
 10
12.3169569311
 20
8.5925156811
 30
0.0
 10
12.3164521958
 20
8.591459548
 30
0.0
 10
12.316048443
 20
8.5906143559
 30
0.0
 10
12.3157455316
 20
8.5899812439
 30
0.0
 10
12.3154934131
 20
8.5894511624
 30
0.0
 10
12.3153163264
 20
8.5890849884
 30
0.0
 10
12.3152160767
 20
8.5888681216
 30
0.0
 10
12.315138234
 20
8.5887269499
 30
0.0
 10
12.3150705414
 20
8.588503677
 30
0.0
 10
12.3149767442
 20
8.5882346176
 30
0.0
 10
12.3148142486
 20
8.5877504207
 30
0.0
 10
12.3145812496
 20
8.5870656867
 30
0.0
 10
12.31430202
 20
8.5862410201
 30
0.0
 10
12.3139295849
 20
8.5851425075
 30
0.0
 10
12.3134640851
 20
8.5837690096
 30
0.0
 10
12.3127192609
 20
8.5815716126
 30
0.0
 10
12.3117882391
 20
8.5788247975
 30
0.0
 10
12.310671009
 20
8.5755286507
 30
0.0
 10
12.3095537811
 20
8.5722324887
 30
0.0
 10
12.3086227537
 20
8.5694857116
 30
0.0
 10
12.3078779406
 20
8.5672882384
 30
0.0
 10
12.3074124126
 20
8.5659149342
 30
0.0
 10
12.3070400355
 20
8.5648160241
 30
0.0
 10
12.3067606287
 20
8.5639925719
 30
0.0
 10
12.306528184
 20
8.5633040383
 30
0.0
 10
12.3063646989
 20
8.5628266243
 30
0.0
 10
12.3062724871
 20
8.5625466971
 30
0.0
 10
12.3061999245
 20
8.5623568066
 30
0.0
 10
12.3061403728
 20
8.562090256
 30
0.0
 10
12.3060564323
 20
8.561761595
 30
0.0
 10
12.3059116508
 20
8.5611739798
 30
0.0
 10
12.3057037146
 20
8.5603410429
 30
0.0
 10
12.3054546643
 20
8.5593387307
 30
0.0
 10
12.305122432
 20
8.5580032883
 30
0.0
 10
12.3047071983
 20
8.5563336517
 30
0.0
 10
12.3040427925
 20
8.5536624199
 30
0.0
 10
12.3032122974
 20
8.5503233135
 30
0.0
 10
12.3022156928
 20
8.5463164256
 30
0.0
 10
12.3012191105
 20
8.5423094852
 30
0.0
 10
12.3003885599
 20
8.5389705103
 30
0.0
 10
12.299724265
 20
8.5362990155
 30
0.0
 10
12.2992256462
 20
8.5342962536
 30
0.0
 10
12.2988113953
 20
8.5326245527
 30
0.0
 10
12.2985189377
 20
8.5314597247
 30
0.0
 10
12.2983556944
 20
8.5307857355
 30
0.0
 10
12.298222345
 20
8.5303038312
 30
0.0
 10
12.2981307258
 20
8.5297317629
 30
0.0
 10
12.2979940109
 20
8.5290004555
 30
0.0
 10
12.2977615416
 20
8.5277060142
 30
0.0
 10
12.2974258971
 20
8.5258644732
 30
0.0
 10
12.2970246413
 20
8.5236513449
 30
0.0
 10
12.2964891033
 20
8.5207016528
 30
0.0
 10
12.295819864
 20
8.5170141427
 30
0.0
 10
12.2950166927
 20
8.5125893084
 30
0.0
 10
12.2942135646
 20
8.5081643948
 30
0.0
 10
12.2935442175
 20
8.5044770829
 30
0.0
 10
12.2930088951
 20
8.5015269945
 30
0.0
 10
12.2926069815
 20
8.4993150749
 30
0.0
 10
12.2922733951
 20
8.4974697525
 30
0.0
 10
12.2920372517
 20
8.4961820617
 30
0.0
 10
12.2919064237
 20
8.4954399383
 30
0.0
 10
12.2917967218
 20
8.494901093
 30
0.0
 10
12.2917312877
 20
8.4942944089
 30
0.0
 10
12.2916286012
 20
8.4935091596
 30
0.0
 10
12.291456094
 20
8.4921239484
 30
0.0
 10
12.2912058939
 20
8.4901508392
 30
0.0
 10
12.2909072639
 20
8.487780641
 30
0.0
 10
12.2905085278
 20
8.4846212387
 30
0.0
 10
12.2900103022
 20
8.4806716891
 30
0.0
 10
12.289412342
 20
8.4759323605
 30
0.0
 10
12.2888144287
 20
8.4711929833
 30
0.0
 10
12.2883160859
 20
8.4672435551
 30
0.0
 10
12.2879175843
 20
8.4640839101
 30
0.0
 10
12.2876182393
 20
8.4617144519
 30
0.0
 10
12.2873702757
 20
8.4597390276
 30
0.0
 10
12.2871937761
 20
8.4583579493
 30
0.0
 10
12.2870974864
 20
8.457566078
 30
0.0
 10
12.2870124031
 20
8.4569797345
 30
0.0
 10
12.2869765005
 20
8.4563644933
 30
0.0
 10
12.2869114757
 20
8.4555542516
 30
0.0
 10
12.2868056749
 20
8.4541316322
 30
0.0
 10
12.286650352
 20
8.4521017741
 30
0.0
 10
12.2864657538
 20
8.4496648934
 30
0.0
 10
12.2862189956
 20
8.4464160866
 30
0.0
 10
12.2859107787
 20
8.4423549498
 30
0.0
 10
12.2855407515
 20
8.4374816499
 30
0.0
 10
12.2851710226
 20
8.4326082983
 30
0.0
 10
12.2848002675
 20
8.427735089
 30
0.0
 10
12.2844944768
 20
8.4236736502
 30
0.0
 10
12.2842742113
 20
8.420831486
 30
0.0
 10
12.284158043
 20
8.4192060764
 30
0.0
 10
12.2840435985
 20
8.4179907255
 30
0.0
 10
12.284033578
 20
8.4167612076
 30
0.0
 10
12.2839837931
 20
8.4151267919
 30
0.0
 10
12.2839136404
 20
8.4122642623
 30
0.0
 10
12.2838045479
 20
8.4081761375
 30
0.0
 10
12.2836774434
 20
8.4032698742
 30
0.0
 10
12.283549312
 20
8.3983637398
 30
0.0
 10
12.2834214814
 20
8.3934576035
 30
0.0
 10
12.283314809
 20
8.3893690556
 30
0.0
 10
12.2832296733
 20
8.3860984605
 30
0.0
 10
12.2831653031
 20
8.3836448451
 30
0.0
 10
12.2831133051
 20
8.3816022945
 30
0.0
 10
12.2830736812
 20
8.3801683311
 30
0.0
 10
12.2830560749
 20
8.379355447
 30
0.0
 10
12.2830286838
 20
8.3787274068
 30
0.0
 10
12.2830555206
 20
8.3781696135
 30
0.0
 10
12.2830723878
 20
8.3774013861
 30
0.0
 10
12.2831107183
 20
8.3760684046
 30
0.0
 10
12.2831608686
 20
8.3741581767
 30
0.0
 10
12.2832230213
 20
8.371868458
 30
0.0
 10
12.2833052023
 20
8.368814607
 30
0.0
 10
12.2834081666
 20
8.3649976022
 30
0.0
 10
12.2835316151
 20
8.3604170528
 30
0.0
 10
12.2836551171
 20
8.3558365833
 30
0.0
 10
12.2837579478
 20
8.3520193786
 30
0.0
 10
12.283840396
 20
8.3489659273
 30
0.0
 10
12.283901734
 20
8.3466749897
 30
0.0
 10
12.2839544328
 20
8.3447685752
 30
0.0
 10
12.2839882139
 20
8.3434287861
 30
0.0
 10
12.2840123703
 20
8.3426714662
 30
0.0
 10
12.2840168168
 20
8.3420801688
 30
0.0
 10
12.2840735202
 20
8.341577964
 30
0.0
 10
12.284130897
 20
8.340877281
 30
0.0
 10
12.2842397989
 20
8.339665565
 30
0.0
 10
12.2843909331
 20
8.3379269722
 30
0.0
 10
12.2845741946
 20
8.335843901
 30
0.0
 10
12.2848178794
 20
8.3330653409
 30
0.0
 10
12.2851227133
 20
8.3295925295
 30
0.0
 10
12.2854884157
 20
8.3254249877
 30
0.0
 10
12.2858541467
 20
8.3212574965
 30
0.0
 10
12.2861589092
 20
8.3177845586
 30
0.0
 10
12.2864027369
 20
8.3150062516
 30
0.0
 10
12.2865550916
 20
8.3132697157
 30
0.0
 10
12.2866770612
 20
8.3118807017
 30
0.0
 10
12.2867683037
 20
8.3108383536
 30
0.0
 10
12.2868450854
 20
8.3099715992
 30
0.0
 10
12.286897368
 20
8.3093612033
 30
0.0
 10
12.2869295307
 20
8.3090181326
 30
0.0
 10
12.2869472104
 20
8.3087446968
 30
0.0
 10
12.286989516
 20
8.3085329285
 30
0.0
 10
12.2870373337
 20
8.3082290605
 30
0.0
 10
12.2871250168
 20
8.3077073136
 30
0.0
 10
12.2872481861
 20
8.3069567211
 30
0.0
 10
12.2873968848
 20
8.3060582529
 30
0.0
 10
12.2875948368
 20
8.304859512
 30
0.0
 10
12.2878423841
 20
8.3033613541
 30
0.0
 10
12.2882383997
 20
8.3009641514
 30
0.0
 10
12.28873344
 20
8.2979676999
 30
0.0
 10
12.2893274789
 20
8.2943719342
 30
0.0
 10
12.2899215225
 20
8.2907761813
 30
0.0
 10
12.2904165511
 20
8.2877796978
 30
0.0
 10
12.2908125901
 20
8.2853825591
 30
0.0
 10
12.2910600781
 20
8.2838842386
 30
0.0
 10
12.2912581517
 20
8.2826858314
 30
0.0
 10
12.2914064791
 20
8.2817863434
 30
0.0
 10
12.2915308099
 20
8.2810389417
 30
0.0
 10
12.2916164195
 20
8.2805114989
 30
0.0
 10
12.2916675595
 20
8.280216757
 30
0.0
 10
12.2916996599
 20
8.2799769561
 30
0.0
 10
12.2917556688
 20
8.2798088065
 30
0.0
 10
12.2918220077
 20
8.2795596142
 30
0.0
 10
12.2919419865
 20
8.2791351724
 30
0.0
 10
12.2921113532
 20
8.278522739
 30
0.0
 10
12.2923154628
 20
8.2777904247
 30
0.0
 10
12.2925873053
 20
8.2768130955
 30
0.0
 10
12.2929272123
 20
8.2755917456
 30
0.0
 10
12.2934710055
 20
8.2736374116
 30
0.0
 10
12.2941507669
 20
8.2711945545
 30
0.0
 10
12.2949664717
 20
8.2682630977
 30
0.0
 10
12.2957821804
 20
8.265331657
 30
0.0
 10
12.296461932
 20
8.2628887598
 30
0.0
 10
12.297005745
 20
8.2609345057
 30
0.0
 10
12.2973456016
 20
8.2597129529
 30
0.0
 10
12.2976175476
 20
8.2587360403
 30
0.0
 10
12.2978213407
 20
8.2580024532
 30
0.0
 10
12.2979916979
 20
8.2573940022
 30
0.0
 10
12.2981099084
 20
8.256962451
 30
0.0
 10
12.2981790805
 20
8.2567246498
 30
0.0
 10
12.2982263867
 20
8.2565215105
 30
0.0
 10
12.2982911729
 20
8.2564131251
 30
0.0
 10
12.2983714572
 20
8.2562355601
 30
0.0
 10
12.2985147956
 20
8.2559402205
 30
0.0
 10
12.2987180795
 20
8.2555102559
 30
0.0
 10
12.298962656
 20
8.2549977444
 30
0.0
 10
12.2992885358
 20
8.254313192
 30
0.0
 10
12.2996959617
 20
8.2534579138
 30
0.0
 10
12.3003478005
 20
8.2520892382
 30
0.0
 10
12.3011626137
 20
8.2503784732
 30
0.0
 10
12.302140383
 20
8.2483255189
 30
0.0
 10
12.3031181553
 20
8.2462725829
 30
0.0
 10
12.3039329608
 20
8.244561772
 30
0.0
 10
12.3045848152
 20
8.2431931884
 30
0.0
 10
12.3049922016
 20
8.2423376763
 30
0.0
 10
12.3053181623
 20
8.2416536039
 30
0.0
 10
12.3055624917
 20
8.2411396262
 30
0.0
 10
12.3057665486
 20
8.2407142488
 30
0.0
 10
12.3059085071
 20
8.2404107203
 30
0.0
 10
12.3059910023
 20
8.2402462759
 30
0.0
 10
12.3060489974
 20
8.2400975882
 30
0.0
 10
12.3061218098
 20
8.2400458178
 30
0.0
 10
12.3062137245
 20
8.2399429848
 30
0.0
 10
12.3063769834
 20
8.2397787777
 30
0.0
 10
12.3066089515
 20
8.2395359616
 30
0.0
 10
12.306887852
 20
8.2392481069
 30
0.0
 10
12.3072595311
 20
8.2388630696
 30
0.0
 10
12.3077241945
 20
8.2383821944
 30
0.0
 10
12.3084676198
 20
8.2376125586
 30
0.0
 10
12.3093969139
 20
8.2366505946
 30
0.0
 10
12.3105120615
 20
8.2354962037
 30
0.0
 10
12.3114413522
 20
8.2345342171
 30
0.0
 10
12.312184785
 20
8.233764631
 30
0.0
 10
12.3127423582
 20
8.2331874283
 30
0.0
 10
12.3132999366
 20
8.2326102764
 30
0.0
 10
12.3137645693
 20
8.2321291582
 30
0.0
 10
12.3141363112
 20
8.2317446181
 30
0.0
 10
12.3144150201
 20
8.2314552445
 30
0.0
 10
12.3146475877
 20
8.2312171808
 30
0.0
 10
12.3148097762
 20
8.2310444898
 30
0.0
 10
12.314903406
 20
8.2309552502
 30
0.0
 10
12.3149709505
 20
8.2308617253
 30
0.0
 10
12.3150487309
 20
8.2308698604
 30
0.0
 10
12.3151488678
 20
8.230845247
 30
0.0
 10
12.3153257709
 20
8.230818695
 30
0.0
 10
12.3155776198
 20
8.2307721261
 30
0.0
 10
12.3158802109
 20
8.2307199405
 30
0.0
 10
12.3162835355
 20
8.2306490683
 30
0.0
 10
12.3167877359
 20
8.2305609212
 30
0.0
 10
12.3173927573
 20
8.2304549547
 30
0.0
 10
12.3179977838
 20
8.230349039
 30
0.0
 10
12.318804484
 20
8.2302078003
 30
0.0
 10
12.31981286
 20
8.2300312585
 30
0.0
 10
12.3208212355
 20
8.2298547123
 30
0.0
 10
12.3216279363
 20
8.2297134808
 30
0.0
 10
12.322232961
 20
8.2296075434
 30
0.0
 10
12.3228379894
 20
8.2295016584
 30
0.0
 10
12.3233421678
 20
8.2294132576
 30
0.0
 10
12.3237455374
 20
8.2293429027
 30
0.0
 10
12.3240479912
 20
8.2292891373
 30
0.0
 10
12.3243002695
 20
8.2292475112
 30
0.0
 10
12.3244764061
 20
8.2292121355
 30
0.0
 10
12.3245777711
 20
8.22920166
 30
0.0
 10
12.324651779
 20
8.2291663679
 30
0.0
 10
12.3247334927
 20
8.229235948
 30
0.0
 10
12.3248397564
 20
8.2292921409
 30
0.0
 10
12.3250269702
 20
8.229407522
 30
0.0
 10
12.3252937638
 20
8.2295634416
 30
0.0
 10
12.3256141964
 20
8.2297543591
 30
0.0
 10
12.3260413419
 20
8.2300075835
 30
0.0
 10
12.3265753074
 20
8.2303245712
 30
0.0
 10
12.3272160516
 20
8.2307047604
 30
0.0
 10
12.3278567996
 20
8.2310850021
 30
0.0
 10
12.328711129
 20
8.2315919727
 30
0.0
 10
12.3297790412
 20
8.2322256922
 30
0.0
 10
12.3310605356
 20
8.2329861529
 30
0.0
 10
12.3327691949
 20
8.2340001014
 30
0.0
 10
12.3340506893
 20
8.2347605626
 30
0.0
 10
12.334905019
 20
8.2352675368
 30
0.0
  0
ENDSEC
  0
SECTION
  2
OBJECTS
  0
DICTIONARY
  5
C
100
AcDbDictionary
280
0
281
1
  3
ACAD_GROUP
350
D
  3
ACAD_MLINESTYLE
350
17
  3
ACAD_LAYOUT
350
1A
  3
ACAD_PLOTSETTINGS
350
19
  3
ACAD_PLOTSTYLENAME
350
E
  3
ACAD_IMAGE_DICT
350
       3D4
  3
ACAD_IMAGE_VARS
350
       3D5
  3
ACAD_TABLESTYLE
350
       3D6
  0
IMAGEDEF_REACTOR
  5
3D3
100
AcDbRasterImageDefReactor
 90
2
330
28B
  0
DICTIONARY
  5
D
102
{ACAD_REACTORS
330
C
102
}
100
AcDbDictionary
280
0
281
1
  0
ACDBDICTIONARYWDFLT
  5
E
102
{ACAD_REACTORS
330
C
102
}
100
AcDbDictionary
281
1
  3
Normal
350
F
100
AcDbDictionaryWithDefault
340
F
  0
DICTIONARY
  5
3D4
330
C
100
AcDbDictionary
281
1
  3
BMC_assy_2_img_1
350
       3D9
  0
RASTERVARIABLES
  5
3D5
330
C
100
AcDbRasterVariables
 90
0
 70
0
 71
1
 72
5
  0
DICTIONARY
  5
17
102
{ACAD_REACTORS
330
C
102
}
100
AcDbDictionary
280
0
281
1
  3
Standard
350
18
  0
DICTIONARY
  5
3D6
330
C
100
AcDbDictionary
281
1
  3
Standard
350
       3DA
  3
Standard1
350
       3DB
  0
DICTIONARY
  5
19
102
{ACAD_REACTORS
330
C
102
}
100
AcDbDictionary
281
1
  0
DICTIONARY
  5
1A
102
{ACAD_REACTORS
330
C
102
}
100
AcDbDictionary
281
1
  3
Model
350
3D7
  3
Layout1
350
3D8
  0
ACDBPLACEHOLDER
  5
F
102
{ACAD_REACTORS
330
E
102
}
  0
MLINESTYLE
  5
18
102
{ACAD_REACTORS
330
17
102
}
100
AcDbMlineStyle
  2
STANDARD
 70
0
  3

 62
256
 51
90.0
 52
90.0
 71
2
 49
0.5
 62
256
  6
BYLAYER
 49
-0.5
 62
256
  6
BYLAYER
  0
LAYOUT
  5
3D7
102
{ACAD_REACTORS
330
1A
102
}
100
AcDbPlotSettings
  1

  2
none_device
  4
ANSI_C_(22.00_x_17.00_Inches)
  6

 40
0.0
 41
0.0
 42
0.0
 43
0.0
 44
558.8
 45
431.8
 46
0.0
 47
0.0
 48
0.0
 49
0.0
140
0.0
141
0.0
142
1.0
143
1.0
 70
1024
 72
0
 73
0
 74
0
  7

 75
0
147
1.0
148
0.0
149
0.0
100
AcDbLayout
  1
Model
 70
0
 71
0
 10
0.0
 20
0.0
 11
22.0
 21
17.0
 12
0.0
 22
0.0
 32
0.0
 14
0.0
 24
0.0
 34
0.0
 15
0.0
 25
0.0
 35
0.0
146
0.0
 13
0.0
 23
0.0
 33
0.0
 16
1.0
 26
0.0
 36
0.0
 17
0.0
 27
1.0
 37
0.0
 76
0
330
20C
345
0
346
0
  0
LAYOUT
  5
3D8
102
{ACAD_REACTORS
330
1A
102
}
100
AcDbPlotSettings
  1

  2
none_device
  4
ANSI_C_(22.00_x_17.00_Inches)
  6

 40
0.0
 41
0.0
 42
0.0
 43
0.0
 44
558.8
 45
431.8
 46
0.0
 47
0.0
 48
0.0
 49
0.0
140
0.0
141
0.0
142
1.0
143
1.0
 70
0
 72
0
 73
0
 74
0
  7

 75
0
147
1.0
148
0.0
149
0.0
100
AcDbLayout
  1
Layout1
 70
0
 71
1
 10
0.0
 20
0.0
 11
22.0
 21
17.0
 12
0.0
 22
0.0
 32
0.0
 14
0.0
 24
0.0
 34
0.0
 15
0.0
 25
0.0
 35
0.0
146
0.0
 13
0.0
 23
0.0
 33
0.0
 16
1.0
 26
0.0
 36
0.0
 17
0.0
 27
1.0
 37
0.0
 76
0
330
20D
345
0
346
0
  0
IMAGEDEF
  5
3D9
102
{ACAD_REACTORS
330
3D4
330
3D3
102
}
100
AcDbRasterImageDef
 90
0
  1
BMC_assy_2_img_1.png
 10
369.0
 20
92.0
 11
0.0066666667
 21
0.0066666667
280
1
281
0
  0
TABLESTYLE
  5
3DA
102
{ACAD_REACTORS
330
3D6
330
28E
330
28F
102
}
330
3D6
100
AcDbTableStyle
  3
Standard
 70
0
 71
0
 40
0.06
 41
0.06
280
1
281
1
  7
Standard
140
0.18
170
1
 62
0
 63
7
283
0
  7
Standard
140
0.18
170
1
 62
0
 63
7
283
0
  7
Standard
140
0.18
170
1
 62
0
 63
7
283
0
  0
TABLESTYLE
  5
3DB
102
{ACAD_REACTORS
330
3D6
330
28D
102
}
330
3D6
100
AcDbTableStyle
  3
Standard1
 70
1
 71
0
 40
0.06
 41
0.06
280
1
281
1
  7
Standard
140
0.18
170
1
 62
0
 63
7
283
0
  7
Standard
140
0.18
170
1
 62
0
 63
7
283
0
  7
Standard
140
0.18
170
1
 62
0
 63
7
283
0
  0
ENDSEC
  0
EOF
