999
DXF file: BK9_assy_2.dxf
999
Pro/ENGINEER 2014200 by Parametric Technology Corporation
  0
SECTION
  2
HEADER
  9
$ACADVER
  1
AC1021
  9
$DWGCODEPAGE
  3
ANSI_1252
  9
$EXTMAX
 10
22.0
 20
17.0
 30
0.0
  9
$EXTMIN
 10
0.0
 20
0.0
 30
0.0
  9
$LIMMIN
 10
0.0
 20
0.0
  9
$LIMMAX
 10
22.0
 20
17.0
  9
$VIEWCTR
 10
11.0
 20
8.5
  9
$VIEWSIZE
 40
17.0
  9
$CLAYER
  8
0
  9
$LTSCALE
 40
1.21
  9
$CELTYPE
  6
BYLAYER
  9
$DIMSCALE
 40
1.0
  9
$DIMASZ
 40
0.1875
  9
$DIMEXO
 40
0.0625
  9
$DIMDLI
 40
0.836
  9
$DIMEXE
 40
0.125
  9
$DIMCEN
 40
0.198
  9
$DIMLFAC
 40
1.0
  9
$DIMBLK
  1
_FILLED
  9
$DIMTXT
 40
0.1
  9
$DIMTOL
 70
0
  9
$DIMLIM
 70
0
  9
$DIMTFAC
 40
1.0
  9
$DIMGAP
 40
0.09
  9
$DIMDSEP
 70
46
  9
$AUNITS
 70
0
  9
$PDMODE
 70
3
  9
$PDSIZE
 40
0.3125
  9
$HANDSEED
  5
380
  9
$TILEMODE
 70
1
  9
$MEASUREMENT
 70
0
  9
$INSUNITS
 70
1
  0
ENDSEC
  0
SECTION
  2
CLASSES
  0
CLASS
  1
ACDBDICTIONARYWDFLT
  2
AcDbDictionaryWithDefault
  3
AutoCAD 2000
 90
0
 91
1
280
0
281
0
  0
CLASS
  1
ACDBPLACEHOLDER
  2
AcDbPlaceHolder
  3
AutoCAD 2000
 90
0
 91
1
280
0
281
0
  0
CLASS
  1
LAYOUT
  2
AcDbLayout
  3
AutoCAD 2000
 90
0
 91
0
280
0
281
0
  0
CLASS
  1
RASTERVARIABLES
  2
AcDbRasterVariables
  3
ISM
 90
0
 91
1
280
0
281
0
  0
CLASS
  1
IMAGEDEF
  2
AcDbRasterImageDef
  3
ISM
 90
0
 91
1
280
0
281
0
  0
CLASS
  1
IMAGEDEF_REACTOR
  2
AcDbRasterImageDefReactor
  3
ISM
 90
0
 91
1
280
0
281
0
  0
CLASS
  1
IMAGE
  2
AcDbRasterImage
  3
ISM
 90
127
 91
1
280
0
281
1
  0
CLASS
  1
TABLESTYLE
  2
AcDbTableStyle
  3
ObjectDBX Classes
 90
2047
 91
1
280
0
281
0
  0
CLASS
  1
ACAD_TABLE
  2
AcDbTable
  3
ObjectDBX Classes
 90
1025
 91
2
280
0
281
1
  0
ENDSEC
  0
SECTION
  2
TABLES
  0
TABLE
  2
VPORT
  5
8
100
AcDbSymbolTable
 70
2
  0
VPORT
  5
1F4
100
AcDbSymbolTableRecord
100
AcDbViewportTableRecord
  2
*ACTIVE
 70
0
 10
0.0
 20
0.0
 11
1.0
 21
1.0
 12
11.0
 22
8.5
 13
0.0
 23
0.0
 14
1.0
 24
1.0
 15
0.0
 25
0.0
 16
0.0
 26
0.0
 36
1.0
 17
0.0
 27
0.0
 37
0.0
 40
17.0
 41
1.2941176471
 42
50.0
 43
0.0
 44
0.0
 50
0.0
 51
0.0
 71
0
 72
100
 73
1
 74
1
 75
0
 76
0
 77
0
 78
0
  0
ENDTAB
  0
TABLE
  2
LTYPE
  5
5
100
AcDbSymbolTable
 70
6
  0
LTYPE
  5
14
100
AcDbSymbolTableRecord
100
AcDbLinetypeTableRecord
  2
BYBLOCK
 70
0
  3

 72
65
 73
0
 40
0.0
  0
LTYPE
  5
15
100
AcDbSymbolTableRecord
100
AcDbLinetypeTableRecord
  2
BYLAYER
 70
0
  3

 72
65
 73
0
 40
0.0
  0
LTYPE
  5
16
100
AcDbSymbolTableRecord
100
AcDbLinetypeTableRecord
  2
CONTINUOUS
 70
64
  3
Solid line
 72
65
 73
0
 40
0.0
  0
LTYPE
  5
1F5
100
AcDbSymbolTableRecord
100
AcDbLinetypeTableRecord
  2
CENTER
 70
64
  3
____ _ ____ _ ____ _ ____ _ ____ _ ____ _ ____
 72
65
 73
4
 40
0.6
 49
0.375
 74
0
 49
-0.075
 74
0
 49
0.075
 74
0
 49
-0.075
 74
0
  0
LTYPE
  5
1F6
100
AcDbSymbolTableRecord
100
AcDbLinetypeTableRecord
  2
HIDDEN
 70
64
  3
- - - - - - - - - - - - - - - - - - - -
 72
65
 73
2
 40
0.2
 49
0.1
 74
0
 49
-0.1
 74
0
  0
LTYPE
  5
1F7
100
AcDbSymbolTableRecord
100
AcDbLinetypeTableRecord
  2
PHANTOM
 70
64
  3
_____ _ _ _____ _ _ _____ _ _ _____
 72
65
 73
6
 40
0.8
 49
0.45
 74
0
 49
-0.05
 74
0
 49
0.1
 74
0
 49
-0.05
 74
0
 49
0.1
 74
0
 49
-0.05
 74
0
  0
LTYPE
  5
1F8
100
AcDbSymbolTableRecord
100
AcDbLinetypeTableRecord
  2
DOT
 70
64
  3
. . . . . . . . . . . . . . . . . . . .
 72
65
 73
2
 40
0.2
 49
0.1
 74
0
 49
-0.1
 74
0
  0
LTYPE
  5
1F9
100
AcDbSymbolTableRecord
100
AcDbLinetypeTableRecord
  2
DASHED
 70
64
  3
- - - - - - - - - - - - - - - - - - - -
 72
65
 73
2
 40
0.2
 49
0.1
 74
0
 49
-0.1
 74
0
  0
ENDTAB
  0
TABLE
  2
LAYER
  5
2
100
AcDbSymbolTable
 70
36
  0
LAYER
  5
10
100
AcDbSymbolTableRecord
100
AcDbLayerTableRecord
  2
0
 70
0
 62
7
  6
CONTINUOUS
370
-3
390
F
  0
LAYER
  5
1FA
100
AcDbSymbolTableRecord
100
AcDbLayerTableRecord
  2
DEFAULT_1
 70
0
 62
7
  6
CENTER
370
-3
390
F
  0
LAYER
  5
1FB
100
AcDbSymbolTableRecord
100
AcDbLayerTableRecord
  2
DEFAULT_2
 70
0
 62
8
  6
HIDDEN
370
-3
390
F
  0
LAYER
  5
1FC
100
AcDbSymbolTableRecord
100
AcDbLayerTableRecord
  2
DEFAULT_3
 70
0
 62
7
  6
PHANTOM
370
-3
390
F
  0
LAYER
  5
1FD
100
AcDbSymbolTableRecord
100
AcDbLayerTableRecord
  2
DATUM_PLANES
 70
0
 62
7
  6
CONTINUOUS
370
-3
390
F
  0
LAYER
  5
1FE
100
AcDbSymbolTableRecord
100
AcDbLayerTableRecord
  2
DIMENSIONS
 70
0
 62
7
  6
CONTINUOUS
370
-3
390
F
  0
LAYER
  5
1FF
100
AcDbSymbolTableRecord
100
AcDbLayerTableRecord
  2
PARAMETERDIMENSIONS
 70
0
 62
7
  6
CONTINUOUS
370
-3
390
F
  0
LAYER
  5
200
100
AcDbSymbolTableRecord
100
AcDbLayerTableRecord
  2
PLANE
 70
0
 62
7
  6
CONTINUOUS
370
-3
390
F
  0
LAYER
  5
201
100
AcDbSymbolTableRecord
100
AcDbLayerTableRecord
  2
PORT_AREAS
 70
0
 62
7
  6
CONTINUOUS
370
-3
390
F
  0
LAYER
  5
202
100
AcDbSymbolTableRecord
100
AcDbLayerTableRecord
  2
SUNNBOMCOSMETIC
 70
0
 62
7
  6
CONTINUOUS
370
-3
390
F
  0
LAYER
  5
203
100
AcDbSymbolTableRecord
100
AcDbLayerTableRecord
  2
SUNNBOMSTAMPING
 70
0
 62
7
  6
CONTINUOUS
370
-3
390
F
  0
LAYER
  5
204
100
AcDbSymbolTableRecord
100
AcDbLayerTableRecord
  2
THREADS
 70
0
 62
7
  6
CONTINUOUS
370
-3
390
F
  0
ENDTAB
  0
TABLE
  2
STYLE
  5
3
100
AcDbSymbolTable
 70
1
  0
STYLE
  5
11
100
AcDbSymbolTableRecord
100
AcDbTextStyleTableRecord
  2
STANDARD
 70
0
 40
0.0
 41
0.8
 50
0.0
 71
0
 42
0.2
  3
txt
  4

  0
STYLE
  5
205
100
AcDbSymbolTableRecord
100
AcDbTextStyleTableRecord
  2
TEXTSTYLE_1
 70
0
 40
0.0
 41
0.8
 50
0.0
 71
0
 42
0.2
  3
gdt
  4

  0
ENDTAB
  0
TABLE
  2
VIEW
  5
6
100
AcDbSymbolTable
 70
0
  0
ENDTAB
  0
TABLE
  2
UCS
  5
7
100
AcDbSymbolTable
 70
0
  0
ENDTAB
  0
TABLE
  2
APPID
  5
9
100
AcDbSymbolTable
 70
1
  0
APPID
  5
206
100
AcDbSymbolTableRecord
100
AcDbRegAppTableRecord
  2
ACAD
 70
0
  0
ENDTAB
  0
TABLE
  2
BLOCK_RECORD
  5
1
100
AcDbSymbolTable
 70
0
  0
BLOCK_RECORD
  5
207
100
AcDbSymbolTableRecord
100
AcDbBlockTableRecord
  2
*Model_Space
  0
BLOCK_RECORD
  5
208
100
AcDbSymbolTableRecord
100
AcDbBlockTableRecord
  2
*Paper_Space
  0
BLOCK_RECORD
  5
209
100
AcDbSymbolTableRecord
100
AcDbBlockTableRecord
  2
SUN_FIRST_THIRD_ANGLE_BL0
  0
BLOCK_RECORD
  5
20A
100
AcDbSymbolTableRecord
100
AcDbBlockTableRecord
  2
*T1
  0
BLOCK_RECORD
  5
20B
100
AcDbSymbolTableRecord
100
AcDbBlockTableRecord
  2
*T2
  0
ENDTAB
  0
TABLE
  2
DIMSTYLE
  5
A
100
AcDbSymbolTable
 70
1
100
AcDbDimStyleTable
 71
0
  0
DIMSTYLE
105
20C
100
AcDbSymbolTableRecord
100
AcDbDimStyleTableRecord
  2
STANDARD
 70
0
  3

  4

 40
1.0
 41
0.1875
 42
0.0625
 43
0.38
 44
0.125
 45
0.0
 46
0.0
 47
0.001
 48
0.001
140
0.1
141
0.09
142
0.0
143
25.4
144
1.0
145
0.0
146
1.0
147
0.09
 71
0.0
 72
0.0
 73
1
 74
1
 75
0
 76
0
 77
0
 78
4
170
0
171
2
172
0
173
0
174
0
175
0
176
0
177
0
178
0
270
2
271
3
272
3
273
2
274
2
275
0
280
0
281
0
282
0
283
1
284
4
285
0
286
0
287
3
288
0
340
11
278
46
  0
ENDTAB
  0
ENDSEC
  0
SECTION
  2
BLOCKS
  0
BLOCK
  5
20
100
AcDbEntity
  8
0
100
AcDbBlockBegin
  2
*Model_Space
 70
0
 10
0.0
 20
0.0
 30
0.0
  3
*Model_Space
  1

  0
ENDBLK
  5
21
100
AcDbEntity
  8
0
100
AcDbBlockEnd
  0
BLOCK
  5
1C
100
AcDbEntity
  8
0
100
AcDbBlockBegin
  2
*Paper_Space
 70
0
 10
0.0
 20
0.0
 30
0.0
  3
*Paper_Space
  1

  0
ENDBLK
  5
1D
100
AcDbEntity
  8
0
100
AcDbBlockEnd
  0
BLOCK
  5
20D
100
AcDbEntity
  8
0
100
AcDbBlockBegin
 62
2
  6
CONTINUOUS
  2
SUN_FIRST_THIRD_ANGLE_BL0
 70
64
 10
20.4816717061
 20
1.2289683772
  3
SUN_FIRST_THIRD_ANGLE_BL0
  1

  0
TEXT
  5
20E
100
AcDbEntity
  8
0
100
AcDbText
 62
2
  6
CONTINUOUS
 10
19.4750896608
 20
1.4136269581
  7
STANDARD
 40
0.08
  1
FIRST ANGLE
 41
0.8
 72
0
100
AcDbText
  0
TEXT
  5
20F
100
AcDbEntity
  8
0
100
AcDbText
 62
2
  6
CONTINUOUS
 10
20.7842537513
 20
1.4047600029
  7
STANDARD
 40
0.08
  1
THIRD ANGLE
 41
0.8
 72
0
100
AcDbText
  0
LINE
  5
210
100
AcDbEntity
  8
0
100
AcDbLine
 62
7
  6
CONTINUOUS
 10
19.4767170086
 20
1.1727031207
 11
19.6334271527
 21
1.1717972817
  0
LINE
  5
211
100
AcDbEntity
  8
0
100
AcDbLine
 62
7
  6
CONTINUOUS
 10
19.6596964832
 20
1.1717972817
 11
19.6950230232
 21
1.171593082
  0
LINE
  5
212
100
AcDbEntity
  8
0
100
AcDbLine
 62
7
  6
CONTINUOUS
 10
19.7194818561
 20
1.1708914427
 11
19.8852396156
 21
1.1699333054
  0
LINE
  5
213
100
AcDbEntity
  8
0
100
AcDbLine
 62
7
  6
CONTINUOUS
 10
19.4758111696
 20
1.2723454088
 11
19.88525039
 21
1.3511534004
  0
LINE
  5
214
100
AcDbEntity
  8
0
100
AcDbLine
 62
7
  6
CONTINUOUS
 10
19.88525039
 20
1.3511534004
 11
19.8831348489
 21
0.9851647912
  0
LINE
  5
215
100
AcDbEntity
  8
0
100
AcDbLine
 62
7
  6
CONTINUOUS
 10
19.8831348489
 20
0.9851647912
 11
19.4767170086
 21
1.0658141206
  0
LINE
  5
216
100
AcDbEntity
  8
0
100
AcDbLine
 62
7
  6
CONTINUOUS
 10
19.4767170086
 20
1.0658141206
 11
19.4779056764
 21
1.2714536432
  0
CIRCLE
  5
217
100
AcDbEntity
  8
0
100
AcDbCircle
 62
7
  6
CONTINUOUS
 10
20.2068232291
 20
1.1717972817
 40
0.175742101
  0
CIRCLE
  5
218
100
AcDbEntity
  8
0
100
AcDbCircle
 62
7
  6
CONTINUOUS
 10
20.2068232291
 20
1.1717972817
 40
0.1005522074
  0
LINE
  5
219
100
AcDbEntity
  8
0
100
AcDbLine
 62
7
  6
CONTINUOUS
 10
20.2077290681
 20
1.3756110529
 11
20.2071171714
 21
1.2379342989
  0
LINE
  5
21A
100
AcDbEntity
  8
0
100
AcDbLine
 62
7
  6
CONTINUOUS
 10
20.2077290681
 20
1.2016899681
 11
20.2074674401
 21
1.1428236749
  0
LINE
  5
21B
100
AcDbEntity
  8
0
100
AcDbLine
 62
7
  6
CONTINUOUS
 10
20.208634907
 20
1.101141841
 11
20.2080230104
 21
0.963465087
  0
LINE
  5
21C
100
AcDbEntity
  8
0
100
AcDbLine
 62
7
  6
CONTINUOUS
 10
20.0066328138
 20
1.1745147986
 11
20.1443095678
 21
1.1739029019
  0
LINE
  5
21D
100
AcDbEntity
  8
0
100
AcDbLine
 62
7
  6
CONTINUOUS
 10
20.1832714155
 20
1.1727031207
 11
20.238153505
 21
1.172335442
  0
LINE
  5
21E
100
AcDbEntity
  8
0
100
AcDbLine
 62
7
  6
CONTINUOUS
 10
20.2756669918
 20
1.1717972817
 11
20.407916871
 21
1.1712095044
  0
CIRCLE
  5
21F
100
AcDbEntity
  8
0
100
AcDbCircle
 62
7
  6
CONTINUOUS
 10
20.7509457401
 20
1.1693297793
 40
0.1722024983
  0
CIRCLE
  5
220
100
AcDbEntity
  8
0
100
AcDbCircle
 62
7
  6
CONTINUOUS
 10
20.7509457401
 20
1.1693297793
 40
0.0985164967
  0
LINE
  5
221
100
AcDbEntity
  8
0
100
AcDbLine
 62
7
  6
CONTINUOUS
 10
20.7169767782
 20
1.170462078
 11
20.7825395137
 21
1.1682766535
  0
LINE
  5
222
100
AcDbEntity
  8
0
100
AcDbLine
 62
7
  6
CONTINUOUS
 10
20.8177513651
 20
1.1693297793
 11
20.947965719
 21
1.1693297793
  0
LINE
  5
223
100
AcDbEntity
  8
0
100
AcDbLine
 62
7
  6
CONTINUOUS
 10
20.6875370113
 20
1.170462078
 11
20.5573226574
 21
1.170462078
  0
LINE
  5
224
100
AcDbEntity
  8
0
100
AcDbLine
 62
7
  6
CONTINUOUS
 10
20.7486811426
 20
1.1987695462
 11
20.7486811426
 21
1.1432869085
  0
LINE
  5
225
100
AcDbEntity
  8
0
100
AcDbLine
 62
7
  6
CONTINUOUS
 10
20.7498134414
 20
1.1059210505
 11
20.7498134414
 21
0.9757066966
  0
LINE
  5
226
100
AcDbEntity
  8
0
100
AcDbLine
 62
7
  6
CONTINUOUS
 10
20.7486811426
 20
1.2338708068
 11
20.7486811426
 21
1.3640851607
  0
LINE
  5
227
100
AcDbEntity
  8
0
100
AcDbLine
 62
7
  6
CONTINUOUS
 10
21.0702539817
 20
1.2701043662
 11
21.4790138229
 21
1.3448360823
  0
LINE
  5
228
100
AcDbEntity
  8
0
100
AcDbLine
 62
7
  6
CONTINUOUS
 10
21.4790138229
 20
1.3448360823
 11
21.4790138229
 21
0.9779712941
  0
LINE
  5
229
100
AcDbEntity
  8
0
100
AcDbLine
 62
7
  6
CONTINUOUS
 10
21.4790138229
 20
0.9779712941
 11
21.069121683
 21
1.0617614
  0
LINE
  5
22A
100
AcDbEntity
  8
0
100
AcDbLine
 62
7
  6
CONTINUOUS
 10
21.0702539817
 20
1.2701043662
 11
21.069121683
 21
1.0617614
  0
LINE
  5
22B
100
AcDbEntity
  8
0
100
AcDbLine
 62
7
  6
CONTINUOUS
 10
21.4790138229
 20
1.1693297793
 11
21.3159628059
 21
1.1693297793
  0
LINE
  5
22C
100
AcDbEntity
  8
0
100
AcDbLine
 62
7
  6
CONTINUOUS
 10
21.2876553377
 20
1.1693297793
 11
21.2502894796
 21
1.1693297793
  0
LINE
  5
22D
100
AcDbEntity
  8
0
100
AcDbLine
 62
7
  6
CONTINUOUS
 10
21.2208497126
 20
1.1659328831
 11
21.0713862804
 21
1.1659328831
  0
LINE
  5
22E
100
AcDbEntity
  8
0
100
AcDbLine
 62
7
  6
CONTINUOUS
 10
20.4796138713
 20
1.5284908897
 11
20.4766766948
 21
0.9294458646
  0
ENDBLK
  5
22F
100
AcDbEntity
  8
0
  6
BYBLOCK
 62
0
100
AcDbBlockEnd
  0
BLOCK
  5
230
100
AcDbEntity
  8
0
100
AcDbBlockBegin
  2
*T1
 70
1
 10
0.0
 20
0.0
  3
*T1
  1

  0
LINE
  5
231
100
AcDbEntity
  8
0
100
AcDbLine
 62
2
  6
CONTINUOUS
 10
9.275
 20
0.0
 11
-0.0
 21
0.0
  0
LINE
  5
232
100
AcDbEntity
  8
0
100
AcDbLine
 62
2
  6
CONTINUOUS
 10
9.275
 20
0.0
 11
9.275
 21
1.25
  0
LINE
  5
233
100
AcDbEntity
  8
0
100
AcDbLine
 62
2
  6
CONTINUOUS
 10
9.275
 20
0.625
 11
-0.0
 21
0.625
  0
LINE
  5
234
100
AcDbEntity
  8
0
100
AcDbLine
 62
2
  6
CONTINUOUS
 10
9.275
 20
1.25
 11
-0.0
 21
1.25
  0
LINE
  5
235
100
AcDbEntity
  8
0
100
AcDbLine
 62
2
  6
CONTINUOUS
 10
6.8
 20
0.0
 11
6.8
 21
1.25
  0
LINE
  5
236
100
AcDbEntity
  8
0
100
AcDbLine
 62
2
  6
CONTINUOUS
 10
6.4
 20
0.0
 11
6.4
 21
0.625
  0
LINE
  5
237
100
AcDbEntity
  8
0
100
AcDbLine
 62
2
  6
CONTINUOUS
 10
5.9
 20
0.0
 11
5.9
 21
0.625
  0
LINE
  5
238
100
AcDbEntity
  8
0
100
AcDbLine
 62
2
  6
CONTINUOUS
 10
5.2
 20
0.0
 11
5.2
 21
0.625
  0
LINE
  5
239
100
AcDbEntity
  8
0
100
AcDbLine
 62
2
  6
CONTINUOUS
 10
4.1
 20
0.0
 11
4.1
 21
1.25
  0
LINE
  5
23A
100
AcDbEntity
  8
0
100
AcDbLine
 62
2
  6
CONTINUOUS
 10
-0.0
 20
0.0
 11
-0.0
 21
1.25
  0
MTEXT
  5
23B
100
AcDbEntity
  8
0
100
AcDbMText
 62
2
  6
CONTINUOUS
  7
STANDARD
 71
2
 72
1
 10
6.6
 20
0.325
 30
0.0
 11
1.0
 21
0.0
 31
0.0
 44
0.9
  1
2
 40
0.125
 41
0.2
  0
MTEXT
  5
23C
100
AcDbEntity
  8
0
100
AcDbMText
 62
2
  6
CONTINUOUS
  7
STANDARD
 71
2
 72
1
 10
6.15
 20
0.325
 30
0.0
 11
1.0
 21
0.0
 31
0.0
 44
0.9
  1
C
 40
0.125
 41
0.2
  0
MTEXT
  5
23D
100
AcDbEntity
  8
0
100
AcDbMText
 62
2
  6
CONTINUOUS
  7
STANDARD
 71
2
 72
1
 10
5.55
 20
0.325
 30
0.0
 11
1.0
 21
0.0
 31
0.0
 44
0.9
  1
1.000
 40
0.125
 41
1.0
  0
MTEXT
  5
23E
100
AcDbEntity
  8
0
100
AcDbMText
 62
2
  6
CONTINUOUS
  7
STANDARD
 71
2
 72
1
 10
4.65
 20
0.325
 30
0.0
 11
1.0
 21
0.0
 31
0.0
 44
0.9
  1
Oct-21-19
 40
0.125
 41
1.8
  0
MTEXT
  5
23F
100
AcDbEntity
  8
0
100
AcDbMText
 62
2
  6
CONTINUOUS
  7
STANDARD
 71
2
 72
1
 10
2.05
 20
0.4625
 30
0.0
 11
1.0
 21
0.0
 31
0.0
 44
0.9
  1
T-17A Sandwich ISO 07\P(See Technical Data for Body Features)
 40
0.125
 41
7.6
  0
MTEXT
  5
240
100
AcDbEntity
  8
0
100
AcDbMText
 62
2
  6
CONTINUOUS
  7
STANDARD
 71
1
 72
1
 10
6.45
 20
0.5625
 30
0.0
 11
1.0
 21
0.0
 31
0.0
 44
0.9
  1
SHEET
 40
0.06
 41
0.48
  0
MTEXT
  5
241
100
AcDbEntity
  8
0
100
AcDbMText
 62
2
  6
CONTINUOUS
  7
STANDARD
 71
1
 72
1
 10
5.95
 20
0.5625
 30
0.0
 11
1.0
 21
0.0
 31
0.0
 44
0.9
  1
DWG SIZE
 40
0.06
 41
0.768
  0
MTEXT
  5
242
100
AcDbEntity
  8
0
100
AcDbMText
 62
2
  6
CONTINUOUS
  7
STANDARD
 71
1
 72
1
 10
5.25
 20
0.5625
 30
0.0
 11
1.0
 21
0.0
 31
0.0
 44
0.9
  1
SCALE
 40
0.06
 41
0.48
  0
MTEXT
  5
243
100
AcDbEntity
  8
0
100
AcDbMText
 62
2
  6
CONTINUOUS
  7
STANDARD
 71
1
 72
1
 10
4.15
 20
0.5625
 30
0.0
 11
1.0
 21
0.0
 31
0.0
 44
0.9
  1
DATE
 40
0.06
 41
0.384
  0
MTEXT
  5
244
100
AcDbEntity
  8
0
100
AcDbMText
 62
2
  6
CONTINUOUS
  7
STANDARD
 71
1
 72
1
 10
0.05
 20
0.5625
 30
0.0
 11
1.0
 21
0.0
 31
0.0
 44
0.9
  1
DESCRIPTION
 40
0.06
 41
1.056
  0
MTEXT
  5
245
100
AcDbEntity
  8
0
100
AcDbMText
 62
2
  6
CONTINUOUS
  7
STANDARD
 71
2
 72
1
 10
5.45
 20
1.0375
 30
0.0
 11
1.0
 21
0.0
 31
0.0
 44
0.9
  1
ALL DIMENSIONS IN INCH\PVIEWS ARE THIRD ANGLE
 40
0.12
 41
4.224
  0
MTEXT
  5
246
100
AcDbEntity
  8
0
100
AcDbMText
 62
2
  6
CONTINUOUS
  7
STANDARD
 71
2
 72
1
 10
2.05
 20
0.95
 30
0.0
 11
1.0
 21
0.0
 31
0.0
 44
0.9
  1
BK9
 40
0.125
 41
0.6
  0
MTEXT
  5
247
100
AcDbEntity
  8
0
100
AcDbMText
 62
2
  6
CONTINUOUS
  7
STANDARD
 71
1
 72
1
 10
0.05
 20
1.1875
 30
0.0
 11
1.0
 21
0.0
 31
0.0
 44
0.9
  1
MODEL
 40
0.06
 41
0.48
  0
ENDBLK
  5
248
100
AcDbEntity
  8
0
  6
BYBLOCK
 62
0
100
AcDbBlockEnd
  0
BLOCK
  5
249
100
AcDbEntity
  8
0
100
AcDbBlockBegin
  2
*T2
 70
1
 10
0.0
 20
0.0
  3
*T2
  1

  0
LINE
  5
24A
100
AcDbEntity
  8
0
100
AcDbLine
 62
2
  6
CONTINUOUS
 10
0.0
 20
0.0
 11
9.055
 21
0.0
  0
LINE
  5
24B
100
AcDbEntity
  8
0
100
AcDbLine
 62
2
  6
CONTINUOUS
 10
0.0
 20
0.0
 11
0.0
 21
-2.594
  0
LINE
  5
24C
100
AcDbEntity
  8
0
100
AcDbLine
 62
2
  6
CONTINUOUS
 10
0.0
 20
-0.344
 11
9.055
 21
-0.344
  0
LINE
  5
24D
100
AcDbEntity
  8
0
100
AcDbLine
 62
2
  6
CONTINUOUS
 10
0.0
 20
-0.594
 11
9.055
 21
-0.594
  0
LINE
  5
24E
100
AcDbEntity
  8
0
100
AcDbLine
 62
2
  6
CONTINUOUS
 10
0.0
 20
-0.844
 11
9.055
 21
-0.844
  0
LINE
  5
24F
100
AcDbEntity
  8
0
100
AcDbLine
 62
2
  6
CONTINUOUS
 10
0.0
 20
-1.094
 11
9.055
 21
-1.094
  0
LINE
  5
250
100
AcDbEntity
  8
0
100
AcDbLine
 62
2
  6
CONTINUOUS
 10
0.0
 20
-1.344
 11
9.055
 21
-1.344
  0
LINE
  5
251
100
AcDbEntity
  8
0
100
AcDbLine
 62
2
  6
CONTINUOUS
 10
0.0
 20
-1.594
 11
9.055
 21
-1.594
  0
LINE
  5
252
100
AcDbEntity
  8
0
100
AcDbLine
 62
2
  6
CONTINUOUS
 10
0.0
 20
-1.844
 11
9.055
 21
-1.844
  0
LINE
  5
253
100
AcDbEntity
  8
0
100
AcDbLine
 62
2
  6
CONTINUOUS
 10
0.0
 20
-2.094
 11
9.055
 21
-2.094
  0
LINE
  5
254
100
AcDbEntity
  8
0
100
AcDbLine
 62
2
  6
CONTINUOUS
 10
0.0
 20
-2.344
 11
9.055
 21
-2.344
  0
LINE
  5
255
100
AcDbEntity
  8
0
100
AcDbLine
 62
2
  6
CONTINUOUS
 10
0.0
 20
-2.594
 11
9.055
 21
-2.594
  0
LINE
  5
256
100
AcDbEntity
  8
0
100
AcDbLine
 62
2
  6
CONTINUOUS
 10
3.055
 20
0.0
 11
3.055
 21
-2.594
  0
LINE
  5
257
100
AcDbEntity
  8
0
100
AcDbLine
 62
2
  6
CONTINUOUS
 10
9.055
 20
0.0
 11
9.055
 21
-2.594
  0
MTEXT
  5
258
100
AcDbEntity
  8
0
100
AcDbMText
 62
2
  6
CONTINUOUS
  7
STANDARD
 71
2
 72
1
 10
1.5275
 20
-0.0995
 30
0.0
 11
1.0
 21
0.0
 31
0.0
 44
0.9
  1
Technical Data
 40
0.145
 41
3.248
  0
MTEXT
  5
259
100
AcDbEntity
  8
0
100
AcDbMText
 62
2
  6
CONTINUOUS
  7
STANDARD
 71
2
 72
1
 10
4.555
 20
-0.0995
 30
0.0
 11
1.0
 21
0.0
 31
0.0
 44
0.9
  1
U.S. Units
 40
0.145
 41
2.32
  0
MTEXT
  5
25A
100
AcDbEntity
  8
0
100
AcDbMText
 62
2
  6
CONTINUOUS
  7
STANDARD
 71
2
 72
1
 10
7.555
 20
-0.0995
 30
0.0
 11
1.0
 21
0.0
 31
0.0
 44
0.9
  1
Metric Units
 40
0.145
 41
2.784
  0
MTEXT
  5
25B
100
AcDbEntity
  8
0
100
AcDbMText
 62
2
  6
CONTINUOUS
  7
STANDARD
 71
2
 72
1
 10
1.5275
 20
-0.4065
 30
0.0
 11
1.0
 21
0.0
 31
0.0
 44
0.9
  1
Cavity
 40
0.125
 41
1.2
  0
MTEXT
  5
25C
100
AcDbEntity
  8
0
100
AcDbMText
 62
2
  6
CONTINUOUS
  7
STANDARD
 71
2
 72
1
 10
6.055
 20
-0.4065
 30
0.0
 11
1.0
 21
0.0
 31
0.0
 44
0.9
  1
T-17A
 40
0.125
 41
1.0
  0
MTEXT
  5
25D
100
AcDbEntity
  8
0
100
AcDbMText
 62
2
  6
CONTINUOUS
  7
STANDARD
 71
2
 72
1
 10
1.5275
 20
-0.6565
 30
0.0
 11
1.0
 21
0.0
 31
0.0
 44
0.9
  1
Body Features
 40
0.125
 41
2.6
  0
MTEXT
  5
25E
100
AcDbEntity
  8
0
100
AcDbMText
 62
2
  6
CONTINUOUS
  7
STANDARD
 71
2
 72
1
 10
6.055
 20
-0.6565
 30
0.0
 11
1.0
 21
0.0
 31
0.0
 44
0.9
  1
Reducer on A and B with reverse flow check
 40
0.125
 41
8.4
  0
MTEXT
  5
25F
100
AcDbEntity
  8
0
100
AcDbMText
 62
2
  6
CONTINUOUS
  7
STANDARD
 71
2
 72
1
 10
1.5275
 20
-0.9065
 30
0.0
 11
1.0
 21
0.0
 31
0.0
 44
0.9
  1
Body Type
 40
0.125
 41
1.8
  0
MTEXT
  5
260
100
AcDbEntity
  8
0
100
AcDbMText
 62
2
  6
CONTINUOUS
  7
STANDARD
 71
2
 72
1
 10
6.055
 20
-0.9065
 30
0.0
 11
1.0
 21
0.0
 31
0.0
 44
0.9
  1
Sandwich
 40
0.125
 41
1.6
  0
MTEXT
  5
261
100
AcDbEntity
  8
0
100
AcDbMText
 62
2
  6
CONTINUOUS
  7
STANDARD
 71
2
 72
1
 10
1.5275
 20
-1.1565
 30
0.0
 11
1.0
 21
0.0
 31
0.0
 44
0.9
  1
Interface
 40
0.125
 41
1.8
  0
MTEXT
  5
262
100
AcDbEntity
  8
0
100
AcDbMText
 62
2
  6
CONTINUOUS
  7
STANDARD
 71
2
 72
1
 10
6.055
 20
-1.1565
 30
0.0
 11
1.0
 21
0.0
 31
0.0
 44
0.9
  1
ISO 07
 40
0.125
 41
1.2
  0
MTEXT
  5
263
100
AcDbEntity
  8
0
100
AcDbMText
 62
2
  6
CONTINUOUS
  7
STANDARD
 71
2
 72
1
 10
1.5275
 20
-1.4065
 30
0.0
 11
1.0
 21
0.0
 31
0.0
 44
0.9
  1
Open Cavity Quantity
 40
0.125
 41
4.0
  0
MTEXT
  5
264
100
AcDbEntity
  8
0
100
AcDbMText
 62
2
  6
CONTINUOUS
  7
STANDARD
 71
2
 72
1
 10
6.055
 20
-1.4065
 30
0.0
 11
1.0
 21
0.0
 31
0.0
 44
0.9
  1
2
 40
0.125
 41
0.2
  0
MTEXT
  5
265
100
AcDbEntity
  8
0
100
AcDbMText
 62
2
  6
CONTINUOUS
  7
STANDARD
 71
2
 72
1
 10
1.5275
 20
-1.6565
 30
0.0
 11
1.0
 21
0.0
 31
0.0
 44
0.9
  1
Stack Height
 40
0.125
 41
2.4
  0
MTEXT
  5
266
100
AcDbEntity
  8
0
100
AcDbMText
 62
2
  6
CONTINUOUS
  7
STANDARD
 71
2
 72
1
 10
4.555
 20
-1.6565
 30
0.0
 11
1.0
 21
0.0
 31
0.0
 44
0.9
  1
4.33 in.
 40
0.125
 41
1.6
  0
MTEXT
  5
267
100
AcDbEntity
  8
0
100
AcDbMText
 62
2
  6
CONTINUOUS
  7
STANDARD
 71
2
 72
1
 10
7.555
 20
-1.6565
 30
0.0
 11
1.0
 21
0.0
 31
0.0
 44
0.9
  1
110 mm
 40
0.125
 41
1.2
  0
MTEXT
  5
268
100
AcDbEntity
  8
0
100
AcDbMText
 62
2
  6
CONTINUOUS
  7
STANDARD
 71
2
 72
1
 10
1.5275
 20
-1.9065
 30
0.0
 11
1.0
 21
0.0
 31
0.0
 44
0.9
  1
Weight
 40
0.125
 41
1.2
  0
MTEXT
  5
269
100
AcDbEntity
  8
0
100
AcDbMText
 62
2
  6
CONTINUOUS
  7
STANDARD
 71
2
 72
1
 10
4.555
 20
-1.9065
 30
0.0
 11
1.0
 21
0.0
 31
0.0
 44
0.9
  1
10.509 lb.
 40
0.125
 41
2.0
  0
MTEXT
  5
26A
100
AcDbEntity
  8
0
100
AcDbMText
 62
2
  6
CONTINUOUS
  7
STANDARD
 71
2
 72
1
 10
7.555
 20
-1.9065
 30
0.0
 11
1.0
 21
0.0
 31
0.0
 44
0.9
  1
4,767 kg.
 40
0.125
 41
1.8
  0
MTEXT
  5
26B
100
AcDbEntity
  8
0
100
AcDbMText
 62
2
  6
CONTINUOUS
  7
STANDARD
 71
2
 72
1
 10
1.5275
 20
-2.1565
 30
0.0
 11
1.0
 21
0.0
 31
0.0
 44
0.9
  1
Check Cracking Pressure
 40
0.125
 41
4.6
  0
MTEXT
  5
26C
100
AcDbEntity
  8
0
100
AcDbMText
 62
2
  6
CONTINUOUS
  7
STANDARD
 71
2
 72
1
 10
4.555
 20
-2.1565
 30
0.0
 11
1.0
 21
0.0
 31
0.0
 44
0.9
  1
30 psi
 40
0.125
 41
1.2
  0
MTEXT
  5
26D
100
AcDbEntity
  8
0
100
AcDbMText
 62
2
  6
CONTINUOUS
  7
STANDARD
 71
2
 72
1
 10
7.555
 20
-2.1565
 30
0.0
 11
1.0
 21
0.0
 31
0.0
 44
0.9
  1
2 bar
 40
0.125
 41
1.0
  0
MTEXT
  5
26E
100
AcDbEntity
  8
0
100
AcDbMText
 62
2
  6
CONTINUOUS
  7
STANDARD
 71
2
 72
1
 10
1.5275
 20
-2.4065
 30
0.0
 11
1.0
 21
0.0
 31
0.0
 44
0.9
  1
Seal Plate Included (see notes)
 40
0.125
 41
6.2
  0
MTEXT
  5
26F
100
AcDbEntity
  8
0
100
AcDbMText
 62
2
  6
CONTINUOUS
  7
STANDARD
 71
2
 72
1
 10
6.055
 20
-2.4065
 30
0.0
 11
1.0
 21
0.0
 31
0.0
 44
0.9
  1
Yes
 40
0.125
 41
0.6
  0
ENDBLK
  5
270
100
AcDbEntity
  8
0
  6
BYBLOCK
 62
0
100
AcDbBlockEnd
  0
ENDSEC
  0
SECTION
  2
ENTITIES
  0
IMAGE
  5
271
100
AcDbEntity
  8
0
100
AcDbRasterImage
 62
7
  6
CONTINUOUS
 10
19.2297077316
 20
0.3094318264
 30
0.0
 11
0.0066666667
 21
0.0
 31
0.0
 12
0.0
 22
0.0066666667
 32
0.0
 13
369.0
 23
92.0
340
       37D
 70
9
280
0
281
50
282
50
283
0
360
       377
 71
1
 91
2
 14
-0.5
 24
-0.5
 14
368.5
 24
91.5
  0
INSERT
  5
272
100
AcDbEntity
  8
0
100
AcDbBlockReference
 62
2
  6
CONTINUOUS
  2
SUN_FIRST_THIRD_ANGLE_BL0
 10
20.4816717061
 20
1.2289683772
  0
ACAD_TABLE
  5
273
100
AcDbEntity
  8
0
 62
2
  6
CONTINUOUS
100
AcDbBlockReference
  2
*T1
 10
12.42375
 20
0.30125
 30
0.0
100
AcDbTable
342
       37F
343
20A
 11
1.0
 21
0.0
 31
0.0
 90
6
 91
4
 92
6
 93
20
 94
0
 95
0
 96
0
 70
1
 41
0.0
141
0.525
141
0.1
141
0.525
141
0.1
142
4.1
142
1.1
142
0.7
142
0.5
142
0.4
142
2.475
171
1
172
0
173
0
174
0
175
1
176
1
 91
33
178
0
145
0.0
301
CELL_VALUE
 90
4
  1
T-17A Sandwich ISO 07\P(See Technical Data for Body Features)
304
ACVALUE_END
170
2
140
0.125
171
1
172
0
173
0
174
0
175
1
176
1
 91
33
178
0
145
0.0
301
CELL_VALUE
 90
4
  1
Oct-21-19
304
ACVALUE_END
170
5
140
0.125
171
1
172
0
173
0
174
0
175
1
176
1
 91
33
178
0
145
0.0
301
CELL_VALUE
 90
4
  1
1.000
304
ACVALUE_END
170
5
140
0.125
171
1
172
0
173
0
174
0
175
1
176
1
 91
33
178
0
145
0.0
301
CELL_VALUE
 90
4
  1
C
304
ACVALUE_END
170
5
140
0.125
171
1
172
0
173
0
174
0
175
1
176
1
 91
33
178
0
145
0.0
301
CELL_VALUE
 90
4
  1
2
304
ACVALUE_END
170
5
140
0.125
171
1
172
0
173
0
174
0
175
1
176
1
 91
33
178
0
145
0.0
301
CELL_VALUE
 90
4
  1
 
304
ACVALUE_END
170
1
140
0.125
171
1
172
0
173
0
174
0
175
1
176
1
 91
33
178
0
145
0.0
301
CELL_VALUE
 90
4
  1
DESCRIPTION
304
ACVALUE_END
170
1
140
0.06
171
1
172
0
173
0
174
0
175
1
176
1
 91
33
178
0
145
0.0
301
CELL_VALUE
 90
4
  1
DATE
304
ACVALUE_END
170
1
140
0.06
171
1
172
0
173
0
174
0
175
1
176
1
 91
33
178
0
145
0.0
301
CELL_VALUE
 90
4
  1
SCALE
304
ACVALUE_END
170
1
140
0.06
171
1
172
0
173
0
174
0
175
1
176
1
 91
33
178
0
145
0.0
301
CELL_VALUE
 90
4
  1
DWG SIZE
304
ACVALUE_END
170
1
140
0.06
171
1
172
0
173
0
174
0
175
1
176
1
 91
33
178
0
145
0.0
301
CELL_VALUE
 90
4
  1
SHEET
304
ACVALUE_END
170
1
140
0.06
171
1
172
0
173
0
174
0
175
1
176
1
 91
33
178
0
145
0.0
301
CELL_VALUE
 90
4
  1
 
304
ACVALUE_END
170
1
140
0.125
171
1
172
0
173
0
174
0
175
1
176
1
 91
33
178
0
145
0.0
301
CELL_VALUE
 90
4
  1
BK9
304
ACVALUE_END
170
5
140
0.125
171
1
172
0
173
0
174
0
175
4
176
1
 91
33
178
0
145
0.0
301
CELL_VALUE
 90
4
  1
ALL DIMENSIONS IN INCH\PVIEWS ARE THIRD ANGLE
304
ACVALUE_END
170
5
140
0.12
171
1
172
0
173
1
174
0
175
1
176
1
 91
1
178
0
145
0.0
170
1
171
1
172
0
173
1
174
0
175
1
176
1
 91
1
178
0
145
0.0
170
1
171
1
172
0
173
1
174
0
175
1
176
1
 91
1
178
0
145
0.0
170
5
171
1
172
0
173
0
174
0
175
1
176
1
 91
33
178
0
145
0.0
301
CELL_VALUE
 90
4
  1
 
304
ACVALUE_END
170
1
140
0.125
171
1
172
0
173
0
174
0
175
1
176
1
 91
33
178
0
145
0.0
301
CELL_VALUE
 90
4
  1
MODEL
304
ACVALUE_END
170
1
140
0.06
171
1
172
0
173
0
174
0
175
1
176
1
 91
33
178
0
145
0.0
301
CELL_VALUE
 90
4
  1
 
304
ACVALUE_END
170
1
140
0.125
171
1
172
0
173
0
174
0
175
1
176
1
 91
33
178
0
145
0.0
301
CELL_VALUE
 90
4
  1
 
304
ACVALUE_END
170
1
140
0.125
171
1
172
0
173
0
174
0
175
1
176
1
 91
33
178
0
145
0.0
301
CELL_VALUE
 90
4
  1
 
304
ACVALUE_END
170
1
140
0.125
171
1
172
0
173
0
174
0
175
1
176
1
 91
33
178
0
145
0.0
301
CELL_VALUE
 90
4
  1
 
304
ACVALUE_END
170
1
140
0.125
171
1
172
0
173
0
174
0
175
1
176
1
 91
33
178
0
145
0.0
301
CELL_VALUE
 90
4
  1
 
304
ACVALUE_END
170
1
140
0.125
  0
ACAD_TABLE
  5
274
100
AcDbEntity
  8
0
 62
2
  6
CONTINUOUS
100
AcDbBlockReference
  2
*T2
 10
12.4237499994
 20
16.47875
 30
0.0
100
AcDbTable
342
       37E
343
20B
 11
1.0
 21
0.0
 31
0.0
 90
22
 91
10
 92
3
 93
16
 94
0
 95
0
 96
0
 41
0.028
141
0.344
141
0.25
141
0.25
141
0.25
141
0.25
141
0.25
141
0.25
141
0.25
141
0.25
141
0.25
142
3.055
142
3.0
142
3.0
171
1
172
0
173
0
174
0
175
1
176
1
 91
33
178
0
145
0.0
301
CELL_VALUE
 90
4
  1
Technical Data
304
ACVALUE_END
170
5
140
0.145
171
1
172
0
173
0
174
0
175
1
176
1
 91
33
178
0
145
0.0
301
CELL_VALUE
 90
4
  1
U.S. Units
304
ACVALUE_END
170
5
140
0.145
171
1
172
0
173
0
174
0
175
1
176
1
 91
33
178
0
145
0.0
301
CELL_VALUE
 90
4
  1
Metric Units
304
ACVALUE_END
170
5
140
0.145
171
1
172
0
173
0
174
0
175
1
176
1
 91
33
178
0
145
0.0
301
CELL_VALUE
 90
4
  1
Cavity
304
ACVALUE_END
170
5
140
0.125
171
1
172
0
173
0
174
0
175
2
176
1
 91
33
178
0
145
0.0
301
CELL_VALUE
 90
4
  1
T-17A
304
ACVALUE_END
170
5
140
0.125
171
1
172
0
173
1
174
0
175
1
176
1
 91
1
178
0
145
0.0
170
1
171
1
172
0
173
0
174
0
175
1
176
1
 91
33
178
0
145
0.0
301
CELL_VALUE
 90
4
  1
Body Features
304
ACVALUE_END
170
5
140
0.125
171
1
172
0
173
0
174
0
175
2
176
1
 91
33
178
0
145
0.0
301
CELL_VALUE
 90
4
  1
Reducer on A and B with reverse flow check
304
ACVALUE_END
170
5
140
0.125
171
1
172
0
173
1
174
0
175
1
176
1
 91
1
178
0
145
0.0
170
1
171
1
172
0
173
0
174
0
175
1
176
1
 91
33
178
0
145
0.0
301
CELL_VALUE
 90
4
  1
Body Type
304
ACVALUE_END
170
5
140
0.125
171
1
172
0
173
0
174
0
175
2
176
1
 91
33
178
0
145
0.0
301
CELL_VALUE
 90
4
  1
Sandwich
304
ACVALUE_END
170
5
140
0.125
171
1
172
0
173
1
174
0
175
1
176
1
 91
1
178
0
145
0.0
170
1
171
1
172
0
173
0
174
0
175
1
176
1
 91
33
178
0
145
0.0
301
CELL_VALUE
 90
4
  1
Interface
304
ACVALUE_END
170
5
140
0.125
171
1
172
0
173
0
174
0
175
2
176
1
 91
33
178
0
145
0.0
301
CELL_VALUE
 90
4
  1
ISO 07
304
ACVALUE_END
170
5
140
0.125
171
1
172
0
173
1
174
0
175
1
176
1
 91
1
178
0
145
0.0
170
1
171
1
172
0
173
0
174
0
175
1
176
1
 91
33
178
0
145
0.0
301
CELL_VALUE
 90
4
  1
Open Cavity Quantity
304
ACVALUE_END
170
5
140
0.125
171
1
172
0
173
0
174
0
175
2
176
1
 91
33
178
0
145
0.0
301
CELL_VALUE
 90
4
  1
2
304
ACVALUE_END
170
5
140
0.125
171
1
172
0
173
1
174
0
175
1
176
1
 91
1
178
0
145
0.0
170
1
171
1
172
0
173
0
174
0
175
1
176
1
 91
33
178
0
145
0.0
301
CELL_VALUE
 90
4
  1
Stack Height
304
ACVALUE_END
170
5
140
0.125
171
1
172
0
173
0
174
0
175
1
176
1
 91
33
178
0
145
0.0
301
CELL_VALUE
 90
4
  1
4.33 in.
304
ACVALUE_END
170
5
140
0.125
171
1
172
0
173
0
174
0
175
1
176
1
 91
33
178
0
145
0.0
301
CELL_VALUE
 90
4
  1
110 mm
304
ACVALUE_END
170
5
140
0.125
171
1
172
0
173
0
174
0
175
1
176
1
 91
33
178
0
145
0.0
301
CELL_VALUE
 90
4
  1
Weight
304
ACVALUE_END
170
5
140
0.125
171
1
172
0
173
0
174
0
175
1
176
1
 91
33
178
0
145
0.0
301
CELL_VALUE
 90
4
  1
10.509 lb.
304
ACVALUE_END
170
5
140
0.125
171
1
172
0
173
0
174
0
175
1
176
1
 91
33
178
0
145
0.0
301
CELL_VALUE
 90
4
  1
4,767 kg.
304
ACVALUE_END
170
5
140
0.125
171
1
172
0
173
0
174
0
175
1
176
1
 91
33
178
0
145
0.0
301
CELL_VALUE
 90
4
  1
Check Cracking Pressure
304
ACVALUE_END
170
5
140
0.125
171
1
172
0
173
0
174
0
175
1
176
1
 91
33
178
0
145
0.0
301
CELL_VALUE
 90
4
  1
30 psi
304
ACVALUE_END
170
5
140
0.125
171
1
172
0
173
0
174
0
175
1
176
1
 91
33
178
0
145
0.0
301
CELL_VALUE
 90
4
  1
2 bar
304
ACVALUE_END
170
5
140
0.125
171
1
172
0
173
0
174
0
175
1
176
1
 91
33
178
0
145
0.0
301
CELL_VALUE
 90
4
  1
Seal Plate Included (see notes)
304
ACVALUE_END
170
5
140
0.125
171
1
172
0
173
0
174
0
175
2
176
1
 91
33
178
0
145
0.0
301
CELL_VALUE
 90
4
  1
Yes
304
ACVALUE_END
170
5
140
0.125
171
1
172
0
173
1
174
0
175
1
176
1
 91
1
178
0
145
0.0
170
1
  0
MTEXT
  5
275
100
AcDbEntity
  8
0
100
AcDbMText
 62
2
  6
CONTINUOUS
  7
STANDARD
 71
1
 72
1
 10
0.52125
 20
5.75995
 30
0.0
 11
1.0
 21
0.0
 31
0.0
 44
0.6
  3
Notes\P \P1. Stack height value in technical\P   data table includes seal retainer\P   plate.\P2. Important: Carefully consider\P   the maximum system pressure. The\P   pressure rating of the manifold is\P   dependent on the manifold material,\P   wi
  3
th the port type/size a secondary\P   consideration. Manifolds\P   constructed of aluminum are not\P   rated for pressures higher than\P   3000 psi (210 bar), regardless of\P   the port type/size specified.\P3. Items without balloons are\P   shipped 
  1
loose.
 40
0.1
 41
3.04
  0
LINE
  5
276
100
AcDbEntity
  8
0
100
AcDbLine
 62
7
  6
CONTINUOUS
 10
0.30125
 20
0.30125
 11
0.30125
 21
16.69875
  0
LINE
  5
277
100
AcDbEntity
  8
0
100
AcDbLine
 62
7
  6
CONTINUOUS
 10
0.30125
 20
0.30125
 11
21.69875
 21
0.30125
  0
LINE
  5
278
100
AcDbEntity
  8
0
100
AcDbLine
 62
7
  6
CONTINUOUS
 10
0.30125
 20
16.69875
 11
21.69875
 21
16.69875
  0
LINE
  5
279
100
AcDbEntity
  8
0
100
AcDbLine
 62
7
  6
CONTINUOUS
 10
21.69875
 20
0.30125
 11
21.69875
 21
16.69875
  0
LINE
  5
27A
100
AcDbEntity
  8
0
100
AcDbLine
 62
7
  6
CONTINUOUS
 10
6.2232170606
 20
9.4871326143
 11
6.2144436089
 21
9.4722573605
  0
LINE
  5
27B
100
AcDbEntity
  8
0
100
AcDbLine
 62
7
  6
CONTINUOUS
 10
6.1521148836
 20
8.3312212872
 11
6.1377122568
 21
8.3658248944
  0
LINE
  5
27C
100
AcDbEntity
  8
0
100
AcDbLine
 62
7
  6
CONTINUOUS
 10
6.8221300277
 20
9.3198422575
 11
6.8221300277
 21
7.2063964244
  0
LINE
  5
27D
100
AcDbEntity
  8
0
100
AcDbLine
 62
7
  6
CONTINUOUS
 10
6.8440503463
 20
9.3100156607
 11
6.8440503463
 21
7.1965698275
  0
LINE
  5
27E
100
AcDbEntity
  8
0
100
AcDbLine
 62
7
  6
CONTINUOUS
 10
6.9157535187
 20
6.7979368294
 11
6.8898780429
 21
6.8297520792
  0
LINE
  5
27F
100
AcDbEntity
  8
0
100
AcDbLine
 62
7
  6
CONTINUOUS
 10
7.7603482919
 20
10.7389982075
 11
6.9595628273
 21
9.9654988
  0
LINE
  5
280
100
AcDbEntity
  8
0
100
AcDbLine
 62
7
  6
CONTINUOUS
 10
7.7902919943
 20
10.7668653071
 11
6.9895065296
 21
9.9933658996
  0
LINE
  5
281
100
AcDbEntity
  8
0
100
AcDbLine
 62
7
  6
CONTINUOUS
 10
7.7916650773
 20
10.7681674161
 11
7.7902919943
 21
10.7668653071
  0
LINE
  5
282
100
AcDbEntity
  8
0
100
AcDbLine
 62
7
  6
CONTINUOUS
 10
7.7616471041
 20
10.7402296283
 11
7.7603482919
 21
10.7389982075
  0
LINE
  5
283
100
AcDbEntity
  8
0
100
AcDbLine
 62
7
  6
CONTINUOUS
 10
7.7603482919
 20
10.7389982075
 11
7.7902799312
 21
10.7668782685
  0
LINE
  5
284
100
AcDbEntity
  8
0
100
AcDbLine
 62
7
  6
CONTINUOUS
 10
6.9595628273
 20
9.9654988
 11
6.9895065296
 21
9.9933658996
  0
LINE
  5
285
100
AcDbEntity
  8
0
100
AcDbLine
 62
7
  6
CONTINUOUS
 10
6.8221300277
 20
7.2063964244
 11
6.8440503463
 21
7.1965698275
  0
LINE
  5
286
100
AcDbEntity
  8
0
100
AcDbLine
 62
7
  6
CONTINUOUS
 10
9.6911128883
 20
10.8807144596
 11
8.5911328544
 21
9.8182152735
  0
LINE
  5
287
100
AcDbEntity
  8
0
100
AcDbLine
 62
7
  6
CONTINUOUS
 10
8.5911328544
 20
6.4374746812
 11
8.5911328544
 21
9.8182152735
  0
LINE
  5
288
100
AcDbEntity
  8
0
100
AcDbLine
 62
7
  6
CONTINUOUS
 10
14.5495370959
 20
6.6704989241
 11
14.5115700097
 21
6.6648255328
  0
LINE
  5
289
100
AcDbEntity
  8
0
100
AcDbLine
 62
7
  6
CONTINUOUS
 10
8.5911328544
 20
6.4374746812
 11
13.1792808011
 21
6.1192855404
  0
LINE
  5
28A
100
AcDbEntity
  8
0
100
AcDbLine
 62
7
  6
CONTINUOUS
 10
8.5911328544
 20
6.6626467212
 11
6.9506250844
 21
6.7764163214
  0
LINE
  5
28B
100
AcDbEntity
  8
0
100
AcDbLine
 62
7
  6
CONTINUOUS
 10
13.2899966405
 20
6.3367794108
 11
14.6181447478
 21
6.2446720267
  0
LINE
  5
28C
100
AcDbEntity
  8
0
100
AcDbLine
 62
7
  6
CONTINUOUS
 10
12.3239909676
 20
6.9014670105
 11
12.3235370081
 21
6.9014256297
  0
LINE
  5
28D
100
AcDbEntity
  8
0
100
AcDbLine
 62
7
  6
CONTINUOUS
 10
12.2843133615
 20
7.148855121
 11
12.2847673213
 21
7.1488965019
  0
LINE
  5
28E
100
AcDbEntity
  8
0
100
AcDbLine
 62
7
  6
CONTINUOUS
 10
14.5115700097
 20
6.6648255328
 11
13.1834219024
 21
6.7569329169
  0
LINE
  5
28F
100
AcDbEntity
  8
0
100
AcDbLine
 62
7
  6
CONTINUOUS
 10
6.8440503463
 20
7.1965698275
 11
8.5911328544
 21
7.0754092441
  0
LINE
  5
290
100
AcDbEntity
  8
0
100
AcDbLine
 62
7
  6
CONTINUOUS
 10
14.7795957816
 20
7.5410129014
 11
14.9416234375
 21
7.5297762453
  0
LINE
  5
291
100
AcDbEntity
  8
0
100
AcDbLine
 62
7
  6
CONTINUOUS
 10
6.8221300277
 20
9.3198422575
 11
6.8440503463
 21
9.3100156607
  0
LINE
  5
292
100
AcDbEntity
  8
0
100
AcDbLine
 62
7
  6
CONTINUOUS
 10
6.8221300277
 20
8.180833393
 11
6.2082292327
 21
8.2234075577
  0
LINE
  5
293
100
AcDbEntity
  8
0
100
AcDbLine
 62
7
  6
CONTINUOUS
 10
14.9482347765
 20
7.6172861146
 11
15.6185029488
 21
7.570802859
  0
LINE
  5
294
100
AcDbEntity
  8
0
100
AcDbLine
 62
7
  6
CONTINUOUS
 10
6.8221300277
 20
8.1921858302
 11
6.1980879336
 21
8.2354632964
  0
LINE
  5
295
100
AcDbEntity
  8
0
100
AcDbLine
 62
7
  6
CONTINUOUS
 10
14.9380934774
 20
7.6293418533
 11
15.6083616496
 21
7.5828585977
  0
LINE
  5
296
100
AcDbEntity
  8
0
100
AcDbLine
 62
7
  6
CONTINUOUS
 10
14.5495370959
 20
8.7839447572
 11
14.5115700097
 21
8.778271366
  0
LINE
  5
297
100
AcDbEntity
  8
0
100
AcDbLine
 62
7
  6
CONTINUOUS
 10
6.7817221966
 20
8.6653089936
 11
6.1114540243
 21
8.7117922492
  0
LINE
  5
298
100
AcDbEntity
  8
0
100
AcDbLine
 62
7
  6
CONTINUOUS
 10
14.8514595681
 20
8.105670806
 11
15.5217277404
 21
8.0591875504
  0
LINE
  5
299
100
AcDbEntity
  8
0
100
AcDbLine
 62
7
  6
CONTINUOUS
 10
6.7817221966
 20
8.7090119576
 11
6.1114540243
 21
8.7554952132
  0
LINE
  5
29A
100
AcDbEntity
  8
0
100
AcDbLine
 62
7
  6
CONTINUOUS
 10
14.8514595681
 20
8.1493737701
 11
15.5217277404
 21
8.1028905145
  0
LINE
  5
29B
100
AcDbEntity
  8
0
100
AcDbLine
 62
7
  6
CONTINUOUS
 10
14.5115700097
 20
8.778271366
 11
13.1834219024
 21
8.87037875
  0
LINE
  5
29C
100
AcDbEntity
  8
0
100
AcDbLine
 62
7
  6
CONTINUOUS
 10
6.8440503463
 20
9.3100156607
 11
8.5911328544
 21
9.1888550772
  0
LINE
  5
29D
100
AcDbEntity
  8
0
100
AcDbLine
 62
7
  6
CONTINUOUS
 10
6.8224812591
 20
9.3558862125
 11
6.1980879336
 21
9.3991880367
  0
LINE
  5
29E
100
AcDbEntity
  8
0
100
AcDbLine
 62
7
  6
CONTINUOUS
 10
14.9380934774
 20
8.7930665936
 11
15.6083616496
 21
8.7465833379
  0
LINE
  5
29F
100
AcDbEntity
  8
0
100
AcDbLine
 62
7
  6
CONTINUOUS
 10
6.8233165228
 20
9.3881788136
 11
6.2082292327
 21
9.4308352621
  0
LINE
  5
2A0
100
AcDbEntity
  8
0
100
AcDbLine
 62
7
  6
CONTINUOUS
 10
14.9482347765
 20
8.8247138189
 11
15.6185029488
 21
8.7782305633
  0
LINE
  5
2A1
100
AcDbEntity
  8
0
100
AcDbLine
 62
7
  6
CONTINUOUS
 10
6.8370855166
 20
9.5666039654
 11
6.3814970512
 21
9.5981991327
  0
LINE
  5
2A2
100
AcDbEntity
  8
0
100
AcDbLine
 62
7
  6
CONTINUOUS
 10
15.1215025951
 20
8.9920776896
 11
15.7917707673
 21
8.945594434
  0
LINE
  5
2A3
100
AcDbEntity
  8
0
100
AcDbLine
 62
7
  6
CONTINUOUS
 10
14.279260835
 20
10.5625253188
 11
13.1792808011
 21
9.5000261327
  0
LINE
  5
2A4
100
AcDbEntity
  8
0
100
AcDbLine
 62
7
  6
CONTINUOUS
 10
13.3288780857
 20
9.553728989
 11
14.1296635504
 21
10.3272283964
  0
LINE
  5
2A5
100
AcDbEntity
  8
0
100
AcDbLine
 62
7
  6
CONTINUOUS
 10
15.1950332064
 20
9.0583300869
 11
15.1464043786
 21
9.0617025075
  0
LINE
  5
2A6
100
AcDbEntity
  8
0
100
AcDbLine
 62
7
  6
CONTINUOUS
 10
14.8880847959
 20
9.0962336362
 11
15.0494813968
 21
9.0850407439
  0
LINE
  5
2A7
100
AcDbEntity
  8
0
100
AcDbLine
 62
7
  6
CONTINUOUS
 10
15.2137118467
 20
9.1971130044
 11
15.1473120732
 21
9.2017178443
  0
LINE
  5
2A8
100
AcDbEntity
  8
0
100
AcDbLine
 62
7
  6
CONTINUOUS
 10
13.1792808011
 20
9.5000261327
 11
8.5911328544
 21
9.8182152735
  0
LINE
  5
2A9
100
AcDbEntity
  8
0
100
AcDbLine
 62
7
  6
CONTINUOUS
 10
14.657026193
 20
9.4616216049
 11
13.3288780857
 21
9.553728989
  0
LINE
  5
2AA
100
AcDbEntity
  8
0
100
AcDbLine
 62
7
  6
CONTINUOUS
 10
6.9895065296
 20
9.9933658996
 11
8.6530269346
 21
9.8780003677
  0
LINE
  5
2AB
100
AcDbEntity
  8
0
100
AcDbLine
 62
7
  6
CONTINUOUS
 10
15.1887196723
 20
9.5049973512
 11
15.1306627973
 21
9.5090236092
  0
LINE
  5
2AC
100
AcDbEntity
  8
0
100
AcDbLine
 62
7
  6
CONTINUOUS
 10
14.657026193
 20
9.4616216049
 11
15.4578116577
 21
10.2351210124
  0
LINE
  5
2AD
100
AcDbEntity
  8
0
100
AcDbLine
 62
7
  6
CONTINUOUS
 10
13.1792808011
 20
6.1192855404
 11
13.1792808011
 21
9.5000261327
  0
LINE
  5
2AE
100
AcDbEntity
  8
0
100
AcDbLine
 62
7
  6
CONTINUOUS
 10
13.1834219024
 20
6.7569329169
 11
13.1834219024
 21
8.87037875
  0
LINE
  5
2AF
100
AcDbEntity
  8
0
100
AcDbLine
 62
7
  6
CONTINUOUS
 10
14.6869698954
 20
9.4296012997
 11
15.4877553601
 21
10.2031007072
  0
LINE
  5
2B0
100
AcDbEntity
  8
0
100
AcDbLine
 62
4
  6
CONTINUOUS
 10
14.8893662345
 20
9.4270863436
 11
14.894542611
 21
9.4320863396
  0
LINE
  5
2B1
100
AcDbEntity
  8
0
100
AcDbLine
 62
4
  6
CONTINUOUS
 10
14.7754859512
 20
9.2655703828
 11
14.7599568217
 21
9.2505703946
  0
LINE
  5
2B2
100
AcDbEntity
  8
0
100
AcDbLine
 62
4
  6
CONTINUOUS
 10
14.8194851516
 20
9.2823123278
 11
14.7987796455
 21
9.2623123436
  0
LINE
  5
2B3
100
AcDbEntity
  8
0
100
AcDbLine
 62
4
  6
CONTINUOUS
 10
14.894542611
 20
9.2775382017
 11
14.8893662345
 21
9.2725382056
  0
LINE
  5
2B4
100
AcDbEntity
  8
0
100
AcDbLine
 62
7
  6
CONTINUOUS
 10
15.4578116577
 20
10.2351210124
 11
14.1296635504
 21
10.3272283964
  0
LINE
  5
2B5
100
AcDbEntity
  8
0
100
AcDbLine
 62
7
  6
CONTINUOUS
 10
7.7902919943
 20
10.7668653071
 11
9.4538123993
 21
10.6514997751
  0
LINE
  5
2B6
100
AcDbEntity
  8
0
100
AcDbLine
 62
7
  6
CONTINUOUS
 10
9.4736133866
 20
10.6706260613
 11
7.8291734396
 21
10.784668359
  0
LINE
  5
2B7
100
AcDbEntity
  8
0
100
AcDbLine
 62
7
  6
CONTINUOUS
 10
14.1685449956
 20
10.3450314484
 11
15.496693103
 21
10.2529240643
  0
LINE
  5
2B8
100
AcDbEntity
  8
0
100
AcDbLine
 62
7
  6
CONTINUOUS
 10
15.1215025951
 20
8.9920776896
 11
14.9482347765
 21
8.8247138189
  0
LINE
  5
2B9
100
AcDbEntity
  8
0
100
AcDbLine
 62
7
  6
CONTINUOUS
 10
15.1807413378
 20
9.3045354286
 11
15.1803751677
 21
9.3041898043
  0
LINE
  5
2BA
100
AcDbEntity
  8
0
100
AcDbLine
 62
7
  6
CONTINUOUS
 10
14.279260835
 20
10.5625253188
 11
9.6911128883
 21
10.8807144596
  0
LINE
  5
2BB
100
AcDbEntity
  8
0
100
AcDbLine
 62
7
  6
CONTINUOUS
 10
14.279260835
 20
10.3373532788
 11
14.279260835
 21
10.5625253188
  0
LINE
  5
2BC
100
AcDbEntity
  8
0
100
AcDbLine
 62
7
  6
CONTINUOUS
 10
13.3967803027
 20
6.3293739387
 11
13.1792808011
 21
6.1192855404
  0
LINE
  5
2BD
100
AcDbEntity
  8
0
100
AcDbLine
 62
7
  6
CONTINUOUS
 10
14.5115700097
 20
6.6648255328
 11
14.5115700097
 21
8.778271366
  0
LINE
  5
2BE
100
AcDbEntity
  8
0
100
AcDbLine
 62
7
  6
CONTINUOUS
 10
14.5495370959
 20
6.6704989241
 11
14.5495370959
 21
8.7839447572
  0
LINE
  5
2BF
100
AcDbEntity
  8
0
100
AcDbLine
 62
4
  6
CONTINUOUS
 10
14.8816016698
 20
9.3938283257
 11
14.884189858
 21
9.4092073356
  0
LINE
  5
2C0
100
AcDbEntity
  8
0
100
AcDbLine
 62
4
  6
CONTINUOUS
 10
14.884189858
 20
9.4092073356
 11
14.8893662345
 21
9.4270863436
  0
LINE
  5
2C1
100
AcDbEntity
  8
0
100
AcDbLine
 62
4
  6
CONTINUOUS
 10
14.8997189876
 20
9.2954172062
 11
14.894542611
 21
9.2775382017
  0
LINE
  5
2C2
100
AcDbEntity
  8
0
100
AcDbLine
 62
7
  6
CONTINUOUS
 10
14.6869698954
 20
9.4296012997
 11
14.657026193
 21
9.4616216049
  0
LINE
  5
2C3
100
AcDbEntity
  8
0
100
AcDbLine
 62
4
  6
CONTINUOUS
 10
14.8893662345
 20
9.2725382056
 11
14.884189858
 21
9.280417218
  0
LINE
  5
2C4
100
AcDbEntity
  8
0
100
AcDbLine
 62
4
  6
CONTINUOUS
 10
14.7677213864
 20
9.1550382983
 11
14.7547804452
 21
9.297086446
  0
LINE
  5
2C5
100
AcDbEntity
  8
0
100
AcDbLine
 62
4
  6
CONTINUOUS
 10
14.9048953641
 20
9.4034492973
 11
14.9074835523
 21
9.3673122608
  0
LINE
  5
2C6
100
AcDbEntity
  8
0
100
AcDbLine
 62
4
  6
CONTINUOUS
 10
14.7987796455
 20
9.1850382746
 11
14.7987796455
 21
9.3395864125
  0
LINE
  5
2C7
100
AcDbEntity
  8
0
100
AcDbLine
 62
4
  6
CONTINUOUS
 10
14.8194851516
 20
9.2050382589
 11
14.8194851516
 21
9.3595863968
  0
LINE
  5
2C8
100
AcDbEntity
  8
0
100
AcDbLine
 62
4
  6
CONTINUOUS
 10
14.9074835523
 20
9.3673122608
 11
14.9048953641
 21
9.3261752283
  0
LINE
  5
2C9
100
AcDbEntity
  8
0
100
AcDbLine
 62
4
  6
CONTINUOUS
 10
14.7806623277
 20
9.3220864263
 11
14.7677213864
 21
9.1550382983
  0
LINE
  5
2CA
100
AcDbEntity
  8
0
100
AcDbLine
 62
4
  6
CONTINUOUS
 10
14.8608961637
 20
9.3995863652
 11
14.8401906576
 21
9.2250382431
  0
LINE
  5
2CB
100
AcDbEntity
  8
0
100
AcDbLine
 62
7
  6
CONTINUOUS
 10
14.9380934774
 20
8.7930665936
 11
14.8514595681
 21
8.1493737701
  0
LINE
  5
2CC
100
AcDbEntity
  8
0
100
AcDbLine
 62
4
  6
CONTINUOUS
 10
14.9048953641
 20
9.3261752283
 11
14.8997189876
 21
9.2954172062
  0
LINE
  5
2CD
100
AcDbEntity
  8
0
100
AcDbLine
 62
7
  6
CONTINUOUS
 10
15.0342586525
 20
7.6058434905
 11
15.0373619726
 21
7.6111051225
  0
LINE
  5
2CE
100
AcDbEntity
  8
0
100
AcDbLine
 62
7
  6
CONTINUOUS
 10
15.2234196296
 20
9.4754038819
 11
15.2100645453
 21
9.491824656
  0
LINE
  5
2CF
100
AcDbEntity
  8
0
100
AcDbLine
 62
4
  6
CONTINUOUS
 10
14.894542611
 20
9.4320863396
 11
14.8997189876
 21
9.4242073238
  0
LINE
  5
2D0
100
AcDbEntity
  8
0
100
AcDbLine
 62
7
  6
CONTINUOUS
 10
15.1307297637
 20
8.9969146314
 11
15.1330770785
 21
8.9912749965
  0
LINE
  5
2D1
100
AcDbEntity
  8
0
100
AcDbLine
 62
4
  6
CONTINUOUS
 10
14.884189858
 20
9.280417218
 11
14.8816016698
 21
9.2907962376
  0
LINE
  5
2D2
100
AcDbEntity
  8
0
100
AcDbLine
 62
4
  6
CONTINUOUS
 10
14.8997189876
 20
9.4242073238
 11
14.9048953641
 21
9.4034492973
  0
LINE
  5
2D3
100
AcDbEntity
  8
0
100
AcDbLine
 62
7
  6
CONTINUOUS
 10
14.8514595681
 20
8.105670806
 11
14.9380934774
 21
7.6293418533
  0
LINE
  5
2D4
100
AcDbEntity
  8
0
100
AcDbLine
 62
4
  6
CONTINUOUS
 10
14.8608961637
 20
9.2450382273
 11
14.8401906576
 21
9.379586381
  0
LINE
  5
2D5
100
AcDbEntity
  8
0
100
AcDbLine
 62
7
  6
CONTINUOUS
 10
15.4877553601
 20
7.0638415857
 11
14.6869698954
 21
6.2903421782
  0
LINE
  5
2D6
100
AcDbEntity
  8
0
100
AcDbLine
 62
7
  6
CONTINUOUS
 10
14.6869698954
 20
6.2903421782
 11
14.6856710833
 21
6.2891107574
  0
LINE
  5
2D7
100
AcDbEntity
  8
0
100
AcDbLine
 62
7
  6
CONTINUOUS
 10
14.65565311
 20
6.2611729696
 11
14.6856725519
 21
6.2891118937
  0
LINE
  5
2D8
100
AcDbEntity
  8
0
100
AcDbLine
 62
7
  6
CONTINUOUS
 10
15.6251881596
 20
9.8229439613
 11
15.6251881596
 21
8.9571469771
  0
LINE
  5
2D9
100
AcDbEntity
  8
0
100
AcDbLine
 62
7
  6
CONTINUOUS
 10
15.7767829425
 20
7.6818693827
 11
15.7855563911
 21
7.6967446312
  0
LINE
  5
2DA
100
AcDbEntity
  8
0
100
AcDbLine
 62
7
  6
CONTINUOUS
 10
15.4877553601
 20
10.2031007072
 11
15.4578116577
 21
10.2351210124
  0
LINE
  5
2DB
100
AcDbEntity
  8
0
100
AcDbLine
 62
7
  6
CONTINUOUS
 10
15.5315646686
 20
10.2314035563
 11
15.5574401444
 21
10.1995883065
  0
LINE
  5
2DC
100
AcDbEntity
  8
0
100
AcDbLine
 62
7
  6
CONTINUOUS
 10
15.8478851161
 20
8.8377807054
 11
15.8622877432
 21
8.8031770973
  0
ARC
  5
2DD
100
AcDbEntity
  8
0
100
AcDbCircle
 62
7
  6
CONTINUOUS
 10
9.3731936499
 20
8.6870056998
 40
2.5915648881
100
AcDbArc
 50
179.5134673813
 51
179.9985734312
  0
ARC
  5
2DE
100
AcDbEntity
  8
0
100
AcDbCircle
 62
7
  6
CONTINUOUS
 10
18.1131991937
 20
8.0808842566
 40
2.591564888
100
AcDbArc
 50
179.5134673813
 51
179.9985734312
  0
ARC
  5
2DF
100
AcDbEntity
  8
0
100
AcDbCircle
 62
7
  6
CONTINUOUS
 10
17.4429310213
 20
8.1273675123
 40
2.5915648879
100
AcDbArc
 50
179.5134673813
 51
179.9985734312
  0
ARC
  5
2E0
100
AcDbEntity
  8
0
100
AcDbCircle
 62
7
  6
CONTINUOUS
 10
8.692896057
 20
8.7335316634
 40
2.5815354666
100
AcDbArc
 50
179.5125250425
 51
179.99951577
  0
ARC
  5
2E1
100
AcDbEntity
  8
0
100
AcDbCircle
 62
7
  6
CONTINUOUS
 10
18.0504055811
 20
8.0809254818
 40
2.5287712748
100
AcDbArc
 50
179.9994720696
 51
180.4925344881
  0
ARC
  5
2E2
100
AcDbEntity
  8
0
100
AcDbCircle
 62
7
  6
CONTINUOUS
 10
8.6290690674
 20
8.7334826814
 40
2.5177084779
100
AcDbArc
 50
179.9983888061
 51
180.4936177515
  0
ARC
  5
2E3
100
AcDbEntity
  8
0
100
AcDbCircle
 62
7
  6
CONTINUOUS
 10
9.2993372394
 20
8.6869994258
 40
2.5177084777
100
AcDbArc
 50
179.9983888061
 51
180.4936177515
  0
ARC
  5
2E4
100
AcDbEntity
  8
0
100
AcDbCircle
 62
7
  6
CONTINUOUS
 10
17.369074611
 20
8.1273612383
 40
2.5177084777
100
AcDbArc
 50
179.9983888061
 51
180.4936177515
  0
ARC
  5
2E5
100
AcDbEntity
  8
0
100
AcDbCircle
 62
7
  6
CONTINUOUS
 10
13.9118240188
 20
9.2330513498
 40
1.3509255131
100
AcDbArc
 50
349.3698258979
 51
352.1241828315
  0
ARC
  5
2E6
100
AcDbEntity
  8
0
100
AcDbCircle
 62
7
  6
CONTINUOUS
 10
7.2876559614
 20
9.067486323
 40
1.1389400836
100
AcDbArc
 50
161.3961041614
 51
163.067960475
  0
ARC
  5
2E7
100
AcDbEntity
  8
0
100
AcDbCircle
 62
7
  6
CONTINUOUS
 10
16.6682611379
 20
8.4243888569
 40
1.1077888829
100
AcDbArc
 50
161.3725959887
 51
163.0914686476
  0
ARC
  5
2E8
100
AcDbEntity
  8
0
100
AcDbCircle
 62
7
  6
CONTINUOUS
 10
15.9979929657
 20
8.4708721125
 40
1.1077888828
100
AcDbArc
 50
161.3725959887
 51
163.0914686476
  0
ARC
  5
2E9
100
AcDbEntity
  8
0
100
AcDbCircle
 62
7
  6
CONTINUOUS
 10
6.9325821493
 20
8.6568739095
 40
0.8456820998
100
AcDbArc
 50
200.1074676161
 51
202.6225491273
  0
SPLINE
  5
2EA
100
AcDbEntity
  8
0
100
AcDbSpline
 62
7
  6
CONTINUOUS
 70
0
 71
3
 72
45
 73
41
 74
0
 42
0.0000001
 43
0.0000001
 44
0.0000000001
 40
0.0
 40
0.0
 40
0.0
 40
0.0
 40
0.0076480343
 40
0.0158896017
 40
0.0247408421
 40
0.0342116065
 40
0.0443069289
 40
0.0550271324
 40
0.0663689155
 40
0.0783265982
 40
0.1040535229
 40
0.1321079566
 40
0.1623566504
 40
0.1946403323
 40
0.2287792692
 40
0.2645769189
 40
0.3018196094
 40
0.3402837682
 40
0.3797328722
 40
0.4199250105
 40
0.5015310977
 40
0.5830779812
 40
0.6231965603
 40
0.6625435325
 40
0.7008776836
 40
0.7379638239
 40
0.7735793224
 40
0.8075127589
 40
0.8395686733
 40
0.8695701222
 40
0.8973600091
 40
0.9228103294
 40
0.9346261977
 40
0.9458239439
 40
0.9563982537
 40
0.9663462811
 40
0.9756693269
 40
0.9843756122
 40
0.9924789899
 40
1.0
 40
1.0
 40
1.0
 40
1.0
 10
15.1803751677
 20
9.3041898043
 30
0.0
 10
15.179833005
 20
9.3036661153
 30
0.0
 10
15.1787507607
 20
9.302531848
 30
0.0
 10
15.1771889548
 20
9.3006573391
 30
0.0
 10
15.1756319185
 20
9.2985509479
 30
0.0
 10
15.1740826446
 20
9.2962164292
 30
0.0
 10
15.1725441788
 20
9.293657421
 30
0.0
 10
15.1710189677
 20
9.2908783248
 30
0.0
 10
15.1695092333
 20
9.2878838061
 30
0.0
 10
15.1674701513
 20
9.2835023952
 30
0.0
 10
15.1649922301
 20
9.2775122491
 30
0.0
 10
15.1621853159
 20
9.2697179687
 30
0.0
 10
15.1594968582
 20
9.2612020045
 30
0.0
 10
15.1569446053
 20
9.252020635
 30
0.0
 10
15.1545457963
 20
9.2422341595
 30
0.0
 10
15.1523167359
 20
9.2319072523
 30
0.0
 10
15.1502720179
 20
9.2211082242
 30
0.0
 10
15.148426005
 20
9.2099086714
 30
0.0
 10
15.1467902545
 20
9.1983828293
 30
0.0
 10
15.1448960549
 20
9.1826026885
 30
0.0
 10
15.1431295775
 20
9.1626331996
 30
0.0
 10
15.1421700795
 20
9.142615942
 30
0.0
 10
15.1419073488
 20
9.1267478398
 30
0.0
 10
15.1419659303
 20
9.115136773
 30
0.0
 10
15.1422777722
 20
9.1038286998
 30
0.0
 10
15.1428412106
 20
9.0928984938
 30
0.0
 10
15.1436520175
 20
9.0824186908
 30
0.0
 10
15.1447046574
 20
9.0724586102
 30
0.0
 10
15.1459920582
 20
9.0630841251
 30
0.0
 10
15.1475048269
 20
9.0543568491
 30
0.0
 10
15.1492334245
 20
9.0463343068
 30
0.0
 10
15.1508810051
 20
9.0401342501
 30
0.0
 10
15.1523116331
 20
9.0355762417
 30
0.0
 10
15.1534042933
 20
9.0324506865
 30
0.0
 10
15.1545414119
 20
9.0295377125
 30
0.0
 10
15.1557212564
 20
9.0268421679
 30
0.0
 10
15.1569422083
 20
9.0243685742
 30
0.0
 10
15.1582021382
 20
9.0221205725
 30
0.0
 10
15.1594989735
 20
9.0201016652
 30
0.0
 10
15.160420487
 20
9.0188656927
 30
0.0
 10
15.1608882342
 20
9.0182906398
 30
0.0
  0
SPLINE
  5
2EB
100
AcDbEntity
  8
0
100
AcDbSpline
 62
7
  6
CONTINUOUS
 70
0
 71
3
 72
11
 73
7
 74
0
 42
0.0000001
 43
0.0000001
 44
0.0000000001
 40
0.0
 40
0.0
 40
0.0
 40
0.0
 40
0.2698155438
 40
0.5279028514
 40
0.7720870616
 40
1.0
 40
1.0
 40
1.0
 40
1.0
 10
15.1950332064
 20
9.2998115577
 30
0.0
 10
15.1928780837
 20
9.2991825352
 30
0.0
 10
15.188673268
 20
9.2979108731
 30
0.0
 10
15.1825714451
 20
9.2958984032
 30
0.0
 10
15.1768633203
 20
9.2938141761
 30
0.0
 10
15.1732298018
 20
9.2923168292
 30
0.0
 10
15.1714972849
 20
9.2915456821
 30
0.0
  0
SPLINE
  5
2EC
100
AcDbEntity
  8
0
100
AcDbSpline
 62
7
  6
CONTINUOUS
 70
0
 71
3
 72
36
 73
32
 74
0
 42
0.0000001
 43
0.0000001
 44
0.0000000001
 40
0.0
 40
0.0
 40
0.0
 40
0.0
 40
0.0069360311
 40
0.0142546601
 40
0.0219681784
 40
0.0300852549
 40
0.0386117377
 40
0.0475516315
 40
0.0666783587
 40
0.0874692606
 40
0.1099023346
 40
0.1339435073
 40
0.1595429514
 40
0.1866404329
 40
0.215168371
 40
0.2450477898
 40
0.2761955163
 40
0.3085208077
 40
0.3419266857
 40
0.3763133525
 40
0.4115743068
 40
0.4842781933
 40
0.5591315625
 40
0.6351898525
 40
0.7114887282
 40
0.7870596438
 40
0.8609461893
 40
0.896967518
 40
0.9322221416
 40
0.9666013002
 40
1.0
 40
1.0
 40
1.0
 40
1.0
 10
15.2234206851
 20
9.4754021864
 30
0.0
 10
15.2241501274
 20
9.4745052647
 30
0.0
 10
15.2255945492
 20
9.4726169649
 30
0.0
 10
15.2276655853
 20
9.4695956113
 30
0.0
 10
15.2296962017
 20
9.4663131288
 30
0.0
 10
15.2316848288
 20
9.4627724686
 30
0.0
 10
15.2336300935
 20
9.4589767031
 30
0.0
 10
15.2362223699
 20
9.4534545423
 30
0.0
 10
15.2393250023
 20
9.4459196285
 30
0.0
 10
15.2427706418
 20
9.4361108083
 30
0.0
 10
15.2460078833
 20
9.4253731315
 30
0.0
 10
15.2490243604
 20
9.4137420753
 30
0.0
 10
15.2518105464
 20
9.4012562909
 30
0.0
 10
15.2543569289
 20
9.3879574943
 30
0.0
 10
15.2566538566
 20
9.3738902781
 30
0.0
 10
15.2586945506
 20
9.3591020255
 30
0.0
 10
15.2604710679
 20
9.3436425889
 30
0.0
 10
15.2619775429
 20
9.3275641774
 30
0.0
 10
15.2632091901
 20
9.3109210999
 30
0.0
 10
15.2641608929
 20
9.293769625
 30
0.0
 10
15.265062332
 20
9.2700586777
 30
0.0
 10
15.2654530775
 20
9.2395833518
 30
0.0
 10
15.2647813567
 20
9.202311847
 30
0.0
 10
15.2629810085
 20
9.1644778918
 30
0.0
 10
15.2600761049
 20
9.1265927887
 30
0.0
 10
15.2561058611
 20
9.0891685424
 30
0.0
 10
15.251920394
 20
9.0585321298
 30
0.0
 10
15.2480670337
 20
9.0346443931
 30
0.0
 10
15.2449727919
 20
9.0173069005
 30
0.0
 10
15.2416607048
 20
9.0004550374
 30
0.0
 10
15.2392783325
 20
8.9894110791
 30
0.0
 10
15.2380502568
 20
8.9839813476
 30
0.0
  0
SPLINE
  5
2ED
100
AcDbEntity
  8
0
100
AcDbSpline
 62
7
  6
CONTINUOUS
 70
0
 71
3
 72
15
 73
11
 74
0
 42
0.0000001
 43
0.0000001
 44
0.0000000001
 40
0.0
 40
0.0
 40
0.0
 40
0.0
 40
0.1090340757
 40
0.219795838
 40
0.3339183198
 40
0.4528793009
 40
0.5779704975
 40
0.7102896908
 40
0.8507310287
 40
1.0
 40
1.0
 40
1.0
 40
1.0
 10
15.1887196753
 20
9.5049973947
 30
0.0
 10
15.1896550031
 20
9.5049325474
 30
0.0
 10
15.1915341293
 20
9.5046774301
 30
0.0
 10
15.1943126701
 20
9.5039249242
 30
0.0
 10
15.1970565027
 20
9.5028045231
 30
0.0
 10
15.1997616633
 20
9.5013194168
 30
0.0
 10
15.2024257359
 20
9.4994725477
 30
0.0
 10
15.2050462342
 20
9.4972663309
 30
0.0
 10
15.207621101
 20
9.4947040112
 30
0.0
 10
15.2092546064
 20
9.492820078
 30
0.0
 10
15.2100644964
 20
9.491824299
 30
0.0
  0
SPLINE
  5
2EE
100
AcDbEntity
  8
0
100
AcDbSpline
 62
7
  6
CONTINUOUS
 70
0
 71
3
 72
20
 73
16
 74
0
 42
0.0000001
 43
0.0000001
 44
0.0000000001
 40
0.0
 40
0.0
 40
0.0
 40
0.0
 40
0.1279578491
 40
0.1917808564
 40
0.255438556
 40
0.3820830738
 40
0.4450589294
 40
0.5077435855
 40
0.5701250443
 40
0.6322108186
 40
0.694015594
 40
0.7555747862
 40
0.8169177421
 40
0.8780930244
 40
1.0
 40
1.0
 40
1.0
 40
1.0
 10
15.2137118467
 20
9.1971130044
 30
0.0
 10
15.2102765988
 20
9.1919070414
 30
0.0
 10
15.2053807083
 20
9.1839291635
 30
0.0
 10
15.1995793218
 20
9.1729069913
 30
0.0
 10
15.1943652221
 20
9.161666922
 30
0.0
 10
15.1901303937
 20
9.1500278029
 30
0.0
 10
15.1871497125
 20
9.1380867214
 30
0.0
 10
15.1855811737
 20
9.1290469769
 30
0.0
 10
15.1847064301
 20
9.1199577725
 30
0.0
 10
15.1845093912
 20
9.1108719927
 30
0.0
 10
15.1849666207
 20
9.101836581
 30
0.0
 10
15.1860198982
 20
9.0928888629
 30
0.0
 10
15.1876126544
 20
9.0840533544
 30
0.0
 10
15.1903614108
 20
9.0724560039
 30
0.0
 10
15.1930436233
 20
9.0639293941
 30
0.0
 10
15.1950332064
 20
9.0583300869
 30
0.0
  0
SPLINE
  5
2EF
100
AcDbEntity
  8
0
100
AcDbSpline
 62
7
  6
CONTINUOUS
 70
0
 71
3
 72
23
 73
19
 74
0
 42
0.0000001
 43
0.0000001
 44
0.0000000001
 40
0.0
 40
0.0
 40
0.0
 40
0.0
 40
0.1144101964
 40
0.1714390113
 40
0.2285140344
 40
0.2858717948
 40
0.3437942037
 40
0.4026190393
 40
0.4626690727
 40
0.524229634
 40
0.5874721011
 40
0.6197543822
 40
0.6524720788
 40
0.7191566268
 40
0.7874152761
 40
0.8570972385
 40
0.9280162231
 40
1.0
 40
1.0
 40
1.0
 40
1.0
 10
15.1950332064
 20
9.2998115577
 30
0.0
 10
15.1930555503
 20
9.2960189323
 30
0.0
 10
15.1903728415
 20
9.2901759133
 30
0.0
 10
15.1876143737
 20
9.282083766
 30
0.0
 10
15.1860187443
 20
9.2758676382
 30
0.0
 10
15.1849640812
 20
9.2695020513
 30
0.0
 10
15.1845082778
 20
9.2629985695
 30
0.0
 10
15.184710327
 20
9.2563807492
 30
0.0
 10
15.1855932944
 20
9.2496816531
 30
0.0
 10
15.1871709547
 20
9.2429426951
 30
0.0
 10
15.1890251306
 20
9.2373620787
 30
0.0
 10
15.1908153358
 20
9.2329133633
 30
0.0
 10
15.1928279549
 20
9.2284192725
 30
0.0
 10
15.1956986094
 20
9.2228412965
 30
0.0
 10
15.199616875
 20
9.2162662946
 30
0.0
 10
15.2039627435
 20
9.2097754209
 30
0.0
 10
15.2086750831
 20
9.2033729276
 30
0.0
 10
15.2120030025
 20
9.1991919782
 30
0.0
 10
15.2137118467
 20
9.1971130044
 30
0.0
  0
SPLINE
  5
2F0
100
AcDbEntity
  8
0
100
AcDbSpline
 62
7
  6
CONTINUOUS
 70
0
 71
3
 72
31
 73
27
 74
0
 42
0.0000001
 43
0.0000001
 44
0.0000000001
 40
0.0
 40
0.0
 40
0.0
 40
0.0
 40
0.0741696392
 40
0.1500833134
 40
0.2269971515
 40
0.3041546038
 40
0.3807955313
 40
0.4561671097
 40
0.5295317722
 40
0.6001775985
 40
0.6342698861
 40
0.6674320757
 40
0.6995874164
 40
0.7306631874
 40
0.7605884124
 40
0.7892988715
 40
0.8167354572
 40
0.8428421028
 40
0.867571609
 40
0.890883369
 40
0.9127428366
 40
0.9331302099
 40
0.9520372638
 40
0.9694674169
 40
0.9854411638
 40
1.0
 40
1.0
 40
1.0
 40
1.0
 10
15.0956897226
 20
9.0568315305
 30
0.0
 10
15.0954840873
 20
9.0676002166
 30
0.0
 10
15.0953835352
 20
9.0893978709
 30
0.0
 10
15.0961186941
 20
9.1223569796
 30
0.0
 10
15.0977301282
 20
9.1557194185
 30
0.0
 10
15.1002015846
 20
9.189134983
 30
0.0
 10
15.1035068924
 20
9.2222533999
 30
0.0
 10
15.1076108592
 20
9.2547275187
 30
0.0
 10
15.1124704188
 20
9.2862166903
 30
0.0
 10
15.1171604943
 20
9.3116558741
 30
0.0
 10
15.1212665916
 20
9.3312565763
 30
0.0
 10
15.1244645353
 20
9.3453346084
 30
0.0
 10
15.1278087714
 20
9.3589279508
 30
0.0
 10
15.131289993
 20
9.3720010911
 30
0.0
 10
15.1348996555
 20
9.3845196246
 30
0.0
 10
15.1386280135
 20
9.3964508721
 30
0.0
 10
15.1424647743
 20
9.4077638176
 30
0.0
 10
15.1464006237
 20
9.4184286972
 30
0.0
 10
15.1504246857
 20
9.4284178387
 30
0.0
 10
15.1545258046
 20
9.4377054673
 30
0.0
 10
15.1586941071
 20
9.4462673978
 30
0.0
 10
15.1629186022
 20
9.4540822814
 30
0.0
 10
15.1671885327
 20
9.4611309677
 30
0.0
 10
15.1714945522
 20
9.4673952252
 30
0.0
 10
15.1758235261
 20
9.472858767
 30
0.0
 10
15.1788545326
 20
9.4761046795
 30
0.0
 10
15.1803751677
 20
9.4775735003
 30
0.0
  0
SPLINE
  5
2F1
100
AcDbEntity
  8
0
100
AcDbSpline
 62
7
  6
CONTINUOUS
 70
0
 71
3
 72
18
 73
14
 74
0
 42
0.0000001
 43
0.0000001
 44
0.0000000001
 40
0.0
 40
0.0
 40
0.0
 40
0.0
 40
0.0425236988
 40
0.0879839309
 40
0.1364375391
 40
0.1878970219
 40
0.2423121398
 40
0.2995994534
 40
0.4223200954
 40
0.5549406283
 40
0.6962230576
 40
0.8449467131
 40
1.0
 40
1.0
 40
1.0
 40
1.0
 10
15.1576759094
 20
9.041583274
 30
0.0
 10
15.1580964932
 20
9.0419895267
 30
0.0
 10
15.1589997793
 20
9.0427962446
 30
0.0
 10
15.160478208
 20
9.0439530463
 30
0.0
 10
15.1621202905
 20
9.0450947842
 30
0.0
 10
15.1639207936
 20
9.0462194833
 30
0.0
 10
15.1658726509
 20
9.047327132
 30
0.0
 10
15.1687332418
 20
9.0488145263
 30
0.0
 10
15.1726416632
 20
9.0506110533
 30
0.0
 10
15.1777018141
 20
9.0526499129
 30
0.0
 10
15.1831705304
 20
9.0546198075
 30
0.0
 10
15.1889870986
 20
9.0565252773
 30
0.0
 10
15.1929864465
 20
9.0577326925
 30
0.0
 10
15.1950332064
 20
9.0583300869
 30
0.0
  0
SPLINE
  5
2F2
100
AcDbEntity
  8
0
100
AcDbSpline
 62
7
  6
CONTINUOUS
 70
0
 71
3
 72
13
 73
9
 74
0
 42
0.0000001
 43
0.0000001
 44
0.0000000001
 40
0.0
 40
0.0
 40
0.0
 40
0.0
 40
0.1101061965
 40
0.2220602548
 40
0.3371230711
 40
0.4565580715
 40
0.7131136204
 40
1.0
 40
1.0
 40
1.0
 40
1.0
 10
15.1532789747
 20
9.0331848741
 30
0.0
 10
15.1533001074
 20
9.0335403249
 30
0.0
 10
15.1533805337
 20
9.0342555459
 30
0.0
 10
15.1536183252
 20
9.0353215816
 30
0.0
 10
15.1539775828
 20
9.0363850428
 30
0.0
 10
15.1546381816
 20
9.0378319231
 30
0.0
 10
15.1558171209
 20
9.0396375747
 30
0.0
 10
15.1570086012
 20
9.0409387037
 30
0.0
 10
15.1576759094
 20
9.041583274
 30
0.0
  0
SPLINE
  5
2F3
100
AcDbEntity
  8
0
100
AcDbSpline
 62
7
  6
CONTINUOUS
 70
0
 71
3
 72
23
 73
19
 74
0
 42
0.0000001
 43
0.0000001
 44
0.0000000001
 40
0.0
 40
0.0
 40
0.0
 40
0.0
 40
0.0755493506
 40
0.1465781137
 40
0.2134209155
 40
0.2764972924
 40
0.3363264137
 40
0.393550056
 40
0.4489238843
 40
0.5032842931
 40
0.5575175409
 40
0.6125176493
 40
0.6691350224
 40
0.7281410513
 40
0.790210366
 40
0.8559157723
 40
0.9257235102
 40
1.0
 40
1.0
 40
1.0
 40
1.0
 10
15.1803751677
 20
9.4775735003
 30
0.0
 10
15.1812862316
 20
9.4784535206
 30
0.0
 10
15.1831076695
 20
9.4801066615
 30
0.0
 10
15.1859271177
 20
9.4823155231
 30
0.0
 10
15.1887439317
 20
9.4841717127
 30
0.0
 10
15.1915551128
 20
9.4856719344
 30
0.0
 10
15.1943580877
 20
9.4868123935
 30
0.0
 10
15.1971496972
 20
9.487589825
 30
0.0
 10
15.1999261054
 20
9.4880023047
 30
0.0
 10
15.2026829295
 20
9.4880480959
 30
0.0
 10
15.2054150755
 20
9.4877263754
 30
0.0
 10
15.2081171685
 20
9.4870375773
 30
0.0
 10
15.2107847247
 20
9.4859847291
 30
0.0
 10
15.2134143036
 20
9.4845710907
 30
0.0
 10
15.2160032541
 20
9.4827997178
 30
0.0
 10
15.2185491519
 20
9.4806730997
 30
0.0
 10
15.2210498982
 20
9.4781944738
 30
0.0
 10
15.2226349351
 20
9.4763683442
 30
0.0
 10
15.2234206851
 20
9.4754021864
 30
0.0
  0
SPLINE
  5
2F4
100
AcDbEntity
  8
0
100
AcDbSpline
 62
7
  6
CONTINUOUS
 70
0
 71
3
 72
16
 73
12
 74
0
 42
0.0000001
 43
0.0000001
 44
0.0000000001
 40
0.0
 40
0.0
 40
0.0
 40
0.0
 40
0.1503917153
 40
0.2916310147
 40
0.4244125626
 40
0.4879158758
 40
0.5496499394
 40
0.6683493365
 40
0.7818953326
 40
0.8918652976
 40
1.0
 40
1.0
 40
1.0
 40
1.0
 10
15.1649203535
 20
9.4941001095
 30
0.0
 10
15.1658922537
 20
9.4950388931
 30
0.0
 10
15.1678353257
 20
9.4968005498
 30
0.0
 10
15.1708445815
 20
9.4991486078
 30
0.0
 10
15.1733868838
 20
9.5008101924
 30
0.0
 10
15.1754145336
 20
9.5019358855
 30
0.0
 10
15.177382474
 20
9.5029024659
 30
0.0
 10
15.1798430974
 20
9.503878858
 30
0.0
 10
15.1828220317
 20
9.504671186
 30
0.0
 10
15.1857837044
 20
9.505066783
 30
0.0
 10
15.1877504184
 20
9.5050645944
 30
0.0
 10
15.1887196753
 20
9.5049973947
 30
0.0
  0
SPLINE
  5
2F5
100
AcDbEntity
  8
0
100
AcDbSpline
 62
7
  6
CONTINUOUS
 70
0
 71
3
 72
54
 73
50
 74
0
 42
0.0000001
 43
0.0000001
 44
0.0000000001
 40
0.0
 40
0.0
 40
0.0
 40
0.0
 40
0.0086007063
 40
0.0180013121
 40
0.0282245273
 40
0.0392821733
 40
0.0511770453
 40
0.0639043917
 40
0.0774547827
 40
0.091814537
 40
0.1069621383
 40
0.1228720285
 40
0.1568645699
 40
0.1935351672
 40
0.2325880819
 40
0.2736916608
 40
0.3164919208
 40
0.3606110468
 40
0.4056583164
 40
0.4512303841
 40
0.4969192133
 40
0.5423143242
 40
0.5870098801
 40
0.6306063328
 40
0.6727191713
 40
0.712979107
 40
0.7510419255
 40
0.7865904611
 40
0.819342584
 40
0.8345952089
 40
0.849064206
 40
0.8627269912
 40
0.8755674627
 40
0.8875754386
 40
0.898745099
 40
0.9090779845
 40
0.918588093
 40
0.9273007512
 40
0.9352559376
 40
0.9425164512
 40
0.9491731625
 40
0.9553482378
 40
0.9611992437
 40
0.9669155621
 40
0.9727007343
 40
0.9787514506
 40
0.985237
 40
0.9922877177
 40
1.0
 40
1.0
 40
1.0
 40
1.0
 10
15.1803751677
 20
9.0173098168
 30
0.0
 10
15.1810307505
 20
9.0179430612
 30
0.0
 10
15.1823380057
 20
9.0193364001
 30
0.0
 10
15.1842094916
 20
9.0216726824
 30
0.0
 10
15.1860724104
 20
9.0243401343
 30
0.0
 10
15.1879213781
 20
9.0273323811
 30
0.0
 10
15.1897518971
 20
9.0306424547
 30
0.0
 10
15.1915601841
 20
9.0342623673
 30
0.0
 10
15.1933420739
 20
9.0381840198
 30
0.0
 10
15.195093121
 20
9.0423985768
 30
0.0
 10
15.1968095294
 20
9.0468959769
 30
0.0
 10
15.1990971108
 20
9.0533998632
 30
0.0
 10
15.2018226424
 20
9.0621639305
 30
0.0
 10
15.2048255356
 20
9.0733994899
 30
0.0
 10
15.2075983515
 20
9.0854683477
 30
0.0
 10
15.2101153063
 20
9.0982554961
 30
0.0
 10
15.212350795
 20
9.1116392955
 30
0.0
 10
15.2142841086
 20
9.1254920302
 30
0.0
 10
15.2158958985
 20
9.1396814328
 30
0.0
 10
15.2171709535
 20
9.1540720047
 30
0.0
 10
15.2180970747
 20
9.1685261708
 30
0.0
 10
15.2186650285
 20
9.1829058979
 30
0.0
 10
15.2188701828
 20
9.1970736802
 30
0.0
 10
15.2187098306
 20
9.2108942853
 30
0.0
 10
15.2181867807
 20
9.2242356819
 30
0.0
 10
15.2173054572
 20
9.236970667
 30
0.0
 10
15.2160755862
 20
9.248978072
 30
0.0
 10
15.2145089867
 20
9.2601435682
 30
0.0
 10
15.2129006369
 20
9.2688548177
 30
0.0
 10
15.2114404601
 20
9.2753133368
 30
0.0
 10
15.2102976916
 20
9.2797675379
 30
0.0
 10
15.2090836059
 20
9.2839373306
 30
0.0
 10
15.2078011678
 20
9.287812967
 30
0.0
 10
15.206453765
 20
9.2913856376
 30
0.0
 10
15.2050444558
 20
9.2946470333
 30
0.0
 10
15.20357595
 20
9.2975894879
 30
0.0
 10
15.2020518537
 20
9.3002067541
 30
0.0
 10
15.2004752808
 20
9.302493381
 30
0.0
 10
15.1988483072
 20
9.3044440149
 30
0.0
 10
15.1971729073
 20
9.3060539511
 30
0.0
 10
15.1954510739
 20
9.3073190008
 30
0.0
 10
15.1936842909
 20
9.3082331766
 30
0.0
 10
15.1918759779
 20
9.3087878422
 30
0.0
 10
15.1900346337
 20
9.3089767616
 30
0.0
 10
15.188171424
 20
9.3087982872
 30
0.0
 10
15.186296733
 20
9.3082555251
 30
0.0
 10
15.1844172618
 20
9.3073557132
 30
0.0
 10
15.1825362178
 20
9.3061070825
 30
0.0
 10
15.1813397803
 20
9.3050936373
 30
0.0
 10
15.1807413417
 20
9.3045369614
 30
0.0
  0
SPLINE
  5
2F6
100
AcDbEntity
  8
0
100
AcDbSpline
 62
7
  6
CONTINUOUS
 70
0
 71
3
 72
21
 73
17
 74
0
 42
0.0000001
 43
0.0000001
 44
0.0000000001
 40
0.0
 40
0.0
 40
0.0
 40
0.0
 40
0.1439903856
 40
0.2097046377
 40
0.2717890401
 40
0.3308081086
 40
0.3874323522
 40
0.4424387743
 40
0.4966836257
 40
0.5510596797
 40
0.6064537761
 40
0.6637059519
 40
0.7235674236
 40
0.7866664477
 40
0.8535213386
 40
1.0
 40
1.0
 40
1.0
 40
1.0
 10
15.1608882342
 20
9.0182906398
 30
0.0
 10
15.1615777079
 20
9.0174429942
 30
0.0
 10
15.1626615113
 20
9.0162665441
 30
0.0
 10
15.1642463554
 20
9.0149430479
 30
0.0
 10
15.165418327
 20
9.0141410369
 30
0.0
 10
15.1666085824
 20
9.0135009196
 30
0.0
 10
15.1678161571
 20
9.0130244283
 30
0.0
 10
15.169039398
 20
9.0127130441
 30
0.0
 10
15.1702762098
 20
9.0125675123
 30
0.0
 10
15.1715242985
 20
9.0125882312
 30
0.0
 10
15.1727813768
 20
9.0127750265
 30
0.0
 10
15.1740453663
 20
9.0131273893
 30
0.0
 10
15.1753143836
 20
9.0136441825
 30
0.0
 10
15.1765871996
 20
9.0143234882
 30
0.0
 10
15.1783405925
 20
9.0154790005
 30
0.0
 10
15.1795756956
 20
9.0165375861
 30
0.0
 10
15.1803751677
 20
9.0173098168
 30
0.0
  0
SPLINE
  5
2F7
100
AcDbEntity
  8
0
100
AcDbSpline
 62
7
  6
CONTINUOUS
 70
0
 71
3
 72
30
 73
26
 74
0
 42
0.0000001
 43
0.0000001
 44
0.0000000001
 40
0.0
 40
0.0
 40
0.0
 40
0.0
 40
0.0759311021
 40
0.1531144487
 40
0.2308510994
 40
0.3084365634
 40
0.3851676977
 40
0.4603510936
 40
0.5333123916
 40
0.6034020218
 40
0.6700068435
 40
0.7018243041
 40
0.7325614192
 40
0.762154791
 40
0.7905478854
 40
0.8176867435
 40
0.8435217981
 40
0.8680121257
 40
0.8911212647
 40
0.9128199381
 40
0.933092874
 40
0.9519340801
 40
0.9693486336
 40
0.9853573336
 40
1.0
 40
1.0
 40
1.0
 40
1.0
 10
15.0758873299
 20
9.0746670548
 30
0.0
 10
15.0758770718
 20
9.0856787559
 30
0.0
 10
15.0761519683
 20
9.1078849923
 30
0.0
 10
15.0774107952
 20
9.1413431466
 30
0.0
 10
15.079508616
 20
9.17499975
 30
0.0
 10
15.0824248287
 20
9.2085294618
 30
0.0
 10
15.0861317347
 20
9.2416085594
 30
0.0
 10
15.0905930142
 20
9.2739177329
 30
0.0
 10
15.0957646857
 20
9.3051453715
 30
0.0
 10
15.1015969064
 20
9.3349899889
 30
0.0
 10
15.1070390006
 20
9.3588195547
 30
0.0
 10
15.1117001568
 20
9.3769622877
 30
0.0
 10
15.1152705484
 20
9.3898409254
 30
0.0
 10
15.1189606637
 20
9.4021683259
 30
0.0
 10
15.1227609294
 20
9.4139150539
 30
0.0
 10
15.1266622339
 20
9.4250528289
 30
0.0
 10
15.1306557185
 20
9.4355546504
 30
0.0
 10
15.1347308239
 20
9.4453955995
 30
0.0
 10
15.1388776185
 20
9.4545521554
 30
0.0
 10
15.1430868979
 20
9.4630023923
 30
0.0
 10
15.1473482573
 20
9.4707271405
 30
0.0
 10
15.1516520226
 20
9.477708783
 30
0.0
 10
15.1559893031
 20
9.4839305437
 30
0.0
 10
15.1603476655
 20
9.4893775244
 30
0.0
 10
15.1633930066
 20
9.4926248055
 30
0.0
 10
15.1649203535
 20
9.4941001095
 30
0.0
  0
SPLINE
  5
2F8
100
AcDbEntity
  8
0
100
AcDbSpline
 62
7
  6
CONTINUOUS
 70
0
 71
3
 72
28
 73
24
 74
0
 42
0.0000001
 43
0.0000001
 44
0.0000000001
 40
0.0
 40
0.0
 40
0.0
 40
0.0
 40
0.0712707117
 40
0.1436257982
 40
0.2165555552
 40
0.2895594655
 40
0.3621279971
 40
0.4337587842
 40
0.5039567415
 40
0.5722398169
 40
0.6381435505
 40
0.7012258312
 40
0.7610719173
 40
0.7896617692
 40
0.8173024186
 40
0.8439524006
 40
0.8695734981
 40
0.8941300332
 40
0.9175910232
 40
0.9399284349
 40
0.9611198263
 40
0.9811475129
 40
1.0
 40
1.0
 40
1.0
 40
1.0
 10
6.0847621628
 20
8.7592455453
 30
0.0
 10
6.0847621628
 20
8.7766060429
 30
0.0
 10
6.0851689954
 20
8.8115923454
 30
0.0
 10
6.086950747
 20
8.8643159707
 30
0.0
 10
6.0898976463
 20
8.917410357
 30
0.0
 10
6.0939873715
 20
8.9704810118
 30
0.0
 10
6.0991900263
 20
9.0231362986
 30
0.0
 10
6.1054667078
 20
9.0749861229
 30
0.0
 10
6.1127707301
 20
9.1256470611
 30
0.0
 10
6.1210475309
 20
9.1747443903
 30
0.0
 10
6.1302351192
 20
9.2219154515
 30
0.0
 10
6.1402647715
 20
9.2668115316
 30
0.0
 10
6.1493951929
 20
9.3025792144
 30
0.0
 10
6.1570930554
 20
9.3297870425
 30
0.0
 10
6.1629409169
 20
9.3491112699
 30
0.0
 10
6.1689404683
 20
9.3676303174
 30
0.0
 10
6.1750802947
 20
9.3853101041
 30
0.0
 10
6.1813494872
 20
9.402117951
 30
0.0
 10
6.1877357757
 20
9.4180230768
 30
0.0
 10
6.1942278669
 20
9.4329961607
 30
0.0
 10
6.2008134052
 20
9.4470100148
 30
0.0
 10
6.2074801752
 20
9.4600388028
 30
0.0
 10
6.2121115716
 20
9.4683032859
 30
0.0
 10
6.2144445123
 20
9.472258736
 30
0.0
  0
SPLINE
  5
2F9
100
AcDbEntity
  8
0
100
AcDbSpline
 62
7
  6
CONTINUOUS
 70
0
 71
3
 72
9
 73
5
 74
0
 42
0.0000001
 43
0.0000001
 44
0.0000000001
 40
0.0
 40
0.0
 40
0.0
 40
0.0
 40
0.4850642138
 40
1.0
 40
1.0
 40
1.0
 40
1.0
 10
6.2082292327
 20
8.2234075577
 30
0.0
 10
6.2064564034
 20
8.2252385309
 30
0.0
 10
6.2029445838
 20
8.2291533099
 30
0.0
 10
6.1996978819
 20
8.2332888784
 30
0.0
 10
6.1980879336
 20
8.2354632964
 30
0.0
  0
SPLINE
  5
2FA
100
AcDbEntity
  8
0
100
AcDbSpline
 62
7
  6
CONTINUOUS
 70
0
 71
3
 72
9
 73
5
 74
0
 42
0.0000001
 43
0.0000001
 44
0.0000000001
 40
0.0
 40
0.0
 40
0.0
 40
0.0
 40
0.5044673503
 40
1.0
 40
1.0
 40
1.0
 40
1.0
 10
6.1980879336
 20
8.2354632964
 30
0.0
 10
6.189590902
 20
8.2512539402
 30
0.0
 10
6.1733779293
 20
8.2829007841
 30
0.0
 10
6.1587394019
 20
8.3153146166
 30
0.0
 10
6.1519677574
 20
8.331574993
 30
0.0
  0
SPLINE
  5
2FB
100
AcDbEntity
  8
0
100
AcDbSpline
 62
7
  6
CONTINUOUS
 70
0
 71
3
 72
15
 73
11
 74
0
 42
0.0000001
 43
0.0000001
 44
0.0000000001
 40
0.0
 40
0.0
 40
0.0
 40
0.0
 40
0.1250778913
 40
0.251678019
 40
0.3790158085
 40
0.5063307176
 40
0.6328455348
 40
0.757795228
 40
0.8804254389
 40
1.0
 40
1.0
 40
1.0
 40
1.0
 10
6.7817221966
 20
8.7090119576
 30
0.0
 10
6.7818805448
 20
8.7276767341
 30
0.0
 10
6.7826005221
 20
8.7652311292
 30
0.0
 10
6.7848460146
 20
8.8217509833
 30
0.0
 10
6.7882520328
 20
8.8785474213
 30
0.0
 10
6.7927959067
 20
8.9352513327
 30
0.0
 10
6.7984486685
 20
8.991497363
 30
0.0
 10
6.8051734303
 20
9.0469213854
 30
0.0
 10
6.8129264495
 20
9.1011648251
 30
0.0
 10
6.8188331125
 20
9.1368270839
 30
0.0
 10
6.8219585191
 20
9.1543954275
 30
0.0
  0
SPLINE
  5
2FC
100
AcDbEntity
  8
0
100
AcDbSpline
 62
7
  6
CONTINUOUS
 70
0
 71
3
 72
22
 73
18
 74
0
 42
0.0000001
 43
0.0000001
 44
0.0000000001
 40
0.0
 40
0.0
 40
0.0
 40
0.0
 40
0.0444944164
 40
0.0909393538
 40
0.1395587317
 40
0.1905379553
 40
0.2440243171
 40
0.3001166053
 40
0.3588736008
 40
0.4203072628
 40
0.4843959004
 40
0.5510815257
 40
0.6202826151
 40
0.6918950815
 40
0.7658017149
 40
0.8418771334
 40
1.0
 40
1.0
 40
1.0
 40
1.0
 10
6.2229756185
 20
9.4867231306
 30
0.0
 10
6.2244556457
 20
9.4892348871
 30
0.0
 10
6.227672334
 20
9.4942576521
 30
0.0
 10
6.2331266494
 20
9.5016050469
 30
0.0
 10
6.2393187613
 20
9.5089088381
 30
0.0
 10
6.2462528875
 20
9.5161639505
 30
0.0
 10
6.2539290184
 20
9.5233645956
 30
0.0
 10
6.2623386398
 20
9.5305075642
 30
0.0
 10
6.2714687885
 20
9.5375879599
 30
0.0
 10
6.2812990615
 20
9.5446040225
 30
0.0
 10
6.2918055112
 20
9.5515523989
 30
0.0
 10
6.3029588555
 20
9.5584326387
 30
0.0
 10
6.3147276711
 20
9.5652432344
 30
0.0
 10
6.3270776632
 20
9.5719848195
 30
0.0
 10
6.3399740027
 20
9.5786577671
 30
0.0
 10
6.3580839866
 20
9.5875802694
 30
0.0
 10
6.3720273902
 20
9.5939959465
 30
0.0
 10
6.3814970512
 20
9.5981991327
 30
0.0
  0
SPLINE
  5
2FD
100
AcDbEntity
  8
0
100
AcDbSpline
 62
7
  6
CONTINUOUS
 70
0
 71
3
 72
23
 73
19
 74
0
 42
0.0000001
 43
0.0000001
 44
0.0000000001
 40
0.0
 40
0.0
 40
0.0
 40
0.0
 40
0.0422054472
 40
0.0875785823
 40
0.1360754938
 40
0.1876289237
 40
0.24215275
 40
0.2995436082
 40
0.3596845865
 40
0.4224449499
 40
0.487683794
 40
0.5552494873
 40
0.6249825983
 40
0.6967120159
 40
0.7702611798
 40
0.8454545562
 40
0.9221084144
 40
1.0
 40
1.0
 40
1.0
 40
1.0
 10
6.1377100998
 20
8.3658302056
 30
0.0
 10
6.1355529544
 20
8.3710130896
 30
0.0
 10
6.1313666061
 20
8.3818898157
 30
0.0
 10
6.1256239791
 20
8.3990594917
 30
0.0
 10
6.1202053795
 20
8.4176328256
 30
0.0
 10
6.1151256878
 20
8.4375594524
 30
0.0
 10
6.1103991066
 20
8.4587859844
 30
0.0
 10
6.10603845
 20
8.4812549722
 30
0.0
 10
6.1020561623
 20
8.5049055027
 30
0.0
 10
6.0984629052
 20
8.5296732802
 30
0.0
 10
6.0952690613
 20
8.5554909178
 30
0.0
 10
6.0924830607
 20
8.5822882129
 30
0.0
 10
6.0901131634
 20
8.6099919497
 30
0.0
 10
6.0881653871
 20
8.6385262284
 30
0.0
 10
6.0866455776
 20
8.6678136882
 30
0.0
 10
6.085557628
 20
8.6977757621
 30
0.0
 10
6.0849051697
 20
8.728328087
 30
0.0
 10
6.0847621628
 20
8.7488849531
 30
0.0
 10
6.0847621628
 20
8.7592455453
 30
0.0
  0
SPLINE
  5
2FE
100
AcDbEntity
  8
0
100
AcDbSpline
 62
7
  6
CONTINUOUS
 70
0
 71
3
 72
19
 73
15
 74
0
 42
0.0000001
 43
0.0000001
 44
0.0000000001
 40
0.0
 40
0.0
 40
0.0
 40
0.0
 40
0.0487239306
 40
0.0996248406
 40
0.1526469103
 40
0.2077279129
 40
0.2648006497
 40
0.3237907428
 40
0.3846208457
 40
0.4472079285
 40
0.577300056
 40
0.7133263837
 40
0.8545110426
 40
1.0
 40
1.0
 40
1.0
 40
1.0
 10
6.8219585191
 20
8.2976561344
 30
0.0
 10
6.8203832024
 20
8.3034679294
 30
0.0
 10
6.8173212551
 20
8.3153947618
 30
0.0
 10
6.813068745
 20
8.3337755458
 30
0.0
 10
6.8090613537
 20
8.3530144937
 30
0.0
 10
6.8053056226
 20
8.3730804636
 30
0.0
 10
6.8018080243
 20
8.3939411421
 30
0.0
 10
6.7985737838
 20
8.4155628197
 30
0.0
 10
6.795608616
 20
8.4379106283
 30
0.0
 10
6.7919731629
 20
8.4690298109
 30
0.0
 10
6.7881643268
 20
8.5094796542
 30
0.0
 10
6.7847855911
 20
8.5597077169
 30
0.0
 10
6.7825659172
 20
8.6119043883
 30
0.0
 10
6.7818772725
 20
8.6473295198
 30
0.0
 10
6.7817221966
 20
8.6653089936
 30
0.0
  0
SPLINE
  5
2FF
100
AcDbEntity
  8
0
100
AcDbSpline
 62
7
  6
CONTINUOUS
 70
0
 71
3
 72
11
 73
7
 74
0
 42
0.0000001
 43
0.0000001
 44
0.0000000001
 40
0.0
 40
0.0
 40
0.0
 40
0.0
 40
0.2449615194
 40
0.4915752079
 40
0.7422856151
 40
1.0
 40
1.0
 40
1.0
 40
1.0
 10
6.2082292327
 20
9.4308352621
 30
0.0
 10
6.2081723313
 20
9.4342516983
 30
0.0
 10
6.2083568293
 20
9.4411171263
 30
0.0
 10
6.2096202635
 20
9.4514102454
 30
0.0
 10
6.2119607806
 20
9.4616974149
 30
0.0
 10
6.2142581047
 20
9.4684233879
 30
0.0
 10
6.2155945771
 20
9.4717605132
 30
0.0
  0
SPLINE
  5
300
100
AcDbEntity
  8
0
100
AcDbSpline
 62
7
  6
CONTINUOUS
 70
0
 71
3
 72
9
 73
5
 74
0
 42
0.0000001
 43
0.0000001
 44
0.0000000001
 40
0.0
 40
0.0
 40
0.0
 40
0.0
 40
0.4914164864
 40
1.0
 40
1.0
 40
1.0
 40
1.0
 10
6.2155945771
 20
9.4717605132
 30
0.0
 10
6.2166113641
 20
9.4742993953
 30
0.0
 10
6.2188848625
 20
9.4793860532
 30
0.0
 10
6.2215386989
 20
9.4842845322
 30
0.0
 10
6.2229756185
 20
9.4867231306
 30
0.0
  0
SPLINE
  5
301
100
AcDbEntity
  8
0
100
AcDbSpline
 62
7
  6
CONTINUOUS
 70
0
 71
3
 72
21
 73
17
 74
0
 42
0.0000001
 43
0.0000001
 44
0.0000000001
 40
0.0
 40
0.0
 40
0.0
 40
0.0
 40
0.1231153359
 40
0.184837322
 40
0.2466817013
 40
0.3086598058
 40
0.3707815459
 40
0.4330548007
 40
0.4954844141
 40
0.558071395
 40
0.6208128987
 40
0.6837027994
 40
0.7467321283
 40
0.809889664
 40
0.8731630859
 40
1.0
 40
1.0
 40
1.0
 40
1.0
 10
6.1114540243
 20
8.7554952132
 30
0.0
 10
6.1077974121
 20
8.7822559683
 30
0.0
 10
6.1033043719
 20
8.8225835723
 30
0.0
 10
6.0997227414
 20
8.876589599
 30
0.0
 10
6.0983428897
 20
8.9172795153
 30
0.0
 10
6.0983727503
 20
8.9580810701
 30
0.0
 10
6.0998983483
 20
8.9989492682
 30
0.0
 10
6.1029848696
 20
9.0398292352
 30
0.0
 10
6.1076709096
 20
9.0806599169
 30
0.0
 10
6.1139644505
 20
9.1213777577
 30
0.0
 10
6.1218403753
 20
9.1619217286
 30
0.0
 10
6.1312442964
 20
9.2022376716
 30
0.0
 10
6.1420975408
 20
9.2422812968
 30
0.0
 10
6.1543036481
 20
9.2820208252
 30
0.0
 10
6.1722510881
 20
9.3346118679
 30
0.0
 10
6.18739328
 20
9.3734994487
 30
0.0
 10
6.1980879336
 20
9.3991880367
 30
0.0
  0
SPLINE
  5
302
100
AcDbEntity
  8
0
100
AcDbSpline
 62
7
  6
CONTINUOUS
 70
0
 71
3
 72
20
 73
16
 74
0
 42
0.0000001
 43
0.0000001
 44
0.0000000001
 40
0.0
 40
0.0
 40
0.0
 40
0.0
 40
0.1323645687
 40
0.1975638323
 40
0.2621124007
 40
0.3260314053
 40
0.3893506663
 40
0.4521100623
 40
0.5143552623
 40
0.5761378589
 40
0.6375115404
 40
0.698530557
 40
0.7592478208
 40
0.8799564522
 40
1.0
 40
1.0
 40
1.0
 40
1.0
 10
6.1384448358
 20
8.3661435514
 30
0.0
 10
6.1331262309
 20
8.3807028293
 30
0.0
 10
6.1258263491
 20
8.4026780555
 30
0.0
 10
6.1176275248
 20
8.4322617085
 30
0.0
 10
6.1123366878
 20
8.4543201565
 30
0.0
 10
6.1078892608
 20
8.4763393305
 30
0.0
 10
6.1042956289
 20
8.4983018187
 30
0.0
 10
6.1015525742
 20
8.5201891571
 30
0.0
 10
6.0996525068
 20
8.5419850445
 30
0.0
 10
6.09857556
 20
8.5636744293
 30
0.0
 10
6.0982972335
 20
8.5852448566
 30
0.0
 10
6.0987853497
 20
8.6066865913
 30
0.0
 10
6.1004060702
 20
8.6350361319
 30
0.0
 10
6.1041539288
 20
8.6701644098
 30
0.0
 10
6.1087885794
 20
8.6979897653
 30
0.0
 10
6.1114540243
 20
8.7117922492
 30
0.0
  0
SPLINE
  5
303
100
AcDbEntity
  8
0
100
AcDbSpline
 62
7
  6
CONTINUOUS
 70
0
 71
3
 72
12
 73
8
 74
0
 42
0.0000001
 43
0.0000001
 44
0.0000000001
 40
0.0
 40
0.0
 40
0.0
 40
0.0
 40
0.2505370345
 40
0.502616898
 40
0.7533779578
 40
0.8773968868
 40
1.0
 40
1.0
 40
1.0
 40
1.0
 10
6.8219105641
 20
9.0059504539
 30
0.0
 10
6.8187386881
 20
8.977738954
 30
0.0
 10
6.8131775633
 20
8.9210489657
 30
0.0
 10
6.8071784153
 20
8.8358822706
 30
0.0
 10
6.8041314697
 20
8.7649057195
 30
0.0
 10
6.8029055305
 20
8.7085573259
 30
0.0
 10
6.8026983037
 20
8.680611245
 30
0.0
 10
6.8026983037
 20
8.6667186464
 30
0.0
  0
SPLINE
  5
304
100
AcDbEntity
  8
0
100
AcDbSpline
 62
7
  6
CONTINUOUS
 70
0
 71
3
 72
15
 73
11
 74
0
 42
0.0000001
 43
0.0000001
 44
0.0000000001
 40
0.0
 40
0.0
 40
0.0
 40
0.0
 40
0.1119812891
 40
0.2283286967
 40
0.3487387606
 40
0.4728902918
 40
0.6004428573
 40
0.7310559863
 40
0.8643813774
 40
1.0
 40
1.0
 40
1.0
 40
1.0
 10
6.8219105641
 20
8.3646020782
 30
0.0
 10
6.8203027661
 20
8.3757962296
 30
0.0
 10
6.8172900209
 20
8.3986597821
 30
0.0
 10
6.8134244735
 20
8.4336685074
 30
0.0
 10
6.8101337585
 20
8.4699701919
 30
0.0
 10
6.8074283145
 20
8.5074545845
 30
0.0
 10
6.8053162021
 20
8.5460089379
 30
0.0
 10
6.8038039994
 20
8.5855185413
 30
0.0
 10
6.8028969052
 20
8.6258612779
 30
0.0
 10
6.8026983037
 20
8.6530224802
 30
0.0
 10
6.8026983037
 20
8.6667186464
 30
0.0
  0
SPLINE
  5
305
100
AcDbEntity
  8
0
100
AcDbSpline
 62
7
  6
CONTINUOUS
 70
0
 71
3
 72
23
 73
19
 74
0
 42
0.0000001
 43
0.0000001
 44
0.0000000001
 40
0.0
 40
0.0
 40
0.0
 40
0.0
 40
0.0778915856
 40
0.1545454438
 40
0.2297388202
 40
0.3032879841
 40
0.3750174017
 40
0.4447505127
 40
0.512316206
 40
0.5775550501
 40
0.6403154135
 40
0.7004563918
 40
0.75784725
 40
0.8123710763
 40
0.8639245062
 40
0.9124214177
 40
0.9577945528
 40
1.0
 40
1.0
 40
1.0
 40
1.0
 10
15.9152378372
 20
8.4097564464
 30
0.0
 10
15.9152378372
 20
8.4201170386
 30
0.0
 10
15.9150948303
 20
8.4406739047
 30
0.0
 10
15.914442372
 20
8.4712262296
 30
0.0
 10
15.9133544224
 20
8.5011883035
 30
0.0
 10
15.9118346129
 20
8.5304757633
 30
0.0
 10
15.9098868366
 20
8.559010042
 30
0.0
 10
15.9075169393
 20
8.5867137788
 30
0.0
 10
15.9047309387
 20
8.6135110739
 30
0.0
 10
15.9015370948
 20
8.6393287115
 30
0.0
 10
15.8979438377
 20
8.664096489
 30
0.0
 10
15.89396155
 20
8.6877470195
 30
0.0
 10
15.8896008934
 20
8.7102160073
 30
0.0
 10
15.8848743122
 20
8.7314425393
 30
0.0
 10
15.8797946205
 20
8.7513691661
 30
0.0
 10
15.8743760209
 20
8.7699425
 30
0.0
 10
15.8686333939
 20
8.787112176
 30
0.0
 10
15.8644470456
 20
8.7979889021
 30
0.0
 10
15.8622899002
 20
8.8031717861
 30
0.0
  0
SPLINE
  5
306
100
AcDbEntity
  8
0
100
AcDbSpline
 62
7
  6
CONTINUOUS
 70
0
 71
3
 72
9
 73
5
 74
0
 42
0.0000001
 43
0.0000001
 44
0.0000000001
 40
0.0
 40
0.0
 40
0.0
 40
0.0
 40
0.5149357862
 40
1.0
 40
1.0
 40
1.0
 40
1.0
 10
15.8019120664
 20
8.9335386953
 30
0.0
 10
15.8003021181
 20
8.9357131133
 30
0.0
 10
15.7970554162
 20
8.9398486818
 30
0.0
 10
15.7935435966
 20
8.9437634608
 30
0.0
 10
15.7917707673
 20
8.945594434
 30
0.0
  0
SPLINE
  5
307
100
AcDbEntity
  8
0
100
AcDbSpline
 62
7
  6
CONTINUOUS
 70
0
 71
3
 72
22
 73
18
 74
0
 42
0.0000001
 43
0.0000001
 44
0.0000000001
 40
0.0
 40
0.0
 40
0.0
 40
0.0
 40
0.1581228667
 40
0.2341982852
 40
0.3081049186
 40
0.379717385
 40
0.4489184745
 40
0.5156040998
 40
0.5796927374
 40
0.6411263993
 40
0.6998833948
 40
0.755975683
 40
0.8094620448
 40
0.8604412683
 40
0.9090606462
 40
0.9555055836
 40
1.0
 40
1.0
 40
1.0
 40
1.0
 10
15.6185029488
 20
7.570802859
 30
0.0
 10
15.6279726099
 20
7.5750060452
 30
0.0
 10
15.6419160134
 20
7.5814217223
 30
0.0
 10
15.6600259973
 20
7.5903442247
 30
0.0
 10
15.6729223368
 20
7.5970171722
 30
0.0
 10
15.6852723289
 20
7.6037587574
 30
0.0
 10
15.6970411446
 20
7.6105693531
 30
0.0
 10
15.7081944889
 20
7.6174495929
 30
0.0
 10
15.7187009386
 20
7.6243979693
 30
0.0
 10
15.7285312116
 20
7.6314140319
 30
0.0
 10
15.7376613603
 20
7.6384944276
 30
0.0
 10
15.7460709817
 20
7.6456373962
 30
0.0
 10
15.7537471126
 20
7.6528380413
 30
0.0
 10
15.7606812388
 20
7.6600931537
 30
0.0
 10
15.7668733507
 20
7.6673969449
 30
0.0
 10
15.7723276661
 20
7.6747443398
 30
0.0
 10
15.7755443544
 20
7.6797671047
 30
0.0
 10
15.7770243816
 20
7.6822788612
 30
0.0
  0
SPLINE
  5
308
100
AcDbEntity
  8
0
100
AcDbSpline
 62
7
  6
CONTINUOUS
 70
0
 71
3
 72
28
 73
24
 74
0
 42
0.0000001
 43
0.0000001
 44
0.0000000001
 40
0.0
 40
0.0
 40
0.0
 40
0.0
 40
0.0188524871
 40
0.0388801737
 40
0.0600715651
 40
0.0824089768
 40
0.1058699668
 40
0.1304265019
 40
0.1560475994
 40
0.1826975814
 40
0.2103382308
 40
0.2389280827
 40
0.2987741688
 40
0.3618564495
 40
0.4277601831
 40
0.4960432585
 40
0.5662412158
 40
0.6378720029
 40
0.7104405345
 40
0.7834444448
 40
0.8563742018
 40
0.9287292883
 40
1.0
 40
1.0
 40
1.0
 40
1.0
 10
15.7855554877
 20
7.6967432557
 30
0.0
 10
15.7878884284
 20
7.7006987058
 30
0.0
 10
15.7925198248
 20
7.7089631889
 30
0.0
 10
15.7991865948
 20
7.7219919769
 30
0.0
 10
15.8057721331
 20
7.736005831
 30
0.0
 10
15.8122642243
 20
7.7509789149
 30
0.0
 10
15.8186505128
 20
7.7668840407
 30
0.0
 10
15.8249197053
 20
7.7836918876
 30
0.0
 10
15.8310595317
 20
7.8013716743
 30
0.0
 10
15.8370590831
 20
7.8198907218
 30
0.0
 10
15.8429069446
 20
7.8392149492
 30
0.0
 10
15.8506048071
 20
7.8664227773
 30
0.0
 10
15.8597352285
 20
7.9021904601
 30
0.0
 10
15.8697648808
 20
7.9470865402
 30
0.0
 10
15.8789524691
 20
7.9942576014
 30
0.0
 10
15.8872292699
 20
8.0433549306
 30
0.0
 10
15.8945332922
 20
8.0940158688
 30
0.0
 10
15.9008099737
 20
8.1458656931
 30
0.0
 10
15.9060126285
 20
8.1985209799
 30
0.0
 10
15.9101023537
 20
8.2515916347
 30
0.0
 10
15.913049253
 20
8.304686021
 30
0.0
 10
15.9148310046
 20
8.3574096463
 30
0.0
 10
15.9152378372
 20
8.3923959488
 30
0.0
 10
15.9152378372
 20
8.4097564464
 30
0.0
  0
SPLINE
  5
309
100
AcDbEntity
  8
0
100
AcDbSpline
 62
7
  6
CONTINUOUS
 70
0
 71
3
 72
9
 73
5
 74
0
 42
0.0000001
 43
0.0000001
 44
0.0000000001
 40
0.0
 40
0.0
 40
0.0
 40
0.0
 40
0.4955326499
 40
1.0
 40
1.0
 40
1.0
 40
1.0
 10
15.8480322405
 20
8.8374270037
 30
0.0
 10
15.8412605963
 20
8.8536873792
 30
0.0
 10
15.8266220695
 20
8.88610121
 30
0.0
 10
15.8104090976
 20
8.9177480523
 30
0.0
 10
15.8019120664
 20
8.9335386953
 30
0.0
  0
SPLINE
  5
30A
100
AcDbEntity
  8
0
100
AcDbSpline
 62
7
  6
CONTINUOUS
 70
0
 71
3
 72
23
 73
19
 74
0
 42
0.0000001
 43
0.0000001
 44
0.0000000001
 40
0.0
 40
0.0
 40
0.0
 40
0.0
 40
0.0879689742
 40
0.1720374745
 40
0.2522277104
 40
0.3285767996
 40
0.4011454457
 40
0.4700180837
 40
0.5353037253
 40
0.5971447226
 40
0.6557237648
 40
0.7112648106
 40
0.7640406505
 40
0.8143822203
 40
0.8626779008
 40
0.909373088
 40
0.9549671986
 40
1.0
 40
1.0
 40
1.0
 40
1.0
 10
15.034258492
 20
7.6058432214
 30
0.0
 10
15.0323875665
 20
7.6026711186
 30
0.0
 10
15.0286406079
 20
7.5965188493
 30
0.0
 10
15.0228650345
 20
7.5876768844
 30
0.0
 10
15.0170665087
 20
7.579437708
 30
0.0
 10
15.0112494708
 20
7.5718084084
 30
0.0
 10
15.0054186699
 20
7.564795077
 30
0.0
 10
14.9995788324
 20
7.5584032067
 30
0.0
 10
14.9937341988
 20
7.5526382112
 30
0.0
 10
14.9878889319
 20
7.5475050537
 30
0.0
 10
14.9820474652
 20
7.5430077655
 30
0.0
 10
14.9762137487
 20
7.5391504691
 30
0.0
 10
14.9703914575
 20
7.5359376478
 30
0.0
 10
14.964584881
 20
7.5333728321
 30
0.0
 10
14.9587985321
 20
7.5314596558
 30
0.0
 10
14.9530370681
 20
7.5302024256
 30
0.0
 10
14.9473076793
 20
7.5296042019
 30
0.0
 10
14.9435038563
 20
7.5296459852
 30
0.0
 10
14.9416231121
 20
7.5297763715
 30
0.0
  0
SPLINE
  5
30B
100
AcDbEntity
  8
0
100
AcDbSpline
 62
7
  6
CONTINUOUS
 70
0
 71
3
 72
23
 73
19
 74
0
 42
0.0000001
 43
0.0000001
 44
0.0000000001
 40
0.0
 40
0.0
 40
0.0
 40
0.0
 40
0.0879702547
 40
0.1720387707
 40
0.252227033
 40
0.328576627
 40
0.4011464305
 40
0.4700175817
 40
0.5353026847
 40
0.597145183
 40
0.655723887
 40
0.7112638297
 40
0.7640406038
 40
0.8143826993
 40
0.8626776158
 40
0.909372916
 40
0.9549673584
 40
1.0
 40
1.0
 40
1.0
 40
1.0
 10
15.1307293994
 20
8.9969152609
 30
0.0
 10
15.1293142477
 20
9.000315277
 30
0.0
 10
15.1264525239
 20
9.006925915
 30
0.0
 10
15.1219528592
 20
9.0164804019
 30
0.0
 10
15.1173469503
 20
9.0254408475
 30
0.0
 10
15.1126388471
 20
9.033800032
 30
0.0
 10
15.1078322224
 20
9.041551175
 30
0.0
 10
15.1029304469
 20
9.0486877366
 30
0.0
 10
15.0979374972
 20
9.0552041543
 30
0.0
 10
15.0928570672
 20
9.0610952516
 30
0.0
 10
15.0876923178
 20
9.0663557682
 30
0.0
 10
15.0824467222
 20
9.070981077
 30
0.0
 10
15.0771238964
 20
9.0749670587
 30
0.0
 10
15.0717271014
 20
9.0783090877
 30
0.0
 10
15.0662600911
 20
9.0810022758
 30
0.0
 10
15.0607274401
 20
9.0830428075
 30
0.0
 10
15.0551356327
 20
9.0844266934
 30
0.0
 10
15.0513624439
 20
9.0849102329
 30
0.0
 10
15.0494817223
 20
9.0850406177
 30
0.0
  0
SPLINE
  5
30C
100
AcDbEntity
  8
0
100
AcDbSpline
 62
7
  6
CONTINUOUS
 70
0
 71
3
 72
23
 73
19
 74
0
 42
0.0000001
 43
0.0000001
 44
0.0000000001
 40
0.0
 40
0.0
 40
0.0
 40
0.0
 40
0.0430432041
 40
0.0864276157
 40
0.130656649
 40
0.1763288731
 40
0.2240992276
 40
0.2746265429
 40
0.3285147701
 40
0.3862610475
 40
0.4482190742
 40
0.5145822216
 40
0.585391119
 40
0.6605550141
 40
0.7398801137
 40
0.8231012882
 40
0.9099156628
 40
1.0
 40
1.0
 40
1.0
 40
1.0
 10
15.7917707673
 20
8.945594434
 30
0.0
 10
15.7918317158
 20
8.9419350036
 30
0.0
 10
15.7916110121
 20
8.9345757093
 30
0.0
 10
15.7901393287
 20
8.9235435606
 30
0.0
 10
15.7874144061
 20
8.9125181884
 30
0.0
 10
15.7833297523
 20
8.9015209895
 30
0.0
 10
15.777791992
 20
8.8905753741
 30
0.0
 10
15.7707283214
 20
8.8797052288
 30
0.0
 10
15.7620901566
 20
8.8689315611
 30
0.0
 10
15.7518555256
 20
8.8582717593
 30
0.0
 10
15.7400308374
 20
8.8477396681
 30
0.0
 10
15.7266513786
 20
8.8373451904
 30
0.0
 10
15.7117781189
 20
8.8270953269
 30
0.0
 10
15.6954933812
 20
8.8169941496
 30
0.0
 10
15.6778952359
 20
8.8070427042
 30
0.0
 10
15.6590910226
 20
8.7972389155
 30
0.0
 10
15.6391915772
 20
8.7875787137
 30
0.0
 10
15.6255041009
 20
8.7813380817
 30
0.0
 10
15.6185029488
 20
8.7782305633
 30
0.0
  0
SPLINE
  5
30D
100
AcDbEntity
  8
0
100
AcDbSpline
 62
7
  6
CONTINUOUS
 70
0
 71
3
 72
21
 73
17
 74
0
 42
0.0000001
 43
0.0000001
 44
0.0000000001
 40
0.0
 40
0.0
 40
0.0
 40
0.0
 40
0.1231153359
 40
0.184837322
 40
0.2466817013
 40
0.3086598058
 40
0.3707815459
 40
0.4330548007
 40
0.4954844141
 40
0.558071395
 40
0.6208128987
 40
0.6837027994
 40
0.7467321283
 40
0.809889664
 40
0.8731630859
 40
1.0
 40
1.0
 40
1.0
 40
1.0
 10
15.6083616496
 20
8.7465833379
 30
0.0
 10
15.6120182619
 20
8.7198225829
 30
0.0
 10
15.616511302
 20
8.6794949789
 30
0.0
 10
15.6200929326
 20
8.6254889522
 30
0.0
 10
15.6214727843
 20
8.5847990359
 30
0.0
 10
15.6214429237
 20
8.5439974811
 30
0.0
 10
15.6199173257
 20
8.503129283
 30
0.0
 10
15.6168308044
 20
8.462249316
 30
0.0
 10
15.6121447644
 20
8.4214186343
 30
0.0
 10
15.6058512235
 20
8.3807007935
 30
0.0
 10
15.5979752986
 20
8.3401568226
 30
0.0
 10
15.5885713776
 20
8.2998408796
 30
0.0
 10
15.5777181331
 20
8.2597972544
 30
0.0
 10
15.5655120258
 20
8.220057726
 30
0.0
 10
15.5475645859
 20
8.1674666833
 30
0.0
 10
15.532422394
 20
8.1285791025
 30
0.0
 10
15.5217277404
 20
8.1028905145
 30
0.0
  0
SPLINE
  5
30E
100
AcDbEntity
  8
0
100
AcDbSpline
 62
7
  6
CONTINUOUS
 70
0
 71
3
 72
23
 73
19
 74
0
 42
0.0000001
 43
0.0000001
 44
0.0000000001
 40
0.0
 40
0.0
 40
0.0
 40
0.0
 40
0.0681436223
 40
0.1355717925
 40
0.2022246133
 40
0.2680530577
 40
0.3330188589
 40
0.3971018651
 40
0.4603047619
 40
0.5226553367
 40
0.5842062484
 40
0.6450322154
 40
0.7052236803
 40
0.7648789131
 40
0.8240963959
 40
0.8829688942
 40
0.9415804852
 40
1.0
 40
1.0
 40
1.0
 40
1.0
 10
15.5217277404
 20
8.0591875504
 30
0.0
 10
15.5270564367
 20
8.0492848515
 30
0.0
 10
15.5374081599
 20
8.0294474778
 30
0.0
 10
15.5519915105
 20
7.9994249682
 30
0.0
 10
15.5654437968
 20
7.969295281
 30
0.0
 10
15.5776535288
 20
7.9390774197
 30
0.0
 10
15.5885130866
 20
7.9087970758
 30
0.0
 10
15.5979256061
 20
7.8784880493
 30
0.0
 10
15.605811809
 20
7.8481909532
 30
0.0
 10
15.6121163071
 20
7.8179513792
 30
0.0
 10
15.6168128301
 20
7.7878171135
 30
0.0
 10
15.6199082889
 20
7.7578347508
 30
0.0
 10
15.6214406189
 20
7.7280457709
 30
0.0
 10
15.6214747851
 20
7.6984838186
 30
0.0
 10
15.6200971134
 20
7.6691731575
 30
0.0
 10
15.6174086646
 20
7.6401278241
 30
0.0
 10
15.6135174251
 20
7.6113537182
 30
0.0
 10
15.610189617
 20
7.5923243683
 30
0.0
 10
15.6083616496
 20
7.5828585977
 30
0.0
  0
SPLINE
  5
30F
100
AcDbEntity
  8
0
100
AcDbSpline
 62
7
  6
CONTINUOUS
 70
0
 71
3
 72
29
 73
25
 74
0
 42
0.0000001
 43
0.0000001
 44
0.0000000001
 40
0.0
 40
0.0
 40
0.0
 40
0.0
 40
0.0844109308
 40
0.167021196
 40
0.2475180268
 40
0.3256369966
 40
0.401116176
 40
0.4737019132
 40
0.5431596849
 40
0.6092721542
 40
0.6718401978
 40
0.7306888572
 40
0.7586717622
 40
0.7856716262
 40
0.8116742211
 40
0.8366682477
 40
0.8606452028
 40
0.8835986256
 40
0.9055261083
 40
0.9264302219
 40
0.9463170845
 40
0.9651968369
 40
0.9830842384
 40
1.0
 40
1.0
 40
1.0
 40
1.0
 10
14.8514595681
 20
8.105670806
 30
0.0
 10
14.8515783679
 20
8.0918971871
 30
0.0
 10
14.8520395212
 20
8.0646451028
 30
0.0
 10
14.8534250606
 20
8.0242769734
 30
0.0
 10
14.8554931703
 20
7.9849658654
 30
0.0
 10
14.858235515
 20
7.9468624174
 30
0.0
 10
14.8616411828
 20
7.9101085127
 30
0.0
 10
14.8656975295
 20
7.874842655
 30
0.0
 10
14.870388691
 20
7.8411978013
 30
0.0
 10
14.8756963321
 20
7.8093000683
 30
0.0
 10
14.8816005726
 20
7.7792694374
 30
0.0
 10
14.8870864194
 20
7.7555099738
 30
0.0
 10
14.8917798169
 20
7.73753667
 30
0.0
 10
14.8953752779
 20
7.7248190182
 30
0.0
 10
14.8991021764
 20
7.7126483702
 30
0.0
 10
14.9029569752
 20
7.7010361193
 30
0.0
 10
14.9069357423
 20
7.6899930767
 30
0.0
 10
14.911034914
 20
7.6795296332
 30
0.0
 10
14.9152508362
 20
7.6696554586
 30
0.0
 10
14.9195795006
 20
7.6603793073
 30
0.0
 10
14.9240172062
 20
7.6517096599
 30
0.0
 10
14.9285600871
 20
7.6436547972
 30
0.0
 10
14.9332028823
 20
7.6362228221
 30
0.0
 10
14.9364509499
 20
7.6315602733
 30
0.0
 10
14.9380934774
 20
7.6293418533
 30
0.0
  0
SPLINE
  5
310
100
AcDbEntity
  8
0
100
AcDbSpline
 62
7
  6
CONTINUOUS
 70
0
 71
3
 72
37
 73
33
 74
0
 42
0.0000001
 43
0.0000001
 44
0.0000000001
 40
0.0
 40
0.0
 40
0.0
 40
0.0
 40
0.0242160064
 40
0.0471276776
 40
0.0688728694
 40
0.0896181497
 40
0.1095643177
 40
0.1289412712
 40
0.1480010561
 40
0.1670091283
 40
0.1862325832
 40
0.2059292153
 40
0.2263374353
 40
0.2476687588
 40
0.2701059695
 40
0.2938027283
 40
0.3188839929
 40
0.3454511185
 40
0.3735850406
 40
0.4033469108
 40
0.4347832022
 40
0.4679286948
 40
0.5028057521
 40
0.5394275751
 40
0.5778008267
 40
0.6179236654
 40
0.6597872747
 40
0.7033790872
 40
0.7486826578
 40
0.7956778314
 40
0.8946424786
 40
1.0
 40
1.0
 40
1.0
 40
1.0
 10
15.1215025951
 20
8.9920776896
 30
0.0
 10
15.1198925779
 20
8.9937405109
 30
0.0
 10
15.1166454763
 20
8.9968695913
 30
0.0
 10
15.1115504796
 20
9.0010497
 30
0.0
 10
15.1063768513
 20
9.0045746104
 30
0.0
 10
15.1011287971
 20
9.0074376808
 30
0.0
 10
15.0958112467
 20
9.0096339333
 30
0.0
 10
15.0904298997
 20
9.0111590457
 30
0.0
 10
15.0849915347
 20
9.0120087155
 30
0.0
 10
15.0795044773
 20
9.0121810294
 30
0.0
 10
15.0739773014
 20
9.0116765698
 30
0.0
 10
15.068418069
 20
9.0104969331
 30
0.0
 10
15.062833779
 20
9.0086456586
 30
0.0
 10
15.0572298028
 20
9.0061277208
 30
0.0
 10
15.0516108861
 20
9.0029472433
 30
0.0
 10
15.0459814887
 20
8.9991083869
 30
0.0
 10
15.0403454418
 20
8.9946160879
 30
0.0
 10
15.0347070535
 20
8.9894747581
 30
0.0
 10
15.0290710878
 20
8.9836889762
 30
0.0
 10
15.0234418493
 20
8.9772644612
 30
0.0
 10
15.0178241165
 20
8.9702070673
 30
0.0
 10
15.012223145
 20
8.9625229483
 30
0.0
 10
15.0066437236
 20
8.9542193003
 30
0.0
 10
15.0010908082
 20
8.9453037846
 30
0.0
 10
14.995569818
 20
8.9357844099
 30
0.0
 10
14.9900858077
 20
8.9256701473
 30
0.0
 10
14.9846437415
 20
8.9149706762
 30
0.0
 10
14.9792489565
 20
8.9036959025
 30
0.0
 10
14.9739064449
 20
8.8918561157
 30
0.0
 10
14.9667351167
 20
8.8750394264
 30
0.0
 10
14.9579655236
 20
8.8526706332
 30
0.0
 10
14.9514533006
 20
8.834255613
 30
0.0
 10
14.9482347765
 20
8.8247138189
 30
0.0
  0
SPLINE
  5
311
100
AcDbEntity
  8
0
100
AcDbSpline
 62
7
  6
CONTINUOUS
 70
0
 71
3
 72
21
 73
17
 74
0
 42
0.0000001
 43
0.0000001
 44
0.0000000001
 40
0.0
 40
0.0
 40
0.0
 40
0.0
 40
0.0721750434
 40
0.1408704233
 40
0.2690156223
 40
0.3293895806
 40
0.3879136836
 40
0.4451490293
 40
0.5016982119
 40
0.5581866935
 40
0.6152406903
 40
0.6734670847
 40
0.733434797
 40
0.8604758414
 40
0.9285177531
 40
1.0
 40
1.0
 40
1.0
 40
1.0
 10
14.9482347765
 20
7.6172861146
 30
0.0
 10
14.949669606
 20
7.6158042267
 30
0.0
 10
14.952561104
 20
7.6129970145
 30
0.0
 10
14.9584407076
 20
7.6080382253
 30
0.0
 10
14.9645948192
 20
7.6039406094
 30
0.0
 10
14.9709718776
 20
7.6008885601
 30
0.0
 10
14.97571304
 20
7.5991710687
 30
0.0
 10
14.9805016776
 20
7.5979834851
 30
0.0
 10
14.9853333814
 20
7.5973280816
 30
0.0
 10
14.9902026296
 20
7.5972056715
 30
0.0
 10
14.9951038497
 20
7.5976158467
 30
0.0
 10
15.0000321443
 20
7.5985579049
 30
0.0
 10
15.0067593688
 20
7.6005580486
 30
0.0
 10
15.0134185077
 20
7.603627927
 30
0.0
 10
15.0199258247
 20
7.6075958605
 30
0.0
 10
15.0231769922
 20
7.609911749
 30
0.0
 10
15.0248027621
 20
7.6111488064
 30
0.0
  0
SPLINE
  5
312
100
AcDbEntity
  8
0
100
AcDbSpline
 62
7
  6
CONTINUOUS
 70
0
 71
3
 72
11
 73
7
 74
0
 42
0.0000001
 43
0.0000001
 44
0.0000000001
 40
0.0
 40
0.0
 40
0.0
 40
0.0
 40
0.2707423955
 40
0.5275743428
 40
0.7705940619
 40
1.0
 40
1.0
 40
1.0
 40
1.0
 10
15.8622899002
 20
8.8031717861
 30
0.0
 10
15.8609935942
 20
8.8062863666
 30
0.0
 10
15.8583685738
 20
8.8123150453
 30
0.0
 10
15.8542114173
 20
8.8209730996
 30
0.0
 10
15.8499426901
 20
8.8289979538
 30
0.0
 10
15.8469399807
 20
8.8340644706
 30
0.0
 10
15.8454174571
 20
8.8364837628
 30
0.0
  0
SPLINE
  5
313
100
AcDbEntity
  8
0
100
AcDbSpline
 62
7
  6
CONTINUOUS
 70
0
 71
3
 72
55
 73
51
 74
0
 42
0.0000001
 43
0.0000001
 44
0.0000000001
 40
0.0
 40
0.0
 40
0.0
 40
0.0
 40
0.0091577868
 40
0.0177618445
 40
0.0258372884
 40
0.0334170679
 40
0.0405430748
 40
0.0472684852
 40
0.0536583613
 40
0.0597898466
 40
0.0657516837
 40
0.0716409717
 40
0.0775587123
 40
0.0836043685
 40
0.0898706698
 40
0.0964402932
 40
0.0998623988
 40
0.1033856202
 40
0.1107605558
 40
0.1186142058
 40
0.126983132
 40
0.1358954139
 40
0.14537248
 40
0.1554292655
 40
0.1660758699
 40
0.1773187873
 40
0.1891604404
 40
0.2016004246
 40
0.2146363091
 40
0.2282628502
 40
0.2424730097
 40
0.257258518
 40
0.2726089663
 40
0.3049559727
 40
0.3394089097
 40
0.3758441812
 40
0.4141231893
 40
0.4540951793
 40
0.4955985596
 40
0.5384619526
 40
0.5825062071
 40
0.6275453385
 40
0.6733874576
 40
0.7198363195
 40
0.7666923239
 40
0.8137540635
 40
0.8608176619
 40
0.9076794905
 40
0.9541447315
 40
1.0
 40
1.0
 40
1.0
 40
1.0
 10
15.8454174571
 20
8.8364837628
 30
0.0
 10
15.8439652705
 20
8.8387912894
 30
0.0
 10
15.8410339491
 20
8.8431963617
 30
0.0
 10
15.8363964211
 20
8.8493396722
 30
0.0
 10
15.831662368
 20
8.8548025073
 30
0.0
 10
15.8268362571
 20
8.8595786404
 30
0.0
 10
15.8219214214
 20
8.8636616273
 30
0.0
 10
15.81692196
 20
8.8670455881
 30
0.0
 10
15.811842272
 20
8.8697245651
 30
0.0
 10
15.8066873873
 20
8.8716911772
 30
0.0
 10
15.8014649612
 20
8.8729395504
 30
0.0
 10
15.7961845166
 20
8.873465574
 30
0.0
 10
15.7908569385
 20
8.873266823
 30
0.0
 10
15.7854929681
 20
8.8723457147
 30
0.0
 10
15.7801017598
 20
8.8707071229
 30
0.0
 10
15.7756530329
 20
8.8687740911
 30
0.0
 10
15.7720946737
 20
8.8668930921
 30
0.0
 10
15.7684256969
 20
8.8647185851
 30
0.0
 10
15.7638270975
 20
8.8615395186
 30
0.0
 10
15.7583856079
 20
8.8570855614
 30
0.0
 10
15.7529431118
 20
8.8519415527
 30
0.0
 10
15.7475049417
 20
8.8461137203
 30
0.0
 10
15.7420767852
 20
8.8396080757
 30
0.0
 10
15.7366639891
 20
8.8324320934
 30
0.0
 10
15.7312722297
 20
8.8245937252
 30
0.0
 10
15.7259078194
 20
8.81610141
 30
0.0
 10
15.7205764434
 20
8.8069648373
 30
0.0
 10
15.7152840256
 20
8.7971943049
 30
0.0
 10
15.7100369425
 20
8.7868006572
 30
0.0
 10
15.7048409101
 20
8.7757958223
 30
0.0
 10
15.6997018284
 20
8.7641923407
 30
0.0
 10
15.6946258658
 20
8.7520032864
 30
0.0
 10
15.6878306014
 20
8.7346852624
 30
0.0
 10
15.6795642468
 20
8.7116605588
 30
0.0
 10
15.6701504231
 20
8.6823975673
 30
0.0
 10
15.6611209741
 20
8.6511713011
 30
0.0
 10
15.6525175082
 20
8.6181248816
 30
0.0
 10
15.6443800931
 20
8.5834093953
 30
0.0
 10
15.6367466718
 20
8.5471839595
 30
0.0
 10
15.6296524068
 20
8.5096148217
 30
0.0
 10
15.6231302184
 20
8.4708744713
 30
0.0
 10
15.6172104746
 20
8.4311408222
 30
0.0
 10
15.6119203465
 20
8.3905965006
 30
0.0
 10
15.6072843103
 20
8.3494278895
 30
0.0
 10
15.6033239131
 20
8.3078240926
 30
0.0
 10
15.6000573083
 20
8.2659765261
 30
0.0
 10
15.5974994695
 20
8.2240779388
 30
0.0
 10
15.5956621525
 20
8.1823192703
 30
0.0
 10
15.5945541431
 20
8.140894854
 30
0.0
 10
15.5943024861
 20
8.1134086787
 30
0.0
 10
15.5943024861
 20
8.0997566839
 30
0.0
  0
SPLINE
  5
314
100
AcDbEntity
  8
0
100
AcDbSpline
 62
7
  6
CONTINUOUS
 70
0
 71
3
 72
37
 73
33
 74
0
 42
0.0000001
 43
0.0000001
 44
0.0000000001
 40
0.0
 40
0.0
 40
0.0
 40
0.0
 40
0.0063161058
 40
0.0126711378
 40
0.0191032437
 40
0.0256490428
 40
0.0392092754
 40
0.0536077755
 40
0.0690450541
 40
0.0856786812
 40
0.1036273253
 40
0.1229775466
 40
0.1437909472
 40
0.1661071032
 40
0.1899504634
 40
0.2153308692
 40
0.2422476215
 40
0.2706911411
 40
0.3006430285
 40
0.3320796323
 40
0.3649700317
 40
0.399279162
 40
0.4349670666
 40
0.4719892306
 40
0.5102983916
 40
0.549842539
 40
0.5905676834
 40
0.6324164775
 40
0.7192416165
 40
0.8098093508
 40
0.9035887078
 40
1.0
 40
1.0
 40
1.0
 40
1.0
 10
14.9416231121
 20
7.5297763715
 30
0.0
 10
14.9403056118
 20
7.5298677098
 30
0.0
 10
14.9376687058
 20
7.5301587815
 30
0.0
 10
14.9337429544
 20
7.5309177408
 30
0.0
 10
14.9298433532
 20
7.5319989636
 30
0.0
 10
14.9246217011
 20
7.533890329
 30
0.0
 10
14.9181332413
 20
7.5371054928
 30
0.0
 10
14.9105927783
 20
7.542193476
 30
0.0
 10
14.9032096695
 20
7.5485395425
 30
0.0
 10
14.8959926628
 20
7.5561300255
 30
0.0
 10
14.8889480681
 20
7.5649512391
 30
0.0
 10
14.8820837548
 20
7.574989085
 30
0.0
 10
14.8754093268
 20
7.5862285136
 30
0.0
 10
14.8689333342
 20
7.5986518005
 30
0.0
 10
14.8626664285
 20
7.6122399699
 30
0.0
 10
14.8566178438
 20
7.6269713459
 30
0.0
 10
14.8507974347
 20
7.6428225044
 30
0.0
 10
14.845214977
 20
7.6597679614
 30
0.0
 10
14.8398790367
 20
7.677780177
 30
0.0
 10
14.8347991778
 20
7.6968299328
 30
0.0
 10
14.8299831796
 20
7.7168860311
 30
0.0
 10
14.8254394283
 20
7.7379156743
 30
0.0
 10
14.8211754542
 20
7.7598843452
 30
0.0
 10
14.8171980676
 20
7.7827559626
 30
0.0
 10
14.8135144212
 20
7.8064929019
 30
0.0
 10
14.8101300764
 20
7.8310560623
 30
0.0
 10
14.8070510845
 20
7.8564050298
 30
0.0
 10
14.8033137528
 20
7.8916288487
 30
0.0
 10
14.7994714104
 20
7.9373161565
 30
0.0
 10
14.796197713
 20
7.9939279663
 30
0.0
 10
14.7942303003
 20
8.0526052327
 30
0.0
 10
14.793803138
 20
8.0923745792
 30
0.0
 10
14.793803138
 20
8.1125336439
 30
0.0
  0
SPLINE
  5
315
100
AcDbEntity
  8
0
100
AcDbSpline
 62
7
  6
CONTINUOUS
 70
0
 71
3
 72
55
 73
51
 74
0
 42
0.0000001
 43
0.0000001
 44
0.0000000001
 40
0.0
 40
0.0
 40
0.0
 40
0.0
 40
0.0544796836
 40
0.1080730038
 40
0.1606188057
 40
0.2119841062
 40
0.2620411187
 40
0.3106614428
 40
0.3577215751
 40
0.4031061635
 40
0.4467061545
 40
0.4884199557
 40
0.5281545703
 40
0.5658265035
 40
0.6013637281
 40
0.6347062423
 40
0.6658099984
 40
0.694647824
 40
0.7082163713
 40
0.7212192512
 40
0.7336600645
 40
0.7455452452
 40
0.7568838525
 40
0.7676875652
 40
0.7779714304
 40
0.7877550967
 40
0.7970627058
 40
0.8059233995
 40
0.8143724103
 40
0.8224520268
 40
0.8302114288
 40
0.8377068764
 40
0.8450017153
 40
0.8521653036
 40
0.8592710663
 40
0.8663944188
 40
0.8736102248
 40
0.8809901605
 40
0.888600879
 40
0.8965027645
 40
0.9047487914
 40
0.9133845833
 40
0.92244909
 40
0.9319750597
 40
0.9419890353
 40
0.9525126212
 40
0.9635634308
 40
0.9751553269
 40
0.9872983602
 40
1.0
 40
1.0
 40
1.0
 40
1.0
 10
15.5943024861
 20
8.0997566839
 30
0.0
 10
15.5943024861
 20
8.0891917191
 30
0.0
 10
15.5944511507
 20
8.0682333419
 30
0.0
 10
15.5951296551
 20
8.0370916433
 30
0.0
 10
15.5962609731
 20
8.0065673312
 30
0.0
 10
15.597841236
 20
7.976749617
 30
0.0
 10
15.5998661342
 20
7.9477217353
 30
0.0
 10
15.6023295038
 20
7.9195656187
 30
0.0
 10
15.6052246274
 20
7.8923615071
 30
0.0
 10
15.6085428122
 20
7.8661866343
 30
0.0
 10
15.6122746491
 20
7.8411150364
 30
0.0
 10
15.6164092803
 20
7.8172176331
 30
0.0
 10
15.6209347508
 20
7.794561968
 30
0.0
 10
15.6258381214
 20
7.7732118706
 30
0.0
 10
15.6311050102
 20
7.7532273265
 30
0.0
 10
15.6367206969
 20
7.7346640028
 30
0.0
 10
15.6426686849
 20
7.7175738503
 30
0.0
 10
15.6479916089
 20
7.7043417733
 30
0.0
 10
15.6524238848
 20
7.6945517448
 30
0.0
 10
15.6557529605
 20
7.6877566883
 30
0.0
 10
15.6591524859
 20
7.6813639426
 30
0.0
 10
15.662620085
 20
7.6753778504
 30
0.0
 10
15.6661533027
 20
7.6698024172
 30
0.0
 10
15.6697498521
 20
7.6646415375
 30
0.0
 10
15.6734076506
 20
7.6598989803
 30
0.0
 10
15.677124209
 20
7.6555778656
 30
0.0
 10
15.680897228
 20
7.6516811276
 30
0.0
 10
15.6847246093
 20
7.6482117647
 30
0.0
 10
15.6886043327
 20
7.6451727532
 30
0.0
 10
15.6925339521
 20
7.6425664487
 30
0.0
 10
15.6965111113
 20
7.6403953614
 30
0.0
 10
15.700533312
 20
7.6386623429
 30
0.0
 10
15.7045974794
 20
7.6373699679
 30
0.0
 10
15.7086998734
 20
7.6365198765
 30
0.0
 10
15.712836456
 20
7.6361134559
 30
0.0
 10
15.7170028548
 20
7.636151706
 30
0.0
 10
15.7211946041
 20
7.6366341475
 30
0.0
 10
15.7254076529
 20
7.6375592304
 30
0.0
 10
15.7296384175
 20
7.6389252818
 30
0.0
 10
15.7338835825
 20
7.6407306198
 30
0.0
 10
15.7381403904
 20
7.6429727178
 30
0.0
 10
15.7424063122
 20
7.6456490978
 30
0.0
 10
15.7466787861
 20
7.6487575485
 30
0.0
 10
15.7509550771
 20
7.652295866
 30
0.0
 10
15.7552327693
 20
7.6562611377
 30
0.0
 10
15.7595092302
 20
7.6606504726
 30
0.0
 10
15.7637816311
 20
7.6654609613
 30
0.0
 10
15.7680470444
 20
7.6706894121
 30
0.0
 10
15.7723027687
 20
7.676331903
 30
0.0
 10
15.7750690586
 20
7.6802778867
 30
0.0
 10
15.776451405
 20
7.6823165857
 30
0.0
  0
SPLINE
  5
316
100
AcDbEntity
  8
0
100
AcDbSpline
 62
7
  6
CONTINUOUS
 70
0
 71
3
 72
9
 73
5
 74
0
 42
0.0000001
 43
0.0000001
 44
0.0000000001
 40
0.0
 40
0.0
 40
0.0
 40
0.0
 40
0.2415810799
 40
1.0
 40
1.0
 40
1.0
 40
1.0
 10
15.776451405
 20
7.6823165857
 30
0.0
 10
15.7772224198
 20
7.6834536864
 30
0.0
 10
15.7803729013
 20
7.6881883861
 30
0.0
 10
15.7833643519
 20
7.6930282326
 30
0.0
 10
15.7855554877
 20
7.6967432557
 30
0.0
  0
SPLINE
  5
317
100
AcDbEntity
  8
0
100
AcDbSpline
 62
7
  6
CONTINUOUS
 70
0
 71
3
 72
48
 73
44
 74
0
 42
0.0000001
 43
0.0000001
 44
0.0000000001
 40
0.0
 40
0.0
 40
0.0
 40
0.0
 40
0.0053769687
 40
0.0108200173
 40
0.0163927233
 40
0.0221539786
 40
0.0281563765
 40
0.0344458485
 40
0.041061621
 40
0.0480361
 40
0.055395926
 40
0.063162886
 40
0.0713540501
 40
0.0799824939
 40
0.0890583737
 40
0.0985891074
 40
0.1085792771
 40
0.1190316545
 40
0.1299475178
 40
0.1413261599
 40
0.153165471
 40
0.1654624895
 40
0.1782130527
 40
0.1914116601
 40
0.2191270145
 40
0.2485513502
 40
0.2796151531
 40
0.3122388146
 40
0.3463350437
 40
0.3818084318
 40
0.4185575649
 40
0.4564749463
 40
0.4954478721
 40
0.535359436
 40
0.5760883781
 40
0.6175104986
 40
0.6594984787
 40
0.744649988
 40
0.8304924563
 40
0.8733398395
 40
0.9159613744
 40
0.9582295888
 40
1.0
 40
1.0
 40
1.0
 40
1.0
 10
15.0494817223
 20
9.0850406177
 30
0.0
 10
15.047614402
 20
9.0851700734
 30
0.0
 10
15.0438382163
 20
9.0852131333
 30
0.0
 10
15.038150436
 20
9.0846262945
 30
0.0
 10
15.0324308831
 20
9.083389858
 30
0.0
 10
15.0266866005
 20
9.0815067469
 30
0.0
 10
15.020922166
 20
9.0789811541
 30
0.0
 10
15.0151420059
 20
9.0758166332
 30
0.0
 10
15.0093503481
 20
9.0720165902
 30
0.0
 10
15.0035508147
 20
9.0675853916
 30
0.0
 10
14.9977472621
 20
9.0625270874
 30
0.0
 10
14.9919440167
 20
9.0568456053
 30
0.0
 10
14.9861451987
 20
9.0505457275
 30
0.0
 10
14.9803549307
 20
9.0436327586
 30
0.0
 10
14.9745778008
 20
9.0361120543
 30
0.0
 10
14.9688185217
 20
9.0279895094
 30
0.0
 10
14.9630813749
 20
9.0192719285
 30
0.0
 10
14.957370996
 20
9.0099663312
 30
0.0
 10
14.9516922885
 20
9.0000800655
 30
0.0
 10
14.9460497121
 20
8.9896213141
 30
0.0
 10
14.9404477779
 20
8.9785987194
 30
0.0
 10
14.9348912893
 20
8.9670211703
 30
0.0
 10
14.929384842
 20
8.9548981171
 30
0.0
 10
14.9219947501
 20
8.9377394645
 30
0.0
 10
14.9129395505
 20
8.9149837148
 30
0.0
 10
14.9025123996
 20
8.8860986787
 30
0.0
 10
14.8923897699
 20
8.8553019325
 30
0.0
 10
14.8826048652
 20
8.8226950286
 30
0.0
 10
14.8731909142
 20
8.788385031
 30
0.0
 10
14.8641787853
 20
8.7524850794
 30
0.0
 10
14.8555988093
 20
8.7151135718
 30
0.0
 10
14.8474795392
 20
8.6763938917
 30
0.0
 10
14.8398477691
 20
8.6364539834
 30
0.0
 10
14.8327293069
 20
8.5954258117
 30
0.0
 10
14.8261473711
 20
8.5534450596
 30
0.0
 10
14.8201241293
 20
8.5106504428
 30
0.0
 10
14.8128311124
 20
8.4524247279
 30
0.0
 10
14.8052615166
 20
8.3786586348
 30
0.0
 10
14.7997943141
 20
8.3044074556
 30
0.0
 10
14.7966976595
 20
8.2448501529
 30
0.0
 10
14.795032886
 20
8.2004124721
 30
0.0
 10
14.7940301994
 20
8.1563300883
 30
0.0
 10
14.793803138
 20
8.1270745415
 30
0.0
 10
14.793803138
 20
8.1125336439
 30
0.0
  0
SPLINE
  5
318
100
AcDbEntity
  8
0
100
AcDbSpline
 62
7
  6
CONTINUOUS
 70
0
 71
3
 72
9
 73
5
 74
0
 42
0.0000001
 43
0.0000001
 44
0.0000000001
 40
0.0
 40
0.0
 40
0.0
 40
0.0
 40
0.4850642138
 40
1.0
 40
1.0
 40
1.0
 40
1.0
 10
14.9482347765
 20
7.6172861146
 30
0.0
 10
14.9464619472
 20
7.6191170878
 30
0.0
 10
14.9429501276
 20
7.6230318668
 30
0.0
 10
14.9397034257
 20
7.6271674352
 30
0.0
 10
14.9380934774
 20
7.6293418533
 30
0.0
  0
SPLINE
  5
319
100
AcDbEntity
  8
0
100
AcDbSpline
 62
7
  6
CONTINUOUS
 70
0
 71
3
 72
9
 73
5
 74
0
 42
0.0000001
 43
0.0000001
 44
0.0000000001
 40
0.0
 40
0.0
 40
0.0
 40
0.0
 40
0.5149357862
 40
1.0
 40
1.0
 40
1.0
 40
1.0
 10
15.6083616496
 20
7.5828585977
 30
0.0
 10
15.6099715979
 20
7.5806841796
 30
0.0
 10
15.6132182998
 20
7.5765486111
 30
0.0
 10
15.6167301194
 20
7.5726338322
 30
0.0
 10
15.6185029488
 20
7.570802859
 30
0.0
  0
SPLINE
  5
31A
100
AcDbEntity
  8
0
100
AcDbSpline
 62
7
  6
CONTINUOUS
 70
0
 71
3
 72
23
 73
19
 74
0
 42
0.0000001
 43
0.0000001
 44
0.0000000001
 40
0.0
 40
0.0
 40
0.0
 40
0.0
 40
0.0517124017
 40
0.105817437
 40
0.1621248898
 40
0.2204554779
 40
0.2806133097
 40
0.342391697
 40
0.4055775525
 40
0.4699511935
 40
0.5352873143
 40
0.6013557937
 40
0.6679239017
 40
0.7347566859
 40
0.801615562
 40
0.8682649978
 40
0.9344779167
 40
1.0
 40
1.0
 40
1.0
 40
1.0
 10
14.9380934774
 20
8.7930665936
 30
0.0
 10
14.9348208374
 20
8.7823242663
 30
0.0
 10
14.9284269199
 20
8.7602494676
 30
0.0
 10
14.9194597648
 20
8.7262007443
 30
0.0
 10
14.910925103
 20
8.6905615598
 30
0.0
 10
14.9028555967
 20
8.6534682582
 30
0.0
 10
14.8952812515
 20
8.6150592156
 30
0.0
 10
14.8882313551
 20
8.5754792324
 30
0.0
 10
14.881732489
 20
8.5348777694
 30
0.0
 10
14.8758091752
 20
8.4934078827
 30
0.0
 10
14.8704841985
 20
8.4512259833
 30
0.0
 10
14.865777403
 20
8.4084912399
 30
0.0
 10
14.8617067328
 20
8.3653647879
 30
0.0
 10
14.8582877915
 20
8.3220096245
 30
0.0
 10
14.855533062
 20
8.2785895109
 30
0.0
 10
14.8534531744
 20
8.2352665555
 30
0.0
 10
14.8520562923
 20
8.1922067364
 30
0.0
 10
14.8515802769
 20
8.1636019151
 30
0.0
 10
14.8514595681
 20
8.1493737701
 30
0.0
  0
SPLINE
  5
31B
100
AcDbEntity
  8
0
100
AcDbSpline
 62
7
  6
CONTINUOUS
 70
0
 71
3
 72
15
 73
11
 74
0
 42
0.0000001
 43
0.0000001
 44
0.0000000001
 40
0.0
 40
0.0
 40
0.0
 40
0.0
 40
0.1273483438
 40
0.2538606048
 40
0.3795878922
 40
0.5046051199
 40
0.6290174392
 40
0.7529533668
 40
0.8765605676
 40
1.0
 40
1.0
 40
1.0
 40
1.0
 10
9.1571655372
 20
9.4167385673
 30
0.0
 10
9.1571655372
 20
9.4102401213
 30
0.0
 10
9.1565450593
 20
9.3972769094
 30
0.0
 10
9.1537390126
 20
9.378081421
 30
0.0
 10
9.1490861173
 20
9.3593682532
 30
0.0
 10
9.1426284102
 20
9.3413124104
 30
0.0
 10
9.1344251205
 20
9.3240804157
 30
0.0
 10
9.1245510224
 20
9.3078314052
 30
0.0
 10
9.1130990034
 20
9.2927175966
 30
0.0
 10
9.1044761925
 20
9.2834852692
 30
0.0
 10
9.0999456052
 20
9.2791090941
 30
0.0
  0
SPLINE
  5
31C
100
AcDbEntity
  8
0
100
AcDbSpline
 62
7
  6
CONTINUOUS
 70
0
 71
3
 72
15
 73
11
 74
0
 42
0.0000001
 43
0.0000001
 44
0.0000000001
 40
0.0
 40
0.0
 40
0.0
 40
0.0
 40
0.1273483438
 40
0.2538606048
 40
0.3795878922
 40
0.5046051199
 40
0.6290174392
 40
0.7529533668
 40
0.8765605676
 40
1.0
 40
1.0
 40
1.0
 40
1.0
 10
13.020868841
 20
9.1487898331
 30
0.0
 10
13.020868841
 20
9.1422913872
 30
0.0
 10
13.0202483631
 20
9.1293281752
 30
0.0
 10
13.0174423164
 20
9.1101326868
 30
0.0
 10
13.0127894211
 20
9.091419519
 30
0.0
 10
13.0063317139
 20
9.0733636762
 30
0.0
 10
12.9981284243
 20
9.0561316815
 30
0.0
 10
12.9882543262
 20
9.039882671
 30
0.0
 10
12.9768023072
 20
9.0247688624
 30
0.0
 10
12.9681794963
 20
9.0155365351
 30
0.0
 10
12.963648909
 20
9.0111603599
 30
0.0
  0
SPLINE
  5
31D
100
AcDbEntity
  8
0
100
AcDbSpline
 62
7
  6
CONTINUOUS
 70
0
 71
3
 72
15
 73
11
 74
0
 42
0.0000001
 43
0.0000001
 44
0.0000000001
 40
0.0
 40
0.0
 40
0.0
 40
0.0
 40
0.1273483438
 40
0.2538606048
 40
0.3795878922
 40
0.5046051199
 40
0.6290174392
 40
0.7529533668
 40
0.8765605676
 40
1.0
 40
1.0
 40
1.0
 40
1.0
 10
9.1571655372
 20
6.7604423876
 30
0.0
 10
9.1571655372
 20
6.7539439417
 30
0.0
 10
9.1565450593
 20
6.7409807297
 30
0.0
 10
9.1537390126
 20
6.7217852413
 30
0.0
 10
9.1490861173
 20
6.7030720735
 30
0.0
 10
9.1426284102
 20
6.6850162307
 30
0.0
 10
9.1344251205
 20
6.667784236
 30
0.0
 10
9.1245510224
 20
6.6515352255
 30
0.0
 10
9.1130990034
 20
6.636421417
 30
0.0
 10
9.1044761925
 20
6.6271890896
 30
0.0
 10
9.0999456052
 20
6.6228129144
 30
0.0
  0
SPLINE
  5
31E
100
AcDbEntity
  8
0
100
AcDbSpline
 62
7
  6
CONTINUOUS
 70
0
 71
3
 72
15
 73
11
 74
0
 42
0.0000001
 43
0.0000001
 44
0.0000000001
 40
0.0
 40
0.0
 40
0.0
 40
0.0
 40
0.1273483438
 40
0.2538606048
 40
0.3795878922
 40
0.5046051199
 40
0.6290174392
 40
0.7529533668
 40
0.8765605676
 40
1.0
 40
1.0
 40
1.0
 40
1.0
 10
13.020868841
 20
6.4924936534
 30
0.0
 10
13.020868841
 20
6.4859952075
 30
0.0
 10
13.0202483631
 20
6.4730319955
 30
0.0
 10
13.0174423164
 20
6.4538365072
 30
0.0
 10
13.0127894211
 20
6.4351233393
 30
0.0
 10
13.0063317139
 20
6.4170674965
 30
0.0
 10
12.9981284243
 20
6.3998355018
 30
0.0
 10
12.9882543262
 20
6.3835864913
 30
0.0
 10
12.9768023072
 20
6.3684726828
 30
0.0
 10
12.9681794963
 20
6.3592403554
 30
0.0
 10
12.963648909
 20
6.3548641802
 30
0.0
  0
SPLINE
  5
31F
100
AcDbEntity
  8
0
100
AcDbSpline
 62
7
  6
CONTINUOUS
 70
0
 71
3
 72
15
 73
11
 74
0
 42
0.0000001
 43
0.0000001
 44
0.0000000001
 40
0.0
 40
0.0
 40
0.0
 40
0.0
 40
0.1273481407
 40
0.2538605842
 40
0.3795879627
 40
0.5046050991
 40
0.6290174438
 40
0.7529533592
 40
0.8765605627
 40
1.0
 40
1.0
 40
1.0
 40
1.0
 10
10.3863061614
 20
9.3923507
 30
0.0
 10
10.3863061614
 20
9.3880235268
 30
0.0
 10
10.3858929985
 20
9.3793915943
 30
0.0
 10
10.3840245084
 20
9.3666097155
 30
0.0
 10
10.3809262246
 20
9.3541490032
 30
0.0
 10
10.3766261333
 20
9.3421260059
 30
0.0
 10
10.371163718
 20
9.3306515899
 30
0.0
 10
10.3645887479
 20
9.3198317195
 30
0.0
 10
10.3569630712
 20
9.3097677592
 30
0.0
 10
10.3512212939
 20
9.3036201695
 30
0.0
 10
10.3482044655
 20
9.3007061699
 30
0.0
  0
SPLINE
  5
320
100
AcDbEntity
  8
0
100
AcDbSpline
 62
7
  6
CONTINUOUS
 70
0
 71
3
 72
15
 73
11
 74
0
 42
0.0000001
 43
0.0000001
 44
0.0000000001
 40
0.0
 40
0.0
 40
0.0
 40
0.0
 40
0.1273481407
 40
0.2538605842
 40
0.3795879627
 40
0.5046050991
 40
0.6290174438
 40
0.7529533592
 40
0.8765605627
 40
1.0
 40
1.0
 40
1.0
 40
1.0
 10
10.9909759248
 20
6.5724139097
 30
0.0
 10
10.9909759248
 20
6.5680867365
 30
0.0
 10
10.9905627619
 20
6.559454804
 30
0.0
 10
10.9886942717
 20
6.5466729252
 30
0.0
 10
10.985595988
 20
6.5342122129
 30
0.0
 10
10.9812958967
 20
6.5221892156
 30
0.0
 10
10.9758334814
 20
6.5107147996
 30
0.0
 10
10.9692585113
 20
6.4998949292
 30
0.0
 10
10.9616328345
 20
6.4898309689
 30
0.0
 10
10.9558910573
 20
6.4836833792
 30
0.0
 10
10.9528742288
 20
6.4807693796
 30
0.0
  0
SPLINE
  5
321
100
AcDbEntity
  8
0
100
AcDbSpline
 62
7
  6
CONTINUOUS
 70
0
 71
3
 72
37
 73
33
 74
0
 42
0.0000001
 43
0.0000001
 44
0.0000000001
 40
0.0
 40
0.0
 40
0.0
 40
0.0
 40
0.0309250591
 40
0.0619943935
 40
0.0932018475
 40
0.1245391571
 40
0.155995318
 40
0.1875574606
 40
0.2192110373
 40
0.250940318
 40
0.2827287707
 40
0.3145594557
 40
0.3464153716
 40
0.3782797628
 40
0.4101363779
 40
0.4419696831
 40
0.4737650327
 40
0.5055088093
 40
0.5687683697
 40
0.6316878351
 40
0.6630105848
 40
0.6942252596
 40
0.7253269261
 40
0.7563119577
 40
0.7871780424
 40
0.8179241985
 40
0.8485507936
 40
0.8790595649
 40
0.9094536314
 40
0.9397375165
 40
0.9699171729
 40
1.0
 40
1.0
 40
1.0
 40
1.0
 10
9.6478557534
 20
9.1948112462
 30
0.0
 10
9.655016319
 20
9.1943146593
 30
0.0
 10
9.6693412638
 20
9.1928237508
 30
0.0
 10
9.6906706753
 20
9.1891234012
 30
0.0
 10
9.7117968446
 20
9.1839751613
 30
0.0
 10
9.7326199865
 20
9.1774100827
 30
0.0
 10
9.7530455975
 20
9.1694674442
 30
0.0
 10
9.772983104
 20
9.1601943165
 30
0.0
 10
9.7923472367
 20
9.1496444738
 30
0.0
 10
9.8110584144
 20
9.1378774981
 30
0.0
 10
9.8290431573
 20
9.1249577436
 30
0.0
 10
9.8462342661
 20
9.1109533784
 30
0.0
 10
9.8625708574
 20
9.0959354521
 30
0.0
 10
9.8779982461
 20
9.0799770846
 30
0.0
 10
9.8924677686
 20
9.0631526417
 30
0.0
 10
9.9059363336
 20
9.0455374272
 30
0.0
 10
9.9183666246
 20
9.0272059771
 30
0.0
 10
9.933491581
 20
9.0019446076
 30
0.0
 10
9.9496584813
 20
8.9689585229
 30
0.0
 10
9.962048905
 20
8.9344819226
 30
0.0
 10
9.9696015041
 20
8.9063468971
 30
0.0
 10
9.9740735073
 20
8.8850663868
 30
0.0
 10
9.9773515103
 20
8.8636494431
 30
0.0
 10
9.9794297619
 20
8.8421640626
 30
0.0
 10
9.9803044108
 20
8.8206786643
 30
0.0
 10
9.979973853
 20
8.7992610779
 30
0.0
 10
9.9784385812
 20
8.7779790268
 30
0.0
 10
9.9757012214
 20
8.7569001816
 30
0.0
 10
9.9717666525
 20
8.736092446
 30
0.0
 10
9.9666419349
 20
8.7156236793
 30
0.0
 10
9.9603370977
 20
8.6955633461
 30
0.0
 10
9.955346873
 20
8.6824859838
 30
0.0
 10
9.9526598762
 20
8.6760414288
 30
0.0
  0
SPLINE
  5
322
100
AcDbEntity
  8
0
100
AcDbSpline
 62
7
  6
CONTINUOUS
 70
0
 71
3
 72
39
 73
35
 74
0
 42
0.0000001
 43
0.0000001
 44
0.0000000001
 40
0.0
 40
0.0
 40
0.0
 40
0.0
 40
0.0310023343
 40
0.0621463966
 40
0.0934265932
 40
0.1248354751
 40
0.1563629944
 40
0.1879972307
 40
0.2197244456
 40
0.2515294396
 40
0.2833958241
 40
0.3153063364
 40
0.3472431447
 40
0.3791881536
 40
0.4111233002
 40
0.4430308384
 40
0.4748936086
 40
0.5066952905
 40
0.5384206377
 40
0.5700556934
 40
0.601587986
 40
0.6330067048
 40
0.6643028556
 40
0.6954693942
 40
0.7265013392
 40
0.7573958602
 40
0.7881523428
 40
0.8187724266
 40
0.8492600152
 40
0.8796212542
 40
0.9098644766
 40
0.9400001116
 40
0.970040555
 40
1.0
 40
1.0
 40
1.0
 40
1.0
 10
10.8552633381
 20
9.0925632253
 30
0.0
 10
10.8626538667
 20
9.0920506904
 30
0.0
 10
10.8774387361
 20
9.0905230844
 30
0.0
 10
10.8994587994
 20
9.0867518954
 30
0.0
 10
10.921277384
 20
9.0815135247
 30
0.0
 10
10.9427940602
 20
9.0748336235
 30
0.0
 10
10.9639120141
 20
9.0667445767
 30
0.0
 10
10.984536358
 20
9.0572855845
 30
0.0
 10
11.0045752748
 20
9.0465021624
 30
0.0
 10
11.0239403175
 20
9.0344458475
 30
0.0
 10
11.0425468728
 20
9.0211737605
 30
0.0
 10
11.0603145179
 20
9.006748191
 30
0.0
 10
11.077167336
 20
8.9912361483
 30
0.0
 10
11.0930341769
 20
8.9747089147
 30
0.0
 10
11.1078488676
 20
8.9572415972
 30
0.0
 10
11.1215503764
 20
8.9389126892
 30
0.0
 10
11.1340829348
 20
8.9198036462
 30
0.0
 10
11.145396123
 20
8.8999984798
 30
0.0
 10
11.1554449248
 20
8.8795833739
 30
0.0
 10
11.1641897578
 20
8.8586463235
 30
0.0
 10
11.1715964842
 20
8.8372767972
 30
0.0
 10
11.1776364091
 20
8.8155654228
 30
0.0
 10
11.1822862711
 20
8.7936036936
 30
0.0
 10
11.1855282303
 20
8.7714836937
 30
0.0
 10
11.1873498535
 20
8.7492978376
 30
0.0
 10
11.1877441043
 20
8.7271386214
 30
0.0
 10
11.1867093399
 20
8.7050983824
 30
0.0
 10
11.1842493125
 20
8.6832690575
 30
0.0
 10
11.1803731852
 20
8.6617419528
 30
0.0
 10
11.1750955269
 20
8.6406074581
 30
0.0
 10
11.1684364157
 20
8.6199549267
 30
0.0
 10
11.1604211575
 20
8.5998718916
 30
0.0
 10
11.1510814397
 20
8.5804456669
 30
0.0
 10
11.1439862413
 20
8.5679712371
 30
0.0
 10
11.1402324742
 20
8.5618752103
 30
0.0
  0
SPLINE
  5
323
100
AcDbEntity
  8
0
100
AcDbSpline
 62
7
  6
CONTINUOUS
 70
0
 71
3
 72
37
 73
33
 74
0
 42
0.0000001
 43
0.0000001
 44
0.0000000001
 40
0.0
 40
0.0
 40
0.0
 40
0.0
 40
0.0309477728
 40
0.0617128921
 40
0.0923165593
 40
0.1227844496
 40
0.1531469521
 40
0.1834366924
 40
0.2136868632
 40
0.2439296615
 40
0.2741951025
 40
0.3045102102
 40
0.3348985501
 40
0.3653800433
 40
0.3959709917
 40
0.4266842411
 40
0.4575294246
 40
0.488513239
 40
0.5196397187
 40
0.5509104871
 40
0.6138471676
 40
0.67732935
 40
0.7092739393
 40
0.7413307226
 40
0.7734879278
 40
0.8057318867
 40
0.8380469659
 40
0.8704155033
 40
0.902817774
 40
0.9352320142
 40
0.9676345393
 40
1.0
 40
1.0
 40
1.0
 40
1.0
 10
9.9143425231
 20
7.2930346605
 30
0.0
 10
9.9153538309
 20
7.3012009668
 30
0.0
 10
9.9181398096
 20
7.3174011515
 30
0.0
 10
9.9245961838
 20
7.3411198503
 30
0.0
 10
9.9332460659
 20
7.3639952585
 30
0.0
 10
9.9439899861
 20
7.385844525
 30
0.0
 10
9.9567060454
 20
7.4065091119
 30
0.0
 10
9.9712551694
 20
7.4258527192
 30
0.0
 10
9.9874867199
 20
7.4437629243
 30
0.0
 10
10.0052436541
 20
7.4601500207
 30
0.0
 10
10.0243668739
 20
7.4749452771
 30
0.0
 10
10.0446986501
 20
7.4880984615
 30
0.0
 10
10.0660850887
 20
7.4995751215
 30
0.0
 10
10.0883777124
 20
7.5093538531
 30
0.0
 10
10.1114343115
 20
7.5174237564
 30
0.0
 10
10.1351191615
 20
7.5237821864
 30
0.0
 10
10.1593029685
 20
7.5284328285
 30
0.0
 10
10.1838618661
 20
7.5313841919
 30
0.0
 10
10.2086785769
 20
7.5326481755
 30
0.0
 10
10.2420200718
 20
7.5321027505
 30
0.0
 10
10.2837946444
 20
7.5272533669
 30
0.0
 10
10.3247696681
 20
7.5170402372
 30
0.0
 10
10.3567491324
 20
7.505745183
 30
0.0
 10
10.3802828373
 20
7.4957056163
 30
0.0
 10
10.4031966523
 20
7.484145863
 30
0.0
 10
10.4253771921
 20
7.4710975227
 30
0.0
 10
10.4467057216
 20
7.4565975579
 30
0.0
 10
10.4670597373
 20
7.4406890513
 30
0.0
 10
10.4863121387
 20
7.4234231103
 30
0.0
 10
10.5043320133
 20
7.4048599188
 30
0.0
 10
10.5209835029
 20
7.3850732639
 30
0.0
 10
10.531092023
 20
7.3711079056
 30
0.0
 10
10.5358718137
 20
7.3639517493
 30
0.0
  0
SPLINE
  5
324
100
AcDbEntity
  8
0
100
AcDbSpline
 62
7
  6
CONTINUOUS
 70
0
 71
3
 72
30
 73
26
 74
0
 42
0.0000001
 43
0.0000001
 44
0.0000000001
 40
0.0
 40
0.0
 40
0.0
 40
0.0
 40
0.0309903631
 40
0.0621247618
 40
0.0933923433
 40
0.1247889304
 40
0.1563036207
 40
0.1879245701
 40
0.251398538
 40
0.3151187112
 40
0.3789478298
 40
0.4427450767
 40
0.5063751454
 40
0.5697157965
 40
0.6326643202
 40
0.6951426837
 40
0.7571013587
 40
0.787894281
 40
0.8185532488
 40
0.849081165
 40
0.8794830174
 40
0.9097658514
 40
0.9399387071
 40
0.9700125134
 40
1.0
 40
1.0
 40
1.0
 40
1.0
 10
11.865621816
 20
8.8085283467
 30
0.0
 10
11.868279462
 20
8.8083440383
 30
0.0
 10
11.8735963536
 20
8.8077952784
 30
0.0
 10
11.8815154207
 20
8.8064420979
 30
0.0
 10
11.8893626772
 20
8.8045631341
 30
0.0
 10
11.8971020559
 20
8.8021681029
 30
0.0
 10
11.9046996146
 20
8.7992683661
 30
0.0
 10
11.9146052226
 20
8.7947442723
 30
0.0
 10
11.9264636511
 20
8.7879007449
 30
0.0
 10
11.9395902774
 20
8.7779670866
 30
0.0
 10
11.9514236078
 20
8.7664828186
 30
0.0
 10
11.9617727684
 20
8.7536561637
 30
0.0
 10
11.9704783671
 20
8.7397116056
 30
0.0
 10
11.9774100183
 20
8.7248862047
 30
0.0
 10
11.98246669
 20
8.7094246431
 30
0.0
 10
11.9855762799
 20
8.6935789642
 30
0.0
 10
11.9865096848
 20
8.6802294763
 30
0.0
 10
11.9862460181
 20
8.6696181147
 30
0.0
 10
11.985547677
 20
8.6617365062
 30
0.0
 10
11.9843505204
 20
8.6539493431
 30
0.0
 10
11.9826587349
 20
8.6462874128
 30
0.0
 10
11.980478139
 20
8.6387817519
 30
0.0
 10
11.9778162385
 20
8.6314627878
 30
0.0
 10
11.9746827233
 20
8.6243610385
 30
0.0
 10
11.9722831879
 20
8.6197841853
 30
0.0
 10
11.9710092723
 20
8.6175431388
 30
0.0
  0
SPLINE
  5
325
100
AcDbEntity
  8
0
100
AcDbSpline
 62
7
  6
CONTINUOUS
 70
0
 71
3
 72
42
 73
38
 74
0
 42
0.0000001
 43
0.0000001
 44
0.0000000001
 40
0.0
 40
0.0
 40
0.0
 40
0.0
 40
0.0310601475
 40
0.0466776482
 40
0.0623497264
 40
0.0938465672
 40
0.1255478957
 40
0.1414739359
 40
0.1574428799
 40
0.1894858198
 40
0.2216533842
 40
0.253909114
 40
0.2700621715
 40
0.2862226203
 40
0.3185375283
 40
0.3508231469
 40
0.3830421535
 40
0.4151600535
 40
0.447146118
 40
0.4789741979
 40
0.5106234294
 40
0.5420788401
 40
0.5733318598
 40
0.6043807266
 40
0.635230767
 40
0.665894518
 40
0.6963916446
 40
0.7267486038
 40
0.7569980053
 40
0.7871776297
 40
0.817329096
 40
0.847496193
 40
0.8777229642
 40
0.9080515383
 40
0.9385203606
 40
0.9691610363
 40
1.0
 40
1.0
 40
1.0
 40
1.0
 10
12.2847673213
 20
7.1488965019
 30
0.0
 10
12.2887288188
 20
7.1492492107
 30
0.0
 10
12.2947156153
 20
7.1494693838
 30
0.0
 10
12.3026953995
 20
7.1491518937
 30
0.0
 10
12.3107053567
 20
7.1484257329
 30
0.0
 10
12.320683357
 20
7.1467549199
 30
0.0
 10
12.3304785541
 20
7.1440993648
 30
0.0
 10
12.3381652769
 20
7.1414025213
 30
0.0
 10
12.3457538665
 20
7.1383225563
 30
0.0
 10
12.3549811422
 20
7.133782767
 30
0.0
 10
12.365518594
 20
7.1273049364
 30
0.0
 10
12.3737833755
 20
7.1211021199
 30
0.0
 10
12.3800419304
 20
7.1156957023
 30
0.0
 10
12.3860534646
 20
7.1100048065
 30
0.0
 10
12.3930730508
 20
7.1023901143
 30
0.0
 10
12.4006316136
 20
7.0925427589
 30
0.0
 10
12.4072637148
 20
7.0820784527
 30
0.0
 10
12.4129138017
 20
7.0710961743
 30
0.0
 10
12.4175355647
 20
7.0596969696
 30
0.0
 10
12.4210910256
 20
7.0479840647
 30
0.0
 10
12.4235505983
 20
7.0360621943
 30
0.0
 10
12.4248929617
 20
7.0240372622
 30
0.0
 10
12.4251050874
 20
7.01201599
 30
0.0
 10
12.4241823504
 20
7.0001055949
 30
0.0
 10
12.4221287504
 20
6.9884134293
 30
0.0
 10
12.4189572289
 20
6.9770465462
 30
0.0
 10
12.4146900658
 20
6.9661111444
 30
0.0
 10
12.4093593208
 20
6.9557118555
 30
0.0
 10
12.4030072701
 20
6.945950843
 30
0.0
 10
12.3956867856
 20
6.9369266931
 30
0.0
 10
12.3874615662
 20
6.9287331079
 30
0.0
 10
12.3784061728
 20
6.9214574207
 30
0.0
 10
12.3686057095
 20
6.9151790257
 30
0.0
 10
12.358155409
 20
6.9099676927
 30
0.0
 10
12.3471590037
 20
6.9058821656
 30
0.0
 10
12.3357298728
 20
6.9029685667
 30
0.0
 10
12.3279228378
 20
6.9018328112
 30
0.0
 10
12.3239909759
 20
6.9014669592
 30
0.0
  0
SPLINE
  5
326
100
AcDbEntity
  8
0
100
AcDbSpline
 62
7
  6
CONTINUOUS
 70
0
 71
3
 72
15
 73
11
 74
0
 42
0.0000001
 43
0.0000001
 44
0.0000000001
 40
0.0
 40
0.0
 40
0.0
 40
0.0
 40
0.1273464452
 40
0.2538614414
 40
0.3795876769
 40
0.5046052349
 40
0.6290174538
 40
0.7529534044
 40
0.876560584
 40
1.0
 40
1.0
 40
1.0
 40
1.0
 10
11.9409640349
 20
9.2236814858
 30
0.0
 10
11.9409640349
 20
9.221279256
 30
0.0
 10
11.9407346459
 20
9.2164871618
 30
0.0
 10
11.9396973956
 20
9.2093912047
 30
0.0
 10
11.9379773214
 20
9.2024735231
 30
0.0
 10
11.935590135
 20
9.1957988718
 30
0.0
 10
11.9325576333
 20
9.1894287591
 30
0.0
 10
11.9289075109
 20
9.1834220197
 30
0.0
 10
11.9246740724
 20
9.1778349301
 30
0.0
 10
11.9214864982
 20
9.1744220375
 30
0.0
 10
11.9198116875
 20
9.1728043061
 30
0.0
  0
SPLINE
  5
327
100
AcDbEntity
  8
0
100
AcDbSpline
 62
7
  6
CONTINUOUS
 70
0
 71
3
 72
15
 73
11
 74
0
 42
0.0000001
 43
0.0000001
 44
0.0000000001
 40
0.0
 40
0.0
 40
0.0
 40
0.0
 40
0.1273464452
 40
0.2538614414
 40
0.3795876769
 40
0.5046052349
 40
0.6290174538
 40
0.7529534044
 40
0.876560584
 40
1.0
 40
1.0
 40
1.0
 40
1.0
 10
9.7231979723
 20
6.7211879049
 30
0.0
 10
9.7231979723
 20
6.7187856751
 30
0.0
 10
9.7229685833
 20
6.7139935809
 30
0.0
 10
9.7219313331
 20
6.7068976239
 30
0.0
 10
9.7202112589
 20
6.6999799422
 30
0.0
 10
9.7178240724
 20
6.6933052909
 30
0.0
 10
9.7147915707
 20
6.6869351782
 30
0.0
 10
9.7111414483
 20
6.6809284389
 30
0.0
 10
9.7069080099
 20
6.6753413492
 30
0.0
 10
9.7037204357
 20
6.6719284566
 30
0.0
 10
9.702045625
 20
6.6703107252
 30
0.0
  0
SPLINE
  5
328
100
AcDbEntity
  8
0
100
AcDbSpline
 62
7
  6
CONTINUOUS
 70
0
 71
3
 72
18
 73
14
 74
0
 42
0.0000001
 43
0.0000001
 44
0.0000000001
 40
0.0
 40
0.0
 40
0.0
 40
0.0
 40
0.1504680185
 40
0.2917144324
 40
0.4244425615
 40
0.4879099171
 40
0.5496094205
 40
0.6682625585
 40
0.7817882768
 40
0.8371379945
 40
0.8918078237
 40
0.9460192726
 40
1.0
 40
1.0
 40
1.0
 40
1.0
 10
14.8487316829
 20
9.072944588
 30
0.0
 10
14.8509424791
 20
9.0750800533
 30
0.0
 10
14.8553610748
 20
9.0790868084
 30
0.0
 10
14.8622027998
 20
9.0844263001
 30
0.0
 10
14.8679818062
 20
9.0882026651
 30
0.0
 10
14.8725900498
 20
9.0907599022
 30
0.0
 10
14.877062724
 20
9.0929553639
 30
0.0
 10
14.8826549829
 20
9.0951738032
 30
0.0
 10
14.8883467207
 20
9.0966876714
 30
0.0
 10
14.8928547459
 20
9.0974334167
 30
0.0
 10
14.8961958152
 20
9.0977643908
 30
0.0
 10
14.8995233692
 20
9.0978712645
 30
0.0
 10
14.9017341132
 20
9.0977930496
 30
0.0
 10
14.9028341788
 20
9.0977167538
 30
0.0
  0
SPLINE
  5
329
100
AcDbEntity
  8
0
100
AcDbSpline
 62
7
  6
CONTINUOUS
 70
0
 71
3
 72
16
 73
12
 74
0
 42
0.0000001
 43
0.0000001
 44
0.0000000001
 40
0.0
 40
0.0
 40
0.0
 40
0.0
 40
0.1504814178
 40
0.2917479482
 40
0.4244943273
 40
0.4879691334
 40
0.5496754289
 40
0.6683417084
 40
0.7818819324
 40
0.8918564119
 40
1.0
 40
1.0
 40
1.0
 40
1.0
 10
15.1600907241
 20
9.5533565243
 30
0.0
 10
15.1612356486
 20
9.5544624365
 30
0.0
 10
15.1635240213
 20
9.5565374837
 30
0.0
 10
15.1670672911
 20
9.5593028248
 30
0.0
 10
15.1700602489
 20
9.5612586217
 30
0.0
 10
15.1724468481
 20
9.5625830228
 30
0.0
 10
15.1747631581
 20
9.5637200704
 30
0.0
 10
15.1776595831
 20
9.5648689353
 30
0.0
 10
15.1811663066
 20
9.5658019862
 30
0.0
 10
15.1846532343
 20
9.5662678543
 30
0.0
 10
15.1869688396
 20
9.5662652796
 30
0.0
 10
15.1881100622
 20
9.5661861393
 30
0.0
  0
SPLINE
  5
32A
100
AcDbEntity
  8
0
100
AcDbSpline
 62
7
  6
CONTINUOUS
 70
0
 71
3
 72
37
 73
33
 74
0
 42
0.0000001
 43
0.0000001
 44
0.0000000001
 40
0.0
 40
0.0
 40
0.0
 40
0.0
 40
0.0071625887
 40
0.0146567607
 40
0.022490107
 40
0.0306687913
 40
0.0391978474
 40
0.0480811166
 40
0.0573209657
 40
0.0669185919
 40
0.0871863961
 40
0.1088789675
 40
0.1319780173
 40
0.156456023
 40
0.1822776672
 40
0.2094008171
 40
0.237777459
 40
0.2673543938
 40
0.2980737624
 40
0.3298734568
 40
0.3626876079
 40
0.3964469644
 40
0.4310791987
 40
0.4665091735
 40
0.5026592962
 40
0.5394498051
 40
0.6146219425
 40
0.6913554389
 40
0.7689602684
 40
0.8467363119
 40
0.9239811585
 40
1.0
 40
1.0
 40
1.0
 40
1.0
 10
6.9595628273
 20
9.9654988
 30
0.0
 10
6.9584126187
 20
9.9643877837
 30
0.0
 10
6.9561137179
 20
9.9620570782
 30
0.0
 10
6.9527442508
 20
9.9583323773
 30
0.0
 10
6.9493790131
 20
9.9543035246
 30
0.0
 10
6.946020258
 20
9.9499731211
 30
0.0
 10
6.9426698038
 20
9.9453437599
 30
0.0
 10
6.9393296364
 20
9.9404180761
 30
0.0
 10
6.9360016031
 20
9.9351989758
 30
0.0
 10
6.9315010637
 20
9.9277164358
 30
0.0
 10
6.9259342458
 20
9.9176358029
 30
0.0
 10
6.9194499318
 20
9.9046339093
 30
0.0
 10
6.9130608364
 20
9.890546275
 30
0.0
 10
6.9067823326
 20
9.8754064398
 30
0.0
 10
6.900629555
 20
9.8592502166
 30
0.0
 10
6.8946173589
 20
9.8421161381
 30
0.0
 10
6.8887602913
 20
9.8240451462
 30
0.0
 10
6.8830725408
 20
9.8050805055
 30
0.0
 10
6.8775678989
 20
9.7852676855
 30
0.0
 10
6.8722596789
 20
9.764654259
 30
0.0
 10
6.8671607289
 20
9.7432897564
 30
0.0
 10
6.8622833954
 20
9.7212255298
 30
0.0
 10
6.8576394906
 20
9.6985146341
 30
0.0
 10
6.853240244
 20
9.6752117228
 30
0.0
 10
6.8490962384
 20
9.6513728354
 30
0.0
 10
6.8438875706
 20
9.6187160777
 30
0.0
 10
6.8380992122
 20
9.5769806602
 30
0.0
 10
6.8323595251
 20
9.5260558273
 30
0.0
 10
6.8278333867
 20
9.4744251803
 30
0.0
 10
6.82456436
 20
9.4225853196
 30
0.0
 10
6.8225838881
 20
9.3710348737
 30
0.0
 10
6.8221300277
 20
9.3368147338
 30
0.0
 10
6.8221300277
 20
9.3198422575
 30
0.0
  0
SPLINE
  5
32B
100
AcDbEntity
  8
0
100
AcDbSpline
 62
7
  6
CONTINUOUS
 70
0
 71
3
 72
31
 73
27
 74
0
 42
0.0000001
 43
0.0000001
 44
0.0000000001
 40
0.0
 40
0.0
 40
0.0
 40
0.0
 40
0.0851788837
 40
0.1685813066
 40
0.2498840119
 40
0.3287751356
 40
0.4049557415
 40
0.4781421254
 40
0.5480679845
 40
0.6144869819
 40
0.6463115569
 40
0.6771777789
 40
0.707061738
 40
0.7359417808
 40
0.7637980324
 40
0.7906132552
 40
0.8163724294
 40
0.8410636987
 40
0.8646780573
 40
0.8872104235
 40
0.9086595085
 40
0.9290290893
 40
0.948328174
 40
0.9665725896
 40
0.9837856077
 40
1.0
 40
1.0
 40
1.0
 40
1.0
 10
6.8221300277
 20
7.2063964244
 30
0.0
 10
6.8221300277
 20
7.1953942999
 30
0.0
 10
6.8223175097
 20
7.1736189768
 30
0.0
 10
6.8231773827
 20
7.1413524332
 30
0.0
 10
6.8246095331
 20
7.1099189576
 30
0.0
 10
6.8266077344
 20
7.0794509707
 30
0.0
 10
6.8291633471
 20
7.0500766073
 30
0.0
 10
6.8322653023
 20
7.0219192777
 30
0.0
 10
6.8359002823
 20
6.9950974328
 30
0.0
 10
6.8394084582
 20
6.9736575406
 30
0.0
 10
6.8424851157
 20
6.9572667194
 30
0.0
 10
6.8448828372
 20
6.9455515794
 30
0.0
 10
6.8474011635
 20
6.9342510857
 30
0.0
 10
6.8500373642
 20
6.9233770836
 30
0.0
 10
6.8527887418
 20
6.9129409856
 30
0.0
 10
6.8556522807
 20
6.9029537149
 30
0.0
 10
6.8586250651
 20
6.8934257251
 30
0.0
 10
6.8617038502
 20
6.8843669451
 30
0.0
 10
6.8648855169
 20
6.8757868196
 30
0.0
 10
6.8681666246
 20
6.8676942242
 30
0.0
 10
6.8715438879
 20
6.8600975445
 30
0.0
 10
6.8750137269
 20
6.8530045419
 30
0.0
 10
6.8785727378
 20
6.8464225213
 30
0.0
 10
6.8822173553
 20
6.840358018
 30
0.0
 10
6.8859439556
 20
6.8348175063
 30
0.0
 10
6.8885570342
 20
6.8313763212
 30
0.0
 10
6.8898784969
 20
6.8297515264
 30
0.0
  0
LINE
  5
32C
100
AcDbEntity
  8
0
100
AcDbLine
 62
7
  6
CONTINUOUS
 10
15.6204706923
 20
7.571710995
 11
15.6203996288
 21
7.5706602775
  0
SPLINE
  5
32D
100
AcDbEntity
  8
0
100
AcDbSpline
 62
7
  6
CONTINUOUS
 70
0
 71
3
 72
32
 73
28
 74
0
 42
0.0000001
 43
0.0000001
 44
0.0000000001
 40
0.0
 40
0.0
 40
0.0
 40
0.0
 40
0.0815806634
 40
0.1626886242
 40
0.24281846
 40
0.3214725241
 40
0.3981650653
 40
0.4724264374
 40
0.543807366
 40
0.5782847986
 40
0.6118852905
 40
0.6445604256
 40
0.6762641503
 40
0.7069527296
 40
0.7365850136
 40
0.7651228703
 40
0.7925311473
 40
0.8187782886
 40
0.8438366564
 40
0.8676828284
 40
0.8902985498
 40
0.9116712156
 40
0.9317949341
 40
0.9506717014
 40
0.9683132504
 40
0.9847439845
 40
1.0
 40
1.0
 40
1.0
 40
1.0
 10
15.6203996288
 20
7.5706602775
 30
0.0
 10
15.6194219399
 20
7.5562576025
 30
0.0
 10
15.6171797851
 20
7.5275546841
 30
0.0
 10
15.6129574567
 20
7.4847926482
 30
0.0
 10
15.6079069558
 20
7.4426417216
 30
0.0
 10
15.6020620944
 20
7.4013824407
 30
0.0
 10
15.5954620717
 20
7.3612889283
 30
0.0
 10
15.5881511555
 20
7.3226278345
 30
0.0
 10
15.5814321137
 20
7.2914673564
 30
0.0
 10
15.5757222546
 20
7.267458808
 30
0.0
 10
15.5713433533
 20
7.2501758125
 30
0.0
 10
15.5668257594
 20
7.2334363795
 30
0.0
 10
15.5621770261
 20
7.2172682983
 30
0.0
 10
15.5574049248
 20
7.2016984315
 30
0.0
 10
15.5525173964
 20
7.1867526283
 30
0.0
 10
15.5475226719
 20
7.1724556623
 30
0.0
 10
15.5424290433
 20
7.158831226
 30
0.0
 10
15.5372450316
 20
7.1459018467
 30
0.0
 10
15.5319793177
 20
7.133688849
 30
0.0
 10
15.526640592
 20
7.1222123539
 30
0.0
 10
15.5212377746
 20
7.1114911436
 30
0.0
 10
15.5157797482
 20
7.1015426965
 30
0.0
 10
15.5102753598
 20
7.0923831548
 30
0.0
 10
15.5047336314
 20
7.084027202
 30
0.0
 10
15.4991629239
 20
7.0764878527
 30
0.0
 10
15.4935722517
 20
7.0697777261
 30
0.0
 10
15.4896970417
 20
7.0657171062
 30
0.0
 10
15.4877553601
 20
7.0638415857
 30
0.0
  0
SPLINE
  5
32E
100
AcDbEntity
  8
0
100
AcDbSpline
 62
7
  6
CONTINUOUS
 70
0
 71
3
 72
40
 73
36
 74
0
 42
0.0000001
 43
0.0000001
 44
0.0000000001
 40
0.0
 40
0.0
 40
0.0
 40
0.0
 40
0.0299422917
 40
0.0449240218
 40
0.0599148595
 40
0.0899296895
 40
0.1200152935
 40
0.1501925778
 40
0.1804802557
 40
0.2108944263
 40
0.2414482291
 40
0.2721515789
 40
0.3030109866
 40
0.3340294629
 40
0.3652065054
 40
0.3965381623
 40
0.4280171682
 40
0.4596331441
 40
0.4913728551
 40
0.5232205171
 40
0.5551581459
 40
0.5871659397
 40
0.6192226901
 40
0.6513062117
 40
0.6833937874
 40
0.7154626194
 40
0.7474902821
 40
0.779455171
 40
0.8113369343
 40
0.8431169059
 40
0.8747784521
 40
0.906307475
 40
0.9376923384
 40
0.96892512
 40
1.0
 40
1.0
 40
1.0
 40
1.0
 10
8.8067647464
 20
9.5826366337
 30
0.0
 10
8.8102651688
 20
9.5860177542
 30
0.0
 10
8.8157221543
 20
9.5908845286
 30
0.0
 10
8.8233645115
 20
9.5969231867
 30
0.0
 10
8.8312502328
 20
9.6026612794
 30
0.0
 10
8.8415400944
 20
9.6092506523
 30
0.0
 10
8.8544957557
 20
9.616171336
 30
0.0
 10
8.8679952236
 20
9.6220724124
 30
0.0
 10
8.8819636216
 20
9.626921163
 30
0.0
 10
8.8963240772
 20
9.6306911341
 30
0.0
 10
8.9109974481
 20
9.6333617228
 30
0.0
 10
8.9259029532
 20
9.634918428
 30
0.0
 10
8.9409585693
 20
9.635352879
 30
0.0
 10
8.9560814953
 20
9.6346628811
 30
0.0
 10
8.9711886019
 20
9.6328524151
 30
0.0
 10
8.986196885
 20
9.6299316071
 30
0.0
 10
9.0010239164
 20
9.6259166664
 30
0.0
 10
9.0155882901
 20
9.6208297906
 30
0.0
 10
9.0298100638
 20
9.6146990421
 30
0.0
 10
9.0436111914
 20
9.6075581898
 30
0.0
 10
9.0569159447
 20
9.5994465234
 30
0.0
 10
9.069651324
 20
9.5904086377
 30
0.0
 10
9.0817474534
 20
9.5804941889
 30
0.0
 10
9.0931379591
 20
9.5697576239
 30
0.0
 10
9.1037603302
 20
9.5582578844
 30
0.0
 10
9.1135562578
 20
9.5460580859
 30
0.0
 10
9.1224719521
 20
9.533225175
 30
0.0
 10
9.1304584333
 20
9.5198295665
 30
0.0
 10
9.137471805
 20
9.5059447597
 30
0.0
 10
9.1434734761
 20
9.4916469489
 30
0.0
 10
9.1484304153
 20
9.4770145721
 30
0.0
 10
9.152315238
 20
9.4621280381
 30
0.0
 10
9.155106544
 20
9.4470687379
 30
0.0
 10
9.1567887378
 20
9.4319205285
 30
0.0
 10
9.1571655372
 20
9.4217893711
 30
0.0
 10
9.1571655372
 20
9.4167385673
 30
0.0
  0
SPLINE
  5
32F
100
AcDbEntity
  8
0
100
AcDbSpline
 62
7
  6
CONTINUOUS
 70
0
 71
3
 72
40
 73
36
 74
0
 42
0.0000001
 43
0.0000001
 44
0.0000000001
 40
0.0
 40
0.0
 40
0.0
 40
0.0
 40
0.0299422917
 40
0.0449240218
 40
0.0599148595
 40
0.0899296895
 40
0.1200152935
 40
0.1501925778
 40
0.1804802557
 40
0.2108944263
 40
0.2414482291
 40
0.2721515789
 40
0.3030109866
 40
0.3340294629
 40
0.3652065054
 40
0.3965381623
 40
0.4280171682
 40
0.4596331441
 40
0.4913728551
 40
0.5232205171
 40
0.5551581459
 40
0.5871659397
 40
0.6192226901
 40
0.6513062117
 40
0.6833937874
 40
0.7154626194
 40
0.7474902821
 40
0.779455171
 40
0.8113369343
 40
0.8431169059
 40
0.8747784521
 40
0.906307475
 40
0.9376923384
 40
0.96892512
 40
1.0
 40
1.0
 40
1.0
 40
1.0
 10
12.6704680502
 20
9.3146878995
 30
0.0
 10
12.6739684726
 20
9.31806902
 30
0.0
 10
12.6794254581
 20
9.3229357944
 30
0.0
 10
12.6870678153
 20
9.3289744525
 30
0.0
 10
12.6949535366
 20
9.3347125452
 30
0.0
 10
12.7052433982
 20
9.3413019181
 30
0.0
 10
12.7181990595
 20
9.3482226018
 30
0.0
 10
12.7316985274
 20
9.3541236782
 30
0.0
 10
12.7456669254
 20
9.3589724289
 30
0.0
 10
12.760027381
 20
9.3627423999
 30
0.0
 10
12.7747007518
 20
9.3654129886
 30
0.0
 10
12.789606257
 20
9.3669696938
 30
0.0
 10
12.8046618731
 20
9.3674041448
 30
0.0
 10
12.8197847991
 20
9.3667141469
 30
0.0
 10
12.8348919057
 20
9.3649036809
 30
0.0
 10
12.8499001888
 20
9.3619828729
 30
0.0
 10
12.8647272202
 20
9.3579679322
 30
0.0
 10
12.8792915939
 20
9.3528810564
 30
0.0
 10
12.8935133676
 20
9.3467503079
 30
0.0
 10
12.9073144952
 20
9.3396094556
 30
0.0
 10
12.9206192485
 20
9.3314977893
 30
0.0
 10
12.9333546278
 20
9.3224599035
 30
0.0
 10
12.9454507572
 20
9.3125454547
 30
0.0
 10
12.9568412629
 20
9.3018088897
 30
0.0
 10
12.967463634
 20
9.2903091502
 30
0.0
 10
12.9772595616
 20
9.2781093517
 30
0.0
 10
12.9861752559
 20
9.2652764408
 30
0.0
 10
12.9941617371
 20
9.2518808323
 30
0.0
 10
13.0011751088
 20
9.2379960255
 30
0.0
 10
13.0071767799
 20
9.2236982147
 30
0.0
 10
13.0121337191
 20
9.2090658379
 30
0.0
 10
13.0160185418
 20
9.1941793039
 30
0.0
 10
13.0188098478
 20
9.1791200037
 30
0.0
 10
13.0204920416
 20
9.1639717943
 30
0.0
 10
13.020868841
 20
9.1538406369
 30
0.0
 10
13.020868841
 20
9.1487898331
 30
0.0
  0
SPLINE
  5
330
100
AcDbEntity
  8
0
100
AcDbSpline
 62
7
  6
CONTINUOUS
 70
0
 71
3
 72
40
 73
36
 74
0
 42
0.0000001
 43
0.0000001
 44
0.0000000001
 40
0.0
 40
0.0
 40
0.0
 40
0.0
 40
0.0299422917
 40
0.0449240218
 40
0.0599148595
 40
0.0899296895
 40
0.1200152935
 40
0.1501925778
 40
0.1804802557
 40
0.2108944263
 40
0.2414482291
 40
0.2721515789
 40
0.3030109866
 40
0.3340294629
 40
0.3652065054
 40
0.3965381623
 40
0.4280171682
 40
0.4596331441
 40
0.4913728551
 40
0.5232205171
 40
0.5551581459
 40
0.5871659397
 40
0.6192226901
 40
0.6513062117
 40
0.6833937874
 40
0.7154626194
 40
0.7474902821
 40
0.779455171
 40
0.8113369343
 40
0.8431169059
 40
0.8747784521
 40
0.906307475
 40
0.9376923384
 40
0.96892512
 40
1.0
 40
1.0
 40
1.0
 40
1.0
 10
8.8067647464
 20
6.926340454
 30
0.0
 10
8.8102651688
 20
6.9297215745
 30
0.0
 10
8.8157221543
 20
6.9345883489
 30
0.0
 10
8.8233645115
 20
6.940627007
 30
0.0
 10
8.8312502328
 20
6.9463650997
 30
0.0
 10
8.8415400944
 20
6.9529544726
 30
0.0
 10
8.8544957557
 20
6.9598751563
 30
0.0
 10
8.8679952236
 20
6.9657762327
 30
0.0
 10
8.8819636216
 20
6.9706249834
 30
0.0
 10
8.8963240772
 20
6.9743949544
 30
0.0
 10
8.9109974481
 20
6.9770655431
 30
0.0
 10
8.9259029532
 20
6.9786222483
 30
0.0
 10
8.9409585693
 20
6.9790566993
 30
0.0
 10
8.9560814953
 20
6.9783667015
 30
0.0
 10
8.9711886019
 20
6.9765562354
 30
0.0
 10
8.986196885
 20
6.9736354274
 30
0.0
 10
9.0010239164
 20
6.9696204867
 30
0.0
 10
9.0155882901
 20
6.964533611
 30
0.0
 10
9.0298100638
 20
6.9584028624
 30
0.0
 10
9.0436111914
 20
6.9512620102
 30
0.0
 10
9.0569159447
 20
6.9431503438
 30
0.0
 10
9.069651324
 20
6.934112458
 30
0.0
 10
9.0817474534
 20
6.9241980092
 30
0.0
 10
9.0931379591
 20
6.9134614442
 30
0.0
 10
9.1037603302
 20
6.9019617048
 30
0.0
 10
9.1135562578
 20
6.8897619062
 30
0.0
 10
9.1224719521
 20
6.8769289953
 30
0.0
 10
9.1304584333
 20
6.8635333868
 30
0.0
 10
9.137471805
 20
6.84964858
 30
0.0
 10
9.1434734761
 20
6.8353507692
 30
0.0
 10
9.1484304153
 20
6.8207183924
 30
0.0
 10
9.152315238
 20
6.8058318585
 30
0.0
 10
9.155106544
 20
6.7907725582
 30
0.0
 10
9.1567887378
 20
6.7756243488
 30
0.0
 10
9.1571655372
 20
6.7654931915
 30
0.0
 10
9.1571655372
 20
6.7604423876
 30
0.0
  0
SPLINE
  5
331
100
AcDbEntity
  8
0
100
AcDbSpline
 62
7
  6
CONTINUOUS
 70
0
 71
3
 72
40
 73
36
 74
0
 42
0.0000001
 43
0.0000001
 44
0.0000000001
 40
0.0
 40
0.0
 40
0.0
 40
0.0
 40
0.0299422917
 40
0.0449240218
 40
0.0599148595
 40
0.0899296895
 40
0.1200152935
 40
0.1501925778
 40
0.1804802557
 40
0.2108944263
 40
0.2414482291
 40
0.2721515789
 40
0.3030109866
 40
0.3340294629
 40
0.3652065054
 40
0.3965381623
 40
0.4280171682
 40
0.4596331441
 40
0.4913728551
 40
0.5232205171
 40
0.5551581459
 40
0.5871659397
 40
0.6192226901
 40
0.6513062117
 40
0.6833937874
 40
0.7154626194
 40
0.7474902821
 40
0.779455171
 40
0.8113369343
 40
0.8431169059
 40
0.8747784521
 40
0.906307475
 40
0.9376923384
 40
0.96892512
 40
1.0
 40
1.0
 40
1.0
 40
1.0
 10
12.6704680502
 20
6.6583917198
 30
0.0
 10
12.6739684726
 20
6.6617728403
 30
0.0
 10
12.6794254581
 20
6.6666396147
 30
0.0
 10
12.6870678153
 20
6.6726782728
 30
0.0
 10
12.6949535366
 20
6.6784163655
 30
0.0
 10
12.7052433982
 20
6.6850057384
 30
0.0
 10
12.7181990595
 20
6.6919264221
 30
0.0
 10
12.7316985274
 20
6.6978274985
 30
0.0
 10
12.7456669254
 20
6.7026762492
 30
0.0
 10
12.760027381
 20
6.7064462202
 30
0.0
 10
12.7747007518
 20
6.7091168089
 30
0.0
 10
12.789606257
 20
6.7106735141
 30
0.0
 10
12.8046618731
 20
6.7111079651
 30
0.0
 10
12.8197847991
 20
6.7104179673
 30
0.0
 10
12.8348919057
 20
6.7086075012
 30
0.0
 10
12.8499001888
 20
6.7056866932
 30
0.0
 10
12.8647272202
 20
6.7016717525
 30
0.0
 10
12.8792915939
 20
6.6965848768
 30
0.0
 10
12.8935133676
 20
6.6904541282
 30
0.0
 10
12.9073144952
 20
6.683313276
 30
0.0
 10
12.9206192485
 20
6.6752016096
 30
0.0
 10
12.9333546278
 20
6.6661637238
 30
0.0
 10
12.9454507572
 20
6.656249275
 30
0.0
 10
12.9568412629
 20
6.64551271
 30
0.0
 10
12.967463634
 20
6.6340129706
 30
0.0
 10
12.9772595616
 20
6.621813172
 30
0.0
 10
12.9861752559
 20
6.6089802611
 30
0.0
 10
12.9941617371
 20
6.5955846526
 30
0.0
 10
13.0011751088
 20
6.5816998458
 30
0.0
 10
13.0071767799
 20
6.567402035
 30
0.0
 10
13.0121337191
 20
6.5527696582
 30
0.0
 10
13.0160185418
 20
6.5378831243
 30
0.0
 10
13.0188098478
 20
6.522823824
 30
0.0
 10
13.0204920416
 20
6.5076756146
 30
0.0
 10
13.020868841
 20
6.4975444573
 30
0.0
 10
13.020868841
 20
6.4924936534
 30
0.0
  0
SPLINE
  5
332
100
AcDbEntity
  8
0
100
AcDbSpline
 62
7
  6
CONTINUOUS
 70
0
 71
3
 72
37
 73
33
 74
0
 42
0.0000001
 43
0.0000001
 44
0.0000000001
 40
0.0
 40
0.0
 40
0.0
 40
0.0
 40
0.0299447734
 40
0.0599139259
 40
0.0899312435
 40
0.1200193435
 40
0.1501991354
 40
0.1804893331
 40
0.2109060334
 40
0.241462374
 40
0.272168271
 40
0.3030302375
 40
0.3340512872
 40
0.3652309191
 40
0.3965651795
 40
0.4280467979
 40
0.4596653933
 40
0.4914077316
 40
0.5232580308
 40
0.5551983078
 40
0.6192295559
 40
0.6833675502
 40
0.7154390382
 40
0.747469357
 40
0.7794368985
 40
0.8113213087
 40
0.8431039189
 40
0.8747680563
 40
0.9062997989
 40
0.9376869363
 40
0.9689229623
 40
1.0
 40
1.0
 40
1.0
 40
1.0
 10
10.152982684
 20
9.5028186297
 30
0.0
 10
10.1553135346
 20
9.5050700329
 30
0.0
 10
10.1601585643
 20
9.5093910849
 30
0.0
 10
10.1679209935
 20
9.5152777877
 30
0.0
 10
10.1761386852
 20
9.5205401022
 30
0.0
 10
10.1847657112
 20
9.5251485223
 30
0.0
 10
10.1937546487
 20
9.5290778629
 30
0.0
 10
10.2030558921
 20
9.5323065129
 30
0.0
 10
10.2126181827
 20
9.5348168102
 30
0.0
 10
10.2223888358
 20
9.5365950601
 30
0.0
 10
10.2323140563
 20
9.5376316079
 30
0.0
 10
10.24233923
 20
9.537920882
 30
0.0
 10
10.2524092233
 20
9.5374614175
 30
0.0
 10
10.2624686822
 20
9.5362558586
 30
0.0
 10
10.2724623353
 20
9.5343109356
 30
0.0
 10
10.2823352874
 20
9.5316374609
 30
0.0
 10
10.2920333665
 20
9.5282501965
 30
0.0
 10
10.301503223
 20
9.5241679299
 30
0.0
 10
10.3106933418
 20
9.5194127733
 30
0.0
 10
10.3225124087
 20
9.5122072018
 30
0.0
 10
10.3363322873
 20
9.5016571903
 30
0.0
 10
10.3485728871
 20
9.4892904342
 30
0.0
 10
10.3572676074
 20
9.4784616724
 30
0.0
 10
10.3632046232
 20
9.4699162909
 30
0.0
 10
10.3685225597
 20
9.4609965456
 30
0.0
 10
10.3731926073
 20
9.4517509629
 30
0.0
 10
10.3771889497
 20
9.4422303937
 30
0.0
 10
10.3804896592
 20
9.4324870355
 30
0.0
 10
10.3830764274
 20
9.4225744695
 30
0.0
 10
10.3849351492
 20
9.4125468062
 30
0.0
 10
10.3860552329
 20
9.4024599814
 30
0.0
 10
10.3863061614
 20
9.3957138636
 30
0.0
 10
10.3863061614
 20
9.3923507
 30
0.0
  0
SPLINE
  5
333
100
AcDbEntity
  8
0
100
AcDbSpline
 62
7
  6
CONTINUOUS
 70
0
 71
3
 72
37
 73
33
 74
0
 42
0.0000001
 43
0.0000001
 44
0.0000000001
 40
0.0
 40
0.0
 40
0.0
 40
0.0
 40
0.0299447734
 40
0.0599139259
 40
0.0899312435
 40
0.1200193435
 40
0.1501991354
 40
0.1804893331
 40
0.2109060334
 40
0.241462374
 40
0.272168271
 40
0.3030302375
 40
0.3340512872
 40
0.3652309191
 40
0.3965651795
 40
0.4280467979
 40
0.4596653933
 40
0.4914077316
 40
0.5232580308
 40
0.5551983078
 40
0.6192295559
 40
0.6833675502
 40
0.7154390382
 40
0.747469357
 40
0.7794368985
 40
0.8113213087
 40
0.8431039189
 40
0.8747680563
 40
0.9062997989
 40
0.9376869363
 40
0.9689229623
 40
1.0
 40
1.0
 40
1.0
 40
1.0
 10
10.7576524474
 20
6.6828818394
 30
0.0
 10
10.759983298
 20
6.6851332426
 30
0.0
 10
10.7648283276
 20
6.6894542945
 30
0.0
 10
10.7725907569
 20
6.6953409974
 30
0.0
 10
10.7808084485
 20
6.7006033119
 30
0.0
 10
10.7894354746
 20
6.705211732
 30
0.0
 10
10.7984244121
 20
6.7091410726
 30
0.0
 10
10.8077256555
 20
6.7123697226
 30
0.0
 10
10.8172879461
 20
6.7148800198
 30
0.0
 10
10.8270585991
 20
6.7166582698
 30
0.0
 10
10.8369838197
 20
6.7176948176
 30
0.0
 10
10.8470089934
 20
6.7179840917
 30
0.0
 10
10.8570789867
 20
6.7175246272
 30
0.0
 10
10.8671384456
 20
6.7163190683
 30
0.0
 10
10.8771320987
 20
6.7143741453
 30
0.0
 10
10.8870050508
 20
6.7117006706
 30
0.0
 10
10.8967031298
 20
6.7083134062
 30
0.0
 10
10.9061729863
 20
6.7042311396
 30
0.0
 10
10.9153631051
 20
6.699475983
 30
0.0
 10
10.927182172
 20
6.6922704115
 30
0.0
 10
10.9410020507
 20
6.6817204
 30
0.0
 10
10.9532426505
 20
6.6693536439
 30
0.0
 10
10.9619373708
 20
6.6585248821
 30
0.0
 10
10.9678743865
 20
6.6499795006
 30
0.0
 10
10.9731923231
 20
6.6410597553
 30
0.0
 10
10.9778623707
 20
6.6318141725
 30
0.0
 10
10.9818587131
 20
6.6222936034
 30
0.0
 10
10.9851594226
 20
6.6125502452
 30
0.0
 10
10.9877461907
 20
6.6026376792
 30
0.0
 10
10.9896049125
 20
6.5926100159
 30
0.0
 10
10.9907249963
 20
6.5825231911
 30
0.0
 10
10.9909759248
 20
6.5757770733
 30
0.0
 10
10.9909759248
 20
6.5724139097
 30
0.0
  0
SPLINE
  5
334
100
AcDbEntity
  8
0
100
AcDbSpline
 62
7
  6
CONTINUOUS
 70
0
 71
3
 72
25
 73
21
 74
0
 42
0.0000001
 43
0.0000001
 44
0.0000000001
 40
0.0
 40
0.0
 40
0.0
 40
0.0
 40
0.0624151069
 40
0.0935573235
 40
0.1246579424
 40
0.1867415849
 40
0.2487136522
 40
0.2796761883
 40
0.3106266824
 40
0.3725032186
 40
0.434401731
 40
0.4963711819
 40
0.5584609354
 40
0.6207193581
 40
0.6831922592
 40
0.7459212942
 40
0.8089422398
 40
0.8722839792
 40
0.9359658498
 40
1.0
 40
1.0
 40
1.0
 40
1.0
 10
9.3430516307
 20
9.0017441517
 30
0.0
 10
9.3461398152
 20
9.0091509246
 30
0.0
 10
9.3511604591
 20
9.0200964038
 30
0.0
 10
9.3586148456
 20
9.0342876133
 30
0.0
 10
9.3665543075
 20
9.0481649113
 30
0.0
 10
9.3773987231
 20
9.0649308994
 30
0.0
 10
9.3894420701
 20
9.0808363913
 30
0.0
 10
9.3997599836
 20
9.092975198
 30
0.0
 10
9.4105218676
 20
9.1047053909
 30
0.0
 10
9.4248032437
 20
9.1185845992
 30
0.0
 10
9.4431859359
 20
9.1338663802
 30
0.0
 10
9.4627352501
 20
9.1476741534
 30
0.0
 10
9.4833596383
 20
9.1599093896
 30
0.0
 10
9.5049569975
 20
9.1704807931
 30
0.0
 10
9.5274137855
 20
9.1793051745
 30
0.0
 10
9.5506057683
 20
9.1863096649
 30
0.0
 10
9.5743986352
 20
9.1914336779
 30
0.0
 10
9.5986500942
 20
9.194630462
 30
0.0
 10
9.6232086371
 20
9.195869177
 30
0.0
 10
9.6396425334
 20
9.195380835
 30
0.0
 10
9.6478557534
 20
9.1948112462
 30
0.0
  0
SPLINE
  5
335
100
AcDbEntity
  8
0
100
AcDbSpline
 62
7
  6
CONTINUOUS
 70
0
 71
3
 72
25
 73
21
 74
0
 42
0.0000001
 43
0.0000001
 44
0.0000000001
 40
0.0
 40
0.0
 40
0.0
 40
0.0
 40
0.0620104298
 40
0.0929812219
 40
0.1239318917
 40
0.1857819373
 40
0.2476064982
 40
0.2785255855
 40
0.309452487
 40
0.3713393934
 40
0.4333136412
 40
0.4954111695
 40
0.5576659125
 40
0.6201091232
 40
0.6827687844
 40
0.7456689653
 40
0.8088296375
 40
0.8722655134
 40
0.9359877148
 40
1.0
 40
1.0
 40
1.0
 40
1.0
 10
10.570294202
 20
8.9484423694
 30
0.0
 10
10.5739339336
 20
8.9543532054
 30
0.0
 10
10.5796930696
 20
8.9630358517
 30
0.0
 10
10.5879421435
 20
8.9741925568
 30
0.0
 10
10.5965554776
 20
8.985048274
 30
0.0
 10
10.6080038775
 20
8.9980496198
 30
0.0
 10
10.6203147479
 20
9.0102327043
 30
0.0
 10
10.630646095
 20
9.0194514416
 30
0.0
 10
10.6412941204
 20
9.028313344
 30
0.0
 10
10.6551798574
 20
9.03870281
 30
0.0
 10
10.6726816145
 20
9.05000296
 30
0.0
 10
10.6909571296
 20
9.0600899625
 30
0.0
 10
10.7099308138
 20
9.0689176853
 30
0.0
 10
10.7295240026
 20
9.0764457934
 30
0.0
 10
10.7496545306
 20
9.0826393955
 30
0.0
 10
10.7702373707
 20
9.0874695618
 30
0.0
 10
10.7911848283
 20
9.0909134216
 30
0.0
 10
10.8124076553
 20
9.0929545725
 30
0.0
 10
10.8338133931
 20
9.0935830051
 30
0.0
 10
10.8481148287
 20
9.0930589761
 30
0.0
 10
10.8552633381
 20
9.0925632253
 30
0.0
  0
SPLINE
  5
336
100
AcDbEntity
  8
0
100
AcDbSpline
 62
7
  6
CONTINUOUS
 70
0
 71
3
 72
31
 73
27
 74
0
 42
0.0000001
 43
0.0000001
 44
0.0000000001
 40
0.0
 40
0.0
 40
0.0
 40
0.0
 40
0.0162143923
 40
0.0334274104
 40
0.051671826
 40
0.0709709107
 40
0.0913404915
 40
0.1127895765
 40
0.1353219427
 40
0.1589363013
 40
0.1836275706
 40
0.2093867448
 40
0.2362019676
 40
0.2640582192
 40
0.292938262
 40
0.3228222211
 40
0.3536884431
 40
0.3855130181
 40
0.4519320155
 40
0.5218578746
 40
0.5950442585
 40
0.6712248644
 40
0.7501159881
 40
0.8314186934
 40
0.9148211163
 40
1.0
 40
1.0
 40
1.0
 40
1.0
 10
15.5574396905
 20
10.1995888593
 30
0.0
 10
15.5587611532
 20
10.1979640645
 30
0.0
 10
15.5613742317
 20
10.1945228794
 30
0.0
 10
15.565100832
 20
10.1889823677
 30
0.0
 10
15.5687454496
 20
10.1829178644
 30
0.0
 10
15.5723044605
 20
10.1763358438
 30
0.0
 10
15.5757742995
 20
10.1692428412
 30
0.0
 10
15.5791515627
 20
10.1616461615
 30
0.0
 10
15.5824326705
 20
10.1535535661
 30
0.0
 10
15.5856143372
 20
10.1449734406
 30
0.0
 10
15.5886931223
 20
10.1359146606
 30
0.0
 10
15.5916659066
 20
10.1263866708
 30
0.0
 10
15.5945294456
 20
10.1163994001
 30
0.0
 10
15.5972808232
 20
10.1059633021
 30
0.0
 10
15.5999170238
 20
10.0950893001
 30
0.0
 10
15.6024353501
 20
10.0837888063
 30
0.0
 10
15.6048330716
 20
10.0720736663
 30
0.0
 10
15.6079097291
 20
10.0556828451
 30
0.0
 10
15.611417905
 20
10.0342429529
 30
0.0
 10
15.6150528851
 20
10.007421108
 30
0.0
 10
15.6181548403
 20
9.9792637784
 30
0.0
 10
15.620710453
 20
9.949889415
 30
0.0
 10
15.6227086543
 20
9.9194214281
 30
0.0
 10
15.6241408046
 20
9.8879879525
 30
0.0
 10
15.6250006777
 20
9.8557214089
 30
0.0
 10
15.6251881596
 20
9.8339460859
 30
0.0
 10
15.6251881596
 20
9.8229439613
 30
0.0
  0
SPLINE
  5
337
100
AcDbEntity
  8
0
100
AcDbSpline
 62
7
  6
CONTINUOUS
 70
0
 71
3
 72
17
 73
13
 74
0
 42
0.0000001
 43
0.0000001
 44
0.0000000001
 40
0.0
 40
0.0
 40
0.0
 40
0.0
 40
0.1492498392
 40
0.2896783276
 40
0.4219831021
 40
0.4853811097
 40
0.5471018133
 40
0.6660507687
 40
0.7801598541
 40
0.8909115304
 40
0.9455641974
 40
1.0
 40
1.0
 40
1.0
 40
1.0
 10
14.6556531101
 20
6.2611729826
 30
0.0
 10
14.6541181371
 20
6.2597444164
 30
0.0
 10
14.6510500716
 20
6.2570645182
 30
0.0
 10
14.6463059669
 20
6.25349961
 30
0.0
 10
14.6423022527
 20
6.2509822883
 30
0.0
 10
14.6391103275
 20
6.2492788693
 30
0.0
 10
14.6360080756
 20
6.2478153238
 30
0.0
 10
14.6321290903
 20
6.2463391127
 30
0.0
 10
14.6274373176
 20
6.2451452636
 30
0.0
 10
14.6235297848
 20
6.2446513574
 30
0.0
 10
14.6204406716
 20
6.2445630938
 30
0.0
 10
14.6189077123
 20
6.2446191152
 30
0.0
 10
14.6181447483
 20
6.2446720335
 30
0.0
  0
SPLINE
  5
338
100
AcDbEntity
  8
0
100
AcDbSpline
 62
7
  6
CONTINUOUS
 70
0
 71
3
 72
15
 73
11
 74
0
 42
0.0000001
 43
0.0000001
 44
0.0000000001
 40
0.0
 40
0.0
 40
0.0
 40
0.0
 40
0.1270018993
 40
0.253628078
 40
0.3797648586
 40
0.5053058036
 40
0.6301581544
 40
0.7542497888
 40
0.8775336396
 40
1.0
 40
1.0
 40
1.0
 40
1.0
 10
9.9653153358
 20
7.0929065169
 30
0.0
 10
9.9603566905
 20
7.1003304489
 30
0.0
 10
9.9510291577
 20
7.1155507072
 30
0.0
 10
9.9389516574
 20
7.1393904498
 30
0.0
 10
9.928945268
 20
7.1640640704
 30
0.0
 10
9.9211445809
 20
7.1893924702
 30
0.0
 10
9.9156649048
 20
7.2151772615
 30
0.0
 10
9.9125982363
 20
7.2412016911
 30
0.0
 10
9.912005924
 20
7.267230815
 30
0.0
 10
9.9132844967
 20
7.2844911015
 30
0.0
 10
9.9143425231
 20
7.2930346605
 30
0.0
  0
SPLINE
  5
339
100
AcDbEntity
  8
0
100
AcDbSpline
 62
7
  6
CONTINUOUS
 70
0
 71
3
 72
16
 73
12
 74
0
 42
0.0000001
 43
0.0000001
 44
0.0000000001
 40
0.0
 40
0.0
 40
0.0
 40
0.0
 40
0.1090377933
 40
0.2197964262
 40
0.3339122029
 40
0.4528687424
 40
0.5145945014
 40
0.5779976197
 40
0.7103106686
 40
0.8507398971
 40
1.0
 40
1.0
 40
1.0
 40
1.0
 10
15.4966931025
 20
10.2529240575
 30
0.0
 10
15.4982212716
 20
10.2528180655
 30
0.0
 10
15.5012913249
 20
10.2524012601
 30
0.0
 10
15.5058310137
 20
10.2511726357
 30
0.0
 10
15.5103136388
 20
10.2493425627
 30
0.0
 10
15.5139516202
 20
10.2473450412
 30
0.0
 10
15.5168221744
 20
10.2454671933
 30
0.0
 10
15.5197484516
 20
10.243339459
 30
0.0
 10
15.5233662848
 20
10.2402936035
 30
0.0
 10
15.5275728705
 20
10.2361080506
 30
0.0
 10
15.5302415891
 20
10.2330303588
 30
0.0
 10
15.531564668
 20
10.2314035514
 30
0.0
  0
SPLINE
  5
33A
100
AcDbEntity
  8
0
100
AcDbSpline
 62
7
  6
CONTINUOUS
 70
0
 71
3
 72
23
 73
19
 74
0
 42
0.0000001
 43
0.0000001
 44
0.0000000001
 40
0.0
 40
0.0
 40
0.0
 40
0.0
 40
0.062089563
 40
0.1240614725
 40
0.1859519163
 40
0.2477991338
 40
0.3096426992
 40
0.3715226772
 40
0.4334789787
 40
0.4955505731
 40
0.5577745897
 40
0.6201854795
 40
0.6828142098
 40
0.7456880317
 40
0.8088294738
 40
0.8722535057
 40
0.9359787617
 40
1.0
 40
1.0
 40
1.0
 40
1.0
 10
11.7602343596
 20
8.752637244
 30
0.0
 10
11.7615218245
 20
8.7549021261
 30
0.0
 10
11.7642508124
 20
8.7593407328
 30
0.0
 10
11.7687919729
 20
8.765692853
 30
0.0
 10
11.7737594352
 20
8.7717048651
 30
0.0
 10
11.7791334096
 20
8.7773489723
 30
0.0
 10
11.7848924219
 20
8.7825990959
 30
0.0
 10
11.7910128599
 20
8.7874304729
 30
0.0
 10
11.7974692016
 20
8.7918199428
 30
0.0
 10
11.8042340627
 20
8.7957460536
 30
0.0
 10
11.8112782672
 20
8.7991892588
 30
0.0
 10
11.8185708948
 20
8.8021322138
 30
0.0
 10
11.8260794924
 20
8.8045598621
 30
0.0
 10
11.8337702636
 20
8.8064595441
 30
0.0
 10
11.841608081
 20
8.8078211159
 30
0.0
 10
11.8495572374
 20
8.808637477
 30
0.0
 10
11.8575802451
 20
8.8089038196
 30
0.0
 10
11.8629419644
 20
8.8087141951
 30
0.0
 10
11.865621816
 20
8.8085283467
 30
0.0
  0
SPLINE
  5
33B
100
AcDbEntity
  8
0
100
AcDbSpline
 62
7
  6
CONTINUOUS
 70
0
 71
3
 72
16
 73
12
 74
0
 42
0.0000001
 43
0.0000001
 44
0.0000000001
 40
0.0
 40
0.0
 40
0.0
 40
0.0
 40
0.0850425111
 40
0.1762228046
 40
0.2248959419
 40
0.2760459074
 40
0.3872785258
 40
0.5131974688
 40
0.6564982351
 40
0.8184669738
 40
1.0
 40
1.0
 40
1.0
 40
1.0
 10
15.2548397475
 20
7.3911861695
 30
0.0
 10
15.2541868468
 20
7.3912314483
 30
0.0
 10
15.252837681
 20
7.3913922796
 30
0.0
 10
15.2511455049
 20
7.3917693446
 30
0.0
 10
15.2497366855
 20
7.3921902928
 30
0.0
 10
15.2482031186
 20
7.3927270314
 30
0.0
 10
15.2461637893
 20
7.3936095585
 30
0.0
 10
15.2435866445
 20
7.3950059932
 30
0.0
 10
15.2408005875
 20
7.3968145803
 30
0.0
 10
15.2378159692
 20
7.3990840031
 30
0.0
 10
15.2358249301
 20
7.4008263121
 30
0.0
 10
15.2348009438
 20
7.4017766649
 30
0.0
  0
SPLINE
  5
33C
100
AcDbEntity
  8
0
100
AcDbSpline
 62
7
  6
CONTINUOUS
 70
0
 71
3
 72
23
 73
19
 74
0
 42
0.0000001
 43
0.0000001
 44
0.0000000001
 40
0.0
 40
0.0
 40
0.0
 40
0.0
 40
0.0421032165
 40
0.0867909842
 40
0.1341474042
 40
0.1842333119
 40
0.2370891023
 40
0.2927388491
 40
0.351192007
 40
0.4124459319
 40
0.4764874375
 40
0.5432937813
 40
0.6128344529
 40
0.6850711121
 40
0.7599593489
 40
0.8374483901
 40
0.9174822733
 40
1.0
 40
1.0
 40
1.0
 40
1.0
 10
15.2437617373
 20
7.3894814008
 30
0.0
 10
15.24174799
 20
7.3919573955
 30
0.0
 10
15.2377657539
 20
7.3972003316
 30
0.0
 10
15.2320856932
 20
7.4056401574
 30
0.0
 10
15.2265299588
 20
7.4148758796
 30
0.0
 10
15.221104355
 20
7.4248978432
 30
0.0
 10
15.2158139699
 20
7.4356960407
 30
0.0
 10
15.2106642421
 20
7.4472595203
 30
0.0
 10
15.205660352
 20
7.4595764767
 30
0.0
 10
15.2008074678
 20
7.472634279
 30
0.0
 10
15.1961106578
 20
7.4864194822
 30
0.0
 10
15.1915747518
 20
7.5009178265
 30
0.0
 10
15.1872045894
 20
7.5161142974
 30
0.0
 10
15.1830046582
 20
7.5319931011
 30
0.0
 10
15.1789794573
 20
7.5485377219
 30
0.0
 10
15.1751331581
 20
7.5657309351
 30
0.0
 10
15.1714698472
 20
7.5835547598
 30
0.0
 10
15.1691864544
 20
7.5956636947
 30
0.0
 10
15.1680739968
 20
7.6018189842
 30
0.0
  0
SPLINE
  5
33D
100
AcDbEntity
  8
0
100
AcDbSpline
 62
7
  6
CONTINUOUS
 70
0
 71
3
 72
30
 73
26
 74
0
 42
0.0000001
 43
0.0000001
 44
0.0000000001
 40
0.0
 40
0.0
 40
0.0
 40
0.0
 40
0.0299531282
 40
0.0599306534
 40
0.0899563625
 40
0.1200528599
 40
0.150241066
 40
0.180539717
 40
0.2109649117
 40
0.2415297748
 40
0.2722442363
 40
0.3031148262
 40
0.3341445414
 40
0.3653328651
 40
0.3966758621
 40
0.4281662756
 40
0.4915049595
 40
0.5552742182
 40
0.6193233329
 40
0.6834792475
 40
0.747560388
 40
0.8113911623
 40
0.8748159048
 40
0.9377110434
 40
1.0
 40
1.0
 40
1.0
 40
1.0
 10
11.8114319444
 20
9.2850086668
 30
0.0
 10
11.8127259388
 20
9.2862585605
 30
0.0
 10
11.8154156916
 20
9.2886574596
 30
0.0
 10
11.8197250617
 20
9.2919255664
 30
0.0
 10
11.8242872039
 20
9.2948470007
 30
0.0
 10
11.829076592
 20
9.2974054145
 30
0.0
 10
11.8340668863
 20
9.2995868562
 30
0.0
 10
11.8392305608
 20
9.3013793136
 30
0.0
 10
11.8445391717
 20
9.302772932
 30
0.0
 10
11.8499634525
 20
9.3037601608
 30
0.0
 10
11.8554735441
 20
9.3043356491
 30
0.0
 10
11.8610391263
 20
9.3044962629
 30
0.0
 10
11.8666296073
 20
9.3042411639
 30
0.0
 10
11.8722141716
 20
9.3035719208
 30
0.0
 10
11.8777624671
 20
9.3024921216
 30
0.0
 10
11.8850825754
 20
9.3005101422
 30
0.0
 10
11.8939897019
 20
9.2970352985
 30
0.0
 10
11.9040258447
 20
9.2913836725
 30
0.0
 10
11.9132202888
 20
9.28436394
 30
0.0
 10
11.9213712492
 20
9.2761299688
 30
0.0
 10
11.928301509
 20
9.2668612029
 30
0.0
 10
11.9338593807
 20
9.2567597118
 30
0.0
 10
11.9379229272
 20
9.246044674
 30
0.0
 10
11.9404020739
 20
9.2349527796
 30
0.0
 10
11.9409640349
 20
9.2274227393
 30
0.0
 10
11.9409640349
 20
9.2236814858
 30
0.0
  0
SPLINE
  5
33E
100
AcDbEntity
  8
0
100
AcDbSpline
 62
7
  6
CONTINUOUS
 70
0
 71
3
 72
30
 73
26
 74
0
 42
0.0000001
 43
0.0000001
 44
0.0000000001
 40
0.0
 40
0.0
 40
0.0
 40
0.0
 40
0.0299531282
 40
0.0599306534
 40
0.0899563625
 40
0.1200528599
 40
0.150241066
 40
0.180539717
 40
0.2109649117
 40
0.2415297748
 40
0.2722442363
 40
0.3031148262
 40
0.3341445414
 40
0.3653328651
 40
0.3966758621
 40
0.4281662756
 40
0.4915049595
 40
0.5552742182
 40
0.6193233329
 40
0.6834792475
 40
0.747560388
 40
0.8113911623
 40
0.8748159048
 40
0.9377110434
 40
1.0
 40
1.0
 40
1.0
 40
1.0
 10
9.5936658819
 20
6.7825150859
 30
0.0
 10
9.5949598763
 20
6.7837649796
 30
0.0
 10
9.5976496291
 20
6.7861638787
 30
0.0
 10
9.6019589992
 20
6.7894319856
 30
0.0
 10
9.6065211414
 20
6.7923534198
 30
0.0
 10
9.6113105294
 20
6.7949118337
 30
0.0
 10
9.6163008238
 20
6.7970932754
 30
0.0
 10
9.6214644983
 20
6.7988857328
 30
0.0
 10
9.6267731092
 20
6.8002793511
 30
0.0
 10
9.63219739
 20
6.80126658
 30
0.0
 10
9.6377074816
 20
6.8018420683
 30
0.0
 10
9.6432730637
 20
6.8020026821
 30
0.0
 10
9.6488635448
 20
6.801747583
 30
0.0
 10
9.654448109
 20
6.8010783399
 30
0.0
 10
9.6599964046
 20
6.7999985407
 30
0.0
 10
9.6673165129
 20
6.7980165613
 30
0.0
 10
9.6762236394
 20
6.7945417177
 30
0.0
 10
9.6862597822
 20
6.7888900916
 30
0.0
 10
9.6954542262
 20
6.7818703591
 30
0.0
 10
9.7036051866
 20
6.7736363879
 30
0.0
 10
9.7105354465
 20
6.764367622
 30
0.0
 10
9.7160933181
 20
6.754266131
 30
0.0
 10
9.7201568647
 20
6.7435510932
 30
0.0
 10
9.7226360113
 20
6.7324591988
 30
0.0
 10
9.7231979723
 20
6.7249291584
 30
0.0
 10
9.7231979723
 20
6.7211879049
 30
0.0
  0
SPLINE
  5
33F
100
AcDbEntity
  8
0
100
AcDbSpline
 62
7
  6
CONTINUOUS
 70
0
 71
3
 72
32
 73
28
 74
0
 42
0.0000001
 43
0.0000001
 44
0.0000000001
 40
0.0
 40
0.0
 40
0.0
 40
0.0
 40
0.0774463751
 40
0.1557075882
 40
0.2341291424
 40
0.3120548376
 40
0.3888337317
 40
0.4638272122
 40
0.5364159834
 40
0.5716231375
 40
0.6060094289
 40
0.6395062458
 40
0.6720476107
 40
0.7035704188
 40
0.7340148598
 40
0.7633247291
 40
0.7914477039
 40
0.8183358474
 40
0.8439462267
 40
0.868241398
 40
0.8911901786
 40
0.9127688055
 40
0.93296223
 40
0.9517656031
 40
0.9691867355
 40
0.9852506167
 40
1.0
 40
1.0
 40
1.0
 40
1.0
 10
15.0554482775
 20
9.0839431477
 30
0.0
 10
15.0556428618
 20
9.0965350153
 30
0.0
 10
15.056347952
 20
9.1218473764
 30
0.0
 10
15.0583155683
 20
9.1598710446
 30
0.0
 10
15.0611842491
 20
9.1979157561
 30
0.0
 10
15.0649283517
 20
9.2356420836
 30
0.0
 10
15.0695143287
 20
9.2727139683
 30
0.0
 10
15.0749009495
 20
9.3088008694
 30
0.0
 10
15.0800675558
 20
9.3380755679
 30
0.0
 10
15.0845784402
 20
9.3607518865
 30
0.0
 10
15.088095317
 20
9.3771427788
 30
0.0
 10
15.0917722917
 20
9.3930539322
 30
0.0
 10
15.0956011598
 20
9.408449907
 30
0.0
 10
15.0995733413
 20
9.4232963855
 30
0.0
 10
15.1036799206
 20
9.4375603127
 30
0.0
 10
15.1079116662
 20
9.4512099612
 30
0.0
 10
15.1122590923
 20
9.464214989
 30
0.0
 10
15.1167124607
 20
9.4765465296
 30
0.0
 10
15.1212617635
 20
9.4881772892
 30
0.0
 10
15.1258968157
 20
9.4990815899
 30
0.0
 10
15.1306073035
 20
9.5092354395
 30
0.0
 10
15.1353827443
 20
9.5186166579
 30
0.0
 10
15.1402126549
 20
9.5272049378
 30
0.0
 10
15.1450865358
 20
9.5349817758
 30
0.0
 10
15.1499943753
 20
9.541931106
 30
0.0
 10
15.1549256906
 20
9.5480376466
 30
0.0
 10
15.1583656911
 20
9.5516902703
 30
0.0
 10
15.1600907241
 20
9.5533565243
 30
0.0
  0
SPLINE
  5
340
100
AcDbEntity
  8
0
100
AcDbSpline
 62
7
  6
CONTINUOUS
 70
0
 71
3
 72
23
 73
19
 74
0
 42
0.0000001
 43
0.0000001
 44
0.0000000001
 40
0.0
 40
0.0
 40
0.0
 40
0.0
 40
0.0465978669
 40
0.0936904175
 40
0.1417555847
 40
0.191240615
 40
0.242551508
 40
0.2960482224
 40
0.352042185
 40
0.410799176
 40
0.4725412021
 40
0.5374525722
 40
0.6056826973
 40
0.6773522159
 40
0.7525554072
 40
0.831365019
 40
0.9138342661
 40
1.0
 40
1.0
 40
1.0
 40
1.0
 10
14.794629187
 20
7.5374643404
 30
0.0
 10
14.7928901092
 20
7.5375849554
 30
0.0
 10
14.7894037007
 20
7.5380156251
 30
0.0
 10
14.7842301513
 20
7.5392221844
 30
0.0
 10
14.7791056268
 20
7.5409885537
 30
0.0
 10
14.7740353856
 20
7.5433120327
 30
0.0
 10
14.769022888
 20
7.5461893569
 30
0.0
 10
14.7640715361
 20
7.5496173817
 30
0.0
 10
14.7591841168
 20
7.5535926092
 30
0.0
 10
14.7543635584
 20
7.5581117929
 30
0.0
 10
14.7496124756
 20
7.5631712867
 30
0.0
 10
14.7449338085
 20
7.5687675091
 30
0.0
 10
14.7403302744
 20
7.5748964072
 30
0.0
 10
14.7358048927
 20
7.5815537933
 30
0.0
 10
14.7313605087
 20
7.5887350002
 30
0.0
 10
14.7270001385
 20
7.5964351193
 30
0.0
 10
14.7227267389
 20
7.6046486917
 30
0.0
 10
14.7199976974
 20
7.6103379417
 30
0.0
 10
14.7186460758
 20
7.6132644007
 30
0.0
  0
SPLINE
  5
341
100
AcDbEntity
  8
0
100
AcDbSpline
 62
7
  6
CONTINUOUS
 70
0
 71
3
 72
55
 73
51
 74
0
 42
0.0000001
 43
0.0000001
 44
0.0000000001
 40
0.0
 40
0.0
 40
0.0
 40
0.0
 40
0.0093527616
 40
0.0192208296
 40
0.0296029747
 40
0.0404957596
 40
0.0518937282
 40
0.0637897155
 40
0.0761750638
 40
0.089039689
 40
0.1023723244
 40
0.1161605719
 40
0.1303909788
 40
0.1450492033
 40
0.1601199894
 40
0.1755872895
 40
0.1914343366
 40
0.2076436243
 40
0.2410752903
 40
0.2757310446
 40
0.3114508219
 40
0.3480676646
 40
0.3854089201
 40
0.4232974267
 40
0.461552659
 40
0.4999918513
 40
0.538431117
 40
0.5766865722
 40
0.6145754486
 40
0.6519172117
 40
0.6885347021
 40
0.7242552733
 40
0.7589119535
 40
0.7923446575
 40
0.8085545195
 40
0.8244021487
 40
0.8398700859
 40
0.8549415178
 40
0.8696004094
 40
0.8838315321
 40
0.8976204855
 40
0.9109538678
 40
0.9238192632
 40
0.9362053717
 40
0.9481021693
 40
0.9595009386
 40
0.9703945314
 40
0.9807775189
 40
0.9906463921
 40
1.0
 40
1.0
 40
1.0
 40
1.0
 10
14.7186460758
 20
7.6132644007
 30
0.0
 10
14.7167473218
 20
7.6173754818
 30
0.0
 10
14.7130177719
 20
7.6259046303
 30
0.0
 10
14.7077461761
 20
7.6392357658
 30
0.0
 10
14.7026536927
 20
7.6534310442
 30
0.0
 10
14.6977469743
 20
7.6684723984
 30
0.0
 10
14.6930321874
 20
7.6843409705
 30
0.0
 10
14.6885153602
 20
7.7010167009
 30
0.0
 10
14.684202328
 20
7.7184784986
 30
0.0
 10
14.680098566
 20
7.7367042118
 30
0.0
 10
14.6762093782
 20
7.7556707028
 30
0.0
 10
14.6725397729
 20
7.7753538634
 30
0.0
 10
14.6690944235
 20
7.7957286508
 30
0.0
 10
14.6658778121
 20
7.8167691305
 30
0.0
 10
14.6628940429
 20
7.8384485054
 30
0.0
 10
14.6601469532
 20
7.8607391454
 30
0.0
 10
14.6576400779
 20
7.8836126718
 30
0.0
 10
14.654590873
 20
7.9151741658
 30
0.0
 10
14.6514221734
 20
7.9558696476
 30
0.0
 10
14.6486581515
 20
8.0060584307
 30
0.0
 10
14.6469093859
 20
8.0578357766
 30
0.0
 10
14.6461851098
 20
8.1109376472
 30
0.0
 10
14.6464893338
 20
8.1650934712
 30
0.0
 10
14.6478207202
 20
8.2200271466
 30
0.0
 10
14.6501726403
 20
8.2754585895
 30
0.0
 10
14.6535332034
 20
8.331105145
 30
0.0
 10
14.6578852912
 20
8.3866830531
 30
0.0
 10
14.6632066769
 20
8.4419089078
 30
0.0
 10
14.6694701403
 20
8.4965011129
 30
0.0
 10
14.6766436051
 20
8.5501813439
 30
0.0
 10
14.6846902714
 20
8.602675959
 30
0.0
 10
14.6935688075
 20
8.6537175308
 30
0.0
 10
14.7032336332
 20
8.7030458102
 30
0.0
 10
14.7119889955
 20
8.7429156836
 30
0.0
 10
14.7193652569
 20
8.7737553286
 30
0.0
 10
14.7250052859
 20
8.7960648033
 30
0.0
 10
14.7308027298
 20
8.8177638663
 30
0.0
 10
14.7367502561
 20
8.8388248832
 30
0.0
 10
14.7428402231
 20
8.859221022
 30
0.0
 10
14.7490648174
 20
8.8789263161
 30
0.0
 10
14.7554161207
 20
8.8979156765
 30
0.0
 10
14.7618859553
 20
8.9161649631
 30
0.0
 10
14.7684660609
 20
8.9336509832
 30
0.0
 10
14.7751480483
 20
8.9503515349
 30
0.0
 10
14.7819233239
 20
8.9662454647
 30
0.0
 10
14.7887832998
 20
8.981312658
 30
0.0
 10
14.7957192108
 20
8.9955340811
 30
0.0
 10
14.8027222691
 20
9.0088919383
 30
0.0
 10
14.8097835424
 20
9.021369194
 30
0.0
 10
14.814654634
 20
9.0293028729
 30
0.0
 10
14.8171026831
 20
9.0331129938
 30
0.0
  0
SPLINE
  5
342
100
AcDbEntity
  8
0
100
AcDbSpline
 62
7
  6
CONTINUOUS
 70
0
 71
3
 72
11
 73
7
 74
0
 42
0.0000001
 43
0.0000001
 44
0.0000000001
 40
0.0
 40
0.0
 40
0.0
 40
0.0
 40
0.275825794
 40
0.5341746872
 40
0.7753953698
 40
1.0
 40
1.0
 40
1.0
 40
1.0
 10
14.8171026831
 20
9.0331129938
 30
0.0
 10
14.8196356735
 20
9.0370553167
 30
0.0
 10
14.8247035047
 20
9.0445879231
 30
0.0
 10
14.8325930399
 20
9.055144614
 30
0.0
 10
14.8405088092
 20
9.0645717595
 30
0.0
 10
14.8459871884
 20
9.0702936098
 30
0.0
 10
14.8487316829
 20
9.072944588
 30
0.0
  0
SPLINE
  5
343
100
AcDbEntity
  8
0
100
AcDbSpline
 62
7
  6
CONTINUOUS
 70
0
 71
3
 72
16
 73
12
 74
0
 42
0.0000001
 43
0.0000001
 44
0.0000000001
 40
0.0
 40
0.0
 40
0.0
 40
0.0
 40
0.1492601029
 40
0.2896893314
 40
0.4220023803
 40
0.4854054986
 40
0.5471312576
 40
0.6660877971
 40
0.7802035738
 40
0.8909622067
 40
1.0
 40
1.0
 40
1.0
 40
1.0
 10
6.9157535194
 20
6.7979368343
 30
0.0
 10
6.9170765983
 20
6.796310027
 30
0.0
 10
6.9197453168
 20
6.7932323352
 30
0.0
 10
6.9239519026
 20
6.7890467822
 30
0.0
 10
6.9275697358
 20
6.7860009268
 30
0.0
 10
6.9304960129
 20
6.7838731924
 30
0.0
 10
6.9333665671
 20
6.7819953445
 30
0.0
 10
6.9370045485
 20
6.779997823
 30
0.0
 10
6.9414871736
 20
6.77816775
 30
0.0
 10
6.9460268624
 20
6.7769391257
 30
0.0
 10
6.9490969158
 20
6.7765223202
 30
0.0
 10
6.9506250849
 20
6.7764163282
 30
0.0
  0
SPLINE
  5
344
100
AcDbEntity
  8
0
100
AcDbSpline
 62
7
  6
CONTINUOUS
 70
0
 71
3
 72
17
 73
13
 74
0
 42
0.0000001
 43
0.0000001
 44
0.0000000001
 40
0.0
 40
0.0
 40
0.0
 40
0.0
 40
0.0544358026
 40
0.1090884696
 40
0.2198401459
 40
0.3339492313
 40
0.4528981867
 40
0.5146188903
 40
0.5780168979
 40
0.7103216724
 40
0.8507501608
 40
1.0
 40
1.0
 40
1.0
 40
1.0
 10
7.8291734391
 20
10.7846683522
 30
0.0
 10
7.828410475
 20
10.7847212705
 30
0.0
 10
7.8268775158
 20
10.7847772919
 30
0.0
 10
7.8237884026
 20
10.7846890283
 30
0.0
 10
7.8198808697
 20
10.7841951222
 30
0.0
 10
7.8151890971
 20
10.783001273
 30
0.0
 10
7.8113101118
 20
10.7815250619
 30
0.0
 10
7.8082078599
 20
10.7800615164
 30
0.0
 10
7.8050159346
 20
10.7783580974
 30
0.0
 10
7.8010122205
 20
10.7758407758
 30
0.0
 10
7.7962681157
 20
10.7722758675
 30
0.0
 10
7.7932000502
 20
10.7695959693
 30
0.0
 10
7.7916650773
 20
10.7681674031
 30
0.0
  0
SPLINE
  5
345
100
AcDbEntity
  8
0
100
AcDbSpline
 62
7
  6
CONTINUOUS
 70
0
 71
3
 72
15
 73
11
 74
0
 42
0.0000001
 43
0.0000001
 44
0.0000000001
 40
0.0
 40
0.0
 40
0.0
 40
0.0
 40
0.1273483438
 40
0.2538606048
 40
0.3795878922
 40
0.5046051199
 40
0.6290174392
 40
0.7529533668
 40
0.8765605676
 40
1.0
 40
1.0
 40
1.0
 40
1.0
 10
8.7495448144
 20
9.4450071605
 30
0.0
 10
8.7495448144
 20
9.4515056064
 30
0.0
 10
8.7501652924
 20
9.4644688184
 30
0.0
 10
8.7529713391
 20
9.4836643068
 30
0.0
 10
8.7576242343
 20
9.5023774746
 30
0.0
 10
8.7640819415
 20
9.5204333174
 30
0.0
 10
8.7722852311
 20
9.5376653121
 30
0.0
 10
8.7821593292
 20
9.5539143226
 30
0.0
 10
8.7936113483
 20
9.5690281311
 30
0.0
 10
8.8022341591
 20
9.5782604585
 30
0.0
 10
8.8067647464
 20
9.5826366337
 30
0.0
  0
SPLINE
  5
346
100
AcDbEntity
  8
0
100
AcDbSpline
 62
7
  6
CONTINUOUS
 70
0
 71
3
 72
15
 73
11
 74
0
 42
0.0000001
 43
0.0000001
 44
0.0000000001
 40
0.0
 40
0.0
 40
0.0
 40
0.0
 40
0.1273464452
 40
0.2538614414
 40
0.3795876769
 40
0.5046052349
 40
0.6290174538
 40
0.7529534044
 40
0.876560584
 40
1.0
 40
1.0
 40
1.0
 40
1.0
 10
11.7902795971
 20
9.2341314871
 30
0.0
 10
11.7902795971
 20
9.2365337169
 30
0.0
 10
11.7905089861
 20
9.241325811
 30
0.0
 10
11.7915462363
 20
9.2484217681
 30
0.0
 10
11.7932663105
 20
9.2553394498
 30
0.0
 10
11.795653497
 20
9.2620141011
 30
0.0
 10
11.7986859987
 20
9.2683842138
 30
0.0
 10
11.8023361211
 20
9.2743909531
 30
0.0
 10
11.8065695595
 20
9.2799780428
 30
0.0
 10
11.8097571337
 20
9.2833909354
 30
0.0
 10
11.8114319444
 20
9.2850086668
 30
0.0
  0
SPLINE
  5
347
100
AcDbEntity
  8
0
100
AcDbSpline
 62
7
  6
CONTINUOUS
 70
0
 71
3
 72
15
 73
11
 74
0
 42
0.0000001
 43
0.0000001
 44
0.0000000001
 40
0.0
 40
0.0
 40
0.0
 40
0.0
 40
0.1273483438
 40
0.2538606048
 40
0.3795878922
 40
0.5046051199
 40
0.6290174392
 40
0.7529533668
 40
0.8765605676
 40
1.0
 40
1.0
 40
1.0
 40
1.0
 10
12.6132481182
 20
9.1770584263
 30
0.0
 10
12.6132481182
 20
9.1835568722
 30
0.0
 10
12.6138685962
 20
9.1965200842
 30
0.0
 10
12.6166746428
 20
9.2157155726
 30
0.0
 10
12.6213275381
 20
9.2344287404
 30
0.0
 10
12.6277852453
 20
9.2524845832
 30
0.0
 10
12.6359885349
 20
9.2697165779
 30
0.0
 10
12.645862633
 20
9.2859655884
 30
0.0
 10
12.6573146521
 20
9.3010793969
 30
0.0
 10
12.6659374629
 20
9.3103117243
 30
0.0
 10
12.6704680502
 20
9.3146878995
 30
0.0
  0
SPLINE
  5
348
100
AcDbEntity
  8
0
100
AcDbSpline
 62
7
  6
CONTINUOUS
 70
0
 71
3
 72
15
 73
11
 74
0
 42
0.0000001
 43
0.0000001
 44
0.0000000001
 40
0.0
 40
0.0
 40
0.0
 40
0.0
 40
0.1273483438
 40
0.2538606048
 40
0.3795878922
 40
0.5046051199
 40
0.6290174392
 40
0.7529533668
 40
0.8765605676
 40
1.0
 40
1.0
 40
1.0
 40
1.0
 10
8.7495448144
 20
6.7887109808
 30
0.0
 10
8.7495448144
 20
6.7952094268
 30
0.0
 10
8.7501652924
 20
6.8081726387
 30
0.0
 10
8.7529713391
 20
6.8273681271
 30
0.0
 10
8.7576242343
 20
6.8460812949
 30
0.0
 10
8.7640819415
 20
6.8641371377
 30
0.0
 10
8.7722852311
 20
6.8813691324
 30
0.0
 10
8.7821593292
 20
6.8976181429
 30
0.0
 10
8.7936113483
 20
6.9127319515
 30
0.0
 10
8.8022341591
 20
6.9219642789
 30
0.0
 10
8.8067647464
 20
6.926340454
 30
0.0
  0
SPLINE
  5
349
100
AcDbEntity
  8
0
100
AcDbSpline
 62
7
  6
CONTINUOUS
 70
0
 71
3
 72
39
 73
35
 74
0
 42
0.0000001
 43
0.0000001
 44
0.0000000001
 40
0.0
 40
0.0
 40
0.0
 40
0.0
 40
0.0760185458
 40
0.1532632554
 40
0.2310390604
 40
0.3086436563
 40
0.3853769375
 40
0.42320137
 40
0.4605504649
 40
0.4973408779
 40
0.533490906
 40
0.5689207649
 40
0.6035528818
 40
0.6373121533
 40
0.6701262286
 40
0.7019258193
 40
0.7326450735
 40
0.7622219321
 40
0.790598514
 40
0.817721583
 40
0.8435431249
 40
0.868021063
 40
0.8911200625
 40
0.9128125786
 40
0.9231258585
 40
0.9330815931
 40
0.9426792004
 40
0.9519190187
 40
0.9608022954
 40
0.9693313294
 40
0.9775099463
 40
0.9853432204
 40
0.9928373695
 40
1.0
 40
1.0
 40
1.0
 40
1.0
 10
13.1834219024
 20
8.87037875
 30
0.0
 10
13.1834219024
 20
8.888342069
 30
0.0
 10
13.1839022575
 20
8.924560002
 30
0.0
 10
13.1859983569
 20
8.9791199689
 30
0.0
 10
13.1894582076
 20
9.0339863393
 30
0.0
 10
13.1942486541
 20
9.0886309797
 30
0.0
 10
13.1993347133
 20
9.1337588619
 30
0.0
 10
13.2040429192
 20
9.1693454564
 30
0.0
 10
13.2078573402
 20
9.1955271459
 30
0.0
 10
13.2119624338
 20
9.2212642422
 30
0.0
 10
13.2163483307
 20
9.2464948328
 30
0.0
 10
13.2210044239
 20
9.2711581784
 30
0.0
 10
13.2259194487
 20
9.2951949383
 30
0.0
 10
13.2310815151
 20
9.3185472901
 30
0.0
 10
13.2364781346
 20
9.341159069
 30
0.0
 10
13.2420962561
 20
9.3629759108
 30
0.0
 10
13.2479222732
 20
9.3839454017
 30
0.0
 10
13.2539420706
 20
9.4040172103
 30
0.0
 10
13.2601410681
 20
9.423143203
 30
0.0
 10
13.2665042586
 20
9.4412775808
 30
0.0
 10
13.2730162501
 20
9.4583769798
 30
0.0
 10
13.2796612963
 20
9.4744007531
 30
0.0
 10
13.286423365
 20
9.4893106068
 30
0.0
 10
13.2922362288
 20
9.5009667224
 30
0.0
 10
13.2969438236
 20
9.5096943424
 30
0.0
 10
13.3004340448
 20
9.5158291995
 30
0.0
 10
13.3039413589
 20
9.5216602531
 30
0.0
 10
13.3074636743
 20
9.5271840434
 30
0.0
 10
13.3109988495
 20
9.5323973001
 30
0.0
 10
13.3145449018
 20
9.537296924
 30
0.0
 10
13.3180997333
 20
9.5418801186
 30
0.0
 10
13.3216614095
 20
9.5461441697
 30
0.0
 10
13.3252275925
 20
9.5500863199
 30
0.0
 10
13.3276607168
 20
9.5525531008
 30
0.0
 10
13.3288780857
 20
9.553728989
 30
0.0
  0
SPLINE
  5
34A
100
AcDbEntity
  8
0
100
AcDbSpline
 62
7
  6
CONTINUOUS
 70
0
 71
3
 72
11
 73
7
 74
0
 42
0.0000001
 43
0.0000001
 44
0.0000000001
 40
0.0
 40
0.0
 40
0.0
 40
0.0
 40
0.2544416217
 40
0.5050971576
 40
0.7531935909
 40
1.0
 40
1.0
 40
1.0
 40
1.0
 10
14.809362856
 20
7.5386365429
 30
0.0
 10
14.8081359893
 20
7.5383594512
 30
0.0
 10
14.8056807407
 20
7.5378926103
 30
0.0
 10
14.8019795158
 20
7.537460205
 30
0.0
 10
14.7982941751
 20
7.5373021737
 30
0.0
 10
14.7958462891
 20
7.5373799274
 30
0.0
 10
14.794629187
 20
7.5374643404
 30
0.0
  0
SPLINE
  5
34B
100
AcDbEntity
  8
0
100
AcDbSpline
 62
7
  6
CONTINUOUS
 70
0
 71
3
 72
17
 73
13
 74
0
 42
0.0000001
 43
0.0000001
 44
0.0000000001
 40
0.0
 40
0.0
 40
0.0
 40
0.0
 40
0.1504740482
 40
0.2917305938
 40
0.4244676119
 40
0.4879385597
 40
0.549641313
 40
0.668301051
 40
0.7818340393
 40
0.8918017529
 40
0.9460163028
 40
1.0
 40
1.0
 40
1.0
 40
1.0
 10
14.1296635504
 20
10.3272283964
 30
0.0
 10
14.1312523227
 20
10.3287630328
 30
0.0
 10
14.1344277743
 20
10.3316424866
 30
0.0
 10
14.1393445917
 20
10.3354797886
 30
0.0
 10
14.1434977302
 20
10.3381937267
 30
0.0
 10
14.1468094772
 20
10.340031537
 30
0.0
 10
14.1500237013
 20
10.3416093497
 30
0.0
 10
14.1540430583
 20
10.3432036282
 30
0.0
 10
14.1589085755
 20
10.3444983878
 30
0.0
 10
14.1629622472
 20
10.3450396102
 30
0.0
 10
14.1661651341
 20
10.3451424549
 30
0.0
 10
14.1677539514
 20
10.3450862843
 30
0.0
 10
14.1685445179
 20
10.3450314636
 30
0.0
  0
SPLINE
  5
34C
100
AcDbEntity
  8
0
100
AcDbSpline
 62
7
  6
CONTINUOUS
 70
0
 71
3
 72
37
 73
33
 74
0
 42
0.0000001
 43
0.0000001
 44
0.0000000001
 40
0.0
 40
0.0
 40
0.0
 40
0.0
 40
0.0760188415
 40
0.1532636881
 40
0.2310397316
 40
0.3086445611
 40
0.3853780575
 40
0.4605501949
 40
0.4973407038
 40
0.5334908265
 40
0.5689208013
 40
0.6035530356
 40
0.6373123921
 40
0.6701265432
 40
0.7019262376
 40
0.7326456062
 40
0.762222541
 40
0.7905991829
 40
0.8177223328
 40
0.843543977
 40
0.8680219827
 40
0.8911210325
 40
0.9128136039
 40
0.9330814081
 40
0.9426790343
 40
0.9519188834
 40
0.9608021526
 40
0.9693312087
 40
0.977509893
 40
0.9853432393
 40
0.9928374113
 40
1.0
 40
1.0
 40
1.0
 40
1.0
 10
14.5495370959
 20
8.7839447572
 30
0.0
 10
14.5495370959
 20
8.8009172334
 30
0.0
 10
14.5499909562
 20
8.8351373733
 30
0.0
 10
14.5519714281
 20
8.8866878192
 30
0.0
 10
14.5552404548
 20
8.93852768
 30
0.0
 10
14.5597665933
 20
8.990158327
 30
0.0
 10
14.5655062804
 20
9.0410831599
 30
0.0
 10
14.5712946388
 20
9.0828185774
 30
0.0
 10
14.5765033066
 20
9.115475335
 30
0.0
 10
14.5806473121
 20
9.1393142224
 30
0.0
 10
14.5850465588
 20
9.1626171338
 30
0.0
 10
14.5896904636
 20
9.1853280295
 30
0.0
 10
14.5945677971
 20
9.2073922561
 30
0.0
 10
14.5996667471
 20
9.2287567587
 30
0.0
 10
14.6049749671
 20
9.2493701852
 30
0.0
 10
14.610479609
 20
9.2691830052
 30
0.0
 10
14.6161673594
 20
9.2881476459
 30
0.0
 10
14.6220244271
 20
9.3062186377
 30
0.0
 10
14.6280366232
 20
9.3233527162
 30
0.0
 10
14.6341894008
 20
9.3395089395
 30
0.0
 10
14.6404679046
 20
9.3546487747
 30
0.0
 10
14.646857
 20
9.368736409
 30
0.0
 10
14.653341314
 20
9.3817383026
 30
0.0
 10
14.6589081319
 20
9.3918189355
 30
0.0
 10
14.6634086713
 20
9.3993014754
 30
0.0
 10
14.6667367045
 20
9.4045205757
 30
0.0
 10
14.670076872
 20
9.4094462595
 30
0.0
 10
14.6734273261
 20
9.4140756208
 30
0.0
 10
14.6767860813
 20
9.4184060242
 30
0.0
 10
14.6801513189
 20
9.422434877
 30
0.0
 10
14.6835207861
 20
9.4261595779
 30
0.0
 10
14.6858196868
 20
9.4284902834
 30
0.0
 10
14.6869698954
 20
9.4296012997
 30
0.0
  0
SPLINE
  5
34D
100
AcDbEntity
  8
0
100
AcDbSpline
 62
7
  6
CONTINUOUS
 70
0
 71
3
 72
39
 73
35
 74
0
 42
0.0000001
 43
0.0000001
 44
0.0000000001
 40
0.0
 40
0.0
 40
0.0
 40
0.0
 40
0.0760186195
 40
0.1532632405
 40
0.2310390569
 40
0.3086436598
 40
0.3853769321
 40
0.4232013715
 40
0.4605504742
 40
0.4973408756
 40
0.5334908927
 40
0.5689207641
 40
0.6035528972
 40
0.6373121552
 40
0.6701262104
 40
0.7019258119
 40
0.7326450908
 40
0.7622219393
 40
0.7905984982
 40
0.817721569
 40
0.8435431378
 40
0.868021072
 40
0.8911200544
 40
0.9128125623
 40
0.9231258565
 40
0.9330816035
 40
0.9426792017
 40
0.9519190239
 40
0.9608022671
 40
0.9693312983
 40
0.9775099587
 40
0.9853432821
 40
0.9928374322
 40
1.0
 40
1.0
 40
1.0
 40
1.0
 10
14.5115700097
 20
8.778271366
 30
0.0
 10
14.5115700097
 20
8.7962347024
 30
0.0
 10
14.5120503658
 20
8.8324526318
 30
0.0
 10
14.5141464623
 20
8.8870125979
 30
0.0
 10
14.5176063219
 20
8.9418789509
 30
0.0
 10
14.522396751
 20
8.9965235951
 30
0.0
 10
14.5274828307
 20
9.0416514762
 30
0.0
 10
14.5321910247
 20
9.0772380735
 30
0.0
 10
14.5360054397
 20
9.1034197646
 30
0.0
 10
14.5401105438
 20
9.1291568557
 30
0.0
 10
14.5444964468
 20
9.1543874427
 30
0.0
 10
14.5491525315
 20
9.1790507941
 30
0.0
 10
14.5540675472
 20
9.2030875596
 30
0.0
 10
14.559229622
 20
9.2264399054
 30
0.0
 10
14.5646262507
 20
9.2490516764
 30
0.0
 10
14.5702443668
 20
9.2708685233
 30
0.0
 10
14.576070372
 20
9.2918380238
 30
0.0
 10
14.5820901757
 20
9.3119098285
 30
0.0
 10
14.5882891813
 20
9.3310358107
 30
0.0
 10
14.5946523723
 20
9.3491701895
 30
0.0
 10
14.6011643501
 20
9.3662696
 30
0.0
 10
14.6078094009
 20
9.3822933731
 30
0.0
 10
14.6145714758
 20
9.3972032165
 30
0.0
 10
14.62038434
 20
9.4088593287
 30
0.0
 10
14.6250919297
 20
9.4175869563
 30
0.0
 10
14.6285821487
 20
9.4237218197
 30
0.0
 10
14.6320894794
 20
9.4295528651
 30
0.0
 10
14.6356117739
 20
9.4350766577
 30
0.0
 10
14.6391469495
 20
9.4402899052
 30
0.0
 10
14.6426930025
 20
9.4451895304
 30
0.0
 10
14.6462478437
 20
9.4497727446
 30
0.0
 10
14.6498095452
 20
9.4540368035
 30
0.0
 10
14.6533757232
 20
9.457978954
 30
0.0
 10
14.6558088348
 20
9.460445727
 30
0.0
 10
14.657026193
 20
9.4616216049
 30
0.0
  0
SPLINE
  5
34E
100
AcDbEntity
  8
0
100
AcDbSpline
 62
7
  6
CONTINUOUS
 70
0
 71
3
 72
23
 73
19
 74
0
 42
0.0000001
 43
0.0000001
 44
0.0000000001
 40
0.0
 40
0.0
 40
0.0
 40
0.0
 40
0.0755954479
 40
0.1466391714
 40
0.2134657403
 40
0.2765145402
 40
0.3363265376
 40
0.3935471486
 40
0.4489234403
 40
0.5032885643
 40
0.5575265067
 40
0.6125277807
 40
0.6691438784
 40
0.7281492575
 40
0.7902198463
 40
0.8559237775
 40
0.9257267722
 40
1.0
 40
1.0
 40
1.0
 40
1.0
 10
15.4877553601
 20
10.2031007072
 30
0.0
 10
15.4892311224
 20
10.2045261841
 30
0.0
 10
15.4921807357
 20
10.2072036888
 30
0.0
 10
15.4967455379
 20
10.2107807256
 30
0.0
 10
15.501305033
 20
10.2137849244
 30
0.0
 10
15.5058549406
 20
10.2162117896
 30
0.0
 10
15.5103915215
 20
10.2180568425
 30
0.0
 10
15.5149100575
 20
10.2193157285
 30
0.0
 10
15.5194046818
 20
10.2199837964
 30
0.0
 10
15.523867858
 20
10.2200581037
 30
0.0
 10
15.5282910188
 20
10.2195373142
 30
0.0
 10
15.5326656194
 20
10.2184232335
 30
0.0
 10
15.5369841725
 20
10.2167193742
 30
0.0
 10
15.5412410339
 20
10.2144309265
 30
0.0
 10
15.5454317916
 20
10.2115629349
 30
0.0
 10
15.5495531864
 20
10.2081205481
 30
0.0
 10
15.5536017496
 20
10.2041086964
 30
0.0
 10
15.5561677112
 20
10.2011528121
 30
0.0
 10
15.5574396905
 20
10.1995888593
 30
0.0
  0
SPLINE
  5
34F
100
AcDbEntity
  8
0
100
AcDbSpline
 62
7
  6
CONTINUOUS
 70
0
 71
3
 72
17
 73
13
 74
0
 42
0.0000001
 43
0.0000001
 44
0.0000000001
 40
0.0
 40
0.0
 40
0.0
 40
0.0
 40
0.1504730098
 40
0.2917304958
 40
0.4244682464
 40
0.4879391303
 40
0.549641677
 40
0.6683008574
 40
0.7818339705
 40
0.8918016563
 40
0.9460162481
 40
1.0
 40
1.0
 40
1.0
 40
1.0
 10
15.4578116577
 20
10.2351210124
 30
0.0
 10
15.4594004363
 20
10.2366556547
 30
0.0
 10
15.4625759292
 20
10.2395351296
 30
0.0
 10
15.4674928033
 20
10.243372483
 30
0.0
 10
15.4716460137
 20
10.2460864541
 30
0.0
 10
15.4749578121
 20
10.2479242692
 30
0.0
 10
15.4781720606
 20
10.249502094
 30
0.0
 10
15.4821914777
 20
10.2510963193
 30
0.0
 10
15.4870570387
 20
10.2523911012
 30
0.0
 10
15.4911107693
 20
10.252932248
 30
0.0
 10
15.4943136912
 20
10.2530350641
 30
0.0
 10
15.4959025275
 20
10.2529788909
 30
0.0
 10
15.4966931025
 20
10.2529240575
 30
0.0
  0
SPLINE
  5
350
100
AcDbEntity
  8
0
100
AcDbSpline
 62
7
  6
CONTINUOUS
 70
0
 71
3
 72
40
 73
36
 74
0
 42
0.0000001
 43
0.0000001
 44
0.0000000001
 40
0.0
 40
0.0
 40
0.0
 40
0.0
 40
0.0299422917
 40
0.0449240218
 40
0.0599148595
 40
0.0899296895
 40
0.1200152935
 40
0.1501925778
 40
0.1804802557
 40
0.2108944263
 40
0.2414482291
 40
0.2721515789
 40
0.3030109866
 40
0.3340294629
 40
0.3652065054
 40
0.3965381623
 40
0.4280171682
 40
0.4596331441
 40
0.4913728551
 40
0.5232205171
 40
0.5551581459
 40
0.5871659397
 40
0.6192226901
 40
0.6513062117
 40
0.6833937874
 40
0.7154626194
 40
0.7474902821
 40
0.779455171
 40
0.8113369343
 40
0.8431169059
 40
0.8747784521
 40
0.906307475
 40
0.9376923384
 40
0.96892512
 40
1.0
 40
1.0
 40
1.0
 40
1.0
 10
9.0999456052
 20
9.2791090941
 30
0.0
 10
9.0964451828
 20
9.2757279736
 30
0.0
 10
9.0909881973
 20
9.2708611992
 30
0.0
 10
9.0833458401
 20
9.2648225411
 30
0.0
 10
9.0754601189
 20
9.2590844484
 30
0.0
 10
9.0651702572
 20
9.2524950755
 30
0.0
 10
9.0522145959
 20
9.2455743918
 30
0.0
 10
9.038715128
 20
9.2396733154
 30
0.0
 10
9.02474673
 20
9.2348245647
 30
0.0
 10
9.0103862744
 20
9.2310545937
 30
0.0
 10
8.9957129036
 20
9.228384005
 30
0.0
 10
8.9808073985
 20
9.2268272998
 30
0.0
 10
8.9657517824
 20
9.2263928488
 30
0.0
 10
8.9506288564
 20
9.2270828466
 30
0.0
 10
8.9355217497
 20
9.2288933127
 30
0.0
 10
8.9205134666
 20
9.2318141207
 30
0.0
 10
8.9056864353
 20
9.2358290614
 30
0.0
 10
8.8911220616
 20
9.2409159371
 30
0.0
 10
8.8769002878
 20
9.2470466857
 30
0.0
 10
8.8630991603
 20
9.2541875379
 30
0.0
 10
8.8497944069
 20
9.2622992043
 30
0.0
 10
8.8370590276
 20
9.2713370901
 30
0.0
 10
8.8249628983
 20
9.2812515389
 30
0.0
 10
8.8135723926
 20
9.2919881039
 30
0.0
 10
8.8029500214
 20
9.3034878433
 30
0.0
 10
8.7931540939
 20
9.3156876419
 30
0.0
 10
8.7842383996
 20
9.3285205528
 30
0.0
 10
8.7762519183
 20
9.3419161613
 30
0.0
 10
8.7692385466
 20
9.3558009681
 30
0.0
 10
8.7632368756
 20
9.3700987789
 30
0.0
 10
8.7582799364
 20
9.3847311557
 30
0.0
 10
8.7543951137
 20
9.3996176896
 30
0.0
 10
8.7516038077
 20
9.4146769899
 30
0.0
 10
8.7499216138
 20
9.4298251993
 30
0.0
 10
8.7495448144
 20
9.4399563566
 30
0.0
 10
8.7495448144
 20
9.4450071605
 30
0.0
  0
SPLINE
  5
351
100
AcDbEntity
  8
0
100
AcDbSpline
 62
7
  6
CONTINUOUS
 70
0
 71
3
 72
40
 73
36
 74
0
 42
0.0000001
 43
0.0000001
 44
0.0000000001
 40
0.0
 40
0.0
 40
0.0
 40
0.0
 40
0.0299422917
 40
0.0449240218
 40
0.0599148595
 40
0.0899296895
 40
0.1200152935
 40
0.1501925778
 40
0.1804802557
 40
0.2108944263
 40
0.2414482291
 40
0.2721515789
 40
0.3030109866
 40
0.3340294629
 40
0.3652065054
 40
0.3965381623
 40
0.4280171682
 40
0.4596331441
 40
0.4913728551
 40
0.5232205171
 40
0.5551581459
 40
0.5871659397
 40
0.6192226901
 40
0.6513062117
 40
0.6833937874
 40
0.7154626194
 40
0.7474902821
 40
0.779455171
 40
0.8113369343
 40
0.8431169059
 40
0.8747784521
 40
0.906307475
 40
0.9376923384
 40
0.96892512
 40
1.0
 40
1.0
 40
1.0
 40
1.0
 10
12.963648909
 20
9.0111603599
 30
0.0
 10
12.9601484866
 20
9.0077792394
 30
0.0
 10
12.9546915011
 20
9.002912465
 30
0.0
 10
12.9470491439
 20
8.9968738069
 30
0.0
 10
12.9391634227
 20
8.9911357142
 30
0.0
 10
12.928873561
 20
8.9845463413
 30
0.0
 10
12.9159178997
 20
8.9776256576
 30
0.0
 10
12.9024184318
 20
8.9717245812
 30
0.0
 10
12.8884500338
 20
8.9668758305
 30
0.0
 10
12.8740895782
 20
8.9631058595
 30
0.0
 10
12.8594162074
 20
8.9604352708
 30
0.0
 10
12.8445107023
 20
8.9588785656
 30
0.0
 10
12.8294550862
 20
8.9584441146
 30
0.0
 10
12.8143321601
 20
8.9591341124
 30
0.0
 10
12.7992250535
 20
8.9609445785
 30
0.0
 10
12.7842167704
 20
8.9638653865
 30
0.0
 10
12.7693897391
 20
8.9678803272
 30
0.0
 10
12.7548253654
 20
8.972967203
 30
0.0
 10
12.7406035916
 20
8.9790979515
 30
0.0
 10
12.7268024641
 20
8.9862388037
 30
0.0
 10
12.7134977107
 20
8.9943504701
 30
0.0
 10
12.7007623314
 20
9.0033883559
 30
0.0
 10
12.6886662021
 20
9.0133028047
 30
0.0
 10
12.6772756964
 20
9.0240393697
 30
0.0
 10
12.6666533252
 20
9.0355391092
 30
0.0
 10
12.6568573977
 20
9.0477389077
 30
0.0
 10
12.6479417034
 20
9.0605718186
 30
0.0
 10
12.6399552221
 20
9.0739674271
 30
0.0
 10
12.6329418504
 20
9.0878522339
 30
0.0
 10
12.6269401794
 20
9.1021500447
 30
0.0
 10
12.6219832401
 20
9.1167824215
 30
0.0
 10
12.6180984175
 20
9.1316689554
 30
0.0
 10
12.6153071115
 20
9.1467282557
 30
0.0
 10
12.6136249176
 20
9.1618764651
 30
0.0
 10
12.6132481182
 20
9.1720076224
 30
0.0
 10
12.6132481182
 20
9.1770584263
 30
0.0
  0
SPLINE
  5
352
100
AcDbEntity
  8
0
100
AcDbSpline
 62
7
  6
CONTINUOUS
 70
0
 71
3
 72
40
 73
36
 74
0
 42
0.0000001
 43
0.0000001
 44
0.0000000001
 40
0.0
 40
0.0
 40
0.0
 40
0.0
 40
0.0299422917
 40
0.0449240218
 40
0.0599148595
 40
0.0899296895
 40
0.1200152935
 40
0.1501925778
 40
0.1804802557
 40
0.2108944263
 40
0.2414482291
 40
0.2721515789
 40
0.3030109866
 40
0.3340294629
 40
0.3652065054
 40
0.3965381623
 40
0.4280171682
 40
0.4596331441
 40
0.4913728551
 40
0.5232205171
 40
0.5551581459
 40
0.5871659397
 40
0.6192226901
 40
0.6513062117
 40
0.6833937874
 40
0.7154626194
 40
0.7474902821
 40
0.779455171
 40
0.8113369343
 40
0.8431169059
 40
0.8747784521
 40
0.906307475
 40
0.9376923384
 40
0.96892512
 40
1.0
 40
1.0
 40
1.0
 40
1.0
 10
9.0999456052
 20
6.6228129144
 30
0.0
 10
9.0964451828
 20
6.6194317939
 30
0.0
 10
9.0909881973
 20
6.6145650195
 30
0.0
 10
9.0833458401
 20
6.6085263614
 30
0.0
 10
9.0754601189
 20
6.6027882687
 30
0.0
 10
9.0651702572
 20
6.5961988958
 30
0.0
 10
9.0522145959
 20
6.5892782121
 30
0.0
 10
9.038715128
 20
6.5833771357
 30
0.0
 10
9.02474673
 20
6.5785283851
 30
0.0
 10
9.0103862744
 20
6.574758414
 30
0.0
 10
8.9957129036
 20
6.5720878253
 30
0.0
 10
8.9808073985
 20
6.5705311201
 30
0.0
 10
8.9657517824
 20
6.5700966691
 30
0.0
 10
8.9506288564
 20
6.570786667
 30
0.0
 10
8.9355217497
 20
6.572597133
 30
0.0
 10
8.9205134666
 20
6.575517941
 30
0.0
 10
8.9056864353
 20
6.5795328817
 30
0.0
 10
8.8911220616
 20
6.5846197575
 30
0.0
 10
8.8769002878
 20
6.590750506
 30
0.0
 10
8.8630991603
 20
6.5978913583
 30
0.0
 10
8.8497944069
 20
6.6060030246
 30
0.0
 10
8.8370590276
 20
6.6150409104
 30
0.0
 10
8.8249628983
 20
6.6249553592
 30
0.0
 10
8.8135723926
 20
6.6356919242
 30
0.0
 10
8.8029500214
 20
6.6471916637
 30
0.0
 10
8.7931540939
 20
6.6593914622
 30
0.0
 10
8.7842383996
 20
6.6722243731
 30
0.0
 10
8.7762519183
 20
6.6856199816
 30
0.0
 10
8.7692385466
 20
6.6995047884
 30
0.0
 10
8.7632368756
 20
6.7138025992
 30
0.0
 10
8.7582799364
 20
6.728434976
 30
0.0
 10
8.7543951137
 20
6.74332151
 30
0.0
 10
8.7516038077
 20
6.7583808102
 30
0.0
 10
8.7499216138
 20
6.7735290196
 30
0.0
 10
8.7495448144
 20
6.783660177
 30
0.0
 10
8.7495448144
 20
6.7887109808
 30
0.0
  0
SPLINE
  5
353
100
AcDbEntity
  8
0
100
AcDbSpline
 62
7
  6
CONTINUOUS
 70
0
 71
3
 72
40
 73
36
 74
0
 42
0.0000001
 43
0.0000001
 44
0.0000000001
 40
0.0
 40
0.0
 40
0.0
 40
0.0
 40
0.0299422917
 40
0.0449240218
 40
0.0599148595
 40
0.0899296895
 40
0.1200152935
 40
0.1501925778
 40
0.1804802557
 40
0.2108944263
 40
0.2414482291
 40
0.2721515789
 40
0.3030109866
 40
0.3340294629
 40
0.3652065054
 40
0.3965381623
 40
0.4280171682
 40
0.4596331441
 40
0.4913728551
 40
0.5232205171
 40
0.5551581459
 40
0.5871659397
 40
0.6192226901
 40
0.6513062117
 40
0.6833937874
 40
0.7154626194
 40
0.7474902821
 40
0.779455171
 40
0.8113369343
 40
0.8431169059
 40
0.8747784521
 40
0.906307475
 40
0.9376923384
 40
0.96892512
 40
1.0
 40
1.0
 40
1.0
 40
1.0
 10
12.963648909
 20
6.3548641802
 30
0.0
 10
12.9601484866
 20
6.3514830597
 30
0.0
 10
12.9546915011
 20
6.3466162853
 30
0.0
 10
12.9470491439
 20
6.3405776272
 30
0.0
 10
12.9391634227
 20
6.3348395345
 30
0.0
 10
12.928873561
 20
6.3282501616
 30
0.0
 10
12.9159178997
 20
6.3213294779
 30
0.0
 10
12.9024184318
 20
6.3154284015
 30
0.0
 10
12.8884500338
 20
6.3105796509
 30
0.0
 10
12.8740895782
 20
6.3068096798
 30
0.0
 10
12.8594162074
 20
6.3041390911
 30
0.0
 10
12.8445107023
 20
6.3025823859
 30
0.0
 10
12.8294550862
 20
6.3021479349
 30
0.0
 10
12.8143321601
 20
6.3028379328
 30
0.0
 10
12.7992250535
 20
6.3046483988
 30
0.0
 10
12.7842167704
 20
6.3075692068
 30
0.0
 10
12.7693897391
 20
6.3115841475
 30
0.0
 10
12.7548253654
 20
6.3166710233
 30
0.0
 10
12.7406035916
 20
6.3228017718
 30
0.0
 10
12.7268024641
 20
6.3299426241
 30
0.0
 10
12.7134977107
 20
6.3380542905
 30
0.0
 10
12.7007623314
 20
6.3470921762
 30
0.0
 10
12.6886662021
 20
6.3570066251
 30
0.0
 10
12.6772756964
 20
6.36774319
 30
0.0
 10
12.6666533252
 20
6.3792429295
 30
0.0
 10
12.6568573977
 20
6.391442728
 30
0.0
 10
12.6479417034
 20
6.4042756389
 30
0.0
 10
12.6399552221
 20
6.4176712474
 30
0.0
 10
12.6329418504
 20
6.4315560542
 30
0.0
 10
12.6269401794
 20
6.445853865
 30
0.0
 10
12.6219832401
 20
6.4604862418
 30
0.0
 10
12.6180984175
 20
6.4753727758
 30
0.0
 10
12.6153071115
 20
6.490432076
 30
0.0
 10
12.6136249176
 20
6.5055802854
 30
0.0
 10
12.6132481182
 20
6.5157114428
 30
0.0
 10
12.6132481182
 20
6.5207622466
 30
0.0
  0
SPLINE
  5
354
100
AcDbEntity
  8
0
100
AcDbSpline
 62
7
  6
CONTINUOUS
 70
0
 71
3
 72
37
 73
33
 74
0
 42
0.0000001
 43
0.0000001
 44
0.0000000001
 40
0.0
 40
0.0
 40
0.0
 40
0.0
 40
0.0299447734
 40
0.0599139259
 40
0.0899312435
 40
0.1200193435
 40
0.1501991354
 40
0.1804893331
 40
0.2109060334
 40
0.241462374
 40
0.272168271
 40
0.3030302375
 40
0.3340512872
 40
0.3652309191
 40
0.3965651795
 40
0.4280467979
 40
0.4596653933
 40
0.4914077316
 40
0.5232580308
 40
0.5551983078
 40
0.6192295559
 40
0.6833675502
 40
0.7154390382
 40
0.747469357
 40
0.7794368985
 40
0.8113213087
 40
0.8431039189
 40
0.8747680563
 40
0.9062997989
 40
0.9376869363
 40
0.9689229623
 40
1.0
 40
1.0
 40
1.0
 40
1.0
 10
10.3482044655
 20
9.3007061699
 30
0.0
 10
10.3458736149
 20
9.2984547667
 30
0.0
 10
10.3410285852
 20
9.2941337148
 30
0.0
 10
10.333266156
 20
9.2882470119
 30
0.0
 10
10.3250484643
 20
9.2829846974
 30
0.0
 10
10.3164214383
 20
9.2783762773
 30
0.0
 10
10.3074325008
 20
9.2744469367
 30
0.0
 10
10.2981312574
 20
9.2712182867
 30
0.0
 10
10.2885689668
 20
9.2687079895
 30
0.0
 10
10.2787983138
 20
9.2669297395
 30
0.0
 10
10.2688730932
 20
9.2658931917
 30
0.0
 10
10.2588479195
 20
9.2656039176
 30
0.0
 10
10.2487779262
 20
9.2660633821
 30
0.0
 10
10.2387184673
 20
9.267268941
 30
0.0
 10
10.2287248142
 20
9.269213864
 30
0.0
 10
10.2188518621
 20
9.2718873388
 30
0.0
 10
10.209153783
 20
9.2752746031
 30
0.0
 10
10.1996839266
 20
9.2793568697
 30
0.0
 10
10.1904938077
 20
9.2841120263
 30
0.0
 10
10.1786747408
 20
9.2913175978
 30
0.0
 10
10.1648548622
 20
9.3018676093
 30
0.0
 10
10.1526142624
 20
9.3142343654
 30
0.0
 10
10.1439195421
 20
9.3250631272
 30
0.0
 10
10.1379825263
 20
9.3336085087
 30
0.0
 10
10.1326645898
 20
9.342528254
 30
0.0
 10
10.1279945422
 20
9.3517738368
 30
0.0
 10
10.1239981998
 20
9.3612944059
 30
0.0
 10
10.1206974903
 20
9.3710377641
 30
0.0
 10
10.1181107221
 20
9.3809503301
 30
0.0
 10
10.1162520004
 20
9.3909779935
 30
0.0
 10
10.1151319166
 20
9.4010648182
 30
0.0
 10
10.1148809881
 20
9.4078109361
 30
0.0
 10
10.1148809881
 20
9.4111740997
 30
0.0
  0
SPLINE
  5
355
100
AcDbEntity
  8
0
100
AcDbSpline
 62
7
  6
CONTINUOUS
 70
0
 71
3
 72
37
 73
33
 74
0
 42
0.0000001
 43
0.0000001
 44
0.0000000001
 40
0.0
 40
0.0
 40
0.0
 40
0.0
 40
0.0299447734
 40
0.0599139259
 40
0.0899312435
 40
0.1200193435
 40
0.1501991354
 40
0.1804893331
 40
0.2109060334
 40
0.241462374
 40
0.272168271
 40
0.3030302375
 40
0.3340512872
 40
0.3652309191
 40
0.3965651795
 40
0.4280467979
 40
0.4596653933
 40
0.4914077316
 40
0.5232580308
 40
0.5551983078
 40
0.6192295559
 40
0.6833675502
 40
0.7154390382
 40
0.747469357
 40
0.7794368985
 40
0.8113213087
 40
0.8431039189
 40
0.8747680563
 40
0.9062997989
 40
0.9376869363
 40
0.9689229623
 40
1.0
 40
1.0
 40
1.0
 40
1.0
 10
10.9528742288
 20
6.4807693796
 30
0.0
 10
10.9505433783
 20
6.4785179764
 30
0.0
 10
10.9456983486
 20
6.4741969245
 30
0.0
 10
10.9379359194
 20
6.4683102216
 30
0.0
 10
10.9297182277
 20
6.4630479071
 30
0.0
 10
10.9210912017
 20
6.458439487
 30
0.0
 10
10.9121022642
 20
6.4545101464
 30
0.0
 10
10.9028010207
 20
6.4512814964
 30
0.0
 10
10.8932387301
 20
6.4487711992
 30
0.0
 10
10.8834680771
 20
6.4469929492
 30
0.0
 10
10.8735428565
 20
6.4459564014
 30
0.0
 10
10.8635176829
 20
6.4456671273
 30
0.0
 10
10.8534476896
 20
6.4461265918
 30
0.0
 10
10.8433882307
 20
6.4473321507
 30
0.0
 10
10.8333945775
 20
6.4492770737
 30
0.0
 10
10.8235216255
 20
6.4519505485
 30
0.0
 10
10.8138235464
 20
6.4553378128
 30
0.0
 10
10.8043536899
 20
6.4594200794
 30
0.0
 10
10.7951635711
 20
6.464175236
 30
0.0
 10
10.7833445042
 20
6.4713808075
 30
0.0
 10
10.7695246256
 20
6.481930819
 30
0.0
 10
10.7572840258
 20
6.4942975751
 30
0.0
 10
10.7485893054
 20
6.5051263369
 30
0.0
 10
10.7426522897
 20
6.5136717184
 30
0.0
 10
10.7373343531
 20
6.5225914637
 30
0.0
 10
10.7326643055
 20
6.5318370465
 30
0.0
 10
10.7286679632
 20
6.5413576156
 30
0.0
 10
10.7253672536
 20
6.5511009738
 30
0.0
 10
10.7227804855
 20
6.5610135398
 30
0.0
 10
10.7209217637
 20
6.5710412032
 30
0.0
 10
10.71980168
 20
6.5811280279
 30
0.0
 10
10.7195507515
 20
6.5878741458
 30
0.0
 10
10.7195507515
 20
6.5912373094
 30
0.0
  0
SPLINE
  5
356
100
AcDbEntity
  8
0
100
AcDbSpline
 62
7
  6
CONTINUOUS
 70
0
 71
3
 72
15
 73
11
 74
0
 42
0.0000001
 43
0.0000001
 44
0.0000000001
 40
0.0
 40
0.0
 40
0.0
 40
0.0
 40
0.1273481407
 40
0.2538605842
 40
0.3795879627
 40
0.5046050991
 40
0.6290174438
 40
0.7529533592
 40
0.8765605627
 40
1.0
 40
1.0
 40
1.0
 40
1.0
 10
10.1148809881
 20
9.4111740997
 30
0.0
 10
10.1148809881
 20
9.4155012728
 30
0.0
 10
10.115294151
 20
9.4241332053
 30
0.0
 10
10.1171626412
 20
9.4369150841
 30
0.0
 10
10.1202609249
 20
9.4493757964
 30
0.0
 10
10.1245610162
 20
9.4613987937
 30
0.0
 10
10.1300234315
 20
9.4728732097
 30
0.0
 10
10.1365984016
 20
9.4836930801
 30
0.0
 10
10.1442240784
 20
9.4937570404
 30
0.0
 10
10.1499658556
 20
9.4999046302
 30
0.0
 10
10.152982684
 20
9.5028186297
 30
0.0
  0
SPLINE
  5
357
100
AcDbEntity
  8
0
100
AcDbSpline
 62
7
  6
CONTINUOUS
 70
0
 71
3
 72
25
 73
21
 74
0
 42
0.0000001
 43
0.0000001
 44
0.0000000001
 40
0.0
 40
0.0
 40
0.0
 40
0.0
 40
0.0624151068
 40
0.0935573234
 40
0.1246579422
 40
0.1867415846
 40
0.2487136517
 40
0.2796761878
 40
0.3106266818
 40
0.3725032179
 40
0.4344017303
 40
0.4963711811
 40
0.5584609346
 40
0.6207193573
 40
0.6831922584
 40
0.7459212935
 40
0.8089422393
 40
0.8722839789
 40
0.9359658497
 40
1.0
 40
1.0
 40
1.0
 40
1.0
 10
9.9526598762
 20
8.6760414288
 30
0.0
 10
9.9495716915
 20
8.6686346555
 30
0.0
 10
9.9445510472
 20
8.6576891755
 30
0.0
 10
9.9370966602
 20
8.6434979652
 30
0.0
 10
9.9291571977
 20
8.6296206664
 30
0.0
 10
9.9183127812
 20
8.6128546775
 30
0.0
 10
9.9062694332
 20
8.5969491848
 30
0.0
 10
9.8959515189
 20
8.5848103775
 30
0.0
 10
9.8851896339
 20
8.5730801841
 30
0.0
 10
9.8709082566
 20
8.5592009754
 30
0.0
 10
9.8525255628
 20
8.543919194
 30
0.0
 10
9.8329762469
 20
8.5301114206
 30
0.0
 10
9.8123518568
 20
8.5178761845
 30
0.0
 10
9.7907544957
 20
8.5073047814
 30
0.0
 10
9.7682977059
 20
8.4984804006
 30
0.0
 10
9.7451057212
 20
8.4914759111
 30
0.0
 10
9.7213128524
 20
8.4863518992
 30
0.0
 10
9.6970613916
 20
8.4831551165
 30
0.0
 10
9.6725028469
 20
8.4819164034
 30
0.0
 10
9.6560689497
 20
8.4824047463
 30
0.0
 10
9.6478557291
 20
8.4829743351
 30
0.0
  0
SPLINE
  5
358
100
AcDbEntity
  8
0
100
AcDbSpline
 62
7
  6
CONTINUOUS
 70
0
 71
3
 72
15
 73
11
 74
0
 42
0.0000001
 43
0.0000001
 44
0.0000000001
 40
0.0
 40
0.0
 40
0.0
 40
0.0
 40
0.1273481407
 40
0.2538605842
 40
0.3795879627
 40
0.5046050991
 40
0.6290174438
 40
0.7529533592
 40
0.8765605627
 40
1.0
 40
1.0
 40
1.0
 40
1.0
 10
10.7195507515
 20
6.5912373094
 30
0.0
 10
10.7195507515
 20
6.5955644825
 30
0.0
 10
10.7199639144
 20
6.604196415
 30
0.0
 10
10.7218324045
 20
6.6169782938
 30
0.0
 10
10.7249306883
 20
6.6294390061
 30
0.0
 10
10.7292307796
 20
6.6414620034
 30
0.0
 10
10.7346931948
 20
6.6529364194
 30
0.0
 10
10.741268165
 20
6.6637562898
 30
0.0
 10
10.7488938417
 20
6.6738202501
 30
0.0
 10
10.754635619
 20
6.6799678399
 30
0.0
 10
10.7576524474
 20
6.6828818394
 30
0.0
  0
SPLINE
  5
359
100
AcDbEntity
  8
0
100
AcDbSpline
 62
7
  6
CONTINUOUS
 70
0
 71
3
 72
53
 73
49
 74
0
 42
0.0000001
 43
0.0000001
 44
0.0000000001
 40
0.0
 40
0.0
 40
0.0
 40
0.0
 40
0.0095820751
 40
0.0187370171
 40
0.0274869856
 40
0.0358595144
 40
0.0438874336
 40
0.051608637
 40
0.0590663518
 40
0.06630903
 40
0.0733901379
 40
0.0803673416
 40
0.0873011032
 40
0.0942531359
 40
0.1012846021
 40
0.1084544898
 40
0.1158180846
 40
0.1234260513
 40
0.1313238312
 40
0.1395513082
 40
0.148143174
 40
0.1571290093
 40
0.1665337656
 40
0.1763784317
 40
0.1866801432
 40
0.1974529379
 40
0.2087080986
 40
0.2204542605
 40
0.2326981187
 40
0.2454443729
 40
0.2586959983
 40
0.2724546987
 40
0.3014911357
 40
0.3325446232
 40
0.3655884086
 40
0.4005829421
 40
0.4374778925
 40
0.4762135948
 40
0.5167220852
 40
0.558928127
 40
0.6027500336
 40
0.6481002919
 40
0.6948860493
 40
0.743009619
 40
0.7923692278
 40
0.8428591759
 40
0.8943692737
 40
1.0
 40
1.0
 40
1.0
 40
1.0
 10
14.6856710827
 20
6.2891105386
 30
0.0
 10
14.6845788225
 20
6.2880940392
 30
0.0
 10
14.6823951928
 20
6.2861567578
 30
0.0
 10
14.6790448568
 20
6.2834896789
 30
0.0
 10
14.675697947
 20
6.2811312554
 30
0.0
 10
14.6723564123
 20
6.2790832191
 30
0.0
 10
14.6690219488
 20
6.2773469341
 30
0.0
 10
14.6656962132
 20
6.2759238937
 30
0.0
 10
14.6623811174
 20
6.274815321
 30
0.0
 10
14.659078676
 20
6.2740225586
 30
0.0
 10
14.6557911611
 20
6.2735467928
 30
0.0
 10
14.652521095
 20
6.2733886637
 30
0.0
 10
14.649271143
 20
6.273548724
 30
0.0
 10
14.6460440724
 20
6.2740268182
 30
0.0
 10
14.6428425308
 20
6.2748222981
 30
0.0
 10
14.6396690409
 20
6.2759343237
 30
0.0
 10
14.6365257571
 20
6.2773614286
 30
0.0
 10
14.6334146267
 20
6.2791021819
 30
0.0
 10
14.6303374229
 20
6.28115505
 30
0.0
 10
14.6272956438
 20
6.2835182755
 30
0.0
 10
14.6242908839
 20
6.2861902775
 30
0.0
 10
14.6213246047
 20
6.2891692595
 30
0.0
 10
14.6183982447
 20
6.292453341
 30
0.0
 10
14.6155134104
 20
6.2960406366
 30
0.0
 10
14.6126715341
 20
6.2999289696
 30
0.0
 10
14.6098741779
 20
6.3041161027
 30
0.0
 10
14.607122941
 20
6.308599634
 30
0.0
 10
14.6044192761
 20
6.3133769136
 30
0.0
 10
14.6017648013
 20
6.3184452048
 30
0.0
 10
14.5991610397
 20
6.3238015383
 30
0.0
 10
14.5966094115
 20
6.3294427762
 30
0.0
 10
14.5932178671
 20
6.3374850599
 30
0.0
 10
14.5891354489
 20
6.3482399501
 30
0.0
 10
14.5845517797
 20
6.3620025236
 30
0.0
 10
14.5802100769
 20
6.3768124359
 30
0.0
 10
14.5761207045
 20
6.3926347931
 30
0.0
 10
14.5722934797
 20
6.409432559
 30
0.0
 10
14.5687376386
 20
6.4271661358
 30
0.0
 10
14.5654617382
 20
6.4457936254
 30
0.0
 10
14.5624736728
 20
6.4652709206
 30
0.0
 10
14.5597806567
 20
6.4855518576
 30
0.0
 10
14.5573892065
 20
6.5065883239
 30
0.0
 10
14.5553050823
 20
6.5283303566
 30
0.0
 10
14.5535332974
 20
6.5507263128
 30
0.0
 10
14.5520781511
 20
6.5737229628
 30
0.0
 10
14.5509431457
 20
6.5972656107
 30
0.0
 10
14.549851332
 20
6.6295793346
 30
0.0
 10
14.5495370959
 20
6.6540505537
 30
0.0
 10
14.5495370959
 20
6.6704989241
 30
0.0
  0
SPLINE
  5
35A
100
AcDbEntity
  8
0
100
AcDbSpline
 62
7
  6
CONTINUOUS
 70
0
 71
3
 72
25
 73
21
 74
0
 42
0.0000001
 43
0.0000001
 44
0.0000000001
 40
0.0
 40
0.0
 40
0.0
 40
0.0
 40
0.0620104295
 40
0.0929812215
 40
0.1239318912
 40
0.1857819365
 40
0.2476064972
 40
0.2785255844
 40
0.3094524858
 40
0.371339392
 40
0.4333136397
 40
0.4954111679
 40
0.5576659109
 40
0.6201091217
 40
0.682768783
 40
0.7456689641
 40
0.8088296366
 40
0.8722655129
 40
0.9359877147
 40
1.0
 40
1.0
 40
1.0
 40
1.0
 10
11.1402324742
 20
8.5618752103
 30
0.0
 10
11.1365927421
 20
8.5559643734
 30
0.0
 10
11.1308336051
 20
8.5472817257
 30
0.0
 10
11.1225845298
 20
8.5361250191
 30
0.0
 10
11.1139711942
 20
8.5252693003
 30
0.0
 10
11.1025227921
 20
8.5122679527
 30
0.0
 10
11.0902119193
 20
8.5000848668
 30
0.0
 10
11.0798805702
 20
8.4908661285
 30
0.0
 10
11.0692325427
 20
8.4820042253
 30
0.0
 10
11.0553468028
 20
8.4716147585
 30
0.0
 10
11.0378450421
 20
8.4603146079
 30
0.0
 10
11.0195695233
 20
8.4502276053
 30
0.0
 10
11.0005958352
 20
8.4413998828
 30
0.0
 10
10.9810026426
 20
8.4338717754
 30
0.0
 10
10.9608721106
 20
8.4276781746
 30
0.0
 10
10.9402892665
 20
8.42284801
 30
0.0
 10
10.919341805
 20
8.4194041525
 30
0.0
 10
10.8981189741
 20
8.4173630042
 30
0.0
 10
10.8767132328
 20
8.416734575
 30
0.0
 10
10.8624117949
 20
8.4172586054
 30
0.0
 10
10.8552632843
 20
8.4177543563
 30
0.0
  0
SPLINE
  5
35B
100
AcDbEntity
  8
0
100
AcDbSpline
 62
7
  6
CONTINUOUS
 70
0
 71
3
 72
15
 73
11
 74
0
 42
0.0000001
 43
0.0000001
 44
0.0000000001
 40
0.0
 40
0.0
 40
0.0
 40
0.0
 40
0.1273464452
 40
0.2538614414
 40
0.3795876769
 40
0.5046052349
 40
0.6290174538
 40
0.7529534044
 40
0.876560584
 40
1.0
 40
1.0
 40
1.0
 40
1.0
 10
9.5725135345
 20
6.7316379062
 30
0.0
 10
9.5725135345
 20
6.734040136
 30
0.0
 10
9.5727429235
 20
6.7388322302
 30
0.0
 10
9.5737801738
 20
6.7459281872
 30
0.0
 10
9.575500248
 20
6.7528458689
 30
0.0
 10
9.5778874344
 20
6.7595205202
 30
0.0
 10
9.5809199361
 20
6.7658906329
 30
0.0
 10
9.5845700585
 20
6.7718973723
 30
0.0
 10
9.588803497
 20
6.7774844619
 30
0.0
 10
9.5919910712
 20
6.7808973545
 30
0.0
 10
9.5936658819
 20
6.7825150859
 30
0.0
  0
SPLINE
  5
35C
100
AcDbEntity
  8
0
100
AcDbSpline
 62
7
  6
CONTINUOUS
 70
0
 71
3
 72
39
 73
35
 74
0
 42
0.0000001
 43
0.0000001
 44
0.0000000001
 40
0.0
 40
0.0
 40
0.0
 40
0.0
 40
0.0063160496
 40
0.0126710053
 40
0.0191030048
 40
0.0256487367
 40
0.0323427861
 40
0.039217295
 40
0.0536155191
 40
0.0690526933
 40
0.0856860708
 40
0.1036344562
 40
0.1229845698
 40
0.1437975453
 40
0.1661136391
 40
0.1899565658
 40
0.2153367352
 40
0.2422532615
 40
0.2706962878
 40
0.3006480884
 40
0.3320841399
 40
0.3649743143
 40
0.3992831008
 40
0.4349705058
 40
0.4719924753
 40
0.5103010104
 40
0.5498449059
 40
0.5905697156
 40
0.6324181087
 40
0.6753302621
 40
0.7192436886
 40
0.809812795
 40
0.903586429
 40
1.0
 40
1.0
 40
1.0
 40
1.0
 10
14.6181447483
 20
6.2446720335
 30
0.0
 10
14.6171948635
 20
6.2447379164
 30
0.0
 10
14.615293734
 20
6.2449478483
 30
0.0
 10
14.6124633373
 20
6.2454949506
 30
0.0
 10
14.6096518527
 20
6.2462742943
 30
0.0
 10
14.6068609508
 20
6.2472853452
 30
0.0
 10
14.6040917178
 20
6.2485273636
 30
0.0
 10
14.6003732134
 20
6.2505206467
 30
0.0
 10
14.5957719387
 20
6.2536244822
 30
0.0
 10
14.5904497835
 20
6.2581996407
 30
0.0
 10
14.5852462031
 20
6.2636721919
 30
0.0
 10
14.5801672575
 20
6.2700320145
 30
0.0
 10
14.575218341
 20
6.2772690972
 30
0.0
 10
14.5704060745
 20
6.2853723544
 30
0.0
 10
14.5657372063
 20
6.2943292911
 30
0.0
 10
14.5612187774
 20
6.3041259598
 30
0.0
 10
14.5568579433
 20
6.3147469275
 30
0.0
 10
14.5526616067
 20
6.3261752158
 30
0.0
 10
14.5486366652
 20
6.3383924479
 30
0.0
 10
14.5447897369
 20
6.3513788284
 30
0.0
 10
14.5411271265
 20
6.3651132107
 30
0.0
 10
14.5376549911
 20
6.3795731726
 30
0.0
 10
14.5343790454
 20
6.394735026
 30
0.0
 10
14.5313047493
 20
6.4105738973
 30
0.0
 10
14.5284372692
 20
6.4270637682
 30
0.0
 10
14.5257813154
 20
6.4441775158
 30
0.0
 10
14.5233413668
 20
6.4618869729
 30
0.0
 10
14.5211214756
 20
6.4801629774
 30
0.0
 10
14.5191253178
 20
6.498975411
 30
0.0
 10
14.517356244
 20
6.5182932915
 30
0.0
 10
14.5152829549
 20
6.5449563711
 30
0.0
 10
14.51329659
 20
6.579313504
 30
0.0
 10
14.5118778844
 20
6.6216182949
 30
0.0
 10
14.5115700097
 20
6.6502908465
 30
0.0
 10
14.5115700097
 20
6.6648255328
 30
0.0
  0
SPLINE
  5
35D
100
AcDbEntity
  8
0
100
AcDbSpline
 62
7
  6
CONTINUOUS
 70
0
 71
3
 72
39
 73
35
 74
0
 42
0.0000001
 43
0.0000001
 44
0.0000000001
 40
0.0
 40
0.0
 40
0.0
 40
0.0
 40
0.0063160566
 40
0.0126710106
 40
0.0191030154
 40
0.0256487277
 40
0.0323427504
 40
0.039217266
 40
0.0536154085
 40
0.0690525617
 40
0.0856858679
 40
0.1036341595
 40
0.1229842714
 40
0.1437971352
 40
0.1661131805
 40
0.1899561089
 40
0.2153361604
 40
0.2422526985
 40
0.2706957037
 40
0.3006474247
 40
0.3320835311
 40
0.3649736636
 40
0.3992824308
 40
0.434969898
 40
0.4719918335
 40
0.5103004051
 40
0.5498443477
 40
0.5905691592
 40
0.6324176188
 40
0.6753298096
 40
0.7192432939
 40
0.8098124703
 40
0.9035863088
 40
1.0
 40
1.0
 40
1.0
 40
1.0
 10
13.2899971182
 20
6.3367793956
 30
0.0
 10
13.2890472304
 20
6.3368452642
 30
0.0
 10
13.2871460939
 20
6.3370551526
 30
0.0
 10
13.2843156802
 20
6.3376022019
 30
0.0
 10
13.2815041992
 20
6.3383815604
 30
0.0
 10
13.2787132799
 20
6.339392549
 30
0.0
 10
13.2759440226
 20
6.3406345116
 30
0.0
 10
13.2722255412
 20
6.3426278131
 30
0.0
 10
13.2676241967
 20
6.3457315256
 30
0.0
 10
13.2623020616
 20
6.3503066869
 30
0.0
 10
13.2570984482
 20
6.3557791732
 30
0.0
 10
13.2520194538
 20
6.3621389394
 30
0.0
 10
13.2470705654
 20
6.3693760143
 30
0.0
 10
13.2422582369
 20
6.3774792167
 30
0.0
 10
13.2375893535
 20
6.3864361326
 30
0.0
 10
13.233070937
 20
6.3962327913
 30
0.0
 10
13.2287100347
 20
6.4068537271
 30
0.0
 10
13.2245137103
 20
6.4182820141
 30
0.0
 10
13.220488753
 20
6.4304992404
 30
0.0
 10
13.2166417736
 20
6.443485614
 30
0.0
 10
13.212979185
 20
6.4572200075
 30
0.0
 10
13.2095070123
 20
6.4716799752
 30
0.0
 10
13.2062310411
 20
6.4868418405
 30
0.0
 10
13.2031567588
 20
6.5026807332
 30
0.0
 10
13.2002892372
 20
6.5191706247
 30
0.0
 10
13.1976332796
 20
6.5362843981
 30
0.0
 10
13.1951933285
 20
6.5539938868
 30
0.0
 10
13.1929734062
 20
6.5722699248
 30
0.0
 10
13.1909772558
 20
6.5910823955
 30
0.0
 10
13.1892081661
 20
6.6104003196
 30
0.0
 10
13.1871348625
 20
6.6370634515
 30
0.0
 10
13.1851484891
 20
6.6714206708
 30
0.0
 10
13.1837297803
 20
6.7137255661
 30
0.0
 10
13.1834219024
 20
6.742398197
 30
0.0
 10
13.1834219024
 20
6.7569329169
 30
0.0
  0
SPLINE
  5
35E
100
AcDbEntity
  8
0
100
AcDbSpline
 62
7
  6
CONTINUOUS
 70
0
 71
3
 72
37
 73
33
 74
0
 42
0.0000001
 43
0.0000001
 44
0.0000000001
 40
0.0
 40
0.0
 40
0.0
 40
0.0
 40
0.0309250593
 40
0.0619943939
 40
0.093201848
 40
0.1245391577
 40
0.1559953187
 40
0.1875574614
 40
0.2192110381
 40
0.2509403189
 40
0.2827287716
 40
0.3145594566
 40
0.3464153726
 40
0.3782797637
 40
0.4101363787
 40
0.4419696839
 40
0.4737650335
 40
0.5055088101
 40
0.5687683703
 40
0.6316878356
 40
0.6630105852
 40
0.69422526
 40
0.7253269264
 40
0.756311958
 40
0.7871780426
 40
0.8179241986
 40
0.8485507938
 40
0.879059565
 40
0.9094536314
 40
0.9397375166
 40
0.9699171729
 40
1.0
 40
1.0
 40
1.0
 40
1.0
 10
9.6478557291
 20
8.4829743351
 30
0.0
 10
9.6406951637
 20
8.483470922
 30
0.0
 10
9.6263702196
 20
8.4849618336
 30
0.0
 10
9.6050408089
 20
8.4886621839
 30
0.0
 10
9.5839146407
 20
8.4938104253
 30
0.0
 10
9.5630914999
 20
8.500375505
 30
0.0
 10
9.5426658901
 20
8.5083181446
 30
0.0
 10
9.5227283847
 20
8.5175912732
 30
0.0
 10
9.5033642533
 20
8.5281411166
 30
0.0
 10
9.4846530768
 20
8.5399080929
 30
0.0
 10
9.4666683352
 20
8.5528278479
 30
0.0
 10
9.4494772277
 20
8.5668322135
 30
0.0
 10
9.4331406377
 20
8.5818501399
 30
0.0
 10
9.4177132502
 20
8.5978085076
 30
0.0
 10
9.4032437288
 20
8.6146329504
 30
0.0
 10
9.389775165
 20
8.6322481648
 30
0.0
 10
9.3773448751
 20
8.6505796146
 30
0.0
 10
9.3622199201
 20
8.6758409837
 30
0.0
 10
9.3460530214
 20
8.7088270677
 30
0.0
 10
9.333662599
 20
8.7433036671
 30
0.0
 10
9.3261100008
 20
8.7714386917
 30
0.0
 10
9.3216379982
 20
8.7927192012
 30
0.0
 10
9.3183599957
 20
8.8141361443
 30
0.0
 10
9.3162817445
 20
8.835621524
 30
0.0
 10
9.315407096
 20
8.8571069215
 30
0.0
 10
9.315737654
 20
8.8785245072
 30
0.0
 10
9.317272926
 20
8.8998065574
 30
0.0
 10
9.320010286
 20
8.9208854019
 30
0.0
 10
9.3239448549
 20
8.9416931367
 30
0.0
 10
9.3290695724
 20
8.9621619026
 30
0.0
 10
9.3353744094
 20
8.9822222351
 30
0.0
 10
9.3403646339
 20
8.9952995969
 30
0.0
 10
9.3430516307
 20
9.0017441517
 30
0.0
  0
SPLINE
  5
35F
100
AcDbEntity
  8
0
100
AcDbSpline
 62
7
  6
CONTINUOUS
 70
0
 71
3
 72
15
 73
11
 74
0
 42
0.0000001
 43
0.0000001
 44
0.0000000001
 40
0.0
 40
0.0
 40
0.0
 40
0.0
 40
0.1270018995
 40
0.2536280783
 40
0.3797648591
 40
0.505305804
 40
0.6301581548
 40
0.7542497891
 40
0.8775336397
 40
1.0
 40
1.0
 40
1.0
 40
1.0
 10
10.5358718137
 20
7.3639517493
 30
0.0
 10
10.5408304594
 20
7.3565278167
 30
0.0
 10
10.5501579929
 20
7.3413075571
 30
0.0
 10
10.562235494
 20
7.3174678125
 30
0.0
 10
10.5722418837
 20
7.2927941898
 30
0.0
 10
10.5800425709
 20
7.2674657878
 30
0.0
 10
10.5855222465
 20
7.2416809943
 30
0.0
 10
10.5885889141
 20
7.2156565626
 30
0.0
 10
10.5891812252
 20
7.1896274366
 30
0.0
 10
10.5879026514
 20
7.1723671489
 30
0.0
 10
10.586844625
 20
7.1638235893
 30
0.0
  0
SPLINE
  5
360
100
AcDbEntity
  8
0
100
AcDbSpline
 62
7
  6
CONTINUOUS
 70
0
 71
3
 72
39
 73
35
 74
0
 42
0.0000001
 43
0.0000001
 44
0.0000000001
 40
0.0
 40
0.0
 40
0.0
 40
0.0
 40
0.0310023348
 40
0.0621463974
 40
0.0934265943
 40
0.1248354764
 40
0.156362996
 40
0.1879972324
 40
0.2197244475
 40
0.2515294415
 40
0.2833958261
 40
0.3153063384
 40
0.3472431467
 40
0.3791881556
 40
0.4111233021
 40
0.4430308403
 40
0.4748936104
 40
0.5066952921
 40
0.5384206392
 40
0.5700556948
 40
0.6015879872
 40
0.6330067059
 40
0.6643028565
 40
0.695469395
 40
0.7265013399
 40
0.7573958608
 40
0.7881523432
 40
0.818772427
 40
0.8492600154
 40
0.8796212543
 40
0.9098644767
 40
0.9400001117
 40
0.970040555
 40
1.0
 40
1.0
 40
1.0
 40
1.0
 10
10.8552632843
 20
8.4177543563
 30
0.0
 10
10.8478727562
 20
8.4182668911
 30
0.0
 10
10.8330878883
 20
8.4197945037
 30
0.0
 10
10.8110678269
 20
8.4235656943
 30
0.0
 10
10.7892492445
 20
8.4288040683
 30
0.0
 10
10.7677325707
 20
8.435483972
 30
0.0
 10
10.7466146193
 20
8.4435730211
 30
0.0
 10
10.7259902781
 20
8.4530320152
 30
0.0
 10
10.705951364
 20
8.4638154391
 30
0.0
 10
10.6865863241
 20
8.4758717554
 30
0.0
 10
10.6679797716
 20
8.4891438434
 30
0.0
 10
10.6502121294
 20
8.5035694138
 30
0.0
 10
10.6333593142
 20
8.519081457
 30
0.0
 10
10.6174924761
 20
8.5356086909
 30
0.0
 10
10.6026777881
 20
8.5530760084
 30
0.0
 10
10.5889762819
 20
8.5714049161
 30
0.0
 10
10.5764437261
 20
8.5905139587
 30
0.0
 10
10.5651305403
 20
8.6103191244
 30
0.0
 10
10.5550817407
 20
8.6307342294
 30
0.0
 10
10.5463369099
 20
8.6516712788
 30
0.0
 10
10.5389301855
 20
8.6730408038
 30
0.0
 10
10.5328902623
 20
8.6947521769
 30
0.0
 10
10.5282404019
 20
8.7167139046
 30
0.0
 10
10.524998444
 20
8.7388339028
 30
0.0
 10
10.523176822
 20
8.7610197573
 30
0.0
 10
10.5227825722
 20
8.7831789718
 30
0.0
 10
10.5238173373
 20
8.805219209
 30
0.0
 10
10.5262773653
 20
8.827048532
 30
0.0
 10
10.5301534928
 20
8.848575635
 30
0.0
 10
10.5354311512
 20
8.869710128
 30
0.0
 10
10.5420902623
 20
8.8903626576
 30
0.0
 10
10.5501055201
 20
8.9104456911
 30
0.0
 10
10.5594452373
 20
8.9298719143
 30
0.0
 10
10.5665404352
 20
8.942346343
 30
0.0
 10
10.570294202
 20
8.9484423694
 30
0.0
  0
SPLINE
  5
361
100
AcDbEntity
  8
0
100
AcDbSpline
 62
7
  6
CONTINUOUS
 70
0
 71
3
 72
15
 73
11
 74
0
 42
0.0000001
 43
0.0000001
 44
0.0000000001
 40
0.0
 40
0.0
 40
0.0
 40
0.0
 40
0.1273483438
 40
0.2538606048
 40
0.3795878922
 40
0.5046051199
 40
0.6290174392
 40
0.7529533668
 40
0.8765605676
 40
1.0
 40
1.0
 40
1.0
 40
1.0
 10
12.6132481182
 20
6.5207622466
 30
0.0
 10
12.6132481182
 20
6.5272606926
 30
0.0
 10
12.6138685962
 20
6.5402239045
 30
0.0
 10
12.6166746428
 20
6.5594193929
 30
0.0
 10
12.6213275381
 20
6.5781325607
 30
0.0
 10
12.6277852453
 20
6.5961884035
 30
0.0
 10
12.6359885349
 20
6.6134203982
 30
0.0
 10
12.645862633
 20
6.6296694087
 30
0.0
 10
12.6573146521
 20
6.6447832173
 30
0.0
 10
12.6659374629
 20
6.6540155447
 30
0.0
 10
12.6704680502
 20
6.6583917198
 30
0.0
  0
SPLINE
  5
362
100
AcDbEntity
  8
0
100
AcDbSpline
 62
7
  6
CONTINUOUS
 70
0
 71
3
 72
39
 73
35
 74
0
 42
0.0000001
 43
0.0000001
 44
0.0000000001
 40
0.0
 40
0.0
 40
0.0
 40
0.0
 40
0.0071625678
 40
0.0146567179
 40
0.0224900413
 40
0.0306687017
 40
0.0391977329
 40
0.0480809761
 40
0.0573207983
 40
0.0669183965
 40
0.0768741435
 40
0.0871874377
 40
0.1088799456
 40
0.131978928
 40
0.1564568622
 40
0.182278431
 40
0.2094015018
 40
0.2377780607
 40
0.2673549092
 40
0.2980741881
 40
0.3298737896
 40
0.3626878448
 40
0.3964471028
 40
0.4310792359
 40
0.4665091073
 40
0.5026591244
 40
0.5394495258
 40
0.5767986285
 40
0.6146230679
 40
0.6913563402
 40
0.7689609431
 40
0.8467367595
 40
0.9239813805
 40
1.0
 40
1.0
 40
1.0
 40
1.0
 10
6.9895065296
 20
9.9933658996
 30
0.0
 10
6.9882891714
 20
9.9921900217
 30
0.0
 10
6.9858560598
 20
9.9897232487
 30
0.0
 10
6.9822898818
 20
9.9857810982
 30
0.0
 10
6.9787281803
 20
9.9815170393
 30
0.0
 10
6.9751733391
 20
9.9769338251
 30
0.0
 10
6.9716272861
 20
9.9720341999
 30
0.0
 10
6.9680921105
 20
9.9668209524
 30
0.0
 10
6.964569816
 20
9.9612971598
 30
0.0
 10
6.9610624853
 20
9.9554661144
 30
0.0
 10
6.9575722663
 20
9.949331251
 30
0.0
 10
6.9528646766
 20
9.9406036234
 30
0.0
 10
6.9470518124
 20
9.9289475112
 30
0.0
 10
6.9402897375
 20
9.9140376678
 30
0.0
 10
6.9336446867
 20
9.8980138947
 30
0.0
 10
6.9271327089
 20
9.8809144842
 30
0.0
 10
6.9207695179
 20
9.8627801054
 30
0.0
 10
6.9145705123
 20
9.8436541232
 30
0.0
 10
6.9085507086
 20
9.8235823185
 30
0.0
 10
6.9027247034
 20
9.802612818
 30
0.0
 10
6.8971065873
 20
9.7807959711
 30
0.0
 10
6.8917099586
 20
9.7581842001
 30
0.0
 10
6.8865478838
 20
9.7348318543
 30
0.0
 10
6.8816328681
 20
9.7107950888
 30
0.0
 10
6.8769767834
 20
9.6861317374
 30
0.0
 10
6.8725908804
 20
9.6609011504
 30
0.0
 10
6.8684857763
 20
9.6351640593
 30
0.0
 10
6.8646713613
 20
9.6089823682
 30
0.0
 10
6.8599631673
 20
9.5733957709
 30
0.0
 10
6.8548770876
 20
9.5282678898
 30
0.0
 10
6.8500866585
 20
9.4736232456
 30
0.0
 10
6.8466267989
 20
9.4187568926
 30
0.0
 10
6.8445307024
 20
9.3641969265
 30
0.0
 10
6.8440503463
 20
9.3279789971
 30
0.0
 10
6.8440503463
 20
9.3100156607
 30
0.0
  0
SPLINE
  5
363
100
AcDbEntity
  8
0
100
AcDbSpline
 62
7
  6
CONTINUOUS
 70
0
 71
3
 72
24
 73
20
 74
0
 42
0.0000001
 43
0.0000001
 44
0.0000000001
 40
0.0
 40
0.0
 40
0.0
 40
0.0
 40
0.0692985237
 40
0.1349444983
 40
0.1973557247
 40
0.2570305527
 40
0.3145491568
 40
0.3705670564
 40
0.4257988027
 40
0.48099242
 40
0.5368975761
 40
0.5942335704
 40
0.6536630668
 40
0.7157735408
 40
0.7480034329
 40
0.7810866676
 40
0.8499997506
 40
0.9228799819
 40
1.0
 40
1.0
 40
1.0
 40
1.0
 10
15.2348820702
 20
7.4014195116
 30
0.0
 10
15.2366585411
 20
7.3996519508
 30
0.0
 10
15.2402405207
 20
7.3963297016
 30
0.0
 10
15.2458540346
 20
7.3919090187
 30
0.0
 10
15.2515510952
 20
7.3881982162
 30
0.0
 10
15.2573271663
 20
7.3852029446
 30
0.0
 10
15.2631773029
 20
7.3829284577
 30
0.0
 10
15.269095171
 20
7.3813796811
 30
0.0
 10
15.2750730457
 20
7.3805605042
 30
0.0
 10
15.2811021077
 20
7.3804727301
 30
0.0
 10
15.2871733173
 20
7.3811160385
 30
0.0
 10
15.29327846
 20
7.3824877803
 30
0.0
 10
15.2994101688
 20
7.384584089
 30
0.0
 10
15.3044745559
 20
7.386902151
 30
0.0
 10
15.3085273024
 20
7.3890974316
 30
0.0
 10
15.3126929803
 20
7.3915916979
 30
0.0
 10
15.3179126617
 20
7.3951745613
 30
0.0
 10
15.3240996149
 20
7.4001226951
 30
0.0
 10
15.3281091802
 20
7.4037821475
 30
0.0
 10
15.3301150823
 20
7.4057197003
 30
0.0
  0
SPLINE
  5
364
100
AcDbEntity
  8
0
100
AcDbSpline
 62
7
  6
CONTINUOUS
 70
0
 71
3
 72
23
 73
19
 74
0
 42
0.0000001
 43
0.0000001
 44
0.0000000001
 40
0.0
 40
0.0
 40
0.0
 40
0.0
 40
0.0620895628
 40
0.1240614721
 40
0.1859519156
 40
0.2477991329
 40
0.309642698
 40
0.3715226758
 40
0.4334789772
 40
0.4955505716
 40
0.5577745882
 40
0.6201854781
 40
0.6828142085
 40
0.7456880306
 40
0.808829473
 40
0.8722535053
 40
0.9359787617
 40
1.0
 40
1.0
 40
1.0
 40
1.0
 10
11.9710092723
 20
8.6175431388
 30
0.0
 10
11.9697218073
 20
8.6152782564
 30
0.0
 10
11.9669928189
 20
8.6108396491
 30
0.0
 10
11.9624516576
 20
8.6044875281
 30
0.0
 10
11.9574841945
 20
8.5984755151
 30
0.0
 10
11.9521102191
 20
8.5928314073
 30
0.0
 10
11.9463512057
 20
8.5875812832
 30
0.0
 10
11.9402307665
 20
8.5827499059
 30
0.0
 10
11.9337744236
 20
8.5783604358
 30
0.0
 10
11.9270095612
 20
8.5744343249
 30
0.0
 10
11.9199653553
 20
8.5709911198
 30
0.0
 10
11.9126727263
 20
8.5680481651
 30
0.0
 10
11.9051641273
 20
8.5656205172
 30
0.0
 10
11.8974733547
 20
8.5637208358
 30
0.0
 10
11.8896355359
 20
8.5623592648
 30
0.0
 10
11.8816863782
 20
8.5615429047
 30
0.0
 10
11.8736633692
 20
8.5612765632
 30
0.0
 10
11.8683016491
 20
8.5614661882
 30
0.0
 10
11.8656217971
 20
8.5616520366
 30
0.0
  0
SPLINE
  5
365
100
AcDbEntity
  8
0
100
AcDbSpline
 62
7
  6
CONTINUOUS
 70
0
 71
3
 72
28
 73
24
 74
0
 42
0.0000001
 43
0.0000001
 44
0.0000000001
 40
0.0
 40
0.0
 40
0.0
 40
0.0
 40
0.075586486
 40
0.1466186449
 40
0.2134346186
 40
0.2764747341
 40
0.3362787133
 40
0.3934907744
 40
0.4213687662
 40
0.4488871414
 40
0.4761523432
 40
0.5032741136
 40
0.5303640302
 40
0.5575341327
 40
0.5848953814
 40
0.61255619
 40
0.6406212621
 40
0.6691904178
 40
0.7281874797
 40
0.7902492613
 40
0.8559439887
 40
0.9257370602
 40
1.0
 40
1.0
 40
1.0
 40
1.0
 10
15.350322569
 20
7.3841108197
 30
0.0
 10
15.3480657871
 20
7.3819309357
 30
0.0
 10
15.343555276
 20
7.377836464
 30
0.0
 10
15.3365747673
 20
7.3723665581
 30
0.0
 10
15.3296025476
 20
7.3677725792
 30
0.0
 10
15.3226446746
 20
7.3640615087
 30
0.0
 10
15.3157079241
 20
7.3612399327
 30
0.0
 10
15.3098985154
 20
7.3596219232
 30
0.0
 10
15.3052952016
 20
7.3587941126
 30
0.0
 10
15.3018837703
 20
7.3584026519
 30
0.0
 10
15.2984854673
 20
7.3582357963
 30
0.0
 10
15.2951012854
 20
7.3582935181
 30
0.0
 10
15.2917323639
 20
7.3585758473
 30
0.0
 10
15.28837982
 20
7.3590827578
 30
0.0
 10
15.285044743
 20
7.3598139922
 30
0.0
 10
15.2817282055
 20
7.3607691886
 30
0.0
 10
15.2784311507
 20
7.3619480719
 30
0.0
 10
15.2740158862
 20
7.363837306
 30
0.0
 10
15.2685322403
 20
7.3667849939
 30
0.0
 10
15.2621242282
 20
7.3711705623
 30
0.0
 10
15.255821704
 20
7.3764347385
 30
0.0
 10
15.2496306735
 20
7.3825696239
 30
0.0
 10
15.2457068459
 20
7.3870898004
 30
0.0
 10
15.2437617373
 20
7.3894814008
 30
0.0
  0
SPLINE
  5
366
100
AcDbEntity
  8
0
100
AcDbSpline
 62
7
  6
CONTINUOUS
 70
0
 71
3
 72
30
 73
26
 74
0
 42
0.0000001
 43
0.0000001
 44
0.0000000001
 40
0.0
 40
0.0
 40
0.0
 40
0.0
 40
0.0299531282
 40
0.0599306534
 40
0.0899563625
 40
0.1200528599
 40
0.150241066
 40
0.180539717
 40
0.2109649117
 40
0.2415297748
 40
0.2722442363
 40
0.3031148262
 40
0.3341445414
 40
0.3653328651
 40
0.3966758621
 40
0.4281662756
 40
0.4915049595
 40
0.5552742182
 40
0.6193233329
 40
0.6834792475
 40
0.747560388
 40
0.8113911623
 40
0.8748159048
 40
0.9377110434
 40
1.0
 40
1.0
 40
1.0
 40
1.0
 10
11.9198116875
 20
9.1728043061
 30
0.0
 10
11.9185176931
 20
9.1715544123
 30
0.0
 10
11.9158279403
 20
9.1691555133
 30
0.0
 10
11.9115185702
 20
9.1658874064
 30
0.0
 10
11.906956428
 20
9.1629659721
 30
0.0
 10
11.90216704
 20
9.1604075583
 30
0.0
 10
11.8971767456
 20
9.1582261166
 30
0.0
 10
11.8920130711
 20
9.1564336592
 30
0.0
 10
11.8867044602
 20
9.1550400409
 30
0.0
 10
11.8812801794
 20
9.154052812
 30
0.0
 10
11.8757700878
 20
9.1534773237
 30
0.0
 10
11.8702045057
 20
9.1533167099
 30
0.0
 10
11.8646140246
 20
9.1535718089
 30
0.0
 10
11.8590294604
 20
9.1542410521
 30
0.0
 10
11.8534811648
 20
9.1553208512
 30
0.0
 10
11.8461610565
 20
9.1573028307
 30
0.0
 10
11.83725393
 20
9.1607776743
 30
0.0
 10
11.8272177872
 20
9.1664293004
 30
0.0
 10
11.8180233432
 20
9.1734490329
 30
0.0
 10
11.8098723828
 20
9.1816830041
 30
0.0
 10
11.8029421229
 20
9.19095177
 30
0.0
 10
11.7973842513
 20
9.201053261
 30
0.0
 10
11.7933207047
 20
9.2117682988
 30
0.0
 10
11.7908415581
 20
9.2228601932
 30
0.0
 10
11.7902795971
 20
9.2303902335
 30
0.0
 10
11.7902795971
 20
9.2341314871
 30
0.0
  0
SPLINE
  5
367
100
AcDbEntity
  8
0
100
AcDbSpline
 62
7
  6
CONTINUOUS
 70
0
 71
3
 72
30
 73
26
 74
0
 42
0.0000001
 43
0.0000001
 44
0.0000000001
 40
0.0
 40
0.0
 40
0.0
 40
0.0
 40
0.0299531282
 40
0.0599306534
 40
0.0899563625
 40
0.1200528599
 40
0.150241066
 40
0.180539717
 40
0.2109649117
 40
0.2415297748
 40
0.2722442363
 40
0.3031148262
 40
0.3341445414
 40
0.3653328651
 40
0.3966758621
 40
0.4281662756
 40
0.4915049595
 40
0.5552742182
 40
0.6193233329
 40
0.6834792475
 40
0.747560388
 40
0.8113911623
 40
0.8748159048
 40
0.9377110434
 40
1.0
 40
1.0
 40
1.0
 40
1.0
 10
9.702045625
 20
6.6703107252
 30
0.0
 10
9.7007516306
 20
6.6690608315
 30
0.0
 10
9.6980618778
 20
6.6666619324
 30
0.0
 10
9.6937525077
 20
6.6633938255
 30
0.0
 10
9.6891903655
 20
6.6604723913
 30
0.0
 10
9.6844009774
 20
6.6579139775
 30
0.0
 10
9.6794106831
 20
6.6557325358
 30
0.0
 10
9.6742470086
 20
6.6539400784
 30
0.0
 10
9.6689383977
 20
6.65254646
 30
0.0
 10
9.6635141169
 20
6.6515592312
 30
0.0
 10
9.6580040253
 20
6.6509837429
 30
0.0
 10
9.6524384431
 20
6.650823129
 30
0.0
 10
9.6468479621
 20
6.6510782281
 30
0.0
 10
9.6412633978
 20
6.6517474712
 30
0.0
 10
9.6357151023
 20
6.6528272704
 30
0.0
 10
9.628394994
 20
6.6548092498
 30
0.0
 10
9.6194878675
 20
6.6582840935
 30
0.0
 10
9.6094517247
 20
6.6639357195
 30
0.0
 10
9.6002572806
 20
6.670955452
 30
0.0
 10
9.5921063202
 20
6.6791894232
 30
0.0
 10
9.5851760604
 20
6.6884581891
 30
0.0
 10
9.5796181887
 20
6.6985596801
 30
0.0
 10
9.5755546422
 20
6.709274718
 30
0.0
 10
9.5730754955
 20
6.7203666124
 30
0.0
 10
9.5725135345
 20
6.7278966527
 30
0.0
 10
9.5725135345
 20
6.7316379062
 30
0.0
  0
SPLINE
  5
368
100
AcDbEntity
  8
0
100
AcDbSpline
 62
7
  6
CONTINUOUS
 70
0
 71
3
 72
18
 73
14
 74
0
 42
0.0000001
 43
0.0000001
 44
0.0000000001
 40
0.0
 40
0.0
 40
0.0
 40
0.0
 40
0.0539806622
 40
0.1081920731
 40
0.1628619191
 40
0.2182116546
 40
0.3317375181
 40
0.4503907162
 40
0.5120901745
 40
0.575557518
 40
0.7082858204
 40
0.8495325552
 40
1.0
 40
1.0
 40
1.0
 40
1.0
 10
15.2548397489
 20
7.3911861897
 30
0.0
 10
15.2559398039
 20
7.3911099059
 30
0.0
 10
15.2581505261
 20
7.3910317091
 30
0.0
 10
15.2614780475
 20
7.3911386102
 30
0.0
 10
15.2648190814
 20
7.391469629
 30
0.0
 10
15.2693270644
 20
7.3922153946
 30
0.0
 10
15.2750187418
 20
7.3937292999
 30
0.0
 10
15.2806109421
 20
7.3959477439
 30
0.0
 10
15.2850835688
 20
7.3981432001
 30
0.0
 10
15.2896917608
 20
7.4007004357
 30
0.0
 10
15.2954707173
 20
7.4044767794
 30
0.0
 10
15.3023123658
 20
7.4098162379
 30
0.0
 10
15.3067309197
 20
7.4138229499
 30
0.0
 10
15.3089416873
 20
7.4159583876
 30
0.0
  0
SPLINE
  5
369
100
AcDbEntity
  8
0
100
AcDbSpline
 62
7
  6
CONTINUOUS
 70
0
 71
3
 72
23
 73
19
 74
0
 42
0.0000001
 43
0.0000001
 44
0.0000000001
 40
0.0
 40
0.0
 40
0.0
 40
0.0
 40
0.0814695154
 40
0.160559187
 40
0.2372188189
 40
0.3114025818
 40
0.3830691781
 40
0.452182624
 40
0.5187122834
 40
0.5826340482
 40
0.6439303492
 40
0.702591978
 40
0.7586180813
 40
0.8120181091
 40
0.8628126943
 40
0.9110382241
 40
0.9567457779
 40
1.0
 40
1.0
 40
1.0
 40
1.0
 10
15.4248828154
 20
7.5840366188
 30
0.0
 10
15.4230891177
 20
7.5788086421
 30
0.0
 10
15.4194777235
 20
7.5685313937
 30
0.0
 10
15.4139010763
 20
7.553434137
 30
0.0
 10
15.4082489248
 20
7.5388939633
 30
0.0
 10
15.4025264202
 20
7.5249240065
 30
0.0
 10
15.3967387096
 20
7.5115368276
 30
0.0
 10
15.3908910645
 20
7.4987444486
 30
0.0
 10
15.3849887121
 20
7.486558359
 30
0.0
 10
15.3790370364
 20
7.4749894545
 30
0.0
 10
15.3730413103
 20
7.4640480906
 30
0.0
 10
15.3670069784
 20
7.4537439766
 30
0.0
 10
15.3609393094
 20
7.4440863155
 30
0.0
 10
15.3548438011
 20
7.4350836044
 30
0.0
 10
15.3487256668
 20
7.4267438
 30
0.0
 10
15.3425900838
 20
7.4190739949
 30
0.0
 10
15.3364425335
 20
7.4120814689
 30
0.0
 10
15.3322257272
 20
7.4077584268
 30
0.0
 10
15.3301150823
 20
7.4057197003
 30
0.0
  0
SPLINE
  5
36A
100
AcDbEntity
  8
0
100
AcDbSpline
 62
7
  6
CONTINUOUS
 70
0
 71
3
 72
15
 73
11
 74
0
 42
0.0000001
 43
0.0000001
 44
0.0000000001
 40
0.0
 40
0.0
 40
0.0
 40
0.0
 40
0.1303765407
 40
0.2561249136
 40
0.3786958742
 40
0.4996660013
 40
0.6206801481
 40
0.7433812881
 40
0.8693405652
 40
1.0
 40
1.0
 40
1.0
 40
1.0
 10
15.3818014219
 20
8.9743323882
 30
0.0
 10
15.3838532644
 20
8.9751542511
 30
0.0
 10
15.3879666363
 20
8.9765735088
 30
0.0
 10
15.394239088
 20
8.9780021355
 30
0.0
 10
15.4004775266
 20
8.9786820271
 30
0.0
 10
15.4066726948
 20
8.9786101873
 30
0.0
 10
15.412815452
 20
8.9777862198
 30
0.0
 10
15.4188968471
 20
8.9762119321
 30
0.0
 10
15.4249081596
 20
8.973891564
 30
0.0
 10
15.4287826817
 20
8.9718929278
 30
0.0
 10
15.4306997762
 20
8.9707832029
 30
0.0
  0
SPLINE
  5
36B
100
AcDbEntity
  8
0
100
AcDbSpline
 62
7
  6
CONTINUOUS
 70
0
 71
3
 72
23
 73
19
 74
0
 42
0.0000001
 43
0.0000001
 44
0.0000000001
 40
0.0
 40
0.0
 40
0.0
 40
0.0
 40
0.0820257145
 40
0.1616291039
 40
0.2387514219
 40
0.3133387032
 40
0.3853421407
 40
0.4547182477
 40
0.5214300711
 40
0.5854469466
 40
0.6467463322
 40
0.7053137761
 40
0.7611451231
 40
0.8142469012
 40
0.8646384681
 40
0.9123558601
 40
0.9574531203
 40
1.0
 40
1.0
 40
1.0
 40
1.0
 10
15.4526562984
 20
7.5822220514
 30
0.0
 10
15.4507392431
 20
7.5763817694
 30
0.0
 10
15.4468759967
 20
7.5649015737
 30
0.0
 10
15.4408986628
 20
7.5480371231
 30
0.0
 10
15.434830179
 20
7.5317989153
 30
0.0
 10
15.4286767017
 20
7.5162033358
 30
0.0
 10
15.422444479
 20
7.5012660381
 30
0.0
 10
15.4161397503
 20
7.4870020313
 30
0.0
 10
15.4097689607
 20
7.4734255877
 30
0.0
 10
15.4033384266
 20
7.460550316
 30
0.0
 10
15.3968547142
 20
7.4483890295
 30
0.0
 10
15.3903242122
 20
7.4369538468
 30
0.0
 10
15.3837534785
 20
7.4262560817
 30
0.0
 10
15.3771489709
 20
7.4163063143
 30
0.0
 10
15.3705171743
 20
7.4071142988
 30
0.0
 10
15.3638642521
 20
7.3986887985
 30
0.0
 10
15.3571968392
 20
7.3910386331
 30
0.0
 10
15.3526158341
 20
7.3863259438
 30
0.0
 10
15.350322569
 20
7.3841108197
 30
0.0
  0
SPLINE
  5
36C
100
AcDbEntity
  8
0
100
AcDbSpline
 62
7
  6
CONTINUOUS
 70
0
 71
3
 72
31
 73
27
 74
0
 42
0.0000001
 43
0.0000001
 44
0.0000000001
 40
0.0
 40
0.0
 40
0.0
 40
0.0
 40
0.0851787309
 40
0.1685810121
 40
0.2498835895
 40
0.328774602
 40
0.404955116
 40
0.4781414295
 40
0.5480672418
 40
0.6144862178
 40
0.6463107921
 40
0.6771770202
 40
0.7070609923
 40
0.7359410551
 40
0.7637973337
 40
0.7906125905
 40
0.8163718057
 40
0.8410631226
 40
0.8646775355
 40
0.8872099623
 40
0.9086591137
 40
0.9290287662
 40
0.9483279273
 40
0.966572423
 40
0.9837855238
 40
1.0
 40
1.0
 40
1.0
 40
1.0
 10
6.8440503463
 20
7.1965698275
 30
0.0
 10
6.8440503463
 20
7.1849254369
 30
0.0
 10
6.8442487721
 20
7.1618789444
 30
0.0
 10
6.8451588383
 20
7.1277287876
 30
0.0
 10
6.8466745871
 20
7.0944603261
 30
0.0
 10
6.8487894289
 20
7.0622137099
 30
0.0
 10
6.8514942198
 20
7.0311245529
 30
0.0
 10
6.8547772449
 20
7.0013234688
 30
0.0
 10
6.8586244092
 20
6.9729358226
 30
0.0
 10
6.8623373675
 20
6.950244309
 30
0.0
 10
6.8655936184
 20
6.9328966161
 30
0.0
 10
6.8681313022
 20
6.9204975591
 30
0.0
 10
6.8707966311
 20
6.9085373516
 30
0.0
 10
6.8735867151
 20
6.8970285303
 30
0.0
 10
6.8764986995
 20
6.8859831739
 30
0.0
 10
6.8795293926
 20
6.875412843
 30
0.0
 10
6.8826757084
 20
6.8653286016
 30
0.0
 10
6.8859342127
 20
6.8557409582
 30
0.0
 10
6.8893016044
 20
6.8466599087
 30
0.0
 10
6.8927742421
 20
6.8380948469
 30
0.0
 10
6.8963486486
 20
6.8300546479
 30
0.0
 10
6.9000210349
 20
6.8225475262
 30
0.0
 10
6.9037877989
 20
6.8155812131
 30
0.0
 10
6.9076451669
 20
6.8091626254
 30
0.0
 10
6.9115893036
 20
6.8032986154
 30
0.0
 10
6.9143549177
 20
6.7996565017
 30
0.0
 10
6.9157535194
 20
6.7979368343
 30
0.0
  0
SPLINE
  5
36D
100
AcDbEntity
  8
0
100
AcDbSpline
 62
7
  6
CONTINUOUS
 70
0
 71
3
 72
37
 73
33
 74
0
 42
0.0000001
 43
0.0000001
 44
0.0000000001
 40
0.0
 40
0.0
 40
0.0
 40
0.0
 40
0.0309477727
 40
0.0617128918
 40
0.0923165589
 40
0.1227844492
 40
0.1531469516
 40
0.1834366919
 40
0.2136868627
 40
0.243929661
 40
0.274195102
 40
0.3045102097
 40
0.3348985496
 40
0.3653800429
 40
0.3959709913
 40
0.4266842407
 40
0.4575294243
 40
0.4885132387
 40
0.5196397185
 40
0.5509104869
 40
0.6138471675
 40
0.67732935
 40
0.7092739393
 40
0.7413307226
 40
0.7734879278
 40
0.8057318868
 40
0.8380469659
 40
0.8704155033
 40
0.9028177741
 40
0.9352320142
 40
0.9676345393
 40
1.0
 40
1.0
 40
1.0
 40
1.0
 10
10.586844625
 20
7.1638235893
 30
0.0
 10
10.5858333172
 20
7.1556572832
 30
0.0
 10
10.5830473357
 20
7.1394570993
 30
0.0
 10
10.5765909612
 20
7.1157384013
 30
0.0
 10
10.5679410777
 20
7.0928629943
 30
0.0
 10
10.5571971566
 20
7.0710137288
 30
0.0
 10
10.5444810964
 20
7.0503491431
 30
0.0
 10
10.5299319717
 20
7.031005537
 30
0.0
 10
10.5137004208
 20
7.013095333
 30
0.0
 10
10.4959434862
 20
6.9967082378
 30
0.0
 10
10.4768202662
 20
6.9819129825
 30
0.0
 10
10.4564884898
 20
6.9687597991
 30
0.0
 10
10.4351020513
 20
6.9572831401
 30
0.0
 10
10.4128094277
 20
6.9475044094
 30
0.0
 10
10.3897528288
 20
6.939434507
 30
0.0
 10
10.3660679791
 20
6.9330760777
 30
0.0
 10
10.3418841725
 20
6.9284254364
 30
0.0
 10
10.3173252753
 20
6.9254740736
 30
0.0
 10
10.2925085649
 20
6.9242100906
 30
0.0
 10
10.2591670706
 20
6.9247555162
 30
0.0
 10
10.217392499
 20
6.9296049005
 30
0.0
 10
10.1764174762
 20
6.9398180306
 30
0.0
 10
10.1444380127
 20
6.9511130849
 30
0.0
 10
10.1209043084
 20
6.9611526517
 30
0.0
 10
10.0979904939
 20
6.9727124049
 30
0.0
 10
10.0758099547
 20
6.9857607452
 30
0.0
 10
10.0544814258
 20
7.0002607099
 30
0.0
 10
10.0341274106
 20
7.0161692163
 30
0.0
 10
10.0148750096
 20
7.033435157
 30
0.0
 10
9.9968551355
 20
7.0519983482
 30
0.0
 10
9.9802036463
 20
7.0717850027
 30
0.0
 10
9.9700951264
 20
7.0857503607
 30
0.0
 10
9.9653153358
 20
7.0929065169
 30
0.0
  0
SPLINE
  5
36E
100
AcDbEntity
  8
0
100
AcDbSpline
 62
7
  6
CONTINUOUS
 70
0
 71
3
 72
23
 73
19
 74
0
 42
0.0000001
 43
0.0000001
 44
0.0000000001
 40
0.0
 40
0.0
 40
0.0
 40
0.0
 40
0.0812043094
 40
0.1600509605
 40
0.2364930678
 40
0.310488505
 40
0.3819989823
 40
0.4509917811
 40
0.5174388907
 40
0.5813189242
 40
0.6426164576
 40
0.701324347
 40
0.7574431494
 40
0.8109834054
 40
0.8619662886
 40
0.9104280778
 40
0.9564185025
 40
1.0
 40
1.0
 40
1.0
 40
1.0
 10
15.4004184904
 20
7.5858709063
 30
0.0
 10
15.3986794445
 20
7.5809026996
 30
0.0
 10
15.395179409
 20
7.5711356749
 30
0.0
 10
15.3897793918
 20
7.5567877451
 30
0.0
 10
15.3843101351
 20
7.5429673126
 30
0.0
 10
15.3787764603
 20
7.529686219
 30
0.0
 10
15.3731830114
 20
7.5169558218
 30
0.0
 10
15.3675347003
 20
7.5047869613
 30
0.0
 10
15.3618362534
 20
7.4931900356
 30
0.0
 10
15.356092667
 20
7.4821748748
 30
0.0
 10
15.3503087176
 20
7.4717508608
 30
0.0
 10
15.3444894364
 20
7.4619267649
 30
0.0
 10
15.3386396135
 20
7.4527109426
 30
0.0
 10
15.3327643184
 20
7.4441110818
 30
0.0
 10
15.3268682872
 20
7.4361344156
 30
0.0
 10
15.3209562809
 20
7.4287873846
 30
0.0
 10
15.3150333287
 20
7.4220766427
 30
0.0
 10
15.3109735917
 20
7.4179210566
 30
0.0
 10
15.3089416873
 20
7.4159583876
 30
0.0
  0
SPLINE
  5
36F
100
AcDbEntity
  8
0
100
AcDbSpline
 62
7
  6
CONTINUOUS
 70
0
 71
3
 72
21
 73
17
 74
0
 42
0.0000001
 43
0.0000001
 44
0.0000000001
 40
0.0
 40
0.0
 40
0.0
 40
0.0
 40
0.0616060619
 40
0.1235473088
 40
0.1857959431
 40
0.2483136755
 40
0.311056501
 40
0.3739735164
 40
0.5000032375
 40
0.6260324099
 40
0.6889488016
 40
0.7516907709
 40
0.8142075866
 40
0.8764546878
 40
0.9383949883
 40
1.0
 40
1.0
 40
1.0
 40
1.0
 10
11.8715204695
 20
9.3035239463
 30
0.0
 10
11.8717671704
 20
9.3013528876
 30
0.0
 10
11.8724474088
 20
9.2970178328
 30
0.0
 10
11.874012182
 20
9.2906090809
 30
0.0
 10
11.8761127716
 20
9.2843209073
 30
0.0
 10
11.8787334651
 20
9.2782005332
 30
0.0
 10
11.8818550985
 20
9.2722926387
 30
0.0
 10
11.8866545304
 20
9.2647560638
 30
0.0
 10
11.8937803752
 20
9.2560857059
 30
0.0
 10
11.9022011115
 20
9.248666581
 30
0.0
 10
11.9095684918
 20
9.2436113939
 30
0.0
 10
11.9153657194
 20
9.2402889174
 30
0.0
 10
11.9213924872
 20
9.237459867
 30
0.0
 10
11.927604786
 20
9.2351448366
 30
0.0
 10
11.9339559861
 20
9.2333612401
 30
0.0
 10
11.9382650855
 20
9.232532706
 30
0.0
 10
11.9404263714
 20
9.2322117111
 30
0.0
  0
LINE
  5
370
100
AcDbEntity
  8
0
100
AcDbLine
 62
7
  6
CONTINUOUS
 10
15.1308219308
 20
9.5093908221
 11
15.1309239777
 21
9.5090766831
  0
SPLINE
  5
371
100
AcDbEntity
  8
0
100
AcDbSpline
 62
7
  6
CONTINUOUS
 70
0
 71
3
 72
37
 73
33
 74
0
 42
0.0000001
 43
0.0000001
 44
0.0000000001
 40
0.0
 40
0.0
 40
0.0
 40
0.0
 40
0.0063658124
 40
0.0127697631
 40
0.0192492473
 40
0.0258402939
 40
0.0394825047
 40
0.0539484321
 40
0.0694371289
 40
0.0861053472
 40
0.104072021
 40
0.1234248531
 40
0.1442260491
 40
0.166517171
 40
0.1903235926
 40
0.215657009
 40
0.2425183416
 40
0.2708993315
 40
0.3007838121
 40
0.3321492477
 40
0.3649669986
 40
0.3992035231
 40
0.4348206873
 40
0.4717761257
 40
0.5100240095
 40
0.5495148546
 40
0.5901962656
 40
0.6320129607
 40
0.7188159408
 40
0.8094350488
 40
0.9033466365
 40
1.0
 40
1.0
 40
1.0
 40
1.0
 10
15.1881100622
 20
9.5661861393
 30
0.0
 10
15.1887850857
 20
9.5661393284
 30
0.0
 10
15.1901360245
 20
9.5659909326
 30
0.0
 10
15.192147546
 20
9.5656056334
 30
0.0
 10
15.1941459178
 20
9.5650575711
 30
0.0
 10
15.1968213293
 20
9.5640996813
 30
0.0
 10
15.2001462601
 20
9.5624727317
 30
0.0
 10
15.2040132169
 20
9.5598984641
 30
0.0
 10
15.2078009652
 20
9.5566878437
 30
0.0
 10
15.2115052816
 20
9.5528479619
 30
0.0
 10
15.2151229648
 20
9.5483855436
 30
0.0
 10
15.2186499023
 20
9.5433074889
 30
0.0
 10
15.2220816591
 20
9.5376213991
 30
0.0
 10
15.2254135773
 20
9.5313358191
 30
0.0
 10
15.2286406919
 20
9.5244602277
 30
0.0
 10
15.231758181
 20
9.5170052014
 30
0.0
 10
15.2347611518
 20
9.5089822872
 30
0.0
 10
15.2376448401
 20
9.5004040354
 30
0.0
 10
15.2404046987
 20
9.4912839627
 30
0.0
 10
15.243036217
 20
9.4816364876
 30
0.0
 10
15.2455352176
 20
9.4714769388
 30
0.0
 10
15.247897631
 20
9.4608214874
 30
0.0
 10
15.2501196226
 20
9.4496871299
 30
0.0
 10
15.2521976405
 20
9.4380916539
 30
0.0
 10
15.2541282581
 20
9.4260535991
 30
0.0
 10
15.2559083929
 20
9.413592237
 30
0.0
 10
15.2575351693
 20
9.4007275037
 30
0.0
 10
15.2595207876
 20
9.3828411932
 30
0.0
 10
15.2615852398
 20
9.3596258801
 30
0.0
 10
15.2633870074
 20
9.3308382528
 30
0.0
 10
15.2645307074
 20
9.3009694415
 30
0.0
 10
15.2648454748
 20
9.2807141256
 30
0.0
 10
15.2648953222
 20
9.2704406195
 30
0.0
  0
SPLINE
  5
372
100
AcDbEntity
  8
0
100
AcDbSpline
 62
7
  6
CONTINUOUS
 70
0
 71
3
 72
21
 73
17
 74
0
 42
0.0000001
 43
0.0000001
 44
0.0000000001
 40
0.0
 40
0.0
 40
0.0
 40
0.0
 40
0.0616060619
 40
0.1235473088
 40
0.1857959431
 40
0.2483136755
 40
0.311056501
 40
0.3739735164
 40
0.5000032375
 40
0.6260324099
 40
0.6889488016
 40
0.7516907709
 40
0.8142075866
 40
0.8764546878
 40
0.9383949883
 40
1.0
 40
1.0
 40
1.0
 40
1.0
 10
9.653754407
 20
6.8010303654
 30
0.0
 10
9.6540011079
 20
6.7988593067
 30
0.0
 10
9.6546813463
 20
6.794524252
 30
0.0
 10
9.6562461195
 20
6.7881155
 30
0.0
 10
9.658346709
 20
6.7818273265
 30
0.0
 10
9.6609674026
 20
6.7757069524
 30
0.0
 10
9.664089036
 20
6.7697990578
 30
0.0
 10
9.6688884679
 20
6.762262483
 30
0.0
 10
9.6760143127
 20
6.753592125
 30
0.0
 10
9.684435049
 20
6.7461730002
 30
0.0
 10
9.6918024292
 20
6.741117813
 30
0.0
 10
9.6975996569
 20
6.7377953365
 30
0.0
 10
9.7036264247
 20
6.7349662862
 30
0.0
 10
9.7098387234
 20
6.7326512557
 30
0.0
 10
9.7161899235
 20
6.7308676592
 30
0.0
 10
9.7204990229
 20
6.7300391251
 30
0.0
 10
9.7226603088
 20
6.7297181303
 30
0.0
  0
SPLINE
  5
373
100
AcDbEntity
  8
0
100
AcDbSpline
 62
7
  6
CONTINUOUS
 70
0
 71
3
 72
11
 73
7
 74
0
 42
0.0000001
 43
0.0000001
 44
0.0000000001
 40
0.0
 40
0.0
 40
0.0
 40
0.0
 40
0.246532938
 40
0.4944680928
 40
0.7451813424
 40
1.0
 40
1.0
 40
1.0
 40
1.0
 10
14.9028341788
 20
9.0977167538
 30
0.0
 10
14.9041037422
 20
9.0976287023
 30
0.0
 10
14.9066442761
 20
9.0973523263
 30
0.0
 10
14.9104280661
 20
9.0966395741
 30
0.0
 10
14.9141875828
 20
9.0956288344
 30
0.0
 10
14.9166529123
 20
9.0947649855
 30
0.0
 10
14.9178780972
 20
9.0942862809
 30
0.0
  0
SPLINE
  5
374
100
AcDbEntity
  8
0
100
AcDbSpline
 62
7
  6
CONTINUOUS
 70
0
 71
3
 72
30
 73
26
 74
0
 42
0.0000001
 43
0.0000001
 44
0.0000000001
 40
0.0
 40
0.0
 40
0.0
 40
0.0
 40
0.0309903635
 40
0.0621247628
 40
0.0933923444
 40
0.1247889317
 40
0.1563036223
 40
0.1879245718
 40
0.2513985399
 40
0.3151187132
 40
0.3789478318
 40
0.4427450785
 40
0.506375147
 40
0.5697157979
 40
0.6326643212
 40
0.6951426846
 40
0.7571013593
 40
0.7878942815
 40
0.8185532492
 40
0.8490811652
 40
0.8794830176
 40
0.9097658515
 40
0.9399387072
 40
0.9700125135
 40
1.0
 40
1.0
 40
1.0
 40
1.0
 10
11.8656217971
 20
8.5616520366
 30
0.0
 10
11.8629641512
 20
8.561836345
 30
0.0
 10
11.8576472601
 20
8.5623851068
 30
0.0
 10
11.8497281938
 20
8.5637382889
 30
0.0
 10
11.841880938
 20
8.5656172532
 30
0.0
 10
11.8341415602
 20
8.5680122855
 30
0.0
 10
11.8265440023
 20
8.570912023
 30
0.0
 10
11.8166383956
 20
8.5754361178
 30
0.0
 10
11.8047799687
 20
8.5822796461
 30
0.0
 10
11.7916533444
 20
8.592213305
 30
0.0
 10
11.779820016
 20
8.6036975733
 30
0.0
 10
11.7694708572
 20
8.6165242282
 30
0.0
 10
11.7607652603
 20
8.6304687858
 30
0.0
 10
11.7538336106
 20
8.645294186
 30
0.0
 10
11.7487769402
 20
8.6607557468
 30
0.0
 10
11.7456673513
 20
8.6766014246
 30
0.0
 10
11.744733947
 20
8.6899509115
 30
0.0
 10
11.7449976141
 20
8.7005622723
 30
0.0
 10
11.7456959554
 20
8.7084438802
 30
0.0
 10
11.7468931121
 20
8.7162310426
 30
0.0
 10
11.7485848976
 20
8.7238929723
 30
0.0
 10
11.7507654935
 20
8.7313986327
 30
0.0
 10
11.7534273939
 20
8.7387175962
 30
0.0
 10
11.756560909
 20
8.7458193449
 30
0.0
 10
11.7589604442
 20
8.7503961977
 30
0.0
 10
11.7602343596
 20
8.752637244
 30
0.0
  0
ELLIPSE
  5
375
100
AcDbEntity
  8
0
100
AcDbEllipse
 62
7
  6
CONTINUOUS
 10
12.3041521634
 20
7.0251610656
 30
0.0
 11
-0.0730080979
 21
0.104333164
 31
0.0
 40
0.9226795736
 41
-0.483905735
 42
2.653879026
  0
ELLIPSE
  5
376
100
AcDbEntity
  8
0
100
AcDbEllipse
 62
7
  6
CONTINUOUS
 10
11.4580006989
 20
7.1446951646
 30
0.0
 11
0.3299676292
 21
-0.0635691665
 31
0.0
 40
0.8977550226
 41
0.0
 42
6.2831853072
  0
ENDSEC
  0
SECTION
  2
OBJECTS
  0
DICTIONARY
  5
C
100
AcDbDictionary
280
0
281
1
  3
ACAD_GROUP
350
D
  3
ACAD_MLINESTYLE
350
17
  3
ACAD_LAYOUT
350
1A
  3
ACAD_PLOTSETTINGS
350
19
  3
ACAD_PLOTSTYLENAME
350
E
  3
ACAD_IMAGE_DICT
350
       378
  3
ACAD_IMAGE_VARS
350
       379
  3
ACAD_TABLESTYLE
350
       37A
  0
IMAGEDEF_REACTOR
  5
377
100
AcDbRasterImageDefReactor
 90
2
330
271
  0
DICTIONARY
  5
D
102
{ACAD_REACTORS
330
C
102
}
100
AcDbDictionary
280
0
281
1
  0
ACDBDICTIONARYWDFLT
  5
E
102
{ACAD_REACTORS
330
C
102
}
100
AcDbDictionary
281
1
  3
Normal
350
F
100
AcDbDictionaryWithDefault
340
F
  0
DICTIONARY
  5
378
330
C
100
AcDbDictionary
281
1
  3
BK9_assy_2_img_1
350
       37D
  0
RASTERVARIABLES
  5
379
330
C
100
AcDbRasterVariables
 90
0
 70
0
 71
1
 72
5
  0
DICTIONARY
  5
17
102
{ACAD_REACTORS
330
C
102
}
100
AcDbDictionary
280
0
281
1
  3
Standard
350
18
  0
DICTIONARY
  5
37A
330
C
100
AcDbDictionary
281
1
  3
Standard
350
       37E
  3
Standard1
350
       37F
  0
DICTIONARY
  5
19
102
{ACAD_REACTORS
330
C
102
}
100
AcDbDictionary
281
1
  0
DICTIONARY
  5
1A
102
{ACAD_REACTORS
330
C
102
}
100
AcDbDictionary
281
1
  3
Model
350
37B
  3
Layout1
350
37C
  0
ACDBPLACEHOLDER
  5
F
102
{ACAD_REACTORS
330
E
102
}
  0
MLINESTYLE
  5
18
102
{ACAD_REACTORS
330
17
102
}
100
AcDbMlineStyle
  2
STANDARD
 70
0
  3

 62
256
 51
90.0
 52
90.0
 71
2
 49
0.5
 62
256
  6
BYLAYER
 49
-0.5
 62
256
  6
BYLAYER
  0
LAYOUT
  5
37B
102
{ACAD_REACTORS
330
1A
102
}
100
AcDbPlotSettings
  1

  2
none_device
  4
ANSI_C_(22.00_x_17.00_Inches)
  6

 40
0.0
 41
0.0
 42
0.0
 43
0.0
 44
558.8
 45
431.8
 46
0.0
 47
0.0
 48
0.0
 49
0.0
140
0.0
141
0.0
142
1.0
143
1.0
 70
1024
 72
0
 73
0
 74
0
  7

 75
0
147
1.0
148
0.0
149
0.0
100
AcDbLayout
  1
Model
 70
0
 71
0
 10
0.0
 20
0.0
 11
22.0
 21
17.0
 12
0.0
 22
0.0
 32
0.0
 14
0.0
 24
0.0
 34
0.0
 15
0.0
 25
0.0
 35
0.0
146
0.0
 13
0.0
 23
0.0
 33
0.0
 16
1.0
 26
0.0
 36
0.0
 17
0.0
 27
1.0
 37
0.0
 76
0
330
207
345
0
346
0
  0
LAYOUT
  5
37C
102
{ACAD_REACTORS
330
1A
102
}
100
AcDbPlotSettings
  1

  2
none_device
  4
ANSI_C_(22.00_x_17.00_Inches)
  6

 40
0.0
 41
0.0
 42
0.0
 43
0.0
 44
558.8
 45
431.8
 46
0.0
 47
0.0
 48
0.0
 49
0.0
140
0.0
141
0.0
142
1.0
143
1.0
 70
0
 72
0
 73
0
 74
0
  7

 75
0
147
1.0
148
0.0
149
0.0
100
AcDbLayout
  1
Layout1
 70
0
 71
1
 10
0.0
 20
0.0
 11
22.0
 21
17.0
 12
0.0
 22
0.0
 32
0.0
 14
0.0
 24
0.0
 34
0.0
 15
0.0
 25
0.0
 35
0.0
146
0.0
 13
0.0
 23
0.0
 33
0.0
 16
1.0
 26
0.0
 36
0.0
 17
0.0
 27
1.0
 37
0.0
 76
0
330
208
345
0
346
0
  0
IMAGEDEF
  5
37D
102
{ACAD_REACTORS
330
378
330
377
102
}
100
AcDbRasterImageDef
 90
0
  1
BK9_assy_2_img_1.png
 10
369.0
 20
92.0
 11
0.0066666667
 21
0.0066666667
280
1
281
0
  0
TABLESTYLE
  5
37E
102
{ACAD_REACTORS
330
37A
330
274
102
}
330
37A
100
AcDbTableStyle
  3
Standard
 70
0
 71
0
 40
0.06
 41
0.06
280
1
281
1
  7
Standard
140
0.18
170
1
 62
0
 63
7
283
0
  7
Standard
140
0.18
170
1
 62
0
 63
7
283
0
  7
Standard
140
0.18
170
1
 62
0
 63
7
283
0
  0
TABLESTYLE
  5
37F
102
{ACAD_REACTORS
330
37A
330
273
102
}
330
37A
100
AcDbTableStyle
  3
Standard1
 70
1
 71
0
 40
0.06
 41
0.06
280
1
281
1
  7
Standard
140
0.18
170
1
 62
0
 63
7
283
0
  7
Standard
140
0.18
170
1
 62
0
 63
7
283
0
  7
Standard
140
0.18
170
1
 62
0
 63
7
283
0
  0
ENDSEC
  0
EOF
