999
DXF file: BK8_assy_2.dxf
999
Pro/ENGINEER 2014200 by Parametric Technology Corporation
  0
SECTION
  2
HEADER
  9
$ACADVER
  1
AC1021
  9
$DWGCODEPAGE
  3
ANSI_1252
  9
$EXTMAX
 10
22.0
 20
17.0
 30
0.0
  9
$EXTMIN
 10
0.0
 20
0.0
 30
0.0
  9
$LIMMIN
 10
0.0
 20
0.0
  9
$LIMMAX
 10
22.0
 20
17.0
  9
$VIEWCTR
 10
11.0
 20
8.5
  9
$VIEWSIZE
 40
17.0
  9
$CLAYER
  8
0
  9
$LTSCALE
 40
1.21
  9
$CELTYPE
  6
BYLAYER
  9
$DIMSCALE
 40
1.0
  9
$DIMASZ
 40
0.1875
  9
$DIMEXO
 40
0.0625
  9
$DIMDLI
 40
0.836
  9
$DIMEXE
 40
0.125
  9
$DIMCEN
 40
0.198
  9
$DIMLFAC
 40
1.0
  9
$DIMBLK
  1
_FILLED
  9
$DIMTXT
 40
0.1
  9
$DIMTOL
 70
0
  9
$DIMLIM
 70
0
  9
$DIMTFAC
 40
1.0
  9
$DIMGAP
 40
0.09
  9
$DIMDSEP
 70
46
  9
$AUNITS
 70
0
  9
$PDMODE
 70
3
  9
$PDSIZE
 40
0.3125
  9
$HANDSEED
  5
433
  9
$TILEMODE
 70
1
  9
$MEASUREMENT
 70
0
  9
$INSUNITS
 70
1
  0
ENDSEC
  0
SECTION
  2
CLASSES
  0
CLASS
  1
ACDBDICTIONARYWDFLT
  2
AcDbDictionaryWithDefault
  3
AutoCAD 2000
 90
0
 91
1
280
0
281
0
  0
CLASS
  1
ACDBPLACEHOLDER
  2
AcDbPlaceHolder
  3
AutoCAD 2000
 90
0
 91
1
280
0
281
0
  0
CLASS
  1
LAYOUT
  2
AcDbLayout
  3
AutoCAD 2000
 90
0
 91
0
280
0
281
0
  0
CLASS
  1
RASTERVARIABLES
  2
AcDbRasterVariables
  3
ISM
 90
0
 91
1
280
0
281
0
  0
CLASS
  1
IMAGEDEF
  2
AcDbRasterImageDef
  3
ISM
 90
0
 91
1
280
0
281
0
  0
CLASS
  1
IMAGEDEF_REACTOR
  2
AcDbRasterImageDefReactor
  3
ISM
 90
0
 91
1
280
0
281
0
  0
CLASS
  1
IMAGE
  2
AcDbRasterImage
  3
ISM
 90
127
 91
1
280
0
281
1
  0
CLASS
  1
TABLESTYLE
  2
AcDbTableStyle
  3
ObjectDBX Classes
 90
2047
 91
1
280
0
281
0
  0
CLASS
  1
ACAD_TABLE
  2
AcDbTable
  3
ObjectDBX Classes
 90
1025
 91
2
280
0
281
1
  0
ENDSEC
  0
SECTION
  2
TABLES
  0
TABLE
  2
VPORT
  5
8
100
AcDbSymbolTable
 70
2
  0
VPORT
  5
1F4
100
AcDbSymbolTableRecord
100
AcDbViewportTableRecord
  2
*ACTIVE
 70
0
 10
0.0
 20
0.0
 11
1.0
 21
1.0
 12
11.0
 22
8.5
 13
0.0
 23
0.0
 14
1.0
 24
1.0
 15
0.0
 25
0.0
 16
0.0
 26
0.0
 36
1.0
 17
0.0
 27
0.0
 37
0.0
 40
17.0
 41
1.2941176471
 42
50.0
 43
0.0
 44
0.0
 50
0.0
 51
0.0
 71
0
 72
100
 73
1
 74
1
 75
0
 76
0
 77
0
 78
0
  0
ENDTAB
  0
TABLE
  2
LTYPE
  5
5
100
AcDbSymbolTable
 70
6
  0
LTYPE
  5
14
100
AcDbSymbolTableRecord
100
AcDbLinetypeTableRecord
  2
BYBLOCK
 70
0
  3

 72
65
 73
0
 40
0.0
  0
LTYPE
  5
15
100
AcDbSymbolTableRecord
100
AcDbLinetypeTableRecord
  2
BYLAYER
 70
0
  3

 72
65
 73
0
 40
0.0
  0
LTYPE
  5
16
100
AcDbSymbolTableRecord
100
AcDbLinetypeTableRecord
  2
CONTINUOUS
 70
64
  3
Solid line
 72
65
 73
0
 40
0.0
  0
LTYPE
  5
1F5
100
AcDbSymbolTableRecord
100
AcDbLinetypeTableRecord
  2
CENTER
 70
64
  3
____ _ ____ _ ____ _ ____ _ ____ _ ____ _ ____
 72
65
 73
4
 40
0.6
 49
0.375
 74
0
 49
-0.075
 74
0
 49
0.075
 74
0
 49
-0.075
 74
0
  0
LTYPE
  5
1F6
100
AcDbSymbolTableRecord
100
AcDbLinetypeTableRecord
  2
HIDDEN
 70
64
  3
- - - - - - - - - - - - - - - - - - - -
 72
65
 73
2
 40
0.2
 49
0.1
 74
0
 49
-0.1
 74
0
  0
LTYPE
  5
1F7
100
AcDbSymbolTableRecord
100
AcDbLinetypeTableRecord
  2
PHANTOM
 70
64
  3
_____ _ _ _____ _ _ _____ _ _ _____
 72
65
 73
6
 40
0.8
 49
0.45
 74
0
 49
-0.05
 74
0
 49
0.1
 74
0
 49
-0.05
 74
0
 49
0.1
 74
0
 49
-0.05
 74
0
  0
LTYPE
  5
1F8
100
AcDbSymbolTableRecord
100
AcDbLinetypeTableRecord
  2
DOT
 70
64
  3
. . . . . . . . . . . . . . . . . . . .
 72
65
 73
2
 40
0.2
 49
0.1
 74
0
 49
-0.1
 74
0
  0
LTYPE
  5
1F9
100
AcDbSymbolTableRecord
100
AcDbLinetypeTableRecord
  2
DASHED
 70
64
  3
- - - - - - - - - - - - - - - - - - - -
 72
65
 73
2
 40
0.2
 49
0.1
 74
0
 49
-0.1
 74
0
  0
ENDTAB
  0
TABLE
  2
LAYER
  5
2
100
AcDbSymbolTable
 70
36
  0
LAYER
  5
10
100
AcDbSymbolTableRecord
100
AcDbLayerTableRecord
  2
0
 70
0
 62
7
  6
CONTINUOUS
370
-3
390
F
  0
LAYER
  5
1FA
100
AcDbSymbolTableRecord
100
AcDbLayerTableRecord
  2
DEFAULT_1
 70
0
 62
7
  6
CENTER
370
-3
390
F
  0
LAYER
  5
1FB
100
AcDbSymbolTableRecord
100
AcDbLayerTableRecord
  2
DEFAULT_2
 70
0
 62
8
  6
HIDDEN
370
-3
390
F
  0
LAYER
  5
1FC
100
AcDbSymbolTableRecord
100
AcDbLayerTableRecord
  2
DEFAULT_3
 70
0
 62
7
  6
PHANTOM
370
-3
390
F
  0
LAYER
  5
1FD
100
AcDbSymbolTableRecord
100
AcDbLayerTableRecord
  2
01___PRT_ALL_DTM_PLN
 70
0
 62
7
  6
CONTINUOUS
370
-3
390
F
  0
LAYER
  5
1FE
100
AcDbSymbolTableRecord
100
AcDbLayerTableRecord
  2
01___PRT_DEF_DTM_PLN
 70
0
 62
7
  6
CONTINUOUS
370
-3
390
F
  0
LAYER
  5
1FF
100
AcDbSymbolTableRecord
100
AcDbLayerTableRecord
  2
02___PRT_ALL_AXES
 70
0
 62
7
  6
CONTINUOUS
370
-3
390
F
  0
LAYER
  5
200
100
AcDbSymbolTableRecord
100
AcDbLayerTableRecord
  2
03___PRT_ALL_CURVES
 70
0
 62
7
  6
CONTINUOUS
370
-3
390
F
  0
LAYER
  5
201
100
AcDbSymbolTableRecord
100
AcDbLayerTableRecord
  2
04___PRT_ALL_DTM_PNT
 70
0
 62
7
  6
CONTINUOUS
370
-3
390
F
  0
LAYER
  5
202
100
AcDbSymbolTableRecord
100
AcDbLayerTableRecord
  2
05___PRT_ALL_DTM_CSYS
 70
0
 62
7
  6
CONTINUOUS
370
-3
390
F
  0
LAYER
  5
203
100
AcDbSymbolTableRecord
100
AcDbLayerTableRecord
  2
05___PRT_DEF_DTM_CSYS
 70
0
 62
7
  6
CONTINUOUS
370
-3
390
F
  0
LAYER
  5
204
100
AcDbSymbolTableRecord
100
AcDbLayerTableRecord
  2
06___PRT_ALL_SURFS
 70
0
 62
7
  6
CONTINUOUS
370
-3
390
F
  0
LAYER
  5
205
100
AcDbSymbolTableRecord
100
AcDbLayerTableRecord
  2
DATUM_PLANES
 70
0
 62
7
  6
CONTINUOUS
370
-3
390
F
  0
LAYER
  5
206
100
AcDbSymbolTableRecord
100
AcDbLayerTableRecord
  2
DIMENSIONS
 70
0
 62
7
  6
CONTINUOUS
370
-3
390
F
  0
LAYER
  5
207
100
AcDbSymbolTableRecord
100
AcDbLayerTableRecord
  2
PARAMETERDIMENSIONS
 70
0
 62
7
  6
CONTINUOUS
370
-3
390
F
  0
LAYER
  5
208
100
AcDbSymbolTableRecord
100
AcDbLayerTableRecord
  2
PLANE
 70
0
 62
7
  6
CONTINUOUS
370
-3
390
F
  0
LAYER
  5
209
100
AcDbSymbolTableRecord
100
AcDbLayerTableRecord
  2
PORT_AREAS
 70
0
 62
7
  6
CONTINUOUS
370
-3
390
F
  0
LAYER
  5
20A
100
AcDbSymbolTableRecord
100
AcDbLayerTableRecord
  2
SUNNBOMCOSMETIC
 70
0
 62
7
  6
CONTINUOUS
370
-3
390
F
  0
LAYER
  5
20B
100
AcDbSymbolTableRecord
100
AcDbLayerTableRecord
  2
SUNNBOMSTAMPING
 70
0
 62
7
  6
CONTINUOUS
370
-3
390
F
  0
LAYER
  5
20C
100
AcDbSymbolTableRecord
100
AcDbLayerTableRecord
  2
THREADS
 70
0
 62
7
  6
CONTINUOUS
370
-3
390
F
  0
ENDTAB
  0
TABLE
  2
STYLE
  5
3
100
AcDbSymbolTable
 70
1
  0
STYLE
  5
11
100
AcDbSymbolTableRecord
100
AcDbTextStyleTableRecord
  2
STANDARD
 70
0
 40
0.0
 41
0.8
 50
0.0
 71
0
 42
0.2
  3
txt
  4

  0
STYLE
  5
20D
100
AcDbSymbolTableRecord
100
AcDbTextStyleTableRecord
  2
TEXTSTYLE_1
 70
0
 40
0.0
 41
0.8
 50
0.0
 71
0
 42
0.2
  3
gdt
  4

  0
ENDTAB
  0
TABLE
  2
VIEW
  5
6
100
AcDbSymbolTable
 70
0
  0
ENDTAB
  0
TABLE
  2
UCS
  5
7
100
AcDbSymbolTable
 70
0
  0
ENDTAB
  0
TABLE
  2
APPID
  5
9
100
AcDbSymbolTable
 70
1
  0
APPID
  5
20E
100
AcDbSymbolTableRecord
100
AcDbRegAppTableRecord
  2
ACAD
 70
0
  0
ENDTAB
  0
TABLE
  2
BLOCK_RECORD
  5
1
100
AcDbSymbolTable
 70
0
  0
BLOCK_RECORD
  5
20F
100
AcDbSymbolTableRecord
100
AcDbBlockTableRecord
  2
*Model_Space
  0
BLOCK_RECORD
  5
210
100
AcDbSymbolTableRecord
100
AcDbBlockTableRecord
  2
*Paper_Space
  0
BLOCK_RECORD
  5
211
100
AcDbSymbolTableRecord
100
AcDbBlockTableRecord
  2
SUN_FIRST_THIRD_ANGLE_BL0
  0
BLOCK_RECORD
  5
212
100
AcDbSymbolTableRecord
100
AcDbBlockTableRecord
  2
*T1
  0
BLOCK_RECORD
  5
213
100
AcDbSymbolTableRecord
100
AcDbBlockTableRecord
  2
*T2
  0
ENDTAB
  0
TABLE
  2
DIMSTYLE
  5
A
100
AcDbSymbolTable
 70
1
100
AcDbDimStyleTable
 71
0
  0
DIMSTYLE
105
214
100
AcDbSymbolTableRecord
100
AcDbDimStyleTableRecord
  2
STANDARD
 70
0
  3

  4

 40
1.0
 41
0.1875
 42
0.0625
 43
0.38
 44
0.125
 45
0.0
 46
0.0
 47
0.001
 48
0.001
140
0.1
141
0.09
142
0.0
143
25.4
144
1.0
145
0.0
146
1.0
147
0.09
 71
0.0
 72
0.0
 73
1
 74
1
 75
0
 76
0
 77
0
 78
4
170
0
171
2
172
0
173
0
174
0
175
0
176
0
177
0
178
0
270
2
271
3
272
3
273
2
274
2
275
0
280
0
281
0
282
0
283
1
284
4
285
0
286
0
287
3
288
0
340
11
278
46
  0
ENDTAB
  0
ENDSEC
  0
SECTION
  2
BLOCKS
  0
BLOCK
  5
20
100
AcDbEntity
  8
0
100
AcDbBlockBegin
  2
*Model_Space
 70
0
 10
0.0
 20
0.0
 30
0.0
  3
*Model_Space
  1

  0
ENDBLK
  5
21
100
AcDbEntity
  8
0
100
AcDbBlockEnd
  0
BLOCK
  5
1C
100
AcDbEntity
  8
0
100
AcDbBlockBegin
  2
*Paper_Space
 70
0
 10
0.0
 20
0.0
 30
0.0
  3
*Paper_Space
  1

  0
ENDBLK
  5
1D
100
AcDbEntity
  8
0
100
AcDbBlockEnd
  0
BLOCK
  5
215
100
AcDbEntity
  8
0
100
AcDbBlockBegin
 62
2
  6
CONTINUOUS
  2
SUN_FIRST_THIRD_ANGLE_BL0
 70
64
 10
20.4816717061
 20
1.2289683772
  3
SUN_FIRST_THIRD_ANGLE_BL0
  1

  0
TEXT
  5
216
100
AcDbEntity
  8
0
100
AcDbText
 62
2
  6
CONTINUOUS
 10
19.4750896608
 20
1.4136269581
  7
STANDARD
 40
0.08
  1
FIRST ANGLE
 41
0.8
 72
0
100
AcDbText
  0
TEXT
  5
217
100
AcDbEntity
  8
0
100
AcDbText
 62
2
  6
CONTINUOUS
 10
20.7842537513
 20
1.4047600029
  7
STANDARD
 40
0.08
  1
THIRD ANGLE
 41
0.8
 72
0
100
AcDbText
  0
LINE
  5
218
100
AcDbEntity
  8
0
100
AcDbLine
 62
7
  6
CONTINUOUS
 10
19.4767170086
 20
1.1727031207
 11
19.6334271527
 21
1.1717972817
  0
LINE
  5
219
100
AcDbEntity
  8
0
100
AcDbLine
 62
7
  6
CONTINUOUS
 10
19.6596964832
 20
1.1717972817
 11
19.6950230232
 21
1.171593082
  0
LINE
  5
21A
100
AcDbEntity
  8
0
100
AcDbLine
 62
7
  6
CONTINUOUS
 10
19.7194818561
 20
1.1708914427
 11
19.8852396156
 21
1.1699333054
  0
LINE
  5
21B
100
AcDbEntity
  8
0
100
AcDbLine
 62
7
  6
CONTINUOUS
 10
19.4758111696
 20
1.2723454088
 11
19.88525039
 21
1.3511534004
  0
LINE
  5
21C
100
AcDbEntity
  8
0
100
AcDbLine
 62
7
  6
CONTINUOUS
 10
19.88525039
 20
1.3511534004
 11
19.8831348489
 21
0.9851647912
  0
LINE
  5
21D
100
AcDbEntity
  8
0
100
AcDbLine
 62
7
  6
CONTINUOUS
 10
19.8831348489
 20
0.9851647912
 11
19.4767170086
 21
1.0658141206
  0
LINE
  5
21E
100
AcDbEntity
  8
0
100
AcDbLine
 62
7
  6
CONTINUOUS
 10
19.4767170086
 20
1.0658141206
 11
19.4779056764
 21
1.2714536432
  0
CIRCLE
  5
21F
100
AcDbEntity
  8
0
100
AcDbCircle
 62
7
  6
CONTINUOUS
 10
20.2068232291
 20
1.1717972817
 40
0.175742101
  0
CIRCLE
  5
220
100
AcDbEntity
  8
0
100
AcDbCircle
 62
7
  6
CONTINUOUS
 10
20.2068232291
 20
1.1717972817
 40
0.1005522074
  0
LINE
  5
221
100
AcDbEntity
  8
0
100
AcDbLine
 62
7
  6
CONTINUOUS
 10
20.2077290681
 20
1.3756110529
 11
20.2071171714
 21
1.2379342989
  0
LINE
  5
222
100
AcDbEntity
  8
0
100
AcDbLine
 62
7
  6
CONTINUOUS
 10
20.2077290681
 20
1.2016899681
 11
20.2074674401
 21
1.1428236749
  0
LINE
  5
223
100
AcDbEntity
  8
0
100
AcDbLine
 62
7
  6
CONTINUOUS
 10
20.208634907
 20
1.101141841
 11
20.2080230104
 21
0.963465087
  0
LINE
  5
224
100
AcDbEntity
  8
0
100
AcDbLine
 62
7
  6
CONTINUOUS
 10
20.0066328138
 20
1.1745147986
 11
20.1443095678
 21
1.1739029019
  0
LINE
  5
225
100
AcDbEntity
  8
0
100
AcDbLine
 62
7
  6
CONTINUOUS
 10
20.1832714155
 20
1.1727031207
 11
20.238153505
 21
1.172335442
  0
LINE
  5
226
100
AcDbEntity
  8
0
100
AcDbLine
 62
7
  6
CONTINUOUS
 10
20.2756669918
 20
1.1717972817
 11
20.407916871
 21
1.1712095044
  0
CIRCLE
  5
227
100
AcDbEntity
  8
0
100
AcDbCircle
 62
7
  6
CONTINUOUS
 10
20.7509457401
 20
1.1693297793
 40
0.1722024983
  0
CIRCLE
  5
228
100
AcDbEntity
  8
0
100
AcDbCircle
 62
7
  6
CONTINUOUS
 10
20.7509457401
 20
1.1693297793
 40
0.0985164967
  0
LINE
  5
229
100
AcDbEntity
  8
0
100
AcDbLine
 62
7
  6
CONTINUOUS
 10
20.7169767782
 20
1.170462078
 11
20.7825395137
 21
1.1682766535
  0
LINE
  5
22A
100
AcDbEntity
  8
0
100
AcDbLine
 62
7
  6
CONTINUOUS
 10
20.8177513651
 20
1.1693297793
 11
20.947965719
 21
1.1693297793
  0
LINE
  5
22B
100
AcDbEntity
  8
0
100
AcDbLine
 62
7
  6
CONTINUOUS
 10
20.6875370113
 20
1.170462078
 11
20.5573226574
 21
1.170462078
  0
LINE
  5
22C
100
AcDbEntity
  8
0
100
AcDbLine
 62
7
  6
CONTINUOUS
 10
20.7486811426
 20
1.1987695462
 11
20.7486811426
 21
1.1432869085
  0
LINE
  5
22D
100
AcDbEntity
  8
0
100
AcDbLine
 62
7
  6
CONTINUOUS
 10
20.7498134414
 20
1.1059210505
 11
20.7498134414
 21
0.9757066966
  0
LINE
  5
22E
100
AcDbEntity
  8
0
100
AcDbLine
 62
7
  6
CONTINUOUS
 10
20.7486811426
 20
1.2338708068
 11
20.7486811426
 21
1.3640851607
  0
LINE
  5
22F
100
AcDbEntity
  8
0
100
AcDbLine
 62
7
  6
CONTINUOUS
 10
21.0702539817
 20
1.2701043662
 11
21.4790138229
 21
1.3448360823
  0
LINE
  5
230
100
AcDbEntity
  8
0
100
AcDbLine
 62
7
  6
CONTINUOUS
 10
21.4790138229
 20
1.3448360823
 11
21.4790138229
 21
0.9779712941
  0
LINE
  5
231
100
AcDbEntity
  8
0
100
AcDbLine
 62
7
  6
CONTINUOUS
 10
21.4790138229
 20
0.9779712941
 11
21.069121683
 21
1.0617614
  0
LINE
  5
232
100
AcDbEntity
  8
0
100
AcDbLine
 62
7
  6
CONTINUOUS
 10
21.0702539817
 20
1.2701043662
 11
21.069121683
 21
1.0617614
  0
LINE
  5
233
100
AcDbEntity
  8
0
100
AcDbLine
 62
7
  6
CONTINUOUS
 10
21.4790138229
 20
1.1693297793
 11
21.3159628059
 21
1.1693297793
  0
LINE
  5
234
100
AcDbEntity
  8
0
100
AcDbLine
 62
7
  6
CONTINUOUS
 10
21.2876553377
 20
1.1693297793
 11
21.2502894796
 21
1.1693297793
  0
LINE
  5
235
100
AcDbEntity
  8
0
100
AcDbLine
 62
7
  6
CONTINUOUS
 10
21.2208497126
 20
1.1659328831
 11
21.0713862804
 21
1.1659328831
  0
LINE
  5
236
100
AcDbEntity
  8
0
100
AcDbLine
 62
7
  6
CONTINUOUS
 10
20.4796138713
 20
1.5284908897
 11
20.4766766948
 21
0.9294458646
  0
ENDBLK
  5
237
100
AcDbEntity
  8
0
  6
BYBLOCK
 62
0
100
AcDbBlockEnd
  0
BLOCK
  5
238
100
AcDbEntity
  8
0
100
AcDbBlockBegin
  2
*T1
 70
1
 10
0.0
 20
0.0
  3
*T1
  1

  0
LINE
  5
239
100
AcDbEntity
  8
0
100
AcDbLine
 62
2
  6
CONTINUOUS
 10
9.275
 20
0.0
 11
-0.0
 21
0.0
  0
LINE
  5
23A
100
AcDbEntity
  8
0
100
AcDbLine
 62
2
  6
CONTINUOUS
 10
9.275
 20
0.0
 11
9.275
 21
1.25
  0
LINE
  5
23B
100
AcDbEntity
  8
0
100
AcDbLine
 62
2
  6
CONTINUOUS
 10
9.275
 20
0.625
 11
-0.0
 21
0.625
  0
LINE
  5
23C
100
AcDbEntity
  8
0
100
AcDbLine
 62
2
  6
CONTINUOUS
 10
9.275
 20
1.25
 11
-0.0
 21
1.25
  0
LINE
  5
23D
100
AcDbEntity
  8
0
100
AcDbLine
 62
2
  6
CONTINUOUS
 10
6.8
 20
0.0
 11
6.8
 21
1.25
  0
LINE
  5
23E
100
AcDbEntity
  8
0
100
AcDbLine
 62
2
  6
CONTINUOUS
 10
6.4
 20
0.0
 11
6.4
 21
0.625
  0
LINE
  5
23F
100
AcDbEntity
  8
0
100
AcDbLine
 62
2
  6
CONTINUOUS
 10
5.9
 20
0.0
 11
5.9
 21
0.625
  0
LINE
  5
240
100
AcDbEntity
  8
0
100
AcDbLine
 62
2
  6
CONTINUOUS
 10
5.2
 20
0.0
 11
5.2
 21
0.625
  0
LINE
  5
241
100
AcDbEntity
  8
0
100
AcDbLine
 62
2
  6
CONTINUOUS
 10
4.1
 20
0.0
 11
4.1
 21
1.25
  0
LINE
  5
242
100
AcDbEntity
  8
0
100
AcDbLine
 62
2
  6
CONTINUOUS
 10
-0.0
 20
0.0
 11
-0.0
 21
1.25
  0
MTEXT
  5
243
100
AcDbEntity
  8
0
100
AcDbMText
 62
2
  6
CONTINUOUS
  7
STANDARD
 71
2
 72
1
 10
6.6
 20
0.325
 30
0.0
 11
1.0
 21
0.0
 31
0.0
 44
0.9
  1
2
 40
0.125
 41
0.2
  0
MTEXT
  5
244
100
AcDbEntity
  8
0
100
AcDbMText
 62
2
  6
CONTINUOUS
  7
STANDARD
 71
2
 72
1
 10
6.15
 20
0.325
 30
0.0
 11
1.0
 21
0.0
 31
0.0
 44
0.9
  1
C
 40
0.125
 41
0.2
  0
MTEXT
  5
245
100
AcDbEntity
  8
0
100
AcDbMText
 62
2
  6
CONTINUOUS
  7
STANDARD
 71
2
 72
1
 10
5.55
 20
0.325
 30
0.0
 11
1.0
 21
0.0
 31
0.0
 44
0.9
  1
0.800
 40
0.125
 41
1.0
  0
MTEXT
  5
246
100
AcDbEntity
  8
0
100
AcDbMText
 62
2
  6
CONTINUOUS
  7
STANDARD
 71
2
 72
1
 10
4.65
 20
0.325
 30
0.0
 11
1.0
 21
0.0
 31
0.0
 44
0.9
  1
Oct-16-19
 40
0.125
 41
1.8
  0
MTEXT
  5
247
100
AcDbEntity
  8
0
100
AcDbMText
 62
2
  6
CONTINUOUS
  7
STANDARD
 71
2
 72
1
 10
2.05
 20
0.4625
 30
0.0
 11
1.0
 21
0.0
 31
0.0
 44
0.9
  1
T-17A Sandwich ISO 07\PCushion lock
 40
0.125
 41
4.2
  0
MTEXT
  5
248
100
AcDbEntity
  8
0
100
AcDbMText
 62
2
  6
CONTINUOUS
  7
STANDARD
 71
1
 72
1
 10
6.45
 20
0.5625
 30
0.0
 11
1.0
 21
0.0
 31
0.0
 44
0.9
  1
SHEET
 40
0.06
 41
0.48
  0
MTEXT
  5
249
100
AcDbEntity
  8
0
100
AcDbMText
 62
2
  6
CONTINUOUS
  7
STANDARD
 71
1
 72
1
 10
5.95
 20
0.5625
 30
0.0
 11
1.0
 21
0.0
 31
0.0
 44
0.9
  1
DWG SIZE
 40
0.06
 41
0.768
  0
MTEXT
  5
24A
100
AcDbEntity
  8
0
100
AcDbMText
 62
2
  6
CONTINUOUS
  7
STANDARD
 71
1
 72
1
 10
5.25
 20
0.5625
 30
0.0
 11
1.0
 21
0.0
 31
0.0
 44
0.9
  1
SCALE
 40
0.06
 41
0.48
  0
MTEXT
  5
24B
100
AcDbEntity
  8
0
100
AcDbMText
 62
2
  6
CONTINUOUS
  7
STANDARD
 71
1
 72
1
 10
4.15
 20
0.5625
 30
0.0
 11
1.0
 21
0.0
 31
0.0
 44
0.9
  1
DATE
 40
0.06
 41
0.384
  0
MTEXT
  5
24C
100
AcDbEntity
  8
0
100
AcDbMText
 62
2
  6
CONTINUOUS
  7
STANDARD
 71
1
 72
1
 10
0.05
 20
0.5625
 30
0.0
 11
1.0
 21
0.0
 31
0.0
 44
0.9
  1
DESCRIPTION
 40
0.06
 41
1.056
  0
MTEXT
  5
24D
100
AcDbEntity
  8
0
100
AcDbMText
 62
2
  6
CONTINUOUS
  7
STANDARD
 71
2
 72
1
 10
5.45
 20
1.0375
 30
0.0
 11
1.0
 21
0.0
 31
0.0
 44
0.9
  1
ALL DIMENSIONS IN INCH\PVIEWS ARE THIRD ANGLE
 40
0.12
 41
4.224
  0
MTEXT
  5
24E
100
AcDbEntity
  8
0
100
AcDbMText
 62
2
  6
CONTINUOUS
  7
STANDARD
 71
2
 72
1
 10
2.05
 20
0.95
 30
0.0
 11
1.0
 21
0.0
 31
0.0
 44
0.9
  1
BK8
 40
0.125
 41
0.6
  0
MTEXT
  5
24F
100
AcDbEntity
  8
0
100
AcDbMText
 62
2
  6
CONTINUOUS
  7
STANDARD
 71
1
 72
1
 10
0.05
 20
1.1875
 30
0.0
 11
1.0
 21
0.0
 31
0.0
 44
0.9
  1
MODEL
 40
0.06
 41
0.48
  0
ENDBLK
  5
250
100
AcDbEntity
  8
0
  6
BYBLOCK
 62
0
100
AcDbBlockEnd
  0
BLOCK
  5
251
100
AcDbEntity
  8
0
100
AcDbBlockBegin
  2
*T2
 70
1
 10
0.0
 20
0.0
  3
*T2
  1

  0
LINE
  5
252
100
AcDbEntity
  8
0
100
AcDbLine
 62
2
  6
CONTINUOUS
 10
0.0
 20
0.0
 11
9.055
 21
0.0
  0
LINE
  5
253
100
AcDbEntity
  8
0
100
AcDbLine
 62
2
  6
CONTINUOUS
 10
0.0
 20
0.0
 11
0.0
 21
-2.344
  0
LINE
  5
254
100
AcDbEntity
  8
0
100
AcDbLine
 62
2
  6
CONTINUOUS
 10
0.0
 20
-0.344
 11
9.055
 21
-0.344
  0
LINE
  5
255
100
AcDbEntity
  8
0
100
AcDbLine
 62
2
  6
CONTINUOUS
 10
0.0
 20
-0.594
 11
9.055
 21
-0.594
  0
LINE
  5
256
100
AcDbEntity
  8
0
100
AcDbLine
 62
2
  6
CONTINUOUS
 10
0.0
 20
-0.844
 11
9.055
 21
-0.844
  0
LINE
  5
257
100
AcDbEntity
  8
0
100
AcDbLine
 62
2
  6
CONTINUOUS
 10
0.0
 20
-1.094
 11
9.055
 21
-1.094
  0
LINE
  5
258
100
AcDbEntity
  8
0
100
AcDbLine
 62
2
  6
CONTINUOUS
 10
0.0
 20
-1.344
 11
9.055
 21
-1.344
  0
LINE
  5
259
100
AcDbEntity
  8
0
100
AcDbLine
 62
2
  6
CONTINUOUS
 10
0.0
 20
-1.594
 11
9.055
 21
-1.594
  0
LINE
  5
25A
100
AcDbEntity
  8
0
100
AcDbLine
 62
2
  6
CONTINUOUS
 10
0.0
 20
-1.844
 11
9.055
 21
-1.844
  0
LINE
  5
25B
100
AcDbEntity
  8
0
100
AcDbLine
 62
2
  6
CONTINUOUS
 10
0.0
 20
-2.094
 11
9.055
 21
-2.094
  0
LINE
  5
25C
100
AcDbEntity
  8
0
100
AcDbLine
 62
2
  6
CONTINUOUS
 10
0.0
 20
-2.344
 11
9.055
 21
-2.344
  0
LINE
  5
25D
100
AcDbEntity
  8
0
100
AcDbLine
 62
2
  6
CONTINUOUS
 10
3.055
 20
0.0
 11
3.055
 21
-2.344
  0
LINE
  5
25E
100
AcDbEntity
  8
0
100
AcDbLine
 62
2
  6
CONTINUOUS
 10
9.055
 20
0.0
 11
9.055
 21
-2.344
  0
MTEXT
  5
25F
100
AcDbEntity
  8
0
100
AcDbMText
 62
2
  6
CONTINUOUS
  7
STANDARD
 71
2
 72
1
 10
1.5275
 20
-0.0995
 30
0.0
 11
1.0
 21
0.0
 31
0.0
 44
0.9
  1
Technical Data
 40
0.145
 41
3.248
  0
MTEXT
  5
260
100
AcDbEntity
  8
0
100
AcDbMText
 62
2
  6
CONTINUOUS
  7
STANDARD
 71
2
 72
1
 10
4.555
 20
-0.0995
 30
0.0
 11
1.0
 21
0.0
 31
0.0
 44
0.9
  1
U.S. Units
 40
0.145
 41
2.32
  0
MTEXT
  5
261
100
AcDbEntity
  8
0
100
AcDbMText
 62
2
  6
CONTINUOUS
  7
STANDARD
 71
2
 72
1
 10
7.555
 20
-0.0995
 30
0.0
 11
1.0
 21
0.0
 31
0.0
 44
0.9
  1
Metric Units
 40
0.145
 41
2.784
  0
MTEXT
  5
262
100
AcDbEntity
  8
0
100
AcDbMText
 62
2
  6
CONTINUOUS
  7
STANDARD
 71
2
 72
1
 10
1.5275
 20
-0.4065
 30
0.0
 11
1.0
 21
0.0
 31
0.0
 44
0.9
  1
Cavity
 40
0.125
 41
1.2
  0
MTEXT
  5
263
100
AcDbEntity
  8
0
100
AcDbMText
 62
2
  6
CONTINUOUS
  7
STANDARD
 71
2
 72
1
 10
6.055
 20
-0.4065
 30
0.0
 11
1.0
 21
0.0
 31
0.0
 44
0.9
  1
T-17A
 40
0.125
 41
1.0
  0
MTEXT
  5
264
100
AcDbEntity
  8
0
100
AcDbMText
 62
2
  6
CONTINUOUS
  7
STANDARD
 71
2
 72
1
 10
1.5275
 20
-0.6565
 30
0.0
 11
1.0
 21
0.0
 31
0.0
 44
0.9
  1
Body Features
 40
0.125
 41
2.6
  0
MTEXT
  5
265
100
AcDbEntity
  8
0
100
AcDbMText
 62
2
  6
CONTINUOUS
  7
STANDARD
 71
2
 72
1
 10
6.055
 20
-0.6565
 30
0.0
 11
1.0
 21
0.0
 31
0.0
 44
0.9
  1
Cushion lock
 40
0.125
 41
2.4
  0
MTEXT
  5
266
100
AcDbEntity
  8
0
100
AcDbMText
 62
2
  6
CONTINUOUS
  7
STANDARD
 71
2
 72
1
 10
1.5275
 20
-0.9065
 30
0.0
 11
1.0
 21
0.0
 31
0.0
 44
0.9
  1
Body Type
 40
0.125
 41
1.8
  0
MTEXT
  5
267
100
AcDbEntity
  8
0
100
AcDbMText
 62
2
  6
CONTINUOUS
  7
STANDARD
 71
2
 72
1
 10
6.055
 20
-0.9065
 30
0.0
 11
1.0
 21
0.0
 31
0.0
 44
0.9
  1
Sandwich
 40
0.125
 41
1.6
  0
MTEXT
  5
268
100
AcDbEntity
  8
0
100
AcDbMText
 62
2
  6
CONTINUOUS
  7
STANDARD
 71
2
 72
1
 10
1.5275
 20
-1.1565
 30
0.0
 11
1.0
 21
0.0
 31
0.0
 44
0.9
  1
Interface
 40
0.125
 41
1.8
  0
MTEXT
  5
269
100
AcDbEntity
  8
0
100
AcDbMText
 62
2
  6
CONTINUOUS
  7
STANDARD
 71
2
 72
1
 10
6.055
 20
-1.1565
 30
0.0
 11
1.0
 21
0.0
 31
0.0
 44
0.9
  1
ISO 07
 40
0.125
 41
1.2
  0
MTEXT
  5
26A
100
AcDbEntity
  8
0
100
AcDbMText
 62
2
  6
CONTINUOUS
  7
STANDARD
 71
2
 72
1
 10
1.5275
 20
-1.4065
 30
0.0
 11
1.0
 21
0.0
 31
0.0
 44
0.9
  1
Open Cavity Quantity
 40
0.125
 41
4.0
  0
MTEXT
  5
26B
100
AcDbEntity
  8
0
100
AcDbMText
 62
2
  6
CONTINUOUS
  7
STANDARD
 71
2
 72
1
 10
6.055
 20
-1.4065
 30
0.0
 11
1.0
 21
0.0
 31
0.0
 44
0.9
  1
2
 40
0.125
 41
0.2
  0
MTEXT
  5
26C
100
AcDbEntity
  8
0
100
AcDbMText
 62
2
  6
CONTINUOUS
  7
STANDARD
 71
2
 72
1
 10
1.5275
 20
-1.6565
 30
0.0
 11
1.0
 21
0.0
 31
0.0
 44
0.9
  1
Stack Height
 40
0.125
 41
2.4
  0
MTEXT
  5
26D
100
AcDbEntity
  8
0
100
AcDbMText
 62
2
  6
CONTINUOUS
  7
STANDARD
 71
2
 72
1
 10
4.555
 20
-1.6565
 30
0.0
 11
1.0
 21
0.0
 31
0.0
 44
0.9
  1
4.33 in.
 40
0.125
 41
1.6
  0
MTEXT
  5
26E
100
AcDbEntity
  8
0
100
AcDbMText
 62
2
  6
CONTINUOUS
  7
STANDARD
 71
2
 72
1
 10
7.555
 20
-1.6565
 30
0.0
 11
1.0
 21
0.0
 31
0.0
 44
0.9
  1
110 mm
 40
0.125
 41
1.2
  0
MTEXT
  5
26F
100
AcDbEntity
  8
0
100
AcDbMText
 62
2
  6
CONTINUOUS
  7
STANDARD
 71
2
 72
1
 10
1.5275
 20
-1.9065
 30
0.0
 11
1.0
 21
0.0
 31
0.0
 44
0.9
  1
Weight
 40
0.125
 41
1.2
  0
MTEXT
  5
270
100
AcDbEntity
  8
0
100
AcDbMText
 62
2
  6
CONTINUOUS
  7
STANDARD
 71
2
 72
1
 10
4.555
 20
-1.9065
 30
0.0
 11
1.0
 21
0.0
 31
0.0
 44
0.9
  1
10.276 lb.
 40
0.125
 41
2.0
  0
MTEXT
  5
271
100
AcDbEntity
  8
0
100
AcDbMText
 62
2
  6
CONTINUOUS
  7
STANDARD
 71
2
 72
1
 10
7.555
 20
-1.9065
 30
0.0
 11
1.0
 21
0.0
 31
0.0
 44
0.9
  1
4,661 kg.
 40
0.125
 41
1.8
  0
MTEXT
  5
272
100
AcDbEntity
  8
0
100
AcDbMText
 62
2
  6
CONTINUOUS
  7
STANDARD
 71
2
 72
1
 10
1.5275
 20
-2.1565
 30
0.0
 11
1.0
 21
0.0
 31
0.0
 44
0.9
  1
Seal Plate Included (see notes)
 40
0.125
 41
6.2
  0
MTEXT
  5
273
100
AcDbEntity
  8
0
100
AcDbMText
 62
2
  6
CONTINUOUS
  7
STANDARD
 71
2
 72
1
 10
6.055
 20
-2.1565
 30
0.0
 11
1.0
 21
0.0
 31
0.0
 44
0.9
  1
Yes
 40
0.125
 41
0.6
  0
ENDBLK
  5
274
100
AcDbEntity
  8
0
  6
BYBLOCK
 62
0
100
AcDbBlockEnd
  0
ENDSEC
  0
SECTION
  2
ENTITIES
  0
IMAGE
  5
275
100
AcDbEntity
  8
0
100
AcDbRasterImage
 62
7
  6
CONTINUOUS
 10
19.2297077316
 20
0.3094318264
 30
0.0
 11
0.0066666667
 21
0.0
 31
0.0
 12
0.0
 22
0.0066666667
 32
0.0
 13
369.0
 23
92.0
340
       430
 70
9
280
0
281
50
282
50
283
0
360
       42A
 71
1
 91
2
 14
-0.5
 24
-0.5
 14
368.5
 24
91.5
  0
INSERT
  5
276
100
AcDbEntity
  8
0
100
AcDbBlockReference
 62
2
  6
CONTINUOUS
  2
SUN_FIRST_THIRD_ANGLE_BL0
 10
20.4816717061
 20
1.2289683772
  0
ACAD_TABLE
  5
277
100
AcDbEntity
  8
0
 62
2
  6
CONTINUOUS
100
AcDbBlockReference
  2
*T1
 10
12.42375
 20
0.30125
 30
0.0
100
AcDbTable
342
       432
343
212
 11
1.0
 21
0.0
 31
0.0
 90
6
 91
4
 92
6
 93
20
 94
0
 95
0
 96
0
 70
1
 41
0.0
141
0.525
141
0.1
141
0.525
141
0.1
142
4.1
142
1.1
142
0.7
142
0.5
142
0.4
142
2.475
171
1
172
0
173
0
174
0
175
1
176
1
 91
33
178
0
145
0.0
301
CELL_VALUE
 90
4
  1
T-17A Sandwich ISO 07\PCushion lock
304
ACVALUE_END
170
2
140
0.125
171
1
172
0
173
0
174
0
175
1
176
1
 91
33
178
0
145
0.0
301
CELL_VALUE
 90
4
  1
Oct-16-19
304
ACVALUE_END
170
5
140
0.125
171
1
172
0
173
0
174
0
175
1
176
1
 91
33
178
0
145
0.0
301
CELL_VALUE
 90
4
  1
0.800
304
ACVALUE_END
170
5
140
0.125
171
1
172
0
173
0
174
0
175
1
176
1
 91
33
178
0
145
0.0
301
CELL_VALUE
 90
4
  1
C
304
ACVALUE_END
170
5
140
0.125
171
1
172
0
173
0
174
0
175
1
176
1
 91
33
178
0
145
0.0
301
CELL_VALUE
 90
4
  1
2
304
ACVALUE_END
170
5
140
0.125
171
1
172
0
173
0
174
0
175
1
176
1
 91
33
178
0
145
0.0
301
CELL_VALUE
 90
4
  1
 
304
ACVALUE_END
170
1
140
0.125
171
1
172
0
173
0
174
0
175
1
176
1
 91
33
178
0
145
0.0
301
CELL_VALUE
 90
4
  1
DESCRIPTION
304
ACVALUE_END
170
1
140
0.06
171
1
172
0
173
0
174
0
175
1
176
1
 91
33
178
0
145
0.0
301
CELL_VALUE
 90
4
  1
DATE
304
ACVALUE_END
170
1
140
0.06
171
1
172
0
173
0
174
0
175
1
176
1
 91
33
178
0
145
0.0
301
CELL_VALUE
 90
4
  1
SCALE
304
ACVALUE_END
170
1
140
0.06
171
1
172
0
173
0
174
0
175
1
176
1
 91
33
178
0
145
0.0
301
CELL_VALUE
 90
4
  1
DWG SIZE
304
ACVALUE_END
170
1
140
0.06
171
1
172
0
173
0
174
0
175
1
176
1
 91
33
178
0
145
0.0
301
CELL_VALUE
 90
4
  1
SHEET
304
ACVALUE_END
170
1
140
0.06
171
1
172
0
173
0
174
0
175
1
176
1
 91
33
178
0
145
0.0
301
CELL_VALUE
 90
4
  1
 
304
ACVALUE_END
170
1
140
0.125
171
1
172
0
173
0
174
0
175
1
176
1
 91
33
178
0
145
0.0
301
CELL_VALUE
 90
4
  1
BK8
304
ACVALUE_END
170
5
140
0.125
171
1
172
0
173
0
174
0
175
4
176
1
 91
33
178
0
145
0.0
301
CELL_VALUE
 90
4
  1
ALL DIMENSIONS IN INCH\PVIEWS ARE THIRD ANGLE
304
ACVALUE_END
170
5
140
0.12
171
1
172
0
173
1
174
0
175
1
176
1
 91
1
178
0
145
0.0
170
1
171
1
172
0
173
1
174
0
175
1
176
1
 91
1
178
0
145
0.0
170
1
171
1
172
0
173
1
174
0
175
1
176
1
 91
1
178
0
145
0.0
170
5
171
1
172
0
173
0
174
0
175
1
176
1
 91
33
178
0
145
0.0
301
CELL_VALUE
 90
4
  1
 
304
ACVALUE_END
170
1
140
0.125
171
1
172
0
173
0
174
0
175
1
176
1
 91
33
178
0
145
0.0
301
CELL_VALUE
 90
4
  1
MODEL
304
ACVALUE_END
170
1
140
0.06
171
1
172
0
173
0
174
0
175
1
176
1
 91
33
178
0
145
0.0
301
CELL_VALUE
 90
4
  1
 
304
ACVALUE_END
170
1
140
0.125
171
1
172
0
173
0
174
0
175
1
176
1
 91
33
178
0
145
0.0
301
CELL_VALUE
 90
4
  1
 
304
ACVALUE_END
170
1
140
0.125
171
1
172
0
173
0
174
0
175
1
176
1
 91
33
178
0
145
0.0
301
CELL_VALUE
 90
4
  1
 
304
ACVALUE_END
170
1
140
0.125
171
1
172
0
173
0
174
0
175
1
176
1
 91
33
178
0
145
0.0
301
CELL_VALUE
 90
4
  1
 
304
ACVALUE_END
170
1
140
0.125
171
1
172
0
173
0
174
0
175
1
176
1
 91
33
178
0
145
0.0
301
CELL_VALUE
 90
4
  1
 
304
ACVALUE_END
170
1
140
0.125
  0
ACAD_TABLE
  5
278
100
AcDbEntity
  8
0
 62
2
  6
CONTINUOUS
100
AcDbBlockReference
  2
*T2
 10
12.4237499994
 20
16.47875
 30
0.0
100
AcDbTable
342
       431
343
213
 11
1.0
 21
0.0
 31
0.0
 90
22
 91
9
 92
3
 93
16
 94
0
 95
0
 96
0
 41
0.028
141
0.344
141
0.25
141
0.25
141
0.25
141
0.25
141
0.25
141
0.25
141
0.25
141
0.25
142
3.055
142
3.0
142
3.0
171
1
172
0
173
0
174
0
175
1
176
1
 91
33
178
0
145
0.0
301
CELL_VALUE
 90
4
  1
Technical Data
304
ACVALUE_END
170
5
140
0.145
171
1
172
0
173
0
174
0
175
1
176
1
 91
33
178
0
145
0.0
301
CELL_VALUE
 90
4
  1
U.S. Units
304
ACVALUE_END
170
5
140
0.145
171
1
172
0
173
0
174
0
175
1
176
1
 91
33
178
0
145
0.0
301
CELL_VALUE
 90
4
  1
Metric Units
304
ACVALUE_END
170
5
140
0.145
171
1
172
0
173
0
174
0
175
1
176
1
 91
33
178
0
145
0.0
301
CELL_VALUE
 90
4
  1
Cavity
304
ACVALUE_END
170
5
140
0.125
171
1
172
0
173
0
174
0
175
2
176
1
 91
33
178
0
145
0.0
301
CELL_VALUE
 90
4
  1
T-17A
304
ACVALUE_END
170
5
140
0.125
171
1
172
0
173
1
174
0
175
1
176
1
 91
1
178
0
145
0.0
170
1
171
1
172
0
173
0
174
0
175
1
176
1
 91
33
178
0
145
0.0
301
CELL_VALUE
 90
4
  1
Body Features
304
ACVALUE_END
170
5
140
0.125
171
1
172
0
173
0
174
0
175
2
176
1
 91
33
178
0
145
0.0
301
CELL_VALUE
 90
4
  1
Cushion lock
304
ACVALUE_END
170
5
140
0.125
171
1
172
0
173
1
174
0
175
1
176
1
 91
1
178
0
145
0.0
170
1
171
1
172
0
173
0
174
0
175
1
176
1
 91
33
178
0
145
0.0
301
CELL_VALUE
 90
4
  1
Body Type
304
ACVALUE_END
170
5
140
0.125
171
1
172
0
173
0
174
0
175
2
176
1
 91
33
178
0
145
0.0
301
CELL_VALUE
 90
4
  1
Sandwich
304
ACVALUE_END
170
5
140
0.125
171
1
172
0
173
1
174
0
175
1
176
1
 91
1
178
0
145
0.0
170
1
171
1
172
0
173
0
174
0
175
1
176
1
 91
33
178
0
145
0.0
301
CELL_VALUE
 90
4
  1
Interface
304
ACVALUE_END
170
5
140
0.125
171
1
172
0
173
0
174
0
175
2
176
1
 91
33
178
0
145
0.0
301
CELL_VALUE
 90
4
  1
ISO 07
304
ACVALUE_END
170
5
140
0.125
171
1
172
0
173
1
174
0
175
1
176
1
 91
1
178
0
145
0.0
170
1
171
1
172
0
173
0
174
0
175
1
176
1
 91
33
178
0
145
0.0
301
CELL_VALUE
 90
4
  1
Open Cavity Quantity
304
ACVALUE_END
170
5
140
0.125
171
1
172
0
173
0
174
0
175
2
176
1
 91
33
178
0
145
0.0
301
CELL_VALUE
 90
4
  1
2
304
ACVALUE_END
170
5
140
0.125
171
1
172
0
173
1
174
0
175
1
176
1
 91
1
178
0
145
0.0
170
1
171
1
172
0
173
0
174
0
175
1
176
1
 91
33
178
0
145
0.0
301
CELL_VALUE
 90
4
  1
Stack Height
304
ACVALUE_END
170
5
140
0.125
171
1
172
0
173
0
174
0
175
1
176
1
 91
33
178
0
145
0.0
301
CELL_VALUE
 90
4
  1
4.33 in.
304
ACVALUE_END
170
5
140
0.125
171
1
172
0
173
0
174
0
175
1
176
1
 91
33
178
0
145
0.0
301
CELL_VALUE
 90
4
  1
110 mm
304
ACVALUE_END
170
5
140
0.125
171
1
172
0
173
0
174
0
175
1
176
1
 91
33
178
0
145
0.0
301
CELL_VALUE
 90
4
  1
Weight
304
ACVALUE_END
170
5
140
0.125
171
1
172
0
173
0
174
0
175
1
176
1
 91
33
178
0
145
0.0
301
CELL_VALUE
 90
4
  1
10.276 lb.
304
ACVALUE_END
170
5
140
0.125
171
1
172
0
173
0
174
0
175
1
176
1
 91
33
178
0
145
0.0
301
CELL_VALUE
 90
4
  1
4,661 kg.
304
ACVALUE_END
170
5
140
0.125
171
1
172
0
173
0
174
0
175
1
176
1
 91
33
178
0
145
0.0
301
CELL_VALUE
 90
4
  1
Seal Plate Included (see notes)
304
ACVALUE_END
170
5
140
0.125
171
1
172
0
173
0
174
0
175
2
176
1
 91
33
178
0
145
0.0
301
CELL_VALUE
 90
4
  1
Yes
304
ACVALUE_END
170
5
140
0.125
171
1
172
0
173
1
174
0
175
1
176
1
 91
1
178
0
145
0.0
170
1
  0
MTEXT
  5
279
100
AcDbEntity
  8
0
100
AcDbMText
 62
2
  6
CONTINUOUS
  7
STANDARD
 71
1
 72
1
 10
0.52125
 20
5.75995
 30
0.0
 11
1.0
 21
0.0
 31
0.0
 44
0.6
  3
Notes\P \P1. Stack height value in technical\P   data table includes seal retainer\P   plate.\P2. Important: Carefully consider\P   the maximum system pressure. The\P   pressure rating of the manifold is\P   dependent on the manifold material,\P   wi
  3
th the port type/size a secondary\P   consideration. Manifolds\P   constructed of aluminum are not\P   rated for pressures higher than\P   3000 psi (210 bar), regardless of\P   the port type/size specified.\P3. Items without balloons are\P   shipped 
  1
loose.
 40
0.1
 41
3.04
  0
LINE
  5
27A
100
AcDbEntity
  8
0
100
AcDbLine
 62
7
  6
CONTINUOUS
 10
0.30125
 20
0.30125
 11
0.30125
 21
16.69875
  0
LINE
  5
27B
100
AcDbEntity
  8
0
100
AcDbLine
 62
7
  6
CONTINUOUS
 10
0.30125
 20
0.30125
 11
21.69875
 21
0.30125
  0
LINE
  5
27C
100
AcDbEntity
  8
0
100
AcDbLine
 62
7
  6
CONTINUOUS
 10
0.30125
 20
16.69875
 11
21.69875
 21
16.69875
  0
LINE
  5
27D
100
AcDbEntity
  8
0
100
AcDbLine
 62
7
  6
CONTINUOUS
 10
21.69875
 20
0.30125
 11
21.69875
 21
16.69875
  0
LINE
  5
27E
100
AcDbEntity
  8
0
100
AcDbLine
 62
7
  6
CONTINUOUS
 10
10.6183171204
 20
12.1933148559
 11
10.6433747382
 21
12.2056928394
  0
LINE
  5
27F
100
AcDbEntity
  8
0
100
AcDbLine
 62
7
  6
CONTINUOUS
 10
10.6183170616
 20
4.8065596151
 11
10.6433747382
 21
4.7941816027
  0
LINE
  5
280
100
AcDbEntity
  8
0
100
AcDbLine
 62
7
  6
CONTINUOUS
 10
9.4000272036
 20
11.42149707
 11
10.0406555754
 21
12.040296596
  0
LINE
  5
281
100
AcDbEntity
  8
0
100
AcDbLine
 62
7
  6
CONTINUOUS
 10
9.4239821656
 20
11.4437907496
 11
10.0646105373
 21
12.0625902756
  0
LINE
  5
282
100
AcDbEntity
  8
0
100
AcDbLine
 62
7
  6
CONTINUOUS
 10
10.0406555754
 20
12.040296596
 11
10.0417763264
 21
12.0413590223
  0
LINE
  5
283
100
AcDbEntity
  8
0
100
AcDbLine
 62
7
  6
CONTINUOUS
 10
10.0646105373
 20
12.0625902756
 11
10.065670871
 21
12.0635952198
  0
LINE
  5
284
100
AcDbEntity
  8
0
100
AcDbLine
 62
7
  6
CONTINUOUS
 10
10.0417763264
 20
12.0413590223
 11
10.0646013725
 21
12.0626001238
  0
LINE
  5
285
100
AcDbEntity
  8
0
100
AcDbLine
 62
7
  6
CONTINUOUS
 10
10.0646105373
 20
12.0625902756
 11
10.0406555754
 21
12.040296596
  0
LINE
  5
286
100
AcDbEntity
  8
0
100
AcDbLine
 62
7
  6
CONTINUOUS
 10
9.4239821656
 20
11.4437907496
 11
9.4000272036
 21
11.42149707
  0
LINE
  5
287
100
AcDbEntity
  8
0
100
AcDbLine
 62
7
  6
CONTINUOUS
 10
9.7243612412
 20
5.4169867842
 11
11.4151179078
 21
5.2997324112
  0
LINE
  5
288
100
AcDbEntity
  8
0
100
AcDbLine
 62
7
  6
CONTINUOUS
 10
9.7179425342
 20
5.4347417509
 11
11.4086992007
 21
5.3174873778
  0
LINE
  5
289
100
AcDbEntity
  8
0
100
AcDbLine
 62
7
  6
CONTINUOUS
 10
9.4011479547
 20
5.5159617989
 11
9.4250410958
 21
5.4937267228
  0
LINE
  5
28A
100
AcDbEntity
  8
0
100
AcDbLine
 62
7
  6
CONTINUOUS
 10
10.3337639749
 20
11.725988365
 11
10.3214320311
 21
11.7145121967
  0
LINE
  5
28B
100
AcDbEntity
  8
0
100
AcDbLine
 62
4
  6
CONTINUOUS
 10
10.1818135043
 20
11.4757996551
 11
10.1849193302
 21
11.4787996527
  0
LINE
  5
28C
100
AcDbEntity
  8
0
100
AcDbLine
 62
4
  6
CONTINUOUS
 10
10.2563533261
 20
11.5477995983
 11
10.259459152
 21
11.5507995959
  0
LINE
  5
28D
100
AcDbEntity
  8
0
100
AcDbLine
 62
4
  6
CONTINUOUS
 10
10.2607891177
 20
11.5040842453
 11
10.2483658141
 21
11.4920842548
  0
LINE
  5
28E
100
AcDbEntity
  8
0
100
AcDbLine
 62
4
  6
CONTINUOUS
 10
10.3521880347
 20
11.5443688261
 11
10.3490822088
 21
11.5413688284
  0
LINE
  5
28F
100
AcDbEntity
  8
0
100
AcDbLine
 62
4
  6
CONTINUOUS
 10
10.2776482129
 20
11.4723688828
 11
10.274542387
 21
11.4693688852
  0
LINE
  5
290
100
AcDbEntity
  8
0
100
AcDbLine
 62
7
  6
CONTINUOUS
 10
9.3847074809
 20
10.4186081826
 11
9.2077117495
 21
10.2476434245
  0
LINE
  5
291
100
AcDbEntity
  8
0
100
AcDbLine
 62
7
  6
CONTINUOUS
 10
9.7243612412
 20
5.4169867842
 11
9.7179425342
 21
5.4347417509
  0
LINE
  5
292
100
AcDbEntity
  8
0
100
AcDbLine
 62
7
  6
CONTINUOUS
 10
9.2077117495
 20
6.5771250671
 11
11.9123042234
 21
6.389560942
  0
LINE
  5
293
100
AcDbEntity
  8
0
100
AcDbLine
 62
7
  6
CONTINUOUS
 10
9.2077117495
 20
6.5771250671
 11
9.2077117495
 21
10.2476434245
  0
LINE
  5
294
100
AcDbEntity
  8
0
100
AcDbLine
 62
7
  6
CONTINUOUS
 10
9.7243612412
 20
11.3091346737
 11
9.7179425342
 21
11.2789797166
  0
LINE
  5
295
100
AcDbEntity
  8
0
100
AcDbLine
 62
7
  6
CONTINUOUS
 10
9.3847074809
 20
6.5648503714
 11
9.3847074809
 21
5.5471416648
  0
LINE
  5
296
100
AcDbEntity
  8
0
100
AcDbLine
 62
7
  6
CONTINUOUS
 10
9.3847074809
 20
10.3280884599
 11
9.3847074809
 21
11.3913796305
  0
LINE
  5
297
100
AcDbEntity
  8
0
100
AcDbLine
 62
7
  6
CONTINUOUS
 10
9.7179425342
 20
11.2789797166
 11
9.7179425342
 21
10.215688546
  0
LINE
  5
298
100
AcDbEntity
  8
0
100
AcDbLine
 62
7
  6
CONTINUOUS
 10
9.7179425342
 20
5.4347417509
 11
9.7179425342
 21
6.541740442
  0
LINE
  5
299
100
AcDbEntity
  8
0
100
AcDbLine
 62
7
  6
CONTINUOUS
 10
12.5760178344
 20
11.888423588
 11
11.9353894627
 21
11.269624062
  0
LINE
  5
29A
100
AcDbEntity
  8
0
100
AcDbLine
 62
7
  6
CONTINUOUS
 10
12.5999727964
 20
11.8628073438
 11
11.9593444246
 21
11.2440078179
  0
LINE
  5
29B
100
AcDbEntity
  8
0
100
AcDbLine
 62
7
  6
CONTINUOUS
 10
10.311368823
 20
11.6954270119
 11
10.311368823
 21
11.6473763346
  0
LINE
  5
29C
100
AcDbEntity
  8
0
100
AcDbLine
 62
7
  6
CONTINUOUS
 10
10.4591226999
 20
11.4042978162
 11
10.4591226999
 21
11.5387400506
  0
LINE
  5
29D
100
AcDbEntity
  8
0
100
AcDbLine
 62
7
  6
CONTINUOUS
 10
12.5999727964
 20
10.7995161733
 11
11.9593444246
 21
10.1807166473
  0
LINE
  5
29E
100
AcDbEntity
  8
0
100
AcDbLine
 62
7
  6
CONTINUOUS
 10
11.4151179078
 20
5.2997324112
 11
11.4086992007
 21
5.3174873778
  0
LINE
  5
29F
100
AcDbEntity
  8
0
100
AcDbLine
 62
7
  6
CONTINUOUS
 10
10.5304444335
 20
11.6036443922
 11
10.5304444335
 21
12.13985893
  0
LINE
  5
2A0
100
AcDbEntity
  8
0
100
AcDbLine
 62
7
  6
CONTINUOUS
 10
10.5304444907
 20
5.361084721
 11
10.5304444907
 21
4.8600154488
  0
LINE
  5
2A1
100
AcDbEntity
  8
0
100
AcDbLine
 62
7
  6
CONTINUOUS
 10
10.539812637
 20
5.3604350379
 11
10.539812637
 21
4.8509665298
  0
LINE
  5
2A2
100
AcDbEntity
  8
0
100
AcDbLine
 62
7
  6
CONTINUOUS
 10
10.6690589171
 20
11.4697533116
 11
10.6690589171
 21
12.0059678493
  0
LINE
  5
2A3
100
AcDbEntity
  8
0
100
AcDbLine
 62
7
  6
CONTINUOUS
 10
10.6946531534
 20
11.4631290442
 11
10.6946531534
 21
11.9993435819
  0
LINE
  5
2A4
100
AcDbEntity
  8
0
100
AcDbLine
 62
7
  6
CONTINUOUS
 10
11.9123042234
 20
10.0600792993
 11
12.7922882505
 21
10.9100786482
  0
LINE
  5
2A5
100
AcDbEntity
  8
0
100
AcDbLine
 62
7
  6
CONTINUOUS
 10
10.9185142201
 20
5.2891660097
 11
10.9185142201
 21
4.7529514719
  0
LINE
  5
2A6
100
AcDbEntity
  8
0
100
AcDbLine
 62
7
  6
CONTINUOUS
 10
10.9534765914
 20
5.286741361
 11
10.9534765914
 21
4.7505268233
  0
LINE
  5
2A7
100
AcDbEntity
  8
0
100
AcDbLine
 62
7
  6
CONTINUOUS
 10
11.4151179078
 20
11.1918803006
 11
11.4086992007
 21
11.1617253435
  0
LINE
  5
2A8
100
AcDbEntity
  8
0
100
AcDbLine
 62
4
  6
CONTINUOUS
 10
12.2843821724
 20
8.3180657906
 11
12.2595355652
 21
8.3205597744
  0
LINE
  5
2A9
100
AcDbEntity
  8
0
100
AcDbLine
 62
7
  6
CONTINUOUS
 10
11.2119690526
 20
11.4272530647
 11
11.2119690526
 21
11.9634676025
  0
LINE
  5
2AA
100
AcDbEntity
  8
0
100
AcDbLine
 62
7
  6
CONTINUOUS
 10
11.2469314197
 20
11.4296777174
 11
11.2469314197
 21
11.9658922552
  0
LINE
  5
2AB
100
AcDbEntity
  8
0
100
AcDbLine
 62
4
  6
CONTINUOUS
 10
12.1635803343
 20
8.386837929
 11
12.1399168983
 21
8.3904747576
  0
LINE
  5
2AC
100
AcDbEntity
  8
0
100
AcDbLine
 62
7
  6
CONTINUOUS
 10
11.4086992007
 20
11.1617253435
 11
11.4086992007
 21
10.0984341729
  0
LINE
  5
2AD
100
AcDbEntity
  8
0
100
AcDbLine
 62
7
  6
CONTINUOUS
 10
11.4086992007
 20
5.3174873778
 11
11.4086992007
 21
6.4244860689
  0
LINE
  5
2AE
100
AcDbEntity
  8
0
100
AcDbLine
 62
7
  6
CONTINUOUS
 10
11.4707924293
 20
5.2968967217
 11
11.4707924293
 21
4.7864028619
  0
LINE
  5
2AF
100
AcDbEntity
  8
0
100
AcDbLine
 62
7
  6
CONTINUOUS
 10
11.4963866542
 20
5.2962442898
 11
11.4963866542
 21
4.7930271322
  0
LINE
  5
2B0
100
AcDbEntity
  8
0
100
AcDbLine
 62
4
  6
CONTINUOUS
 10
12.1558897176
 20
8.8761711973
 11
12.1505654444
 21
8.871028344
  0
LINE
  5
2B1
100
AcDbEntity
  8
0
100
AcDbLine
 62
4
  6
CONTINUOUS
 10
12.1470159293
 20
8.8278588889
 11
12.1416916566
 21
8.8227160361
  0
LINE
  5
2B2
100
AcDbEntity
  8
0
100
AcDbLine
 62
4
  6
CONTINUOUS
 10
12.1328178681
 20
8.7214156871
 11
12.1345926264
 21
8.72092215
  0
LINE
  5
2B3
100
AcDbEntity
  8
0
100
AcDbLine
 62
7
  6
CONTINUOUS
 10
11.6256328353
 20
11.5276928186
 11
11.6256328353
 21
12.0639073564
  0
LINE
  5
2B4
100
AcDbEntity
  8
0
100
AcDbLine
 62
7
  6
CONTINUOUS
 10
11.635000909
 20
5.2997318408
 11
11.635000909
 21
4.9269182288
  0
LINE
  5
2B5
100
AcDbEntity
  8
0
100
AcDbLine
 62
7
  6
CONTINUOUS
 10
11.6350009662
 20
11.5367417387
 11
11.6350009662
 21
12.0729562765
  0
LINE
  5
2B6
100
AcDbEntity
  8
0
100
AcDbLine
 62
7
  6
CONTINUOUS
 10
11.7063226999
 20
11.4042979329
 11
11.7063226999
 21
11.5387400506
  0
LINE
  5
2B7
100
AcDbEntity
  8
0
100
AcDbLine
 62
4
  6
CONTINUOUS
 10
12.1558897176
 20
8.7768188482
 11
12.1416916566
 21
8.7631045736
  0
LINE
  5
2B8
100
AcDbEntity
  8
0
100
AcDbLine
 62
4
  6
CONTINUOUS
 10
12.1576644754
 20
8.7432078461
 11
12.1399168983
 21
8.726065002
  0
LINE
  5
2B9
100
AcDbEntity
  8
0
100
AcDbLine
 62
4
  6
CONTINUOUS
 10
12.1345926264
 20
8.72092215
 11
12.1328178681
 21
8.719207865
  0
LINE
  5
2BA
100
AcDbEntity
  8
0
100
AcDbLine
 62
4
  6
CONTINUOUS
 10
12.2843821724
 20
8.8501529664
 11
12.2595355652
 21
8.8261529853
  0
LINE
  5
2BB
100
AcDbEntity
  8
0
100
AcDbLine
 62
4
  6
CONTINUOUS
 10
12.2630850803
 20
8.7920484009
 11
12.280832657
 21
8.8091912446
  0
LINE
  5
2BC
100
AcDbEntity
  8
0
100
AcDbLine
 62
4
  6
CONTINUOUS
 10
12.1558897176
 20
8.6818821433
 11
12.1328178681
 21
8.6595964467
  0
LINE
  5
2BD
100
AcDbEntity
  8
0
100
AcDbLine
 62
4
  6
CONTINUOUS
 10
12.1576644754
 20
8.6571024739
 11
12.1399168983
 21
8.6399596299
  0
LINE
  5
2BE
100
AcDbEntity
  8
0
100
AcDbLine
 62
4
  6
CONTINUOUS
 10
12.2843821724
 20
8.7662553721
 11
12.2595355652
 21
8.742255391
  0
LINE
  5
2BF
100
AcDbEntity
  8
0
100
AcDbLine
 62
4
  6
CONTINUOUS
 10
12.1399168983
 20
8.6002186549
 11
12.1558897176
 21
8.6156472145
  0
LINE
  5
2C0
100
AcDbEntity
  8
0
100
AcDbLine
 62
4
  6
CONTINUOUS
 10
12.2630850803
 20
8.7191900057
 11
12.280832657
 21
8.7363328493
  0
LINE
  5
2C1
100
AcDbEntity
  8
0
100
AcDbLine
 62
4
  6
CONTINUOUS
 10
12.1576644754
 20
8.590867545
 11
12.1434664134
 21
8.5771532695
  0
LINE
  5
2C2
100
AcDbEntity
  8
0
100
AcDbLine
 62
4
  6
CONTINUOUS
 10
12.280832657
 20
8.689968408
 11
12.2630850803
 21
8.6728255643
  0
LINE
  5
2C3
100
AcDbEntity
  8
0
100
AcDbLine
 62
4
  6
CONTINUOUS
 10
12.1558897176
 20
8.5494123298
 11
12.1505654444
 21
8.5442694765
  0
LINE
  5
2C4
100
AcDbEntity
  8
0
100
AcDbLine
 62
4
  6
CONTINUOUS
 10
12.2190710904
 20
8.5994016837
 11
12.226170121
 21
8.6062588211
  0
LINE
  5
2C5
100
AcDbEntity
  8
0
100
AcDbLine
 62
4
  6
CONTINUOUS
 10
12.2084225443
 20
8.5847003111
 11
12.2137468177
 21
8.5898431646
  0
LINE
  5
2C6
100
AcDbEntity
  8
0
100
AcDbLine
 62
4
  6
CONTINUOUS
 10
12.1416916566
 20
8.506996235
 11
12.1452411717
 21
8.5104248035
  0
LINE
  5
2C7
100
AcDbEntity
  8
0
100
AcDbLine
 62
4
  6
CONTINUOUS
 10
12.2137468177
 20
8.5523100559
 11
12.2084225443
 21
8.5471672024
  0
LINE
  5
2C8
100
AcDbEntity
  8
0
100
AcDbLine
 62
4
  6
CONTINUOUS
 10
12.280832657
 20
8.6126943685
 11
12.2630850803
 21
8.5955515248
  0
LINE
  5
2C9
100
AcDbEntity
  8
0
100
AcDbLine
 62
4
  6
CONTINUOUS
 10
12.226170121
 20
8.5598943797
 11
12.2190710904
 21
8.5530372423
  0
LINE
  5
2CA
100
AcDbEntity
  8
0
100
AcDbLine
 62
4
  6
CONTINUOUS
 10
12.1576644754
 20
8.4915151959
 11
12.1399168983
 21
8.4743723519
  0
LINE
  5
2CB
100
AcDbEntity
  8
0
100
AcDbLine
 62
4
  6
CONTINUOUS
 10
12.1328178681
 20
8.4410212168
 11
12.1576644754
 21
8.4650211978
  0
LINE
  5
2CC
100
AcDbEntity
  8
0
100
AcDbLine
 62
4
  6
CONTINUOUS
 10
12.1558897176
 20
8.4235659826
 11
12.1416916566
 21
8.409851708
  0
LINE
  5
2CD
100
AcDbEntity
  8
0
100
AcDbLine
 62
4
  6
CONTINUOUS
 10
12.2297196364
 20
8.4904645423
 11
12.2048730292
 21
8.4664645612
  0
LINE
  5
2CE
100
AcDbEntity
  8
0
100
AcDbLine
 62
7
  6
CONTINUOUS
 10
11.9123042234
 20
6.389560942
 11
11.9123042234
 21
10.0600792993
  0
LINE
  5
2CF
100
AcDbEntity
  8
0
100
AcDbLine
 62
7
  6
CONTINUOUS
 10
11.9593444246
 20
11.2440078179
 11
11.9593444246
 21
10.1807166473
  0
LINE
  5
2D0
100
AcDbEntity
  8
0
100
AcDbLine
 62
7
  6
CONTINUOUS
 10
11.9593444246
 20
5.3997698522
 11
11.9593444246
 21
6.4349982899
  0
LINE
  5
2D1
100
AcDbEntity
  8
0
100
AcDbLine
 62
4
  6
CONTINUOUS
 10
12.1328178681
 20
7.9994551196
 11
12.1328178681
 21
8.0259490859
  0
LINE
  5
2D2
100
AcDbEntity
  8
0
100
AcDbLine
 62
4
  6
CONTINUOUS
 10
12.1328178681
 20
8.719207865
 11
12.1328178681
 21
8.7214156871
  0
LINE
  5
2D3
100
AcDbEntity
  8
0
100
AcDbLine
 62
4
  6
CONTINUOUS
 10
12.1399168983
 20
8.5671012346
 11
12.1399168983
 21
8.5339837702
  0
LINE
  5
2D4
100
AcDbEntity
  8
0
100
AcDbLine
 62
4
  6
CONTINUOUS
 10
12.1399168983
 20
8.2844988979
 11
12.1399168983
 21
8.3176163624
  0
LINE
  5
2D5
100
AcDbEntity
  8
0
100
AcDbLine
 62
4
  6
CONTINUOUS
 10
12.1399168983
 20
8.4213843999
 11
12.1399168983
 21
8.4478783538
  0
LINE
  5
2D6
100
AcDbEntity
  8
0
100
AcDbLine
 62
4
  6
CONTINUOUS
 10
12.1399168983
 20
8.4743723519
 11
12.1399168983
 21
8.5008663058
  0
LINE
  5
2D7
100
AcDbEntity
  8
0
100
AcDbLine
 62
4
  6
CONTINUOUS
 10
12.1399168983
 20
8.768013755
 11
12.1399168983
 21
8.7945077973
  0
LINE
  5
2D8
100
AcDbEntity
  8
0
100
AcDbLine
 62
4
  6
CONTINUOUS
 10
12.1399168983
 20
8.8276252175
 11
12.1399168983
 21
8.8541191714
  0
LINE
  5
2D9
100
AcDbEntity
  8
0
100
AcDbLine
 62
4
  6
CONTINUOUS
 10
12.1487906868
 20
8.5558021692
 11
12.1487906868
 21
8.582296123
  0
LINE
  5
2DA
100
AcDbEntity
  8
0
100
AcDbLine
 62
4
  6
CONTINUOUS
 10
12.1493822727
 20
8.8632620215
 11
12.148199101
 21
8.8356252114
  0
LINE
  5
2DB
100
AcDbEntity
  8
0
100
AcDbLine
 62
4
  6
CONTINUOUS
 10
12.1576644754
 20
8.5643735912
 11
12.1558897176
 21
8.5494123298
  0
LINE
  5
2DC
100
AcDbEntity
  8
0
100
AcDbLine
 62
4
  6
CONTINUOUS
 10
12.1505654444
 20
8.871028344
 11
12.1493822727
 21
8.8632620215
  0
LINE
  5
2DD
100
AcDbEntity
  8
0
100
AcDbLine
 62
4
  6
CONTINUOUS
 10
12.148199101
 20
8.8356252114
 11
12.1470159293
 21
8.8278588889
  0
LINE
  5
2DE
100
AcDbEntity
  8
0
100
AcDbLine
 62
4
  6
CONTINUOUS
 10
12.1399168983
 20
8.8541191714
 11
12.1416916566
 21
8.8624569227
  0
LINE
  5
2DF
100
AcDbEntity
  8
0
100
AcDbLine
 62
4
  6
CONTINUOUS
 10
12.1558897176
 20
8.8364303107
 11
12.1576644754
 21
8.8447680615
  0
LINE
  5
2E0
100
AcDbEntity
  8
0
100
AcDbLine
 62
4
  6
CONTINUOUS
 10
12.1576644754
 20
8.785156599
 11
12.1558897176
 21
8.7768188482
  0
LINE
  5
2E1
100
AcDbEntity
  8
0
100
AcDbLine
 62
4
  6
CONTINUOUS
 10
12.1576644754
 20
8.6902199384
 11
12.1558897176
 21
8.6818821433
  0
LINE
  5
2E2
100
AcDbEntity
  8
0
100
AcDbLine
 62
4
  6
CONTINUOUS
 10
12.1558897176
 20
8.6156472145
 11
12.1576644754
 21
8.6239850095
  0
LINE
  5
2E3
100
AcDbEntity
  8
0
100
AcDbLine
 62
4
  6
CONTINUOUS
 10
12.1399168983
 20
8.5008663058
 11
12.1416916566
 21
8.506996235
  0
LINE
  5
2E4
100
AcDbEntity
  8
0
100
AcDbLine
 62
4
  6
CONTINUOUS
 10
12.2048730292
 20
8.572440432
 11
12.2084225443
 21
8.5847003111
  0
LINE
  5
2E5
100
AcDbEntity
  8
0
100
AcDbLine
 62
4
  6
CONTINUOUS
 10
12.1434664134
 20
8.5771532695
 11
12.1399168983
 21
8.5671012346
  0
LINE
  5
2E6
100
AcDbEntity
  8
0
100
AcDbLine
 62
4
  6
CONTINUOUS
 10
12.2155215745
 20
8.4966207433
 11
12.2297196364
 21
8.5368289837
  0
LINE
  5
2E7
100
AcDbEntity
  8
0
100
AcDbLine
 62
4
  6
CONTINUOUS
 10
12.1399168983
 20
8.3507338268
 11
12.1576644754
 21
8.3877471584
  0
LINE
  5
2E8
100
AcDbEntity
  8
0
100
AcDbLine
 62
4
  6
CONTINUOUS
 10
12.2208458479
 20
8.4553991554
 11
12.226170121
 21
8.4605420085
  0
LINE
  5
2E9
100
AcDbEntity
  8
0
100
AcDbLine
 62
4
  6
CONTINUOUS
 10
12.2084225443
 20
8.4367756736
 11
12.2137468177
 21
8.4419185271
  0
LINE
  5
2EA
100
AcDbEntity
  8
0
100
AcDbLine
 62
4
  6
CONTINUOUS
 10
12.2843821724
 20
8.4770295912
 11
12.2595355652
 21
8.4530296101
  0
LINE
  5
2EB
100
AcDbEntity
  8
0
100
AcDbLine
 62
4
  6
CONTINUOUS
 10
12.2297196364
 20
8.417606136
 11
12.2048730292
 21
8.393606155
  0
LINE
  5
2EC
100
AcDbEntity
  8
0
100
AcDbLine
 62
4
  6
CONTINUOUS
 10
12.1416916566
 20
8.3259541358
 11
12.1576644754
 21
8.3413826949
  0
LINE
  5
2ED
100
AcDbEntity
  8
0
100
AcDbLine
 62
4
  6
CONTINUOUS
 10
12.2843821724
 20
8.4240416613
 11
12.2595355652
 21
8.4000416802
  0
LINE
  5
2EE
100
AcDbEntity
  8
0
100
AcDbLine
 62
4
  6
CONTINUOUS
 10
12.1576644754
 20
8.301641742
 11
12.1328178681
 21
8.2776417609
  0
LINE
  5
2EF
100
AcDbEntity
  8
0
100
AcDbLine
 62
4
  6
CONTINUOUS
 10
12.1576644754
 20
8.2022893708
 11
12.1328178681
 21
8.1782893897
  0
LINE
  5
2F0
100
AcDbEntity
  8
0
100
AcDbLine
 62
4
  6
CONTINUOUS
 10
12.2630850803
 20
8.2599612583
 11
12.280832657
 21
8.277104102
  0
LINE
  5
2F1
100
AcDbEntity
  8
0
100
AcDbLine
 62
4
  6
CONTINUOUS
 10
12.1576644754
 20
8.1559249294
 11
12.1328178681
 21
8.1319249483
  0
LINE
  5
2F2
100
AcDbEntity
  8
0
100
AcDbLine
 62
4
  6
CONTINUOUS
 10
12.1541149599
 20
8.1260023956
 11
12.1328178681
 21
8.1054309834
  0
LINE
  5
2F3
100
AcDbEntity
  8
0
100
AcDbLine
 62
4
  6
CONTINUOUS
 10
12.2843821724
 20
8.234168235
 11
12.2595355652
 21
8.2101682539
  0
LINE
  5
2F4
100
AcDbEntity
  8
0
100
AcDbLine
 62
4
  6
CONTINUOUS
 10
12.1328178681
 20
8.059066542
 11
12.1541149599
 21
8.0796379542
  0
LINE
  5
2F5
100
AcDbEntity
  8
0
100
AcDbLine
 62
4
  6
CONTINUOUS
 10
12.1541149599
 20
8.0531439893
 11
12.1505654444
 21
8.0497154204
  0
LINE
  5
2F6
100
AcDbEntity
  8
0
100
AcDbLine
 62
4
  6
CONTINUOUS
 10
12.2084225443
 20
8.5471672024
 11
12.2048730292
 21
8.5525699555
  0
LINE
  5
2F7
100
AcDbEntity
  8
0
100
AcDbLine
 62
4
  6
CONTINUOUS
 10
12.2214374338
 20
8.4824645484
 11
12.2048730292
 21
8.5128290026
  0
LINE
  5
2F8
100
AcDbEntity
  8
0
100
AcDbLine
 62
4
  6
CONTINUOUS
 10
12.1363673832
 20
7.9896367043
 11
12.1328178681
 21
7.9994551196
  0
LINE
  5
2F9
100
AcDbEntity
  8
0
100
AcDbLine
 62
4
  6
CONTINUOUS
 10
12.1576644754
 20
8.0433255757
 11
12.1541149599
 21
8.0531439893
  0
LINE
  5
2FA
100
AcDbEntity
  8
0
100
AcDbLine
 62
4
  6
CONTINUOUS
 10
12.1576644754
 20
8.1161839875
 11
12.1541149599
 21
8.1260023956
  0
LINE
  5
2FB
100
AcDbEntity
  8
0
100
AcDbLine
 62
4
  6
CONTINUOUS
 10
12.2137468177
 20
8.4419185271
 11
12.2172963328
 21
8.4321001132
  0
LINE
  5
2FC
100
AcDbEntity
  8
0
100
AcDbLine
 62
4
  6
CONTINUOUS
 10
12.280832657
 20
8.277104102
 11
12.2843821724
 21
8.2672856884
  0
LINE
  5
2FD
100
AcDbEntity
  8
0
100
AcDbLine
 62
4
  6
CONTINUOUS
 10
12.226170121
 20
8.4605420085
 11
12.2297196364
 21
8.4507235949
  0
LINE
  5
2FE
100
AcDbEntity
  8
0
100
AcDbLine
 62
4
  6
CONTINUOUS
 10
12.1416916566
 20
8.409851708
 11
12.1399168983
 21
8.4213843999
  0
LINE
  5
2FF
100
AcDbEntity
  8
0
100
AcDbLine
 62
4
  6
CONTINUOUS
 10
12.1505654444
 20
8.5442694765
 11
12.1487906868
 21
8.5558021692
  0
LINE
  5
300
100
AcDbEntity
  8
0
100
AcDbLine
 62
4
  6
CONTINUOUS
 10
12.1576644754
 20
8.8116506413
 11
12.1576644754
 21
8.785156599
  0
LINE
  5
301
100
AcDbEntity
  8
0
100
AcDbLine
 62
4
  6
CONTINUOUS
 10
12.1576644754
 20
8.7034669153
 11
12.1576644754
 21
8.6902199384
  0
LINE
  5
302
100
AcDbEntity
  8
0
100
AcDbLine
 62
4
  6
CONTINUOUS
 10
12.1576644754
 20
8.590867545
 11
12.1576644754
 21
8.5643735912
  0
LINE
  5
303
100
AcDbEntity
  8
0
100
AcDbLine
 62
4
  6
CONTINUOUS
 10
12.1576644754
 20
8.4650211978
 11
12.1576644754
 21
8.438527244
  0
LINE
  5
304
100
AcDbEntity
  8
0
100
AcDbLine
 62
4
  6
CONTINUOUS
 10
12.1576644754
 20
8.0168316087
 11
12.1576644754
 21
8.0433255757
  0
LINE
  5
305
100
AcDbEntity
  8
0
100
AcDbLine
 62
4
  6
CONTINUOUS
 10
12.1576644754
 20
8.0963135056
 11
12.1576644754
 21
8.1161839875
  0
LINE
  5
306
100
AcDbEntity
  8
0
100
AcDbLine
 62
4
  6
CONTINUOUS
 10
12.1576644754
 20
8.6239850095
 11
12.1576644754
 21
8.6571024739
  0
LINE
  5
307
100
AcDbEntity
  8
0
100
AcDbLine
 62
4
  6
CONTINUOUS
 10
12.1576644754
 20
8.8447680615
 11
12.1576644754
 21
8.8712620154
  0
LINE
  5
308
100
AcDbEntity
  8
0
100
AcDbLine
 62
4
  6
CONTINUOUS
 10
12.1635803343
 20
8.3735909521
 11
12.1635803343
 21
8.386837929
  0
LINE
  5
309
100
AcDbEntity
  8
0
100
AcDbLine
 62
4
  6
CONTINUOUS
 10
12.2048730292
 20
8.393606155
 11
12.2048730292
 21
8.41347663
  0
LINE
  5
30A
100
AcDbEntity
  8
0
100
AcDbLine
 62
4
  6
CONTINUOUS
 10
12.2048730292
 20
8.5525699555
 11
12.2048730292
 21
8.572440432
  0
LINE
  5
30B
100
AcDbEntity
  8
0
100
AcDbLine
 62
4
  6
CONTINUOUS
 10
12.2155215745
 20
8.5628556611
 11
12.2155215745
 21
8.5827261375
  0
LINE
  5
30C
100
AcDbEntity
  8
0
100
AcDbLine
 62
4
  6
CONTINUOUS
 10
12.2172963328
 20
8.4056061455
 11
12.2172963328
 21
8.4387236044
  0
LINE
  5
30D
100
AcDbEntity
  8
0
100
AcDbLine
 62
4
  6
CONTINUOUS
 10
12.2297196364
 20
8.5964404131
 11
12.2297196364
 21
8.5765699366
  0
LINE
  5
30E
100
AcDbEntity
  8
0
100
AcDbLine
 62
4
  6
CONTINUOUS
 10
12.2297196364
 20
8.4507235949
 11
12.2297196364
 21
8.417606136
  0
LINE
  5
30F
100
AcDbEntity
  8
0
100
AcDbLine
 62
4
  6
CONTINUOUS
 10
12.2595355652
 20
8.2101682539
 11
12.2595355652
 21
8.2432857073
  0
LINE
  5
310
100
AcDbEntity
  8
0
100
AcDbLine
 62
4
  6
CONTINUOUS
 10
12.2595355652
 20
8.3735477043
 11
12.2595355652
 21
8.4265356341
  0
LINE
  5
311
100
AcDbEntity
  8
0
100
AcDbLine
 62
4
  6
CONTINUOUS
 10
12.2595355652
 20
8.4530296101
 11
12.2595355652
 21
8.492770563
  0
LINE
  5
312
100
AcDbEntity
  8
0
100
AcDbLine
 62
4
  6
CONTINUOUS
 10
12.2595355652
 20
8.6053699332
 11
12.2595355652
 21
8.6318638871
  0
LINE
  5
313
100
AcDbEntity
  8
0
100
AcDbLine
 62
4
  6
CONTINUOUS
 10
12.2595355652
 20
8.6826439727
 11
12.2595355652
 21
8.7025144602
  0
LINE
  5
314
100
AcDbEntity
  8
0
100
AcDbLine
 62
4
  6
CONTINUOUS
 10
12.2595355652
 20
8.742255391
 11
12.2595355652
 21
8.7753728555
  0
LINE
  5
315
100
AcDbEntity
  8
0
100
AcDbLine
 62
4
  6
CONTINUOUS
 10
12.2595355652
 20
8.8261529853
 11
12.2595355652
 21
8.8658939161
  0
LINE
  5
316
100
AcDbEntity
  8
0
100
AcDbLine
 62
4
  6
CONTINUOUS
 10
12.2701841105
 20
8.8629326447
 11
12.2701841105
 21
8.8364386908
  0
LINE
  5
317
100
AcDbEntity
  8
0
100
AcDbLine
 62
4
  6
CONTINUOUS
 10
12.2701841105
 20
8.4898092916
 11
12.2701841105
 21
8.4633153156
  0
LINE
  5
318
100
AcDbEntity
  8
0
100
AcDbLine
 62
4
  6
CONTINUOUS
 10
12.2772831415
 20
8.3200399745
 11
12.2772831415
 21
8.355365261
  0
LINE
  5
319
100
AcDbEntity
  8
0
100
AcDbLine
 62
4
  6
CONTINUOUS
 10
12.2843821724
 20
8.7993728365
 11
12.2843821724
 21
8.7662553721
  0
LINE
  5
31A
100
AcDbEntity
  8
0
100
AcDbLine
 62
4
  6
CONTINUOUS
 10
12.2843821724
 20
8.7265144413
 11
12.2843821724
 21
8.7066439538
  0
LINE
  5
31B
100
AcDbEntity
  8
0
100
AcDbLine
 62
4
  6
CONTINUOUS
 10
12.2843821724
 20
8.6558638682
 11
12.2843821724
 21
8.6293699143
  0
LINE
  5
31C
100
AcDbEntity
  8
0
100
AcDbLine
 62
4
  6
CONTINUOUS
 10
12.2843821724
 20
8.2672856884
 11
12.2843821724
 21
8.234168235
  0
LINE
  5
31D
100
AcDbEntity
  8
0
100
AcDbLine
 62
4
  6
CONTINUOUS
 10
12.2843821724
 20
8.4770295912
 11
12.2843821724
 21
8.5167705441
  0
LINE
  5
31E
100
AcDbEntity
  8
0
100
AcDbLine
 62
4
  6
CONTINUOUS
 10
12.2843821724
 20
8.8501529664
 11
12.2843821724
 21
8.8898938972
  0
LINE
  5
31F
100
AcDbEntity
  8
0
100
AcDbLine
 62
4
  6
CONTINUOUS
 10
12.2048730292
 20
8.41347663
 11
12.2054646158
 21
8.4206715514
  0
LINE
  5
320
100
AcDbEntity
  8
0
100
AcDbLine
 62
4
  6
CONTINUOUS
 10
12.1576644754
 20
8.438527244
 11
12.1558897176
 21
8.4235659826
  0
LINE
  5
321
100
AcDbEntity
  8
0
100
AcDbLine
 62
4
  6
CONTINUOUS
 10
12.2690009388
 20
8.9015307193
 11
12.2737336264
 21
8.9414274313
  0
LINE
  5
322
100
AcDbEntity
  8
0
100
AcDbLine
 62
4
  6
CONTINUOUS
 10
12.2737336264
 20
8.1708945934
 11
12.2784663135
 21
8.2107913077
  0
LINE
  5
323
100
AcDbEntity
  8
0
100
AcDbLine
 62
4
  6
CONTINUOUS
 10
12.2155215745
 20
8.5628556611
 11
12.2137468177
 21
8.5523100559
  0
LINE
  5
324
100
AcDbEntity
  8
0
100
AcDbLine
 62
4
  6
CONTINUOUS
 10
12.2054646158
 20
8.4206715514
 11
12.2084225443
 21
8.4367756736
  0
LINE
  5
325
100
AcDbEntity
  8
0
100
AcDbLine
 62
4
  6
CONTINUOUS
 10
12.1505654444
 20
8.0497154204
 11
12.1399168983
 21
7.9930652728
  0
LINE
  5
326
100
AcDbEntity
  8
0
100
AcDbLine
 62
4
  6
CONTINUOUS
 10
12.1399168983
 20
8.3176163624
 11
12.1416916566
 21
8.3259541358
  0
LINE
  5
327
100
AcDbEntity
  8
0
100
AcDbLine
 62
4
  6
CONTINUOUS
 10
12.2155215745
 20
8.5827261375
 11
12.2190710904
 21
8.5994016837
  0
LINE
  5
328
100
AcDbEntity
  8
0
100
AcDbLine
 62
4
  6
CONTINUOUS
 10
12.2595355652
 20
8.7753728555
 11
12.2630850803
 21
8.7920484009
  0
LINE
  5
329
100
AcDbEntity
  8
0
100
AcDbLine
 62
4
  6
CONTINUOUS
 10
12.2297196364
 20
8.5765699366
 11
12.226170121
 21
8.5598943797
  0
LINE
  5
32A
100
AcDbEntity
  8
0
100
AcDbLine
 62
4
  6
CONTINUOUS
 10
12.2595355652
 20
8.7025144602
 11
12.2630850803
 21
8.7191900057
  0
LINE
  5
32B
100
AcDbEntity
  8
0
100
AcDbLine
 62
4
  6
CONTINUOUS
 10
12.2172963328
 20
8.4387236044
 11
12.2208458479
 21
8.4553991554
  0
LINE
  5
32C
100
AcDbEntity
  8
0
100
AcDbLine
 62
4
  6
CONTINUOUS
 10
12.1328178681
 20
8.0259490859
 11
12.1345926264
 21
8.0342868621
  0
LINE
  5
32D
100
AcDbEntity
  8
0
100
AcDbLine
 62
4
  6
CONTINUOUS
 10
12.2843821724
 20
8.7066439538
 11
12.280832657
 21
8.689968408
  0
LINE
  5
32E
100
AcDbEntity
  8
0
100
AcDbLine
 62
4
  6
CONTINUOUS
 10
12.1541149599
 20
8.0796379542
 11
12.1576644754
 21
8.0963135056
  0
LINE
  5
32F
100
AcDbEntity
  8
0
100
AcDbLine
 62
4
  6
CONTINUOUS
 10
12.2843821724
 20
8.6293699143
 11
12.280832657
 21
8.6126943685
  0
LINE
  5
330
100
AcDbEntity
  8
0
100
AcDbLine
 62
4
  6
CONTINUOUS
 10
12.1558897176
 20
8.0084938324
 11
12.1576644754
 21
8.0168316087
  0
LINE
  5
331
100
AcDbEntity
  8
0
100
AcDbLine
 62
4
  6
CONTINUOUS
 10
12.2595355652
 20
8.2432857073
 11
12.2630850803
 21
8.2599612583
  0
LINE
  5
332
100
AcDbEntity
  8
0
100
AcDbLine
 62
4
  6
CONTINUOUS
 10
12.1328178681
 20
8.1319249483
 11
12.1576644754
 21
8.2022893708
  0
LINE
  5
333
100
AcDbEntity
  8
0
100
AcDbLine
 62
4
  6
CONTINUOUS
 10
12.2595355652
 20
8.3205597744
 11
12.2843821724
 21
8.3710537315
  0
LINE
  5
334
100
AcDbEntity
  8
0
100
AcDbLine
 62
4
  6
CONTINUOUS
 10
12.1399168983
 20
7.9930652728
 11
12.1363673832
 21
7.9896367043
  0
LINE
  5
335
100
AcDbEntity
  8
0
100
AcDbLine
 62
4
  6
CONTINUOUS
 10
12.1416916566
 20
8.7631045736
 11
12.1399168983
 21
8.768013755
  0
LINE
  5
336
100
AcDbEntity
  8
0
100
AcDbLine
 62
4
  6
CONTINUOUS
 10
12.2190710904
 20
8.5530372423
 11
12.2155215745
 21
8.5628556611
  0
LINE
  5
337
100
AcDbEntity
  8
0
100
AcDbLine
 62
4
  6
CONTINUOUS
 10
12.1416916566
 20
8.8227160361
 11
12.1399168983
 21
8.8276252175
  0
LINE
  5
338
100
AcDbEntity
  8
0
100
AcDbLine
 62
4
  6
CONTINUOUS
 10
12.226170121
 20
8.6062588211
 11
12.2297196364
 21
8.5964404131
  0
LINE
  5
339
100
AcDbEntity
  8
0
100
AcDbLine
 62
4
  6
CONTINUOUS
 10
12.1576644754
 20
8.8712620154
 11
12.1558897176
 21
8.8761711973
  0
LINE
  5
33A
100
AcDbEntity
  8
0
100
AcDbLine
 62
4
  6
CONTINUOUS
 10
12.2630850803
 20
8.5955515248
 11
12.2595355652
 21
8.6053699332
  0
LINE
  5
33B
100
AcDbEntity
  8
0
100
AcDbLine
 62
4
  6
CONTINUOUS
 10
12.2630850803
 20
8.6728255643
 11
12.2595355652
 21
8.6826439727
  0
LINE
  5
33C
100
AcDbEntity
  8
0
100
AcDbLine
 62
4
  6
CONTINUOUS
 10
12.280832657
 20
8.7363328493
 11
12.2843821724
 21
8.7265144413
  0
LINE
  5
33D
100
AcDbEntity
  8
0
100
AcDbLine
 62
4
  6
CONTINUOUS
 10
12.280832657
 20
8.8091912446
 11
12.2843821724
 21
8.7993728365
  0
LINE
  5
33E
100
AcDbEntity
  8
0
100
AcDbLine
 62
4
  6
CONTINUOUS
 10
12.2137468177
 20
8.5898431646
 11
12.2155215745
 21
8.5827261375
  0
LINE
  5
33F
100
AcDbEntity
  8
0
100
AcDbLine
 62
4
  6
CONTINUOUS
 10
12.2690009388
 20
8.2016484573
 11
12.2737336264
 21
8.1708945934
  0
LINE
  5
340
100
AcDbEntity
  8
0
100
AcDbLine
 62
4
  6
CONTINUOUS
 10
12.2737336264
 20
8.9414274313
 11
12.2784663135
 21
8.9106735698
  0
LINE
  5
341
100
AcDbEntity
  8
0
100
AcDbLine
 62
7
  6
CONTINUOUS
 10
12.5999727964
 20
11.8628073438
 11
12.5999727964
 21
10.7995161733
  0
LINE
  5
342
100
AcDbEntity
  8
0
100
AcDbLine
 62
7
  6
CONTINUOUS
 10
12.5999727964
 20
6.0185693782
 11
12.5999727964
 21
7.0537978159
  0
LINE
  5
343
100
AcDbEntity
  8
0
100
AcDbLine
 62
7
  6
CONTINUOUS
 10
12.6152925191
 20
7.0685955326
 11
12.6152925191
 21
6.0486868177
  0
LINE
  5
344
100
AcDbEntity
  8
0
100
AcDbLine
 62
7
  6
CONTINUOUS
 10
12.6152925191
 20
10.8296336128
 11
12.6152925191
 21
11.8929247834
  0
LINE
  5
345
100
AcDbEntity
  8
0
100
AcDbLine
 62
7
  6
CONTINUOUS
 10
9.2077117495
 20
10.2476434245
 11
11.9123042234
 21
10.0600792993
  0
LINE
  5
346
100
AcDbEntity
  8
0
100
AcDbLine
 62
7
  6
CONTINUOUS
 10
11.4086992007
 20
10.0984341729
 11
9.7179425342
 21
10.215688546
  0
LINE
  5
347
100
AcDbEntity
  8
0
100
AcDbLine
 62
7
  6
CONTINUOUS
 10
12.7922882505
 20
7.2395602908
 11
12.7922882505
 21
10.9100786482
  0
LINE
  5
348
100
AcDbEntity
  8
0
100
AcDbLine
 62
4
  6
CONTINUOUS
 10
10.1864350855
 20
11.4722637599
 11
10.1818135043
 21
11.4757996551
  0
LINE
  5
349
100
AcDbEntity
  8
0
100
AcDbLine
 62
4
  6
CONTINUOUS
 10
10.2730266338
 20
11.4759047778
 11
10.2776482129
 21
11.4723688828
  0
LINE
  5
34A
100
AcDbEntity
  8
0
100
AcDbLine
 62
4
  6
CONTINUOUS
 10
10.2609749073
 20
11.5442637032
 11
10.2563533261
 21
11.5477995983
  0
LINE
  5
34B
100
AcDbEntity
  8
0
100
AcDbLine
 62
7
  6
CONTINUOUS
 10
10.5304444335
 20
11.6036443922
 11
10.6690589171
 21
11.4697533116
  0
LINE
  5
34C
100
AcDbEntity
  8
0
100
AcDbLine
 62
7
  6
CONTINUOUS
 10
11.9123042234
 20
6.389560942
 11
12.7922882505
 21
7.2395602908
  0
LINE
  5
34D
100
AcDbEntity
  8
0
100
AcDbLine
 62
4
  6
CONTINUOUS
 10
10.3475664556
 20
11.5479047211
 11
10.3521880347
 21
11.5443688261
  0
LINE
  5
34E
100
AcDbEntity
  8
0
100
AcDbLine
 62
7
  6
CONTINUOUS
 10
12.7922882505
 20
10.9100786482
 11
12.6152925191
 21
10.9223533439
  0
LINE
  5
34F
100
AcDbEntity
  8
0
100
AcDbLine
 62
7
  6
CONTINUOUS
 10
11.2469314197
 20
11.4296777174
 11
11.6256328353
 21
11.5276928186
  0
LINE
  5
350
100
AcDbEntity
  8
0
100
AcDbLine
 62
7
  6
CONTINUOUS
 10
11.4086992007
 20
11.1617253435
 11
9.7179425342
 21
11.2789797166
  0
LINE
  5
351
100
AcDbEntity
  8
0
100
AcDbLine
 62
7
  6
CONTINUOUS
 10
11.4151179078
 20
11.1918803006
 11
9.7243612412
 21
11.3091346737
  0
LINE
  5
352
100
AcDbEntity
  8
0
100
AcDbLine
 62
4
  6
CONTINUOUS
 10
10.2392712836
 20
11.5312996113
 11
10.3195768627
 21
11.5128688509
  0
LINE
  5
353
100
AcDbEntity
  8
0
100
AcDbLine
 62
4
  6
CONTINUOUS
 10
10.1926095797
 20
11.4702278636
 11
10.1864350855
 21
11.4722637599
  0
LINE
  5
354
100
AcDbEntity
  8
0
100
AcDbLine
 62
4
  6
CONTINUOUS
 10
10.2606776441
 20
11.4799765706
 11
10.2730266338
 21
11.4759047778
  0
LINE
  5
355
100
AcDbEntity
  8
0
100
AcDbLine
 62
4
  6
CONTINUOUS
 10
10.2671494015
 20
11.5422278068
 11
10.2609749073
 21
11.5442637032
  0
LINE
  5
356
100
AcDbEntity
  8
0
100
AcDbLine
 62
4
  6
CONTINUOUS
 10
10.3352174659
 20
11.5519765138
 11
10.3475664556
 21
11.5479047211
  0
LINE
  5
357
100
AcDbEntity
  8
0
100
AcDbLine
 62
7
  6
CONTINUOUS
 10
11.9353894627
 20
11.269624062
 11
11.9593444246
 21
11.2440078179
  0
LINE
  5
358
100
AcDbEntity
  8
0
100
AcDbLine
 62
7
  6
CONTINUOUS
 10
11.9593444246
 20
5.3997698522
 11
12.5999727964
 21
6.0185693782
  0
LINE
  5
359
100
AcDbEntity
  8
0
100
AcDbLine
 62
7
  6
CONTINUOUS
 10
11.9582236736
 20
5.3987074258
 11
11.9593444246
 21
5.3997698522
  0
LINE
  5
35A
100
AcDbEntity
  8
0
100
AcDbLine
 62
7
  6
CONTINUOUS
 10
11.9582236736
 20
5.3987074258
 11
11.9343305325
 21
5.3764723497
  0
LINE
  5
35B
100
AcDbEntity
  8
0
100
AcDbLine
 62
4
  6
CONTINUOUS
 10
10.274542387
 20
11.4693688852
 11
10.2637091561
 21
11.4669047849
  0
LINE
  5
35C
100
AcDbEntity
  8
0
100
AcDbLine
 62
4
  6
CONTINUOUS
 10
10.1849193302
 20
11.4787996527
 11
10.1957525632
 21
11.4812637528
  0
LINE
  5
35D
100
AcDbEntity
  8
0
100
AcDbLine
 62
4
  6
CONTINUOUS
 10
10.2637091561
 20
11.4669047849
 11
10.2544288325
 21
11.4659406838
  0
LINE
  5
35E
100
AcDbEntity
  8
0
100
AcDbLine
 62
4
  6
CONTINUOUS
 10
10.1957525632
 20
11.4812637528
 11
10.2143132027
 21
11.4831919555
  0
LINE
  5
35F
100
AcDbEntity
  8
0
100
AcDbLine
 62
4
  6
CONTINUOUS
 10
10.3382489779
 20
11.5389047282
 11
10.3289686543
 21
11.5379406271
  0
LINE
  5
360
100
AcDbEntity
  8
0
100
AcDbLine
 62
4
  6
CONTINUOUS
 10
10.3320001663
 20
11.5248688414
 11
10.22684798
 21
11.5192996208
  0
LINE
  5
361
100
AcDbEntity
  8
0
100
AcDbLine
 62
4
  6
CONTINUOUS
 10
10.2143132027
 20
11.4831919555
 11
10.2390483363
 21
11.4830842618
  0
LINE
  5
362
100
AcDbEntity
  8
0
100
AcDbLine
 62
4
  6
CONTINUOUS
 10
10.2888530245
 20
11.5551918987
 11
10.3135881581
 21
11.5550842051
  0
LINE
  5
363
100
AcDbEntity
  8
0
100
AcDbLine
 62
4
  6
CONTINUOUS
 10
10.2947302554
 20
11.4888688698
 11
10.2020013727
 21
11.4952996397
  0
LINE
  5
364
100
AcDbEntity
  8
0
100
AcDbLine
 62
7
  6
CONTINUOUS
 10
10.6946531534
 20
11.4631290442
 11
11.2119690526
 21
11.4272530647
  0
LINE
  5
365
100
AcDbEntity
  8
0
100
AcDbLine
 62
4
  6
CONTINUOUS
 10
10.3071535591
 20
11.5008688604
 11
10.2144246763
 21
11.5072996302
  0
LINE
  5
366
100
AcDbEntity
  8
0
100
AcDbLine
 62
4
  6
CONTINUOUS
 10
10.2390483363
 20
11.4830842618
 11
10.2606776441
 21
11.4799765706
  0
LINE
  5
367
100
AcDbEntity
  8
0
100
AcDbLine
 62
4
  6
CONTINUOUS
 10
10.3135881581
 20
11.5550842051
 11
10.3352174659
 21
11.5519765138
  0
LINE
  5
368
100
AcDbEntity
  8
0
100
AcDbLine
 62
4
  6
CONTINUOUS
 10
10.3490822088
 20
11.5413688284
 11
10.3382489779
 21
11.5389047282
  0
LINE
  5
369
100
AcDbEntity
  8
0
100
AcDbLine
 62
4
  6
CONTINUOUS
 10
10.259459152
 20
11.5507995959
 11
10.270292385
 21
11.5532636961
  0
LINE
  5
36A
100
AcDbEntity
  8
0
100
AcDbLine
 62
4
  6
CONTINUOUS
 10
10.270292385
 20
11.5532636961
 11
10.2888530245
 21
11.5551918987
  0
LINE
  5
36B
100
AcDbEntity
  8
0
100
AcDbLine
 62
7
  6
CONTINUOUS
 10
11.5369239474
 20
4.8015188415
 11
11.5220706615
 21
4.7941816027
  0
LINE
  5
36C
100
AcDbEntity
  8
0
100
AcDbLine
 62
7
  6
CONTINUOUS
 10
11.6350009662
 20
12.0675080457
 11
12.2756387588
 21
12.0230796639
  0
LINE
  5
36D
100
AcDbEntity
  8
0
100
AcDbLine
 62
7
  6
CONTINUOUS
 10
11.5369239091
 20
12.1983556194
 11
11.5220706615
 21
12.2056928394
  0
LINE
  5
36E
100
AcDbEntity
  8
0
100
AcDbLine
 62
7
  6
CONTINUOUS
 10
12.5988520453
 20
11.9241046493
 11
12.5749589042
 21
11.9463397253
  0
LINE
  5
36F
100
AcDbEntity
  8
0
100
AcDbLine
 62
7
  6
CONTINUOUS
 10
12.5760178344
 20
11.888423588
 11
12.5999727964
 21
11.8628073438
  0
ARC
  5
370
100
AcDbEntity
  8
0
100
AcDbCircle
 62
7
  6
CONTINUOUS
 10
11.0753431221
 20
6.7627953084
 40
2.0159553337
100
AcDbArc
 50
266.0342868665
 51
266.534299421
  0
ARC
  5
371
100
AcDbEntity
  8
0
100
AcDbCircle
 62
7
  6
CONTINUOUS
 10
11.0748580086
 20
7.2915399406
 40
2.008469764
100
AcDbArc
 50
266.0333550868
 51
266.5352312007
  0
ARC
  5
372
100
AcDbEntity
  8
0
100
AcDbCircle
 62
7
  6
CONTINUOUS
 10
11.0913238126
 20
13.4201843532
 40
1.996579674
100
AcDbArc
 50
273.4642627391
 51
274.4699993312
  0
ARC
  5
373
100
AcDbEntity
  8
0
100
AcDbCircle
 62
7
  6
CONTINUOUS
 10
11.0913238126
 20
13.956398891
 40
1.996579674
100
AcDbArc
 50
273.4642627391
 51
274.4699993312
  0
ARC
  5
374
100
AcDbEntity
  8
0
100
AcDbCircle
 62
7
  6
CONTINUOUS
 10
11.0721255503
 20
7.2521562901
 40
1.9689914377
100
AcDbArc
 50
265.5255095249
 51
266.0333993217
  0
ARC
  5
375
100
AcDbEntity
  8
0
100
AcDbCircle
 62
7
  6
CONTINUOUS
 10
11.0721255503
 20
6.7159417523
 40
1.9689914377
100
AcDbArc
 50
265.5255095249
 51
266.0333993217
  0
ARC
  5
376
100
AcDbEntity
  8
0
100
AcDbCircle
 62
7
  6
CONTINUOUS
 10
10.5832259427
 20
12.7730649014
 40
1.1652863947
100
AcDbArc
 50
266.0380426953
 51
267.0061575682
  0
ARC
  5
377
100
AcDbEntity
  8
0
100
AcDbCircle
 62
7
  6
CONTINUOUS
 10
10.5835462265
 20
12.6112787596
 40
0.9870110401
100
AcDbArc
 50
266.0375945849
 51
266.9074102774
  0
ARC
  5
378
100
AcDbEntity
  8
0
100
AcDbCircle
 62
7
  6
CONTINUOUS
 10
10.5834306443
 20
12.5769998564
 40
0.9370505188
100
AcDbArc
 50
266.0361294705
 51
266.7502665817
  0
ARC
  5
379
100
AcDbEntity
  8
0
100
AcDbCircle
 62
7
  6
CONTINUOUS
 10
10.8927311341
 20
12.2812010269
 40
0.8417105532
100
AcDbArc
 50
254.5893502396
 51
256.3890475954
  0
ARC
  5
37A
100
AcDbEntity
  8
0
100
AcDbCircle
 62
7
  6
CONTINUOUS
 10
10.8927311341
 20
12.8174155647
 40
0.8417105532
100
AcDbArc
 50
254.5893502396
 51
256.3890475954
  0
ARC
  5
37B
100
AcDbEntity
  8
0
100
AcDbCircle
 62
7
  6
CONTINUOUS
 10
11.2727145151
 20
5.6044738465
 40
0.8417095674
100
AcDbArc
 50
283.610963992
 51
285.4106627597
  0
ARC
  5
37C
100
AcDbEntity
  8
0
100
AcDbCircle
 62
7
  6
CONTINUOUS
 10
10.9155685995
 20
5.4064511136
 40
0.6694981451
100
AcDbArc
 50
243.667307359
 51
246.0329012255
  0
ARC
  5
37D
100
AcDbEntity
  8
0
100
AcDbCircle
 62
7
  6
CONTINUOUS
 10
11.6406448924
 20
7.7943242797
 40
0.6602617602
100
AcDbArc
 50
160.392675947
 51
167.8815006874
  0
ARC
  5
37E
100
AcDbEntity
  8
0
100
AcDbCircle
 62
7
  6
CONTINUOUS
 10
11.6076795337
 20
7.801274849
 40
0.6265718678
100
AcDbArc
 50
167.8700813822
 51
172.799490805
  0
ARC
  5
37F
100
AcDbEntity
  8
0
100
AcDbCircle
 62
7
  6
CONTINUOUS
 10
11.390086341
 20
8.039486326
 40
0.2869197512
100
AcDbArc
 50
287.0386210325
 51
287.7939280415
  0
ARC
  5
380
100
AcDbEntity
  8
0
100
AcDbCircle
 62
7
  6
CONTINUOUS
 10
11.2595289423
 20
8.8834372839
 40
0.275702026
100
AcDbArc
 50
162.6145048394
 51
172.5593470111
  0
ARC
  5
381
100
AcDbEntity
  8
0
100
AcDbCircle
 62
7
  6
CONTINUOUS
 10
9.9493531314
 20
8.3191510787
 40
0.2549509153
100
AcDbArc
 50
348.5882782882
 51
0.0369166851
  0
ARC
  5
382
100
AcDbEntity
  8
0
100
AcDbCircle
 62
7
  6
CONTINUOUS
 10
9.9157318943
 20
8.3571730974
 40
0.2549508394
100
AcDbArc
 50
168.5882771449
 51
180.0369222991
  0
ARC
  5
383
100
AcDbEntity
  8
0
100
AcDbCircle
 62
7
  6
CONTINUOUS
 10
10.3963957695
 20
11.4465447719
 40
0.2212642325
100
AcDbArc
 50
112.6364507104
 51
113.7300094958
  0
ARC
  5
384
100
AcDbEntity
  8
0
100
AcDbCircle
 62
7
  6
CONTINUOUS
 10
10.6131735401
 20
12.0631039752
 40
0.1128899362
100
AcDbArc
 50
130.5299266377
 51
133.932348809
  0
ARC
  5
385
100
AcDbEntity
  8
0
100
AcDbCircle
 62
7
  6
CONTINUOUS
 10
11.5522718596
 20
11.6134966935
 40
0.1128899362
100
AcDbArc
 50
310.5299266376
 51
313.9323488091
  0
ARC
  5
386
100
AcDbEntity
  8
0
100
AcDbCircle
 62
7
  6
CONTINUOUS
 10
11.5522718596
 20
12.1497112312
 40
0.1128899362
100
AcDbArc
 50
310.5299266376
 51
313.932348809
  0
ARC
  5
387
100
AcDbEntity
  8
0
100
AcDbCircle
 62
7
  6
CONTINUOUS
 10
9.9865622836
 20
9.1369910055
 40
0.0926407171
100
AcDbArc
 50
348.5892468725
 51
0.0369690314
  0
ARC
  5
388
100
AcDbEntity
  8
0
100
AcDbCircle
 62
7
  6
CONTINUOUS
 10
9.9743425261
 20
9.1508073508
 40
0.0926406133
100
AcDbArc
 50
168.589242927
 51
180.036989452
  0
ARC
  5
389
100
AcDbEntity
  8
0
100
AcDbCircle
 62
7
  6
CONTINUOUS
 10
11.0070587313
 20
8.4754047787
 40
0.0781656968
100
AcDbArc
 50
28.2794746583
 51
29.2574749679
  0
ARC
  5
38A
100
AcDbEntity
  8
0
100
AcDbCircle
 62
7
  6
CONTINUOUS
 10
11.013524301
 20
8.4681277818
 40
0.0766733397
100
AcDbArc
 50
36.3813467196
 51
36.5744419209
  0
ARC
  5
38B
100
AcDbEntity
  8
0
100
AcDbCircle
 62
7
  6
CONTINUOUS
 10
11.0575297454
 20
8.5479053749
 40
0.0384026048
100
AcDbArc
 50
296.0759047632
 51
297.3717491024
  0
LINE
  5
38C
100
AcDbEntity
  8
0
100
AcDbLine
 62
7
  6
CONTINUOUS
 10
11.074410051
 20
8.5134116748
 11
11.0710995125
 21
8.5119493038
  0
SPLINE
  5
38D
100
AcDbEntity
  8
0
100
AcDbSpline
 62
7
  6
CONTINUOUS
 70
0
 71
3
 72
22
 73
18
 74
0
 42
0.0000001
 43
0.0000001
 44
0.0000000001
 40
0.0
 40
0.0
 40
0.0
 40
0.0
 40
0.167751526
 40
0.2480238084
 40
0.3256359128
 40
0.4004111426
 40
0.472178774
 40
0.5407869482
 40
0.6060965654
 40
0.6679808479
 40
0.7263395669
 40
0.7810887528
 40
0.8321702725
 40
0.879563461
 40
0.9232789358
 40
0.9633811372
 40
1.0
 40
1.0
 40
1.0
 40
1.0
 10
11.0473499108
 20
8.5142586569
 30
0.0
 10
11.0499923522
 20
8.514601446
 30
0.0
 10
11.0538916683
 20
8.515171153
 30
0.0
 10
11.0589870218
 20
8.5160621812
 30
0.0
 10
11.0626143693
 20
8.5167705068
 30
0.0
 10
11.0660939634
 20
8.517526549
 30
0.0
 10
11.0694163631
 20
8.518328458
 30
0.0
 10
11.0725725851
 20
8.5191739143
 30
0.0
 10
11.0755541208
 20
8.5200605272
 30
0.0
 10
11.0783528859
 20
8.5209860914
 30
0.0
 10
11.0809614244
 20
8.5219478517
 30
0.0
 10
11.0833727747
 20
8.522943257
 30
0.0
 10
11.085580503
 20
8.5239697911
 30
0.0
 10
11.0875789391
 20
8.5250244435
 30
0.0
 10
11.0893629438
 20
8.5261048073
 30
0.0
 10
11.0909278027
 20
8.5272080726
 30
0.0
 10
11.0918637603
 20
8.5279917246
 30
0.0
 10
11.0922895734
 20
8.5283879683
 30
0.0
  0
SPLINE
  5
38E
100
AcDbEntity
  8
0
100
AcDbSpline
 62
7
  6
CONTINUOUS
 70
0
 71
3
 72
20
 73
16
 74
0
 42
0.0000001
 43
0.0000001
 44
0.0000000001
 40
0.0
 40
0.0
 40
0.0
 40
0.0
 40
0.0370548401
 40
0.0775111212
 40
0.1214919177
 40
0.1690686665
 40
0.22025706
 40
0.2750339414
 40
0.3333553364
 40
0.3951525843
 40
0.4603266994
 40
0.5287670873
 40
0.6749303807
 40
0.832453568
 40
1.0
 40
1.0
 40
1.0
 40
1.0
 10
10.4721116918
 20
11.6995532555
 30
0.0
 10
10.4726705656
 20
11.6990331232
 30
0.0
 10
10.473895026
 20
11.6980039284
 30
0.0
 10
10.475936385
 20
11.6965516893
 30
0.0
 10
10.4782561453
 20
11.6951280031
 30
0.0
 10
10.4808489283
 20
11.6937367453
 30
0.0
 10
10.4837084085
 20
11.6923808771
 30
0.0
 10
10.4868274497
 20
11.6910635547
 30
0.0
 10
10.4901985528
 20
11.6897882989
 30
0.0
 10
10.4938134337
 20
11.6885585104
 30
0.0
 10
10.4976629143
 20
11.687376901
 30
0.0
 10
10.503218193
 20
11.6858359812
 30
0.0
 10
10.5106816803
 20
11.684067371
 30
0.0
 10
10.5202163787
 20
11.6822237037
 30
0.0
 10
10.5268359097
 20
11.6811935383
 30
0.0
 10
10.5302549422
 20
11.6807171299
 30
0.0
  0
SPLINE
  5
38F
100
AcDbEntity
  8
0
100
AcDbSpline
 62
7
  6
CONTINUOUS
 70
0
 71
3
 72
11
 73
7
 74
0
 42
0.0000001
 43
0.0000001
 44
0.0000000001
 40
0.0
 40
0.0
 40
0.0
 40
0.0
 40
0.2259324321
 40
0.4697142686
 40
0.7285609553
 40
1.0
 40
1.0
 40
1.0
 40
1.0
 10
10.4831521738
 20
11.6928253939
 30
0.0
 10
10.4824164356
 20
11.6942358485
 30
0.0
 10
10.4809757161
 20
11.6972147878
 30
0.0
 10
10.4789424922
 20
11.701925626
 30
0.0
 10
10.4769472949
 20
11.7069984333
 30
0.0
 10
10.4756696824
 20
11.7105072203
 30
0.0
 10
10.4750333092
 20
11.7123093962
 30
0.0
  0
SPLINE
  5
390
100
AcDbEntity
  8
0
100
AcDbSpline
 62
7
  6
CONTINUOUS
 70
0
 71
3
 72
28
 73
24
 74
0
 42
0.0000001
 43
0.0000001
 44
0.0000000001
 40
0.0
 40
0.0
 40
0.0
 40
0.0
 40
0.0163513889
 40
0.0337113473
 40
0.0521130254
 40
0.0715777332
 40
0.0921191604
 40
0.1137454828
 40
0.1364602156
 40
0.1602601277
 40
0.1851367872
 40
0.2110791815
 40
0.2661022672
 40
0.3251847827
 40
0.3881400992
 40
0.4547507148
 40
0.5247677211
 40
0.5979236871
 40
0.6739245134
 40
0.7524643165
 40
0.833216071
 40
0.9158440388
 40
1.0
 40
1.0
 40
1.0
 40
1.0
 10
10.3337655198
 20
11.7259894808
 30
0.0
 10
10.3345835484
 20
11.7267507168
 30
0.0
 10
10.3363230797
 20
11.7282638227
 30
0.0
 10
10.3391418829
 20
11.7304430445
 30
0.0
 10
10.3422436196
 20
11.7325958082
 30
0.0
 10
10.3456244168
 20
11.7347199904
 30
0.0
 10
10.3492804575
 20
11.7368133548
 30
0.0
 10
10.3532077626
 20
11.7388735644
 30
0.0
 10
10.3574021764
 20
11.7408980819
 30
0.0
 10
10.361858896
 20
11.7428847259
 30
0.0
 10
10.3665727032
 20
11.7448314233
 30
0.0
 10
10.3733267713
 20
11.747421737
 30
0.0
 10
10.3823827958
 20
11.7505283636
 30
0.0
 10
10.3939787803
 20
11.753993859
 30
0.0
 10
10.4064552037
 20
11.7572501
 30
0.0
 10
10.4197552345
 20
11.7602817315
 30
0.0
 10
10.433818482
 20
11.7630752756
 30
0.0
 10
10.4485808123
 20
11.765616854
 30
0.0
 10
10.4639748471
 20
11.7678957197
 30
0.0
 10
10.4799301887
 20
11.7699001609
 30
0.0
 10
10.4963738507
 20
11.7716219755
 30
0.0
 10
10.5132305128
 20
11.7730522651
 30
0.0
 10
10.5246043979
 20
11.7738016442
 30
0.0
 10
10.5303462476
 20
11.7741276669
 30
0.0
  0
SPLINE
  5
391
100
AcDbEntity
  8
0
100
AcDbSpline
 62
7
  6
CONTINUOUS
 70
0
 71
3
 72
15
 73
11
 74
0
 42
0.0000001
 43
0.0000001
 44
0.0000000001
 40
0.0
 40
0.0
 40
0.0
 40
0.0
 40
0.1090312127
 40
0.2197878998
 40
0.3339080497
 40
0.4528713587
 40
0.57796851
 40
0.7102941733
 40
0.8507385035
 40
1.0
 40
1.0
 40
1.0
 40
1.0
 10
10.311369026
 20
11.6954270119
 30
0.0
 10
10.311368944
 20
11.6962336305
 30
0.0
 10
10.3114761957
 20
11.6978616126
 30
0.0
 10
10.3119580694
 20
11.7002908891
 30
0.0
 10
10.3127589446
 20
11.7027117332
 30
0.0
 10
10.313876071
 20
11.705120401
 30
0.0
 10
10.3153068988
 20
11.7075144891
 30
0.0
 10
10.3170493246
 20
11.7098915788
 30
0.0
 10
10.3191005846
 20
11.7122494992
 30
0.0
 10
10.3206240177
 20
11.7137598923
 30
0.0
 10
10.3214323679
 20
11.7145121725
 30
0.0
  0
SPLINE
  5
392
100
AcDbEntity
  8
0
100
AcDbSpline
 62
7
  6
CONTINUOUS
 70
0
 71
3
 72
35
 73
31
 74
0
 42
0.0000001
 43
0.0000001
 44
0.0000000001
 40
0.0
 40
0.0
 40
0.0
 40
0.0
 40
0.107514387
 40
0.2097934943
 40
0.306219061
 40
0.3962285654
 40
0.438675002
 40
0.4793446933
 40
0.5181895619
 40
0.5551673818
 40
0.5902497877
 40
0.6234168686
 40
0.6546560926
 40
0.6839657653
 40
0.7113652896
 40
0.7368932586
 40
0.7606082013
 40
0.7825956078
 40
0.8029817347
 40
0.8219382309
 40
0.8396860257
 40
0.8565021591
 40
0.8727214468
 40
0.8887204683
 40
0.9048912317
 40
0.921613692
 40
0.9392291827
 40
0.9580220347
 40
0.9782198541
 40
1.0
 40
1.0
 40
1.0
 40
1.0
 10
10.5302550724
 20
11.7348645305
 30
0.0
 10
10.5273811767
 20
11.7344640645
 30
0.0
 10
10.5217834165
 20
11.7336073633
 30
0.0
 10
10.5136540932
 20
11.7321116385
 30
0.0
 10
10.5060406758
 20
11.7304457122
 30
0.0
 10
10.5000588017
 20
11.7288968476
 30
0.0
 10
10.4955772923
 20
11.7275735646
 30
0.0
 10
10.4924434532
 20
11.7265657384
 30
0.0
 10
10.4894763698
 20
11.7255248598
 30
0.0
 10
10.4866813856
 20
11.7244525215
 30
0.0
 10
10.4840632707
 20
11.7233508115
 30
0.0
 10
10.4816264379
 20
11.7222217437
 30
0.0
 10
10.4793751593
 20
11.721067291
 30
0.0
 10
10.4773135157
 20
11.7198891583
 30
0.0
 10
10.4754448959
 20
11.718689464
 30
0.0
 10
10.4737722233
 20
11.7174702603
 30
0.0
 10
10.4722982825
 20
11.7162334076
 30
0.0
 10
10.4710259001
 20
11.7149803359
 30
0.0
 10
10.4699573325
 20
11.7137126779
 30
0.0
 10
10.4690945192
 20
11.7124320073
 30
0.0
 10
10.46843985
 20
11.7111397206
 30
0.0
 10
10.467996581
 20
11.7098375037
 30
0.0
 10
10.4677675621
 20
11.7085283848
 30
0.0
 10
10.4677541187
 20
11.7072166352
 30
0.0
 10
10.4679563503
 20
11.7059069429
 30
0.0
 10
10.4683730521
 20
11.7046036621
 30
0.0
 10
10.4690015961
 20
11.7033100388
 30
0.0
 10
10.4698386459
 20
11.7020278263
 30
0.0
 10
10.4708816443
 20
11.7007585392
 30
0.0
 10
10.4716813969
 20
11.6999537222
 30
0.0
 10
10.4721116918
 20
11.6995532555
 30
0.0
  0
SPLINE
  5
393
100
AcDbEntity
  8
0
100
AcDbSpline
 62
7
  6
CONTINUOUS
 70
0
 71
3
 72
20
 73
16
 74
0
 42
0.0000001
 43
0.0000001
 44
0.0000000001
 40
0.0
 40
0.0
 40
0.0
 40
0.0
 40
0.1206068978
 40
0.2408572474
 40
0.361235844
 40
0.4217495404
 40
0.4826371851
 40
0.5440381993
 40
0.6061218157
 40
0.669036422
 40
0.7329178704
 40
0.7978942277
 40
0.8640430825
 40
0.9314067673
 40
1.0
 40
1.0
 40
1.0
 40
1.0
 10
10.4750333092
 20
11.7123093962
 30
0.0
 10
10.4771653042
 20
11.7114050168
 30
0.0
 10
10.4814862854
 20
11.7097418353
 30
0.0
 10
10.4881526868
 20
11.7077936761
 30
0.0
 10
10.493848939
 20
11.7067278356
 30
0.0
 10
10.498471823
 20
11.7062741713
 30
0.0
 10
10.5019820101
 20
11.7061462671
 30
0.0
 10
10.5055234791
 20
11.7062443875
 30
0.0
 10
10.5090894036
 20
11.7065824544
 30
0.0
 10
10.5126717965
 20
11.7071654128
 30
0.0
 10
10.5162618557
 20
11.7079968827
 30
0.0
 10
10.5198491707
 20
11.7090791741
 30
0.0
 10
10.5234256874
 20
11.7104029799
 30
0.0
 10
10.5269823437
 20
11.7119606646
 30
0.0
 10
10.5293144598
 20
11.7131369993
 30
0.0
 10
10.5304756271
 20
11.7137586872
 30
0.0
  0
SPLINE
  5
394
100
AcDbEntity
  8
0
100
AcDbSpline
 62
7
  6
CONTINUOUS
 70
0
 71
3
 72
41
 73
37
 74
0
 42
0.0000001
 43
0.0000001
 44
0.0000000001
 40
0.0
 40
0.0
 40
0.0
 40
0.0
 40
0.1050123492
 40
0.2065104187
 40
0.2556312476
 40
0.303528662
 40
0.3501030781
 40
0.3952573068
 40
0.4388959195
 40
0.4809270813
 40
0.5212703904
 40
0.5598510218
 40
0.5965989841
 40
0.6314569303
 40
0.6643756131
 40
0.6953140751
 40
0.7242496076
 40
0.7511742921
 40
0.7760967512
 40
0.7990552357
 40
0.8201186924
 40
0.8393941496
 40
0.8570459989
 40
0.8733044098
 40
0.8810099408
 40
0.8884894472
 40
0.8957943872
 40
0.9029801415
 40
0.9101050331
 40
0.9172290518
 40
0.9244123809
 40
0.9317136514
 40
0.946873755
 40
0.9631143367
 40
0.9807464435
 40
1.0
 40
1.0
 40
1.0
 40
1.0
 10
10.5186547616
 20
11.6421909135
 30
0.0
 10
10.5104268764
 20
11.6427615192
 30
0.0
 10
10.4942606141
 20
11.6441009749
 30
0.0
 10
10.4743046127
 20
11.6463329609
 30
0.0
 10
10.4588545666
 20
11.6484323059
 30
0.0
 10
10.447705354
 20
11.6501336862
 30
0.0
 10
10.4368943263
 20
11.6519753815
 30
0.0
 10
10.4264474252
 20
11.6539525161
 30
0.0
 10
10.4163902993
 20
11.6560601186
 30
0.0
 10
10.4067477559
 20
11.6582935753
 30
0.0
 10
10.3975431718
 20
11.6606469512
 30
0.0
 10
10.3887987437
 20
11.663114301
 30
0.0
 10
10.3805357348
 20
11.6656901814
 30
0.0
 10
10.3727739212
 20
11.6683678465
 30
0.0
 10
10.365531865
 20
11.6711405291
 30
0.0
 10
10.3588271612
 20
11.6740022063
 30
0.0
 10
10.352675521
 20
11.6769455388
 30
0.0
 10
10.3470911337
 20
11.6799632728
 30
0.0
 10
10.3420873098
 20
11.6830493147
 30
0.0
 10
10.3376751284
 20
11.6861965275
 30
0.0
 10
10.3338640605
 20
11.6893982418
 30
0.0
 10
10.3306634796
 20
11.6926502284
 30
0.0
 10
10.3280815605
 20
11.6959466392
 30
0.0
 10
10.3264232244
 20
11.6987783831
 30
0.0
 10
10.3254391664
 20
11.701046139
 30
0.0
 10
10.3248740414
 20
11.7027220292
 30
0.0
 10
10.3244692552
 20
11.7044018363
 30
0.0
 10
10.3242251982
 20
11.7060844024
 30
0.0
 10
10.3241422292
 20
11.7077683927
 30
0.0
 10
10.3242205366
 20
11.7094524048
 30
0.0
 10
10.3244603404
 20
11.7111351059
 30
0.0
 10
10.3250012383
 20
11.7134026439
 30
0.0
 10
10.3261047697
 20
11.7162520682
 30
0.0
 10
10.3280508282
 20
11.7195905729
 30
0.0
 10
10.3306248194
 20
11.7228878193
 30
0.0
 10
10.3326585173
 20
11.7249593333
 30
0.0
 10
10.3337655198
 20
11.7259894808
 30
0.0
  0
SPLINE
  5
395
100
AcDbEntity
  8
0
100
AcDbSpline
 62
7
  6
CONTINUOUS
 70
0
 71
3
 72
33
 73
29
 74
0
 42
0.0000001
 43
0.0000001
 44
0.0000000001
 40
0.0
 40
0.0
 40
0.0
 40
0.0
 40
0.0958094992
 40
0.1891107041
 40
0.2792550537
 40
0.3657197578
 40
0.4480113782
 40
0.5256543354
 40
0.5625987301
 40
0.598227193
 40
0.6324944196
 40
0.6653603174
 40
0.696791591
 40
0.7267580849
 40
0.7552337749
 40
0.782202556
 40
0.8076567484
 40
0.831595509
 40
0.8540286541
 40
0.8749831512
 40
0.8945012288
 40
0.9126435363
 40
0.9294977538
 40
0.945184689
 40
0.9598602956
 40
0.9737214244
 40
0.9870091822
 40
1.0
 40
1.0
 40
1.0
 40
1.0
 10
10.5153418805
 20
11.6266270646
 30
0.0
 10
10.508175909
 20
11.6271240264
 30
0.0
 10
10.4940419428
 20
11.6282629809
 30
0.0
 10
10.473216246
 20
11.6304357004
 30
0.0
 10
10.4531461486
 20
11.633040582
 30
0.0
 10
10.4339688344
 20
11.6360584819
 30
0.0
 10
10.4158101151
 20
11.6394692878
 30
0.0
 10
10.4013971437
 20
11.6426701693
 30
0.0
 10
10.390476204
 20
11.6454242377
 30
0.0
 10
10.3827495036
 20
11.6475386335
 30
0.0
 10
10.3753634749
 20
11.6497328194
 30
0.0
 10
10.3683304099
 20
11.6520032786
 30
0.0
 10
10.3616617719
 20
11.6543458544
 30
0.0
 10
10.355368608
 20
11.6567565936
 30
0.0
 10
10.3494615674
 20
11.6592318838
 30
0.0
 10
10.343950265
 20
11.6617674469
 30
0.0
 10
10.3388434488
 20
11.6643588538
 30
0.0
 10
10.3341494967
 20
11.6670019897
 30
0.0
 10
10.3298762707
 20
11.6696931115
 30
0.0
 10
10.326030224
 20
11.6724276468
 30
0.0
 10
10.322617191
 20
11.6752014751
 30
0.0
 10
10.3196429568
 20
11.6780111918
 30
0.0
 10
10.3171127201
 20
11.6808535053
 30
0.0
 10
10.3150306377
 20
11.6837248562
 30
0.0
 10
10.3134015308
 20
11.6866221851
 30
0.0
 10
10.312231843
 20
11.6895425765
 30
0.0
 10
10.3115269927
 20
11.6924794767
 30
0.0
 10
10.311369125
 20
11.6944530435
 30
0.0
 10
10.311369026
 20
11.6954270119
 30
0.0
  0
SPLINE
  5
396
100
AcDbEntity
  8
0
100
AcDbSpline
 62
7
  6
CONTINUOUS
 70
0
 71
3
 72
21
 73
17
 74
0
 42
0.0000001
 43
0.0000001
 44
0.0000000001
 40
0.0
 40
0.0
 40
0.0
 40
0.0
 40
0.1531490359
 40
0.3008099925
 40
0.3721320407
 40
0.4415563308
 40
0.5089165747
 40
0.5740576584
 40
0.6368327091
 40
0.6971049991
 40
0.7547471779
 40
0.8096443819
 40
0.8616952094
 40
0.910813283
 40
0.9569308431
 40
1.0
 40
1.0
 40
1.0
 40
1.0
 10
10.9543485594
 20
4.7297602909
 30
0.0
 10
10.938091271
 20
4.7308877377
 30
0.0
 10
10.9061883085
 20
4.7335497404
 30
0.0
 10
10.8668377352
 20
4.7380314548
 30
0.0
 10
10.8364407241
 20
4.7422638465
 30
0.0
 10
10.8145630715
 20
4.7456975836
 30
0.0
 10
10.7933998411
 20
4.749418497
 30
0.0
 10
10.7730075622
 20
4.7534162807
 30
0.0
 10
10.7534404026
 20
4.75768043
 30
0.0
 10
10.7347502626
 20
4.7621992755
 30
0.0
 10
10.7169867152
 20
4.766960795
 30
0.0
 10
10.7001968054
 20
4.771952181
 30
0.0
 10
10.6844248675
 20
4.777159915
 30
0.0
 10
10.6697122713
 20
4.7825703437
 30
0.0
 10
10.6560978794
 20
4.7881684809
 30
0.0
 10
10.6474803927
 20
4.792153533
 30
0.0
 10
10.6433714777
 20
4.7941832999
 30
0.0
  0
SPLINE
  5
397
100
AcDbEntity
  8
0
100
AcDbSpline
 62
7
  6
CONTINUOUS
 70
0
 71
3
 72
9
 73
5
 74
0
 42
0.0000001
 43
0.0000001
 44
0.0000000001
 40
0.0
 40
0.0
 40
0.0
 40
0.0
 40
0.5143582232
 40
1.0
 40
1.0
 40
1.0
 40
1.0
 10
10.539812637
 20
4.8509665298
 30
0.0
 10
10.5381150513
 20
4.852419174
 30
0.0
 10
10.5348915839
 20
4.8553350543
 30
0.0
 10
10.5318593214
 20
4.8584507169
 30
0.0
 10
10.5304444907
 20
4.8600154488
 30
0.0
  0
SPLINE
  5
398
100
AcDbEntity
  8
0
100
AcDbSpline
 62
7
  6
CONTINUOUS
 70
0
 71
3
 72
22
 73
18
 74
0
 42
0.0000001
 43
0.0000001
 44
0.0000000001
 40
0.0
 40
0.0
 40
0.0
 40
0.0
 40
0.1604467223
 40
0.2374926511
 40
0.3122210204
 40
0.3844908515
 40
0.4541717897
 40
0.5211471428
 40
0.5853277936
 40
0.6466510947
 40
0.7050977672
 40
0.7606868075
 40
0.8134919058
 40
0.8636316218
 40
0.9112795969
 40
0.9566503556
 40
1.0
 40
1.0
 40
1.0
 40
1.0
 10
11.635000909
 20
4.9269182288
 30
0.0
 10
11.6311013086
 20
4.9191845859
 30
0.0
 10
11.6251754085
 20
4.9078129079
 30
0.0
 10
11.6169919472
 20
4.8930778232
 30
0.0
 10
11.6109110378
 20
4.8826223682
 30
0.0
 10
11.6048046656
 20
4.8726448574
 30
0.0
 10
11.598674836
 20
4.8631763047
 30
0.0
 10
11.5925230189
 20
4.8542471404
 30
0.0
 10
11.586352658
 20
4.8458847859
 30
0.0
 10
11.5801659227
 20
4.8381144487
 30
0.0
 10
11.5739673325
 20
4.8309560174
 30
0.0
 10
11.5677596624
 20
4.8244257912
 30
0.0
 10
11.561547989
 20
4.818532936
 30
0.0
 10
11.5553355668
 20
4.8132822605
 30
0.0
 10
11.5491273218
 20
4.8086707775
 30
0.0
 10
11.5429273698
 20
4.8046913442
 30
0.0
 10
11.5387143389
 20
4.8024025453
 30
0.0
 10
11.5366159607
 20
4.8013667771
 30
0.0
  0
SPLINE
  5
399
100
AcDbEntity
  8
0
100
AcDbSpline
 62
7
  6
CONTINUOUS
 70
0
 71
3
 72
21
 73
17
 74
0
 42
0.0000001
 43
0.0000001
 44
0.0000000001
 40
0.0
 40
0.0
 40
0.0
 40
0.0
 40
0.1510078573
 40
0.2967110302
 40
0.3672017689
 40
0.4359316308
 40
0.5027626753
 40
0.5675659429
 40
0.6302185348
 40
0.6906055341
 40
0.7486186947
 40
0.8041596081
 40
0.8571391235
 40
0.9074798608
 40
0.9551170153
 40
1.0
 40
1.0
 40
1.0
 40
1.0
 10
10.9185142201
 20
5.2891660097
 30
0.0
 10
10.9016300852
 20
5.2904877384
 30
0.0
 10
10.8684870471
 20
5.2935182597
 30
0.0
 10
10.8275912931
 20
5.2984213695
 30
0.0
 10
10.7959593698
 20
5.3029599118
 30
0.0
 10
10.7731392112
 20
5.3066092911
 30
0.0
 10
10.7510122066
 20
5.3105336618
 30
0.0
 10
10.7296280114
 20
5.3147238563
 30
0.0
 10
10.7090343758
 20
5.3191707086
 30
0.0
 10
10.6892772315
 20
5.3238639076
 30
0.0
 10
10.6704006743
 20
5.3287931154
 30
0.0
 10
10.6524467716
 20
5.3339470196
 30
0.0
 10
10.6354554715
 20
5.339314103
 30
0.0
 10
10.6194643308
 20
5.3448822909
 30
0.0
 10
10.604509038
 20
5.3506389538
 30
0.0
 10
10.5949641451
 20
5.3547165758
 30
0.0
 10
10.5903780449
 20
5.3567916316
 30
0.0
  0
SPLINE
  5
39A
100
AcDbEntity
  8
0
100
AcDbSpline
 62
7
  6
CONTINUOUS
 70
0
 71
3
 72
15
 73
11
 74
0
 42
0.0000001
 43
0.0000001
 44
0.0000000001
 40
0.0
 40
0.0
 40
0.0
 40
0.0
 40
0.1155259853
 40
0.2358044075
 40
0.3598540589
 40
0.4866501322
 40
0.6151382951
 40
0.7442445104
 40
0.8728909103
 40
1.0
 40
1.0
 40
1.0
 40
1.0
 10
11.3684266137
 20
5.3028630704
 30
0.0
 10
11.3525874059
 20
5.3004727775
 30
0.0
 10
11.3201758802
 20
5.2961225633
 30
0.0
 10
11.2705441299
 20
5.290930224
 30
0.0
 10
11.2192314856
 20
5.2869693464
 30
0.0
 10
11.1666973602
 20
5.2842762723
 30
0.0
 10
11.113411726
 20
5.2828756069
 30
0.0
 10
11.059851196
 20
5.2827800786
 30
0.0
 10
11.0064958469
 20
5.2839906515
 30
0.0
 10
10.9710689873
 20
5.2856757949
 30
0.0
 10
10.9534765914
 20
5.286741361
 30
0.0
  0
SPLINE
  5
39B
100
AcDbEntity
  8
0
100
AcDbSpline
 62
7
  6
CONTINUOUS
 70
0
 71
3
 72
27
 73
23
 74
0
 42
0.0000001
 43
0.0000001
 44
0.0000000001
 40
0.0
 40
0.0
 40
0.0
 40
0.0
 40
0.0193647791
 40
0.0398589276
 40
0.061469632
 40
0.0841790588
 40
0.1079649992
 40
0.1327998891
 40
0.1586536891
 40
0.1854921547
 40
0.241969901
 40
0.3019081106
 40
0.3649423317
 40
0.4306772966
 40
0.4986918916
 40
0.5685444601
 40
0.6397769575
 40
0.7119194786
 40
0.7844946583
 40
0.8570173254
 40
0.9290164762
 40
1.0
 40
1.0
 40
1.0
 40
1.0
 10
11.5220691255
 20
4.7941809424
 30
0.0
 10
11.5187346776
 20
4.7925338049
 30
0.0
 10
11.5117999746
 20
4.7892865667
 30
0.0
 10
11.5009327784
 20
4.7846687809
 30
0.0
 10
11.4893230393
 20
4.7801729215
 30
0.0
 10
11.4769913026
 20
4.7758071635
 30
0.0
 10
11.4639591237
 20
4.7715795459
 30
0.0
 10
11.4502496053
 20
4.7674971177
 30
0.0
 10
11.4358868618
 20
4.7635675911
 30
0.0
 10
11.4155521329
 20
4.7584541358
 30
0.0
 10
11.3886787345
 20
4.7525269744
 30
0.0
 10
11.3547871769
 20
4.7462403849
 30
0.0
 10
11.3189643846
 20
4.7407102394
 30
0.0
 10
11.2814644246
 20
4.7359765566
 30
0.0
 10
11.2425530286
 20
4.7320735832
 30
0.0
 10
11.2025063941
 20
4.7290295365
 30
0.0
 10
11.1616088199
 20
4.7268664128
 30
0.0
 10
11.1201506561
 20
4.7255998863
 30
0.0
 10
11.0784270055
 20
4.7252392441
 30
0.0
 10
11.0367328518
 20
4.7257866368
 30
0.0
 10
10.9953664334
 20
4.7272387535
 30
0.0
 10
10.9679485757
 20
4.7288171266
 30
0.0
 10
10.9543485594
 20
4.7297602909
 30
0.0
  0
SPLINE
  5
39C
100
AcDbEntity
  8
0
100
AcDbSpline
 62
7
  6
CONTINUOUS
 70
0
 71
3
 72
9
 73
5
 74
0
 42
0.0000001
 43
0.0000001
 44
0.0000000001
 40
0.0
 40
0.0
 40
0.0
 40
0.0
 40
0.4953413827
 40
1.0
 40
1.0
 40
1.0
 40
1.0
 10
10.618590839
 20
4.8064244674
 30
0.0
 10
10.6051904431
 20
4.8130471709
 30
0.0
 10
10.5785522054
 20
4.8272660388
 30
0.0
 10
10.5526908086
 20
4.8428383133
 30
0.0
 10
10.539812637
 20
4.8509665298
 30
0.0
  0
SPLINE
  5
39D
100
AcDbEntity
  8
0
100
AcDbSpline
 62
7
  6
CONTINUOUS
 70
0
 71
3
 72
15
 73
11
 74
0
 42
0.0000001
 43
0.0000001
 44
0.0000000001
 40
0.0
 40
0.0
 40
0.0
 40
0.0
 40
0.1413072284
 40
0.2792775745
 40
0.4131822496
 40
0.542375837
 40
0.666220648
 40
0.7841257491
 40
0.8955485302
 40
1.0
 40
1.0
 40
1.0
 40
1.0
 10
10.9213232765
 20
5.3052345109
 30
0.0
 10
10.9065564026
 20
5.3062585971
 30
0.0
 10
10.8773908924
 20
5.3085785921
 30
0.0
 10
10.8343248796
 20
5.3129305646
 30
0.0
 10
10.7926266095
 20
5.3180953326
 30
0.0
 10
10.7525277164
 20
5.3240431304
 30
0.0
 10
10.7142471734
 20
5.3307412309
 30
0.0
 10
10.6779953639
 20
5.3381519009
 30
0.0
 10
10.6439716102
 20
5.3462332639
 30
0.0
 10
10.6221636957
 20
5.35224018
 30
0.0
 10
10.611678748
 20
5.355368175
 30
0.0
  0
SPLINE
  5
39E
100
AcDbEntity
  8
0
100
AcDbSpline
 62
7
  6
CONTINUOUS
 70
0
 71
3
 72
15
 73
11
 74
0
 42
0.0000001
 43
0.0000001
 44
0.0000000001
 40
0.0
 40
0.0
 40
0.0
 40
0.0
 40
0.1238021373
 40
0.2492560772
 40
0.3756885523
 40
0.5024672275
 40
0.6289344993
 40
0.7544396502
 40
0.8783394443
 40
1.0
 40
1.0
 40
1.0
 40
1.0
 10
10.9213232765
 20
5.3052345109
 30
0.0
 10
10.9363658129
 20
5.3041913074
 30
0.0
 10
10.9666741019
 20
5.3024037857
 30
0.0
 10
11.0123994625
 20
5.3006154422
 30
0.0
 10
11.0585135309
 20
5.2997085352
 30
0.0
 10
11.104759857
 20
5.2996876056
 30
0.0
 10
11.1508851446
 20
5.3005531102
 30
0.0
 10
11.1966346915
 20
5.3023000648
 30
0.0
 10
11.2417561196
 20
5.3049186079
 30
0.0
 10
11.2715752199
 20
5.3072611398
 30
0.0
 10
11.2863341805
 20
5.3085806619
 30
0.0
  0
SPLINE
  5
39F
100
AcDbEntity
  8
0
100
AcDbSpline
 62
7
  6
CONTINUOUS
 70
0
 71
3
 72
21
 73
17
 74
0
 42
0.0000001
 43
0.0000001
 44
0.0000000001
 40
0.0
 40
0.0
 40
0.0
 40
0.0
 40
0.1269682035
 40
0.1902969066
 40
0.2535018462
 40
0.3165695248
 40
0.3794879784
 40
0.4422477447
 40
0.5048417135
 40
0.5672670242
 40
0.6295247604
 40
0.6916195212
 40
0.7535600636
 40
0.8153570273
 40
0.8770222222
 40
1.0
 40
1.0
 40
1.0
 40
1.0
 10
11.4707924293
 20
4.7864028619
 30
0.0
 10
11.4497497357
 20
4.7792078419
 30
0.0
 10
11.4179520542
 20
4.7691497118
 30
0.0
 10
11.3750842401
 20
4.7575611795
 30
0.0
 10
11.3427683907
 20
4.7498848258
 30
0.0
 10
11.3102850696
 20
4.7433015001
 30
0.0
 10
11.2776649445
 20
4.7378859276
 30
0.0
 10
11.2449474481
 20
4.7336995884
 30
0.0
 10
11.2121787863
 20
4.730782767
 30
0.0
 10
11.1794090266
 20
4.729151031
 30
0.0
 10
11.1466882606
 20
4.7287960641
 30
0.0
 10
11.1140630549
 20
4.7296842755
 30
0.0
 10
11.0815735022
 20
4.7317598035
 30
0.0
 10
11.0492506725
 20
4.734952294
 30
0.0
 10
11.0064494961
 20
4.7405834817
 30
0.0
 10
10.974584959
 20
4.7462370933
 30
0.0
 10
10.9534765914
 20
4.7505268233
 30
0.0
  0
SPLINE
  5
3A0
100
AcDbEntity
  8
0
100
AcDbSpline
 62
7
  6
CONTINUOUS
 70
0
 71
3
 72
15
 73
11
 74
0
 42
0.0000001
 43
0.0000001
 44
0.0000000001
 40
0.0
 40
0.0
 40
0.0
 40
0.0
 40
0.1199816703
 40
0.2406796119
 40
0.36242774
 40
0.4856181779
 40
0.6106603149
 40
0.7379211228
 40
0.867662314
 40
1.0
 40
1.0
 40
1.0
 40
1.0
 10
10.9185142201
 20
4.7529514719
 30
0.0
 10
10.9073550138
 20
4.7516846244
 30
0.0
 10
10.884900342
 20
4.7497083119
 30
0.0
 10
10.8509705318
 20
4.7486811317
 30
0.0
 10
10.8167389226
 20
4.7498466057
 30
0.0
 10
10.7822639452
 20
4.7534416111
 30
0.0
 10
10.7476344975
 20
4.759641603
 30
0.0
 10
10.712961915
 20
4.7685277145
 30
0.0
 10
10.6783640908
 20
4.7800683757
 30
0.0
 10
10.6556363627
 20
4.78935146
 30
0.0
 10
10.6443099292
 20
4.7943675668
 30
0.0
  0
LINE
  5
3A1
100
AcDbEntity
  8
0
100
AcDbLine
 62
7
  6
CONTINUOUS
 10
10.6443099292
 20
4.7943675668
 11
10.643610428
 21
4.7946778555
  0
SPLINE
  5
3A2
100
AcDbEntity
  8
0
100
AcDbSpline
 62
7
  6
CONTINUOUS
 70
0
 71
3
 72
9
 73
5
 74
0
 42
0.0000001
 43
0.0000001
 44
0.0000000001
 40
0.0
 40
0.0
 40
0.0
 40
0.0
 40
0.5102770743
 40
1.0
 40
1.0
 40
1.0
 40
1.0
 10
11.5366159607
 20
4.8013667771
 30
0.0
 10
11.5341893511
 20
4.8001689926
 30
0.0
 10
11.5293240468
 20
4.7980364261
 30
0.0
 10
11.5242751894
 20
4.796382969
 30
0.0
 10
11.5217700124
 20
4.7956980338
 30
0.0
  0
SPLINE
  5
3A3
100
AcDbEntity
  8
0
100
AcDbSpline
 62
7
  6
CONTINUOUS
 70
0
 71
3
 72
11
 73
7
 74
0
 42
0.0000001
 43
0.0000001
 44
0.0000000001
 40
0.0
 40
0.0
 40
0.0
 40
0.0
 40
0.2558334785
 40
0.5065974291
 40
0.7541243364
 40
1.0
 40
1.0
 40
1.0
 40
1.0
 10
11.5217700124
 20
4.7956980338
 30
0.0
 10
11.5196620432
 20
4.7951216983
 30
0.0
 10
11.515438033
 20
4.7941542046
 30
0.0
 10
11.5090540218
 20
4.7932430142
 30
0.0
 10
11.5027028184
 20
4.792854161
 30
0.0
 10
11.4984841689
 20
4.7929194526
 30
0.0
 10
11.4963866542
 20
4.7930271322
 30
0.0
  0
SPLINE
  5
3A4
100
AcDbEntity
  8
0
100
AcDbSpline
 62
7
  6
CONTINUOUS
 70
0
 71
3
 72
15
 73
11
 74
0
 42
0.0000001
 43
0.0000001
 44
0.0000000001
 40
0.0
 40
0.0
 40
0.0
 40
0.0
 40
0.1480338018
 40
0.2876836626
 40
0.4196214625
 40
0.5446862234
 40
0.6639315005
 40
0.7786015048
 40
0.8901089887
 40
1.0
 40
1.0
 40
1.0
 40
1.0
 10
10.4803713189
 20
11.5805132607
 30
0.0
 10
10.4786623688
 20
11.5788625416
 30
0.0
 10
10.4754415511
 20
11.5755479111
 30
0.0
 10
10.471110484
 20
11.5703815484
 30
0.0
 10
10.4674312353
 20
11.5651759722
 30
0.0
 10
10.4644106009
 20
11.5599357928
 30
0.0
 10
10.4620535162
 20
11.5546662044
 30
0.0
 10
10.4603647178
 20
11.549372243
 30
0.0
 10
10.4593494284
 20
11.544061464
 30
0.0
 10
10.4591229731
 20
11.540503949
 30
0.0
 10
10.4591229327
 20
11.5387401544
 30
0.0
  0
SPLINE
  5
3A5
100
AcDbEntity
  8
0
100
AcDbSpline
 62
7
  6
CONTINUOUS
 70
0
 71
3
 72
14
 73
10
 74
0
 42
0.0000001
 43
0.0000001
 44
0.0000000001
 40
0.0
 40
0.0
 40
0.0
 40
0.0
 40
0.1054715982
 40
0.2162955815
 40
0.3326228651
 40
0.4545706514
 40
0.5822287448
 40
0.7156637083
 40
1.0
 40
1.0
 40
1.0
 40
1.0
 10
10.4803713189
 20
11.5805132607
 30
0.0
 10
10.4818932429
 20
11.5819833265
 30
0.0
 10
10.4850999833
 20
11.5849103227
 30
0.0
 10
10.4902483958
 20
11.5891594354
 30
0.0
 10
10.4958474841
 20
11.5933703878
 30
0.0
 10
10.5018925633
 20
11.5975392877
 30
0.0
 10
10.5083790806
 20
11.601662895
 30
0.0
 10
10.517810305
 20
11.6072147168
 30
0.0
 10
10.5252338904
 20
11.6111189773
 30
0.0
 10
10.5303483037
 20
11.6136453435
 30
0.0
  0
LINE
  5
3A6
100
AcDbEntity
  8
0
100
AcDbLine
 62
7
  6
CONTINUOUS
 10
10.5348495387
 20
12.144402736
 11
10.5304444335
 21
12.13985893
  0
SPLINE
  5
3A7
100
AcDbEntity
  8
0
100
AcDbSpline
 62
7
  6
CONTINUOUS
 70
0
 71
3
 72
22
 73
18
 74
0
 42
0.0000001
 43
0.0000001
 44
0.0000000001
 40
0.0
 40
0.0
 40
0.0
 40
0.0
 40
0.1604466494
 40
0.2374925479
 40
0.3122208918
 40
0.3844907025
 40
0.4541716256
 40
0.5211469695
 40
0.5853276172
 40
0.6466509213
 40
0.705097603
 40
0.7606866584
 40
0.8134917776
 40
0.8636315198
 40
0.9112795254
 40
0.9566503185
 40
1.0
 40
1.0
 40
1.0
 40
1.0
 10
11.6350009662
 20
12.0729562765
 30
0.0
 10
11.6311013615
 20
12.0806899146
 30
0.0
 10
11.625175455
 20
12.0920615854
 30
0.0
 10
11.6169919854
 20
12.1067966609
 30
0.0
 10
11.6109110697
 20
12.1172521099
 30
0.0
 10
11.6048046911
 20
12.1272296153
 30
0.0
 10
11.5986748551
 20
12.1366981634
 30
0.0
 10
11.5925230317
 20
12.1456273238
 30
0.0
 10
11.5863526643
 20
12.1539896752
 30
0.0
 10
11.5801659225
 20
12.1617600101
 30
0.0
 10
11.5739673259
 20
12.1689184399
 30
0.0
 10
11.5677596493
 20
12.1754486655
 30
0.0
 10
11.5615479694
 20
12.1813415209
 30
0.0
 10
11.5553355406
 20
12.1865921973
 30
0.0
 10
11.5491272891
 20
12.1912036819
 30
0.0
 10
11.5429273306
 20
12.1951831176
 30
0.0
 10
11.5387142953
 20
12.1974719183
 30
0.0
 10
11.5366159149
 20
12.1985076875
 30
0.0
  0
SPLINE
  5
3A8
100
AcDbEntity
  8
0
100
AcDbSpline
 62
7
  6
CONTINUOUS
 70
0
 71
3
 72
41
 73
37
 74
0
 42
0.0000001
 43
0.0000001
 44
0.0000000001
 40
0.0
 40
0.0
 40
0.0
 40
0.0
 40
0.0099879215
 40
0.0204487126
 40
0.0427707791
 40
0.0669221646
 40
0.0928355518
 40
0.1204270154
 40
0.1495991481
 40
0.1802419157
 40
0.2122355269
 40
0.2454512599
 40
0.2797523359
 40
0.3149958608
 40
0.3510330344
 40
0.3877105466
 40
0.4248715963
 40
0.4623564064
 40
0.5000035788
 40
0.537650692
 40
0.5751354099
 40
0.6122962761
 40
0.6489735831
 40
0.685010525
 40
0.7202536324
 40
0.7545543434
 40
0.7877696109
 40
0.8197626715
 40
0.8504049834
 40
0.8795764179
 40
0.9071672517
 40
0.9330800217
 40
0.9572305453
 40
0.9795520919
 40
0.9900124528
 40
1.0
 40
1.0
 40
1.0
 40
1.0
 10
11.5220661552
 20
12.2056950452
 30
0.0
 10
11.5193934473
 20
12.2070152779
 30
0.0
 10
11.5138758103
 20
12.2096265694
 30
0.0
 10
11.5021783176
 20
12.2147414073
 30
0.0
 10
11.4863323323
 20
12.2209000066
 30
0.0
 10
11.4658521753
 20
12.2277982298
 30
0.0
 10
11.4436068948
 20
12.2343240059
 30
0.0
 10
11.4196983266
 20
12.2404470009
 30
0.0
 10
11.3942354851
 20
12.2461380962
 30
0.0
 10
11.3673353012
 20
12.251371009
 30
0.0
 10
11.3391214441
 20
12.256121055
 30
0.0
 10
11.3097238354
 20
12.2603658203
 30
0.0
 10
11.2792780266
 20
12.2640857785
 30
0.0
 10
11.2479244806
 20
12.2672632166
 30
0.0
 10
11.2158079084
 20
12.2698833788
 30
0.0
 10
11.1830766118
 20
12.2719341903
 30
0.0
 10
11.1498817402
 20
12.2734057451
 30
0.0
 10
11.1163766138
 20
12.2742914536
 30
0.0
 10
11.0827160309
 20
12.2745871266
 30
0.0
 10
11.0490554787
 20
12.2742911852
 30
0.0
 10
11.0155504558
 20
12.2734053302
 30
0.0
 10
10.9823557418
 20
12.2719334541
 30
0.0
 10
10.9496246438
 20
12.2698824484
 30
0.0
 10
10.9175083404
 20
12.2672621153
 30
0.0
 10
10.8861551315
 20
12.2640843557
 30
0.0
 10
10.8557097135
 20
12.2603642737
 30
0.0
 10
10.8263125518
 20
12.2561192878
 30
0.0
 10
10.7980991851
 20
12.2513689814
 30
0.0
 10
10.7711995334
 20
12.2461359943
 30
0.0
 10
10.7457372975
 20
12.240444623
 30
0.0
 10
10.7218293704
 20
12.2343214754
 30
0.0
 10
10.699584756
 20
12.2277956512
 30
0.0
 10
10.6791053327
 20
12.2208971268
 30
0.0
 10
10.6632599187
 20
12.2147385404
 30
0.0
 10
10.6515629748
 20
12.209623433
 30
0.0
 10
10.6460455918
 20
12.2070121705
 30
0.0
 10
10.6433729939
 20
12.2056919673
 30
0.0
  0
SPLINE
  5
3A9
100
AcDbEntity
  8
0
100
AcDbSpline
 62
7
  6
CONTINUOUS
 70
0
 71
3
 72
9
 73
5
 74
0
 42
0.0000001
 43
0.0000001
 44
0.0000000001
 40
0.0
 40
0.0
 40
0.0
 40
0.0
 40
0.4953413656
 40
1.0
 40
1.0
 40
1.0
 40
1.0
 10
10.6185909014
 20
12.1934500054
 30
0.0
 10
10.6051904818
 20
12.1868272901
 30
0.0
 10
10.5785521973
 20
12.1726083939
 30
0.0
 10
10.5526907574
 20
12.1570360852
 30
0.0
 10
10.5398125644
 20
12.1489078501
 30
0.0
  0
SPLINE
  5
3AA
100
AcDbEntity
  8
0
100
AcDbSpline
 62
7
  6
CONTINUOUS
 70
0
 71
3
 72
23
 73
19
 74
0
 42
0.0000001
 43
0.0000001
 44
0.0000000001
 40
0.0
 40
0.0
 40
0.0
 40
0.0
 40
0.0879276662
 40
0.1719756785
 40
0.252162754
 40
0.3285246645
 40
0.4011144641
 40
0.470011206
 40
0.5353239215
 40
0.5971913133
 40
0.655789952
 40
0.7113442236
 40
0.7641269611
 40
0.8144653623
 40
0.8627486925
 40
0.9094250481
 40
0.9549947553
 40
1.0
 40
1.0
 40
1.0
 40
1.0
 10
11.6350967838
 20
11.6136454832
 30
0.0
 10
11.6379437917
 20
11.6122391314
 30
0.0
 10
11.643473535
 20
11.6094091237
 30
0.0
 10
11.6514457052
 20
11.6050041242
 30
0.0
 10
11.6589017096
 20
11.6005388212
 30
0.0
 10
11.6658349789
 20
11.5960173085
 30
0.0
 10
11.6722392284
 20
11.5914432456
 30
0.0
 10
11.6781087593
 20
11.5868204676
 30
0.0
 10
11.6834386472
 20
11.582153041
 30
0.0
 10
11.688224068
 20
11.5774445821
 30
0.0
 10
11.692460324
 20
11.5726984426
 30
0.0
 10
11.6961436608
 20
11.5679184476
 30
0.0
 10
11.6992702796
 20
11.5631080841
 30
0.0
 10
11.7018358408
 20
11.5582706165
 30
0.0
 10
11.7038367265
 20
11.5534101769
 30
0.0
 10
11.7052695937
 20
11.5485310841
 30
0.0
 10
11.7061307618
 20
11.543639433
 30
0.0
 10
11.7063225043
 20
11.5403652653
 30
0.0
 10
11.706322467
 20
11.5387399468
 30
0.0
  0
SPLINE
  5
3AB
100
AcDbEntity
  8
0
100
AcDbSpline
 62
7
  6
CONTINUOUS
 70
0
 71
3
 72
63
 73
59
 74
0
 42
0.0000001
 43
0.0000001
 44
0.0000000001
 40
0.0
 40
0.0
 40
0.0
 40
0.0
 40
0.0078484538
 40
0.0150469368
 40
0.0216919854
 40
0.0248497539
 40
0.0279219339
 40
0.0309302242
 40
0.0338978731
 40
0.0368491375
 40
0.0398086656
 40
0.0428008916
 40
0.0458494454
 40
0.0521971445
 40
0.0590127229
 40
0.0664180168
 40
0.0745027202
 40
0.0833307886
 40
0.0929443416
 40
0.1033699989
 40
0.114621067
 40
0.1267014068
 40
0.1396067314
 40
0.1533262434
 40
0.1678440615
 40
0.1831392023
 40
0.199187432
 40
0.2159602495
 40
0.2334269142
 40
0.2515531939
 40
0.2703030313
 40
0.2896377103
 40
0.3298965753
 40
0.371986544
 40
0.4155397648
 40
0.4601706488
 40
0.5054808246
 40
0.5510639476
 40
0.5965105065
 40
0.6414126018
 40
0.6853686509
 40
0.7279882026
 40
0.7688969436
 40
0.8077418048
 40
0.8262880158
 40
0.8441982764
 40
0.8614373541
 40
0.8779718773
 40
0.8937720878
 40
0.9088105918
 40
0.9230644311
 40
0.9365141463
 40
0.9491453935
 40
0.9609492088
 40
0.9719239766
 40
0.9820775587
 40
0.9914267709
 40
1.0
 40
1.0
 40
1.0
 40
1.0
 10
10.6036234616
 20
12.1793398912
 30
0.0
 10
10.6016143954
 20
12.1773992821
 30
0.0
 10
10.5979321368
 20
12.1734945105
 30
0.0
 10
10.5933112665
 20
12.1672862506
 30
0.0
 10
10.590391035
 20
12.1619576906
 30
0.0
 10
10.5886951564
 20
12.1576957448
 30
0.0
 10
10.5877431084
 20
12.154544224
 30
0.0
 10
10.5870910096
 20
12.1513861486
 30
0.0
 10
10.586739785
 20
12.1482237129
 30
0.0
 10
10.5866896553
 20
12.1450595102
 30
0.0
 10
10.5869405959
 20
12.1418961742
 30
0.0
 10
10.587492469
 20
12.138736114
 30
0.0
 10
10.5886436688
 20
12.1344745759
 30
0.0
 10
10.59088209
 20
12.1291252907
 30
0.0
 10
10.5947213477
 20
12.122864881
 30
0.0
 10
10.5997305193
 20
12.1166815718
 30
0.0
 10
10.605892124
 20
12.1105833396
 30
0.0
 10
10.6131919014
 20
12.1045792056
 30
0.0
 10
10.6216127189
 20
12.0986785746
 30
0.0
 10
10.6311365576
 20
12.0928940072
 30
0.0
 10
10.6417417021
 20
12.0872372769
 30
0.0
 10
10.6534041765
 20
12.0817216786
 30
0.0
 10
10.6660968745
 20
12.0763599303
 30
0.0
 10
10.6797900752
 20
12.0711646894
 30
0.0
 10
10.6944514863
 20
12.0661487528
 30
0.0
 10
10.7100462331
 20
12.0613237171
 30
0.0
 10
10.7265372082
 20
12.0567019088
 30
0.0
 10
10.7438849251
 20
12.0522938271
 30
0.0
 10
10.7620478817
 20
12.0481108748
 30
0.0
 10
10.7809824668
 20
12.0441625787
 30
0.0
 10
10.8006432788
 20
12.0404589686
 30
0.0
 10
10.8281342678
 20
12.0357959739
 30
0.0
 10
10.8639660028
 20
12.0306720873
 30
0.0
 10
10.9085041924
 20
12.0257008316
 30
0.0
 10
10.954716737
 20
12.0218766544
 30
0.0
 10
11.0021594202
 20
12.0192369857
 30
0.0
 10
11.0503765357
 20
12.0178078282
 30
0.0
 10
11.0989045941
 20
12.0176032054
 30
0.0
 10
11.1472771001
 20
12.018625136
 30
0.0
 10
11.1950290861
 20
12.0208635825
 30
0.0
 10
11.2417016078
 20
12.0242965721
 30
0.0
 10
11.2868465371
 20
12.0288902807
 30
0.0
 10
11.3300301133
 20
12.0345996287
 30
0.0
 10
11.3645514319
 20
12.0403246329
 30
0.0
 10
11.3908575918
 20
12.0454519001
 30
0.0
 10
11.4095399421
 20
12.0494796889
 30
0.0
 10
11.4274358872
 20
12.0537387022
 30
0.0
 10
11.4445025146
 20
12.0582193735
 30
0.0
 10
11.460699012
 20
12.0629100797
 30
0.0
 10
11.4759866415
 20
12.0678001444
 30
0.0
 10
11.4903290893
 20
12.0728771589
 30
0.0
 10
11.5036922744
 20
12.07812938
 30
0.0
 10
11.516044654
 20
12.0835438799
 30
0.0
 10
11.5273574842
 20
12.0891077395
 30
0.0
 10
11.5376047241
 20
12.0948084849
 30
0.0
 10
11.5467637759
 20
12.1006335761
 30
0.0
 10
11.554812056
 20
12.1065698256
 30
0.0
 10
11.5596273421
 20
12.1107687841
 30
0.0
 10
11.5618219381
 20
12.1128886011
 30
0.0
  0
SPLINE
  5
3AC
100
AcDbEntity
  8
0
100
AcDbSpline
 62
7
  6
CONTINUOUS
 70
0
 71
3
 72
23
 73
19
 74
0
 42
0.0000001
 43
0.0000001
 44
0.0000000001
 40
0.0
 40
0.0
 40
0.0
 40
0.0
 40
0.0673229908
 40
0.1297885199
 40
0.1879650366
 40
0.2426096552
 40
0.2946787228
 40
0.3452897748
 40
0.3956650121
 40
0.4470430973
 40
0.500588244
 40
0.5573153489
 40
0.6180629207
 40
0.6834859569
 40
0.7540803674
 40
0.8302110622
 40
0.9121278307
 40
1.0
 40
1.0
 40
1.0
 40
1.0
 10
11.5618219381
 20
12.1128886011
 30
0.0
 10
11.5635635256
 20
12.1145708455
 30
0.0
 10
11.5667920958
 20
12.1179526559
 30
0.0
 10
11.5709673348
 20
12.1232851059
 30
0.0
 10
11.5742734529
 20
12.1286716302
 30
0.0
 10
11.57669769
 20
12.1341048833
 30
0.0
 10
11.5782292336
 20
12.1395752123
 30
0.0
 10
11.5788563113
 20
12.1450688179
 30
0.0
 10
11.5785744965
 20
12.150566367
 30
0.0
 10
11.5773858697
 20
12.156047782
 30
0.0
 10
11.5752992461
 20
12.1614962077
 30
0.0
 10
11.5723277677
 20
12.1669011378
 30
0.0
 10
11.5684818282
 20
12.1722547882
 30
0.0
 10
11.5637723038
 20
12.1775517271
 30
0.0
 10
11.5582086114
 20
12.1827860007
 30
0.0
 10
11.5518001995
 20
12.1879504371
 30
0.0
 10
11.5445586479
 20
12.1930382866
 30
0.0
 10
11.5393667042
 20
12.1962596293
 30
0.0
 10
11.5366418304
 20
12.1978607489
 30
0.0
  0
SPLINE
  5
3AD
100
AcDbEntity
  8
0
100
AcDbSpline
 62
7
  6
CONTINUOUS
 70
0
 71
3
 72
9
 73
5
 74
0
 42
0.0000001
 43
0.0000001
 44
0.0000000001
 40
0.0
 40
0.0
 40
0.0
 40
0.0
 40
0.4872773522
 40
1.0
 40
1.0
 40
1.0
 40
1.0
 10
11.5366418304
 20
12.1978607489
 30
0.0
 10
11.5343241188
 20
12.1992226224
 30
0.0
 10
11.529509992
 20
12.2019200752
 30
0.0
 10
11.5246022115
 20
12.2044423141
 30
0.0
 10
11.5220661552
 20
12.2056950452
 30
0.0
  0
SPLINE
  5
3AE
100
AcDbEntity
  8
0
100
AcDbSpline
 62
7
  6
CONTINUOUS
 70
0
 71
3
 72
21
 73
17
 74
0
 42
0.0000001
 43
0.0000001
 44
0.0000000001
 40
0.0
 40
0.0
 40
0.0
 40
0.0
 40
0.1407652351
 40
0.2062726532
 40
0.2689743261
 40
0.3293122206
 40
0.3877968897
 40
0.4449926485
 40
0.5015059245
 40
0.5579657561
 40
0.6150021544
 40
0.6732256426
 40
0.733206817
 40
0.860327654
 40
0.9284367064
 40
1.0
 40
1.0
 40
1.0
 40
1.0
 10
11.6350009662
 20
11.5367417387
 30
0.0
 10
11.6373294077
 20
11.5393168837
 30
0.0
 10
11.6405228477
 20
11.5433065089
 30
0.0
 10
11.6440278397
 20
11.5489458883
 30
0.0
 10
11.6461401565
 20
11.553095806
 30
0.0
 10
11.6477953939
 20
11.5572629381
 30
0.0
 10
11.6489915335
 20
11.5614440119
 30
0.0
 10
11.6497262792
 20
11.5656351157
 30
0.0
 10
11.6499977767
 20
11.5698317333
 30
0.0
 10
11.6498058195
 20
11.5740288307
 30
0.0
 10
11.6491509446
 20
11.5782213416
 30
0.0
 10
11.6480339161
 20
11.5824047311
 30
0.0
 10
11.6458912543
 20
11.5880721872
 30
0.0
 10
11.6428276479
 20
11.5936140153
 30
0.0
 10
11.6389975392
 20
11.5989681063
 30
0.0
 10
11.6367959103
 20
11.6016222529
 30
0.0
 10
11.6356267387
 20
11.6029444609
 30
0.0
  0
SPLINE
  5
3AF
100
AcDbEntity
  8
0
100
AcDbSpline
 62
7
  6
CONTINUOUS
 70
0
 71
3
 72
20
 73
16
 74
0
 42
0.0000001
 43
0.0000001
 44
0.0000000001
 40
0.0
 40
0.0
 40
0.0
 40
0.0
 40
0.0515342722
 40
0.1054742244
 40
0.1616329953
 40
0.2198341743
 40
0.2798844158
 40
0.3415793002
 40
0.4047077329
 40
0.4690517886
 40
0.5343877129
 40
0.6004867251
 40
0.7340410811
 40
0.8678375362
 40
1.0
 40
1.0
 40
1.0
 40
1.0
 10
10.6946531534
 20
11.4631290442
 30
0.0
 10
10.7033378653
 20
11.4610203521
 30
0.0
 10
10.7211756826
 20
11.4569608383
 30
0.0
 10
10.7486595905
 20
11.4514400833
 30
0.0
 10
10.7774040108
 20
11.4463649707
 30
0.0
 10
10.8072989784
 20
11.4417549224
 30
0.0
 10
10.838233006
 20
11.4376270474
 30
0.0
 10
10.8700894551
 20
11.4339975137
 30
0.0
 10
10.9027480552
 20
11.4308799858
 30
0.0
 10
10.9360856759
 20
11.4282862561
 30
0.0
 10
10.9699766764
 20
11.4262263935
 30
0.0
 10
11.0158877538
 20
11.4241953213
 30
0.0
 10
11.0737138949
 20
11.4230429962
 30
0.0
 10
11.1430031528
 20
11.4238536327
 30
0.0
 10
11.1890914342
 20
11.4258673715
 30
0.0
 10
11.2119690526
 20
11.4272530647
 30
0.0
  0
SPLINE
  5
3B0
100
AcDbEntity
  8
0
100
AcDbSpline
 62
7
  6
CONTINUOUS
 70
0
 71
3
 72
35
 73
31
 74
0
 42
0.0000001
 43
0.0000001
 44
0.0000000001
 40
0.0
 40
0.0
 40
0.0
 40
0.0
 40
0.0249799582
 40
0.048661544
 40
0.071173652
 40
0.092671663
 40
0.113343177
 40
0.1334034129
 40
0.1530893163
 40
0.1726524537
 40
0.1923488623
 40
0.212429169
 40
0.2331289409
 40
0.2546607529
 40
0.2772112569
 40
0.300939804
 40
0.3259780257
 40
0.352434136
 40
0.3803957207
 40
0.4099302289
 40
0.4410898766
 40
0.4739146088
 40
0.5084314702
 40
0.5446578544
 40
0.5826041613
 40
0.622271941
 40
0.7067380549
 40
0.797969751
 40
0.8958111197
 40
1.0
 40
1.0
 40
1.0
 40
1.0
 10
10.5304444335
 20
11.6036443922
 30
0.0
 10
10.5291566811
 20
11.6022201996
 30
0.0
 10
10.5267398668
 20
11.5993605202
 30
0.0
 10
10.5235357535
 20
11.594919248
 30
0.0
 10
10.5208580632
 20
11.5904499326
 30
0.0
 10
10.5187118066
 20
11.5859564812
 30
0.0
 10
10.5171005783
 20
11.5814431755
 30
0.0
 10
10.5160274251
 20
11.5769147081
 30
0.0
 10
10.5154954612
 20
11.5723764682
 30
0.0
 10
10.5155060717
 20
11.5678349434
 30
0.0
 10
10.5160588462
 20
11.5632968576
 30
0.0
 10
10.5171526601
 20
11.5587686999
 30
0.0
 10
10.5187847956
 20
11.5542562393
 30
0.0
 10
10.5209512537
 20
11.5497639753
 30
0.0
 10
10.5236485992
 20
11.545295891
 30
0.0
 10
10.5268732985
 20
11.5408556574
 30
0.0
 10
10.5306211702
 20
11.536446315
 30
0.0
 10
10.534888466
 20
11.5320712295
 30
0.0
 10
10.539671323
 20
11.5277340891
 30
0.0
 10
10.544964986
 20
11.5234381294
 30
0.0
 10
10.5507646107
 20
11.5191869477
 30
0.0
 10
10.5570651189
 20
11.5149845167
 30
0.0
 10
10.5638606117
 20
11.510834368
 30
0.0
 10
10.5711448221
 20
11.5067401717
 30
0.0
 10
10.5789112053
 20
11.5027058548
 30
0.0
 10
10.5901361305
 20
11.4972979582
 30
0.0
 10
10.6053458986
 20
11.4907436257
 30
0.0
 10
10.6250277026
 20
11.4833306361
 30
0.0
 10
10.6464309661
 20
11.4762421108
 30
0.0
 10
10.6613389535
 20
11.4718831608
 30
0.0
 10
10.6690589171
 20
11.4697533116
 30
0.0
  0
LINE
  5
3B1
100
AcDbEntity
  8
0
100
AcDbLine
 62
7
  6
CONTINUOUS
 10
11.6350009662
 20
11.5367417387
 11
11.630595861
 21
11.5321979327
  0
LINE
  5
3B2
100
AcDbEntity
  8
0
100
AcDbLine
 62
7
  6
CONTINUOUS
 10
11.630595861
 20
12.0684124705
 11
11.6350009662
 21
12.0729562765
  0
SPLINE
  5
3B3
100
AcDbEntity
  8
0
100
AcDbSpline
 62
7
  6
CONTINUOUS
 70
0
 71
3
 72
27
 73
23
 74
0
 42
0.0000001
 43
0.0000001
 44
0.0000000001
 40
0.0
 40
0.0
 40
0.0
 40
0.0
 40
0.0838118067
 40
0.1658913514
 40
0.2459293672
 40
0.3236644137
 40
0.398837366
 40
0.4711971995
 40
0.5405117336
 40
0.6065657307
 40
0.669161935
 40
0.7281269336
 40
0.7833126668
 40
0.834601742
 40
0.8587605656
 40
0.8819183659
 40
0.904072587
 40
0.9252255374
 40
0.945382945
 40
0.964554344
 40
0.9827535548
 40
1.0
 40
1.0
 40
1.0
 40
1.0
 10
11.2469314197
 20
11.4296777174
 30
0.0
 10
11.2579506295
 20
11.4305403277
 30
0.0
 10
11.2797472313
 20
11.4324341244
 30
0.0
 10
11.3120044975
 20
11.4358189381
 30
0.0
 10
11.3433975955
 20
11.4397091764
 30
0.0
 10
11.3738062511
 20
11.4440896038
 30
0.0
 10
11.4031172806
 20
11.4489433459
 30
0.0
 10
11.4312202102
 20
11.4542522861
 30
0.0
 10
11.4580091495
 20
11.4599959523
 30
0.0
 10
11.4833836338
 20
11.4661522529
 30
0.0
 10
11.5072485076
 20
11.4726980406
 30
0.0
 10
11.5295148925
 20
11.4796079763
 30
0.0
 10
11.5500995479
 20
11.4868559058
 30
0.0
 10
11.5660936681
 20
11.4932766304
 30
0.0
 10
11.5779667902
 20
11.4985838142
 30
0.0
 10
11.5862259552
 20
11.5025519204
 30
0.0
 10
11.5940104888
 20
11.5065837685
 30
0.0
 10
11.6013135021
 20
11.5106756406
 30
0.0
 10
11.6081282873
 20
11.5148239806
 30
0.0
 10
11.6144482903
 20
11.5190251168
 30
0.0
 10
11.6202671754
 20
11.5232742518
 30
0.0
 10
11.6239047435
 20
11.5262140676
 30
0.0
 10
11.6256328353
 20
11.5276928186
 30
0.0
  0
SPLINE
  5
3B4
100
AcDbEntity
  8
0
100
AcDbSpline
 62
7
  6
CONTINUOUS
 70
0
 71
3
 72
23
 73
19
 74
0
 42
0.0000001
 43
0.0000001
 44
0.0000000001
 40
0.0
 40
0.0
 40
0.0
 40
0.0
 40
0.0417708791
 40
0.0840417328
 40
0.1273418509
 40
0.1722907706
 40
0.2195533704
 40
0.2697870137
 40
0.3235862536
 40
0.3814285202
 40
0.4436424984
 40
0.5104003802
 40
0.5817205248
 40
0.6574899383
 40
0.7374981178
 40
0.8214657204
 40
0.9090775525
 40
1.0
 40
1.0
 40
1.0
 40
1.0
 10
10.5304444335
 20
12.13985893
 30
0.0
 10
10.5332736469
 20
12.1400041728
 30
0.0
 10
10.5389847549
 20
12.1400208526
 30
0.0
 10
10.5475921125
 20
12.1391341095
 30
0.0
 10
10.5562601527
 20
12.1372464743
 30
0.0
 10
10.5649772081
 20
12.1342725526
 30
0.0
 10
10.5737302525
 20
12.1301384215
 30
0.0
 10
10.5825056203
 20
12.1247860518
 30
0.0
 10
10.5912900378
 20
12.1181752251
 30
0.0
 10
10.600072013
 20
12.110287991
 30
0.0
 10
10.6088415067
 20
12.101129249
 30
0.0
 10
10.6175884461
 20
12.0907257533
 30
0.0
 10
10.6263040709
 20
12.0791257295
 30
0.0
 10
10.6349811977
 20
12.0663951073
 30
0.0
 10
10.6436133636
 20
12.0526119628
 30
0.0
 10
10.6521962099
 20
12.037861929
 30
0.0
 10
10.6607270883
 20
12.022233777
 30
0.0
 10
10.666282542
 20
12.0114739154
 30
0.0
 10
10.6690589171
 20
12.0059678493
 30
0.0
  0
SPLINE
  5
3B5
100
AcDbEntity
  8
0
100
AcDbSpline
 62
7
  6
CONTINUOUS
 70
0
 71
3
 72
21
 73
17
 74
0
 42
0.0000001
 43
0.0000001
 44
0.0000000001
 40
0.0
 40
0.0
 40
0.0
 40
0.0
 40
0.1229777811
 40
0.1846429776
 40
0.2464399426
 40
0.3083804861
 40
0.3704752478
 40
0.4327329846
 40
0.4951582956
 40
0.5577522644
 40
0.6205120304
 40
0.6834304833
 40
0.7464981609
 40
0.8097030992
 40
0.8730318006
 40
1.0
 40
1.0
 40
1.0
 40
1.0
 10
10.6946531534
 20
11.9993435819
 30
0.0
 10
10.7157615235
 20
12.0036333143
 30
0.0
 10
10.7476260644
 20
12.0092869295
 30
0.0
 10
10.7904272459
 20
12.0149181222
 30
0.0
 10
10.8227500794
 20
12.0181106164
 30
0.0
 10
10.8552396359
 20
12.0201861481
 30
0.0
 10
10.8878648455
 20
12.0210743632
 30
0.0
 10
10.9205856154
 20
12.0207194001
 30
0.0
 10
10.953355379
 20
12.0190876678
 30
0.0
 10
10.9861240447
 20
12.0161708502
 30
0.0
 10
11.0188415449
 20
12.0119845147
 30
0.0
 10
11.0514616739
 20
12.0065689459
 30
0.0
 10
11.0839449989
 20
11.999985624
 30
0.0
 10
11.116260852
 20
11.9923092739
 30
0.0
 10
11.1591286711
 20
11.9807207466
 30
0.0
 10
11.1909263565
 20
11.9706626202
 30
0.0
 10
11.2119690526
 20
11.9634676025
 30
0.0
  0
SPLINE
  5
3B6
100
AcDbEntity
  8
0
100
AcDbSpline
 62
7
  6
CONTINUOUS
 70
0
 71
3
 72
22
 73
18
 74
0
 42
0.0000001
 43
0.0000001
 44
0.0000000001
 40
0.0
 40
0.0
 40
0.0
 40
0.0
 40
0.0681227436
 40
0.1355431565
 40
0.2022003027
 40
0.2680445669
 40
0.3330359574
 40
0.397152188
 40
0.4603927171
 40
0.5227813057
 40
0.5843671346
 40
0.6452204938
 40
0.7054273932
 40
0.7650834089
 40
0.8242844691
 40
0.8831213037
 40
1.0
 40
1.0
 40
1.0
 40
1.0
 10
11.2469314197
 20
11.9658922552
 30
0.0
 10
11.2546081318
 20
11.9707375095
 30
0.0
 10
11.270004451
 20
11.9801867503
 30
0.0
 10
11.2933641268
 20
11.9936240393
 30
0.0
 10
11.3168731199
 20
12.0061679762
 30
0.0
 10
11.3405225005
 20
12.0177282184
 30
0.0
 10
11.3642974523
 20
12.0282178592
 30
0.0
 10
11.3881760032
 20
12.0375581927
 30
0.0
 10
11.4121302397
 20
12.0456827016
 30
0.0
 10
11.4361264548
 20
12.0525447514
 30
0.0
 10
11.4601274028
 20
12.0581218008
 30
0.0
 10
11.4840955517
 20
12.0624153084
 30
0.0
 10
11.5079954479
 20
12.065452601
 30
0.0
 10
11.5317960906
 20
12.0672844561
 30
0.0
 10
11.5554739795
 20
12.0679774743
 30
0.0
 10
11.5867823808
 20
12.0674904357
 30
0.0
 10
11.6101572074
 20
12.0656642241
 30
0.0
 10
11.6256328353
 20
12.0639073564
 30
0.0
  0
SPLINE
  5
3B7
100
AcDbEntity
  8
0
100
AcDbSpline
 62
7
  6
CONTINUOUS
 70
0
 71
3
 72
9
 73
5
 74
0
 42
0.0000001
 43
0.0000001
 44
0.0000000001
 40
0.0
 40
0.0
 40
0.0
 40
0.0
 40
0.5226034256
 40
1.0
 40
1.0
 40
1.0
 40
1.0
 10
10.6433729939
 20
12.2056919673
 30
0.0
 10
10.6390903142
 20
12.2035764199
 30
0.0
 10
10.6310013338
 20
12.1993081054
 30
0.0
 10
10.6232096488
 20
12.1945112743
 30
0.0
 10
10.6195931659
 20
12.1920697162
 30
0.0
  0
SPLINE
  5
3B8
100
AcDbEntity
  8
0
100
AcDbSpline
 62
7
  6
CONTINUOUS
 70
0
 71
3
 72
9
 73
5
 74
0
 42
0.0000001
 43
0.0000001
 44
0.0000000001
 40
0.0
 40
0.0
 40
0.0
 40
0.0
 40
0.5229375233
 40
1.0
 40
1.0
 40
1.0
 40
1.0
 10
10.6195931659
 20
12.1920697162
 30
0.0
 10
10.6166399435
 20
12.1900759381
 30
0.0
 10
10.6111207578
 20
12.1860676274
 30
0.0
 10
10.6059615077
 20
12.1815982704
 30
0.0
 10
10.6036234616
 20
12.1793398912
 30
0.0
  0
SPLINE
  5
3B9
100
AcDbEntity
  8
0
100
AcDbSpline
 62
7
  6
CONTINUOUS
 70
0
 71
3
 72
15
 73
11
 74
0
 42
0.0000001
 43
0.0000001
 44
0.0000000001
 40
0.0
 40
0.0
 40
0.0
 40
0.0
 40
0.1098910113
 40
0.2213984952
 40
0.3360684995
 40
0.4553137766
 40
0.5803785375
 40
0.7123163374
 40
0.8519661982
 40
1.0
 40
1.0
 40
1.0
 40
1.0
 10
11.706322467
 20
11.5387399468
 30
0.0
 10
11.7063224266
 20
11.5369761522
 30
0.0
 10
11.7060959713
 20
11.5334186372
 30
0.0
 10
11.705080682
 20
11.5281078581
 30
0.0
 10
11.7033918835
 20
11.5228138968
 30
0.0
 10
11.7010347988
 20
11.5175443084
 30
0.0
 10
11.6980141644
 20
11.512304129
 30
0.0
 10
11.6943349157
 20
11.5070985527
 30
0.0
 10
11.6900038486
 20
11.50193219
 30
0.0
 10
11.6867830309
 20
11.4986175595
 30
0.0
 10
11.6850740808
 20
11.4969668404
 30
0.0
  0
SPLINE
  5
3BA
100
AcDbEntity
  8
0
100
AcDbSpline
 62
7
  6
CONTINUOUS
 70
0
 71
3
 72
60
 73
56
 74
0
 42
0.0000001
 43
0.0000001
 44
0.0000000001
 40
0.0
 40
0.0
 40
0.0
 40
0.0
 40
0.0028081113
 40
0.005635899
 40
0.0085026199
 40
0.0114266554
 40
0.0175099707
 40
0.0240113931
 40
0.0310267479
 40
0.0386290141
 40
0.0468712657
 40
0.0557905131
 40
0.065411328
 40
0.075747752
 40
0.0868064653
 40
0.0985869544
 40
0.1110840991
 40
0.1242877381
 40
0.1381843391
 40
0.1527569332
 40
0.1679856352
 40
0.1838483093
 40
0.2003201015
 40
0.21737468
 40
0.2531146486
 40
0.2908226954
 40
0.3302295132
 40
0.3710475495
 40
0.4129746544
 40
0.4556975423
 40
0.4988950163
 40
0.5422412401
 40
0.5854089711
 40
0.6280726824
 40
0.6699117631
 40
0.7106138076
 40
0.7498778669
 40
0.7688810468
 40
0.7874189754
 40
0.8054586076
 40
0.8229687268
 40
0.8399193505
 40
0.8562823554
 40
0.8720315375
 40
0.8871425123
 40
0.9015936514
 40
0.9153653158
 40
0.9284415191
 40
0.9408089413
 40
0.9524585677
 40
0.9633855101
 40
0.9735909955
 40
0.9830835168
 40
0.9918784722
 40
1.0
 40
1.0
 40
1.0
 40
1.0
 10
10.4591229327
 20
11.5387401544
 30
0.0
 10
10.4591229049
 20
11.5375286942
 30
0.0
 10
10.4592288856
 20
11.5350959676
 30
0.0
 10
10.4597053893
 20
11.5314546019
 30
0.0
 10
10.4604994585
 20
11.5278176239
 30
0.0
 10
10.4619991358
 20
11.5229143175
 30
0.0
 10
10.4647131368
 20
11.5167688979
 30
0.0
 10
10.4691818623
 20
11.5095638643
 30
0.0
 10
10.4748868
 20
11.5024359086
 30
0.0
 10
10.481813158
 20
11.4953952392
 30
0.0
 10
10.4899460989
 20
11.4884501599
 30
0.0
 10
10.4992699467
 20
11.4816110039
 30
0.0
 10
10.5097673912
 20
11.474889646
 30
0.0
 10
10.5214182224
 20
11.4682975106
 30
0.0
 10
10.5342004108
 20
11.4618479594
 30
0.0
 10
10.5480887698
 20
11.4555526751
 30
0.0
 10
10.5630562357
 20
11.4494249752
 30
0.0
 10
10.5790729746
 20
11.4434765327
 30
0.0
 10
10.5961071628
 20
11.4377197637
 30
0.0
 10
10.6141246715
 20
11.4321662188
 30
0.0
 10
10.6330893515
 20
11.4268270597
 30
0.0
 10
10.6529630747
 20
11.4217135195
 30
0.0
 10
10.6737058251
 20
11.4168354128
 30
0.0
 10
10.7029238608
 20
11.410561321
 30
0.0
 10
10.7413178026
 20
11.4034188757
 30
0.0
 10
10.7894525862
 20
11.3960573116
 30
0.0
 10
10.8399558124
 20
11.3898379426
 30
0.0
 10
10.8924197363
 20
11.3848119735
 30
0.0
 10
10.9464211243
 20
11.3810209145
 30
0.0
 10
11.0015238157
 20
11.3784959752
 30
0.0
 10
11.0572826471
 20
11.3772579348
 30
0.0
 10
11.113247048
 20
11.3773169733
 30
0.0
 10
11.1689647864
 20
11.3786726008
 30
0.0
 10
11.2239856152
 20
11.381313673
 30
0.0
 10
11.2778651524
 20
11.3852184068
 30
0.0
 10
11.3301679059
 20
11.3903548017
 30
0.0
 10
11.3725374491
 20
11.3956821141
 30
0.0
 10
11.4053138008
 20
11.4005507132
 30
0.0
 10
11.4289754749
 20
11.4044412191
 30
0.0
 10
11.4519366816
 20
11.4086028635
 30
0.0
 10
11.4741510686
 20
11.4130268753
 30
0.0
 10
11.495573778
 20
11.4177044294
 30
0.0
 10
11.516161569
 20
11.4226259997
 30
0.0
 10
11.5358729556
 20
11.4277813458
 30
0.0
 10
11.5546681924
 20
11.4331603943
 30
0.0
 10
11.5725095608
 20
11.4387515838
 30
0.0
 10
11.5893611899
 20
11.4445442636
 30
0.0
 10
11.6051895216
 20
11.4505259831
 30
0.0
 10
11.6199628893
 20
11.4566853628
 30
0.0
 10
11.6336520659
 20
11.4630094293
 30
0.0
 10
11.6462302073
 20
11.469485828
 30
0.0
 10
11.657673012
 20
11.4761022168
 30
0.0
 10
11.6679590992
 20
11.4828464997
 30
0.0
 10
11.6770669519
 20
11.4897055768
 30
0.0
 10
11.6825539958
 20
11.4945326251
 30
0.0
 10
11.6850740808
 20
11.4969668404
 30
0.0
  0
SPLINE
  5
3BB
100
AcDbEntity
  8
0
100
AcDbSpline
 62
7
  6
CONTINUOUS
 70
0
 71
3
 72
32
 73
28
 74
0
 42
0.0000001
 43
0.0000001
 44
0.0000000001
 40
0.0
 40
0.0
 40
0.0
 40
0.0
 40
0.0845019105
 40
0.1673007584
 40
0.2480794858
 40
0.3265298078
 40
0.4023571535
 40
0.4752814812
 40
0.5450398602
 40
0.5786557859
 40
0.6113907339
 40
0.6432178131
 40
0.6741117439
 40
0.7040490767
 40
0.7330081168
 40
0.7609694032
 40
0.7879155791
 40
0.8138318837
 40
0.8387062906
 40
0.8625298092
 40
0.8852970667
 40
0.9070064866
 40
0.9276612332
 40
0.9472696217
 40
0.9658462164
 40
0.9834128808
 40
1.0
 40
1.0
 40
1.0
 40
1.0
 10
10.9145939832
 20
11.2836112865
 30
0.0
 10
10.901146852
 20
11.2845438483
 30
0.0
 10
10.8745392848
 20
11.2866261891
 30
0.0
 10
10.8351489485
 20
11.2904445328
 30
0.0
 10
10.7967985259
 20
11.2949137631
 30
0.0
 10
10.7596490494
 20
11.3000149317
 30
0.0
 10
10.7238563381
 20
11.3057263067
 30
0.0
 10
10.6895706541
 20
11.3120236534
 30
0.0
 10
10.6620453014
 20
11.3178063134
 30
0.0
 10
10.6408964517
 20
11.3227205725
 30
0.0
 10
10.6256952674
 20
11.3264901373
 30
0.0
 10
10.6109743886
 20
11.3303850319
 30
0.0
 10
10.5967492346
 20
11.3344012046
 30
0.0
 10
10.5830347129
 20
11.3385343677
 30
0.0
 10
10.5698451918
 20
11.3427802263
 30
0.0
 10
10.5571944603
 20
11.3471342434
 30
0.0
 10
10.5450957452
 20
11.3515918878
 30
0.0
 10
10.5335616646
 20
11.3561484481
 30
0.0
 10
10.5226042259
 20
11.3607991391
 30
0.0
 10
10.5122348233
 20
11.3655391381
 30
0.0
 10
10.5024641741
 20
11.3703634454
 30
0.0
 10
10.4933023876
 20
11.3752671469
 30
0.0
 10
10.4847588393
 20
11.3802451521
 30
0.0
 10
10.4768423059
 20
11.3852924422
 30
0.0
 10
10.4695607358
 20
11.3904040824
 30
0.0
 10
10.4629218282
 20
11.3955747632
 30
0.0
 10
10.4588135034
 20
11.3991587181
 30
0.0
 10
10.456876559
 20
11.4009612481
 30
0.0
  0
SPLINE
  5
3BC
100
AcDbEntity
  8
0
100
AcDbSpline
 62
7
  6
CONTINUOUS
 70
0
 71
3
 72
36
 73
32
 74
0
 42
0.0000001
 43
0.0000001
 44
0.0000000001
 40
0.0
 40
0.0
 40
0.0
 40
0.0
 40
0.0958328711
 40
0.1891029099
 40
0.2792439947
 40
0.3657134605
 40
0.448002862
 40
0.4874330112
 40
0.5256456812
 40
0.5625895931
 40
0.5982167876
 40
0.6324833662
 40
0.6653494136
 40
0.696779793
 40
0.7267447037
 40
0.7552200616
 40
0.7821889003
 40
0.8076420023
 40
0.8315795188
 40
0.8540129821
 40
0.874967242
 40
0.8944840871
 40
0.9126258482
 40
0.9294803273
 40
0.9451668056
 40
0.9598415127
 40
0.9737025181
 40
0.9804060176
 40
0.9869995253
 40
0.9935185524
 40
1.0
 40
1.0
 40
1.0
 40
1.0
 10
10.5027115216
 20
11.6105633704
 30
0.0
 10
10.4942725797
 20
11.611148613
 30
0.0
 10
10.477632542
 20
11.6124890511
 30
0.0
 10
10.4531143939
 20
11.6150477764
 30
0.0
 10
10.4294873078
 20
11.6181140679
 30
0.0
 10
10.4069090667
 20
11.6216671761
 30
0.0
 10
10.3888446279
 20
11.6250599368
 30
0.0
 10
10.3750390497
 20
11.6280130564
 30
0.0
 10
10.3651863215
 20
11.6303023435
 30
0.0
 10
10.3557036575
 20
11.6326936883
 30
0.0
 10
10.3466068513
 20
11.63518315
 30
0.0
 10
10.3379110439
 20
11.6377664854
 30
0.0
 10
10.3296306947
 20
11.6404393898
 30
0.0
 10
10.3217795442
 20
11.6431973771
 30
0.0
 10
10.314370578
 20
11.6460357953
 30
0.0
 10
10.3074160314
 20
11.6489499645
 30
0.0
 10
10.3009273082
 20
11.6519349978
 30
0.0
 10
10.2949150003
 20
11.6549860056
 30
0.0
 10
10.2893888531
 20
11.658098063
 30
0.0
 10
10.2843576988
 20
11.6612661736
 30
0.0
 10
10.2798295529
 20
11.6644855467
 30
0.0
 10
10.2758115279
 20
11.6677514424
 30
0.0
 10
10.2723099861
 20
11.6710594639
 30
0.0
 10
10.2693307988
 20
11.6744055627
 30
0.0
 10
10.2668794653
 20
11.6777861907
 30
0.0
 10
10.2649619985
 20
11.6811971753
 30
0.0
 10
10.2638014102
 20
11.6840950167
 30
0.0
 10
10.2631593164
 20
11.6864066645
 30
0.0
 10
10.2628187168
 20
11.6881241611
 30
0.0
 10
10.262614313
 20
11.689843285
 30
0.0
 10
10.2625688367
 20
11.6909913572
 30
0.0
 10
10.2625688389
 20
11.6915634775
 30
0.0
  0
SPLINE
  5
3BD
100
AcDbEntity
  8
0
100
AcDbSpline
 62
7
  6
CONTINUOUS
 70
0
 71
3
 72
39
 73
35
 74
0
 42
0.0000001
 43
0.0000001
 44
0.0000000001
 40
0.0
 40
0.0
 40
0.0
 40
0.0
 40
0.0311447307
 40
0.0624432672
 40
0.0938883119
 40
0.1254710314
 40
0.1571789105
 40
0.1889972983
 40
0.2209092153
 40
0.2528958882
 40
0.2849370713
 40
0.3170114658
 40
0.3490971298
 40
0.3811719045
 40
0.4132138407
 40
0.4452016235
 40
0.477114988
 40
0.508935121
 40
0.5406450421
 40
0.5722299579
 40
0.603677582
 40
0.6349784155
 40
0.6661259788
 40
0.6971169909
 40
0.7279514851
 40
0.7586328595
 40
0.7891678533
 40
0.8195664469
 40
0.8498416836
 40
0.8800094128
 40
0.9100879577
 40
0.9400977147
 40
0.9700606919
 40
1.0
 40
1.0
 40
1.0
 40
1.0
 10
9.4974895146
 20
10.1008177002
 30
0.0
 10
9.5014709766
 20
10.1005415848
 30
0.0
 10
9.5094363121
 20
10.0996965438
 30
0.0
 10
9.5212877245
 20
10.0975679421
 30
0.0
 10
9.5330122258
 20
10.0945863094
 30
0.0
 10
9.5445464218
 20
10.0907678268
 30
0.0
 10
9.5558290921
 20
10.0861328603
 30
0.0
 10
9.5668000341
 20
10.080706256
 30
0.0
 10
9.5774008069
 20
10.0745169906
 30
0.0
 10
9.5875749235
 20
10.0675981201
 30
0.0
 10
9.5972681757
 20
10.0599865598
 30
0.0
 10
9.6064289137
 20
10.0517229067
 30
0.0
 10
9.6150083192
 20
10.0428512177
 30
0.0
 10
9.6229606631
 20
10.0334187796
 30
0.0
 10
9.630243546
 20
10.023475859
 30
0.0
 10
9.636818123
 20
10.013075437
 30
0.0
 10
9.6426493086
 20
10.0022729303
 30
0.0
 10
9.6477059641
 20
9.9911258998
 30
0.0
 10
9.6519610629
 20
9.9796937473
 30
0.0
 10
9.6553918339
 20
9.9680374023
 30
0.0
 10
9.6579798835
 20
9.956219002
 30
0.0
 10
9.6597112962
 20
9.9443015644
 30
0.0
 10
9.660576711
 20
9.9323486565
 30
0.0
 10
9.660571376
 20
9.9204240602
 30
0.0
 10
9.6596951789
 20
9.9085914349
 30
0.0
 10
9.657952654
 20
9.8969139808
 30
0.0
 10
9.6553529658
 20
9.8854541027
 30
0.0
 10
9.6519098665
 20
9.8742730751
 30
0.0
 10
9.6476416365
 20
9.8634307176
 30
0.0
 10
9.6425709729
 20
9.8529850507
 30
0.0
 10
9.6367249534
 20
9.8429920527
 30
0.0
 10
9.6301346031
 20
9.8335050783
 30
0.0
 10
9.6228358241
 20
9.8245755805
 30
0.0
 10
9.6175213301
 20
9.8190238184
 30
0.0
 10
9.6147618581
 20
9.8163583952
 30
0.0
  0
SPLINE
  5
3BE
100
AcDbEntity
  8
0
100
AcDbSpline
 62
7
  6
CONTINUOUS
 70
0
 71
3
 72
39
 73
35
 74
0
 42
0.0000001
 43
0.0000001
 44
0.0000000001
 40
0.0
 40
0.0
 40
0.0
 40
0.0
 40
0.0311447307
 40
0.0624432672
 40
0.0938883119
 40
0.1254710314
 40
0.1571789105
 40
0.1889972983
 40
0.2209092153
 40
0.2528958882
 40
0.2849370713
 40
0.3170114658
 40
0.3490971298
 40
0.3811719045
 40
0.4132138407
 40
0.4452016235
 40
0.477114988
 40
0.508935121
 40
0.5406450421
 40
0.5722299579
 40
0.603677582
 40
0.6349784155
 40
0.6661259788
 40
0.6971169909
 40
0.7279514851
 40
0.7586328595
 40
0.7891678533
 40
0.8195664469
 40
0.8498416836
 40
0.8800094128
 40
0.9100879577
 40
0.9400977147
 40
0.9700606919
 40
1.0
 40
1.0
 40
1.0
 40
1.0
 10
11.6225264583
 20
9.9534458876
 30
0.0
 10
11.6265079203
 20
9.9531697722
 30
0.0
 10
11.6344732559
 20
9.9523247312
 30
0.0
 10
11.6463246683
 20
9.9501961295
 30
0.0
 10
11.6580491696
 20
9.9472144968
 30
0.0
 10
11.6695833656
 20
9.9433960143
 30
0.0
 10
11.6808660358
 20
9.9387610478
 30
0.0
 10
11.6918369778
 20
9.9333344434
 30
0.0
 10
11.7024377506
 20
9.927145178
 30
0.0
 10
11.7126118673
 20
9.9202263075
 30
0.0
 10
11.7223051194
 20
9.9126147473
 30
0.0
 10
11.7314658574
 20
9.9043510941
 30
0.0
 10
11.740045263
 20
9.8954794051
 30
0.0
 10
11.7479976068
 20
9.886046967
 30
0.0
 10
11.7552804897
 20
9.8761040464
 30
0.0
 10
11.7618550668
 20
9.8657036244
 30
0.0
 10
11.7676862523
 20
9.8549011177
 30
0.0
 10
11.7727429078
 20
9.8437540872
 30
0.0
 10
11.7769980067
 20
9.8323219347
 30
0.0
 10
11.7804287776
 20
9.8206655897
 30
0.0
 10
11.7830168273
 20
9.8088471895
 30
0.0
 10
11.7847482399
 20
9.7969297518
 30
0.0
 10
11.7856136547
 20
9.7849768439
 30
0.0
 10
11.7856083197
 20
9.7730522476
 30
0.0
 10
11.7847321226
 20
9.7612196223
 30
0.0
 10
11.7829895977
 20
9.7495421682
 30
0.0
 10
11.7803899095
 20
9.7380822901
 30
0.0
 10
11.7769468103
 20
9.7269012625
 30
0.0
 10
11.7726785803
 20
9.716058905
 30
0.0
 10
11.7676079166
 20
9.7056132381
 30
0.0
 10
11.7617618971
 20
9.6956202401
 30
0.0
 10
11.7551715469
 20
9.6861332657
 30
0.0
 10
11.7478727678
 20
9.6772037679
 30
0.0
 10
11.7425582738
 20
9.6716520058
 30
0.0
 10
11.7397988018
 20
9.6689865826
 30
0.0
  0
SPLINE
  5
3BF
100
AcDbEntity
  8
0
100
AcDbSpline
 62
7
  6
CONTINUOUS
 70
0
 71
3
 72
39
 73
35
 74
0
 42
0.0000001
 43
0.0000001
 44
0.0000000001
 40
0.0
 40
0.0
 40
0.0
 40
0.0
 40
0.0311447307
 40
0.0624432672
 40
0.0938883119
 40
0.1254710314
 40
0.1571789105
 40
0.1889972983
 40
0.2209092153
 40
0.2528958882
 40
0.2849370713
 40
0.3170114658
 40
0.3490971298
 40
0.3811719045
 40
0.4132138407
 40
0.4452016235
 40
0.477114988
 40
0.508935121
 40
0.5406450421
 40
0.5722299579
 40
0.603677582
 40
0.6349784155
 40
0.6661259788
 40
0.6971169909
 40
0.7279514851
 40
0.7586328595
 40
0.7891678533
 40
0.8195664469
 40
0.8498416836
 40
0.8800094128
 40
0.9100879577
 40
0.9400977147
 40
0.9700606919
 40
1.0
 40
1.0
 40
1.0
 40
1.0
 10
9.4974895146
 20
7.009854965
 30
0.0
 10
9.5014709766
 20
7.0095788497
 30
0.0
 10
9.5094363121
 20
7.0087338087
 30
0.0
 10
9.5212877245
 20
7.0066052069
 30
0.0
 10
9.5330122258
 20
7.0036235742
 30
0.0
 10
9.5445464218
 20
6.9998050917
 30
0.0
 10
9.5558290921
 20
6.9951701252
 30
0.0
 10
9.5668000341
 20
6.9897435209
 30
0.0
 10
9.5774008069
 20
6.9835542554
 30
0.0
 10
9.5875749235
 20
6.9766353849
 30
0.0
 10
9.5972681757
 20
6.9690238247
 30
0.0
 10
9.6064289137
 20
6.9607601715
 30
0.0
 10
9.6150083192
 20
6.9518884825
 30
0.0
 10
9.6229606631
 20
6.9424560445
 30
0.0
 10
9.630243546
 20
6.9325131238
 30
0.0
 10
9.636818123
 20
6.9221127018
 30
0.0
 10
9.6426493086
 20
6.9113101951
 30
0.0
 10
9.6477059641
 20
6.9001631646
 30
0.0
 10
9.6519610629
 20
6.8887310121
 30
0.0
 10
9.6553918339
 20
6.8770746672
 30
0.0
 10
9.6579798835
 20
6.8652562669
 30
0.0
 10
9.6597112962
 20
6.8533388292
 30
0.0
 10
9.660576711
 20
6.8413859214
 30
0.0
 10
9.660571376
 20
6.829461325
 30
0.0
 10
9.6596951789
 20
6.8176286998
 30
0.0
 10
9.657952654
 20
6.8059512456
 30
0.0
 10
9.6553529658
 20
6.7944913675
 30
0.0
 10
9.6519098665
 20
6.78331034
 30
0.0
 10
9.6476416365
 20
6.7724679824
 30
0.0
 10
9.6425709729
 20
6.7620223155
 30
0.0
 10
9.6367249534
 20
6.7520293176
 30
0.0
 10
9.6301346031
 20
6.7425423431
 30
0.0
 10
9.6228358241
 20
6.7336128453
 30
0.0
 10
9.6175213301
 20
6.7280610833
 30
0.0
 10
9.6147618581
 20
6.72539566
 30
0.0
  0
SPLINE
  5
3C0
100
AcDbEntity
  8
0
100
AcDbSpline
 62
7
  6
CONTINUOUS
 70
0
 71
3
 72
39
 73
35
 74
0
 42
0.0000001
 43
0.0000001
 44
0.0000000001
 40
0.0
 40
0.0
 40
0.0
 40
0.0
 40
0.0311447307
 40
0.0624432672
 40
0.0938883119
 40
0.1254710314
 40
0.1571789105
 40
0.1889972983
 40
0.2209092153
 40
0.2528958882
 40
0.2849370713
 40
0.3170114658
 40
0.3490971298
 40
0.3811719045
 40
0.4132138407
 40
0.4452016235
 40
0.477114988
 40
0.508935121
 40
0.5406450421
 40
0.5722299579
 40
0.603677582
 40
0.6349784155
 40
0.6661259788
 40
0.6971169909
 40
0.7279514851
 40
0.7586328595
 40
0.7891678533
 40
0.8195664469
 40
0.8498416836
 40
0.8800094128
 40
0.9100879577
 40
0.9400977147
 40
0.9700606919
 40
1.0
 40
1.0
 40
1.0
 40
1.0
 10
11.6225264583
 20
6.8624831524
 30
0.0
 10
11.6265079203
 20
6.8622070371
 30
0.0
 10
11.6344732559
 20
6.8613619961
 30
0.0
 10
11.6463246683
 20
6.8592333943
 30
0.0
 10
11.6580491696
 20
6.8562517617
 30
0.0
 10
11.6695833656
 20
6.8524332791
 30
0.0
 10
11.6808660358
 20
6.8477983126
 30
0.0
 10
11.6918369778
 20
6.8423717083
 30
0.0
 10
11.7024377506
 20
6.8361824428
 30
0.0
 10
11.7126118673
 20
6.8292635723
 30
0.0
 10
11.7223051194
 20
6.8216520121
 30
0.0
 10
11.7314658574
 20
6.813388359
 30
0.0
 10
11.740045263
 20
6.8045166699
 30
0.0
 10
11.7479976068
 20
6.7950842319
 30
0.0
 10
11.7552804897
 20
6.7851413112
 30
0.0
 10
11.7618550668
 20
6.7747408893
 30
0.0
 10
11.7676862523
 20
6.7639383825
 30
0.0
 10
11.7727429078
 20
6.752791352
 30
0.0
 10
11.7769980067
 20
6.7413591995
 30
0.0
 10
11.7804287776
 20
6.7297028546
 30
0.0
 10
11.7830168273
 20
6.7178844543
 30
0.0
 10
11.7847482399
 20
6.7059670166
 30
0.0
 10
11.7856136547
 20
6.6940141088
 30
0.0
 10
11.7856083197
 20
6.6820895124
 30
0.0
 10
11.7847321226
 20
6.6702568872
 30
0.0
 10
11.7829895977
 20
6.6585794331
 30
0.0
 10
11.7803899095
 20
6.647119555
 30
0.0
 10
11.7769468103
 20
6.6359385274
 30
0.0
 10
11.7726785803
 20
6.6250961699
 30
0.0
 10
11.7676079166
 20
6.6146505029
 30
0.0
 10
11.7617618971
 20
6.604657505
 30
0.0
 10
11.7551715469
 20
6.5951705305
 30
0.0
 10
11.7478727678
 20
6.5862410328
 30
0.0
 10
11.7425582738
 20
6.5806892707
 30
0.0
 10
11.7397988018
 20
6.5780238474
 30
0.0
  0
SPLINE
  5
3C1
100
AcDbEntity
  8
0
100
AcDbSpline
 62
7
  6
CONTINUOUS
 70
0
 71
3
 72
37
 73
33
 74
0
 42
0.0000001
 43
0.0000001
 44
0.0000000001
 40
0.0
 40
0.0
 40
0.0
 40
0.0
 40
0.0311466476
 40
0.0624482391
 40
0.093895328
 40
0.1254805417
 40
0.1571907946
 40
0.1890115952
 40
0.2209259356
 40
0.2529150311
 40
0.284958639
 40
0.3170354579
 40
0.3491235488
 40
0.3812007523
 40
0.4451977724
 40
0.5088980103
 40
0.5406103272
 40
0.5721976339
 40
0.6036476391
 40
0.6349508386
 40
0.6661007532
 40
0.6970941041
 40
0.727930928
 40
0.7586146239
 40
0.7891519281
 40
0.8195528177
 40
0.8498303372
 40
0.8800003401
 40
0.9100811543
 40
0.9400931797
 40
0.9700584251
 40
1.0
 40
1.0
 40
1.0
 40
1.0
 10
9.448806855
 20
7.997316395
 30
0.0
 10
9.4514579839
 20
7.9971325386
 30
0.0
 10
9.4567619401
 20
7.9965698209
 30
0.0
 10
9.4646535294
 20
7.9951524699
 30
0.0
 10
9.4724606395
 20
7.9931670172
 30
0.0
 10
9.4801409882
 20
7.9906244059
 30
0.0
 10
9.4876538719
 20
7.987538081
 30
0.0
 10
9.4949591784
 20
7.9839246346
 30
0.0
 10
9.5020179932
 20
7.9798033317
 30
0.0
 10
9.5087926988
 20
7.9751962028
 30
0.0
 10
9.515247222
 20
7.970127809
 30
0.0
 10
9.5213471055
 20
7.9646252886
 30
0.0
 10
9.5270600947
 20
7.9587175842
 30
0.0
 10
9.5341132458
 20
7.9503519855
 30
0.0
 10
9.5418160499
 20
7.9390496213
 30
0.0
 10
9.5478835864
 20
7.9268250876
 30
0.0
 10
9.5516658137
 20
7.9166627998
 30
0.0
 10
9.5539504214
 20
7.9089008559
 30
0.0
 10
9.5556736988
 20
7.9010313106
 30
0.0
 10
9.5568265959
 20
7.8930957361
 30
0.0
 10
9.5574028331
 20
7.8851365672
 30
0.0
 10
9.5573992658
 20
7.8771962461
 30
0.0
 10
9.5568158153
 20
7.8693171683
 30
0.0
 10
9.5556554985
 20
7.8615414148
 30
0.0
 10
9.553924407
 20
7.853910543
 30
0.0
 10
9.5516316957
 20
7.8464653572
 30
0.0
 10
9.5487895504
 20
7.839245687
 30
0.0
 10
9.545413089
 20
7.8322901639
 30
0.0
 10
9.5415203431
 20
7.8256360599
 30
0.0
 10
9.5371319675
 20
7.8193189037
 30
0.0
 10
9.5322718639
 20
7.8133729588
 30
0.0
 10
9.5287330409
 20
7.8096761847
 30
0.0
 10
9.5268955676
 20
7.8079013418
 30
0.0
  0
SPLINE
  5
3C2
100
AcDbEntity
  8
0
100
AcDbSpline
 62
7
  6
CONTINUOUS
 70
0
 71
3
 72
37
 73
33
 74
0
 42
0.0000001
 43
0.0000001
 44
0.0000000001
 40
0.0
 40
0.0
 40
0.0
 40
0.0
 40
0.0311466476
 40
0.0624482391
 40
0.093895328
 40
0.1254805417
 40
0.1571907946
 40
0.1890115952
 40
0.2209259356
 40
0.2529150311
 40
0.284958639
 40
0.3170354579
 40
0.3491235488
 40
0.3812007523
 40
0.4451977724
 40
0.5088980103
 40
0.5406103272
 40
0.5721976339
 40
0.6036476391
 40
0.6349508386
 40
0.6661007532
 40
0.6970941041
 40
0.727930928
 40
0.7586146239
 40
0.7891519281
 40
0.8195528177
 40
0.8498303372
 40
0.8800003401
 40
0.9100811543
 40
0.9400931797
 40
0.9700584251
 40
1.0
 40
1.0
 40
1.0
 40
1.0
 10
11.6712090948
 20
8.326155218
 30
0.0
 10
11.6738602237
 20
8.3259713616
 30
0.0
 10
11.6791641799
 20
8.3254086439
 30
0.0
 10
11.6870557693
 20
8.3239912928
 30
0.0
 10
11.6948628794
 20
8.3220058401
 30
0.0
 10
11.7025432281
 20
8.3194632288
 30
0.0
 10
11.7100561117
 20
8.3163769039
 30
0.0
 10
11.7173614182
 20
8.3127634575
 30
0.0
 10
11.724420233
 20
8.3086421546
 30
0.0
 10
11.7311949386
 20
8.3040350258
 30
0.0
 10
11.7376494619
 20
8.2989666319
 30
0.0
 10
11.7437493453
 20
8.2934641116
 30
0.0
 10
11.7494623345
 20
8.2875564072
 30
0.0
 10
11.7565154856
 20
8.2791908084
 30
0.0
 10
11.7642182897
 20
8.2678884443
 30
0.0
 10
11.7702858262
 20
8.2556639105
 30
0.0
 10
11.7740680536
 20
8.2455016227
 30
0.0
 10
11.7763526612
 20
8.2377396789
 30
0.0
 10
11.7780759386
 20
8.2298701336
 30
0.0
 10
11.7792288357
 20
8.2219345591
 30
0.0
 10
11.7798050729
 20
8.2139753902
 30
0.0
 10
11.7798015056
 20
8.2060350691
 30
0.0
 10
11.7792180551
 20
8.1981559912
 30
0.0
 10
11.7780577383
 20
8.1903802378
 30
0.0
 10
11.7763266468
 20
8.1827493659
 30
0.0
 10
11.7740339356
 20
8.1753041801
 30
0.0
 10
11.7711917902
 20
8.1680845099
 30
0.0
 10
11.7678153288
 20
8.1611289868
 30
0.0
 10
11.763922583
 20
8.1544748828
 30
0.0
 10
11.7595342073
 20
8.1481577267
 30
0.0
 10
11.7546741038
 20
8.1422117818
 30
0.0
 10
11.7511352807
 20
8.1385150076
 30
0.0
 10
11.7492978074
 20
8.1367401648
 30
0.0
  0
SPLINE
  5
3C3
100
AcDbEntity
  8
0
100
AcDbSpline
 62
7
  6
CONTINUOUS
 70
0
 71
3
 72
42
 73
38
 74
0
 42
0.0000001
 43
0.0000001
 44
0.0000000001
 40
0.0
 40
0.0
 40
0.0
 40
0.0
 40
0.0311444822
 40
0.0467771409
 40
0.0624471084
 40
0.0938918288
 40
0.125473946
 40
0.1571813221
 40
0.1889991721
 40
0.2209105603
 40
0.2528967007
 40
0.2849373517
 40
0.3170112137
 40
0.3490963459
 40
0.3811705896
 40
0.4132119965
 40
0.4451992522
 40
0.4771120925
 40
0.5089317052
 40
0.5406411103
 40
0.5722255148
 40
0.6036726323
 40
0.6349729635
 40
0.6661200289
 40
0.6971105466
 40
0.7279445496
 40
0.7586254353
 40
0.7891599419
 40
0.8195580492
 40
0.8498327998
 40
0.8649315645
 40
0.8800056518
 40
0.9100837089
 40
0.9400929761
 40
0.9550815025
 40
0.9700611869
 40
1.0
 40
1.0
 40
1.0
 40
1.0
 10
9.9325425506
 20
7.6620139646
 30
0.0
 10
9.9396186311
 20
7.6615232367
 30
0.0
 10
9.9502247234
 20
7.6603979976
 30
0.0
 10
9.9642681455
 20
7.6581367219
 30
0.0
 10
9.978289266
 20
7.6553605638
 30
0.0
 10
9.9956752443
 20
7.6509392955
 30
0.0
 10
10.0161739842
 20
7.644152983
 30
0.0
 10
10.0362261143
 20
7.6359155703
 30
0.0
 10
10.0557241231
 20
7.6262712211
 30
0.0
 10
10.07456429
 20
7.6152714516
 30
0.0
 10
10.092646184
 20
7.6029749977
 30
0.0
 10
10.1098734766
 20
7.5894474714
 30
0.0
 10
10.1261543709
 20
7.5747610201
 30
0.0
 10
10.1414021067
 20
7.5589939437
 30
0.0
 10
10.1555354126
 20
7.5422302814
 30
0.0
 10
10.1684789357
 20
7.5245593678
 30
0.0
 10
10.1801636401
 20
7.506075362
 30
0.0
 10
10.1905271714
 20
7.4868767518
 30
0.0
 10
10.1995141889
 20
7.467065835
 30
0.0
 10
10.2070766594
 20
7.4467481808
 30
0.0
 10
10.2131741121
 20
7.4260320742
 30
0.0
 10
10.2177738565
 20
7.4050279462
 30
0.0
 10
10.2208511602
 20
7.3838477937
 30
0.0
 10
10.2223893851
 20
7.362604589
 30
0.0
 10
10.2223800867
 20
7.3414116902
 30
0.0
 10
10.2208230577
 20
7.3203822211
 30
0.0
 10
10.2177263803
 20
7.2996285539
 30
0.0
 10
10.2131062497
 20
7.2792614058
 30
0.0
 10
10.2069874449
 20
7.2593903825
 30
0.0
 10
10.2006595965
 20
7.2433158663
 30
0.0
 10
10.194885021
 20
7.2308154742
 30
0.0
 10
10.1886532501
 20
7.2185868261
 30
0.0
 10
10.1800006726
 20
7.2037956824
 30
0.0
 10
10.1702352789
 20
7.1897379904
 30
0.0
 10
10.1617964901
 20
7.1789926704
 30
0.0
 10
10.1529551954
 20
7.1685980315
 30
0.0
 10
10.1458717508
 20
7.1611979409
 30
0.0
 10
10.1409675347
 20
7.1564608063
 30
0.0
  0
SPLINE
  5
3C4
100
AcDbEntity
  8
0
100
AcDbSpline
 62
7
  6
CONTINUOUS
 70
0
 71
3
 72
15
 73
11
 74
0
 42
0.0000001
 43
0.0000001
 44
0.0000000001
 40
0.0
 40
0.0
 40
0.0
 40
0.0
 40
0.1269545668
 40
0.2532785349
 40
0.3789934234
 40
0.5041314667
 40
0.6287387476
 40
0.7528725194
 40
0.8766006586
 40
1.0
 40
1.0
 40
1.0
 40
1.0
 10
11.4783581377
 20
7.7479964572
 30
0.0
 10
11.4783581377
 20
7.7410698755
 30
0.0
 10
11.477860358
 20
7.7272457559
 30
0.0
 10
11.4756109631
 20
7.7066730282
 30
0.0
 10
11.4718725152
 20
7.6864175434
 30
0.0
 10
11.466664591
 20
7.6665860572
 30
0.0
 10
11.4600147653
 20
7.6472814216
 30
0.0
 10
11.4519578792
 20
7.6286035982
 30
0.0
 10
11.4425373425
 20
7.6106506438
 30
0.0
 10
11.4353709144
 20
7.5992112981
 30
0.0
 10
11.4315802707
 20
7.5936472112
 30
0.0
  0
SPLINE
  5
3C5
100
AcDbEntity
  8
0
100
AcDbSpline
 62
7
  6
CONTINUOUS
 70
0
 71
3
 72
15
 73
11
 74
0
 42
0.0000001
 43
0.0000001
 44
0.0000000001
 40
0.0
 40
0.0
 40
0.0
 40
0.0
 40
0.1269545661
 40
0.253278534
 40
0.3789934224
 40
0.5041314657
 40
0.6287387467
 40
0.7528725187
 40
0.8766006582
 40
1.0
 40
1.0
 40
1.0
 40
1.0
 10
11.4783581386
 20
8.7139221308
 30
0.0
 10
11.4783581386
 20
8.7069955502
 30
0.0
 10
11.4778603555
 20
8.693171433
 30
0.0
 10
11.4756109606
 20
8.6725987086
 30
0.0
 10
11.4718725116
 20
8.6523432273
 30
0.0
 10
11.4666645873
 20
8.6325117445
 30
0.0
 10
11.4600147618
 20
8.6132071121
 30
0.0
 10
11.4519578765
 20
8.5945292919
 30
0.0
 10
11.4425373409
 20
8.5765763404
 30
0.0
 10
11.4353709138
 20
8.5651369965
 30
0.0
 10
11.4315802707
 20
8.5595729105
 30
0.0
  0
SPLINE
  5
3C6
100
AcDbEntity
  8
0
100
AcDbSpline
 62
7
  6
CONTINUOUS
 70
0
 71
3
 72
23
 73
19
 74
0
 42
0.0000001
 43
0.0000001
 44
0.0000000001
 40
0.0
 40
0.0
 40
0.0
 40
0.0
 40
0.0639301146
 40
0.1275342387
 40
0.1908135351
 40
0.2537956988
 40
0.3165055707
 40
0.3789772066
 40
0.4412495152
 40
0.5033649483
 40
0.5653683842
 40
0.6273058563
 40
0.6892235729
 40
0.7511664802
 40
0.8131772526
 40
0.8752959537
 40
0.9375593204
 40
1.0
 40
1.0
 40
1.0
 40
1.0
 10
11.3129791609
 20
9.401539355
 30
0.0
 10
11.3129791609
 20
9.3998110807
 30
0.0
 10
11.3128488332
 20
9.3963618753
 30
0.0
 10
11.3122604344
 20
9.3912322647
 30
0.0
 10
11.3112837152
 20
9.3861879921
 30
0.0
 10
11.309926117
 20
9.381257766
 30
0.0
 10
11.3081972805
 20
9.3764683284
 30
0.0
 10
11.3061095531
 20
9.3718451701
 30
0.0
 10
11.3036773985
 20
9.3674119326
 30
0.0
 10
11.3009171213
 20
9.3631903996
 30
0.0
 10
11.2978465805
 20
9.3592003873
 30
0.0
 10
11.2944849246
 20
9.3554596755
 30
0.0
 10
11.290852321
 20
9.3519840039
 30
0.0
 10
11.2869696252
 20
9.3487871922
 30
0.0
 10
11.2828582097
 20
9.345881249
 30
0.0
 10
11.2785397078
 20
9.343276345
 30
0.0
 10
11.2740362946
 20
9.3409811554
 30
0.0
 10
11.2709294954
 20
9.3396640508
 30
0.0
 10
11.2693535296
 20
9.3390593139
 30
0.0
  0
SPLINE
  5
3C7
100
AcDbEntity
  8
0
100
AcDbSpline
 62
7
  6
CONTINUOUS
 70
0
 71
3
 72
28
 73
24
 74
0
 42
0.0000001
 43
0.0000001
 44
0.0000000001
 40
0.0
 40
0.0
 40
0.0
 40
0.0
 40
0.0624300945
 40
0.1254445566
 40
0.1889594658
 40
0.2528475085
 40
0.316952988
 40
0.3811034424
 40
0.4451228908
 40
0.5088454759
 40
0.5721284371
 40
0.6348637581
 40
0.6969877747
 40
0.727835427
 40
0.7585298951
 40
0.7890779342
 40
0.8194895066
 40
0.8497776553
 40
0.879958255
 40
0.9100496389
 40
0.9400721913
 40
0.9700479328
 40
1.0
 40
1.0
 40
1.0
 40
1.0
 10
9.4974895146
 20
9.2376665399
 30
0.0
 10
9.5004385209
 20
9.2374620256
 30
0.0
 10
9.5063424729
 20
9.2366162968
 30
0.0
 10
9.5149561475
 20
9.2340931908
 30
0.0
 10
9.5231973404
 20
9.2303636136
 30
0.0
 10
9.5308892671
 20
9.2255076765
 30
0.0
 10
9.5378698959
 20
9.2196287314
 30
0.0
 10
9.5439913564
 20
9.2128515114
 30
0.0
 10
9.5491240501
 20
9.2053194913
 30
0.0
 10
9.5531587851
 20
9.1971920139
 30
0.0
 10
9.5560094379
 20
9.1886407142
 30
0.0
 10
9.5576144607
 20
9.1798479478
 30
0.0
 10
9.5578847398
 20
9.1724515874
 30
0.0
 10
9.5574518514
 20
9.1666075226
 30
0.0
 10
9.5568077878
 20
9.1622905816
 30
0.0
 10
9.5558468465
 20
9.1580542871
 30
0.0
 10
9.5545740988
 20
9.1539210181
 30
0.0
 10
9.5529963334
 20
9.1499129555
 30
0.0
 10
9.551121962
 20
9.146051514
 30
0.0
 10
9.5489609611
 20
9.1423574053
 30
0.0
 10
9.546524784
 20
9.1388503647
 30
0.0
 10
9.543826735
 20
9.135549395
 30
0.0
 10
9.5418622186
 20
9.1334970348
 30
0.0
 10
9.5408421471
 20
9.1325117101
 30
0.0
  0
SPLINE
  5
3C8
100
AcDbEntity
  8
0
100
AcDbSpline
 62
7
  6
CONTINUOUS
 70
0
 71
3
 72
28
 73
24
 74
0
 42
0.0000001
 43
0.0000001
 44
0.0000000001
 40
0.0
 40
0.0
 40
0.0
 40
0.0
 40
0.0624300945
 40
0.1254445566
 40
0.1889594658
 40
0.2528475085
 40
0.316952988
 40
0.3811034424
 40
0.4451228908
 40
0.5088454759
 40
0.5721284371
 40
0.6348637581
 40
0.6969877747
 40
0.727835427
 40
0.7585298951
 40
0.7890779342
 40
0.8194895066
 40
0.8497776553
 40
0.879958255
 40
0.9100496389
 40
0.9400721913
 40
0.9700479328
 40
1.0
 40
1.0
 40
1.0
 40
1.0
 10
11.6225264583
 20
7.3153091926
 30
0.0
 10
11.6254754646
 20
7.3151046783
 30
0.0
 10
11.6313794167
 20
7.3142589494
 30
0.0
 10
11.6399930912
 20
7.3117358435
 30
0.0
 10
11.6482342841
 20
7.3080062663
 30
0.0
 10
11.6559262108
 20
7.3031503291
 30
0.0
 10
11.6629068397
 20
7.2972713841
 30
0.0
 10
11.6690283002
 20
7.2904941641
 30
0.0
 10
11.6741609939
 20
7.282962144
 30
0.0
 10
11.6781957289
 20
7.2748346666
 30
0.0
 10
11.6810463816
 20
7.2662833668
 30
0.0
 10
11.6826514045
 20
7.2574906004
 30
0.0
 10
11.6829216836
 20
7.2500942401
 30
0.0
 10
11.6824887951
 20
7.2442501753
 30
0.0
 10
11.6818447316
 20
7.2399332343
 30
0.0
 10
11.6808837903
 20
7.2356969398
 30
0.0
 10
11.6796110425
 20
7.2315636707
 30
0.0
 10
11.6780332771
 20
7.2275556081
 30
0.0
 10
11.6761589058
 20
7.2236941667
 30
0.0
 10
11.6739979048
 20
7.220000058
 30
0.0
 10
11.6715617277
 20
7.2164930174
 30
0.0
 10
11.6688636787
 20
7.2131920476
 30
0.0
 10
11.6668991623
 20
7.2111396874
 30
0.0
 10
11.6658790908
 20
7.2101543627
 30
0.0
  0
SPLINE
  5
3C9
100
AcDbEntity
  8
0
100
AcDbSpline
 62
7
  6
CONTINUOUS
 70
0
 71
3
 72
9
 73
5
 74
0
 42
0.0000001
 43
0.0000001
 44
0.0000000001
 40
0.0
 40
0.0
 40
0.0
 40
0.0
 40
0.2605857802
 40
1.0
 40
1.0
 40
1.0
 40
1.0
 10
10.9953383722
 20
8.8992162268
 30
0.0
 10
10.9943839833
 20
8.9008678301
 30
0.0
 10
10.9908568486
 20
8.9072817645
 30
0.0
 10
10.9878974104
 20
8.9140182069
 30
0.0
 10
10.9861484574
 20
8.9191404711
 30
0.0
  0
SPLINE
  5
3CA
100
AcDbEntity
  8
0
100
AcDbSpline
 62
7
  6
CONTINUOUS
 70
0
 71
3
 72
15
 73
11
 74
0
 42
0.0000001
 43
0.0000001
 44
0.0000000001
 40
0.0
 40
0.0
 40
0.0
 40
0.0
 40
0.1084489486
 40
0.2210933148
 40
0.3382104445
 40
0.4600732601
 40
0.5869431872
 40
0.7190698175
 40
0.8566877074
 40
1.0
 40
1.0
 40
1.0
 40
1.0
 10
10.9953383722
 20
8.8992162268
 30
0.0
 10
10.9965542704
 20
8.8971120723
 30
0.0
 10
10.9991493911
 20
8.8928886639
 30
0.0
 10
11.0034322313
 20
8.8866327106
 30
0.0
 10
11.0081786183
 20
8.8803399457
 30
0.0
 10
11.0133929079
 20
8.8740106208
 30
0.0
 10
11.0190814448
 20
8.8676453845
 30
0.0
 10
11.0252520773
 20
8.8612462316
 30
0.0
 10
11.031913847
 20
8.854817443
 30
0.0
 10
11.0365928175
 20
8.8506036864
 30
0.0
 10
11.0390141252
 20
8.8484940338
 30
0.0
  0
SPLINE
  5
3CB
100
AcDbEntity
  8
0
100
AcDbSpline
 62
7
  6
CONTINUOUS
 70
0
 71
3
 72
30
 73
26
 74
0
 42
0.0000001
 43
0.0000001
 44
0.0000000001
 40
0.0
 40
0.0
 40
0.0
 40
0.0
 40
0.1201052909
 40
0.244794404
 40
0.3088197691
 40
0.3739061619
 40
0.4399724415
 40
0.5068893497
 40
0.5744549141
 40
0.6423548185
 40
0.7100962111
 40
0.7436800866
 40
0.7769003741
 40
0.809584379
 40
0.8415124324
 40
0.8724095252
 40
0.9019391368
 40
0.9160740623
 40
0.929721066
 40
0.942833273
 40
0.955372814
 40
0.9673208651
 40
0.978689953
 40
0.9895409253
 40
1.0
 40
1.0
 40
1.0
 40
1.0
 10
11.0390141252
 20
8.8484940338
 30
0.0
 10
11.0414595388
 20
8.8463633782
 30
0.0
 10
11.0465159925
 20
8.8421030954
 30
0.0
 10
11.0530647554
 20
8.8369370293
 30
0.0
 10
11.0585486882
 20
8.8328254293
 30
0.0
 10
11.0628193743
 20
8.8297359602
 30
0.0
 10
11.0672087408
 20
8.8266787416
 30
0.0
 10
11.0717116579
 20
8.8236690556
 30
0.0
 10
11.0763191323
 20
8.8207286915
 30
0.0
 10
11.0810158801
 20
8.817889643
 30
0.0
 10
11.0849950809
 20
8.8156405028
 30
0.0
 10
11.0882081248
 20
8.8139436103
 30
0.0
 10
11.0906116124
 20
8.8127424347
 30
0.0
 10
11.0930061058
 20
8.8116251916
 30
0.0
 10
11.0953789093
 20
8.8106126243
 30
0.0
 10
11.097712946
 20
8.8097313686
 30
0.0
 10
11.0996348961
 20
8.8091254372
 30
0.0
 10
11.1011360967
 20
8.8087471899
 30
0.0
 10
11.1022187731
 20
8.8085271503
 30
0.0
 10
11.1032695512
 20
8.8083738057
 30
0.0
 10
11.1042828204
 20
8.8082952435
 30
0.0
 10
11.1052524251
 20
8.8083001268
 30
0.0
 10
11.1061718879
 20
8.8083978865
 30
0.0
 10
11.1070338467
 20
8.8085982418
 30
0.0
 10
11.1075721024
 20
8.8088096391
 30
0.0
 10
11.1078254136
 20
8.8089345731
 30
0.0
  0
SPLINE
  5
3CC
100
AcDbEntity
  8
0
100
AcDbSpline
 62
7
  6
CONTINUOUS
 70
0
 71
3
 72
30
 73
26
 74
0
 42
0.0000001
 43
0.0000001
 44
0.0000000001
 40
0.0
 40
0.0
 40
0.0
 40
0.0
 40
0.0845020675
 40
0.1673018723
 40
0.2480808832
 40
0.326531679
 40
0.4023594032
 40
0.4752840877
 40
0.5450427919
 40
0.6113921491
 40
0.6741112657
 40
0.7040486419
 40
0.7330078368
 40
0.7609691485
 40
0.787915443
 40
0.8138317702
 40
0.8387062489
 40
0.862529788
 40
0.8852970823
 40
0.9070065056
 40
0.9276612784
 40
0.9472696343
 40
0.9658462565
 40
0.9834128553
 40
1.0
 40
1.0
 40
1.0
 40
1.0
 10
12.2756387588
 20
12.0230796639
 30
0.0
 10
12.2844323872
 20
12.0224698237
 30
0.0
 10
12.3018322454
 20
12.0211080856
 30
0.0
 10
12.327591294
 20
12.0186111133
 30
0.0
 10
12.35267033
 20
12.0156884747
 30
0.0
 10
12.3769639687
 20
12.0123525995
 30
0.0
 10
12.40037034
 20
12.0086176676
 30
0.0
 10
12.4227912983
 20
12.0044995685
 30
0.0
 10
12.4441330417
 20
12.0000158486
 30
0.0
 10
12.4643061151
 20
11.995185555
 30
0.0
 10
12.4803123603
 20
11.990823766
 30
0.0
 10
12.4924595718
 20
11.9871630134
 30
0.0
 10
12.5010847569
 20
11.9843864615
 30
0.0
 10
12.509357585
 20
11.981539152
 30
0.0
 10
12.5172694344
 20
11.9786241227
 30
0.0
 10
12.5248120336
 20
11.9756443646
 30
0.0
 10
12.5319775463
 20
11.9726030843
 30
0.0
 10
12.538758509
 20
11.9695033773
 30
0.0
 10
12.5451479232
 20
11.9663485556
 30
0.0
 10
12.5511391683
 20
11.9631417975
 30
0.0
 10
12.5567261271
 20
11.9598864721
 30
0.0
 10
12.5619030362
 20
11.9565858049
 30
0.0
 10
12.5666647363
 20
11.9532431026
 30
0.0
 10
12.5710061376
 20
11.9498617355
 30
0.0
 10
12.5736927252
 20
11.9475180424
 30
0.0
 10
12.5749593671
 20
11.9463392898
 30
0.0
  0
SPLINE
  5
3CD
100
AcDbEntity
  8
0
100
AcDbSpline
 62
7
  6
CONTINUOUS
 70
0
 71
3
 72
42
 73
38
 74
0
 42
0.0000001
 43
0.0000001
 44
0.0000000001
 40
0.0
 40
0.0
 40
0.0
 40
0.0
 40
0.0074673398
 40
0.0154321885
 40
0.0238844682
 40
0.0328122924
 40
0.0422027768
 40
0.052041092
 40
0.0729977119
 40
0.0955565641
 40
0.1195924752
 40
0.1449878725
 40
0.171636031
 40
0.1994420882
 40
0.2283225344
 40
0.2582036519
 40
0.28901907
 40
0.3207068506
 40
0.3532064509
 40
0.3864556276
 40
0.4203878748
 40
0.454930697
 40
0.4900059074
 40
0.5255315724
 40
0.5614251204
 40
0.5976075573
 40
0.6340071186
 40
0.6705617681
 40
0.7072197779
 40
0.7439386903
 40
0.780682982
 40
0.817421451
 40
0.8541247612
 40
0.8907636801
 40
0.9273086164
 40
0.9637295804
 40
1.0
 40
1.0
 40
1.0
 40
1.0
 10
11.4690930533
 20
7.7280118189
 30
0.0
 10
11.4680370311
 20
7.7268287275
 30
0.0
 10
11.4658095629
 20
7.7244236939
 30
0.0
 10
11.4622458254
 20
7.7208131916
 30
0.0
 10
11.4583551481
 20
7.7170927512
 30
0.0
 10
11.4541417759
 20
7.7132747728
 30
0.0
 10
11.4496105384
 20
7.7093720452
 30
0.0
 10
11.443010975
 20
7.7039600378
 30
0.0
 10
11.4339954049
 20
7.6970894786
 30
0.0
 10
11.4222002021
 20
7.6889155363
 30
0.0
 10
11.4092464008
 20
7.6807849835
 30
0.0
 10
11.3951691012
 20
7.672842874
 30
0.0
 10
11.3800032258
 20
7.6652401605
 30
0.0
 10
11.3637858335
 20
7.6581335601
 30
0.0
 10
11.3465587985
 20
7.6516856617
 30
0.0
 10
11.3283725597
 20
7.6460650029
 30
0.0
 10
11.3092905978
 20
7.6414455082
 30
0.0
 10
11.2893944568
 20
7.638004734
 30
0.0
 10
11.2687888531
 20
7.6359203654
 30
0.0
 10
11.247606151
 20
7.6353645318
 30
0.0
 10
11.2260092394
 20
7.6364958496
 30
0.0
 10
11.2041914539
 20
7.6394494845
 30
0.0
 10
11.1823725425
 20
7.6443268054
 30
0.0
 10
11.1607904762
 20
7.6511864806
 30
0.0
 10
11.1396898274
 20
7.6600386535
 30
0.0
 10
11.1193086135
 20
7.6708439997
 30
0.0
 10
11.0998664743
 20
7.6835185941
 30
0.0
 10
11.0815559595
 20
7.6979420902
 30
0.0
 10
11.0645380766
 20
7.7139678616
 30
0.0
 10
11.0489425316
 20
7.7314333547
 30
0.0
 10
11.0348708097
 20
7.750168231
 30
0.0
 10
11.0224009617
 20
7.7700001052
 30
0.0
 10
11.0115927162
 20
7.7907579807
 30
0.0
 10
11.0024920653
 20
7.8122736121
 30
0.0
 10
10.9951347914
 20
7.8343826428
 30
0.0
 10
10.9895487745
 20
7.8569217533
 30
0.0
 10
10.9870133705
 20
7.8721684967
 30
0.0
 10
10.9860490702
 20
7.8798106517
 30
0.0
  0
SPLINE
  5
3CE
100
AcDbEntity
  8
0
100
AcDbSpline
 62
7
  6
CONTINUOUS
 70
0
 71
3
 72
18
 73
14
 74
0
 42
0.0000001
 43
0.0000001
 44
0.0000000001
 40
0.0
 40
0.0
 40
0.0
 40
0.0
 40
0.1072974327
 40
0.2082709472
 40
0.3004537789
 40
0.3836488078
 40
0.5268154444
 40
0.6465842629
 40
0.7498092972
 40
0.8411415848
 40
0.9237674391
 40
0.9625705727
 40
1.0
 40
1.0
 40
1.0
 40
1.0
 10
11.0102243226
 20
8.5340823697
 30
0.0
 10
11.0079777503
 20
8.5361142783
 30
0.0
 10
11.0038216131
 20
8.5402921401
 30
0.0
 10
10.9984903142
 20
8.5469074495
 30
0.0
 10
10.9942155968
 20
8.5534492716
 30
0.0
 10
10.9900145752
 20
8.5614117003
 30
0.0
 10
10.9865492249
 20
8.5705997633
 30
0.0
 10
10.9844466239
 20
8.5807584622
 30
0.0
 10
10.9839056576
 20
8.5896443311
 30
0.0
 10
10.9844833349
 20
8.5974700101
 30
0.0
 10
10.9856926053
 20
8.6033712147
 30
0.0
 10
10.9870048271
 20
8.6076620585
 30
0.0
 10
10.987758869
 20
8.6096795001
 30
0.0
 10
10.988158664
 20
8.6106576316
 30
0.0
  0
SPLINE
  5
3CF
100
AcDbEntity
  8
0
100
AcDbSpline
 62
7
  6
CONTINUOUS
 70
0
 71
3
 72
30
 73
26
 74
0
 42
0.0000001
 43
0.0000001
 44
0.0000000001
 40
0.0
 40
0.0
 40
0.0
 40
0.0
 40
0.0745418532
 40
0.1494486819
 40
0.2242668223
 40
0.2985433119
 40
0.3718294273
 40
0.443684243
 40
0.5136782769
 40
0.5813971872
 40
0.646445585
 40
0.6778517989
 40
0.7084528989
 40
0.738206614
 40
0.7670728266
 40
0.7950136074
 40
0.8219933608
 40
0.8479793085
 40
0.872941432
 40
0.8968530219
 40
0.9196910304
 40
0.9414363194
 40
0.9620745855
 40
0.9815967531
 40
1.0
 40
1.0
 40
1.0
 40
1.0
 10
11.0247483513
 20
7.7666525489
 30
0.0
 10
11.0354286946
 20
7.7670574732
 30
0.0
 10
11.0568509949
 20
7.7676408419
 30
0.0
 10
11.0890085484
 20
7.7678446128
 30
0.0
 10
11.1211254948
 20
7.7673796655
 30
0.0
 10
11.1529933837
 20
7.7662490616
 30
0.0
 10
11.1844056509
 20
7.7644602411
 30
0.0
 10
11.2151586417
 20
7.7620249648
 30
0.0
 10
11.2450531407
 20
7.7589592983
 30
0.0
 10
11.2738953281
 20
7.7552833945
 30
0.0
 10
11.2971626611
 20
7.7516912666
 30
0.0
 10
11.3151023067
 20
7.7485177404
 30
0.0
 10
11.328022274
 20
7.7460289145
 30
0.0
 10
11.3405441913
 20
7.7434076584
 30
0.0
 10
11.3526477945
 20
7.7406582408
 30
0.0
 10
11.3643134819
 20
7.7377851655
 30
0.0
 10
11.3755223743
 20
7.7347930785
 30
0.0
 10
11.3862563598
 20
7.7316869148
 30
0.0
 10
11.3964981037
 20
7.7284717006
 30
0.0
 10
11.4062310966
 20
7.725152678
 30
0.0
 10
11.4154396987
 20
7.7217352783
 30
0.0
 10
11.4241091089
 20
7.7182249922
 30
0.0
 10
11.4322255603
 20
7.7146275087
 30
0.0
 10
11.4397759282
 20
7.7109486934
 30
0.0
 10
11.4445655917
 20
7.7083696555
 30
0.0
 10
11.4468587264
 20
7.7070641614
 30
0.0
  0
SPLINE
  5
3D0
100
AcDbEntity
  8
0
100
AcDbSpline
 62
7
  6
CONTINUOUS
 70
0
 71
3
 72
33
 73
29
 74
0
 42
0.0000001
 43
0.0000001
 44
0.0000000001
 40
0.0
 40
0.0
 40
0.0
 40
0.0
 40
0.076105551
 40
0.1533658356
 40
0.2310975147
 40
0.3086102968
 40
0.3852167406
 40
0.4602399036
 40
0.4969519223
 40
0.5330231046
 40
0.5683753798
 40
0.6029328464
 40
0.6366220786
 40
0.6693724616
 40
0.7011164456
 40
0.7317898625
 40
0.7613323426
 40
0.7896877692
 40
0.8168046838
 40
0.8426368363
 40
0.8671439375
 40
0.8902925457
 40
0.9120570506
 40
0.932421121
 40
0.9513796995
 40
0.9689412314
 40
0.9851321674
 40
1.0
 40
1.0
 40
1.0
 40
1.0
 10
11.4151179078
 20
5.2997324112
 30
0.0
 10
11.4286067524
 20
5.2987969566
 30
0.0
 10
11.4558159268
 20
5.2972808328
 30
0.0
 10
11.4968596025
 20
5.2960547147
 30
0.0
 10
11.5381713902
 20
5.2958647707
 30
0.0
 10
11.5793587246
 20
5.2967127922
 30
0.0
 10
11.6200302383
 20
5.2985906859
 30
0.0
 10
11.6534083809
 20
5.3010155078
 30
0.0
 10
11.679554289
 20
5.3034678906
 30
0.0
 10
11.698655052
 20
5.3055372396
 30
0.0
 10
11.7173428776
 20
5.3078447998
 30
0.0
 10
11.7355733692
 20
5.310385092
 30
0.0
 10
11.7533031849
 20
5.3131520291
 30
0.0
 10
11.7704902064
 20
5.3161389703
 30
0.0
 10
11.7870936167
 20
5.3193387544
 30
0.0
 10
11.8030739987
 20
5.3227437208
 30
0.0
 10
11.8183934479
 20
5.3263457115
 30
0.0
 10
11.8330156776
 20
5.3301360754
 30
0.0
 10
11.8469060978
 20
5.3341057248
 30
0.0
 10
11.860031905
 20
5.3382451642
 30
0.0
 10
11.8723621979
 20
5.3425444997
 30
0.0
 10
11.8838680814
 20
5.3469934731
 30
0.0
 10
11.8945227365
 20
5.3515815345
 30
0.0
 10
11.9043015586
 20
5.3562979635
 30
0.0
 10
11.913182084
 20
5.3611318514
 30
0.0
 10
11.921144712
 20
5.366072597
 30
0.0
 10
11.9281709482
 20
5.3711090848
 30
0.0
 10
11.9323955511
 20
5.3746717608
 30
0.0
 10
11.9343293034
 20
5.3764712158
 30
0.0
  0
SPLINE
  5
3D1
100
AcDbEntity
  8
0
100
AcDbSpline
 62
7
  6
CONTINUOUS
 70
0
 71
3
 72
16
 73
12
 74
0
 42
0.0000001
 43
0.0000001
 44
0.0000000001
 40
0.0
 40
0.0
 40
0.0
 40
0.0
 40
0.1480543646
 40
0.2876984311
 40
0.4196092656
 40
0.4829475736
 40
0.5446951146
 40
0.6639367557
 40
0.7786074495
 40
0.8901135749
 40
1.0
 40
1.0
 40
1.0
 40
1.0
 10
12.5999727964
 20
6.0185693782
 30
0.0
 10
12.6012051275
 20
6.0197597187
 30
0.0
 10
12.6035275551
 20
6.0221496788
 30
0.0
 10
12.606650175
 20
6.025874303
 30
0.0
 10
12.6088899311
 20
6.0290438273
 30
0.0
 10
12.6104324221
 20
6.0315878617
 30
0.0
 10
12.6117795367
 20
6.0340748145
 30
0.0
 10
12.6131794464
 20
6.0372044289
 30
0.0
 10
12.6143970039
 20
6.0410212245
 30
0.0
 10
12.61512917
 20
6.0448502582
 30
0.0
 10
12.6152925203
 20
6.0474151676
 30
0.0
 10
12.6152925191
 20
6.0486868177
 30
0.0
  0
SPLINE
  5
3D2
100
AcDbEntity
  8
0
100
AcDbSpline
 62
7
  6
CONTINUOUS
 70
0
 71
3
 72
16
 73
12
 74
0
 42
0.0000001
 43
0.0000001
 44
0.0000000001
 40
0.0
 40
0.0
 40
0.0
 40
0.0
 40
0.1777322926
 40
0.3372882362
 40
0.479450608
 40
0.6054090994
 40
0.7175536627
 40
0.7694210735
 40
0.8189602856
 40
0.9122886594
 40
1.0
 40
1.0
 40
1.0
 40
1.0
 10
10.4658989724
 20
11.3934071471
 30
0.0
 10
10.4650745103
 20
11.3944013182
 30
0.0
 10
10.4635652272
 20
11.3963351713
 30
0.0
 10
10.461615312
 20
11.3992260859
 30
0.0
 10
10.4600755039
 20
11.4019293592
 30
0.0
 10
10.4589045287
 20
11.4044358547
 30
0.0
 10
10.4581857473
 20
11.4064201995
 30
0.0
 10
10.4577652474
 20
11.4079145536
 30
0.0
 10
10.4574469506
 20
11.4092938643
 30
0.0
 10
10.4571896177
 20
11.4109525722
 30
0.0
 10
10.4571226999
 20
11.4122690748
 30
0.0
 10
10.4571226999
 20
11.4129064604
 30
0.0
  0
SPLINE
  5
3D3
100
AcDbEntity
  8
0
100
AcDbSpline
 62
7
  6
CONTINUOUS
 70
0
 71
3
 72
30
 73
26
 74
0
 42
0.0000001
 43
0.0000001
 44
0.0000000001
 40
0.0
 40
0.0
 40
0.0
 40
0.0
 40
0.0165871447
 40
0.0341537435
 40
0.0527303657
 40
0.0723387216
 40
0.0929934944
 40
0.1147029177
 40
0.137470212
 40
0.1612937511
 40
0.1861682298
 40
0.212084557
 40
0.2390308515
 40
0.2669921632
 40
0.2959513581
 40
0.3258887343
 40
0.3886078509
 40
0.4549572081
 40
0.5247159123
 40
0.5976405968
 40
0.673468321
 40
0.7519191168
 40
0.8326981277
 40
0.9154979325
 40
1.0
 40
1.0
 40
1.0
 40
1.0
 10
9.4250406329
 20
5.4937271584
 30
0.0
 10
9.4263072748
 20
5.4925484057
 30
0.0
 10
9.4289938624
 20
5.4902047127
 30
0.0
 10
9.4333352637
 20
5.4868233456
 30
0.0
 10
9.4380969638
 20
5.4834806433
 30
0.0
 10
9.4432738729
 20
5.480179976
 30
0.0
 10
9.4488608317
 20
5.4769246507
 30
0.0
 10
9.4548520768
 20
5.4737178925
 30
0.0
 10
9.461241491
 20
5.4705630709
 30
0.0
 10
9.4680224537
 20
5.4674633639
 30
0.0
 10
9.4751879664
 20
5.4644220836
 30
0.0
 10
9.4827305656
 20
5.4614423254
 30
0.0
 10
9.490642415
 20
5.4585272962
 30
0.0
 10
9.4989152431
 20
5.4556799867
 30
0.0
 10
9.5075404282
 20
5.4529034347
 30
0.0
 10
9.5196876397
 20
5.4492426822
 30
0.0
 10
9.5356938849
 20
5.4448808931
 30
0.0
 10
9.5558669583
 20
5.4400505996
 30
0.0
 10
9.5772087017
 20
5.4355668797
 30
0.0
 10
9.59962966
 20
5.4314487806
 30
0.0
 10
9.6230360313
 20
5.4277138486
 30
0.0
 10
9.64732967
 20
5.4243779735
 30
0.0
 10
9.672408706
 20
5.4214553349
 30
0.0
 10
9.6981677546
 20
5.4189583625
 30
0.0
 10
9.7155676128
 20
5.4175966244
 30
0.0
 10
9.7243612412
 20
5.4169867842
 30
0.0
  0
SPLINE
  5
3D4
100
AcDbEntity
  8
0
100
AcDbSpline
 62
7
  6
CONTINUOUS
 70
0
 71
3
 72
16
 73
12
 74
0
 42
0.0000001
 43
0.0000001
 44
0.0000000001
 40
0.0
 40
0.0
 40
0.0
 40
0.0
 40
0.1090282828
 40
0.2197801956
 40
0.3338940913
 40
0.4528539688
 40
0.5145832031
 40
0.5779905558
 40
0.7103119904
 40
0.850745723
 40
1.0
 40
1.0
 40
1.0
 40
1.0
 10
9.3847074809
 20
5.5471416648
 30
0.0
 10
9.3847074821
 20
5.5458238661
 30
0.0
 10
9.3848830819
 20
5.5431642529
 30
0.0
 10
9.3856698804
 20
5.539195427
 30
0.0
 10
9.3869779106
 20
5.5352404879
 30
0.0
 10
9.3884803663
 20
5.5320011582
 30
0.0
 10
9.3899254878
 20
5.5294278552
 30
0.0
 10
9.3915823038
 20
5.5267923964
 30
0.0
 10
9.3939878384
 20
5.523510542
 30
0.0
 10
9.3973385502
 20
5.5196583564
 30
0.0
 10
9.3998273348
 20
5.5171907695
 30
0.0
 10
9.4011479597
 20
5.5159617993
 30
0.0
  0
SPLINE
  5
3D5
100
AcDbEntity
  8
0
100
AcDbSpline
 62
7
  6
CONTINUOUS
 70
0
 71
3
 72
40
 73
36
 74
0
 42
0.0000001
 43
0.0000001
 44
0.0000000001
 40
0.0
 40
0.0
 40
0.0
 40
0.0
 40
0.0072740101
 40
0.0148705227
 40
0.0227980815
 40
0.031063367
 40
0.0396716158
 40
0.0486266109
 40
0.0579309866
 40
0.0675862909
 40
0.0775930905
 40
0.0879511656
 40
0.1097151068
 40
0.132863168
 40
0.1573697498
 40
0.1832013711
 40
0.2103177571
 40
0.2386726883
 40
0.2682146947
 40
0.2988876243
 40
0.3306311222
 40
0.3633810469
 40
0.3970698406
 40
0.4316268647
 40
0.4669787086
 40
0.5030494833
 40
0.5397611054
 40
0.5770335672
 40
0.6147851986
 40
0.6529329242
 40
0.6913925164
 40
0.7689045631
 40
0.8466355233
 40
0.9238953919
 40
1.0
 40
1.0
 40
1.0
 40
1.0
 10
11.7085693329
 20
11.4009616951
 30
0.0
 10
11.707122615
 20
11.399615365
 30
0.0
 10
11.7040985108
 20
11.3969338104
 30
0.0
 10
11.6992900565
 20
11.3930268676
 30
0.0
 10
11.6941153278
 20
11.3891517555
 30
0.0
 10
11.6885775338
 20
11.385310694
 30
0.0
 10
11.6826798148
 20
11.3815059234
 30
0.0
 10
11.6764256601
 20
11.3777395801
 30
0.0
 10
11.6698187063
 20
11.3740138805
 30
0.0
 10
11.6628628333
 20
11.3703310134
 30
0.0
 10
11.6555621264
 20
11.3666930634
 30
0.0
 10
11.6452021977
 20
11.3618248712
 30
0.0
 10
11.6314061831
 20
11.3558841142
 30
0.0
 10
11.6138118409
 20
11.3490806877
 30
0.0
 10
11.5949565239
 20
11.3425060738
 30
0.0
 10
11.5748847623
 20
11.3361759658
 30
0.0
 10
11.5536437103
 20
11.3301054942
 30
0.0
 10
11.5312835461
 20
11.3243091987
 30
0.0
 10
11.5078571639
 20
11.3188009723
 30
0.0
 10
11.483420071
 20
11.313594022
 30
0.0
 10
11.4580302267
 20
11.3087008325
 30
0.0
 10
11.431747897
 20
11.3041331344
 30
0.0
 10
11.4046355015
 20
11.2999018753
 30
0.0
 10
11.3767574595
 20
11.2960171949
 30
0.0
 10
11.3481800331
 20
11.2924883987
 30
0.0
 10
11.3189711644
 20
11.2893239348
 30
0.0
 10
11.2892003112
 20
11.2865313788
 30
0.0
 10
11.2589382712
 20
11.2841174115
 30
0.0
 10
11.2282570379
 20
11.2820878204
 30
0.0
 10
11.1972295315
 20
11.2804474207
 30
0.0
 10
11.1553894415
 20
11.278780317
 30
0.0
 10
11.1027678349
 20
11.2776969595
 30
0.0
 10
11.039593752
 20
11.2779873634
 30
0.0
 10
10.9768295179
 20
11.2798623288
 30
0.0
 10
10.93522112
 20
11.2821807897
 30
0.0
 10
10.9145939832
 20
11.2836112865
 30
0.0
  0
SPLINE
  5
3D6
100
AcDbEntity
  8
0
100
AcDbSpline
 62
7
  6
CONTINUOUS
 70
0
 71
3
 72
17
 73
13
 74
0
 42
0.0000001
 43
0.0000001
 44
0.0000000001
 40
0.0
 40
0.0
 40
0.0
 40
0.0
 40
0.0870744215
 40
0.1798466362
 40
0.2291568156
 40
0.2808399094
 40
0.3927927451
 40
0.4538803178
 40
0.5188818842
 40
0.6613846992
 40
0.8215139239
 40
1.0
 40
1.0
 40
1.0
 40
1.0
 10
11.7083226999
 20
11.4129064604
 30
0.0
 10
11.7083226999
 20
11.4122589132
 30
0.0
 10
11.7082535656
 20
11.4109204865
 30
0.0
 10
11.7079876736
 20
11.4092340435
 30
0.0
 10
11.7076587942
 20
11.4078306105
 30
0.0
 10
11.7072234718
 20
11.4063074338
 30
0.0
 10
11.7066452678
 20
11.4047363358
 30
0.0
 10
11.7059255823
 20
11.4031185724
 30
0.0
 10
11.7050361071
 20
11.4013294679
 30
0.0
 10
11.7036652489
 20
11.3989603249
 30
0.0
 10
11.7016409147
 20
11.3960065424
 30
0.0
 10
11.7000751044
 20
11.3940315799
 30
0.0
 10
11.699219866
 20
11.3930164821
 30
0.0
  0
SPLINE
  5
3D7
100
AcDbEntity
  8
0
100
AcDbSpline
 62
7
  6
CONTINUOUS
 70
0
 71
3
 72
11
 73
7
 74
0
 42
0.0000001
 43
0.0000001
 44
0.0000000001
 40
0.0
 40
0.0
 40
0.0
 40
0.0
 40
0.2221916627
 40
0.4627900526
 40
0.7220585724
 40
1.0
 40
1.0
 40
1.0
 40
1.0
 10
11.4781243344
 20
7.7398087632
 30
0.0
 10
11.4775462438
 20
7.7388709607
 30
0.0
 10
11.4762823464
 20
7.7369542095
 30
0.0
 10
11.4741646619
 20
7.734066183
 30
0.0
 10
11.4717528765
 20
7.7310555796
 30
0.0
 10
11.4700107267
 20
7.7290399142
 30
0.0
 10
11.4690930533
 20
7.7280118189
 30
0.0
  0
SPLINE
  5
3D8
100
AcDbEntity
  8
0
100
AcDbSpline
 62
7
  6
CONTINUOUS
 70
0
 71
3
 72
31
 73
27
 74
0
 42
0.0000001
 43
0.0000001
 44
0.0000000001
 40
0.0
 40
0.0
 40
0.0
 40
0.0
 40
0.016642542
 40
0.0342580878
 40
0.0528767191
 40
0.0725201612
 40
0.0932028773
 40
0.1149334466
 40
0.1377150719
 40
0.1615466267
 40
0.1864229915
 40
0.2123356246
 40
0.2392730127
 40
0.2672207839
 40
0.2961622871
 40
0.3260784698
 40
0.3569483847
 40
0.3887491396
 40
0.4550413882
 40
0.5247420176
 40
0.5976135249
 40
0.673399092
 40
0.7518250366
 40
0.8326029926
 40
0.9154319189
 40
1.0
 40
1.0
 40
1.0
 40
1.0
 10
12.0863607032
 20
11.8034801032
 30
0.0
 10
12.0844434561
 20
11.8016958941
 30
0.0
 10
12.080379279
 20
11.7981481079
 30
0.0
 10
12.0738157861
 20
11.7930275737
 30
0.0
 10
12.0666220821
 20
11.7879648106
 30
0.0
 10
12.0588056191
 20
11.7829650035
 30
0.0
 10
12.0503741324
 20
11.7780328605
 30
0.0
 10
12.0413360623
 20
11.7731733882
 30
0.0
 10
12.031700534
 20
11.7683913842
 30
0.0
 10
12.0214772767
 20
11.7636917537
 30
0.0
 10
12.0106766778
 20
11.7590792686
 30
0.0
 10
11.9993097374
 20
11.754558644
 30
0.0
 10
11.9873880502
 20
11.7501345689
 30
0.0
 10
11.9749238212
 20
11.7458115394
 30
0.0
 10
11.9619298047
 20
11.741594081
 30
0.0
 10
11.948419341
 20
11.7374865
 30
0.0
 10
11.9344062754
 20
11.7334930354
 30
0.0
 10
11.9147987814
 20
11.7282534629
 30
0.0
 10
11.8891303956
 20
11.7220399452
 30
0.0
 10
11.8569774455
 20
11.7152001188
 30
0.0
 10
11.8231926817
 20
11.7089057994
 30
0.0
 10
11.7879150598
 20
11.7031831949
 30
0.0
 10
11.7512894656
 20
11.6980561906
 30
0.0
 10
11.7134665012
 20
11.6935461483
 30
0.0
 10
11.6746019512
 20
11.689671861
 30
0.0
 10
11.648343367
 20
11.6875429664
 30
0.0
 10
11.6350695555
 20
11.6865845526
 30
0.0
  0
SPLINE
  5
3D9
100
AcDbEntity
  8
0
100
AcDbSpline
 62
7
  6
CONTINUOUS
 70
0
 71
3
 72
17
 73
13
 74
0
 42
0.0000001
 43
0.0000001
 44
0.0000000001
 40
0.0
 40
0.0
 40
0.0
 40
0.0
 40
0.0870744215
 40
0.1798466362
 40
0.2291568156
 40
0.2808399094
 40
0.3927927451
 40
0.4538803178
 40
0.5188818842
 40
0.6613846992
 40
0.8215139239
 40
1.0
 40
1.0
 40
1.0
 40
1.0
 10
12.0861140701
 20
11.8154248686
 30
0.0
 10
12.0861140701
 20
11.8147773213
 30
0.0
 10
12.0860449359
 20
11.8134388946
 30
0.0
 10
12.0857790438
 20
11.8117524516
 30
0.0
 10
12.0854501644
 20
11.8103490186
 30
0.0
 10
12.0850148421
 20
11.808825842
 30
0.0
 10
12.084436638
 20
11.807254744
 30
0.0
 10
12.0837169525
 20
11.8056369806
 30
0.0
 10
12.0828274773
 20
11.803847876
 30
0.0
 10
12.0814566191
 20
11.8014787331
 30
0.0
 10
12.0794322849
 20
11.7985249506
 30
0.0
 10
12.0778664747
 20
11.796549988
 30
0.0
 10
12.0770112363
 20
11.7955348902
 30
0.0
  0
SPLINE
  5
3DA
100
AcDbEntity
  8
0
100
AcDbSpline
 62
7
  6
CONTINUOUS
 70
0
 71
3
 72
26
 73
22
 74
0
 42
0.0000001
 43
0.0000001
 44
0.0000000001
 40
0.0
 40
0.0
 40
0.0
 40
0.0
 40
0.0384236493
 40
0.0577280609
 40
0.0771555203
 40
0.1165620926
 40
0.1570551101
 40
0.1990560074
 40
0.243026013
 40
0.2894884668
 40
0.339058463
 40
0.392485338
 40
0.4507160689
 40
0.5149920628
 40
0.5869980326
 40
0.6690645063
 40
0.7642797396
 40
0.8178678581
 40
0.8756100606
 40
0.936887241
 40
1.0
 40
1.0
 40
1.0
 40
1.0
 10
11.1243593328
 20
8.5463829878
 30
0.0
 10
11.1237123405
 20
8.5448027054
 30
0.0
 10
11.1226170621
 20
8.5424761827
 30
0.0
 10
11.1209217224
 20
8.5394944998
 30
0.0
 10
11.1190526258
 20
8.5365662136
 30
0.0
 10
11.1163922302
 20
8.5330332776
 30
0.0
 10
11.1127022298
 20
8.5290543304
 30
0.0
 10
11.1084730708
 20
8.5253379421
 30
0.0
 10
11.1036703517
 20
8.5219183268
 30
0.0
 10
11.0982495942
 20
8.5188419803
 30
0.0
 10
11.0921542394
 20
8.5161728287
 30
0.0
 10
11.0853125701
 20
8.5139992735
 30
0.0
 10
11.0776339049
 20
8.5124450898
 30
0.0
 10
11.0690038064
 20
8.5116872811
 30
0.0
 10
11.0592803929
 20
8.51198806
 30
0.0
 10
11.0483094197
 20
8.5137427868
 30
0.0
 10
11.0384669589
 20
8.5167859381
 30
0.0
 10
11.030058811
 20
8.5204895521
 30
0.0
 10
11.023318508
 20
8.5241737246
 30
0.0
 10
11.0165885611
 20
8.5286907875
 30
0.0
 10
11.0123045178
 20
8.5322009404
 30
0.0
 10
11.0102243226
 20
8.5340823697
 30
0.0
  0
SPLINE
  5
3DB
100
AcDbEntity
  8
0
100
AcDbSpline
 62
7
  6
CONTINUOUS
 70
0
 71
3
 72
15
 73
11
 74
0
 42
0.0000001
 43
0.0000001
 44
0.0000000001
 40
0.0
 40
0.0
 40
0.0
 40
0.0
 40
0.1233171386
 40
0.246817198
 40
0.3706750014
 40
0.495049553
 40
0.6200773956
 40
0.7458666717
 40
0.872493995
 40
1.0
 40
1.0
 40
1.0
 40
1.0
 10
11.5791738258
 20
7.2999164722
 30
0.0
 10
11.5805741054
 20
7.3012690539
 30
0.0
 10
11.5835249219
 20
7.3038274841
 30
0.0
 10
11.5883409711
 20
7.3071706504
 30
0.0
 10
11.5935015408
 20
7.3099888946
 30
0.0
 10
11.5989538047
 20
7.3122532631
 30
0.0
 10
11.6046427595
 20
7.3139412544
 30
0.0
 10
11.6105111262
 20
7.3150360247
 30
0.0
 10
11.6164989606
 20
7.3155268471
 30
0.0
 10
11.6205182912
 20
7.3154484595
 30
0.0
 10
11.6225264583
 20
7.3153091926
 30
0.0
  0
SPLINE
  5
3DC
100
AcDbEntity
  8
0
100
AcDbSpline
 62
7
  6
CONTINUOUS
 70
0
 71
3
 72
15
 73
11
 74
0
 42
0.0000001
 43
0.0000001
 44
0.0000000001
 40
0.0
 40
0.0
 40
0.0
 40
0.0
 40
0.1233171386
 40
0.246817198
 40
0.3706750014
 40
0.495049553
 40
0.6200773956
 40
0.7458666717
 40
0.872493995
 40
1.0
 40
1.0
 40
1.0
 40
1.0
 10
9.4541368821
 20
9.2222738195
 30
0.0
 10
9.4555371616
 20
9.2236264012
 30
0.0
 10
9.4584879781
 20
9.2261848314
 30
0.0
 10
9.4633040274
 20
9.2295279978
 30
0.0
 10
9.4684645971
 20
9.2323462419
 30
0.0
 10
9.4739168609
 20
9.2346106105
 30
0.0
 10
9.4796058158
 20
9.2362986017
 30
0.0
 10
9.4854741824
 20
9.2373933721
 30
0.0
 10
9.4914620168
 20
9.2378841945
 30
0.0
 10
9.4954813475
 20
9.2378058068
 30
0.0
 10
9.4974895146
 20
9.2376665399
 30
0.0
  0
SPLINE
  5
3DD
100
AcDbEntity
  8
0
100
AcDbSpline
 62
7
  6
CONTINUOUS
 70
0
 71
3
 72
23
 73
19
 74
0
 42
0.0000001
 43
0.0000001
 44
0.0000000001
 40
0.0
 40
0.0
 40
0.0
 40
0.0
 40
0.0602561999
 40
0.1209440304
 40
0.1821087262
 40
0.2437697435
 40
0.3059215734
 40
0.3685345914
 40
0.4315560097
 40
0.494911087
 40
0.5585046569
 40
0.6222233895
 40
0.6859400339
 40
0.7495194014
 40
0.8128264183
 40
0.8757371634
 40
0.9381497107
 40
1.0
 40
1.0
 40
1.0
 40
1.0
 10
11.2029586802
 20
9.47467479
 30
0.0
 10
11.2058432777
 20
9.4757816811
 30
0.0
 10
11.2117802656
 20
9.4776383482
 30
0.0
 10
11.2209882351
 20
9.4793155063
 30
0.0
 10
11.230403173
 20
9.4798846765
 30
0.0
 10
11.2398939199
 20
9.4793439829
 30
0.0
 10
11.2493322547
 20
9.4777021503
 30
0.0
 10
11.2585891749
 20
9.4749773823
 30
0.0
 10
11.2675350505
 20
9.4711982513
 30
0.0
 10
11.2760390821
 20
9.4664048495
 30
0.0
 10
11.283969613
 20
9.4606505767
 30
0.0
 10
11.2911952717
 20
9.4540042694
 30
0.0
 10
11.2975870607
 20
9.4465521997
 30
0.0
 10
11.3030216257
 20
9.4383997139
 30
0.0
 10
11.3073860212
 20
9.4296724928
 30
0.0
 10
11.3105828177
 20
9.4205147401
 30
0.0
 10
11.3125362989
 20
9.4110906042
 30
0.0
 10
11.3129791609
 20
9.4047107711
 30
0.0
 10
11.3129791609
 20
9.401539355
 30
0.0
  0
SPLINE
  5
3DE
100
AcDbEntity
  8
0
100
AcDbSpline
 62
7
  6
CONTINUOUS
 70
0
 71
3
 72
39
 73
35
 74
0
 42
0.0000001
 43
0.0000001
 44
0.0000000001
 40
0.0
 40
0.0
 40
0.0
 40
0.0
 40
0.0306971535
 40
0.0612239749
 40
0.0916063235
 40
0.1218750946
 40
0.1520652024
 40
0.1822140018
 40
0.2123597759
 40
0.2425402357
 40
0.2727911463
 40
0.3031451256
 40
0.3336306544
 40
0.3642713085
 40
0.3950852091
 40
0.4260846766
 40
0.4572760626
 40
0.4886597378
 40
0.5202302114
 40
0.5519763656
 40
0.583881793
 40
0.6159252307
 40
0.6480810926
 40
0.6803201025
 40
0.7126100352
 40
0.7449165691
 40
0.7772042529
 40
0.8094375799
 40
0.8415821442
 40
0.8736058863
 40
0.9054802495
 40
0.9371816333
 40
0.968691741
 40
1.0
 40
1.0
 40
1.0
 40
1.0
 10
9.8835330427
 20
9.1691354975
 30
0.0
 10
9.8841189304
 20
9.1720290769
 30
0.0
 10
9.8855695848
 20
9.1777473273
 30
0.0
 10
9.8885709627
 20
9.1860451457
 30
0.0
 10
9.8923620973
 20
9.1939685523
 30
0.0
 10
9.8969056117
 20
9.2014477354
 30
0.0
 10
9.9021576689
 20
9.2084194727
 30
0.0
 10
9.9080685062
 20
9.2148259268
 30
0.0
 10
9.9145833209
 20
9.2206154647
 30
0.0
 10
9.9216430701
 20
9.2257427373
 30
0.0
 10
9.9291852442
 20
9.2301687847
 30
0.0
 10
9.9371445704
 20
9.233860995
 30
0.0
 10
9.9454536324
 20
9.2367930013
 30
0.0
 10
9.954043404
 20
9.2389445325
 30
0.0
 10
9.9628436974
 20
9.2403012506
 30
0.0
 10
9.9717835385
 20
9.2408545949
 30
0.0
 10
9.9807914842
 20
9.2406016527
 30
0.0
 10
9.9897958985
 20
9.2395450666
 30
0.0
 10
9.9987252092
 20
9.2376929848
 30
0.0
 10
10.0075081646
 20
9.2350590553
 30
0.0
 10
10.0160741091
 20
9.231662458
 30
0.0
 10
10.0243532973
 20
9.2275279675
 30
0.0
 10
10.0322772611
 20
9.22268603
 30
0.0
 10
10.0397792444
 20
9.2171728392
 30
0.0
 10
10.0467947121
 20
9.2110303874
 30
0.0
 10
10.0532619367
 20
9.2043064691
 30
0.0
 10
10.0591226616
 20
9.1970546116
 30
0.0
 10
10.0643228228
 20
9.1893339032
 30
0.0
 10
10.0688133256
 20
9.1812087131
 30
0.0
 10
10.0725508119
 20
9.1727482265
 30
0.0
 10
10.0754984748
 20
9.1640259896
 30
0.0
 10
10.0776266758
 20
9.1551187313
 30
0.0
 10
10.0789137391
 20
9.1461071964
 30
0.0
 10
10.0792029814
 20
9.1400618517
 30
0.0
 10
10.0792029814
 20
9.1370507802
 30
0.0
  0
SPLINE
  5
3DF
100
AcDbEntity
  8
0
100
AcDbSpline
 62
7
  6
CONTINUOUS
 70
0
 71
3
 72
41
 73
37
 74
0
 42
0.0000001
 43
0.0000001
 44
0.0000000001
 40
0.0
 40
0.0
 40
0.0
 40
0.0
 40
0.0300821838
 40
0.0601249671
 40
0.0901567991
 40
0.1202063643
 40
0.1503017658
 40
0.1804697363
 40
0.2107349064
 40
0.241119154
 40
0.271641052
 40
0.3023154268
 40
0.333153034
 40
0.3641603545
 40
0.395339507
 40
0.4266882704
 40
0.4582002082
 40
0.4898648841
 40
0.5216681607
 40
0.5535925731
 40
0.5856177641
 40
0.6177209724
 40
0.6498775646
 40
0.6820616041
 40
0.7142464473
 40
0.7303336316
 40
0.7464110269
 40
0.7785178087
 40
0.8105474135
 40
0.8265288141
 40
0.8424823775
 40
0.8742901389
 40
0.9059584606
 40
0.9374728144
 40
0.9688219726
 40
1.0
 40
1.0
 40
1.0
 40
1.0
 10
10.9433666661
 20
8.9086172612
 30
0.0
 10
10.9475954247
 20
8.9148244339
 30
0.0
 10
10.9565838232
 20
8.9268749367
 30
0.0
 10
10.9715601648
 20
8.9437151921
 30
0.0
 10
10.9879237526
 20
8.9592015165
 30
0.0
 10
11.0055664931
 20
8.9732334262
 30
0.0
 10
11.0243738406
 20
8.9857224334
 30
0.0
 10
11.0442236848
 20
8.9965896436
 30
0.0
 10
11.0649877295
 20
9.0057669325
 30
0.0
 10
11.0865322147
 20
9.0131970711
 30
0.0
 10
11.1087188243
 20
9.0188340364
 30
0.0
 10
11.1314055454
 20
9.0226431818
 30
0.0
 10
11.1544475343
 20
9.0246013954
 30
0.0
 10
11.177697987
 20
9.0246971345
 30
0.0
 10
11.2010089913
 20
9.0229304378
 30
0.0
 10
11.224232375
 20
9.0193128898
 30
0.0
 10
11.2472205483
 20
9.0138675359
 30
0.0
 10
11.2698273429
 20
9.0066287566
 30
0.0
 10
11.2919088638
 20
8.9976421123
 30
0.0
 10
11.3133243156
 20
8.9869640888
 30
0.0
 10
11.333936853
 20
8.9746617975
 30
0.0
 10
11.3536143514
 20
8.960812715
 30
0.0
 10
11.37223045
 20
8.9455039926
 30
0.0
 10
11.3896645351
 20
8.9288330943
 30
0.0
 10
11.4031181934
 20
8.9138885121
 30
0.0
 10
11.4131817153
 20
8.9013601784
 30
0.0
 10
11.4227564506
 20
8.8884786387
 30
0.0
 10
11.4337902448
 20
8.8717407899
 30
0.0
 10
11.4435171377
 20
8.8542382613
 30
0.0
 10
11.4504674124
 20
8.8398558447
 30
0.0
 10
11.4568417262
 20
8.8252696122
 30
0.0
 10
11.4637343257
 20
8.8066516835
 30
0.0
 10
11.4702320389
 20
8.7838182822
 30
0.0
 10
11.4749064604
 20
8.7606584005
 30
0.0
 10
11.4777260357
 20
8.7373250023
 30
0.0
 10
11.4783581386
 20
8.7217064867
 30
0.0
 10
11.4783581386
 20
8.7139221308
 30
0.0
  0
SPLINE
  5
3E0
100
AcDbEntity
  8
0
100
AcDbSpline
 62
7
  6
CONTINUOUS
 70
0
 71
3
 72
39
 73
35
 74
0
 42
0.0000001
 43
0.0000001
 44
0.0000000001
 40
0.0
 40
0.0
 40
0.0
 40
0.0
 40
0.0306969548
 40
0.0612237258
 40
0.0916059962
 40
0.1218747157
 40
0.1520647848
 40
0.1822135699
 40
0.2123593441
 40
0.2425398187
 40
0.2727907638
 40
0.3031447909
 40
0.3336303771
 40
0.3642711001
 40
0.3950850772
 40
0.4260846255
 40
0.4572760947
 40
0.4886598508
 40
0.5202304025
 40
0.5519766314
 40
0.5838821217
 40
0.6159256098
 40
0.6480815153
 40
0.6803205526
 40
0.7126104933
 40
0.7449170257
 40
0.7772046927
 40
0.809437983
 40
0.8415825044
 40
0.8736061796
 40
0.9054805046
 40
0.9371817617
 40
0.9686917351
 40
1.0
 40
1.0
 40
1.0
 40
1.0
 10
9.6658212513
 20
8.4076171357
 30
0.0
 10
9.6674336389
 20
8.4155801581
 30
0.0
 10
9.6714262598
 20
8.4313165162
 30
0.0
 10
9.6796863136
 20
8.4541517602
 30
0.0
 10
9.6901198077
 20
8.475956627
 30
0.0
 10
9.7026237906
 20
8.4965389772
 30
0.0
 10
9.7170776708
 20
8.5157248189
 30
0.0
 10
9.733344434
 20
8.5333550366
 30
0.0
 10
9.7512733266
 20
8.549287494
 30
0.0
 10
9.7707018556
 20
8.5633973884
 30
0.0
 10
9.7914579667
 20
8.5755775541
 30
0.0
 10
9.8133620566
 20
8.5857382122
 30
0.0
 10
9.8362286041
 20
8.5938067723
 30
0.0
 10
9.8598676303
 20
8.5997275043
 30
0.0
 10
9.8840859891
 20
8.6034609436
 30
0.0
 10
9.9086883656
 20
8.604983481
 30
0.0
 10
9.9334781413
 20
8.6042871422
 30
0.0
 10
9.9582581805
 20
8.6013792197
 30
0.0
 10
9.9828315155
 20
8.5962821012
 30
0.0
 10
10.0070020551
 20
8.5890333402
 30
0.0
 10
10.0305753697
 20
8.5796857671
 30
0.0
 10
10.053359523
 20
8.5683075494
 30
0.0
 10
10.0751660679
 20
8.5549824341
 30
0.0
 10
10.0958113194
 20
8.5398100766
 30
0.0
 10
10.1151176935
 20
8.5229060475
 30
0.0
 10
10.1329152756
 20
8.5044018275
 30
0.0
 10
10.1490437743
 20
8.4844447584
 30
0.0
 10
10.1633544475
 20
8.4631974689
 30
0.0
 10
10.1757121115
 20
8.4408370533
 30
0.0
 10
10.1859975143
 20
8.4175539339
 30
0.0
 10
10.194109361
 20
8.3935505211
 30
0.0
 10
10.1999660608
 20
8.3690379563
 30
0.0
 10
10.2035079967
 20
8.344238424
 30
0.0
 10
10.2043039938
 20
8.3276017691
 30
0.0
 10
10.2043039938
 20
8.3193153481
 30
0.0
  0
SPLINE
  5
3E1
100
AcDbEntity
  8
0
100
AcDbSpline
 62
7
  6
CONTINUOUS
 70
0
 71
3
 72
41
 73
37
 74
0
 42
0.0000001
 43
0.0000001
 44
0.0000000001
 40
0.0
 40
0.0
 40
0.0
 40
0.0
 40
0.0300821838
 40
0.0601249671
 40
0.0901567991
 40
0.1202063643
 40
0.1503017658
 40
0.1804697363
 40
0.2107349063
 40
0.2411191539
 40
0.2716410518
 40
0.3023154266
 40
0.3331530338
 40
0.3641603541
 40
0.3953395065
 40
0.4266882699
 40
0.4582002076
 40
0.4898648835
 40
0.52166816
 40
0.5535925723
 40
0.5856177633
 40
0.6177209715
 40
0.6498775636
 40
0.6820616031
 40
0.7142464464
 40
0.7303336307
 40
0.746411026
 40
0.7785178078
 40
0.8105474127
 40
0.8265288133
 40
0.8424823768
 40
0.8742901384
 40
0.9059584602
 40
0.9374728141
 40
0.9688219725
 40
1.0
 40
1.0
 40
1.0
 40
1.0
 10
10.9433666661
 20
7.9426915619
 30
0.0
 10
10.9475954245
 20
7.9488987344
 30
0.0
 10
10.9565838228
 20
7.9609492368
 30
0.0
 10
10.9715601637
 20
7.9777894917
 30
0.0
 10
10.9879237508
 20
7.9932758157
 30
0.0
 10
11.0055664906
 20
8.0073077251
 30
0.0
 10
11.0243738373
 20
8.0197967321
 30
0.0
 10
11.0442236806
 20
8.0306639422
 30
0.0
 10
11.0649877244
 20
8.0398412312
 30
0.0
 10
11.0865322087
 20
8.04727137
 30
0.0
 10
11.1087188174
 20
8.0529083357
 30
0.0
 10
11.1314055375
 20
8.0567174815
 30
0.0
 10
11.1544475255
 20
8.0586756957
 30
0.0
 10
11.1776979774
 20
8.0587714355
 30
0.0
 10
11.2010089809
 20
8.0570047397
 30
0.0
 10
11.2242323639
 20
8.0533871927
 30
0.0
 10
11.2472205365
 20
8.0479418399
 30
0.0
 10
11.2698273306
 20
8.0407030618
 30
0.0
 10
11.2919088511
 20
8.0317164187
 30
0.0
 10
11.3133243025
 20
8.0210383966
 30
0.0
 10
11.3339368398
 20
8.0087361067
 30
0.0
 10
11.3536143382
 20
7.9948870257
 30
0.0
 10
11.372230437
 20
7.9795783048
 30
0.0
 10
11.3896645224
 20
7.9629074081
 30
0.0
 10
11.403118181
 20
7.9479628272
 30
0.0
 10
11.4131817034
 20
7.9354344945
 30
0.0
 10
11.4227564392
 20
7.9225529559
 30
0.0
 10
11.4337902341
 20
7.9058151083
 30
0.0
 10
11.4435171278
 20
7.8883125809
 30
0.0
 10
11.4504674033
 20
7.8739301652
 30
0.0
 10
11.456841718
 20
7.8593439336
 30
0.0
 10
11.4637343186
 20
7.840726006
 30
0.0
 10
11.4702320333
 20
7.8178926058
 30
0.0
 10
11.4749064564
 20
7.7947327252
 30
0.0
 10
11.4777260338
 20
7.771399328
 30
0.0
 10
11.4783581377
 20
7.7557808129
 30
0.0
 10
11.4783581377
 20
7.7479964572
 30
0.0
  0
SPLINE
  5
3E2
100
AcDbEntity
  8
0
100
AcDbSpline
 62
7
  6
CONTINUOUS
 70
0
 71
3
 72
16
 73
12
 74
0
 42
0.0000001
 43
0.0000001
 44
0.0000000001
 40
0.0
 40
0.0
 40
0.0
 40
0.0
 40
0.1098864251
 40
0.2213925505
 40
0.3360632443
 40
0.4553048854
 40
0.5170524264
 40
0.5803907344
 40
0.7123015689
 40
0.8519456354
 40
1.0
 40
1.0
 40
1.0
 40
1.0
 10
9.3847074809
 20
11.3913796305
 30
0.0
 10
9.3847074797
 20
11.3926512805
 30
0.0
 10
9.38487083
 20
11.3952161899
 30
0.0
 10
9.3856029961
 20
11.3990452237
 30
0.0
 10
9.3868205536
 20
11.4028620193
 30
0.0
 10
9.3882204633
 20
11.4059916336
 30
0.0
 10
9.3895675779
 20
11.4084785865
 30
0.0
 10
9.3911100689
 20
11.4110226209
 30
0.0
 10
9.393349825
 20
11.4141921452
 30
0.0
 10
9.3964724449
 20
11.4179167693
 30
0.0
 10
9.3987948725
 20
11.4203067294
 30
0.0
 10
9.4000272036
 20
11.42149707
 30
0.0
  0
SPLINE
  5
3E3
100
AcDbEntity
  8
0
100
AcDbSpline
 62
7
  6
CONTINUOUS
 70
0
 71
3
 72
32
 73
28
 74
0
 42
0.0000001
 43
0.0000001
 44
0.0000000001
 40
0.0
 40
0.0
 40
0.0
 40
0.0
 40
0.0151032901
 40
0.0314442338
 40
0.049065981
 40
0.0679950505
 40
0.0882424611
 40
0.1098076251
 40
0.1326804919
 40
0.1568429068
 40
0.1822697581
 40
0.2089300943
 40
0.2367878171
 40
0.2658021104
 40
0.2959280962
 40
0.327117256
 40
0.3593176186
 40
0.3924741817
 40
0.4265292414
 40
0.4614225076
 40
0.5334695112
 40
0.6080931472
 40
0.684742728
 40
0.7628472333
 40
0.8418213227
 40
0.9210710828
 40
1.0
 40
1.0
 40
1.0
 40
1.0
 10
10.0656706966
 20
12.0635952323
 30
0.0
 10
10.0674452578
 20
12.065246552
 30
0.0
 10
10.0712952337
 20
12.0685195301
 30
0.0
 10
10.0776579696
 20
12.0731689497
 30
0.0
 10
10.0848178225
 20
12.0777387702
 30
0.0
 10
10.0927605492
 20
12.0822202229
 30
0.0
 10
10.1014712345
 20
12.0866049865
 30
0.0
 10
10.1109328597
 20
12.0908845013
 30
0.0
 10
10.1211268969
 20
12.0950502971
 30
0.0
 10
10.1320332135
 20
12.0990940007
 30
0.0
 10
10.1436301213
 20
12.1030075007
 30
0.0
 10
10.1558944871
 20
12.1067828749
 30
0.0
 10
10.168801782
 20
12.1104124421
 30
0.0
 10
10.182326116
 20
12.1138888654
 30
0.0
 10
10.1964403296
 20
12.1172050889
 30
0.0
 10
10.2111160551
 20
12.1203543492
 30
0.0
 10
10.2263237608
 20
12.1233302717
 30
0.0
 10
10.2420328172
 20
12.1261268138
 30
0.0
 10
10.2582116146
 20
12.1287383165
 30
0.0
 10
10.2806051995
 20
12.132001166
 30
0.0
 10
10.3095313879
 20
12.1355632865
 30
0.0
 10
10.3452139866
 20
12.1389832155
 30
0.0
 10
10.3819416056
 20
12.1415644682
 30
0.0
 10
10.4194182628
 20
12.1432859431
 30
0.0
 10
10.4573422492
 20
12.1441334514
 30
0.0
 10
10.4954077415
 20
12.1441000929
 30
0.0
 10
10.520790294
 20
12.1434879928
 30
0.0
 10
10.5334499388
 20
12.1430323205
 30
0.0
  0
SPLINE
  5
3E4
100
AcDbEntity
  8
0
100
AcDbSpline
 62
7
  6
CONTINUOUS
 70
0
 71
3
 72
16
 73
12
 74
0
 42
0.0000001
 43
0.0000001
 44
0.0000000001
 40
0.0
 40
0.0
 40
0.0
 40
0.0
 40
0.149254277
 40
0.2896880096
 40
0.4220094442
 40
0.4854167969
 40
0.5471460312
 40
0.6661059087
 40
0.7802198044
 40
0.8909717172
 40
1.0
 40
1.0
 40
1.0
 40
1.0
 10
12.5988520403
 20
11.9241046489
 30
0.0
 10
12.6001726652
 20
11.9228756786
 30
0.0
 10
12.6026614498
 20
11.9204080918
 30
0.0
 10
12.6060121616
 20
11.9165559062
 30
0.0
 10
12.6084176962
 20
11.9132740517
 30
0.0
 10
12.6100745122
 20
11.910638593
 30
0.0
 10
12.6115196337
 20
11.90806529
 30
0.0
 10
12.6130220894
 20
11.9048259603
 30
0.0
 10
12.6143301196
 20
11.9008710212
 30
0.0
 10
12.6151169181
 20
11.8969021953
 30
0.0
 10
12.6152925179
 20
11.894242582
 30
0.0
 10
12.6152925191
 20
11.8929247834
 30
0.0
  0
SPLINE
  5
3E5
100
AcDbEntity
  8
0
100
AcDbSpline
 62
7
  6
CONTINUOUS
 70
0
 71
3
 72
15
 73
11
 74
0
 42
0.0000001
 43
0.0000001
 44
0.0000000001
 40
0.0
 40
0.0
 40
0.0
 40
0.0
 40
0.1233171152
 40
0.2468171801
 40
0.3706749982
 40
0.4950495769
 40
0.6200773723
 40
0.7458670578
 40
0.8724927841
 40
1.0
 40
1.0
 40
1.0
 40
1.0
 10
9.380217171
 20
10.0591804269
 30
0.0
 10
9.3840050564
 20
10.062839213
 30
0.0
 10
9.3919873834
 20
10.0697597456
 30
0.0
 10
9.4050152562
 20
10.0788030279
 30
0.0
 10
9.4189750513
 20
10.086426373
 30
0.0
 10
9.4337238479
 20
10.0925514957
 30
0.0
 10
9.4491129051
 20
10.0971175097
 30
0.0
 10
9.464987203
 20
10.1000787794
 30
0.0
 10
9.4811846933
 20
10.1014065032
 30
0.0
 10
9.4920572363
 20
10.1011944299
 30
0.0
 10
9.4974895146
 20
10.1008177002
 30
0.0
  0
SPLINE
  5
3E6
100
AcDbEntity
  8
0
100
AcDbSpline
 62
7
  6
CONTINUOUS
 70
0
 71
3
 72
21
 73
17
 74
0
 42
0.0000001
 43
0.0000001
 44
0.0000000001
 40
0.0
 40
0.0
 40
0.0
 40
0.0
 40
0.0616532342
 40
0.1233294953
 40
0.1850515501
 40
0.2468416649
 40
0.3087213494
 40
0.3707111104
 40
0.4328302434
 40
0.4950966323
 40
0.5575265657
 40
0.6201345673
 40
0.682933156
 40
0.7459330948
 40
0.8725263949
 40
1.0
 40
1.0
 40
1.0
 40
1.0
 10
9.7241175664
 20
7.5880115928
 30
0.0
 10
9.7274841968
 20
7.5912635257
 30
0.0
 10
9.7343950671
 20
7.5975888455
 30
0.0
 10
9.7452584713
 20
7.6065077326
 30
0.0
 10
9.7565935987
 20
7.6148371099
 30
0.0
 10
9.7683715046
 20
7.6225556289
 30
0.0
 10
9.7805626227
 20
7.6296439356
 30
0.0
 10
9.7931362083
 20
7.6360841437
 30
0.0
 10
9.8060605619
 20
7.6418601007
 30
0.0
 10
9.8193031096
 20
7.6469572864
 30
0.0
 10
9.832830531
 20
7.6513628578
 30
0.0
 10
9.8466086378
 20
7.6550657456
 30
0.0
 10
9.8606031089
 20
7.6580567284
 30
0.0
 10
9.8795305382
 20
7.6610899864
 30
0.0
 10
9.9035653527
 20
7.6630606007
 30
0.0
 10
9.9228879018
 20
7.6626835168
 30
0.0
 10
9.9325425506
 20
7.6620139646
 30
0.0
  0
SPLINE
  5
3E7
100
AcDbEntity
  8
0
100
AcDbSpline
 62
7
  6
CONTINUOUS
 70
0
 71
3
 72
15
 73
11
 74
0
 42
0.0000001
 43
0.0000001
 44
0.0000000001
 40
0.0
 40
0.0
 40
0.0
 40
0.0
 40
0.1233171152
 40
0.2468171801
 40
0.3706749982
 40
0.4950495769
 40
0.6200773723
 40
0.7458670578
 40
0.8724927841
 40
1.0
 40
1.0
 40
1.0
 40
1.0
 10
11.5052541148
 20
9.9118086143
 30
0.0
 10
11.5090420002
 20
9.9154674004
 30
0.0
 10
11.5170243271
 20
9.922387933
 30
0.0
 10
11.5300522
 20
9.9314312153
 30
0.0
 10
11.5440119951
 20
9.9390545604
 30
0.0
 10
11.5587607917
 20
9.9451796831
 30
0.0
 10
11.5741498488
 20
9.9497456972
 30
0.0
 10
11.5900241467
 20
9.9527069668
 30
0.0
 10
11.606221637
 20
9.9540346906
 30
0.0
 10
11.6170941801
 20
9.9538226173
 30
0.0
 10
11.6225264583
 20
9.9534458876
 30
0.0
  0
SPLINE
  5
3E8
100
AcDbEntity
  8
0
100
AcDbSpline
 62
7
  6
CONTINUOUS
 70
0
 71
3
 72
15
 73
11
 74
0
 42
0.0000001
 43
0.0000001
 44
0.0000000001
 40
0.0
 40
0.0
 40
0.0
 40
0.0
 40
0.1233171148
 40
0.2468171822
 40
0.3706750007
 40
0.4950496181
 40
0.6200773069
 40
0.7458672043
 40
0.8724928123
 40
1.0
 40
1.0
 40
1.0
 40
1.0
 10
11.5931203823
 20
8.2984301326
 30
0.0
 10
11.595642642
 20
8.3008664208
 30
0.0
 10
11.6009578881
 20
8.3054746048
 30
0.0
 10
11.6096328215
 20
8.3114962851
 30
0.0
 10
11.6189283076
 20
8.3165724517
 30
0.0
 10
11.6287491677
 20
8.3206509741
 30
0.0
 10
11.6389963511
 20
8.3236913639
 30
0.0
 10
11.6495666405
 20
8.3256631932
 30
0.0
 10
11.6603521366
 20
8.3265472934
 30
0.0
 10
11.6675918806
 20
8.3264060727
 30
0.0
 10
11.6712090948
 20
8.326155218
 30
0.0
  0
SPLINE
  5
3E9
100
AcDbEntity
  8
0
100
AcDbSpline
 62
7
  6
CONTINUOUS
 70
0
 71
3
 72
15
 73
11
 74
0
 42
0.0000001
 43
0.0000001
 44
0.0000000001
 40
0.0
 40
0.0
 40
0.0
 40
0.0
 40
0.1233171148
 40
0.2468171822
 40
0.3706750007
 40
0.4950496181
 40
0.6200773069
 40
0.7458672043
 40
0.8724928123
 40
1.0
 40
1.0
 40
1.0
 40
1.0
 10
9.3707181424
 20
7.9695913096
 30
0.0
 10
9.3732404022
 20
7.9720275978
 30
0.0
 10
9.3785556483
 20
7.9766357818
 30
0.0
 10
9.3872305816
 20
7.9826574622
 30
0.0
 10
9.3965260678
 20
7.9877336287
 30
0.0
 10
9.4063469279
 20
7.9918121511
 30
0.0
 10
9.4165941113
 20
7.9948525409
 30
0.0
 10
9.4271644006
 20
7.9968243702
 30
0.0
 10
9.4379498967
 20
7.9977084705
 30
0.0
 10
9.4451896407
 20
7.9975672497
 30
0.0
 10
9.448806855
 20
7.997316395
 30
0.0
  0
SPLINE
  5
3EA
100
AcDbEntity
  8
0
100
AcDbSpline
 62
7
  6
CONTINUOUS
 70
0
 71
3
 72
15
 73
11
 74
0
 42
0.0000001
 43
0.0000001
 44
0.0000000001
 40
0.0
 40
0.0
 40
0.0
 40
0.0
 40
0.1233171152
 40
0.2468171801
 40
0.3706749982
 40
0.4950495769
 40
0.6200773723
 40
0.7458670578
 40
0.8724927841
 40
1.0
 40
1.0
 40
1.0
 40
1.0
 10
9.380217171
 20
6.9682176917
 30
0.0
 10
9.3840050564
 20
6.9718764779
 30
0.0
 10
9.3919873834
 20
6.9787970105
 30
0.0
 10
9.4050152562
 20
6.9878402927
 30
0.0
 10
9.4189750513
 20
6.9954636379
 30
0.0
 10
9.4337238479
 20
7.0015887605
 30
0.0
 10
9.4491129051
 20
7.0061547746
 30
0.0
 10
9.464987203
 20
7.0091160442
 30
0.0
 10
9.4811846933
 20
7.010443768
 30
0.0
 10
9.4920572363
 20
7.0102316948
 30
0.0
 10
9.4974895146
 20
7.009854965
 30
0.0
  0
SPLINE
  5
3EB
100
AcDbEntity
  8
0
100
AcDbSpline
 62
7
  6
CONTINUOUS
 70
0
 71
3
 72
15
 73
11
 74
0
 42
0.0000001
 43
0.0000001
 44
0.0000000001
 40
0.0
 40
0.0
 40
0.0
 40
0.0
 40
0.1233171152
 40
0.2468171801
 40
0.3706749982
 40
0.4950495769
 40
0.6200773723
 40
0.7458670578
 40
0.8724927841
 40
1.0
 40
1.0
 40
1.0
 40
1.0
 10
11.5052541148
 20
6.8208458791
 30
0.0
 10
11.5090420002
 20
6.8245046653
 30
0.0
 10
11.5170243271
 20
6.8314251979
 30
0.0
 10
11.5300522
 20
6.8404684801
 30
0.0
 10
11.5440119951
 20
6.8480918253
 30
0.0
 10
11.5587607917
 20
6.854216948
 30
0.0
 10
11.5741498488
 20
6.858782962
 30
0.0
 10
11.5900241467
 20
6.8617442316
 30
0.0
 10
11.606221637
 20
6.8630719554
 30
0.0
 10
11.6170941801
 20
6.8628598822
 30
0.0
 10
11.6225264583
 20
6.8624831524
 30
0.0
  0
SPLINE
  5
3EC
100
AcDbEntity
  8
0
100
AcDbSpline
 62
7
  6
CONTINUOUS
 70
0
 71
3
 72
28
 73
24
 74
0
 42
0.0000001
 43
0.0000001
 44
0.0000000001
 40
0.0
 40
0.0
 40
0.0
 40
0.0
 40
0.0624300945
 40
0.1254445566
 40
0.1889594658
 40
0.2528475085
 40
0.316952988
 40
0.3811034424
 40
0.4451228908
 40
0.5088454759
 40
0.5721284371
 40
0.6348637581
 40
0.6969877747
 40
0.727835427
 40
0.7585298951
 40
0.7890779342
 40
0.8194895066
 40
0.8497776553
 40
0.879958255
 40
0.9100496389
 40
0.9400721913
 40
0.9700479328
 40
1.0
 40
1.0
 40
1.0
 40
1.0
 10
11.6225264583
 20
7.1947616423
 30
0.0
 10
11.619577452
 20
7.1949661566
 30
0.0
 10
11.6136734999
 20
7.1958118855
 30
0.0
 10
11.6050598254
 20
7.1983349915
 30
0.0
 10
11.5968186325
 20
7.2020645687
 30
0.0
 10
11.5891267058
 20
7.2069205058
 30
0.0
 10
11.582146077
 20
7.2127994508
 30
0.0
 10
11.5760246165
 20
7.2195766709
 30
0.0
 10
11.5708919227
 20
7.227108691
 30
0.0
 10
11.5668571877
 20
7.2352361684
 30
0.0
 10
11.564006535
 20
7.2437874681
 30
0.0
 10
11.5624015121
 20
7.2525802345
 30
0.0
 10
11.5621312331
 20
7.2599765949
 30
0.0
 10
11.5625641215
 20
7.2658206597
 30
0.0
 10
11.5632081851
 20
7.2701376007
 30
0.0
 10
11.5641691264
 20
7.2743738952
 30
0.0
 10
11.5654418741
 20
7.2785071642
 30
0.0
 10
11.5670196395
 20
7.2825152268
 30
0.0
 10
11.5688940108
 20
7.2863766683
 30
0.0
 10
11.5710550118
 20
7.290070777
 30
0.0
 10
11.5734911889
 20
7.2935778176
 30
0.0
 10
11.5761892379
 20
7.2968787873
 30
0.0
 10
11.5781537543
 20
7.2989311475
 30
0.0
 10
11.5791738258
 20
7.2999164722
 30
0.0
  0
SPLINE
  5
3ED
100
AcDbEntity
  8
0
100
AcDbSpline
 62
7
  6
CONTINUOUS
 70
0
 71
3
 72
39
 73
35
 74
0
 42
0.0000001
 43
0.0000001
 44
0.0000000001
 40
0.0
 40
0.0
 40
0.0
 40
0.0
 40
0.0311447307
 40
0.0624432672
 40
0.0938883119
 40
0.1254710314
 40
0.1571789105
 40
0.1889972983
 40
0.2209092153
 40
0.2528958882
 40
0.2849370713
 40
0.3170114658
 40
0.3490971298
 40
0.3811719045
 40
0.4132138407
 40
0.4452016235
 40
0.477114988
 40
0.508935121
 40
0.5406450421
 40
0.5722299579
 40
0.603677582
 40
0.6349784155
 40
0.6661259788
 40
0.6971169909
 40
0.7279514851
 40
0.7586328595
 40
0.7891678533
 40
0.8195664469
 40
0.8498416836
 40
0.8800094128
 40
0.9100879577
 40
0.9400977147
 40
0.9700606919
 40
1.0
 40
1.0
 40
1.0
 40
1.0
 10
9.4974895146
 20
6.6837583867
 30
0.0
 10
9.4935080526
 20
6.6840345021
 30
0.0
 10
9.485542717
 20
6.6848795431
 30
0.0
 10
9.4736913046
 20
6.6870081448
 30
0.0
 10
9.4619668033
 20
6.6899897775
 30
0.0
 10
9.4504326073
 20
6.69380826
 30
0.0
 10
9.439149937
 20
6.6984432265
 30
0.0
 10
9.4281789951
 20
6.7038698308
 30
0.0
 10
9.4175782223
 20
6.7100590963
 30
0.0
 10
9.4074041056
 20
6.7169779668
 30
0.0
 10
9.3977108535
 20
6.724589527
 30
0.0
 10
9.3885501155
 20
6.7328531802
 30
0.0
 10
9.3799707099
 20
6.7417248692
 30
0.0
 10
9.3720183661
 20
6.7511573073
 30
0.0
 10
9.3647354831
 20
6.7611002279
 30
0.0
 10
9.3581609061
 20
6.7715006499
 30
0.0
 10
9.3523297205
 20
6.7823031566
 30
0.0
 10
9.3472730651
 20
6.7934501871
 30
0.0
 10
9.3430179662
 20
6.8048823396
 30
0.0
 10
9.3395871953
 20
6.8165386846
 30
0.0
 10
9.3369991456
 20
6.8283570848
 30
0.0
 10
9.3352677329
 20
6.8402745225
 30
0.0
 10
9.3344023181
 20
6.8522274304
 30
0.0
 10
9.3344076532
 20
6.8641520267
 30
0.0
 10
9.3352838503
 20
6.875984652
 30
0.0
 10
9.3370263752
 20
6.8876621061
 30
0.0
 10
9.3396260634
 20
6.8991219842
 30
0.0
 10
9.3430691626
 20
6.9103030118
 30
0.0
 10
9.3473373926
 20
6.9211453693
 30
0.0
 10
9.3524080563
 20
6.9315910362
 30
0.0
 10
9.3582540758
 20
6.9415840342
 30
0.0
 10
9.364844426
 20
6.9510710086
 30
0.0
 10
9.3721432051
 20
6.9600005064
 30
0.0
 10
9.3774576991
 20
6.9655522685
 30
0.0
 10
9.380217171
 20
6.9682176917
 30
0.0
  0
SPLINE
  5
3EE
100
AcDbEntity
  8
0
100
AcDbSpline
 62
7
  6
CONTINUOUS
 70
0
 71
3
 72
50
 73
46
 74
0
 42
0.0000001
 43
0.0000001
 44
0.0000000001
 40
0.0
 40
0.0
 40
0.0
 40
0.0
 40
0.1048052033
 40
0.1559442712
 40
0.2060910145
 40
0.2551352715
 40
0.3029713928
 40
0.3494976335
 40
0.3946163754
 40
0.4382348491
 40
0.4802656618
 40
0.5206273215
 40
0.5592448675
 40
0.5960506798
 40
0.630985552
 40
0.6639997722
 40
0.6950545795
 40
0.7241241525
 40
0.7511983335
 40
0.7639904612
 40
0.7762889202
 40
0.7880986628
 40
0.7994265184
 40
0.810281307
 40
0.8206745052
 40
0.8306202056
 40
0.840135653
 40
0.8579552474
 40
0.8663215026
 40
0.8743665161
 40
0.8821292922
 40
0.8896540787
 40
0.8969899346
 40
0.9041902688
 40
0.911311901
 40
0.9184136963
 40
0.9255550877
 40
0.9327944308
 40
0.9401875676
 40
0.947786465
 40
0.9637752365
 40
0.9722564388
 40
0.9811036785
 40
0.9903440886
 40
1.0
 40
1.0
 40
1.0
 40
1.0
 10
9.7243612412
 20
11.3091346737
 30
0.0
 10
9.711117487
 20
11.3100531312
 30
0.0
 10
9.6914280748
 20
11.3116822996
 30
0.0
 10
9.6654637148
 20
11.3143980395
 30
0.0
 10
9.6465556924
 20
11.3166607697
 30
0.0
 10
9.6280996646
 20
11.3191604626
 30
0.0
 10
9.6101400515
 20
11.3218910685
 30
0.0
 10
9.5927200485
 20
11.3248459479
 30
0.0
 10
9.5758815288
 20
11.3280179445
 30
0.0
 10
9.5596649638
 20
11.3313993717
 30
0.0
 10
9.544109282
 20
11.3349820107
 30
0.0
 10
9.5292517886
 20
11.3387571613
 30
0.0
 10
9.515128075
 20
11.3427156655
 30
0.0
 10
9.5017719152
 20
11.3468479395
 30
0.0
 10
9.4892151336
 20
11.351143965
 30
0.0
 10
9.4774875676
 20
11.3555933603
 30
0.0
 10
9.4666168176
 20
11.3601854647
 30
0.0
 10
9.4566286939
 20
11.3649093126
 30
0.0
 10
9.4489201168
 20
11.3690207422
 30
0.0
 10
9.4432274252
 20
11.3723771665
 30
0.0
 10
9.4392742855
 20
11.3748726692
 30
0.0
 10
9.4355586716
 20
11.3773925886
 30
0.0
 10
9.4320827543
 20
11.3799354684
 30
0.0
 10
9.4288486114
 20
11.3824999397
 30
0.0
 10
9.4258581831
 20
11.3850844127
 30
0.0
 10
9.423112979
 20
11.3876877415
 30
0.0
 10
9.4198539375
 20
11.3911067481
 30
0.0
 10
9.4169992361
 20
11.3946310831
 30
0.0
 10
9.4146188796
 20
11.3982588053
 30
0.0
 10
9.4131237256
 20
11.4009343418
 30
0.0
 10
9.4118826181
 20
11.403620036
 30
0.0
 10
9.4108965765
 20
11.4063143769
 30
0.0
 10
9.4101667161
 20
11.4090156469
 30
0.0
 10
9.4096939943
 20
11.411721956
 30
0.0
 10
9.4094789249
 20
11.4144312052
 30
0.0
 10
9.4095219482
 20
11.4171412056
 30
0.0
 10
9.4098229536
 20
11.4198497185
 30
0.0
 10
9.4103814399
 20
11.4225545569
 30
0.0
 10
9.4111968955
 20
11.4252538115
 30
0.0
 10
9.4126492762
 20
11.4289036581
 30
0.0
 10
9.4146101179
 20
11.4324819952
 30
0.0
 10
9.417005038
 20
11.4359590005
 30
0.0
 10
9.4190880432
 20
11.4386054088
 30
0.0
 10
9.4214203139
 20
11.4412364192
 30
0.0
 10
9.4231024424
 20
11.4429410022
 30
0.0
 10
9.4239821656
 20
11.4437907496
 30
0.0
  0
SPLINE
  5
3EF
100
AcDbEntity
  8
0
100
AcDbSpline
 62
7
  6
CONTINUOUS
 70
0
 71
3
 72
37
 73
33
 74
0
 42
0.0000001
 43
0.0000001
 44
0.0000000001
 40
0.0
 40
0.0
 40
0.0
 40
0.0
 40
0.0958325376
 40
0.1891022898
 40
0.2792430566
 40
0.3657122551
 40
0.4074108659
 40
0.4480039085
 40
0.487433971
 40
0.5256465121
 40
0.5625903184
 40
0.598217445
 40
0.6324838977
 40
0.6653499046
 40
0.6967802011
 40
0.7267450178
 40
0.755220378
 40
0.7821891195
 40
0.8076422022
 40
0.8315797072
 40
0.8540130886
 40
0.8749673958
 40
0.8944841918
 40
0.9126259286
 40
0.9294804486
 40
0.9451668679
 40
0.9598415951
 40
0.9737025846
 40
0.9804060793
 40
0.9869995572
 40
0.9935185741
 40
1.0
 40
1.0
 40
1.0
 40
1.0
 10
9.7179425342
 20
11.2789797166
 30
0.0
 10
9.7062322186
 20
11.2797918297
 30
0.0
 10
9.6831416446
 20
11.2816518965
 30
0.0
 10
9.6491189191
 20
11.285202495
 30
0.0
 10
9.6163329467
 20
11.2894575045
 30
0.0
 10
9.5899136439
 20
11.2936147767
 30
0.0
 10
9.5695702907
 20
11.2972866063
 30
0.0
 10
9.5549403549
 20
11.3001641681
 30
0.0
 10
9.540777501
 20
11.3031938164
 30
0.0
 10
9.5271053459
 20
11.3063705232
 30
0.0
 10
9.5139466936
 20
11.3096888859
 30
0.0
 10
9.5013234782
 20
11.3131433746
 30
0.0
 10
9.489256712
 20
11.3167281634
 30
0.0
 10
9.4777664496
 20
11.3204372042
 30
0.0
 10
9.4668717694
 20
11.3242643323
 30
0.0
 10
9.4565906895
 20
11.3282030831
 30
0.0
 10
9.4469401701
 20
11.3322469038
 30
0.0
 10
9.4379360681
 20
11.3363891161
 30
0.0
 10
9.429593052
 20
11.3406228411
 30
0.0
 10
9.4219246518
 20
11.3449412765
 30
0.0
 10
9.4149431552
 20
11.3493375464
 30
0.0
 10
9.4086596132
 20
11.3538048726
 30
0.0
 10
9.403083978
 20
11.3583368197
 30
0.0
 10
9.3982250427
 20
11.3629272121
 30
0.0
 10
9.3940908934
 20
11.3675703932
 30
0.0
 10
9.3906893232
 20
11.372261572
 30
0.0
 10
9.3880284607
 20
11.3769947982
 30
0.0
 10
9.3864179697
 20
11.3810160092
 30
0.0
 10
9.3855269017
 20
11.3842237609
 30
0.0
 10
9.3850543191
 20
11.3866070622
 30
0.0
 10
9.3847706277
 20
11.3889926003
 30
0.0
 10
9.3847074816
 20
11.3905857264
 30
0.0
 10
9.3847074809
 20
11.3913796305
 30
0.0
  0
SPLINE
  5
3F0
100
AcDbEntity
  8
0
100
AcDbSpline
 62
7
  6
CONTINUOUS
 70
0
 71
3
 72
23
 73
19
 74
0
 42
0.0000001
 43
0.0000001
 44
0.0000000001
 40
0.0
 40
0.0
 40
0.0
 40
0.0
 40
0.0639301114
 40
0.1275342343
 40
0.1908135286
 40
0.2537956916
 40
0.3165055628
 40
0.3789771984
 40
0.441249507
 40
0.5033649404
 40
0.5653683769
 40
0.6273058499
 40
0.6892235674
 40
0.7511664757
 40
0.8131772494
 40
0.8752959516
 40
0.9375593193
 40
1.0
 40
1.0
 40
1.0
 40
1.0
 10
11.1593330467
 20
9.4121947959
 30
0.0
 10
11.1593330467
 20
9.4139230691
 30
0.0
 10
11.1594633797
 20
9.4173722723
 30
0.0
 10
11.1600517825
 20
9.4225018791
 30
0.0
 10
11.1610285028
 20
9.4275461483
 30
0.0
 10
11.1623861035
 20
9.4324763707
 30
0.0
 10
11.1641149411
 20
9.4372658047
 30
0.0
 10
11.1662026695
 20
9.4418889593
 30
0.0
 10
11.1686348245
 20
9.4463221932
 30
0.0
 10
11.1713951016
 20
9.4505437227
 30
0.0
 10
11.174465642
 20
9.4545337318
 30
0.0
 10
11.1778272971
 20
9.4582744405
 30
0.0
 10
11.1814598993
 20
9.4617501094
 30
0.0
 10
11.1853425936
 20
9.4649469185
 30
0.0
 10
11.1894540072
 20
9.4678528596
 30
0.0
 10
11.193772507
 20
9.4704577616
 30
0.0
 10
11.1982759177
 20
9.4727529497
 30
0.0
 10
11.2013827152
 20
9.4740700535
 30
0.0
 10
11.2029586802
 20
9.47467479
 30
0.0
  0
SPLINE
  5
3F1
100
AcDbEntity
  8
0
100
AcDbSpline
 62
7
  6
CONTINUOUS
 70
0
 71
3
 72
15
 73
11
 74
0
 42
0.0000001
 43
0.0000001
 44
0.0000000001
 40
0.0
 40
0.0
 40
0.0
 40
0.0
 40
0.133862988
 40
0.2644089124
 40
0.3919405508
 40
0.5168476965
 40
0.6395927085
 40
0.7606867109
 40
0.88065812
 40
1.0
 40
1.0
 40
1.0
 40
1.0
 10
11.1317840988
 20
9.022309789
 30
0.0
 10
11.1288606331
 20
9.0182857897
 30
0.0
 10
11.1233518069
 20
9.0101395201
 30
0.0
 10
11.1160927115
 20
8.9974991619
 30
0.0
 10
11.1099864421
 20
8.9846283042
 30
0.0
 10
11.1050712923
 20
8.9715650473
 30
0.0
 10
11.1013791241
 20
8.9583518176
 30
0.0
 10
11.0989346367
 20
8.9450370529
 30
0.0
 10
11.0977531206
 20
8.9316789648
 30
0.0
 10
11.0978099304
 20
8.9227714585
 30
0.0
 10
11.0980477772
 20
8.9183435388
 30
0.0
  0
SPLINE
  5
3F2
100
AcDbEntity
  8
0
100
AcDbSpline
 62
7
  6
CONTINUOUS
 70
0
 71
3
 72
39
 73
35
 74
0
 42
0.0000001
 43
0.0000001
 44
0.0000000001
 40
0.0
 40
0.0
 40
0.0
 40
0.0
 40
0.0311447307
 40
0.0624432672
 40
0.0938883119
 40
0.1254710314
 40
0.1571789105
 40
0.1889972983
 40
0.2209092153
 40
0.2528958882
 40
0.2849370713
 40
0.3170114658
 40
0.3490971298
 40
0.3811719045
 40
0.4132138407
 40
0.4452016235
 40
0.477114988
 40
0.508935121
 40
0.5406450421
 40
0.5722299579
 40
0.603677582
 40
0.6349784155
 40
0.6661259788
 40
0.6971169909
 40
0.7279514851
 40
0.7586328595
 40
0.7891678533
 40
0.8195664469
 40
0.8498416836
 40
0.8800094128
 40
0.9100879577
 40
0.9400977147
 40
0.9700606919
 40
1.0
 40
1.0
 40
1.0
 40
1.0
 10
11.6225264583
 20
9.6273493093
 30
0.0
 10
11.6185449963
 20
9.6276254246
 30
0.0
 10
11.6105796608
 20
9.6284704656
 30
0.0
 10
11.5987282484
 20
9.6305990674
 30
0.0
 10
11.5870037471
 20
9.6335807
 30
0.0
 10
11.5754695511
 20
9.6373991826
 30
0.0
 10
11.5641868808
 20
9.6420341491
 30
0.0
 10
11.5532159388
 20
9.6474607534
 30
0.0
 10
11.542615166
 20
9.6536500189
 30
0.0
 10
11.5324410494
 20
9.6605688894
 30
0.0
 10
11.5227477972
 20
9.6681804496
 30
0.0
 10
11.5135870592
 20
9.6764441027
 30
0.0
 10
11.5050076537
 20
9.6853157918
 30
0.0
 10
11.4970553098
 20
9.6947482298
 30
0.0
 10
11.4897724269
 20
9.7046911504
 30
0.0
 10
11.4831978499
 20
9.7150915724
 30
0.0
 10
11.4773666643
 20
9.7258940792
 30
0.0
 10
11.4723100088
 20
9.7370411097
 30
0.0
 10
11.46805491
 20
9.7484732622
 30
0.0
 10
11.464624139
 20
9.7601296071
 30
0.0
 10
11.4620360893
 20
9.7719480074
 30
0.0
 10
11.4603046767
 20
9.7838654451
 30
0.0
 10
11.4594392619
 20
9.7958183529
 30
0.0
 10
11.4594445969
 20
9.8077429492
 30
0.0
 10
11.460320794
 20
9.8195755745
 30
0.0
 10
11.4620633189
 20
9.8312530286
 30
0.0
 10
11.4646630071
 20
9.8427129067
 30
0.0
 10
11.4681061064
 20
9.8538939343
 30
0.0
 10
11.4723743364
 20
9.8647362918
 30
0.0
 10
11.477445
 20
9.8751819588
 30
0.0
 10
11.4832910195
 20
9.8851749567
 30
0.0
 10
11.4898813698
 20
9.8946619312
 30
0.0
 10
11.4971801488
 20
9.9035914289
 30
0.0
 10
11.5024946428
 20
9.909143191
 30
0.0
 10
11.5052541148
 20
9.9118086143
 30
0.0
  0
SPLINE
  5
3F3
100
AcDbEntity
  8
0
100
AcDbSpline
 62
7
  6
CONTINUOUS
 70
0
 71
3
 72
39
 73
35
 74
0
 42
0.0000001
 43
0.0000001
 44
0.0000000001
 40
0.0
 40
0.0
 40
0.0
 40
0.0
 40
0.0311447307
 40
0.0624432672
 40
0.0938883119
 40
0.1254710314
 40
0.1571789105
 40
0.1889972983
 40
0.2209092153
 40
0.2528958882
 40
0.2849370713
 40
0.3170114658
 40
0.3490971298
 40
0.3811719045
 40
0.4132138407
 40
0.4452016235
 40
0.477114988
 40
0.508935121
 40
0.5406450421
 40
0.5722299579
 40
0.603677582
 40
0.6349784155
 40
0.6661259788
 40
0.6971169909
 40
0.7279514851
 40
0.7586328595
 40
0.7891678533
 40
0.8195664469
 40
0.8498416836
 40
0.8800094128
 40
0.9100879577
 40
0.9400977147
 40
0.9700606919
 40
1.0
 40
1.0
 40
1.0
 40
1.0
 10
9.4974895146
 20
9.7747211219
 30
0.0
 10
9.4935080526
 20
9.7749972372
 30
0.0
 10
9.485542717
 20
9.7758422782
 30
0.0
 10
9.4736913046
 20
9.77797088
 30
0.0
 10
9.4619668033
 20
9.7809525126
 30
0.0
 10
9.4504326073
 20
9.7847709952
 30
0.0
 10
9.439149937
 20
9.7894059617
 30
0.0
 10
9.4281789951
 20
9.794832566
 30
0.0
 10
9.4175782223
 20
9.8010218314
 30
0.0
 10
9.4074041056
 20
9.807940702
 30
0.0
 10
9.3977108535
 20
9.8155522622
 30
0.0
 10
9.3885501155
 20
9.8238159153
 30
0.0
 10
9.3799707099
 20
9.8326876044
 30
0.0
 10
9.3720183661
 20
9.8421200424
 30
0.0
 10
9.3647354831
 20
9.852062963
 30
0.0
 10
9.3581609061
 20
9.862463385
 30
0.0
 10
9.3523297205
 20
9.8732658918
 30
0.0
 10
9.3472730651
 20
9.8844129223
 30
0.0
 10
9.3430179662
 20
9.8958450748
 30
0.0
 10
9.3395871953
 20
9.9075014197
 30
0.0
 10
9.3369991456
 20
9.91931982
 30
0.0
 10
9.3352677329
 20
9.9312372577
 30
0.0
 10
9.3344023181
 20
9.9431901655
 30
0.0
 10
9.3344076532
 20
9.9551147618
 30
0.0
 10
9.3352838503
 20
9.9669473871
 30
0.0
 10
9.3370263752
 20
9.9786248412
 30
0.0
 10
9.3396260634
 20
9.9900847193
 30
0.0
 10
9.3430691626
 20
10.0012657469
 30
0.0
 10
9.3473373926
 20
10.0121081044
 30
0.0
 10
9.3524080563
 20
10.0225537713
 30
0.0
 10
9.3582540758
 20
10.0325467693
 30
0.0
 10
9.364844426
 20
10.0420337438
 30
0.0
 10
9.3721432051
 20
10.0509632415
 30
0.0
 10
9.3774576991
 20
10.0565150036
 30
0.0
 10
9.380217171
 20
10.0591804269
 30
0.0
  0
SPLINE
  5
3F4
100
AcDbEntity
  8
0
100
AcDbSpline
 62
7
  6
CONTINUOUS
 70
0
 71
3
 72
11
 73
7
 74
0
 42
0.0000001
 43
0.0000001
 44
0.0000000001
 40
0.0
 40
0.0
 40
0.0
 40
0.0
 40
0.2479943405
 40
0.4978341277
 40
0.7486448381
 40
1.0
 40
1.0
 40
1.0
 40
1.0
 10
11.1040483319
 20
8.8630836763
 30
0.0
 10
11.1033163304
 20
8.8676220013
 30
0.0
 10
11.1019484889
 20
8.876749296
 30
0.0
 10
11.1002501965
 20
8.89052402
 30
0.0
 10
11.0989249577
 20
8.9044022566
 30
0.0
 10
11.0982976912
 20
8.9136909683
 30
0.0
 10
11.0980477772
 20
8.9183435388
 30
0.0
  0
SPLINE
  5
3F5
100
AcDbEntity
  8
0
100
AcDbSpline
 62
7
  6
CONTINUOUS
 70
0
 71
3
 72
23
 73
19
 74
0
 42
0.0000001
 43
0.0000001
 44
0.0000000001
 40
0.0
 40
0.0
 40
0.0
 40
0.0
 40
0.0757611766
 40
0.1469433197
 40
0.2138886656
 40
0.2770300415
 40
0.3369030254
 40
0.3941518432
 40
0.4495254935
 40
0.5038601632
 40
0.5580450653
 40
0.6129774527
 40
0.669515452
 40
0.728440011
 40
0.7904310802
 40
0.8560599201
 40
0.9257927246
 40
1.0
 40
1.0
 40
1.0
 40
1.0
 10
11.7065260287
 20
11.4929206569
 30
0.0
 10
11.7085538296
 20
11.4911142896
 30
0.0
 10
11.7123799273
 20
11.4874873547
 30
0.0
 10
11.7175524337
 20
11.48181823
 30
0.0
 10
11.7219672934
 20
11.4761005817
 30
0.0
 10
11.7256176568
 20
11.4703396432
 30
0.0
 10
11.7284969929
 20
11.4645406487
 30
0.0
 10
11.7305985209
 20
11.4587098171
 30
0.0
 10
11.7319155684
 20
11.4528550152
 30
0.0
 10
11.7324430644
 20
11.4469863694
 30
0.0
 10
11.7321785682
 20
11.4411156777
 30
0.0
 10
11.7311232708
 20
11.4352550638
 30
0.0
 10
11.7292816726
 20
11.4294152739
 30
0.0
 10
11.7266599128
 20
11.4236049562
 30
0.0
 10
11.7232649083
 20
11.417830776
 30
0.0
 10
11.71910327
 20
11.4120981435
 30
0.0
 10
11.7141817586
 20
11.4064124602
 30
0.0
 10
11.7105165714
 20
11.4027738145
 30
0.0
 10
11.7085693329
 20
11.4009616951
 30
0.0
  0
SPLINE
  5
3F6
100
AcDbEntity
  8
0
100
AcDbSpline
 62
7
  6
CONTINUOUS
 70
0
 71
3
 72
33
 73
29
 74
0
 42
0.0000001
 43
0.0000001
 44
0.0000000001
 40
0.0
 40
0.0
 40
0.0
 40
0.0
 40
0.0146705749
 40
0.0306653346
 40
0.0480363685
 40
0.0668143976
 40
0.0870107455
 40
0.1086223416
 40
0.1316343237
 40
0.1560220576
 40
0.1817526875
 40
0.2087862005
 40
0.2370764251
 40
0.2665717778
 40
0.2972158259
 40
0.3289477281
 40
0.3617027453
 40
0.3954126383
 40
0.4300059869
 40
0.4654084682
 40
0.5015432197
 40
0.538331134
 40
0.6135385486
 40
0.6903646146
 40
0.7681222846
 40
0.8461135882
 40
0.9236375177
 40
1.0
 40
1.0
 40
1.0
 40
1.0
 10
11.9353894627
 20
11.269624062
 30
0.0
 10
11.9335096351
 20
11.2678082879
 30
0.0
 10
11.9293856938
 20
11.2642117785
 30
0.0
 10
11.9224925972
 20
11.2591280807
 30
0.0
 10
11.9146486761
 20
11.2541393979
 30
0.0
 10
11.9058724911
 20
11.2492570185
 30
0.0
 10
11.8961835206
 20
11.2444916576
 30
0.0
 10
11.8856042456
 20
11.239854416
 30
0.0
 10
11.874159341
 20
11.2353562397
 30
0.0
 10
11.8618757619
 20
11.2310079163
 30
0.0
 10
11.848782621
 20
11.2268199384
 30
0.0
 10
11.8349111048
 20
11.2228024226
 30
0.0
 10
11.8202943521
 20
11.2189651046
 30
0.0
 10
11.8049673456
 20
11.2153172993
 30
0.0
 10
11.7889668265
 20
11.2118678739
 30
0.0
 10
11.7723312073
 20
11.2086251858
 30
0.0
 10
11.7551004553
 20
11.2055971007
 30
0.0
 10
11.7373159834
 20
11.2027909699
 30
0.0
 10
11.7190205533
 20
11.2002136092
 30
0.0
 10
11.7002581909
 20
11.1978712647
 30
0.0
 10
11.6810740096
 20
11.1957695713
 30
0.0
 10
11.6548017094
 20
11.193276896
 30
0.0
 10
11.6212490088
 20
11.1908091385
 30
0.0
 10
11.5803519025
 20
11.188891942
 30
0.0
 10
11.538923164
 20
11.1880167258
 30
0.0
 10
11.497361232
 20
11.1881919482
 30
0.0
 10
11.4560658493
 20
11.1894159416
 30
0.0
 10
11.4286893635
 20
11.190939117
 30
0.0
 10
11.4151179078
 20
11.1918803006
 30
0.0
  0
SPLINE
  5
3F7
100
AcDbEntity
  8
0
100
AcDbSpline
 62
7
  6
CONTINUOUS
 70
0
 71
3
 72
37
 73
33
 74
0
 42
0.0000001
 43
0.0000001
 44
0.0000000001
 40
0.0
 40
0.0
 40
0.0
 40
0.0
 40
0.0071757678
 40
0.0146741203
 40
0.0225036831
 40
0.0306715694
 40
0.0391836822
 40
0.0480446501
 40
0.0572575558
 40
0.0668242459
 40
0.0870203806
 40
0.1086317487
 40
0.1316434879
 40
0.1560309644
 40
0.1817613228
 40
0.2087945505
 40
0.2370844765
 40
0.266579518
 40
0.2972232427
 40
0.32895481
 40
0.3617094816
 40
0.3954190187
 40
0.4300120023
 40
0.46541411
 40
0.5015484802
 40
0.5383360062
 40
0.6135426271
 40
0.6903678823
 40
0.7681247317
 40
0.8461152122
 40
0.9236383236
 40
1.0
 40
1.0
 40
1.0
 40
1.0
 10
11.9593444246
 20
11.2440078179
 30
0.0
 10
11.9583712615
 20
11.2430678144
 30
0.0
 10
11.9563327869
 20
11.2411951582
 30
0.0
 10
11.9530816188
 20
11.2384666945
 30
0.0
 10
11.9495730458
 20
11.2357598381
 30
0.0
 10
11.9458093469
 20
11.2330764061
 30
0.0
 10
11.9417927733
 20
11.2304178294
 30
0.0
 10
11.9375256152
 20
11.2277856832
 30
0.0
 10
11.9330103853
 20
11.2251814072
 30
0.0
 10
11.9265455443
 20
11.2216849692
 30
0.0
 10
11.9178494852
 20
11.2174081608
 30
0.0
 10
11.9066527666
 20
11.2125002112
 30
0.0
 10
11.8945396511
 20
11.2077394248
 30
0.0
 10
11.881538967
 20
11.2031372458
 30
0.0
 10
11.8676814386
 20
11.1987047716
 30
0.0
 10
11.8530000988
 20
11.1944527117
 30
0.0
 10
11.8375300137
 20
11.1903913695
 30
0.0
 10
11.8213082103
 20
11.1865306038
 30
0.0
 10
11.8043735743
 20
11.1828797995
 30
0.0
 10
11.7867667607
 20
11.179447802
 30
0.0
 10
11.7685300702
 20
11.176242936
 30
0.0
 10
11.7497073336
 20
11.1732729821
 30
0.0
 10
11.7303438087
 20
11.170545154
 30
0.0
 10
11.7104860917
 20
11.1680660625
 30
0.0
 10
11.69018193
 20
11.1658416714
 30
0.0
 10
11.662375842
 20
11.1632034727
 30
0.0
 10
11.6268643208
 20
11.1605916464
 30
0.0
 10
11.5835796246
 20
11.1585625232
 30
0.0
 10
11.5397322591
 20
11.1576362115
 30
0.0
 10
11.4957439244
 20
11.1578216635
 30
0.0
 10
11.4520377001
 20
11.1591171141
 30
0.0
 10
11.4230629637
 20
11.1607292131
 30
0.0
 10
11.4086992007
 20
11.1617253435
 30
0.0
  0
SPLINE
  5
3F8
100
AcDbEntity
  8
0
100
AcDbSpline
 62
7
  6
CONTINUOUS
 70
0
 71
3
 72
39
 73
35
 74
0
 42
0.0000001
 43
0.0000001
 44
0.0000000001
 40
0.0
 40
0.0
 40
0.0
 40
0.0
 40
0.0311447307
 40
0.0624432672
 40
0.0938883119
 40
0.1254710314
 40
0.1571789105
 40
0.1889972983
 40
0.2209092153
 40
0.2528958882
 40
0.2849370713
 40
0.3170114658
 40
0.3490971298
 40
0.3811719045
 40
0.4132138407
 40
0.4452016235
 40
0.477114988
 40
0.508935121
 40
0.5406450421
 40
0.5722299579
 40
0.603677582
 40
0.6349784155
 40
0.6661259788
 40
0.6971169909
 40
0.7279514851
 40
0.7586328595
 40
0.7891678533
 40
0.8195664469
 40
0.8498416836
 40
0.8800094128
 40
0.9100879577
 40
0.9400977147
 40
0.9700606919
 40
1.0
 40
1.0
 40
1.0
 40
1.0
 10
11.6225264583
 20
6.5363865741
 30
0.0
 10
11.6185449963
 20
6.5366626895
 30
0.0
 10
11.6105796608
 20
6.5375077305
 30
0.0
 10
11.5987282484
 20
6.5396363322
 30
0.0
 10
11.5870037471
 20
6.5426179649
 30
0.0
 10
11.5754695511
 20
6.5464364474
 30
0.0
 10
11.5641868808
 20
6.5510714139
 30
0.0
 10
11.5532159388
 20
6.5564980182
 30
0.0
 10
11.542615166
 20
6.5626872837
 30
0.0
 10
11.5324410494
 20
6.5696061542
 30
0.0
 10
11.5227477972
 20
6.5772177144
 30
0.0
 10
11.5135870592
 20
6.5854813676
 30
0.0
 10
11.5050076537
 20
6.5943530566
 30
0.0
 10
11.4970553098
 20
6.6037854947
 30
0.0
 10
11.4897724269
 20
6.6137284153
 30
0.0
 10
11.4831978499
 20
6.6241288373
 30
0.0
 10
11.4773666643
 20
6.634931344
 30
0.0
 10
11.4723100088
 20
6.6460783745
 30
0.0
 10
11.46805491
 20
6.657510527
 30
0.0
 10
11.464624139
 20
6.669166872
 30
0.0
 10
11.4620360893
 20
6.6809852722
 30
0.0
 10
11.4603046767
 20
6.6929027099
 30
0.0
 10
11.4594392619
 20
6.7048556178
 30
0.0
 10
11.4594445969
 20
6.7167802141
 30
0.0
 10
11.460320794
 20
6.7286128394
 30
0.0
 10
11.4620633189
 20
6.7402902935
 30
0.0
 10
11.4646630071
 20
6.7517501716
 30
0.0
 10
11.4681061064
 20
6.7629311992
 30
0.0
 10
11.4723743364
 20
6.7737735567
 30
0.0
 10
11.477445
 20
6.7842192236
 30
0.0
 10
11.4832910195
 20
6.7942122216
 30
0.0
 10
11.4898813698
 20
6.803699196
 30
0.0
 10
11.4971801488
 20
6.8126286938
 30
0.0
 10
11.5024946428
 20
6.8181804559
 30
0.0
 10
11.5052541148
 20
6.8208458791
 30
0.0
  0
SPLINE
  5
3F9
100
AcDbEntity
  8
0
100
AcDbSpline
 62
7
  6
CONTINUOUS
 70
0
 71
3
 72
28
 73
24
 74
0
 42
0.0000001
 43
0.0000001
 44
0.0000000001
 40
0.0
 40
0.0
 40
0.0
 40
0.0
 40
0.0624300945
 40
0.1254445566
 40
0.1889594658
 40
0.2528475085
 40
0.316952988
 40
0.3811034424
 40
0.4451228908
 40
0.5088454759
 40
0.5721284371
 40
0.6348637581
 40
0.6969877747
 40
0.727835427
 40
0.7585298951
 40
0.7890779342
 40
0.8194895066
 40
0.8497776553
 40
0.879958255
 40
0.9100496389
 40
0.9400721913
 40
0.9700479328
 40
1.0
 40
1.0
 40
1.0
 40
1.0
 10
9.4974895146
 20
9.1171189897
 30
0.0
 10
9.4945405083
 20
9.1173235039
 30
0.0
 10
9.4886365562
 20
9.1181692328
 30
0.0
 10
9.4800228816
 20
9.1206923388
 30
0.0
 10
9.4717816888
 20
9.124421916
 30
0.0
 10
9.464089762
 20
9.1292778531
 30
0.0
 10
9.4571091332
 20
9.1351567982
 30
0.0
 10
9.4509876727
 20
9.1419340182
 30
0.0
 10
9.445854979
 20
9.1494660383
 30
0.0
 10
9.441820244
 20
9.1575935157
 30
0.0
 10
9.4389695913
 20
9.1661448154
 30
0.0
 10
9.4373645684
 20
9.1749375818
 30
0.0
 10
9.4370942893
 20
9.1823339422
 30
0.0
 10
9.4375271778
 20
9.188178007
 30
0.0
 10
9.4381712413
 20
9.192494948
 30
0.0
 10
9.4391321826
 20
9.1967312425
 30
0.0
 10
9.4404049303
 20
9.2008645115
 30
0.0
 10
9.4419826958
 20
9.2048725741
 30
0.0
 10
9.4438570671
 20
9.2087340156
 30
0.0
 10
9.446018068
 20
9.2124281243
 30
0.0
 10
9.4484542452
 20
9.2159351649
 30
0.0
 10
9.4511522942
 20
9.2192361346
 30
0.0
 10
9.4531168106
 20
9.2212884948
 30
0.0
 10
9.4541368821
 20
9.2222738195
 30
0.0
  0
SPLINE
  5
3FA
100
AcDbEntity
  8
0
100
AcDbSpline
 62
7
  6
CONTINUOUS
 70
0
 71
3
 72
9
 73
5
 74
0
 42
0.0000001
 43
0.0000001
 44
0.0000000001
 40
0.0
 40
0.0
 40
0.0
 40
0.0
 40
0.5202339334
 40
1.0
 40
1.0
 40
1.0
 40
1.0
 10
11.4741584903
 20
7.7651602111
 30
0.0
 10
11.4748527959
 20
7.7647416923
 30
0.0
 10
11.4761610428
 20
7.7638920329
 30
0.0
 10
11.4773917637
 20
7.762931525
 30
0.0
 10
11.4779550044
 20
7.7624398871
 30
0.0
  0
SPLINE
  5
3FB
100
AcDbEntity
  8
0
100
AcDbSpline
 62
7
  6
CONTINUOUS
 70
0
 71
3
 72
31
 73
27
 74
0
 42
0.0000001
 43
0.0000001
 44
0.0000000001
 40
0.0
 40
0.0
 40
0.0
 40
0.0
 40
0.039581213
 40
0.0792953373
 40
0.1589470781
 40
0.2386198144
 40
0.3178705901
 40
0.3961772421
 40
0.4729453329
 40
0.5475161242
 40
0.6191777374
 40
0.6871795023
 40
0.7507506672
 40
0.8091235751
 40
0.8361286894
 40
0.8615616818
 40
0.8853400681
 40
0.9073871348
 40
0.9276328461
 40
0.946014858
 40
0.9624796859
 40
0.9769837982
 40
0.983490529
 40
0.9894965442
 40
0.9949999964
 40
1.0
 40
1.0
 40
1.0
 40
1.0
 10
11.2483401638
 20
8.0472044504
 30
0.0
 10
11.2495965167
 20
8.0425210391
 30
0.0
 10
11.2523621302
 20
8.0332032753
 30
0.0
 10
11.2588319724
 20
8.0148306155
 30
0.0
 10
11.2685546471
 20
7.9924300071
 30
0.0
 10
11.2823815123
 20
7.9666489929
 30
0.0
 10
11.2979207957
 20
7.9420644036
 30
0.0
 10
11.3147171435
 20
7.9187660808
 30
0.0
 10
11.3323325811
 20
7.8968167678
 30
0.0
 10
11.3503486015
 20
7.8762702504
 30
0.0
 10
11.3683670171
 20
7.8571807063
 30
0.0
 10
11.3860101102
 20
7.8396083965
 30
0.0
 10
11.4029227743
 20
7.8236225223
 30
0.0
 10
11.4164638679
 20
7.811388938
 30
0.0
 10
11.4266780346
 20
7.8024468258
 30
0.0
 10
11.4337642199
 20
7.796366506
 30
0.0
 10
11.4404456236
 20
7.7907478797
 30
0.0
 10
11.4466940218
 20
7.7856023652
 30
0.0
 10
11.4524843123
 20
7.7809412219
 30
0.0
 10
11.4577947422
 20
7.7767753276
 30
0.0
 10
11.4626072043
 20
7.7731153266
 30
0.0
 10
11.46631325
 20
7.7704048102
 30
0.0
 10
11.4690225651
 20
7.7685035396
 30
0.0
 10
11.4708482107
 20
7.7672630342
 30
0.0
 10
11.4725413926
 20
7.7661565744
 30
0.0
 10
11.4736338895
 20
7.765476434
 30
0.0
 10
11.4741584903
 20
7.7651602111
 30
0.0
  0
SPLINE
  5
3FC
100
AcDbEntity
  8
0
100
AcDbSpline
 62
7
  6
CONTINUOUS
 70
0
 71
3
 72
33
 73
29
 74
0
 42
0.0000001
 43
0.0000001
 44
0.0000000001
 40
0.0
 40
0.0
 40
0.0
 40
0.0
 40
0.0761058402
 40
0.1533664216
 40
0.231098393
 40
0.3086114508
 40
0.3852181422
 40
0.4602415129
 40
0.4969536172
 40
0.5330248712
 40
0.5683772032
 40
0.6029347105
 40
0.6366239662
 40
0.6693743547
 40
0.7011183255
 40
0.7317917096
 40
0.761334137
 40
0.7896894905
 40
0.8168063116
 40
0.84263835
 40
0.8671453171
 40
0.8902937715
 40
0.9120581043
 40
0.9324219857
 40
0.9513803605
 40
0.9689416772
 40
0.9851323912
 40
1.0
 40
1.0
 40
1.0
 40
1.0
 10
11.4086992007
 20
5.3174873778
 30
0.0
 10
11.4229756286
 20
5.3164973042
 30
0.0
 10
11.451773486
 20
5.31489266
 30
0.0
 10
11.4952136096
 20
5.3135949631
 30
0.0
 10
11.538937496
 20
5.3133939476
 30
0.0
 10
11.5825296531
 20
5.3142915093
 30
0.0
 10
11.6255758569
 20
5.316279082
 30
0.0
 10
11.6609028385
 20
5.3188455172
 30
0.0
 10
11.6885753072
 20
5.3214411192
 30
0.0
 10
11.7087912808
 20
5.3236313162
 30
0.0
 10
11.7285701991
 20
5.3260736343
 30
0.0
 10
11.7478650727
 20
5.3287622739
 30
0.0
 10
11.7666300283
 20
5.3316907928
 30
0.0
 10
11.7848204883
 20
5.334852162
 30
0.0
 10
11.8023932519
 20
5.338238802
 30
0.0
 10
11.8193066002
 20
5.3418426048
 30
0.0
 10
11.8355204152
 20
5.345654936
 30
0.0
 10
11.8509962912
 20
5.349666639
 30
0.0
 10
11.8656976184
 20
5.3538680954
 30
0.0
 10
11.8795896777
 20
5.3582492551
 30
0.0
 10
11.8926397636
 20
5.3627996461
 30
0.0
 10
11.9048172937
 20
5.3675084113
 30
0.0
 10
11.9160938832
 20
5.3723643844
 30
0.0
 10
11.9264434908
 20
5.3773562191
 30
0.0
 10
11.9358423416
 20
5.3824723695
 30
0.0
 10
11.9442696907
 20
5.3877016152
 30
0.0
 10
11.9517059638
 20
5.3930321919
 30
0.0
 10
11.9561770816
 20
5.3968028989
 30
0.0
 10
11.9582236632
 20
5.3987074266
 30
0.0
  0
SPLINE
  5
3FD
100
AcDbEntity
  8
0
100
AcDbSpline
 62
7
  6
CONTINUOUS
 70
0
 71
3
 72
15
 73
11
 74
0
 42
0.0000001
 43
0.0000001
 44
0.0000000001
 40
0.0
 40
0.0
 40
0.0
 40
0.0
 40
0.126954567
 40
0.2532785352
 40
0.3789934237
 40
0.5041314671
 40
0.6287387479
 40
0.7528725196
 40
0.8766006587
 40
1.0
 40
1.0
 40
1.0
 40
1.0
 10
10.8965887993
 20
8.7542680062
 30
0.0
 10
10.8965887993
 20
8.7611945883
 30
0.0
 10
10.8970865779
 20
8.7750187086
 30
0.0
 10
10.8993359727
 20
8.7955914376
 30
0.0
 10
10.9030744203
 20
8.8158469236
 30
0.0
 10
10.9082823444
 20
8.835678411
 30
0.0
 10
10.9149321703
 20
8.8549830478
 30
0.0
 10
10.9229890566
 20
8.8736608722
 30
0.0
 10
10.9324095936
 20
8.8916138277
 30
0.0
 10
10.9395760222
 20
8.903053174
 30
0.0
 10
10.9433666661
 20
8.9086172612
 30
0.0
  0
SPLINE
  5
3FE
100
AcDbEntity
  8
0
100
AcDbSpline
 62
7
  6
CONTINUOUS
 70
0
 71
3
 72
11
 73
7
 74
0
 42
0.0000001
 43
0.0000001
 44
0.0000000001
 40
0.0
 40
0.0
 40
0.0
 40
0.0
 40
0.2468747144
 40
0.4950119487
 40
0.7456534777
 40
1.0
 40
1.0
 40
1.0
 40
1.0
 10
10.4571227185
 20
11.4129064604
 30
0.0
 10
10.4571227185
 20
11.4139434478
 30
0.0
 10
10.4572000474
 20
11.4160235377
 30
0.0
 10
10.4575477442
 20
11.419138996
 30
0.0
 10
10.4581269515
 20
11.4222516894
 30
0.0
 10
10.458662529
 20
11.4243062338
 30
0.0
 10
10.4589670154
 20
11.425330298
 30
0.0
  0
SPLINE
  5
3FF
100
AcDbEntity
  8
0
100
AcDbSpline
 62
7
  6
CONTINUOUS
 70
0
 71
3
 72
17
 73
13
 74
0
 42
0.0000001
 43
0.0000001
 44
0.0000000001
 40
0.0
 40
0.0
 40
0.0
 40
0.0
 40
0.1252156607
 40
0.1878725803
 40
0.2505408907
 40
0.3758423979
 40
0.5010756351
 40
0.6261687574
 40
0.7510542555
 40
0.8134156871
 40
0.8757031449
 40
1.0
 40
1.0
 40
1.0
 40
1.0
 10
10.0235009602
 20
8.521544517
 30
0.0
 10
10.0150183244
 20
8.521659576
 30
0.0
 10
10.0022892249
 20
8.5224031173
 30
0.0
 10
9.9854441862
 20
8.5245259566
 30
0.0
 10
9.9687038679
 20
8.5273994972
 30
0.0
 10
9.9480475103
 20
8.5323879067
 30
0.0
 10
9.9239097963
 20
8.5405561218
 30
0.0
 10
9.9006240815
 20
8.5508368448
 30
0.0
 10
9.8820825544
 20
8.5610991334
 30
0.0
 10
9.867873383
 20
8.5702691862
 30
0.0
 10
9.8541256573
 20
8.580046975
 30
0.0
 10
9.8443270463
 20
8.5880697343
 30
0.0
 10
9.838061082
 20
8.5936958999
 30
0.0
  0
SPLINE
  5
400
100
AcDbEntity
  8
0
100
AcDbSpline
 62
7
  6
CONTINUOUS
 70
0
 71
3
 72
17
 73
13
 74
0
 42
0.0000001
 43
0.0000001
 44
0.0000000001
 40
0.0
 40
0.0
 40
0.0
 40
0.0
 40
0.1298099693
 40
0.1943037719
 40
0.2584876989
 40
0.3858291534
 40
0.5117363213
 40
0.574137362
 40
0.6361515756
 40
0.7589789386
 40
0.8802450325
 40
1.0
 40
1.0
 40
1.0
 40
1.0
 10
9.8693574645
 20
8.6009635832
 30
0.0
 10
9.8747361098
 20
8.5955410686
 30
0.0
 10
9.8830971022
 20
8.5877228998
 30
0.0
 10
9.8947884231
 20
8.5779915066
 30
0.0
 10
9.9067332337
 20
8.5688083251
 30
0.0
 10
9.9221974246
 20
8.5582989505
 30
0.0
 10
9.9383616107
 20
8.5491097825
 30
0.0
 10
9.9515925944
 20
8.5426311585
 30
0.0
 10
9.9649144313
 20
8.536779152
 30
0.0
 10
9.9818483218
 20
8.5305759642
 30
0.0
 10
10.002532921
 20
8.5249618945
 30
0.0
 10
10.0165154113
 20
8.5224657342
 30
0.0
 10
10.0235009602
 20
8.521544517
 30
0.0
  0
SPLINE
  5
401
100
AcDbEntity
  8
0
100
AcDbSpline
 62
7
  6
CONTINUOUS
 70
0
 71
3
 72
21
 73
17
 74
0
 42
0.0000001
 43
0.0000001
 44
0.0000000001
 40
0.0
 40
0.0
 40
0.0
 40
0.0
 40
0.1247945302
 40
0.2282590841
 40
0.3156032124
 40
0.3916950281
 40
0.5216799208
 40
0.6329759704
 40
0.6840467078
 40
0.732867729
 40
0.7799021097
 40
0.8255331565
 40
0.87008665
 40
0.9138481806
 40
0.9570745404
 40
1.0
 40
1.0
 40
1.0
 40
1.0
 10
11.1009473339
 20
8.6196711581
 30
0.0
 10
11.1035162838
 20
8.6174235746
 30
0.0
 10
11.1079980907
 20
8.6130546909
 30
0.0
 10
11.1135269603
 20
8.6064088213
 30
0.0
 10
11.1176608527
 20
8.6003796476
 30
0.0
 10
11.1216259146
 20
8.5933937266
 30
0.0
 10
11.1250403059
 20
8.5853738863
 30
0.0
 10
11.1270489239
 20
8.577602777
 30
0.0
 10
11.1278671266
 20
8.5718803033
 30
0.0
 10
11.1281519635
 20
8.5678681996
 30
0.0
 10
11.1281519342
 20
8.5639950704
 30
0.0
 10
11.1278865831
 20
8.5602481178
 30
0.0
 10
11.1273699356
 20
8.5566179735
 30
0.0
 10
11.1266120739
 20
8.5530976883
 30
0.0
 10
11.125620414
 20
8.5496825528
 30
0.0
 10
11.1248041862
 20
8.5474695449
 30
0.0
 10
11.1243593328
 20
8.5463829878
 30
0.0
  0
SPLINE
  5
402
100
AcDbEntity
  8
0
100
AcDbSpline
 62
7
  6
CONTINUOUS
 70
0
 71
3
 72
23
 73
19
 74
0
 42
0.0000001
 43
0.0000001
 44
0.0000000001
 40
0.0
 40
0.0
 40
0.0
 40
0.0
 40
0.0742130389
 40
0.1439520666
 40
0.2095878219
 40
0.2715860811
 40
0.3305175764
 40
0.3870621335
 40
0.4419999938
 40
0.4961888891
 40
0.5505256272
 40
0.6058991805
 40
0.663145376
 40
0.7230132979
 40
0.7861472645
 40
0.8530826485
 40
0.9242528927
 40
1.0
 40
1.0
 40
1.0
 40
1.0
 10
10.456876559
 20
11.4009612481
 30
0.0
 10
10.4549297768
 20
11.4027729333
 30
0.0
 10
10.4512653585
 20
11.4064106552
 30
0.0
 10
10.4463447856
 20
11.4120949162
 30
0.0
 10
10.4421836615
 20
11.4178260596
 30
0.0
 10
10.4387887611
 20
11.4235987279
 30
0.0
 10
10.4361667877
 20
11.4294075527
 30
0.0
 10
10.4343244683
 20
11.4352457979
 30
0.0
 10
10.433268116
 20
11.4411048964
 30
0.0
 10
10.4330021474
 20
11.4469740732
 30
0.0
 10
10.4335276986
 20
11.4528412437
 30
0.0
 10
10.4348425218
 20
11.4586945846
 30
0.0
 10
10.4369413415
 20
11.464524019
 30
0.0
 10
10.4398176347
 20
11.4703216514
 30
0.0
 10
10.4434646173
 20
11.4760812407
 30
0.0
 10
10.4478756652
 20
11.4817976398
 30
0.0
 10
10.4530440779
 20
11.4874654933
 30
0.0
 10
10.4568672916
 20
11.4910917095
 30
0.0
 10
10.4588936097
 20
11.4928976998
 30
0.0
  0
SPLINE
  5
403
100
AcDbEntity
  8
0
100
AcDbSpline
 62
7
  6
CONTINUOUS
 70
0
 71
3
 72
21
 73
17
 74
0
 42
0.0000001
 43
0.0000001
 44
0.0000000001
 40
0.0
 40
0.0
 40
0.0
 40
0.0
 40
0.0728197529
 40
0.1426007161
 40
0.2739890224
 40
0.3362983709
 40
0.3968004835
 40
0.4559027738
 40
0.5140452355
 40
0.571692477
 40
0.6293221031
 40
0.6874122401
 40
0.7464287507
 40
0.8068139603
 40
0.8689776112
 40
1.0
 40
1.0
 40
1.0
 40
1.0
 10
10.4652822714
 20
11.3939039669
 30
0.0
 10
10.464173493
 20
11.3951799358
 30
0.0
 10
10.4620705278
 20
11.3977397615
 30
0.0
 10
10.4583420875
 20
11.4028953755
 30
0.0
 10
10.4552504045
 20
11.4082028279
 30
0.0
 10
10.4529061572
 20
11.4136241728
 30
0.0
 10
10.4515571598
 20
11.4176314166
 30
0.0
 10
10.4505883359
 20
11.4216479008
 30
0.0
 10
10.4500009316
 20
11.425670988
 30
0.0
 10
10.4497956258
 20
11.4296974609
 30
0.0
 10
10.4499728648
 20
11.4337240568
 30
0.0
 10
10.4505322896
 20
11.4377475013
 30
0.0
 10
10.4514731169
 20
11.4417645595
 30
0.0
 10
10.4527943673
 20
11.4457726476
 30
0.0
 10
10.4551003358
 20
11.4511940723
 30
0.0
 10
10.4573476256
 20
11.4550997285
 30
0.0
 10
10.4590319792
 20
11.4576322566
 30
0.0
  0
SPLINE
  5
404
100
AcDbEntity
  8
0
100
AcDbSpline
 62
7
  6
CONTINUOUS
 70
0
 71
3
 72
30
 73
26
 74
0
 42
0.0000001
 43
0.0000001
 44
0.0000000001
 40
0.0
 40
0.0
 40
0.0
 40
0.0
 40
0.0165872327
 40
0.0341539182
 40
0.0527306241
 40
0.0723390598
 40
0.0929939075
 40
0.1147034001
 40
0.1374707574
 40
0.1612943531
 40
0.1861688814
 40
0.2120852513
 40
0.2390315812
 40
0.266992921
 40
0.2959521366
 40
0.3258895263
 40
0.3886086483
 40
0.4549579829
 40
0.5247166381
 40
0.5976412489
 40
0.673468877
 40
0.7519195568
 40
0.8326984343
 40
0.9154980915
 40
1.0
 40
1.0
 40
1.0
 40
1.0
 10
9.4011479597
 20
5.5159617993
 30
0.0
 10
9.402488563
 20
5.5147142371
 30
0.0
 10
9.4053320216
 20
5.5122337315
 30
0.0
 10
9.4099269114
 20
5.5086549777
 30
0.0
 10
9.4149666331
 20
5.5051171461
 30
0.0
 10
9.4204457998
 20
5.5016238035
 30
0.0
 10
9.4263589511
 20
5.4981784499
 30
0.0
 10
9.432699987
 20
5.4947844989
 30
0.0
 10
9.4394624332
 20
5.4914455164
 30
0.0
 10
9.4466392828
 20
5.4881648659
 30
0.0
 10
9.4542231285
 20
5.4849460531
 30
0.0
 10
9.4622060714
 20
5.4817923538
 30
0.0
 10
9.4705798176
 20
5.4787071621
 30
0.0
 10
9.4793356128
 20
5.4756936433
 30
0.0
 10
9.4884643321
 20
5.4727550126
 30
0.0
 10
9.5013206858
 20
5.4688805675
 30
0.0
 10
9.5182613523
 20
5.4642641635
 30
0.0
 10
9.5396120918
 20
5.4591519061
 30
0.0
 10
9.5621997164
 20
5.4544064531
 30
0.0
 10
9.5859295496
 20
5.4500479634
 30
0.0
 10
9.6107023144
 20
5.4460950075
 30
0.0
 10
9.6364141366
 20
5.4425644024
 30
0.0
 10
9.6629572
 20
5.4394711555
 30
0.0
 10
9.6902199688
 20
5.436828422
 30
0.0
 10
9.7086355667
 20
5.4353871913
 30
0.0
 10
9.7179425342
 20
5.4347417509
 30
0.0
  0
SPLINE
  5
405
100
AcDbEntity
  8
0
100
AcDbSpline
 62
7
  6
CONTINUOUS
 70
0
 71
3
 72
11
 73
7
 74
0
 42
0.0000001
 43
0.0000001
 44
0.0000000001
 40
0.0
 40
0.0
 40
0.0
 40
0.0
 40
0.2468747256
 40
0.4950119665
 40
0.7456534932
 40
1.0
 40
1.0
 40
1.0
 40
1.0
 10
11.7083226812
 20
11.4129064604
 30
0.0
 10
11.7083226812
 20
11.4139434459
 30
0.0
 10
11.7082453526
 20
11.4160235319
 30
0.0
 10
11.7078976571
 20
11.4191389845
 30
0.0
 10
11.7073184519
 20
11.4222516722
 30
0.0
 10
11.7067828764
 20
11.4243062128
 30
0.0
 10
11.7064783911
 20
11.4253302752
 30
0.0
  0
SPLINE
  5
406
100
AcDbEntity
  8
0
100
AcDbSpline
 62
7
  6
CONTINUOUS
 70
0
 71
3
 72
27
 73
23
 74
0
 42
0.0000001
 43
0.0000001
 44
0.0000000001
 40
0.0
 40
0.0
 40
0.0
 40
0.0
 40
0.0161192088
 40
0.0324036336
 40
0.0493936172
 40
0.0675757704
 40
0.0873048149
 40
0.1087782994
 40
0.1320539312
 40
0.157086845
 40
0.1837675231
 40
0.2119523331
 40
0.2414850931
 40
0.2722118036
 40
0.3366810645
 40
0.4043733584
 40
0.4745198269
 40
0.5465415675
 40
0.6200059497
 40
0.6945890119
 40
0.8461896915
 40
1.0
 40
1.0
 40
1.0
 40
1.0
 10
11.1078254136
 20
8.8089345731
 30
0.0
 10
11.1080946547
 20
8.8090673638
 30
0.0
 10
11.1086134854
 20
8.8093836923
 30
0.0
 10
11.1092958247
 20
8.810008942
 30
0.0
 10
11.1098708359
 20
8.8107822087
 30
0.0
 10
11.1103358128
 20
8.8116974547
 30
0.0
 10
11.1106938384
 20
8.8127470122
 30
0.0
 10
11.1109509071
 20
8.8139220769
 30
0.0
 10
11.1111147276
 20
8.81521268
 30
0.0
 10
11.1111939176
 20
8.8166079126
 30
0.0
 10
11.1111975489
 20
8.8180965122
 30
0.0
 10
11.1111347164
 20
8.8196674667
 30
0.0
 10
11.1110142569
 20
8.821310494
 30
0.0
 10
11.1107838345
 20
8.823622208
 30
0.0
 10
11.1103897835
 20
8.8266307944
 30
0.0
 10
11.1098087936
 20
8.8303537152
 30
0.0
 10
11.1091493512
 20
8.8342062492
 30
0.0
 10
11.1084402158
 20
8.8381591347
 30
0.0
 10
11.1077029442
 20
8.8421908855
 30
0.0
 10
11.1066983603
 20
8.8476804166
 30
0.0
 10
11.1054489468
 20
8.8546463889
 30
0.0
 10
11.1045044757
 20
8.8602556376
 30
0.0
 10
11.1040483319
 20
8.8630836763
 30
0.0
  0
SPLINE
  5
407
100
AcDbEntity
  8
0
100
AcDbSpline
 62
7
  6
CONTINUOUS
 70
0
 71
3
 72
23
 73
19
 74
0
 42
0.0000001
 43
0.0000001
 44
0.0000000001
 40
0.0
 40
0.0
 40
0.0
 40
0.0
 40
0.0731912451
 40
0.1432777259
 40
0.2105057973
 40
0.2751629444
 40
0.3375780125
 40
0.3981227299
 40
0.4572086488
 40
0.5152820536
 40
0.5728154285
 40
0.6302958101
 40
0.6882117024
 40
0.7470398374
 40
0.807232907
 40
0.8692106547
 40
0.9333536199
 40
1.0
 40
1.0
 40
1.0
 40
1.0
 10
11.6995539107
 20
11.3932099391
 30
0.0
 10
11.7006968869
 20
11.3944990757
 30
0.0
 10
11.7028654964
 20
11.3970850484
 30
0.0
 10
11.705812074
 20
11.4010729805
 30
0.0
 10
11.7083770048
 20
11.4050806139
 30
0.0
 10
11.710558306
 20
11.4091055577
 30
0.0
 10
11.7123540219
 20
11.4131456621
 30
0.0
 10
11.713762433
 20
11.4171984423
 30
0.0
 10
11.7147819259
 20
11.4212612312
 30
0.0
 10
11.7154111247
 20
11.4253310573
 30
0.0
 10
11.7156492458
 20
11.4294046662
 30
0.0
 10
11.7154957679
 20
11.4334786485
 30
0.0
 10
11.7149511024
 20
11.4375495776
 30
0.0
 10
11.7140158765
 20
11.4416141473
 30
0.0
 10
11.7126914605
 20
11.4456693261
 30
0.0
 10
11.7109793123
 20
11.4497124161
 30
0.0
 10
11.7088813213
 20
11.4537406946
 30
0.0
 10
11.7072598201
 20
11.4563613226
 30
0.0
 10
11.706390248
 20
11.4576670767
 30
0.0
  0
SPLINE
  5
408
100
AcDbEntity
  8
0
100
AcDbSpline
 62
7
  6
CONTINUOUS
 70
0
 71
3
 72
37
 73
33
 74
0
 42
0.0000001
 43
0.0000001
 44
0.0000000001
 40
0.0
 40
0.0
 40
0.0
 40
0.0
 40
0.0311466476
 40
0.0624482391
 40
0.093895328
 40
0.1254805417
 40
0.1571907946
 40
0.1890115952
 40
0.2209259356
 40
0.2529150311
 40
0.284958639
 40
0.3170354579
 40
0.3491235488
 40
0.3812007523
 40
0.4451977724
 40
0.5088980103
 40
0.5406103272
 40
0.5721976339
 40
0.6036476391
 40
0.6349508386
 40
0.6661007532
 40
0.6970941041
 40
0.727930928
 40
0.7586146239
 40
0.7891519281
 40
0.8195528177
 40
0.8498303372
 40
0.8800003401
 40
0.9100811543
 40
0.9400931797
 40
0.9700584251
 40
1.0
 40
1.0
 40
1.0
 40
1.0
 10
9.448806855
 20
7.7801762564
 30
0.0
 10
9.4461557262
 20
7.7803601128
 30
0.0
 10
9.4408517699
 20
7.7809228305
 30
0.0
 10
9.4329601806
 20
7.7823401816
 30
0.0
 10
9.4251530705
 20
7.7843256343
 30
0.0
 10
9.4174727218
 20
7.7868682456
 30
0.0
 10
9.4099598381
 20
7.7899545705
 30
0.0
 10
9.4026545316
 20
7.7935680169
 30
0.0
 10
9.3955957168
 20
7.7976893198
 30
0.0
 10
9.3888210112
 20
7.8022964486
 30
0.0
 10
9.382366488
 20
7.8073648425
 30
0.0
 10
9.3762666046
 20
7.8128673628
 30
0.0
 10
9.3705536154
 20
7.8187750672
 30
0.0
 10
9.3635004643
 20
7.827140666
 30
0.0
 10
9.3557976601
 20
7.8384430302
 30
0.0
 10
9.3497301236
 20
7.8506675639
 30
0.0
 10
9.3459478963
 20
7.8608298517
 30
0.0
 10
9.3436632886
 20
7.8685917955
 30
0.0
 10
9.3419400112
 20
7.8764613408
 30
0.0
 10
9.3407871141
 20
7.8843969154
 30
0.0
 10
9.3402108769
 20
7.8923560843
 30
0.0
 10
9.3402144443
 20
7.9002964054
 30
0.0
 10
9.3407978947
 20
7.9081754832
 30
0.0
 10
9.3419582116
 20
7.9159512366
 30
0.0
 10
9.3436893031
 20
7.9235821085
 30
0.0
 10
9.3459820143
 20
7.9310272943
 30
0.0
 10
9.3488241596
 20
7.9382469645
 30
0.0
 10
9.3522006211
 20
7.9452024876
 30
0.0
 10
9.3560933669
 20
7.9518565916
 30
0.0
 10
9.3604817425
 20
7.9581737477
 30
0.0
 10
9.3653418461
 20
7.9641196926
 30
0.0
 10
9.3688806691
 20
7.9678164668
 30
0.0
 10
9.3707181424
 20
7.9695913096
 30
0.0
  0
SPLINE
  5
409
100
AcDbEntity
  8
0
100
AcDbSpline
 62
7
  6
CONTINUOUS
 70
0
 71
3
 72
53
 73
49
 74
0
 42
0.0000001
 43
0.0000001
 44
0.0000000001
 40
0.0
 40
0.0
 40
0.0
 40
0.0
 40
0.0529943356
 40
0.1051924683
 40
0.156480527
 40
0.2067463601
 40
0.2558806119
 40
0.3037778053
 40
0.3503363007
 40
0.3954589492
 40
0.4390535093
 40
0.4810332052
 40
0.5213173329
 40
0.5598319573
 40
0.5965107304
 40
0.6312958888
 40
0.664139499
 40
0.6950050462
 40
0.7096891655
 40
0.7238714647
 40
0.7375515765
 40
0.7507305259
 40
0.7634105707
 40
0.7755956704
 40
0.7872914433
 40
0.7985055515
 40
0.8092479317
 40
0.819531034
 40
0.8293703465
 40
0.8387845497
 40
0.8477962049
 40
0.856431941
 40
0.8726948375
 40
0.880410418
 40
0.887905332
 40
0.8952307221
 40
0.9024418086
 40
0.9095967011
 40
0.916755033
 40
0.9239763389
 40
0.9313184746
 40
0.9388362148
 40
0.9465802344
 40
0.9629145551
 40
0.9715919789
 40
0.9806486119
 40
0.9901106031
 40
1.0
 40
1.0
 40
1.0
 40
1.0
 10
11.6350418599
 20
12.010476596
 30
0.0
 10
11.6452065802
 20
12.0097427859
 30
0.0
 10
11.6653737564
 20
12.0081498672
 30
0.0
 10
11.695337496
 20
12.0053610372
 30
0.0
 10
11.7247362403
 20
12.0021958209
 30
0.0
 10
11.7534994469
 20
11.9986618675
 30
0.0
 10
11.7815579959
 20
11.9947677211
 30
0.0
 10
11.8088444211
 20
11.9905228283
 30
0.0
 10
11.8352931793
 20
11.9859374662
 30
0.0
 10
11.8608407456
 20
11.9810227511
 30
0.0
 10
11.8854258012
 20
11.9757905957
 30
0.0
 10
11.9089893826
 20
11.9702536855
 30
0.0
 10
11.9314750365
 20
11.9644254464
 30
0.0
 10
11.9528289854
 20
11.9583200078
 30
0.0
 10
11.9730002287
 20
11.9519521595
 30
0.0
 10
11.9919408591
 20
11.9453372942
 30
0.0
 10
12.0096056447
 20
11.9384913654
 30
0.0
 10
12.0234498887
 20
11.9325122651
 30
0.0
 10
12.0338401275
 20
11.9276121783
 30
0.0
 10
12.0411581068
 20
11.9239508495
 30
0.0
 10
12.0481270778
 20
11.9202441914
 30
0.0
 10
12.0547429431
 20
11.9164944423
 30
0.0
 10
12.0610017463
 20
11.9127037438
 30
0.0
 10
12.0668998158
 20
11.9088743856
 30
0.0
 10
12.0724336537
 20
11.9050085539
 30
0.0
 10
12.0775999993
 20
11.9011084831
 30
0.0
 10
12.0823958324
 20
11.897176414
 30
0.0
 10
12.0868182663
 20
11.8932144995
 30
0.0
 10
12.0908647657
 20
11.8892249502
 30
0.0
 10
12.0945326981
 20
11.8852100028
 30
0.0
 10
12.0978202303
 20
11.88117123
 30
0.0
 10
12.1016162689
 20
11.8758656674
 30
0.0
 10
12.1047544801
 20
11.870404132
 30
0.0
 10
12.1071206594
 20
11.8648269451
 30
0.0
 10
12.1084743902
 20
11.8607041506
 30
0.0
 10
12.1094359823
 20
11.8565720326
 30
0.0
 10
12.1100044959
 20
11.8524334175
 30
0.0
 10
12.110178936
 20
11.8482915972
 30
0.0
 10
12.1099591882
 20
11.8441499769
 30
0.0
 10
12.1093454837
 20
11.8400119357
 30
0.0
 10
12.1083387325
 20
11.8358807735
 30
0.0
 10
12.1069401216
 20
11.8317592294
 30
0.0
 10
12.1045125425
 20
11.8261828127
 30
0.0
 10
12.1013150859
 20
11.8207245862
 30
0.0
 10
12.0974619519
 20
11.8154227815
 30
0.0
 10
12.0941305498
 20
11.8113865662
 30
0.0
 10
12.0904190694
 20
11.8073745316
 30
0.0
 10
12.087752913
 20
11.8047757075
 30
0.0
 10
12.0863607032
 20
11.8034801032
 30
0.0
  0
SPLINE
  5
40A
100
AcDbEntity
  8
0
100
AcDbSpline
 62
7
  6
CONTINUOUS
 70
0
 71
3
 72
37
 73
33
 74
0
 42
0.0000001
 43
0.0000001
 44
0.0000000001
 40
0.0
 40
0.0
 40
0.0
 40
0.0
 40
0.0311466476
 40
0.0624482391
 40
0.093895328
 40
0.1254805417
 40
0.1571907946
 40
0.1890115952
 40
0.2209259356
 40
0.2529150311
 40
0.284958639
 40
0.3170354579
 40
0.3491235488
 40
0.3812007523
 40
0.4451977724
 40
0.5088980103
 40
0.5406103272
 40
0.5721976339
 40
0.6036476391
 40
0.6349508386
 40
0.6661007532
 40
0.6970941041
 40
0.727930928
 40
0.7586146239
 40
0.7891519281
 40
0.8195528177
 40
0.8498303372
 40
0.8800003401
 40
0.9100811543
 40
0.9400931797
 40
0.9700584251
 40
1.0
 40
1.0
 40
1.0
 40
1.0
 10
11.6712090948
 20
8.1090150794
 30
0.0
 10
11.668557966
 20
8.1091989358
 30
0.0
 10
11.6632540098
 20
8.1097616535
 30
0.0
 10
11.6553624204
 20
8.1111790046
 30
0.0
 10
11.6475553103
 20
8.1131644572
 30
0.0
 10
11.6398749616
 20
8.1157070685
 30
0.0
 10
11.632362078
 20
8.1187933935
 30
0.0
 10
11.6250567715
 20
8.1224068398
 30
0.0
 10
11.6179979566
 20
8.1265281427
 30
0.0
 10
11.6112232511
 20
8.1311352716
 30
0.0
 10
11.6047687278
 20
8.1362036654
 30
0.0
 10
11.5986688444
 20
8.1417061858
 30
0.0
 10
11.5929558552
 20
8.1476138902
 30
0.0
 10
11.5859027041
 20
8.155979489
 30
0.0
 10
11.5781999
 20
8.1672818531
 30
0.0
 10
11.5721323634
 20
8.1795063868
 30
0.0
 10
11.5683501361
 20
8.1896686746
 30
0.0
 10
11.5660655284
 20
8.1974306185
 30
0.0
 10
11.5643422511
 20
8.2053001638
 30
0.0
 10
11.563189354
 20
8.2132357383
 30
0.0
 10
11.5626131167
 20
8.2211949072
 30
0.0
 10
11.5626166841
 20
8.2291352283
 30
0.0
 10
11.5632001346
 20
8.2370143061
 30
0.0
 10
11.5643604514
 20
8.2447900596
 30
0.0
 10
11.5660915429
 20
8.2524209314
 30
0.0
 10
11.5683842541
 20
8.2598661173
 30
0.0
 10
11.5712263995
 20
8.2670857874
 30
0.0
 10
11.5746028609
 20
8.2740413105
 30
0.0
 10
11.5784956067
 20
8.2806954146
 30
0.0
 10
11.5828839823
 20
8.2870125707
 30
0.0
 10
11.5877440859
 20
8.2929585156
 30
0.0
 10
11.5912829089
 20
8.2966552897
 30
0.0
 10
11.5931203823
 20
8.2984301326
 30
0.0
  0
SPLINE
  5
40B
100
AcDbEntity
  8
0
100
AcDbSpline
 62
7
  6
CONTINUOUS
 70
0
 71
3
 72
39
 73
35
 74
0
 42
0.0000001
 43
0.0000001
 44
0.0000000001
 40
0.0
 40
0.0
 40
0.0
 40
0.0
 40
0.0065393942
 40
0.0131155129
 40
0.0197644153
 40
0.0265208617
 40
0.0334178545
 40
0.0404861787
 40
0.0552407508
 40
0.0709885011
 40
0.0878849812
 40
0.1060495062
 40
0.1255708267
 40
0.1465126074
 40
0.1689180151
 40
0.1928137081
 40
0.2182129347
 40
0.2451177325
 40
0.2735208134
 40
0.3034070906
 40
0.334754658
 40
0.3675356345
 40
0.4017170145
 40
0.4372611623
 40
0.4741261801
 40
0.512266459
 40
0.5516329962
 40
0.5921735581
 40
0.6338330588
 40
0.6765538262
 40
0.7202757052
 40
0.8104692016
 40
0.9038930889
 40
1.0
 40
1.0
 40
1.0
 40
1.0
 10
12.0861140514
 20
11.8154248686
 30
0.0
 10
12.0861140514
 20
11.8165118274
 30
0.0
 10
12.0860290486
 20
11.818692792
 30
0.0
 10
12.0856469053
 20
11.8219587765
 30
0.0
 10
12.0850103138
 20
11.8252216992
 30
0.0
 10
12.0841198314
 20
11.8284797488
 30
0.0
 10
12.0829759106
 20
11.8317316011
 30
0.0
 10
12.0810872302
 20
11.8361192506
 30
0.0
 10
12.0780576593
 20
11.8415998627
 30
0.0
 10
12.0734748641
 20
11.8480259181
 30
0.0
 10
12.0679038218
 20
11.8543893138
 30
0.0
 10
12.0613552069
 20
11.8606822097
 30
0.0
 10
12.0538395158
 20
11.866897475
 30
0.0
 10
12.0453683479
 20
11.8730268729
 30
0.0
 10
12.035954665
 20
11.8790618497
 30
0.0
 10
12.0256129383
 20
11.8849934732
 30
0.0
 10
12.0143591924
 20
11.8908126259
 30
0.0
 10
12.002211067
 20
11.8965102035
 30
0.0
 10
11.9891877544
 20
11.9020771681
 30
0.0
 10
11.975309932
 20
11.9075045637
 30
0.0
 10
11.9605997505
 20
11.9127836258
 30
0.0
 10
11.9450807852
 20
11.9179058291
 30
0.0
 10
11.928777953
 20
11.9228628436
 30
0.0
 10
11.9117174812
 20
11.9276465917
 30
0.0
 10
11.8939268729
 20
11.9322493168
 30
0.0
 10
11.8754348283
 20
11.9366635237
 30
0.0
 10
11.8562711984
 20
11.9408820012
 30
0.0
 10
11.8364669498
 20
11.9448979051
 30
0.0
 10
11.8160541067
 20
11.9487046919
 30
0.0
 10
11.7950656387
 20
11.9522961893
 30
0.0
 10
11.766058124
 20
11.9568368695
 30
0.0
 10
11.7286081652
 20
11.961913338
 30
0.0
 10
11.6823884182
 20
11.9670029757
 30
0.0
 10
11.6509986838
 20
11.9697134697
 30
0.0
 10
11.6350690583
 20
11.9709114257
 30
0.0
  0
SPLINE
  5
40C
100
AcDbEntity
  8
0
100
AcDbSpline
 62
7
  6
CONTINUOUS
 70
0
 71
3
 72
21
 73
17
 74
0
 42
0.0000001
 43
0.0000001
 44
0.0000000001
 40
0.0
 40
0.0
 40
0.0
 40
0.0
 40
0.0616109359
 40
0.1235512441
 40
0.1858001447
 40
0.2483178097
 40
0.3110603492
 40
0.3739769503
 40
0.5000055671
 40
0.6260336152
 40
0.6889494674
 40
0.751690968
 40
0.8142074538
 40
0.8764544127
 40
0.9383947674
 40
1.0
 40
1.0
 40
1.0
 40
1.0
 10
9.5572942556
 20
9.1800427537
 30
0.0
 10
9.555565836
 20
9.1803005689
 30
0.0
 10
9.5521200207
 20
9.1809652932
 30
0.0
 10
9.5470415109
 20
9.1823947557
 30
0.0
 10
9.5420743751
 20
9.1842488386
 30
0.0
 10
9.5372557631
 20
9.1865138042
 30
0.0
 10
9.5326208681
 20
9.1891730881
 30
0.0
 10
9.5267308698
 20
9.1932184475
 30
0.0
 10
9.5199991252
 20
9.1991542899
 30
0.0
 10
9.5143029331
 20
9.2060899733
 30
0.0
 10
9.5104666354
 20
9.2121181477
 30
0.0
 10
9.5079715544
 20
9.2168433689
 30
0.0
 10
9.5058770065
 20
9.2217383352
 30
0.0
 10
9.5041982457
 20
9.2267673415
 30
0.0
 10
9.5029478743
 20
9.2318926667
 30
0.0
 10
9.5024044707
 20
9.2353595183
 30
0.0
 10
9.5022074197
 20
9.2370957524
 30
0.0
  0
SPLINE
  5
40D
100
AcDbEntity
  8
0
100
AcDbSpline
 62
7
  6
CONTINUOUS
 70
0
 71
3
 72
21
 73
17
 74
0
 42
0.0000001
 43
0.0000001
 44
0.0000000001
 40
0.0
 40
0.0
 40
0.0
 40
0.0
 40
0.0616109359
 40
0.1235512441
 40
0.1858001447
 40
0.2483178097
 40
0.3110603492
 40
0.3739769503
 40
0.5000055671
 40
0.6260336152
 40
0.6889494674
 40
0.751690968
 40
0.8142074538
 40
0.8764544127
 40
0.9383947674
 40
1.0
 40
1.0
 40
1.0
 40
1.0
 10
11.6823311994
 20
7.2576854064
 30
0.0
 10
11.6806027797
 20
7.2579432216
 30
0.0
 10
11.6771569644
 20
7.2586079459
 30
0.0
 10
11.6720784547
 20
7.2600374084
 30
0.0
 10
11.6671113189
 20
7.2618914913
 30
0.0
 10
11.6622927068
 20
7.2641564569
 30
0.0
 10
11.6576578119
 20
7.2668157408
 30
0.0
 10
11.6517678136
 20
7.2708611002
 30
0.0
 10
11.645036069
 20
7.2767969426
 30
0.0
 10
11.6393398768
 20
7.283732626
 30
0.0
 10
11.6355035791
 20
7.2897608004
 30
0.0
 10
11.6330084982
 20
7.2944860216
 30
0.0
 10
11.6309139503
 20
7.2993809878
 30
0.0
 10
11.6292351895
 20
7.3044099942
 30
0.0
 10
11.627984818
 20
7.3095353194
 30
0.0
 10
11.6274414144
 20
7.313002171
 30
0.0
 10
11.6272443635
 20
7.314738405
 30
0.0
  0
SPLINE
  5
40E
100
AcDbEntity
  8
0
100
AcDbSpline
 62
7
  6
CONTINUOUS
 70
0
 71
3
 72
52
 73
48
 74
0
 42
0.0000001
 43
0.0000001
 44
0.0000000001
 40
0.0
 40
0.0
 40
0.0
 40
0.0
 40
0.0177152404
 40
0.02605218
 40
0.0340806542
 40
0.0418371381
 40
0.0493627385
 40
0.0567029937
 40
0.0639073484
 40
0.0710284342
 40
0.0781208958
 40
0.0852401144
 40
0.0924407873
 40
0.0997756284
 40
0.1072942004
 40
0.1150422051
 40
0.1230608654
 40
0.1313868574
 40
0.1400522988
 40
0.1490849232
 40
0.1585085454
 40
0.1683431917
 40
0.1786057314
 40
0.1893100369
 40
0.2004674057
 40
0.212086925
 40
0.2241755363
 40
0.2367385574
 40
0.2497795877
 40
0.2633009027
 40
0.2773035237
 40
0.3067493965
 40
0.3381064894
 40
0.3713485595
 40
0.4064380169
 40
0.4433275378
 40
0.4819613426
 40
0.5222762241
 40
0.564202369
 40
0.6076640427
 40
0.6525801706
 40
0.698864832
 40
0.7464277506
 40
0.7951746444
 40
0.8450078551
 40
0.8958261899
 40
1.0
 40
1.0
 40
1.0
 40
1.0
 10
12.0773452809
 20
11.7957283473
 30
0.0
 10
12.079489645
 20
11.798146926
 30
0.0
 10
12.0824654361
 20
11.801872609
 30
0.0
 10
12.0858579297
 20
11.8070883659
 30
0.0
 10
12.088000009
 20
11.8109376546
 30
0.0
 10
12.0897891567
 20
11.8148008054
 30
0.0
 10
12.0912239578
 20
11.8186759359
 30
0.0
 10
12.0923030633
 20
11.8225606807
 30
0.0
 10
12.0930251597
 20
11.8264525835
 30
0.0
 10
12.0933895252
 20
11.8303488848
 30
0.0
 10
12.0933955533
 20
11.8342467178
 30
0.0
 10
12.0930433106
 20
11.8381431208
 30
0.0
 10
12.0923332608
 20
11.8420352152
 30
0.0
 10
12.091266186
 20
11.8459202439
 30
0.0
 10
12.089843395
 20
11.8497957376
 30
0.0
 10
12.0880661347
 20
11.8536593478
 30
0.0
 10
12.0859360479
 20
11.8575090164
 30
0.0
 10
12.083454697
 20
11.8613427373
 30
0.0
 10
12.0806237823
 20
11.8651585924
 30
0.0
 10
12.0774451502
 20
11.8689547597
 30
0.0
 10
12.0739206171
 20
11.8727292834
 30
0.0
 10
12.0700522968
 20
11.8764803662
 30
0.0
 10
12.0658423013
 20
11.8802060293
 30
0.0
 10
12.061292999
 20
11.8839043783
 30
0.0
 10
12.0564069043
 20
11.8875734827
 30
0.0
 10
12.0511866769
 20
11.8912113304
 30
0.0
 10
12.0456352366
 20
11.8948160414
 30
0.0
 10
12.0397556012
 20
11.8983855714
 30
0.0
 10
12.0335510546
 20
11.901918016
 30
0.0
 10
12.0270250085
 20
11.9054114436
 30
0.0
 10
12.0177434895
 20
11.910093352
 30
0.0
 10
12.0053482698
 20
11.9158185826
 30
0.0
 10
11.989493956
 20
11.9223923628
 30
0.0
 10
11.9724542967
 20
11.9287655008
 30
0.0
 10
11.954267226
 20
11.9349236689
 30
0.0
 10
11.9349729825
 20
11.9408530111
 30
0.0
 10
11.9146145356
 20
11.9465401413
 30
0.0
 10
11.8932372949
 20
11.9519722041
 30
0.0
 10
11.8708890327
 20
11.9571369118
 30
0.0
 10
11.8476197485
 20
11.962022578
 30
0.0
 10
11.8234815532
 20
11.9666181453
 30
0.0
 10
11.7985285448
 20
11.9709132213
 30
0.0
 10
11.7728166783
 20
11.9748980957
 30
0.0
 10
11.7464036413
 20
11.978563755
 30
0.0
 10
11.7193486193
 20
11.981901954
 30
0.0
 10
11.6821941412
 20
11.9859392681
 30
0.0
 10
11.654016988
 20
11.9883997738
 30
0.0
 10
11.6350617169
 20
11.9898074884
 30
0.0
  0
SPLINE
  5
40F
100
AcDbEntity
  8
0
100
AcDbSpline
 62
7
  6
CONTINUOUS
 70
0
 71
3
 72
42
 73
38
 74
0
 42
0.0000001
 43
0.0000001
 44
0.0000000001
 40
0.0
 40
0.0
 40
0.0
 40
0.0
 40
0.0311444822
 40
0.0467771409
 40
0.0624471084
 40
0.0938918288
 40
0.125473946
 40
0.1571813221
 40
0.1889991721
 40
0.2209105603
 40
0.2528967007
 40
0.2849373517
 40
0.3170112137
 40
0.3490963459
 40
0.3811705896
 40
0.4132119965
 40
0.4451992522
 40
0.4771120925
 40
0.5089317052
 40
0.5406411103
 40
0.5722255148
 40
0.6036726323
 40
0.6349729635
 40
0.6661200289
 40
0.6971105466
 40
0.7279445496
 40
0.7586254353
 40
0.7891599419
 40
0.8195580492
 40
0.8498327998
 40
0.8649315645
 40
0.8800056518
 40
0.9100837089
 40
0.9400929761
 40
0.9550815025
 40
0.9700611869
 40
1.0
 40
1.0
 40
1.0
 40
1.0
 10
9.9325425506
 20
7.0824584345
 30
0.0
 10
9.92546647
 20
7.0829491623
 30
0.0
 10
9.9148603777
 20
7.0840744015
 30
0.0
 10
9.9008169557
 20
7.0863356772
 30
0.0
 10
9.8867958351
 20
7.0891118352
 30
0.0
 10
9.8694098568
 20
7.0935331036
 30
0.0
 10
9.8489111169
 20
7.1003194161
 30
0.0
 10
9.8288589868
 20
7.1085568288
 30
0.0
 10
9.809360978
 20
7.118201178
 30
0.0
 10
9.7905208111
 20
7.1292009474
 30
0.0
 10
9.7724389171
 20
7.1414974014
 30
0.0
 10
9.7552116245
 20
7.1550249277
 30
0.0
 10
9.7389307303
 20
7.169711379
 30
0.0
 10
9.7236829944
 20
7.1854784553
 30
0.0
 10
9.7095496886
 20
7.2022421177
 30
0.0
 10
9.6966061654
 20
7.2199130313
 30
0.0
 10
9.684921461
 20
7.238397037
 30
0.0
 10
9.6745579298
 20
7.2575956473
 30
0.0
 10
9.6655709122
 20
7.2774065641
 30
0.0
 10
9.6580084417
 20
7.2977242182
 30
0.0
 10
9.651910989
 20
7.3184403249
 30
0.0
 10
9.6473112446
 20
7.3394444529
 30
0.0
 10
9.6442339409
 20
7.3606246054
 30
0.0
 10
9.642695716
 20
7.3818678101
 30
0.0
 10
9.6427050145
 20
7.4030607088
 30
0.0
 10
9.6442620435
 20
7.424090178
 30
0.0
 10
9.6473587208
 20
7.4448438452
 30
0.0
 10
9.6519788514
 20
7.4652109932
 30
0.0
 10
9.6580976562
 20
7.4850820166
 30
0.0
 10
9.6644255047
 20
7.5011565328
 30
0.0
 10
9.6702000801
 20
7.5136569248
 30
0.0
 10
9.6764318511
 20
7.525885573
 30
0.0
 10
9.6850844285
 20
7.5406767166
 30
0.0
 10
9.6948498222
 20
7.5547344087
 30
0.0
 10
9.703288611
 20
7.5654797287
 30
0.0
 10
9.7121299057
 20
7.5758743676
 30
0.0
 10
9.7192133503
 20
7.5832744582
 30
0.0
 10
9.7241175664
 20
7.5880115928
 30
0.0
  0
SPLINE
  5
410
100
AcDbEntity
  8
0
100
AcDbSpline
 62
7
  6
CONTINUOUS
 70
0
 71
3
 72
36
 73
32
 74
0
 42
0.0000001
 43
0.0000001
 44
0.0000000001
 40
0.0
 40
0.0
 40
0.0
 40
0.0
 40
0.006259984
 40
0.0125612738
 40
0.0189442872
 40
0.0254477471
 40
0.0389501547
 40
0.0533352179
 40
0.0688096898
 40
0.085532558
 40
0.1036213848
 40
0.1231599935
 40
0.1442049468
 40
0.1667911313
 40
0.1909363301
 40
0.2166441638
 40
0.2439067412
 40
0.2727067265
 40
0.3030184202
 40
0.3348091299
 40
0.3680401348
 40
0.4026670631
 40
0.4386407692
 40
0.4759078052
 40
0.5144105721
 40
0.5540879802
 40
0.6367037094
 40
0.7232080311
 40
0.8130112221
 40
0.9054911422
 40
1.0
 40
1.0
 40
1.0
 40
1.0
 10
10.2625688389
 20
11.6915634775
 30
0.0
 10
10.2625688413
 20
11.692173943
 30
0.0
 10
10.2626206637
 20
11.6933995267
 30
0.0
 10
10.2628535801
 20
11.6952342413
 30
0.0
 10
10.2632415495
 20
11.6970669253
 30
0.0
 10
10.2639738176
 20
11.6995363708
 30
0.0
 10
10.2652987345
 20
11.7026315845
 30
0.0
 10
10.267482459
 20
11.7062654802
 30
0.0
 10
10.2702717637
 20
11.7098626003
 30
0.0
 10
10.2736593273
 20
11.7134181614
 30
0.0
 10
10.2776382533
 20
11.7169281367
 30
0.0
 10
10.2822012854
 20
11.7203875135
 30
0.0
 10
10.2873402932
 20
11.7237909251
 30
0.0
 10
10.2930460903
 20
11.7271326605
 30
0.0
 10
10.2993083978
 20
11.7304067585
 30
0.0
 10
10.3061157513
 20
11.7336072611
 30
0.0
 10
10.3134555692
 20
11.7367282279
 30
0.0
 10
10.3213141997
 20
11.7397637376
 30
0.0
 10
10.3296769133
 20
11.7427080584
 30
0.0
 10
10.3385279793
 20
11.7455555864
 30
0.0
 10
10.3478507078
 20
11.7483008458
 30
0.0
 10
10.357627461
 20
11.7509386138
 30
0.0
 10
10.3678397223
 20
11.7534638412
 30
0.0
 10
10.3784681258
 20
11.7558716515
 30
0.0
 10
10.3894925095
 20
11.758157506
 30
0.0
 10
10.4048997721
 20
11.7610760571
 30
0.0
 10
10.4249965925
 20
11.7643717701
 30
0.0
 10
10.4500257135
 20
11.7677270748
 30
0.0
 10
10.4760926343
 20
11.7705079458
 30
0.0
 10
10.5029990458
 20
11.7726928794
 30
0.0
 10
10.5212063064
 20
11.7737321217
 30
0.0
 10
10.5304131423
 20
11.7741514723
 30
0.0
  0
SPLINE
  5
411
100
AcDbEntity
  8
0
100
AcDbSpline
 62
7
  6
CONTINUOUS
 70
0
 71
3
 72
11
 73
7
 74
0
 42
0.0000001
 43
0.0000001
 44
0.0000000001
 40
0.0
 40
0.0
 40
0.0
 40
0.0
 40
0.2480743232
 40
0.4973963474
 40
0.7480249474
 40
1.0
 40
1.0
 40
1.0
 40
1.0
 10
10.10783309
 20
8.5288188946
 30
0.0
 10
10.1010163038
 20
8.5271150571
 30
0.0
 10
10.0872044715
 20
8.5242489855
 30
0.0
 10
10.0661618505
 20
8.5216024537
 30
0.0
 10
10.0448664602
 20
8.5206095557
 30
0.0
 10
10.0306207953
 20
8.5210501144
 30
0.0
 10
10.0235009602
 20
8.521544517
 30
0.0
  0
SPLINE
  5
412
100
AcDbEntity
  8
0
100
AcDbSpline
 62
7
  6
CONTINUOUS
 70
0
 71
3
 72
29
 73
25
 74
0
 42
0.0000001
 43
0.0000001
 44
0.0000000001
 40
0.0
 40
0.0
 40
0.0
 40
0.0
 40
0.0246523437
 40
0.0485912953
 40
0.0719359159
 40
0.0947932438
 40
0.1172611996
 40
0.1394300618
 40
0.1831855048
 40
0.2267075071
 40
0.2705901963
 40
0.3154303744
 40
0.3618690209
 40
0.4106464449
 40
0.4626867991
 40
0.4903116666
 40
0.5192604399
 40
0.5821900204
 40
0.6545584012
 40
0.6959082444
 40
0.7421199993
 40
0.7948578492
 40
0.8561906851
 40
1.0
 40
1.0
 40
1.0
 40
1.0
 10
10.988158664
 20
8.6106576316
 30
0.0
 10
10.9885680536
 20
8.611659237
 30
0.0
 10
10.9894369428
 20
8.6136088325
 30
0.0
 10
10.9909014106
 20
8.616408246
 30
0.0
 10
10.9924945238
 20
8.6190449161
 30
0.0
 10
10.994209108
 20
8.6215259843
 30
0.0
 10
10.9960373568
 20
8.6238593336
 30
0.0
 10
10.9986086173
 20
8.6267671265
 30
0.0
 10
11.0021013192
 20
8.6300822481
 30
0.0
 10
11.0067104865
 20
8.6335511403
 30
0.0
 10
11.0117156066
 20
8.6365134891
 30
0.0
 10
11.0171260648
 20
8.6389738096
 30
0.0
 10
11.0229679005
 20
8.6409227403
 30
0.0
 10
11.0292867271
 20
8.6423327446
 30
0.0
 10
11.0348949406
 20
8.6430006612
 30
0.0
 10
11.03965913
 20
8.6432134001
 30
0.0
 10
11.0449063384
 20
8.6431827334
 30
0.0
 10
11.0521033494
 20
8.642572605
 30
0.0
 10
11.0597311874
 20
8.641091885
 30
0.0
 10
11.0664898107
 20
8.6391826167
 30
0.0
 10
11.0723042485
 20
8.6371414052
 30
0.0
 10
11.0787738209
 20
8.6343603622
 30
0.0
 10
11.0888043382
 20
8.6291006133
 30
0.0
 10
11.0961967813
 20
8.6238274337
 30
0.0
 10
11.1009473339
 20
8.6196711581
 30
0.0
  0
SPLINE
  5
413
100
AcDbEntity
  8
0
100
AcDbSpline
 62
7
  6
CONTINUOUS
 70
0
 71
3
 72
15
 73
11
 74
0
 42
0.0000001
 43
0.0000001
 44
0.0000000001
 40
0.0
 40
0.0
 40
0.0
 40
0.0
 40
0.1233171386
 40
0.246817198
 40
0.3706750014
 40
0.495049553
 40
0.6200773956
 40
0.7458666717
 40
0.872493995
 40
1.0
 40
1.0
 40
1.0
 40
1.0
 10
11.6658790908
 20
7.2101543627
 30
0.0
 10
11.6644788113
 20
7.208801781
 30
0.0
 10
11.6615279948
 20
7.2062433509
 30
0.0
 10
11.6567119455
 20
7.2029001845
 30
0.0
 10
11.6515513758
 20
7.2000819403
 30
0.0
 10
11.646099112
 20
7.1978175718
 30
0.0
 10
11.6404101571
 20
7.1961295805
 30
0.0
 10
11.6345417905
 20
7.1950348102
 30
0.0
 10
11.6285539561
 20
7.1945439878
 30
0.0
 10
11.6245346254
 20
7.1946223755
 30
0.0
 10
11.6225264583
 20
7.1947616423
 30
0.0
  0
SPLINE
  5
414
100
AcDbEntity
  8
0
100
AcDbSpline
 62
7
  6
CONTINUOUS
 70
0
 71
3
 72
15
 73
11
 74
0
 42
0.0000001
 43
0.0000001
 44
0.0000000001
 40
0.0
 40
0.0
 40
0.0
 40
0.0
 40
0.1233171386
 40
0.246817198
 40
0.3706750014
 40
0.495049553
 40
0.6200773956
 40
0.7458666717
 40
0.872493995
 40
1.0
 40
1.0
 40
1.0
 40
1.0
 10
9.5408421471
 20
9.1325117101
 30
0.0
 10
9.5394418675
 20
9.1311591284
 30
0.0
 10
9.536491051
 20
9.1286006982
 30
0.0
 10
9.5316750018
 20
9.1252575318
 30
0.0
 10
9.526514432
 20
9.1224392877
 30
0.0
 10
9.5210621682
 20
9.1201749191
 30
0.0
 10
9.5153732134
 20
9.1184869279
 30
0.0
 10
9.5095048467
 20
9.1173921575
 30
0.0
 10
9.5035170123
 20
9.1169013351
 30
0.0
 10
9.4994976817
 20
9.1169797228
 30
0.0
 10
9.4974895146
 20
9.1171189897
 30
0.0
  0
SPLINE
  5
415
100
AcDbEntity
  8
0
100
AcDbSpline
 62
7
  6
CONTINUOUS
 70
0
 71
3
 72
23
 73
19
 74
0
 42
0.0000001
 43
0.0000001
 44
0.0000000001
 40
0.0
 40
0.0
 40
0.0
 40
0.0
 40
0.0602562002
 40
0.1209440311
 40
0.1821087275
 40
0.2437697455
 40
0.3059215763
 40
0.3685345952
 40
0.4315560144
 40
0.4949110926
 40
0.5585046632
 40
0.6222233962
 40
0.6859400405
 40
0.7495194076
 40
0.8128264233
 40
0.8757371668
 40
0.9381497117
 40
1.0
 40
1.0
 40
1.0
 40
1.0
 10
11.2693535296
 20
9.3390593139
 30
0.0
 10
11.2664689312
 20
9.3379524225
 30
0.0
 10
11.2605319414
 20
9.336095755
 30
0.0
 10
11.2513239689
 20
9.3344185969
 30
0.0
 10
11.241909028
 20
9.3338494273
 30
0.0
 10
11.2324182781
 20
9.3343901224
 30
0.0
 10
11.2229799406
 20
9.3360319569
 30
0.0
 10
11.2137230179
 20
9.3387567277
 30
0.0
 10
11.2047771404
 20
9.3425358619
 30
0.0
 10
11.1962731073
 20
9.3473292675
 30
0.0
 10
11.1883425756
 20
9.3530835445
 30
0.0
 10
11.1811169169
 20
9.3597298563
 30
0.0
 10
11.1747251289
 20
9.3671819308
 30
0.0
 10
11.1692905657
 20
9.3753344214
 30
0.0
 10
11.1649261733
 20
9.3840616472
 30
0.0
 10
11.1617293808
 20
9.3932194041
 30
0.0
 10
11.1597759049
 20
9.4026435439
 30
0.0
 10
11.1593330467
 20
9.4090233789
 30
0.0
 10
11.1593330467
 20
9.4121947959
 30
0.0
  0
SPLINE
  5
416
100
AcDbEntity
  8
0
100
AcDbSpline
 62
7
  6
CONTINUOUS
 70
0
 71
3
 72
37
 73
33
 74
0
 42
0.0000001
 43
0.0000001
 44
0.0000000001
 40
0.0
 40
0.0
 40
0.0
 40
0.0
 40
0.0958326678
 40
0.1891026419
 40
0.2792434878
 40
0.365712788
 40
0.4074114725
 40
0.4480045247
 40
0.4874346233
 40
0.5256472163
 40
0.562590989
 40
0.5982181626
 40
0.6324846192
 40
0.6653505657
 40
0.6967809129
 40
0.7267456733
 40
0.7552209748
 40
0.7821897439
 40
0.807642717
 40
0.8315801823
 40
0.8540135464
 40
0.8749677215
 40
0.8944844925
 40
0.9126261686
 40
0.9294805817
 40
0.9451669769
 40
0.9598416397
 40
0.9737025851
 40
0.9804060707
 40
0.9869995501
 40
0.9935185641
 40
1.0
 40
1.0
 40
1.0
 40
1.0
 10
9.7179425342
 20
10.215688546
 30
0.0
 10
9.7062321885
 20
10.2165006612
 30
0.0
 10
9.6831415436
 20
10.2183607357
 30
0.0
 10
9.6491187244
 20
10.2219113447
 30
0.0
 10
9.6163326631
 20
10.2261663668
 30
0.0
 10
9.5899133014
 20
10.2303236731
 30
0.0
 10
9.5695698992
 20
10.2339954999
 30
0.0
 10
9.5549399351
 20
10.2368730881
 30
0.0
 10
9.5407770537
 20
10.2399027478
 30
0.0
 10
9.5271048742
 20
10.2430794551
 30
0.0
 10
9.513946206
 20
10.2463978552
 30
0.0
 10
9.5013229718
 20
10.2498523423
 30
0.0
 10
9.4892561942
 20
10.2534371439
 30
0.0
 10
9.4777659305
 20
10.2571462254
 30
0.0
 10
9.4668712394
 20
10.2609733398
 30
0.0
 10
9.456590165
 20
10.2649121218
 30
0.0
 10
9.4469396572
 20
10.2689559736
 30
0.0
 10
9.4379355527
 20
10.2730981691
 30
0.0
 10
9.429592565
 20
10.2773319433
 30
0.0
 10
9.4219241838
 20
10.2816503903
 30
0.0
 10
9.4149426964
 20
10.2860466525
 30
0.0
 10
9.4086592102
 20
10.2905140365
 30
0.0
 10
9.4030835926
 20
10.2950459746
 30
0.0
 10
9.3982246877
 20
10.2996363804
 30
0.0
 10
9.3940906158
 20
10.304279607
 30
0.0
 10
9.3906890563
 20
10.308970773
 30
0.0
 10
9.3880282686
 20
10.3137040322
 30
0.0
 10
9.3864178305
 20
10.3177252544
 30
0.0
 10
9.385526809
 20
10.3209330158
 30
0.0
 10
9.3850542281
 20
10.3233163196
 30
0.0
 10
9.3847705976
 20
10.32570187
 30
0.0
 10
9.3847074817
 20
10.3272949991
 30
0.0
 10
9.3847074873
 20
10.3280889054
 30
0.0
  0
SPLINE
  5
417
100
AcDbEntity
  8
0
100
AcDbSpline
 62
7
  6
CONTINUOUS
 70
0
 71
3
 72
39
 73
35
 74
0
 42
0.0000001
 43
0.0000001
 44
0.0000000001
 40
0.0
 40
0.0
 40
0.0
 40
0.0
 40
0.0306971535
 40
0.061223975
 40
0.0916063236
 40
0.1218750947
 40
0.1520652026
 40
0.1822140019
 40
0.212359776
 40
0.2425402359
 40
0.2727911464
 40
0.3031451256
 40
0.3336306543
 40
0.3642713083
 40
0.3950852088
 40
0.4260846761
 40
0.4572760619
 40
0.4886597369
 40
0.5202302103
 40
0.5519763644
 40
0.5838817916
 40
0.6159252291
 40
0.6480810909
 40
0.6803201007
 40
0.7126100333
 40
0.7449165672
 40
0.7772042511
 40
0.8094375782
 40
0.8415821428
 40
0.8736058851
 40
0.9054802486
 40
0.9371816327
 40
0.9686917409
 40
1.0
 40
1.0
 40
1.0
 40
1.0
 10
10.07737187
 20
9.1186628445
 30
0.0
 10
10.0767859824
 20
9.1157692653
 30
0.0
 10
10.0753353279
 20
9.1100510153
 30
0.0
 10
10.0723339504
 20
9.1017531974
 30
0.0
 10
10.0685428162
 20
9.0938297912
 30
0.0
 10
10.0639993022
 20
9.0863506085
 30
0.0
 10
10.0587472456
 20
9.0793788715
 30
0.0
 10
10.0528364089
 20
9.0729724177
 30
0.0
 10
10.0463215948
 20
9.0671828798
 30
0.0
 10
10.0392618464
 20
9.0620556072
 30
0.0
 10
10.0317196729
 20
9.0576295597
 30
0.0
 10
10.0237603475
 20
9.0539373492
 30
0.0
 10
10.0154512862
 20
9.0510053426
 30
0.0
 10
10.0068615154
 20
9.0488538109
 30
0.0
 10
9.9980612228
 20
9.0474970923
 30
0.0
 10
9.9891213823
 20
9.0469437473
 30
0.0
 10
9.9801134372
 20
9.0471966887
 30
0.0
 10
9.9711090235
 20
9.048253274
 30
0.0
 10
9.9621797132
 20
9.0501053548
 30
0.0
 10
9.9533967582
 20
9.0527392833
 30
0.0
 10
9.9448308139
 20
9.0561358794
 30
0.0
 10
9.9365516259
 20
9.0602703688
 30
0.0
 10
9.9286276621
 20
9.065112305
 30
0.0
 10
9.9211256786
 20
9.0706254946
 30
0.0
 10
9.9141102107
 20
9.0767679451
 30
0.0
 10
9.9076429855
 20
9.0834918621
 30
0.0
 10
9.9017822601
 20
9.0907437183
 30
0.0
 10
9.896582098
 20
9.0984644255
 30
0.0
 10
9.8920915943
 20
9.1065896144
 30
0.0
 10
9.8883541068
 20
9.1150500999
 30
0.0
 10
9.8854064426
 20
9.1237723359
 30
0.0
 10
9.8832782402
 20
9.1326795933
 30
0.0
 10
9.8819911752
 20
9.1416911274
 30
0.0
 10
9.8817019321
 20
9.1477364718
 30
0.0
 10
9.8817019321
 20
9.1507475431
 30
0.0
  0
SPLINE
  5
418
100
AcDbEntity
  8
0
100
AcDbSpline
 62
7
  6
CONTINUOUS
 70
0
 71
3
 72
24
 73
20
 74
0
 42
0.0000001
 43
0.0000001
 44
0.0000000001
 40
0.0
 40
0.0
 40
0.0
 40
0.0
 40
0.030606071
 40
0.0612862994
 40
0.1228537179
 40
0.1847195377
 40
0.2468710572
 40
0.3092849132
 40
0.3719280554
 40
0.4347590842
 40
0.4977298141
 40
0.5607870503
 40
0.6238745219
 40
0.6869348769
 40
0.749911727
 40
0.8127516762
 40
0.8754062271
 40
0.9378330796
 40
1.0
 40
1.0
 40
1.0
 40
1.0
 10
11.4777897881
 20
8.7322251911
 30
0.0
 10
11.4732692025
 20
8.730773936
 30
0.0
 10
11.4641430852
 20
8.7280922361
 30
0.0
 10
11.4456095756
 20
8.7236266687
 30
0.0
 10
11.4219766808
 20
8.7197483526
 30
0.0
 10
11.3932051618
 20
8.7178661391
 30
0.0
 10
11.3642539087
 20
8.7187650693
 30
0.0
 10
11.3354017387
 20
8.7224365125
 30
0.0
 10
11.3069239351
 20
8.7288445019
 30
0.0
 10
11.2790927852
 20
8.7379275064
 30
0.0
 10
11.252174095
 20
8.7495982641
 30
0.0
 10
11.2264249936
 20
8.763745059
 30
0.0
 10
11.2020914731
 20
8.7802326714
 30
0.0
 10
11.179405946
 20
8.7989034536
 30
0.0
 10
11.1585853081
 20
8.8195792954
 30
0.0
 10
11.1398286721
 20
8.8420624665
 30
0.0
 10
11.1233153319
 20
8.8661392227
 30
0.0
 10
11.1092046474
 20
8.8915764213
 30
0.0
 10
11.1014693602
 20
8.9093271713
 30
0.0
 10
11.0980477772
 20
8.9183435388
 30
0.0
  0
SPLINE
  5
419
100
AcDbEntity
  8
0
100
AcDbSpline
 62
7
  6
CONTINUOUS
 70
0
 71
3
 72
41
 73
37
 74
0
 42
0.0000001
 43
0.0000001
 44
0.0000000001
 40
0.0
 40
0.0
 40
0.0
 40
0.0
 40
0.0300821838
 40
0.0601249671
 40
0.0901567991
 40
0.1202063643
 40
0.1503017658
 40
0.1804697363
 40
0.2107349063
 40
0.2411191538
 40
0.2716410518
 40
0.3023154266
 40
0.3331530337
 40
0.364160354
 40
0.3953395064
 40
0.4266882698
 40
0.4582002074
 40
0.4898648832
 40
0.5216681597
 40
0.553592572
 40
0.585617763
 40
0.6177209711
 40
0.6498775633
 40
0.6820616028
 40
0.714246446
 40
0.7303336303
 40
0.7464110257
 40
0.7785178075
 40
0.8105474125
 40
0.8265288131
 40
0.8424823765
 40
0.8742901382
 40
0.90595846
 40
0.937472814
 40
0.9688219725
 40
1.0
 40
1.0
 40
1.0
 40
1.0
 10
11.4315802707
 20
8.5595729105
 30
0.0
 10
11.4273515123
 20
8.5533657381
 30
0.0
 10
11.4183631142
 20
8.5413152358
 30
0.0
 10
11.4033867734
 20
8.5244749811
 30
0.0
 10
11.3870231865
 20
8.5089886573
 30
0.0
 10
11.369380447
 20
8.4949567479
 30
0.0
 10
11.3505731006
 20
8.482467741
 30
0.0
 10
11.3307232577
 20
8.4716005309
 30
0.0
 10
11.3099592141
 20
8.4624232419
 30
0.0
 10
11.2884147302
 20
8.454993103
 30
0.0
 10
11.2662281218
 20
8.4493561373
 30
0.0
 10
11.243541402
 20
8.4455469913
 30
0.0
 10
11.2204994143
 20
8.4435887769
 30
0.0
 10
11.1972489628
 20
8.4434930368
 30
0.0
 10
11.1739379595
 20
8.4452597323
 30
0.0
 10
11.1507145768
 20
8.4488772789
 30
0.0
 10
11.1277264044
 20
8.4543226314
 30
0.0
 10
11.1051196105
 20
8.4615614091
 30
0.0
 10
11.0830380902
 20
8.4705480517
 30
0.0
 10
11.0616226388
 20
8.4812260733
 30
0.0
 10
11.0410101016
 20
8.4935283627
 30
0.0
 10
11.0213326032
 20
8.5073774432
 30
0.0
 10
11.0027165044
 20
8.5226861635
 30
0.0
 10
10.9852824188
 20
8.5393570597
 30
0.0
 10
10.9718287601
 20
8.5543016401
 30
0.0
 10
10.9617652376
 20
8.5668299725
 30
0.0
 10
10.9521905016
 20
8.5797115108
 30
0.0
 10
10.9411567064
 20
8.5964493579
 30
0.0
 10
10.9314298124
 20
8.6139518849
 30
0.0
 10
10.9244795367
 20
8.6283343002
 30
0.0
 10
10.9181052217
 20
8.6429205315
 30
0.0
 10
10.9112126207
 20
8.6615384588
 30
0.0
 10
10.9047149054
 20
8.6843718585
 30
0.0
 10
10.9000404817
 20
8.7075317388
 30
0.0
 10
10.8972209036
 20
8.7308651356
 30
0.0
 10
10.8965887993
 20
8.7464836506
 30
0.0
 10
10.8965887993
 20
8.7542680062
 30
0.0
  0
SPLINE
  5
41A
100
AcDbEntity
  8
0
100
AcDbSpline
 62
7
  6
CONTINUOUS
 70
0
 71
3
 72
39
 73
35
 74
0
 42
0.0000001
 43
0.0000001
 44
0.0000000001
 40
0.0
 40
0.0
 40
0.0
 40
0.0
 40
0.0306969548
 40
0.0612237258
 40
0.0916059962
 40
0.1218747158
 40
0.1520647849
 40
0.1822135699
 40
0.2123593441
 40
0.2425398187
 40
0.2727907638
 40
0.3031447909
 40
0.333630377
 40
0.3642711
 40
0.3950850771
 40
0.4260846254
 40
0.4572760945
 40
0.4886598506
 40
0.5202304022
 40
0.551976631
 40
0.5838821213
 40
0.6159256093
 40
0.6480815148
 40
0.6803205521
 40
0.7126104928
 40
0.7449170252
 40
0.7772046922
 40
0.8094379825
 40
0.8415825039
 40
0.8736061793
 40
0.9054805043
 40
0.9371817615
 40
0.9686917351
 40
1.0
 40
1.0
 40
1.0
 40
1.0
 10
10.1992638499
 20
8.2687070305
 30
0.0
 10
10.1976514623
 20
8.2607440081
 30
0.0
 10
10.1936588414
 20
8.2450076504
 30
0.0
 10
10.1853987878
 20
8.2221724068
 30
0.0
 10
10.1749652941
 20
8.2003675403
 30
0.0
 10
10.1624613115
 20
8.1797851904
 30
0.0
 10
10.1480074317
 20
8.1605993489
 30
0.0
 10
10.131740669
 20
8.1429691314
 30
0.0
 10
10.113811777
 20
8.1270366741
 30
0.0
 10
10.0943832485
 20
8.1129267797
 30
0.0
 10
10.073627138
 20
8.1007466139
 30
0.0
 10
10.0517230487
 20
8.0905859557
 30
0.0
 10
10.0288565018
 20
8.0825173953
 30
0.0
 10
10.0052174762
 20
8.0765966629
 30
0.0
 10
9.980999118
 20
8.0728632232
 30
0.0
 10
9.9563967421
 20
8.0713406852
 30
0.0
 10
9.9316069668
 20
8.0720370234
 30
0.0
 10
9.906826928
 20
8.0749449452
 30
0.0
 10
9.8822535934
 20
8.0800420629
 30
0.0
 10
9.858083054
 20
8.0872908231
 30
0.0
 10
9.8345097397
 20
8.0966383954
 30
0.0
 10
9.8117255865
 20
8.1080166121
 30
0.0
 10
9.7899190416
 20
8.1213417265
 30
0.0
 10
9.76927379
 20
8.136514083
 30
0.0
 10
9.7499674156
 20
8.153418111
 30
0.0
 10
9.7321698331
 20
8.17192233
 30
0.0
 10
9.716041334
 20
8.191879398
 30
0.0
 10
9.7017306602
 20
8.2131266866
 30
0.0
 10
9.6893729954
 20
8.2354871013
 30
0.0
 10
9.6790875917
 20
8.2587702198
 30
0.0
 10
9.670975744
 20
8.2827736318
 30
0.0
 10
9.665119043
 20
8.3072861959
 30
0.0
 10
9.6615771058
 20
8.3320857277
 30
0.0
 10
9.6607811079
 20
8.3487223823
 30
0.0
 10
9.6607811079
 20
8.3570088031
 30
0.0
  0
SPLINE
  5
41B
100
AcDbEntity
  8
0
100
AcDbSpline
 62
7
  6
CONTINUOUS
 70
0
 71
3
 72
36
 73
32
 74
0
 42
0.0000001
 43
0.0000001
 44
0.0000000001
 40
0.0
 40
0.0
 40
0.0
 40
0.0
 40
0.0071758434
 40
0.0146742082
 40
0.0225037352
 40
0.0306715925
 40
0.0391837232
 40
0.0480447401
 40
0.0668226091
 40
0.0870187529
 40
0.1086301673
 40
0.1316419642
 40
0.1560294877
 40
0.1817598645
 40
0.2087931382
 40
0.2370831371
 40
0.2665782409
 40
0.2972219948
 40
0.3289536072
 40
0.3617083568
 40
0.3954179672
 40
0.4300109955
 40
0.4654131529
 40
0.501547598
 40
0.5383352008
 40
0.6135419395
 40
0.6903673395
 40
0.7681243187
 40
0.8461149258
 40
0.9236382629
 40
1.0
 40
1.0
 40
1.0
 40
1.0
 10
11.9593444246
 20
10.1807166473
 30
0.0
 10
11.958371253
 20
10.1797766356
 30
0.0
 10
11.9563327718
 20
10.1779039692
 30
0.0
 10
11.9530816039
 20
10.1751755019
 30
0.0
 10
11.9495730374
 20
10.1724686641
 30
0.0
 10
11.9458093552
 20
10.1697852462
 30
0.0
 10
11.9417927799
 20
10.1671266417
 30
0.0
 10
11.935990418
 20
10.1635476742
 30
0.0
 10
11.9281040518
 20
10.1591605191
 30
0.0
 10
11.9178496842
 20
10.1541170139
 30
0.0
 10
11.9066527146
 20
10.1492090291
 30
0.0
 10
11.8945396646
 20
10.1444482593
 30
0.0
 10
11.8815389589
 20
10.1398460809
 30
0.0
 10
11.8676814456
 20
10.1354135955
 30
0.0
 10
11.8530001048
 20
10.1311615358
 30
0.0
 10
11.8375300121
 20
10.1271002009
 30
0.0
 10
11.8213082056
 20
10.1232394407
 30
0.0
 10
11.804373577
 20
10.119588626
 30
0.0
 10
11.7867667671
 20
10.1161566237
 30
0.0
 10
11.7685300708
 20
10.1129517658
 30
0.0
 10
11.7497073296
 20
10.1099818191
 30
0.0
 10
11.7303438088
 20
10.1072539833
 30
0.0
 10
11.7104860961
 20
10.1047748844
 30
0.0
 10
11.6901819318
 20
10.1025504984
 30
0.0
 10
11.6623758412
 20
10.0999123121
 30
0.0
 10
11.6268643204
 20
10.0973004642
 30
0.0
 10
11.5835796255
 20
10.0952713612
 30
0.0
 10
11.5397322622
 20
10.094345035
 30
0.0
 10
11.495743914
 20
10.0945304952
 30
0.0
 10
11.452037689
 20
10.0958259435
 30
0.0
 10
11.4230629497
 20
10.0974380435
 30
0.0
 10
11.4086992007
 20
10.0984341729
 30
0.0
  0
SPLINE
  5
41C
100
AcDbEntity
  8
0
100
AcDbSpline
 62
7
  6
CONTINUOUS
 70
0
 71
3
 72
16
 73
12
 74
0
 42
0.0000001
 43
0.0000001
 44
0.0000000001
 40
0.0
 40
0.0
 40
0.0
 40
0.0
 40
0.1098863086
 40
0.2213923943
 40
0.3360630643
 40
0.4553052827
 40
0.5170530083
 40
0.5803913453
 40
0.71230135
 40
0.8519445899
 40
1.0
 40
1.0
 40
1.0
 40
1.0
 10
12.6152925127
 20
10.8296331673
 30
0.0
 10
12.6152925039
 20
10.8283615348
 30
0.0
 10
12.6151291276
 20
10.8257966606
 30
0.0
 10
12.6143969083
 20
10.8219676913
 30
0.0
 10
12.613179354
 20
10.8181509422
 30
0.0
 10
12.611779412
 20
10.8150213808
 30
0.0
 10
12.610432308
 20
10.8125344533
 30
0.0
 10
12.6088898237
 20
10.8099904674
 30
0.0
 10
12.6066501017
 20
10.8068210039
 30
0.0
 10
12.6035275266
 20
10.803096432
 30
0.0
 10
12.6012051205
 20
10.800706507
 30
0.0
 10
12.5999727964
 20
10.7995161733
 30
0.0
  0
SPLINE
  5
41D
100
AcDbEntity
  8
0
100
AcDbSpline
 62
7
  6
CONTINUOUS
 70
0
 71
3
 72
16
 73
12
 74
0
 42
0.0000001
 43
0.0000001
 44
0.0000000001
 40
0.0
 40
0.0
 40
0.0
 40
0.0
 40
0.1098864251
 40
0.2213925505
 40
0.3360632443
 40
0.4553048854
 40
0.5170524264
 40
0.5803907344
 40
0.7123015689
 40
0.8519456354
 40
1.0
 40
1.0
 40
1.0
 40
1.0
 10
12.6152925191
 20
11.8929247834
 30
0.0
 10
12.6152925203
 20
11.8916531333
 30
0.0
 10
12.61512917
 20
11.8890882239
 30
0.0
 10
12.6143970039
 20
11.8852591901
 30
0.0
 10
12.6131794464
 20
11.8814423945
 30
0.0
 10
12.6117795367
 20
11.8783127802
 30
0.0
 10
12.6104324221
 20
11.8758258273
 30
0.0
 10
12.6088899311
 20
11.8732817929
 30
0.0
 10
12.606650175
 20
11.8701122687
 30
0.0
 10
12.6035275551
 20
11.8663876445
 30
0.0
 10
12.6012051275
 20
11.8639976844
 30
0.0
 10
12.5999727964
 20
11.8628073438
 30
0.0
  0
SPLINE
  5
41E
100
AcDbEntity
  8
0
100
AcDbSpline
 62
7
  6
CONTINUOUS
 70
0
 71
3
 72
41
 73
37
 74
0
 42
0.0000001
 43
0.0000001
 44
0.0000000001
 40
0.0
 40
0.0
 40
0.0
 40
0.0
 40
0.0300821838
 40
0.0601249671
 40
0.0901567991
 40
0.1202063643
 40
0.1503017658
 40
0.1804697363
 40
0.2107349063
 40
0.2411191538
 40
0.2716410518
 40
0.3023154266
 40
0.3331530337
 40
0.364160354
 40
0.3953395064
 40
0.4266882698
 40
0.4582002074
 40
0.4898648832
 40
0.5216681597
 40
0.553592572
 40
0.585617763
 40
0.6177209711
 40
0.6498775633
 40
0.6820616028
 40
0.714246446
 40
0.7303336303
 40
0.7464110257
 40
0.7785178075
 40
0.8105474125
 40
0.8265288131
 40
0.8424823765
 40
0.8742901382
 40
0.90595846
 40
0.937472814
 40
0.9688219725
 40
1.0
 40
1.0
 40
1.0
 40
1.0
 10
11.4315802707
 20
7.5936472112
 30
0.0
 10
11.4273515123
 20
7.5874400388
 30
0.0
 10
11.4183631142
 20
7.5753895365
 30
0.0
 10
11.4033867734
 20
7.5585492818
 30
0.0
 10
11.3870231865
 20
7.543062958
 30
0.0
 10
11.369380447
 20
7.5290310487
 30
0.0
 10
11.3505731006
 20
7.5165420418
 30
0.0
 10
11.3307232577
 20
7.5056748316
 30
0.0
 10
11.3099592141
 20
7.4964975426
 30
0.0
 10
11.2884147302
 20
7.4890674037
 30
0.0
 10
11.2662281218
 20
7.483430438
 30
0.0
 10
11.243541402
 20
7.479621292
 30
0.0
 10
11.2204994143
 20
7.4776630776
 30
0.0
 10
11.1972489628
 20
7.4775673375
 30
0.0
 10
11.1739379595
 20
7.479334033
 30
0.0
 10
11.1507145768
 20
7.4829515797
 30
0.0
 10
11.1277264044
 20
7.4883969321
 30
0.0
 10
11.1051196105
 20
7.4956357098
 30
0.0
 10
11.0830380902
 20
7.5046223524
 30
0.0
 10
11.0616226388
 20
7.515300374
 30
0.0
 10
11.0410101016
 20
7.5276026634
 30
0.0
 10
11.0213326032
 20
7.5414517439
 30
0.0
 10
11.0027165044
 20
7.5567604642
 30
0.0
 10
10.9852824188
 20
7.5734313604
 30
0.0
 10
10.9718287601
 20
7.5883759409
 30
0.0
 10
10.9617652376
 20
7.6009042732
 30
0.0
 10
10.9521905016
 20
7.6137858115
 30
0.0
 10
10.9411567064
 20
7.6305236586
 30
0.0
 10
10.9314298124
 20
7.6480261856
 30
0.0
 10
10.9244795367
 20
7.6624086009
 30
0.0
 10
10.9181052217
 20
7.6769948322
 30
0.0
 10
10.9112126207
 20
7.6956127595
 30
0.0
 10
10.9047149054
 20
7.7184461592
 30
0.0
 10
10.9000404817
 20
7.7416060395
 30
0.0
 10
10.8972209036
 20
7.7649394363
 30
0.0
 10
10.8965887993
 20
7.7805579513
 30
0.0
 10
10.8965887993
 20
7.7883423069
 30
0.0
  0
SPLINE
  5
41F
100
AcDbEntity
  8
0
100
AcDbSpline
 62
7
  6
CONTINUOUS
 70
0
 71
3
 72
23
 73
19
 74
0
 42
0.0000001
 43
0.0000001
 44
0.0000000001
 40
0.0
 40
0.0
 40
0.0
 40
0.0
 40
0.0749618611
 40
0.1455678041
 40
0.2121589218
 40
0.2751620139
 40
0.3350968437
 40
0.3925819213
 40
0.4483281136
 40
0.5031224735
 40
0.5577971527
 40
0.6131904492
 40
0.6701060365
 40
0.7292779135
 40
0.7913516063
 40
0.8568774527
 40
0.9263095509
 40
1.0
 40
1.0
 40
1.0
 40
1.0
 10
12.5749593671
 20
11.9463392898
 30
0.0
 10
12.5761860072
 20
11.9451977633
 30
0.0
 10
12.5784999611
 20
11.9429059293
 30
0.0
 10
12.581622282
 20
11.9393304395
 30
0.0
 10
12.5842847112
 20
11.9357265501
 30
0.0
 10
12.5864834609
 20
11.9320975397
 30
0.0
 10
12.5882146703
 20
11.9284464883
 30
0.0
 10
12.5894746583
 20
11.9247772382
 30
0.0
 10
12.5902596618
 20
11.9210944296
 30
0.0
 10
12.5905671165
 20
11.9174039501
 30
0.0
 10
12.5903956001
 20
11.9137124855
 30
0.0
 10
12.5897460024
 20
11.9100268475
 30
0.0
 10
12.5886204955
 20
11.9063532315
 30
0.0
 10
12.5870227525
 20
11.9026966024
 30
0.0
 10
12.5849563811
 20
11.8990610005
 30
0.0
 10
12.5824251829
 20
11.8954495714
 30
0.0
 10
12.5794330388
 20
11.8918657949
 30
0.0
 10
12.5772025962
 20
11.8895679801
 30
0.0
 10
12.5760178344
 20
11.888423588
 30
0.0
  0
SPLINE
  5
420
100
AcDbEntity
  8
0
100
AcDbSpline
 62
7
  6
CONTINUOUS
 70
0
 71
3
 72
21
 73
17
 74
0
 42
0.0000001
 43
0.0000001
 44
0.0000000001
 40
0.0
 40
0.0
 40
0.0
 40
0.0
 40
0.0616532342
 40
0.1233294953
 40
0.1850515501
 40
0.2468416649
 40
0.3087213494
 40
0.3707111104
 40
0.4328302434
 40
0.4950966323
 40
0.5575265657
 40
0.6201345673
 40
0.682933156
 40
0.7459330948
 40
0.8725263949
 40
1.0
 40
1.0
 40
1.0
 40
1.0
 10
10.1409675347
 20
7.1564608063
 30
0.0
 10
10.1376009043
 20
7.1532088734
 30
0.0
 10
10.130690034
 20
7.1468835535
 30
0.0
 10
10.1198266299
 20
7.1379646665
 30
0.0
 10
10.1084915025
 20
7.1296352892
 30
0.0
 10
10.0967135965
 20
7.1219167701
 30
0.0
 10
10.0845224784
 20
7.1148284635
 30
0.0
 10
10.0719488928
 20
7.1083882554
 30
0.0
 10
10.0590245392
 20
7.1026122984
 30
0.0
 10
10.0457819916
 20
7.0975151126
 30
0.0
 10
10.0322545701
 20
7.0931095412
 30
0.0
 10
10.0184764633
 20
7.0894066535
 30
0.0
 10
10.0044819922
 20
7.0864156707
 30
0.0
 10
9.9855545629
 20
7.0833824127
 30
0.0
 10
9.9615197484
 20
7.0814117984
 30
0.0
 10
9.9421971993
 20
7.0817888823
 30
0.0
 10
9.9325425506
 20
7.0824584345
 30
0.0
  0
SPLINE
  5
421
100
AcDbEntity
  8
0
100
AcDbSpline
 62
7
  6
CONTINUOUS
 70
0
 71
3
 72
15
 73
11
 74
0
 42
0.0000001
 43
0.0000001
 44
0.0000000001
 40
0.0
 40
0.0
 40
0.0
 40
0.0
 40
0.1233171148
 40
0.2468171822
 40
0.3706750007
 40
0.4950496181
 40
0.6200773069
 40
0.7458672043
 40
0.8724928123
 40
1.0
 40
1.0
 40
1.0
 40
1.0
 10
11.7492978074
 20
8.1367401648
 30
0.0
 10
11.7467755477
 20
8.1343038766
 30
0.0
 10
11.7414603016
 20
8.1296956926
 30
0.0
 10
11.7327853682
 20
8.1236740122
 30
0.0
 10
11.7234898821
 20
8.1185978457
 30
0.0
 10
11.713669022
 20
8.1145193233
 30
0.0
 10
11.7034218386
 20
8.1114789335
 30
0.0
 10
11.6928515492
 20
8.1095071042
 30
0.0
 10
11.6820660531
 20
8.1086230039
 30
0.0
 10
11.6748263091
 20
8.1087642247
 30
0.0
 10
11.6712090948
 20
8.1090150794
 30
0.0
  0
SPLINE
  5
422
100
AcDbEntity
  8
0
100
AcDbSpline
 62
7
  6
CONTINUOUS
 70
0
 71
3
 72
15
 73
11
 74
0
 42
0.0000001
 43
0.0000001
 44
0.0000000001
 40
0.0
 40
0.0
 40
0.0
 40
0.0
 40
0.1233171152
 40
0.2468171801
 40
0.3706749982
 40
0.4950495769
 40
0.6200773723
 40
0.7458670578
 40
0.8724927841
 40
1.0
 40
1.0
 40
1.0
 40
1.0
 10
9.6147618581
 20
9.8163583952
 30
0.0
 10
9.6109739727
 20
9.812699609
 30
0.0
 10
9.6029916458
 20
9.8057790764
 30
0.0
 10
9.5899637729
 20
9.7967357942
 30
0.0
 10
9.5760039778
 20
9.789112449
 30
0.0
 10
9.5612551812
 20
9.7829873263
 30
0.0
 10
9.5458661241
 20
9.7784213123
 30
0.0
 10
9.5299918262
 20
9.7754600427
 30
0.0
 10
9.5137943358
 20
9.7741323188
 30
0.0
 10
9.5029217928
 20
9.7743443921
 30
0.0
 10
9.4974895146
 20
9.7747211219
 30
0.0
  0
SPLINE
  5
423
100
AcDbEntity
  8
0
100
AcDbSpline
 62
7
  6
CONTINUOUS
 70
0
 71
3
 72
15
 73
11
 74
0
 42
0.0000001
 43
0.0000001
 44
0.0000000001
 40
0.0
 40
0.0
 40
0.0
 40
0.0
 40
0.126954567
 40
0.2532785352
 40
0.3789934237
 40
0.5041314671
 40
0.6287387479
 40
0.7528725196
 40
0.8766006587
 40
1.0
 40
1.0
 40
1.0
 40
1.0
 10
10.8965887993
 20
7.7883423069
 30
0.0
 10
10.8965887993
 20
7.795268889
 30
0.0
 10
10.8970865779
 20
7.8090930093
 30
0.0
 10
10.8993359727
 20
7.8296657383
 30
0.0
 10
10.9030744203
 20
7.8499212243
 30
0.0
 10
10.9082823444
 20
7.8697527117
 30
0.0
 10
10.9149321703
 20
7.8890573485
 30
0.0
 10
10.9229890566
 20
7.9077351729
 30
0.0
 10
10.9324095936
 20
7.9256881284
 30
0.0
 10
10.9395760222
 20
7.9371274748
 30
0.0
 10
10.9433666661
 20
7.9426915619
 30
0.0
  0
SPLINE
  5
424
100
AcDbEntity
  8
0
100
AcDbSpline
 62
7
  6
CONTINUOUS
 70
0
 71
3
 72
15
 73
11
 74
0
 42
0.0000001
 43
0.0000001
 44
0.0000000001
 40
0.0
 40
0.0
 40
0.0
 40
0.0
 40
0.1233171148
 40
0.2468171822
 40
0.3706750007
 40
0.4950496181
 40
0.6200773069
 40
0.7458672043
 40
0.8724928123
 40
1.0
 40
1.0
 40
1.0
 40
1.0
 10
9.5268955676
 20
7.8079013418
 30
0.0
 10
9.5243733079
 20
7.8054650536
 30
0.0
 10
9.5190580617
 20
7.8008568696
 30
0.0
 10
9.5103831284
 20
7.7948351893
 30
0.0
 10
9.5010876422
 20
7.7897590227
 30
0.0
 10
9.4912667821
 20
7.7856805004
 30
0.0
 10
9.4810195987
 20
7.7826401105
 30
0.0
 10
9.4704493094
 20
7.7806682812
 30
0.0
 10
9.4596638133
 20
7.779784181
 30
0.0
 10
9.4524240693
 20
7.7799254018
 30
0.0
 10
9.448806855
 20
7.7801762564
 30
0.0
  0
SPLINE
  5
425
100
AcDbEntity
  8
0
100
AcDbSpline
 62
7
  6
CONTINUOUS
 70
0
 71
3
 72
15
 73
11
 74
0
 42
0.0000001
 43
0.0000001
 44
0.0000000001
 40
0.0
 40
0.0
 40
0.0
 40
0.0
 40
0.1233171152
 40
0.2468171801
 40
0.3706749982
 40
0.4950495769
 40
0.6200773723
 40
0.7458670578
 40
0.8724927841
 40
1.0
 40
1.0
 40
1.0
 40
1.0
 10
11.7397988018
 20
9.6689865826
 30
0.0
 10
11.7360109164
 20
9.6653277964
 30
0.0
 10
11.7280285895
 20
9.6584072638
 30
0.0
 10
11.7150007167
 20
9.6493639816
 30
0.0
 10
11.7010409215
 20
9.6417406364
 30
0.0
 10
11.6862921249
 20
9.6356155137
 30
0.0
 10
11.6709030678
 20
9.6310494997
 30
0.0
 10
11.6550287699
 20
9.6280882301
 30
0.0
 10
11.6388312796
 20
9.6267605062
 30
0.0
 10
11.6279587365
 20
9.6269725795
 30
0.0
 10
11.6225264583
 20
9.6273493093
 30
0.0
  0
SPLINE
  5
426
100
AcDbEntity
  8
0
100
AcDbSpline
 62
7
  6
CONTINUOUS
 70
0
 71
3
 72
15
 73
11
 74
0
 42
0.0000001
 43
0.0000001
 44
0.0000000001
 40
0.0
 40
0.0
 40
0.0
 40
0.0
 40
0.1233171152
 40
0.2468171801
 40
0.3706749982
 40
0.4950495769
 40
0.6200773723
 40
0.7458670578
 40
0.8724927841
 40
1.0
 40
1.0
 40
1.0
 40
1.0
 10
11.7397988018
 20
6.5780238474
 30
0.0
 10
11.7360109164
 20
6.5743650613
 30
0.0
 10
11.7280285895
 20
6.5674445287
 30
0.0
 10
11.7150007167
 20
6.5584012464
 30
0.0
 10
11.7010409215
 20
6.5507779013
 30
0.0
 10
11.6862921249
 20
6.5446527786
 30
0.0
 10
11.6709030678
 20
6.5400867645
 30
0.0
 10
11.6550287699
 20
6.5371254949
 30
0.0
 10
11.6388312796
 20
6.5357977711
 30
0.0
 10
11.6279587365
 20
6.5360098444
 30
0.0
 10
11.6225264583
 20
6.5363865741
 30
0.0
  0
SPLINE
  5
427
100
AcDbEntity
  8
0
100
AcDbSpline
 62
7
  6
CONTINUOUS
 70
0
 71
3
 72
15
 73
11
 74
0
 42
0.0000001
 43
0.0000001
 44
0.0000000001
 40
0.0
 40
0.0
 40
0.0
 40
0.0
 40
0.1233171152
 40
0.2468171801
 40
0.3706749982
 40
0.4950495769
 40
0.6200773723
 40
0.7458670578
 40
0.8724927841
 40
1.0
 40
1.0
 40
1.0
 40
1.0
 10
9.6147618581
 20
6.72539566
 30
0.0
 10
9.6109739727
 20
6.7217368739
 30
0.0
 10
9.6029916458
 20
6.7148163413
 30
0.0
 10
9.5899637729
 20
6.705773059
 30
0.0
 10
9.5760039778
 20
6.6981497139
 30
0.0
 10
9.5612551812
 20
6.6920245912
 30
0.0
 10
9.5458661241
 20
6.6874585771
 30
0.0
 10
9.5299918262
 20
6.6844973075
 30
0.0
 10
9.5137943358
 20
6.6831695837
 30
0.0
 10
9.5029217928
 20
6.6833816569
 30
0.0
 10
9.4974895146
 20
6.6837583867
 30
0.0
  0
SPLINE
  5
428
100
AcDbEntity
  8
0
100
AcDbSpline
 62
4
  6
CONTINUOUS
 70
0
 71
3
 72
348
 73
344
 74
0
 42
0.0000001
 43
0.0000001
 44
0.0000000001
 40
0.0
 40
0.0
 40
0.0
 40
0.0
 40
0.015625
 40
0.0234375
 40
0.03125
 40
0.0390625
 40
0.046875
 40
0.05078125
 40
0.0546875
 40
0.056640625
 40
0.05859375
 40
0.060546875
 40
0.0615234375
 40
0.0620117188
 40
0.0625
 40
0.0629882812
 40
0.0634765625
 40
0.064453125
 40
0.06640625
 40
0.068359375
 40
0.0703125
 40
0.07421875
 40
0.078125
 40
0.0859375
 40
0.09375
 40
0.1015625
 40
0.109375
 40
0.11328125
 40
0.1171875
 40
0.119140625
 40
0.12109375
 40
0.123046875
 40
0.1240234375
 40
0.1245117188
 40
0.125
 40
0.1254882812
 40
0.1259765625
 40
0.126953125
 40
0.12890625
 40
0.130859375
 40
0.1328125
 40
0.13671875
 40
0.140625
 40
0.1484375
 40
0.15625
 40
0.1640625
 40
0.16796875
 40
0.171875
 40
0.17578125
 40
0.1796875
 40
0.181640625
 40
0.18359375
 40
0.185546875
 40
0.1865234375
 40
0.1870117188
 40
0.1875
 40
0.1879882812
 40
0.1884765625
 40
0.189453125
 40
0.19140625
 40
0.193359375
 40
0.1953125
 40
0.19921875
 40
0.203125
 40
0.20703125
 40
0.2109375
 40
0.21875
 40
0.2265625
 40
0.23046875
 40
0.234375
 40
0.23828125
 40
0.2421875
 40
0.244140625
 40
0.24609375
 40
0.2470703125
 40
0.248046875
 40
0.2490234375
 40
0.2495117188
 40
0.2497558594
 40
0.25
 40
0.2502441406
 40
0.2504882812
 40
0.2509765625
 40
0.251953125
 40
0.2529296875
 40
0.25390625
 40
0.255859375
 40
0.2578125
 40
0.26171875
 40
0.265625
 40
0.26953125
 40
0.2734375
 40
0.28125
 40
0.2890625
 40
0.29296875
 40
0.296875
 40
0.30078125
 40
0.3046875
 40
0.306640625
 40
0.30859375
 40
0.3095703125
 40
0.310546875
 40
0.3115234375
 40
0.3120117188
 40
0.3122558594
 40
0.3125
 40
0.3127441406
 40
0.3129882812
 40
0.3134765625
 40
0.314453125
 40
0.3154296875
 40
0.31640625
 40
0.318359375
 40
0.3203125
 40
0.32421875
 40
0.328125
 40
0.33203125
 40
0.3359375
 40
0.34375
 40
0.3515625
 40
0.35546875
 40
0.359375
 40
0.36328125
 40
0.3671875
 40
0.369140625
 40
0.37109375
 40
0.3720703125
 40
0.373046875
 40
0.3740234375
 40
0.3745117188
 40
0.3747558594
 40
0.375
 40
0.3752441406
 40
0.3754882812
 40
0.3759765625
 40
0.376953125
 40
0.3779296875
 40
0.37890625
 40
0.380859375
 40
0.3828125
 40
0.38671875
 40
0.390625
 40
0.39453125
 40
0.3984375
 40
0.40625
 40
0.4140625
 40
0.41796875
 40
0.421875
 40
0.42578125
 40
0.4296875
 40
0.431640625
 40
0.43359375
 40
0.4345703125
 40
0.435546875
 40
0.4365234375
 40
0.4370117188
 40
0.4372558594
 40
0.4375
 40
0.4377441406
 40
0.4379882812
 40
0.4384765625
 40
0.439453125
 40
0.4404296875
 40
0.44140625
 40
0.443359375
 40
0.4453125
 40
0.44921875
 40
0.453125
 40
0.45703125
 40
0.4609375
 40
0.46875
 40
0.4765625
 40
0.48046875
 40
0.484375
 40
0.48828125
 40
0.4921875
 40
0.494140625
 40
0.49609375
 40
0.4970703125
 40
0.498046875
 40
0.4990234375
 40
0.4995117188
 40
0.4997558594
 40
0.5
 40
0.5002441406
 40
0.5004882812
 40
0.5009765625
 40
0.501953125
 40
0.5029296875
 40
0.50390625
 40
0.505859375
 40
0.5078125
 40
0.51171875
 40
0.515625
 40
0.51953125
 40
0.5234375
 40
0.53125
 40
0.5390625
 40
0.54296875
 40
0.546875
 40
0.55078125
 40
0.5546875
 40
0.556640625
 40
0.55859375
 40
0.5595703125
 40
0.560546875
 40
0.5615234375
 40
0.5620117188
 40
0.5622558594
 40
0.5625
 40
0.5627441406
 40
0.5629882812
 40
0.5634765625
 40
0.564453125
 40
0.5654296875
 40
0.56640625
 40
0.568359375
 40
0.5703125
 40
0.57421875
 40
0.578125
 40
0.58203125
 40
0.5859375
 40
0.59375
 40
0.6015625
 40
0.60546875
 40
0.609375
 40
0.61328125
 40
0.6171875
 40
0.619140625
 40
0.62109375
 40
0.6220703125
 40
0.623046875
 40
0.6240234375
 40
0.6245117188
 40
0.625
 40
0.6254882812
 40
0.6259765625
 40
0.626953125
 40
0.6279296875
 40
0.62890625
 40
0.630859375
 40
0.6328125
 40
0.63671875
 40
0.640625
 40
0.64453125
 40
0.6484375
 40
0.65625
 40
0.6640625
 40
0.66796875
 40
0.671875
 40
0.67578125
 40
0.6796875
 40
0.681640625
 40
0.68359375
 40
0.6845703125
 40
0.685546875
 40
0.6865234375
 40
0.6870117188
 40
0.6875
 40
0.6879882812
 40
0.6884765625
 40
0.689453125
 40
0.6904296875
 40
0.69140625
 40
0.693359375
 40
0.6953125
 40
0.69921875
 40
0.703125
 40
0.70703125
 40
0.7109375
 40
0.71875
 40
0.7265625
 40
0.734375
 40
0.73828125
 40
0.7421875
 40
0.744140625
 40
0.74609375
 40
0.748046875
 40
0.7490234375
 40
0.7495117188
 40
0.75
 40
0.7504882812
 40
0.7509765625
 40
0.751953125
 40
0.75390625
 40
0.755859375
 40
0.7578125
 40
0.76171875
 40
0.765625
 40
0.7734375
 40
0.78125
 40
0.7890625
 40
0.796875
 40
0.80078125
 40
0.8046875
 40
0.806640625
 40
0.80859375
 40
0.810546875
 40
0.8115234375
 40
0.8125
 40
0.8134765625
 40
0.814453125
 40
0.81640625
 40
0.818359375
 40
0.8203125
 40
0.82421875
 40
0.828125
 40
0.8359375
 40
0.84375
 40
0.8515625
 40
0.859375
 40
0.86328125
 40
0.8671875
 40
0.87109375
 40
0.873046875
 40
0.8740234375
 40
0.875
 40
0.8759765625
 40
0.876953125
 40
0.87890625
 40
0.8828125
 40
0.88671875
 40
0.890625
 40
0.8984375
 40
0.90625
 40
0.9140625
 40
0.921875
 40
0.92578125
 40
0.9296875
 40
0.93359375
 40
0.935546875
 40
0.9365234375
 40
0.9375
 40
0.9384765625
 40
0.939453125
 40
0.94140625
 40
0.9453125
 40
0.94921875
 40
0.953125
 40
0.9609375
 40
0.96875
 40
0.984375
 40
1.0
 40
1.0
 40
1.0
 40
1.0
 10
12.1037473376
 20
8.0516518504
 30
0.0
 10
12.1038131912
 20
8.0492089106
 30
0.0
 10
12.1039119716
 20
8.0455445008
 30
0.0
 10
12.104043679
 20
8.0406586214
 30
0.0
 10
12.1041424591
 20
8.036994211
 30
0.0
 10
12.1042412411
 20
8.033329804
 30
0.0
 10
12.1043235532
 20
8.0302761208
 30
0.0
 10
12.1043894169
 20
8.0278331981
 30
0.0
 10
12.1044305499
 20
8.0263063173
 30
0.0
 10
12.1044635291
 20
8.0250849366
 30
0.0
 10
12.1044880643
 20
8.0241685616
 30
0.0
 10
12.1045091438
 20
8.0234059958
 30
0.0
 10
12.1045226562
 20
8.0228700801
 30
0.0
 10
12.1045323188
 20
8.0225671521
 30
0.0
 10
12.1045340974
 20
8.0223306332
 30
0.0
 10
12.1045567788
 20
8.0221297513
 30
0.0
 10
12.1045797295
 20
8.0218494781
 30
0.0
 10
12.1046232903
 20
8.0213647917
 30
0.0
 10
12.1046837439
 20
8.0206693546
 30
0.0
 10
12.1047570485
 20
8.0198361261
 30
0.0
 10
12.1048545225
 20
8.0187247021
 30
0.0
 10
12.1049764558
 20
8.0173355771
 30
0.0
 10
12.1051714984
 20
8.0151128905
 30
0.0
 10
12.1054153191
 20
8.0123345622
 30
0.0
 10
12.1057078959
 20
8.0090005542
 30
0.0
 10
12.1060004767
 20
8.0056665544
 30
0.0
 10
12.1062442877
 20
8.0028882057
 30
0.0
 10
12.1064393497
 20
8.0006655599
 30
0.0
 10
12.1065612335
 20
7.9992763312
 30
0.0
 10
12.1066588091
 20
7.99816512
 30
0.0
 10
12.1067318031
 20
7.9973312415
 30
0.0
 10
12.1067932285
 20
7.996637838
 30
0.0
 10
12.1068350546
 20
7.9961495213
 30
0.0
 10
12.1068607848
 20
7.9958750647
 30
0.0
 10
12.1068749285
 20
7.9956563161
 30
0.0
 10
12.106908773
 20
7.9954869015
 30
0.0
 10
12.1069470272
 20
7.9952438071
 30
0.0
 10
12.1070171737
 20
7.9948264095
 30
0.0
 10
12.107115709
 20
7.9942259356
 30
0.0
 10
12.107234668
 20
7.993507161
 30
0.0
 10
12.1073930297
 20
7.9925481683
 30
0.0
 10
12.1075910674
 20
7.9913496419
 30
0.0
 10
12.10790788
 20
7.9894318798
 30
0.0
 10
12.1083039121
 20
7.9870347183
 30
0.0
 10
12.1087791437
 20
7.9841581072
 30
0.0
 10
12.1091751712
 20
7.981760934
 30
0.0
 10
12.1094919938
 20
7.9798431974
 30
0.0
 10
12.1097296083
 20
7.9784048876
 30
0.0
 10
12.1099672324
 20
7.9769666064
 30
0.0
 10
12.1101652226
 20
7.9757679494
 30
0.0
 10
12.1103236815
 20
7.9748092238
 30
0.0
 10
12.1104423435
 20
7.9740896334
 30
0.0
 10
12.1105418081
 20
7.973491712
 30
0.0
 10
12.1106102958
 20
7.9730697577
 30
0.0
 10
12.1106512078
 20
7.9728339643
 30
0.0
 10
12.1106768881
 20
7.9726421235
 30
0.0
 10
12.1107216952
 20
7.9725076038
 30
0.0
 10
12.1107747664
 20
7.97230825
 30
0.0
 10
12.1108707493
 20
7.9719686966
 30
0.0
 10
12.1110062427
 20
7.9714787498
 30
0.0
 10
12.1111695304
 20
7.9708928984
 30
0.0
 10
12.1113870044
 20
7.970111035
 30
0.0
 10
12.1116589302
 20
7.9691339556
 30
0.0
 10
12.1119852054
 20
7.9679613532
 30
0.0
 10
12.1123114902
 20
7.9667887795
 30
0.0
 10
12.1127465332
 20
7.9652253378
 30
0.0
 10
12.1132903382
 20
7.9632710392
 30
0.0
 10
12.1138341427
 20
7.9613167392
 30
0.0
 10
12.1142691864
 20
7.9597532999
 30
0.0
 10
12.114595469
 20
7.9585807193
 30
0.0
 10
12.1149217523
 20
7.9574081424
 30
0.0
 10
12.115193653
 20
7.9564309837
 30
0.0
 10
12.1154111782
 20
7.9556492821
 30
0.0
 10
12.1155471208
 20
7.9551606609
 30
0.0
 10
12.1156558993
 20
7.9547698959
 30
0.0
 10
12.1157374165
 20
7.9544764611
 30
0.0
 10
12.1158055594
 20
7.9542330807
 30
0.0
 10
12.1158528436
 20
7.9540604602
 30
0.0
 10
12.1158805124
 20
7.9539653397
 30
0.0
 10
12.1158994349
 20
7.953884084
 30
0.0
 10
12.1159253494
 20
7.9538407298
 30
0.0
 10
12.1159574631
 20
7.9537697038
 30
0.0
 10
12.1160147985
 20
7.953651568
 30
0.0
 10
12.116096112
 20
7.9534795821
 30
0.0
 10
12.1161939426
 20
7.9532745775
 30
0.0
 10
12.1163242945
 20
7.9530007566
 30
0.0
 10
12.1164872649
 20
7.9526586453
 30
0.0
 10
12.1167480004
 20
7.9521111751
 30
0.0
 10
12.1170739257
 20
7.9514268689
 30
0.0
 10
12.1174650335
 20
7.950605688
 30
0.0
 10
12.117856142
 20
7.9497845106
 30
0.0
 10
12.1183776197
 20
7.9486896063
 30
0.0
 10
12.119029467
 20
7.9473209763
 30
0.0
 10
12.1196813142
 20
7.945952346
 30
0.0
 10
12.120202792
 20
7.9448574421
 30
0.0
 10
12.1205939003
 20
7.9440362632
 30
0.0
 10
12.120985009
 20
7.9432150881
 30
0.0
 10
12.1213109313
 20
7.9425307639
 30
0.0
 10
12.121571673
 20
7.9419833304
 30
0.0
 10
12.1217346276
 20
7.9416411256
 30
0.0
 10
12.1218650119
 20
7.9413674966
 30
0.0
 10
12.1219627436
 20
7.9411619056
 30
0.0
 10
12.1220443664
 20
7.9409917546
 30
0.0
 10
12.1221011498
 20
7.9408703432
 30
0.0
 10
12.1221341479
 20
7.9408045654
 30
0.0
 10
12.1221573459
 20
7.9407450904
 30
0.0
 10
12.1221864709
 20
7.9407243822
 30
0.0
 10
12.1222232368
 20
7.940683249
 30
0.0
 10
12.1222885403
 20
7.9406175662
 30
0.0
 10
12.1223813275
 20
7.9405204397
 30
0.0
 10
12.1224928877
 20
7.9404052978
 30
0.0
 10
12.1226415594
 20
7.9402512829
 30
0.0
 10
12.1228274247
 20
7.9400589329
 30
0.0
 10
12.1231247949
 20
7.9397510785
 30
0.0
 10
12.1234965125
 20
7.939366293
 30
0.0
 10
12.1239425715
 20
7.9389045364
 30
0.0
 10
12.1243886311
 20
7.9384427836
 30
0.0
 10
12.1249833771
 20
7.9378271118
 30
0.0
 10
12.1257268095
 20
7.9370575226
 30
0.0
 10
12.126470242
 20
7.9362879331
 30
0.0
 10
12.127064988
 20
7.9356722619
 30
0.0
 10
12.1275110474
 20
7.9352105074
 30
0.0
 10
12.1279571072
 20
7.9347487569
 30
0.0
 10
12.1283288224
 20
7.9343639526
 30
0.0
 10
12.1286261974
 20
7.9340561364
 30
0.0
 10
12.1288120505
 20
7.9338636894
 30
0.0
 10
12.1289607472
 20
7.9337098734
 30
0.0
 10
12.1290722308
 20
7.9335941239
 30
0.0
 10
12.1291652578
 20
7.9334988984
 30
0.0
 10
12.1292301333
 20
7.9334298221
 30
0.0
 10
12.1292675852
 20
7.9333941262
 30
0.0
 10
12.1292946029
 20
7.9333567163
 30
0.0
 10
12.1293257151
 20
7.9333599703
 30
0.0
 10
12.1293657699
 20
7.9333501249
 30
0.0
 10
12.1294365311
 20
7.9333395041
 30
0.0
 10
12.1295372707
 20
7.9333208766
 30
0.0
 10
12.1296583071
 20
7.9333000023
 30
0.0
 10
12.129819637
 20
7.9332716535
 30
0.0
 10
12.1300213171
 20
7.9332363943
 30
0.0
 10
12.1303439954
 20
7.9331798807
 30
0.0
 10
12.1307473466
 20
7.9331092727
 30
0.0
 10
12.1312313667
 20
7.9330245285
 30
0.0
 10
12.1317153871
 20
7.9329397882
 30
0.0
 10
12.1323607475
 20
7.9328267998
 30
0.0
 10
12.1331674481
 20
7.9326855648
 30
0.0
 10
12.1339741487
 20
7.9325443295
 30
0.0
 10
12.1346195091
 20
7.9324313416
 30
0.0
 10
12.1351035294
 20
7.9323465997
 30
0.0
 10
12.13558755
 20
7.9322618618
 30
0.0
 10
12.1359908995
 20
7.9321912343
 30
0.0
 10
12.1363135813
 20
7.9321347604
 30
0.0
 10
12.1365152526
 20
7.9320994004
 30
0.0
 10
12.1366766005
 20
7.9320712584
 30
0.0
 10
12.136797582
 20
7.9320497522
 30
0.0
 10
12.1368984933
 20
7.9320331018
 30
0.0
 10
12.1369689479
 20
7.9320189515
 30
0.0
 10
12.1370094939
 20
7.9320147613
 30
0.0
 10
12.1370390971
 20
7.9320006445
 30
0.0
 10
12.1370717826
 20
7.9320284765
 30
0.0
 10
12.137114288
 20
7.9320509536
 30
0.0
 10
12.1371891735
 20
7.932097106
 30
0.0
 10
12.1372958909
 20
7.9321594738
 30
0.0
 10
12.1374240639
 20
7.9322358408
 30
0.0
 10
12.137594922
 20
7.9323371305
 30
0.0
 10
12.1378085081
 20
7.9324639251
 30
0.0
 10
12.1381502383
 20
7.9326666946
 30
0.0
 10
12.1385774037
 20
7.9329201913
 30
0.0
 10
12.139090001
 20
7.9332243724
 30
0.0
 10
12.1396025986
 20
7.9335285576
 30
0.0
 10
12.140286062
 20
7.9339341363
 30
0.0
 10
12.1411403913
 20
7.9344411103
 30
0.0
 10
12.1419947205
 20
7.934948084
 30
0.0
 10
12.1426781839
 20
7.9353536633
 30
0.0
 10
12.1431907815
 20
7.9356578468
 30
0.0
 10
12.143703379
 20
7.9359620341
 30
0.0
 10
12.1441305439
 20
7.9362155117
 30
0.0
 10
12.1444722751
 20
7.9364183202
 30
0.0
 10
12.1446858586
 20
7.9365450154
 30
0.0
 10
12.144856722
 20
7.9366465092
 30
0.0
 10
12.1449848788
 20
7.9367222527
 30
0.0
 10
12.145091647
 20
7.936786571
 30
0.0
 10
12.1451664417
 20
7.9368292414
 30
0.0
 10
12.1452090926
 20
7.9368572976
 30
0.0
 10
12.1452413313
 20
7.9368679926
 30
0.0
 10
12.1452726125
 20
7.9369182393
 30
0.0
 10
12.1453146548
 20
7.9369714388
 30
0.0
 10
12.1453880731
 20
7.9370709658
 30
0.0
 10
12.1454930378
 20
7.9372097867
 30
0.0
 10
12.1456189606
 20
7.9373778101
 30
0.0
 10
12.1457868698
 20
7.937601339
 30
0.0
 10
12.1459967522
 20
7.9378809221
 30
0.0
 10
12.1463325663
 20
7.9383281589
 30
0.0
 10
12.1467523332
 20
7.9388872379
 30
0.0
 10
12.1472560537
 20
7.9395581186
 30
0.0
 10
12.1477597742
 20
7.9402290031
 30
0.0
 10
12.1484314015
 20
7.9411235144
 30
0.0
 10
12.1492709357
 20
7.942241654
 30
0.0
 10
12.1501104699
 20
7.9433597932
 30
0.0
 10
12.1507820972
 20
7.944254305
 30
0.0
 10
12.1512858177
 20
7.944925188
 30
0.0
 10
12.1517895381
 20
7.9455960744
 30
0.0
 10
12.1522093056
 20
7.9461551354
 30
0.0
 10
12.1525451183
 20
7.946602409
 30
0.0
 10
12.1527550044
 20
7.9468818987
 30
0.0
 10
12.152922906
 20
7.9471056192
 30
0.0
 10
12.153048852
 20
7.9472730571
 30
0.0
 10
12.1531537442
 20
7.9474137101
 30
0.0
 10
12.1532272919
 20
7.9475099663
 30
0.0
 10
12.1532691269
 20
7.9475684065
 30
0.0
 10
12.1533010446
 20
7.9476025555
 30
0.0
 10
12.1533308928
 20
7.9476737107
 30
0.0
 10
12.1533714123
 20
7.9477556762
 30
0.0
 10
12.1534419851
 20
7.9479051299
 30
0.0
 10
12.1535429792
 20
7.9481154909
 30
0.0
 10
12.1536640969
 20
7.9483692699
 30
0.0
 10
12.1538256133
 20
7.9487071719
 30
0.0
 10
12.1540275
 20
7.9491297103
 30
0.0
 10
12.1543505236
 20
7.9498056819
 30
0.0
 10
12.1547543014
 20
7.9506506771
 30
0.0
 10
12.1552388355
 20
7.9516646583
 30
0.0
 10
12.1557233694
 20
7.9526786429
 30
0.0
 10
12.1563694146
 20
7.9540306212
 30
0.0
 10
12.1571769712
 20
7.9557205944
 30
0.0
 10
12.1579845277
 20
7.9574105679
 30
0.0
 10
12.1586305731
 20
7.9587625458
 30
0.0
 10
12.1591151068
 20
7.9597765316
 30
0.0
 10
12.1595996416
 20
7.9607905085
 30
0.0
 10
12.1600034172
 20
7.9616355169
 30
0.0
 10
12.1603264453
 20
7.9623114617
 30
0.0
 10
12.1605283205
 20
7.9627340681
 30
0.0
 10
12.1606898605
 20
7.9630718307
 30
0.0
 10
12.1608109063
 20
7.9633260355
 30
0.0
 10
12.1609121251
 20
7.9635350644
 30
0.0
 10
12.1609923213
 20
7.9637085863
 30
0.0
 10
12.1610545964
 20
7.9638215166
 30
0.0
 10
12.1611087495
 20
7.964000142
 30
0.0
 10
12.1611837908
 20
7.9642153611
 30
0.0
 10
12.1612766191
 20
7.9644922584
 30
0.0
 10
12.1613884296
 20
7.964821165
 30
0.0
 10
12.1615373648
 20
7.9652608843
 30
0.0
 10
12.1617235837
 20
7.9658101303
 30
0.0
 10
12.1620215059
 20
7.9666891493
 30
0.0
 10
12.1623939183
 20
7.9677878457
 30
0.0
 10
12.1628408091
 20
7.9691063145
 30
0.0
 10
12.1632877009
 20
7.9704247745
 30
0.0
 10
12.1638835564
 20
7.9721827242
 30
0.0
 10
12.1646283758
 20
7.9743801602
 30
0.0
 10
12.1653731952
 20
7.9765775969
 30
0.0
 10
12.1659690508
 20
7.9783355455
 30
0.0
 10
12.1664159421
 20
7.979654009
 30
0.0
 10
12.1668628349
 20
7.9809724643
 30
0.0
 10
12.1672352411
 20
7.9820712028
 30
0.0
 10
12.1675331759
 20
7.9829501359
 30
0.0
 10
12.1677193628
 20
7.9834996005
 30
0.0
 10
12.1678683635
 20
7.9839388712
 30
0.0
 10
12.1679799741
 20
7.9842691485
 30
0.0
 10
12.1680734279
 20
7.9845417573
 30
0.0
 10
12.1681471928
 20
7.9847657256
 30
0.0
 10
12.1682052441
 20
7.9849176314
 30
0.0
 10
12.1682528843
 20
7.9851308785
 30
0.0
 10
12.1683200412
 20
7.9853937807
 30
0.0
 10
12.1684027397
 20
7.98572976
 30
0.0
 10
12.1685025119
 20
7.9861297885
 30
0.0
 10
12.1686353551
 20
7.9866642589
 30
0.0
 10
12.1688014728
 20
7.9873319706
 30
0.0
 10
12.1690672255
 20
7.9884005196
 30
0.0
 10
12.1693994287
 20
7.9897361337
 30
0.0
 10
12.1697980672
 20
7.9913389015
 30
0.0
 10
12.1701967072
 20
7.9929416611
 30
0.0
 10
12.1707282266
 20
7.9950786768
 30
0.0
 10
12.1713926263
 20
7.9977499447
 30
0.0
 10
12.1721899043
 20
8.0009554702
 30
0.0
 10
12.1728543077
 20
8.0036267305
 30
0.0
 10
12.1733858192
 20
8.0057637628
 30
0.0
 10
12.1737180393
 20
8.0070993533
 30
0.0
 10
12.1739837573
 20
8.0081679511
 30
0.0
 10
12.1741832048
 20
8.0089690559
 30
0.0
 10
12.1743489051
 20
8.0096377362
 30
0.0
 10
12.1744658882
 20
8.0101036674
 30
0.0
 10
12.1745311855
 20
8.0103732631
 30
0.0
 10
12.1745845252
 20
8.0105660249
 30
0.0
 10
12.1746211729
 20
8.0107948522
 30
0.0
 10
12.1746758589
 20
8.0110873752
 30
0.0
 10
12.1747688466
 20
8.0116051517
 30
0.0
 10
12.1749031044
 20
8.0123417681
 30
0.0
 10
12.1750636067
 20
8.0132270194
 30
0.0
 10
12.1752778219
 20
8.0144068963
 30
0.0
 10
12.1755455182
 20
8.0158818993
 30
0.0
 10
12.1759738729
 20
8.0182418166
 30
0.0
 10
12.1765093025
 20
8.0211917428
 30
0.0
 10
12.1771518228
 20
8.0247316434
 30
0.0
 10
12.1777943463
 20
8.02827154
 30
0.0
 10
12.178329768
 20
8.031221476
 30
0.0
 10
12.1787581386
 20
8.0335813738
 30
0.0
 10
12.1790257943
 20
8.0350564262
 30
0.0
 10
12.1792400928
 20
8.0362362018
 30
0.0
 10
12.1794003406
 20
8.0371217629
 30
0.0
 10
12.1795353947
 20
8.0378574099
 30
0.0
 10
12.1796400418
 20
8.0384511321
 30
0.0
 10
12.1797278071
 20
8.0388822025
 30
0.0
 10
12.1797801506
 20
8.0393675557
 30
0.0
 10
12.1798623151
 20
8.0399957316
 30
0.0
 10
12.1799607756
 20
8.0407874572
 30
0.0
 10
12.1800807453
 20
8.0417347432
 30
0.0
 10
12.1802400702
 20
8.0429987638
 30
0.0
 10
12.1804394436
 20
8.0445784566
 30
0.0
 10
12.1807583198
 20
8.0471061511
 30
0.0
 10
12.1811569555
 20
8.0502657061
 30
0.0
 10
12.1816353059
 20
8.0540571963
 30
0.0
 10
12.1821136414
 20
8.0578486907
 30
0.0
 10
12.1825123144
 20
8.061008235
 30
0.0
 10
12.1828311159
 20
8.0635359508
 30
0.0
 10
12.1830705918
 20
8.0654315174
 30
0.0
 10
12.1832689627
 20
8.0670118568
 30
0.0
 10
12.1834101624
 20
8.0681167195
 30
0.0
 10
12.1834871941
 20
8.0687502164
 30
0.0
 10
12.1835552608
 20
8.0692192913
 30
0.0
 10
12.1835839828
 20
8.0697114842
 30
0.0
 10
12.1836360027
 20
8.0703596776
 30
0.0
 10
12.1837206434
 20
8.0714977731
 30
0.0
 10
12.1838449016
 20
8.0731216596
 30
0.0
 10
12.1839925805
 20
8.0750711641
 30
0.0
 10
12.1841899856
 20
8.0776702098
 30
0.0
 10
12.1844365694
 20
8.0809191178
 30
0.0
 10
12.1847325491
 20
8.0848177635
 30
0.0
 10
12.1850284881
 20
8.0887164236
 30
0.0
 10
12.1852751736
 20
8.0919652955
 30
0.0
 10
12.1854723753
 20
8.0945644133
 30
0.0
 10
12.1856206747
 20
8.0965136977
 30
0.0
 10
12.1857429916
 20
8.0981382731
 30
0.0
 10
12.1858310977
 20
8.0992751388
 30
0.0
 10
12.1858775651
 20
8.0999253026
 30
0.0
 10
12.1859233429
 20
8.1004114429
 30
0.0
 10
12.1859273511
 20
8.1009032503
 30
0.0
 10
12.185947265
 20
8.1015570169
 30
0.0
 10
12.1859753262
 20
8.1027020292
 30
0.0
 10
12.1860189625
 20
8.1043372797
 30
0.0
 10
12.186069807
 20
8.1062997864
 30
0.0
 10
12.1861381303
 20
8.10891639
 30
0.0
 10
12.1862233528
 20
8.1121871691
 30
0.0
 10
12.1863598103
 20
8.117420402
 30
0.0
 10
12.186530347
 20
8.1239619477
 30
0.0
 10
12.1866667871
 20
8.1291951829
 30
0.0
 10
12.1867350059
 20
8.1318118007
 30
0.0
  0
SPLINE
  5
429
100
AcDbEntity
  8
0
100
AcDbSpline
 62
4
  6
CONTINUOUS
 70
0
 71
3
 72
348
 73
344
 74
0
 42
0.0000001
 43
0.0000001
 44
0.0000000001
 40
0.0
 40
0.0
 40
0.0
 40
0.0
 40
0.015625
 40
0.0234375
 40
0.03125
 40
0.0390625
 40
0.046875
 40
0.05078125
 40
0.0546875
 40
0.056640625
 40
0.05859375
 40
0.060546875
 40
0.0615234375
 40
0.0620117188
 40
0.0625
 40
0.0629882812
 40
0.0634765625
 40
0.064453125
 40
0.06640625
 40
0.068359375
 40
0.0703125
 40
0.07421875
 40
0.078125
 40
0.0859375
 40
0.09375
 40
0.1015625
 40
0.109375
 40
0.11328125
 40
0.1171875
 40
0.119140625
 40
0.12109375
 40
0.123046875
 40
0.1240234375
 40
0.1245117188
 40
0.125
 40
0.1254882812
 40
0.1259765625
 40
0.126953125
 40
0.12890625
 40
0.130859375
 40
0.1328125
 40
0.13671875
 40
0.140625
 40
0.1484375
 40
0.15625
 40
0.1640625
 40
0.16796875
 40
0.171875
 40
0.17578125
 40
0.1796875
 40
0.181640625
 40
0.18359375
 40
0.185546875
 40
0.1865234375
 40
0.1870117188
 40
0.1875
 40
0.1879882812
 40
0.1884765625
 40
0.189453125
 40
0.19140625
 40
0.193359375
 40
0.1953125
 40
0.19921875
 40
0.203125
 40
0.20703125
 40
0.2109375
 40
0.21875
 40
0.2265625
 40
0.23046875
 40
0.234375
 40
0.23828125
 40
0.2421875
 40
0.244140625
 40
0.24609375
 40
0.2470703125
 40
0.248046875
 40
0.2490234375
 40
0.2495117188
 40
0.2497558594
 40
0.25
 40
0.2502441406
 40
0.2504882812
 40
0.2509765625
 40
0.251953125
 40
0.2529296875
 40
0.25390625
 40
0.255859375
 40
0.2578125
 40
0.26171875
 40
0.265625
 40
0.26953125
 40
0.2734375
 40
0.28125
 40
0.2890625
 40
0.29296875
 40
0.296875
 40
0.30078125
 40
0.3046875
 40
0.306640625
 40
0.30859375
 40
0.3095703125
 40
0.310546875
 40
0.3115234375
 40
0.3120117188
 40
0.3122558594
 40
0.3125
 40
0.3127441406
 40
0.3129882812
 40
0.3134765625
 40
0.314453125
 40
0.3154296875
 40
0.31640625
 40
0.318359375
 40
0.3203125
 40
0.32421875
 40
0.328125
 40
0.33203125
 40
0.3359375
 40
0.34375
 40
0.3515625
 40
0.35546875
 40
0.359375
 40
0.36328125
 40
0.3671875
 40
0.369140625
 40
0.37109375
 40
0.3720703125
 40
0.373046875
 40
0.3740234375
 40
0.3745117188
 40
0.3747558594
 40
0.375
 40
0.3752441406
 40
0.3754882812
 40
0.3759765625
 40
0.376953125
 40
0.3779296875
 40
0.37890625
 40
0.380859375
 40
0.3828125
 40
0.38671875
 40
0.390625
 40
0.39453125
 40
0.3984375
 40
0.40625
 40
0.4140625
 40
0.41796875
 40
0.421875
 40
0.42578125
 40
0.4296875
 40
0.431640625
 40
0.43359375
 40
0.4345703125
 40
0.435546875
 40
0.4365234375
 40
0.4370117188
 40
0.4372558594
 40
0.4375
 40
0.4377441406
 40
0.4379882812
 40
0.4384765625
 40
0.439453125
 40
0.4404296875
 40
0.44140625
 40
0.443359375
 40
0.4453125
 40
0.44921875
 40
0.453125
 40
0.45703125
 40
0.4609375
 40
0.46875
 40
0.4765625
 40
0.48046875
 40
0.484375
 40
0.48828125
 40
0.4921875
 40
0.494140625
 40
0.49609375
 40
0.4970703125
 40
0.498046875
 40
0.4990234375
 40
0.4995117188
 40
0.4997558594
 40
0.5
 40
0.5002441406
 40
0.5004882812
 40
0.5009765625
 40
0.501953125
 40
0.5029296875
 40
0.50390625
 40
0.505859375
 40
0.5078125
 40
0.51171875
 40
0.515625
 40
0.51953125
 40
0.5234375
 40
0.53125
 40
0.5390625
 40
0.54296875
 40
0.546875
 40
0.55078125
 40
0.5546875
 40
0.556640625
 40
0.55859375
 40
0.5595703125
 40
0.560546875
 40
0.5615234375
 40
0.5620117188
 40
0.5622558594
 40
0.5625
 40
0.5627441406
 40
0.5629882812
 40
0.5634765625
 40
0.564453125
 40
0.5654296875
 40
0.56640625
 40
0.568359375
 40
0.5703125
 40
0.57421875
 40
0.578125
 40
0.58203125
 40
0.5859375
 40
0.59375
 40
0.6015625
 40
0.60546875
 40
0.609375
 40
0.61328125
 40
0.6171875
 40
0.619140625
 40
0.62109375
 40
0.6220703125
 40
0.623046875
 40
0.6240234375
 40
0.6245117188
 40
0.625
 40
0.6254882812
 40
0.6259765625
 40
0.626953125
 40
0.6279296875
 40
0.62890625
 40
0.630859375
 40
0.6328125
 40
0.63671875
 40
0.640625
 40
0.64453125
 40
0.6484375
 40
0.65625
 40
0.6640625
 40
0.66796875
 40
0.671875
 40
0.67578125
 40
0.6796875
 40
0.681640625
 40
0.68359375
 40
0.6845703125
 40
0.685546875
 40
0.6865234375
 40
0.6870117188
 40
0.6875
 40
0.6879882812
 40
0.6884765625
 40
0.689453125
 40
0.6904296875
 40
0.69140625
 40
0.693359375
 40
0.6953125
 40
0.69921875
 40
0.703125
 40
0.70703125
 40
0.7109375
 40
0.71875
 40
0.7265625
 40
0.734375
 40
0.73828125
 40
0.7421875
 40
0.744140625
 40
0.74609375
 40
0.748046875
 40
0.7490234375
 40
0.7495117188
 40
0.75
 40
0.7504882812
 40
0.7509765625
 40
0.751953125
 40
0.75390625
 40
0.755859375
 40
0.7578125
 40
0.76171875
 40
0.765625
 40
0.7734375
 40
0.78125
 40
0.7890625
 40
0.796875
 40
0.80078125
 40
0.8046875
 40
0.806640625
 40
0.80859375
 40
0.810546875
 40
0.8115234375
 40
0.8125
 40
0.8134765625
 40
0.814453125
 40
0.81640625
 40
0.818359375
 40
0.8203125
 40
0.82421875
 40
0.828125
 40
0.8359375
 40
0.84375
 40
0.8515625
 40
0.859375
 40
0.86328125
 40
0.8671875
 40
0.87109375
 40
0.873046875
 40
0.8740234375
 40
0.875
 40
0.8759765625
 40
0.876953125
 40
0.87890625
 40
0.8828125
 40
0.88671875
 40
0.890625
 40
0.8984375
 40
0.90625
 40
0.9140625
 40
0.921875
 40
0.92578125
 40
0.9296875
 40
0.93359375
 40
0.935546875
 40
0.9365234375
 40
0.9375
 40
0.9384765625
 40
0.939453125
 40
0.94140625
 40
0.9453125
 40
0.94921875
 40
0.953125
 40
0.9609375
 40
0.96875
 40
0.984375
 40
1.0
 40
1.0
 40
1.0
 40
1.0
 10
12.1867350059
 20
8.1318117872
 30
0.0
 10
12.1866691522
 20
8.134254727
 30
0.0
 10
12.1865703718
 20
8.1379191368
 30
0.0
 10
12.1864386644
 20
8.1428050161
 30
0.0
 10
12.1863398844
 20
8.1464694266
 30
0.0
 10
12.1862411024
 20
8.1501338336
 30
0.0
 10
12.1861587902
 20
8.1531875167
 30
0.0
 10
12.1860929266
 20
8.1556304394
 30
0.0
 10
12.1860517935
 20
8.1571573203
 30
0.0
 10
12.1860188144
 20
8.1583787009
 30
0.0
 10
12.1859942792
 20
8.159295076
 30
0.0
 10
12.1859731997
 20
8.1600576418
 30
0.0
 10
12.1859596872
 20
8.1605935574
 30
0.0
 10
12.1859500246
 20
8.1608964854
 30
0.0
 10
12.185948246
 20
8.1611330043
 30
0.0
 10
12.1859255647
 20
8.1613338863
 30
0.0
 10
12.185902614
 20
8.1616141594
 30
0.0
 10
12.1858590532
 20
8.1620988459
 30
0.0
 10
12.1857985995
 20
8.162794283
 30
0.0
 10
12.1857252949
 20
8.1636275114
 30
0.0
 10
12.185627821
 20
8.1647389354
 30
0.0
 10
12.1855058876
 20
8.1661280604
 30
0.0
 10
12.1853108451
 20
8.168350747
 30
0.0
 10
12.1850670244
 20
8.1711290753
 30
0.0
 10
12.1847744475
 20
8.1744630833
 30
0.0
 10
12.1844818668
 20
8.1777970831
 30
0.0
 10
12.1842380558
 20
8.1805754318
 30
0.0
 10
12.1840429938
 20
8.1827980777
 30
0.0
 10
12.18392111
 20
8.1841873063
 30
0.0
 10
12.1838235344
 20
8.1852985175
 30
0.0
 10
12.1837505403
 20
8.186132396
 30
0.0
 10
12.1836891149
 20
8.1868257995
 30
0.0
 10
12.1836472889
 20
8.1873141162
 30
0.0
 10
12.1836215587
 20
8.1875885728
 30
0.0
 10
12.183607415
 20
8.1878073214
 30
0.0
 10
12.1835735705
 20
8.187976736
 30
0.0
 10
12.1835353163
 20
8.1882198304
 30
0.0
 10
12.1834651698
 20
8.188637228
 30
0.0
 10
12.1833666344
 20
8.189237702
 30
0.0
 10
12.1832476755
 20
8.1899564765
 30
0.0
 10
12.1830893138
 20
8.1909154693
 30
0.0
 10
12.182891276
 20
8.1921139956
 30
0.0
 10
12.1825744635
 20
8.1940317577
 30
0.0
 10
12.1821784314
 20
8.1964289192
 30
0.0
 10
12.1817031998
 20
8.1993055304
 30
0.0
 10
12.1813071722
 20
8.2017027035
 30
0.0
 10
12.1809903496
 20
8.2036204401
 30
0.0
 10
12.1807527351
 20
8.2050587499
 30
0.0
 10
12.1805151111
 20
8.2064970311
 30
0.0
 10
12.1803171208
 20
8.2076956881
 30
0.0
 10
12.1801586619
 20
8.2086544137
 30
0.0
 10
12.18004
 20
8.2093740041
 30
0.0
 10
12.1799405353
 20
8.2099719255
 30
0.0
 10
12.1798720477
 20
8.2103938798
 30
0.0
 10
12.1798311356
 20
8.2106296732
 30
0.0
 10
12.1798054553
 20
8.210821514
 30
0.0
 10
12.1797606482
 20
8.2109560337
 30
0.0
 10
12.1797075771
 20
8.2111553875
 30
0.0
 10
12.1796115941
 20
8.211494941
 30
0.0
 10
12.1794761007
 20
8.2119848877
 30
0.0
 10
12.179312813
 20
8.2125707391
 30
0.0
 10
12.1790953391
 20
8.2133526025
 30
0.0
 10
12.1788234133
 20
8.2143296819
 30
0.0
 10
12.1784971381
 20
8.2155022843
 30
0.0
 10
12.1781708533
 20
8.216674858
 30
0.0
 10
12.1777358102
 20
8.2182382997
 30
0.0
 10
12.1771920053
 20
8.2201925983
 30
0.0
 10
12.1766482008
 20
8.2221468983
 30
0.0
 10
12.176213157
 20
8.2237103377
 30
0.0
 10
12.1758868744
 20
8.2248829182
 30
0.0
 10
12.1755605911
 20
8.2260554951
 30
0.0
 10
12.1752886905
 20
8.2270326538
 30
0.0
 10
12.1750711653
 20
8.2278143555
 30
0.0
 10
12.1749352226
 20
8.2283029766
 30
0.0
 10
12.1748264442
 20
8.2286937416
 30
0.0
 10
12.174744927
 20
8.2289871765
 30
0.0
 10
12.1746767841
 20
8.2292305568
 30
0.0
 10
12.1746294999
 20
8.2294031773
 30
0.0
 10
12.174601831
 20
8.2294982978
 30
0.0
 10
12.1745829086
 20
8.2295795535
 30
0.0
 10
12.1745569941
 20
8.2296229077
 30
0.0
 10
12.1745248804
 20
8.2296939337
 30
0.0
 10
12.174467545
 20
8.2298120695
 30
0.0
 10
12.1743862314
 20
8.2299840554
 30
0.0
 10
12.1742884009
 20
8.23018906
 30
0.0
 10
12.1741580489
 20
8.2304628809
 30
0.0
 10
12.1739950786
 20
8.2308049922
 30
0.0
 10
12.173734343
 20
8.2313524625
 30
0.0
 10
12.1734084178
 20
8.2320367686
 30
0.0
 10
12.17301731
 20
8.2328579496
 30
0.0
 10
12.1726262015
 20
8.2336791269
 30
0.0
 10
12.1721047237
 20
8.2347740313
 30
0.0
 10
12.1714528765
 20
8.2361426613
 30
0.0
 10
12.1708010293
 20
8.2375112916
 30
0.0
 10
12.1702795514
 20
8.2386061954
 30
0.0
 10
12.1698884432
 20
8.2394273743
 30
0.0
 10
12.1694973344
 20
8.2402485494
 30
0.0
 10
12.1691714122
 20
8.2409328736
 30
0.0
 10
12.1689106704
 20
8.2414803071
 30
0.0
 10
12.1687477159
 20
8.2418225119
 30
0.0
 10
12.1686173316
 20
8.2420961409
 30
0.0
 10
12.1685195998
 20
8.242301732
 30
0.0
 10
12.1684379771
 20
8.2424718829
 30
0.0
 10
12.1683811937
 20
8.2425932943
 30
0.0
 10
12.1683481956
 20
8.2426590721
 30
0.0
 10
12.1683249976
 20
8.2427185472
 30
0.0
 10
12.1682958726
 20
8.2427392553
 30
0.0
 10
12.1682591067
 20
8.2427803885
 30
0.0
 10
12.1681938031
 20
8.2428460713
 30
0.0
 10
12.1681010159
 20
8.2429431978
 30
0.0
 10
12.1679894557
 20
8.2430583397
 30
0.0
 10
12.1678407841
 20
8.2432123546
 30
0.0
 10
12.1676549187
 20
8.2434047047
 30
0.0
 10
12.1673575486
 20
8.243712559
 30
0.0
 10
12.1669858309
 20
8.2440973446
 30
0.0
 10
12.1665397719
 20
8.2445591011
 30
0.0
 10
12.1660937123
 20
8.245020854
 30
0.0
 10
12.1654989664
 20
8.2456365257
 30
0.0
 10
12.1647555339
 20
8.2464061149
 30
0.0
 10
12.1640121015
 20
8.2471757045
 30
0.0
 10
12.1634173555
 20
8.2477913757
 30
0.0
 10
12.1629712961
 20
8.2482531301
 30
0.0
 10
12.1625252363
 20
8.2487148807
 30
0.0
 10
12.162153521
 20
8.2490996849
 30
0.0
 10
12.1618561461
 20
8.2494075012
 30
0.0
 10
12.161670293
 20
8.2495999481
 30
0.0
 10
12.1615215962
 20
8.2497537642
 30
0.0
 10
12.1614101127
 20
8.2498695136
 30
0.0
 10
12.1613170856
 20
8.2499647391
 30
0.0
 10
12.1612522102
 20
8.2500338155
 30
0.0
 10
12.1612147583
 20
8.2500695113
 30
0.0
 10
12.1611877405
 20
8.2501069213
 30
0.0
 10
12.1611566283
 20
8.2501036673
 30
0.0
 10
12.1611165736
 20
8.2501135126
 30
0.0
 10
12.1610458123
 20
8.2501241334
 30
0.0
 10
12.1609450728
 20
8.250142761
 30
0.0
 10
12.1608240363
 20
8.2501636352
 30
0.0
 10
12.1606627065
 20
8.250191984
 30
0.0
 10
12.1604610263
 20
8.2502272432
 30
0.0
 10
12.1601383481
 20
8.2502837568
 30
0.0
 10
12.1597349968
 20
8.2503543648
 30
0.0
 10
12.1592509768
 20
8.250439109
 30
0.0
 10
12.1587669564
 20
8.2505238493
 30
0.0
 10
12.1581215959
 20
8.2506368377
 30
0.0
 10
12.1573148954
 20
8.2507780727
 30
0.0
 10
12.1565081948
 20
8.250919308
 30
0.0
 10
12.1558628343
 20
8.2510322959
 30
0.0
 10
12.155378814
 20
8.2511170378
 30
0.0
 10
12.1548947935
 20
8.2512017758
 30
0.0
 10
12.1544914439
 20
8.2512724032
 30
0.0
 10
12.1541687622
 20
8.2513288772
 30
0.0
 10
12.1539670908
 20
8.2513642371
 30
0.0
 10
12.153805743
 20
8.2513923791
 30
0.0
 10
12.1536847615
 20
8.2514138853
 30
0.0
 10
12.1535838501
 20
8.2514305357
 30
0.0
 10
12.1535133955
 20
8.251444686
 30
0.0
 10
12.1534728495
 20
8.2514488762
 30
0.0
 10
12.1534432463
 20
8.251462993
 30
0.0
 10
12.1534105609
 20
8.251435161
 30
0.0
 10
12.1533680554
 20
8.2514126839
 30
0.0
 10
12.1532931699
 20
8.2513665315
 30
0.0
 10
12.1531864525
 20
8.2513041637
 30
0.0
 10
12.1530582796
 20
8.2512277967
 30
0.0
 10
12.1528874214
 20
8.251126507
 30
0.0
 10
12.1526738354
 20
8.2509997124
 30
0.0
 10
12.1523321051
 20
8.250796943
 30
0.0
 10
12.1519049398
 20
8.2505434462
 30
0.0
 10
12.1513923425
 20
8.2502392651
 30
0.0
 10
12.1508797448
 20
8.24993508
 30
0.0
 10
12.1501962814
 20
8.2495295012
 30
0.0
 10
12.1493419522
 20
8.2490225272
 30
0.0
 10
12.1484876229
 20
8.2485155535
 30
0.0
 10
12.1478041595
 20
8.2481099742
 30
0.0
 10
12.1472915619
 20
8.2478057907
 30
0.0
 10
12.1467789645
 20
8.2475016035
 30
0.0
 10
12.1463517996
 20
8.2472481258
 30
0.0
 10
12.1460100684
 20
8.2470453174
 30
0.0
 10
12.1457964849
 20
8.2469186222
 30
0.0
 10
12.1456256214
 20
8.2468171284
 30
0.0
 10
12.1454974647
 20
8.2467413848
 30
0.0
 10
12.1453906965
 20
8.2466770665
 30
0.0
 10
12.1453159017
 20
8.2466343961
 30
0.0
 10
12.1452732508
 20
8.24660634
 30
0.0
 10
12.1452410121
 20
8.2465956449
 30
0.0
 10
12.1452097309
 20
8.2465453982
 30
0.0
 10
12.1451676887
 20
8.2464921987
 30
0.0
 10
12.1450942704
 20
8.2463926717
 30
0.0
 10
12.1449893057
 20
8.2462538509
 30
0.0
 10
12.1448633829
 20
8.2460858274
 30
0.0
 10
12.1446954736
 20
8.2458622985
 30
0.0
 10
12.1444855913
 20
8.2455827154
 30
0.0
 10
12.1441497771
 20
8.2451354786
 30
0.0
 10
12.1437300103
 20
8.2445763996
 30
0.0
 10
12.1432262897
 20
8.2439055189
 30
0.0
 10
12.1427225692
 20
8.2432346345
 30
0.0
 10
12.1420509419
 20
8.2423401232
 30
0.0
 10
12.1412114078
 20
8.2412219836
 30
0.0
 10
12.1403718736
 20
8.2401038443
 30
0.0
 10
12.1397002463
 20
8.2392093325
 30
0.0
 10
12.1391965257
 20
8.2385384496
 30
0.0
 10
12.1386928054
 20
8.2378675631
 30
0.0
 10
12.1382730378
 20
8.2373085021
 30
0.0
 10
12.1379372251
 20
8.2368612286
 30
0.0
 10
12.1377273391
 20
8.2365817389
 30
0.0
 10
12.1375594374
 20
8.2363580183
 30
0.0
 10
12.1374334915
 20
8.2361905805
 30
0.0
 10
12.1373285992
 20
8.2360499274
 30
0.0
 10
12.1372550516
 20
8.2359536712
 30
0.0
 10
12.1372132165
 20
8.235895231
 30
0.0
 10
12.1371812989
 20
8.235861082
 30
0.0
 10
12.1371514506
 20
8.2357899268
 30
0.0
 10
12.1371109311
 20
8.2357079614
 30
0.0
 10
12.1370403584
 20
8.2355585077
 30
0.0
 10
12.1369393643
 20
8.2353481467
 30
0.0
 10
12.1368182466
 20
8.2350943676
 30
0.0
 10
12.1366567301
 20
8.2347564656
 30
0.0
 10
12.1364548435
 20
8.2343339272
 30
0.0
 10
12.1361318199
 20
8.2336579557
 30
0.0
 10
12.1357280421
 20
8.2328129604
 30
0.0
 10
12.135243508
 20
8.2317989793
 30
0.0
 10
12.1347589741
 20
8.2307849946
 30
0.0
 10
12.1341129288
 20
8.2294330163
 30
0.0
 10
12.1333053722
 20
8.2277430431
 30
0.0
 10
12.1324978157
 20
8.2260530696
 30
0.0
 10
12.1318517704
 20
8.2247010917
 30
0.0
 10
12.1313672367
 20
8.2236871059
 30
0.0
 10
12.1308827019
 20
8.222673129
 30
0.0
 10
12.1304789263
 20
8.2218281206
 30
0.0
 10
12.1301558982
 20
8.2211521758
 30
0.0
 10
12.129954023
 20
8.2207295695
 30
0.0
 10
12.129792483
 20
8.2203918068
 30
0.0
 10
12.1296714371
 20
8.220137602
 30
0.0
 10
12.1295702184
 20
8.2199285731
 30
0.0
 10
12.1294900221
 20
8.2197550512
 30
0.0
 10
12.1294277471
 20
8.219642121
 30
0.0
 10
12.1293735939
 20
8.2194634955
 30
0.0
 10
12.1292985526
 20
8.2192482764
 30
0.0
 10
12.1292057244
 20
8.2189713792
 30
0.0
 10
12.1290939138
 20
8.2186424725
 30
0.0
 10
12.1289449786
 20
8.2182027532
 30
0.0
 10
12.1287587598
 20
8.2176535072
 30
0.0
 10
12.1284608375
 20
8.2167744882
 30
0.0
 10
12.1280884251
 20
8.2156757918
 30
0.0
 10
12.1276415344
 20
8.214357323
 30
0.0
 10
12.1271946425
 20
8.213038863
 30
0.0
 10
12.1265987871
 20
8.2112809133
 30
0.0
 10
12.1258539676
 20
8.2090834773
 30
0.0
 10
12.1251091483
 20
8.2068860406
 30
0.0
 10
12.1245132927
 20
8.2051280921
 30
0.0
 10
12.1240664013
 20
8.2038096285
 30
0.0
 10
12.1236195086
 20
8.2024911732
 30
0.0
 10
12.1232471024
 20
8.2013924347
 30
0.0
 10
12.1229491676
 20
8.2005135016
 30
0.0
 10
12.1227629806
 20
8.199964037
 30
0.0
 10
12.12261398
 20
8.1995247663
 30
0.0
 10
12.1225023694
 20
8.199194489
 30
0.0
 10
12.1224089155
 20
8.1989218802
 30
0.0
 10
12.1223351506
 20
8.1986979119
 30
0.0
 10
12.1222770994
 20
8.1985460062
 30
0.0
 10
12.1222294592
 20
8.198332759
 30
0.0
 10
12.1221623022
 20
8.1980698568
 30
0.0
 10
12.1220796038
 20
8.1977338775
 30
0.0
 10
12.1219798315
 20
8.197333849
 30
0.0
 10
12.1218469884
 20
8.1967993786
 30
0.0
 10
12.1216808706
 20
8.1961316669
 30
0.0
 10
12.1214151179
 20
8.1950631179
 30
0.0
 10
12.1210829148
 20
8.1937275038
 30
0.0
 10
12.1206842762
 20
8.192124736
 30
0.0
 10
12.1202856363
 20
8.1905219764
 30
0.0
 10
12.1197541169
 20
8.1883849607
 30
0.0
 10
12.1190897171
 20
8.1857136928
 30
0.0
 10
12.1182924391
 20
8.1825081674
 30
0.0
 10
12.1176280358
 20
8.179836907
 30
0.0
 10
12.1170965242
 20
8.1776998747
 30
0.0
 10
12.1167643042
 20
8.1763642842
 30
0.0
 10
12.1164985862
 20
8.1752956864
 30
0.0
 10
12.1162991387
 20
8.1744945816
 30
0.0
 10
12.1161334383
 20
8.1738259013
 30
0.0
 10
12.1160164553
 20
8.1733599701
 30
0.0
 10
12.115951158
 20
8.1730903744
 30
0.0
 10
12.1158978182
 20
8.1728976127
 30
0.0
 10
12.1158611705
 20
8.1726687854
 30
0.0
 10
12.1158064846
 20
8.1723762624
 30
0.0
 10
12.1157134969
 20
8.1718584859
 30
0.0
 10
12.115579239
 20
8.1711218695
 30
0.0
 10
12.1154187367
 20
8.1702366182
 30
0.0
 10
12.1152045216
 20
8.1690567412
 30
0.0
 10
12.1149368253
 20
8.1675817382
 30
0.0
 10
12.1145084706
 20
8.1652218209
 30
0.0
 10
12.1139730409
 20
8.1622718947
 30
0.0
 10
12.1133305206
 20
8.1587319942
 30
0.0
 10
12.1126879972
 20
8.1551920975
 30
0.0
 10
12.1121525755
 20
8.1522421616
 30
0.0
 10
12.1117242049
 20
8.1498822638
 30
0.0
 10
12.1114565491
 20
8.1484072113
 30
0.0
 10
12.1112422507
 20
8.1472274358
 30
0.0
 10
12.1110820029
 20
8.1463418747
 30
0.0
 10
12.1109469488
 20
8.1456062276
 30
0.0
 10
12.1108423017
 20
8.1450125054
 30
0.0
 10
12.1107545363
 20
8.144581435
 30
0.0
 10
12.1107021929
 20
8.1440960818
 30
0.0
 10
12.1106200283
 20
8.1434679059
 30
0.0
 10
12.1105215678
 20
8.1426761804
 30
0.0
 10
12.1104015982
 20
8.1417288943
 30
0.0
 10
12.1102422733
 20
8.1404648737
 30
0.0
 10
12.1100428998
 20
8.1388851809
 30
0.0
 10
12.1097240237
 20
8.1363574864
 30
0.0
 10
12.109325388
 20
8.1331979314
 30
0.0
 10
12.1088470376
 20
8.1294064413
 30
0.0
 10
12.1083687021
 20
8.1256149469
 30
0.0
 10
12.107970029
 20
8.1224554025
 30
0.0
 10
12.1076512276
 20
8.1199276868
 30
0.0
 10
12.1074117516
 20
8.1180321202
 30
0.0
 10
12.1072133807
 20
8.1164517807
 30
0.0
 10
12.107072181
 20
8.1153469181
 30
0.0
 10
12.1069951493
 20
8.1147134211
 30
0.0
 10
12.1069270827
 20
8.1142443462
 30
0.0
 10
12.1068983606
 20
8.1137521533
 30
0.0
 10
12.1068463407
 20
8.1131039599
 30
0.0
 10
12.1067617001
 20
8.1119658644
 30
0.0
 10
12.1066374419
 20
8.110341978
 30
0.0
 10
12.106489763
 20
8.1083924734
 30
0.0
 10
12.1062923578
 20
8.1057934277
 30
0.0
 10
12.1060457741
 20
8.1025445197
 30
0.0
 10
12.1057497944
 20
8.0986458741
 30
0.0
 10
12.1054538553
 20
8.094747214
 30
0.0
 10
12.1052071699
 20
8.091498342
 30
0.0
 10
12.1050099682
 20
8.0888992242
 30
0.0
 10
12.1048616687
 20
8.0869499398
 30
0.0
 10
12.1047393518
 20
8.0853253645
 30
0.0
 10
12.1046512457
 20
8.0841884988
 30
0.0
 10
12.1046047784
 20
8.0835383349
 30
0.0
 10
12.1045590006
 20
8.0830521946
 30
0.0
 10
12.1045549924
 20
8.0825603872
 30
0.0
 10
12.1045350784
 20
8.0819066207
 30
0.0
 10
12.1045070173
 20
8.0807616083
 30
0.0
 10
12.1044633809
 20
8.0791263578
 30
0.0
 10
12.1044125364
 20
8.0771638511
 30
0.0
 10
12.1043442131
 20
8.0745472475
 30
0.0
 10
12.1042589907
 20
8.0712764684
 30
0.0
 10
12.1041225332
 20
8.0660432356
 30
0.0
 10
12.1039519964
 20
8.0595016898
 30
0.0
 10
12.1038155563
 20
8.0542684546
 30
0.0
 10
12.1037473376
 20
8.0516518368
 30
0.0
  0
ENDSEC
  0
SECTION
  2
OBJECTS
  0
DICTIONARY
  5
C
100
AcDbDictionary
280
0
281
1
  3
ACAD_GROUP
350
D
  3
ACAD_MLINESTYLE
350
17
  3
ACAD_LAYOUT
350
1A
  3
ACAD_PLOTSETTINGS
350
19
  3
ACAD_PLOTSTYLENAME
350
E
  3
ACAD_IMAGE_DICT
350
       42B
  3
ACAD_IMAGE_VARS
350
       42C
  3
ACAD_TABLESTYLE
350
       42D
  0
IMAGEDEF_REACTOR
  5
42A
100
AcDbRasterImageDefReactor
 90
2
330
275
  0
DICTIONARY
  5
D
102
{ACAD_REACTORS
330
C
102
}
100
AcDbDictionary
280
0
281
1
  0
ACDBDICTIONARYWDFLT
  5
E
102
{ACAD_REACTORS
330
C
102
}
100
AcDbDictionary
281
1
  3
Normal
350
F
100
AcDbDictionaryWithDefault
340
F
  0
DICTIONARY
  5
42B
330
C
100
AcDbDictionary
281
1
  3
BK8_assy_2_img_1
350
       430
  0
RASTERVARIABLES
  5
42C
330
C
100
AcDbRasterVariables
 90
0
 70
0
 71
1
 72
5
  0
DICTIONARY
  5
17
102
{ACAD_REACTORS
330
C
102
}
100
AcDbDictionary
280
0
281
1
  3
Standard
350
18
  0
DICTIONARY
  5
42D
330
C
100
AcDbDictionary
281
1
  3
Standard
350
       431
  3
Standard1
350
       432
  0
DICTIONARY
  5
19
102
{ACAD_REACTORS
330
C
102
}
100
AcDbDictionary
281
1
  0
DICTIONARY
  5
1A
102
{ACAD_REACTORS
330
C
102
}
100
AcDbDictionary
281
1
  3
Model
350
42E
  3
Layout1
350
42F
  0
ACDBPLACEHOLDER
  5
F
102
{ACAD_REACTORS
330
E
102
}
  0
MLINESTYLE
  5
18
102
{ACAD_REACTORS
330
17
102
}
100
AcDbMlineStyle
  2
STANDARD
 70
0
  3

 62
256
 51
90.0
 52
90.0
 71
2
 49
0.5
 62
256
  6
BYLAYER
 49
-0.5
 62
256
  6
BYLAYER
  0
LAYOUT
  5
42E
102
{ACAD_REACTORS
330
1A
102
}
100
AcDbPlotSettings
  1

  2
none_device
  4
ANSI_C_(22.00_x_17.00_Inches)
  6

 40
0.0
 41
0.0
 42
0.0
 43
0.0
 44
558.8
 45
431.8
 46
0.0
 47
0.0
 48
0.0
 49
0.0
140
0.0
141
0.0
142
1.0
143
1.0
 70
1024
 72
0
 73
0
 74
0
  7

 75
0
147
1.0
148
0.0
149
0.0
100
AcDbLayout
  1
Model
 70
0
 71
0
 10
0.0
 20
0.0
 11
22.0
 21
17.0
 12
0.0
 22
0.0
 32
0.0
 14
0.0
 24
0.0
 34
0.0
 15
0.0
 25
0.0
 35
0.0
146
0.0
 13
0.0
 23
0.0
 33
0.0
 16
1.0
 26
0.0
 36
0.0
 17
0.0
 27
1.0
 37
0.0
 76
0
330
20F
345
0
346
0
  0
LAYOUT
  5
42F
102
{ACAD_REACTORS
330
1A
102
}
100
AcDbPlotSettings
  1

  2
none_device
  4
ANSI_C_(22.00_x_17.00_Inches)
  6

 40
0.0
 41
0.0
 42
0.0
 43
0.0
 44
558.8
 45
431.8
 46
0.0
 47
0.0
 48
0.0
 49
0.0
140
0.0
141
0.0
142
1.0
143
1.0
 70
0
 72
0
 73
0
 74
0
  7

 75
0
147
1.0
148
0.0
149
0.0
100
AcDbLayout
  1
Layout1
 70
0
 71
1
 10
0.0
 20
0.0
 11
22.0
 21
17.0
 12
0.0
 22
0.0
 32
0.0
 14
0.0
 24
0.0
 34
0.0
 15
0.0
 25
0.0
 35
0.0
146
0.0
 13
0.0
 23
0.0
 33
0.0
 16
1.0
 26
0.0
 36
0.0
 17
0.0
 27
1.0
 37
0.0
 76
0
330
210
345
0
346
0
  0
IMAGEDEF
  5
430
102
{ACAD_REACTORS
330
42B
330
42A
102
}
100
AcDbRasterImageDef
 90
0
  1
BK8_assy_2_img_1.png
 10
369.0
 20
92.0
 11
0.0066666667
 21
0.0066666667
280
1
281
0
  0
TABLESTYLE
  5
431
102
{ACAD_REACTORS
330
42D
330
278
102
}
330
42D
100
AcDbTableStyle
  3
Standard
 70
0
 71
0
 40
0.06
 41
0.06
280
1
281
1
  7
Standard
140
0.18
170
1
 62
0
 63
7
283
0
  7
Standard
140
0.18
170
1
 62
0
 63
7
283
0
  7
Standard
140
0.18
170
1
 62
0
 63
7
283
0
  0
TABLESTYLE
  5
432
102
{ACAD_REACTORS
330
42D
330
277
102
}
330
42D
100
AcDbTableStyle
  3
Standard1
 70
1
 71
0
 40
0.06
 41
0.06
280
1
281
1
  7
Standard
140
0.18
170
1
 62
0
 63
7
283
0
  7
Standard
140
0.18
170
1
 62
0
 63
7
283
0
  7
Standard
140
0.18
170
1
 62
0
 63
7
283
0
  0
ENDSEC
  0
EOF
