999
DXF file: BK7_assy_2.dxf
999
Pro/ENGINEER 2014200 by Parametric Technology Corporation
  0
SECTION
  2
HEADER
  9
$ACADVER
  1
AC1021
  9
$DWGCODEPAGE
  3
ANSI_1252
  9
$EXTMAX
 10
22.0
 20
17.0
 30
0.0
  9
$EXTMIN
 10
0.0
 20
0.0
 30
0.0
  9
$LIMMIN
 10
0.0
 20
0.0
  9
$LIMMAX
 10
22.0
 20
17.0
  9
$VIEWCTR
 10
11.0
 20
8.5
  9
$VIEWSIZE
 40
17.0
  9
$CLAYER
  8
0
  9
$LTSCALE
 40
1.21
  9
$CELTYPE
  6
BYLAYER
  9
$DIMSCALE
 40
1.0
  9
$DIMASZ
 40
0.1875
  9
$DIMEXO
 40
0.0625
  9
$DIMDLI
 40
0.836
  9
$DIMEXE
 40
0.125
  9
$DIMCEN
 40
0.198
  9
$DIMLFAC
 40
1.0
  9
$DIMBLK
  1
_FILLED
  9
$DIMTXT
 40
0.1
  9
$DIMTOL
 70
0
  9
$DIMLIM
 70
0
  9
$DIMTFAC
 40
1.0
  9
$DIMGAP
 40
0.09
  9
$DIMDSEP
 70
46
  9
$AUNITS
 70
0
  9
$PDMODE
 70
3
  9
$PDSIZE
 40
0.3125
  9
$HANDSEED
  5
385
  9
$TILEMODE
 70
1
  9
$MEASUREMENT
 70
0
  9
$INSUNITS
 70
1
  0
ENDSEC
  0
SECTION
  2
CLASSES
  0
CLASS
  1
ACDBDICTIONARYWDFLT
  2
AcDbDictionaryWithDefault
  3
AutoCAD 2000
 90
0
 91
1
280
0
281
0
  0
CLASS
  1
ACDBPLACEHOLDER
  2
AcDbPlaceHolder
  3
AutoCAD 2000
 90
0
 91
1
280
0
281
0
  0
CLASS
  1
LAYOUT
  2
AcDbLayout
  3
AutoCAD 2000
 90
0
 91
0
280
0
281
0
  0
CLASS
  1
RASTERVARIABLES
  2
AcDbRasterVariables
  3
ISM
 90
0
 91
1
280
0
281
0
  0
CLASS
  1
IMAGEDEF
  2
AcDbRasterImageDef
  3
ISM
 90
0
 91
1
280
0
281
0
  0
CLASS
  1
IMAGEDEF_REACTOR
  2
AcDbRasterImageDefReactor
  3
ISM
 90
0
 91
1
280
0
281
0
  0
CLASS
  1
IMAGE
  2
AcDbRasterImage
  3
ISM
 90
127
 91
1
280
0
281
1
  0
CLASS
  1
TABLESTYLE
  2
AcDbTableStyle
  3
ObjectDBX Classes
 90
2047
 91
1
280
0
281
0
  0
CLASS
  1
ACAD_TABLE
  2
AcDbTable
  3
ObjectDBX Classes
 90
1025
 91
2
280
0
281
1
  0
ENDSEC
  0
SECTION
  2
TABLES
  0
TABLE
  2
VPORT
  5
8
100
AcDbSymbolTable
 70
2
  0
VPORT
  5
1F4
100
AcDbSymbolTableRecord
100
AcDbViewportTableRecord
  2
*ACTIVE
 70
0
 10
0.0
 20
0.0
 11
1.0
 21
1.0
 12
11.0
 22
8.5
 13
0.0
 23
0.0
 14
1.0
 24
1.0
 15
0.0
 25
0.0
 16
0.0
 26
0.0
 36
1.0
 17
0.0
 27
0.0
 37
0.0
 40
17.0
 41
1.2941176471
 42
50.0
 43
0.0
 44
0.0
 50
0.0
 51
0.0
 71
0
 72
100
 73
1
 74
1
 75
0
 76
0
 77
0
 78
0
  0
ENDTAB
  0
TABLE
  2
LTYPE
  5
5
100
AcDbSymbolTable
 70
6
  0
LTYPE
  5
14
100
AcDbSymbolTableRecord
100
AcDbLinetypeTableRecord
  2
BYBLOCK
 70
0
  3

 72
65
 73
0
 40
0.0
  0
LTYPE
  5
15
100
AcDbSymbolTableRecord
100
AcDbLinetypeTableRecord
  2
BYLAYER
 70
0
  3

 72
65
 73
0
 40
0.0
  0
LTYPE
  5
16
100
AcDbSymbolTableRecord
100
AcDbLinetypeTableRecord
  2
CONTINUOUS
 70
64
  3
Solid line
 72
65
 73
0
 40
0.0
  0
LTYPE
  5
1F5
100
AcDbSymbolTableRecord
100
AcDbLinetypeTableRecord
  2
CENTER
 70
64
  3
____ _ ____ _ ____ _ ____ _ ____ _ ____ _ ____
 72
65
 73
4
 40
0.6
 49
0.375
 74
0
 49
-0.075
 74
0
 49
0.075
 74
0
 49
-0.075
 74
0
  0
LTYPE
  5
1F6
100
AcDbSymbolTableRecord
100
AcDbLinetypeTableRecord
  2
HIDDEN
 70
64
  3
- - - - - - - - - - - - - - - - - - - -
 72
65
 73
2
 40
0.2
 49
0.1
 74
0
 49
-0.1
 74
0
  0
LTYPE
  5
1F7
100
AcDbSymbolTableRecord
100
AcDbLinetypeTableRecord
  2
PHANTOM
 70
64
  3
_____ _ _ _____ _ _ _____ _ _ _____
 72
65
 73
6
 40
0.8
 49
0.45
 74
0
 49
-0.05
 74
0
 49
0.1
 74
0
 49
-0.05
 74
0
 49
0.1
 74
0
 49
-0.05
 74
0
  0
LTYPE
  5
1F8
100
AcDbSymbolTableRecord
100
AcDbLinetypeTableRecord
  2
DOT
 70
64
  3
. . . . . . . . . . . . . . . . . . . .
 72
65
 73
2
 40
0.2
 49
0.1
 74
0
 49
-0.1
 74
0
  0
LTYPE
  5
1F9
100
AcDbSymbolTableRecord
100
AcDbLinetypeTableRecord
  2
DASHED
 70
64
  3
- - - - - - - - - - - - - - - - - - - -
 72
65
 73
2
 40
0.2
 49
0.1
 74
0
 49
-0.1
 74
0
  0
ENDTAB
  0
TABLE
  2
LAYER
  5
2
100
AcDbSymbolTable
 70
36
  0
LAYER
  5
10
100
AcDbSymbolTableRecord
100
AcDbLayerTableRecord
  2
0
 70
0
 62
7
  6
CONTINUOUS
370
-3
390
F
  0
LAYER
  5
1FA
100
AcDbSymbolTableRecord
100
AcDbLayerTableRecord
  2
DEFAULT_1
 70
0
 62
7
  6
CENTER
370
-3
390
F
  0
LAYER
  5
1FB
100
AcDbSymbolTableRecord
100
AcDbLayerTableRecord
  2
DEFAULT_2
 70
0
 62
8
  6
HIDDEN
370
-3
390
F
  0
LAYER
  5
1FC
100
AcDbSymbolTableRecord
100
AcDbLayerTableRecord
  2
DEFAULT_3
 70
0
 62
7
  6
PHANTOM
370
-3
390
F
  0
LAYER
  5
1FD
100
AcDbSymbolTableRecord
100
AcDbLayerTableRecord
  2
01___PRT_ALL_DTM_PLN
 70
0
 62
7
  6
CONTINUOUS
370
-3
390
F
  0
LAYER
  5
1FE
100
AcDbSymbolTableRecord
100
AcDbLayerTableRecord
  2
01___PRT_DEF_DTM_PLN
 70
0
 62
7
  6
CONTINUOUS
370
-3
390
F
  0
LAYER
  5
1FF
100
AcDbSymbolTableRecord
100
AcDbLayerTableRecord
  2
02___PRT_ALL_AXES
 70
0
 62
7
  6
CONTINUOUS
370
-3
390
F
  0
LAYER
  5
200
100
AcDbSymbolTableRecord
100
AcDbLayerTableRecord
  2
03___PRT_ALL_CURVES
 70
0
 62
7
  6
CONTINUOUS
370
-3
390
F
  0
LAYER
  5
201
100
AcDbSymbolTableRecord
100
AcDbLayerTableRecord
  2
04___PRT_ALL_DTM_PNT
 70
0
 62
7
  6
CONTINUOUS
370
-3
390
F
  0
LAYER
  5
202
100
AcDbSymbolTableRecord
100
AcDbLayerTableRecord
  2
05___PRT_ALL_DTM_CSYS
 70
0
 62
7
  6
CONTINUOUS
370
-3
390
F
  0
LAYER
  5
203
100
AcDbSymbolTableRecord
100
AcDbLayerTableRecord
  2
05___PRT_DEF_DTM_CSYS
 70
0
 62
7
  6
CONTINUOUS
370
-3
390
F
  0
LAYER
  5
204
100
AcDbSymbolTableRecord
100
AcDbLayerTableRecord
  2
06___PRT_ALL_SURFS
 70
0
 62
7
  6
CONTINUOUS
370
-3
390
F
  0
LAYER
  5
205
100
AcDbSymbolTableRecord
100
AcDbLayerTableRecord
  2
DATUM_PLANES
 70
0
 62
7
  6
CONTINUOUS
370
-3
390
F
  0
LAYER
  5
206
100
AcDbSymbolTableRecord
100
AcDbLayerTableRecord
  2
DIMENSIONS
 70
0
 62
7
  6
CONTINUOUS
370
-3
390
F
  0
LAYER
  5
207
100
AcDbSymbolTableRecord
100
AcDbLayerTableRecord
  2
PARAMETERDIMENSIONS
 70
0
 62
7
  6
CONTINUOUS
370
-3
390
F
  0
LAYER
  5
208
100
AcDbSymbolTableRecord
100
AcDbLayerTableRecord
  2
PLANE
 70
0
 62
7
  6
CONTINUOUS
370
-3
390
F
  0
LAYER
  5
209
100
AcDbSymbolTableRecord
100
AcDbLayerTableRecord
  2
PORT_AREAS
 70
0
 62
7
  6
CONTINUOUS
370
-3
390
F
  0
LAYER
  5
20A
100
AcDbSymbolTableRecord
100
AcDbLayerTableRecord
  2
SUNNBOMCOSMETIC
 70
0
 62
7
  6
CONTINUOUS
370
-3
390
F
  0
LAYER
  5
20B
100
AcDbSymbolTableRecord
100
AcDbLayerTableRecord
  2
SUNNBOMSTAMPING
 70
0
 62
7
  6
CONTINUOUS
370
-3
390
F
  0
LAYER
  5
20C
100
AcDbSymbolTableRecord
100
AcDbLayerTableRecord
  2
THREADS
 70
0
 62
7
  6
CONTINUOUS
370
-3
390
F
  0
ENDTAB
  0
TABLE
  2
STYLE
  5
3
100
AcDbSymbolTable
 70
1
  0
STYLE
  5
11
100
AcDbSymbolTableRecord
100
AcDbTextStyleTableRecord
  2
STANDARD
 70
0
 40
0.0
 41
0.8
 50
0.0
 71
0
 42
0.2
  3
txt
  4

  0
STYLE
  5
20D
100
AcDbSymbolTableRecord
100
AcDbTextStyleTableRecord
  2
TEXTSTYLE_1
 70
0
 40
0.0
 41
0.8
 50
0.0
 71
0
 42
0.2
  3
gdt
  4

  0
ENDTAB
  0
TABLE
  2
VIEW
  5
6
100
AcDbSymbolTable
 70
0
  0
ENDTAB
  0
TABLE
  2
UCS
  5
7
100
AcDbSymbolTable
 70
0
  0
ENDTAB
  0
TABLE
  2
APPID
  5
9
100
AcDbSymbolTable
 70
1
  0
APPID
  5
20E
100
AcDbSymbolTableRecord
100
AcDbRegAppTableRecord
  2
ACAD
 70
0
  0
ENDTAB
  0
TABLE
  2
BLOCK_RECORD
  5
1
100
AcDbSymbolTable
 70
0
  0
BLOCK_RECORD
  5
20F
100
AcDbSymbolTableRecord
100
AcDbBlockTableRecord
  2
*Model_Space
  0
BLOCK_RECORD
  5
210
100
AcDbSymbolTableRecord
100
AcDbBlockTableRecord
  2
*Paper_Space
  0
BLOCK_RECORD
  5
211
100
AcDbSymbolTableRecord
100
AcDbBlockTableRecord
  2
SUN_FIRST_THIRD_ANGLE_BL0
  0
BLOCK_RECORD
  5
212
100
AcDbSymbolTableRecord
100
AcDbBlockTableRecord
  2
*T1
  0
BLOCK_RECORD
  5
213
100
AcDbSymbolTableRecord
100
AcDbBlockTableRecord
  2
*T2
  0
ENDTAB
  0
TABLE
  2
DIMSTYLE
  5
A
100
AcDbSymbolTable
 70
1
100
AcDbDimStyleTable
 71
0
  0
DIMSTYLE
105
214
100
AcDbSymbolTableRecord
100
AcDbDimStyleTableRecord
  2
STANDARD
 70
0
  3

  4

 40
1.0
 41
0.1875
 42
0.0625
 43
0.38
 44
0.125
 45
0.0
 46
0.0
 47
0.001
 48
0.001
140
0.1
141
0.09
142
0.0
143
25.4
144
1.0
145
0.0
146
1.0
147
0.09
 71
0.0
 72
0.0
 73
1
 74
1
 75
0
 76
0
 77
0
 78
4
170
0
171
2
172
0
173
0
174
0
175
0
176
0
177
0
178
0
270
2
271
3
272
3
273
2
274
2
275
0
280
0
281
0
282
0
283
1
284
4
285
0
286
0
287
3
288
0
340
11
278
46
  0
ENDTAB
  0
ENDSEC
  0
SECTION
  2
BLOCKS
  0
BLOCK
  5
20
100
AcDbEntity
  8
0
100
AcDbBlockBegin
  2
*Model_Space
 70
0
 10
0.0
 20
0.0
 30
0.0
  3
*Model_Space
  1

  0
ENDBLK
  5
21
100
AcDbEntity
  8
0
100
AcDbBlockEnd
  0
BLOCK
  5
1C
100
AcDbEntity
  8
0
100
AcDbBlockBegin
  2
*Paper_Space
 70
0
 10
0.0
 20
0.0
 30
0.0
  3
*Paper_Space
  1

  0
ENDBLK
  5
1D
100
AcDbEntity
  8
0
100
AcDbBlockEnd
  0
BLOCK
  5
215
100
AcDbEntity
  8
0
100
AcDbBlockBegin
 62
2
  6
CONTINUOUS
  2
SUN_FIRST_THIRD_ANGLE_BL0
 70
64
 10
20.4816717061
 20
1.2289683772
  3
SUN_FIRST_THIRD_ANGLE_BL0
  1

  0
TEXT
  5
216
100
AcDbEntity
  8
0
100
AcDbText
 62
2
  6
CONTINUOUS
 10
19.4750896608
 20
1.4136269581
  7
STANDARD
 40
0.08
  1
FIRST ANGLE
 41
0.8
 72
0
100
AcDbText
  0
TEXT
  5
217
100
AcDbEntity
  8
0
100
AcDbText
 62
2
  6
CONTINUOUS
 10
20.7842537513
 20
1.4047600029
  7
STANDARD
 40
0.08
  1
THIRD ANGLE
 41
0.8
 72
0
100
AcDbText
  0
LINE
  5
218
100
AcDbEntity
  8
0
100
AcDbLine
 62
7
  6
CONTINUOUS
 10
19.4767170086
 20
1.1727031207
 11
19.6334271527
 21
1.1717972817
  0
LINE
  5
219
100
AcDbEntity
  8
0
100
AcDbLine
 62
7
  6
CONTINUOUS
 10
19.6596964832
 20
1.1717972817
 11
19.6950230232
 21
1.171593082
  0
LINE
  5
21A
100
AcDbEntity
  8
0
100
AcDbLine
 62
7
  6
CONTINUOUS
 10
19.7194818561
 20
1.1708914427
 11
19.8852396156
 21
1.1699333054
  0
LINE
  5
21B
100
AcDbEntity
  8
0
100
AcDbLine
 62
7
  6
CONTINUOUS
 10
19.4758111696
 20
1.2723454088
 11
19.88525039
 21
1.3511534004
  0
LINE
  5
21C
100
AcDbEntity
  8
0
100
AcDbLine
 62
7
  6
CONTINUOUS
 10
19.88525039
 20
1.3511534004
 11
19.8831348489
 21
0.9851647912
  0
LINE
  5
21D
100
AcDbEntity
  8
0
100
AcDbLine
 62
7
  6
CONTINUOUS
 10
19.8831348489
 20
0.9851647912
 11
19.4767170086
 21
1.0658141206
  0
LINE
  5
21E
100
AcDbEntity
  8
0
100
AcDbLine
 62
7
  6
CONTINUOUS
 10
19.4767170086
 20
1.0658141206
 11
19.4779056764
 21
1.2714536432
  0
CIRCLE
  5
21F
100
AcDbEntity
  8
0
100
AcDbCircle
 62
7
  6
CONTINUOUS
 10
20.2068232291
 20
1.1717972817
 40
0.175742101
  0
CIRCLE
  5
220
100
AcDbEntity
  8
0
100
AcDbCircle
 62
7
  6
CONTINUOUS
 10
20.2068232291
 20
1.1717972817
 40
0.1005522074
  0
LINE
  5
221
100
AcDbEntity
  8
0
100
AcDbLine
 62
7
  6
CONTINUOUS
 10
20.2077290681
 20
1.3756110529
 11
20.2071171714
 21
1.2379342989
  0
LINE
  5
222
100
AcDbEntity
  8
0
100
AcDbLine
 62
7
  6
CONTINUOUS
 10
20.2077290681
 20
1.2016899681
 11
20.2074674401
 21
1.1428236749
  0
LINE
  5
223
100
AcDbEntity
  8
0
100
AcDbLine
 62
7
  6
CONTINUOUS
 10
20.208634907
 20
1.101141841
 11
20.2080230104
 21
0.963465087
  0
LINE
  5
224
100
AcDbEntity
  8
0
100
AcDbLine
 62
7
  6
CONTINUOUS
 10
20.0066328138
 20
1.1745147986
 11
20.1443095678
 21
1.1739029019
  0
LINE
  5
225
100
AcDbEntity
  8
0
100
AcDbLine
 62
7
  6
CONTINUOUS
 10
20.1832714155
 20
1.1727031207
 11
20.238153505
 21
1.172335442
  0
LINE
  5
226
100
AcDbEntity
  8
0
100
AcDbLine
 62
7
  6
CONTINUOUS
 10
20.2756669918
 20
1.1717972817
 11
20.407916871
 21
1.1712095044
  0
CIRCLE
  5
227
100
AcDbEntity
  8
0
100
AcDbCircle
 62
7
  6
CONTINUOUS
 10
20.7509457401
 20
1.1693297793
 40
0.1722024983
  0
CIRCLE
  5
228
100
AcDbEntity
  8
0
100
AcDbCircle
 62
7
  6
CONTINUOUS
 10
20.7509457401
 20
1.1693297793
 40
0.0985164967
  0
LINE
  5
229
100
AcDbEntity
  8
0
100
AcDbLine
 62
7
  6
CONTINUOUS
 10
20.7169767782
 20
1.170462078
 11
20.7825395137
 21
1.1682766535
  0
LINE
  5
22A
100
AcDbEntity
  8
0
100
AcDbLine
 62
7
  6
CONTINUOUS
 10
20.8177513651
 20
1.1693297793
 11
20.947965719
 21
1.1693297793
  0
LINE
  5
22B
100
AcDbEntity
  8
0
100
AcDbLine
 62
7
  6
CONTINUOUS
 10
20.6875370113
 20
1.170462078
 11
20.5573226574
 21
1.170462078
  0
LINE
  5
22C
100
AcDbEntity
  8
0
100
AcDbLine
 62
7
  6
CONTINUOUS
 10
20.7486811426
 20
1.1987695462
 11
20.7486811426
 21
1.1432869085
  0
LINE
  5
22D
100
AcDbEntity
  8
0
100
AcDbLine
 62
7
  6
CONTINUOUS
 10
20.7498134414
 20
1.1059210505
 11
20.7498134414
 21
0.9757066966
  0
LINE
  5
22E
100
AcDbEntity
  8
0
100
AcDbLine
 62
7
  6
CONTINUOUS
 10
20.7486811426
 20
1.2338708068
 11
20.7486811426
 21
1.3640851607
  0
LINE
  5
22F
100
AcDbEntity
  8
0
100
AcDbLine
 62
7
  6
CONTINUOUS
 10
21.0702539817
 20
1.2701043662
 11
21.4790138229
 21
1.3448360823
  0
LINE
  5
230
100
AcDbEntity
  8
0
100
AcDbLine
 62
7
  6
CONTINUOUS
 10
21.4790138229
 20
1.3448360823
 11
21.4790138229
 21
0.9779712941
  0
LINE
  5
231
100
AcDbEntity
  8
0
100
AcDbLine
 62
7
  6
CONTINUOUS
 10
21.4790138229
 20
0.9779712941
 11
21.069121683
 21
1.0617614
  0
LINE
  5
232
100
AcDbEntity
  8
0
100
AcDbLine
 62
7
  6
CONTINUOUS
 10
21.0702539817
 20
1.2701043662
 11
21.069121683
 21
1.0617614
  0
LINE
  5
233
100
AcDbEntity
  8
0
100
AcDbLine
 62
7
  6
CONTINUOUS
 10
21.4790138229
 20
1.1693297793
 11
21.3159628059
 21
1.1693297793
  0
LINE
  5
234
100
AcDbEntity
  8
0
100
AcDbLine
 62
7
  6
CONTINUOUS
 10
21.2876553377
 20
1.1693297793
 11
21.2502894796
 21
1.1693297793
  0
LINE
  5
235
100
AcDbEntity
  8
0
100
AcDbLine
 62
7
  6
CONTINUOUS
 10
21.2208497126
 20
1.1659328831
 11
21.0713862804
 21
1.1659328831
  0
LINE
  5
236
100
AcDbEntity
  8
0
100
AcDbLine
 62
7
  6
CONTINUOUS
 10
20.4796138713
 20
1.5284908897
 11
20.4766766948
 21
0.9294458646
  0
ENDBLK
  5
237
100
AcDbEntity
  8
0
  6
BYBLOCK
 62
0
100
AcDbBlockEnd
  0
BLOCK
  5
238
100
AcDbEntity
  8
0
100
AcDbBlockBegin
  2
*T1
 70
1
 10
0.0
 20
0.0
  3
*T1
  1

  0
LINE
  5
239
100
AcDbEntity
  8
0
100
AcDbLine
 62
2
  6
CONTINUOUS
 10
9.275
 20
0.0
 11
-0.0
 21
0.0
  0
LINE
  5
23A
100
AcDbEntity
  8
0
100
AcDbLine
 62
2
  6
CONTINUOUS
 10
9.275
 20
0.0
 11
9.275
 21
1.25
  0
LINE
  5
23B
100
AcDbEntity
  8
0
100
AcDbLine
 62
2
  6
CONTINUOUS
 10
9.275
 20
0.625
 11
-0.0
 21
0.625
  0
LINE
  5
23C
100
AcDbEntity
  8
0
100
AcDbLine
 62
2
  6
CONTINUOUS
 10
9.275
 20
1.25
 11
-0.0
 21
1.25
  0
LINE
  5
23D
100
AcDbEntity
  8
0
100
AcDbLine
 62
2
  6
CONTINUOUS
 10
6.8
 20
0.0
 11
6.8
 21
1.25
  0
LINE
  5
23E
100
AcDbEntity
  8
0
100
AcDbLine
 62
2
  6
CONTINUOUS
 10
6.4
 20
0.0
 11
6.4
 21
0.625
  0
LINE
  5
23F
100
AcDbEntity
  8
0
100
AcDbLine
 62
2
  6
CONTINUOUS
 10
5.9
 20
0.0
 11
5.9
 21
0.625
  0
LINE
  5
240
100
AcDbEntity
  8
0
100
AcDbLine
 62
2
  6
CONTINUOUS
 10
5.2
 20
0.0
 11
5.2
 21
0.625
  0
LINE
  5
241
100
AcDbEntity
  8
0
100
AcDbLine
 62
2
  6
CONTINUOUS
 10
4.1
 20
0.0
 11
4.1
 21
1.25
  0
LINE
  5
242
100
AcDbEntity
  8
0
100
AcDbLine
 62
2
  6
CONTINUOUS
 10
-0.0
 20
0.0
 11
-0.0
 21
1.25
  0
MTEXT
  5
243
100
AcDbEntity
  8
0
100
AcDbMText
 62
2
  6
CONTINUOUS
  7
STANDARD
 71
2
 72
1
 10
6.6
 20
0.325
 30
0.0
 11
1.0
 21
0.0
 31
0.0
 44
0.9
  1
2
 40
0.125
 41
0.2
  0
MTEXT
  5
244
100
AcDbEntity
  8
0
100
AcDbMText
 62
2
  6
CONTINUOUS
  7
STANDARD
 71
2
 72
1
 10
6.15
 20
0.325
 30
0.0
 11
1.0
 21
0.0
 31
0.0
 44
0.9
  1
C
 40
0.125
 41
0.2
  0
MTEXT
  5
245
100
AcDbEntity
  8
0
100
AcDbMText
 62
2
  6
CONTINUOUS
  7
STANDARD
 71
2
 72
1
 10
5.55
 20
0.325
 30
0.0
 11
1.0
 21
0.0
 31
0.0
 44
0.9
  1
1.000
 40
0.125
 41
1.0
  0
MTEXT
  5
246
100
AcDbEntity
  8
0
100
AcDbMText
 62
2
  6
CONTINUOUS
  7
STANDARD
 71
2
 72
1
 10
4.65
 20
0.325
 30
0.0
 11
1.0
 21
0.0
 31
0.0
 44
0.9
  1
Dec-22-21
 40
0.125
 41
1.8
  0
MTEXT
  5
247
100
AcDbEntity
  8
0
100
AcDbMText
 62
2
  6
CONTINUOUS
  7
STANDARD
 71
2
 72
1
 10
2.05
 20
0.4625
 30
0.0
 11
1.0
 21
0.0
 31
0.0
 44
0.9
  1
T-17A Sandwich ISO 07\P(See Technical Data for Body Features)
 40
0.125
 41
7.6
  0
MTEXT
  5
248
100
AcDbEntity
  8
0
100
AcDbMText
 62
2
  6
CONTINUOUS
  7
STANDARD
 71
1
 72
1
 10
6.45
 20
0.5625
 30
0.0
 11
1.0
 21
0.0
 31
0.0
 44
0.9
  1
SHEET
 40
0.06
 41
0.48
  0
MTEXT
  5
249
100
AcDbEntity
  8
0
100
AcDbMText
 62
2
  6
CONTINUOUS
  7
STANDARD
 71
1
 72
1
 10
5.95
 20
0.5625
 30
0.0
 11
1.0
 21
0.0
 31
0.0
 44
0.9
  1
DWG SIZE
 40
0.06
 41
0.768
  0
MTEXT
  5
24A
100
AcDbEntity
  8
0
100
AcDbMText
 62
2
  6
CONTINUOUS
  7
STANDARD
 71
1
 72
1
 10
5.25
 20
0.5625
 30
0.0
 11
1.0
 21
0.0
 31
0.0
 44
0.9
  1
SCALE
 40
0.06
 41
0.48
  0
MTEXT
  5
24B
100
AcDbEntity
  8
0
100
AcDbMText
 62
2
  6
CONTINUOUS
  7
STANDARD
 71
1
 72
1
 10
4.15
 20
0.5625
 30
0.0
 11
1.0
 21
0.0
 31
0.0
 44
0.9
  1
DATE
 40
0.06
 41
0.384
  0
MTEXT
  5
24C
100
AcDbEntity
  8
0
100
AcDbMText
 62
2
  6
CONTINUOUS
  7
STANDARD
 71
1
 72
1
 10
0.05
 20
0.5625
 30
0.0
 11
1.0
 21
0.0
 31
0.0
 44
0.9
  1
DESCRIPTION
 40
0.06
 41
1.056
  0
MTEXT
  5
24D
100
AcDbEntity
  8
0
100
AcDbMText
 62
2
  6
CONTINUOUS
  7
STANDARD
 71
2
 72
1
 10
5.45
 20
1.0375
 30
0.0
 11
1.0
 21
0.0
 31
0.0
 44
0.9
  1
ALL DIMENSIONS IN INCH\PVIEWS ARE THIRD ANGLE
 40
0.12
 41
4.224
  0
MTEXT
  5
24E
100
AcDbEntity
  8
0
100
AcDbMText
 62
2
  6
CONTINUOUS
  7
STANDARD
 71
2
 72
1
 10
2.05
 20
0.95
 30
0.0
 11
1.0
 21
0.0
 31
0.0
 44
0.9
  1
BK7
 40
0.125
 41
0.6
  0
MTEXT
  5
24F
100
AcDbEntity
  8
0
100
AcDbMText
 62
2
  6
CONTINUOUS
  7
STANDARD
 71
1
 72
1
 10
0.05
 20
1.1875
 30
0.0
 11
1.0
 21
0.0
 31
0.0
 44
0.9
  1
MODEL
 40
0.06
 41
0.48
  0
ENDBLK
  5
250
100
AcDbEntity
  8
0
  6
BYBLOCK
 62
0
100
AcDbBlockEnd
  0
BLOCK
  5
251
100
AcDbEntity
  8
0
100
AcDbBlockBegin
  2
*T2
 70
1
 10
0.0
 20
0.0
  3
*T2
  1

  0
LINE
  5
252
100
AcDbEntity
  8
0
100
AcDbLine
 62
2
  6
CONTINUOUS
 10
0.0
 20
0.0
 11
9.055
 21
0.0
  0
LINE
  5
253
100
AcDbEntity
  8
0
100
AcDbLine
 62
2
  6
CONTINUOUS
 10
0.0
 20
0.0
 11
0.0
 21
-2.594
  0
LINE
  5
254
100
AcDbEntity
  8
0
100
AcDbLine
 62
2
  6
CONTINUOUS
 10
0.0
 20
-0.344
 11
9.055
 21
-0.344
  0
LINE
  5
255
100
AcDbEntity
  8
0
100
AcDbLine
 62
2
  6
CONTINUOUS
 10
0.0
 20
-0.594
 11
9.055
 21
-0.594
  0
LINE
  5
256
100
AcDbEntity
  8
0
100
AcDbLine
 62
2
  6
CONTINUOUS
 10
0.0
 20
-0.844
 11
9.055
 21
-0.844
  0
LINE
  5
257
100
AcDbEntity
  8
0
100
AcDbLine
 62
2
  6
CONTINUOUS
 10
0.0
 20
-1.094
 11
9.055
 21
-1.094
  0
LINE
  5
258
100
AcDbEntity
  8
0
100
AcDbLine
 62
2
  6
CONTINUOUS
 10
0.0
 20
-1.344
 11
9.055
 21
-1.344
  0
LINE
  5
259
100
AcDbEntity
  8
0
100
AcDbLine
 62
2
  6
CONTINUOUS
 10
0.0
 20
-1.594
 11
9.055
 21
-1.594
  0
LINE
  5
25A
100
AcDbEntity
  8
0
100
AcDbLine
 62
2
  6
CONTINUOUS
 10
0.0
 20
-1.844
 11
9.055
 21
-1.844
  0
LINE
  5
25B
100
AcDbEntity
  8
0
100
AcDbLine
 62
2
  6
CONTINUOUS
 10
0.0
 20
-2.094
 11
9.055
 21
-2.094
  0
LINE
  5
25C
100
AcDbEntity
  8
0
100
AcDbLine
 62
2
  6
CONTINUOUS
 10
0.0
 20
-2.344
 11
9.055
 21
-2.344
  0
LINE
  5
25D
100
AcDbEntity
  8
0
100
AcDbLine
 62
2
  6
CONTINUOUS
 10
0.0
 20
-2.594
 11
9.055
 21
-2.594
  0
LINE
  5
25E
100
AcDbEntity
  8
0
100
AcDbLine
 62
2
  6
CONTINUOUS
 10
3.055
 20
0.0
 11
3.055
 21
-2.594
  0
LINE
  5
25F
100
AcDbEntity
  8
0
100
AcDbLine
 62
2
  6
CONTINUOUS
 10
9.055
 20
0.0
 11
9.055
 21
-2.594
  0
MTEXT
  5
260
100
AcDbEntity
  8
0
100
AcDbMText
 62
2
  6
CONTINUOUS
  7
STANDARD
 71
2
 72
1
 10
1.5275
 20
-0.0995
 30
0.0
 11
1.0
 21
0.0
 31
0.0
 44
0.9
  1
Technical Data
 40
0.145
 41
3.248
  0
MTEXT
  5
261
100
AcDbEntity
  8
0
100
AcDbMText
 62
2
  6
CONTINUOUS
  7
STANDARD
 71
2
 72
1
 10
4.555
 20
-0.0995
 30
0.0
 11
1.0
 21
0.0
 31
0.0
 44
0.9
  1
U.S. Units
 40
0.145
 41
2.32
  0
MTEXT
  5
262
100
AcDbEntity
  8
0
100
AcDbMText
 62
2
  6
CONTINUOUS
  7
STANDARD
 71
2
 72
1
 10
7.555
 20
-0.0995
 30
0.0
 11
1.0
 21
0.0
 31
0.0
 44
0.9
  1
Metric Units
 40
0.145
 41
2.784
  0
MTEXT
  5
263
100
AcDbEntity
  8
0
100
AcDbMText
 62
2
  6
CONTINUOUS
  7
STANDARD
 71
2
 72
1
 10
1.5275
 20
-0.4065
 30
0.0
 11
1.0
 21
0.0
 31
0.0
 44
0.9
  1
Cavity
 40
0.125
 41
1.2
  0
MTEXT
  5
264
100
AcDbEntity
  8
0
100
AcDbMText
 62
2
  6
CONTINUOUS
  7
STANDARD
 71
2
 72
1
 10
6.055
 20
-0.4065
 30
0.0
 11
1.0
 21
0.0
 31
0.0
 44
0.9
  1
T-17A
 40
0.125
 41
1.0
  0
MTEXT
  5
265
100
AcDbEntity
  8
0
100
AcDbMText
 62
2
  6
CONTINUOUS
  7
STANDARD
 71
2
 72
1
 10
1.5275
 20
-0.6565
 30
0.0
 11
1.0
 21
0.0
 31
0.0
 44
0.9
  1
Body Features
 40
0.125
 41
2.6
  0
MTEXT
  5
266
100
AcDbEntity
  8
0
100
AcDbMText
 62
2
  6
CONTINUOUS
  7
STANDARD
 71
2
 72
1
 10
6.055
 20
-0.6565
 30
0.0
 11
1.0
 21
0.0
 31
0.0
 44
0.9
  1
Sequence out of B with reverse flow check
 40
0.125
 41
8.2
  0
MTEXT
  5
267
100
AcDbEntity
  8
0
100
AcDbMText
 62
2
  6
CONTINUOUS
  7
STANDARD
 71
2
 72
1
 10
1.5275
 20
-0.9065
 30
0.0
 11
1.0
 21
0.0
 31
0.0
 44
0.9
  1
Body Type
 40
0.125
 41
1.8
  0
MTEXT
  5
268
100
AcDbEntity
  8
0
100
AcDbMText
 62
2
  6
CONTINUOUS
  7
STANDARD
 71
2
 72
1
 10
6.055
 20
-0.9065
 30
0.0
 11
1.0
 21
0.0
 31
0.0
 44
0.9
  1
Sandwich
 40
0.125
 41
1.6
  0
MTEXT
  5
269
100
AcDbEntity
  8
0
100
AcDbMText
 62
2
  6
CONTINUOUS
  7
STANDARD
 71
2
 72
1
 10
1.5275
 20
-1.1565
 30
0.0
 11
1.0
 21
0.0
 31
0.0
 44
0.9
  1
Interface
 40
0.125
 41
1.8
  0
MTEXT
  5
26A
100
AcDbEntity
  8
0
100
AcDbMText
 62
2
  6
CONTINUOUS
  7
STANDARD
 71
2
 72
1
 10
6.055
 20
-1.1565
 30
0.0
 11
1.0
 21
0.0
 31
0.0
 44
0.9
  1
ISO 07
 40
0.125
 41
1.2
  0
MTEXT
  5
26B
100
AcDbEntity
  8
0
100
AcDbMText
 62
2
  6
CONTINUOUS
  7
STANDARD
 71
2
 72
1
 10
1.5275
 20
-1.4065
 30
0.0
 11
1.0
 21
0.0
 31
0.0
 44
0.9
  1
Open Cavity Quantity
 40
0.125
 41
4.0
  0
MTEXT
  5
26C
100
AcDbEntity
  8
0
100
AcDbMText
 62
2
  6
CONTINUOUS
  7
STANDARD
 71
2
 72
1
 10
6.055
 20
-1.4065
 30
0.0
 11
1.0
 21
0.0
 31
0.0
 44
0.9
  1
1
 40
0.125
 41
0.2
  0
MTEXT
  5
26D
100
AcDbEntity
  8
0
100
AcDbMText
 62
2
  6
CONTINUOUS
  7
STANDARD
 71
2
 72
1
 10
1.5275
 20
-1.6565
 30
0.0
 11
1.0
 21
0.0
 31
0.0
 44
0.9
  1
Stack Height
 40
0.125
 41
2.4
  0
MTEXT
  5
26E
100
AcDbEntity
  8
0
100
AcDbMText
 62
2
  6
CONTINUOUS
  7
STANDARD
 71
2
 72
1
 10
4.555
 20
-1.6565
 30
0.0
 11
1.0
 21
0.0
 31
0.0
 44
0.9
  1
2.74 in.
 40
0.125
 41
1.6
  0
MTEXT
  5
26F
100
AcDbEntity
  8
0
100
AcDbMText
 62
2
  6
CONTINUOUS
  7
STANDARD
 71
2
 72
1
 10
7.555
 20
-1.6565
 30
0.0
 11
1.0
 21
0.0
 31
0.0
 44
0.9
  1
70 mm
 40
0.125
 41
1.0
  0
MTEXT
  5
270
100
AcDbEntity
  8
0
100
AcDbMText
 62
2
  6
CONTINUOUS
  7
STANDARD
 71
2
 72
1
 10
1.5275
 20
-1.9065
 30
0.0
 11
1.0
 21
0.0
 31
0.0
 44
0.9
  1
Weight
 40
0.125
 41
1.2
  0
MTEXT
  5
271
100
AcDbEntity
  8
0
100
AcDbMText
 62
2
  6
CONTINUOUS
  7
STANDARD
 71
2
 72
1
 10
4.555
 20
-1.9065
 30
0.0
 11
1.0
 21
0.0
 31
0.0
 44
0.9
  1
5.174 lb.
 40
0.125
 41
1.8
  0
MTEXT
  5
272
100
AcDbEntity
  8
0
100
AcDbMText
 62
2
  6
CONTINUOUS
  7
STANDARD
 71
2
 72
1
 10
7.555
 20
-1.9065
 30
0.0
 11
1.0
 21
0.0
 31
0.0
 44
0.9
  1
2,347 kg.
 40
0.125
 41
1.8
  0
MTEXT
  5
273
100
AcDbEntity
  8
0
100
AcDbMText
 62
2
  6
CONTINUOUS
  7
STANDARD
 71
2
 72
1
 10
1.5275
 20
-2.1565
 30
0.0
 11
1.0
 21
0.0
 31
0.0
 44
0.9
  1
Seal Plate Included (see notes)
 40
0.125
 41
6.2
  0
MTEXT
  5
274
100
AcDbEntity
  8
0
100
AcDbMText
 62
2
  6
CONTINUOUS
  7
STANDARD
 71
2
 72
1
 10
6.055
 20
-2.1565
 30
0.0
 11
1.0
 21
0.0
 31
0.0
 44
0.9
  1
Yes
 40
0.125
 41
0.6
  0
MTEXT
  5
275
100
AcDbEntity
  8
0
100
AcDbMText
 62
2
  6
CONTINUOUS
  7
STANDARD
 71
2
 72
1
 10
1.5275
 20
-2.4065
 30
0.0
 11
1.0
 21
0.0
 31
0.0
 44
0.9
  1
Includes integral cartridge(s)
 40
0.125
 41
6.0
  0
MTEXT
  5
276
100
AcDbEntity
  8
0
100
AcDbMText
 62
2
  6
CONTINUOUS
  7
STANDARD
 71
2
 72
1
 10
6.055
 20
-2.4065
 30
0.0
 11
1.0
 21
0.0
 31
0.0
 44
0.9
  1
Yes (see Included Components)
 40
0.125
 41
5.8
  0
ENDBLK
  5
277
100
AcDbEntity
  8
0
  6
BYBLOCK
 62
0
100
AcDbBlockEnd
  0
ENDSEC
  0
SECTION
  2
ENTITIES
  0
IMAGE
  5
278
100
AcDbEntity
  8
0
100
AcDbRasterImage
 62
7
  6
CONTINUOUS
 10
19.2297077316
 20
0.3094318264
 30
0.0
 11
0.0066666667
 21
0.0
 31
0.0
 12
0.0
 22
0.0066666667
 32
0.0
 13
369.0
 23
92.0
340
       382
 70
9
280
0
281
50
282
50
283
0
360
       37C
 71
1
 91
2
 14
-0.5
 24
-0.5
 14
368.5
 24
91.5
  0
INSERT
  5
279
100
AcDbEntity
  8
0
100
AcDbBlockReference
 62
2
  6
CONTINUOUS
  2
SUN_FIRST_THIRD_ANGLE_BL0
 10
20.4816717061
 20
1.2289683772
  0
ACAD_TABLE
  5
27A
100
AcDbEntity
  8
0
 62
2
  6
CONTINUOUS
100
AcDbBlockReference
  2
*T1
 10
12.42375
 20
0.30125
 30
0.0
100
AcDbTable
342
       384
343
212
 11
1.0
 21
0.0
 31
0.0
 90
6
 91
4
 92
6
 93
20
 94
0
 95
0
 96
0
 70
1
 41
0.0
141
0.525
141
0.1
141
0.525
141
0.1
142
4.1
142
1.1
142
0.7
142
0.5
142
0.4
142
2.475
171
1
172
0
173
0
174
0
175
1
176
1
 91
33
178
0
145
0.0
301
CELL_VALUE
 90
4
  1
T-17A Sandwich ISO 07\P(See Technical Data for Body Features)
304
ACVALUE_END
170
2
140
0.125
171
1
172
0
173
0
174
0
175
1
176
1
 91
33
178
0
145
0.0
301
CELL_VALUE
 90
4
  1
Dec-22-21
304
ACVALUE_END
170
5
140
0.125
171
1
172
0
173
0
174
0
175
1
176
1
 91
33
178
0
145
0.0
301
CELL_VALUE
 90
4
  1
1.000
304
ACVALUE_END
170
5
140
0.125
171
1
172
0
173
0
174
0
175
1
176
1
 91
33
178
0
145
0.0
301
CELL_VALUE
 90
4
  1
C
304
ACVALUE_END
170
5
140
0.125
171
1
172
0
173
0
174
0
175
1
176
1
 91
33
178
0
145
0.0
301
CELL_VALUE
 90
4
  1
2
304
ACVALUE_END
170
5
140
0.125
171
1
172
0
173
0
174
0
175
1
176
1
 91
33
178
0
145
0.0
301
CELL_VALUE
 90
4
  1
 
304
ACVALUE_END
170
1
140
0.125
171
1
172
0
173
0
174
0
175
1
176
1
 91
33
178
0
145
0.0
301
CELL_VALUE
 90
4
  1
DESCRIPTION
304
ACVALUE_END
170
1
140
0.06
171
1
172
0
173
0
174
0
175
1
176
1
 91
33
178
0
145
0.0
301
CELL_VALUE
 90
4
  1
DATE
304
ACVALUE_END
170
1
140
0.06
171
1
172
0
173
0
174
0
175
1
176
1
 91
33
178
0
145
0.0
301
CELL_VALUE
 90
4
  1
SCALE
304
ACVALUE_END
170
1
140
0.06
171
1
172
0
173
0
174
0
175
1
176
1
 91
33
178
0
145
0.0
301
CELL_VALUE
 90
4
  1
DWG SIZE
304
ACVALUE_END
170
1
140
0.06
171
1
172
0
173
0
174
0
175
1
176
1
 91
33
178
0
145
0.0
301
CELL_VALUE
 90
4
  1
SHEET
304
ACVALUE_END
170
1
140
0.06
171
1
172
0
173
0
174
0
175
1
176
1
 91
33
178
0
145
0.0
301
CELL_VALUE
 90
4
  1
 
304
ACVALUE_END
170
1
140
0.125
171
1
172
0
173
0
174
0
175
1
176
1
 91
33
178
0
145
0.0
301
CELL_VALUE
 90
4
  1
BK7
304
ACVALUE_END
170
5
140
0.125
171
1
172
0
173
0
174
0
175
4
176
1
 91
33
178
0
145
0.0
301
CELL_VALUE
 90
4
  1
ALL DIMENSIONS IN INCH\PVIEWS ARE THIRD ANGLE
304
ACVALUE_END
170
5
140
0.12
171
1
172
0
173
1
174
0
175
1
176
1
 91
1
178
0
145
0.0
170
1
171
1
172
0
173
1
174
0
175
1
176
1
 91
1
178
0
145
0.0
170
1
171
1
172
0
173
1
174
0
175
1
176
1
 91
1
178
0
145
0.0
170
5
171
1
172
0
173
0
174
0
175
1
176
1
 91
33
178
0
145
0.0
301
CELL_VALUE
 90
4
  1
 
304
ACVALUE_END
170
1
140
0.125
171
1
172
0
173
0
174
0
175
1
176
1
 91
33
178
0
145
0.0
301
CELL_VALUE
 90
4
  1
MODEL
304
ACVALUE_END
170
1
140
0.06
171
1
172
0
173
0
174
0
175
1
176
1
 91
33
178
0
145
0.0
301
CELL_VALUE
 90
4
  1
 
304
ACVALUE_END
170
1
140
0.125
171
1
172
0
173
0
174
0
175
1
176
1
 91
33
178
0
145
0.0
301
CELL_VALUE
 90
4
  1
 
304
ACVALUE_END
170
1
140
0.125
171
1
172
0
173
0
174
0
175
1
176
1
 91
33
178
0
145
0.0
301
CELL_VALUE
 90
4
  1
 
304
ACVALUE_END
170
1
140
0.125
171
1
172
0
173
0
174
0
175
1
176
1
 91
33
178
0
145
0.0
301
CELL_VALUE
 90
4
  1
 
304
ACVALUE_END
170
1
140
0.125
171
1
172
0
173
0
174
0
175
1
176
1
 91
33
178
0
145
0.0
301
CELL_VALUE
 90
4
  1
 
304
ACVALUE_END
170
1
140
0.125
  0
ACAD_TABLE
  5
27B
100
AcDbEntity
  8
0
 62
2
  6
CONTINUOUS
100
AcDbBlockReference
  2
*T2
 10
12.4237499994
 20
16.47875
 30
0.0
100
AcDbTable
342
       383
343
213
 11
1.0
 21
0.0
 31
0.0
 90
22
 91
10
 92
3
 93
16
 94
0
 95
0
 96
0
 41
0.028
141
0.344
141
0.25
141
0.25
141
0.25
141
0.25
141
0.25
141
0.25
141
0.25
141
0.25
141
0.25
142
3.055
142
3.0
142
3.0
171
1
172
0
173
0
174
0
175
1
176
1
 91
33
178
0
145
0.0
301
CELL_VALUE
 90
4
  1
Technical Data
304
ACVALUE_END
170
5
140
0.145
171
1
172
0
173
0
174
0
175
1
176
1
 91
33
178
0
145
0.0
301
CELL_VALUE
 90
4
  1
U.S. Units
304
ACVALUE_END
170
5
140
0.145
171
1
172
0
173
0
174
0
175
1
176
1
 91
33
178
0
145
0.0
301
CELL_VALUE
 90
4
  1
Metric Units
304
ACVALUE_END
170
5
140
0.145
171
1
172
0
173
0
174
0
175
1
176
1
 91
33
178
0
145
0.0
301
CELL_VALUE
 90
4
  1
Cavity
304
ACVALUE_END
170
5
140
0.125
171
1
172
0
173
0
174
0
175
2
176
1
 91
33
178
0
145
0.0
301
CELL_VALUE
 90
4
  1
T-17A
304
ACVALUE_END
170
5
140
0.125
171
1
172
0
173
1
174
0
175
1
176
1
 91
1
178
0
145
0.0
170
1
171
1
172
0
173
0
174
0
175
1
176
1
 91
33
178
0
145
0.0
301
CELL_VALUE
 90
4
  1
Body Features
304
ACVALUE_END
170
5
140
0.125
171
1
172
0
173
0
174
0
175
2
176
1
 91
33
178
0
145
0.0
301
CELL_VALUE
 90
4
  1
Sequence out of B with reverse flow check
304
ACVALUE_END
170
5
140
0.125
171
1
172
0
173
1
174
0
175
1
176
1
 91
1
178
0
145
0.0
170
1
171
1
172
0
173
0
174
0
175
1
176
1
 91
33
178
0
145
0.0
301
CELL_VALUE
 90
4
  1
Body Type
304
ACVALUE_END
170
5
140
0.125
171
1
172
0
173
0
174
0
175
2
176
1
 91
33
178
0
145
0.0
301
CELL_VALUE
 90
4
  1
Sandwich
304
ACVALUE_END
170
5
140
0.125
171
1
172
0
173
1
174
0
175
1
176
1
 91
1
178
0
145
0.0
170
1
171
1
172
0
173
0
174
0
175
1
176
1
 91
33
178
0
145
0.0
301
CELL_VALUE
 90
4
  1
Interface
304
ACVALUE_END
170
5
140
0.125
171
1
172
0
173
0
174
0
175
2
176
1
 91
33
178
0
145
0.0
301
CELL_VALUE
 90
4
  1
ISO 07
304
ACVALUE_END
170
5
140
0.125
171
1
172
0
173
1
174
0
175
1
176
1
 91
1
178
0
145
0.0
170
1
171
1
172
0
173
0
174
0
175
1
176
1
 91
33
178
0
145
0.0
301
CELL_VALUE
 90
4
  1
Open Cavity Quantity
304
ACVALUE_END
170
5
140
0.125
171
1
172
0
173
0
174
0
175
2
176
1
 91
33
178
0
145
0.0
301
CELL_VALUE
 90
4
  1
1
304
ACVALUE_END
170
5
140
0.125
171
1
172
0
173
1
174
0
175
1
176
1
 91
1
178
0
145
0.0
170
1
171
1
172
0
173
0
174
0
175
1
176
1
 91
33
178
0
145
0.0
301
CELL_VALUE
 90
4
  1
Stack Height
304
ACVALUE_END
170
5
140
0.125
171
1
172
0
173
0
174
0
175
1
176
1
 91
33
178
0
145
0.0
301
CELL_VALUE
 90
4
  1
2.74 in.
304
ACVALUE_END
170
5
140
0.125
171
1
172
0
173
0
174
0
175
1
176
1
 91
33
178
0
145
0.0
301
CELL_VALUE
 90
4
  1
70 mm
304
ACVALUE_END
170
5
140
0.125
171
1
172
0
173
0
174
0
175
1
176
1
 91
33
178
0
145
0.0
301
CELL_VALUE
 90
4
  1
Weight
304
ACVALUE_END
170
5
140
0.125
171
1
172
0
173
0
174
0
175
1
176
1
 91
33
178
0
145
0.0
301
CELL_VALUE
 90
4
  1
5.174 lb.
304
ACVALUE_END
170
5
140
0.125
171
1
172
0
173
0
174
0
175
1
176
1
 91
33
178
0
145
0.0
301
CELL_VALUE
 90
4
  1
2,347 kg.
304
ACVALUE_END
170
5
140
0.125
171
1
172
0
173
0
174
0
175
1
176
1
 91
33
178
0
145
0.0
301
CELL_VALUE
 90
4
  1
Seal Plate Included (see notes)
304
ACVALUE_END
170
5
140
0.125
171
1
172
0
173
0
174
0
175
2
176
1
 91
33
178
0
145
0.0
301
CELL_VALUE
 90
4
  1
Yes
304
ACVALUE_END
170
5
140
0.125
171
1
172
0
173
1
174
0
175
1
176
1
 91
1
178
0
145
0.0
170
1
171
1
172
0
173
0
174
0
175
1
176
1
 91
33
178
0
145
0.0
301
CELL_VALUE
 90
4
  1
Includes integral cartridge(s)
304
ACVALUE_END
170
5
140
0.125
171
1
172
0
173
0
174
0
175
2
176
1
 91
33
178
0
145
0.0
301
CELL_VALUE
 90
4
  1
Yes (see Included Components)
304
ACVALUE_END
170
5
140
0.125
171
1
172
0
173
1
174
0
175
1
176
1
 91
1
178
0
145
0.0
170
1
  0
MTEXT
  5
27C
100
AcDbEntity
  8
0
100
AcDbMText
 62
2
  6
CONTINUOUS
  7
STANDARD
 71
1
 72
1
 10
0.52125
 20
5.75995
 30
0.0
 11
1.0
 21
0.0
 31
0.0
 44
0.6
  3
Notes\P \P1. Important: Carefully consider\P   the maximum system pressure. The\P   pressure rating of the manifold is\P   dependent on the manifold material,\P   with the port type/size a secondary\P   consideration. Manifolds\P   constructed of alu
  1
minum are not\P   rated for pressures higher than\P   3000 psi (210 bar), regardless of\P   the port type/size specified.\P2. Items without balloons are\P   shipped loose.
 40
0.1
 41
3.04
  0
LINE
  5
27D
100
AcDbEntity
  8
0
100
AcDbLine
 62
7
  6
CONTINUOUS
 10
0.30125
 20
0.30125
 11
0.30125
 21
16.69875
  0
LINE
  5
27E
100
AcDbEntity
  8
0
100
AcDbLine
 62
7
  6
CONTINUOUS
 10
0.30125
 20
0.30125
 11
21.69875
 21
0.30125
  0
LINE
  5
27F
100
AcDbEntity
  8
0
100
AcDbLine
 62
7
  6
CONTINUOUS
 10
0.30125
 20
16.69875
 11
21.69875
 21
16.69875
  0
LINE
  5
280
100
AcDbEntity
  8
0
100
AcDbLine
 62
7
  6
CONTINUOUS
 10
21.69875
 20
0.30125
 11
21.69875
 21
16.69875
  0
LINE
  5
281
100
AcDbEntity
  8
0
100
AcDbLine
 62
7
  6
CONTINUOUS
 10
7.4989618414
 20
6.8831123069
 11
7.4730863656
 21
6.9149275567
  0
LINE
  5
282
100
AcDbEntity
  8
0
100
AcDbLine
 62
7
  6
CONTINUOUS
 10
7.4053383504
 20
9.405017735
 11
7.4053383504
 21
7.2915719019
  0
LINE
  5
283
100
AcDbEntity
  8
0
100
AcDbLine
 62
7
  6
CONTINUOUS
 10
7.427258669
 20
9.3951911382
 11
7.427258669
 21
7.281745305
  0
LINE
  5
284
100
AcDbEntity
  8
0
100
AcDbLine
 62
7
  6
CONTINUOUS
 10
7.5438583018
 20
10.0164651179
 11
7.5438583018
 21
6.6357245255
  0
LINE
  5
285
100
AcDbEntity
  8
0
100
AcDbLine
 62
7
  6
CONTINUOUS
 10
7.9330699478
 20
10.4276739887
 11
7.5427711499
 21
10.0506742775
  0
LINE
  5
286
100
AcDbEntity
  8
0
100
AcDbLine
 62
7
  6
CONTINUOUS
 10
7.9630136502
 20
10.4555410883
 11
7.5727148523
 21
10.0785413771
  0
LINE
  5
287
100
AcDbEntity
  8
0
100
AcDbLine
 62
7
  6
CONTINUOUS
 10
7.5438583018
 20
10.0164651179
 11
8.2333516778
 21
10.6824646163
  0
LINE
  5
288
100
AcDbEntity
  8
0
100
AcDbLine
 62
7
  6
CONTINUOUS
 10
7.9643867332
 20
10.4568431973
 11
7.9630136502
 21
10.4555410883
  0
LINE
  5
289
100
AcDbEntity
  8
0
100
AcDbLine
 62
7
  6
CONTINUOUS
 10
7.9343686312
 20
10.4289053197
 11
7.9330699478
 21
10.4276739887
  0
LINE
  5
28A
100
AcDbEntity
  8
0
100
AcDbLine
 62
7
  6
CONTINUOUS
 10
7.9330699478
 20
10.4276739887
 11
7.9630015871
 21
10.4555540497
  0
LINE
  5
28B
100
AcDbEntity
  8
0
100
AcDbLine
 62
7
  6
CONTINUOUS
 10
7.5427711499
 20
10.0506742775
 11
7.5727148523
 21
10.0785413771
  0
LINE
  5
28C
100
AcDbEntity
  8
0
100
AcDbLine
 62
7
  6
CONTINUOUS
 10
7.4053383504
 20
7.2915719019
 11
7.427258669
 21
7.281745305
  0
LINE
  5
28D
100
AcDbEntity
  8
0
100
AcDbLine
 62
7
  6
CONTINUOUS
 10
7.3839121523
 20
8.832568235
 11
7.3972672366
 21
8.8161474609
  0
LINE
  5
28E
100
AcDbEntity
  8
0
100
AcDbLine
 62
7
  6
CONTINUOUS
 10
12.1320062629
 20
6.3175353837
 11
7.5438583018
 21
6.6357245255
  0
LINE
  5
28F
100
AcDbEntity
  8
0
100
AcDbLine
 62
7
  6
CONTINUOUS
 10
13.2008936515
 20
6.8896487766
 11
13.1629265654
 21
6.8839753854
  0
LINE
  5
290
100
AcDbEntity
  8
0
100
AcDbLine
 62
7
  6
CONTINUOUS
 10
7.5438583018
 20
6.8608965701
 11
7.5338334071
 21
6.8615917989
  0
LINE
  5
291
100
AcDbEntity
  8
0
100
AcDbLine
 62
7
  6
CONTINUOUS
 10
12.2427221068
 20
6.5350292584
 11
13.2695013034
 21
6.4638218793
  0
LINE
  5
292
100
AcDbEntity
  8
0
100
AcDbLine
 62
7
  6
CONTINUOUS
 10
13.1629265654
 20
6.8839753854
 11
12.1361473687
 21
6.9551827645
  0
LINE
  5
293
100
AcDbEntity
  8
0
100
AcDbLine
 62
7
  6
CONTINUOUS
 10
7.427258669
 20
7.281745305
 11
7.5438583018
 21
7.273659093
  0
LINE
  5
294
100
AcDbEntity
  8
0
100
AcDbLine
 62
7
  6
CONTINUOUS
 10
10.1349477637
 20
7.4442737485
 11
10.132864153
 21
7.4456190974
  0
LINE
  5
295
100
AcDbEntity
  8
0
100
AcDbLine
 62
7
  6
CONTINUOUS
 10
13.5218895121
 20
7.5468053241
 11
13.6840841861
 21
7.5355570852
  0
LINE
  5
296
100
AcDbEntity
  8
0
100
AcDbLine
 62
7
  6
CONTINUOUS
 10
13.7714743525
 20
7.6203144159
 11
14.4417425248
 21
7.5738311603
  0
LINE
  5
297
100
AcDbEntity
  8
0
100
AcDbLine
 62
7
  6
CONTINUOUS
 10
7.4053383504
 20
9.405017735
 11
7.427258669
 21
9.3951911382
  0
LINE
  5
298
100
AcDbEntity
  8
0
100
AcDbLine
 62
7
  6
CONTINUOUS
 10
13.6214200201
 20
7.7986954892
 11
14.2916881923
 21
7.7522122336
  0
LINE
  5
299
100
AcDbEntity
  8
0
100
AcDbLine
 62
7
  6
CONTINUOUS
 10
13.6155649383
 20
7.8308877912
 11
14.2858331105
 21
7.7844045356
  0
LINE
  5
29A
100
AcDbEntity
  8
0
100
AcDbLine
 62
7
  6
CONTINUOUS
 10
12.1320062629
 20
9.698275976
 11
12.821499639
 21
10.3642754745
  0
LINE
  5
29B
100
AcDbEntity
  8
0
100
AcDbLine
 62
7
  6
CONTINUOUS
 10
12.281603552
 20
9.7519788366
 11
12.6719023499
 21
10.1289785478
  0
LINE
  5
29C
100
AcDbEntity
  8
0
100
AcDbLine
 62
7
  6
CONTINUOUS
 10
13.2008936515
 20
9.0030946098
 11
13.1629265654
 21
8.9974212185
  0
LINE
  5
29D
100
AcDbEntity
  8
0
100
AcDbLine
 62
7
  6
CONTINUOUS
 10
13.6155649383
 20
8.4775326652
 11
14.2858331105
 21
8.4310494096
  0
LINE
  5
29E
100
AcDbEntity
  8
0
100
AcDbLine
 62
7
  6
CONTINUOUS
 10
13.6214200201
 20
8.5210361174
 11
14.2916881923
 21
8.4745528618
  0
LINE
  5
29F
100
AcDbEntity
  8
0
100
AcDbLine
 62
7
  6
CONTINUOUS
 10
13.3083827487
 20
9.6807714575
 11
13.6986815466
 21
10.0577711687
  0
LINE
  5
2A0
100
AcDbEntity
  8
0
100
AcDbLine
 62
7
  6
CONTINUOUS
 10
13.3383264511
 20
9.6487511523
 11
13.728625249
 21
10.0257508635
  0
LINE
  5
2A1
100
AcDbEntity
  8
0
100
AcDbLine
 62
7
  6
CONTINUOUS
 10
13.1629265654
 20
8.9974212185
 11
12.1361473687
 21
9.0686285977
  0
LINE
  5
2A2
100
AcDbEntity
  8
0
100
AcDbLine
 62
7
  6
CONTINUOUS
 10
7.427258669
 20
9.3951911382
 11
7.5438583018
 21
9.3871049262
  0
LINE
  5
2A3
100
AcDbEntity
  8
0
100
AcDbLine
 62
7
  6
CONTINUOUS
 10
13.7714743525
 20
8.9892999181
 11
14.4417425248
 21
8.9428166625
  0
LINE
  5
2A4
100
AcDbEntity
  8
0
100
AcDbLine
 62
7
  6
CONTINUOUS
 10
13.7831845161
 20
9.0006110682
 11
14.4534526883
 21
8.9541278126
  0
LINE
  5
2A5
100
AcDbEntity
  8
0
100
AcDbLine
 62
7
  6
CONTINUOUS
 10
13.6298913973
 20
9.1020598414
 11
13.7919421454
 21
9.0908215838
  0
LINE
  5
2A6
100
AcDbEntity
  8
0
100
AcDbLine
 62
7
  6
CONTINUOUS
 10
12.1320062629
 20
9.698275976
 11
12.1320062629
 21
6.3175353837
  0
LINE
  5
2A7
100
AcDbEntity
  8
0
100
AcDbLine
 62
7
  6
CONTINUOUS
 10
12.1361473687
 20
6.9551827645
 11
12.1361473687
 21
9.0686285977
  0
LINE
  5
2A8
100
AcDbEntity
  8
0
100
AcDbLine
 62
4
  6
CONTINUOUS
 10
13.5329582103
 20
9.3103213837
 11
13.5407227751
 21
9.3178213777
  0
LINE
  5
2A9
100
AcDbEntity
  8
0
100
AcDbLine
 62
4
  6
CONTINUOUS
 10
13.5620753282
 20
9.3384463615
 11
13.5659576106
 21
9.3421963585
  0
LINE
  5
2AA
100
AcDbEntity
  8
0
100
AcDbLine
 62
4
  6
CONTINUOUS
 10
13.6241918464
 20
9.3984463142
 11
13.6280741288
 21
9.4021963112
  0
LINE
  5
2AB
100
AcDbEntity
  8
0
100
AcDbLine
 62
4
  6
CONTINUOUS
 10
13.5640164694
 20
9.2823658083
 11
13.5562519047
 21
9.2748658142
  0
LINE
  5
2AC
100
AcDbEntity
  8
0
100
AcDbLine
 62
4
  6
CONTINUOUS
 10
13.6280741288
 20
9.2862852078
 11
13.6241918464
 21
9.2825352107
  0
LINE
  5
2AD
100
AcDbEntity
  8
0
100
AcDbLine
 62
4
  6
CONTINUOUS
 10
13.5659576106
 20
9.2262852551
 11
13.5620753282
 21
9.222535258
  0
LINE
  5
2AE
100
AcDbEntity
  8
0
100
AcDbLine
 62
4
  6
CONTINUOUS
 10
13.5407227751
 20
9.2019102743
 11
13.5329582103
 21
9.1944102802
  0
LINE
  5
2AF
100
AcDbEntity
  8
0
100
AcDbLine
 62
7
  6
CONTINUOUS
 10
7.5438583018
 20
10.0164651179
 11
12.1320062629
 21
9.698275976
  0
LINE
  5
2B0
100
AcDbEntity
  8
0
100
AcDbLine
 62
7
  6
CONTINUOUS
 10
13.3083827487
 20
9.6807714575
 11
12.281603552
 21
9.7519788366
  0
LINE
  5
2B1
100
AcDbEntity
  8
0
100
AcDbLine
 62
7
  6
CONTINUOUS
 10
7.5727148523
 20
10.0785413771
 11
7.6057523865
 21
10.0762502163
  0
LINE
  5
2B2
100
AcDbEntity
  8
0
100
AcDbLine
 62
7
  6
CONTINUOUS
 10
13.6986815466
 20
10.0577711687
 11
12.6719023499
 21
10.1289785478
  0
LINE
  5
2B3
100
AcDbEntity
  8
0
100
AcDbLine
 62
7
  6
CONTINUOUS
 10
7.9630136502
 20
10.4555410883
 11
7.9960511844
 21
10.4532499275
  0
LINE
  5
2B4
100
AcDbEntity
  8
0
100
AcDbLine
 62
7
  6
CONTINUOUS
 10
13.6214200201
 20
7.7986954892
 11
13.7714743525
 21
7.6203144159
  0
LINE
  5
2B5
100
AcDbEntity
  8
0
100
AcDbLine
 62
7
  6
CONTINUOUS
 10
12.821499639
 20
10.3642754745
 11
12.821499639
 21
10.1391034299
  0
LINE
  5
2B6
100
AcDbEntity
  8
0
100
AcDbLine
 62
7
  6
CONTINUOUS
 10
8.0158521717
 20
10.4723762137
 11
8.0018950955
 21
10.4733441402
  0
LINE
  5
2B7
100
AcDbEntity
  8
0
100
AcDbLine
 62
7
  6
CONTINUOUS
 10
12.7107837951
 20
10.1467815997
 11
13.7375629918
 21
10.0755742206
  0
LINE
  5
2B8
100
AcDbEntity
  8
0
100
AcDbLine
 62
7
  6
CONTINUOUS
 10
8.2333516778
 20
10.6824646163
 11
12.821499639
 21
10.3642754745
  0
LINE
  5
2B9
100
AcDbEntity
  8
0
100
AcDbLine
 62
7
  6
CONTINUOUS
 10
13.1629265654
 20
6.8839753854
 11
13.1629265654
 21
8.9974212185
  0
LINE
  5
2BA
100
AcDbEntity
  8
0
100
AcDbLine
 62
7
  6
CONTINUOUS
 10
13.2008936515
 20
6.8896487766
 11
13.2008936515
 21
9.0030946098
  0
LINE
  5
2BB
100
AcDbEntity
  8
0
100
AcDbLine
 62
4
  6
CONTINUOUS
 10
13.529075928
 20
9.2969121277
 11
13.5329582103
 21
9.3103213837
  0
LINE
  5
2BC
100
AcDbEntity
  8
0
100
AcDbLine
 62
4
  6
CONTINUOUS
 10
13.5581930459
 20
9.3250371055
 11
13.5620753282
 21
9.3384463615
  0
LINE
  5
2BD
100
AcDbEntity
  8
0
100
AcDbLine
 62
4
  6
CONTINUOUS
 10
13.569839893
 20
9.2396945085
 11
13.5659576106
 21
9.2262852551
  0
LINE
  5
2BE
100
AcDbEntity
  8
0
100
AcDbLine
 62
4
  6
CONTINUOUS
 10
13.620309564
 20
9.3850370582
 11
13.6241918464
 21
9.3984463142
  0
LINE
  5
2BF
100
AcDbEntity
  8
0
100
AcDbLine
 62
4
  6
CONTINUOUS
 10
13.6319564112
 20
9.2996944612
 11
13.6280741288
 21
9.2862852078
  0
LINE
  5
2C0
100
AcDbEntity
  8
0
100
AcDbLine
 62
4
  6
CONTINUOUS
 10
13.5251936456
 20
9.215888062
 11
13.5232525044
 21
9.2429908393
  0
LINE
  5
2C1
100
AcDbEntity
  8
0
100
AcDbLine
 62
4
  6
CONTINUOUS
 10
13.5407227751
 20
9.3178213777
 11
13.5407227751
 21
9.2019102743
  0
LINE
  5
2C2
100
AcDbEntity
  8
0
100
AcDbLine
 62
4
  6
CONTINUOUS
 10
13.5562519047
 20
9.2748658142
 11
13.5562519047
 21
9.3135028481
  0
LINE
  5
2C3
100
AcDbEntity
  8
0
100
AcDbLine
 62
4
  6
CONTINUOUS
 10
13.5232525044
 20
9.2429908393
 11
13.5251936456
 21
9.2738436137
  0
LINE
  5
2C4
100
AcDbEntity
  8
0
100
AcDbLine
 62
4
  6
CONTINUOUS
 10
13.5756633166
 20
9.2936157994
 11
13.5737221754
 21
9.262763025
  0
LINE
  5
2C5
100
AcDbEntity
  8
0
100
AcDbLine
 62
4
  6
CONTINUOUS
 10
13.6377798348
 20
9.3536157521
 11
13.6358386936
 21
9.3227629777
  0
LINE
  5
2C6
100
AcDbEntity
  8
0
100
AcDbLine
 62
4
  6
CONTINUOUS
 10
13.6028392933
 20
9.3778213304
 11
13.5873101637
 21
9.2469102388
  0
LINE
  5
2C7
100
AcDbEntity
  8
0
100
AcDbLine
 62
4
  6
CONTINUOUS
 10
13.5251936456
 20
9.2738436137
 11
13.529075928
 21
9.2969121277
  0
LINE
  5
2C8
100
AcDbEntity
  8
0
100
AcDbLine
 62
4
  6
CONTINUOUS
 10
13.5562519047
 20
9.3135028481
 11
13.5581930459
 21
9.3250371055
  0
LINE
  5
2C9
100
AcDbEntity
  8
0
100
AcDbLine
 62
4
  6
CONTINUOUS
 10
13.5737221754
 20
9.262763025
 11
13.569839893
 21
9.2396945085
  0
LINE
  5
2CA
100
AcDbEntity
  8
0
100
AcDbLine
 62
4
  6
CONTINUOUS
 10
13.6183684228
 20
9.3735028008
 11
13.620309564
 21
9.3850370582
  0
LINE
  5
2CB
100
AcDbEntity
  8
0
100
AcDbLine
 62
4
  6
CONTINUOUS
 10
13.6358386936
 20
9.3227629777
 11
13.6319564112
 21
9.2996944612
  0
LINE
  5
2CC
100
AcDbEntity
  8
0
100
AcDbLine
 62
7
  6
CONTINUOUS
 10
13.7714743525
 20
8.9892999181
 11
13.6214200201
 21
8.5210361174
  0
LINE
  5
2CD
100
AcDbEntity
  8
0
100
AcDbLine
 62
7
  6
CONTINUOUS
 10
12.1320062629
 20
6.3175353837
 11
12.349505769
 21
6.5276237863
  0
LINE
  5
2CE
100
AcDbEntity
  8
0
100
AcDbLine
 62
7
  6
CONTINUOUS
 10
13.3383264511
 20
9.6487511523
 11
13.3083827487
 21
9.6807714575
  0
LINE
  5
2CF
100
AcDbEntity
  8
0
100
AcDbLine
 62
4
  6
CONTINUOUS
 10
13.5329582103
 20
9.1944102802
 11
13.529075928
 21
9.2003195395
  0
LINE
  5
2D0
100
AcDbEntity
  8
0
100
AcDbLine
 62
4
  6
CONTINUOUS
 10
13.5620753282
 20
9.222535258
 11
13.5581930459
 21
9.2284445173
  0
LINE
  5
2D1
100
AcDbEntity
  8
0
100
AcDbLine
 62
4
  6
CONTINUOUS
 10
13.5737221754
 20
9.3207185768
 11
13.5756633166
 21
9.2936157994
  0
LINE
  5
2D2
100
AcDbEntity
  8
0
100
AcDbLine
 62
4
  6
CONTINUOUS
 10
13.6358386936
 20
9.3807185295
 11
13.6377798348
 21
9.3536157521
  0
LINE
  5
2D3
100
AcDbEntity
  8
0
100
AcDbLine
 62
7
  6
CONTINUOUS
 10
13.6155649383
 20
8.4775326652
 11
13.6155649383
 21
7.8308877912
  0
LINE
  5
2D4
100
AcDbEntity
  8
0
100
AcDbLine
 62
7
  6
CONTINUOUS
 10
13.8660580485
 20
9.6455941176
 11
13.8660580485
 21
9.0173880569
  0
LINE
  5
2D5
100
AcDbEntity
  8
0
100
AcDbLine
 62
7
  6
CONTINUOUS
 10
13.8660580485
 20
7.6137550143
 11
13.8660580485
 21
7.5321482845
  0
LINE
  5
2D6
100
AcDbEntity
  8
0
100
AcDbLine
 62
7
  6
CONTINUOUS
 10
13.776719401
 20
7.6116243304
 11
13.7814373152
 21
7.6196234821
  0
LINE
  5
2D7
100
AcDbEntity
  8
0
100
AcDbLine
 62
4
  6
CONTINUOUS
 10
13.5659576106
 20
9.3421963585
 11
13.569839893
 21
9.3362870967
  0
LINE
  5
2D8
100
AcDbEntity
  8
0
100
AcDbLine
 62
4
  6
CONTINUOUS
 10
13.6241918464
 20
9.2825352107
 11
13.620309564
 21
9.28844447
  0
LINE
  5
2D9
100
AcDbEntity
  8
0
100
AcDbLine
 62
4
  6
CONTINUOUS
 10
13.6280741288
 20
9.4021963112
 11
13.6319564112
 21
9.3962870494
  0
LINE
  5
2DA
100
AcDbEntity
  8
0
100
AcDbLine
 62
7
  6
CONTINUOUS
 10
13.8731905123
 20
9.0026954713
 11
13.8767590869
 21
8.9941216497
  0
LINE
  5
2DB
100
AcDbEntity
  8
0
100
AcDbLine
 62
4
  6
CONTINUOUS
 10
13.529075928
 20
9.2003195395
 11
13.5251936456
 21
9.215888062
  0
LINE
  5
2DC
100
AcDbEntity
  8
0
100
AcDbLine
 62
4
  6
CONTINUOUS
 10
13.5581930459
 20
9.2284445173
 11
13.5562519047
 21
9.236228782
  0
LINE
  5
2DD
100
AcDbEntity
  8
0
100
AcDbLine
 62
4
  6
CONTINUOUS
 10
13.569839893
 20
9.3362870967
 11
13.5737221754
 21
9.3207185768
  0
LINE
  5
2DE
100
AcDbEntity
  8
0
100
AcDbLine
 62
4
  6
CONTINUOUS
 10
13.620309564
 20
9.28844447
 11
13.6183684228
 21
9.2962287347
  0
LINE
  5
2DF
100
AcDbEntity
  8
0
100
AcDbLine
 62
4
  6
CONTINUOUS
 10
13.6319564112
 20
9.3962870494
 11
13.6358386936
 21
9.3807185295
  0
LINE
  5
2E0
100
AcDbEntity
  8
0
100
AcDbLine
 62
4
  6
CONTINUOUS
 10
13.6028392933
 20
9.261910227
 11
13.5873101637
 21
9.3628213423
  0
LINE
  5
2E1
100
AcDbEntity
  8
0
100
AcDbLine
 62
7
  6
CONTINUOUS
 10
13.728625249
 20
6.886491742
 11
13.3383264511
 21
6.5094920308
  0
LINE
  5
2E2
100
AcDbEntity
  8
0
100
AcDbLine
 62
7
  6
CONTINUOUS
 10
13.3383264511
 20
6.5094920308
 11
13.3370277677
 21
6.5082606998
  0
LINE
  5
2E3
100
AcDbEntity
  8
0
100
AcDbLine
 62
7
  6
CONTINUOUS
 10
13.3070096657
 20
6.4803228222
 11
13.3370291075
 21
6.5082617463
  0
LINE
  5
2E4
100
AcDbEntity
  8
0
100
AcDbLine
 62
7
  6
CONTINUOUS
 10
13.728625249
 20
10.0257508635
 11
13.6986815466
 21
10.0577711687
  0
LINE
  5
2E5
100
AcDbEntity
  8
0
100
AcDbLine
 62
7
  6
CONTINUOUS
 10
13.7724345575
 20
10.0540537126
 11
13.7983100333
 21
10.0222384628
  0
LINE
  5
2E6
100
AcDbEntity
  8
0
100
AcDbLine
 62
7
  6
CONTINUOUS
 10
14.5071980236
 20
7.6672269769
 11
14.5280171396
 21
7.7025254711
  0
LINE
  5
2E7
100
AcDbEntity
  8
0
100
AcDbLine
 62
7
  6
CONTINUOUS
 10
14.597171542
 20
8.827162241
 11
14.6047484918
 21
8.8089579372
  0
ARC
  5
2E8
100
AcDbEntity
  8
0
100
AcDbCircle
 62
7
  6
CONTINUOUS
 10
16.1744214552
 20
8.1552847211
 40
2.5790677408
100
AcDbArc
 50
171.8470935882
 51
172.8222787572
  0
ARC
  5
2E9
100
AcDbEntity
  8
0
100
AcDbCircle
 62
7
  6
CONTINUOUS
 10
16.8446896273
 20
8.1088014655
 40
2.5790677407
100
AcDbArc
 50
171.8470935882
 51
172.8222787572
  0
ARC
  5
2EA
100
AcDbEntity
  8
0
100
AcDbCircle
 62
7
  6
CONTINUOUS
 10
14.6883882419
 20
8.0093824831
 40
1.0875707774
100
AcDbArc
 50
189.4462548742
 51
191.1701086962
  0
ARC
  5
2EB
100
AcDbEntity
  8
0
100
AcDbCircle
 62
7
  6
CONTINUOUS
 10
15.3586564141
 20
7.9628992275
 40
1.0875707774
100
AcDbArc
 50
189.4462548743
 51
191.1701086962
  0
ARC
  5
2EC
100
AcDbEntity
  8
0
100
AcDbCircle
 62
7
  6
CONTINUOUS
 10
8.1628628227
 20
9.7114021283
 40
1.0014417231
100
AcDbArc
 50
301.3136254009
 51
301.5083987197
  0
ARC
  5
2ED
100
AcDbEntity
  8
0
100
AcDbCircle
 62
7
  6
CONTINUOUS
 10
9.3963324449
 20
7.4812679012
 40
0.4634467202
100
AcDbArc
 50
235.2003312165
 51
241.6244398097
  0
ARC
  5
2EE
100
AcDbEntity
  8
0
100
AcDbCircle
 62
7
  6
CONTINUOUS
 10
9.2741617557
 20
7.3161525992
 40
0.3550664457
100
AcDbArc
 50
140.7507241484
 51
146.4345193008
  0
ARC
  5
2EF
100
AcDbEntity
  8
0
100
AcDbCircle
 62
7
  6
CONTINUOUS
 10
8.3251344388
 20
9.0751059881
 40
0.25279022
100
AcDbArc
 50
71.9528522774
 51
72.2237176081
  0
ARC
  5
2F0
100
AcDbEntity
  8
0
100
AcDbCircle
 62
7
  6
CONTINUOUS
 10
14.3908126898
 20
8.7226920013
 40
0.2306022377
100
AcDbArc
 50
26.448424594
 51
26.7050044195
  0
ARC
  5
2F1
100
AcDbEntity
  8
0
100
AcDbCircle
 62
7
  6
CONTINUOUS
 10
8.2789571699
 20
8.9561998625
 40
0.1877504866
100
AcDbArc
 50
350.6780030675
 51
351.2535699384
  0
ARC
  5
2F2
100
AcDbEntity
  8
0
100
AcDbCircle
 62
7
  6
CONTINUOUS
 10
14.3486854833
 20
7.681449336
 40
0.1423067478
100
AcDbArc
 50
314.0322199404
 51
317.4092934922
  0
ARC
  5
2F3
100
AcDbEntity
  8
0
100
AcDbCircle
 62
7
  6
CONTINUOUS
 10
13.8762415576
 20
8.8929928924
 40
0.1423067478
100
AcDbArc
 50
134.0322199404
 51
137.4092934922
  0
ARC
  5
2F4
100
AcDbEntity
  8
0
100
AcDbCircle
 62
7
  6
CONTINUOUS
 10
14.5465097298
 20
8.8465096368
 40
0.1423067478
100
AcDbArc
 50
134.0322199404
 51
137.4092934922
  0
SPLINE
  5
2F5
100
AcDbEntity
  8
0
100
AcDbSpline
 62
7
  6
CONTINUOUS
 70
0
 71
3
 72
47
 73
43
 74
0
 42
0.0000001
 43
0.0000001
 44
0.0000000001
 40
0.0
 40
0.0
 40
0.0
 40
0.0
 40
0.0109864278
 40
0.0225053988
 40
0.0345491702
 40
0.0471079767
 40
0.0737260278
 40
0.1022603135
 40
0.132590316
 40
0.1645817723
 40
0.1980850844
 40
0.2329411953
 40
0.2689795339
 40
0.3060230636
 40
0.3438863283
 40
0.3823798573
 40
0.4213088503
 40
0.4604766326
 40
0.4996843295
 40
0.5387331489
 40
0.577425328
 40
0.6155650386
 40
0.6529608071
 40
0.6894249245
 40
0.7247774693
 40
0.758844224
 40
0.7914623785
 40
0.8224771288
 40
0.8517491522
 40
0.8791503651
 40
0.8921160488
 40
0.9045749863
 40
0.9165161895
 40
0.9279314449
 40
0.9388141358
 40
0.9491589439
 40
0.9589625256
 40
0.9682254799
 40
0.9769515238
 40
0.9851474659
 40
0.9928243496
 40
1.0
 40
1.0
 40
1.0
 40
1.0
 10
7.4055173723
 20
9.4330674533
 30
0.0
 10
7.4044850239
 20
9.4310647052
 30
0.0
 10
7.402434697
 20
9.4269286797
 30
0.0
 10
7.399465562
 20
9.4204943773
 30
0.0
 10
7.3965331439
 20
9.4136906274
 30
0.0
 10
7.3926009592
 20
9.4039488714
 30
0.0
 10
7.3878262212
 20
9.3909045292
 30
0.0
 10
7.3824101077
 20
9.3742274566
 30
0.0
 10
7.3772309393
 20
9.3563253903
 30
0.0
 10
7.3723177012
 20
9.3372946147
 30
0.0
 10
7.3676965097
 20
9.3172373669
 30
0.0
 10
7.3633934845
 20
9.2962617474
 30
0.0
 10
7.3594312328
 20
9.2744808987
 30
0.0
 10
7.3558322613
 20
9.2520124121
 30
0.0
 10
7.3526152485
 20
9.2289776451
 30
0.0
 10
7.3497986562
 20
9.205501066
 30
0.0
 10
7.3473968083
 20
9.1817095702
 30
0.0
 10
7.3454237524
 20
9.1577317438
 30
0.0
 10
7.3438891304
 20
9.133697249
 30
0.0
 10
7.3428023115
 20
9.1097359691
 30
0.0
 10
7.342168011
 20
9.0859775107
 30
0.0
 10
7.3419907531
 20
9.0625502143
 30
0.0
 10
7.3422701744
 20
9.0395808016
 30
0.0
 10
7.343005892
 20
9.0171932643
 30
0.0
 10
7.3441924048
 20
8.9955086504
 30
0.0
 10
7.345824463
 20
8.9746438704
 30
0.0
 10
7.3478914683
 20
8.9547116011
 30
0.0
 10
7.3503834242
 20
8.9358189774
 30
0.0
 10
7.3532848709
 20
8.9180679084
 30
0.0
 10
7.3560808311
 20
8.9040584339
 30
0.0
 10
7.3585268231
 20
8.8935035907
 30
0.0
 10
7.3604196459
 20
8.8860771282
 30
0.0
 10
7.3624023948
 20
8.8790037855
 30
0.0
 10
7.3644721326
 20
8.8722928776
 30
0.0
 10
7.3666259192
 20
8.8659531864
 30
0.0
 10
7.3688608803
 20
8.859993269
 30
0.0
 10
7.3711744583
 20
8.8544212926
 30
0.0
 10
7.373563302
 20
8.849244403
 30
0.0
 10
7.3760241201
 20
8.8444691242
 30
0.0
 10
7.3785538699
 20
8.8401016157
 30
0.0
 10
7.3811497343
 20
8.836148169
 30
0.0
 10
7.3829825689
 20
8.8337116476
 30
0.0
 10
7.3839110967
 20
8.8325699304
 30
0.0
  0
SPLINE
  5
2F6
100
AcDbEntity
  8
0
100
AcDbSpline
 62
7
  6
CONTINUOUS
 70
0
 71
3
 72
9
 73
5
 74
0
 42
0.0000001
 43
0.0000001
 44
0.0000000001
 40
0.0
 40
0.0
 40
0.0
 40
0.0
 40
0.5234645794
 40
1.0
 40
1.0
 40
1.0
 40
1.0
 10
7.3972672854
 20
8.8161478178
 30
0.0
 10
7.3985075948
 20
8.814622828
 30
0.0
 10
7.4010191067
 20
8.8118203204
 30
0.0
 10
7.4038582449
 20
8.8093420739
 30
0.0
 10
7.4052927753
 20
8.8082723435
 30
0.0
  0
SPLINE
  5
2F7
100
AcDbEntity
  8
0
100
AcDbSpline
 62
7
  6
CONTINUOUS
 70
0
 71
3
 72
41
 73
37
 74
0
 42
0.0000001
 43
0.0000001
 44
0.0000000001
 40
0.0
 40
0.0
 40
0.0
 40
0.0
 40
0.0257838558
 40
0.0531168312
 40
0.0819121517
 40
0.1120744805
 40
0.1434980784
 40
0.1760727675
 40
0.209679512
 40
0.2441957766
 40
0.2794934543
 40
0.3154404192
 40
0.3519021282
 40
0.3887404445
 40
0.4258163207
 40
0.4629890847
 40
0.500117571
 40
0.5370611923
 40
0.6098326746
 40
0.6453889406
 40
0.680212246
 40
0.714174012
 40
0.7471484231
 40
0.7790158183
 40
0.809662518
 40
0.838980305
 40
0.8668712693
 40
0.8932431594
 40
0.9180172087
 40
0.941124203
 40
0.9520355451
 40
0.9625115899
 40
0.9725482483
 40
0.9821423543
 40
0.9912925354
 40
1.0
 40
1.0
 40
1.0
 40
1.0
 10
7.4053508465
 20
9.4124763382
 30
0.0
 10
7.4035787845
 20
9.4077372938
 30
0.0
 10
7.40010488
 20
9.3979078032
 30
0.0
 10
7.3952197794
 20
9.3825924408
 30
0.0
 10
7.3905233181
 20
9.3663220269
 30
0.0
 10
7.3860351842
 20
9.3491622064
 30
0.0
 10
7.3817726771
 20
9.3311820618
 30
0.0
 10
7.3777544951
 20
9.3124540482
 30
0.0
 10
7.3739957521
 20
9.293053848
 30
0.0
 10
7.3705127025
 20
9.2730597548
 30
0.0
 10
7.3673190464
 20
9.2525525997
 30
0.0
 10
7.3644276946
 20
9.2316152544
 30
0.0
 10
7.3618509887
 20
9.2103323508
 30
0.0
 10
7.3595984335
 20
9.1887899884
 30
0.0
 10
7.3576802829
 20
9.1670752132
 30
0.0
 10
7.3561032948
 20
9.1452759468
 30
0.0
 10
7.3548745037
 20
9.1234801709
 30
0.0
 10
7.3537128171
 20
9.0946878815
 30
0.0
 10
7.3532506122
 20
9.0661789926
 30
0.0
 10
7.3535164338
 20
9.0380888559
 30
0.0
 10
7.354073232
 20
9.0176205378
 30
0.0
 10
7.35498548
 20
8.9976721172
 30
0.0
 10
7.3562500271
 20
8.9783240281
 30
0.0
 10
7.3578615537
 20
8.9596544623
 30
0.0
 10
7.3598128437
 20
8.9417387708
 30
0.0
 10
7.3620968862
 20
8.9246491456
 30
0.0
 10
7.3647028204
 20
8.9084544462
 30
0.0
 10
7.3676212817
 20
8.8932195964
 30
0.0
 10
7.3708391185
 20
8.879005873
 30
0.0
 10
7.373813423
 20
8.8678553589
 30
0.0
 10
7.3763474417
 20
8.859499389
 30
0.0
 10
7.378278085
 20
8.8536424482
 30
0.0
 10
7.3802732861
 20
8.848080989
 30
0.0
 10
7.3823312364
 20
8.8428207349
 30
0.0
 10
7.3844500041
 20
8.8378671333
 30
0.0
 10
7.3859383148
 20
8.8346937134
 30
0.0
 10
7.3866938496
 20
8.8331611819
 30
0.0
  0
SPLINE
  5
2F8
100
AcDbEntity
  8
0
100
AcDbSpline
 62
7
  6
CONTINUOUS
 70
0
 71
3
 72
11
 73
7
 74
0
 42
0.0000001
 43
0.0000001
 44
0.0000000001
 40
0.0
 40
0.0
 40
0.0
 40
0.0
 40
0.2742017968
 40
0.5320062393
 40
0.7737562603
 40
1.0
 40
1.0
 40
1.0
 40
1.0
 10
7.3866938496
 20
8.8331611819
 30
0.0
 10
7.3875049956
 20
8.8315158484
 30
0.0
 10
7.3891458141
 20
8.8283558929
 30
0.0
 10
7.3917528379
 20
8.823881216
 30
0.0
 10
7.3944265516
 20
8.8198249338
 30
0.0
 10
7.3963122541
 20
8.8173220515
 30
0.0
 10
7.3972672854
 20
8.8161478178
 30
0.0
  0
LINE
  5
2F9
100
AcDbEntity
  8
0
100
AcDbLine
 62
7
  6
CONTINUOUS
 10
14.4417425248
 20
7.5738311603
 11
14.4475976065
 21
7.579138035
  0
SPLINE
  5
2FA
100
AcDbEntity
  8
0
100
AcDbSpline
 62
7
  6
CONTINUOUS
 70
0
 71
3
 72
9
 73
5
 74
0
 42
0.0000001
 43
0.0000001
 44
0.0000000001
 40
0.0
 40
0.0
 40
0.0
 40
0.0
 40
0.5038178198
 40
1.0
 40
1.0
 40
1.0
 40
1.0
 10
14.4534526883
 20
7.5851423104
 30
0.0
 10
14.4630555933
 20
7.5985628847
 30
0.0
 10
14.4816290875
 20
7.6255536455
 30
0.0
 10
14.4990043106
 20
7.6533370822
 30
0.0
 10
14.5072618791
 20
7.6673352306
 30
0.0
  0
SPLINE
  5
2FB
100
AcDbEntity
  8
0
100
AcDbSpline
 62
7
  6
CONTINUOUS
 70
0
 71
3
 72
45
 73
41
 74
0
 42
0.0000001
 43
0.0000001
 44
0.0000000001
 40
0.0
 40
0.0
 40
0.0
 40
0.0
 40
0.0097388887
 40
0.0199696543
 40
0.0306887423
 40
0.0418911014
 40
0.0535705352
 40
0.0657189237
 40
0.0913837925
 40
0.1188017599
 40
0.1478717939
 40
0.1784799231
 40
0.2105018128
 40
0.2438028213
 40
0.2782405676
 40
0.3136655516
 40
0.3499220211
 40
0.3868497299
 40
0.4242841598
 40
0.4620580404
 40
0.5000021285
 40
0.5379461683
 40
0.575719999
 40
0.6131542962
 40
0.650081889
 40
0.6863382192
 40
0.7217629233
 40
0.7562005009
 40
0.7895011515
 40
0.821522704
 40
0.8521305912
 40
0.8812001299
 40
0.9086178078
 40
0.9342822411
 40
0.9464304751
 40
0.9581094849
 40
0.9693115906
 40
0.9800305245
 40
0.9902610441
 40
1.0
 40
1.0
 40
1.0
 40
1.0
 10
14.5280204541
 20
7.7025310791
 30
0.0
 10
14.5298836396
 20
7.7056902166
 30
0.0
 10
14.5335897328
 20
7.7122360242
 30
0.0
 10
14.5389682321
 20
7.7224673324
 30
0.0
 10
14.5442974915
 20
7.7333416182
 30
0.0
 10
14.5495709592
 20
7.7448458353
 30
0.0
 10
14.554781989
 20
7.756966584
 30
0.0
 10
14.5617670903
 20
7.7742483922
 30
0.0
 10
14.5702671046
 20
7.7973039228
 30
0.0
 10
14.5799455839
 20
7.8266952631
 30
0.0
 10
14.5892337567
 20
7.8581578934
 30
0.0
 10
14.5980871534
 20
7.891541927
 30
0.0
 10
14.6064623634
 20
7.9266887786
 30
0.0
 10
14.6143194511
 20
7.9634308448
 30
0.0
 10
14.6216203261
 20
8.0015928245
 30
0.0
 10
14.6283295616
 20
8.0409925287
 30
0.0
 10
14.6344153197
 20
8.0814416841
 30
0.0
 10
14.6398478423
 20
8.1227470036
 30
0.0
 10
14.6446012437
 20
8.1647110381
 30
0.0
 10
14.6486528244
 20
8.2071331038
 30
0.0
 10
14.6519827266
 20
8.2498103841
 30
0.0
 10
14.6545754928
 20
8.2925387629
 30
0.0
 10
14.6564184545
 20
8.3351139093
 30
0.0
 10
14.6575028105
 20
8.377332267
 30
0.0
 10
14.6578238379
 20
8.4189919165
 30
0.0
 10
14.6573796431
 20
8.4598937129
 30
0.0
 10
14.6561729306
 20
8.499842137
 30
0.0
 10
14.6542096866
 20
8.5386462805
 30
0.0
 10
14.651499279
 20
8.5761208402
 30
0.0
 10
14.6480556126
 20
8.6120869464
 30
0.0
 10
14.643895147
 20
8.6463730822
 30
0.0
 10
14.6390385234
 20
8.6788161855
 30
0.0
 10
14.6335098404
 20
8.7092616977
 30
0.0
 10
14.6282733718
 20
8.7332694211
 30
0.0
 10
14.623740731
 20
8.7513496173
 30
0.0
 10
14.620252472
 20
8.7640732638
 30
0.0
 10
14.6166175335
 20
8.7761949675
 30
0.0
 10
14.6128404265
 20
8.7877005598
 30
0.0
 10
14.6089254176
 20
8.798576119
 30
0.0
 10
14.6061581811
 20
8.8055706946
 30
0.0
 10
14.6047488374
 20
8.8089567759
 30
0.0
  0
SPLINE
  5
2FC
100
AcDbEntity
  8
0
100
AcDbSpline
 62
7
  6
CONTINUOUS
 70
0
 71
3
 72
22
 73
18
 74
0
 42
0.0000001
 43
0.0000001
 44
0.0000000001
 40
0.0
 40
0.0
 40
0.0
 40
0.0
 40
0.0430141038
 40
0.0880947542
 40
0.1355000964
 40
0.1854484158
 40
0.2381107575
 40
0.2936059916
 40
0.3520037538
 40
0.4133220048
 40
0.4775383643
 40
0.5445891225
 40
0.6143836637
 40
0.6868046295
 40
0.761721388
 40
0.8389925966
 40
1.0
 40
1.0
 40
1.0
 40
1.0
 10
14.5974150451
 20
8.8265767831
 30
0.0
 10
14.5963404008
 20
8.8291622163
 30
0.0
 10
14.5939261752
 20
8.8343708688
 30
0.0
 10
14.5896282746
 20
8.8420810355
 30
0.0
 10
14.5845612203
 20
8.8498535185
 30
0.0
 10
14.5787161236
 20
8.857683163
 30
0.0
 10
14.5720912138
 20
8.8655654358
 30
0.0
 10
14.5646920699
 20
8.873495352
 30
0.0
 10
14.5565308382
 20
8.8814670543
 30
0.0
 10
14.5476269294
 20
8.8894754245
 30
0.0
 10
14.5380046899
 20
8.8975140872
 30
0.0
 10
14.5276942016
 20
8.9055781778
 30
0.0
 10
14.5167283927
 20
8.9136616748
 30
0.0
 10
14.5051435873
 20
8.9217602983
 30
0.0
 10
14.4929768361
 20
8.9298692247
 30
0.0
 10
14.4757931176
 20
8.940840566
 30
0.0
 10
14.4625022796
 20
8.9488418044
 30
0.0
 10
14.4534526883
 20
8.9541278126
 30
0.0
  0
SPLINE
  5
2FD
100
AcDbEntity
  8
0
100
AcDbSpline
 62
7
  6
CONTINUOUS
 70
0
 71
3
 72
23
 73
19
 74
0
 42
0.0000001
 43
0.0000001
 44
0.0000000001
 40
0.0
 40
0.0
 40
0.0
 40
0.0
 40
0.0450330552
 40
0.0906275284
 40
0.1373231452
 40
0.1856182163
 40
0.2359592734
 40
0.2887360514
 40
0.3442769541
 40
0.4028550932
 40
0.4646963509
 40
0.5299826924
 40
0.5988547397
 40
0.6714228893
 40
0.7477727094
 40
0.8279630117
 40
0.912031087
 40
1.0
 40
1.0
 40
1.0
 40
1.0
 10
13.7919417701
 20
9.0908212781
 30
0.0
 10
13.7938225317
 20
9.0906909049
 30
0.0
 10
13.7975957952
 20
9.0902075452
 30
0.0
 10
13.8031878029
 20
9.0888239989
 30
0.0
 10
13.8087204763
 20
9.0867832258
 30
0.0
 10
13.8141874503
 20
9.0840899005
 30
0.0
 10
13.819584494
 20
9.080748207
 30
0.0
 10
13.8249073424
 20
9.0767621041
 30
0.0
 10
13.830152824
 20
9.0721365276
 30
0.0
 10
13.8353177164
 20
9.0668760953
 30
0.0
 10
13.8403984088
 20
9.0609851272
 30
0.0
 10
13.845391215
 20
9.0544684242
 30
0.0
 10
13.8502929334
 20
9.0473316883
 30
0.0
 10
13.8550998803
 20
9.0395806481
 30
0.0
 10
13.8598080008
 20
9.0312213084
 30
0.0
 10
13.8644137389
 20
9.0222605602
 30
0.0
 10
13.8689135513
 20
9.0127060007
 30
0.0
 10
13.8717754041
 20
9.006095407
 30
0.0
 10
13.8731905418
 20
9.0026953998
 30
0.0
  0
SPLINE
  5
2FE
100
AcDbEntity
  8
0
100
AcDbSpline
 62
7
  6
CONTINUOUS
 70
0
 71
3
 72
11
 73
7
 74
0
 42
0.0000001
 43
0.0000001
 44
0.0000000001
 40
0.0
 40
0.0
 40
0.0
 40
0.0
 40
0.2810440064
 40
0.5411187547
 40
0.7805678593
 40
1.0
 40
1.0
 40
1.0
 40
1.0
 10
13.7767190804
 20
7.6116237584
 30
0.0
 10
13.7736494046
 20
7.6064191997
 30
0.0
 10
13.767506171
 20
7.596532519
 30
0.0
 10
13.7578636214
 20
7.5827848627
 30
0.0
 10
13.7481725358
 20
7.5707275902
 30
0.0
 10
13.7414064207
 20
7.5635277411
 30
0.0
 10
13.7380131657
 20
7.5602501083
 30
0.0
  0
SPLINE
  5
2FF
100
AcDbEntity
  8
0
100
AcDbSpline
 62
7
  6
CONTINUOUS
 70
0
 71
3
 72
16
 73
12
 74
0
 42
0.0000001
 43
0.0000001
 44
0.0000000001
 40
0.0
 40
0.0
 40
0.0
 40
0.0
 40
0.1081441501
 40
0.2181156532
 40
0.3316506324
 40
0.4503158792
 40
0.5120258431
 40
0.5755090604
 40
0.7082799098
 40
0.8495473498
 40
1.0
 40
1.0
 40
1.0
 40
1.0
 10
13.6840845613
 20
7.5355573909
 30
0.0
 10
13.6862810768
 20
7.5354051299
 30
0.0
 10
13.6907378334
 20
7.5353999889
 30
0.0
 10
13.6974489857
 20
7.5362963324
 30
0.0
 10
13.7041981705
 20
7.5380920992
 30
0.0
 10
13.7097728477
 20
7.5403032633
 30
0.0
 10
13.7142312632
 20
7.5424917581
 30
0.0
 10
13.7188253289
 20
7.545041283
 30
0.0
 10
13.7245860864
 20
7.5488064702
 30
0.0
 10
13.7314058512
 20
7.5541286582
 30
0.0
 10
13.7358099621
 20
7.5581219769
 30
0.0
 10
13.7380131657
 20
7.5602501083
 30
0.0
  0
SPLINE
  5
300
100
AcDbEntity
  8
0
100
AcDbSpline
 62
7
  6
CONTINUOUS
 70
0
 71
3
 72
23
 73
19
 74
0
 42
0.0000001
 43
0.0000001
 44
0.0000000001
 40
0.0
 40
0.0
 40
0.0
 40
0.0
 40
0.0585898733
 40
0.1173698536
 40
0.1764044131
 40
0.2357736959
 40
0.2955649194
 40
0.3558708504
 40
0.416784513
 40
0.478390273
 40
0.5407578531
 40
0.6039369443
 40
0.6679528424
 40
0.7328073671
 40
0.7984811201
 40
0.8649372933
 40
0.9321295174
 40
1.0
 40
1.0
 40
1.0
 40
1.0
 10
14.4417425248
 20
8.9428166625
 30
0.0
 10
14.4422769783
 20
8.9330169078
 30
0.0
 10
14.44300769
 20
8.9133649747
 30
0.0
 10
14.4429824268
 20
8.8838082343
 30
0.0
 10
14.4417294547
 20
8.8541456267
 30
0.0
 10
14.4391419297
 20
8.8243982067
 30
0.0
 10
14.4351221204
 20
8.794594099
 30
0.0
 10
14.4295883202
 20
8.764769509
 30
0.0
 10
14.422479289
 20
8.7349675393
 30
0.0
 10
14.4137633729
 20
8.7052352368
 30
0.0
 10
14.4034414306
 20
8.675619992
 30
0.0
 10
14.3915443095
 20
8.646166792
 30
0.0
 10
14.3781327468
 20
8.6169141095
 30
0.0
 10
14.3632919428
 20
8.5878914163
 30
0.0
 10
14.3471219066
 20
8.5591196135
 30
0.0
 10
14.3297323852
 20
8.5306098713
 30
0.0
 10
14.3112369963
 20
8.5023656393
 30
0.0
 10
14.2983038845
 20
8.4837986462
 30
0.0
 10
14.2916881923
 20
8.4745528618
 30
0.0
  0
SPLINE
  5
301
100
AcDbEntity
  8
0
100
AcDbSpline
 62
7
  6
CONTINUOUS
 70
0
 71
3
 72
21
 73
17
 74
0
 42
0.0000001
 43
0.0000001
 44
0.0000000001
 40
0.0
 40
0.0
 40
0.0
 40
0.0
 40
0.1269951931
 40
0.1903313503
 40
0.2535398382
 40
0.316607465
 40
0.3795227472
 40
0.4422768717
 40
0.5048635225
 40
0.5672807258
 40
0.6295304781
 40
0.6916182474
 40
0.7535535549
 40
0.81534766
 40
0.8770128295
 40
1.0
 40
1.0
 40
1.0
 40
1.0
 10
14.2858331105
 20
8.4310494096
 30
0.0
 10
14.2930022779
 20
8.4042505428
 30
0.0
 10
14.3028182954
 20
8.3638239649
 30
0.0
 10
14.3135882373
 20
8.3094905793
 30
0.0
 10
14.3203823407
 20
8.2686245018
 30
0.0
 10
14.3257956439
 20
8.2276447877
 30
0.0
 10
14.329737392
 20
8.1865960624
 30
0.0
 10
14.3321341451
 20
8.1455327174
 30
0.0
 10
14.3329395457
 20
8.1045157417
 30
0.0
 10
14.3321384712
 20
8.0636087916
 30
0.0
 10
14.3297456599
 20
8.0228734838
 30
0.0
 10
14.3258071419
 20
7.982364856
 30
0.0
 10
14.3203962275
 20
7.9421279554
 30
0.0
 10
14.3136035598
 20
7.9021953351
 30
0.0
 10
14.3028538939
 20
7.8494378907
 30
0.0
 10
14.2930247181
 20
7.8102898063
 30
0.0
 10
14.2858331105
 20
7.7844045356
 30
0.0
  0
SPLINE
  5
302
100
AcDbEntity
  8
0
100
AcDbSpline
 62
7
  6
CONTINUOUS
 70
0
 71
3
 72
23
 73
19
 74
0
 42
0.0000001
 43
0.0000001
 44
0.0000000001
 40
0.0
 40
0.0
 40
0.0
 40
0.0
 40
0.0918475873
 40
0.1802508547
 40
0.2648642734
 40
0.3453618695
 40
0.4214558847
 40
0.4929313303
 40
0.5596763441
 40
0.6217181845
 40
0.679247469
 40
0.7326218532
 40
0.7823582449
 40
0.8290988409
 40
0.873552094
 40
0.9164311664
 40
0.9583950213
 40
1.0
 40
1.0
 40
1.0
 40
1.0
 10
14.2916881923
 20
7.7522122336
 30
0.0
 10
14.2982207833
 20
7.7483964447
 30
0.0
 10
14.3109694464
 20
7.7407842634
 30
0.0
 10
14.3294381393
 20
7.7291666976
 30
0.0
 10
14.3468027166
 20
7.7175629067
 30
0.0
 10
14.3629526724
 20
7.7059837417
 30
0.0
 10
14.3777816804
 20
7.6944417966
 30
0.0
 10
14.3911931606
 20
7.6829514791
 30
0.0
 10
14.4031058785
 20
7.6715268608
 30
0.0
 10
14.4134608658
 20
7.660182245
 30
0.0
 10
14.4222259879
 20
7.6489315502
 30
0.0
 10
14.4293961367
 20
7.6377867258
 30
0.0
 10
14.4349944967
 20
7.6267598057
 30
0.0
 10
14.4390720247
 20
7.615863683
 30
0.0
 10
14.4417021582
 20
7.6051108927
 30
0.0
 10
14.4429787553
 20
7.5945121487
 30
0.0
 10
14.4430105665
 20
7.5840752314
 30
0.0
 10
14.4422763884
 20
7.5772162759
 30
0.0
 10
14.4417425248
 20
7.5738311603
 30
0.0
  0
SPLINE
  5
303
100
AcDbEntity
  8
0
100
AcDbSpline
 62
7
  6
CONTINUOUS
 70
0
 71
3
 72
23
 73
19
 74
0
 42
0.0000001
 43
0.0000001
 44
0.0000000001
 40
0.0
 40
0.0
 40
0.0
 40
0.0
 40
0.0660261197
 40
0.1326791986
 40
0.1997030403
 40
0.2668692291
 40
0.333941151
 40
0.4006793953
 40
0.4668485329
 40
0.5322156723
 40
0.5965508331
 40
0.6596292132
 40
0.7212319554
 40
0.7811471545
 40
0.8391697184
 40
0.8951057059
 40
0.9487781813
 40
1.0
 40
1.0
 40
1.0
 40
1.0
 10
13.6155649383
 20
8.4775326652
 30
0.0
 10
13.6137798277
 20
8.4633687252
 30
0.0
 10
13.610422848
 20
8.434876841
 30
0.0
 10
13.6060440795
 20
8.3919185282
 30
0.0
 10
13.6023099546
 20
8.3486518712
 30
0.0
 10
13.5992345817
 20
8.3052426635
 30
0.0
 10
13.596829093
 20
8.2618530157
 30
0.0
 10
13.5951029959
 20
8.2186467601
 30
0.0
 10
13.5940625915
 20
8.175787225
 30
0.0
 10
13.5937115997
 20
8.1334360395
 30
0.0
 10
13.5940515856
 20
8.0917529715
 30
0.0
 10
13.5950808171
 20
8.0508952897
 30
0.0
 10
13.5967953814
 20
8.0110170098
 30
0.0
 10
13.5991888354
 20
7.9722686981
 30
0.0
 10
13.6022514127
 20
7.9347965145
 30
0.0
 10
13.6059717729
 20
7.8987402092
 30
0.0
 10
13.6103356599
 20
7.8642377059
 30
0.0
 10
13.6137449909
 20
7.841812275
 30
0.0
 10
13.6155649383
 20
7.8308877912
 30
0.0
  0
SPLINE
  5
304
100
AcDbEntity
  8
0
100
AcDbSpline
 62
7
  6
CONTINUOUS
 70
0
 71
3
 72
27
 73
23
 74
0
 42
0.0000001
 43
0.0000001
 44
0.0000000001
 40
0.0
 40
0.0
 40
0.0
 40
0.0
 40
0.0172100656
 40
0.03539193
 40
0.0545618205
 40
0.0747307351
 40
0.0959056975
 40
0.1180902205
 40
0.1412846614
 40
0.165484731
 40
0.2168644319
 40
0.2721426947
 40
0.3311937005
 40
0.3938624938
 40
0.459969944
 40
0.5293140214
 40
0.6016754647
 40
0.6768186922
 40
0.7544898211
 40
0.8344273011
 40
0.9163676493
 40
1.0
 40
1.0
 40
1.0
 40
1.0
 10
13.7714743525
 20
8.9892999181
 30
0.0
 10
13.7695428333
 20
8.9872040912
 30
0.0
 10
13.7656868391
 20
8.9827860438
 30
0.0
 10
13.7600699472
 20
8.9757045249
 30
0.0
 10
13.7544689019
 20
8.9679960268
 30
0.0
 10
13.7488900406
 20
8.9596682328
 30
0.0
 10
13.7433383723
 20
8.9507291633
 30
0.0
 10
13.7378187716
 20
8.9411870364
 30
0.0
 10
13.732336325
 20
8.9310503021
 30
0.0
 10
13.7249342987
 20
8.9164612518
 30
0.0
 10
13.7158434008
 20
8.8967800848
 30
0.0
 10
13.7053691727
 20
8.87140792
 30
0.0
 10
13.6951619818
 20
8.843924124
 30
0.0
 10
13.6852604424
 20
8.8144314889
 30
0.0
 10
13.6757026593
 20
8.7830399042
 30
0.0
 10
13.6665245861
 20
8.7498671495
 30
0.0
 10
13.6577613332
 20
8.7150376527
 30
0.0
 10
13.6494464997
 20
8.6786826596
 30
0.0
 10
13.641611223
 20
8.6409392364
 30
0.0
 10
13.6342853593
 20
8.6019478612
 30
0.0
 10
13.6274973769
 20
8.5618579014
 30
0.0
 10
13.6233846676
 20
8.5347462935
 30
0.0
 10
13.6214200201
 20
8.5210361174
 30
0.0
  0
SPLINE
  5
305
100
AcDbEntity
  8
0
100
AcDbSpline
 62
7
  6
CONTINUOUS
 70
0
 71
3
 72
9
 73
5
 74
0
 42
0.0000001
 43
0.0000001
 44
0.0000000001
 40
0.0
 40
0.0
 40
0.0
 40
0.0
 40
0.5119712763
 40
1.0
 40
1.0
 40
1.0
 40
1.0
 10
14.6047488374
 20
8.8089567759
 30
0.0
 10
14.6035643035
 20
8.8118027304
 30
0.0
 10
14.6011678123
 20
8.8173275548
 30
0.0
 10
14.5985878715
 20
8.8227694963
 30
0.0
 10
14.5972790939
 20
8.8254004042
 30
0.0
  0
SPLINE
  5
306
100
AcDbEntity
  8
0
100
AcDbSpline
 62
7
  6
CONTINUOUS
 70
0
 71
3
 72
27
 73
23
 74
0
 42
0.0000001
 43
0.0000001
 44
0.0000000001
 40
0.0
 40
0.0
 40
0.0
 40
0.0
 40
0.0874494243
 40
0.1687813433
 40
0.2441813942
 40
0.3139316672
 40
0.3784369634
 40
0.4088986847
 40
0.4382684393
 40
0.4941005298
 40
0.5468782306
 40
0.572481396
 40
0.5977499042
 40
0.6228437734
 40
0.6479264192
 40
0.6731615443
 40
0.6987099946
 40
0.7513190665
 40
0.8069186155
 40
0.8664475454
 40
0.9306296741
 40
1.0
 40
1.0
 40
1.0
 40
1.0
 10
14.5968170802
 20
8.8263239614
 30
0.0
 10
14.5951223696
 20
8.829692701
 30
0.0
 10
14.5916903159
 20
8.8361156989
 30
0.0
 10
14.5861880543
 20
8.8451011719
 30
0.0
 10
14.580527378
 20
8.8530707801
 30
0.0
 10
14.5747162337
 20
8.860010274
 30
0.0
 10
14.5696604213
 20
8.865018497
 30
0.0
 10
14.5655485516
 20
8.8684638262
 30
0.0
 10
14.5615418891
 20
8.8714381586
 30
0.0
 10
14.5564399488
 20
8.8745353053
 30
0.0
 10
14.5510905837
 20
8.8768072354
 30
0.0
 10
14.546792863
 20
8.8780502122
 30
0.0
 10
14.5435786344
 20
8.87870181
 30
0.0
 10
14.5403436804
 20
8.8790812025
 30
0.0
 10
14.5370897543
 20
8.8791882978
 30
0.0
 10
14.5338185789
 20
8.8790228582
 30
0.0
 10
14.5293948608
 20
8.8784337756
 30
0.0
 10
14.5237865636
 20
8.8769840086
 30
0.0
 10
14.5170990025
 20
8.8741719093
 30
0.0
 10
14.5103944168
 20
8.8702833961
 30
0.0
 10
14.5036825342
 20
8.8653333476
 30
0.0
 10
14.4993824832
 20
8.861489713
 30
0.0
 10
14.4972309102
 20
8.8594114529
 30
0.0
  0
SPLINE
  5
307
100
AcDbEntity
  8
0
100
AcDbSpline
 62
7
  6
CONTINUOUS
 70
0
 71
3
 72
67
 73
63
 74
0
 42
0.0000001
 43
0.0000001
 44
0.0000000001
 40
0.0
 40
0.0
 40
0.0
 40
0.0
 40
0.0086179494
 40
0.0180358123
 40
0.0282777948
 40
0.0393570901
 40
0.0512785654
 40
0.0640385392
 40
0.0776257282
 40
0.0920242224
 40
0.1072127486
 40
0.1231670794
 40
0.1398586016
 40
0.1572562209
 40
0.1753258325
 40
0.1940308173
 40
0.2133326853
 40
0.2331903658
 40
0.2535616456
 40
0.2744020359
 40
0.3173057972
 40
0.3615231764
 40
0.4066589769
 40
0.4523072939
 40
0.4980563249
 40
0.5434931385
 40
0.588208365
 40
0.6318009377
 40
0.6738829856
 40
0.7140848207
 40
0.733372182
 40
0.7520616454
 40
0.770114903
 40
0.787495077
 40
0.8041685684
 40
0.8201038709
 40
0.8352729569
 40
0.8496512257
 40
0.8632177311
 40
0.87595682
 40
0.8878573581
 40
0.898915853
 40
0.90913594
 40
0.9185322611
 40
0.9271322063
 40
0.9349804026
 40
0.9421441885
 40
0.9487189002
 40
0.9518273098
 40
0.9548402823
 40
0.9577795492
 40
0.9606687735
 40
0.9635329457
 40
0.9663977226
 40
0.9692887577
 40
0.9722310211
 40
0.9752481133
 40
0.9783617774
 40
0.984950669
 40
0.9884626481
 40
0.9921353442
 40
1.0
 40
1.0
 40
1.0
 40
1.0
 10
14.4972309102
 20
8.8594114529
 30
0.0
 10
14.4944838291
 20
8.8567579762
 30
0.0
 10
14.4890067626
 20
8.8509197331
 30
0.0
 10
14.4811682032
 20
8.8411289866
 30
0.0
 10
14.4733699155
 20
8.8299480965
 30
0.0
 10
14.4656301728
 20
8.8174045635
 30
0.0
 10
14.4579659312
 20
8.8035262549
 30
0.0
 10
14.4503949339
 20
8.7883449792
 30
0.0
 10
14.4429346747
 20
8.7718962419
 30
0.0
 10
14.4356040973
 20
8.7542187264
 30
0.0
 10
14.4284198172
 20
8.735354647
 30
0.0
 10
14.4214001496
 20
8.7153487308
 30
0.0
 10
14.4145612521
 20
8.6942489142
 30
0.0
 10
14.4079202449
 20
8.6721056317
 30
0.0
 10
14.4014930101
 20
8.6489720337
 30
0.0
 10
14.3952949747
 20
8.6249036449
 30
0.0
 10
14.3893415687
 20
8.5999582669
 30
0.0
 10
14.3836465736
 20
8.5741959076
 30
0.0
 10
14.3782244503
 20
8.5476784459
 30
0.0
 10
14.3713087361
 20
8.5110456646
 30
0.0
 10
14.3634625269
 20
8.463839501
 30
0.0
 10
14.3554089603
 20
8.4057746325
 30
0.0
 10
14.3487073715
 20
8.3463141105
 30
0.0
 10
14.3434225613
 20
8.286029814
 30
0.0
 10
14.3396056216
 20
8.225501157
 30
0.0
 10
14.3372931588
 20
8.1653100813
 30
0.0
 10
14.3365070377
 20
8.1060352578
 30
0.0
 10
14.3372540227
 20
8.0482462081
 30
0.0
 10
14.3395259634
 20
7.9924985376
 30
0.0
 10
14.3427123529
 20
7.947588168
 30
0.0
 10
14.3460411716
 20
7.9130993269
 30
0.0
 10
14.3488667507
 20
7.888427485
 30
0.0
 10
14.352047831
 20
7.864651361
 30
0.0
 10
14.3555775707
 20
7.8418279595
 30
0.0
 10
14.3594466026
 20
7.8200120782
 30
0.0
 10
14.3636459608
 20
7.7992559459
 30
0.0
 10
14.3681652567
 20
7.7796092112
 30
0.0
 10
14.3729932273
 20
7.761118666
 30
0.0
 10
14.3781187944
 20
7.7438282994
 30
0.0
 10
14.3835285945
 20
7.7277787715
 30
0.0
 10
14.3892109111
 20
7.7130078547
 30
0.0
 10
14.3951511912
 20
7.6995493901
 30
0.0
 10
14.4013370416
 20
7.6874341879
 30
0.0
 10
14.4077546551
 20
7.6766888976
 30
0.0
 10
14.4143918013
 20
7.6673368812
 30
0.0
 10
14.4212390381
 20
7.6593986028
 30
0.0
 10
14.428285502
 20
7.6528931931
 30
0.0
 10
14.4344357554
 20
7.6486055732
 30
0.0
 10
14.4394159391
 20
7.6459741228
 30
0.0
 10
14.4431193533
 20
7.6444080882
 30
0.0
 10
14.4468577768
 20
7.6432153988
 30
0.0
 10
14.4506284917
 20
7.6423972494
 30
0.0
 10
14.4544283599
 20
7.6419543723
 30
0.0
 10
14.4582541609
 20
7.6418872257
 30
0.0
 10
14.462102649
 20
7.6421959411
 30
0.0
 10
14.4659705901
 20
7.6428801465
 30
0.0
 10
14.4698554056
 20
7.6439385265
 30
0.0
 10
14.4751527389
 20
7.645882686
 30
0.0
 10
14.4803861891
 20
7.6485681524
 30
0.0
 10
14.4855139518
 20
7.6518845026
 30
0.0
 10
14.490881404
 20
7.6558499059
 30
0.0
 10
14.494723951
 20
7.6592418205
 30
0.0
 10
14.4972309102
 20
7.6616633573
 30
0.0
  0
LINE
  5
308
100
AcDbEntity
  8
0
100
AcDbLine
 62
7
  6
CONTINUOUS
 10
14.4972309102
 20
7.6616633573
 11
14.5042523491
 21
7.6690196096
  0
SPLINE
  5
309
100
AcDbEntity
  8
0
100
AcDbSpline
 62
7
  6
CONTINUOUS
 70
0
 71
3
 72
11
 73
7
 74
0
 42
0.0000001
 43
0.0000001
 44
0.0000000001
 40
0.0
 40
0.0
 40
0.0
 40
0.0
 40
0.2268693041
 40
0.4690076439
 40
0.7266685335
 40
1.0
 40
1.0
 40
1.0
 40
1.0
 10
14.5042523491
 20
7.6690196096
 30
0.0
 10
14.5063148443
 20
7.6713490776
 30
0.0
 10
14.5104274517
 20
7.676300024
 30
0.0
 10
14.5163790855
 20
7.684298096
 30
0.0
 10
14.5223030248
 20
7.6930958051
 30
0.0
 10
14.5261161888
 20
7.6993022886
 30
0.0
 10
14.5280204541
 20
7.7025310791
 30
0.0
  0
SPLINE
  5
30A
100
AcDbEntity
  8
0
100
AcDbSpline
 62
7
  6
CONTINUOUS
 70
0
 71
3
 72
21
 73
17
 74
0
 42
0.0000001
 43
0.0000001
 44
0.0000000001
 40
0.0
 40
0.0
 40
0.0
 40
0.0
 40
0.0728823736
 40
0.141888212
 40
0.2696012541
 40
0.3293570075
 40
0.3870776082
 40
0.4434076632
 40
0.4990462596
 40
0.5547196157
 40
0.6111528978
 40
0.669041935
 40
0.7290278484
 40
0.8573689059
 40
0.9267404926
 40
1.0
 40
1.0
 40
1.0
 40
1.0
 10
13.8663330833
 20
8.9953269794
 30
0.0
 10
13.8647902208
 20
8.9970302378
 30
0.0
 10
13.8616796947
 20
9.000252936
 30
0.0
 10
13.8553451247
 20
9.0059279378
 30
0.0
 10
13.848683033
 20
9.0106048468
 30
0.0
 10
13.8417480159
 20
9.0140498664
 30
0.0
 10
13.8365974008
 20
9.0159556936
 30
0.0
 10
13.8313895594
 20
9.0172348828
 30
0.0
 10
13.8261310193
 20
9.0178852903
 30
0.0
 10
13.8208292051
 20
9.0179057398
 30
0.0
 10
13.8154916586
 20
9.0172962264
 30
0.0
 10
13.810124852
 20
9.0160588448
 30
0.0
 10
13.8027749716
 20
9.0135206087
 30
0.0
 10
13.7955304625
 20
9.0097269325
 30
0.0
 10
13.7884728901
 20
9.0049042395
 30
0.0
 10
13.7849474249
 20
9.0021038733
 30
0.0
 10
13.7831845161
 20
9.0006110682
 30
0.0
  0
SPLINE
  5
30B
100
AcDbEntity
  8
0
100
AcDbSpline
 62
7
  6
CONTINUOUS
 70
0
 71
3
 72
62
 73
58
 74
0
 42
0.0000001
 43
0.0000001
 44
0.0000000001
 40
0.0
 40
0.0
 40
0.0
 40
0.0
 40
0.0081427991
 40
0.0169763541
 40
0.0265212688
 40
0.0367899029
 40
0.0477882393
 40
0.0595158221
 40
0.0719659579
 40
0.0851283762
 40
0.0989885031
 40
0.1135293074
 40
0.1287305125
 40
0.1445694691
 40
0.1610215247
 40
0.1780595828
 40
0.1956553465
 40
0.2137782477
 40
0.2323967249
 40
0.2514775632
 40
0.2908868797
 40
0.3317194992
 40
0.3736732554
 40
0.4164349229
 40
0.4596834325
 40
0.5030929766
 40
0.5463362025
 40
0.5890874045
 40
0.631025604
 40
0.6718377051
 40
0.7112217528
 40
0.7302882004
 40
0.748891306
 40
0.7669977136
 40
0.7845759926
 40
0.8015956804
 40
0.8180283551
 40
0.8338472608
 40
0.8490274904
 40
0.8635467897
 40
0.877384716
 40
0.8905243839
 40
0.9029514028
 40
0.9146555474
 40
0.9256307737
 40
0.9358760392
 40
0.9453971611
 40
0.954207119
 40
0.9623296615
 40
0.9698005886
 40
0.9766723665
 40
0.983017616
 40
0.9889330152
 40
0.9917694054
 40
0.9945465737
 40
0.9972834695
 40
1.0
 40
1.0
 40
1.0
 40
1.0
 10
13.7380131657
 20
9.0661285607
 30
0.0
 10
13.7348690173
 20
9.0630915464
 30
0.0
 10
13.7285966866
 20
9.0564637549
 30
0.0
 10
13.7195826054
 20
9.0454303232
 30
0.0
 10
13.7106072161
 20
9.0329313232
 30
0.0
 10
13.7016884373
 20
9.0189926506
 30
0.0
 10
13.6928424035
 20
9.0036404172
 30
0.0
 10
13.684086383
 20
8.9869039281
 30
0.0
 10
13.6754369385
 20
8.9688159849
 30
0.0
 10
13.6669125264
 20
8.949412017
 30
0.0
 10
13.6585292749
 20
8.9287307766
 30
0.0
 10
13.6503047875
 20
8.9068131877
 30
0.0
 10
13.6422552208
 20
8.8837030481
 30
0.0
 10
13.63439688
 20
8.8594465153
 30
0.0
 10
13.6267459931
 20
8.8340921256
 30
0.0
 10
13.6193173994
 20
8.8076907544
 30
0.0
 10
13.6121268724
 20
8.7802952826
 30
0.0
 10
13.6051882083
 20
8.7519607808
 30
0.0
 10
13.5985159372
 20
8.7227440581
 30
0.0
 10
13.5898998065
 20
8.6822542222
 30
0.0
 10
13.5799211338
 20
8.6298681934
 30
0.0
 10
13.5693295724
 20
8.5651222841
 30
0.0
 10
13.5600821161
 20
8.4983536314
 30
0.0
 10
13.5522536258
 20
8.430098606
 30
0.0
 10
13.5459075006
 20
8.3609051582
 30
0.0
 10
13.5410949644
 20
8.2913290943
 30
0.0
 10
13.5378546395
 20
8.2219292946
 30
0.0
 10
13.5362123197
 20
8.1532632324
 30
0.0
 10
13.5361806353
 20
8.0858822201
 30
0.0
 10
13.5377593185
 20
8.0203276415
 30
0.0
 10
13.5404327582
 20
7.9670990795
 30
0.0
 10
13.5433946116
 20
7.9258383585
 30
0.0
 10
13.5459824188
 20
7.8960062999
 30
0.0
 10
13.5489557953
 20
7.8670131396
 30
0.0
 10
13.5523080598
 20
7.8389171099
 30
0.0
 10
13.5560329155
 20
7.8117745877
 30
0.0
 10
13.5601225155
 20
7.7856400523
 30
0.0
 10
13.5645684524
 20
7.7605658775
 30
0.0
 10
13.569362126
 20
7.7366022942
 30
0.0
 10
13.5744930344
 20
7.7137971945
 30
0.0
 10
13.5799516829
 20
7.6921961423
 30
0.0
 10
13.5857260792
 20
7.6718420545
 30
0.0
 10
13.5918052678
 20
7.652775319
 30
0.0
 10
13.5981767124
 20
7.6350334913
 30
0.0
 10
13.604827619
 20
7.6186511629
 30
0.0
 10
13.6117456875
 20
7.603660214
 30
0.0
 10
13.6189167901
 20
7.5900887973
 30
0.0
 10
13.6263294061
 20
7.5779628323
 30
0.0
 10
13.6339701745
 20
7.5673040323
 30
0.0
 10
13.6418290664
 20
7.5581326907
 30
0.0
 10
13.6498972759
 20
7.5504667902
 30
0.0
 10
13.65816517
 20
7.5443255179
 30
0.0
 10
13.6653190792
 20
7.540443562
 30
0.0
 10
13.6710838387
 20
7.5381739212
 30
0.0
 10
13.675383829
 20
7.5368864238
 30
0.0
 10
13.6797165178
 20
7.5359923076
 30
0.0
 10
13.6826297042
 20
7.5356582407
 30
0.0
 10
13.6840845613
 20
7.5355573909
 30
0.0
  0
LINE
  5
30C
100
AcDbEntity
  8
0
100
AcDbLine
 62
7
  6
CONTINUOUS
 10
13.7773294343
 20
8.9953041934
 11
13.7831845161
 21
9.0006110682
  0
SPLINE
  5
30D
100
AcDbEntity
  8
0
100
AcDbSpline
 62
7
  6
CONTINUOUS
 70
0
 71
3
 72
16
 73
12
 74
0
 42
0.0000001
 43
0.0000001
 44
0.0000000001
 40
0.0
 40
0.0
 40
0.0
 40
0.0
 40
0.1504526502
 40
0.2917200902
 40
0.4244909396
 40
0.4879741569
 40
0.5496841208
 40
0.6683493676
 40
0.7818843468
 40
0.8918558499
 40
1.0
 40
1.0
 40
1.0
 40
1.0
 10
13.7380131657
 20
9.0661285607
 30
0.0
 10
13.7402163694
 20
9.0682566922
 30
0.0
 10
13.7446204803
 20
9.0722500108
 30
0.0
 10
13.751440245
 20
9.0775721988
 30
0.0
 10
13.7572010026
 20
9.081337386
 30
0.0
 10
13.7617950683
 20
9.0838869109
 30
0.0
 10
13.7662534837
 20
9.0860754058
 30
0.0
 10
13.771828161
 20
9.0882865698
 30
0.0
 10
13.7785773458
 20
9.0900823366
 30
0.0
 10
13.7852884981
 20
9.0909786801
 30
0.0
 10
13.7897452546
 20
9.0909735392
 30
0.0
 10
13.7919417701
 20
9.0908212781
 30
0.0
  0
LINE
  5
30E
100
AcDbEntity
  8
0
100
AcDbLine
 62
7
  6
CONTINUOUS
 10
14.4534526883
 20
8.9541278126
 11
14.4475976065
 21
8.9488209378
  0
SPLINE
  5
30F
100
AcDbEntity
  8
0
100
AcDbSpline
 62
7
  6
CONTINUOUS
 70
0
 71
3
 72
37
 73
33
 74
0
 42
0.0000001
 43
0.0000001
 44
0.0000000001
 40
0.0
 40
0.0
 40
0.0
 40
0.0
 40
0.1052650673
 40
0.2039550182
 40
0.2507480109
 40
0.2958083354
 40
0.3391178534
 40
0.380662509
 40
0.4204325443
 40
0.4584224133
 40
0.494634148
 40
0.5290790161
 40
0.5617756741
 40
0.5927530038
 40
0.6220535982
 40
0.6497332805
 40
0.6758643886
 40
0.7005411057
 40
0.7238802866
 40
0.7460246424
 40
0.7671473208
 40
0.7874513848
 40
0.8071678796
 40
0.8265516532
 40
0.8458716734
 40
0.8653996533
 40
0.8853987434
 40
0.906112805
 40
0.9277597665
 40
0.9505265022
 40
0.9745651425
 40
1.0
 40
1.0
 40
1.0
 40
1.0
 10
13.6214200201
 20
7.7986954892
 30
0.0
 10
13.6233437715
 20
7.7889871064
 30
0.0
 10
13.6273547072
 20
7.7702312749
 30
0.0
 10
13.6330892214
 20
7.7473574798
 30
0.0
 10
13.6379771727
 20
7.7301208396
 30
0.0
 10
13.6417089207
 20
7.717971788
 30
0.0
 10
13.6455684002
 20
7.7063815717
 30
0.0
 10
13.6495520296
 20
7.6953607608
 30
0.0
 10
13.6536558276
 20
7.6849195736
 30
0.0
 10
13.6578761659
 20
7.6750679546
 30
0.0
 10
13.6622092361
 20
7.6658151533
 30
0.0
 10
13.6666507387
 20
7.6571694967
 30
0.0
 10
13.6711968083
 20
7.6491389141
 30
0.0
 10
13.6758437001
 20
7.6417308617
 30
0.0
 10
13.6805870759
 20
7.6349518081
 30
0.0
 10
13.6854230618
 20
7.6288078919
 30
0.0
 10
13.6903482568
 20
7.6233051195
 30
0.0
 10
13.6953586527
 20
7.61844845
 30
0.0
 10
13.7004506597
 20
7.6142427163
 30
0.0
 10
13.705621132
 20
7.6106933543
 30
0.0
 10
13.7108660288
 20
7.6078051423
 30
0.0
 10
13.7161807864
 20
7.6055828382
 30
0.0
 10
13.7215600216
 20
7.6040319501
 30
0.0
 10
13.7269964677
 20
7.603156307
 30
0.0
 10
13.7324817966
 20
7.6029575098
 30
0.0
 10
13.7380074609
 20
7.6034360111
 30
0.0
 10
13.7435653741
 20
7.6045898816
 30
0.0
 10
13.7491489861
 20
7.6064150807
 30
0.0
 10
13.7547527217
 20
7.6089078104
 30
0.0
 10
13.7603714648
 20
7.6120637395
 30
0.0
 10
13.7660004142
 20
7.6158769181
 30
0.0
 10
13.769649347
 20
7.6187690281
 30
0.0
 10
13.7714743525
 20
7.6203144159
 30
0.0
  0
SPLINE
  5
310
100
AcDbEntity
  8
0
100
AcDbSpline
 62
7
  6
CONTINUOUS
 70
0
 71
3
 72
15
 73
11
 74
0
 42
0.0000001
 43
0.0000001
 44
0.0000000001
 40
0.0
 40
0.0
 40
0.0
 40
0.0
 40
0.1273482789
 40
0.2538606571
 40
0.3795878378
 40
0.5046051156
 40
0.629017439
 40
0.7529533823
 40
0.8765605864
 40
1.0
 40
1.0
 40
1.0
 40
1.0
 10
8.109890884
 20
9.6149884187
 30
0.0
 10
8.109890884
 20
9.6084900936
 30
0.0
 10
8.1092704233
 20
9.5955271145
 30
0.0
 10
8.1064644918
 20
9.5763319684
 30
0.0
 10
8.1018117703
 20
9.5576191147
 30
0.0
 10
8.0953542875
 20
9.5395635634
 30
0.0
 10
8.0871512678
 20
9.5223318218
 30
0.0
 10
8.0772775427
 20
9.5060829873
 30
0.0
 10
8.0658259204
 20
9.4909693128
 30
0.0
 10
8.0572034206
 20
9.481737005
 30
0.0
 10
8.0526729491
 20
9.4773608755
 30
0.0
  0
SPLINE
  5
311
100
AcDbEntity
  8
0
100
AcDbSpline
 62
7
  6
CONTINUOUS
 70
0
 71
3
 72
15
 73
11
 74
0
 42
0.0000001
 43
0.0000001
 44
0.0000000001
 40
0.0
 40
0.0
 40
0.0
 40
0.0
 40
0.1273482789
 40
0.2538606571
 40
0.3795878378
 40
0.5046051156
 40
0.629017439
 40
0.7529533823
 40
0.8765605864
 40
1.0
 40
1.0
 40
1.0
 40
1.0
 10
8.109890884
 20
6.9567602969
 30
0.0
 10
8.109890884
 20
6.9502619719
 30
0.0
 10
8.1092704233
 20
6.9372989927
 30
0.0
 10
8.1064644918
 20
6.9181038467
 30
0.0
 10
8.1018117703
 20
6.899390993
 30
0.0
 10
8.0953542875
 20
6.8813354417
 30
0.0
 10
8.0871512678
 20
6.8641037
 30
0.0
 10
8.0772775427
 20
6.8478548655
 30
0.0
 10
8.0658259204
 20
6.832741191
 30
0.0
 10
8.0572034206
 20
6.8235088833
 30
0.0
 10
8.0526729491
 20
6.8191327538
 30
0.0
  0
SPLINE
  5
312
100
AcDbEntity
  8
0
100
AcDbSpline
 62
7
  6
CONTINUOUS
 70
0
 71
3
 72
15
 73
11
 74
0
 42
0.0000001
 43
0.0000001
 44
0.0000000001
 40
0.0
 40
0.0
 40
0.0
 40
0.0
 40
0.1273482789
 40
0.2538606571
 40
0.3795878378
 40
0.5046051156
 40
0.629017439
 40
0.7529533823
 40
0.8765605864
 40
1.0
 40
1.0
 40
1.0
 40
1.0
 10
11.9735945332
 20
6.6888115388
 30
0.0
 10
11.9735945332
 20
6.6823132137
 30
0.0
 10
11.9729740725
 20
6.6693502346
 30
0.0
 10
11.9701681411
 20
6.6501550885
 30
0.0
 10
11.9655154195
 20
6.6314422348
 30
0.0
 10
11.9590579367
 20
6.6133866835
 30
0.0
 10
11.9508549171
 20
6.5961549419
 30
0.0
 10
11.940981192
 20
6.5799061074
 30
0.0
 10
11.9295295696
 20
6.5647924329
 30
0.0
 10
11.9209070699
 20
6.5555601251
 30
0.0
 10
11.9163765983
 20
6.5511839956
 30
0.0
  0
SPLINE
  5
313
100
AcDbEntity
  8
0
100
AcDbSpline
 62
7
  6
CONTINUOUS
 70
0
 71
3
 72
15
 73
11
 74
0
 42
0.0000001
 43
0.0000001
 44
0.0000000001
 40
0.0
 40
0.0
 40
0.0
 40
0.0
 40
0.1273482789
 40
0.2538606571
 40
0.3795878378
 40
0.5046051156
 40
0.629017439
 40
0.7529533823
 40
0.8765605864
 40
1.0
 40
1.0
 40
1.0
 40
1.0
 10
11.9735945332
 20
9.3470396605
 30
0.0
 10
11.9735945332
 20
9.3405413355
 30
0.0
 10
11.9729740725
 20
9.3275783563
 30
0.0
 10
11.9701681411
 20
9.3083832102
 30
0.0
 10
11.9655154195
 20
9.2896703565
 30
0.0
 10
11.9590579367
 20
9.2716148052
 30
0.0
 10
11.9508549171
 20
9.2543830636
 30
0.0
 10
11.940981192
 20
9.2381342291
 30
0.0
 10
11.9295295696
 20
9.2230205546
 30
0.0
 10
11.9209070699
 20
9.2137882468
 30
0.0
 10
11.9163765983
 20
9.2094121173
 30
0.0
  0
SPLINE
  5
314
100
AcDbEntity
  8
0
100
AcDbSpline
 62
7
  6
CONTINUOUS
 70
0
 71
3
 72
15
 73
11
 74
0
 42
0.0000001
 43
0.0000001
 44
0.0000000001
 40
0.0
 40
0.0
 40
0.0
 40
0.0
 40
0.1273482808
 40
0.2538605196
 40
0.3795878971
 40
0.5046050835
 40
0.6290174393
 40
0.7529533827
 40
0.8765605876
 40
1.0
 40
1.0
 40
1.0
 40
1.0
 10
9.3390315081
 20
9.5906005513
 30
0.0
 10
9.3390315081
 20
9.5862734775
 30
0.0
 10
9.3386183657
 20
9.577641755
 30
0.0
 10
9.336749959
 20
9.5648601815
 30
0.0
 10
9.3336518289
 20
9.5523997564
 30
0.0
 10
9.3293519532
 20
9.5403770072
 30
0.0
 10
9.3238898026
 20
9.5289028024
 30
0.0
 10
9.3173151497
 20
9.5180830933
 30
0.0
 10
9.3096897974
 20
9.5080192731
 30
0.0
 10
9.3039483058
 20
9.501871692
 30
0.0
 10
9.3009315799
 20
9.4989577329
 30
0.0
  0
SPLINE
  5
315
100
AcDbEntity
  8
0
100
AcDbSpline
 62
7
  6
CONTINUOUS
 70
0
 71
3
 72
15
 73
11
 74
0
 42
0.0000001
 43
0.0000001
 44
0.0000000001
 40
0.0
 40
0.0
 40
0.0
 40
0.0
 40
0.1273482808
 40
0.2538605196
 40
0.3795878971
 40
0.5046050835
 40
0.6290174393
 40
0.7529533827
 40
0.8765605876
 40
1.0
 40
1.0
 40
1.0
 40
1.0
 10
9.9437011563
 20
6.7687318269
 30
0.0
 10
9.9437011563
 20
6.7644047532
 30
0.0
 10
9.943288014
 20
6.7557730307
 30
0.0
 10
9.9414196072
 20
6.7429914571
 30
0.0
 10
9.9383214771
 20
6.7305310321
 30
0.0
 10
9.9340216014
 20
6.7185082828
 30
0.0
 10
9.9285594508
 20
6.7070340781
 30
0.0
 10
9.9219847979
 20
6.696214369
 30
0.0
 10
9.9143594457
 20
6.6861505487
 30
0.0
 10
9.9086179541
 20
6.6800029676
 30
0.0
 10
9.9056012281
 20
6.6770890085
 30
0.0
  0
SPLINE
  5
316
100
AcDbEntity
  8
0
100
AcDbSpline
 62
7
  6
CONTINUOUS
 70
0
 71
3
 72
15
 73
11
 74
0
 42
0.0000001
 43
0.0000001
 44
0.0000000001
 40
0.0
 40
0.0
 40
0.0
 40
0.0
 40
0.1273473901
 40
0.2538608346
 40
0.3795878351
 40
0.5046051039
 40
0.6290174461
 40
0.7529533848
 40
0.8765605883
 40
1.0
 40
1.0
 40
1.0
 40
1.0
 10
10.8946551223
 20
9.4218643628
 30
0.0
 10
10.8946551223
 20
9.4194621597
 30
0.0
 10
10.8944257548
 20
9.4146701646
 30
0.0
 10
10.8933885155
 20
9.4075743386
 30
0.0
 10
10.8916685401
 20
9.4006567903
 30
0.0
 10
10.889281425
 20
9.393982241
 30
0.0
 10
10.8862490475
 20
9.3876122193
 30
0.0
 10
10.8825990563
 20
9.3816055491
 30
0.0
 10
10.8783657632
 20
9.3760185153
 30
0.0
 10
10.8751783172
 20
9.3726056195
 30
0.0
 10
10.8735035503
 20
9.3709879051
 30
0.0
  0
SPLINE
  5
317
100
AcDbEntity
  8
0
100
AcDbSpline
 62
7
  6
CONTINUOUS
 70
0
 71
3
 72
15
 73
11
 74
0
 42
0.0000001
 43
0.0000001
 44
0.0000000001
 40
0.0
 40
0.0
 40
0.0
 40
0.0
 40
0.1273473901
 40
0.2538608346
 40
0.3795878351
 40
0.5046051039
 40
0.6290174461
 40
0.7529533848
 40
0.8765605883
 40
1.0
 40
1.0
 40
1.0
 40
1.0
 10
8.6778552611
 20
6.9173718336
 30
0.0
 10
8.6778552611
 20
6.9149696305
 30
0.0
 10
8.6776258936
 20
6.9101776354
 30
0.0
 10
8.6765886543
 20
6.9030818094
 30
0.0
 10
8.6748686789
 20
6.8961642611
 30
0.0
 10
8.6724815638
 20
6.8894897118
 30
0.0
 10
8.6694491863
 20
6.8831196901
 30
0.0
 10
8.665799195
 20
6.8771130199
 30
0.0
 10
8.6615659019
 20
6.8715259861
 30
0.0
 10
8.658378456
 20
6.8681130903
 30
0.0
 10
8.6567036891
 20
6.8664953759
 30
0.0
  0
SPLINE
  5
318
100
AcDbEntity
  8
0
100
AcDbSpline
 62
7
  6
CONTINUOUS
 70
0
 71
3
 72
41
 73
37
 74
0
 42
0.0000001
 43
0.0000001
 44
0.0000000001
 40
0.0
 40
0.0
 40
0.0
 40
0.0
 40
0.0309586465
 40
0.0464934321
 40
0.0620624565
 40
0.093297744
 40
0.1246609274
 40
0.1561420464
 40
0.1877291265
 40
0.2194085318
 40
0.2511652646
 40
0.282983297
 40
0.3148458949
 40
0.3467359329
 40
0.3786361928
 40
0.4105296397
 40
0.4423996736
 40
0.4742303545
 40
0.5060066011
 40
0.5377143652
 40
0.5693407809
 40
0.6008742942
 40
0.6323047729
 40
0.6636236005
 40
0.6948237557
 40
0.7258998796
 40
0.7568483322
 40
0.787667238
 40
0.8183565216
 40
0.8489179324
 40
0.8793550567
 40
0.9096733154
 40
0.9398799451
 40
0.9549461015
 40
0.9699878783
 40
1.0
 40
1.0
 40
1.0
 40
1.0
 10
9.8079885697
 20
9.2974086696
 30
0.0
 10
9.8152193631
 20
9.2969072123
 30
0.0
 10
9.8260576354
 20
9.2957882391
 30
0.0
 10
9.8404207463
 20
9.2935780128
 30
0.0
 10
9.8547671489
 20
9.2908822248
 30
0.0
 10
9.8725782157
 20
9.2866151945
 30
0.0
 10
9.8936335544
 20
9.2800965751
 30
0.0
 10
9.914303026
 20
9.2722074727
 30
0.0
 10
9.9344955688
 20
9.2629884774
 30
0.0
 10
9.9541244386
 20
9.2524863677
 30
0.0
 10
9.9731067867
 20
9.2407536965
 30
0.0
 10
9.9913643111
 20
9.2278481582
 30
0.0
 10
10.0088234979
 20
9.2138319881
 30
0.0
 10
10.0254158568
 20
9.1987713537
 30
0.0
 10
10.0410780468
 20
9.1827357681
 30
0.0
 10
10.0557519335
 20
9.165797535
 30
0.0
 10
10.0693845773
 20
9.1480312356
 30
0.0
 10
10.0819281688
 20
9.1295132658
 30
0.0
 10
10.093339922
 20
9.1103214264
 30
0.0
 10
10.1035819377
 20
9.0905345685
 30
0.0
 10
10.1126210478
 20
9.070232293
 30
0.0
 10
10.1204286517
 20
9.0494947031
 30
0.0
 10
10.1269805538
 20
9.0284022033
 30
0.0
 10
10.1322568094
 20
9.0070353425
 30
0.0
 10
10.136241587
 20
8.9854746931
 30
0.0
 10
10.1389230516
 20
8.963800761
 30
0.0
 10
10.1402932732
 20
8.9420939179
 30
0.0
 10
10.1403481663
 20
8.9204343552
 30
0.0
 10
10.1390874525
 20
8.8989020262
 30
0.0
 10
10.1365146834
 20
8.8775766661
 30
0.0
 10
10.1326371923
 20
8.8565375288
 30
0.0
 10
10.1274664616
 20
8.8358641364
 30
0.0
 10
10.1220872235
 20
8.8189900803
 30
0.0
 10
10.1171542726
 20
8.8057562724
 30
0.0
 10
10.1118144702
 20
8.7927310684
 30
0.0
 10
10.1073392521
 20
8.7831683872
 30
0.0
 10
10.1041535185
 20
8.7769055126
 30
0.0
  0
SPLINE
  5
319
100
AcDbEntity
  8
0
100
AcDbSpline
 62
7
  6
CONTINUOUS
 70
0
 71
3
 72
15
 73
11
 74
0
 42
0.0000001
 43
0.0000001
 44
0.0000000001
 40
0.0
 40
0.0
 40
0.0
 40
0.0
 40
0.1249654748
 40
0.2500847766
 40
0.3752850816
 40
0.5004927064
 40
0.625635296
 40
0.7506432969
 40
0.8754514535
 40
1.0
 40
1.0
 40
1.0
 40
1.0
 10
9.0120317385
 20
7.1318896
 30
0.0
 10
9.0061564791
 20
7.1359683202
 30
0.0
 10
8.9946557155
 20
7.1445082269
 30
0.0
 10
8.9782474163
 20
7.1583898962
 30
0.0
 10
8.9627370203
 20
7.1732891819
 30
0.0
 10
8.9481911035
 20
7.1891327156
 30
0.0
 10
8.9346677173
 20
7.2058431204
 30
0.0
 10
8.9222173389
 20
7.2233395288
 30
0.0
 10
8.9108830473
 20
7.2415375117
 30
0.0
 10
8.9040849588
 20
7.2540978045
 30
0.0
 10
8.9008830928
 20
7.2604666282
 30
0.0
  0
SPLINE
  5
31A
100
AcDbEntity
  8
0
100
AcDbSpline
 62
7
  6
CONTINUOUS
 70
0
 71
3
 72
23
 73
19
 74
0
 42
0.0000001
 43
0.0000001
 44
0.0000000001
 40
0.0
 40
0.0
 40
0.0
 40
0.0
 40
0.0637767638
 40
0.1273450118
 40
0.1907019674
 40
0.2538561101
 40
0.3168132145
 40
0.3795820843
 40
0.4421733868
 40
0.5045993403
 40
0.5668738673
 40
0.6290123789
 40
0.6910316481
 40
0.752949645
 40
0.8147853545
 40
0.8765586015
 40
0.9382898522
 40
1.0
 40
1.0
 40
1.0
 40
1.0
 10
10.7748803091
 20
7.3157591203
 30
0.0
 10
10.7748803091
 20
7.3099733614
 30
0.0
 10
10.7746033625
 20
7.2984188001
 30
0.0
 10
10.7733534536
 20
7.2811572628
 30
0.0
 10
10.7712723042
 20
7.2640325334
 30
0.0
 10
10.7683649278
 20
7.2470848654
 30
0.0
 10
10.7646377991
 20
7.2303529743
 30
0.0
 10
10.7600995495
 20
7.2138755392
 30
0.0
 10
10.7547606196
 20
7.1976905217
 30
0.0
 10
10.7486332562
 20
7.1818352477
 30
0.0
 10
10.7417315287
 20
7.166346301
 30
0.0
 10
10.7340713552
 20
7.1512593927
 30
0.0
 10
10.725670385
 20
7.1366093203
 30
0.0
 10
10.7165479486
 20
7.1224298795
 30
0.0
 10
10.7067250696
 20
7.1087538341
 30
0.0
 10
10.6962243103
 20
7.0956126076
 30
0.0
 10
10.6850703106
 20
7.0830369138
 30
0.0
 10
10.6772144598
 20
7.0750480285
 30
0.0
 10
10.6731878712
 20
7.0711586459
 30
0.0
  0
SPLINE
  5
31B
100
AcDbEntity
  8
0
100
AcDbSpline
 62
7
  6
CONTINUOUS
 70
0
 71
3
 72
19
 73
15
 74
0
 42
0.0000001
 43
0.0000001
 44
0.0000000001
 40
0.0
 40
0.0
 40
0.0
 40
0.0
 40
0.0612409415
 40
0.1227272145
 40
0.1844374935
 40
0.2463678358
 40
0.3707869356
 40
0.4958939026
 40
0.5586754963
 40
0.6215672453
 40
0.6845480646
 40
0.747596113
 40
0.8737808245
 40
1.0
 40
1.0
 40
1.0
 40
1.0
 10
11.256877395
 20
7.0820595907
 30
0.0
 10
11.2548821428
 20
7.0821979619
 30
0.0
 10
11.250890643
 20
7.0825893777
 30
0.0
 10
11.244935605
 20
7.0835143018
 30
0.0
 10
11.2390190532
 20
7.0847743658
 30
0.0
 10
11.2311968992
 20
7.0868956843
 30
0.0
 10
11.2216090786
 20
7.0903540559
 30
0.0
 10
11.2124117499
 20
7.0948065736
 30
0.0
 10
11.205327049
 20
7.0989212565
 30
0.0
 10
11.2001558715
 20
7.1022754271
 30
0.0
 10
11.1951454385
 20
7.1058799421
 30
0.0
 10
11.1886913705
 20
7.1110019752
 30
0.0
 10
11.1810734593
 20
7.1179596244
 30
0.0
 10
11.175494924
 20
7.1240444324
 30
0.0
 10
11.1728411625
 20
7.127198734
 30
0.0
  0
SPLINE
  5
31C
100
AcDbEntity
  8
0
100
AcDbSpline
 62
7
  6
CONTINUOUS
 70
0
 71
3
 72
39
 73
35
 74
0
 42
0.0000001
 43
0.0000001
 44
0.0000000001
 40
0.0
 40
0.0
 40
0.0
 40
0.0
 40
0.0310016404
 40
0.0621469067
 40
0.0934266276
 40
0.1248357085
 40
0.1563632704
 40
0.1879975482
 40
0.2197248144
 40
0.251529847
 40
0.2833962774
 40
0.3153068281
 40
0.3472436598
 40
0.3791886853
 40
0.4111238496
 40
0.4430314022
 40
0.4748941688
 40
0.5066958358
 40
0.5384211678
 40
0.5700562085
 40
0.601588474
 40
0.6330071543
 40
0.6643032658
 40
0.6954697682
 40
0.7265016735
 40
0.7573961478
 40
0.7881525826
 40
0.8187726218
 40
0.8492601696
 40
0.8796213698
 40
0.9098645543
 40
0.940000154
 40
0.9700405701
 40
1.0
 40
1.0
 40
1.0
 40
1.0
 10
10.8193129034
 20
8.9450230711
 30
0.0
 10
10.8219983775
 20
8.9448368328
 30
0.0
 10
10.8273708706
 20
8.9442816971
 30
0.0
 10
10.835372426
 20
8.94291139
 30
0.0
 10
10.8433008197
 20
8.9410078113
 30
0.0
 10
10.8511194313
 20
8.9385805306
 30
0.0
 10
10.8587931858
 20
8.9356411399
 30
0.0
 10
10.8662875524
 20
8.9322039342
 30
0.0
 10
10.8735691878
 20
8.928285467
 30
0.0
 10
10.8806059544
 20
8.923904467
 30
0.0
 10
10.8873671064
 20
8.9190816917
 30
0.0
 10
10.893823403
 20
8.9138397537
 30
0.0
 10
10.8999472578
 20
8.9082030095
 30
0.0
 10
10.9057128331
 20
8.9021973789
 30
0.0
 10
10.9110960862
 20
8.8958501535
 30
0.0
 10
10.9160748306
 20
8.8891898484
 30
0.0
 10
10.9206287801
 20
8.8822460512
 30
0.0
 10
10.9247396362
 20
8.8750493071
 30
0.0
 10
10.9283910512
 20
8.8676309358
 30
0.0
 10
10.9315686394
 20
8.8600229098
 30
0.0
 10
10.9342599689
 20
8.852257731
 30
0.0
 10
10.9364546238
 20
8.8443683383
 30
0.0
 10
10.9381441727
 20
8.8363879824
 30
0.0
 10
10.9393221335
 20
8.8283501221
 30
0.0
 10
10.9399839651
 20
8.8202883357
 30
0.0
 10
10.9401271028
 20
8.812236237
 30
0.0
 10
10.9397509793
 20
8.8042273802
 30
0.0
 10
10.9388569609
 20
8.7962951702
 30
0.0
 10
10.9374483631
 20
8.7884727859
 30
0.0
 10
10.9355304567
 20
8.7807930806
 30
0.0
 10
10.9331105701
 20
8.7732885169
 30
0.0
 10
10.930197901
 20
8.7659909012
 30
0.0
 10
10.926803977
 20
8.7589319493
 30
0.0
 10
10.9242256381
 20
8.7543991254
 30
0.0
 10
10.9228615868
 20
8.7521839982
 30
0.0
  0
SPLINE
  5
31D
100
AcDbEntity
  8
0
100
AcDbSpline
 62
7
  6
CONTINUOUS
 70
0
 71
3
 72
34
 73
30
 74
0
 42
0.0000001
 43
0.0000001
 44
0.0000000001
 40
0.0
 40
0.0
 40
0.0
 40
0.0
 40
0.0720857154
 40
0.145278321
 40
0.2190440481
 40
0.2928432547
 40
0.3661360818
 40
0.4024256481
 40
0.4383886043
 40
0.4739596244
 40
0.5090743153
 40
0.5436693749
 40
0.577682755
 40
0.6110538272
 40
0.6437235543
 40
0.6756346728
 40
0.706731884
 40
0.7369620418
 40
0.7662743607
 40
0.7946206425
 40
0.8219555271
 40
0.8482367869
 40
0.8734256549
 40
0.8974872011
 40
0.9203907935
 40
0.9421106687
 40
0.9626266492
 40
0.981925075
 40
1.0
 40
1.0
 40
1.0
 40
1.0
 10
13.3887961052
 20
8.1278715368
 30
0.0
 10
13.3887961052
 20
8.1503500468
 30
0.0
 10
13.3893367416
 20
8.1956538232
 30
0.0
 10
13.3917033975
 20
8.2639227785
 30
0.0
 10
13.3956158068
 20
8.3326561319
 30
0.0
 10
13.4010436572
 20
8.4013174728
 30
0.0
 10
13.4068129688
 20
8.458214913
 30
0.0
 10
13.4121609414
 20
8.5032850024
 30
0.0
 10
13.4165077264
 20
8.5366262855
 30
0.0
 10
13.4211947691
 20
8.5695514093
 30
0.0
 10
13.4262129351
 20
8.60199618
 30
0.0
 10
13.4315523937
 20
8.6338972864
 30
0.0
 10
13.437202697
 20
8.6651924986
 30
0.0
 10
13.4431527835
 20
8.6958207701
 30
0.0
 10
13.4493910048
 20
8.7257223635
 30
0.0
 10
13.4559051435
 20
8.7548389719
 30
0.0
 10
13.4626824336
 20
8.7831138373
 30
0.0
 10
13.4697095934
 20
8.8104918609
 30
0.0
 10
13.476972849
 20
8.8369197118
 30
0.0
 10
13.4844579615
 20
8.8623459352
 30
0.0
 10
13.4921502581
 20
8.8867210612
 30
0.0
 10
13.5000346573
 20
8.9099977143
 30
0.0
 10
13.5080957019
 20
8.9321307201
 30
0.0
 10
13.5163175993
 20
8.9530771959
 30
0.0
 10
13.5246842742
 20
8.9727966725
 30
0.0
 10
13.5331793726
 20
8.9912511173
 30
0.0
 10
13.5417864872
 20
9.0084053095
 30
0.0
 10
13.550488691
 20
9.0242260301
 30
0.0
 10
13.5565410034
 20
9.0341911782
 30
0.0
 10
13.5595883719
 20
9.038932647
 30
0.0
  0
SPLINE
  5
31E
100
AcDbEntity
  8
0
100
AcDbSpline
 62
7
  6
CONTINUOUS
 70
0
 71
3
 72
23
 73
19
 74
0
 42
0.0000001
 43
0.0000001
 44
0.0000000001
 40
0.0
 40
0.0
 40
0.0
 40
0.0
 40
0.0861625031
 40
0.1686286909
 40
0.2474357857
 40
0.3226367967
 40
0.3943046228
 40
0.4625335318
 40
0.5274441394
 40
0.5891859695
 40
0.6479432093
 40
0.7039380042
 40
0.7574359982
 40
0.8087486849
 40
0.8582359246
 40
0.906303671
 40
0.9533990941
 40
1.0
 40
1.0
 40
1.0
 40
1.0
 10
13.5595883719
 20
9.038932647
 30
0.0
 10
13.5613307804
 20
9.0416436993
 30
0.0
 10
13.5648185233
 20
9.0469001981
 30
0.0
 10
13.5701840512
 20
9.054442932
 30
0.0
 10
13.5755647947
 20
9.0614652836
 30
0.0
 10
13.5809571286
 20
9.0679622282
 30
0.0
 10
13.5863573599
 20
9.0739293392
 30
0.0
 10
13.5917620356
 20
9.0793623871
 30
0.0
 10
13.5971675997
 20
9.0842576313
 30
0.0
 10
13.6025707777
 20
9.088611461
 30
0.0
 10
13.6079681989
 20
9.0924206983
 30
0.0
 10
13.6133567346
 20
9.0956821408
 30
0.0
 10
13.6187330714
 20
9.0983929317
 30
0.0
 10
13.6240939414
 20
9.1005500329
 30
0.0
 10
13.629435558
 20
9.1021507782
 30
0.0
 10
13.6347540395
 20
9.1031924078
 30
0.0
 10
13.6400438061
 20
9.1036730237
 30
0.0
 10
13.6435557485
 20
9.103618208
 30
0.0
 10
13.6452945658
 20
9.1034976171
 30
0.0
  0
SPLINE
  5
31F
100
AcDbEntity
  8
0
100
AcDbSpline
 62
7
  6
CONTINUOUS
 70
0
 71
3
 72
19
 73
15
 74
0
 42
0.0000001
 43
0.0000001
 44
0.0000000001
 40
0.0
 40
0.0
 40
0.0
 40
0.0
 40
0.1413561674
 40
0.2734769086
 40
0.3980630896
 40
0.4582491797
 40
0.5174328596
 40
0.5759685679
 40
0.6342311987
 40
0.6926106412
 40
0.7515074004
 40
0.8113204631
 40
0.8724390275
 40
1.0
 40
1.0
 40
1.0
 40
1.0
 10
8.4039760759
 20
9.3171085675
 30
0.0
 10
8.4048254884
 20
9.3178972793
 30
0.0
 10
8.4065348207
 20
9.3193550279
 30
0.0
 10
8.4092294824
 20
9.3212083254
 30
0.0
 10
8.4115403149
 20
9.3224145829
 30
0.0
 10
8.4134020335
 20
9.3231505925
 30
0.0
 10
8.4147951925
 20
9.3235879264
 30
0.0
 10
8.4162019348
 20
9.3239158001
 30
0.0
 10
8.4176232837
 20
9.3241333845
 30
0.0
 10
8.4190602295
 20
9.3242398413
 30
0.0
 10
8.420513773
 20
9.3242345086
 30
0.0
 10
8.4219851234
 20
9.3241167427
 30
0.0
 10
8.4240001502
 20
9.3238048578
 30
0.0
 10
8.4255008797
 20
9.3234042819
 30
0.0
 10
8.4264934618
 20
9.323074278
 30
0.0
  0
SPLINE
  5
320
100
AcDbEntity
  8
0
100
AcDbSpline
 62
7
  6
CONTINUOUS
 70
0
 71
3
 72
11
 73
7
 74
0
 42
0.0000001
 43
0.0000001
 44
0.0000000001
 40
0.0
 40
0.0
 40
0.0
 40
0.0
 40
0.2497274679
 40
0.4997929991
 40
0.7499638032
 40
1.0
 40
1.0
 40
1.0
 40
1.0
 10
9.4499453662
 20
7.6075264705
 30
0.0
 10
9.4574470698
 20
7.602318641
 30
0.0
 10
9.4720429181
 20
7.5912793015
 30
0.0
 10
9.492528879
 20
7.5730026097
 30
0.0
 10
9.5114898746
 20
7.5531331709
 30
0.0
 10
9.5230385538
 20
7.5389187844
 30
0.0
 10
9.5285194298
 20
7.5316000842
 30
0.0
  0
SPLINE
  5
321
100
AcDbEntity
  8
0
100
AcDbSpline
 62
7
  6
CONTINUOUS
 70
0
 71
3
 72
15
 73
11
 74
0
 42
0.0000001
 43
0.0000001
 44
0.0000000001
 40
0.0
 40
0.0
 40
0.0
 40
0.0
 40
0.1035784703
 40
0.214175343
 40
0.3313733118
 40
0.4547238734
 40
0.5837569403
 40
0.7179827779
 40
0.8568992342
 40
1.0
 40
1.0
 40
1.0
 40
1.0
 10
10.1153044045
 20
7.5085822903
 30
0.0
 10
10.115727642
 20
7.5132067779
 30
0.0
 10
10.1170717246
 20
7.522730751
 30
0.0
 10
10.1204497228
 20
7.5372162499
 30
0.0
 10
10.1253107678
 20
7.5522092836
 30
0.0
 10
10.1316810801
 20
7.5675241077
 30
0.0
 10
10.1395613139
 20
7.5829809881
 30
0.0
 10
10.1489279168
 20
7.5984071224
 30
0.0
 10
10.1597342887
 20
7.6136395796
 30
0.0
 10
10.1677474219
 20
7.6234346311
 30
0.0
 10
10.1719696112
 20
7.6282652574
 30
0.0
  0
SPLINE
  5
322
100
AcDbEntity
  8
0
100
AcDbSpline
 62
7
  6
CONTINUOUS
 70
0
 71
3
 72
22
 73
18
 74
0
 42
0.0000001
 43
0.0000001
 44
0.0000000001
 40
0.0
 40
0.0
 40
0.0
 40
0.0
 40
0.0415329961
 40
0.0853217302
 40
0.1316101176
 40
0.1805897798
 40
0.232403397
 40
0.2871500608
 40
0.3448945167
 40
0.4056749665
 40
0.4695055734
 40
0.5363842331
 40
0.6062935274
 40
0.6792053556
 40
0.7550812938
 40
0.8338795008
 40
1.0
 40
1.0
 40
1.0
 40
1.0
 10
10.132864153
 20
7.4456190974
 30
0.0
 10
10.1321022176
 20
7.4461697128
 30
0.0
 10
10.1306015365
 20
7.447392381
 30
0.0
 10
10.128496066
 20
7.4495061216
 30
0.0
 10
10.1264927194
 20
7.4519393212
 30
0.0
 10
10.1246040167
 20
7.4546853107
 30
0.0
 10
10.1228421295
 20
7.4577371036
 30
0.0
 10
10.1212196152
 20
7.461086729
 30
0.0
 10
10.119748858
 20
7.4647252971
 30
0.0
 10
10.1184423447
 20
7.4686431456
 30
0.0
 10
10.1173120713
 20
7.4728297688
 30
0.0
 10
10.1163700122
 20
7.4772740021
 30
0.0
 10
10.1156274731
 20
7.481963997
 30
0.0
 10
10.1150954681
 20
7.486887257
 30
0.0
 10
10.1147843103
 20
7.4920310298
 30
0.0
 10
10.1146750786
 20
7.4992929093
 30
0.0
 10
10.1149617178
 20
7.5048379378
 30
0.0
 10
10.1153044045
 20
7.5085822903
 30
0.0
  0
SPLINE
  5
323
100
AcDbEntity
  8
0
100
AcDbSpline
 62
7
  6
CONTINUOUS
 70
0
 71
3
 72
32
 73
28
 74
0
 42
0.0000001
 43
0.0000001
 44
0.0000000001
 40
0.0
 40
0.0
 40
0.0
 40
0.0
 40
0.0851787614
 40
0.1685807002
 40
0.2498832653
 40
0.3287741212
 40
0.4049545312
 40
0.4781407237
 40
0.5480664211
 40
0.5817295925
 40
0.6144870438
 40
0.6463116105
 40
0.6771777326
 40
0.7070617063
 40
0.7359416555
 40
0.7637979445
 40
0.7906130811
 40
0.8163723145
 40
0.8410635061
 40
0.8646779434
 40
0.8872102421
 40
0.9086594218
 40
0.9290289468
 40
0.948328137
 40
0.9665725098
 40
0.9837856371
 40
1.0
 40
1.0
 40
1.0
 40
1.0
 10
7.4053383504
 20
7.2915719019
 30
0.0
 10
7.4053383504
 20
7.2805697904
 30
0.0
 10
7.4055258289
 20
7.25879454
 30
0.0
 10
7.4063857032
 20
7.2265280859
 30
0.0
 10
7.4078178387
 20
7.1950947137
 30
0.0
 10
7.4098160364
 20
7.1646268094
 30
0.0
 10
7.4123716186
 20
7.1352524778
 30
0.0
 10
7.4154736073
 20
7.1070953667
 30
0.0
 10
7.4185401707
 20
7.0844661357
 30
0.0
 10
7.4212696969
 20
7.0670672527
 30
0.0
 10
7.4234187566
 20
7.0545602215
 30
0.0
 10
7.4256933261
 20
7.0424427864
 30
0.0
 10
7.4280910409
 20
7.0307276692
 30
0.0
 10
7.4306093249
 20
7.0194271828
 30
0.0
 10
7.4332455473
 20
7.0085531898
 30
0.0
 10
7.4359968691
 20
6.998117093
 30
0.0
 10
7.4388604371
 20
6.9881298268
 30
0.0
 10
7.4418331575
 20
6.9786018284
 30
0.0
 10
7.4449119777
 20
6.9695430499
 30
0.0
 10
7.4480935729
 20
6.9609629042
 30
0.0
 10
7.4513747217
 20
6.9528703089
 30
0.0
 10
7.4547519065
 20
6.9452735956
 30
0.0
 10
7.4582217917
 20
6.9381805933
 30
0.0
 10
7.4617807189
 20
6.9315985238
 30
0.0
 10
7.4654253852
 20
6.9255340224
 30
0.0
 10
7.4691519024
 20
6.9199934473
 30
0.0
 10
7.4717650026
 20
6.916552263
 30
0.0
 10
7.4730864582
 20
6.9149274667
 30
0.0
  0
SPLINE
  5
324
100
AcDbEntity
  8
0
100
AcDbSpline
 62
7
  6
CONTINUOUS
 70
0
 71
3
 72
41
 73
37
 74
0
 42
0.0000001
 43
0.0000001
 44
0.0000000001
 40
0.0
 40
0.0
 40
0.0
 40
0.0
 40
0.007162612
 40
0.0146567417
 40
0.0224899956
 40
0.0306685914
 40
0.0391976034
 40
0.048080857
 40
0.0573206515
 40
0.066918234
 40
0.0768739428
 40
0.0871871961
 40
0.0978567943
 40
0.1088807133
 40
0.1319796531
 40
0.156457528
 40
0.1822790031
 40
0.209402002
 40
0.2377785106
 40
0.2673552928
 40
0.2980744675
 40
0.3298739761
 40
0.3626879666
 40
0.3964471508
 40
0.4310791783
 40
0.4665089456
 40
0.5026588803
 40
0.5394491982
 40
0.5767981966
 40
0.6146225314
 40
0.6528374708
 40
0.6913571413
 40
0.7689615366
 40
0.8467371407
 40
0.9239816507
 40
1.0
 40
1.0
 40
1.0
 40
1.0
 10
7.5427711499
 20
10.0506742775
 30
0.0
 10
7.5416209313
 20
10.0495632515
 30
0.0
 10
7.5393220185
 20
10.0472325386
 30
0.0
 10
7.5359525466
 20
10.043507838
 30
0.0
 10
7.532587333
 20
10.0394789925
 30
0.0
 10
7.5292285865
 20
10.0351486076
 30
0.0
 10
7.5258781351
 20
10.0305192476
 30
0.0
 10
7.5225379602
 20
10.0255935548
 30
0.0
 10
7.5192099378
 20
10.0203744578
 30
0.0
 10
7.5158960816
 20
10.0148650454
 30
0.0
 10
7.5125984053
 20
10.0090685901
 30
0.0
 10
7.5093188145
 20
10.0029885761
 30
0.0
 10
7.5060593106
 20
9.9966285908
 30
0.0
 10
7.5016742349
 20
9.9876399131
 30
0.0
 10
7.4962691608
 20
9.9757216624
 30
0.0
 10
7.4899906625
 20
9.9605819383
 30
0.0
 10
7.4838378716
 20
9.9444256936
 30
0.0
 10
7.4778256761
 20
9.9272916254
 30
0.0
 10
7.471968616
 20
9.909220621
 30
0.0
 10
7.4662808716
 20
9.8902559774
 30
0.0
 10
7.4607762184
 20
9.8704431662
 30
0.0
 10
7.4554679933
 20
9.8498297446
 30
0.0
 10
7.4503690521
 20
9.8284652346
 30
0.0
 10
7.445491726
 20
9.8064010019
 30
0.0
 10
7.4408478148
 20
9.7836901131
 30
0.0
 10
7.4364485519
 20
9.7603872007
 30
0.0
 10
7.4323045833
 20
9.7365483348
 30
0.0
 10
7.428425921
 20
9.7122308939
 30
0.0
 10
7.4248219282
 20
9.6874934149
 30
0.0
 10
7.4215013195
 20
9.6623954627
 30
0.0
 10
7.4184720813
 20
9.6369974163
 30
0.0
 10
7.4148226417
 20
9.6027315093
 30
0.0
 10
7.4110417242
 20
9.5596005601
 30
0.0
 10
7.4077726787
 20
9.5077608119
 30
0.0
 10
7.4057922114
 20
9.4562103305
 30
0.0
 10
7.4053383504
 20
9.4219901948
 30
0.0
 10
7.4053383504
 20
9.405017735
 30
0.0
  0
SPLINE
  5
325
100
AcDbEntity
  8
0
100
AcDbSpline
 62
7
  6
CONTINUOUS
 70
0
 71
3
 72
22
 73
18
 74
0
 42
0.0000001
 43
0.0000001
 44
0.0000000001
 40
0.0
 40
0.0
 40
0.0
 40
0.0
 40
0.0670398474
 40
0.1330087828
 40
0.1979055754
 40
0.2617855064
 40
0.3247549763
 40
0.3869556421
 40
0.4485489435
 40
0.5097025741
 40
0.5705802983
 40
0.6313353892
 40
0.6921072791
 40
0.7530200538
 40
0.814182558
 40
0.8756891774
 40
1.0
 40
1.0
 40
1.0
 40
1.0
 10
8.4645243036
 20
8.9276501849
 30
0.0
 10
8.4653621234
 20
8.9330961342
 30
0.0
 10
8.4665478711
 20
8.9439812409
 30
0.0
 10
8.4668299332
 20
8.9602665855
 30
0.0
 10
8.4656295799
 20
8.9762508484
 30
0.0
 10
8.4630029778
 20
8.9918124885
 30
0.0
 10
8.4590289719
 20
9.0068555386
 30
0.0
 10
8.4537998018
 20
9.0213083456
 30
0.0
 10
8.4474132635
 20
9.0351222935
 30
0.0
 10
8.4399663529
 20
9.0482679398
 30
0.0
 10
8.4315510119
 20
9.0607307101
 30
0.0
 10
8.422251702
 20
9.072506654
 30
0.0
 10
8.4121442817
 20
9.0835988594
 30
0.0
 10
8.4012962591
 20
9.0940142965
 30
0.0
 10
8.3897660135
 20
9.103762393
 30
0.0
 10
8.3735002508
 20
9.1159211392
 30
0.0
 10
8.3604953056
 20
9.1240048418
 30
0.0
 10
8.3515512741
 20
9.1289438784
 30
0.0
  0
SPLINE
  5
326
100
AcDbEntity
  8
0
100
AcDbSpline
 62
7
  6
CONTINUOUS
 70
0
 71
3
 72
58
 73
54
 74
0
 42
0.0000001
 43
0.0000001
 44
0.0000000001
 40
0.0
 40
0.0
 40
0.0
 40
0.0
 40
0.0346097246
 40
0.0696339344
 40
0.1049191594
 40
0.1403252507
 40
0.1757387586
 40
0.2110777035
 40
0.2462925062
 40
0.2638483051
 40
0.2813681312
 40
0.3163030209
 40
0.3511314693
 40
0.3859015383
 40
0.4032872535
 40
0.4206818624
 40
0.4380934777
 40
0.4555300202
 40
0.4729982942
 40
0.4905039065
 40
0.5080507207
 40
0.5256400776
 40
0.5432705103
 40
0.5609373518
 40
0.578632315
 40
0.5963433014
 40
0.6140544902
 40
0.6317464507
 40
0.6493963894
 40
0.6669785877
 40
0.7018183747
 40
0.7360282201
 40
0.7693452547
 40
0.801499765
 40
0.8322222559
 40
0.8469646297
 40
0.8612501962
 40
0.8750474248
 40
0.8883258231
 40
0.9010564063
 40
0.9132119808
 40
0.9247676089
 40
0.9357014051
 40
0.9459952193
 40
0.9556354535
 40
0.9646144579
 40
0.9729322026
 40
0.9805981547
 40
0.9841936392
 40
0.9876358498
 40
0.9909303607
 40
0.9940839074
 40
1.0
 40
1.0
 40
1.0
 40
1.0
 10
8.6833344128
 20
8.8558351533
 30
0.0
 10
8.6755789655
 20
8.856401255
 30
0.0
 10
8.6599979962
 20
8.8578792378
 30
0.0
 10
8.6366389323
 20
8.8610985719
 30
0.0
 10
8.6132627138
 20
8.8653502521
 30
0.0
 10
8.5900139143
 20
8.8706619286
 30
0.0
 10
8.5670303529
 20
8.8770742678
 30
0.0
 10
8.5444440436
 20
8.8846390489
 30
0.0
 10
8.526038948
 20
8.8919624884
 30
0.0
 10
8.5116435611
 20
8.8984631583
 30
0.0
 10
8.4975177001
 20
8.9053883357
 30
0.0
 10
8.4803435836
 20
8.9148905003
 30
0.0
 10
8.4606470271
 20
8.9277219047
 30
0.0
 10
8.4451358396
 20
8.9396501647
 30
0.0
 10
8.4333705217
 20
8.9499405402
 30
0.0
 10
8.4248845428
 20
8.9580393056
 30
0.0
 10
8.4167614238
 20
8.9665178605
 30
0.0
 10
8.4090253533
 20
8.9753733214
 30
0.0
 10
8.401700609
 20
8.9845991112
 30
0.0
 10
8.3948110219
 20
8.9941849718
 30
0.0
 10
8.3883796271
 20
9.0041166399
 30
0.0
 10
8.3824275875
 20
9.0143752995
 30
0.0
 10
8.3769736645
 20
9.0249376095
 30
0.0
 10
8.3720335859
 20
9.0357758339
 30
0.0
 10
8.3676193001
 20
9.0468580208
 30
0.0
 10
8.3637381457
 20
9.0581483576
 30
0.0
 10
8.3603926549
 20
9.0696079573
 30
0.0
 10
8.3575802828
 20
9.0811955134
 30
0.0
 10
8.3552933711
 20
9.092868505
 30
0.0
 10
8.3529351513
 20
9.1084386424
 30
0.0
 10
8.3512189839
 20
9.1278501443
 30
0.0
 10
8.35094497
 20
9.150867779
 30
0.0
 10
8.3522322662
 20
9.1732436597
 30
0.0
 10
8.3548308296
 20
9.1947124497
 30
0.0
 10
8.3579192698
 20
9.2118860494
 30
0.0
 10
8.3608305351
 20
9.2249925327
 30
0.0
 10
8.3631616583
 20
9.2343289644
 30
0.0
 10
8.3656438908
 20
9.2432853499
 30
0.0
 10
8.3682526059
 20
9.2518410878
 30
0.0
 10
8.3709653918
 20
9.2599764695
 30
0.0
 10
8.3737621254
 20
9.2676727954
 30
0.0
 10
8.376625019
 20
9.2749123744
 30
0.0
 10
8.3795390432
 20
9.2816784609
 30
0.0
 10
8.3824919281
 20
9.2879553394
 30
0.0
 10
8.3854741139
 20
9.2937284147
 30
0.0
 10
8.3884791287
 20
9.2989843628
 30
0.0
 10
8.3915035431
 20
9.3037106734
 30
0.0
 10
8.3940924842
 20
9.3072716227
 30
0.0
 10
8.396180105
 20
9.309832984
 30
0.0
 10
8.3977179576
 20
9.3115728297
 30
0.0
 10
8.3992624219
 20
9.3131718161
 30
0.0
 10
8.4012880634
 20
9.315073562
 30
0.0
 10
8.4028842855
 20
9.316350395
 30
0.0
 10
8.4039760759
 20
9.3171085675
 30
0.0
  0
SPLINE
  5
327
100
AcDbEntity
  8
0
100
AcDbSpline
 62
7
  6
CONTINUOUS
 70
0
 71
3
 72
41
 73
37
 74
0
 42
0.0000001
 43
0.0000001
 44
0.0000000001
 40
0.0
 40
0.0
 40
0.0
 40
0.0
 40
0.0760183493
 40
0.1532628593
 40
0.2310384634
 40
0.3086428587
 40
0.3471625292
 40
0.3853774686
 40
0.4232018034
 40
0.4605508018
 40
0.4973411197
 40
0.5334910544
 40
0.5689208217
 40
0.6035528492
 40
0.6373120334
 40
0.6701260239
 40
0.7019255325
 40
0.7326447072
 40
0.7622214894
 40
0.790597998
 40
0.8177209969
 40
0.843542472
 40
0.8680203469
 40
0.8911192867
 40
0.9021432057
 40
0.9128128039
 40
0.9231260572
 40
0.933081766
 40
0.9426793485
 40
0.951919143
 40
0.9608023966
 40
0.9693314086
 40
0.9775100044
 40
0.9853432583
 40
0.992837388
 40
1.0
 40
1.0
 40
1.0
 40
1.0
 10
13.8660580485
 20
7.5321482845
 30
0.0
 10
13.8660580485
 20
7.5151758247
 30
0.0
 10
13.8656041875
 20
7.480955689
 30
0.0
 10
13.8636237202
 20
7.4294052076
 30
0.0
 10
13.8603546747
 20
7.3775654594
 30
0.0
 10
13.8565737572
 20
7.3344345102
 30
0.0
 10
13.8529243176
 20
7.3001686032
 30
0.0
 10
13.8498950794
 20
7.2747705568
 30
0.0
 10
13.8465744707
 20
7.2496726046
 30
0.0
 10
13.8429704779
 20
7.2249351256
 30
0.0
 10
13.8390918156
 20
7.2006176847
 30
0.0
 10
13.834947847
 20
7.1767788188
 30
0.0
 10
13.8305485841
 20
7.1534759064
 30
0.0
 10
13.8259046729
 20
7.1307650176
 30
0.0
 10
13.8210273468
 20
7.1087007849
 30
0.0
 10
13.8159284056
 20
7.087336275
 30
0.0
 10
13.8106201805
 20
7.0667228533
 30
0.0
 10
13.8051155273
 20
7.0469100422
 30
0.0
 10
13.7994277829
 20
7.0279453985
 30
0.0
 10
13.7935707228
 20
7.0098743941
 30
0.0
 10
13.7875585273
 20
6.9927403259
 30
0.0
 10
13.7814057364
 20
6.9765840812
 30
0.0
 10
13.7751272381
 20
6.9614443571
 30
0.0
 10
13.769722164
 20
6.9495261064
 30
0.0
 10
13.7653370883
 20
6.9405374287
 30
0.0
 10
13.7620775844
 20
6.9341774434
 30
0.0
 10
13.7587979936
 20
6.9280974294
 30
0.0
 10
13.7555003173
 20
6.9223009741
 30
0.0
 10
13.7521864611
 20
6.9167915618
 30
0.0
 10
13.7488584387
 20
6.9115724647
 30
0.0
 10
13.7455182638
 20
6.9066467719
 30
0.0
 10
13.7421678124
 20
6.9020174119
 30
0.0
 10
13.7388090659
 20
6.897687027
 30
0.0
 10
13.7354438523
 20
6.8936581815
 30
0.0
 10
13.7320743804
 20
6.8899334809
 30
0.0
 10
13.7297754676
 20
6.887602768
 30
0.0
 10
13.728625249
 20
6.886491742
 30
0.0
  0
SPLINE
  5
328
100
AcDbEntity
  8
0
100
AcDbSpline
 62
7
  6
CONTINUOUS
 70
0
 71
3
 72
41
 73
37
 74
0
 42
0.0000001
 43
0.0000001
 44
0.0000000001
 40
0.0
 40
0.0
 40
0.0
 40
0.0
 40
0.029942123
 40
0.0449237706
 40
0.0599145177
 40
0.0899291716
 40
0.1200145961
 40
0.1350933574
 40
0.1501974726
 40
0.1804849654
 40
0.2108989488
 40
0.2414525624
 40
0.2721557217
 40
0.3030149378
 40
0.3340332219
 40
0.3652100719
 40
0.3965415365
 40
0.4280203507
 40
0.4596361361
 40
0.4913756582
 40
0.5232231336
 40
0.5551605782
 40
0.5871681905
 40
0.6192247616
 40
0.6513081064
 40
0.6833955071
 40
0.7154641657
 40
0.7474916563
 40
0.7794563734
 40
0.811337967
 40
0.843117763
 40
0.8747791516
 40
0.9063079641
 40
0.9376927517
 40
0.9689251728
 40
1.0
 40
1.0
 40
1.0
 40
1.0
 10
7.759488096
 20
9.7808845549
 30
0.0
 10
7.7629885134
 20
9.7842657217
 30
0.0
 10
7.7684454247
 20
9.7891326476
 30
0.0
 10
7.7760877449
 20
9.7951714295
 30
0.0
 10
7.7839734535
 20
9.8009096994
 30
0.0
 10
7.7942630021
 20
9.807499126
 30
0.0
 10
7.8050528636
 20
9.8132629614
 30
0.0
 10
7.8139516939
 20
9.817363406
 30
0.0
 10
7.8230343755
 20
9.8211253109
 30
0.0
 10
7.834687034
 20
9.8251704788
 30
0.0
 10
7.8490471917
 20
9.8289404883
 30
0.0
 10
7.8637207008
 20
9.8316112924
 30
0.0
 10
7.8786262449
 20
9.8331681498
 30
0.0
 10
7.8936819432
 20
9.8336027536
 30
0.0
 10
7.9088049543
 20
9.8329128913
 30
0.0
 10
7.923912158
 20
9.8311025479
 30
0.0
 10
7.9389205459
 20
9.8281818484
 30
0.0
 10
7.9537476893
 20
9.8241670025
 30
0.0
 10
7.968312181
 20
9.8190802081
 30
0.0
 10
7.9825340775
 20
9.8129495265
 30
0.0
 10
7.9963353309
 20
9.8058087262
 30
0.0
 10
8.0096402114
 20
9.7976970965
 30
0.0
 10
8.0223757176
 20
9.788659232
 30
0.0
 10
8.0344719717
 20
9.7787447893
 30
0.0
 10
8.0458625982
 20
9.7680082158
 30
0.0
 10
8.0564850846
 20
9.7565084537
 30
0.0
 10
8.0662811203
 20
9.7443086195
 30
0.0
 10
8.0751969139
 20
9.731475661
 30
0.0
 10
8.0831834855
 20
9.7180799945
 30
0.0
 10
8.0901969343
 20
9.7041951205
 30
0.0
 10
8.0961986766
 20
9.6898972345
 30
0.0
 10
8.1011556619
 20
9.6752647792
 30
0.0
 10
8.1050405441
 20
9.660378152
 30
0.0
 10
8.1078318546
 20
9.6453187803
 30
0.0
 10
8.1095140905
 20
9.6301704796
 30
0.0
 10
8.109890884
 20
9.620039272
 30
0.0
 10
8.109890884
 20
9.6149884187
 30
0.0
  0
SPLINE
  5
329
100
AcDbEntity
  8
0
100
AcDbSpline
 62
7
  6
CONTINUOUS
 70
0
 71
3
 72
41
 73
37
 74
0
 42
0.0000001
 43
0.0000001
 44
0.0000000001
 40
0.0
 40
0.0
 40
0.0
 40
0.0
 40
0.029942123
 40
0.0449237706
 40
0.0599145177
 40
0.0899291716
 40
0.1200145961
 40
0.1350933574
 40
0.1501974726
 40
0.1804849654
 40
0.2108989488
 40
0.2414525624
 40
0.2721557217
 40
0.3030149378
 40
0.3340332219
 40
0.3652100719
 40
0.3965415365
 40
0.4280203507
 40
0.4596361361
 40
0.4913756582
 40
0.5232231336
 40
0.5551605782
 40
0.5871681905
 40
0.6192247616
 40
0.6513081064
 40
0.6833955071
 40
0.7154641657
 40
0.7474916563
 40
0.7794563734
 40
0.811337967
 40
0.843117763
 40
0.8747791516
 40
0.9063079641
 40
0.9376927517
 40
0.9689251728
 40
1.0
 40
1.0
 40
1.0
 40
1.0
 10
7.759488096
 20
7.1226564332
 30
0.0
 10
7.7629885134
 20
7.1260376
 30
0.0
 10
7.7684454247
 20
7.1309045259
 30
0.0
 10
7.7760877449
 20
7.1369433077
 30
0.0
 10
7.7839734535
 20
7.1426815776
 30
0.0
 10
7.7942630021
 20
7.1492710042
 30
0.0
 10
7.8050528636
 20
7.1550348396
 30
0.0
 10
7.8139516939
 20
7.1591352842
 30
0.0
 10
7.8230343755
 20
7.1628971892
 30
0.0
 10
7.834687034
 20
7.1669423571
 30
0.0
 10
7.8490471917
 20
7.1707123665
 30
0.0
 10
7.8637207008
 20
7.1733831707
 30
0.0
 10
7.8786262449
 20
7.1749400281
 30
0.0
 10
7.8936819432
 20
7.1753746319
 30
0.0
 10
7.9088049543
 20
7.1746847695
 30
0.0
 10
7.923912158
 20
7.1728744262
 30
0.0
 10
7.9389205459
 20
7.1699537267
 30
0.0
 10
7.9537476893
 20
7.1659388808
 30
0.0
 10
7.968312181
 20
7.1608520863
 30
0.0
 10
7.9825340775
 20
7.1547214048
 30
0.0
 10
7.9963353309
 20
7.1475806045
 30
0.0
 10
8.0096402114
 20
7.1394689748
 30
0.0
 10
8.0223757176
 20
7.1304311103
 30
0.0
 10
8.0344719717
 20
7.1205166676
 30
0.0
 10
8.0458625982
 20
7.109780094
 30
0.0
 10
8.0564850846
 20
7.0982803319
 30
0.0
 10
8.0662811203
 20
7.0860804978
 30
0.0
 10
8.0751969139
 20
7.0732475393
 30
0.0
 10
8.0831834855
 20
7.0598518728
 30
0.0
 10
8.0901969343
 20
7.0459669987
 30
0.0
 10
8.0961986766
 20
7.0316691127
 30
0.0
 10
8.1011556619
 20
7.0170366575
 30
0.0
 10
8.1050405441
 20
7.0021500303
 30
0.0
 10
8.1078318546
 20
6.9870906586
 30
0.0
 10
8.1095140905
 20
6.9719423579
 30
0.0
 10
8.109890884
 20
6.9618111503
 30
0.0
 10
8.109890884
 20
6.9567602969
 30
0.0
  0
SPLINE
  5
32A
100
AcDbEntity
  8
0
100
AcDbSpline
 62
7
  6
CONTINUOUS
 70
0
 71
3
 72
41
 73
37
 74
0
 42
0.0000001
 43
0.0000001
 44
0.0000000001
 40
0.0
 40
0.0
 40
0.0
 40
0.0
 40
0.029942123
 40
0.0449237706
 40
0.0599145177
 40
0.0899291716
 40
0.1200145961
 40
0.1350933574
 40
0.1501974726
 40
0.1804849654
 40
0.2108989488
 40
0.2414525624
 40
0.2721557217
 40
0.3030149378
 40
0.3340332219
 40
0.3652100719
 40
0.3965415365
 40
0.4280203507
 40
0.4596361361
 40
0.4913756582
 40
0.5232231336
 40
0.5551605782
 40
0.5871681905
 40
0.6192247616
 40
0.6513081064
 40
0.6833955071
 40
0.7154641657
 40
0.7474916563
 40
0.7794563734
 40
0.811337967
 40
0.843117763
 40
0.8747791516
 40
0.9063079641
 40
0.9376927517
 40
0.9689251728
 40
1.0
 40
1.0
 40
1.0
 40
1.0
 10
11.6231917452
 20
6.8547076751
 30
0.0
 10
11.6266921626
 20
6.8580888418
 30
0.0
 10
11.6321490739
 20
6.8629557677
 30
0.0
 10
11.6397913941
 20
6.8689945496
 30
0.0
 10
11.6476771028
 20
6.8747328195
 30
0.0
 10
11.6579666514
 20
6.8813222461
 30
0.0
 10
11.6687565129
 20
6.8870860815
 30
0.0
 10
11.6776553431
 20
6.8911865261
 30
0.0
 10
11.6867380248
 20
6.894948431
 30
0.0
 10
11.6983906832
 20
6.898993599
 30
0.0
 10
11.7127508409
 20
6.9027636084
 30
0.0
 10
11.72742435
 20
6.9054344125
 30
0.0
 10
11.7423298941
 20
6.9069912699
 30
0.0
 10
11.7573855924
 20
6.9074258737
 30
0.0
 10
11.7725086035
 20
6.9067360114
 30
0.0
 10
11.7876158072
 20
6.904925668
 30
0.0
 10
11.8026241951
 20
6.9020049686
 30
0.0
 10
11.8174513385
 20
6.8979901226
 30
0.0
 10
11.8320158303
 20
6.8929033282
 30
0.0
 10
11.8462377268
 20
6.8867726466
 30
0.0
 10
11.8600389801
 20
6.8796318463
 30
0.0
 10
11.8733438607
 20
6.8715202166
 30
0.0
 10
11.8860793669
 20
6.8624823522
 30
0.0
 10
11.8981756209
 20
6.8525679094
 30
0.0
 10
11.9095662475
 20
6.8418313359
 30
0.0
 10
11.9201887339
 20
6.8303315738
 30
0.0
 10
11.9299847696
 20
6.8181317396
 30
0.0
 10
11.9389005631
 20
6.8052987811
 30
0.0
 10
11.9468871347
 20
6.7919031146
 30
0.0
 10
11.9539005835
 20
6.7780182406
 30
0.0
 10
11.9599023259
 20
6.7637203546
 30
0.0
 10
11.9648593111
 20
6.7490878993
 30
0.0
 10
11.9687441933
 20
6.7342012721
 30
0.0
 10
11.9715355038
 20
6.7191419005
 30
0.0
 10
11.9732177397
 20
6.7039935997
 30
0.0
 10
11.9735945332
 20
6.6938623921
 30
0.0
 10
11.9735945332
 20
6.6888115388
 30
0.0
  0
SPLINE
  5
32B
100
AcDbEntity
  8
0
100
AcDbSpline
 62
7
  6
CONTINUOUS
 70
0
 71
3
 72
41
 73
37
 74
0
 42
0.0000001
 43
0.0000001
 44
0.0000000001
 40
0.0
 40
0.0
 40
0.0
 40
0.0
 40
0.029942123
 40
0.0449237706
 40
0.0599145177
 40
0.0899291716
 40
0.1200145961
 40
0.1350933574
 40
0.1501974726
 40
0.1804849654
 40
0.2108989488
 40
0.2414525624
 40
0.2721557217
 40
0.3030149378
 40
0.3340332219
 40
0.3652100719
 40
0.3965415365
 40
0.4280203507
 40
0.4596361361
 40
0.4913756582
 40
0.5232231336
 40
0.5551605782
 40
0.5871681905
 40
0.6192247616
 40
0.6513081064
 40
0.6833955071
 40
0.7154641657
 40
0.7474916563
 40
0.7794563734
 40
0.811337967
 40
0.843117763
 40
0.8747791516
 40
0.9063079641
 40
0.9376927517
 40
0.9689251728
 40
1.0
 40
1.0
 40
1.0
 40
1.0
 10
11.6231917452
 20
9.5129357968
 30
0.0
 10
11.6266921626
 20
9.5163169636
 30
0.0
 10
11.6321490739
 20
9.5211838894
 30
0.0
 10
11.6397913941
 20
9.5272226713
 30
0.0
 10
11.6476771028
 20
9.5329609412
 30
0.0
 10
11.6579666514
 20
9.5395503678
 30
0.0
 10
11.6687565129
 20
9.5453142032
 30
0.0
 10
11.6776553431
 20
9.5494146478
 30
0.0
 10
11.6867380248
 20
9.5531765528
 30
0.0
 10
11.6983906832
 20
9.5572217207
 30
0.0
 10
11.7127508409
 20
9.5609917301
 30
0.0
 10
11.72742435
 20
9.5636625343
 30
0.0
 10
11.7423298941
 20
9.5652193917
 30
0.0
 10
11.7573855924
 20
9.5656539955
 30
0.0
 10
11.7725086035
 20
9.5649641331
 30
0.0
 10
11.7876158072
 20
9.5631537897
 30
0.0
 10
11.8026241951
 20
9.5602330903
 30
0.0
 10
11.8174513385
 20
9.5562182444
 30
0.0
 10
11.8320158303
 20
9.5511314499
 30
0.0
 10
11.8462377268
 20
9.5450007683
 30
0.0
 10
11.8600389801
 20
9.5378599681
 30
0.0
 10
11.8733438607
 20
9.5297483383
 30
0.0
 10
11.8860793669
 20
9.5207104739
 30
0.0
 10
11.8981756209
 20
9.5107960311
 30
0.0
 10
11.9095662475
 20
9.5000594576
 30
0.0
 10
11.9201887339
 20
9.4885596955
 30
0.0
 10
11.9299847696
 20
9.4763598614
 30
0.0
 10
11.9389005631
 20
9.4635269029
 30
0.0
 10
11.9468871347
 20
9.4501312364
 30
0.0
 10
11.9539005835
 20
9.4362463623
 30
0.0
 10
11.9599023259
 20
9.4219484763
 30
0.0
 10
11.9648593111
 20
9.4073160211
 30
0.0
 10
11.9687441933
 20
9.3924293938
 30
0.0
 10
11.9715355038
 20
9.3773700222
 30
0.0
 10
11.9732177397
 20
9.3622217214
 30
0.0
 10
11.9735945332
 20
9.3520905138
 30
0.0
 10
11.9735945332
 20
9.3470396605
 30
0.0
  0
SPLINE
  5
32C
100
AcDbEntity
  8
0
100
AcDbSpline
 62
7
  6
CONTINUOUS
 70
0
 71
3
 72
41
 73
37
 74
0
 42
0.0000001
 43
0.0000001
 44
0.0000000001
 40
0.0
 40
0.0
 40
0.0
 40
0.0
 40
0.0299421244
 40
0.0449237733
 40
0.05991452
 40
0.0899291767
 40
0.1200146037
 40
0.1350933625
 40
0.1501974807
 40
0.1804849728
 40
0.2108989538
 40
0.2414525638
 40
0.2721557191
 40
0.3030149318
 40
0.3340332139
 40
0.3652100638
 40
0.39654153
 40
0.4280203461
 40
0.4596361322
 40
0.4913756535
 40
0.5232231268
 40
0.5551605686
 40
0.5871681787
 40
0.6192247492
 40
0.6513080952
 40
0.683395499
 40
0.715464161
 40
0.7474916539
 40
0.7794563719
 40
0.811337962
 40
0.8431177653
 40
0.8747791215
 40
0.9063080259
 40
0.9376925771
 40
0.9689254639
 40
1.0
 40
1.0
 40
1.0
 40
1.0
 10
9.1057062631
 20
9.7010667694
 30
0.0
 10
9.1080371093
 20
9.7033182137
 30
0.0
 10
9.1116707237
 20
9.7065590108
 30
0.0
 10
9.1167595807
 20
9.7105800857
 30
0.0
 10
9.1220104685
 20
9.7144011052
 30
0.0
 10
9.1288620465
 20
9.7187888539
 30
0.0
 10
9.1360467591
 20
9.7226268809
 30
0.0
 10
9.1419722919
 20
9.7253572648
 30
0.0
 10
9.1480202337
 20
9.7278622532
 30
0.0
 10
9.1557794742
 20
9.7305558386
 30
0.0
 10
9.1653415716
 20
9.7330662149
 30
0.0
 10
9.175112324
 20
9.7348446547
 30
0.0
 10
9.1850375835
 20
9.735881346
 30
0.0
 10
9.1950628287
 20
9.7361707557
 30
0.0
 10
9.2051328977
 20
9.7357114094
 30
0.0
 10
9.2151924425
 20
9.7345059585
 30
0.0
 10
9.2251861889
 20
9.7325611418
 30
0.0
 10
9.2350592481
 20
9.7298877527
 30
0.0
 10
9.2447574131
 20
9.7265005758
 30
0.0
 10
9.2542274515
 20
9.7224182985
 30
0.0
 10
9.263417394
 20
9.7176634076
 30
0.0
 10
9.2722768144
 20
9.7122620653
 30
0.0
 10
9.2807571033
 20
9.7062439657
 30
0.0
 10
9.2888117305
 20
9.699642173
 30
0.0
 10
9.2963964974
 20
9.692492941
 30
0.0
 10
9.3034697766
 20
9.6848355169
 30
0.0
 10
9.3099927373
 20
9.6767119265
 30
0.0
 10
9.3159295616
 20
9.668166751
 30
0.0
 10
9.321247636
 20
9.6592468807
 30
0.0
 10
9.3259177334
 20
9.6500012593
 30
0.0
 10
9.3299141518
 20
9.6404806241
 30
0.0
 10
9.3332149123
 20
9.630737203
 30
0.0
 10
9.3358017449
 20
9.6208245515
 30
0.0
 10
9.3376604632
 20
9.6107968322
 30
0.0
 10
9.3387805918
 20
9.600709926
 30
0.0
 10
9.3390315081
 20
9.593963768
 30
0.0
 10
9.3390315081
 20
9.5906005513
 30
0.0
  0
SPLINE
  5
32D
100
AcDbEntity
  8
0
100
AcDbSpline
 62
7
  6
CONTINUOUS
 70
0
 71
3
 72
41
 73
37
 74
0
 42
0.0000001
 43
0.0000001
 44
0.0000000001
 40
0.0
 40
0.0
 40
0.0
 40
0.0
 40
0.0299421244
 40
0.0449237733
 40
0.05991452
 40
0.0899291767
 40
0.1200146037
 40
0.1350933625
 40
0.1501974807
 40
0.1804849728
 40
0.2108989538
 40
0.2414525638
 40
0.2721557191
 40
0.3030149318
 40
0.3340332139
 40
0.3652100638
 40
0.39654153
 40
0.4280203461
 40
0.4596361322
 40
0.4913756535
 40
0.5232231268
 40
0.5551605686
 40
0.5871681787
 40
0.6192247492
 40
0.6513080952
 40
0.683395499
 40
0.715464161
 40
0.7474916539
 40
0.7794563719
 40
0.811337962
 40
0.8431177653
 40
0.8747791215
 40
0.9063080259
 40
0.9376925771
 40
0.9689254639
 40
1.0
 40
1.0
 40
1.0
 40
1.0
 10
9.7103759113
 20
6.879198045
 30
0.0
 10
9.7127067575
 20
6.8814494893
 30
0.0
 10
9.716340372
 20
6.8846902865
 30
0.0
 10
9.721429229
 20
6.8887113614
 30
0.0
 10
9.7266801167
 20
6.8925323808
 30
0.0
 10
9.7335316947
 20
6.8969201295
 30
0.0
 10
9.7407164073
 20
6.9007581566
 30
0.0
 10
9.7466419401
 20
6.9034885405
 30
0.0
 10
9.752689882
 20
6.9059935288
 30
0.0
 10
9.7604491224
 20
6.9086871142
 30
0.0
 10
9.7700112199
 20
6.9111974906
 30
0.0
 10
9.7797819722
 20
6.9129759303
 30
0.0
 10
9.7897072318
 20
6.9140126216
 30
0.0
 10
9.7997324769
 20
6.9143020313
 30
0.0
 10
9.8098025459
 20
6.913842685
 30
0.0
 10
9.8198620907
 20
6.9126372342
 30
0.0
 10
9.8298558371
 20
6.9106924175
 30
0.0
 10
9.8397288963
 20
6.9080190283
 30
0.0
 10
9.8494270613
 20
6.9046318514
 30
0.0
 10
9.8588970998
 20
6.9005495741
 30
0.0
 10
9.8680870422
 20
6.8957946833
 30
0.0
 10
9.8769464626
 20
6.8903933409
 30
0.0
 10
9.8854267515
 20
6.8843752413
 30
0.0
 10
9.8934813787
 20
6.8777734486
 30
0.0
 10
9.9010661456
 20
6.8706242167
 30
0.0
 10
9.9081394249
 20
6.8629667925
 30
0.0
 10
9.9146623855
 20
6.8548432022
 30
0.0
 10
9.9205992099
 20
6.8462980266
 30
0.0
 10
9.9259172842
 20
6.8373781564
 30
0.0
 10
9.9305873816
 20
6.8281325349
 30
0.0
 10
9.9345838
 20
6.8186118998
 30
0.0
 10
9.9378845606
 20
6.8088684786
 30
0.0
 10
9.9404713931
 20
6.7989558272
 30
0.0
 10
9.9423301114
 20
6.7889281079
 30
0.0
 10
9.94345024
 20
6.7788412016
 30
0.0
 10
9.9437011563
 20
6.7720950437
 30
0.0
 10
9.9437011563
 20
6.7687318269
 30
0.0
  0
SPLINE
  5
32E
100
AcDbEntity
  8
0
100
AcDbSpline
 62
7
  6
CONTINUOUS
 70
0
 71
3
 72
39
 73
35
 74
0
 42
0.0000001
 43
0.0000001
 44
0.0000000001
 40
0.0
 40
0.0
 40
0.0
 40
0.0
 40
0.0299424796
 40
0.0599093277
 40
0.0899243268
 40
0.1200100989
 40
0.1501875564
 40
0.1804754082
 40
0.2108897438
 40
0.2414437065
 40
0.2721472214
 40
0.3030068034
 40
0.334025452
 40
0.3652026597
 40
0.3965344836
 40
0.4280136674
 40
0.4596298279
 40
0.4913697183
 40
0.5232175588
 40
0.5551553757
 40
0.587163368
 40
0.6192203146
 40
0.6513040285
 40
0.6833918015
 40
0.7154608406
 40
0.7474887097
 40
0.7794537919
 40
0.8113357643
 40
0.8431159187
 40
0.8747776681
 40
0.9063070433
 40
0.9376914486
 40
0.9689258945
 40
1.0
 40
1.0
 40
1.0
 40
1.0
 10
10.7651222565
 20
9.4831908217
 30
0.0
 10
10.7664162497
 20
9.4844407337
 30
0.0
 10
10.7691059696
 20
9.4868397032
 30
0.0
 10
10.7734153475
 20
9.4901078539
 30
0.0
 10
10.7779774617
 20
9.4930293851
 30
0.0
 10
10.7827668296
 20
9.4955879036
 30
0.0
 10
10.7877571271
 20
9.4977694195
 30
0.0
 10
10.7929208183
 20
9.4995619204
 30
0.0
 10
10.7982294358
 20
9.5009556263
 30
0.0
 10
10.8036537332
 20
9.5019429353
 30
0.0
 10
10.8091638489
 20
9.502518481
 30
0.0
 10
10.8147294638
 20
9.5026791412
 30
0.0
 10
10.820319964
 20
9.5024241131
 30
0.0
 10
10.8259046197
 20
9.50175489
 30
0.0
 10
10.8314527494
 20
9.5006752155
 30
0.0
 10
10.8369338806
 20
9.4991910675
 30
0.0
 10
10.8423179113
 20
9.4973106316
 30
0.0
 10
10.8475752955
 20
9.4950443085
 30
0.0
 10
10.8526771863
 20
9.4924045878
 30
0.0
 10
10.8575955901
 20
9.4894059895
 30
0.0
 10
10.8623035061
 20
9.4860649766
 30
0.0
 10
10.8667751029
 20
9.4823999118
 30
0.0
 10
10.8709858579
 20
9.4784309403
 30
0.0
 10
10.8749126651
 20
9.4741798501
 30
0.0
 10
10.8785339611
 20
9.469669964
 30
0.0
 10
10.8818298401
 20
9.4649260178
 30
0.0
 10
10.8847822184
 20
9.4599740596
 30
0.0
 10
10.8873748717
 20
9.4548412624
 30
0.0
 10
10.8895935405
 20
9.4495557925
 30
0.0
 10
10.8914259938
 20
9.4441466272
 30
0.0
 10
10.8928620613
 20
9.438643534
 30
0.0
 10
10.8938939907
 20
9.4330765045
 30
0.0
 10
10.8945157939
 20
9.4274766582
 30
0.0
 10
10.8946551223
 20
9.4237314387
 30
0.0
 10
10.8946551223
 20
9.4218643628
 30
0.0
  0
SPLINE
  5
32F
100
AcDbEntity
  8
0
100
AcDbSpline
 62
7
  6
CONTINUOUS
 70
0
 71
3
 72
39
 73
35
 74
0
 42
0.0000001
 43
0.0000001
 44
0.0000000001
 40
0.0
 40
0.0
 40
0.0
 40
0.0
 40
0.0299424796
 40
0.0599093277
 40
0.0899243268
 40
0.1200100989
 40
0.1501875564
 40
0.1804754082
 40
0.2108897438
 40
0.2414437065
 40
0.2721472214
 40
0.3030068034
 40
0.334025452
 40
0.3652026597
 40
0.3965344836
 40
0.4280136674
 40
0.4596298279
 40
0.4913697183
 40
0.5232175588
 40
0.5551553757
 40
0.587163368
 40
0.6192203146
 40
0.6513040285
 40
0.6833918015
 40
0.7154608406
 40
0.7474887097
 40
0.7794537919
 40
0.8113357643
 40
0.8431159187
 40
0.8747776681
 40
0.9063070433
 40
0.9376914486
 40
0.9689258945
 40
1.0
 40
1.0
 40
1.0
 40
1.0
 10
8.5483223953
 20
6.9786982925
 30
0.0
 10
8.5496163884
 20
6.9799482045
 30
0.0
 10
8.5523061084
 20
6.982347174
 30
0.0
 10
8.5566154863
 20
6.9856153247
 30
0.0
 10
8.5611776005
 20
6.9885368559
 30
0.0
 10
8.5659669684
 20
6.9910953744
 30
0.0
 10
8.5709572658
 20
6.9932768903
 30
0.0
 10
8.576120957
 20
6.9950693912
 30
0.0
 10
8.5814295746
 20
6.9964630971
 30
0.0
 10
8.5868538719
 20
6.9974504061
 30
0.0
 10
8.5923639876
 20
6.9980259519
 30
0.0
 10
8.5979296026
 20
6.998186612
 30
0.0
 10
8.6035201028
 20
6.9979315839
 30
0.0
 10
8.6091047585
 20
6.9972623608
 30
0.0
 10
8.6146528881
 20
6.9961826863
 30
0.0
 10
8.6201340194
 20
6.9946985383
 30
0.0
 10
8.62551805
 20
6.9928181024
 30
0.0
 10
8.6307754343
 20
6.9905517793
 30
0.0
 10
8.6358773251
 20
6.9879120586
 30
0.0
 10
8.6407957288
 20
6.9849134603
 30
0.0
 10
8.6455036449
 20
6.9815724474
 30
0.0
 10
8.6499752417
 20
6.9779073826
 30
0.0
 10
8.6541859967
 20
6.9739384111
 30
0.0
 10
8.6581128038
 20
6.9696873209
 30
0.0
 10
8.6617340999
 20
6.9651774348
 30
0.0
 10
8.6650299788
 20
6.9604334886
 30
0.0
 10
8.6679823571
 20
6.9554815304
 30
0.0
 10
8.6705750104
 20
6.9503487332
 30
0.0
 10
8.6727936793
 20
6.9450632633
 30
0.0
 10
8.6746261326
 20
6.939654098
 30
0.0
 10
8.6760622
 20
6.9341510048
 30
0.0
 10
8.6770941294
 20
6.9285839753
 30
0.0
 10
8.6777159326
 20
6.922984129
 30
0.0
 10
8.6778552611
 20
6.9192389095
 30
0.0
 10
8.6778552611
 20
6.9173718336
 30
0.0
  0
SPLINE
  5
330
100
AcDbEntity
  8
0
100
AcDbSpline
 62
7
  6
CONTINUOUS
 70
0
 71
3
 72
37
 73
33
 74
0
 42
0.0000001
 43
0.0000001
 44
0.0000000001
 40
0.0
 40
0.0
 40
0.0
 40
0.0
 40
0.0304576545
 40
0.0609030407
 40
0.0913432021
 40
0.1217854556
 40
0.1826922262
 40
0.2436990919
 40
0.274266891
 40
0.3048825384
 40
0.3355534149
 40
0.3662865784
 40
0.3970888576
 40
0.4279667853
 40
0.458926365
 40
0.4899731343
 40
0.5211121151
 40
0.5523475863
 40
0.5836830658
 40
0.6151213075
 40
0.6466641506
 40
0.6783123855
 40
0.7100658064
 40
0.7419231517
 40
0.7738820031
 40
0.8059387892
 40
0.8380888003
 40
0.8703263013
 40
0.9026445348
 40
0.9350350406
 40
0.9674909862
 40
1.0
 40
1.0
 40
1.0
 40
1.0
 10
8.9991980727
 20
7.5408015562
 30
0.0
 10
9.0024188438
 20
7.5447430471
 30
0.0
 10
9.0090303068
 20
7.5524863361
 30
0.0
 10
9.019439829
 20
7.56365801
 30
0.0
 10
9.0303245739
 20
7.574364409
 30
0.0
 10
9.0454491893
 20
7.5879924431
 30
0.0
 10
9.0654743813
 20
7.6037747091
 30
0.0
 10
9.0868395896
 20
7.6177295184
 30
0.0
 10
9.1046535887
 20
7.6277239488
 30
0.0
 10
9.1183714298
 20
7.6346254451
 30
0.0
 10
9.1324136244
 20
7.6409079297
 30
0.0
 10
9.1467573327
 20
7.6465538189
 30
0.0
 10
9.1613781619
 20
7.6515457261
 30
0.0
 10
9.1762505713
 20
7.6558668871
 30
0.0
 10
9.1913476361
 20
7.6595013471
 30
0.0
 10
9.2066410822
 20
7.6624340079
 30
0.0
 10
9.2221012493
 20
7.6646507192
 30
0.0
 10
9.2376970411
 20
7.6661385881
 30
0.0
 10
9.253395946
 20
7.6668861161
 30
0.0
 10
9.2691640805
 20
7.6668833018
 30
0.0
 10
9.2849662186
 20
7.6661218743
 30
0.0
 10
9.3007658801
 20
7.6645956127
 30
0.0
 10
9.3165254503
 20
7.6623004017
 30
0.0
 10
9.3322063187
 20
7.6592344147
 30
0.0
 10
9.3477690536
 20
7.6553983568
 30
0.0
 10
9.3631736248
 20
7.6507956606
 30
0.0
 10
9.3783796386
 20
7.6454325227
 30
0.0
 10
9.3933466131
 20
7.6393179747
 30
0.0
 10
9.4080340979
 20
7.6324640359
 30
0.0
 10
9.4224026532
 20
7.6248856754
 30
0.0
 10
9.4364124843
 20
7.6166010284
 30
0.0
 10
9.4454824898
 20
7.6106246868
 30
0.0
 10
9.4499453662
 20
7.6075264705
 30
0.0
  0
SPLINE
  5
331
100
AcDbEntity
  8
0
100
AcDbSpline
 62
7
  6
CONTINUOUS
 70
0
 71
3
 72
23
 73
19
 74
0
 42
0.0000001
 43
0.0000001
 44
0.0000000001
 40
0.0
 40
0.0
 40
0.0
 40
0.0
 40
0.0622036523
 40
0.1242637343
 40
0.186216502
 40
0.2481010384
 40
0.3099586092
 40
0.3718319113
 40
0.4337642224
 40
0.4957984686
 40
0.5579762334
 40
0.620336744
 40
0.6829158594
 40
0.7457451477
 40
0.8088509237
 40
0.8722538976
 40
0.9359675195
 40
1.0
 40
1.0
 40
1.0
 40
1.0
 10
9.5118236208
 20
9.1299117858
 30
0.0
 10
9.5152148637
 20
9.1365786739
 30
0.0
 10
9.5224579553
 20
9.1496648971
 30
0.0
 10
9.5346704941
 20
9.1684549582
 30
0.0
 10
9.5481726915
 20
9.1862945436
 30
0.0
 10
9.562911264
 20
9.2030947552
 30
0.0
 10
9.5788271164
 20
9.2187711193
 30
0.0
 10
9.5958541579
 20
9.2332421417
 30
0.0
 10
9.6139195079
 20
9.2464305503
 30
0.0
 10
9.63294344
 20
9.2582638967
 30
0.0
 10
9.6528395287
 20
9.2686753886
 30
0.0
 10
9.6735149003
 20
9.2776046897
 30
0.0
 10
9.6948706128
 20
9.2849987379
 30
0.0
 10
9.7168022292
 20
9.2908124907
 30
0.0
 10
9.7392003398
 20
9.2950097012
 30
0.0
 10
9.7619519428
 20
9.2975633514
 30
0.0
 10
9.78493907
 20
9.2984565411
 30
0.0
 10
9.8003072724
 20
9.2979413693
 30
0.0
 10
9.8079885697
 20
9.2974086696
 30
0.0
  0
SPLINE
  5
332
100
AcDbEntity
  8
0
100
AcDbSpline
 62
7
  6
CONTINUOUS
 70
0
 71
3
 72
39
 73
35
 74
0
 42
0.0000001
 43
0.0000001
 44
0.0000000001
 40
0.0
 40
0.0
 40
0.0
 40
0.0
 40
0.0323164392
 40
0.0644975246
 40
0.0965259869
 40
0.1283897904
 40
0.1600820124
 40
0.1916005145
 40
0.2229474821
 40
0.2541289845
 40
0.2851545406
 40
0.316036705
 40
0.3467906651
 40
0.3774338966
 40
0.4079858597
 40
0.438467723
 40
0.4689021005
 40
0.4993127855
 40
0.5297244703
 40
0.5601624361
 40
0.5906521902
 40
0.6212190319
 40
0.6518875069
 40
0.6826807726
 40
0.7136198884
 40
0.7447230042
 40
0.7760044246
 40
0.807473683
 40
0.8391347586
 40
0.8709853246
 40
0.9030162566
 40
0.9352116325
 40
0.967548725
 40
1.0
 40
1.0
 40
1.0
 40
1.0
 10
9.50575475
 20
7.5890279174
 30
0.0
 10
9.5101881841
 20
7.5802093847
 30
0.0
 10
9.5183026985
 20
7.5622293648
 30
0.0
 10
9.5281709923
 20
7.5344148199
 30
0.0
 10
9.535691447
 20
7.5060175221
 30
0.0
 10
9.5408575706
 20
7.4772522038
 30
0.0
 10
9.5436822382
 20
7.4483205956
 30
0.0
 10
9.5441926645
 20
7.4194144988
 30
0.0
 10
9.5424280684
 20
7.3907146483
 30
0.0
 10
9.5384371811
 20
7.3623914243
 30
0.0
 10
9.5322763381
 20
7.3346055599
 30
0.0
 10
9.5240079897
 20
7.3075091757
 30
0.0
 10
9.5136996078
 20
7.2812469242
 30
0.0
 10
9.5014230314
 20
7.2559571718
 30
0.0
 10
9.4872541763
 20
7.2317731316
 30
0.0
 10
9.4712730794
 20
7.2088239059
 30
0.0
 10
9.4535642482
 20
7.1872353892
 30
0.0
 10
9.4342172947
 20
7.1671309814
 30
0.0
 10
9.4133277988
 20
7.1486320876
 30
0.0
 10
9.3909984018
 20
7.1318583349
 30
0.0
 10
9.36734008
 20
7.1169274613
 30
0.0
 10
9.3424735591
 20
7.1039548331
 30
0.0
 10
9.3165308241
 20
7.0930524813
 30
0.0
 10
9.2896565944
 20
7.0843276358
 30
0.0
 10
9.262009641
 20
7.0778807337
 30
0.0
 10
9.233763833
 20
7.0738028651
 30
0.0
 10
9.205108739
 20
7.0721725677
 30
0.0
 10
9.1762494793
 20
7.0730521458
 30
0.0
 10
9.1474057031
 20
7.0764839052
 30
0.0
 10
9.118809439
 20
7.0824861828
 30
0.0
 10
9.0907020102
 20
7.0910492956
 30
0.0
 10
9.063328726
 20
7.1021337837
 30
0.0
 10
9.036937055
 20
7.1156654819
 30
0.0
 10
9.0201735498
 20
7.1262373951
 30
0.0
 10
9.0120317385
 20
7.1318896
 30
0.0
  0
SPLINE
  5
333
100
AcDbEntity
  8
0
100
AcDbSpline
 62
7
  6
CONTINUOUS
 70
0
 71
3
 72
18
 73
14
 74
0
 42
0.0000001
 43
0.0000001
 44
0.0000000001
 40
0.0
 40
0.0
 40
0.0
 40
0.0
 40
0.1492431291
 40
0.2896617841
 40
0.4219585926
 40
0.4853533547
 40
0.5470711298
 40
0.6660143139
 40
0.7801167429
 40
0.835836822
 40
0.8909174181
 40
0.9455671023
 40
1.0
 40
1.0
 40
1.0
 40
1.0
 10
13.3070096657
 20
6.480322833
 30
0.0
 10
13.3054746796
 20
6.47889425
 30
0.0
 10
13.302406633
 20
6.4762143411
 30
0.0
 10
13.2976625211
 20
6.4726494768
 30
0.0
 10
13.2936588417
 20
6.4701321572
 30
0.0
 10
13.2904669266
 20
6.468428744
 30
0.0
 10
13.2873645969
 20
6.4669652014
 30
0.0
 10
13.2834860236
 20
6.4654889122
 30
0.0
 10
13.2795438478
 20
6.4644862336
 30
0.0
 10
13.2764205266
 20
6.4639948811
 30
0.0
 10
13.2741042998
 20
6.4637789113
 30
0.0
 10
13.2717971789
 20
6.4637129337
 30
0.0
 10
13.2702642706
 20
6.4637689875
 30
0.0
 10
13.2695013049
 20
6.4638218998
 30
0.0
  0
SPLINE
  5
334
100
AcDbEntity
  8
0
100
AcDbSpline
 62
7
  6
CONTINUOUS
 70
0
 71
3
 72
39
 73
35
 74
0
 42
0.0000001
 43
0.0000001
 44
0.0000000001
 40
0.0
 40
0.0
 40
0.0
 40
0.0
 40
0.029942471
 40
0.0599093185
 40
0.089924325
 40
0.1200101043
 40
0.1501875632
 40
0.1804754155
 40
0.2108897611
 40
0.2414437393
 40
0.2721472649
 40
0.3030068482
 40
0.3340255005
 40
0.3652027199
 40
0.3965345553
 40
0.4280137416
 40
0.4596298994
 40
0.4913697937
 40
0.523217641
 40
0.5551554573
 40
0.5871634413
 40
0.619220384
 40
0.6513040994
 40
0.6833918697
 40
0.715460897
 40
0.7474887556
 40
0.7794538398
 40
0.8113357995
 40
0.8431159588
 40
0.874777715
 40
0.9063068673
 40
0.9376920959
 40
0.968924654
 40
1.0
 40
1.0
 40
1.0
 40
1.0
 10
10.1521283343
 20
7.6105999853
 30
0.0
 10
10.1583494601
 20
7.6166091263
 30
0.0
 10
10.1712809035
 20
7.628142433
 30
0.0
 10
10.191999081
 20
7.6438545236
 30
0.0
 10
10.213932378
 20
7.6579001079
 30
0.0
 10
10.2369582377
 20
7.6702003993
 30
0.0
 10
10.260950068
 20
7.6806881974
 30
0.0
 10
10.2857754628
 20
7.6893058475
 30
0.0
 10
10.3112976226
 20
7.6960061887
 30
0.0
 10
10.3373759368
 20
7.7007526393
 30
0.0
 10
10.3638668201
 20
7.7035194273
 30
0.0
 10
10.3906244984
 20
7.7042916819
 30
0.0
 10
10.4175018124
 20
7.7030655027
 30
0.0
 10
10.4443510202
 20
7.6998479619
 30
0.0
 10
10.4710246011
 20
7.6946570493
 30
0.0
 10
10.4973760557
 20
7.6875215657
 30
0.0
 10
10.5232607064
 20
7.6784809738
 30
0.0
 10
10.5485364764
 20
7.6675851506
 30
0.0
 10
10.5730646582
 20
7.6548941128
 30
0.0
 10
10.5967106628
 20
7.640477685
 30
0.0
 10
10.6193447478
 20
7.6244151186
 30
0.0
 10
10.6408427168
 20
7.6067946568
 30
0.0
 10
10.6610866079
 20
7.5877130711
 30
0.0
 10
10.6799653273
 20
7.5672751222
 30
0.0
 10
10.6973752464
 20
7.5455929846
 30
0.0
 10
10.713220766
 20
7.5227856393
 30
0.0
 10
10.7274148353
 20
7.4989782305
 30
0.0
 10
10.7398794233
 20
7.4743013814
 30
0.0
 10
10.750545959
 20
7.4488905093
 30
0.0
 10
10.7593556988
 20
7.4228850342
 30
0.0
 10
10.7662600877
 20
7.3964278207
 30
0.0
 10
10.7712208796
 20
7.3696636564
 30
0.0
 10
10.7742106731
 20
7.3427414039
 30
0.0
 10
10.7748803091
 20
7.3247357744
 30
0.0
 10
10.7748803091
 20
7.3157591203
 30
0.0
  0
SPLINE
  5
335
100
AcDbEntity
  8
0
100
AcDbSpline
 62
7
  6
CONTINUOUS
 70
0
 71
3
 72
32
 73
28
 74
0
 42
0.0000001
 43
0.0000001
 44
0.0000000001
 40
0.0
 40
0.0
 40
0.0
 40
0.0
 40
0.0162143629
 40
0.0334274902
 40
0.051671863
 40
0.0709710532
 40
0.0913405782
 40
0.1127897579
 40
0.1353220566
 40
0.1589364939
 40
0.1836276855
 40
0.2093869189
 40
0.2362020555
 40
0.2640583445
 40
0.2929382937
 40
0.3228222674
 40
0.3536883895
 40
0.3855129562
 40
0.4182704075
 40
0.4519335789
 40
0.5218592763
 40
0.5950454688
 40
0.6712258788
 40
0.7501167347
 40
0.8314192998
 40
0.9148212386
 40
1.0
 40
1.0
 40
1.0
 40
1.0
 10
13.7983099407
 20
10.0222385528
 30
0.0
 10
13.7996313964
 20
10.0206137565
 30
0.0
 10
13.8022444965
 20
10.0171725722
 30
0.0
 10
13.8059710138
 20
10.0116319971
 30
0.0
 10
13.80961568
 20
10.0055674958
 30
0.0
 10
13.8131746073
 20
9.9989854262
 30
0.0
 10
13.8166444924
 20
9.9918924239
 30
0.0
 10
13.8200216772
 20
9.9842957106
 30
0.0
 10
13.823302826
 20
9.9762031153
 30
0.0
 10
13.8264844212
 20
9.9676229696
 30
0.0
 10
13.8295632414
 20
9.9585641912
 30
0.0
 10
13.8325359619
 20
9.9490361927
 30
0.0
 10
13.8353995298
 20
9.9390489265
 30
0.0
 10
13.8381508516
 20
9.9286128297
 30
0.0
 10
13.8407870741
 20
9.9177388367
 30
0.0
 10
13.8433053581
 20
9.9064383503
 30
0.0
 10
13.8457030728
 20
9.8947232331
 30
0.0
 10
13.8479776423
 20
9.8826057981
 30
0.0
 10
13.850126702
 20
9.8700987668
 30
0.0
 10
13.8528562282
 20
9.8526998838
 30
0.0
 10
13.8559227916
 20
9.8300706529
 30
0.0
 10
13.8590247803
 20
9.8019135417
 30
0.0
 10
13.8615803626
 20
9.7725392101
 30
0.0
 10
13.8635785603
 20
9.7420713059
 30
0.0
 10
13.8650106958
 20
9.7106379336
 30
0.0
 10
13.86587057
 20
9.6783714795
 30
0.0
 10
13.8660580485
 20
9.6565962291
 30
0.0
 10
13.8660580485
 20
9.6455941176
 30
0.0
  0
SPLINE
  5
336
100
AcDbEntity
  8
0
100
AcDbSpline
 62
7
  6
CONTINUOUS
 70
0
 71
3
 72
18
 73
14
 74
0
 42
0.0000001
 43
0.0000001
 44
0.0000000001
 40
0.0
 40
0.0
 40
0.0
 40
0.0
 40
0.0544331377
 40
0.1090830876
 40
0.1641639775
 40
0.2198843499
 40
0.3339870152
 40
0.452930451
 40
0.514648899
 40
0.5780449223
 40
0.7103433743
 40
0.8507564863
 40
1.0
 40
1.0
 40
1.0
 40
1.0
 10
13.7375629904
 20
10.0755742
 30
0.0
 10
13.7383259594
 20
10.0755212874
 30
0.0
 10
13.7398519376
 20
10.0753652035
 30
0.0
 10
13.742127877
 20
10.0749813928
 30
0.0
 10
13.7443921305
 20
10.0744477615
 30
0.0
 10
13.747417735
 20
10.0735299647
 30
0.0
 10
13.7511837801
 20
10.0719927263
 30
0.0
 10
13.7548214551
 20
10.0699951719
 30
0.0
 10
13.7576920826
 20
10.0681173769
 30
0.0
 10
13.7606183385
 20
10.0659896247
 30
0.0
 10
13.7642361587
 20
10.0629437492
 30
0.0
 10
13.7684427794
 20
10.0587582264
 30
0.0
 10
13.7711114635
 20
10.0556805052
 30
0.0
 10
13.7724345565
 20
10.0540537051
 30
0.0
  0
SPLINE
  5
337
100
AcDbEntity
  8
0
100
AcDbSpline
 62
7
  6
CONTINUOUS
 70
0
 71
3
 72
34
 73
30
 74
0
 42
0.0000001
 43
0.0000001
 44
0.0000000001
 40
0.0
 40
0.0
 40
0.0
 40
0.0
 40
0.0325479583
 40
0.0650519055
 40
0.0974932247
 40
0.129855921
 40
0.1942624215
 40
0.2582218401
 40
0.3216816986
 40
0.3846154354
 40
0.447020657
 40
0.4780467891
 40
0.5089518381
 40
0.5397430795
 40
0.5704298405
 40
0.6010237656
 40
0.6315390409
 40
0.6619925841
 40
0.6924041739
 40
0.7227964752
 40
0.7531949402
 40
0.7836274585
 40
0.8141236896
 40
0.8447140336
 40
0.8754282704
 40
0.90629379
 40
0.9373340356
 40
0.9685658814
 40
1.0
 40
1.0
 40
1.0
 40
1.0
 10
11.3409136274
 20
7.3157592318
 30
0.0
 10
11.3430885224
 20
7.3131741183
 30
0.0
 10
11.3472562265
 20
7.3078537484
 30
0.0
 10
11.3529461947
 20
7.2994771542
 30
0.0
 10
11.3580616859
 20
7.2907595837
 30
0.0
 10
11.364093604
 20
7.278772788
 30
0.0
 10
11.3701700487
 20
7.2631854576
 30
0.0
 10
11.3750933909
 20
7.2438443252
 30
0.0
 10
11.3776344421
 20
7.2242018915
 30
0.0
 10
11.3777906678
 20
7.2045594106
 30
0.0
 10
11.3759271536
 20
7.1883905431
 30
0.0
 10
11.373237727
 20
7.1757608795
 30
0.0
 10
11.3706280785
 20
7.166489933
 30
0.0
 10
11.3674232456
 20
7.157444942
 30
0.0
 10
11.3636248988
 20
7.1486673729
 30
0.0
 10
11.3592360448
 20
7.140201443
 30
0.0
 10
11.3542614988
 20
7.1320936399
 30
0.0
 10
11.3487085826
 20
7.1243930789
 30
0.0
 10
11.3425879403
 20
7.1171514792
 30
0.0
 10
11.335914499
 20
7.1104230004
 30
0.0
 10
11.3287085318
 20
7.1042638037
 30
0.0
 10
11.3209967847
 20
7.0987312837
 30
0.0
 10
11.3128135826
 20
7.0938829047
 30
0.0
 10
11.3042017997
 20
7.0897745898
 30
0.0
 10
11.295213469
 20
7.0864587178
 30
0.0
 10
11.2859100366
 20
7.083981707
 30
0.0
 10
11.2763614015
 20
7.0823816609
 30
0.0
 10
11.2666462767
 20
7.0816856796
 30
0.0
 10
11.2601322767
 20
7.0818338639
 30
0.0
 10
11.256877395
 20
7.0820595907
 30
0.0
  0
SPLINE
  5
338
100
AcDbEntity
  8
0
100
AcDbSpline
 62
7
  6
CONTINUOUS
 70
0
 71
3
 72
23
 73
19
 74
0
 42
0.0000001
 43
0.0000001
 44
0.0000000001
 40
0.0
 40
0.0
 40
0.0
 40
0.0
 40
0.0620114637
 40
0.1239249769
 40
0.1857760746
 40
0.2476017259
 40
0.3094396432
 40
0.3713276518
 40
0.4333030172
 40
0.4954017027
 40
0.5576576109
 40
0.6201020078
 40
0.6827627846
 40
0.7456641826
 40
0.8088262982
 40
0.8722622746
 40
0.9359882115
 40
1.0
 40
1.0
 40
1.0
 40
1.0
 10
10.71576422
 20
8.8926554322
 30
0.0
 10
10.7170867968
 20
8.8948032075
 30
0.0
 10
10.7198756611
 20
8.899007566
 30
0.0
 10
10.7244740865
 20
8.9050108278
 30
0.0
 10
10.7294669455
 20
8.9106807427
 30
0.0
 10
10.734834695
 20
8.9159926734
 30
0.0
 10
10.7405563503
 20
8.920923751
 30
0.0
 10
10.7466091709
 20
8.9254523781
 30
0.0
 10
10.7529688503
 20
8.9295584981
 30
0.0
 10
10.7596095558
 20
8.933223674
 30
0.0
 10
10.7665039866
 20
8.9364312971
 30
0.0
 10
10.7736234996
 20
8.9391666914
 30
0.0
 10
10.7809382539
 20
8.9414172039
 30
0.0
 10
10.7884173717
 20
8.9431722916
 30
0.0
 10
10.7960289403
 20
8.9444235935
 30
0.0
 10
10.8037406565
 20
8.9451653089
 30
0.0
 10
10.8115187618
 20
8.9453935858
 30
0.0
 10
10.8167154485
 20
8.9452032052
 30
0.0
 10
10.8193129034
 20
8.9450230711
 30
0.0
  0
SPLINE
  5
339
100
AcDbEntity
  8
0
100
AcDbSpline
 62
7
  6
CONTINUOUS
 70
0
 71
3
 72
18
 73
14
 74
0
 42
0.0000001
 43
0.0000001
 44
0.0000000001
 40
0.0
 40
0.0
 40
0.0
 40
0.0
 40
0.0544328977
 40
0.1090825819
 40
0.164163178
 40
0.2198832571
 40
0.3339856861
 40
0.4529288702
 40
0.5146466453
 40
0.5780414074
 40
0.7103382159
 40
0.8507568709
 40
1.0
 40
1.0
 40
1.0
 40
1.0
 10
8.0018950941
 20
10.4733441197
 30
0.0
 10
8.0011321283
 20
10.473397032
 30
0.0
 10
7.99959922
 20
10.4734530858
 30
0.0
 10
7.9972920991
 20
10.4733871082
 30
0.0
 10
7.9949758723
 20
10.4731711384
 30
0.0
 10
7.9918525511
 20
10.4726797859
 30
0.0
 10
7.9879103753
 20
10.4716771073
 30
0.0
 10
7.984031802
 20
10.4702008181
 30
0.0
 10
7.9809294723
 20
10.4687372756
 30
0.0
 10
7.9777375572
 20
10.4670338624
 30
0.0
 10
7.9737338778
 20
10.4645165427
 30
0.0
 10
7.9689897659
 20
10.4609516784
 30
0.0
 10
7.9659217193
 20
10.4582717695
 30
0.0
 10
7.9643867332
 20
10.4568431865
 30
0.0
  0
SPLINE
  5
33A
100
AcDbEntity
  8
0
100
AcDbSpline
 62
7
  6
CONTINUOUS
 70
0
 71
3
 72
18
 73
14
 74
0
 42
0.0000001
 43
0.0000001
 44
0.0000000001
 40
0.0
 40
0.0
 40
0.0
 40
0.0
 40
0.1492435137
 40
0.2896566257
 40
0.4219550777
 40
0.485351101
 40
0.547069549
 40
0.6660129848
 40
0.7801156501
 40
0.8358360225
 40
0.8909169124
 40
0.9455668623
 40
1.0
 40
1.0
 40
1.0
 40
1.0
 10
7.4989618424
 20
6.8831123145
 30
0.0
 10
7.5002849354
 20
6.8814855143
 30
0.0
 10
7.5029536195
 20
6.8784077932
 30
0.0
 10
7.5071602402
 20
6.8742222704
 30
0.0
 10
7.5107780604
 20
6.8711763948
 30
0.0
 10
7.5137043163
 20
6.8690486427
 30
0.0
 10
7.5165749439
 20
6.8671708477
 30
0.0
 10
7.5202126188
 20
6.8651732932
 30
0.0
 10
7.5239786639
 20
6.8636360548
 30
0.0
 10
7.5270042684
 20
6.862718258
 30
0.0
 10
7.5292685219
 20
6.8621846267
 30
0.0
 10
7.5315444613
 20
6.861800816
 30
0.0
 10
7.5330704395
 20
6.8616447321
 30
0.0
 10
7.5338334085
 20
6.8615918195
 30
0.0
  0
SPLINE
  5
33B
100
AcDbEntity
  8
0
100
AcDbSpline
 62
7
  6
CONTINUOUS
 70
0
 71
3
 72
23
 73
19
 74
0
 42
0.0000001
 43
0.0000001
 44
0.0000000001
 40
0.0
 40
0.0
 40
0.0
 40
0.0
 40
0.0465986598
 40
0.0936919615
 40
0.1417577858
 40
0.1912433687
 40
0.2425547167
 40
0.2960517189
 40
0.3520459022
 40
0.4108029044
 40
0.4725448947
 40
0.5374560276
 40
0.6056858506
 40
0.677354927
 40
0.7525575536
 40
0.8313665613
 40
0.9138349962
 40
1.0
 40
1.0
 40
1.0
 40
1.0
 10
13.5370902971
 20
7.543245157
 30
0.0
 10
13.5353512836
 20
7.5433657615
 30
0.0
 10
13.5318650002
 20
7.5437963562
 30
0.0
 10
13.5266916395
 20
7.5450028219
 30
0.0
 10
13.5215672934
 20
7.5467690274
 30
0.0
 10
13.5164972257
 20
7.54909231
 30
0.0
 10
13.5114849039
 20
7.5519694069
 30
0.0
 10
13.5065337069
 20
7.5553971454
 30
0.0
 10
13.5016464587
 20
7.5593720724
 30
0.0
 10
13.4968260394
 20
7.5638908912
 30
0.0
 10
13.4920751159
 20
7.5689500053
 30
0.0
 10
13.4873965781
 20
7.5745457919
 30
0.0
 10
13.4827931837
 20
7.5806742297
 30
0.0
 10
13.4782679262
 20
7.5873311129
 30
0.0
 10
13.4738236566
 20
7.5945117817
 30
0.0
 10
13.4694634079
 20
7.6022113328
 30
0.0
 10
13.4651900914
 20
7.6104242923
 30
0.0
 10
13.4624611328
 20
7.6161131386
 30
0.0
 10
13.4611095318
 20
7.6190393846
 30
0.0
  0
SPLINE
  5
33C
100
AcDbEntity
  8
0
100
AcDbSpline
 62
7
  6
CONTINUOUS
 70
0
 71
3
 72
29
 73
25
 74
0
 42
0.0000001
 43
0.0000001
 44
0.0000000001
 40
0.0
 40
0.0
 40
0.0
 40
0.0
 40
0.0199245495
 40
0.0406925716
 40
0.0623035975
 40
0.0847549628
 40
0.1080418187
 40
0.1321575605
 40
0.1570938134
 40
0.1828407514
 40
0.2093870858
 40
0.2367202922
 40
0.2648266183
 40
0.2936912324
 40
0.3536296147
 40
0.4163986761
 40
0.4818465822
 40
0.5498094102
 40
0.6201124543
 40
0.6925714005
 40
0.7669933317
 40
0.8431778458
 40
0.9209176168
 40
1.0
 40
1.0
 40
1.0
 40
1.0
 10
13.4611095318
 20
7.6190393846
 30
0.0
 10
13.4596694772
 20
7.6221571346
 30
0.0
 10
13.4568272314
 20
7.6285706462
 30
0.0
 10
13.4527520104
 20
7.6385075034
 30
0.0
 10
13.4487794689
 20
7.6489531511
 30
0.0
 10
13.444912651
 20
7.6598997986
 30
0.0
 10
13.4411543549
 20
7.6713394132
 30
0.0
 10
13.4375074199
 20
7.6832635521
 30
0.0
 10
13.4339745209
 20
7.695663405
 30
0.0
 10
13.4305583212
 20
7.708529802
 30
0.0
 10
13.4272613417
 20
7.7218532172
 30
0.0
 10
13.4240860688
 20
7.7356237746
 30
0.0
 10
13.4210348276
 20
7.7498312818
 30
0.0
 10
13.417085372
 20
7.7695918919
 30
0.0
 10
13.4124920159
 20
7.7953136306
 30
0.0
 10
13.4075752366
 20
7.8273726784
 30
0.0
 10
13.4032017938
 20
7.8609055005
 30
0.0
 10
13.3993848733
 20
7.8958125146
 30
0.0
 10
13.3961360398
 20
7.931990239
 30
0.0
 10
13.393465126
 20
7.9693312729
 30
0.0
 10
13.3913802212
 20
8.0077247349
 30
0.0
 10
13.3898876584
 20
8.0470565759
 30
0.0
 10
13.388991972
 20
8.087209842
 30
0.0
 10
13.3887961052
 20
8.1142406518
 30
0.0
 10
13.3887961052
 20
8.1278715368
 30
0.0
  0
SPLINE
  5
33D
100
AcDbEntity
  8
0
100
AcDbSpline
 62
7
  6
CONTINUOUS
 70
0
 71
3
 72
26
 73
22
 74
0
 42
0.0000001
 43
0.0000001
 44
0.0000000001
 40
0.0
 40
0.0
 40
0.0
 40
0.0
 40
0.0247096783
 40
0.0504946901
 40
0.0772909372
 40
0.1050086162
 40
0.1335451327
 40
0.1627954865
 40
0.192659317
 40
0.2230450518
 40
0.2538716055
 40
0.2850682697
 40
0.3483364866
 40
0.4124666246
 40
0.4771808522
 40
0.542277987
 40
0.6076110451
 40
0.6730718333
 40
0.7385783075
 40
0.869490471
 40
1.0
 40
1.0
 40
1.0
 40
1.0
 10
8.8140771385
 20
8.9612454679
 30
0.0
 10
8.8133839154
 20
8.9600703167
 30
0.0
 10
8.8118941956
 20
8.9577114619
 30
0.0
 10
8.8094290808
 20
8.954225764
 30
0.0
 10
8.8067066672
 20
8.9507244535
 30
0.0
 10
8.8037519915
 20
8.9472161653
 30
0.0
 10
8.8005908785
 20
8.9437083406
 30
0.0
 10
8.7972484556
 20
8.9402073314
 30
0.0
 10
8.7937480384
 20
8.9367182767
 30
0.0
 10
8.7901105592
 20
8.9332452383
 30
0.0
 10
8.7863543972
 20
8.9297913306
 30
0.0
 10
8.7811849214
 20
8.9251934073
 30
0.0
 10
8.774514012
 20
8.9195184458
 30
0.0
 10
8.766273282
 20
8.9128377454
 30
0.0
 10
8.7578214638
 20
8.9062606754
 30
0.0
 10
8.7492043064
 20
8.8997907854
 30
0.0
 10
8.7404553791
 20
8.8934300135
 30
0.0
 10
8.7315997082
 20
8.8871795183
 30
0.0
 10
8.7196781143
 20
8.8789954552
 30
0.0
 10
8.7046092153
 20
8.8690526072
 30
0.0
 10
8.6923836543
 20
8.8613755785
 30
0.0
 10
8.6862398448
 20
8.8576094031
 30
0.0
  0
SPLINE
  5
33E
100
AcDbEntity
  8
0
100
AcDbSpline
 62
7
  6
CONTINUOUS
 70
0
 71
3
 72
13
 73
9
 74
0
 42
0.0000001
 43
0.0000001
 44
0.0000000001
 40
0.0
 40
0.0
 40
0.0
 40
0.0
 40
0.26641751
 40
0.5226266412
 40
0.6464825846
 40
0.7673360865
 40
0.8851632396
 40
1.0
 40
1.0
 40
1.0
 40
1.0
 10
8.5481924994
 20
8.9993933006
 30
0.0
 10
8.546649459
 20
8.9899394496
 30
0.0
 10
8.542685296
 20
8.9715307452
 30
0.0
 10
8.535311658
 20
8.9494302907
 30
0.0
 10
8.5281007984
 20
8.9329159131
 30
0.0
 10
8.5221585411
 20
8.9213043873
 30
0.0
 10
8.5156579786
 20
8.9103722029
 30
0.0
 10
8.5109162957
 20
8.9034715708
 30
0.0
 10
8.5084628781
 20
8.9001506238
 30
0.0
  0
SPLINE
  5
33F
100
AcDbEntity
  8
0
100
AcDbSpline
 62
7
  6
CONTINUOUS
 70
0
 71
3
 72
15
 73
11
 74
0
 42
0.0000001
 43
0.0000001
 44
0.0000000001
 40
0.0
 40
0.0
 40
0.0
 40
0.0
 40
0.1273482789
 40
0.2538606571
 40
0.3795878378
 40
0.5046051156
 40
0.629017439
 40
0.7529533823
 40
0.8765605864
 40
1.0
 40
1.0
 40
1.0
 40
1.0
 10
7.7022701611
 20
9.6432570118
 30
0.0
 10
7.7022701611
 20
9.6497553368
 30
0.0
 10
7.7028906218
 20
9.662718316
 30
0.0
 10
7.7056965532
 20
9.6819134621
 30
0.0
 10
7.7103492748
 20
9.7006263158
 30
0.0
 10
7.7168067576
 20
9.7186818671
 30
0.0
 10
7.7250097772
 20
9.7359136087
 30
0.0
 10
7.7348835024
 20
9.7521624432
 30
0.0
 10
7.7463351247
 20
9.7672761177
 30
0.0
 10
7.7549576244
 20
9.7765084255
 30
0.0
 10
7.759488096
 20
9.7808845549
 30
0.0
  0
SPLINE
  5
340
100
AcDbEntity
  8
0
100
AcDbSpline
 62
7
  6
CONTINUOUS
 70
0
 71
3
 72
14
 73
10
 74
0
 42
0.0000001
 43
0.0000001
 44
0.0000000001
 40
0.0
 40
0.0
 40
0.0
 40
0.0
 40
0.2614654575
 40
0.3907999295
 40
0.5184807345
 40
0.6439118416
 40
0.7664412211
 40
0.8853759521
 40
1.0
 40
1.0
 40
1.0
 40
1.0
 10
10.4936633113
 20
7.5311951307
 30
0.0
 10
10.5005856485
 20
7.5420525737
 30
0.0
 10
10.5098374584
 20
7.5590028834
 30
0.0
 10
10.5201502054
 20
7.582367378
 30
0.0
 10
10.526875125
 20
7.5999695649
 30
0.0
 10
10.5326686789
 20
7.617544353
 30
0.0
 10
10.5375819589
 20
7.634937679
 30
0.0
 10
10.5416608781
 20
7.6519975432
 30
0.0
 10
10.5438986599
 20
7.6632832944
 30
0.0
 10
10.5448885164
 20
7.6688407439
 30
0.0
  0
SPLINE
  5
341
100
AcDbEntity
  8
0
100
AcDbSpline
 62
7
  6
CONTINUOUS
 70
0
 71
3
 72
11
 73
7
 74
0
 42
0.0000001
 43
0.0000001
 44
0.0000000001
 40
0.0
 40
0.0
 40
0.0
 40
0.0
 40
0.2516037505
 40
0.502238274
 40
0.7517495211
 40
1.0
 40
1.0
 40
1.0
 40
1.0
 10
8.4693867182
 20
9.2829621239
 30
0.0
 10
8.4642764217
 20
9.2864455027
 30
0.0
 10
8.4538299407
 20
9.293046334
 30
0.0
 10
8.4375420187
 20
9.3018044266
 30
0.0
 10
8.4207508978
 20
9.3093557278
 30
0.0
 10
8.4092506651
 20
9.3135689693
 30
0.0
 10
8.4034487221
 20
9.315459412
 30
0.0
  0
SPLINE
  5
342
100
AcDbEntity
  8
0
100
AcDbSpline
 62
7
  6
CONTINUOUS
 70
0
 71
3
 72
39
 73
35
 74
0
 42
0.0000001
 43
0.0000001
 44
0.0000000001
 40
0.0
 40
0.0
 40
0.0
 40
0.0
 40
0.0310016413
 40
0.0621469085
 40
0.093426629
 40
0.1248357102
 40
0.1563632721
 40
0.1879975499
 40
0.2197248161
 40
0.2515298487
 40
0.2833962791
 40
0.3153068298
 40
0.3472436614
 40
0.3791886869
 40
0.4111238511
 40
0.4430314037
 40
0.4748941702
 40
0.5066958371
 40
0.538421169
 40
0.5700562096
 40
0.601588475
 40
0.6330071552
 40
0.6643032666
 40
0.6954697689
 40
0.7265016741
 40
0.7573961483
 40
0.788152583
 40
0.8187726221
 40
0.8492601698
 40
0.87962137
 40
0.9098645544
 40
0.9400001542
 40
0.9700405702
 40
1.0
 40
1.0
 40
1.0
 40
1.0
 10
10.8193128949
 20
8.6998163558
 30
0.0
 10
10.8166274208
 20
8.7000025941
 30
0.0
 10
10.8112549282
 20
8.7005577344
 30
0.0
 10
10.8032533733
 20
8.7019280428
 30
0.0
 10
10.7953249795
 20
8.7038316207
 30
0.0
 10
10.7875063685
 20
8.7062589024
 30
0.0
 10
10.7798326143
 20
8.7091982933
 30
0.0
 10
10.7723382482
 20
8.7126354993
 30
0.0
 10
10.7650566132
 20
8.7165539668
 30
0.0
 10
10.758019847
 20
8.720934967
 30
0.0
 10
10.7512586954
 20
8.7257577424
 30
0.0
 10
10.7448023993
 20
8.7309996806
 30
0.0
 10
10.738678545
 20
8.7366364249
 30
0.0
 10
10.7329129701
 20
8.7426420555
 30
0.0
 10
10.7275297174
 20
8.748989281
 30
0.0
 10
10.7225509734
 20
8.755649586
 30
0.0
 10
10.7179970243
 20
8.7625933831
 30
0.0
 10
10.7138861686
 20
8.7697901271
 30
0.0
 10
10.710234754
 20
8.7772084983
 30
0.0
 10
10.7070571661
 20
8.7848165241
 30
0.0
 10
10.7043658369
 20
8.7925817027
 30
0.0
 10
10.7021711823
 20
8.8004710952
 30
0.0
 10
10.7004816336
 20
8.8084514508
 30
0.0
 10
10.699303673
 20
8.8164893109
 30
0.0
 10
10.6986418416
 20
8.8245510971
 30
0.0
 10
10.6984987041
 20
8.8326031955
 30
0.0
 10
10.6988748277
 20
8.840612052
 30
0.0
 10
10.6997688462
 20
8.8485442617
 30
0.0
 10
10.701177444
 20
8.8563666457
 30
0.0
 10
10.7030953504
 20
8.8640463508
 30
0.0
 10
10.705515237
 20
8.8715509142
 30
0.0
 10
10.7084279061
 20
8.8788485297
 30
0.0
 10
10.7118218299
 20
8.8859074813
 30
0.0
 10
10.7144001688
 20
8.8904403051
 30
0.0
 10
10.71576422
 20
8.8926554322
 30
0.0
  0
SPLINE
  5
343
100
AcDbEntity
  8
0
100
AcDbSpline
 62
7
  6
CONTINUOUS
 70
0
 71
3
 72
15
 73
11
 74
0
 42
0.0000001
 43
0.0000001
 44
0.0000000001
 40
0.0
 40
0.0
 40
0.0
 40
0.0
 40
0.1273482789
 40
0.2538606571
 40
0.3795878378
 40
0.5046051156
 40
0.629017439
 40
0.7529533823
 40
0.8765605864
 40
1.0
 40
1.0
 40
1.0
 40
1.0
 10
7.7022701611
 20
6.9850288901
 30
0.0
 10
7.7022701611
 20
6.9915272151
 30
0.0
 10
7.7028906218
 20
7.0044901942
 30
0.0
 10
7.7056965532
 20
7.0236853403
 30
0.0
 10
7.7103492748
 20
7.042398194
 30
0.0
 10
7.7168067576
 20
7.0604537453
 30
0.0
 10
7.7250097772
 20
7.077685487
 30
0.0
 10
7.7348835024
 20
7.0939343215
 30
0.0
 10
7.7463351247
 20
7.109047996
 30
0.0
 10
7.7549576244
 20
7.1182803037
 30
0.0
 10
7.759488096
 20
7.1226564332
 30
0.0
  0
SPLINE
  5
344
100
AcDbEntity
  8
0
100
AcDbSpline
 62
7
  6
CONTINUOUS
 70
0
 71
3
 72
32
 73
28
 74
0
 42
0.0000001
 43
0.0000001
 44
0.0000000001
 40
0.0
 40
0.0
 40
0.0
 40
0.0
 40
0.0851788256
 40
0.1685805939
 40
0.2498831809
 40
0.3287739947
 40
0.4049543857
 40
0.4781405615
 40
0.5480662501
 40
0.581729445
 40
0.6144868725
 40
0.6463114519
 40
0.6771775691
 40
0.7070615392
 40
0.7359415075
 40
0.763797774
 40
0.790612955
 40
0.8163721473
 40
0.8410634064
 40
0.8646777882
 40
0.8872101701
 40
0.9086592878
 40
0.9290289006
 40
0.9483280334
 40
0.9665724873
 40
0.9837855716
 40
1.0
 40
1.0
 40
1.0
 40
1.0
 10
7.427258669
 20
7.281745305
 30
0.0
 10
7.427258669
 20
7.2701008809
 30
0.0
 10
7.4274570911
 20
7.2470544048
 30
0.0
 10
7.4283671679
 20
7.2129042451
 30
0.0
 10
7.4298829076
 20
7.1796358169
 30
0.0
 10
7.4319977599
 20
7.1473892002
 30
0.0
 10
7.4347025347
 20
7.1163000041
 30
0.0
 10
7.4379856114
 20
7.0864990847
 30
0.0
 10
7.4412312058
 20
7.0625487593
 30
0.0
 10
7.4441200619
 20
7.0441341266
 30
0.0
 10
7.4463945952
 20
7.0308969345
 30
0.0
 10
7.448801942
 20
7.018072083
 30
0.0
 10
7.451339637
 20
7.0056730363
 30
0.0
 10
7.4540049385
 20
6.9937128255
 30
0.0
 10
7.4567950508
 20
6.982204006
 30
0.0
 10
7.4597070102
 20
6.9711586477
 30
0.0
 10
7.4627377239
 20
6.9605883184
 30
0.0
 10
7.4658840237
 20
6.9505040751
 30
0.0
 10
7.4691425395
 20
6.9409164328
 30
0.0
 10
7.4725099235
 20
6.9318353819
 30
0.0
 10
7.475982566
 20
6.9232703206
 30
0.0
 10
7.4795569691
 20
6.9152301209
 30
0.0
 10
7.4832293589
 20
6.907723
 30
0.0
 10
7.4869961182
 20
6.9007566856
 30
0.0
 10
7.4908534928
 20
6.8943381002
 30
0.0
 10
7.4947976244
 20
6.8884740901
 30
0.0
 10
7.4975632297
 20
6.8848319695
 30
0.0
 10
7.4989618424
 20
6.8831123145
 30
0.0
  0
SPLINE
  5
345
100
AcDbEntity
  8
0
100
AcDbSpline
 62
7
  6
CONTINUOUS
 70
0
 71
3
 72
18
 73
14
 74
0
 42
0.0000001
 43
0.0000001
 44
0.0000000001
 40
0.0
 40
0.0
 40
0.0
 40
0.0
 40
0.150466514
 40
0.2917140478
 40
0.4244427524
 40
0.4879100217
 40
0.5496093045
 40
0.6682623303
 40
0.7817883775
 40
0.8371380958
 40
0.8918079631
 40
0.946019364
 40
1.0
 40
1.0
 40
1.0
 40
1.0
 10
12.6719023499
 20
10.1289785478
 30
0.0
 10
12.6734911506
 20
10.1305132115
 30
0.0
 10
12.6766666332
 20
10.133392704
 30
0.0
 10
12.6815835081
 20
10.1372300238
 30
0.0
 10
12.6857366832
 20
10.1399439698
 30
0.0
 10
12.689048447
 20
10.1417817836
 30
0.0
 10
12.6922627796
 20
10.1433595901
 30
0.0
 10
12.6962817251
 20
10.1449538982
 30
0.0
 10
12.7003721503
 20
10.1460419271
 30
0.0
 10
12.7036119046
 20
10.146577868
 30
0.0
 10
12.7060130004
 20
10.1468157765
 30
0.0
 10
12.7084043874
 20
10.1468926174
 30
0.0
 10
12.7099931646
 20
10.1468364088
 30
0.0
 10
12.7107837396
 20
10.1467815829
 30
0.0
  0
SPLINE
  5
346
100
AcDbEntity
  8
0
100
AcDbSpline
 62
7
  6
CONTINUOUS
 70
0
 71
3
 72
41
 73
37
 74
0
 42
0.0000001
 43
0.0000001
 44
0.0000000001
 40
0.0
 40
0.0
 40
0.0
 40
0.0
 40
0.076018281
 40
0.1532628653
 40
0.2310384663
 40
0.308642858
 40
0.3471625254
 40
0.3853774685
 40
0.42320181
 40
0.4605508061
 40
0.497341114
 40
0.5334910449
 40
0.5689208246
 40
0.6035528634
 40
0.6373120393
 40
0.670126012
 40
0.7019255212
 40
0.7326447134
 40
0.7622215068
 40
0.7905980026
 40
0.817720983
 40
0.8435424642
 40
0.8680203545
 40
0.8911192989
 40
0.902143201
 40
0.9128128076
 40
0.9231260665
 40
0.9330817565
 40
0.9426793478
 40
0.951919138
 40
0.9608024128
 40
0.969331438
 40
0.9775099997
 40
0.9853432078
 40
0.9928373335
 40
1.0
 40
1.0
 40
1.0
 40
1.0
 10
12.1361473687
 20
9.0686285977
 30
0.0
 10
12.1361473687
 20
9.0865919006
 30
0.0
 10
12.1366277247
 20
9.1228098235
 30
0.0
 10
12.1387238173
 20
9.1773698439
 30
0.0
 10
12.1421837013
 20
9.2322360347
 30
0.0
 10
12.1461853574
 20
9.2778849838
 30
0.0
 10
12.1500478574
 20
9.3141513475
 30
0.0
 10
12.1532539374
 20
9.3410321448
 30
0.0
 10
12.1567683995
 20
9.3675953285
 30
0.0
 10
12.1605827985
 20
9.39377699
 30
0.0
 10
12.1646879052
 20
9.4195140883
 30
0.0
 10
12.1690738022
 20
9.4447446764
 30
0.0
 10
12.1737298882
 20
9.4694080287
 30
0.0
 10
12.178644908
 20
9.4934447934
 30
0.0
 10
12.183806979
 20
9.5167971407
 30
0.0
 10
12.1892036064
 20
9.5394089114
 30
0.0
 10
12.1948217265
 20
9.5612257536
 30
0.0
 10
12.2006477372
 20
9.5821952538
 30
0.0
 10
12.2066675306
 20
9.6022670664
 30
0.0
 10
12.212866533
 20
9.6213930571
 30
0.0
 10
12.2192297304
 20
9.6395274103
 30
0.0
 10
12.2257417192
 20
9.6566268658
 30
0.0
 10
12.2323867572
 20
9.6726504604
 30
0.0
 10
12.2381073727
 20
9.6852645088
 30
0.0
 10
12.2427484652
 20
9.6947779412
 30
0.0
 10
12.2461982569
 20
9.7015092261
 30
0.0
 10
12.249669305
 20
9.7079441962
 30
0.0
 10
12.2531595138
 20
9.7140790423
 30
0.0
 10
12.256666815
 20
9.7199101041
 30
0.0
 10
12.2601891427
 20
9.7254338927
 30
0.0
 10
12.263724324
 20
9.730647154
 30
0.0
 10
12.2672703726
 20
9.7355467807
 30
0.0
 10
12.2708251992
 20
9.740129959
 30
0.0
 10
12.274386853
 20
9.7443940031
 30
0.0
 10
12.2779530389
 20
9.7483361524
 30
0.0
 10
12.2803861738
 20
9.7508029395
 30
0.0
 10
12.281603552
 20
9.7519788366
 30
0.0
  0
SPLINE
  5
347
100
AcDbEntity
  8
0
100
AcDbSpline
 62
7
  6
CONTINUOUS
 70
0
 71
3
 72
41
 73
37
 74
0
 42
0.0000001
 43
0.0000001
 44
0.0000000001
 40
0.0
 40
0.0
 40
0.0
 40
0.0
 40
0.0760183493
 40
0.1532628593
 40
0.2310384634
 40
0.3086428587
 40
0.3471625292
 40
0.3853774686
 40
0.4232018034
 40
0.4605508018
 40
0.4973411197
 40
0.5334910544
 40
0.5689208217
 40
0.6035528492
 40
0.6373120334
 40
0.6701260239
 40
0.7019255325
 40
0.7326447072
 40
0.7622214894
 40
0.790597998
 40
0.8177209969
 40
0.843542472
 40
0.8680203469
 40
0.8911192867
 40
0.9021432057
 40
0.9128128039
 40
0.9231260572
 40
0.933081766
 40
0.9426793485
 40
0.951919143
 40
0.9608023966
 40
0.9693314086
 40
0.9775100044
 40
0.9853432583
 40
0.992837388
 40
1.0
 40
1.0
 40
1.0
 40
1.0
 10
13.2008936515
 20
9.0030946098
 30
0.0
 10
13.2008936515
 20
9.0200670695
 30
0.0
 10
13.2013475125
 20
9.0542872052
 30
0.0
 10
13.2033279798
 20
9.1058376867
 30
0.0
 10
13.2065970253
 20
9.1576774348
 30
0.0
 10
13.2103779428
 20
9.200808384
 30
0.0
 10
13.2140273824
 20
9.2350742911
 30
0.0
 10
13.2170566207
 20
9.2604723375
 30
0.0
 10
13.2203772293
 20
9.2855702897
 30
0.0
 10
13.2239812221
 20
9.3103077687
 30
0.0
 10
13.2278598844
 20
9.3346252096
 30
0.0
 10
13.2320038531
 20
9.3584640755
 30
0.0
 10
13.2364031159
 20
9.3817669879
 30
0.0
 10
13.2410470271
 20
9.4044778766
 30
0.0
 10
13.2459243532
 20
9.4265421094
 30
0.0
 10
13.2510232944
 20
9.4479066193
 30
0.0
 10
13.2563315196
 20
9.468520041
 30
0.0
 10
13.2618361728
 20
9.4883328521
 30
0.0
 10
13.2675239172
 20
9.5072974957
 30
0.0
 10
13.2733809773
 20
9.5253685001
 30
0.0
 10
13.2793931727
 20
9.5425025684
 30
0.0
 10
13.2855459637
 20
9.558658813
 30
0.0
 10
13.291824462
 20
9.5737985372
 30
0.0
 10
13.2972295361
 20
9.5857167879
 30
0.0
 10
13.3016146117
 20
9.5947054656
 30
0.0
 10
13.3048741157
 20
9.6010654509
 30
0.0
 10
13.3081537065
 20
9.6071454649
 30
0.0
 10
13.3114513827
 20
9.6129419202
 30
0.0
 10
13.3147652389
 20
9.6184513325
 30
0.0
 10
13.3180932613
 20
9.6236704296
 30
0.0
 10
13.3214334362
 20
9.6285961224
 30
0.0
 10
13.3247838876
 20
9.6332254823
 30
0.0
 10
13.3281426341
 20
9.6375558672
 30
0.0
 10
13.3315078477
 20
9.6415847127
 30
0.0
 10
13.3348773196
 20
9.6453094134
 30
0.0
 10
13.3371762324
 20
9.6476401263
 30
0.0
 10
13.3383264511
 20
9.6487511523
 30
0.0
  0
SPLINE
  5
348
100
AcDbEntity
  8
0
100
AcDbSpline
 62
7
  6
CONTINUOUS
 70
0
 71
3
 72
41
 73
37
 74
0
 42
0.0000001
 43
0.0000001
 44
0.0000000001
 40
0.0
 40
0.0
 40
0.0
 40
0.0
 40
0.076018281
 40
0.1532628653
 40
0.2310384663
 40
0.308642858
 40
0.3471625254
 40
0.3853774685
 40
0.42320181
 40
0.4605508061
 40
0.497341114
 40
0.5334910449
 40
0.5689208246
 40
0.6035528634
 40
0.6373120393
 40
0.670126012
 40
0.7019255212
 40
0.7326447134
 40
0.7622215068
 40
0.7905980026
 40
0.817720983
 40
0.8435424642
 40
0.8680203545
 40
0.8911192989
 40
0.902143201
 40
0.9128128076
 40
0.9231260665
 40
0.9330817565
 40
0.9426793478
 40
0.951919138
 40
0.9608024128
 40
0.969331438
 40
0.9775099997
 40
0.9853432078
 40
0.9928373335
 40
1.0
 40
1.0
 40
1.0
 40
1.0
 10
13.1629265654
 20
8.9974212185
 30
0.0
 10
13.1629265654
 20
9.0153845214
 30
0.0
 10
13.1634069213
 20
9.0516024443
 30
0.0
 10
13.165503014
 20
9.1061624647
 30
0.0
 10
13.1689628979
 20
9.1610286555
 30
0.0
 10
13.1729645541
 20
9.2066776046
 30
0.0
 10
13.176827054
 20
9.2429439683
 30
0.0
 10
13.180033134
 20
9.2698247657
 30
0.0
 10
13.1835475962
 20
9.2963879494
 30
0.0
 10
13.1873619952
 20
9.3225696109
 30
0.0
 10
13.1914671019
 20
9.3483067092
 30
0.0
 10
13.1958529989
 20
9.3735372973
 30
0.0
 10
13.2005090849
 20
9.3982006496
 30
0.0
 10
13.2054241047
 20
9.4222374142
 30
0.0
 10
13.2105861756
 20
9.4455897615
 30
0.0
 10
13.2159828031
 20
9.4682015323
 30
0.0
 10
13.2216009231
 20
9.4900183745
 30
0.0
 10
13.2274269339
 20
9.5109878747
 30
0.0
 10
13.2334467273
 20
9.5310596872
 30
0.0
 10
13.2396457297
 20
9.550185678
 30
0.0
 10
13.2460089271
 20
9.5683200312
 30
0.0
 10
13.2525209158
 20
9.5854194866
 30
0.0
 10
13.2591659539
 20
9.6014430813
 30
0.0
 10
13.2648865694
 20
9.6140571297
 30
0.0
 10
13.2695276619
 20
9.6235705621
 30
0.0
 10
13.2729774535
 20
9.6303018469
 30
0.0
 10
13.2764485017
 20
9.6367368171
 30
0.0
 10
13.2799387105
 20
9.6428716631
 30
0.0
 10
13.2834460117
 20
9.6487027249
 30
0.0
 10
13.2869683394
 20
9.6542265136
 30
0.0
 10
13.2905035207
 20
9.6594397749
 30
0.0
 10
13.2940495693
 20
9.6643394016
 30
0.0
 10
13.2976043959
 20
9.6689225799
 30
0.0
 10
13.3011660496
 20
9.6731866239
 30
0.0
 10
13.3047322356
 20
9.6771287733
 30
0.0
 10
13.3071653705
 20
9.6795955604
 30
0.0
 10
13.3083827487
 20
9.6807714575
 30
0.0
  0
SPLINE
  5
349
100
AcDbEntity
  8
0
100
AcDbSpline
 62
7
  6
CONTINUOUS
 70
0
 71
3
 72
23
 73
19
 74
0
 42
0.0000001
 43
0.0000001
 44
0.0000000001
 40
0.0
 40
0.0
 40
0.0
 40
0.0
 40
0.075595957
 40
0.1466391305
 40
0.2134651345
 40
0.2765138419
 40
0.3363259052
 40
0.3935462661
 40
0.4489224105
 40
0.5032874244
 40
0.5575253055
 40
0.6125266122
 40
0.6691426489
 40
0.72814827
 40
0.7902188159
 40
0.8559231893
 40
0.9257261654
 40
1.0
 40
1.0
 40
1.0
 40
1.0
 10
13.728625249
 20
10.0257508635
 30
0.0
 10
13.7301010319
 20
10.0271763603
 30
0.0
 10
13.7330506598
 20
10.0298538907
 30
0.0
 10
13.737615493
 20
10.0334309289
 30
0.0
 10
13.7421749956
 20
10.0364351299
 30
0.0
 10
13.7467249339
 20
10.0388619795
 30
0.0
 10
13.7512615331
 20
10.0407070661
 30
0.0
 10
13.755780108
 20
10.0419659016
 30
0.0
 10
13.7602747496
 20
10.0426339928
 30
0.0
 10
13.7647379494
 20
10.0427082207
 30
0.0
 10
13.769161144
 20
10.0421874653
 30
0.0
 10
13.7735357474
 20
10.041073274
 30
0.0
 10
13.7778543534
 20
10.0393694423
 30
0.0
 10
13.7821111927
 20
10.0370808702
 30
0.0
 10
13.7863020226
 20
10.0342128903
 30
0.0
 10
13.7904233749
 20
10.030770374
 30
0.0
 10
13.7944720236
 20
10.0267585123
 30
0.0
 10
13.7970379466
 20
10.0238025336
 30
0.0
 10
13.7983099407
 20
10.0222385528
 30
0.0
  0
SPLINE
  5
34A
100
AcDbEntity
  8
0
100
AcDbSpline
 62
7
  6
CONTINUOUS
 70
0
 71
3
 72
18
 73
14
 74
0
 42
0.0000001
 43
0.0000001
 44
0.0000000001
 40
0.0
 40
0.0
 40
0.0
 40
0.0
 40
0.1504665368
 40
0.2917140793
 40
0.424442781
 40
0.4879100458
 40
0.5496093226
 40
0.6682623342
 40
0.7817883693
 40
0.8371380845
 40
0.8918079515
 40
0.946019356
 40
1.0
 40
1.0
 40
1.0
 40
1.0
 10
13.6986815466
 20
10.0577711687
 30
0.0
 10
13.7002703495
 20
10.0593058345
 30
0.0
 10
13.7034458365
 20
10.0621853307
 30
0.0
 10
13.7083627184
 20
10.0660226547
 30
0.0
 10
13.7125158994
 20
10.0687366028
 30
0.0
 10
13.715827668
 20
10.0705744173
 30
0.0
 10
13.7190420051
 20
10.0721522237
 30
0.0
 10
13.7230609563
 20
10.0737465308
 30
0.0
 10
13.7271513872
 20
10.074834557
 30
0.0
 10
13.7303911459
 20
10.0753704948
 30
0.0
 10
13.7327922449
 20
10.0756084006
 30
0.0
 10
13.7351836352
 20
10.0756852382
 30
0.0
 10
13.7367724144
 20
10.0756290272
 30
0.0
 10
13.7375629904
 20
10.0755742
 30
0.0
  0
SPLINE
  5
34B
100
AcDbEntity
  8
0
100
AcDbSpline
 62
7
  6
CONTINUOUS
 70
0
 71
3
 72
15
 73
11
 74
0
 42
0.0000001
 43
0.0000001
 44
0.0000000001
 40
0.0
 40
0.0
 40
0.0
 40
0.0
 40
0.1273482808
 40
0.2538605196
 40
0.3795878971
 40
0.5046050835
 40
0.6290174393
 40
0.7529533827
 40
0.8765605876
 40
1.0
 40
1.0
 40
1.0
 40
1.0
 10
9.0676063348
 20
9.609423951
 30
0.0
 10
9.0676063348
 20
9.6137510247
 30
0.0
 10
9.0680194772
 20
9.6223827472
 30
0.0
 10
9.069887884
 20
9.6351643208
 30
0.0
 10
9.072986014
 20
9.6476247459
 30
0.0
 10
9.0772858897
 20
9.6596474951
 30
0.0
 10
9.0827480403
 20
9.6711216999
 30
0.0
 10
9.0893226933
 20
9.6819414089
 30
0.0
 10
9.0969480455
 20
9.6920052292
 30
0.0
 10
9.1026895371
 20
9.6981528103
 30
0.0
 10
9.1057062631
 20
9.7010667694
 30
0.0
  0
SPLINE
  5
34C
100
AcDbEntity
  8
0
100
AcDbSpline
 62
7
  6
CONTINUOUS
 70
0
 71
3
 72
11
 73
7
 74
0
 42
0.0000001
 43
0.0000001
 44
0.0000000001
 40
0.0
 40
0.0
 40
0.0
 40
0.0
 40
0.2548327351
 40
0.5055483265
 40
0.7534772146
 40
1.0
 40
1.0
 40
1.0
 40
1.0
 10
13.5524879386
 20
7.5445717206
 30
0.0
 10
13.5512064094
 20
7.5442656682
 30
0.0
 10
13.5486414383
 20
7.5437485595
 30
0.0
 10
13.5447722711
 20
7.5432645321
 30
0.0
 10
13.5409202348
 20
7.5430800135
 30
0.0
 10
13.5383618456
 20
7.5431569722
 30
0.0
 10
13.5370902971
 20
7.543245157
 30
0.0
  0
SPLINE
  5
34D
100
AcDbEntity
  8
0
100
AcDbSpline
 62
7
  6
CONTINUOUS
 70
0
 71
3
 72
15
 73
11
 74
0
 42
0.0000001
 43
0.0000001
 44
0.0000000001
 40
0.0
 40
0.0
 40
0.0
 40
0.0
 40
0.1268801201
 40
0.2513434242
 40
0.3742939843
 40
0.4966866745
 40
0.6195024448
 40
0.7437153278
 40
0.8702556906
 40
1.0
 40
1.0
 40
1.0
 40
1.0
 10
10.1492653475
 20
7.4423579263
 30
0.0
 10
10.1486587723
 20
7.4421994007
 30
0.0
 10
10.1474424298
 20
7.4419384779
 30
0.0
 10
10.1456028634
 20
7.4417222937
 30
0.0
 10
10.1437728459
 20
7.4416875938
 30
0.0
 10
10.1419566169
 20
7.4418354845
 30
0.0
 10
10.1401583677
 20
7.4421666179
 30
0.0
 10
10.1383824991
 20
7.442681287
 30
0.0
 10
10.1366336589
 20
7.4433790568
 30
0.0
 10
10.1355049114
 20
7.4439577917
 30
0.0
 10
10.1349478846
 20
7.4442751738
 30
0.0
  0
SPLINE
  5
34E
100
AcDbEntity
  8
0
100
AcDbSpline
 62
7
  6
CONTINUOUS
 70
0
 71
3
 72
23
 73
19
 74
0
 42
0.0000001
 43
0.0000001
 44
0.0000000001
 40
0.0
 40
0.0
 40
0.0
 40
0.0
 40
0.0637767638
 40
0.1273450118
 40
0.1907019674
 40
0.2538561101
 40
0.3168132145
 40
0.3795820843
 40
0.4421733868
 40
0.5045993403
 40
0.5668738673
 40
0.6290123789
 40
0.6910316481
 40
0.752949645
 40
0.8147853545
 40
0.8765586015
 40
0.9382898522
 40
1.0
 40
1.0
 40
1.0
 40
1.0
 10
10.0504358964
 20
7.3659995109
 30
0.0
 10
10.0504358964
 20
7.3717852698
 30
0.0
 10
10.050712843
 20
7.3833398311
 30
0.0
 10
10.0519627519
 20
7.4006013684
 30
0.0
 10
10.0540439013
 20
7.4177260978
 30
0.0
 10
10.0569512777
 20
7.4346737658
 30
0.0
 10
10.0606784064
 20
7.4514056569
 30
0.0
 10
10.0652166561
 20
7.467883092
 30
0.0
 10
10.0705555859
 20
7.4840681095
 30
0.0
 10
10.0766829493
 20
7.4999233835
 30
0.0
 10
10.0835846768
 20
7.5154123302
 30
0.0
 10
10.0912448503
 20
7.5304992385
 30
0.0
 10
10.0996458206
 20
7.5451493109
 30
0.0
 10
10.108768257
 20
7.5593287517
 30
0.0
 10
10.1185911359
 20
7.5730047971
 30
0.0
 10
10.1290918952
 20
7.5861460236
 30
0.0
 10
10.1402458949
 20
7.5987217174
 30
0.0
 10
10.1481017458
 20
7.6067106027
 30
0.0
 10
10.1521283343
 20
7.6105999853
 30
0.0
  0
SPLINE
  5
34F
100
AcDbEntity
  8
0
100
AcDbSpline
 62
7
  6
CONTINUOUS
 70
0
 71
3
 72
28
 73
24
 74
0
 42
0.0000001
 43
0.0000001
 44
0.0000000001
 40
0.0
 40
0.0
 40
0.0
 40
0.0
 40
0.0256680186
 40
0.0515069084
 40
0.0775656757
 40
0.1038938302
 40
0.1305349094
 40
0.157528403
 40
0.1849089367
 40
0.212705953
 40
0.2409436723
 40
0.2696409869
 40
0.3284444776
 40
0.3891861703
 40
0.4518381864
 40
0.5163043093
 40
0.5824285554
 40
0.6500043519
 40
0.7187834318
 40
0.7884847872
 40
0.85880318
 40
0.92941735
 40
1.0
 40
1.0
 40
1.0
 40
1.0
 10
8.9783010435
 20
7.5124651559
 30
0.0
 10
8.9761687784
 20
7.5089536822
 30
0.0
 10
8.9721283253
 20
7.5017595893
 30
0.0
 10
8.966784192
 20
7.4905447228
 30
0.0
 10
8.9621525568
 20
7.4789031549
 30
0.0
 10
8.9582448559
 20
7.4668644356
 30
0.0
 10
8.9550703687
 20
7.4544577306
 30
0.0
 10
8.9526365758
 20
7.4417135623
 30
0.0
 10
8.950949118
 20
7.4286630313
 30
0.0
 10
8.9500118504
 20
7.4153380627
 30
0.0
 10
8.9498268729
 20
7.4017707203
 30
0.0
 10
8.9505894204
 20
7.3832547482
 30
0.0
 10
8.9534666404
 20
7.3596571964
 30
0.0
 10
8.9598573655
 20
7.3311610065
 30
0.0
 10
8.9691480775
 20
7.3025221085
 30
0.0
 10
8.9812462672
 20
7.2740174802
 30
0.0
 10
8.9960331543
 20
7.2459196476
 30
0.0
 10
9.0133649674
 20
7.2184985818
 30
0.0
 10
9.0330736244
 20
7.1920176602
 30
0.0
 10
9.0549684616
 20
7.1667318959
 30
0.0
 10
9.0788382567
 20
7.1428844591
 30
0.0
 10
9.1044507666
 20
7.1207065609
 30
0.0
 10
9.1225595305
 20
7.1071496717
 30
0.0
 10
9.1318393137
 20
7.1007074644
 30
0.0
  0
SPLINE
  5
350
100
AcDbEntity
  8
0
100
AcDbSpline
 62
7
  6
CONTINUOUS
 70
0
 71
3
 72
28
 73
24
 74
0
 42
0.0000001
 43
0.0000001
 44
0.0000000001
 40
0.0
 40
0.0
 40
0.0
 40
0.0
 40
0.0317499301
 40
0.063495365
 40
0.0952177674
 40
0.1269053897
 40
0.1585446862
 40
0.1901262959
 40
0.2216453898
 40
0.2531011061
 40
0.2844952709
 40
0.3158325713
 40
0.3783412087
 40
0.4407073488
 40
0.5029735498
 40
0.5651718014
 40
0.6273255724
 40
0.6894516335
 40
0.751562173
 40
0.8136661004
 40
0.8757700209
 40
0.9378806165
 40
1.0
 40
1.0
 40
1.0
 40
1.0
 10
10.5893636579
 20
7.4842293477
 30
0.0
 10
10.5890501973
 20
7.4853986349
 30
0.0
 10
10.5883526816
 20
7.4877189278
 30
0.0
 10
10.5870777405
 20
7.4911212013
 30
0.0
 10
10.5855623259
 20
7.4944213826
 30
0.0
 10
10.5838027305
 20
7.4975937601
 30
0.0
 10
10.5818035092
 20
7.5006145616
 30
0.0
 10
10.5795778707
 20
7.5034643811
 30
0.0
 10
10.5771456008
 20
7.5061302102
 30
0.0
 10
10.5745303263
 20
7.5086058226
 30
0.0
 10
10.5717568561
 20
7.5108914046
 30
0.0
 10
10.5678842427
 20
7.5136897559
 30
0.0
 10
10.5627606264
 20
7.516751309
 30
0.0
 10
10.5563060002
 20
7.5198124908
 30
0.0
 10
10.5496448654
 20
7.5223542466
 30
0.0
 10
10.5428433955
 20
7.5244583007
 30
0.0
 10
10.5359450487
 20
7.5261924424
 30
0.0
 10
10.5289792108
 20
7.5276111001
 30
0.0
 10
10.5219659168
 20
7.5287577142
 30
0.0
 10
10.5149191354
 20
7.5296669456
 30
0.0
 10
10.5078487071
 20
7.5303665642
 30
0.0
 10
10.5007618512
 20
7.5308786527
 30
0.0
 10
10.4960301799
 20
7.5311068804
 30
0.0
 10
10.4936633113
 20
7.5311951307
 30
0.0
  0
SPLINE
  5
351
100
AcDbEntity
  8
0
100
AcDbSpline
 62
7
  6
CONTINUOUS
 70
0
 71
3
 72
45
 73
41
 74
0
 42
0.0000001
 43
0.0000001
 44
0.0000000001
 40
0.0
 40
0.0
 40
0.0
 40
0.0
 40
0.1118587111
 40
0.1402287451
 40
0.1687672232
 40
0.197480484
 40
0.2263767215
 40
0.2554629905
 40
0.2847485239
 40
0.3142413725
 40
0.343952124
 40
0.4040497413
 40
0.4344829487
 40
0.4651851585
 40
0.4961733415
 40
0.5274664854
 40
0.5590848826
 40
0.5910487458
 40
0.623375547
 40
0.6560767848
 40
0.6725727443
 40
0.6891620428
 40
0.7058430887
 40
0.7226132941
 40
0.739469645
 40
0.7564084803
 40
0.7734257186
 40
0.7905170682
 40
0.8076781738
 40
0.8249047761
 40
0.8421928511
 40
0.8595387045
 40
0.8769390171
 40
0.8943908267
 40
0.9118914515
 40
0.9294382289
 40
0.9470283221
 40
0.9646570955
 40
0.9823183731
 40
1.0
 40
1.0
 40
1.0
 40
1.0
 10
10.7681346975
 20
7.2465112629
 30
0.0
 10
10.7556114405
 20
7.2482810309
 30
0.0
 10
10.740020938
 20
7.2514980354
 30
0.0
 10
10.7217251412
 20
7.2569227747
 30
0.0
 10
10.7125438165
 20
7.2600009992
 30
0.0
 10
10.7034257223
 20
7.2634334174
 30
0.0
 10
10.6943865617
 20
7.2672323553
 30
0.0
 10
10.6854457459
 20
7.2714130027
 30
0.0
 10
10.6766249975
 20
7.2759901362
 30
0.0
 10
10.667949777
 20
7.2809822054
 30
0.0
 10
10.6565762616
 20
7.2882408758
 30
0.0
 10
10.6456591961
 20
7.2963932706
 30
0.0
 10
10.6353909206
 20
7.3054836127
 30
0.0
 10
10.6280149448
 20
7.3128483692
 30
0.0
 10
10.62106595
 20
7.3207483701
 30
0.0
 10
10.6146211584
 20
7.3291973344
 30
0.0
 10
10.6087672106
 20
7.3381995325
 30
0.0
 10
10.6035958678
 20
7.347745404
 30
0.0
 10
10.5991966161
 20
7.3578054528
 30
0.0
 10
10.5962444881
 20
7.3665510442
 30
0.0
 10
10.5943246358
 20
7.3737392898
 30
0.0
 10
10.5931035702
 20
7.3792339745
 30
0.0
 10
10.5921042497
 20
7.3848045727
 30
0.0
 10
10.5913214578
 20
7.390440075
 30
0.0
 10
10.5907461304
 20
7.3961296406
 30
0.0
 10
10.5903658338
 20
7.4018633676
 30
0.0
 10
10.5901644945
 20
7.4076325472
 30
0.0
 10
10.5901226209
 20
7.4134300136
 30
0.0
 10
10.590217421
 20
7.4192503336
 30
0.0
 10
10.5904228399
 20
7.425089879
 30
0.0
 10
10.5907094418
 20
7.4309467722
 30
0.0
 10
10.5910440795
 20
7.4368206952
 30
0.0
 10
10.5913892796
 20
7.4427125292
 30
0.0
 10
10.5917022926
 20
7.4486237704
 30
0.0
 10
10.5919337315
 20
7.4545555804
 30
0.0
 10
10.5920258606
 20
7.4605073205
 30
0.0
 10
10.5919105211
 20
7.4664739511
 30
0.0
 10
10.5915074554
 20
7.4724425873
 30
0.0
 10
10.5907243289
 20
7.4783852957
 30
0.0
 10
10.5898813303
 20
7.4822982984
 30
0.0
 10
10.5893636579
 20
7.4842293477
 30
0.0
  0
SPLINE
  5
352
100
AcDbEntity
  8
0
100
AcDbSpline
 62
7
  6
CONTINUOUS
 70
0
 71
3
 72
41
 73
37
 74
0
 42
0.0000001
 43
0.0000001
 44
0.0000000001
 40
0.0
 40
0.0
 40
0.0
 40
0.0
 40
0.029942123
 40
0.0449237706
 40
0.0599145177
 40
0.0899291716
 40
0.1200145961
 40
0.1350933574
 40
0.1501974726
 40
0.1804849654
 40
0.2108989488
 40
0.2414525624
 40
0.2721557217
 40
0.3030149378
 40
0.3340332219
 40
0.3652100719
 40
0.3965415365
 40
0.4280203507
 40
0.4596361361
 40
0.4913756582
 40
0.5232231336
 40
0.5551605782
 40
0.5871681905
 40
0.6192247616
 40
0.6513081064
 40
0.6833955071
 40
0.7154641657
 40
0.7474916563
 40
0.7794563734
 40
0.811337967
 40
0.843117763
 40
0.8747791516
 40
0.9063079641
 40
0.9376927517
 40
0.9689251728
 40
1.0
 40
1.0
 40
1.0
 40
1.0
 10
8.0526729491
 20
9.4773608755
 30
0.0
 10
8.0491725317
 20
9.4739797087
 30
0.0
 10
8.0437156204
 20
9.4691127829
 30
0.0
 10
8.0360733002
 20
9.463074001
 30
0.0
 10
8.0281875915
 20
9.4573357311
 30
0.0
 10
8.0178980429
 20
9.4507463045
 30
0.0
 10
8.0071081814
 20
9.4449824691
 30
0.0
 10
7.9982093512
 20
9.4408820245
 30
0.0
 10
7.9891266695
 20
9.4371201195
 30
0.0
 10
7.9774740111
 20
9.4330749516
 30
0.0
 10
7.9631138534
 20
9.4293049422
 30
0.0
 10
7.9484403443
 20
9.426634138
 30
0.0
 10
7.9335348002
 20
9.4250772806
 30
0.0
 10
7.9184791019
 20
9.4246426768
 30
0.0
 10
7.9033560908
 20
9.4253325392
 30
0.0
 10
7.8882488871
 20
9.4271428825
 30
0.0
 10
7.8732404992
 20
9.430063582
 30
0.0
 10
7.8584133558
 20
9.4340784279
 30
0.0
 10
7.843848864
 20
9.4391652224
 30
0.0
 10
7.8296269675
 20
9.445295904
 30
0.0
 10
7.8158257142
 20
9.4524367042
 30
0.0
 10
7.8025208336
 20
9.460548334
 30
0.0
 10
7.7897853274
 20
9.4695861984
 30
0.0
 10
7.7776890734
 20
9.4795006411
 30
0.0
 10
7.7662984468
 20
9.4902372147
 30
0.0
 10
7.7556759605
 20
9.5017369768
 30
0.0
 10
7.7458799248
 20
9.5139368109
 30
0.0
 10
7.7369641312
 20
9.5267697694
 30
0.0
 10
7.7289775596
 20
9.5401654359
 30
0.0
 10
7.7219641108
 20
9.55405031
 30
0.0
 10
7.7159623684
 20
9.568348196
 30
0.0
 10
7.7110053832
 20
9.5829806512
 30
0.0
 10
7.707120501
 20
9.5978672784
 30
0.0
 10
7.7043291905
 20
9.6129266501
 30
0.0
 10
7.7026469546
 20
9.6280749509
 30
0.0
 10
7.7022701611
 20
9.6382061585
 30
0.0
 10
7.7022701611
 20
9.6432570118
 30
0.0
  0
SPLINE
  5
353
100
AcDbEntity
  8
0
100
AcDbSpline
 62
7
  6
CONTINUOUS
 70
0
 71
3
 72
19
 73
15
 74
0
 42
0.0000001
 43
0.0000001
 44
0.0000000001
 40
0.0
 40
0.0
 40
0.0
 40
0.0
 40
0.0612409419
 40
0.1227272158
 40
0.1844374948
 40
0.2463678371
 40
0.3707869372
 40
0.4958939041
 40
0.5586754977
 40
0.6215672466
 40
0.6845480657
 40
0.7475961139
 40
0.8737808249
 40
1.0
 40
1.0
 40
1.0
 40
1.0
 10
11.256877408
 20
7.3608983748
 30
0.0
 10
11.25887266
 20
7.3607600036
 30
0.0
 10
11.2628641591
 20
7.3603685869
 30
0.0
 10
11.2688191961
 20
7.3594436616
 30
0.0
 10
11.2747357471
 20
7.3581835975
 30
0.0
 10
11.2825578999
 20
7.3560622785
 30
0.0
 10
11.2921457189
 20
7.3526039066
 30
0.0
 10
11.3013430461
 20
7.3481513889
 30
0.0
 10
11.3084277459
 20
7.3440367062
 30
0.0
 10
11.3135989225
 20
7.3406825359
 30
0.0
 10
11.3186093547
 20
7.3370780212
 30
0.0
 10
11.3250634217
 20
7.3319559886
 30
0.0
 10
11.3326813317
 20
7.3249983402
 30
0.0
 10
11.3382598662
 20
7.318913533
 30
0.0
 10
11.3409136274
 20
7.3157592318
 30
0.0
  0
SPLINE
  5
354
100
AcDbEntity
  8
0
100
AcDbSpline
 62
7
  6
CONTINUOUS
 70
0
 71
3
 72
15
 73
11
 74
0
 42
0.0000001
 43
0.0000001
 44
0.0000000001
 40
0.0
 40
0.0
 40
0.0
 40
0.0
 40
0.1273482789
 40
0.2538606571
 40
0.3795878378
 40
0.5046051156
 40
0.629017439
 40
0.7529533823
 40
0.8765605864
 40
1.0
 40
1.0
 40
1.0
 40
1.0
 10
11.5659738103
 20
9.3753082536
 30
0.0
 10
11.5659738103
 20
9.3818065787
 30
0.0
 10
11.566594271
 20
9.3947695578
 30
0.0
 10
11.5694002025
 20
9.4139647039
 30
0.0
 10
11.574052924
 20
9.4326775576
 30
0.0
 10
11.5805104068
 20
9.4507331089
 30
0.0
 10
11.5887134265
 20
9.4679648505
 30
0.0
 10
11.5985871516
 20
9.484213685
 30
0.0
 10
11.6100387739
 20
9.4993273595
 30
0.0
 10
11.6186612737
 20
9.5085596673
 30
0.0
 10
11.6231917452
 20
9.5129357968
 30
0.0
  0
SPLINE
  5
355
100
AcDbEntity
  8
0
100
AcDbSpline
 62
7
  6
CONTINUOUS
 70
0
 71
3
 72
41
 73
37
 74
0
 42
0.0000001
 43
0.0000001
 44
0.0000000001
 40
0.0
 40
0.0
 40
0.0
 40
0.0
 40
0.029942123
 40
0.0449237706
 40
0.0599145177
 40
0.0899291716
 40
0.1200145961
 40
0.1350933574
 40
0.1501974726
 40
0.1804849654
 40
0.2108989488
 40
0.2414525624
 40
0.2721557217
 40
0.3030149378
 40
0.3340332219
 40
0.3652100719
 40
0.3965415365
 40
0.4280203507
 40
0.4596361361
 40
0.4913756582
 40
0.5232231336
 40
0.5551605782
 40
0.5871681905
 40
0.6192247616
 40
0.6513081064
 40
0.6833955071
 40
0.7154641657
 40
0.7474916563
 40
0.7794563734
 40
0.811337967
 40
0.843117763
 40
0.8747791516
 40
0.9063079641
 40
0.9376927517
 40
0.9689251728
 40
1.0
 40
1.0
 40
1.0
 40
1.0
 10
8.0526729491
 20
6.8191327538
 30
0.0
 10
8.0491725317
 20
6.815751587
 30
0.0
 10
8.0437156204
 20
6.8108846611
 30
0.0
 10
8.0360733002
 20
6.8048458792
 30
0.0
 10
8.0281875915
 20
6.7991076093
 30
0.0
 10
8.0178980429
 20
6.7925181827
 30
0.0
 10
8.0071081814
 20
6.7867543474
 30
0.0
 10
7.9982093512
 20
6.7826539028
 30
0.0
 10
7.9891266695
 20
6.7788919978
 30
0.0
 10
7.9774740111
 20
6.7748468299
 30
0.0
 10
7.9631138534
 20
6.7710768204
 30
0.0
 10
7.9484403443
 20
6.7684060163
 30
0.0
 10
7.9335348002
 20
6.7668491589
 30
0.0
 10
7.9184791019
 20
6.7664145551
 30
0.0
 10
7.9033560908
 20
6.7671044174
 30
0.0
 10
7.8882488871
 20
6.7689147608
 30
0.0
 10
7.8732404992
 20
6.7718354603
 30
0.0
 10
7.8584133558
 20
6.7758503062
 30
0.0
 10
7.843848864
 20
6.7809371006
 30
0.0
 10
7.8296269675
 20
6.7870677822
 30
0.0
 10
7.8158257142
 20
6.7942085825
 30
0.0
 10
7.8025208336
 20
6.8023202122
 30
0.0
 10
7.7897853274
 20
6.8113580767
 30
0.0
 10
7.7776890734
 20
6.8212725194
 30
0.0
 10
7.7662984468
 20
6.8320090929
 30
0.0
 10
7.7556759605
 20
6.843508855
 30
0.0
 10
7.7458799248
 20
6.8557086892
 30
0.0
 10
7.7369641312
 20
6.8685416477
 30
0.0
 10
7.7289775596
 20
6.8819373142
 30
0.0
 10
7.7219641108
 20
6.8958221882
 30
0.0
 10
7.7159623684
 20
6.9101200743
 30
0.0
 10
7.7110053832
 20
6.9247525295
 30
0.0
 10
7.707120501
 20
6.9396391567
 30
0.0
 10
7.7043291905
 20
6.9546985284
 30
0.0
 10
7.7026469546
 20
6.9698468291
 30
0.0
 10
7.7022701611
 20
6.9799780367
 30
0.0
 10
7.7022701611
 20
6.9850288901
 30
0.0
  0
SPLINE
  5
356
100
AcDbEntity
  8
0
100
AcDbSpline
 62
7
  6
CONTINUOUS
 70
0
 71
3
 72
40
 73
36
 74
0
 42
0.0000001
 43
0.0000001
 44
0.0000000001
 40
0.0
 40
0.0
 40
0.0
 40
0.0
 40
0.0310542564
 40
0.0466357015
 40
0.0622507635
 40
0.0935759942
 40
0.1250261198
 40
0.1565913249
 40
0.188259792
 40
0.2200180354
 40
0.2518510981
 40
0.2837428152
 40
0.3156760786
 40
0.3476331152
 40
0.379595773
 40
0.4115458101
 40
0.4434651859
 40
0.4753363494
 40
0.5071425224
 40
0.5388679734
 40
0.5704982802
 40
0.6020205757
 40
0.6334237754
 40
0.6646987806
 40
0.6958386551
 40
0.726838771
 40
0.7576969188
 40
0.7884133789
 40
0.8189909516
 40
0.8494349405
 40
0.8797530902
 40
0.909955474
 40
0.9400543337
 40
0.9700638721
 40
1.0
 40
1.0
 40
1.0
 40
1.0
 10
10.1492653475
 20
7.4423579263
 30
0.0
 10
10.1496783414
 20
7.4343007332
 30
0.0
 10
10.1506991248
 20
7.4222165394
 30
0.0
 10
10.1528481112
 20
7.4061854247
 30
0.0
 10
10.1555291694
 20
7.3901626953
 30
0.0
 10
10.1598664135
 20
7.3702486886
 30
0.0
 10
10.1666142342
 20
7.3466695678
 30
0.0
 10
10.1748811958
 20
7.3234841776
 30
0.0
 10
10.1846306612
 20
7.3007952897
 30
0.0
 10
10.195819577
 20
7.2787027012
 30
0.0
 10
10.2083985472
 20
7.2573037839
 30
0.0
 10
10.2223120758
 20
7.2366927935
 30
0.0
 10
10.2374988058
 20
7.2169605311
 30
0.0
 10
10.2538917886
 20
7.198193927
 30
0.0
 10
10.2714187772
 20
7.1804756663
 30
0.0
 10
10.2900025418
 20
7.1638838268
 30
0.0
 10
10.3095612074
 20
7.1484915377
 30
0.0
 10
10.3300086117
 20
7.1343666595
 30
0.0
 10
10.3512546808
 20
7.1215714873
 30
0.0
 10
10.3732058226
 20
7.1101624774
 30
0.0
 10
10.3957653342
 20
7.1001899996
 30
0.0
 10
10.4188338242
 20
7.0916981153
 30
0.0
 10
10.442309645
 20
7.084724383
 30
0.0
 10
10.466089336
 20
7.0792996909
 30
0.0
 10
10.4900680741
 20
7.0754481185
 30
0.0
 10
10.514140131
 20
7.0731868263
 30
0.0
 10
10.5381993344
 20
7.0725259753
 30
0.0
 10
10.5621395318
 20
7.0734686757
 30
0.0
 10
10.5858550582
 20
7.0760109679
 30
0.0
 10
10.6092411902
 20
7.0801418244
 30
0.0
 10
10.6321946493
 20
7.0858432153
 30
0.0
 10
10.6546139066
 20
7.093090083
 30
0.0
 10
10.6764002035
 20
7.1018507984
 30
0.0
 10
10.6974558872
 20
7.112085976
 30
0.0
 10
10.710961019
 20
7.1198723821
 30
0.0
 10
10.7175567866
 20
7.1239933066
 30
0.0
  0
SPLINE
  5
357
100
AcDbEntity
  8
0
100
AcDbSpline
 62
7
  6
CONTINUOUS
 70
0
 71
3
 72
41
 73
37
 74
0
 42
0.0000001
 43
0.0000001
 44
0.0000000001
 40
0.0
 40
0.0
 40
0.0
 40
0.0
 40
0.0071626665
 40
0.0146567922
 40
0.0224900003
 40
0.030668562
 40
0.0391975872
 40
0.048080862
 40
0.0573206522
 40
0.0669182435
 40
0.0768739335
 40
0.0871871924
 40
0.097856799
 40
0.1088807011
 40
0.1319796455
 40
0.1564575358
 40
0.182279017
 40
0.2094019974
 40
0.2377784932
 40
0.2673552866
 40
0.2980744788
 40
0.329873988
 40
0.3626879607
 40
0.3964471366
 40
0.4310791754
 40
0.4665089551
 40
0.502658886
 40
0.5394491939
 40
0.57679819
 40
0.6146225315
 40
0.6528374746
 40
0.691357142
 40
0.7689615337
 40
0.8467371347
 40
0.923981719
 40
1.0
 40
1.0
 40
1.0
 40
1.0
 10
7.5727148523
 20
10.0785413771
 30
0.0
 10
7.5714974742
 20
10.07736548
 30
0.0
 10
7.5690643393
 20
10.0748986929
 30
0.0
 10
7.5654981533
 20
10.0709565435
 30
0.0
 10
7.5619364996
 20
10.0666924995
 30
0.0
 10
7.558381673
 20
10.0621093212
 30
0.0
 10
7.5548356243
 20
10.0572096945
 30
0.0
 10
7.551300443
 20
10.0519964332
 30
0.0
 10
7.5477781153
 20
10.0464726445
 30
0.0
 10
7.5442708141
 20
10.0406415828
 30
0.0
 10
7.5407806053
 20
10.0345067367
 30
0.0
 10
7.5373095572
 20
10.0280717665
 30
0.0
 10
7.5338597656
 20
10.0213404817
 30
0.0
 10
7.529218673
 20
10.0118270493
 30
0.0
 10
7.5234980575
 20
9.9992130009
 30
0.0
 10
7.5168530195
 20
9.9831894062
 30
0.0
 10
7.5103410307
 20
9.9660899508
 30
0.0
 10
7.5039778333
 20
9.9479555976
 30
0.0
 10
7.4977788309
 20
9.9288296068
 30
0.0
 10
7.4917590376
 20
9.9087577943
 30
0.0
 10
7.4859330268
 20
9.8877882941
 30
0.0
 10
7.4803149067
 20
9.8659714519
 30
0.0
 10
7.4749182793
 20
9.8433596811
 30
0.0
 10
7.4697562083
 20
9.8200073338
 30
0.0
 10
7.4648411886
 20
9.7959705692
 30
0.0
 10
7.4601851026
 20
9.7713072169
 30
0.0
 10
7.4557992056
 20
9.7460766288
 30
0.0
 10
7.4516940988
 20
9.7203395305
 30
0.0
 10
7.4478796998
 20
9.694157869
 30
0.0
 10
7.4443652377
 20
9.6675946853
 30
0.0
 10
7.4411591577
 20
9.640713888
 30
0.0
 10
7.4372966577
 20
9.6044475242
 30
0.0
 10
7.4332950016
 20
9.5587985751
 30
0.0
 10
7.4298351177
 20
9.5039323844
 30
0.0
 10
7.427739025
 20
9.4493723639
 30
0.0
 10
7.427258669
 20
9.413154441
 30
0.0
 10
7.427258669
 20
9.3951911382
 30
0.0
  0
SPLINE
  5
358
100
AcDbEntity
  8
0
100
AcDbSpline
 62
7
  6
CONTINUOUS
 70
0
 71
3
 72
41
 73
37
 74
0
 42
0.0000001
 43
0.0000001
 44
0.0000000001
 40
0.0
 40
0.0
 40
0.0
 40
0.0
 40
0.029942123
 40
0.0449237706
 40
0.0599145177
 40
0.0899291716
 40
0.1200145961
 40
0.1350933574
 40
0.1501974726
 40
0.1804849654
 40
0.2108989488
 40
0.2414525624
 40
0.2721557217
 40
0.3030149378
 40
0.3340332219
 40
0.3652100719
 40
0.3965415365
 40
0.4280203507
 40
0.4596361361
 40
0.4913756582
 40
0.5232231336
 40
0.5551605782
 40
0.5871681905
 40
0.6192247616
 40
0.6513081064
 40
0.6833955071
 40
0.7154641657
 40
0.7474916563
 40
0.7794563734
 40
0.811337967
 40
0.843117763
 40
0.8747791516
 40
0.9063079641
 40
0.9376927517
 40
0.9689251728
 40
1.0
 40
1.0
 40
1.0
 40
1.0
 10
11.9163765983
 20
6.5511839956
 30
0.0
 10
11.9128761809
 20
6.5478028289
 30
0.0
 10
11.9074192696
 20
6.542935903
 30
0.0
 10
11.8997769494
 20
6.5368971211
 30
0.0
 10
11.8918912408
 20
6.5311588512
 30
0.0
 10
11.8816016922
 20
6.5245694246
 30
0.0
 10
11.8708118307
 20
6.5188055892
 30
0.0
 10
11.8619130004
 20
6.5147051446
 30
0.0
 10
11.8528303188
 20
6.5109432396
 30
0.0
 10
11.8411776604
 20
6.5068980717
 30
0.0
 10
11.8268175026
 20
6.5031280623
 30
0.0
 10
11.8121439935
 20
6.5004572581
 30
0.0
 10
11.7972384494
 20
6.4989004007
 30
0.0
 10
11.7821827511
 20
6.4984657969
 30
0.0
 10
11.76705974
 20
6.4991556593
 30
0.0
 10
11.7519525363
 20
6.5009660027
 30
0.0
 10
11.7369441484
 20
6.5038867021
 30
0.0
 10
11.722117005
 20
6.507901548
 30
0.0
 10
11.7075525133
 20
6.5129883425
 30
0.0
 10
11.6933306168
 20
6.5191190241
 30
0.0
 10
11.6795293634
 20
6.5262598244
 30
0.0
 10
11.6662244829
 20
6.5343714541
 30
0.0
 10
11.6534889767
 20
6.5434093185
 30
0.0
 10
11.6413927226
 20
6.5533237613
 30
0.0
 10
11.6300020961
 20
6.5640603348
 30
0.0
 10
11.6193796097
 20
6.5755600969
 30
0.0
 10
11.609583574
 20
6.5877599311
 30
0.0
 10
11.6006677804
 20
6.6005928895
 30
0.0
 10
11.5926812088
 20
6.613988556
 30
0.0
 10
11.58566776
 20
6.6278734301
 30
0.0
 10
11.5796660177
 20
6.6421713161
 30
0.0
 10
11.5747090324
 20
6.6568037713
 30
0.0
 10
11.5708241502
 20
6.6716903986
 30
0.0
 10
11.5680328398
 20
6.6867497702
 30
0.0
 10
11.5663506038
 20
6.701898071
 30
0.0
 10
11.5659738103
 20
6.7120292786
 30
0.0
 10
11.5659738103
 20
6.7170801319
 30
0.0
  0
SPLINE
  5
359
100
AcDbEntity
  8
0
100
AcDbSpline
 62
7
  6
CONTINUOUS
 70
0
 71
3
 72
41
 73
37
 74
0
 42
0.0000001
 43
0.0000001
 44
0.0000000001
 40
0.0
 40
0.0
 40
0.0
 40
0.0
 40
0.029942123
 40
0.0449237706
 40
0.0599145177
 40
0.0899291716
 40
0.1200145961
 40
0.1350933574
 40
0.1501974726
 40
0.1804849654
 40
0.2108989488
 40
0.2414525624
 40
0.2721557217
 40
0.3030149378
 40
0.3340332219
 40
0.3652100719
 40
0.3965415365
 40
0.4280203507
 40
0.4596361361
 40
0.4913756582
 40
0.5232231336
 40
0.5551605782
 40
0.5871681905
 40
0.6192247616
 40
0.6513081064
 40
0.6833955071
 40
0.7154641657
 40
0.7474916563
 40
0.7794563734
 40
0.811337967
 40
0.843117763
 40
0.8747791516
 40
0.9063079641
 40
0.9376927517
 40
0.9689251728
 40
1.0
 40
1.0
 40
1.0
 40
1.0
 10
11.9163765983
 20
9.2094121173
 30
0.0
 10
11.9128761809
 20
9.2060309506
 30
0.0
 10
11.9074192696
 20
9.2011640247
 30
0.0
 10
11.8997769494
 20
9.1951252428
 30
0.0
 10
11.8918912408
 20
9.1893869729
 30
0.0
 10
11.8816016922
 20
9.1827975463
 30
0.0
 10
11.8708118307
 20
9.1770337109
 30
0.0
 10
11.8619130004
 20
9.1729332663
 30
0.0
 10
11.8528303188
 20
9.1691713614
 30
0.0
 10
11.8411776604
 20
9.1651261934
 30
0.0
 10
11.8268175026
 20
9.161356184
 30
0.0
 10
11.8121439935
 20
9.1586853799
 30
0.0
 10
11.7972384494
 20
9.1571285225
 30
0.0
 10
11.7821827511
 20
9.1566939187
 30
0.0
 10
11.76705974
 20
9.157383781
 30
0.0
 10
11.7519525363
 20
9.1591941244
 30
0.0
 10
11.7369441484
 20
9.1621148238
 30
0.0
 10
11.722117005
 20
9.1661296698
 30
0.0
 10
11.7075525133
 20
9.1712164642
 30
0.0
 10
11.6933306168
 20
9.1773471458
 30
0.0
 10
11.6795293634
 20
9.1844879461
 30
0.0
 10
11.6662244829
 20
9.1925995758
 30
0.0
 10
11.6534889767
 20
9.2016374403
 30
0.0
 10
11.6413927226
 20
9.211551883
 30
0.0
 10
11.6300020961
 20
9.2222884565
 30
0.0
 10
11.6193796097
 20
9.2337882186
 30
0.0
 10
11.609583574
 20
9.2459880528
 30
0.0
 10
11.6006677804
 20
9.2588210113
 30
0.0
 10
11.5926812088
 20
9.2722166778
 30
0.0
 10
11.58566776
 20
9.2861015518
 30
0.0
 10
11.5796660177
 20
9.3003994378
 30
0.0
 10
11.5747090324
 20
9.3150318931
 30
0.0
 10
11.5708241502
 20
9.3299185203
 30
0.0
 10
11.5680328398
 20
9.3449778919
 30
0.0
 10
11.5663506038
 20
9.3601261927
 30
0.0
 10
11.5659738103
 20
9.3702574003
 30
0.0
 10
11.5659738103
 20
9.3753082536
 30
0.0
  0
SPLINE
  5
35A
100
AcDbEntity
  8
0
100
AcDbSpline
 62
7
  6
CONTINUOUS
 70
0
 71
3
 72
41
 73
37
 74
0
 42
0.0000001
 43
0.0000001
 44
0.0000000001
 40
0.0
 40
0.0
 40
0.0
 40
0.0
 40
0.0299421244
 40
0.0449237733
 40
0.05991452
 40
0.0899291767
 40
0.1200146037
 40
0.1350933625
 40
0.1501974807
 40
0.1804849728
 40
0.2108989538
 40
0.2414525638
 40
0.2721557191
 40
0.3030149318
 40
0.3340332139
 40
0.3652100638
 40
0.39654153
 40
0.4280203461
 40
0.4596361322
 40
0.4913756535
 40
0.5232231268
 40
0.5551605686
 40
0.5871681787
 40
0.6192247492
 40
0.6513080952
 40
0.683395499
 40
0.715464161
 40
0.7474916539
 40
0.7794563719
 40
0.811337962
 40
0.8431177653
 40
0.8747791215
 40
0.9063080259
 40
0.9376925771
 40
0.9689254639
 40
1.0
 40
1.0
 40
1.0
 40
1.0
 10
9.3009315799
 20
9.4989577329
 30
0.0
 10
9.2986007337
 20
9.4967062886
 30
0.0
 10
9.2949671192
 20
9.4934654915
 30
0.0
 10
9.2898782622
 20
9.4894444166
 30
0.0
 10
9.2846273745
 20
9.4856233971
 30
0.0
 10
9.2777757965
 20
9.4812356484
 30
0.0
 10
9.2705910838
 20
9.4773976213
 30
0.0
 10
9.264665551
 20
9.4746672374
 30
0.0
 10
9.2586176092
 20
9.4721622491
 30
0.0
 10
9.2508583688
 20
9.4694686637
 30
0.0
 10
9.2412962713
 20
9.4669582874
 30
0.0
 10
9.2315255189
 20
9.4651798476
 30
0.0
 10
9.2216002594
 20
9.4641431563
 30
0.0
 10
9.2115750142
 20
9.4638537466
 30
0.0
 10
9.2015049452
 20
9.4643130929
 30
0.0
 10
9.1914454004
 20
9.4655185438
 30
0.0
 10
9.1814516541
 20
9.4674633605
 30
0.0
 10
9.1715785948
 20
9.4701367496
 30
0.0
 10
9.1618804299
 20
9.4735239265
 30
0.0
 10
9.1524103914
 20
9.4776062038
 30
0.0
 10
9.143220449
 20
9.4823610947
 30
0.0
 10
9.1343610285
 20
9.487762437
 30
0.0
 10
9.1258807396
 20
9.4937805366
 30
0.0
 10
9.1178261124
 20
9.5003823293
 30
0.0
 10
9.1102413455
 20
9.5075315612
 30
0.0
 10
9.1031680663
 20
9.5151889854
 30
0.0
 10
9.0966451057
 20
9.5233125757
 30
0.0
 10
9.0907082813
 20
9.5318577513
 30
0.0
 10
9.085390207
 20
9.5407776216
 30
0.0
 10
9.0807201096
 20
9.550023243
 30
0.0
 10
9.0767236912
 20
9.5595438781
 30
0.0
 10
9.0734229306
 20
9.5692872993
 30
0.0
 10
9.0708360981
 20
9.5791999507
 30
0.0
 10
9.0689773798
 20
9.5892276701
 30
0.0
 10
9.0678572512
 20
9.5993145763
 30
0.0
 10
9.0676063348
 20
9.6060607343
 30
0.0
 10
9.0676063348
 20
9.609423951
 30
0.0
  0
SPLINE
  5
35B
100
AcDbEntity
  8
0
100
AcDbSpline
 62
7
  6
CONTINUOUS
 70
0
 71
3
 72
27
 73
23
 74
0
 42
0.0000001
 43
0.0000001
 44
0.0000000001
 40
0.0
 40
0.0
 40
0.0
 40
0.0
 40
0.0320677382
 40
0.0640811538
 40
0.0960348638
 40
0.1279265861
 40
0.1597563356
 40
0.191525422
 40
0.22323585
 40
0.254889918
 40
0.3180277065
 40
0.380965695
 40
0.4437151905
 40
0.5062826688
 40
0.537502696
 40
0.5686775777
 40
0.6308842324
 40
0.6929068556
 40
0.7547405447
 40
0.8163792681
 40
0.8778143984
 40
1.0
 40
1.0
 40
1.0
 40
1.0
 10
10.434436705
 20
7.4808093428
 30
0.0
 10
10.4318922283
 20
7.4788517685
 30
0.0
 10
10.4267552955
 20
7.4750071975
 30
0.0
 10
10.4188878859
 20
7.4694784706
 30
0.0
 10
10.4108593498
 20
7.4642179797
 30
0.0
 10
10.4026700364
 20
7.4592465035
 30
0.0
 10
10.3943242698
 20
7.4545798911
 30
0.0
 10
10.3858296674
 20
7.4502296486
 30
0.0
 10
10.3771960366
 20
7.4462034082
 30
0.0
 10
10.3655262577
 20
7.4412775835
 30
0.0
 10
10.3506481849
 20
7.4359420427
 30
0.0
 10
10.3324290787
 20
7.4308442899
 30
0.0
 10
10.3139603798
 20
7.4270196065
 30
0.0
 10
10.2984280317
 20
7.4248525408
 30
0.0
 10
10.2859685837
 20
7.4237079342
 30
0.0
 10
10.2735159456
 20
7.4229477568
 30
0.0
 10
10.2579503065
 20
7.4226987165
 30
0.0
 10
10.2393296126
 20
7.4234766581
 30
0.0
 10
10.2208386003
 20
7.4252885509
 30
0.0
 10
10.2025315372
 20
7.4280970274
 30
0.0
 10
10.1784885854
 20
7.4331156157
 30
0.0
 10
10.1608043411
 20
7.4382984157
 30
0.0
 10
10.1492653475
 20
7.4423579263
 30
0.0
  0
SPLINE
  5
35C
100
AcDbEntity
  8
0
100
AcDbSpline
 62
7
  6
CONTINUOUS
 70
0
 71
3
 72
15
 73
11
 74
0
 42
0.0000001
 43
0.0000001
 44
0.0000000001
 40
0.0
 40
0.0
 40
0.0
 40
0.0
 40
0.1273473901
 40
0.2538608346
 40
0.3795878351
 40
0.5046051039
 40
0.6290174461
 40
0.7529533848
 40
0.8765605883
 40
1.0
 40
1.0
 40
1.0
 40
1.0
 10
10.7439706845
 20
9.432314364
 30
0.0
 10
10.7439706845
 20
9.4347165671
 30
0.0
 10
10.744200052
 20
9.4395085622
 30
0.0
 10
10.7452372913
 20
9.4466043882
 30
0.0
 10
10.7469572667
 20
9.4535219365
 30
0.0
 10
10.7493443818
 20
9.4601964858
 30
0.0
 10
10.7523767593
 20
9.4665665075
 30
0.0
 10
10.7560267505
 20
9.4725731777
 30
0.0
 10
10.7602600436
 20
9.4781602115
 30
0.0
 10
10.7634474896
 20
9.4815731074
 30
0.0
 10
10.7651222565
 20
9.4831908217
 30
0.0
  0
SPLINE
  5
35D
100
AcDbEntity
  8
0
100
AcDbSpline
 62
7
  6
CONTINUOUS
 70
0
 71
3
 72
41
 73
37
 74
0
 42
0.0000001
 43
0.0000001
 44
0.0000000001
 40
0.0
 40
0.0
 40
0.0
 40
0.0
 40
0.0299421244
 40
0.0449237733
 40
0.05991452
 40
0.0899291767
 40
0.1200146037
 40
0.1350933625
 40
0.1501974807
 40
0.1804849728
 40
0.2108989538
 40
0.2414525638
 40
0.2721557191
 40
0.3030149318
 40
0.3340332139
 40
0.3652100638
 40
0.39654153
 40
0.4280203461
 40
0.4596361322
 40
0.4913756535
 40
0.5232231268
 40
0.5551605686
 40
0.5871681787
 40
0.6192247492
 40
0.6513080952
 40
0.683395499
 40
0.715464161
 40
0.7474916539
 40
0.7794563719
 40
0.811337962
 40
0.8431177653
 40
0.8747791215
 40
0.9063080259
 40
0.9376925771
 40
0.9689254639
 40
1.0
 40
1.0
 40
1.0
 40
1.0
 10
9.9056012281
 20
6.6770890085
 30
0.0
 10
9.9032703819
 20
6.6748375643
 30
0.0
 10
9.8996367674
 20
6.6715967671
 30
0.0
 10
9.8945479104
 20
6.6675756922
 30
0.0
 10
9.8892970227
 20
6.6637546727
 30
0.0
 10
9.8824454447
 20
6.659366924
 30
0.0
 10
9.8752607321
 20
6.655528897
 30
0.0
 10
9.8693351992
 20
6.6527985131
 30
0.0
 10
9.8632872574
 20
6.6502935247
 30
0.0
 10
9.855528017
 20
6.6475999394
 30
0.0
 10
9.8459659195
 20
6.645089563
 30
0.0
 10
9.8361951671
 20
6.6433111232
 30
0.0
 10
9.8262699076
 20
6.642274432
 30
0.0
 10
9.8162446624
 20
6.6419850223
 30
0.0
 10
9.8061745935
 20
6.6424443686
 30
0.0
 10
9.7961150486
 20
6.6436498194
 30
0.0
 10
9.7861213023
 20
6.6455946361
 30
0.0
 10
9.7762482431
 20
6.6482680252
 30
0.0
 10
9.7665500781
 20
6.6516552021
 30
0.0
 10
9.7570800396
 20
6.6557374794
 30
0.0
 10
9.7478900972
 20
6.6604923703
 30
0.0
 10
9.7390306768
 20
6.6658937126
 30
0.0
 10
9.7305503879
 20
6.6719118122
 30
0.0
 10
9.7224957607
 20
6.678513605
 30
0.0
 10
9.7149109938
 20
6.6856628369
 30
0.0
 10
9.7078377145
 20
6.693320261
 30
0.0
 10
9.7013147539
 20
6.7014438514
 30
0.0
 10
9.6953779295
 20
6.7099890269
 30
0.0
 10
9.6900598552
 20
6.7189088972
 30
0.0
 10
9.6853897578
 20
6.7281545187
 30
0.0
 10
9.6813933394
 20
6.7376751538
 30
0.0
 10
9.6780925788
 20
6.7474185749
 30
0.0
 10
9.6755057463
 20
6.7573312264
 30
0.0
 10
9.673647028
 20
6.7673589457
 30
0.0
 10
9.6725268994
 20
6.777445852
 30
0.0
 10
9.6722759831
 20
6.7841920099
 30
0.0
 10
9.6722759831
 20
6.7875552266
 30
0.0
  0
SPLINE
  5
35E
100
AcDbEntity
  8
0
100
AcDbSpline
 62
7
  6
CONTINUOUS
 70
0
 71
3
 72
39
 73
35
 74
0
 42
0.0000001
 43
0.0000001
 44
0.0000000001
 40
0.0
 40
0.0
 40
0.0
 40
0.0
 40
0.0299424796
 40
0.0599093277
 40
0.0899243268
 40
0.1200100989
 40
0.1501875564
 40
0.1804754082
 40
0.2108897438
 40
0.2414437065
 40
0.2721472214
 40
0.3030068034
 40
0.334025452
 40
0.3652026597
 40
0.3965344836
 40
0.4280136674
 40
0.4596298279
 40
0.4913697183
 40
0.5232175588
 40
0.5551553757
 40
0.587163368
 40
0.6192203146
 40
0.6513040285
 40
0.6833918015
 40
0.7154608406
 40
0.7474887097
 40
0.7794537919
 40
0.8113357643
 40
0.8431159187
 40
0.8747776681
 40
0.9063070433
 40
0.9376914486
 40
0.9689258945
 40
1.0
 40
1.0
 40
1.0
 40
1.0
 10
10.8735035503
 20
9.3709879051
 30
0.0
 10
10.8722095572
 20
9.3697379931
 30
0.0
 10
10.8695198372
 20
9.3673390236
 30
0.0
 10
10.8652104593
 20
9.3640708729
 30
0.0
 10
10.8606483451
 20
9.3611493417
 30
0.0
 10
10.8558589772
 20
9.3585908232
 30
0.0
 10
10.8508686798
 20
9.3564093073
 30
0.0
 10
10.8457049885
 20
9.3546168064
 30
0.0
 10
10.840396371
 20
9.3532231006
 30
0.0
 10
10.8349720737
 20
9.3522357916
 30
0.0
 10
10.829461958
 20
9.3516602458
 30
0.0
 10
10.823896343
 20
9.3514995856
 30
0.0
 10
10.8183058428
 20
9.3517546137
 30
0.0
 10
10.8127211871
 20
9.3524238369
 30
0.0
 10
10.8071730575
 20
9.3535035113
 30
0.0
 10
10.8016919262
 20
9.3549876593
 30
0.0
 10
10.7963078955
 20
9.3568680952
 30
0.0
 10
10.7910505113
 20
9.3591344184
 30
0.0
 10
10.7859486205
 20
9.361774139
 30
0.0
 10
10.7810302167
 20
9.3647727373
 30
0.0
 10
10.7763223007
 20
9.3681137503
 30
0.0
 10
10.7718507039
 20
9.371778815
 30
0.0
 10
10.7676399489
 20
9.3757477865
 30
0.0
 10
10.7637131418
 20
9.3799988767
 30
0.0
 10
10.7600918457
 20
9.3845087628
 30
0.0
 10
10.7567959667
 20
9.3892527091
 30
0.0
 10
10.7538435885
 20
9.3942046672
 30
0.0
 10
10.7512509352
 20
9.3993374644
 30
0.0
 10
10.7490322663
 20
9.4046229343
 30
0.0
 10
10.747199813
 20
9.4100320996
 30
0.0
 10
10.7457637455
 20
9.4155351928
 30
0.0
 10
10.7447318162
 20
9.4211022223
 30
0.0
 10
10.744110013
 20
9.4267020686
 30
0.0
 10
10.7439706845
 20
9.4304472881
 30
0.0
 10
10.7439706845
 20
9.432314364
 30
0.0
  0
SPLINE
  5
35F
100
AcDbEntity
  8
0
100
AcDbSpline
 62
7
  6
CONTINUOUS
 70
0
 71
3
 72
39
 73
35
 74
0
 42
0.0000001
 43
0.0000001
 44
0.0000000001
 40
0.0
 40
0.0
 40
0.0
 40
0.0
 40
0.0299424796
 40
0.0599093277
 40
0.0899243268
 40
0.1200100989
 40
0.1501875564
 40
0.1804754082
 40
0.2108897438
 40
0.2414437065
 40
0.2721472214
 40
0.3030068034
 40
0.334025452
 40
0.3652026597
 40
0.3965344836
 40
0.4280136674
 40
0.4596298279
 40
0.4913697183
 40
0.5232175588
 40
0.5551553757
 40
0.587163368
 40
0.6192203146
 40
0.6513040285
 40
0.6833918015
 40
0.7154608406
 40
0.7474887097
 40
0.7794537919
 40
0.8113357643
 40
0.8431159187
 40
0.8747776681
 40
0.9063070433
 40
0.9376914486
 40
0.9689258945
 40
1.0
 40
1.0
 40
1.0
 40
1.0
 10
8.6567036891
 20
6.8664953759
 30
0.0
 10
8.6554096959
 20
6.8652454639
 30
0.0
 10
8.652719976
 20
6.8628464944
 30
0.0
 10
8.6484105981
 20
6.8595783437
 30
0.0
 10
8.6438484839
 20
6.8566568125
 30
0.0
 10
8.639059116
 20
6.854098294
 30
0.0
 10
8.6340688185
 20
6.8519167781
 30
0.0
 10
8.6289051273
 20
6.8501242772
 30
0.0
 10
8.6235965098
 20
6.8487305714
 30
0.0
 10
8.6181722124
 20
6.8477432624
 30
0.0
 10
8.6126620967
 20
6.8471677166
 30
0.0
 10
8.6070964818
 20
6.8470070564
 30
0.0
 10
8.6015059816
 20
6.8472620846
 30
0.0
 10
8.5959213259
 20
6.8479313077
 30
0.0
 10
8.5903731962
 20
6.8490109821
 30
0.0
 10
8.584892065
 20
6.8504951301
 30
0.0
 10
8.5795080343
 20
6.852375566
 30
0.0
 10
8.5742506501
 20
6.8546418892
 30
0.0
 10
8.5691487593
 20
6.8572816098
 30
0.0
 10
8.5642303555
 20
6.8602802081
 30
0.0
 10
8.5595224395
 20
6.8636212211
 30
0.0
 10
8.5550508426
 20
6.8672862858
 30
0.0
 10
8.5508400877
 20
6.8712552573
 30
0.0
 10
8.5469132805
 20
6.8755063475
 30
0.0
 10
8.5432919845
 20
6.8800162336
 30
0.0
 10
8.5399961055
 20
6.8847601799
 30
0.0
 10
8.5370437272
 20
6.889712138
 30
0.0
 10
8.5344510739
 20
6.8948449352
 30
0.0
 10
8.5322324051
 20
6.9001304051
 30
0.0
 10
8.5303999518
 20
6.9055395704
 30
0.0
 10
8.5289638843
 20
6.9110426636
 30
0.0
 10
8.5279319549
 20
6.9166096931
 30
0.0
 10
8.5273101517
 20
6.9222095394
 30
0.0
 10
8.5271708233
 20
6.9259547589
 30
0.0
 10
8.5271708233
 20
6.9278218348
 30
0.0
  0
SPLINE
  5
360
100
AcDbEntity
  8
0
100
AcDbSpline
 62
7
  6
CONTINUOUS
 70
0
 71
3
 72
23
 73
19
 74
0
 42
0.0000001
 43
0.0000001
 44
0.0000000001
 40
0.0
 40
0.0
 40
0.0
 40
0.0
 40
0.0622036524
 40
0.1242637345
 40
0.1862165024
 40
0.2481010389
 40
0.3099586098
 40
0.371831912
 40
0.4337642233
 40
0.4957984694
 40
0.5579762342
 40
0.6203367448
 40
0.6829158601
 40
0.7457451484
 40
0.8088509242
 40
0.8722538979
 40
0.9359675196
 40
1.0
 40
1.0
 40
1.0
 40
1.0
 10
10.1041535185
 20
8.7769055126
 30
0.0
 10
10.1007622759
 20
8.770238625
 30
0.0
 10
10.0935191849
 20
8.7571524027
 30
0.0
 10
10.0813066472
 20
8.7383623429
 30
0.0
 10
10.067804451
 20
8.7205227586
 30
0.0
 10
10.0530658799
 20
8.703722548
 30
0.0
 10
10.0371500291
 20
8.6880461847
 30
0.0
 10
10.0201229893
 20
8.6735751629
 30
0.0
 10
10.0020576411
 20
8.6603867546
 30
0.0
 10
9.9830337109
 20
8.6485534083
 30
0.0
 10
9.9631376243
 20
8.6381419162
 30
0.0
 10
9.9424622547
 20
8.6292126148
 30
0.0
 10
9.9211065443
 20
8.6218185659
 30
0.0
 10
9.8991749299
 20
8.6160048121
 30
0.0
 10
9.8767768214
 20
8.6118076005
 30
0.0
 10
9.8540252204
 20
8.6092539488
 30
0.0
 10
9.8310380951
 20
8.6083607572
 30
0.0
 10
9.8156698939
 20
8.6088759281
 30
0.0
 10
9.8079885971
 20
8.6094086278
 30
0.0
  0
SPLINE
  5
361
100
AcDbEntity
  8
0
100
AcDbSpline
 62
7
  6
CONTINUOUS
 70
0
 71
3
 72
54
 73
50
 74
0
 42
0.0000001
 43
0.0000001
 44
0.0000000001
 40
0.0
 40
0.0
 40
0.0
 40
0.0
 40
0.0095822273
 40
0.0187372185
 40
0.0274871819
 40
0.035859765
 40
0.0515977889
 40
0.0590555803
 40
0.0662982983
 40
0.0733794635
 40
0.0803567208
 40
0.0872905371
 40
0.0942426171
 40
0.1012741388
 40
0.1084440685
 40
0.1158077003
 40
0.1234157401
 40
0.1313135413
 40
0.1395410807
 40
0.1481330115
 40
0.1571188616
 40
0.1665237243
 40
0.1763684224
 40
0.1866701818
 40
0.1974430944
 40
0.208698266
 40
0.2204445386
 40
0.2326884814
 40
0.2454347664
 40
0.258686547
 40
0.2724452901
 40
0.2867113279
 40
0.301483763
 40
0.3325374411
 40
0.3655814066
 40
0.4005761908
 40
0.437471444
 40
0.4762074098
 40
0.5167161537
 40
0.5589224948
 40
0.6027447509
 40
0.6480953336
 40
0.6948814082
 40
0.7430053452
 40
0.7923652918
 40
0.8428556327
 40
0.8943662074
 40
0.9467873312
 40
1.0
 40
1.0
 40
1.0
 40
1.0
 10
13.3370277672
 20
6.5082605101
 30
0.0
 10
13.3359354998
 20
6.5072439984
 30
0.0
 10
13.3337518447
 20
6.5053066906
 30
0.0
 10
13.3304016134
 20
6.5026396488
 30
0.0
 10
13.3270543656
 20
6.5002810806
 30
0.0
 10
13.322690063
 20
6.4976059012
 30
0.0
 10
13.318237636
 20
6.4954698817
 30
0.0
 10
13.3137378985
 20
6.4939652369
 30
0.0
 10
13.3104353249
 20
6.4931724396
 30
0.0
 10
13.3071478474
 20
6.4926966493
 30
0.0
 10
13.3038777675
 20
6.4925385082
 30
0.0
 10
13.300627818
 20
6.4926985848
 30
0.0
 10
13.2974007341
 20
6.4931766163
 30
0.0
 10
13.2941992012
 20
6.4939721378
 30
0.0
 10
13.2910257051
 20
6.4950841323
 30
0.0
 10
13.2878824025
 20
6.4965112035
 30
0.0
 10
13.2847713015
 20
6.4982520007
 30
0.0
 10
13.281694061
 20
6.5003048107
 30
0.0
 10
13.2786522936
 20
6.5026680505
 30
0.0
 10
13.2756475456
 20
6.5053400556
 30
0.0
 10
13.2726812213
 20
6.508318995
 30
0.0
 10
13.269754907
 20
6.5116031105
 30
0.0
 10
13.2668700419
 20
6.5151903769
 30
0.0
 10
13.2640281516
 20
6.5190786996
 30
0.0
 10
13.2612308351
 20
6.5232658508
 30
0.0
 10
13.2584795442
 20
6.527749351
 30
0.0
 10
13.2557759082
 20
6.5325266427
 30
0.0
 10
13.2531214349
 20
6.5375949288
 30
0.0
 10
13.2505176269
 20
6.5429512473
 30
0.0
 10
13.2479660723
 20
6.5485924947
 30
0.0
 10
13.2454681884
 20
6.5545153323
 30
0.0
 10
13.2430254646
 20
6.5607163086
 30
0.0
 10
13.23979003
 20
6.5694970724
 30
0.0
 10
13.2359083882
 20
6.5811523966
 30
0.0
 10
13.2315666615
 20
6.5959620874
 30
0.0
 10
13.2274772881
 20
6.6117845099
 30
0.0
 10
13.2236500738
 20
6.6285822723
 30
0.0
 10
13.2200942235
 20
6.6463158584
 30
0.0
 10
13.2168183094
 20
6.6649433442
 30
0.0
 10
13.2138302382
 20
6.6844206473
 30
0.0
 10
13.2111372315
 20
6.7047015998
 30
0.0
 10
13.2087457761
 20
6.7257380773
 30
0.0
 10
13.2066616416
 20
6.7474801205
 30
0.0
 10
13.2048898565
 20
6.769876081
 30
0.0
 10
13.2034347053
 20
6.7928727626
 30
0.0
 10
13.2022997271
 20
6.8164153812
 30
0.0
 10
13.2014875995
 20
6.840448257
 30
0.0
 10
13.2010003906
 20
6.864913823
 30
0.0
 10
13.2008936515
 20
6.8813627803
 30
0.0
 10
13.2008936515
 20
6.8896487766
 30
0.0
  0
SPLINE
  5
362
100
AcDbEntity
  8
0
100
AcDbSpline
 62
7
  6
CONTINUOUS
 70
0
 71
3
 72
39
 73
35
 74
0
 42
0.0000001
 43
0.0000001
 44
0.0000000001
 40
0.0
 40
0.0
 40
0.0
 40
0.0
 40
0.0323164391
 40
0.0644975244
 40
0.0965259865
 40
0.1283897899
 40
0.1600820117
 40
0.1916005136
 40
0.222947481
 40
0.2541289832
 40
0.2851545391
 40
0.3160367033
 40
0.3467906632
 40
0.3774338945
 40
0.4079858574
 40
0.4384677205
 40
0.468902098
 40
0.4993127828
 40
0.5297244675
 40
0.5601624333
 40
0.5906521874
 40
0.6212190291
 40
0.6518875043
 40
0.6826807701
 40
0.7136198861
 40
0.7447230021
 40
0.7760044228
 40
0.8074736814
 40
0.8391347574
 40
0.8709853237
 40
0.903016256
 40
0.9352116322
 40
0.9675487249
 40
1.0
 40
1.0
 40
1.0
 40
1.0
 10
8.9008830928
 20
7.2604666282
 30
0.0
 10
8.8964496583
 20
7.2692851616
 30
0.0
 10
8.8883351433
 20
7.2872651831
 30
0.0
 10
8.878466849
 20
7.3150797303
 30
0.0
 10
8.8709463942
 20
7.3434770306
 30
0.0
 10
8.8657802709
 20
7.3722423513
 30
0.0
 10
8.862955604
 20
7.4011739619
 30
0.0
 10
8.8624451787
 20
7.430080061
 30
0.0
 10
8.8642097761
 20
7.4587799137
 30
0.0
 10
8.8682006651
 20
7.4871031398
 30
0.0
 10
8.8743615102
 20
7.514889006
 30
0.0
 10
8.8826298609
 20
7.5419853919
 30
0.0
 10
8.8929382454
 20
7.5682476446
 30
0.0
 10
8.9052148246
 20
7.5935373982
 30
0.0
 10
8.9193836828
 20
7.6177214392
 30
0.0
 10
8.935364783
 20
7.6406706653
 30
0.0
 10
8.9530736176
 20
7.6622591821
 30
0.0
 10
8.9724205748
 20
7.6823635895
 30
0.0
 10
8.9933100744
 20
7.7008624826
 30
0.0
 10
9.0156394753
 20
7.7176362341
 30
0.0
 10
9.039297801
 20
7.732567106
 30
0.0
 10
9.0641643257
 20
7.745539732
 30
0.0
 10
9.0901070646
 20
7.7564420812
 30
0.0
 10
9.116981298
 20
7.7651669234
 30
0.0
 10
9.1446282549
 20
7.7716138218
 30
0.0
 10
9.1728740662
 20
7.775691686
 30
0.0
 10
9.2015291632
 20
7.7773219785
 30
0.0
 10
9.2303884255
 20
7.7764423951
 30
0.0
 10
9.2592322038
 20
7.7730106297
 30
0.0
 10
9.2878284694
 20
7.7670083458
 30
0.0
 10
9.3159358991
 20
7.7584452263
 30
0.0
 10
9.3433091835
 20
7.7473607314
 30
0.0
 10
9.3697008537
 20
7.7338290257
 30
0.0
 10
9.3864643581
 20
7.7232571081
 30
0.0
 10
9.3946061701
 20
7.7176049028
 30
0.0
  0
SPLINE
  5
363
100
AcDbEntity
  8
0
100
AcDbSpline
 62
7
  6
CONTINUOUS
 70
0
 71
3
 72
39
 73
35
 74
0
 42
0.0000001
 43
0.0000001
 44
0.0000000001
 40
0.0
 40
0.0
 40
0.0
 40
0.0
 40
0.029942471
 40
0.0599093185
 40
0.089924325
 40
0.1200101043
 40
0.1501875632
 40
0.1804754155
 40
0.2108897611
 40
0.2414437393
 40
0.2721472649
 40
0.3030068482
 40
0.3340255005
 40
0.3652027199
 40
0.3965345553
 40
0.4280137416
 40
0.4596298994
 40
0.4913697937
 40
0.523217641
 40
0.5551554573
 40
0.5871634413
 40
0.619220384
 40
0.6513040994
 40
0.6833918697
 40
0.715460897
 40
0.7474887556
 40
0.7794538398
 40
0.8113357995
 40
0.8431159588
 40
0.874777715
 40
0.9063068673
 40
0.9376920959
 40
0.968924654
 40
1.0
 40
1.0
 40
1.0
 40
1.0
 10
10.6731878712
 20
7.0711586459
 30
0.0
 10
10.6669667455
 20
7.0651495049
 30
0.0
 10
10.654035302
 20
7.0536161982
 30
0.0
 10
10.6333171245
 20
7.0379041076
 30
0.0
 10
10.6113838275
 20
7.0238585233
 30
0.0
 10
10.5883579678
 20
7.0115582319
 30
0.0
 10
10.5643661376
 20
7.0010704339
 30
0.0
 10
10.5395407428
 20
6.9924527837
 30
0.0
 10
10.5140185829
 20
6.9857524425
 30
0.0
 10
10.4879402687
 20
6.9810059919
 30
0.0
 10
10.4614493855
 20
6.9782392039
 30
0.0
 10
10.4346917071
 20
6.9774669493
 30
0.0
 10
10.4078143931
 20
6.9786931285
 30
0.0
 10
10.3809651854
 20
6.9819106694
 30
0.0
 10
10.3542916044
 20
6.9871015819
 30
0.0
 10
10.3279401498
 20
6.9942370655
 30
0.0
 10
10.3020554992
 20
7.0032776574
 30
0.0
 10
10.2767797291
 20
7.0141734806
 30
0.0
 10
10.2522515473
 20
7.0268645184
 30
0.0
 10
10.2286055427
 20
7.0412809462
 30
0.0
 10
10.2059714578
 20
7.0573435126
 30
0.0
 10
10.1844734887
 20
7.0749639744
 30
0.0
 10
10.1642295976
 20
7.0940455601
 30
0.0
 10
10.1453508782
 20
7.114483509
 30
0.0
 10
10.1279409591
 20
7.1361656466
 30
0.0
 10
10.1120954396
 20
7.1589729919
 30
0.0
 10
10.0979013702
 20
7.1827804007
 30
0.0
 10
10.0854367822
 20
7.2074572499
 30
0.0
 10
10.0747702465
 20
7.2328681219
 30
0.0
 10
10.0659605067
 20
7.258873597
 30
0.0
 10
10.0590561178
 20
7.2853308105
 30
0.0
 10
10.0540953259
 20
7.3120949748
 30
0.0
 10
10.0511055325
 20
7.3390172273
 30
0.0
 10
10.0504358964
 20
7.3570228568
 30
0.0
 10
10.0504358964
 20
7.3659995109
 30
0.0
  0
SPLINE
  5
364
100
AcDbEntity
  8
0
100
AcDbSpline
 62
7
  6
CONTINUOUS
 70
0
 71
3
 72
41
 73
37
 74
0
 42
0.0000001
 43
0.0000001
 44
0.0000000001
 40
0.0
 40
0.0
 40
0.0
 40
0.0
 40
0.0063160019
 40
0.0126709115
 40
0.0191028735
 40
0.025648536
 40
0.0323425365
 40
0.0392170229
 40
0.0536151005
 40
0.0611959825
 40
0.0690578657
 40
0.085691147
 40
0.1036393496
 40
0.1229893511
 40
0.1438021707
 40
0.1661180724
 40
0.1899608479
 40
0.2153408109
 40
0.2422571426
 40
0.2706999484
 40
0.3006515231
 40
0.3320873635
 40
0.3649772499
 40
0.399285806
 40
0.4349729565
 40
0.4719946009
 40
0.510302896
 40
0.5498464805
 40
0.5905709594
 40
0.6324190812
 40
0.6753308783
 40
0.7192440038
 40
0.7640939069
 40
0.8098141327
 40
0.9035872209
 40
1.0
 40
1.0
 40
1.0
 40
1.0
 10
13.2695013049
 20
6.4638218998
 30
0.0
 10
13.2685514196
 20
6.4638877753
 30
0.0
 10
13.2666502855
 20
6.4640976684
 30
0.0
 10
13.2638198878
 20
6.4646447873
 30
0.0
 10
13.261008419
 20
6.4654241827
 30
0.0
 10
13.2582175027
 20
6.4664351673
 30
0.0
 10
13.2554482468
 20
6.4676772099
 30
0.0
 10
13.2517298973
 20
6.4696704778
 30
0.0
 10
13.2481125065
 20
6.4721104637
 30
0.0
 10
13.2446117711
 20
6.4749381214
 30
0.0
 10
13.2410187
 20
6.4781777048
 30
0.0
 10
13.2366026174
 20
6.482822277
 30
0.0
 10
13.2315238397
 20
6.4891817831
 30
0.0
 10
13.2265748907
 20
6.4964189712
 30
0.0
 10
13.2217626382
 20
6.5045221999
 30
0.0
 10
13.2170937493
 20
6.5134791378
 30
0.0
 10
13.212575342
 20
6.5232758113
 30
0.0
 10
13.2082144929
 20
6.5338967766
 30
0.0
 10
13.2040181645
 20
6.5453250655
 30
0.0
 10
13.1999932192
 20
6.557542296
 30
0.0
 10
13.196146287
 20
6.5705286782
 30
0.0
 10
13.1924836926
 20
6.584263062
 30
0.0
 10
13.1890115347
 20
6.5987230201
 30
0.0
 10
13.185735602
 20
6.6138848766
 30
0.0
 10
13.1826613142
 20
6.6297237482
 30
0.0
 10
13.1797938084
 20
6.6462136168
 30
0.0
 10
13.1771378799
 20
6.6633273663
 30
0.0
 10
13.174697924
 20
6.6810368239
 30
0.0
 10
13.1724780183
 20
6.6993128259
 30
0.0
 10
13.1704818817
 20
6.7181252647
 30
0.0
 10
13.1687128115
 20
6.7374431306
 30
0.0
 10
13.1671737717
 20
6.7572345653
 30
0.0
 10
13.1658673141
 20
6.7774669808
 30
0.0
 10
13.1644263751
 20
6.8052208273
 30
0.0
 10
13.1632344963
 20
6.8407682793
 30
0.0
 10
13.1629265654
 20
6.8694407093
 30
0.0
 10
13.1629265654
 20
6.8839753854
 30
0.0
  0
SPLINE
  5
365
100
AcDbEntity
  8
0
100
AcDbSpline
 62
7
  6
CONTINUOUS
 70
0
 71
3
 72
41
 73
37
 74
0
 42
0.0000001
 43
0.0000001
 44
0.0000000001
 40
0.0
 40
0.0
 40
0.0
 40
0.0
 40
0.0063160027
 40
0.0126709123
 40
0.0191028736
 40
0.025648535
 40
0.0323425337
 40
0.039217018
 40
0.0536150902
 40
0.061195969
 40
0.0690578489
 40
0.0856911232
 40
0.1036393187
 40
0.1229893131
 40
0.1438021261
 40
0.1661180215
 40
0.1899607915
 40
0.2153407496
 40
0.2422570772
 40
0.2706998797
 40
0.3006514519
 40
0.3320872906
 40
0.3649771763
 40
0.3992857324
 40
0.4349728838
 40
0.4719945299
 40
0.5103028274
 40
0.5498464152
 40
0.5905708981
 40
0.6324190246
 40
0.6753308269
 40
0.7192439583
 40
0.7640938679
 40
0.8098141007
 40
0.9035872042
 40
1.0
 40
1.0
 40
1.0
 40
1.0
 10
12.2427221623
 20
6.5350292752
 30
0.0
 10
12.2417722768
 20
6.5350951492
 30
0.0
 10
12.2398711419
 20
6.5353050395
 30
0.0
 10
12.237040743
 20
6.5358521542
 30
0.0
 10
12.234229273
 20
6.5366315456
 30
0.0
 10
12.2314383556
 20
6.5376425264
 30
0.0
 10
12.2286690984
 20
6.5388845652
 30
0.0
 10
12.2249507473
 20
6.5408778283
 30
0.0
 10
12.2213333549
 20
6.5433178098
 30
0.0
 10
12.2178326178
 20
6.5461454635
 30
0.0
 10
12.214239545
 20
6.5493850428
 30
0.0
 10
12.2098234603
 20
6.5540296105
 30
0.0
 10
12.2047446801
 20
6.5603891118
 30
0.0
 10
12.1997957287
 20
6.5676262957
 30
0.0
 10
12.1949834738
 20
6.5757295209
 30
0.0
 10
12.1903145825
 20
6.5846864557
 30
0.0
 10
12.1857961729
 20
6.5944831268
 30
0.0
 10
12.1814353216
 20
6.6051040904
 30
0.0
 10
12.177238991
 20
6.616532378
 30
0.0
 10
12.1732140435
 20
6.6287496079
 30
0.0
 10
12.1693671092
 20
6.64173599
 30
0.0
 10
12.1657045128
 20
6.6554703743
 30
0.0
 10
12.162232353
 20
6.6699303334
 30
0.0
 10
12.1589564185
 20
6.6850921913
 30
0.0
 10
12.155882129
 20
6.700931065
 30
0.0
 10
12.1530146215
 20
6.7174209362
 30
0.0
 10
12.1503586915
 20
6.7345346887
 30
0.0
 10
12.1479187342
 20
6.7522441496
 30
0.0
 10
12.1456988272
 20
6.7705201556
 30
0.0
 10
12.1437026894
 20
6.7893325986
 30
0.0
 10
12.1419336182
 20
6.8086504691
 30
0.0
 10
12.1403945775
 20
6.8284419088
 30
0.0
 10
12.1390881192
 20
6.8486743297
 30
0.0
 10
12.1376471793
 20
6.8764281838
 30
0.0
 10
12.1364552998
 20
6.9119756459
 30
0.0
 10
12.1361473687
 20
6.9406480842
 30
0.0
 10
12.1361473687
 20
6.9551827645
 30
0.0
  0
SPLINE
  5
366
100
AcDbEntity
  8
0
100
AcDbSpline
 62
7
  6
CONTINUOUS
 70
0
 71
3
 72
23
 73
19
 74
0
 42
0.0000001
 43
0.0000001
 44
0.0000000001
 40
0.0
 40
0.0
 40
0.0
 40
0.0
 40
0.0615756458
 40
0.1234925436
 40
0.1857221852
 40
0.2482266293
 40
0.3109609038
 40
0.3738732356
 40
0.4369070613
 40
0.5000024279
 40
0.5630977057
 40
0.6261312593
 40
0.6890431424
 40
0.7517767601
 40
0.8142804614
 40
0.8765090283
 40
0.9384250294
 40
1.0
 40
1.0
 40
1.0
 40
1.0
 10
10.824628097
 20
9.5018070073
 30
0.0
 10
10.8248603032
 20
9.4996102282
 30
0.0
 10
10.8255160626
 20
9.4952223071
 30
0.0
 10
10.8270575831
 20
9.4887326065
 30
0.0
 10
10.8291482692
 20
9.4823629651
 30
0.0
 10
10.8317721555
 20
9.4761622116
 30
0.0
 10
10.8349092973
 20
9.470177047
 30
0.0
 10
10.8385359184
 20
9.4644527564
 30
0.0
 10
10.8426245431
 20
9.4590325905
 30
0.0
 10
10.8471442341
 20
9.4539575239
 30
0.0
 10
10.8520608076
 20
9.449265927
 30
0.0
 10
10.857337096
 20
9.4449932882
 30
0.0
 10
10.862933214
 20
9.4411719428
 30
0.0
 10
10.868806876
 20
9.4378308262
 30
0.0
 10
10.8749136409
 20
9.4349952751
 30
0.0
 10
10.8812075189
 20
9.4326867904
 30
0.0
 10
10.8876402813
 20
9.4309230449
 30
0.0
 10
10.8920030011
 20
9.4301167859
 30
0.0
 10
10.8941904739
 20
9.4298091923
 30
0.0
  0
SPLINE
  5
367
100
AcDbEntity
  8
0
100
AcDbSpline
 62
7
  6
CONTINUOUS
 70
0
 71
3
 72
34
 73
30
 74
0
 42
0.0000001
 43
0.0000001
 44
0.0000000001
 40
0.0
 40
0.0
 40
0.0
 40
0.0
 40
0.0325479583
 40
0.0650519055
 40
0.0974932246
 40
0.1298559209
 40
0.1942624214
 40
0.2582218398
 40
0.3216816982
 40
0.3846154349
 40
0.4470206564
 40
0.4780467884
 40
0.5089518373
 40
0.5397430786
 40
0.5704298396
 40
0.6010237646
 40
0.6315390398
 40
0.661992583
 40
0.6924041727
 40
0.722796474
 40
0.753194939
 40
0.7836274573
 40
0.8141236886
 40
0.8447140326
 40
0.8754282696
 40
0.9062937893
 40
0.9373340352
 40
0.9685658813
 40
1.0
 40
1.0
 40
1.0
 40
1.0
 10
11.1728411625
 20
7.127198734
 30
0.0
 10
11.1706662673
 20
7.1297838477
 30
0.0
 10
11.1664985631
 20
7.1351042178
 30
0.0
 10
11.1608085947
 20
7.1434808124
 30
0.0
 10
11.1556931034
 20
7.1521983832
 30
0.0
 10
11.1496611851
 20
7.1641851795
 30
0.0
 10
11.1435847405
 20
7.1797725107
 30
0.0
 10
11.1386613984
 20
7.1991136439
 30
0.0
 10
11.1361203476
 20
7.2187560784
 30
0.0
 10
11.1359641223
 20
7.2383985601
 30
0.0
 10
11.1378276372
 20
7.2545674282
 30
0.0
 10
11.1405170644
 20
7.2671970922
 30
0.0
 10
11.1431267134
 20
7.2764680389
 30
0.0
 10
11.1463315469
 20
7.2855130301
 30
0.0
 10
11.1501298942
 20
7.2942905994
 30
0.0
 10
11.1545187488
 20
7.3027565293
 30
0.0
 10
11.1594932955
 20
7.3108643325
 30
0.0
 10
11.1650462125
 20
7.3185648934
 30
0.0
 10
11.1711668556
 20
7.325806493
 30
0.0
 10
11.1778402976
 20
7.3325349715
 30
0.0
 10
11.1850462656
 20
7.3386941679
 30
0.0
 10
11.1927580136
 20
7.3442266875
 30
0.0
 10
11.2009412165
 20
7.349075066
 30
0.0
 10
11.2095530001
 20
7.3531833802
 30
0.0
 10
11.2185413316
 20
7.3564992513
 30
0.0
 10
11.2278447648
 20
7.3589762612
 30
0.0
 10
11.2373934005
 20
7.3605763063
 30
0.0
 10
11.2471085258
 20
7.3612722864
 30
0.0
 10
11.2536225261
 20
7.3611241016
 30
0.0
 10
11.256877408
 20
7.3608983748
 30
0.0
  0
SPLINE
  5
368
100
AcDbEntity
  8
0
100
AcDbSpline
 62
7
  6
CONTINUOUS
 70
0
 71
3
 72
23
 73
19
 74
0
 42
0.0000001
 43
0.0000001
 44
0.0000000001
 40
0.0
 40
0.0
 40
0.0
 40
0.0
 40
0.0620114637
 40
0.1239249769
 40
0.1857760746
 40
0.2476017259
 40
0.3094396432
 40
0.3713276518
 40
0.4333030172
 40
0.4954017028
 40
0.5576576112
 40
0.6201020082
 40
0.6827627851
 40
0.7456641833
 40
0.8088262993
 40
0.8722622756
 40
0.9359882129
 40
1.0
 40
1.0
 40
1.0
 40
1.0
 10
10.9228615868
 20
8.7521839982
 30
0.0
 10
10.9215390099
 20
8.7500362227
 30
0.0
 10
10.9187501454
 20
8.745831864
 30
0.0
 10
10.9141517196
 20
8.7398286018
 30
0.0
 10
10.9091588603
 20
8.7341586865
 30
0.0
 10
10.9037911103
 20
8.7288467555
 30
0.0
 10
10.8980694546
 20
8.7239156777
 30
0.0
 10
10.8920166333
 20
8.7193870505
 30
0.0
 10
10.8856569534
 20
8.7152809304
 30
0.0
 10
10.8790162473
 20
8.7116157545
 30
0.0
 10
10.8721218159
 20
8.7084081314
 30
0.0
 10
10.8650023022
 20
8.7056727373
 30
0.0
 10
10.8576875473
 20
8.7034222249
 30
0.0
 10
10.8502084288
 20
8.7016671377
 30
0.0
 10
10.8425968597
 20
8.7004158355
 30
0.0
 10
10.8348851427
 20
8.6996741219
 30
0.0
 10
10.8271070371
 20
8.6994458444
 30
0.0
 10
10.8219103499
 20
8.6996362217
 30
0.0
 10
10.8193128949
 20
8.6998163558
 30
0.0
  0
SPLINE
  5
369
100
AcDbEntity
  8
0
100
AcDbSpline
 62
7
  6
CONTINUOUS
 70
0
 71
3
 72
23
 73
19
 74
0
 42
0.0000001
 43
0.0000001
 44
0.0000000001
 40
0.0
 40
0.0
 40
0.0
 40
0.0
 40
0.0615756458
 40
0.1234925436
 40
0.1857221852
 40
0.2482266293
 40
0.3109609038
 40
0.3738732356
 40
0.4369070613
 40
0.5000024279
 40
0.5630977057
 40
0.6261312593
 40
0.6890431424
 40
0.7517767601
 40
0.8142804614
 40
0.8765090283
 40
0.9384250294
 40
1.0
 40
1.0
 40
1.0
 40
1.0
 10
8.6078282358
 20
6.9973144781
 30
0.0
 10
8.6080604419
 20
6.995117699
 30
0.0
 10
8.6087162014
 20
6.9907297779
 30
0.0
 10
8.6102577218
 20
6.9842400773
 30
0.0
 10
8.612348408
 20
6.9778704359
 30
0.0
 10
8.6149722943
 20
6.9716696824
 30
0.0
 10
8.6181094361
 20
6.9656845178
 30
0.0
 10
8.6217360572
 20
6.9599602272
 30
0.0
 10
8.6258246819
 20
6.9545400613
 30
0.0
 10
8.6303443729
 20
6.9494649947
 30
0.0
 10
8.6352609463
 20
6.9447733978
 30
0.0
 10
8.6405372348
 20
6.940500759
 30
0.0
 10
8.6461333527
 20
6.9366794136
 30
0.0
 10
8.6520070147
 20
6.933338297
 30
0.0
 10
8.6581137797
 20
6.9305027459
 30
0.0
 10
8.6644076576
 20
6.9281942612
 30
0.0
 10
8.67084042
 20
6.9264305157
 30
0.0
 10
8.6752031399
 20
6.9256242567
 30
0.0
 10
8.6773906127
 20
6.9253166631
 30
0.0
  0
SPLINE
  5
36A
100
AcDbEntity
  8
0
100
AcDbSpline
 62
7
  6
CONTINUOUS
 70
0
 71
3
 72
41
 73
37
 74
0
 42
0.0000001
 43
0.0000001
 44
0.0000000001
 40
0.0
 40
0.0
 40
0.0
 40
0.0
 40
0.0309586462
 40
0.0464934318
 40
0.0620624561
 40
0.0932977435
 40
0.1246609267
 40
0.1561420457
 40
0.1877291257
 40
0.2194085309
 40
0.2511652637
 40
0.2829832961
 40
0.3148458939
 40
0.3467359319
 40
0.3786361918
 40
0.4105296388
 40
0.4423996727
 40
0.4742303536
 40
0.5060066003
 40
0.5377143644
 40
0.5693407802
 40
0.6008742936
 40
0.6323047724
 40
0.6636236
 40
0.6948237553
 40
0.7258998792
 40
0.7568483319
 40
0.7876672377
 40
0.8183565214
 40
0.8489179323
 40
0.8793550566
 40
0.9096733153
 40
0.9398799451
 40
0.9549461015
 40
0.9699878783
 40
1.0
 40
1.0
 40
1.0
 40
1.0
 10
9.8079885971
 20
8.6094086278
 30
0.0
 10
9.8007578035
 20
8.609910085
 30
0.0
 10
9.7899195306
 20
8.6110290557
 30
0.0
 10
9.775556419
 20
8.6132392809
 30
0.0
 10
9.7612100158
 20
8.6159350682
 30
0.0
 10
9.743398948
 20
8.6202020971
 30
0.0
 10
9.7223436081
 20
8.6267207152
 30
0.0
 10
9.7016741352
 20
8.6346098165
 30
0.0
 10
9.681481591
 20
8.6438288108
 30
0.0
 10
9.6618527199
 20
8.6543309196
 30
0.0
 10
9.6428703704
 20
8.6660635901
 30
0.0
 10
9.6246128446
 20
8.6789691279
 30
0.0
 10
9.6071536563
 20
8.6929852976
 30
0.0
 10
9.590561296
 20
8.7080459317
 30
0.0
 10
9.5748991046
 20
8.7240815172
 30
0.0
 10
9.5602252165
 20
8.7410197503
 30
0.0
 10
9.5465925714
 20
8.7587860499
 30
0.0
 10
9.5340489787
 20
8.7773040199
 30
0.0
 10
9.5226372242
 20
8.7964958596
 30
0.0
 10
9.5123952074
 20
8.816282718
 30
0.0
 10
9.5033560962
 20
8.8365849939
 30
0.0
 10
9.4955484913
 20
8.8573225845
 30
0.0
 10
9.4889965883
 20
8.8784150849
 30
0.0
 10
9.4837203319
 20
8.8997819465
 30
0.0
 10
9.4797355537
 20
8.9213425967
 30
0.0
 10
9.4770540885
 20
8.9430165296
 30
0.0
 10
9.4756838664
 20
8.9647233735
 30
0.0
 10
9.4756289729
 20
8.9863829372
 30
0.0
 10
9.4768896864
 20
9.007915267
 30
0.0
 10
9.4794624553
 20
9.029240628
 30
0.0
 10
9.4833399463
 20
9.0502797662
 30
0.0
 10
9.4885106771
 20
9.0709531595
 30
0.0
 10
9.4938899153
 20
9.0878272163
 30
0.0
 10
9.4988228663
 20
9.1010610248
 30
0.0
 10
9.5041626689
 20
9.1140862293
 30
0.0
 10
9.5086378872
 20
9.1236489109
 30
0.0
 10
9.5118236208
 20
9.1299117858
 30
0.0
  0
LINE
  5
36B
100
AcDbEntity
  8
0
100
AcDbLine
 62
7
  6
CONTINUOUS
 10
8.7912900893
 20
9.0680681075
 11
8.79224909
 21
9.0660158159
  0
SPLINE
  5
36C
100
AcDbEntity
  8
0
100
AcDbSpline
 62
7
  6
CONTINUOUS
 70
0
 71
3
 72
24
 73
20
 74
0
 42
0.0000001
 43
0.0000001
 44
0.0000000001
 40
0.0
 40
0.0
 40
0.0
 40
0.0
 40
0.0281464981
 40
0.0570320557
 40
0.1166494896
 40
0.1781673081
 40
0.2409849125
 40
0.3046060882
 40
0.3686404552
 40
0.4327959204
 40
0.4968663029
 40
0.5607178098
 40
0.624276424
 40
0.6875162539
 40
0.7504483178
 40
0.8131097218
 40
0.8755528424
 40
0.9378328716
 40
1.0
 40
1.0
 40
1.0
 40
1.0
 10
8.4953553249
 20
9.2494116945
 30
0.0
 10
8.4975728398
 20
9.2469133484
 30
0.0
 10
8.5020800039
 20
9.2418633551
 30
0.0
 10
8.5113722684
 20
9.2316006642
 30
0.0
 10
8.5234977172
 20
9.218560854
 30
0.0
 10
8.5387283278
 20
9.2029156469
 30
0.0
 10
8.554724156
 20
9.1873626254
 30
0.0
 10
8.5714252431
 20
9.1721212867
 30
0.0
 10
8.5887804535
 20
9.1573809654
 30
0.0
 10
8.6067488229
 20
9.1433059898
 30
0.0
 10
8.6252988685
 20
9.1300418939
 30
0.0
 10
8.6444063543
 20
9.1177215616
 30
0.0
 10
8.6640507979
 20
9.1064702973
 30
0.0
 10
8.6842108669
 20
9.096409162
 30
0.0
 10
8.7048589812
 20
9.0876560007
 30
0.0
 10
8.7259552956
 20
9.0803235911
 30
0.0
 10
8.7474431041
 20
9.0745148859
 30
0.0
 10
8.7692428916
 20
9.0703156715
 30
0.0
 10
8.7839331501
 20
9.0686279813
 30
0.0
 10
8.7912900893
 20
9.0680681075
 30
0.0
  0
SPLINE
  5
36D
100
AcDbEntity
  8
0
100
AcDbSpline
 62
7
  6
CONTINUOUS
 70
0
 71
3
 72
9
 73
5
 74
0
 42
0.0000001
 43
0.0000001
 44
0.0000000001
 40
0.0
 40
0.0
 40
0.0
 40
0.0
 40
0.4767756548
 40
1.0
 40
1.0
 40
1.0
 40
1.0
 10
8.4693867182
 20
9.2829621239
 30
0.0
 10
8.4735584383
 20
9.27766487
 30
0.0
 10
8.4822828294
 20
9.2665341752
 30
0.0
 10
8.490894876
 20
9.2553158045
 30
0.0
 10
8.4953553249
 20
9.2494116945
 30
0.0
  0
SPLINE
  5
36E
100
AcDbEntity
  8
0
100
AcDbSpline
 62
7
  6
CONTINUOUS
 70
0
 71
3
 72
15
 73
11
 74
0
 42
0.0000001
 43
0.0000001
 44
0.0000000001
 40
0.0
 40
0.0
 40
0.0
 40
0.0
 40
0.1273482789
 40
0.2538606571
 40
0.3795878378
 40
0.5046051156
 40
0.629017439
 40
0.7529533823
 40
0.8765605864
 40
1.0
 40
1.0
 40
1.0
 40
1.0
 10
11.5659738103
 20
6.7170801319
 30
0.0
 10
11.5659738103
 20
6.7235784569
 30
0.0
 10
11.566594271
 20
6.7365414361
 30
0.0
 10
11.5694002025
 20
6.7557365822
 30
0.0
 10
11.574052924
 20
6.7744494359
 30
0.0
 10
11.5805104068
 20
6.7925049872
 30
0.0
 10
11.5887134265
 20
6.8097367288
 30
0.0
 10
11.5985871516
 20
6.8259855633
 30
0.0
 10
11.6100387739
 20
6.8410992378
 30
0.0
 10
11.6186612737
 20
6.8503315456
 30
0.0
 10
11.6231917452
 20
6.8547076751
 30
0.0
  0
SPLINE
  5
36F
100
AcDbEntity
  8
0
100
AcDbSpline
 62
7
  6
CONTINUOUS
 70
0
 71
3
 72
8
 73
4
 74
0
 42
0.0000001
 43
0.0000001
 44
0.0000000001
 40
0.0
 40
0.0
 40
0.0
 40
0.0
 40
1.0
 40
1.0
 40
1.0
 40
1.0
 10
13.5219317655
 20
7.5465057243
 30
0.0
 10
13.5219565359
 20
7.546511362
 30
0.0
 10
13.5219813064
 20
7.5465169997
 30
0.0
 10
13.5220060768
 20
7.5465226374
 30
0.0
  0
SPLINE
  5
370
100
AcDbEntity
  8
0
100
AcDbSpline
 62
7
  6
CONTINUOUS
 70
0
 71
3
 72
15
 73
11
 74
0
 42
0.0000001
 43
0.0000001
 44
0.0000000001
 40
0.0
 40
0.0
 40
0.0
 40
0.0
 40
0.122443575
 40
0.2462390864
 40
0.3710153185
 40
0.4964384566
 40
0.6222334685
 40
0.7481876975
 40
0.8741454769
 40
1.0
 40
1.0
 40
1.0
 40
1.0
 10
10.4936633113
 20
7.5311951307
 30
0.0
 10
10.4911989905
 20
7.529194418
 30
0.0
 10
10.4862944743
 20
7.5251075063
 30
0.0
 10
10.4790178332
 20
7.5188174064
 30
0.0
 10
10.4717489313
 20
7.5124013301
 30
0.0
 10
10.4644581245
 20
7.505931912
 30
0.0
 10
10.4571135556
 20
7.4994770707
 30
0.0
 10
10.4496843284
 20
7.4930981527
 30
0.0
 10
10.442143034
 20
7.4868493147
 30
0.0
 10
10.4370226234
 20
7.4827987998
 30
0.0
 10
10.434436705
 20
7.4808093428
 30
0.0
  0
SPLINE
  5
371
100
AcDbEntity
  8
0
100
AcDbSpline
 62
7
  6
CONTINUOUS
 70
0
 71
3
 72
11
 73
7
 74
0
 42
0.0000001
 43
0.0000001
 44
0.0000000001
 40
0.0
 40
0.0
 40
0.0
 40
0.0
 40
0.2464589102
 40
0.494350222
 40
0.7450792109
 40
1.0
 40
1.0
 40
1.0
 40
1.0
 10
13.6452945658
 20
9.1034976171
 30
0.0
 10
13.6465780654
 20
9.1034086035
 30
0.0
 10
13.6491465952
 20
9.1031280899
 30
0.0
 10
13.6529717069
 20
9.102402531
 30
0.0
 10
13.6567719466
 20
9.1013723697
 30
0.0
 10
13.6592632519
 20
9.1004915521
 30
0.0
 10
13.6605012347
 20
9.1000033822
 30
0.0
  0
SPLINE
  5
372
100
AcDbEntity
  8
0
100
AcDbSpline
 62
7
  6
CONTINUOUS
 70
0
 71
3
 72
15
 73
11
 74
0
 42
0.0000001
 43
0.0000001
 44
0.0000000001
 40
0.0
 40
0.0
 40
0.0
 40
0.0
 40
0.1273473901
 40
0.2538608346
 40
0.3795878351
 40
0.5046051039
 40
0.6290174461
 40
0.7529533848
 40
0.8765605883
 40
1.0
 40
1.0
 40
1.0
 40
1.0
 10
8.5271708233
 20
6.9278218348
 30
0.0
 10
8.5271708233
 20
6.9302240379
 30
0.0
 10
8.5274001908
 20
6.935016033
 30
0.0
 10
8.5284374301
 20
6.942111859
 30
0.0
 10
8.5301574055
 20
6.9490294073
 30
0.0
 10
8.5325445206
 20
6.9557039566
 30
0.0
 10
8.5355768981
 20
6.9620739783
 30
0.0
 10
8.5392268893
 20
6.9680806485
 30
0.0
 10
8.5434601824
 20
6.9736676823
 30
0.0
 10
8.5466476284
 20
6.9770805782
 30
0.0
 10
8.5483223953
 20
6.9786982925
 30
0.0
  0
SPLINE
  5
373
100
AcDbEntity
  8
0
100
AcDbSpline
 62
7
  6
CONTINUOUS
 70
0
 71
3
 72
21
 73
17
 74
0
 42
0.0000001
 43
0.0000001
 44
0.0000000001
 40
0.0
 40
0.0
 40
0.0
 40
0.0
 40
0.0808000144
 40
0.1249087996
 40
0.1718175714
 40
0.2217382012
 40
0.2748467186
 40
0.331287472
 40
0.3911758759
 40
0.4546004196
 40
0.5216252184
 40
0.5922906246
 40
0.6666125312
 40
0.7445836043
 40
0.8261779863
 40
1.0
 40
1.0
 40
1.0
 40
1.0
 10
8.4264934618
 20
9.323074278
 30
0.0
 10
8.4280109871
 20
9.3225697463
 30
0.0
 10
8.4302881007
 20
9.3215740213
 30
0.0
 10
8.4332520263
 20
9.3199053187
 30
0.0
 10
8.4355969029
 20
9.3183910708
 30
0.0
 10
8.4380020327
 20
9.3166508474
 30
0.0
 10
8.440472073
 20
9.3146843778
 30
0.0
 10
8.4430108009
 20
9.3124921081
 30
0.0
 10
8.4456219311
 20
9.310074763
 30
0.0
 10
8.4483088656
 20
9.3074336208
 30
0.0
 10
8.4510746401
 20
9.3045704557
 30
0.0
 10
8.4539218949
 20
9.3014876981
 30
0.0
 10
8.4568527467
 20
9.2981884507
 30
0.0
 10
8.4598688571
 20
9.2946765386
 30
0.0
 10
8.4640949188
 20
9.2896088146
 30
0.0
 10
8.4672582054
 20
9.2856649115
 30
0.0
 10
8.4693867182
 20
9.2829621239
 30
0.0
  0
SPLINE
  5
374
100
AcDbEntity
  8
0
100
AcDbSpline
 62
7
  6
CONTINUOUS
 70
0
 71
3
 72
15
 73
11
 74
0
 42
0.0000001
 43
0.0000001
 44
0.0000000001
 40
0.0
 40
0.0
 40
0.0
 40
0.0
 40
0.1249654758
 40
0.2500847779
 40
0.3752850829
 40
0.5004927075
 40
0.6256352968
 40
0.7506432973
 40
0.8754514537
 40
1.0
 40
1.0
 40
1.0
 40
1.0
 10
9.3946061701
 20
7.7176049028
 30
0.0
 10
9.4004814269
 20
7.7135261844
 30
0.0
 10
9.4119821798
 20
7.7049862741
 30
0.0
 10
9.4283904704
 20
7.6911046101
 30
0.0
 10
9.4439008567
 20
7.6762053282
 30
0.0
 10
9.4584467649
 20
7.6603618
 30
0.0
 10
9.4719701431
 20
7.6436514015
 30
0.0
 10
9.4844205146
 20
7.6261550003
 30
0.0
 10
9.4957548002
 20
7.6079570253
 30
0.0
 10
9.5025528854
 20
7.5953967382
 30
0.0
 10
9.50575475
 20
7.5890279174
 30
0.0
  0
SPLINE
  5
375
100
AcDbEntity
  8
0
100
AcDbSpline
 62
7
  6
CONTINUOUS
 70
0
 71
3
 72
15
 73
11
 74
0
 42
0.0000001
 43
0.0000001
 44
0.0000000001
 40
0.0
 40
0.0
 40
0.0
 40
0.0
 40
0.1316393887
 40
0.2630703536
 40
0.3934325911
 40
0.5218695409
 40
0.647543321
 40
0.7696389555
 40
0.8873727424
 40
1.0
 40
1.0
 40
1.0
 40
1.0
 10
8.7912900893
 20
9.0680681075
 30
0.0
 10
8.7909304611
 20
9.0613237945
 30
0.0
 10
8.7900701129
 20
9.0478529788
 30
0.0
 10
8.7883628374
 20
9.027738434
 30
0.0
 10
8.7862490045
 20
9.0078276339
 30
0.0
 10
8.7837434683
 20
8.98826003
 30
0.0
 10
8.7808639355
 20
8.9691726792
 30
0.0
 10
8.7776307422
 20
8.9506990809
 30
0.0
 10
8.7740668121
 20
8.9329686621
 30
0.0
 10
8.7714232092
 20
8.9214472218
 30
0.0
 10
8.770044526
 20
8.9158356442
 30
0.0
  0
SPLINE
  5
376
100
AcDbEntity
  8
0
100
AcDbSpline
 62
7
  6
CONTINUOUS
 70
0
 71
3
 72
23
 73
19
 74
0
 42
0.0000001
 43
0.0000001
 44
0.0000000001
 40
0.0
 40
0.0
 40
0.0
 40
0.0
 40
0.0625889226
 40
0.125167624
 40
0.1877329075
 40
0.2502861371
 40
0.3128262436
 40
0.3753533822
 40
0.4378675286
 40
0.5003689263
 40
0.5628579629
 40
0.6253351925
 40
0.6878013258
 40
0.7502572203
 40
0.8127038688
 40
0.8751423858
 40
0.9375739925
 40
1.0
 40
1.0
 40
1.0
 40
1.0
 10
8.9783010441
 20
7.5124651565
 30
0.0
 10
8.9744995892
 20
7.507109944
 30
0.0
 10
8.9672020685
 20
7.4961802457
 30
0.0
 10
8.9572137745
 20
7.4791902008
 30
0.0
 10
8.9482155569
 20
7.4616591253
 30
0.0
 10
8.9402374036
 20
7.4436455402
 30
0.0
 10
8.9333054426
 20
7.4252082799
 30
0.0
 10
8.9274424629
 20
7.4064080585
 30
0.0
 10
8.9226677454
 20
7.3873066084
 30
0.0
 10
8.9189969848
 20
7.3679667107
 30
0.0
 10
8.9164422544
 20
7.3484519151
 30
0.0
 10
8.9150119468
 20
7.3288263516
 30
0.0
 10
8.9147107616
 20
7.3091545172
 30
0.0
 10
8.9155396953
 20
7.2895010418
 30
0.0
 10
8.9174960081
 20
7.269930569
 30
0.0
 10
8.9205733456
 20
7.2505071939
 30
0.0
 10
8.9247613403
 20
7.2312955613
 30
0.0
 10
8.9282853837
 20
7.2186685628
 30
0.0
 10
8.930226883
 20
7.2124127091
 30
0.0
  0
SPLINE
  5
377
100
AcDbEntity
  8
0
100
AcDbSpline
 62
7
  6
CONTINUOUS
 70
0
 71
3
 72
27
 73
23
 74
0
 42
0.0000001
 43
0.0000001
 44
0.0000000001
 40
0.0
 40
0.0
 40
0.0
 40
0.0
 40
0.06064396
 40
0.091028875
 40
0.1214576328
 40
0.1824571105
 40
0.2436827623
 40
0.2743937925
 40
0.305170712
 40
0.3669217567
 40
0.4289611371
 40
0.4912983603
 40
0.5539370846
 40
0.6168751237
 40
0.6801045732
 40
0.7118291258
 40
0.7436210721
 40
0.8073879881
 40
0.8713910266
 40
0.903476994
 40
0.9356113108
 40
1.0
 40
1.0
 40
1.0
 40
1.0
 10
8.9783027212
 20
7.5124675192
 30
0.0
 10
8.9741692286
 20
7.5062390395
 30
0.0
 10
8.9683088226
 20
7.4966545844
 30
0.0
 10
8.9612161883
 20
7.4834670598
 30
0.0
 10
8.9545937346
 20
7.4699876123
 30
0.0
 10
8.9472315599
 20
7.4526514267
 30
0.0
 10
8.9411403983
 20
7.4347923707
 30
0.0
 10
8.9370389434
 20
7.4202297818
 30
0.0
 10
8.9334487876
 20
7.4054661518
 30
0.0
 10
8.9299460109
 20
7.3867202519
 30
0.0
 10
8.927341198
 20
7.3639068014
 30
0.0
 10
8.9263417469
 20
7.3408570887
 30
0.0
 10
8.9269525015
 20
7.3176832853
 30
0.0
 10
8.9291700797
 20
7.2944980025
 30
0.0
 10
8.9323450277
 20
7.2752796348
 30
0.0
 10
8.9356707964
 20
7.2600117963
 30
0.0
 10
8.9395257799
 20
7.2448004722
 30
0.0
 10
8.9453170479
 20
7.2259876491
 30
0.0
 10
8.9523614197
 20
7.2075688328
 30
0.0
 10
8.9587334911
 20
7.1931019277
 30
0.0
 10
8.9655994944
 20
7.1788106727
 30
0.0
 10
8.9712803617
 20
7.1683437794
 30
0.0
 10
8.9752923545
 20
7.1614955838
 30
0.0
  0
SPLINE
  5
378
100
AcDbEntity
  8
0
100
AcDbSpline
 62
7
  6
CONTINUOUS
 70
0
 71
3
 72
31
 73
27
 74
0
 42
0.0000001
 43
0.0000001
 44
0.0000000001
 40
0.0
 40
0.0
 40
0.0
 40
0.0
 40
0.133998165
 40
0.1993764067
 40
0.2636637934
 40
0.3268544134
 40
0.3889461623
 40
0.4195819568
 40
0.4499470326
 40
0.4800453873
 40
0.5098833282
 40
0.5394703833
 40
0.5688206364
 40
0.5979545232
 40
0.6269012758
 40
0.6557023801
 40
0.6844157771
 40
0.7419076034
 40
0.7709586396
 40
0.8004378869
 40
0.8305701388
 40
0.8616141027
 40
0.8938443425
 40
0.9275223606
 40
0.9628621343
 40
1.0
 40
1.0
 40
1.0
 40
1.0
 10
8.79224909
 20
9.0660158159
 30
0.0
 10
8.7943606363
 20
9.061496279
 30
0.0
 10
8.7974998969
 20
9.0547704354
 30
0.0
 10
8.8016070828
 20
9.0458553596
 30
0.0
 10
8.8045749826
 20
9.0393178095
 30
0.0
 10
8.807438253
 20
9.0328673534
 30
0.0
 10
8.8097285783
 20
9.0275335405
 30
0.0
 10
8.8114805554
 20
9.0232991214
 30
0.0
 10
8.8127445826
 20
9.0201519706
 30
0.0
 10
8.81395833
 20
9.0170168892
 30
0.0
 10
8.8151160352
 20
9.0138915099
 30
0.0
 10
8.8162096202
 20
9.0107725597
 30
0.0
 10
8.8172307511
 20
9.0076566369
 30
0.0
 10
8.8181686284
 20
9.0045394134
 30
0.0
 10
8.8190114732
 20
9.0014162364
 30
0.0
 10
8.8197446025
 20
8.9982811848
 30
0.0
 10
8.8205537833
 20
8.9940763054
 30
0.0
 10
8.8210716517
 20
8.9898070159
 30
0.0
 10
8.8211996152
 20
8.9854869698
 30
0.0
 10
8.8210721446
 20
8.9821858269
 30
0.0
 10
8.8206902415
 20
8.9788292251
 30
0.0
 10
8.8200236442
 20
8.9754125204
 30
0.0
 10
8.819045207
 20
8.971934197
 30
0.0
 10
8.8177342324
 20
8.9683960471
 30
0.0
 10
8.816079526
 20
8.9648033678
 30
0.0
 10
8.8147796
 20
8.96243628
 30
0.0
 10
8.8140771385
 20
8.9612454679
 30
0.0
  0
SPLINE
  5
379
100
AcDbEntity
  8
0
100
AcDbSpline
 62
7
  6
CONTINUOUS
 70
0
 71
3
 72
23
 73
19
 74
0
 42
0.0000001
 43
0.0000001
 44
0.0000000001
 40
0.0
 40
0.0
 40
0.0
 40
0.0
 40
0.0262801824
 40
0.0532588248
 40
0.0808602314
 40
0.1090278536
 40
0.1668704826
 40
0.2264672845
 40
0.2568443639
 40
0.2875692444
 40
0.3499569519
 40
0.413436153
 40
0.4778151123
 40
0.6084527608
 40
0.7402336854
 40
0.8060130783
 40
0.8713953533
 40
1.0
 40
1.0
 40
1.0
 40
1.0
 10
8.4953553249
 20
9.2494116945
 30
0.0
 10
8.4964319142
 20
9.2474012436
 30
0.0
 10
8.4986084723
 20
9.2433240943
 30
0.0
 10
8.5018758506
 20
9.2371142081
 30
0.0
 10
8.5051619986
 20
9.23072937
 30
0.0
 10
8.5095763336
 20
9.2219135612
 30
0.0
 10
8.5150107599
 20
9.2105043367
 30
0.0
 10
8.5201634513
 20
9.198754606
 30
0.0
 10
8.5241197109
 20
9.1890558956
 30
0.0
 10
8.5279872932
 20
9.179061332
 30
0.0
 10
8.5325321501
 20
9.1662512452
 30
0.0
 10
8.5374326568
 20
9.1504811118
 30
0.0
 10
8.5431971542
 20
9.1287968654
 30
0.0
 10
8.5486972078
 20
9.1009359525
 30
0.0
 10
8.5516169595
 20
9.0725582676
 30
0.0
 10
8.5522575255
 20
9.0497399549
 30
0.0
 10
8.5517286438
 20
9.0271975896
 30
0.0
 10
8.5499902495
 20
9.0104076997
 30
0.0
 10
8.5481924994
 20
8.9993933006
 30
0.0
  0
SPLINE
  5
37A
100
AcDbEntity
  8
0
100
AcDbSpline
 62
7
  6
CONTINUOUS
 70
0
 71
3
 72
15
 73
11
 74
0
 42
0.0000001
 43
0.0000001
 44
0.0000000001
 40
0.0
 40
0.0
 40
0.0
 40
0.0
 40
0.1273482808
 40
0.2538605196
 40
0.3795878971
 40
0.5046050835
 40
0.6290174393
 40
0.7529533827
 40
0.8765605876
 40
1.0
 40
1.0
 40
1.0
 40
1.0
 10
9.6722759831
 20
6.7875552266
 30
0.0
 10
9.6722759831
 20
6.7918823004
 30
0.0
 10
9.6726891254
 20
6.8005140229
 30
0.0
 10
9.6745575322
 20
6.8132955965
 30
0.0
 10
9.6776556622
 20
6.8257560215
 30
0.0
 10
9.6819555379
 20
6.8377787708
 30
0.0
 10
9.6874176886
 20
6.8492529755
 30
0.0
 10
9.6939923415
 20
6.8600726846
 30
0.0
 10
9.7016176937
 20
6.8701365048
 30
0.0
 10
9.7073591853
 20
6.8762840859
 30
0.0
 10
9.7103759113
 20
6.879198045
 30
0.0
  0
ELLIPSE
  5
37B
100
AcDbEntity
  8
0
100
AcDbEllipse
 62
7
  6
CONTINUOUS
 10
8.6025130422
 20
9.037008661
 30
0.0
 11
-0.1785101378
 21
0.3025215444
 31
0.0
 40
0.9263984221
 41
0.0
 42
6.2831853072
  0
ENDSEC
  0
SECTION
  2
OBJECTS
  0
DICTIONARY
  5
C
100
AcDbDictionary
280
0
281
1
  3
ACAD_GROUP
350
D
  3
ACAD_MLINESTYLE
350
17
  3
ACAD_LAYOUT
350
1A
  3
ACAD_PLOTSETTINGS
350
19
  3
ACAD_PLOTSTYLENAME
350
E
  3
ACAD_IMAGE_DICT
350
       37D
  3
ACAD_IMAGE_VARS
350
       37E
  3
ACAD_TABLESTYLE
350
       37F
  0
IMAGEDEF_REACTOR
  5
37C
100
AcDbRasterImageDefReactor
 90
2
330
278
  0
DICTIONARY
  5
D
102
{ACAD_REACTORS
330
C
102
}
100
AcDbDictionary
280
0
281
1
  0
ACDBDICTIONARYWDFLT
  5
E
102
{ACAD_REACTORS
330
C
102
}
100
AcDbDictionary
281
1
  3
Normal
350
F
100
AcDbDictionaryWithDefault
340
F
  0
DICTIONARY
  5
37D
330
C
100
AcDbDictionary
281
1
  3
BK7_assy_2_img_1
350
       382
  0
RASTERVARIABLES
  5
37E
330
C
100
AcDbRasterVariables
 90
0
 70
0
 71
1
 72
5
  0
DICTIONARY
  5
17
102
{ACAD_REACTORS
330
C
102
}
100
AcDbDictionary
280
0
281
1
  3
Standard
350
18
  0
DICTIONARY
  5
37F
330
C
100
AcDbDictionary
281
1
  3
Standard
350
       383
  3
Standard1
350
       384
  0
DICTIONARY
  5
19
102
{ACAD_REACTORS
330
C
102
}
100
AcDbDictionary
281
1
  0
DICTIONARY
  5
1A
102
{ACAD_REACTORS
330
C
102
}
100
AcDbDictionary
281
1
  3
Model
350
380
  3
Layout1
350
381
  0
ACDBPLACEHOLDER
  5
F
102
{ACAD_REACTORS
330
E
102
}
  0
MLINESTYLE
  5
18
102
{ACAD_REACTORS
330
17
102
}
100
AcDbMlineStyle
  2
STANDARD
 70
0
  3

 62
256
 51
90.0
 52
90.0
 71
2
 49
0.5
 62
256
  6
BYLAYER
 49
-0.5
 62
256
  6
BYLAYER
  0
LAYOUT
  5
380
102
{ACAD_REACTORS
330
1A
102
}
100
AcDbPlotSettings
  1

  2
none_device
  4
ANSI_C_(22.00_x_17.00_Inches)
  6

 40
0.0
 41
0.0
 42
0.0
 43
0.0
 44
558.8
 45
431.8
 46
0.0
 47
0.0
 48
0.0
 49
0.0
140
0.0
141
0.0
142
1.0
143
1.0
 70
1024
 72
0
 73
0
 74
0
  7

 75
0
147
1.0
148
0.0
149
0.0
100
AcDbLayout
  1
Model
 70
0
 71
0
 10
0.0
 20
0.0
 11
22.0
 21
17.0
 12
0.0
 22
0.0
 32
0.0
 14
0.0
 24
0.0
 34
0.0
 15
0.0
 25
0.0
 35
0.0
146
0.0
 13
0.0
 23
0.0
 33
0.0
 16
1.0
 26
0.0
 36
0.0
 17
0.0
 27
1.0
 37
0.0
 76
0
330
20F
345
0
346
0
  0
LAYOUT
  5
381
102
{ACAD_REACTORS
330
1A
102
}
100
AcDbPlotSettings
  1

  2
none_device
  4
ANSI_C_(22.00_x_17.00_Inches)
  6

 40
0.0
 41
0.0
 42
0.0
 43
0.0
 44
558.8
 45
431.8
 46
0.0
 47
0.0
 48
0.0
 49
0.0
140
0.0
141
0.0
142
1.0
143
1.0
 70
0
 72
0
 73
0
 74
0
  7

 75
0
147
1.0
148
0.0
149
0.0
100
AcDbLayout
  1
Layout1
 70
0
 71
1
 10
0.0
 20
0.0
 11
22.0
 21
17.0
 12
0.0
 22
0.0
 32
0.0
 14
0.0
 24
0.0
 34
0.0
 15
0.0
 25
0.0
 35
0.0
146
0.0
 13
0.0
 23
0.0
 33
0.0
 16
1.0
 26
0.0
 36
0.0
 17
0.0
 27
1.0
 37
0.0
 76
0
330
210
345
0
346
0
  0
IMAGEDEF
  5
382
102
{ACAD_REACTORS
330
37D
330
37C
102
}
100
AcDbRasterImageDef
 90
0
  1
BK7_assy_2_img_1.png
 10
369.0
 20
92.0
 11
0.0066666667
 21
0.0066666667
280
1
281
0
  0
TABLESTYLE
  5
383
102
{ACAD_REACTORS
330
37F
330
27B
102
}
330
37F
100
AcDbTableStyle
  3
Standard
 70
0
 71
0
 40
0.06
 41
0.06
280
1
281
1
  7
Standard
140
0.18
170
1
 62
0
 63
7
283
0
  7
Standard
140
0.18
170
1
 62
0
 63
7
283
0
  7
Standard
140
0.18
170
1
 62
0
 63
7
283
0
  0
TABLESTYLE
  5
384
102
{ACAD_REACTORS
330
37F
330
27A
102
}
330
37F
100
AcDbTableStyle
  3
Standard1
 70
1
 71
0
 40
0.06
 41
0.06
280
1
281
1
  7
Standard
140
0.18
170
1
 62
0
 63
7
283
0
  7
Standard
140
0.18
170
1
 62
0
 63
7
283
0
  7
Standard
140
0.18
170
1
 62
0
 63
7
283
0
  0
ENDSEC
  0
EOF
