999
DXF file: BK5_assy_2.dxf
999
Pro/ENGINEER 2014200 by Parametric Technology Corporation
  0
SECTION
  2
HEADER
  9
$ACADVER
  1
AC1021
  9
$DWGCODEPAGE
  3
ANSI_1252
  9
$EXTMAX
 10
22.0
 20
17.0
 30
0.0
  9
$EXTMIN
 10
0.0
 20
0.0
 30
0.0
  9
$LIMMIN
 10
0.0
 20
0.0
  9
$LIMMAX
 10
22.0
 20
17.0
  9
$VIEWCTR
 10
11.0
 20
8.5
  9
$VIEWSIZE
 40
17.0
  9
$CLAYER
  8
0
  9
$LTSCALE
 40
1.21
  9
$CELTYPE
  6
BYLAYER
  9
$DIMSCALE
 40
1.0
  9
$DIMASZ
 40
0.1875
  9
$DIMEXO
 40
0.0625
  9
$DIMDLI
 40
0.836
  9
$DIMEXE
 40
0.125
  9
$DIMCEN
 40
0.198
  9
$DIMLFAC
 40
1.0
  9
$DIMBLK
  1
_FILLED
  9
$DIMTXT
 40
0.1
  9
$DIMTOL
 70
0
  9
$DIMLIM
 70
0
  9
$DIMTFAC
 40
1.0
  9
$DIMGAP
 40
0.09
  9
$DIMDSEP
 70
46
  9
$AUNITS
 70
0
  9
$PDMODE
 70
3
  9
$PDSIZE
 40
0.3125
  9
$HANDSEED
  5
35A
  9
$TILEMODE
 70
1
  9
$MEASUREMENT
 70
0
  9
$INSUNITS
 70
1
  0
ENDSEC
  0
SECTION
  2
CLASSES
  0
CLASS
  1
ACDBDICTIONARYWDFLT
  2
AcDbDictionaryWithDefault
  3
AutoCAD 2000
 90
0
 91
1
280
0
281
0
  0
CLASS
  1
ACDBPLACEHOLDER
  2
AcDbPlaceHolder
  3
AutoCAD 2000
 90
0
 91
1
280
0
281
0
  0
CLASS
  1
LAYOUT
  2
AcDbLayout
  3
AutoCAD 2000
 90
0
 91
0
280
0
281
0
  0
CLASS
  1
RASTERVARIABLES
  2
AcDbRasterVariables
  3
ISM
 90
0
 91
1
280
0
281
0
  0
CLASS
  1
IMAGEDEF
  2
AcDbRasterImageDef
  3
ISM
 90
0
 91
1
280
0
281
0
  0
CLASS
  1
IMAGEDEF_REACTOR
  2
AcDbRasterImageDefReactor
  3
ISM
 90
0
 91
1
280
0
281
0
  0
CLASS
  1
IMAGE
  2
AcDbRasterImage
  3
ISM
 90
127
 91
1
280
0
281
1
  0
CLASS
  1
TABLESTYLE
  2
AcDbTableStyle
  3
ObjectDBX Classes
 90
2047
 91
1
280
0
281
0
  0
CLASS
  1
ACAD_TABLE
  2
AcDbTable
  3
ObjectDBX Classes
 90
1025
 91
2
280
0
281
1
  0
ENDSEC
  0
SECTION
  2
TABLES
  0
TABLE
  2
VPORT
  5
8
100
AcDbSymbolTable
 70
2
  0
VPORT
  5
1F4
100
AcDbSymbolTableRecord
100
AcDbViewportTableRecord
  2
*ACTIVE
 70
0
 10
0.0
 20
0.0
 11
1.0
 21
1.0
 12
11.0
 22
8.5
 13
0.0
 23
0.0
 14
1.0
 24
1.0
 15
0.0
 25
0.0
 16
0.0
 26
0.0
 36
1.0
 17
0.0
 27
0.0
 37
0.0
 40
17.0
 41
1.2941176471
 42
50.0
 43
0.0
 44
0.0
 50
0.0
 51
0.0
 71
0
 72
100
 73
1
 74
1
 75
0
 76
0
 77
0
 78
0
  0
ENDTAB
  0
TABLE
  2
LTYPE
  5
5
100
AcDbSymbolTable
 70
6
  0
LTYPE
  5
14
100
AcDbSymbolTableRecord
100
AcDbLinetypeTableRecord
  2
BYBLOCK
 70
0
  3

 72
65
 73
0
 40
0.0
  0
LTYPE
  5
15
100
AcDbSymbolTableRecord
100
AcDbLinetypeTableRecord
  2
BYLAYER
 70
0
  3

 72
65
 73
0
 40
0.0
  0
LTYPE
  5
16
100
AcDbSymbolTableRecord
100
AcDbLinetypeTableRecord
  2
CONTINUOUS
 70
64
  3
Solid line
 72
65
 73
0
 40
0.0
  0
LTYPE
  5
1F5
100
AcDbSymbolTableRecord
100
AcDbLinetypeTableRecord
  2
CENTER
 70
64
  3
____ _ ____ _ ____ _ ____ _ ____ _ ____ _ ____
 72
65
 73
4
 40
0.6
 49
0.375
 74
0
 49
-0.075
 74
0
 49
0.075
 74
0
 49
-0.075
 74
0
  0
LTYPE
  5
1F6
100
AcDbSymbolTableRecord
100
AcDbLinetypeTableRecord
  2
HIDDEN
 70
64
  3
- - - - - - - - - - - - - - - - - - - -
 72
65
 73
2
 40
0.2
 49
0.1
 74
0
 49
-0.1
 74
0
  0
LTYPE
  5
1F7
100
AcDbSymbolTableRecord
100
AcDbLinetypeTableRecord
  2
PHANTOM
 70
64
  3
_____ _ _ _____ _ _ _____ _ _ _____
 72
65
 73
6
 40
0.8
 49
0.45
 74
0
 49
-0.05
 74
0
 49
0.1
 74
0
 49
-0.05
 74
0
 49
0.1
 74
0
 49
-0.05
 74
0
  0
LTYPE
  5
1F8
100
AcDbSymbolTableRecord
100
AcDbLinetypeTableRecord
  2
DOT
 70
64
  3
. . . . . . . . . . . . . . . . . . . .
 72
65
 73
2
 40
0.2
 49
0.1
 74
0
 49
-0.1
 74
0
  0
LTYPE
  5
1F9
100
AcDbSymbolTableRecord
100
AcDbLinetypeTableRecord
  2
DASHED
 70
64
  3
- - - - - - - - - - - - - - - - - - - -
 72
65
 73
2
 40
0.2
 49
0.1
 74
0
 49
-0.1
 74
0
  0
ENDTAB
  0
TABLE
  2
LAYER
  5
2
100
AcDbSymbolTable
 70
36
  0
LAYER
  5
10
100
AcDbSymbolTableRecord
100
AcDbLayerTableRecord
  2
0
 70
0
 62
7
  6
CONTINUOUS
370
-3
390
F
  0
LAYER
  5
1FA
100
AcDbSymbolTableRecord
100
AcDbLayerTableRecord
  2
DEFAULT_1
 70
0
 62
7
  6
CENTER
370
-3
390
F
  0
LAYER
  5
1FB
100
AcDbSymbolTableRecord
100
AcDbLayerTableRecord
  2
DEFAULT_2
 70
0
 62
8
  6
HIDDEN
370
-3
390
F
  0
LAYER
  5
1FC
100
AcDbSymbolTableRecord
100
AcDbLayerTableRecord
  2
DEFAULT_3
 70
0
 62
7
  6
PHANTOM
370
-3
390
F
  0
LAYER
  5
1FD
100
AcDbSymbolTableRecord
100
AcDbLayerTableRecord
  2
DATUM_PLANES
 70
0
 62
7
  6
CONTINUOUS
370
-3
390
F
  0
LAYER
  5
1FE
100
AcDbSymbolTableRecord
100
AcDbLayerTableRecord
  2
DIMENSIONS
 70
0
 62
7
  6
CONTINUOUS
370
-3
390
F
  0
LAYER
  5
1FF
100
AcDbSymbolTableRecord
100
AcDbLayerTableRecord
  2
PARAMETERDIMENSIONS
 70
0
 62
7
  6
CONTINUOUS
370
-3
390
F
  0
LAYER
  5
200
100
AcDbSymbolTableRecord
100
AcDbLayerTableRecord
  2
PLANE
 70
0
 62
7
  6
CONTINUOUS
370
-3
390
F
  0
LAYER
  5
201
100
AcDbSymbolTableRecord
100
AcDbLayerTableRecord
  2
PORT_AREAS
 70
0
 62
7
  6
CONTINUOUS
370
-3
390
F
  0
LAYER
  5
202
100
AcDbSymbolTableRecord
100
AcDbLayerTableRecord
  2
SUNNBOMCOSMETIC
 70
0
 62
7
  6
CONTINUOUS
370
-3
390
F
  0
LAYER
  5
203
100
AcDbSymbolTableRecord
100
AcDbLayerTableRecord
  2
SUNNBOMSTAMPING
 70
0
 62
7
  6
CONTINUOUS
370
-3
390
F
  0
LAYER
  5
204
100
AcDbSymbolTableRecord
100
AcDbLayerTableRecord
  2
THREADS
 70
0
 62
7
  6
CONTINUOUS
370
-3
390
F
  0
ENDTAB
  0
TABLE
  2
STYLE
  5
3
100
AcDbSymbolTable
 70
1
  0
STYLE
  5
11
100
AcDbSymbolTableRecord
100
AcDbTextStyleTableRecord
  2
STANDARD
 70
0
 40
0.0
 41
0.8
 50
0.0
 71
0
 42
0.2
  3
txt
  4

  0
STYLE
  5
205
100
AcDbSymbolTableRecord
100
AcDbTextStyleTableRecord
  2
TEXTSTYLE_1
 70
0
 40
0.0
 41
0.8
 50
0.0
 71
0
 42
0.2
  3
gdt
  4

  0
ENDTAB
  0
TABLE
  2
VIEW
  5
6
100
AcDbSymbolTable
 70
0
  0
ENDTAB
  0
TABLE
  2
UCS
  5
7
100
AcDbSymbolTable
 70
0
  0
ENDTAB
  0
TABLE
  2
APPID
  5
9
100
AcDbSymbolTable
 70
1
  0
APPID
  5
206
100
AcDbSymbolTableRecord
100
AcDbRegAppTableRecord
  2
ACAD
 70
0
  0
ENDTAB
  0
TABLE
  2
BLOCK_RECORD
  5
1
100
AcDbSymbolTable
 70
0
  0
BLOCK_RECORD
  5
207
100
AcDbSymbolTableRecord
100
AcDbBlockTableRecord
  2
*Model_Space
  0
BLOCK_RECORD
  5
208
100
AcDbSymbolTableRecord
100
AcDbBlockTableRecord
  2
*Paper_Space
  0
BLOCK_RECORD
  5
209
100
AcDbSymbolTableRecord
100
AcDbBlockTableRecord
  2
SUN_FIRST_THIRD_ANGLE_BL0
  0
BLOCK_RECORD
  5
20A
100
AcDbSymbolTableRecord
100
AcDbBlockTableRecord
  2
*T1
  0
BLOCK_RECORD
  5
20B
100
AcDbSymbolTableRecord
100
AcDbBlockTableRecord
  2
*T2
  0
ENDTAB
  0
TABLE
  2
DIMSTYLE
  5
A
100
AcDbSymbolTable
 70
1
100
AcDbDimStyleTable
 71
0
  0
DIMSTYLE
105
20C
100
AcDbSymbolTableRecord
100
AcDbDimStyleTableRecord
  2
STANDARD
 70
0
  3

  4

 40
1.0
 41
0.1875
 42
0.0625
 43
0.38
 44
0.125
 45
0.0
 46
0.0
 47
0.001
 48
0.001
140
0.1
141
0.09
142
0.0
143
25.4
144
1.0
145
0.0
146
1.0
147
0.09
 71
0.0
 72
0.0
 73
1
 74
1
 75
0
 76
0
 77
0
 78
4
170
0
171
2
172
0
173
0
174
0
175
0
176
0
177
0
178
0
270
2
271
3
272
3
273
2
274
2
275
0
280
0
281
0
282
0
283
1
284
4
285
0
286
0
287
3
288
0
340
11
278
46
  0
ENDTAB
  0
ENDSEC
  0
SECTION
  2
BLOCKS
  0
BLOCK
  5
20
100
AcDbEntity
  8
0
100
AcDbBlockBegin
  2
*Model_Space
 70
0
 10
0.0
 20
0.0
 30
0.0
  3
*Model_Space
  1

  0
ENDBLK
  5
21
100
AcDbEntity
  8
0
100
AcDbBlockEnd
  0
BLOCK
  5
1C
100
AcDbEntity
  8
0
100
AcDbBlockBegin
  2
*Paper_Space
 70
0
 10
0.0
 20
0.0
 30
0.0
  3
*Paper_Space
  1

  0
ENDBLK
  5
1D
100
AcDbEntity
  8
0
100
AcDbBlockEnd
  0
BLOCK
  5
20D
100
AcDbEntity
  8
0
100
AcDbBlockBegin
 62
2
  6
CONTINUOUS
  2
SUN_FIRST_THIRD_ANGLE_BL0
 70
64
 10
20.4816717061
 20
1.2289683772
  3
SUN_FIRST_THIRD_ANGLE_BL0
  1

  0
TEXT
  5
20E
100
AcDbEntity
  8
0
100
AcDbText
 62
2
  6
CONTINUOUS
 10
19.4750896608
 20
1.4136269581
  7
STANDARD
 40
0.08
  1
FIRST ANGLE
 41
0.8
 72
0
100
AcDbText
  0
TEXT
  5
20F
100
AcDbEntity
  8
0
100
AcDbText
 62
2
  6
CONTINUOUS
 10
20.7842537513
 20
1.4047600029
  7
STANDARD
 40
0.08
  1
THIRD ANGLE
 41
0.8
 72
0
100
AcDbText
  0
LINE
  5
210
100
AcDbEntity
  8
0
100
AcDbLine
 62
7
  6
CONTINUOUS
 10
19.4767170086
 20
1.1727031207
 11
19.6334271527
 21
1.1717972817
  0
LINE
  5
211
100
AcDbEntity
  8
0
100
AcDbLine
 62
7
  6
CONTINUOUS
 10
19.6596964832
 20
1.1717972817
 11
19.6950230232
 21
1.171593082
  0
LINE
  5
212
100
AcDbEntity
  8
0
100
AcDbLine
 62
7
  6
CONTINUOUS
 10
19.7194818561
 20
1.1708914427
 11
19.8852396156
 21
1.1699333054
  0
LINE
  5
213
100
AcDbEntity
  8
0
100
AcDbLine
 62
7
  6
CONTINUOUS
 10
19.4758111696
 20
1.2723454088
 11
19.88525039
 21
1.3511534004
  0
LINE
  5
214
100
AcDbEntity
  8
0
100
AcDbLine
 62
7
  6
CONTINUOUS
 10
19.88525039
 20
1.3511534004
 11
19.8831348489
 21
0.9851647912
  0
LINE
  5
215
100
AcDbEntity
  8
0
100
AcDbLine
 62
7
  6
CONTINUOUS
 10
19.8831348489
 20
0.9851647912
 11
19.4767170086
 21
1.0658141206
  0
LINE
  5
216
100
AcDbEntity
  8
0
100
AcDbLine
 62
7
  6
CONTINUOUS
 10
19.4767170086
 20
1.0658141206
 11
19.4779056764
 21
1.2714536432
  0
CIRCLE
  5
217
100
AcDbEntity
  8
0
100
AcDbCircle
 62
7
  6
CONTINUOUS
 10
20.2068232291
 20
1.1717972817
 40
0.175742101
  0
CIRCLE
  5
218
100
AcDbEntity
  8
0
100
AcDbCircle
 62
7
  6
CONTINUOUS
 10
20.2068232291
 20
1.1717972817
 40
0.1005522074
  0
LINE
  5
219
100
AcDbEntity
  8
0
100
AcDbLine
 62
7
  6
CONTINUOUS
 10
20.2077290681
 20
1.3756110529
 11
20.2071171714
 21
1.2379342989
  0
LINE
  5
21A
100
AcDbEntity
  8
0
100
AcDbLine
 62
7
  6
CONTINUOUS
 10
20.2077290681
 20
1.2016899681
 11
20.2074674401
 21
1.1428236749
  0
LINE
  5
21B
100
AcDbEntity
  8
0
100
AcDbLine
 62
7
  6
CONTINUOUS
 10
20.208634907
 20
1.101141841
 11
20.2080230104
 21
0.963465087
  0
LINE
  5
21C
100
AcDbEntity
  8
0
100
AcDbLine
 62
7
  6
CONTINUOUS
 10
20.0066328138
 20
1.1745147986
 11
20.1443095678
 21
1.1739029019
  0
LINE
  5
21D
100
AcDbEntity
  8
0
100
AcDbLine
 62
7
  6
CONTINUOUS
 10
20.1832714155
 20
1.1727031207
 11
20.238153505
 21
1.172335442
  0
LINE
  5
21E
100
AcDbEntity
  8
0
100
AcDbLine
 62
7
  6
CONTINUOUS
 10
20.2756669918
 20
1.1717972817
 11
20.407916871
 21
1.1712095044
  0
CIRCLE
  5
21F
100
AcDbEntity
  8
0
100
AcDbCircle
 62
7
  6
CONTINUOUS
 10
20.7509457401
 20
1.1693297793
 40
0.1722024983
  0
CIRCLE
  5
220
100
AcDbEntity
  8
0
100
AcDbCircle
 62
7
  6
CONTINUOUS
 10
20.7509457401
 20
1.1693297793
 40
0.0985164967
  0
LINE
  5
221
100
AcDbEntity
  8
0
100
AcDbLine
 62
7
  6
CONTINUOUS
 10
20.7169767782
 20
1.170462078
 11
20.7825395137
 21
1.1682766535
  0
LINE
  5
222
100
AcDbEntity
  8
0
100
AcDbLine
 62
7
  6
CONTINUOUS
 10
20.8177513651
 20
1.1693297793
 11
20.947965719
 21
1.1693297793
  0
LINE
  5
223
100
AcDbEntity
  8
0
100
AcDbLine
 62
7
  6
CONTINUOUS
 10
20.6875370113
 20
1.170462078
 11
20.5573226574
 21
1.170462078
  0
LINE
  5
224
100
AcDbEntity
  8
0
100
AcDbLine
 62
7
  6
CONTINUOUS
 10
20.7486811426
 20
1.1987695462
 11
20.7486811426
 21
1.1432869085
  0
LINE
  5
225
100
AcDbEntity
  8
0
100
AcDbLine
 62
7
  6
CONTINUOUS
 10
20.7498134414
 20
1.1059210505
 11
20.7498134414
 21
0.9757066966
  0
LINE
  5
226
100
AcDbEntity
  8
0
100
AcDbLine
 62
7
  6
CONTINUOUS
 10
20.7486811426
 20
1.2338708068
 11
20.7486811426
 21
1.3640851607
  0
LINE
  5
227
100
AcDbEntity
  8
0
100
AcDbLine
 62
7
  6
CONTINUOUS
 10
21.0702539817
 20
1.2701043662
 11
21.4790138229
 21
1.3448360823
  0
LINE
  5
228
100
AcDbEntity
  8
0
100
AcDbLine
 62
7
  6
CONTINUOUS
 10
21.4790138229
 20
1.3448360823
 11
21.4790138229
 21
0.9779712941
  0
LINE
  5
229
100
AcDbEntity
  8
0
100
AcDbLine
 62
7
  6
CONTINUOUS
 10
21.4790138229
 20
0.9779712941
 11
21.069121683
 21
1.0617614
  0
LINE
  5
22A
100
AcDbEntity
  8
0
100
AcDbLine
 62
7
  6
CONTINUOUS
 10
21.0702539817
 20
1.2701043662
 11
21.069121683
 21
1.0617614
  0
LINE
  5
22B
100
AcDbEntity
  8
0
100
AcDbLine
 62
7
  6
CONTINUOUS
 10
21.4790138229
 20
1.1693297793
 11
21.3159628059
 21
1.1693297793
  0
LINE
  5
22C
100
AcDbEntity
  8
0
100
AcDbLine
 62
7
  6
CONTINUOUS
 10
21.2876553377
 20
1.1693297793
 11
21.2502894796
 21
1.1693297793
  0
LINE
  5
22D
100
AcDbEntity
  8
0
100
AcDbLine
 62
7
  6
CONTINUOUS
 10
21.2208497126
 20
1.1659328831
 11
21.0713862804
 21
1.1659328831
  0
LINE
  5
22E
100
AcDbEntity
  8
0
100
AcDbLine
 62
7
  6
CONTINUOUS
 10
20.4796138713
 20
1.5284908897
 11
20.4766766948
 21
0.9294458646
  0
ENDBLK
  5
22F
100
AcDbEntity
  8
0
  6
BYBLOCK
 62
0
100
AcDbBlockEnd
  0
BLOCK
  5
230
100
AcDbEntity
  8
0
100
AcDbBlockBegin
  2
*T1
 70
1
 10
0.0
 20
0.0
  3
*T1
  1

  0
LINE
  5
231
100
AcDbEntity
  8
0
100
AcDbLine
 62
2
  6
CONTINUOUS
 10
9.275
 20
0.0
 11
-0.0
 21
0.0
  0
LINE
  5
232
100
AcDbEntity
  8
0
100
AcDbLine
 62
2
  6
CONTINUOUS
 10
9.275
 20
0.0
 11
9.275
 21
1.25
  0
LINE
  5
233
100
AcDbEntity
  8
0
100
AcDbLine
 62
2
  6
CONTINUOUS
 10
9.275
 20
0.625
 11
-0.0
 21
0.625
  0
LINE
  5
234
100
AcDbEntity
  8
0
100
AcDbLine
 62
2
  6
CONTINUOUS
 10
9.275
 20
1.25
 11
-0.0
 21
1.25
  0
LINE
  5
235
100
AcDbEntity
  8
0
100
AcDbLine
 62
2
  6
CONTINUOUS
 10
6.8
 20
0.0
 11
6.8
 21
1.25
  0
LINE
  5
236
100
AcDbEntity
  8
0
100
AcDbLine
 62
2
  6
CONTINUOUS
 10
6.4
 20
0.0
 11
6.4
 21
0.625
  0
LINE
  5
237
100
AcDbEntity
  8
0
100
AcDbLine
 62
2
  6
CONTINUOUS
 10
5.9
 20
0.0
 11
5.9
 21
0.625
  0
LINE
  5
238
100
AcDbEntity
  8
0
100
AcDbLine
 62
2
  6
CONTINUOUS
 10
5.2
 20
0.0
 11
5.2
 21
0.625
  0
LINE
  5
239
100
AcDbEntity
  8
0
100
AcDbLine
 62
2
  6
CONTINUOUS
 10
4.1
 20
0.0
 11
4.1
 21
1.25
  0
LINE
  5
23A
100
AcDbEntity
  8
0
100
AcDbLine
 62
2
  6
CONTINUOUS
 10
-0.0
 20
0.0
 11
-0.0
 21
1.25
  0
MTEXT
  5
23B
100
AcDbEntity
  8
0
100
AcDbMText
 62
2
  6
CONTINUOUS
  7
STANDARD
 71
2
 72
1
 10
6.6
 20
0.325
 30
0.0
 11
1.0
 21
0.0
 31
0.0
 44
0.9
  1
2
 40
0.125
 41
0.2
  0
MTEXT
  5
23C
100
AcDbEntity
  8
0
100
AcDbMText
 62
2
  6
CONTINUOUS
  7
STANDARD
 71
2
 72
1
 10
6.15
 20
0.325
 30
0.0
 11
1.0
 21
0.0
 31
0.0
 44
0.9
  1
C
 40
0.125
 41
0.2
  0
MTEXT
  5
23D
100
AcDbEntity
  8
0
100
AcDbMText
 62
2
  6
CONTINUOUS
  7
STANDARD
 71
2
 72
1
 10
5.55
 20
0.325
 30
0.0
 11
1.0
 21
0.0
 31
0.0
 44
0.9
  1
1.000
 40
0.125
 41
1.0
  0
MTEXT
  5
23E
100
AcDbEntity
  8
0
100
AcDbMText
 62
2
  6
CONTINUOUS
  7
STANDARD
 71
2
 72
1
 10
4.65
 20
0.325
 30
0.0
 11
1.0
 21
0.0
 31
0.0
 44
0.9
  1
Nov-19-19
 40
0.125
 41
1.8
  0
MTEXT
  5
23F
100
AcDbEntity
  8
0
100
AcDbMText
 62
2
  6
CONTINUOUS
  7
STANDARD
 71
2
 72
1
 10
2.05
 20
0.4625
 30
0.0
 11
1.0
 21
0.0
 31
0.0
 44
0.9
  1
T-17A Sandwich ISO 07\PSequence into B with reverse flow check
 40
0.125
 41
7.8
  0
MTEXT
  5
240
100
AcDbEntity
  8
0
100
AcDbMText
 62
2
  6
CONTINUOUS
  7
STANDARD
 71
1
 72
1
 10
6.45
 20
0.5625
 30
0.0
 11
1.0
 21
0.0
 31
0.0
 44
0.9
  1
SHEET
 40
0.06
 41
0.48
  0
MTEXT
  5
241
100
AcDbEntity
  8
0
100
AcDbMText
 62
2
  6
CONTINUOUS
  7
STANDARD
 71
1
 72
1
 10
5.95
 20
0.5625
 30
0.0
 11
1.0
 21
0.0
 31
0.0
 44
0.9
  1
DWG SIZE
 40
0.06
 41
0.768
  0
MTEXT
  5
242
100
AcDbEntity
  8
0
100
AcDbMText
 62
2
  6
CONTINUOUS
  7
STANDARD
 71
1
 72
1
 10
5.25
 20
0.5625
 30
0.0
 11
1.0
 21
0.0
 31
0.0
 44
0.9
  1
SCALE
 40
0.06
 41
0.48
  0
MTEXT
  5
243
100
AcDbEntity
  8
0
100
AcDbMText
 62
2
  6
CONTINUOUS
  7
STANDARD
 71
1
 72
1
 10
4.15
 20
0.5625
 30
0.0
 11
1.0
 21
0.0
 31
0.0
 44
0.9
  1
DATE
 40
0.06
 41
0.384
  0
MTEXT
  5
244
100
AcDbEntity
  8
0
100
AcDbMText
 62
2
  6
CONTINUOUS
  7
STANDARD
 71
1
 72
1
 10
0.05
 20
0.5625
 30
0.0
 11
1.0
 21
0.0
 31
0.0
 44
0.9
  1
DESCRIPTION
 40
0.06
 41
1.056
  0
MTEXT
  5
245
100
AcDbEntity
  8
0
100
AcDbMText
 62
2
  6
CONTINUOUS
  7
STANDARD
 71
2
 72
1
 10
5.45
 20
1.0375
 30
0.0
 11
1.0
 21
0.0
 31
0.0
 44
0.9
  1
ALL DIMENSIONS IN INCH\PVIEWS ARE THIRD ANGLE
 40
0.12
 41
4.224
  0
MTEXT
  5
246
100
AcDbEntity
  8
0
100
AcDbMText
 62
2
  6
CONTINUOUS
  7
STANDARD
 71
2
 72
1
 10
2.05
 20
0.95
 30
0.0
 11
1.0
 21
0.0
 31
0.0
 44
0.9
  1
BK5
 40
0.125
 41
0.6
  0
MTEXT
  5
247
100
AcDbEntity
  8
0
100
AcDbMText
 62
2
  6
CONTINUOUS
  7
STANDARD
 71
1
 72
1
 10
0.05
 20
1.1875
 30
0.0
 11
1.0
 21
0.0
 31
0.0
 44
0.9
  1
MODEL
 40
0.06
 41
0.48
  0
ENDBLK
  5
248
100
AcDbEntity
  8
0
  6
BYBLOCK
 62
0
100
AcDbBlockEnd
  0
BLOCK
  5
249
100
AcDbEntity
  8
0
100
AcDbBlockBegin
  2
*T2
 70
1
 10
0.0
 20
0.0
  3
*T2
  1

  0
LINE
  5
24A
100
AcDbEntity
  8
0
100
AcDbLine
 62
2
  6
CONTINUOUS
 10
0.0
 20
0.0
 11
9.055
 21
0.0
  0
LINE
  5
24B
100
AcDbEntity
  8
0
100
AcDbLine
 62
2
  6
CONTINUOUS
 10
0.0
 20
0.0
 11
0.0
 21
-2.344
  0
LINE
  5
24C
100
AcDbEntity
  8
0
100
AcDbLine
 62
2
  6
CONTINUOUS
 10
0.0
 20
-0.344
 11
9.055
 21
-0.344
  0
LINE
  5
24D
100
AcDbEntity
  8
0
100
AcDbLine
 62
2
  6
CONTINUOUS
 10
0.0
 20
-0.594
 11
9.055
 21
-0.594
  0
LINE
  5
24E
100
AcDbEntity
  8
0
100
AcDbLine
 62
2
  6
CONTINUOUS
 10
0.0
 20
-0.844
 11
9.055
 21
-0.844
  0
LINE
  5
24F
100
AcDbEntity
  8
0
100
AcDbLine
 62
2
  6
CONTINUOUS
 10
0.0
 20
-1.094
 11
9.055
 21
-1.094
  0
LINE
  5
250
100
AcDbEntity
  8
0
100
AcDbLine
 62
2
  6
CONTINUOUS
 10
0.0
 20
-1.344
 11
9.055
 21
-1.344
  0
LINE
  5
251
100
AcDbEntity
  8
0
100
AcDbLine
 62
2
  6
CONTINUOUS
 10
0.0
 20
-1.594
 11
9.055
 21
-1.594
  0
LINE
  5
252
100
AcDbEntity
  8
0
100
AcDbLine
 62
2
  6
CONTINUOUS
 10
0.0
 20
-1.844
 11
9.055
 21
-1.844
  0
LINE
  5
253
100
AcDbEntity
  8
0
100
AcDbLine
 62
2
  6
CONTINUOUS
 10
0.0
 20
-2.094
 11
9.055
 21
-2.094
  0
LINE
  5
254
100
AcDbEntity
  8
0
100
AcDbLine
 62
2
  6
CONTINUOUS
 10
0.0
 20
-2.344
 11
9.055
 21
-2.344
  0
LINE
  5
255
100
AcDbEntity
  8
0
100
AcDbLine
 62
2
  6
CONTINUOUS
 10
3.055
 20
0.0
 11
3.055
 21
-2.344
  0
LINE
  5
256
100
AcDbEntity
  8
0
100
AcDbLine
 62
2
  6
CONTINUOUS
 10
9.055
 20
0.0
 11
9.055
 21
-2.344
  0
MTEXT
  5
257
100
AcDbEntity
  8
0
100
AcDbMText
 62
2
  6
CONTINUOUS
  7
STANDARD
 71
2
 72
1
 10
1.5275
 20
-0.0995
 30
0.0
 11
1.0
 21
0.0
 31
0.0
 44
0.9
  1
Technical Data
 40
0.145
 41
3.248
  0
MTEXT
  5
258
100
AcDbEntity
  8
0
100
AcDbMText
 62
2
  6
CONTINUOUS
  7
STANDARD
 71
2
 72
1
 10
4.555
 20
-0.0995
 30
0.0
 11
1.0
 21
0.0
 31
0.0
 44
0.9
  1
U.S. Units
 40
0.145
 41
2.32
  0
MTEXT
  5
259
100
AcDbEntity
  8
0
100
AcDbMText
 62
2
  6
CONTINUOUS
  7
STANDARD
 71
2
 72
1
 10
7.555
 20
-0.0995
 30
0.0
 11
1.0
 21
0.0
 31
0.0
 44
0.9
  1
Metric Units
 40
0.145
 41
2.784
  0
MTEXT
  5
25A
100
AcDbEntity
  8
0
100
AcDbMText
 62
2
  6
CONTINUOUS
  7
STANDARD
 71
2
 72
1
 10
1.5275
 20
-0.4065
 30
0.0
 11
1.0
 21
0.0
 31
0.0
 44
0.9
  1
Cavity
 40
0.125
 41
1.2
  0
MTEXT
  5
25B
100
AcDbEntity
  8
0
100
AcDbMText
 62
2
  6
CONTINUOUS
  7
STANDARD
 71
2
 72
1
 10
6.055
 20
-0.4065
 30
0.0
 11
1.0
 21
0.0
 31
0.0
 44
0.9
  1
T-17A
 40
0.125
 41
1.0
  0
MTEXT
  5
25C
100
AcDbEntity
  8
0
100
AcDbMText
 62
2
  6
CONTINUOUS
  7
STANDARD
 71
2
 72
1
 10
1.5275
 20
-0.6565
 30
0.0
 11
1.0
 21
0.0
 31
0.0
 44
0.9
  1
Body Features
 40
0.125
 41
2.6
  0
MTEXT
  5
25D
100
AcDbEntity
  8
0
100
AcDbMText
 62
2
  6
CONTINUOUS
  7
STANDARD
 71
2
 72
1
 10
6.055
 20
-0.6565
 30
0.0
 11
1.0
 21
0.0
 31
0.0
 44
0.9
  1
Sequence into B with reverse flow check
 40
0.125
 41
7.8
  0
MTEXT
  5
25E
100
AcDbEntity
  8
0
100
AcDbMText
 62
2
  6
CONTINUOUS
  7
STANDARD
 71
2
 72
1
 10
1.5275
 20
-0.9065
 30
0.0
 11
1.0
 21
0.0
 31
0.0
 44
0.9
  1
Body Type
 40
0.125
 41
1.8
  0
MTEXT
  5
25F
100
AcDbEntity
  8
0
100
AcDbMText
 62
2
  6
CONTINUOUS
  7
STANDARD
 71
2
 72
1
 10
6.055
 20
-0.9065
 30
0.0
 11
1.0
 21
0.0
 31
0.0
 44
0.9
  1
Sandwich
 40
0.125
 41
1.6
  0
MTEXT
  5
260
100
AcDbEntity
  8
0
100
AcDbMText
 62
2
  6
CONTINUOUS
  7
STANDARD
 71
2
 72
1
 10
1.5275
 20
-1.1565
 30
0.0
 11
1.0
 21
0.0
 31
0.0
 44
0.9
  1
Interface
 40
0.125
 41
1.8
  0
MTEXT
  5
261
100
AcDbEntity
  8
0
100
AcDbMText
 62
2
  6
CONTINUOUS
  7
STANDARD
 71
2
 72
1
 10
6.055
 20
-1.1565
 30
0.0
 11
1.0
 21
0.0
 31
0.0
 44
0.9
  1
ISO 07
 40
0.125
 41
1.2
  0
MTEXT
  5
262
100
AcDbEntity
  8
0
100
AcDbMText
 62
2
  6
CONTINUOUS
  7
STANDARD
 71
2
 72
1
 10
1.5275
 20
-1.4065
 30
0.0
 11
1.0
 21
0.0
 31
0.0
 44
0.9
  1
Open Cavity Quantity
 40
0.125
 41
4.0
  0
MTEXT
  5
263
100
AcDbEntity
  8
0
100
AcDbMText
 62
2
  6
CONTINUOUS
  7
STANDARD
 71
2
 72
1
 10
6.055
 20
-1.4065
 30
0.0
 11
1.0
 21
0.0
 31
0.0
 44
0.9
  1
1
 40
0.125
 41
0.2
  0
MTEXT
  5
264
100
AcDbEntity
  8
0
100
AcDbMText
 62
2
  6
CONTINUOUS
  7
STANDARD
 71
2
 72
1
 10
1.5275
 20
-1.6565
 30
0.0
 11
1.0
 21
0.0
 31
0.0
 44
0.9
  1
Stack Height
 40
0.125
 41
2.4
  0
MTEXT
  5
265
100
AcDbEntity
  8
0
100
AcDbMText
 62
2
  6
CONTINUOUS
  7
STANDARD
 71
2
 72
1
 10
4.555
 20
-1.6565
 30
0.0
 11
1.0
 21
0.0
 31
0.0
 44
0.9
  1
2.74 in.
 40
0.125
 41
1.6
  0
MTEXT
  5
266
100
AcDbEntity
  8
0
100
AcDbMText
 62
2
  6
CONTINUOUS
  7
STANDARD
 71
2
 72
1
 10
7.555
 20
-1.6565
 30
0.0
 11
1.0
 21
0.0
 31
0.0
 44
0.9
  1
70 mm
 40
0.125
 41
1.0
  0
MTEXT
  5
267
100
AcDbEntity
  8
0
100
AcDbMText
 62
2
  6
CONTINUOUS
  7
STANDARD
 71
2
 72
1
 10
1.5275
 20
-1.9065
 30
0.0
 11
1.0
 21
0.0
 31
0.0
 44
0.9
  1
Weight
 40
0.125
 41
1.2
  0
MTEXT
  5
268
100
AcDbEntity
  8
0
100
AcDbMText
 62
2
  6
CONTINUOUS
  7
STANDARD
 71
2
 72
1
 10
4.555
 20
-1.9065
 30
0.0
 11
1.0
 21
0.0
 31
0.0
 44
0.9
  1
5.208 lb.
 40
0.125
 41
1.8
  0
MTEXT
  5
269
100
AcDbEntity
  8
0
100
AcDbMText
 62
2
  6
CONTINUOUS
  7
STANDARD
 71
2
 72
1
 10
7.555
 20
-1.9065
 30
0.0
 11
1.0
 21
0.0
 31
0.0
 44
0.9
  1
2,362 kg.
 40
0.125
 41
1.8
  0
MTEXT
  5
26A
100
AcDbEntity
  8
0
100
AcDbMText
 62
2
  6
CONTINUOUS
  7
STANDARD
 71
2
 72
1
 10
1.5275
 20
-2.1565
 30
0.0
 11
1.0
 21
0.0
 31
0.0
 44
0.9
  1
Seal Plate Included (see notes)
 40
0.125
 41
6.2
  0
MTEXT
  5
26B
100
AcDbEntity
  8
0
100
AcDbMText
 62
2
  6
CONTINUOUS
  7
STANDARD
 71
2
 72
1
 10
6.055
 20
-2.1565
 30
0.0
 11
1.0
 21
0.0
 31
0.0
 44
0.9
  1
Yes
 40
0.125
 41
0.6
  0
ENDBLK
  5
26C
100
AcDbEntity
  8
0
  6
BYBLOCK
 62
0
100
AcDbBlockEnd
  0
ENDSEC
  0
SECTION
  2
ENTITIES
  0
IMAGE
  5
26D
100
AcDbEntity
  8
0
100
AcDbRasterImage
 62
7
  6
CONTINUOUS
 10
19.2297077316
 20
0.3094318264
 30
0.0
 11
0.0066666667
 21
0.0
 31
0.0
 12
0.0
 22
0.0066666667
 32
0.0
 13
369.0
 23
92.0
340
       357
 70
9
280
0
281
50
282
50
283
0
360
       351
 71
1
 91
2
 14
-0.5
 24
-0.5
 14
368.5
 24
91.5
  0
INSERT
  5
26E
100
AcDbEntity
  8
0
100
AcDbBlockReference
 62
2
  6
CONTINUOUS
  2
SUN_FIRST_THIRD_ANGLE_BL0
 10
20.4816717061
 20
1.2289683772
  0
ACAD_TABLE
  5
26F
100
AcDbEntity
  8
0
 62
2
  6
CONTINUOUS
100
AcDbBlockReference
  2
*T1
 10
12.42375
 20
0.30125
 30
0.0
100
AcDbTable
342
       359
343
20A
 11
1.0
 21
0.0
 31
0.0
 90
6
 91
4
 92
6
 93
20
 94
0
 95
0
 96
0
 70
1
 41
0.0
141
0.525
141
0.1
141
0.525
141
0.1
142
4.1
142
1.1
142
0.7
142
0.5
142
0.4
142
2.475
171
1
172
0
173
0
174
0
175
1
176
1
 91
33
178
0
145
0.0
301
CELL_VALUE
 90
4
  1
T-17A Sandwich ISO 07\PSequence into B with reverse flow check
304
ACVALUE_END
170
2
140
0.125
171
1
172
0
173
0
174
0
175
1
176
1
 91
33
178
0
145
0.0
301
CELL_VALUE
 90
4
  1
Nov-19-19
304
ACVALUE_END
170
5
140
0.125
171
1
172
0
173
0
174
0
175
1
176
1
 91
33
178
0
145
0.0
301
CELL_VALUE
 90
4
  1
1.000
304
ACVALUE_END
170
5
140
0.125
171
1
172
0
173
0
174
0
175
1
176
1
 91
33
178
0
145
0.0
301
CELL_VALUE
 90
4
  1
C
304
ACVALUE_END
170
5
140
0.125
171
1
172
0
173
0
174
0
175
1
176
1
 91
33
178
0
145
0.0
301
CELL_VALUE
 90
4
  1
2
304
ACVALUE_END
170
5
140
0.125
171
1
172
0
173
0
174
0
175
1
176
1
 91
33
178
0
145
0.0
301
CELL_VALUE
 90
4
  1
 
304
ACVALUE_END
170
1
140
0.125
171
1
172
0
173
0
174
0
175
1
176
1
 91
33
178
0
145
0.0
301
CELL_VALUE
 90
4
  1
DESCRIPTION
304
ACVALUE_END
170
1
140
0.06
171
1
172
0
173
0
174
0
175
1
176
1
 91
33
178
0
145
0.0
301
CELL_VALUE
 90
4
  1
DATE
304
ACVALUE_END
170
1
140
0.06
171
1
172
0
173
0
174
0
175
1
176
1
 91
33
178
0
145
0.0
301
CELL_VALUE
 90
4
  1
SCALE
304
ACVALUE_END
170
1
140
0.06
171
1
172
0
173
0
174
0
175
1
176
1
 91
33
178
0
145
0.0
301
CELL_VALUE
 90
4
  1
DWG SIZE
304
ACVALUE_END
170
1
140
0.06
171
1
172
0
173
0
174
0
175
1
176
1
 91
33
178
0
145
0.0
301
CELL_VALUE
 90
4
  1
SHEET
304
ACVALUE_END
170
1
140
0.06
171
1
172
0
173
0
174
0
175
1
176
1
 91
33
178
0
145
0.0
301
CELL_VALUE
 90
4
  1
 
304
ACVALUE_END
170
1
140
0.125
171
1
172
0
173
0
174
0
175
1
176
1
 91
33
178
0
145
0.0
301
CELL_VALUE
 90
4
  1
BK5
304
ACVALUE_END
170
5
140
0.125
171
1
172
0
173
0
174
0
175
4
176
1
 91
33
178
0
145
0.0
301
CELL_VALUE
 90
4
  1
ALL DIMENSIONS IN INCH\PVIEWS ARE THIRD ANGLE
304
ACVALUE_END
170
5
140
0.12
171
1
172
0
173
1
174
0
175
1
176
1
 91
1
178
0
145
0.0
170
1
171
1
172
0
173
1
174
0
175
1
176
1
 91
1
178
0
145
0.0
170
1
171
1
172
0
173
1
174
0
175
1
176
1
 91
1
178
0
145
0.0
170
5
171
1
172
0
173
0
174
0
175
1
176
1
 91
33
178
0
145
0.0
301
CELL_VALUE
 90
4
  1
 
304
ACVALUE_END
170
1
140
0.125
171
1
172
0
173
0
174
0
175
1
176
1
 91
33
178
0
145
0.0
301
CELL_VALUE
 90
4
  1
MODEL
304
ACVALUE_END
170
1
140
0.06
171
1
172
0
173
0
174
0
175
1
176
1
 91
33
178
0
145
0.0
301
CELL_VALUE
 90
4
  1
 
304
ACVALUE_END
170
1
140
0.125
171
1
172
0
173
0
174
0
175
1
176
1
 91
33
178
0
145
0.0
301
CELL_VALUE
 90
4
  1
 
304
ACVALUE_END
170
1
140
0.125
171
1
172
0
173
0
174
0
175
1
176
1
 91
33
178
0
145
0.0
301
CELL_VALUE
 90
4
  1
 
304
ACVALUE_END
170
1
140
0.125
171
1
172
0
173
0
174
0
175
1
176
1
 91
33
178
0
145
0.0
301
CELL_VALUE
 90
4
  1
 
304
ACVALUE_END
170
1
140
0.125
171
1
172
0
173
0
174
0
175
1
176
1
 91
33
178
0
145
0.0
301
CELL_VALUE
 90
4
  1
 
304
ACVALUE_END
170
1
140
0.125
  0
ACAD_TABLE
  5
270
100
AcDbEntity
  8
0
 62
2
  6
CONTINUOUS
100
AcDbBlockReference
  2
*T2
 10
12.4237499994
 20
16.47875
 30
0.0
100
AcDbTable
342
       358
343
20B
 11
1.0
 21
0.0
 31
0.0
 90
22
 91
9
 92
3
 93
16
 94
0
 95
0
 96
0
 41
0.028
141
0.344
141
0.25
141
0.25
141
0.25
141
0.25
141
0.25
141
0.25
141
0.25
141
0.25
142
3.055
142
3.0
142
3.0
171
1
172
0
173
0
174
0
175
1
176
1
 91
33
178
0
145
0.0
301
CELL_VALUE
 90
4
  1
Technical Data
304
ACVALUE_END
170
5
140
0.145
171
1
172
0
173
0
174
0
175
1
176
1
 91
33
178
0
145
0.0
301
CELL_VALUE
 90
4
  1
U.S. Units
304
ACVALUE_END
170
5
140
0.145
171
1
172
0
173
0
174
0
175
1
176
1
 91
33
178
0
145
0.0
301
CELL_VALUE
 90
4
  1
Metric Units
304
ACVALUE_END
170
5
140
0.145
171
1
172
0
173
0
174
0
175
1
176
1
 91
33
178
0
145
0.0
301
CELL_VALUE
 90
4
  1
Cavity
304
ACVALUE_END
170
5
140
0.125
171
1
172
0
173
0
174
0
175
2
176
1
 91
33
178
0
145
0.0
301
CELL_VALUE
 90
4
  1
T-17A
304
ACVALUE_END
170
5
140
0.125
171
1
172
0
173
1
174
0
175
1
176
1
 91
1
178
0
145
0.0
170
1
171
1
172
0
173
0
174
0
175
1
176
1
 91
33
178
0
145
0.0
301
CELL_VALUE
 90
4
  1
Body Features
304
ACVALUE_END
170
5
140
0.125
171
1
172
0
173
0
174
0
175
2
176
1
 91
33
178
0
145
0.0
301
CELL_VALUE
 90
4
  1
Sequence into B with reverse flow check
304
ACVALUE_END
170
5
140
0.125
171
1
172
0
173
1
174
0
175
1
176
1
 91
1
178
0
145
0.0
170
1
171
1
172
0
173
0
174
0
175
1
176
1
 91
33
178
0
145
0.0
301
CELL_VALUE
 90
4
  1
Body Type
304
ACVALUE_END
170
5
140
0.125
171
1
172
0
173
0
174
0
175
2
176
1
 91
33
178
0
145
0.0
301
CELL_VALUE
 90
4
  1
Sandwich
304
ACVALUE_END
170
5
140
0.125
171
1
172
0
173
1
174
0
175
1
176
1
 91
1
178
0
145
0.0
170
1
171
1
172
0
173
0
174
0
175
1
176
1
 91
33
178
0
145
0.0
301
CELL_VALUE
 90
4
  1
Interface
304
ACVALUE_END
170
5
140
0.125
171
1
172
0
173
0
174
0
175
2
176
1
 91
33
178
0
145
0.0
301
CELL_VALUE
 90
4
  1
ISO 07
304
ACVALUE_END
170
5
140
0.125
171
1
172
0
173
1
174
0
175
1
176
1
 91
1
178
0
145
0.0
170
1
171
1
172
0
173
0
174
0
175
1
176
1
 91
33
178
0
145
0.0
301
CELL_VALUE
 90
4
  1
Open Cavity Quantity
304
ACVALUE_END
170
5
140
0.125
171
1
172
0
173
0
174
0
175
2
176
1
 91
33
178
0
145
0.0
301
CELL_VALUE
 90
4
  1
1
304
ACVALUE_END
170
5
140
0.125
171
1
172
0
173
1
174
0
175
1
176
1
 91
1
178
0
145
0.0
170
1
171
1
172
0
173
0
174
0
175
1
176
1
 91
33
178
0
145
0.0
301
CELL_VALUE
 90
4
  1
Stack Height
304
ACVALUE_END
170
5
140
0.125
171
1
172
0
173
0
174
0
175
1
176
1
 91
33
178
0
145
0.0
301
CELL_VALUE
 90
4
  1
2.74 in.
304
ACVALUE_END
170
5
140
0.125
171
1
172
0
173
0
174
0
175
1
176
1
 91
33
178
0
145
0.0
301
CELL_VALUE
 90
4
  1
70 mm
304
ACVALUE_END
170
5
140
0.125
171
1
172
0
173
0
174
0
175
1
176
1
 91
33
178
0
145
0.0
301
CELL_VALUE
 90
4
  1
Weight
304
ACVALUE_END
170
5
140
0.125
171
1
172
0
173
0
174
0
175
1
176
1
 91
33
178
0
145
0.0
301
CELL_VALUE
 90
4
  1
5.208 lb.
304
ACVALUE_END
170
5
140
0.125
171
1
172
0
173
0
174
0
175
1
176
1
 91
33
178
0
145
0.0
301
CELL_VALUE
 90
4
  1
2,362 kg.
304
ACVALUE_END
170
5
140
0.125
171
1
172
0
173
0
174
0
175
1
176
1
 91
33
178
0
145
0.0
301
CELL_VALUE
 90
4
  1
Seal Plate Included (see notes)
304
ACVALUE_END
170
5
140
0.125
171
1
172
0
173
0
174
0
175
2
176
1
 91
33
178
0
145
0.0
301
CELL_VALUE
 90
4
  1
Yes
304
ACVALUE_END
170
5
140
0.125
171
1
172
0
173
1
174
0
175
1
176
1
 91
1
178
0
145
0.0
170
1
  0
MTEXT
  5
271
100
AcDbEntity
  8
0
100
AcDbMText
 62
2
  6
CONTINUOUS
  7
STANDARD
 71
1
 72
1
 10
0.52125
 20
5.75995
 30
0.0
 11
1.0
 21
0.0
 31
0.0
 44
0.6
  3
Notes\P \P1. Stack height value in technical\P   data table includes seal retainer\P   plate.\P2. Important: Carefully consider\P   the maximum system pressure. The\P   pressure rating of the manifold is\P   dependent on the manifold material,\P   wi
  3
th the port type/size a secondary\P   consideration. Manifolds\P   constructed of aluminum are not\P   rated for pressures higher than\P   3000 psi (210 bar), regardless of\P   the port type/size specified.\P3. Items without balloons are\P   shipped 
  1
loose.
 40
0.1
 41
3.04
  0
LINE
  5
272
100
AcDbEntity
  8
0
100
AcDbLine
 62
7
  6
CONTINUOUS
 10
0.30125
 20
0.30125
 11
0.30125
 21
16.69875
  0
LINE
  5
273
100
AcDbEntity
  8
0
100
AcDbLine
 62
7
  6
CONTINUOUS
 10
0.30125
 20
0.30125
 11
21.69875
 21
0.30125
  0
LINE
  5
274
100
AcDbEntity
  8
0
100
AcDbLine
 62
7
  6
CONTINUOUS
 10
0.30125
 20
16.69875
 11
21.69875
 21
16.69875
  0
LINE
  5
275
100
AcDbEntity
  8
0
100
AcDbLine
 62
7
  6
CONTINUOUS
 10
21.69875
 20
0.30125
 11
21.69875
 21
16.69875
  0
LINE
  5
276
100
AcDbEntity
  8
0
100
AcDbLine
 62
7
  6
CONTINUOUS
 10
7.5251599702
 20
6.8831123069
 11
7.4992844944
 21
6.9149275567
  0
LINE
  5
277
100
AcDbEntity
  8
0
100
AcDbLine
 62
7
  6
CONTINUOUS
 10
7.4315364792
 20
9.405017735
 11
7.4315364792
 21
7.2915719019
  0
LINE
  5
278
100
AcDbEntity
  8
0
100
AcDbLine
 62
7
  6
CONTINUOUS
 10
7.4534567978
 20
9.3951911382
 11
7.4534567978
 21
7.281745305
  0
LINE
  5
279
100
AcDbEntity
  8
0
100
AcDbLine
 62
7
  6
CONTINUOUS
 10
7.5700564306
 20
10.0164651179
 11
7.5700564306
 21
6.6357245255
  0
LINE
  5
27A
100
AcDbEntity
  8
0
100
AcDbLine
 62
7
  6
CONTINUOUS
 10
7.9592680766
 20
10.4276739887
 11
7.5689692787
 21
10.0506742775
  0
LINE
  5
27B
100
AcDbEntity
  8
0
100
AcDbLine
 62
7
  6
CONTINUOUS
 10
7.989211779
 20
10.4555410883
 11
7.5989129811
 21
10.0785413771
  0
LINE
  5
27C
100
AcDbEntity
  8
0
100
AcDbLine
 62
7
  6
CONTINUOUS
 10
7.5700564306
 20
10.0164651179
 11
8.2595498066
 21
10.6824646163
  0
LINE
  5
27D
100
AcDbEntity
  8
0
100
AcDbLine
 62
7
  6
CONTINUOUS
 10
7.990584862
 20
10.4568431973
 11
7.989211779
 21
10.4555410883
  0
LINE
  5
27E
100
AcDbEntity
  8
0
100
AcDbLine
 62
7
  6
CONTINUOUS
 10
7.96056676
 20
10.4289053197
 11
7.9592680766
 21
10.4276739887
  0
LINE
  5
27F
100
AcDbEntity
  8
0
100
AcDbLine
 62
7
  6
CONTINUOUS
 10
7.9592680766
 20
10.4276739887
 11
7.9891997159
 21
10.4555540497
  0
LINE
  5
280
100
AcDbEntity
  8
0
100
AcDbLine
 62
7
  6
CONTINUOUS
 10
7.5689692787
 20
10.0506742775
 11
7.5989129811
 21
10.0785413771
  0
LINE
  5
281
100
AcDbEntity
  8
0
100
AcDbLine
 62
7
  6
CONTINUOUS
 10
7.4315364792
 20
7.2915719019
 11
7.4534567978
 21
7.281745305
  0
LINE
  5
282
100
AcDbEntity
  8
0
100
AcDbLine
 62
7
  6
CONTINUOUS
 10
13.2270917803
 20
6.8896487766
 11
13.1891246942
 21
6.8839753854
  0
LINE
  5
283
100
AcDbEntity
  8
0
100
AcDbLine
 62
7
  6
CONTINUOUS
 10
12.1582043917
 20
6.3175353837
 11
7.5700564306
 21
6.6357245255
  0
LINE
  5
284
100
AcDbEntity
  8
0
100
AcDbLine
 62
7
  6
CONTINUOUS
 10
7.5700564306
 20
6.8608965701
 11
7.5600315359
 21
6.8615917989
  0
LINE
  5
285
100
AcDbEntity
  8
0
100
AcDbLine
 62
7
  6
CONTINUOUS
 10
12.2689202355
 20
6.5350292584
 11
13.2956994322
 21
6.4638218793
  0
LINE
  5
286
100
AcDbEntity
  8
0
100
AcDbLine
 62
7
  6
CONTINUOUS
 10
13.1891246942
 20
6.8839753854
 11
12.1623454975
 21
6.9551827645
  0
LINE
  5
287
100
AcDbEntity
  8
0
100
AcDbLine
 62
7
  6
CONTINUOUS
 10
7.4534567978
 20
7.281745305
 11
7.5700564306
 21
7.273659093
  0
LINE
  5
288
100
AcDbEntity
  8
0
100
AcDbLine
 62
7
  6
CONTINUOUS
 10
13.4326544472
 20
7.4353054145
 11
13.5948491212
 21
7.4240571756
  0
LINE
  5
289
100
AcDbEntity
  8
0
100
AcDbLine
 62
7
  6
CONTINUOUS
 10
13.6014604602
 20
7.5115670449
 11
14.2717286324
 21
7.4650837893
  0
LINE
  5
28A
100
AcDbEntity
  8
0
100
AcDbLine
 62
7
  6
CONTINUOUS
 10
13.591319161
 20
7.5236227836
 11
14.2615873333
 21
7.477139528
  0
LINE
  5
28B
100
AcDbEntity
  8
0
100
AcDbLine
 62
7
  6
CONTINUOUS
 10
7.4315364792
 20
9.405017735
 11
7.4534567978
 21
9.3951911382
  0
LINE
  5
28C
100
AcDbEntity
  8
0
100
AcDbLine
 62
7
  6
CONTINUOUS
 10
13.5046852518
 20
7.9999517364
 11
14.174953424
 21
7.9534684808
  0
LINE
  5
28D
100
AcDbEntity
  8
0
100
AcDbLine
 62
7
  6
CONTINUOUS
 10
13.5046852518
 20
8.0436547005
 11
14.174953424
 21
7.9971714448
  0
LINE
  5
28E
100
AcDbEntity
  8
0
100
AcDbLine
 62
7
  6
CONTINUOUS
 10
12.1582043917
 20
9.698275976
 11
12.8476977677
 21
10.3642754745
  0
LINE
  5
28F
100
AcDbEntity
  8
0
100
AcDbLine
 62
7
  6
CONTINUOUS
 10
12.3078016808
 20
9.7519788366
 11
12.6981004787
 21
10.1289785478
  0
LINE
  5
290
100
AcDbEntity
  8
0
100
AcDbLine
 62
7
  6
CONTINUOUS
 10
13.2270917803
 20
9.0030946098
 11
13.1891246942
 21
8.9974212185
  0
LINE
  5
291
100
AcDbEntity
  8
0
100
AcDbLine
 62
7
  6
CONTINUOUS
 10
13.591319161
 20
8.6873475239
 11
14.2615873333
 21
8.6408642683
  0
LINE
  5
292
100
AcDbEntity
  8
0
100
AcDbLine
 62
7
  6
CONTINUOUS
 10
13.6014604602
 20
8.7189947493
 11
14.2717286324
 21
8.6725114937
  0
LINE
  5
293
100
AcDbEntity
  8
0
100
AcDbLine
 62
7
  6
CONTINUOUS
 10
13.7747282787
 20
8.88635862
 11
14.4449964509
 21
8.8398753643
  0
LINE
  5
294
100
AcDbEntity
  8
0
100
AcDbLine
 62
7
  6
CONTINUOUS
 10
13.3345808775
 20
9.6807714575
 11
13.7248796754
 21
10.0577711687
  0
LINE
  5
295
100
AcDbEntity
  8
0
100
AcDbLine
 62
7
  6
CONTINUOUS
 10
13.3645245798
 20
9.6487511523
 11
13.7548233778
 21
10.0257508635
  0
LINE
  5
296
100
AcDbEntity
  8
0
100
AcDbLine
 62
7
  6
CONTINUOUS
 10
13.1891246942
 20
8.9974212185
 11
12.1623454975
 21
9.0686285977
  0
LINE
  5
297
100
AcDbEntity
  8
0
100
AcDbLine
 62
7
  6
CONTINUOUS
 10
7.4534567978
 20
9.3951911382
 11
7.5700564306
 21
9.3871049262
  0
LINE
  5
298
100
AcDbEntity
  8
0
100
AcDbLine
 62
7
  6
CONTINUOUS
 10
13.5406563324
 20
8.9905599318
 11
13.7027070805
 21
8.9793216742
  0
LINE
  5
299
100
AcDbEntity
  8
0
100
AcDbLine
 62
7
  6
CONTINUOUS
 10
12.1582043917
 20
9.698275976
 11
12.1582043917
 21
6.3175353837
  0
LINE
  5
29A
100
AcDbEntity
  8
0
100
AcDbLine
 62
7
  6
CONTINUOUS
 10
12.1623454975
 20
6.9551827645
 11
12.1623454975
 21
9.0686285977
  0
LINE
  5
29B
100
AcDbEntity
  8
0
100
AcDbLine
 62
4
  6
CONTINUOUS
 10
13.4608051844
 20
9.1380474031
 11
13.4685697492
 21
9.1455473971
  0
LINE
  5
29C
100
AcDbEntity
  8
0
100
AcDbLine
 62
4
  6
CONTINUOUS
 10
13.4899223023
 20
9.1661723809
 11
13.4938045847
 21
9.1699223779
  0
LINE
  5
29D
100
AcDbEntity
  8
0
100
AcDbLine
 62
4
  6
CONTINUOUS
 10
13.5520388205
 20
9.2261723336
 11
13.5559211028
 21
9.2299223306
  0
LINE
  5
29E
100
AcDbEntity
  8
0
100
AcDbLine
 62
4
  6
CONTINUOUS
 10
13.4918634435
 20
9.1100918277
 11
13.4840988787
 21
9.1025918336
  0
LINE
  5
29F
100
AcDbEntity
  8
0
100
AcDbLine
 62
4
  6
CONTINUOUS
 10
13.5559211028
 20
9.1140112272
 11
13.5520388205
 21
9.1102612302
  0
LINE
  5
2A0
100
AcDbEntity
  8
0
100
AcDbLine
 62
4
  6
CONTINUOUS
 10
13.4938045847
 20
9.0540112745
 11
13.4899223023
 21
9.0502612775
  0
LINE
  5
2A1
100
AcDbEntity
  8
0
100
AcDbLine
 62
4
  6
CONTINUOUS
 10
13.4685697492
 20
9.0296362937
 11
13.4608051844
 21
9.0221362996
  0
LINE
  5
2A2
100
AcDbEntity
  8
0
100
AcDbLine
 62
7
  6
CONTINUOUS
 10
7.5700564306
 20
10.0164651179
 11
12.1582043917
 21
9.698275976
  0
LINE
  5
2A3
100
AcDbEntity
  8
0
100
AcDbLine
 62
7
  6
CONTINUOUS
 10
13.3345808775
 20
9.6807714575
 11
12.3078016808
 21
9.7519788366
  0
LINE
  5
2A4
100
AcDbEntity
  8
0
100
AcDbLine
 62
7
  6
CONTINUOUS
 10
7.5989129811
 20
10.0785413771
 11
7.6319505153
 21
10.0762502163
  0
LINE
  5
2A5
100
AcDbEntity
  8
0
100
AcDbLine
 62
7
  6
CONTINUOUS
 10
13.7747282787
 20
8.88635862
 11
13.6014604602
 21
8.7189947493
  0
LINE
  5
2A6
100
AcDbEntity
  8
0
100
AcDbLine
 62
7
  6
CONTINUOUS
 10
12.8476977677
 20
10.3642754745
 11
12.8476977677
 21
10.1391034299
  0
LINE
  5
2A7
100
AcDbEntity
  8
0
100
AcDbLine
 62
7
  6
CONTINUOUS
 10
13.7248796754
 20
10.0577711687
 11
12.6981004787
 21
10.1289785478
  0
LINE
  5
2A8
100
AcDbEntity
  8
0
100
AcDbLine
 62
7
  6
CONTINUOUS
 10
7.989211779
 20
10.4555410883
 11
8.0222493132
 21
10.4532499275
  0
LINE
  5
2A9
100
AcDbEntity
  8
0
100
AcDbLine
 62
7
  6
CONTINUOUS
 10
8.0420503005
 20
10.4723762137
 11
8.0280932243
 21
10.4733441402
  0
LINE
  5
2AA
100
AcDbEntity
  8
0
100
AcDbLine
 62
7
  6
CONTINUOUS
 10
12.7369819239
 20
10.1467815997
 11
13.7637611206
 21
10.0755742206
  0
LINE
  5
2AB
100
AcDbEntity
  8
0
100
AcDbLine
 62
7
  6
CONTINUOUS
 10
8.2595498066
 20
10.6824646163
 11
12.8476977677
 21
10.3642754745
  0
LINE
  5
2AC
100
AcDbEntity
  8
0
100
AcDbLine
 62
7
  6
CONTINUOUS
 10
13.1891246942
 20
6.8839753854
 11
13.1891246942
 21
8.9974212185
  0
LINE
  5
2AD
100
AcDbEntity
  8
0
100
AcDbLine
 62
7
  6
CONTINUOUS
 10
13.2270917803
 20
6.8896487766
 11
13.2270917803
 21
9.0030946098
  0
LINE
  5
2AE
100
AcDbEntity
  8
0
100
AcDbLine
 62
4
  6
CONTINUOUS
 10
13.456922902
 20
9.1246381471
 11
13.4608051844
 21
9.1380474031
  0
LINE
  5
2AF
100
AcDbEntity
  8
0
100
AcDbLine
 62
4
  6
CONTINUOUS
 10
13.4860400199
 20
9.1527631249
 11
13.4899223023
 21
9.1661723809
  0
LINE
  5
2B0
100
AcDbEntity
  8
0
100
AcDbLine
 62
4
  6
CONTINUOUS
 10
13.4976868671
 20
9.0674205279
 11
13.4938045847
 21
9.0540112745
  0
LINE
  5
2B1
100
AcDbEntity
  8
0
100
AcDbLine
 62
4
  6
CONTINUOUS
 10
13.5481565381
 20
9.2127630776
 11
13.5520388205
 21
9.2261723336
  0
LINE
  5
2B2
100
AcDbEntity
  8
0
100
AcDbLine
 62
4
  6
CONTINUOUS
 10
13.4530406196
 20
9.0436140814
 11
13.4510994784
 21
9.0707168587
  0
LINE
  5
2B3
100
AcDbEntity
  8
0
100
AcDbLine
 62
4
  6
CONTINUOUS
 10
13.5015691494
 20
9.1484445962
 11
13.5035102906
 21
9.1213418188
  0
LINE
  5
2B4
100
AcDbEntity
  8
0
100
AcDbLine
 62
4
  6
CONTINUOUS
 10
13.4685697492
 20
9.1455473971
 11
13.4685697492
 21
9.0296362937
  0
LINE
  5
2B5
100
AcDbEntity
  8
0
100
AcDbLine
 62
4
  6
CONTINUOUS
 10
13.4840988787
 20
9.1025918336
 11
13.4840988787
 21
9.1412288675
  0
LINE
  5
2B6
100
AcDbEntity
  8
0
100
AcDbLine
 62
4
  6
CONTINUOUS
 10
13.4510994784
 20
9.0707168587
 11
13.4530406196
 21
9.1015696331
  0
LINE
  5
2B7
100
AcDbEntity
  8
0
100
AcDbLine
 62
4
  6
CONTINUOUS
 10
13.5035102906
 20
9.1213418188
 11
13.5015691494
 21
9.0904890444
  0
LINE
  5
2B8
100
AcDbEntity
  8
0
100
AcDbLine
 62
4
  6
CONTINUOUS
 10
13.5656268088
 20
9.1813417715
 11
13.5636856676
 21
9.1504889971
  0
LINE
  5
2B9
100
AcDbEntity
  8
0
100
AcDbLine
 62
4
  6
CONTINUOUS
 10
13.5306862673
 20
9.2055473498
 11
13.5151571378
 21
9.0746362582
  0
LINE
  5
2BA
100
AcDbEntity
  8
0
100
AcDbLine
 62
7
  6
CONTINUOUS
 10
13.591319161
 20
8.6873475239
 11
13.5046852518
 21
8.0436547005
  0
LINE
  5
2BB
100
AcDbEntity
  8
0
100
AcDbLine
 62
4
  6
CONTINUOUS
 10
13.4530406196
 20
9.1015696331
 11
13.456922902
 21
9.1246381471
  0
LINE
  5
2BC
100
AcDbEntity
  8
0
100
AcDbLine
 62
4
  6
CONTINUOUS
 10
13.4840988787
 20
9.1412288675
 11
13.4860400199
 21
9.1527631249
  0
LINE
  5
2BD
100
AcDbEntity
  8
0
100
AcDbLine
 62
4
  6
CONTINUOUS
 10
13.5015691494
 20
9.0904890444
 11
13.4976868671
 21
9.0674205279
  0
LINE
  5
2BE
100
AcDbEntity
  8
0
100
AcDbLine
 62
4
  6
CONTINUOUS
 10
13.5462153969
 20
9.2012288202
 11
13.5481565381
 21
9.2127630776
  0
LINE
  5
2BF
100
AcDbEntity
  8
0
100
AcDbLine
 62
4
  6
CONTINUOUS
 10
13.5636856676
 20
9.1504889971
 11
13.5598033852
 21
9.1274204806
  0
LINE
  5
2C0
100
AcDbEntity
  8
0
100
AcDbLine
 62
4
  6
CONTINUOUS
 10
13.5598033852
 20
9.1274204806
 11
13.5559211028
 21
9.1140112272
  0
LINE
  5
2C1
100
AcDbEntity
  8
0
100
AcDbLine
 62
7
  6
CONTINUOUS
 10
12.1582043917
 20
6.3175353837
 11
12.3757038978
 21
6.5276237863
  0
LINE
  5
2C2
100
AcDbEntity
  8
0
100
AcDbLine
 62
7
  6
CONTINUOUS
 10
13.3645245798
 20
9.6487511523
 11
13.3345808775
 21
9.6807714575
  0
LINE
  5
2C3
100
AcDbEntity
  8
0
100
AcDbLine
 62
4
  6
CONTINUOUS
 10
13.4608051844
 20
9.0221362996
 11
13.456922902
 21
9.0280455589
  0
LINE
  5
2C4
100
AcDbEntity
  8
0
100
AcDbLine
 62
4
  6
CONTINUOUS
 10
13.4899223023
 20
9.0502612775
 11
13.4860400199
 21
9.0561705367
  0
LINE
  5
2C5
100
AcDbEntity
  8
0
100
AcDbLine
 62
4
  6
CONTINUOUS
 10
13.4938045847
 20
9.1699223779
 11
13.4976868671
 21
9.1640131161
  0
LINE
  5
2C6
100
AcDbEntity
  8
0
100
AcDbLine
 62
4
  6
CONTINUOUS
 10
13.5520388205
 20
9.1102612302
 11
13.5481565381
 21
9.1161704894
  0
LINE
  5
2C7
100
AcDbEntity
  8
0
100
AcDbLine
 62
4
  6
CONTINUOUS
 10
13.5559211028
 20
9.2299223306
 11
13.5598033852
 21
9.2240130688
  0
LINE
  5
2C8
100
AcDbEntity
  8
0
100
AcDbLine
 62
4
  6
CONTINUOUS
 10
13.456922902
 20
9.0280455589
 11
13.4530406196
 21
9.0436140814
  0
LINE
  5
2C9
100
AcDbEntity
  8
0
100
AcDbLine
 62
4
  6
CONTINUOUS
 10
13.4860400199
 20
9.0561705367
 11
13.4840988787
 21
9.0639548014
  0
LINE
  5
2CA
100
AcDbEntity
  8
0
100
AcDbLine
 62
7
  6
CONTINUOUS
 10
13.5046852518
 20
7.9999517364
 11
13.591319161
 21
7.5236227836
  0
LINE
  5
2CB
100
AcDbEntity
  8
0
100
AcDbLine
 62
4
  6
CONTINUOUS
 10
13.5636856676
 20
9.2084445489
 11
13.5656268088
 21
9.1813417715
  0
LINE
  5
2CC
100
AcDbEntity
  8
0
100
AcDbLine
 62
7
  6
CONTINUOUS
 10
13.6874843361
 20
7.5001244208
 11
13.6905876563
 21
7.5053860529
  0
LINE
  5
2CD
100
AcDbEntity
  8
0
100
AcDbLine
 62
7
  6
CONTINUOUS
 10
13.7839554474
 20
8.8911955617
 11
13.7863027621
 21
8.8855559268
  0
LINE
  5
2CE
100
AcDbEntity
  8
0
100
AcDbLine
 62
4
  6
CONTINUOUS
 10
13.4976868671
 20
9.1640131161
 11
13.5015691494
 21
9.1484445962
  0
LINE
  5
2CF
100
AcDbEntity
  8
0
100
AcDbLine
 62
4
  6
CONTINUOUS
 10
13.5481565381
 20
9.1161704894
 11
13.5462153969
 21
9.1239547541
  0
LINE
  5
2D0
100
AcDbEntity
  8
0
100
AcDbLine
 62
4
  6
CONTINUOUS
 10
13.5598033852
 20
9.2240130688
 11
13.5636856676
 21
9.2084445489
  0
LINE
  5
2D1
100
AcDbEntity
  8
0
100
AcDbLine
 62
4
  6
CONTINUOUS
 10
13.5306862673
 20
9.0896362464
 11
13.5151571378
 21
9.1905473617
  0
LINE
  5
2D2
100
AcDbEntity
  8
0
100
AcDbLine
 62
7
  6
CONTINUOUS
 10
13.8922561773
 20
9.6455941176
 11
13.8922561773
 21
8.8782080325
  0
LINE
  5
2D3
100
AcDbEntity
  8
0
100
AcDbLine
 62
7
  6
CONTINUOUS
 10
13.7548233778
 20
6.886491742
 11
13.3645245798
 21
6.5094920308
  0
LINE
  5
2D4
100
AcDbEntity
  8
0
100
AcDbLine
 62
7
  6
CONTINUOUS
 10
13.3645245798
 20
6.5094920308
 11
13.3632258965
 21
6.5082606998
  0
LINE
  5
2D5
100
AcDbEntity
  8
0
100
AcDbLine
 62
7
  6
CONTINUOUS
 10
13.3332077945
 20
6.4803228222
 11
13.3632272363
 21
6.5082617463
  0
LINE
  5
2D6
100
AcDbEntity
  8
0
100
AcDbLine
 62
7
  6
CONTINUOUS
 10
13.7548233778
 20
10.0257508635
 11
13.7248796754
 21
10.0577711687
  0
LINE
  5
2D7
100
AcDbEntity
  8
0
100
AcDbLine
 62
7
  6
CONTINUOUS
 10
13.7986326863
 20
10.0540537126
 11
13.8245081621
 21
10.0222384628
  0
LINE
  5
2D8
100
AcDbEntity
  8
0
100
AcDbLine
 62
7
  6
CONTINUOUS
 10
14.5011107997
 20
8.7320616358
 11
14.5155134269
 21
8.6974580277
  0
LINE
  5
2D9
100
AcDbEntity
  8
0
100
AcDbLine
 62
7
  6
CONTINUOUS
 10
14.4300086262
 20
7.576150313
 11
14.4387820747
 21
7.5910255615
  0
ARC
  5
2DA
100
AcDbEntity
  8
0
100
AcDbCircle
 62
7
  6
CONTINUOUS
 10
16.7664248775
 20
7.975165187
 40
2.5915648882
100
AcDbArc
 50
179.5134673813
 51
179.9985734312
  0
ARC
  5
2DB
100
AcDbEntity
  8
0
100
AcDbCircle
 62
7
  6
CONTINUOUS
 10
16.0861272844
 20
8.0216911506
 40
2.5815354666
100
AcDbArc
 50
179.5125250425
 51
179.99951577
  0
ARC
  5
2DC
100
AcDbEntity
  8
0
100
AcDbCircle
 62
7
  6
CONTINUOUS
 10
16.7036312652
 20
7.9752064122
 40
2.5287712752
100
AcDbArc
 50
179.9994720696
 51
180.492534488
  0
ARC
  5
2DD
100
AcDbEntity
  8
0
100
AcDbCircle
 62
7
  6
CONTINUOUS
 10
16.0333630926
 20
8.0216896678
 40
2.5287712748
100
AcDbArc
 50
179.9994720696
 51
180.492534488
  0
ARC
  5
2DE
100
AcDbEntity
  8
0
100
AcDbCircle
 62
7
  6
CONTINUOUS
 10
14.6808871889
 20
8.3556458102
 40
1.1389400837
100
AcDbArc
 50
161.3961041614
 51
163.0679604749
  0
ARC
  5
2DF
100
AcDbEntity
  8
0
100
AcDbCircle
 62
7
  6
CONTINUOUS
 10
15.3214868215
 20
8.3186697872
 40
1.1077888828
100
AcDbArc
 50
161.3725959887
 51
163.0914686476
  0
ARC
  5
2E0
100
AcDbEntity
  8
0
100
AcDbCircle
 62
7
  6
CONTINUOUS
 10
9.4234965447
 20
7.4831326226
 40
0.4634467202
100
AcDbArc
 50
235.2003312163
 51
241.6244398207
  0
ARC
  5
2E1
100
AcDbEntity
  8
0
100
AcDbCircle
 62
7
  6
CONTINUOUS
 10
9.301325856
 20
7.3180173203
 40
0.3550664462
100
AcDbArc
 50
140.7507237339
 51
146.4345192979
  0
SPLINE
  5
2E2
100
AcDbEntity
  8
0
100
AcDbSpline
 62
7
  6
CONTINUOUS
 70
0
 71
3
 72
23
 73
19
 74
0
 42
0.0000001
 43
0.0000001
 44
0.0000000001
 40
0.0
 40
0.0
 40
0.0
 40
0.0
 40
0.0778915856
 40
0.1545454438
 40
0.2297388202
 40
0.3032879841
 40
0.3750174017
 40
0.4447505127
 40
0.512316206
 40
0.5775550501
 40
0.6403154135
 40
0.7004563918
 40
0.75784725
 40
0.8123710763
 40
0.8639245062
 40
0.9124214177
 40
0.9577945528
 40
1.0
 40
1.0
 40
1.0
 40
1.0
 10
14.5684635208
 20
8.3040373768
 30
0.0
 10
14.5684635208
 20
8.3143979689
 30
0.0
 10
14.5683205139
 20
8.3349548351
 30
0.0
 10
14.5676680557
 20
8.36550716
 30
0.0
 10
14.5665801061
 20
8.3954692339
 30
0.0
 10
14.5650602966
 20
8.4247566937
 30
0.0
 10
14.5631125202
 20
8.4532909724
 30
0.0
 10
14.560742623
 20
8.4809947091
 30
0.0
 10
14.5579566224
 20
8.5077920042
 30
0.0
 10
14.5547627785
 20
8.5336096419
 30
0.0
 10
14.5511695214
 20
8.5583774193
 30
0.0
 10
14.5471872336
 20
8.5820279498
 30
0.0
 10
14.542826577
 20
8.6044969376
 30
0.0
 10
14.5380999959
 20
8.6257234697
 30
0.0
 10
14.5330203041
 20
8.6456500965
 30
0.0
 10
14.5276017046
 20
8.6642234303
 30
0.0
 10
14.5218590776
 20
8.6813931063
 30
0.0
 10
14.5176727293
 20
8.6922698324
 30
0.0
 10
14.5155155838
 20
8.6974527165
 30
0.0
  0
SPLINE
  5
2E3
100
AcDbEntity
  8
0
100
AcDbSpline
 62
7
  6
CONTINUOUS
 70
0
 71
3
 72
9
 73
5
 74
0
 42
0.0000001
 43
0.0000001
 44
0.0000000001
 40
0.0
 40
0.0
 40
0.0
 40
0.0
 40
0.5149357862
 40
1.0
 40
1.0
 40
1.0
 40
1.0
 10
14.45513775
 20
8.8278196256
 30
0.0
 10
14.4535278018
 20
8.8299940437
 30
0.0
 10
14.4502810999
 20
8.8341296122
 30
0.0
 10
14.4467692802
 20
8.8380443911
 30
0.0
 10
14.4449964509
 20
8.8398753643
 30
0.0
  0
SPLINE
  5
2E4
100
AcDbEntity
  8
0
100
AcDbSpline
 62
7
  6
CONTINUOUS
 70
0
 71
3
 72
22
 73
18
 74
0
 42
0.0000001
 43
0.0000001
 44
0.0000000001
 40
0.0
 40
0.0
 40
0.0
 40
0.0
 40
0.1581228667
 40
0.2341982852
 40
0.3081049186
 40
0.379717385
 40
0.4489184745
 40
0.5156040998
 40
0.5796927374
 40
0.6411263993
 40
0.6998833948
 40
0.755975683
 40
0.8094620448
 40
0.8604412683
 40
0.9090606462
 40
0.9555055836
 40
1.0
 40
1.0
 40
1.0
 40
1.0
 10
14.2717286324
 20
7.4650837893
 30
0.0
 10
14.2811982935
 20
7.4692869756
 30
0.0
 10
14.2951416971
 20
7.4757026527
 30
0.0
 10
14.313251681
 20
7.484625155
 30
0.0
 10
14.3261480205
 20
7.4912981026
 30
0.0
 10
14.3384980126
 20
7.4980396877
 30
0.0
 10
14.3502668282
 20
7.5048502834
 30
0.0
 10
14.3614201725
 20
7.5117305232
 30
0.0
 10
14.3719266223
 20
7.5186788996
 30
0.0
 10
14.3817568953
 20
7.5256949622
 30
0.0
 10
14.3908870439
 20
7.532775358
 30
0.0
 10
14.3992966654
 20
7.5399183265
 30
0.0
 10
14.4069727963
 20
7.5471189717
 30
0.0
 10
14.4139069225
 20
7.5543740841
 30
0.0
 10
14.4200990343
 20
7.5616778753
 30
0.0
 10
14.4255533497
 20
7.5690252701
 30
0.0
 10
14.428770038
 20
7.5740480351
 30
0.0
 10
14.4302500653
 20
7.5765597916
 30
0.0
  0
SPLINE
  5
2E5
100
AcDbEntity
  8
0
100
AcDbSpline
 62
7
  6
CONTINUOUS
 70
0
 71
3
 72
9
 73
5
 74
0
 42
0.0000001
 43
0.0000001
 44
0.0000000001
 40
0.0
 40
0.0
 40
0.0
 40
0.0
 40
0.4955326499
 40
1.0
 40
1.0
 40
1.0
 40
1.0
 10
14.5012579241
 20
8.731707934
 30
0.0
 10
14.4944862799
 20
8.7479683096
 30
0.0
 10
14.4798477531
 20
8.7803821404
 30
0.0
 10
14.4636347813
 20
8.8120289827
 30
0.0
 10
14.45513775
 20
8.8278196256
 30
0.0
  0
SPLINE
  5
2E6
100
AcDbEntity
  8
0
100
AcDbSpline
 62
7
  6
CONTINUOUS
 70
0
 71
3
 72
28
 73
24
 74
0
 42
0.0000001
 43
0.0000001
 44
0.0000000001
 40
0.0
 40
0.0
 40
0.0
 40
0.0
 40
0.0188524871
 40
0.0388801737
 40
0.0600715651
 40
0.0824089768
 40
0.1058699668
 40
0.1304265019
 40
0.1560475994
 40
0.1826975814
 40
0.2103382308
 40
0.2389280827
 40
0.2987741688
 40
0.3618564495
 40
0.4277601831
 40
0.4960432585
 40
0.5662412158
 40
0.6378720029
 40
0.7104405345
 40
0.7834444448
 40
0.8563742018
 40
0.9287292883
 40
1.0
 40
1.0
 40
1.0
 40
1.0
 10
14.4387811714
 20
7.5910241861
 30
0.0
 10
14.441114112
 20
7.5949796361
 30
0.0
 10
14.4457455084
 20
7.6032441192
 30
0.0
 10
14.4524122784
 20
7.6162729072
 30
0.0
 10
14.4589978168
 20
7.6302867613
 30
0.0
 10
14.4654899079
 20
7.6452598452
 30
0.0
 10
14.4718761965
 20
7.661164971
 30
0.0
 10
14.4781453889
 20
7.677972818
 30
0.0
 10
14.4842852153
 20
7.6956526047
 30
0.0
 10
14.4902847667
 20
7.7141716522
 30
0.0
 10
14.4961326282
 20
7.7334958796
 30
0.0
 10
14.5038304907
 20
7.7607037077
 30
0.0
 10
14.5129609122
 20
7.7964713904
 30
0.0
 10
14.5229905644
 20
7.8413674706
 30
0.0
 10
14.5321781528
 20
7.8885385317
 30
0.0
 10
14.5404549536
 20
7.9376358609
 30
0.0
 10
14.5477589758
 20
7.9882967991
 30
0.0
 10
14.5540356574
 20
8.0401466234
 30
0.0
 10
14.5592383121
 20
8.0928019103
 30
0.0
 10
14.5633280373
 20
8.1458725651
 30
0.0
 10
14.5662749367
 20
8.1989669514
 30
0.0
 10
14.5680566882
 20
8.2516905766
 30
0.0
 10
14.5684635208
 20
8.2866768791
 30
0.0
 10
14.5684635208
 20
8.3040373768
 30
0.0
  0
SPLINE
  5
2E7
100
AcDbEntity
  8
0
100
AcDbSpline
 62
7
  6
CONTINUOUS
 70
0
 71
3
 72
23
 73
19
 74
0
 42
0.0000001
 43
0.0000001
 44
0.0000000001
 40
0.0
 40
0.0
 40
0.0
 40
0.0
 40
0.0450326416
 40
0.090627084
 40
0.1373223842
 40
0.1856173007
 40
0.2359593962
 40
0.2887361703
 40
0.344276113
 40
0.402854817
 40
0.4646973153
 40
0.5299824183
 40
0.5988535695
 40
0.671423373
 40
0.747772967
 40
0.8279612293
 40
0.9120297453
 40
1.0
 40
1.0
 40
1.0
 40
1.0
 10
13.7027074059
 20
8.979321548
 30
0.0
 10
13.7045881275
 20
8.9791911633
 30
0.0
 10
13.7083613164
 20
8.9787076238
 30
0.0
 10
13.7139531238
 20
8.9773237379
 30
0.0
 10
13.7194857747
 20
8.9752832062
 30
0.0
 10
13.724952785
 20
8.972590018
 30
0.0
 10
13.7303495801
 20
8.9692479891
 30
0.0
 10
13.7356724059
 20
8.9652620074
 30
0.0
 10
13.7409180015
 20
8.9606366986
 30
0.0
 10
13.7460827508
 20
8.9553761819
 30
0.0
 10
13.7511631808
 20
8.9494850846
 30
0.0
 10
13.7561561306
 20
8.942968667
 30
0.0
 10
13.7610579061
 20
8.9358321053
 30
0.0
 10
13.7658645307
 20
8.9280809624
 30
0.0
 10
13.7705726339
 20
8.9197217779
 30
0.0
 10
13.7751785428
 20
8.9107613322
 30
0.0
 10
13.7796782076
 20
8.9012068453
 30
0.0
 10
13.7825399314
 20
8.8945962073
 30
0.0
 10
13.7839550831
 20
8.8911961913
 30
0.0
  0
SPLINE
  5
2E8
100
AcDbEntity
  8
0
100
AcDbSpline
 62
7
  6
CONTINUOUS
 70
0
 71
3
 72
23
 73
19
 74
0
 42
0.0000001
 43
0.0000001
 44
0.0000000001
 40
0.0
 40
0.0
 40
0.0
 40
0.0
 40
0.0450328014
 40
0.090626912
 40
0.1373220992
 40
0.1856177797
 40
0.2359593495
 40
0.2887351894
 40
0.3442762352
 40
0.4028552774
 40
0.4646962747
 40
0.5299819163
 40
0.5988545543
 40
0.6714232004
 40
0.7477722896
 40
0.8279625255
 40
0.9120310258
 40
1.0
 40
1.0
 40
1.0
 40
1.0
 10
13.5948487957
 20
7.4240573018
 30
0.0
 10
13.5967295399
 20
7.4239269155
 30
0.0
 10
13.6005333629
 20
7.4238851322
 30
0.0
 10
13.6062627518
 20
7.4244833559
 30
0.0
 10
13.6120242158
 20
7.4257405862
 30
0.0
 10
13.6178105647
 20
7.4276537625
 30
0.0
 10
13.6236171412
 20
7.4302185782
 30
0.0
 10
13.6294394323
 20
7.4334313994
 30
0.0
 10
13.6352731489
 20
7.4372886958
 30
0.0
 10
13.6411146155
 20
7.441785984
 30
0.0
 10
13.6469598824
 20
7.4469191415
 30
0.0
 10
13.6528045161
 20
7.452684137
 30
0.0
 10
13.6586443536
 20
7.4590760074
 30
0.0
 10
13.6644751545
 20
7.4660893387
 30
0.0
 10
13.6702921923
 20
7.4737186384
 30
0.0
 10
13.6760907181
 20
7.4819578148
 30
0.0
 10
13.6818662916
 20
7.4907997797
 30
0.0
 10
13.6856132501
 20
7.4969520489
 30
0.0
 10
13.6874841757
 20
7.5001241518
 30
0.0
  0
SPLINE
  5
2E9
100
AcDbEntity
  8
0
100
AcDbSpline
 62
7
  6
CONTINUOUS
 70
0
 71
3
 72
21
 73
17
 74
0
 42
0.0000001
 43
0.0000001
 44
0.0000000001
 40
0.0
 40
0.0
 40
0.0
 40
0.0
 40
0.1231153359
 40
0.184837322
 40
0.2466817013
 40
0.3086598058
 40
0.3707815459
 40
0.4330548007
 40
0.4954844141
 40
0.558071395
 40
0.6208128987
 40
0.6837027994
 40
0.7467321283
 40
0.809889664
 40
0.8731630859
 40
1.0
 40
1.0
 40
1.0
 40
1.0
 10
14.2615873333
 20
8.6408642683
 30
0.0
 10
14.2652439455
 20
8.6141035132
 30
0.0
 10
14.2697369857
 20
8.5737759092
 30
0.0
 10
14.2733186162
 20
8.5197698825
 30
0.0
 10
14.2746984679
 20
8.4790799663
 30
0.0
 10
14.2746686073
 20
8.4382784114
 30
0.0
 10
14.2731430093
 20
8.3974102133
 30
0.0
 10
14.270056488
 20
8.3565302464
 30
0.0
 10
14.265370448
 20
8.3156995647
 30
0.0
 10
14.2590769071
 20
8.2749817239
 30
0.0
 10
14.2512009823
 20
8.234437753
 30
0.0
 10
14.2417970612
 20
8.19412181
 30
0.0
 10
14.2309438168
 20
8.1540781847
 30
0.0
 10
14.2187377095
 20
8.1143386564
 30
0.0
 10
14.2007902695
 20
8.0617476137
 30
0.0
 10
14.1856480776
 20
8.0228600329
 30
0.0
 10
14.174953424
 20
7.9971714448
 30
0.0
  0
SPLINE
  5
2EA
100
AcDbEntity
  8
0
100
AcDbSpline
 62
7
  6
CONTINUOUS
 70
0
 71
3
 72
23
 73
19
 74
0
 42
0.0000001
 43
0.0000001
 44
0.0000000001
 40
0.0
 40
0.0
 40
0.0
 40
0.0
 40
0.0681436223
 40
0.1355717925
 40
0.2022246133
 40
0.2680530577
 40
0.3330188589
 40
0.3971018651
 40
0.4603047619
 40
0.5226553367
 40
0.5842062484
 40
0.6450322154
 40
0.7052236803
 40
0.7648789131
 40
0.8240963959
 40
0.8829688942
 40
0.9415804852
 40
1.0
 40
1.0
 40
1.0
 40
1.0
 10
14.174953424
 20
7.9534684808
 30
0.0
 10
14.1802821203
 20
7.9435657819
 30
0.0
 10
14.1906338435
 20
7.9237284081
 30
0.0
 10
14.2052171942
 20
7.8937058986
 30
0.0
 10
14.2186694805
 20
7.8635762113
 30
0.0
 10
14.2308792124
 20
7.83335835
 30
0.0
 10
14.2417387703
 20
7.8030780062
 30
0.0
 10
14.2511512897
 20
7.7727689797
 30
0.0
 10
14.2590374926
 20
7.7424718836
 30
0.0
 10
14.2653419907
 20
7.7122323095
 30
0.0
 10
14.2700385137
 20
7.6820980439
 30
0.0
 10
14.2731339725
 20
7.6521156811
 30
0.0
 10
14.2746663025
 20
7.6223267012
 30
0.0
 10
14.2747004687
 20
7.5927647489
 30
0.0
 10
14.2733227971
 20
7.5634540878
 30
0.0
 10
14.2706343483
 20
7.5344087545
 30
0.0
 10
14.2667431087
 20
7.5056346485
 30
0.0
 10
14.2634153006
 20
7.4866052986
 30
0.0
 10
14.2615873333
 20
7.477139528
 30
0.0
  0
SPLINE
  5
2EB
100
AcDbEntity
  8
0
100
AcDbSpline
 62
7
  6
CONTINUOUS
 70
0
 71
3
 72
21
 73
17
 74
0
 42
0.0000001
 43
0.0000001
 44
0.0000000001
 40
0.0
 40
0.0
 40
0.0
 40
0.0
 40
0.0721750434
 40
0.1408704233
 40
0.2690156223
 40
0.3293895806
 40
0.3879136836
 40
0.4451490293
 40
0.5016982119
 40
0.5581866935
 40
0.6152406903
 40
0.6734670847
 40
0.733434797
 40
0.8604758414
 40
0.9285177531
 40
1.0
 40
1.0
 40
1.0
 40
1.0
 10
13.6014604602
 20
7.5115670449
 30
0.0
 10
13.6028952897
 20
7.510085157
 30
0.0
 10
13.6057867877
 20
7.5072779448
 30
0.0
 10
13.6116663913
 20
7.5023191557
 30
0.0
 10
13.6178205028
 20
7.4982215397
 30
0.0
 10
13.6241975613
 20
7.4951694904
 30
0.0
 10
13.6289387236
 20
7.4934519991
 30
0.0
 10
13.6337273612
 20
7.4922644154
 30
0.0
 10
13.638559065
 20
7.491609012
 30
0.0
 10
13.6434283132
 20
7.4914866019
 30
0.0
 10
13.6483295334
 20
7.4918967771
 30
0.0
 10
13.6532578279
 20
7.4928388353
 30
0.0
 10
13.6599850524
 20
7.4948389789
 30
0.0
 10
13.6666441914
 20
7.4979088574
 30
0.0
 10
13.6731515083
 20
7.5018767909
 30
0.0
 10
13.6764026759
 20
7.5041926794
 30
0.0
 10
13.6780284457
 20
7.5054297368
 30
0.0
  0
SPLINE
  5
2EC
100
AcDbEntity
  8
0
100
AcDbSpline
 62
7
  6
CONTINUOUS
 70
0
 71
3
 72
37
 73
33
 74
0
 42
0.0000001
 43
0.0000001
 44
0.0000000001
 40
0.0
 40
0.0
 40
0.0
 40
0.0
 40
0.0242160064
 40
0.0471276776
 40
0.0688728694
 40
0.0896181497
 40
0.1095643177
 40
0.1289412712
 40
0.1480010561
 40
0.1670091283
 40
0.1862325832
 40
0.2059292153
 40
0.2263374353
 40
0.2476687588
 40
0.2701059695
 40
0.2938027283
 40
0.3188839929
 40
0.3454511185
 40
0.3735850406
 40
0.4033469108
 40
0.4347832022
 40
0.4679286948
 40
0.5028057521
 40
0.5394275751
 40
0.5778008267
 40
0.6179236654
 40
0.6597872747
 40
0.7033790872
 40
0.7486826578
 40
0.7956778314
 40
0.8946424786
 40
1.0
 40
1.0
 40
1.0
 40
1.0
 10
13.7747282787
 20
8.88635862
 30
0.0
 10
13.7731182615
 20
8.8880214412
 30
0.0
 10
13.7698711599
 20
8.8911505216
 30
0.0
 10
13.7647761633
 20
8.8953306304
 30
0.0
 10
13.759602535
 20
8.8988555407
 30
0.0
 10
13.7543544807
 20
8.9017186112
 30
0.0
 10
13.7490369303
 20
8.9039148636
 30
0.0
 10
13.7436555833
 20
8.9054399761
 30
0.0
 10
13.7382172184
 20
8.9062896458
 30
0.0
 10
13.732730161
 20
8.9064619597
 30
0.0
 10
13.727202985
 20
8.9059575002
 30
0.0
 10
13.7216437526
 20
8.9047778635
 30
0.0
 10
13.7160594626
 20
8.9029265889
 30
0.0
 10
13.7104554865
 20
8.9004086512
 30
0.0
 10
13.7048365697
 20
8.8972281736
 30
0.0
 10
13.6992071723
 20
8.8933893172
 30
0.0
 10
13.6935711254
 20
8.8888970182
 30
0.0
 10
13.6879327371
 20
8.8837556884
 30
0.0
 10
13.6822967715
 20
8.8779699066
 30
0.0
 10
13.6766675329
 20
8.8715453916
 30
0.0
 10
13.6710498002
 20
8.8644879976
 30
0.0
 10
13.6654488286
 20
8.8568038786
 30
0.0
 10
13.6598694072
 20
8.8485002306
 30
0.0
 10
13.6543164918
 20
8.8395847149
 30
0.0
 10
13.6487955016
 20
8.8300653403
 30
0.0
 10
13.6433114913
 20
8.8199510777
 30
0.0
 10
13.6378694252
 20
8.8092516065
 30
0.0
 10
13.6324746401
 20
8.7979768328
 30
0.0
 10
13.6271321286
 20
8.7861370461
 30
0.0
 10
13.6199608004
 20
8.7693203568
 30
0.0
 10
13.6111912072
 20
8.7469515635
 30
0.0
 10
13.6046789842
 20
8.7285365434
 30
0.0
 10
13.6014604602
 20
8.7189947493
 30
0.0
  0
SPLINE
  5
2ED
100
AcDbEntity
  8
0
100
AcDbSpline
 62
7
  6
CONTINUOUS
 70
0
 71
3
 72
29
 73
25
 74
0
 42
0.0000001
 43
0.0000001
 44
0.0000000001
 40
0.0
 40
0.0
 40
0.0
 40
0.0
 40
0.0844109308
 40
0.167021196
 40
0.2475180268
 40
0.3256369966
 40
0.401116176
 40
0.4737019132
 40
0.5431596849
 40
0.6092721542
 40
0.6718401978
 40
0.7306888572
 40
0.7586717622
 40
0.7856716262
 40
0.8116742211
 40
0.8366682477
 40
0.8606452028
 40
0.8835986256
 40
0.9055261083
 40
0.9264302219
 40
0.9463170845
 40
0.9651968369
 40
0.9830842384
 40
1.0
 40
1.0
 40
1.0
 40
1.0
 10
13.5046852518
 20
7.9999517364
 30
0.0
 10
13.5048040515
 20
7.9861781174
 30
0.0
 10
13.5052652049
 20
7.9589260332
 30
0.0
 10
13.5066507442
 20
7.9185579038
 30
0.0
 10
13.508718854
 20
7.8792467957
 30
0.0
 10
13.5114611986
 20
7.8411433478
 30
0.0
 10
13.5148668664
 20
7.804389443
 30
0.0
 10
13.5189232132
 20
7.7691235854
 30
0.0
 10
13.5236143747
 20
7.7354787316
 30
0.0
 10
13.5289220158
 20
7.7035809986
 30
0.0
 10
13.5348262563
 20
7.6735503678
 30
0.0
 10
13.5403121031
 20
7.6497909042
 30
0.0
 10
13.5450055005
 20
7.6318176003
 30
0.0
 10
13.5486009615
 20
7.6190999485
 30
0.0
 10
13.5523278601
 20
7.6069293006
 30
0.0
 10
13.5561826588
 20
7.5953170497
 30
0.0
 10
13.5601614259
 20
7.584274007
 30
0.0
 10
13.5642605977
 20
7.5738105636
 30
0.0
 10
13.5684765198
 20
7.5639363889
 30
0.0
 10
13.5728051843
 20
7.5546602376
 30
0.0
 10
13.5772428898
 20
7.5459905902
 30
0.0
 10
13.5817857708
 20
7.5379357276
 30
0.0
 10
13.5864285659
 20
7.5305037524
 30
0.0
 10
13.5896766335
 20
7.5258412037
 30
0.0
 10
13.591319161
 20
7.5236227836
 30
0.0
  0
SPLINE
  5
2EE
100
AcDbEntity
  8
0
100
AcDbSpline
 62
7
  6
CONTINUOUS
 70
0
 71
3
 72
23
 73
19
 74
0
 42
0.0000001
 43
0.0000001
 44
0.0000000001
 40
0.0
 40
0.0
 40
0.0
 40
0.0
 40
0.0517124017
 40
0.105817437
 40
0.1621248898
 40
0.2204554779
 40
0.2806133097
 40
0.342391697
 40
0.4055775525
 40
0.4699511935
 40
0.5352873143
 40
0.6013557937
 40
0.6679239017
 40
0.7347566859
 40
0.801615562
 40
0.8682649978
 40
0.9344779167
 40
1.0
 40
1.0
 40
1.0
 40
1.0
 10
13.591319161
 20
8.6873475239
 30
0.0
 10
13.5880465211
 20
8.6766051966
 30
0.0
 10
13.5816526036
 20
8.654530398
 30
0.0
 10
13.5726854485
 20
8.6204816747
 30
0.0
 10
13.5641507866
 20
8.5848424902
 30
0.0
 10
13.5560812804
 20
8.5477491886
 30
0.0
 10
13.5485069351
 20
8.5093401459
 30
0.0
 10
13.5414570388
 20
8.4697601627
 30
0.0
 10
13.5349581726
 20
8.4291586998
 30
0.0
 10
13.5290348588
 20
8.3876888131
 30
0.0
 10
13.5237098821
 20
8.3455069137
 30
0.0
 10
13.5190030866
 20
8.3027721702
 30
0.0
 10
13.5149324164
 20
8.2596457183
 30
0.0
 10
13.5115134751
 20
8.2162905548
 30
0.0
 10
13.5087587457
 20
8.1728704412
 30
0.0
 10
13.5066788581
 20
8.1295474858
 30
0.0
 10
13.5052819759
 20
8.0864876668
 30
0.0
 10
13.5048059606
 20
8.0578828454
 30
0.0
 10
13.5046852518
 20
8.0436547005
 30
0.0
  0
SPLINE
  5
2EF
100
AcDbEntity
  8
0
100
AcDbSpline
 62
7
  6
CONTINUOUS
 70
0
 71
3
 72
55
 73
51
 74
0
 42
0.0000001
 43
0.0000001
 44
0.0000000001
 40
0.0
 40
0.0
 40
0.0
 40
0.0
 40
0.0544796836
 40
0.1080730038
 40
0.1606188057
 40
0.2119841062
 40
0.2620411187
 40
0.3106614428
 40
0.3577215751
 40
0.4031061635
 40
0.4467061545
 40
0.4884199557
 40
0.5281545703
 40
0.5658265035
 40
0.6013637281
 40
0.6347062423
 40
0.6658099984
 40
0.694647824
 40
0.7082163713
 40
0.7212192512
 40
0.7336600645
 40
0.7455452452
 40
0.7568838525
 40
0.7676875652
 40
0.7779714304
 40
0.7877550967
 40
0.7970627058
 40
0.8059233995
 40
0.8143724103
 40
0.8224520268
 40
0.8302114288
 40
0.8377068764
 40
0.8450017153
 40
0.8521653036
 40
0.8592710663
 40
0.8663944188
 40
0.8736102248
 40
0.8809901605
 40
0.888600879
 40
0.8965027645
 40
0.9047487914
 40
0.9133845833
 40
0.92244909
 40
0.9319750597
 40
0.9419890353
 40
0.9525126212
 40
0.9635634308
 40
0.9751553269
 40
0.9872983602
 40
1.0
 40
1.0
 40
1.0
 40
1.0
 10
14.2475281698
 20
7.9940376143
 30
0.0
 10
14.2475281698
 20
7.9834726494
 30
0.0
 10
14.2476768343
 20
7.9625142722
 30
0.0
 10
14.2483553387
 20
7.9313725736
 30
0.0
 10
14.2494866568
 20
7.9008482615
 30
0.0
 10
14.2510669197
 20
7.8710305474
 30
0.0
 10
14.2530918178
 20
7.8420026656
 30
0.0
 10
14.2555551875
 20
7.8138465491
 30
0.0
 10
14.2584503111
 20
7.7866424374
 30
0.0
 10
14.2617684958
 20
7.7604675647
 30
0.0
 10
14.2655003328
 20
7.7353959667
 30
0.0
 10
14.2696349639
 20
7.7114985634
 30
0.0
 10
14.2741604345
 20
7.6888428983
 30
0.0
 10
14.2790638051
 20
7.6674928009
 30
0.0
 10
14.2843306938
 20
7.6475082568
 30
0.0
 10
14.2899463806
 20
7.6289449332
 30
0.0
 10
14.2958943686
 20
7.6118547806
 30
0.0
 10
14.3012172926
 20
7.5986227037
 30
0.0
 10
14.3056495684
 20
7.5888326752
 30
0.0
 10
14.3089786442
 20
7.5820376187
 30
0.0
 10
14.3123781695
 20
7.575644873
 30
0.0
 10
14.3158457686
 20
7.5696587808
 30
0.0
 10
14.3193789864
 20
7.5640833476
 30
0.0
 10
14.3229755357
 20
7.5589224678
 30
0.0
 10
14.3266333343
 20
7.5541799106
 30
0.0
 10
14.3303498927
 20
7.549858796
 30
0.0
 10
14.3341229116
 20
7.545962058
 30
0.0
 10
14.337950293
 20
7.5424926951
 30
0.0
 10
14.3418300164
 20
7.5394536836
 30
0.0
 10
14.3457596358
 20
7.536847379
 30
0.0
 10
14.3497367949
 20
7.5346762918
 30
0.0
 10
14.3537589956
 20
7.5329432732
 30
0.0
 10
14.3578231631
 20
7.5316508982
 30
0.0
 10
14.3619255571
 20
7.5308008069
 30
0.0
 10
14.3660621396
 20
7.5303943863
 30
0.0
 10
14.3702285384
 20
7.5304326363
 30
0.0
 10
14.3744202877
 20
7.5309150779
 30
0.0
 10
14.3786333365
 20
7.5318401608
 30
0.0
 10
14.3828641012
 20
7.5332062122
 30
0.0
 10
14.3871092662
 20
7.5350115502
 30
0.0
 10
14.391366074
 20
7.5372536481
 30
0.0
 10
14.3956319958
 20
7.5399300281
 30
0.0
 10
14.3999044698
 20
7.5430384788
 30
0.0
 10
14.4041807608
 20
7.5465767964
 30
0.0
 10
14.4084584529
 20
7.550542068
 30
0.0
 10
14.4127349139
 20
7.554931403
 30
0.0
 10
14.4170073148
 20
7.5597418917
 30
0.0
 10
14.421272728
 20
7.5649703424
 30
0.0
 10
14.4255284523
 20
7.5706128334
 30
0.0
 10
14.4282947423
 20
7.574558817
 30
0.0
 10
14.4296770887
 20
7.5765975161
 30
0.0
  0
SPLINE
  5
2F0
100
AcDbEntity
  8
0
100
AcDbSpline
 62
7
  6
CONTINUOUS
 70
0
 71
3
 72
9
 73
5
 74
0
 42
0.0000001
 43
0.0000001
 44
0.0000000001
 40
0.0
 40
0.0
 40
0.0
 40
0.0
 40
0.2415810799
 40
1.0
 40
1.0
 40
1.0
 40
1.0
 10
14.4296770887
 20
7.5765975161
 30
0.0
 10
14.4304481034
 20
7.5777346168
 30
0.0
 10
14.433598585
 20
7.5824693165
 30
0.0
 10
14.4365900356
 20
7.587309163
 30
0.0
 10
14.4387811714
 20
7.5910241861
 30
0.0
  0
SPLINE
  5
2F1
100
AcDbEntity
  8
0
100
AcDbSpline
 62
7
  6
CONTINUOUS
 70
0
 71
3
 72
11
 73
7
 74
0
 42
0.0000001
 43
0.0000001
 44
0.0000000001
 40
0.0
 40
0.0
 40
0.0
 40
0.0
 40
0.2707423955
 40
0.5275743428
 40
0.7705940619
 40
1.0
 40
1.0
 40
1.0
 40
1.0
 10
14.5155155838
 20
8.6974527165
 30
0.0
 10
14.5142192779
 20
8.700567297
 30
0.0
 10
14.5115942575
 20
8.7065959756
 30
0.0
 10
14.5074371009
 20
8.7152540299
 30
0.0
 10
14.5031683738
 20
8.7232788841
 30
0.0
 10
14.5001656643
 20
8.728345401
 30
0.0
 10
14.4986431408
 20
8.7307646931
 30
0.0
  0
SPLINE
  5
2F2
100
AcDbEntity
  8
0
100
AcDbSpline
 62
7
  6
CONTINUOUS
 70
0
 71
3
 72
55
 73
51
 74
0
 42
0.0000001
 43
0.0000001
 44
0.0000000001
 40
0.0
 40
0.0
 40
0.0
 40
0.0
 40
0.0091577868
 40
0.0177618445
 40
0.0258372884
 40
0.0334170679
 40
0.0405430748
 40
0.0472684852
 40
0.0536583613
 40
0.0597898466
 40
0.0657516837
 40
0.0716409717
 40
0.0775587123
 40
0.0836043685
 40
0.0898706698
 40
0.0964402932
 40
0.0998623988
 40
0.1033856202
 40
0.1107605558
 40
0.1186142058
 40
0.126983132
 40
0.1358954139
 40
0.14537248
 40
0.1554292655
 40
0.1660758699
 40
0.1773187873
 40
0.1891604404
 40
0.2016004246
 40
0.2146363091
 40
0.2282628502
 40
0.2424730097
 40
0.257258518
 40
0.2726089663
 40
0.3049559727
 40
0.3394089097
 40
0.3758441812
 40
0.4141231893
 40
0.4540951793
 40
0.4955985596
 40
0.5384619526
 40
0.5825062071
 40
0.6275453385
 40
0.6733874576
 40
0.7198363195
 40
0.7666923239
 40
0.8137540635
 40
0.8608176619
 40
0.9076794905
 40
0.9541447315
 40
1.0
 40
1.0
 40
1.0
 40
1.0
 10
14.4986431408
 20
8.7307646931
 30
0.0
 10
14.4971909542
 20
8.7330722197
 30
0.0
 10
14.4942596327
 20
8.737477292
 30
0.0
 10
14.4896221048
 20
8.7436206025
 30
0.0
 10
14.4848880517
 20
8.7490834376
 30
0.0
 10
14.4800619407
 20
8.7538595707
 30
0.0
 10
14.475147105
 20
8.7579425576
 30
0.0
 10
14.4701476436
 20
8.7613265185
 30
0.0
 10
14.4650679556
 20
8.7640054955
 30
0.0
 10
14.4599130709
 20
8.7659721075
 30
0.0
 10
14.4546906449
 20
8.7672204808
 30
0.0
 10
14.4494102003
 20
8.7677465044
 30
0.0
 10
14.4440826221
 20
8.7675477533
 30
0.0
 10
14.4387186517
 20
8.766626645
 30
0.0
 10
14.4333274435
 20
8.7649880532
 30
0.0
 10
14.4288787166
 20
8.7630550215
 30
0.0
 10
14.4253203574
 20
8.7611740225
 30
0.0
 10
14.4216513805
 20
8.7589995154
 30
0.0
 10
14.4170527812
 20
8.755820449
 30
0.0
 10
14.4116112916
 20
8.7513664918
 30
0.0
 10
14.4061687955
 20
8.746222483
 30
0.0
 10
14.4007306254
 20
8.7403946506
 30
0.0
 10
14.3953024689
 20
8.733889006
 30
0.0
 10
14.3898896727
 20
8.7267130238
 30
0.0
 10
14.3844979133
 20
8.7188746555
 30
0.0
 10
14.3791335031
 20
8.7103823404
 30
0.0
 10
14.3738021271
 20
8.7012457677
 30
0.0
 10
14.3685097092
 20
8.6914752353
 30
0.0
 10
14.3632626262
 20
8.6810815876
 30
0.0
 10
14.3580665937
 20
8.6700767526
 30
0.0
 10
14.352927512
 20
8.658473271
 30
0.0
 10
14.3478515494
 20
8.6462842168
 30
0.0
 10
14.341056285
 20
8.6289661928
 30
0.0
 10
14.3327899304
 20
8.6059414891
 30
0.0
 10
14.3233761068
 20
8.5766784976
 30
0.0
 10
14.3143466577
 20
8.5454522314
 30
0.0
 10
14.3057431919
 20
8.5124058119
 30
0.0
 10
14.2976057768
 20
8.4776903257
 30
0.0
 10
14.2899723554
 20
8.4414648899
 30
0.0
 10
14.2828780904
 20
8.403895752
 30
0.0
 10
14.276355902
 20
8.3651554017
 30
0.0
 10
14.2704361583
 20
8.3254217525
 30
0.0
 10
14.2651460301
 20
8.2848774309
 30
0.0
 10
14.260509994
 20
8.2437088199
 30
0.0
 10
14.2565495967
 20
8.2021050229
 30
0.0
 10
14.2532829919
 20
8.1602574565
 30
0.0
 10
14.2507251531
 20
8.1183588691
 30
0.0
 10
14.2488878361
 20
8.0766002006
 30
0.0
 10
14.2477798267
 20
8.0351757843
 30
0.0
 10
14.2475281698
 20
8.007689609
 30
0.0
 10
14.2475281698
 20
7.9940376143
 30
0.0
  0
SPLINE
  5
2F3
100
AcDbEntity
  8
0
100
AcDbSpline
 62
7
  6
CONTINUOUS
 70
0
 71
3
 72
9
 73
5
 74
0
 42
0.0000001
 43
0.0000001
 44
0.0000000001
 40
0.0
 40
0.0
 40
0.0
 40
0.0
 40
0.5149357862
 40
1.0
 40
1.0
 40
1.0
 40
1.0
 10
13.591319161
 20
7.5236227836
 30
0.0
 10
13.5929291093
 20
7.5214483656
 30
0.0
 10
13.5961758112
 20
7.5173127971
 30
0.0
 10
13.5996876309
 20
7.5133980181
 30
0.0
 10
13.6014604602
 20
7.5115670449
 30
0.0
  0
SPLINE
  5
2F4
100
AcDbEntity
  8
0
100
AcDbSpline
 62
7
  6
CONTINUOUS
 70
0
 71
3
 72
37
 73
33
 74
0
 42
0.0000001
 43
0.0000001
 44
0.0000000001
 40
0.0
 40
0.0
 40
0.0
 40
0.0
 40
0.0964112922
 40
0.1901906492
 40
0.2807583835
 40
0.3675835225
 40
0.4094323166
 40
0.450157461
 40
0.4897016084
 40
0.5280107694
 40
0.5650329334
 40
0.600720838
 40
0.6350299683
 40
0.6679203677
 40
0.6993569715
 40
0.7293088589
 40
0.7577523785
 40
0.7846691308
 40
0.8100495366
 40
0.8338928968
 40
0.8562090528
 40
0.8770224534
 40
0.8963726747
 40
0.9143213188
 40
0.9309549459
 40
0.9463922245
 40
0.9607907246
 40
0.9743509572
 40
0.9808967563
 40
0.9873288622
 40
0.9936838942
 40
1.0
 40
1.0
 40
1.0
 40
1.0
 10
13.4470288217
 20
8.0068145742
 30
0.0
 10
13.4470288217
 20
7.9866555095
 30
0.0
 10
13.4474559839
 20
7.9468861631
 30
0.0
 10
13.4494233967
 20
7.8882088967
 30
0.0
 10
13.4526970941
 20
7.8315970868
 30
0.0
 10
13.4565394365
 20
7.785909779
 30
0.0
 10
13.4602767682
 20
7.7506859601
 30
0.0
 10
13.46335576
 20
7.7253369926
 30
0.0
 10
13.4667401048
 20
7.7007738322
 30
0.0
 10
13.4704237513
 20
7.6770368929
 30
0.0
 10
13.4744011379
 20
7.6541652756
 30
0.0
 10
13.4786651119
 20
7.6321966046
 30
0.0
 10
13.4832088632
 20
7.6111669614
 30
0.0
 10
13.4880248615
 20
7.5911108632
 30
0.0
 10
13.4931047204
 20
7.5720611074
 30
0.0
 10
13.4984406607
 20
7.5540488918
 30
0.0
 10
13.5040231183
 20
7.5371034347
 30
0.0
 10
13.5098435275
 20
7.5212522763
 30
0.0
 10
13.5158921122
 20
7.5065209003
 30
0.0
 10
13.5221590179
 20
7.4929327309
 30
0.0
 10
13.5286350104
 20
7.480509444
 30
0.0
 10
13.5353094384
 20
7.4692700153
 30
0.0
 10
13.5421737518
 20
7.4592321694
 30
0.0
 10
13.5492183464
 20
7.4504109559
 30
0.0
 10
13.5564353532
 20
7.4428204728
 30
0.0
 10
13.563818462
 20
7.4364744063
 30
0.0
 10
13.5713589249
 20
7.4313864232
 30
0.0
 10
13.5778473847
 20
7.4281712593
 30
0.0
 10
13.5830690368
 20
7.4262798939
 30
0.0
 10
13.586968638
 20
7.4251986712
 30
0.0
 10
13.5908943894
 20
7.4244397118
 30
0.0
 10
13.5935312955
 20
7.4241486402
 30
0.0
 10
13.5948487957
 20
7.4240573018
 30
0.0
  0
SPLINE
  5
2F5
100
AcDbEntity
  8
0
100
AcDbSpline
 62
7
  6
CONTINUOUS
 70
0
 71
3
 72
48
 73
44
 74
0
 42
0.0000001
 43
0.0000001
 44
0.0000000001
 40
0.0
 40
0.0
 40
0.0
 40
0.0
 40
0.0417704112
 40
0.0840386256
 40
0.1266601605
 40
0.1695075437
 40
0.255350012
 40
0.3405015213
 40
0.3824895014
 40
0.4239116219
 40
0.464640564
 40
0.5045521279
 40
0.5435250537
 40
0.5814424351
 40
0.6181915682
 40
0.6536649563
 40
0.6877611854
 40
0.7203848469
 40
0.7514486498
 40
0.7808729855
 40
0.8085883399
 40
0.8217869473
 40
0.8345375105
 40
0.846834529
 40
0.8586738401
 40
0.8700524822
 40
0.8809683455
 40
0.8914207229
 40
0.9014108926
 40
0.9109416263
 40
0.9200175061
 40
0.9286459499
 40
0.936837114
 40
0.944604074
 40
0.9519639
 40
0.958938379
 40
0.9655541515
 40
0.9718436235
 40
0.9778460214
 40
0.9836072767
 40
0.9891799827
 40
0.9946230313
 40
1.0
 40
1.0
 40
1.0
 40
1.0
 10
13.4470288217
 20
8.0068145742
 30
0.0
 10
13.4470288217
 20
8.0213554719
 30
0.0
 10
13.447255883
 20
8.0506110186
 30
0.0
 10
13.4482585696
 20
8.0946934024
 30
0.0
 10
13.4499233431
 20
8.1391310833
 30
0.0
 10
13.4530199978
 20
8.1986883859
 30
0.0
 10
13.4584872002
 20
8.2729395652
 30
0.0
 10
13.466056796
 20
8.3467056583
 30
0.0
 10
13.4733498129
 20
8.4049313731
 30
0.0
 10
13.4793730547
 20
8.44772599
 30
0.0
 10
13.4859549906
 20
8.4897067421
 30
0.0
 10
13.4930734528
 20
8.5307349138
 30
0.0
 10
13.5007052229
 20
8.570674822
 30
0.0
 10
13.5088244929
 20
8.6093945021
 30
0.0
 10
13.5174044689
 20
8.6467660098
 30
0.0
 10
13.5264165978
 20
8.6826659614
 30
0.0
 10
13.5358305489
 20
8.7169759589
 30
0.0
 10
13.5456154535
 20
8.7495828628
 30
0.0
 10
13.5557380832
 20
8.7803796091
 30
0.0
 10
13.5661652342
 20
8.8092646451
 30
0.0
 10
13.5752204337
 20
8.8320203948
 30
0.0
 10
13.5826105257
 20
8.8491790474
 30
0.0
 10
13.5881169729
 20
8.8613021007
 30
0.0
 10
13.5936734615
 20
8.8728796497
 30
0.0
 10
13.5992753957
 20
8.8839022444
 30
0.0
 10
13.6049179722
 20
8.8943609959
 30
0.0
 10
13.6105966796
 20
8.9042472615
 30
0.0
 10
13.6163070586
 20
8.9135528589
 30
0.0
 10
13.6220442053
 20
8.9222704397
 30
0.0
 10
13.6278034845
 20
8.9303929846
 30
0.0
 10
13.6335806144
 20
8.9379136889
 30
0.0
 10
13.6393708823
 20
8.9448266578
 30
0.0
 10
13.6451697004
 20
8.9511265357
 30
0.0
 10
13.6509729458
 20
8.9568080177
 30
0.0
 10
13.6567764983
 20
8.9618663219
 30
0.0
 10
13.6625760318
 20
8.9662975205
 30
0.0
 10
13.6683676895
 20
8.9700975635
 30
0.0
 10
13.6741478497
 20
8.9732620844
 30
0.0
 10
13.6799122841
 20
8.9757876772
 30
0.0
 10
13.6856565667
 20
8.9776707883
 30
0.0
 10
13.6913761196
 20
8.9789072249
 30
0.0
 10
13.6970638999
 20
8.9794940636
 30
0.0
 10
13.7008400857
 20
8.9794510037
 30
0.0
 10
13.7027074059
 20
8.979321548
 30
0.0
  0
SPLINE
  5
2F6
100
AcDbEntity
  8
0
100
AcDbSpline
 62
7
  6
CONTINUOUS
 70
0
 71
3
 72
9
 73
5
 74
0
 42
0.0000001
 43
0.0000001
 44
0.0000000001
 40
0.0
 40
0.0
 40
0.0
 40
0.0
 40
0.5149357862
 40
1.0
 40
1.0
 40
1.0
 40
1.0
 10
14.2615873333
 20
7.477139528
 30
0.0
 10
14.2631972815
 20
7.47496511
 30
0.0
 10
14.2664439834
 20
7.4708295415
 30
0.0
 10
14.2699558031
 20
7.4669147625
 30
0.0
 10
14.2717286324
 20
7.4650837893
 30
0.0
  0
SPLINE
  5
2F7
100
AcDbEntity
  8
0
100
AcDbSpline
 62
7
  6
CONTINUOUS
 70
0
 71
3
 72
23
 73
19
 74
0
 42
0.0000001
 43
0.0000001
 44
0.0000000001
 40
0.0
 40
0.0
 40
0.0
 40
0.0
 40
0.0430432041
 40
0.0864276157
 40
0.130656649
 40
0.1763288731
 40
0.2240992276
 40
0.2746265429
 40
0.3285147701
 40
0.3862610475
 40
0.4482190742
 40
0.5145822216
 40
0.585391119
 40
0.6605550141
 40
0.7398801137
 40
0.8231012882
 40
0.9099156628
 40
1.0
 40
1.0
 40
1.0
 40
1.0
 10
14.4449964509
 20
8.8398753643
 30
0.0
 10
14.4450573995
 20
8.836215934
 30
0.0
 10
14.4448366958
 20
8.8288566396
 30
0.0
 10
14.4433650124
 20
8.817824491
 30
0.0
 10
14.4406400898
 20
8.8067991187
 30
0.0
 10
14.436555436
 20
8.7958019198
 30
0.0
 10
14.4310176756
 20
8.7848563045
 30
0.0
 10
14.4239540051
 20
8.7739861592
 30
0.0
 10
14.4153158403
 20
8.7632124915
 30
0.0
 10
14.4050812092
 20
8.7525526896
 30
0.0
 10
14.393256521
 20
8.7420205984
 30
0.0
 10
14.3798770623
 20
8.7316261208
 30
0.0
 10
14.3650038026
 20
8.7213762572
 30
0.0
 10
14.3487190649
 20
8.7112750799
 30
0.0
 10
14.3311209196
 20
8.7013236345
 30
0.0
 10
14.3123167063
 20
8.6915198459
 30
0.0
 10
14.2924172608
 20
8.681859644
 30
0.0
 10
14.2787297845
 20
8.6756190121
 30
0.0
 10
14.2717286324
 20
8.6725114937
 30
0.0
  0
SPLINE
  5
2F8
100
AcDbEntity
  8
0
100
AcDbSpline
 62
7
  6
CONTINUOUS
 70
0
 71
3
 72
15
 73
11
 74
0
 42
0.0000001
 43
0.0000001
 44
0.0000000001
 40
0.0
 40
0.0
 40
0.0
 40
0.0
 40
0.1273482789
 40
0.2538606571
 40
0.3795878378
 40
0.5046051156
 40
0.629017439
 40
0.7529533823
 40
0.8765605864
 40
1.0
 40
1.0
 40
1.0
 40
1.0
 10
8.1360890127
 20
9.6149884187
 30
0.0
 10
8.1360890127
 20
9.6084900936
 30
0.0
 10
8.1354685521
 20
9.5955271145
 30
0.0
 10
8.1326626206
 20
9.5763319684
 30
0.0
 10
8.1280098991
 20
9.5576191147
 30
0.0
 10
8.1215524163
 20
9.5395635634
 30
0.0
 10
8.1133493966
 20
9.5223318218
 30
0.0
 10
8.1034756715
 20
9.5060829873
 30
0.0
 10
8.0920240492
 20
9.4909693128
 30
0.0
 10
8.0834015494
 20
9.481737005
 30
0.0
 10
8.0788710779
 20
9.4773608755
 30
0.0
  0
SPLINE
  5
2F9
100
AcDbEntity
  8
0
100
AcDbSpline
 62
7
  6
CONTINUOUS
 70
0
 71
3
 72
15
 73
11
 74
0
 42
0.0000001
 43
0.0000001
 44
0.0000000001
 40
0.0
 40
0.0
 40
0.0
 40
0.0
 40
0.1273482789
 40
0.2538606571
 40
0.3795878378
 40
0.5046051156
 40
0.629017439
 40
0.7529533823
 40
0.8765605864
 40
1.0
 40
1.0
 40
1.0
 40
1.0
 10
8.1360890127
 20
6.958692239
 30
0.0
 10
8.1360890127
 20
6.9521939139
 30
0.0
 10
8.1354685521
 20
6.9392309348
 30
0.0
 10
8.1326626206
 20
6.9200357887
 30
0.0
 10
8.1280098991
 20
6.901322935
 30
0.0
 10
8.1215524163
 20
6.8832673837
 30
0.0
 10
8.1133493966
 20
6.8660356421
 30
0.0
 10
8.1034756715
 20
6.8497868076
 30
0.0
 10
8.0920240492
 20
6.8346731331
 30
0.0
 10
8.0834015494
 20
6.8254408253
 30
0.0
 10
8.0788710779
 20
6.8210646958
 30
0.0
  0
SPLINE
  5
2FA
100
AcDbEntity
  8
0
100
AcDbSpline
 62
7
  6
CONTINUOUS
 70
0
 71
3
 72
15
 73
11
 74
0
 42
0.0000001
 43
0.0000001
 44
0.0000000001
 40
0.0
 40
0.0
 40
0.0
 40
0.0
 40
0.1273482789
 40
0.2538606571
 40
0.3795878378
 40
0.5046051156
 40
0.629017439
 40
0.7529533823
 40
0.8765605864
 40
1.0
 40
1.0
 40
1.0
 40
1.0
 10
11.999792662
 20
6.6907434808
 30
0.0
 10
11.999792662
 20
6.6842451558
 30
0.0
 10
11.9991722013
 20
6.6712821766
 30
0.0
 10
11.9963662699
 20
6.6520870305
 30
0.0
 10
11.9917135483
 20
6.6333741769
 30
0.0
 10
11.9852560655
 20
6.6153186255
 30
0.0
 10
11.9770530459
 20
6.5980868839
 30
0.0
 10
11.9671793207
 20
6.5818380494
 30
0.0
 10
11.9557276984
 20
6.5667243749
 30
0.0
 10
11.9471051987
 20
6.5574920672
 30
0.0
 10
11.9425747271
 20
6.5531159377
 30
0.0
  0
SPLINE
  5
2FB
100
AcDbEntity
  8
0
100
AcDbSpline
 62
7
  6
CONTINUOUS
 70
0
 71
3
 72
15
 73
11
 74
0
 42
0.0000001
 43
0.0000001
 44
0.0000000001
 40
0.0
 40
0.0
 40
0.0
 40
0.0
 40
0.1273482789
 40
0.2538606571
 40
0.3795878378
 40
0.5046051156
 40
0.629017439
 40
0.7529533823
 40
0.8765605864
 40
1.0
 40
1.0
 40
1.0
 40
1.0
 10
11.999792662
 20
9.3470396605
 30
0.0
 10
11.999792662
 20
9.3405413355
 30
0.0
 10
11.9991722013
 20
9.3275783563
 30
0.0
 10
11.9963662699
 20
9.3083832102
 30
0.0
 10
11.9917135483
 20
9.2896703565
 30
0.0
 10
11.9852560655
 20
9.2716148052
 30
0.0
 10
11.9770530459
 20
9.2543830636
 30
0.0
 10
11.9671793207
 20
9.2381342291
 30
0.0
 10
11.9557276984
 20
9.2230205546
 30
0.0
 10
11.9471051987
 20
9.2137882468
 30
0.0
 10
11.9425747271
 20
9.2094121173
 30
0.0
  0
SPLINE
  5
2FC
100
AcDbEntity
  8
0
100
AcDbSpline
 62
7
  6
CONTINUOUS
 70
0
 71
3
 72
15
 73
11
 74
0
 42
0.0000001
 43
0.0000001
 44
0.0000000001
 40
0.0
 40
0.0
 40
0.0
 40
0.0
 40
0.1273482808
 40
0.2538605196
 40
0.3795878971
 40
0.5046050835
 40
0.6290174393
 40
0.7529533827
 40
0.8765605876
 40
1.0
 40
1.0
 40
1.0
 40
1.0
 10
9.3661956079
 20
9.590533561
 30
0.0
 10
9.3661956079
 20
9.5862064872
 30
0.0
 10
9.3657824655
 20
9.5775747647
 30
0.0
 10
9.3639140588
 20
9.5647931912
 30
0.0
 10
9.3608159287
 20
9.5523327661
 30
0.0
 10
9.356516053
 20
9.5403100168
 30
0.0
 10
9.3510539024
 20
9.5288358121
 30
0.0
 10
9.3444792495
 20
9.518016103
 30
0.0
 10
9.3368538972
 20
9.5079522828
 30
0.0
 10
9.3311124056
 20
9.5018047017
 30
0.0
 10
9.3280956797
 20
9.4988907426
 30
0.0
  0
SPLINE
  5
2FD
100
AcDbEntity
  8
0
100
AcDbSpline
 62
7
  6
CONTINUOUS
 70
0
 71
3
 72
15
 73
11
 74
0
 42
0.0000001
 43
0.0000001
 44
0.0000000001
 40
0.0
 40
0.0
 40
0.0
 40
0.0
 40
0.1273482808
 40
0.2538605196
 40
0.3795878971
 40
0.5046050835
 40
0.6290174393
 40
0.7529533827
 40
0.8765605876
 40
1.0
 40
1.0
 40
1.0
 40
1.0
 10
9.9698992851
 20
6.770663769
 30
0.0
 10
9.9698992851
 20
6.7663366952
 30
0.0
 10
9.9694861427
 20
6.7577049727
 30
0.0
 10
9.967617736
 20
6.7449233991
 30
0.0
 10
9.9645196059
 20
6.7324629741
 30
0.0
 10
9.9602197302
 20
6.7204402248
 30
0.0
 10
9.9547575796
 20
6.7089660201
 30
0.0
 10
9.9481829267
 20
6.698146311
 30
0.0
 10
9.9405575745
 20
6.6880824908
 30
0.0
 10
9.9348160828
 20
6.6819349097
 30
0.0
 10
9.9317993569
 20
6.6790209506
 30
0.0
  0
SPLINE
  5
2FE
100
AcDbEntity
  8
0
100
AcDbSpline
 62
7
  6
CONTINUOUS
 70
0
 71
3
 72
15
 73
11
 74
0
 42
0.0000001
 43
0.0000001
 44
0.0000000001
 40
0.0
 40
0.0
 40
0.0
 40
0.0
 40
0.1273473901
 40
0.2538608346
 40
0.3795878351
 40
0.5046051039
 40
0.6290174461
 40
0.7529533848
 40
0.8765605883
 40
1.0
 40
1.0
 40
1.0
 40
1.0
 10
10.9208532511
 20
9.4218643628
 30
0.0
 10
10.9208532511
 20
9.4194621597
 30
0.0
 10
10.9206238836
 20
9.4146701646
 30
0.0
 10
10.9195866443
 20
9.4075743386
 30
0.0
 10
10.9178666689
 20
9.4006567903
 30
0.0
 10
10.9154795538
 20
9.393982241
 30
0.0
 10
10.9124471763
 20
9.3876122193
 30
0.0
 10
10.9087971851
 20
9.3816055491
 30
0.0
 10
10.904563892
 20
9.3760185153
 30
0.0
 10
10.901376446
 20
9.3726056195
 30
0.0
 10
10.8997016791
 20
9.3709879051
 30
0.0
  0
SPLINE
  5
2FF
100
AcDbEntity
  8
0
100
AcDbSpline
 62
7
  6
CONTINUOUS
 70
0
 71
3
 72
15
 73
11
 74
0
 42
0.0000001
 43
0.0000001
 44
0.0000000001
 40
0.0
 40
0.0
 40
0.0
 40
0.0
 40
0.1273473901
 40
0.2538608346
 40
0.3795878351
 40
0.5046051039
 40
0.6290174461
 40
0.7529533848
 40
0.8765605883
 40
1.0
 40
1.0
 40
1.0
 40
1.0
 10
8.702121563
 20
6.9194377483
 30
0.0
 10
8.702121563
 20
6.9170355452
 30
0.0
 10
8.7018921955
 20
6.9122435501
 30
0.0
 10
8.7008549562
 20
6.9051477241
 30
0.0
 10
8.6991349808
 20
6.8982301758
 30
0.0
 10
8.6967478657
 20
6.8915556265
 30
0.0
 10
8.6937154882
 20
6.8851856048
 30
0.0
 10
8.6900654969
 20
6.8791789346
 30
0.0
 10
8.6858322038
 20
6.8735919008
 30
0.0
 10
8.6826447579
 20
6.870179005
 30
0.0
 10
8.6809699909
 20
6.8685612906
 30
0.0
  0
SPLINE
  5
300
100
AcDbEntity
  8
0
100
AcDbSpline
 62
7
  6
CONTINUOUS
 70
0
 71
3
 72
39
 73
35
 74
0
 42
0.0000001
 43
0.0000001
 44
0.0000000001
 40
0.0
 40
0.0
 40
0.0
 40
0.0
 40
0.0309163428
 40
0.046432028
 40
0.0619831643
 40
0.0931854683
 40
0.1245187232
 40
0.1402331306
 40
0.1559758169
 40
0.187534796
 40
0.2191848339
 40
0.2509097254
 40
0.2826925781
 40
0.3145162218
 40
0.3463635732
 40
0.3782179442
 40
0.410063294
 40
0.441884426
 40
0.473667136
 40
0.5053983158
 40
0.5686359209
 40
0.6315404283
 40
0.662859004
 40
0.6940725826
 40
0.725176493
 40
0.7561672606
 40
0.787042601
 40
0.8178014192
 40
0.8484438205
 40
0.8789711284
 40
0.9093859095
 40
0.9396920014
 40
0.9698945427
 40
1.0
 40
1.0
 40
1.0
 40
1.0
 10
8.6267793441
 20
9.3981168345
 30
0.0
 10
8.6339420488
 20
9.3976200993
 30
0.0
 10
8.6446781071
 20
9.3964972272
 30
0.0
 10
8.6589001835
 20
9.3942614578
 30
0.0
 10
8.6731030927
 20
9.3915267801
 30
0.0
 10
8.69072619
 20
9.3871880856
 30
0.0
 10
8.7080537982
 20
9.3816642326
 30
0.0
 10
8.7217127273
 20
9.3765513546
 30
0.0
 10
8.7352450816
 20
9.3709733065
 30
0.0
 10
8.7518480123
 20
9.3631603853
 30
0.0
 10
8.7711685207
 20
9.3525100535
 30
0.0
 10
8.7898259096
 20
9.3406395166
 30
0.0
 10
8.8077474404
 20
9.3276170394
 30
0.0
 10
8.8248680459
 20
9.3135140877
 30
0.0
 10
8.8411293707
 20
9.2984046382
 30
0.0
 10
8.8564797767
 20
9.282364165
 30
0.0
 10
8.8708739752
 20
9.2654687838
 30
0.0
 10
8.8842724735
 20
9.2477948891
 30
0.0
 10
8.8966416346
 20
9.2294174994
 30
0.0
 10
8.9117023186
 20
9.2041110409
 30
0.0
 10
8.9278291935
 20
9.1710976024
 30
0.0
 10
8.9402543011
 20
9.1366247638
 30
0.0
 10
8.9478907236
 20
9.1085003448
 30
0.0
 10
8.9524554001
 20
9.0872279125
 30
0.0
 10
8.9558573665
 20
9.0658165352
 30
0.0
 10
8.958091925
 20
9.0443308303
 30
0.0
 10
8.9591558183
 20
9.0228356642
 30
0.0
 10
8.9590475334
 20
9.0013952439
 30
0.0
 10
8.9577671471
 20
8.9800736491
 30
0.0
 10
8.9553163487
 20
8.9589349448
 30
0.0
 10
8.9516985328
 20
8.938043524
 30
0.0
 10
8.9469187546
 20
8.9174639116
 30
0.0
 10
8.940984486
 20
8.8972624049
 30
0.0
 10
8.9362567316
 20
8.8840685821
 30
0.0
 10
8.9337040459
 20
8.8775596542
 30
0.0
  0
SPLINE
  5
301
100
AcDbEntity
  8
0
100
AcDbSpline
 62
7
  6
CONTINUOUS
 70
0
 71
3
 72
39
 73
35
 74
0
 42
0.0000001
 43
0.0000001
 44
0.0000000001
 40
0.0
 40
0.0
 40
0.0
 40
0.0
 40
0.0309163428
 40
0.046432028
 40
0.0619831643
 40
0.0931854683
 40
0.1245187232
 40
0.1402331306
 40
0.1559758169
 40
0.187534796
 40
0.2191848339
 40
0.2509097254
 40
0.2826925781
 40
0.3145162218
 40
0.3463635732
 40
0.3782179442
 40
0.410063294
 40
0.441884426
 40
0.473667136
 40
0.5053983158
 40
0.5686359209
 40
0.6315404283
 40
0.662859004
 40
0.6940725826
 40
0.725176493
 40
0.7561672606
 40
0.787042601
 40
0.8178014192
 40
0.8484438205
 40
0.8789711284
 40
0.9093859095
 40
0.9396920014
 40
0.9698945427
 40
1.0
 40
1.0
 40
1.0
 40
1.0
 10
9.8341866985
 20
9.3143828501
 30
0.0
 10
9.8413494032
 20
9.3138861148
 30
0.0
 10
9.8520854615
 20
9.3127632428
 30
0.0
 10
9.8663075379
 20
9.3105274734
 30
0.0
 10
9.8805104471
 20
9.3077927956
 30
0.0
 10
9.8981335444
 20
9.3034541012
 30
0.0
 10
9.9154611526
 20
9.2979302482
 30
0.0
 10
9.9291200817
 20
9.2928173702
 30
0.0
 10
9.942652436
 20
9.2872393221
 30
0.0
 10
9.9592553667
 20
9.2794264008
 30
0.0
 10
9.9785758751
 20
9.268776069
 30
0.0
 10
9.997233264
 20
9.2569055322
 30
0.0
 10
10.0151547948
 20
9.243883055
 30
0.0
 10
10.0322754003
 20
9.2297801033
 30
0.0
 10
10.0485367251
 20
9.2146706537
 30
0.0
 10
10.0638871311
 20
9.1986301806
 30
0.0
 10
10.0782813296
 20
9.1817347994
 30
0.0
 10
10.0916798279
 20
9.1640609046
 30
0.0
 10
10.104048989
 20
9.145683515
 30
0.0
 10
10.119109673
 20
9.1203770564
 30
0.0
 10
10.1352365479
 20
9.087363618
 30
0.0
 10
10.1476616555
 20
9.0528907794
 30
0.0
 10
10.155298078
 20
9.0247663603
 30
0.0
 10
10.1598627545
 20
9.003493928
 30
0.0
 10
10.1632647209
 20
8.9820825507
 30
0.0
 10
10.1654992794
 20
8.9605968459
 30
0.0
 10
10.1665631727
 20
8.9391016798
 30
0.0
 10
10.1664548878
 20
8.9176612595
 30
0.0
 10
10.1651745015
 20
8.8963396646
 30
0.0
 10
10.1627237031
 20
8.8752009603
 30
0.0
 10
10.1591058872
 20
8.8543095395
 30
0.0
 10
10.154326109
 20
8.8337299272
 30
0.0
 10
10.1483918404
 20
8.8135284204
 30
0.0
 10
10.143664086
 20
8.8003345977
 30
0.0
 10
10.1411114003
 20
8.7938256698
 30
0.0
  0
SPLINE
  5
302
100
AcDbEntity
  8
0
100
AcDbSpline
 62
7
  6
CONTINUOUS
 70
0
 71
3
 72
15
 73
11
 74
0
 42
0.0000001
 43
0.0000001
 44
0.0000000001
 40
0.0
 40
0.0
 40
0.0
 40
0.0
 40
0.1249654748
 40
0.2500847766
 40
0.3752850816
 40
0.5004927064
 40
0.625635296
 40
0.7506432969
 40
0.8754514535
 40
1.0
 40
1.0
 40
1.0
 40
1.0
 10
9.0391958383
 20
7.1337543214
 30
0.0
 10
9.0333205789
 20
7.1378330416
 30
0.0
 10
9.0218198153
 20
7.1463729484
 30
0.0
 10
9.0054115161
 20
7.1602546176
 30
0.0
 10
8.9899011201
 20
7.1751539033
 30
0.0
 10
8.9753552033
 20
7.1909974371
 30
0.0
 10
8.9618318171
 20
7.2077078418
 30
0.0
 10
8.9493814387
 20
7.2252042502
 30
0.0
 10
8.9380471471
 20
7.2434022331
 30
0.0
 10
8.9312490586
 20
7.255962526
 30
0.0
 10
8.9280471926
 20
7.2623313496
 30
0.0
  0
SPLINE
  5
303
100
AcDbEntity
  8
0
100
AcDbSpline
 62
7
  6
CONTINUOUS
 70
0
 71
3
 72
39
 73
35
 74
0
 42
0.0000001
 43
0.0000001
 44
0.0000000001
 40
0.0
 40
0.0
 40
0.0
 40
0.0
 40
0.0309163428
 40
0.046432028
 40
0.0619831643
 40
0.0931854683
 40
0.1245187232
 40
0.1402331306
 40
0.1559758169
 40
0.187534796
 40
0.2191848339
 40
0.2509097254
 40
0.2826925781
 40
0.3145162218
 40
0.3463635732
 40
0.3782179442
 40
0.410063294
 40
0.441884426
 40
0.473667136
 40
0.5053983158
 40
0.5686359209
 40
0.6315404283
 40
0.662859004
 40
0.6940725826
 40
0.725176493
 40
0.7561672606
 40
0.787042601
 40
0.8178014192
 40
0.8484438205
 40
0.8789711284
 40
0.9093859095
 40
0.9396920014
 40
0.9698945427
 40
1.0
 40
1.0
 40
1.0
 40
1.0
 10
10.4378903757
 20
7.7038522106
 30
0.0
 10
10.4450530804
 20
7.7033554754
 30
0.0
 10
10.4557891387
 20
7.7022326033
 30
0.0
 10
10.4700112151
 20
7.6999968339
 30
0.0
 10
10.4842141243
 20
7.6972621562
 30
0.0
 10
10.5018372216
 20
7.6929234617
 30
0.0
 10
10.5191648298
 20
7.6873996087
 30
0.0
 10
10.5328237589
 20
7.6822867307
 30
0.0
 10
10.5463561132
 20
7.6767086826
 30
0.0
 10
10.5629590439
 20
7.6688957613
 30
0.0
 10
10.5822795523
 20
7.6582454295
 30
0.0
 10
10.6009369412
 20
7.6463748927
 30
0.0
 10
10.618858472
 20
7.6333524155
 30
0.0
 10
10.6359790775
 20
7.6192494638
 30
0.0
 10
10.6522404023
 20
7.6041400142
 30
0.0
 10
10.6675908083
 20
7.5880995411
 30
0.0
 10
10.6819850068
 20
7.5712041599
 30
0.0
 10
10.6953835051
 20
7.5535302652
 30
0.0
 10
10.7077526662
 20
7.5351528755
 30
0.0
 10
10.7228133502
 20
7.509846417
 30
0.0
 10
10.7389402251
 20
7.4768329785
 30
0.0
 10
10.7513653327
 20
7.4423601399
 30
0.0
 10
10.7590017552
 20
7.4142357209
 30
0.0
 10
10.7635664317
 20
7.3929632885
 30
0.0
 10
10.7669683981
 20
7.3715519112
 30
0.0
 10
10.7692029566
 20
7.3500662064
 30
0.0
 10
10.77026685
 20
7.3285710403
 30
0.0
 10
10.770158565
 20
7.30713062
 30
0.0
 10
10.7688781787
 20
7.2858090251
 30
0.0
 10
10.7664273803
 20
7.2646703208
 30
0.0
 10
10.7628095644
 20
7.2437789
 30
0.0
 10
10.7580297862
 20
7.2231992877
 30
0.0
 10
10.7520955176
 20
7.2029977809
 30
0.0
 10
10.7473677632
 20
7.1898039582
 30
0.0
 10
10.7448150775
 20
7.1832950303
 30
0.0
  0
SPLINE
  5
304
100
AcDbEntity
  8
0
100
AcDbSpline
 62
7
  6
CONTINUOUS
 70
0
 71
3
 72
11
 73
7
 74
0
 42
0.0000001
 43
0.0000001
 44
0.0000000001
 40
0.0
 40
0.0
 40
0.0
 40
0.0
 40
0.2481089004
 40
0.4975323188
 40
0.7481918468
 40
1.0
 40
1.0
 40
1.0
 40
1.0
 10
11.2830755237
 20
7.094921318
 30
0.0
 10
11.2800973112
 20
7.0951278578
 30
0.0
 10
11.2741388417
 20
7.0957765057
 30
0.0
 10
11.2652826775
 20
7.097440385
 30
0.0
 10
11.2565360772
 20
7.0997853046
 30
0.0
 10
11.2508241143
 20
7.1017869012
 30
0.0
 10
11.2480036043
 20
7.1028936432
 30
0.0
  0
SPLINE
  5
305
100
AcDbEntity
  8
0
100
AcDbSpline
 62
7
  6
CONTINUOUS
 70
0
 71
3
 72
39
 73
35
 74
0
 42
0.0000001
 43
0.0000001
 44
0.0000000001
 40
0.0
 40
0.0
 40
0.0
 40
0.0
 40
0.0310016404
 40
0.0621469067
 40
0.0934266276
 40
0.1248357085
 40
0.1563632704
 40
0.1879975482
 40
0.2197248144
 40
0.251529847
 40
0.2833962774
 40
0.3153068281
 40
0.3472436598
 40
0.3791886853
 40
0.4111238496
 40
0.4430314022
 40
0.4748941688
 40
0.5066958358
 40
0.5384211678
 40
0.5700562085
 40
0.601588474
 40
0.6330071543
 40
0.6643032658
 40
0.6954697682
 40
0.7265016735
 40
0.7573961478
 40
0.7881525826
 40
0.8187726218
 40
0.8492601696
 40
0.8796213698
 40
0.9098645543
 40
0.940000154
 40
0.9700405701
 40
1.0
 40
1.0
 40
1.0
 40
1.0
 10
10.8455110322
 20
9.0058764243
 30
0.0
 10
10.8481965063
 20
9.0056901861
 30
0.0
 10
10.8535689993
 20
9.0051350503
 30
0.0
 10
10.8615705548
 20
9.0037647432
 30
0.0
 10
10.8694989485
 20
9.0018611645
 30
0.0
 10
10.87731756
 20
8.9994338838
 30
0.0
 10
10.8849913146
 20
8.9964944931
 30
0.0
 10
10.8924856811
 20
8.9930572874
 30
0.0
 10
10.8997673165
 20
8.9891388202
 30
0.0
 10
10.9068040832
 20
8.9847578202
 30
0.0
 10
10.9135652352
 20
8.9799350449
 30
0.0
 10
10.9200215318
 20
8.9746931069
 30
0.0
 10
10.9261453865
 20
8.9690563627
 30
0.0
 10
10.9319109619
 20
8.9630507321
 30
0.0
 10
10.937294215
 20
8.9567035067
 30
0.0
 10
10.9422729594
 20
8.9500432016
 30
0.0
 10
10.9468269088
 20
8.9430994044
 30
0.0
 10
10.950937765
 20
8.9359026603
 30
0.0
 10
10.95458918
 20
8.928484289
 30
0.0
 10
10.9577667682
 20
8.9208762631
 30
0.0
 10
10.9604580977
 20
8.9131110842
 30
0.0
 10
10.9626527526
 20
8.9052216915
 30
0.0
 10
10.9643423015
 20
8.8972413357
 30
0.0
 10
10.9655202623
 20
8.8892034753
 30
0.0
 10
10.9661820939
 20
8.8811416889
 30
0.0
 10
10.9663252316
 20
8.8730895902
 30
0.0
 10
10.9659491081
 20
8.8650807334
 30
0.0
 10
10.9650550896
 20
8.8571485234
 30
0.0
 10
10.9636464919
 20
8.8493261392
 30
0.0
 10
10.9617285855
 20
8.8416464338
 30
0.0
 10
10.9593086989
 20
8.8341418701
 30
0.0
 10
10.9563960297
 20
8.8268442544
 30
0.0
 10
10.9530021058
 20
8.8197853025
 30
0.0
 10
10.9504237668
 20
8.8152524786
 30
0.0
 10
10.9490597156
 20
8.8130373514
 30
0.0
  0
SPLINE
  5
306
100
AcDbEntity
  8
0
100
AcDbSpline
 62
7
  6
CONTINUOUS
 70
0
 71
3
 72
34
 73
30
 74
0
 42
0.0000001
 43
0.0000001
 44
0.0000000001
 40
0.0
 40
0.0
 40
0.0
 40
0.0
 40
0.0720857154
 40
0.145278321
 40
0.2190440481
 40
0.2928432547
 40
0.3661360818
 40
0.4024256481
 40
0.4383886043
 40
0.4739596244
 40
0.5090743153
 40
0.5436693749
 40
0.577682755
 40
0.6110538272
 40
0.6437235543
 40
0.6756346728
 40
0.706731884
 40
0.7369620418
 40
0.7662743607
 40
0.7946206425
 40
0.8219555271
 40
0.8482367869
 40
0.8734256549
 40
0.8974872011
 40
0.9203907935
 40
0.9421106687
 40
0.9626266492
 40
0.981925075
 40
1.0
 40
1.0
 40
1.0
 40
1.0
 10
13.2995610403
 20
8.0163716272
 30
0.0
 10
13.2995610403
 20
8.0388501372
 30
0.0
 10
13.3001016767
 20
8.0841539136
 30
0.0
 10
13.3024683326
 20
8.1524228689
 30
0.0
 10
13.3063807419
 20
8.2211562223
 30
0.0
 10
13.3118085923
 20
8.2898175632
 30
0.0
 10
13.3175779039
 20
8.3467150034
 30
0.0
 10
13.3229258765
 20
8.3917850928
 30
0.0
 10
13.3272726615
 20
8.4251263759
 30
0.0
 10
13.3319597042
 20
8.4580514997
 30
0.0
 10
13.3369778702
 20
8.4904962704
 30
0.0
 10
13.3423173288
 20
8.5223973768
 30
0.0
 10
13.3479676321
 20
8.5536925891
 30
0.0
 10
13.3539177186
 20
8.5843208605
 30
0.0
 10
13.3601559399
 20
8.6142224539
 30
0.0
 10
13.3666700786
 20
8.6433390624
 30
0.0
 10
13.3734473687
 20
8.6716139277
 30
0.0
 10
13.3804745286
 20
8.6989919513
 30
0.0
 10
13.3877377842
 20
8.7254198022
 30
0.0
 10
13.3952228966
 20
8.7508460256
 30
0.0
 10
13.4029151932
 20
8.7752211516
 30
0.0
 10
13.4107995924
 20
8.7984978047
 30
0.0
 10
13.418860637
 20
8.8206308105
 30
0.0
 10
13.4270825344
 20
8.8415772864
 30
0.0
 10
13.4354492093
 20
8.8612967629
 30
0.0
 10
13.4439443078
 20
8.8797512077
 30
0.0
 10
13.4525514223
 20
8.8969054
 30
0.0
 10
13.4612536261
 20
8.9127261205
 30
0.0
 10
13.4673059385
 20
8.9226912686
 30
0.0
 10
13.470353307
 20
8.9274327374
 30
0.0
  0
SPLINE
  5
307
100
AcDbEntity
  8
0
100
AcDbSpline
 62
7
  6
CONTINUOUS
 70
0
 71
3
 72
23
 73
19
 74
0
 42
0.0000001
 43
0.0000001
 44
0.0000000001
 40
0.0
 40
0.0
 40
0.0
 40
0.0
 40
0.0861625031
 40
0.1686286909
 40
0.2474357857
 40
0.3226367967
 40
0.3943046228
 40
0.4625335318
 40
0.5274441394
 40
0.5891859695
 40
0.6479432093
 40
0.7039380042
 40
0.7574359982
 40
0.8087486849
 40
0.8582359246
 40
0.906303671
 40
0.9533990941
 40
1.0
 40
1.0
 40
1.0
 40
1.0
 10
13.470353307
 20
8.9274327374
 30
0.0
 10
13.4720957156
 20
8.9301437897
 30
0.0
 10
13.4755834584
 20
8.9354002885
 30
0.0
 10
13.4809489863
 20
8.9429430224
 30
0.0
 10
13.4863297298
 20
8.949965374
 30
0.0
 10
13.4917220638
 20
8.9564623186
 30
0.0
 10
13.497122295
 20
8.9624294296
 30
0.0
 10
13.5025269707
 20
8.9678624775
 30
0.0
 10
13.5079325348
 20
8.9727577217
 30
0.0
 10
13.5133357128
 20
8.9771115514
 30
0.0
 10
13.518733134
 20
8.9809207887
 30
0.0
 10
13.5241216697
 20
8.9841822313
 30
0.0
 10
13.5294980065
 20
8.9868930221
 30
0.0
 10
13.5348588765
 20
8.9890501234
 30
0.0
 10
13.5402004931
 20
8.9906508686
 30
0.0
 10
13.5455189746
 20
8.9916924982
 30
0.0
 10
13.5508087413
 20
8.9921731141
 30
0.0
 10
13.5543206836
 20
8.9921182984
 30
0.0
 10
13.5560595009
 20
8.9919977075
 30
0.0
  0
SPLINE
  5
308
100
AcDbEntity
  8
0
100
AcDbSpline
 62
7
  6
CONTINUOUS
 70
0
 71
3
 72
11
 73
7
 74
0
 42
0.0000001
 43
0.0000001
 44
0.0000000001
 40
0.0
 40
0.0
 40
0.0
 40
0.0
 40
0.249727465
 40
0.4997929985
 40
0.7499638036
 40
1.0
 40
1.0
 40
1.0
 40
1.0
 10
9.477109466
 20
7.609391192
 30
0.0
 10
9.48461117
 20
7.6041833621
 30
0.0
 10
9.4992070191
 20
7.593144022
 30
0.0
 10
9.5196929812
 20
7.5748673289
 30
0.0
 10
9.5386539778
 20
7.5549978886
 30
0.0
 10
9.5502026574
 20
7.540783501
 30
0.0
 10
9.5556835336
 20
7.5334648002
 30
0.0
  0
SPLINE
  5
309
100
AcDbEntity
  8
0
100
AcDbSpline
 62
7
  6
CONTINUOUS
 70
0
 71
3
 72
32
 73
28
 74
0
 42
0.0000001
 43
0.0000001
 44
0.0000000001
 40
0.0
 40
0.0
 40
0.0
 40
0.0
 40
0.0851787614
 40
0.1685807002
 40
0.2498832653
 40
0.3287741212
 40
0.4049545312
 40
0.4781407237
 40
0.5480664211
 40
0.5817295925
 40
0.6144870438
 40
0.6463116105
 40
0.6771777326
 40
0.7070617063
 40
0.7359416555
 40
0.7637979445
 40
0.7906130811
 40
0.8163723145
 40
0.8410635061
 40
0.8646779434
 40
0.8872102421
 40
0.9086594218
 40
0.9290289468
 40
0.948328137
 40
0.9665725098
 40
0.9837856371
 40
1.0
 40
1.0
 40
1.0
 40
1.0
 10
7.4315364792
 20
7.2915719019
 30
0.0
 10
7.4315364792
 20
7.2805697904
 30
0.0
 10
7.4317239577
 20
7.25879454
 30
0.0
 10
7.4325838319
 20
7.2265280859
 30
0.0
 10
7.4340159674
 20
7.1950947137
 30
0.0
 10
7.4360141651
 20
7.1646268094
 30
0.0
 10
7.4385697474
 20
7.1352524778
 30
0.0
 10
7.4416717361
 20
7.1070953667
 30
0.0
 10
7.4447382995
 20
7.0844661357
 30
0.0
 10
7.4474678257
 20
7.0670672527
 30
0.0
 10
7.4496168854
 20
7.0545602215
 30
0.0
 10
7.4518914549
 20
7.0424427864
 30
0.0
 10
7.4542891696
 20
7.0307276692
 30
0.0
 10
7.4568074536
 20
7.0194271828
 30
0.0
 10
7.4594436761
 20
7.0085531898
 30
0.0
 10
7.4621949979
 20
6.998117093
 30
0.0
 10
7.4650585658
 20
6.9881298268
 30
0.0
 10
7.4680312863
 20
6.9786018284
 30
0.0
 10
7.4711101065
 20
6.9695430499
 30
0.0
 10
7.4742917017
 20
6.9609629042
 30
0.0
 10
7.4775728504
 20
6.9528703089
 30
0.0
 10
7.4809500353
 20
6.9452735956
 30
0.0
 10
7.4844199204
 20
6.9381805933
 30
0.0
 10
7.4879788477
 20
6.9315985238
 30
0.0
 10
7.4916235139
 20
6.9255340224
 30
0.0
 10
7.4953500312
 20
6.9199934473
 30
0.0
 10
7.4979631313
 20
6.916552263
 30
0.0
 10
7.499284587
 20
6.9149274667
 30
0.0
  0
SPLINE
  5
30A
100
AcDbEntity
  8
0
100
AcDbSpline
 62
7
  6
CONTINUOUS
 70
0
 71
3
 72
41
 73
37
 74
0
 42
0.0000001
 43
0.0000001
 44
0.0000000001
 40
0.0
 40
0.0
 40
0.0
 40
0.0
 40
0.007162612
 40
0.0146567417
 40
0.0224899956
 40
0.0306685914
 40
0.0391976034
 40
0.048080857
 40
0.0573206515
 40
0.066918234
 40
0.0768739428
 40
0.0871871961
 40
0.0978567943
 40
0.1088807133
 40
0.1319796531
 40
0.156457528
 40
0.1822790031
 40
0.209402002
 40
0.2377785106
 40
0.2673552928
 40
0.2980744675
 40
0.3298739761
 40
0.3626879666
 40
0.3964471508
 40
0.4310791783
 40
0.4665089456
 40
0.5026588803
 40
0.5394491982
 40
0.5767981966
 40
0.6146225314
 40
0.6528374708
 40
0.6913571413
 40
0.7689615366
 40
0.8467371407
 40
0.9239816507
 40
1.0
 40
1.0
 40
1.0
 40
1.0
 10
7.5689692787
 20
10.0506742775
 30
0.0
 10
7.56781906
 20
10.0495632515
 30
0.0
 10
7.5655201473
 20
10.0472325386
 30
0.0
 10
7.5621506754
 20
10.043507838
 30
0.0
 10
7.5587854618
 20
10.0394789925
 30
0.0
 10
7.5554267153
 20
10.0351486076
 30
0.0
 10
7.5520762638
 20
10.0305192476
 30
0.0
 10
7.5487360889
 20
10.0255935548
 30
0.0
 10
7.5454080666
 20
10.0203744578
 30
0.0
 10
7.5420942104
 20
10.0148650454
 30
0.0
 10
7.5387965341
 20
10.0090685901
 30
0.0
 10
7.5355169433
 20
10.0029885761
 30
0.0
 10
7.5322574394
 20
9.9966285908
 30
0.0
 10
7.5278723637
 20
9.9876399131
 30
0.0
 10
7.5224672896
 20
9.9757216624
 30
0.0
 10
7.5161887913
 20
9.9605819383
 30
0.0
 10
7.5100360003
 20
9.9444256936
 30
0.0
 10
7.5040238049
 20
9.9272916254
 30
0.0
 10
7.4981667448
 20
9.909220621
 30
0.0
 10
7.4924790004
 20
9.8902559774
 30
0.0
 10
7.4869743472
 20
9.8704431662
 30
0.0
 10
7.4816661221
 20
9.8498297446
 30
0.0
 10
7.4765671809
 20
9.8284652346
 30
0.0
 10
7.4716898548
 20
9.8064010019
 30
0.0
 10
7.4670459436
 20
9.7836901131
 30
0.0
 10
7.4626466807
 20
9.7603872007
 30
0.0
 10
7.4585027121
 20
9.7365483348
 30
0.0
 10
7.4546240498
 20
9.7122308939
 30
0.0
 10
7.4510200569
 20
9.6874934149
 30
0.0
 10
7.4476994483
 20
9.6623954627
 30
0.0
 10
7.4446702101
 20
9.6369974163
 30
0.0
 10
7.4410207705
 20
9.6027315093
 30
0.0
 10
7.437239853
 20
9.5596005601
 30
0.0
 10
7.4339708075
 20
9.5077608119
 30
0.0
 10
7.4319903402
 20
9.4562103305
 30
0.0
 10
7.4315364792
 20
9.4219901948
 30
0.0
 10
7.4315364792
 20
9.405017735
 30
0.0
  0
SPLINE
  5
30B
100
AcDbEntity
  8
0
100
AcDbSpline
 62
7
  6
CONTINUOUS
 70
0
 71
3
 72
39
 73
35
 74
0
 42
0.0000001
 43
0.0000001
 44
0.0000000001
 40
0.0
 40
0.0
 40
0.0
 40
0.0
 40
0.0779101607
 40
0.156498487
 40
0.2351244353
 40
0.3131475851
 40
0.3899337427
 40
0.4276688667
 40
0.4648631836
 40
0.5014421559
 40
0.5373329141
 40
0.5724645056
 40
0.6067680818
 40
0.6401771245
 40
0.6726277478
 40
0.7040589805
 40
0.7344130036
 40
0.763635468
 40
0.7916759351
 40
0.8184882913
 40
0.8440311923
 40
0.868268683
 40
0.8911710574
 40
0.9127157739
 40
0.9229748069
 40
0.932889979
 40
0.9424610676
 40
0.951688726
 40
0.9605743429
 40
0.9691203896
 40
0.9773306373
 40
0.985209911
 40
0.9927640137
 40
1.0
 40
1.0
 40
1.0
 40
1.0
 10
13.89183191
 20
7.4914674004
 30
0.0
 10
13.8914940765
 20
7.475132611
 30
0.0
 10
13.8904174718
 20
7.4423278249
 30
0.0
 10
13.8876449517
 20
7.3930944468
 30
0.0
 10
13.8837273311
 20
7.3439148148
 30
0.0
 10
13.878698685
 20
7.2952164209
 30
0.0
 10
13.8735899383
 20
7.2551585844
 30
0.0
 10
13.8689710829
 20
7.2236791366
 30
0.0
 10
13.8652793263
 20
7.2005876352
 30
0.0
 10
13.8613481232
 20
7.1779281453
 30
0.0
 10
13.8571860045
 20
7.1557498542
 30
0.0
 10
13.8528020716
 20
7.1341009337
 30
0.0
 10
13.8482058876
 20
7.1130283893
 30
0.0
 10
13.8434074717
 20
7.0925779742
 30
0.0
 10
13.8384172988
 20
7.0727940678
 30
0.0
 10
13.8332462783
 20
7.0537195744
 30
0.0
 10
13.8279057053
 20
7.0353958432
 30
0.0
 10
13.8224072311
 20
7.0178625725
 30
0.0
 10
13.8167628716
 20
7.0011576964
 30
0.0
 10
13.8109849637
 20
6.9853172854
 30
0.0
 10
13.805086118
 20
6.9703755083
 30
0.0
 10
13.7990791604
 20
6.9563644236
 30
0.0
 10
13.7929771676
 20
6.9433142546
 30
0.0
 10
13.7877419847
 20
6.9331025286
 30
0.0
 10
13.7835071964
 20
6.9254463258
 30
0.0
 10
13.7803675347
 20
6.9200556399
 30
0.0
 10
13.7772139986
 20
6.914925245
 30
0.0
 10
13.7740483328
 20
6.910057866
 30
0.0
 10
13.7708722162
 20
6.9054561283
 30
0.0
 10
13.7676872815
 20
6.901122479
 30
0.0
 10
13.764495218
 20
6.8970591474
 30
0.0
 10
13.7612975957
 20
6.8932683386
 30
0.0
 10
13.7580963589
 20
6.8897522668
 30
0.0
 10
13.7559147997
 20
6.8875459747
 30
0.0
 10
13.7548233778
 20
6.886491742
 30
0.0
  0
SPLINE
  5
30C
100
AcDbEntity
  8
0
100
AcDbSpline
 62
7
  6
CONTINUOUS
 70
0
 71
3
 72
41
 73
37
 74
0
 42
0.0000001
 43
0.0000001
 44
0.0000000001
 40
0.0
 40
0.0
 40
0.0
 40
0.0
 40
0.029942123
 40
0.0449237706
 40
0.0599145177
 40
0.0899291716
 40
0.1200145961
 40
0.1350933574
 40
0.1501974726
 40
0.1804849654
 40
0.2108989488
 40
0.2414525624
 40
0.2721557217
 40
0.3030149378
 40
0.3340332219
 40
0.3652100719
 40
0.3965415365
 40
0.4280203507
 40
0.4596361361
 40
0.4913756582
 40
0.5232231336
 40
0.5551605782
 40
0.5871681905
 40
0.6192247616
 40
0.6513081064
 40
0.6833955071
 40
0.7154641657
 40
0.7474916563
 40
0.7794563734
 40
0.811337967
 40
0.843117763
 40
0.8747791516
 40
0.9063079641
 40
0.9376927517
 40
0.9689251728
 40
1.0
 40
1.0
 40
1.0
 40
1.0
 10
7.7856862248
 20
9.7808845549
 30
0.0
 10
7.7891866422
 20
9.7842657217
 30
0.0
 10
7.7946435535
 20
9.7891326476
 30
0.0
 10
7.8022858737
 20
9.7951714295
 30
0.0
 10
7.8101715823
 20
9.8009096994
 30
0.0
 10
7.8204611309
 20
9.807499126
 30
0.0
 10
7.8312509924
 20
9.8132629614
 30
0.0
 10
7.8401498226
 20
9.817363406
 30
0.0
 10
7.8492325043
 20
9.8211253109
 30
0.0
 10
7.8608851627
 20
9.8251704788
 30
0.0
 10
7.8752453205
 20
9.8289404883
 30
0.0
 10
7.8899188295
 20
9.8316112924
 30
0.0
 10
7.9048243736
 20
9.8331681498
 30
0.0
 10
7.9198800719
 20
9.8336027536
 30
0.0
 10
7.9350030831
 20
9.8329128913
 30
0.0
 10
7.9501102867
 20
9.8311025479
 30
0.0
 10
7.9651186747
 20
9.8281818484
 30
0.0
 10
7.9799458181
 20
9.8241670025
 30
0.0
 10
7.9945103098
 20
9.8190802081
 30
0.0
 10
8.0087322063
 20
9.8129495265
 30
0.0
 10
8.0225334597
 20
9.8058087262
 30
0.0
 10
8.0358383402
 20
9.7976970965
 30
0.0
 10
8.0485738464
 20
9.788659232
 30
0.0
 10
8.0606701005
 20
9.7787447893
 30
0.0
 10
8.072060727
 20
9.7680082158
 30
0.0
 10
8.0826832134
 20
9.7565084537
 30
0.0
 10
8.0924792491
 20
9.7443086195
 30
0.0
 10
8.1013950427
 20
9.731475661
 30
0.0
 10
8.1093816142
 20
9.7180799945
 30
0.0
 10
8.1163950631
 20
9.7041951205
 30
0.0
 10
8.1223968054
 20
9.6898972345
 30
0.0
 10
8.1273537906
 20
9.6752647792
 30
0.0
 10
8.1312386729
 20
9.660378152
 30
0.0
 10
8.1340299833
 20
9.6453187803
 30
0.0
 10
8.1357122193
 20
9.6301704796
 30
0.0
 10
8.1360890127
 20
9.620039272
 30
0.0
 10
8.1360890127
 20
9.6149884187
 30
0.0
  0
SPLINE
  5
30D
100
AcDbEntity
  8
0
100
AcDbSpline
 62
7
  6
CONTINUOUS
 70
0
 71
3
 72
41
 73
37
 74
0
 42
0.0000001
 43
0.0000001
 44
0.0000000001
 40
0.0
 40
0.0
 40
0.0
 40
0.0
 40
0.029942123
 40
0.0449237706
 40
0.0599145177
 40
0.0899291716
 40
0.1200145961
 40
0.1350933574
 40
0.1501974726
 40
0.1804849654
 40
0.2108989488
 40
0.2414525624
 40
0.2721557217
 40
0.3030149378
 40
0.3340332219
 40
0.3652100719
 40
0.3965415365
 40
0.4280203507
 40
0.4596361361
 40
0.4913756582
 40
0.5232231336
 40
0.5551605782
 40
0.5871681905
 40
0.6192247616
 40
0.6513081064
 40
0.6833955071
 40
0.7154641657
 40
0.7474916563
 40
0.7794563734
 40
0.811337967
 40
0.843117763
 40
0.8747791516
 40
0.9063079641
 40
0.9376927517
 40
0.9689251728
 40
1.0
 40
1.0
 40
1.0
 40
1.0
 10
7.7856862248
 20
7.1245883753
 30
0.0
 10
7.7891866422
 20
7.127969542
 30
0.0
 10
7.7946435535
 20
7.1328364679
 30
0.0
 10
7.8022858737
 20
7.1388752498
 30
0.0
 10
7.8101715823
 20
7.1446135197
 30
0.0
 10
7.8204611309
 20
7.1512029463
 30
0.0
 10
7.8312509924
 20
7.1569667817
 30
0.0
 10
7.8401498226
 20
7.1610672263
 30
0.0
 10
7.8492325043
 20
7.1648291312
 30
0.0
 10
7.8608851627
 20
7.1688742992
 30
0.0
 10
7.8752453205
 20
7.1726443086
 30
0.0
 10
7.8899188295
 20
7.1753151127
 30
0.0
 10
7.9048243736
 20
7.1768719701
 30
0.0
 10
7.9198800719
 20
7.1773065739
 30
0.0
 10
7.9350030831
 20
7.1766167116
 30
0.0
 10
7.9501102867
 20
7.1748063682
 30
0.0
 10
7.9651186747
 20
7.1718856688
 30
0.0
 10
7.9799458181
 20
7.1678708228
 30
0.0
 10
7.9945103098
 20
7.1627840284
 30
0.0
 10
8.0087322063
 20
7.1566533468
 30
0.0
 10
8.0225334597
 20
7.1495125465
 30
0.0
 10
8.0358383402
 20
7.1414009168
 30
0.0
 10
8.0485738464
 20
7.1323630523
 30
0.0
 10
8.0606701005
 20
7.1224486096
 30
0.0
 10
8.072060727
 20
7.1117120361
 30
0.0
 10
8.0826832134
 20
7.100212274
 30
0.0
 10
8.0924792491
 20
7.0880124398
 30
0.0
 10
8.1013950427
 20
7.0751794813
 30
0.0
 10
8.1093816142
 20
7.0617838148
 30
0.0
 10
8.1163950631
 20
7.0478989408
 30
0.0
 10
8.1223968054
 20
7.0336010548
 30
0.0
 10
8.1273537906
 20
7.0189685995
 30
0.0
 10
8.1312386729
 20
7.0040819723
 30
0.0
 10
8.1340299833
 20
6.9890226007
 30
0.0
 10
8.1357122193
 20
6.9738742999
 30
0.0
 10
8.1360890127
 20
6.9637430923
 30
0.0
 10
8.1360890127
 20
6.958692239
 30
0.0
  0
SPLINE
  5
30E
100
AcDbEntity
  8
0
100
AcDbSpline
 62
7
  6
CONTINUOUS
 70
0
 71
3
 72
41
 73
37
 74
0
 42
0.0000001
 43
0.0000001
 44
0.0000000001
 40
0.0
 40
0.0
 40
0.0
 40
0.0
 40
0.029942123
 40
0.0449237706
 40
0.0599145177
 40
0.0899291716
 40
0.1200145961
 40
0.1350933574
 40
0.1501974726
 40
0.1804849654
 40
0.2108989488
 40
0.2414525624
 40
0.2721557217
 40
0.3030149378
 40
0.3340332219
 40
0.3652100719
 40
0.3965415365
 40
0.4280203507
 40
0.4596361361
 40
0.4913756582
 40
0.5232231336
 40
0.5551605782
 40
0.5871681905
 40
0.6192247616
 40
0.6513081064
 40
0.6833955071
 40
0.7154641657
 40
0.7474916563
 40
0.7794563734
 40
0.811337967
 40
0.843117763
 40
0.8747791516
 40
0.9063079641
 40
0.9376927517
 40
0.9689251728
 40
1.0
 40
1.0
 40
1.0
 40
1.0
 10
11.649389874
 20
6.8566396171
 30
0.0
 10
11.6528902914
 20
6.8600207839
 30
0.0
 10
11.6583472027
 20
6.8648877097
 30
0.0
 10
11.6659895229
 20
6.8709264916
 30
0.0
 10
11.6738752315
 20
6.8766647615
 30
0.0
 10
11.6841647801
 20
6.8832541881
 30
0.0
 10
11.6949546417
 20
6.8890180235
 30
0.0
 10
11.7038534719
 20
6.8931184681
 30
0.0
 10
11.7129361535
 20
6.8968803731
 30
0.0
 10
11.724588812
 20
6.900925541
 30
0.0
 10
11.7389489697
 20
6.9046955504
 30
0.0
 10
11.7536224788
 20
6.9073663546
 30
0.0
 10
11.7685280229
 20
6.908923212
 30
0.0
 10
11.7835837212
 20
6.9093578158
 30
0.0
 10
11.7987067323
 20
6.9086679534
 30
0.0
 10
11.813813936
 20
6.9068576101
 30
0.0
 10
11.8288223239
 20
6.9039369106
 30
0.0
 10
11.8436494673
 20
6.8999220647
 30
0.0
 10
11.8582139591
 20
6.8948352702
 30
0.0
 10
11.8724358556
 20
6.8887045887
 30
0.0
 10
11.8862371089
 20
6.8815637884
 30
0.0
 10
11.8995419895
 20
6.8734521586
 30
0.0
 10
11.9122774957
 20
6.8644142942
 30
0.0
 10
11.9243737497
 20
6.8544998515
 30
0.0
 10
11.9357643762
 20
6.8437632779
 30
0.0
 10
11.9463868626
 20
6.8322635158
 30
0.0
 10
11.9561828983
 20
6.8200636817
 30
0.0
 10
11.9650986919
 20
6.8072307232
 30
0.0
 10
11.9730852635
 20
6.7938350567
 30
0.0
 10
11.9800987123
 20
6.7799501826
 30
0.0
 10
11.9861004546
 20
6.7656522966
 30
0.0
 10
11.9910574399
 20
6.7510198414
 30
0.0
 10
11.9949423221
 20
6.7361332142
 30
0.0
 10
11.9977336326
 20
6.7210738425
 30
0.0
 10
11.9994158685
 20
6.7059255417
 30
0.0
 10
11.999792662
 20
6.6957943341
 30
0.0
 10
11.999792662
 20
6.6907434808
 30
0.0
  0
SPLINE
  5
30F
100
AcDbEntity
  8
0
100
AcDbSpline
 62
7
  6
CONTINUOUS
 70
0
 71
3
 72
41
 73
37
 74
0
 42
0.0000001
 43
0.0000001
 44
0.0000000001
 40
0.0
 40
0.0
 40
0.0
 40
0.0
 40
0.029942123
 40
0.0449237706
 40
0.0599145177
 40
0.0899291716
 40
0.1200145961
 40
0.1350933574
 40
0.1501974726
 40
0.1804849654
 40
0.2108989488
 40
0.2414525624
 40
0.2721557217
 40
0.3030149378
 40
0.3340332219
 40
0.3652100719
 40
0.3965415365
 40
0.4280203507
 40
0.4596361361
 40
0.4913756582
 40
0.5232231336
 40
0.5551605782
 40
0.5871681905
 40
0.6192247616
 40
0.6513081064
 40
0.6833955071
 40
0.7154641657
 40
0.7474916563
 40
0.7794563734
 40
0.811337967
 40
0.843117763
 40
0.8747791516
 40
0.9063079641
 40
0.9376927517
 40
0.9689251728
 40
1.0
 40
1.0
 40
1.0
 40
1.0
 10
11.649389874
 20
9.5129357968
 30
0.0
 10
11.6528902914
 20
9.5163169636
 30
0.0
 10
11.6583472027
 20
9.5211838894
 30
0.0
 10
11.6659895229
 20
9.5272226713
 30
0.0
 10
11.6738752315
 20
9.5329609412
 30
0.0
 10
11.6841647801
 20
9.5395503678
 30
0.0
 10
11.6949546417
 20
9.5453142032
 30
0.0
 10
11.7038534719
 20
9.5494146478
 30
0.0
 10
11.7129361535
 20
9.5531765528
 30
0.0
 10
11.724588812
 20
9.5572217207
 30
0.0
 10
11.7389489697
 20
9.5609917301
 30
0.0
 10
11.7536224788
 20
9.5636625343
 30
0.0
 10
11.7685280229
 20
9.5652193917
 30
0.0
 10
11.7835837212
 20
9.5656539955
 30
0.0
 10
11.7987067323
 20
9.5649641331
 30
0.0
 10
11.813813936
 20
9.5631537897
 30
0.0
 10
11.8288223239
 20
9.5602330903
 30
0.0
 10
11.8436494673
 20
9.5562182444
 30
0.0
 10
11.8582139591
 20
9.5511314499
 30
0.0
 10
11.8724358556
 20
9.5450007683
 30
0.0
 10
11.8862371089
 20
9.5378599681
 30
0.0
 10
11.8995419895
 20
9.5297483383
 30
0.0
 10
11.9122774957
 20
9.5207104739
 30
0.0
 10
11.9243737497
 20
9.5107960311
 30
0.0
 10
11.9357643762
 20
9.5000594576
 30
0.0
 10
11.9463868626
 20
9.4885596955
 30
0.0
 10
11.9561828983
 20
9.4763598614
 30
0.0
 10
11.9650986919
 20
9.4635269029
 30
0.0
 10
11.9730852635
 20
9.4501312364
 30
0.0
 10
11.9800987123
 20
9.4362463623
 30
0.0
 10
11.9861004546
 20
9.4219484763
 30
0.0
 10
11.9910574399
 20
9.4073160211
 30
0.0
 10
11.9949423221
 20
9.3924293938
 30
0.0
 10
11.9977336326
 20
9.3773700222
 30
0.0
 10
11.9994158685
 20
9.3622217214
 30
0.0
 10
11.999792662
 20
9.3520905138
 30
0.0
 10
11.999792662
 20
9.3470396605
 30
0.0
  0
SPLINE
  5
310
100
AcDbEntity
  8
0
100
AcDbSpline
 62
7
  6
CONTINUOUS
 70
0
 71
3
 72
41
 73
37
 74
0
 42
0.0000001
 43
0.0000001
 44
0.0000000001
 40
0.0
 40
0.0
 40
0.0
 40
0.0
 40
0.0299421244
 40
0.0449237733
 40
0.05991452
 40
0.0899291767
 40
0.1200146037
 40
0.1350933625
 40
0.1501974807
 40
0.1804849728
 40
0.2108989538
 40
0.2414525638
 40
0.2721557191
 40
0.3030149318
 40
0.3340332139
 40
0.3652100638
 40
0.39654153
 40
0.4280203461
 40
0.4596361322
 40
0.4913756535
 40
0.5232231268
 40
0.5551605686
 40
0.5871681787
 40
0.6192247492
 40
0.6513080952
 40
0.683395499
 40
0.715464161
 40
0.7474916539
 40
0.7794563719
 40
0.811337962
 40
0.8431177653
 40
0.8747791215
 40
0.9063080259
 40
0.9376925771
 40
0.9689254639
 40
1.0
 40
1.0
 40
1.0
 40
1.0
 10
9.1328703629
 20
9.7009997791
 30
0.0
 10
9.1352012091
 20
9.7032512234
 30
0.0
 10
9.1388348235
 20
9.7064920205
 30
0.0
 10
9.1439236805
 20
9.7105130954
 30
0.0
 10
9.1491745683
 20
9.7143341149
 30
0.0
 10
9.1560261463
 20
9.7187218636
 30
0.0
 10
9.1632108589
 20
9.7225598906
 30
0.0
 10
9.1691363917
 20
9.7252902745
 30
0.0
 10
9.1751843335
 20
9.7277952629
 30
0.0
 10
9.182943574
 20
9.7304888482
 30
0.0
 10
9.1925056714
 20
9.7329992246
 30
0.0
 10
9.2022764238
 20
9.7347776644
 30
0.0
 10
9.2122016833
 20
9.7358143556
 30
0.0
 10
9.2222269285
 20
9.7361037654
 30
0.0
 10
9.2322969975
 20
9.735644419
 30
0.0
 10
9.2423565423
 20
9.7344389682
 30
0.0
 10
9.2523502887
 20
9.7324941515
 30
0.0
 10
9.2622233479
 20
9.7298207624
 30
0.0
 10
9.2719215129
 20
9.7264335855
 30
0.0
 10
9.2813915513
 20
9.7223513082
 30
0.0
 10
9.2905814938
 20
9.7175964173
 30
0.0
 10
9.2994409142
 20
9.712195075
 30
0.0
 10
9.3079212031
 20
9.7061769754
 30
0.0
 10
9.3159758303
 20
9.6995751826
 30
0.0
 10
9.3235605972
 20
9.6924259507
 30
0.0
 10
9.3306338764
 20
9.6847685266
 30
0.0
 10
9.3371568371
 20
9.6766449362
 30
0.0
 10
9.3430936614
 20
9.6680997607
 30
0.0
 10
9.3484117358
 20
9.6591798904
 30
0.0
 10
9.3530818332
 20
9.6499342689
 30
0.0
 10
9.3570782516
 20
9.6404136338
 30
0.0
 10
9.3603790121
 20
9.6306702127
 30
0.0
 10
9.3629658447
 20
9.6207575612
 30
0.0
 10
9.364824563
 20
9.6107298419
 30
0.0
 10
9.3659446916
 20
9.6006429356
 30
0.0
 10
9.3661956079
 20
9.5938967777
 30
0.0
 10
9.3661956079
 20
9.590533561
 30
0.0
  0
SPLINE
  5
311
100
AcDbEntity
  8
0
100
AcDbSpline
 62
7
  6
CONTINUOUS
 70
0
 71
3
 72
41
 73
37
 74
0
 42
0.0000001
 43
0.0000001
 44
0.0000000001
 40
0.0
 40
0.0
 40
0.0
 40
0.0
 40
0.0299421244
 40
0.0449237733
 40
0.05991452
 40
0.0899291767
 40
0.1200146037
 40
0.1350933625
 40
0.1501974807
 40
0.1804849728
 40
0.2108989538
 40
0.2414525638
 40
0.2721557191
 40
0.3030149318
 40
0.3340332139
 40
0.3652100638
 40
0.39654153
 40
0.4280203461
 40
0.4596361322
 40
0.4913756535
 40
0.5232231268
 40
0.5551605686
 40
0.5871681787
 40
0.6192247492
 40
0.6513080952
 40
0.683395499
 40
0.715464161
 40
0.7474916539
 40
0.7794563719
 40
0.811337962
 40
0.8431177653
 40
0.8747791215
 40
0.9063080259
 40
0.9376925771
 40
0.9689254639
 40
1.0
 40
1.0
 40
1.0
 40
1.0
 10
9.7365740401
 20
6.8811299871
 30
0.0
 10
9.7389048863
 20
6.8833814314
 30
0.0
 10
9.7425385007
 20
6.8866222285
 30
0.0
 10
9.7476273577
 20
6.8906433034
 30
0.0
 10
9.7528782455
 20
6.8944643229
 30
0.0
 10
9.7597298235
 20
6.8988520716
 30
0.0
 10
9.7669145361
 20
6.9026900986
 30
0.0
 10
9.7728400689
 20
6.9054204825
 30
0.0
 10
9.7788880107
 20
6.9079254709
 30
0.0
 10
9.7866472512
 20
6.9106190562
 30
0.0
 10
9.7962093486
 20
6.9131294326
 30
0.0
 10
9.805980101
 20
6.9149078724
 30
0.0
 10
9.8159053605
 20
6.9159445636
 30
0.0
 10
9.8259306057
 20
6.9162339734
 30
0.0
 10
9.8360006747
 20
6.915774627
 30
0.0
 10
9.8460602195
 20
6.9145691762
 30
0.0
 10
9.8560539659
 20
6.9126243595
 30
0.0
 10
9.8659270251
 20
6.9099509704
 30
0.0
 10
9.8756251901
 20
6.9065637935
 30
0.0
 10
9.8850952285
 20
6.9024815162
 30
0.0
 10
9.894285171
 20
6.8977266253
 30
0.0
 10
9.9031445914
 20
6.892325283
 30
0.0
 10
9.9116248803
 20
6.8863071834
 30
0.0
 10
9.9196795075
 20
6.8797053906
 30
0.0
 10
9.9272642744
 20
6.8725561587
 30
0.0
 10
9.9343375536
 20
6.8648987346
 30
0.0
 10
9.9408605143
 20
6.8567751442
 30
0.0
 10
9.9467973386
 20
6.8482299687
 30
0.0
 10
9.952115413
 20
6.8393100984
 30
0.0
 10
9.9567855104
 20
6.8300644769
 30
0.0
 10
9.9607819288
 20
6.8205438418
 30
0.0
 10
9.9640826893
 20
6.8108004207
 30
0.0
 10
9.9666695219
 20
6.8008877692
 30
0.0
 10
9.9685282402
 20
6.7908600499
 30
0.0
 10
9.9696483688
 20
6.7807731436
 30
0.0
 10
9.9698992851
 20
6.7740269857
 30
0.0
 10
9.9698992851
 20
6.770663769
 30
0.0
  0
SPLINE
  5
312
100
AcDbEntity
  8
0
100
AcDbSpline
 62
7
  6
CONTINUOUS
 70
0
 71
3
 72
39
 73
35
 74
0
 42
0.0000001
 43
0.0000001
 44
0.0000000001
 40
0.0
 40
0.0
 40
0.0
 40
0.0
 40
0.0299424796
 40
0.0599093277
 40
0.0899243268
 40
0.1200100989
 40
0.1501875564
 40
0.1804754082
 40
0.2108897438
 40
0.2414437065
 40
0.2721472214
 40
0.3030068034
 40
0.334025452
 40
0.3652026597
 40
0.3965344836
 40
0.4280136674
 40
0.4596298279
 40
0.4913697183
 40
0.5232175588
 40
0.5551553757
 40
0.587163368
 40
0.6192203146
 40
0.6513040285
 40
0.6833918015
 40
0.7154608406
 40
0.7474887097
 40
0.7794537919
 40
0.8113357643
 40
0.8431159187
 40
0.8747776681
 40
0.9063070433
 40
0.9376914486
 40
0.9689258945
 40
1.0
 40
1.0
 40
1.0
 40
1.0
 10
10.7913203853
 20
9.4831908217
 30
0.0
 10
10.7926143784
 20
9.4844407337
 30
0.0
 10
10.7953040984
 20
9.4868397032
 30
0.0
 10
10.7996134763
 20
9.4901078539
 30
0.0
 10
10.8041755905
 20
9.4930293851
 30
0.0
 10
10.8089649584
 20
9.4955879036
 30
0.0
 10
10.8139552558
 20
9.4977694195
 30
0.0
 10
10.8191189471
 20
9.4995619204
 30
0.0
 10
10.8244275646
 20
9.5009556263
 30
0.0
 10
10.8298518619
 20
9.5019429353
 30
0.0
 10
10.8353619776
 20
9.502518481
 30
0.0
 10
10.8409275926
 20
9.5026791412
 30
0.0
 10
10.8465180928
 20
9.5024241131
 30
0.0
 10
10.8521027485
 20
9.50175489
 30
0.0
 10
10.8576508781
 20
9.5006752155
 30
0.0
 10
10.8631320094
 20
9.4991910675
 30
0.0
 10
10.8685160401
 20
9.4973106316
 30
0.0
 10
10.8737734243
 20
9.4950443085
 30
0.0
 10
10.8788753151
 20
9.4924045878
 30
0.0
 10
10.8837937189
 20
9.4894059895
 30
0.0
 10
10.8885016349
 20
9.4860649766
 30
0.0
 10
10.8929732317
 20
9.4823999118
 30
0.0
 10
10.8971839867
 20
9.4784309403
 30
0.0
 10
10.9011107938
 20
9.4741798501
 30
0.0
 10
10.9047320899
 20
9.469669964
 30
0.0
 10
10.9080279689
 20
9.4649260178
 30
0.0
 10
10.9109803471
 20
9.4599740596
 30
0.0
 10
10.9135730004
 20
9.4548412624
 30
0.0
 10
10.9157916693
 20
9.4495557925
 30
0.0
 10
10.9176241226
 20
9.4441466272
 30
0.0
 10
10.9190601901
 20
9.438643534
 30
0.0
 10
10.9200921194
 20
9.4330765045
 30
0.0
 10
10.9207139226
 20
9.4274766582
 30
0.0
 10
10.9208532511
 20
9.4237314387
 30
0.0
 10
10.9208532511
 20
9.4218643628
 30
0.0
  0
SPLINE
  5
313
100
AcDbEntity
  8
0
100
AcDbSpline
 62
7
  6
CONTINUOUS
 70
0
 71
3
 72
39
 73
35
 74
0
 42
0.0000001
 43
0.0000001
 44
0.0000000001
 40
0.0
 40
0.0
 40
0.0
 40
0.0
 40
0.0299424796
 40
0.0599093277
 40
0.0899243268
 40
0.1200100989
 40
0.1501875564
 40
0.1804754082
 40
0.2108897438
 40
0.2414437065
 40
0.2721472214
 40
0.3030068034
 40
0.334025452
 40
0.3652026597
 40
0.3965344836
 40
0.4280136674
 40
0.4596298279
 40
0.4913697183
 40
0.5232175588
 40
0.5551553757
 40
0.587163368
 40
0.6192203146
 40
0.6513040285
 40
0.6833918015
 40
0.7154608406
 40
0.7474887097
 40
0.7794537919
 40
0.8113357643
 40
0.8431159187
 40
0.8747776681
 40
0.9063070433
 40
0.9376914486
 40
0.9689258945
 40
1.0
 40
1.0
 40
1.0
 40
1.0
 10
8.5725886972
 20
6.9807642072
 30
0.0
 10
8.5738826903
 20
6.9820141192
 30
0.0
 10
8.5765724103
 20
6.9844130887
 30
0.0
 10
8.5808817882
 20
6.9876812394
 30
0.0
 10
8.5854439024
 20
6.9906027706
 30
0.0
 10
8.5902332702
 20
6.9931612891
 30
0.0
 10
8.5952235677
 20
6.995342805
 30
0.0
 10
8.6003872589
 20
6.9971353059
 30
0.0
 10
8.6056958764
 20
6.9985290118
 30
0.0
 10
8.6111201738
 20
6.9995163208
 30
0.0
 10
8.6166302895
 20
7.0000918665
 30
0.0
 10
8.6221959044
 20
7.0002525267
 30
0.0
 10
8.6277864047
 20
6.9999974986
 30
0.0
 10
8.6333710604
 20
6.9993282755
 30
0.0
 10
8.63891919
 20
6.998248601
 30
0.0
 10
8.6444003213
 20
6.996764453
 30
0.0
 10
8.6497843519
 20
6.9948840171
 30
0.0
 10
8.6550417361
 20
6.992617694
 30
0.0
 10
8.660143627
 20
6.9899779733
 30
0.0
 10
8.6650620307
 20
6.986979375
 30
0.0
 10
8.6697699468
 20
6.9836383621
 30
0.0
 10
8.6742415436
 20
6.9799732973
 30
0.0
 10
8.6784522986
 20
6.9760043258
 30
0.0
 10
8.6823791057
 20
6.9717532356
 30
0.0
 10
8.6860004018
 20
6.9672433495
 30
0.0
 10
8.6892962807
 20
6.9624994033
 30
0.0
 10
8.692248659
 20
6.9575474451
 30
0.0
 10
8.6948413123
 20
6.9524146479
 30
0.0
 10
8.6970599812
 20
6.947129178
 30
0.0
 10
8.6988924345
 20
6.9417200127
 30
0.0
 10
8.7003285019
 20
6.9362169195
 30
0.0
 10
8.7013604313
 20
6.93064989
 30
0.0
 10
8.7019822345
 20
6.9250500437
 30
0.0
 10
8.702121563
 20
6.9213048242
 30
0.0
 10
8.702121563
 20
6.9194377483
 30
0.0
  0
SPLINE
  5
314
100
AcDbEntity
  8
0
100
AcDbSpline
 62
7
  6
CONTINUOUS
 70
0
 71
3
 72
25
 73
21
 74
0
 42
0.0000001
 43
0.0000001
 44
0.0000000001
 40
0.0
 40
0.0
 40
0.0
 40
0.0
 40
0.0624814452
 40
0.0936533995
 40
0.1247812343
 40
0.1869108774
 40
0.2489165562
 40
0.279891012
 40
0.3108500585
 40
0.3727334696
 40
0.4346258913
 40
0.4965776217
 40
0.5586401823
 40
0.620864836
 40
0.6833008624
 40
0.7459936624
 40
0.8089827593
 40
0.8723002443
 40
0.9359680195
 40
1.0
 40
1.0
 40
1.0
 40
1.0
 10
8.3198546422
 20
9.196725613
 30
0.0
 10
8.3228460857
 20
9.2043533007
 30
0.0
 10
8.3277301393
 20
9.2156358538
 30
0.0
 10
8.3350226152
 20
9.2302865886
 30
0.0
 10
8.3428138579
 20
9.2446265348
 30
0.0
 10
8.3535006275
 20
9.2619787918
 30
0.0
 10
8.365429099
 20
9.2784785944
 30
0.0
 10
8.3756829119
 20
9.2910925499
 30
0.0
 10
8.3863987367
 20
9.3032949703
 30
0.0
 10
8.4006598553
 20
9.3177597503
 30
0.0
 10
8.419082941
 20
9.333727123
 30
0.0
 10
8.4387391284
 20
9.3481916661
 30
0.0
 10
8.4595379595
 20
9.3610429578
 30
0.0
 10
8.4813764772
 20
9.372177244
 30
0.0
 10
8.5041380382
 20
9.3814987456
 30
0.0
 10
8.5276928851
 20
9.3889224856
 30
0.0
 10
8.5518986874
 20
9.3943769304
 30
0.0
 10
8.5766028935
 20
9.3978062562
 30
0.0
 10
8.6016416159
 20
9.3991729799
 30
0.0
 10
8.6184028269
 20
9.398697748
 30
0.0
 10
8.6267793441
 20
9.3981168345
 30
0.0
  0
SPLINE
  5
315
100
AcDbEntity
  8
0
100
AcDbSpline
 62
7
  6
CONTINUOUS
 70
0
 71
3
 72
25
 73
21
 74
0
 42
0.0000001
 43
0.0000001
 44
0.0000000001
 40
0.0
 40
0.0
 40
0.0
 40
0.0
 40
0.0624814452
 40
0.0936533995
 40
0.1247812343
 40
0.1869108774
 40
0.2489165562
 40
0.279891012
 40
0.3108500585
 40
0.3727334696
 40
0.4346258913
 40
0.4965776217
 40
0.5586401823
 40
0.620864836
 40
0.6833008624
 40
0.7459936624
 40
0.8089827593
 40
0.8723002443
 40
0.9359680195
 40
1.0
 40
1.0
 40
1.0
 40
1.0
 10
9.5272619966
 20
9.1129916286
 30
0.0
 10
9.5302534401
 20
9.1206193163
 30
0.0
 10
9.5351374937
 20
9.1319018694
 30
0.0
 10
9.5424299696
 20
9.1465526042
 30
0.0
 10
9.5502212123
 20
9.1608925504
 30
0.0
 10
9.5609079819
 20
9.1782448074
 30
0.0
 10
9.5728364534
 20
9.19474461
 30
0.0
 10
9.5830902663
 20
9.2073585654
 30
0.0
 10
9.5938060911
 20
9.2195609859
 30
0.0
 10
9.6080672097
 20
9.2340257659
 30
0.0
 10
9.6264902954
 20
9.2499931386
 30
0.0
 10
9.6461464828
 20
9.2644576817
 30
0.0
 10
9.6669453139
 20
9.2773089734
 30
0.0
 10
9.6887838316
 20
9.2884432596
 30
0.0
 10
9.7115453926
 20
9.2977647612
 30
0.0
 10
9.7351002395
 20
9.3051885012
 30
0.0
 10
9.7593060418
 20
9.310642946
 30
0.0
 10
9.7840102479
 20
9.3140722717
 30
0.0
 10
9.8090489703
 20
9.3154389955
 30
0.0
 10
9.8258101813
 20
9.3149637635
 30
0.0
 10
9.8341866985
 20
9.3143828501
 30
0.0
  0
SPLINE
  5
316
100
AcDbEntity
  8
0
100
AcDbSpline
 62
7
  6
CONTINUOUS
 70
0
 71
3
 72
39
 73
35
 74
0
 42
0.0000001
 43
0.0000001
 44
0.0000000001
 40
0.0
 40
0.0
 40
0.0
 40
0.0
 40
0.0323164392
 40
0.0644975246
 40
0.0965259869
 40
0.1283897904
 40
0.1600820124
 40
0.1916005145
 40
0.2229474821
 40
0.2541289845
 40
0.2851545406
 40
0.316036705
 40
0.3467906651
 40
0.3774338966
 40
0.4079858597
 40
0.4384677229
 40
0.4689021005
 40
0.4993127855
 40
0.5297244703
 40
0.5601624361
 40
0.5906521902
 40
0.6212190319
 40
0.6518875069
 40
0.6826807726
 40
0.7136198884
 40
0.7447230042
 40
0.7760044246
 40
0.807473683
 40
0.8391347586
 40
0.8709853246
 40
0.9030162566
 40
0.9352116325
 40
0.967548725
 40
1.0
 40
1.0
 40
1.0
 40
1.0
 10
9.5329188498
 20
7.5908926388
 30
0.0
 10
9.537352284
 20
7.5820741061
 30
0.0
 10
9.5454667983
 20
7.5640940862
 30
0.0
 10
9.5553350922
 20
7.5362795414
 30
0.0
 10
9.5628555468
 20
7.5078822435
 30
0.0
 10
9.5680216704
 20
7.4791169252
 30
0.0
 10
9.570846338
 20
7.450185317
 30
0.0
 10
9.5713567643
 20
7.4212792202
 30
0.0
 10
9.5695921682
 20
7.3925793697
 30
0.0
 10
9.5656012809
 20
7.3642561457
 30
0.0
 10
9.5594404379
 20
7.3364702813
 30
0.0
 10
9.5511720894
 20
7.3093738971
 30
0.0
 10
9.5408637076
 20
7.2831116457
 30
0.0
 10
9.5285871312
 20
7.2578218932
 30
0.0
 10
9.5144182761
 20
7.233637853
 30
0.0
 10
9.4984371792
 20
7.2106886273
 30
0.0
 10
9.480728348
 20
7.1891001106
 30
0.0
 10
9.4613813945
 20
7.1689957028
 30
0.0
 10
9.4404918986
 20
7.150496809
 30
0.0
 10
9.4181625016
 20
7.1337230563
 30
0.0
 10
9.3945041798
 20
7.1187921827
 30
0.0
 10
9.3696376589
 20
7.1058195546
 30
0.0
 10
9.3436949239
 20
7.0949172027
 30
0.0
 10
9.3168206942
 20
7.0861923572
 30
0.0
 10
9.2891737408
 20
7.0797454551
 30
0.0
 10
9.2609279328
 20
7.0756675866
 30
0.0
 10
9.2322728388
 20
7.0740372892
 30
0.0
 10
9.2034135791
 20
7.0749168672
 30
0.0
 10
9.1745698029
 20
7.0783486266
 30
0.0
 10
9.1459735387
 20
7.0843509043
 30
0.0
 10
9.11786611
 20
7.0929140171
 30
0.0
 10
9.0904928258
 20
7.1039985052
 30
0.0
 10
9.0641011548
 20
7.1175302034
 30
0.0
 10
9.0473376496
 20
7.1281021166
 30
0.0
 10
9.0391958383
 20
7.1337543214
 30
0.0
  0
SPLINE
  5
317
100
AcDbEntity
  8
0
100
AcDbSpline
 62
7
  6
CONTINUOUS
 70
0
 71
3
 72
25
 73
21
 74
0
 42
0.0000001
 43
0.0000001
 44
0.0000000001
 40
0.0
 40
0.0
 40
0.0
 40
0.0
 40
0.0624814452
 40
0.0936533995
 40
0.1247812343
 40
0.1869108774
 40
0.2489165562
 40
0.279891012
 40
0.3108500585
 40
0.3727334696
 40
0.4346258913
 40
0.4965776217
 40
0.5586401823
 40
0.620864836
 40
0.6833008624
 40
0.7459936624
 40
0.8089827593
 40
0.8723002443
 40
0.9359680195
 40
1.0
 40
1.0
 40
1.0
 40
1.0
 10
10.1309656738
 20
7.5024609891
 30
0.0
 10
10.1339571173
 20
7.5100886768
 30
0.0
 10
10.1388411709
 20
7.5213712299
 30
0.0
 10
10.1461336468
 20
7.5360219647
 30
0.0
 10
10.1539248895
 20
7.5503619109
 30
0.0
 10
10.1646116591
 20
7.5677141679
 30
0.0
 10
10.1765401306
 20
7.5842139705
 30
0.0
 10
10.1867939435
 20
7.596827926
 30
0.0
 10
10.1975097683
 20
7.6090303464
 30
0.0
 10
10.2117708869
 20
7.6234951264
 30
0.0
 10
10.2301939726
 20
7.6394624991
 30
0.0
 10
10.24985016
 20
7.6539270422
 30
0.0
 10
10.2706489911
 20
7.6667783339
 30
0.0
 10
10.2924875088
 20
7.6779126201
 30
0.0
 10
10.3152490698
 20
7.6872341217
 30
0.0
 10
10.3388039167
 20
7.6946578617
 30
0.0
 10
10.363009719
 20
7.7001123065
 30
0.0
 10
10.3877139251
 20
7.7035416323
 30
0.0
 10
10.4127526475
 20
7.704908356
 30
0.0
 10
10.4295138585
 20
7.7044331241
 30
0.0
 10
10.4378903757
 20
7.7038522106
 30
0.0
  0
SPLINE
  5
318
100
AcDbEntity
  8
0
100
AcDbSpline
 62
7
  6
CONTINUOUS
 70
0
 71
3
 72
39
 73
35
 74
0
 42
0.0000001
 43
0.0000001
 44
0.0000000001
 40
0.0
 40
0.0
 40
0.0
 40
0.0
 40
0.0320313052
 40
0.0641954328
 40
0.0964598356
 40
0.1287899864
 40
0.1611508159
 40
0.1935079955
 40
0.2258289572
 40
0.2580836683
 40
0.290245189
 40
0.322290051
 40
0.3541985018
 40
0.3859546579
 40
0.417546603
 40
0.4489664599
 40
0.4802104571
 40
0.5112789999
 40
0.5421767488
 40
0.5729126984
 40
0.6035002389
 40
0.6339571739
 40
0.6643056577
 40
0.6945720055
 40
0.7247863266
 40
0.7549819278
 40
0.7851944458
 40
0.8154606881
 40
0.845817189
 40
0.8762985654
 40
0.9069356584
 40
0.9377541088
 40
0.9687717688
 40
1.0
 40
1.0
 40
1.0
 40
1.0
 10
11.3181474431
 20
7.3439282066
 30
0.0
 10
11.3216827825
 20
7.3425409721
 30
0.0
 10
11.3286435209
 20
7.3394311306
 30
0.0
 10
11.3386343441
 20
7.3338353707
 30
0.0
 10
11.3481210711
 20
7.327358206
 30
0.0
 10
11.3570283647
 20
7.320069203
 30
0.0
 10
11.3652914758
 20
7.3120421301
 30
0.0
 10
11.3728541864
 20
7.3033540591
 30
0.0
 10
11.3796688901
 20
7.2940837513
 30
0.0
 10
11.3856958216
 20
7.2843106079
 30
0.0
 10
11.390902358
 20
7.2741138482
 30
0.0
 10
11.395262244
 20
7.2635719823
 30
0.0
 10
11.3987548638
 20
7.2527625173
 30
0.0
 10
11.4013645869
 20
7.2417618625
 30
0.0
 10
11.4030802212
 20
7.2306453884
 30
0.0
 10
11.4038945949
 20
7.219487597
 30
0.0
 10
11.4038042766
 20
7.2083623679
 30
0.0
 10
11.4028094425
 20
7.197343242
 30
0.0
 10
11.4009138928
 20
7.1865037106
 30
0.0
 10
11.3981252195
 20
7.1759174766
 30
0.0
 10
11.3944551235
 20
7.165658653
 30
0.0
 10
11.389919875
 20
7.1558018625
 30
0.0
 10
11.384540907
 20
7.1464221969
 30
0.0
 10
11.3783455183
 20
7.1375949943
 30
0.0
 10
11.3713676554
 20
7.1293953899
 30
0.0
 10
11.3636487173
 20
7.1218976007
 30
0.0
 10
11.3552383164
 20
7.1151739133
 30
0.0
 10
11.3461948963
 20
7.1092933719
 30
0.0
 10
11.3365861203
 20
7.104320176
 30
0.0
 10
11.3264888531
 20
7.1003118982
 30
0.0
 10
11.3159888755
 20
7.0973174974
 30
0.0
 10
11.3051794268
 20
7.09537565
 30
0.0
 10
11.2941617877
 20
7.0945126545
 30
0.0
 10
11.2867692046
 20
7.0946651604
 30
0.0
 10
11.2830755237
 20
7.094921318
 30
0.0
  0
SPLINE
  5
319
100
AcDbEntity
  8
0
100
AcDbSpline
 62
7
  6
CONTINUOUS
 70
0
 71
3
 72
23
 73
19
 74
0
 42
0.0000001
 43
0.0000001
 44
0.0000000001
 40
0.0
 40
0.0
 40
0.0
 40
0.0
 40
0.0620114637
 40
0.1239249769
 40
0.1857760746
 40
0.2476017259
 40
0.3094396432
 40
0.3713276518
 40
0.4333030172
 40
0.4954017027
 40
0.5576576109
 40
0.6201020078
 40
0.6827627846
 40
0.7456641826
 40
0.8088262982
 40
0.8722622746
 40
0.9359882115
 40
1.0
 40
1.0
 40
1.0
 40
1.0
 10
10.7419623488
 20
8.9535087854
 30
0.0
 10
10.7432849256
 20
8.9556565608
 30
0.0
 10
10.7460737899
 20
8.9598609192
 30
0.0
 10
10.7506722153
 20
8.9658641811
 30
0.0
 10
10.7556650743
 20
8.971534096
 30
0.0
 10
10.7610328238
 20
8.9768460267
 30
0.0
 10
10.766754479
 20
8.9817771042
 30
0.0
 10
10.7728072997
 20
8.9863057313
 30
0.0
 10
10.7791669791
 20
8.9904118514
 30
0.0
 10
10.7858076845
 20
8.9940770272
 30
0.0
 10
10.7927021153
 20
8.9972846504
 30
0.0
 10
10.7998216284
 20
9.0000200446
 30
0.0
 10
10.8071363827
 20
9.0022705572
 30
0.0
 10
10.8146155005
 20
9.0040256448
 30
0.0
 10
10.8222270691
 20
9.0052769467
 30
0.0
 10
10.8299387853
 20
9.0060186621
 30
0.0
 10
10.8377168905
 20
9.0062469391
 30
0.0
 10
10.8429135773
 20
9.0060565584
 30
0.0
 10
10.8455110322
 20
9.0058764243
 30
0.0
  0
SPLINE
  5
31A
100
AcDbEntity
  8
0
100
AcDbSpline
 62
7
  6
CONTINUOUS
 70
0
 71
3
 72
18
 73
14
 74
0
 42
0.0000001
 43
0.0000001
 44
0.0000000001
 40
0.0
 40
0.0
 40
0.0
 40
0.0
 40
0.0544328977
 40
0.1090825819
 40
0.164163178
 40
0.2198832571
 40
0.3339856861
 40
0.4529288702
 40
0.5146466453
 40
0.5780414074
 40
0.7103382159
 40
0.8507568709
 40
1.0
 40
1.0
 40
1.0
 40
1.0
 10
8.0280932228
 20
10.4733441197
 30
0.0
 10
8.0273302571
 20
10.473397032
 30
0.0
 10
8.0257973488
 20
10.4734530858
 30
0.0
 10
8.0234902279
 20
10.4733871082
 30
0.0
 10
8.0211740011
 20
10.4731711384
 30
0.0
 10
8.0180506799
 20
10.4726797859
 30
0.0
 10
8.0141085041
 20
10.4716771073
 30
0.0
 10
8.0102299308
 20
10.4702008181
 30
0.0
 10
8.007127601
 20
10.4687372756
 30
0.0
 10
8.003935686
 20
10.4670338624
 30
0.0
 10
7.9999320066
 20
10.4645165427
 30
0.0
 10
7.9951878947
 20
10.4609516784
 30
0.0
 10
7.9921198481
 20
10.4582717695
 30
0.0
 10
7.990584862
 20
10.4568431865
 30
0.0
  0
SPLINE
  5
31B
100
AcDbEntity
  8
0
100
AcDbSpline
 62
7
  6
CONTINUOUS
 70
0
 71
3
 72
18
 73
14
 74
0
 42
0.0000001
 43
0.0000001
 44
0.0000000001
 40
0.0
 40
0.0
 40
0.0
 40
0.0
 40
0.1492435137
 40
0.2896566257
 40
0.4219550777
 40
0.485351101
 40
0.547069549
 40
0.6660129848
 40
0.7801156501
 40
0.8358360225
 40
0.8909169124
 40
0.9455668623
 40
1.0
 40
1.0
 40
1.0
 40
1.0
 10
7.5251599712
 20
6.8831123145
 30
0.0
 10
7.5264830642
 20
6.8814855143
 30
0.0
 10
7.5291517483
 20
6.8784077932
 30
0.0
 10
7.533358369
 20
6.8742222704
 30
0.0
 10
7.5369761891
 20
6.8711763948
 30
0.0
 10
7.5399024451
 20
6.8690486427
 30
0.0
 10
7.5427730726
 20
6.8671708477
 30
0.0
 10
7.5464107476
 20
6.8651732932
 30
0.0
 10
7.5501767927
 20
6.8636360548
 30
0.0
 10
7.5532023972
 20
6.862718258
 30
0.0
 10
7.5554666507
 20
6.8621846267
 30
0.0
 10
7.5577425901
 20
6.861800816
 30
0.0
 10
7.5592685682
 20
6.8616447321
 30
0.0
 10
7.5600315373
 20
6.8615918195
 30
0.0
  0
SPLINE
  5
31C
100
AcDbEntity
  8
0
100
AcDbSpline
 62
7
  6
CONTINUOUS
 70
0
 71
3
 72
37
 73
33
 74
0
 42
0.0000001
 43
0.0000001
 44
0.0000000001
 40
0.0
 40
0.0
 40
0.0
 40
0.0
 40
0.0304576545
 40
0.0609030408
 40
0.0913432022
 40
0.1217854556
 40
0.1826922264
 40
0.2436990921
 40
0.2742668912
 40
0.3048825387
 40
0.3355534152
 40
0.3662865788
 40
0.3970888579
 40
0.4279667856
 40
0.4589263654
 40
0.4899731347
 40
0.5211121155
 40
0.5523475868
 40
0.5836830662
 40
0.615121308
 40
0.6466641511
 40
0.6783123859
 40
0.7100658068
 40
0.7419231521
 40
0.7738820033
 40
0.8059387894
 40
0.8380888005
 40
0.8703263014
 40
0.9026445349
 40
0.9350350407
 40
0.9674909862
 40
1.0
 40
1.0
 40
1.0
 40
1.0
 10
9.0263621741
 20
7.5426662796
 30
0.0
 10
9.0295829452
 20
7.5466077705
 30
0.0
 10
9.0361944082
 20
7.5543510594
 30
0.0
 10
9.0466039305
 20
7.5655227332
 30
0.0
 10
9.0574886755
 20
7.5762291321
 30
0.0
 10
9.0726132908
 20
7.589857166
 30
0.0
 10
9.0926384829
 20
7.6056394318
 30
0.0
 10
9.1140036912
 20
7.6195942409
 30
0.0
 10
9.1318176903
 20
7.6295886712
 30
0.0
 10
9.1455355314
 20
7.6364901674
 30
0.0
 10
9.1595777259
 20
7.6427726519
 30
0.0
 10
9.1739214342
 20
7.6484185409
 30
0.0
 10
9.1885422634
 20
7.653410448
 30
0.0
 10
9.2034146728
 20
7.657731609
 30
0.0
 10
9.2185117374
 20
7.6613660689
 30
0.0
 10
9.2338051835
 20
7.6642987296
 30
0.0
 10
9.2492653506
 20
7.6665154408
 30
0.0
 10
9.2648611422
 20
7.6680033096
 30
0.0
 10
9.2805600471
 20
7.6687508376
 30
0.0
 10
9.2963281815
 20
7.6687480232
 30
0.0
 10
9.3121303195
 20
7.6679865957
 30
0.0
 10
9.327929981
 20
7.666460334
 30
0.0
 10
9.343689551
 20
7.664165123
 30
0.0
 10
9.3593704193
 20
7.661099136
 30
0.0
 10
9.3749331541
 20
7.657263078
 30
0.0
 10
9.3903377252
 20
7.6526603818
 30
0.0
 10
9.4055437389
 20
7.647297244
 30
0.0
 10
9.4205107133
 20
7.641182696
 30
0.0
 10
9.435198198
 20
7.6343287572
 30
0.0
 10
9.4495667531
 20
7.6267503967
 30
0.0
 10
9.4635765842
 20
7.6184657498
 30
0.0
 10
9.4726465896
 20
7.6124894082
 30
0.0
 10
9.477109466
 20
7.609391192
 30
0.0
  0
SPLINE
  5
31D
100
AcDbEntity
  8
0
100
AcDbSpline
 62
7
  6
CONTINUOUS
 70
0
 71
3
 72
18
 73
14
 74
0
 42
0.0000001
 43
0.0000001
 44
0.0000000001
 40
0.0
 40
0.0
 40
0.0
 40
0.0
 40
0.1492431291
 40
0.2896617841
 40
0.4219585926
 40
0.4853533547
 40
0.5470711298
 40
0.6660143139
 40
0.7801167429
 40
0.835836822
 40
0.8909174181
 40
0.9455671023
 40
1.0
 40
1.0
 40
1.0
 40
1.0
 10
13.3332077945
 20
6.480322833
 30
0.0
 10
13.3316728084
 20
6.47889425
 30
0.0
 10
13.3286047618
 20
6.4762143411
 30
0.0
 10
13.3238606499
 20
6.4726494768
 30
0.0
 10
13.3198569705
 20
6.4701321572
 30
0.0
 10
13.3166650554
 20
6.468428744
 30
0.0
 10
13.3135627256
 20
6.4669652014
 30
0.0
 10
13.3096841524
 20
6.4654889122
 30
0.0
 10
13.3057419766
 20
6.4644862336
 30
0.0
 10
13.3026186554
 20
6.4639948811
 30
0.0
 10
13.3003024286
 20
6.4637789113
 30
0.0
 10
13.2979953077
 20
6.4637129337
 30
0.0
 10
13.2964623993
 20
6.4637689875
 30
0.0
 10
13.2956994336
 20
6.4638218998
 30
0.0
  0
SPLINE
  5
31E
100
AcDbEntity
  8
0
100
AcDbSpline
 62
7
  6
CONTINUOUS
 70
0
 71
3
 72
32
 73
28
 74
0
 42
0.0000001
 43
0.0000001
 44
0.0000000001
 40
0.0
 40
0.0
 40
0.0
 40
0.0
 40
0.0162143629
 40
0.0334274902
 40
0.051671863
 40
0.0709710532
 40
0.0913405782
 40
0.1127897579
 40
0.1353220566
 40
0.1589364939
 40
0.1836276855
 40
0.2093869189
 40
0.2362020555
 40
0.2640583445
 40
0.2929382937
 40
0.3228222674
 40
0.3536883895
 40
0.3855129562
 40
0.4182704075
 40
0.4519335789
 40
0.5218592763
 40
0.5950454688
 40
0.6712258788
 40
0.7501167347
 40
0.8314192998
 40
0.9148212386
 40
1.0
 40
1.0
 40
1.0
 40
1.0
 10
13.8245080695
 20
10.0222385528
 30
0.0
 10
13.8258295251
 20
10.0206137565
 30
0.0
 10
13.8284426253
 20
10.0171725722
 30
0.0
 10
13.8321691425
 20
10.0116319971
 30
0.0
 10
13.8358138088
 20
10.0055674958
 30
0.0
 10
13.839372736
 20
9.9989854262
 30
0.0
 10
13.8428426212
 20
9.9918924239
 30
0.0
 10
13.846219806
 20
9.9842957106
 30
0.0
 10
13.8495009548
 20
9.9762031153
 30
0.0
 10
13.85268255
 20
9.9676229696
 30
0.0
 10
13.8557613702
 20
9.9585641912
 30
0.0
 10
13.8587340906
 20
9.9490361927
 30
0.0
 10
13.8615976586
 20
9.9390489265
 30
0.0
 10
13.8643489804
 20
9.9286128297
 30
0.0
 10
13.8669852028
 20
9.9177388367
 30
0.0
 10
13.8695034868
 20
9.9064383503
 30
0.0
 10
13.8719012015
 20
9.8947232331
 30
0.0
 10
13.8741757711
 20
9.8826057981
 30
0.0
 10
13.8763248308
 20
9.8700987668
 30
0.0
 10
13.879054357
 20
9.8526998838
 30
0.0
 10
13.8821209204
 20
9.8300706529
 30
0.0
 10
13.8852229091
 20
9.8019135417
 30
0.0
 10
13.8877784913
 20
9.7725392101
 30
0.0
 10
13.889776689
 20
9.7420713059
 30
0.0
 10
13.8912088245
 20
9.7106379336
 30
0.0
 10
13.8920686988
 20
9.6783714795
 30
0.0
 10
13.8922561773
 20
9.6565962291
 30
0.0
 10
13.8922561773
 20
9.6455941176
 30
0.0
  0
SPLINE
  5
31F
100
AcDbEntity
  8
0
100
AcDbSpline
 62
7
  6
CONTINUOUS
 70
0
 71
3
 72
18
 73
14
 74
0
 42
0.0000001
 43
0.0000001
 44
0.0000000001
 40
0.0
 40
0.0
 40
0.0
 40
0.0
 40
0.0544331377
 40
0.1090830876
 40
0.1641639775
 40
0.2198843499
 40
0.3339870152
 40
0.452930451
 40
0.514648899
 40
0.5780449223
 40
0.7103433743
 40
0.8507564863
 40
1.0
 40
1.0
 40
1.0
 40
1.0
 10
13.7637611192
 20
10.0755742
 30
0.0
 10
13.7645240882
 20
10.0755212874
 30
0.0
 10
13.7660500663
 20
10.0753652035
 30
0.0
 10
13.7683260058
 20
10.0749813928
 30
0.0
 10
13.7705902593
 20
10.0744477615
 30
0.0
 10
13.7736158638
 20
10.0735299647
 30
0.0
 10
13.7773819089
 20
10.0719927263
 30
0.0
 10
13.7810195838
 20
10.0699951719
 30
0.0
 10
13.7838902114
 20
10.0681173769
 30
0.0
 10
13.7868164673
 20
10.0659896247
 30
0.0
 10
13.7904342874
 20
10.0629437492
 30
0.0
 10
13.7946409082
 20
10.0587582264
 30
0.0
 10
13.7973095923
 20
10.0556805052
 30
0.0
 10
13.7986326852
 20
10.0540537051
 30
0.0
  0
SPLINE
  5
320
100
AcDbEntity
  8
0
100
AcDbSpline
 62
7
  6
CONTINUOUS
 70
0
 71
3
 72
23
 73
19
 74
0
 42
0.0000001
 43
0.0000001
 44
0.0000000001
 40
0.0
 40
0.0
 40
0.0
 40
0.0
 40
0.0465986598
 40
0.0936919615
 40
0.1417577858
 40
0.1912433687
 40
0.2425547167
 40
0.2960517189
 40
0.3520459022
 40
0.4108029044
 40
0.4725448947
 40
0.5374560276
 40
0.6056858506
 40
0.677354927
 40
0.7525575536
 40
0.8313665613
 40
0.9138349962
 40
1.0
 40
1.0
 40
1.0
 40
1.0
 10
13.4478552322
 20
7.4317452474
 30
0.0
 10
13.4461162187
 20
7.4318658519
 30
0.0
 10
13.4426299353
 20
7.4322964467
 30
0.0
 10
13.4374565746
 20
7.4335029123
 30
0.0
 10
13.4323322285
 20
7.4352691178
 30
0.0
 10
13.4272621608
 20
7.4375924004
 30
0.0
 10
13.4222498391
 20
7.4404694973
 30
0.0
 10
13.4172986421
 20
7.4438972358
 30
0.0
 10
13.4124113938
 20
7.4478721628
 30
0.0
 10
13.4075909745
 20
7.4523909816
 30
0.0
 10
13.402840051
 20
7.4574500957
 30
0.0
 10
13.3981615133
 20
7.4630458823
 30
0.0
 10
13.3935581189
 20
7.4691743202
 30
0.0
 10
13.3890328613
 20
7.4758312033
 30
0.0
 10
13.3845885917
 20
7.4830118721
 30
0.0
 10
13.380228343
 20
7.4907114232
 30
0.0
 10
13.3759550265
 20
7.4989243828
 30
0.0
 10
13.3732260679
 20
7.504613229
 30
0.0
 10
13.3718744669
 20
7.507539475
 30
0.0
  0
SPLINE
  5
321
100
AcDbEntity
  8
0
100
AcDbSpline
 62
7
  6
CONTINUOUS
 70
0
 71
3
 72
29
 73
25
 74
0
 42
0.0000001
 43
0.0000001
 44
0.0000000001
 40
0.0
 40
0.0
 40
0.0
 40
0.0
 40
0.0199245495
 40
0.0406925716
 40
0.0623035975
 40
0.0847549628
 40
0.1080418187
 40
0.1321575605
 40
0.1570938134
 40
0.1828407514
 40
0.2093870858
 40
0.2367202922
 40
0.2648266183
 40
0.2936912324
 40
0.3536296147
 40
0.4163986761
 40
0.4818465822
 40
0.5498094102
 40
0.6201124543
 40
0.6925714005
 40
0.7669933317
 40
0.8431778458
 40
0.9209176168
 40
1.0
 40
1.0
 40
1.0
 40
1.0
 10
13.3718744669
 20
7.507539475
 30
0.0
 10
13.3704344123
 20
7.510657225
 30
0.0
 10
13.3675921665
 20
7.5170707366
 30
0.0
 10
13.3635169455
 20
7.5270075938
 30
0.0
 10
13.3595444041
 20
7.5374532416
 30
0.0
 10
13.3556775861
 20
7.548399889
 30
0.0
 10
13.35191929
 20
7.5598395036
 30
0.0
 10
13.348272355
 20
7.5717636425
 30
0.0
 10
13.344739456
 20
7.5841634955
 30
0.0
 10
13.3413232563
 20
7.5970298924
 30
0.0
 10
13.3380262768
 20
7.6103533076
 30
0.0
 10
13.3348510039
 20
7.624123865
 30
0.0
 10
13.3317997627
 20
7.6383313722
 30
0.0
 10
13.3278503071
 20
7.6580919823
 30
0.0
 10
13.323256951
 20
7.6838137211
 30
0.0
 10
13.3183401717
 20
7.7158727688
 30
0.0
 10
13.3139667289
 20
7.749405591
 30
0.0
 10
13.3101498084
 20
7.784312605
 30
0.0
 10
13.3069009749
 20
7.8204903294
 30
0.0
 10
13.3042300611
 20
7.8578313633
 30
0.0
 10
13.3021451563
 20
7.8962248253
 30
0.0
 10
13.3006525935
 20
7.9355566663
 30
0.0
 10
13.2997569072
 20
7.9757099324
 30
0.0
 10
13.2995610403
 20
8.0027407422
 30
0.0
 10
13.2995610403
 20
8.0163716272
 30
0.0
  0
SPLINE
  5
322
100
AcDbEntity
  8
0
100
AcDbSpline
 62
7
  6
CONTINUOUS
 70
0
 71
3
 72
32
 73
28
 74
0
 42
0.0000001
 43
0.0000001
 44
0.0000000001
 40
0.0
 40
0.0
 40
0.0
 40
0.0
 40
0.0851788256
 40
0.1685805939
 40
0.2498831809
 40
0.3287739947
 40
0.4049543857
 40
0.4781405615
 40
0.5480662501
 40
0.581729445
 40
0.6144868725
 40
0.6463114519
 40
0.6771775691
 40
0.7070615392
 40
0.7359415075
 40
0.763797774
 40
0.790612955
 40
0.8163721473
 40
0.8410634064
 40
0.8646777882
 40
0.8872101701
 40
0.9086592878
 40
0.9290289006
 40
0.9483280334
 40
0.9665724873
 40
0.9837855716
 40
1.0
 40
1.0
 40
1.0
 40
1.0
 10
7.4534567978
 20
7.281745305
 30
0.0
 10
7.4534567978
 20
7.2701008809
 30
0.0
 10
7.4536552198
 20
7.2470544048
 30
0.0
 10
7.4545652967
 20
7.2129042451
 30
0.0
 10
7.4560810364
 20
7.1796358169
 30
0.0
 10
7.4581958887
 20
7.1473892002
 30
0.0
 10
7.4609006634
 20
7.1163000041
 30
0.0
 10
7.4641837402
 20
7.0864990847
 30
0.0
 10
7.4674293345
 20
7.0625487593
 30
0.0
 10
7.4703181907
 20
7.0441341266
 30
0.0
 10
7.4725927239
 20
7.0308969345
 30
0.0
 10
7.4750000707
 20
7.018072083
 30
0.0
 10
7.4775377658
 20
7.0056730363
 30
0.0
 10
7.4802030673
 20
6.9937128255
 30
0.0
 10
7.4829931796
 20
6.982204006
 30
0.0
 10
7.485905139
 20
6.9711586477
 30
0.0
 10
7.4889358527
 20
6.9605883184
 30
0.0
 10
7.4920821525
 20
6.9505040751
 30
0.0
 10
7.4953406683
 20
6.9409164328
 30
0.0
 10
7.4987080523
 20
6.9318353819
 30
0.0
 10
7.5021806948
 20
6.9232703206
 30
0.0
 10
7.5057550979
 20
6.9152301209
 30
0.0
 10
7.5094274877
 20
6.907723
 30
0.0
 10
7.513194247
 20
6.9007566856
 30
0.0
 10
7.5170516215
 20
6.8943381002
 30
0.0
 10
7.5209957532
 20
6.8884740901
 30
0.0
 10
7.5237613585
 20
6.8848319695
 30
0.0
 10
7.5251599712
 20
6.8831123145
 30
0.0
  0
SPLINE
  5
323
100
AcDbEntity
  8
0
100
AcDbSpline
 62
7
  6
CONTINUOUS
 70
0
 71
3
 72
15
 73
11
 74
0
 42
0.0000001
 43
0.0000001
 44
0.0000000001
 40
0.0
 40
0.0
 40
0.0
 40
0.0
 40
0.1273482789
 40
0.2538606571
 40
0.3795878378
 40
0.5046051156
 40
0.629017439
 40
0.7529533823
 40
0.8765605864
 40
1.0
 40
1.0
 40
1.0
 40
1.0
 10
11.5921719391
 20
9.3753082536
 30
0.0
 10
11.5921719391
 20
9.3818065787
 30
0.0
 10
11.5927923998
 20
9.3947695578
 30
0.0
 10
11.5955983312
 20
9.4139647039
 30
0.0
 10
11.6002510528
 20
9.4326775576
 30
0.0
 10
11.6067085356
 20
9.4507331089
 30
0.0
 10
11.6149115552
 20
9.4679648505
 30
0.0
 10
11.6247852804
 20
9.484213685
 30
0.0
 10
11.6362369027
 20
9.4993273595
 30
0.0
 10
11.6448594024
 20
9.5085596673
 30
0.0
 10
11.649389874
 20
9.5129357968
 30
0.0
  0
SPLINE
  5
324
100
AcDbEntity
  8
0
100
AcDbSpline
 62
7
  6
CONTINUOUS
 70
0
 71
3
 72
18
 73
14
 74
0
 42
0.0000001
 43
0.0000001
 44
0.0000000001
 40
0.0
 40
0.0
 40
0.0
 40
0.0
 40
0.150466514
 40
0.2917140478
 40
0.4244427524
 40
0.4879100217
 40
0.5496093045
 40
0.6682623303
 40
0.7817883775
 40
0.8371380958
 40
0.8918079631
 40
0.946019364
 40
1.0
 40
1.0
 40
1.0
 40
1.0
 10
12.6981004787
 20
10.1289785478
 30
0.0
 10
12.6996892794
 20
10.1305132115
 30
0.0
 10
12.702864762
 20
10.133392704
 30
0.0
 10
12.7077816369
 20
10.1372300238
 30
0.0
 10
12.7119348119
 20
10.1399439698
 30
0.0
 10
12.7152465758
 20
10.1417817836
 30
0.0
 10
12.7184609084
 20
10.1433595901
 30
0.0
 10
12.7224798539
 20
10.1449538982
 30
0.0
 10
12.726570279
 20
10.1460419271
 30
0.0
 10
12.7298100334
 20
10.146577868
 30
0.0
 10
12.7322111292
 20
10.1468157765
 30
0.0
 10
12.7346025162
 20
10.1468926174
 30
0.0
 10
12.7361912933
 20
10.1468364088
 30
0.0
 10
12.7369818684
 20
10.1467815829
 30
0.0
  0
SPLINE
  5
325
100
AcDbEntity
  8
0
100
AcDbSpline
 62
7
  6
CONTINUOUS
 70
0
 71
3
 72
41
 73
37
 74
0
 42
0.0000001
 43
0.0000001
 44
0.0000000001
 40
0.0
 40
0.0
 40
0.0
 40
0.0
 40
0.076018281
 40
0.1532628653
 40
0.2310384663
 40
0.308642858
 40
0.3471625254
 40
0.3853774685
 40
0.42320181
 40
0.4605508061
 40
0.497341114
 40
0.5334910449
 40
0.5689208246
 40
0.6035528634
 40
0.6373120393
 40
0.670126012
 40
0.7019255212
 40
0.7326447134
 40
0.7622215068
 40
0.7905980026
 40
0.817720983
 40
0.8435424642
 40
0.8680203545
 40
0.8911192989
 40
0.902143201
 40
0.9128128076
 40
0.9231260665
 40
0.9330817565
 40
0.9426793478
 40
0.951919138
 40
0.9608024128
 40
0.969331438
 40
0.9775099997
 40
0.9853432078
 40
0.9928373335
 40
1.0
 40
1.0
 40
1.0
 40
1.0
 10
12.1623454975
 20
9.0686285977
 30
0.0
 10
12.1623454975
 20
9.0865919006
 30
0.0
 10
12.1628258534
 20
9.1228098235
 30
0.0
 10
12.1649219461
 20
9.1773698439
 30
0.0
 10
12.16838183
 20
9.2322360347
 30
0.0
 10
12.1723834862
 20
9.2778849838
 30
0.0
 10
12.1762459861
 20
9.3141513475
 30
0.0
 10
12.1794520661
 20
9.3410321448
 30
0.0
 10
12.1829665283
 20
9.3675953285
 30
0.0
 10
12.1867809273
 20
9.39377699
 30
0.0
 10
12.190886034
 20
9.4195140883
 30
0.0
 10
12.195271931
 20
9.4447446764
 30
0.0
 10
12.199928017
 20
9.4694080287
 30
0.0
 10
12.2048430368
 20
9.4934447934
 30
0.0
 10
12.2100051077
 20
9.5167971407
 30
0.0
 10
12.2154017352
 20
9.5394089114
 30
0.0
 10
12.2210198552
 20
9.5612257536
 30
0.0
 10
12.226845866
 20
9.5821952538
 30
0.0
 10
12.2328656594
 20
9.6022670664
 30
0.0
 10
12.2390646618
 20
9.6213930571
 30
0.0
 10
12.2454278592
 20
9.6395274103
 30
0.0
 10
12.2519398479
 20
9.6566268658
 30
0.0
 10
12.258584886
 20
9.6726504604
 30
0.0
 10
12.2643055015
 20
9.6852645088
 30
0.0
 10
12.268946594
 20
9.6947779412
 30
0.0
 10
12.2723963856
 20
9.7015092261
 30
0.0
 10
12.2758674338
 20
9.7079441962
 30
0.0
 10
12.2793576426
 20
9.7140790423
 30
0.0
 10
12.2828649438
 20
9.7199101041
 30
0.0
 10
12.2863872715
 20
9.7254338927
 30
0.0
 10
12.2899224528
 20
9.730647154
 30
0.0
 10
12.2934685014
 20
9.7355467807
 30
0.0
 10
12.297023328
 20
9.740129959
 30
0.0
 10
12.3005849817
 20
9.7443940031
 30
0.0
 10
12.3041511677
 20
9.7483361524
 30
0.0
 10
12.3065843026
 20
9.7508029395
 30
0.0
 10
12.3078016808
 20
9.7519788366
 30
0.0
  0
SPLINE
  5
326
100
AcDbEntity
  8
0
100
AcDbSpline
 62
7
  6
CONTINUOUS
 70
0
 71
3
 72
41
 73
37
 74
0
 42
0.0000001
 43
0.0000001
 44
0.0000000001
 40
0.0
 40
0.0
 40
0.0
 40
0.0
 40
0.0760183493
 40
0.1532628593
 40
0.2310384634
 40
0.3086428587
 40
0.3471625292
 40
0.3853774686
 40
0.4232018034
 40
0.4605508018
 40
0.4973411197
 40
0.5334910544
 40
0.5689208217
 40
0.6035528492
 40
0.6373120334
 40
0.6701260239
 40
0.7019255325
 40
0.7326447072
 40
0.7622214894
 40
0.790597998
 40
0.8177209969
 40
0.843542472
 40
0.8680203469
 40
0.8911192867
 40
0.9021432057
 40
0.9128128039
 40
0.9231260572
 40
0.933081766
 40
0.9426793485
 40
0.951919143
 40
0.9608023966
 40
0.9693314086
 40
0.9775100044
 40
0.9853432583
 40
0.992837388
 40
1.0
 40
1.0
 40
1.0
 40
1.0
 10
13.2270917803
 20
9.0030946098
 30
0.0
 10
13.2270917803
 20
9.0200670695
 30
0.0
 10
13.2275456413
 20
9.0542872052
 30
0.0
 10
13.2295261086
 20
9.1058376867
 30
0.0
 10
13.2327951541
 20
9.1576774348
 30
0.0
 10
13.2365760716
 20
9.200808384
 30
0.0
 10
13.2402255112
 20
9.2350742911
 30
0.0
 10
13.2432547494
 20
9.2604723375
 30
0.0
 10
13.2465753581
 20
9.2855702897
 30
0.0
 10
13.2501793509
 20
9.3103077687
 30
0.0
 10
13.2540580132
 20
9.3346252096
 30
0.0
 10
13.2582019818
 20
9.3584640755
 30
0.0
 10
13.2626012447
 20
9.3817669879
 30
0.0
 10
13.2672451559
 20
9.4044778766
 30
0.0
 10
13.272122482
 20
9.4265421094
 30
0.0
 10
13.2772214232
 20
9.4479066193
 30
0.0
 10
13.2825296483
 20
9.468520041
 30
0.0
 10
13.2880343015
 20
9.4883328521
 30
0.0
 10
13.293722046
 20
9.5072974957
 30
0.0
 10
13.2995791061
 20
9.5253685001
 30
0.0
 10
13.3055913015
 20
9.5425025684
 30
0.0
 10
13.3117440925
 20
9.558658813
 30
0.0
 10
13.3180225907
 20
9.5737985372
 30
0.0
 10
13.3234276649
 20
9.5857167879
 30
0.0
 10
13.3278127405
 20
9.5947054656
 30
0.0
 10
13.3310722445
 20
9.6010654509
 30
0.0
 10
13.3343518353
 20
9.6071454649
 30
0.0
 10
13.3376495115
 20
9.6129419202
 30
0.0
 10
13.3409633677
 20
9.6184513325
 30
0.0
 10
13.3442913901
 20
9.6236704296
 30
0.0
 10
13.347631565
 20
9.6285961224
 30
0.0
 10
13.3509820164
 20
9.6332254823
 30
0.0
 10
13.3543407629
 20
9.6375558672
 30
0.0
 10
13.3577059765
 20
9.6415847127
 30
0.0
 10
13.3610754484
 20
9.6453094134
 30
0.0
 10
13.3633743612
 20
9.6476401263
 30
0.0
 10
13.3645245798
 20
9.6487511523
 30
0.0
  0
SPLINE
  5
327
100
AcDbEntity
  8
0
100
AcDbSpline
 62
7
  6
CONTINUOUS
 70
0
 71
3
 72
41
 73
37
 74
0
 42
0.0000001
 43
0.0000001
 44
0.0000000001
 40
0.0
 40
0.0
 40
0.0
 40
0.0
 40
0.076018281
 40
0.1532628653
 40
0.2310384663
 40
0.308642858
 40
0.3471625254
 40
0.3853774685
 40
0.42320181
 40
0.4605508061
 40
0.497341114
 40
0.5334910449
 40
0.5689208246
 40
0.6035528634
 40
0.6373120393
 40
0.670126012
 40
0.7019255212
 40
0.7326447134
 40
0.7622215068
 40
0.7905980026
 40
0.817720983
 40
0.8435424642
 40
0.8680203545
 40
0.8911192989
 40
0.902143201
 40
0.9128128076
 40
0.9231260665
 40
0.9330817565
 40
0.9426793478
 40
0.951919138
 40
0.9608024128
 40
0.969331438
 40
0.9775099997
 40
0.9853432078
 40
0.9928373335
 40
1.0
 40
1.0
 40
1.0
 40
1.0
 10
13.1891246942
 20
8.9974212185
 30
0.0
 10
13.1891246942
 20
9.0153845214
 30
0.0
 10
13.1896050501
 20
9.0516024443
 30
0.0
 10
13.1917011428
 20
9.1061624647
 30
0.0
 10
13.1951610267
 20
9.1610286555
 30
0.0
 10
13.1991626829
 20
9.2066776046
 30
0.0
 10
13.2030251828
 20
9.2429439683
 30
0.0
 10
13.2062312628
 20
9.2698247657
 30
0.0
 10
13.209745725
 20
9.2963879494
 30
0.0
 10
13.2135601239
 20
9.3225696109
 30
0.0
 10
13.2176652307
 20
9.3483067092
 30
0.0
 10
13.2220511277
 20
9.3735372973
 30
0.0
 10
13.2267072137
 20
9.3982006496
 30
0.0
 10
13.2316222335
 20
9.4222374142
 30
0.0
 10
13.2367843044
 20
9.4455897615
 30
0.0
 10
13.2421809319
 20
9.4682015323
 30
0.0
 10
13.2477990519
 20
9.4900183745
 30
0.0
 10
13.2536250627
 20
9.5109878747
 30
0.0
 10
13.2596448561
 20
9.5310596872
 30
0.0
 10
13.2658438585
 20
9.550185678
 30
0.0
 10
13.2722070559
 20
9.5683200312
 30
0.0
 10
13.2787190446
 20
9.5854194866
 30
0.0
 10
13.2853640827
 20
9.6014430813
 30
0.0
 10
13.2910846981
 20
9.6140571297
 30
0.0
 10
13.2957257907
 20
9.6235705621
 30
0.0
 10
13.2991755823
 20
9.6303018469
 30
0.0
 10
13.3026466305
 20
9.6367368171
 30
0.0
 10
13.3061368393
 20
9.6428716631
 30
0.0
 10
13.3096441405
 20
9.6487027249
 30
0.0
 10
13.3131664681
 20
9.6542265136
 30
0.0
 10
13.3167016495
 20
9.6594397749
 30
0.0
 10
13.3202476981
 20
9.6643394016
 30
0.0
 10
13.3238025247
 20
9.6689225799
 30
0.0
 10
13.3273641784
 20
9.6731866239
 30
0.0
 10
13.3309303644
 20
9.6771287733
 30
0.0
 10
13.3333634993
 20
9.6795955604
 30
0.0
 10
13.3345808775
 20
9.6807714575
 30
0.0
  0
SPLINE
  5
328
100
AcDbEntity
  8
0
100
AcDbSpline
 62
7
  6
CONTINUOUS
 70
0
 71
3
 72
23
 73
19
 74
0
 42
0.0000001
 43
0.0000001
 44
0.0000000001
 40
0.0
 40
0.0
 40
0.0
 40
0.0
 40
0.075595957
 40
0.1466391305
 40
0.2134651345
 40
0.2765138419
 40
0.3363259052
 40
0.3935462661
 40
0.4489224105
 40
0.5032874244
 40
0.5575253055
 40
0.6125266122
 40
0.6691426489
 40
0.72814827
 40
0.7902188159
 40
0.8559231893
 40
0.9257261654
 40
1.0
 40
1.0
 40
1.0
 40
1.0
 10
13.7548233778
 20
10.0257508635
 30
0.0
 10
13.7562991606
 20
10.0271763603
 30
0.0
 10
13.7592487886
 20
10.0298538907
 30
0.0
 10
13.7638136218
 20
10.0334309289
 30
0.0
 10
13.7683731244
 20
10.0364351299
 30
0.0
 10
13.7729230627
 20
10.0388619795
 30
0.0
 10
13.7774596619
 20
10.0407070661
 30
0.0
 10
13.7819782368
 20
10.0419659016
 30
0.0
 10
13.7864728784
 20
10.0426339928
 30
0.0
 10
13.7909360782
 20
10.0427082207
 30
0.0
 10
13.7953592728
 20
10.0421874653
 30
0.0
 10
13.7997338762
 20
10.041073274
 30
0.0
 10
13.8040524821
 20
10.0393694423
 30
0.0
 10
13.8083093215
 20
10.0370808702
 30
0.0
 10
13.8125001514
 20
10.0342128903
 30
0.0
 10
13.8166215037
 20
10.030770374
 30
0.0
 10
13.8206701524
 20
10.0267585123
 30
0.0
 10
13.8232360754
 20
10.0238025336
 30
0.0
 10
13.8245080695
 20
10.0222385528
 30
0.0
  0
SPLINE
  5
329
100
AcDbEntity
  8
0
100
AcDbSpline
 62
7
  6
CONTINUOUS
 70
0
 71
3
 72
18
 73
14
 74
0
 42
0.0000001
 43
0.0000001
 44
0.0000000001
 40
0.0
 40
0.0
 40
0.0
 40
0.0
 40
0.1504665368
 40
0.2917140793
 40
0.424442781
 40
0.4879100458
 40
0.5496093226
 40
0.6682623342
 40
0.7817883693
 40
0.8371380845
 40
0.8918079515
 40
0.946019356
 40
1.0
 40
1.0
 40
1.0
 40
1.0
 10
13.7248796754
 20
10.0577711687
 30
0.0
 10
13.7264684783
 20
10.0593058345
 30
0.0
 10
13.7296439653
 20
10.0621853307
 30
0.0
 10
13.7345608471
 20
10.0660226547
 30
0.0
 10
13.7387140282
 20
10.0687366028
 30
0.0
 10
13.7420257968
 20
10.0705744173
 30
0.0
 10
13.7452401339
 20
10.0721522237
 30
0.0
 10
13.7492590851
 20
10.0737465308
 30
0.0
 10
13.7533495159
 20
10.074834557
 30
0.0
 10
13.7565892747
 20
10.0753704948
 30
0.0
 10
13.7589903737
 20
10.0756084006
 30
0.0
 10
13.7613817639
 20
10.0756852382
 30
0.0
 10
13.7629705431
 20
10.0756290272
 30
0.0
 10
13.7637611192
 20
10.0755742
 30
0.0
  0
SPLINE
  5
32A
100
AcDbEntity
  8
0
100
AcDbSpline
 62
7
  6
CONTINUOUS
 70
0
 71
3
 72
15
 73
11
 74
0
 42
0.0000001
 43
0.0000001
 44
0.0000000001
 40
0.0
 40
0.0
 40
0.0
 40
0.0
 40
0.1273482808
 40
0.2538605196
 40
0.3795878971
 40
0.5046050835
 40
0.6290174393
 40
0.7529533827
 40
0.8765605876
 40
1.0
 40
1.0
 40
1.0
 40
1.0
 10
9.6984741118
 20
6.7894871687
 30
0.0
 10
9.6984741118
 20
6.7938142424
 30
0.0
 10
9.6988872542
 20
6.8024459649
 30
0.0
 10
9.700755661
 20
6.8152275385
 30
0.0
 10
9.703853791
 20
6.8276879635
 30
0.0
 10
9.7081536667
 20
6.8397107128
 30
0.0
 10
9.7136158173
 20
6.8511849175
 30
0.0
 10
9.7201904703
 20
6.8620046266
 30
0.0
 10
9.7278158225
 20
6.8720684469
 30
0.0
 10
9.7335573141
 20
6.878216028
 30
0.0
 10
9.7365740401
 20
6.8811299871
 30
0.0
  0
SPLINE
  5
32B
100
AcDbEntity
  8
0
100
AcDbSpline
 62
7
  6
CONTINUOUS
 70
0
 71
3
 72
39
 73
35
 74
0
 42
0.0000001
 43
0.0000001
 44
0.0000000001
 40
0.0
 40
0.0
 40
0.0
 40
0.0
 40
0.0309163426
 40
0.0464320276
 40
0.0619831639
 40
0.0931854677
 40
0.1245187225
 40
0.1402331298
 40
0.1559758161
 40
0.1875347951
 40
0.2191848329
 40
0.2509097244
 40
0.2826925771
 40
0.3145162208
 40
0.3463635721
 40
0.3782179431
 40
0.410063293
 40
0.441884425
 40
0.4736671351
 40
0.5053983149
 40
0.5686359202
 40
0.6315404277
 40
0.6628590035
 40
0.6940725822
 40
0.7251764926
 40
0.7561672603
 40
0.7870426008
 40
0.817801419
 40
0.8484438203
 40
0.8789711283
 40
0.9093859094
 40
0.9396920013
 40
0.9698945427
 40
1.0
 40
1.0
 40
1.0
 40
1.0
 10
10.4378904055
 20
6.9819038077
 30
0.0
 10
10.4307277005
 20
6.982400543
 30
0.0
 10
10.4199916415
 20
6.9835234121
 30
0.0
 10
10.4057695644
 20
6.9857591803
 30
0.0
 10
10.3915666545
 20
6.9884938573
 30
0.0
 10
10.3739435561
 20
6.9928325501
 30
0.0
 10
10.3566159468
 20
6.998356402
 30
0.0
 10
10.3429570168
 20
7.0034692791
 30
0.0
 10
10.3294246615
 20
7.0090473264
 30
0.0
 10
10.3128217295
 20
7.0168602467
 30
0.0
 10
10.2935012196
 20
7.0275105776
 30
0.0
 10
10.2748438291
 20
7.0393811137
 30
0.0
 10
10.2569222968
 20
7.0524035903
 30
0.0
 10
10.2398016898
 20
7.0665065416
 30
0.0
 10
10.2235403635
 20
7.0816159909
 30
0.0
 10
10.208189956
 20
7.097656464
 30
0.0
 10
10.193795756
 20
7.1145518452
 30
0.0
 10
10.1803972563
 20
7.1322257401
 30
0.0
 10
10.1680280938
 20
7.1506031301
 30
0.0
 10
10.1529674082
 20
7.1759095891
 30
0.0
 10
10.1368405313
 20
7.2089230285
 30
0.0
 10
10.1244154221
 20
7.2433958683
 30
0.0
 10
10.1167789986
 20
7.2715202884
 30
0.0
 10
10.1122143213
 20
7.2927927216
 30
0.0
 10
10.1088123543
 20
7.3142040998
 30
0.0
 10
10.1065777953
 20
7.3356898055
 30
0.0
 10
10.1055139015
 20
7.3571849726
 30
0.0
 10
10.1056221862
 20
7.3786253938
 30
0.0
 10
10.1069025722
 20
7.3999469896
 30
0.0
 10
10.1093533705
 20
7.4210856949
 30
0.0
 10
10.1129711863
 20
7.4419771166
 30
0.0
 10
10.1177509646
 20
7.4625567299
 30
0.0
 10
10.1236852334
 20
7.4827582376
 30
0.0
 10
10.128412988
 20
7.4959520609
 30
0.0
 10
10.1309656738
 20
7.5024609891
 30
0.0
  0
SPLINE
  5
32C
100
AcDbEntity
  8
0
100
AcDbSpline
 62
7
  6
CONTINUOUS
 70
0
 71
3
 72
15
 73
11
 74
0
 42
0.0000001
 43
0.0000001
 44
0.0000000001
 40
0.0
 40
0.0
 40
0.0
 40
0.0
 40
0.1273473901
 40
0.2538608346
 40
0.3795878351
 40
0.5046051039
 40
0.6290174461
 40
0.7529533848
 40
0.8765605883
 40
1.0
 40
1.0
 40
1.0
 40
1.0
 10
8.5514371251
 20
6.9298877495
 30
0.0
 10
8.5514371251
 20
6.9322899526
 30
0.0
 10
8.5516664926
 20
6.9370819477
 30
0.0
 10
8.5527037319
 20
6.9441777737
 30
0.0
 10
8.5544237073
 20
6.951095322
 30
0.0
 10
8.5568108225
 20
6.9577698713
 30
0.0
 10
8.5598431999
 20
6.964139893
 30
0.0
 10
8.5634931912
 20
6.9701465632
 30
0.0
 10
8.5677264843
 20
6.975733597
 30
0.0
 10
8.5709139303
 20
6.9791464929
 30
0.0
 10
8.5725886972
 20
6.9807642072
 30
0.0
  0
SPLINE
  5
32D
100
AcDbEntity
  8
0
100
AcDbSpline
 62
7
  6
CONTINUOUS
 70
0
 71
3
 72
28
 73
24
 74
0
 42
0.0000001
 43
0.0000001
 44
0.0000000001
 40
0.0
 40
0.0
 40
0.0
 40
0.0
 40
0.0256680187
 40
0.0515069084
 40
0.0775656757
 40
0.1038938302
 40
0.1305349094
 40
0.157528403
 40
0.1849089367
 40
0.212705953
 40
0.2409436723
 40
0.2696409869
 40
0.3284444776
 40
0.3891861704
 40
0.4518381864
 40
0.5163043093
 40
0.5824285554
 40
0.6500043519
 40
0.7187834318
 40
0.7884847872
 40
0.85880318
 40
0.92941735
 40
1.0
 40
1.0
 40
1.0
 40
1.0
 10
9.0054651433
 20
7.5143298774
 30
0.0
 10
9.0033328783
 20
7.5108184035
 30
0.0
 10
8.9992924251
 20
7.5036243108
 30
0.0
 10
8.9939482918
 20
7.4924094442
 30
0.0
 10
8.9893166566
 20
7.4807678763
 30
0.0
 10
8.9854089556
 20
7.468729157
 30
0.0
 10
8.9822344685
 20
7.4563224521
 30
0.0
 10
8.9798006756
 20
7.4435782837
 30
0.0
 10
8.9781132178
 20
7.4305277527
 30
0.0
 10
8.9771759501
 20
7.4172027842
 30
0.0
 10
8.9769909727
 20
7.4036354417
 30
0.0
 10
8.9777535202
 20
7.3851194696
 30
0.0
 10
8.9806307402
 20
7.3615219179
 30
0.0
 10
8.9870214653
 20
7.3330257279
 30
0.0
 10
8.9963121773
 20
7.30438683
 30
0.0
 10
9.008410367
 20
7.2758822016
 30
0.0
 10
9.0231972541
 20
7.2477843691
 30
0.0
 10
9.0405290672
 20
7.2203633033
 30
0.0
 10
9.0602377242
 20
7.1938823816
 30
0.0
 10
9.0821325614
 20
7.1685966174
 30
0.0
 10
9.1060023565
 20
7.1447491806
 30
0.0
 10
9.1316148664
 20
7.1225712824
 30
0.0
 10
9.1497236303
 20
7.1090143931
 30
0.0
 10
9.1590034135
 20
7.1025721858
 30
0.0
  0
SPLINE
  5
32E
100
AcDbEntity
  8
0
100
AcDbSpline
 62
7
  6
CONTINUOUS
 70
0
 71
3
 72
15
 73
11
 74
0
 42
0.0000001
 43
0.0000001
 44
0.0000000001
 40
0.0
 40
0.0
 40
0.0
 40
0.0
 40
0.1273482789
 40
0.2538606571
 40
0.3795878378
 40
0.5046051156
 40
0.629017439
 40
0.7529533823
 40
0.8765605864
 40
1.0
 40
1.0
 40
1.0
 40
1.0
 10
7.7284682899
 20
9.6432570118
 30
0.0
 10
7.7284682899
 20
9.6497553368
 30
0.0
 10
7.7290887505
 20
9.662718316
 30
0.0
 10
7.731894682
 20
9.6819134621
 30
0.0
 10
7.7365474035
 20
9.7006263158
 30
0.0
 10
7.7430048863
 20
9.7186818671
 30
0.0
 10
7.751207906
 20
9.7359136087
 30
0.0
 10
7.7610816311
 20
9.7521624432
 30
0.0
 10
7.7725332534
 20
9.7672761177
 30
0.0
 10
7.7811557532
 20
9.7765084255
 30
0.0
 10
7.7856862248
 20
9.7808845549
 30
0.0
  0
SPLINE
  5
32F
100
AcDbEntity
  8
0
100
AcDbSpline
 62
7
  6
CONTINUOUS
 70
0
 71
3
 72
41
 73
37
 74
0
 42
0.0000001
 43
0.0000001
 44
0.0000000001
 40
0.0
 40
0.0
 40
0.0
 40
0.0
 40
0.029942123
 40
0.0449237706
 40
0.0599145177
 40
0.0899291716
 40
0.1200145961
 40
0.1350933574
 40
0.1501974726
 40
0.1804849654
 40
0.2108989488
 40
0.2414525624
 40
0.2721557217
 40
0.3030149378
 40
0.3340332219
 40
0.3652100719
 40
0.3965415365
 40
0.4280203507
 40
0.4596361361
 40
0.4913756582
 40
0.5232231336
 40
0.5551605782
 40
0.5871681905
 40
0.6192247616
 40
0.6513081064
 40
0.6833955071
 40
0.7154641657
 40
0.7474916563
 40
0.7794563734
 40
0.811337967
 40
0.843117763
 40
0.8747791516
 40
0.9063079641
 40
0.9376927517
 40
0.9689251728
 40
1.0
 40
1.0
 40
1.0
 40
1.0
 10
8.0788710779
 20
9.4773608755
 30
0.0
 10
8.0753706605
 20
9.4739797087
 30
0.0
 10
8.0699137491
 20
9.4691127829
 30
0.0
 10
8.062271429
 20
9.463074001
 30
0.0
 10
8.0543857203
 20
9.4573357311
 30
0.0
 10
8.0440961717
 20
9.4507463045
 30
0.0
 10
8.0333063102
 20
9.4449824691
 30
0.0
 10
8.02440748
 20
9.4408820245
 30
0.0
 10
8.0153247983
 20
9.4371201195
 30
0.0
 10
8.0036721399
 20
9.4330749516
 30
0.0
 10
7.9893119822
 20
9.4293049422
 30
0.0
 10
7.9746384731
 20
9.426634138
 30
0.0
 10
7.959732929
 20
9.4250772806
 30
0.0
 10
7.9446772307
 20
9.4246426768
 30
0.0
 10
7.9295542195
 20
9.4253325392
 30
0.0
 10
7.9144470159
 20
9.4271428825
 30
0.0
 10
7.899438628
 20
9.430063582
 30
0.0
 10
7.8846114846
 20
9.4340784279
 30
0.0
 10
7.8700469928
 20
9.4391652224
 30
0.0
 10
7.8558250963
 20
9.445295904
 30
0.0
 10
7.8420238429
 20
9.4524367042
 30
0.0
 10
7.8287189624
 20
9.460548334
 30
0.0
 10
7.8159834562
 20
9.4695861984
 30
0.0
 10
7.8038872022
 20
9.4795006411
 30
0.0
 10
7.7924965756
 20
9.4902372147
 30
0.0
 10
7.7818740892
 20
9.5017369768
 30
0.0
 10
7.7720780535
 20
9.5139368109
 30
0.0
 10
7.76316226
 20
9.5267697694
 30
0.0
 10
7.7551756884
 20
9.5401654359
 30
0.0
 10
7.7481622396
 20
9.55405031
 30
0.0
 10
7.7421604972
 20
9.568348196
 30
0.0
 10
7.737203512
 20
9.5829806512
 30
0.0
 10
7.7333186297
 20
9.5978672784
 30
0.0
 10
7.7305273193
 20
9.6129266501
 30
0.0
 10
7.7288450834
 20
9.6280749509
 30
0.0
 10
7.7284682899
 20
9.6382061585
 30
0.0
 10
7.7284682899
 20
9.6432570118
 30
0.0
  0
SPLINE
  5
330
100
AcDbEntity
  8
0
100
AcDbSpline
 62
7
  6
CONTINUOUS
 70
0
 71
3
 72
41
 73
37
 74
0
 42
0.0000001
 43
0.0000001
 44
0.0000000001
 40
0.0
 40
0.0
 40
0.0
 40
0.0
 40
0.029942123
 40
0.0449237706
 40
0.0599145177
 40
0.0899291716
 40
0.1200145961
 40
0.1350933574
 40
0.1501974726
 40
0.1804849654
 40
0.2108989488
 40
0.2414525624
 40
0.2721557217
 40
0.3030149378
 40
0.3340332219
 40
0.3652100719
 40
0.3965415365
 40
0.4280203507
 40
0.4596361361
 40
0.4913756582
 40
0.5232231336
 40
0.5551605782
 40
0.5871681905
 40
0.6192247616
 40
0.6513081064
 40
0.6833955071
 40
0.7154641657
 40
0.7474916563
 40
0.7794563734
 40
0.811337967
 40
0.843117763
 40
0.8747791516
 40
0.9063079641
 40
0.9376927517
 40
0.9689251728
 40
1.0
 40
1.0
 40
1.0
 40
1.0
 10
8.0788710779
 20
6.8210646958
 30
0.0
 10
8.0753706605
 20
6.8176835291
 30
0.0
 10
8.0699137491
 20
6.8128166032
 30
0.0
 10
8.062271429
 20
6.8067778213
 30
0.0
 10
8.0543857203
 20
6.8010395514
 30
0.0
 10
8.0440961717
 20
6.7944501248
 30
0.0
 10
8.0333063102
 20
6.7886862894
 30
0.0
 10
8.02440748
 20
6.7845858448
 30
0.0
 10
8.0153247983
 20
6.7808239398
 30
0.0
 10
8.0036721399
 20
6.7767787719
 30
0.0
 10
7.9893119822
 20
6.7730087625
 30
0.0
 10
7.9746384731
 20
6.7703379583
 30
0.0
 10
7.959732929
 20
6.7687811009
 30
0.0
 10
7.9446772307
 20
6.7683464971
 30
0.0
 10
7.9295542195
 20
6.7690363595
 30
0.0
 10
7.9144470159
 20
6.7708467029
 30
0.0
 10
7.899438628
 20
6.7737674023
 30
0.0
 10
7.8846114846
 20
6.7777822482
 30
0.0
 10
7.8700469928
 20
6.7828690427
 30
0.0
 10
7.8558250963
 20
6.7889997243
 30
0.0
 10
7.8420238429
 20
6.7961405246
 30
0.0
 10
7.8287189624
 20
6.8042521543
 30
0.0
 10
7.8159834562
 20
6.8132900187
 30
0.0
 10
7.8038872022
 20
6.8232044615
 30
0.0
 10
7.7924965756
 20
6.833941035
 30
0.0
 10
7.7818740892
 20
6.8454407971
 30
0.0
 10
7.7720780535
 20
6.8576406313
 30
0.0
 10
7.76316226
 20
6.8704735897
 30
0.0
 10
7.7551756884
 20
6.8838692562
 30
0.0
 10
7.7481622396
 20
6.8977541303
 30
0.0
 10
7.7421604972
 20
6.9120520163
 30
0.0
 10
7.737203512
 20
6.9266844715
 30
0.0
 10
7.7333186297
 20
6.9415710988
 30
0.0
 10
7.7305273193
 20
6.9566304704
 30
0.0
 10
7.7288450834
 20
6.9717787712
 30
0.0
 10
7.7284682899
 20
6.9819099788
 30
0.0
 10
7.7284682899
 20
6.9869608321
 30
0.0
  0
SPLINE
  5
331
100
AcDbEntity
  8
0
100
AcDbSpline
 62
7
  6
CONTINUOUS
 70
0
 71
3
 72
39
 73
35
 74
0
 42
0.0000001
 43
0.0000001
 44
0.0000000001
 40
0.0
 40
0.0
 40
0.0
 40
0.0
 40
0.0309163425
 40
0.0464320276
 40
0.0619831638
 40
0.0931854676
 40
0.1245187224
 40
0.1402331297
 40
0.1559758159
 40
0.187534795
 40
0.2191848328
 40
0.2509097242
 40
0.2826925769
 40
0.3145162206
 40
0.346363572
 40
0.378217943
 40
0.4100632929
 40
0.4418844249
 40
0.473667135
 40
0.5053983148
 40
0.5686359201
 40
0.6315404276
 40
0.6628590034
 40
0.6940725821
 40
0.7251764926
 40
0.7561672603
 40
0.7870426007
 40
0.817801419
 40
0.8484438203
 40
0.8789711283
 40
0.9093859094
 40
0.9396920013
 40
0.9698945427
 40
1.0
 40
1.0
 40
1.0
 40
1.0
 10
8.6267793779
 20
8.6761684315
 30
0.0
 10
8.6196166728
 20
8.6766651667
 30
0.0
 10
8.6088806138
 20
8.6777880354
 30
0.0
 10
8.5946585366
 20
8.6800238035
 30
0.0
 10
8.5804556266
 20
8.6827584804
 30
0.0
 10
8.5628325281
 20
8.687097173
 30
0.0
 10
8.5455049186
 20
8.6926210248
 30
0.0
 10
8.5318459885
 20
8.6977339017
 30
0.0
 10
8.518313633
 20
8.7033119489
 30
0.0
 10
8.5017107009
 20
8.7111248691
 30
0.0
 10
8.4823901908
 20
8.7217751999
 30
0.0
 10
8.4637328001
 20
8.7336457358
 30
0.0
 10
8.4458112675
 20
8.7466682124
 30
0.0
 10
8.4286906603
 20
8.7607711637
 30
0.0
 10
8.4124293338
 20
8.7758806129
 30
0.0
 10
8.3970789261
 20
8.7919210859
 30
0.0
 10
8.3826847259
 20
8.8088164672
 30
0.0
 10
8.369286226
 20
8.8264903621
 30
0.0
 10
8.3569170634
 20
8.8448677521
 30
0.0
 10
8.3418563775
 20
8.8701742113
 30
0.0
 10
8.3257295004
 20
8.9031876508
 30
0.0
 10
8.313304391
 20
8.9376604907
 30
0.0
 10
8.3056679673
 20
8.9657849109
 30
0.0
 10
8.3011032899
 20
8.9870573442
 30
0.0
 10
8.2977013229
 20
9.0084687225
 30
0.0
 10
8.2954667637
 20
9.0299544284
 30
0.0
 10
8.2944028699
 20
9.0514495956
 30
0.0
 10
8.2945111545
 20
9.0728900169
 30
0.0
 10
8.2957915406
 20
9.0942116129
 30
0.0
 10
8.2982423388
 20
9.1153503183
 30
0.0
 10
8.3018601547
 20
9.1362417402
 30
0.0
 10
8.3066399329
 20
9.1568213536
 30
0.0
 10
8.3125742018
 20
9.1770228614
 30
0.0
 10
8.3173019564
 20
9.1902166848
 30
0.0
 10
8.3198546422
 20
9.196725613
 30
0.0
  0
SPLINE
  5
332
100
AcDbEntity
  8
0
100
AcDbSpline
 62
7
  6
CONTINUOUS
 70
0
 71
3
 72
41
 73
37
 74
0
 42
0.0000001
 43
0.0000001
 44
0.0000000001
 40
0.0
 40
0.0
 40
0.0
 40
0.0
 40
0.029942123
 40
0.0449237706
 40
0.0599145177
 40
0.0899291716
 40
0.1200145961
 40
0.1350933574
 40
0.1501974726
 40
0.1804849654
 40
0.2108989488
 40
0.2414525624
 40
0.2721557217
 40
0.3030149378
 40
0.3340332219
 40
0.3652100719
 40
0.3965415365
 40
0.4280203507
 40
0.4596361361
 40
0.4913756582
 40
0.5232231336
 40
0.5551605782
 40
0.5871681905
 40
0.6192247616
 40
0.6513081064
 40
0.6833955071
 40
0.7154641657
 40
0.7474916563
 40
0.7794563734
 40
0.811337967
 40
0.843117763
 40
0.8747791516
 40
0.9063079641
 40
0.9376927517
 40
0.9689251728
 40
1.0
 40
1.0
 40
1.0
 40
1.0
 10
11.9425747271
 20
6.5531159377
 30
0.0
 10
11.9390743097
 20
6.5497347709
 30
0.0
 10
11.9336173984
 20
6.544867845
 30
0.0
 10
11.9259750782
 20
6.5388290631
 30
0.0
 10
11.9180893696
 20
6.5330907932
 30
0.0
 10
11.907799821
 20
6.5265013666
 30
0.0
 10
11.8970099594
 20
6.5207375313
 30
0.0
 10
11.8881111292
 20
6.5166370867
 30
0.0
 10
11.8790284476
 20
6.5128751817
 30
0.0
 10
11.8673757891
 20
6.5088300138
 30
0.0
 10
11.8530156314
 20
6.5050600043
 30
0.0
 10
11.8383421223
 20
6.5023892002
 30
0.0
 10
11.8234365782
 20
6.5008323428
 30
0.0
 10
11.8083808799
 20
6.500397739
 30
0.0
 10
11.7932578688
 20
6.5010876013
 30
0.0
 10
11.7781506651
 20
6.5028979447
 30
0.0
 10
11.7631422772
 20
6.5058186442
 30
0.0
 10
11.7483151338
 20
6.5098334901
 30
0.0
 10
11.733750642
 20
6.5149202845
 30
0.0
 10
11.7195287455
 20
6.5210509661
 30
0.0
 10
11.7057274922
 20
6.5281917664
 30
0.0
 10
11.6924226116
 20
6.5363033961
 30
0.0
 10
11.6796871054
 20
6.5453412606
 30
0.0
 10
11.6675908514
 20
6.5552557033
 30
0.0
 10
11.6562002249
 20
6.5659922768
 30
0.0
 10
11.6455777385
 20
6.5774920389
 30
0.0
 10
11.6357817028
 20
6.5896918731
 30
0.0
 10
11.6268659092
 20
6.6025248316
 30
0.0
 10
11.6188793376
 20
6.6159204981
 30
0.0
 10
11.6118658888
 20
6.6298053721
 30
0.0
 10
11.6058641465
 20
6.6441032581
 30
0.0
 10
11.6009071612
 20
6.6587357134
 30
0.0
 10
11.597022279
 20
6.6736223406
 30
0.0
 10
11.5942309685
 20
6.6886817123
 30
0.0
 10
11.5925487326
 20
6.703830013
 30
0.0
 10
11.5921719391
 20
6.7139612206
 30
0.0
 10
11.5921719391
 20
6.719012074
 30
0.0
  0
SPLINE
  5
333
100
AcDbEntity
  8
0
100
AcDbSpline
 62
7
  6
CONTINUOUS
 70
0
 71
3
 72
15
 73
11
 74
0
 42
0.0000001
 43
0.0000001
 44
0.0000000001
 40
0.0
 40
0.0
 40
0.0
 40
0.0
 40
0.1273482808
 40
0.2538605196
 40
0.3795878971
 40
0.5046050835
 40
0.6290174393
 40
0.7529533827
 40
0.8765605876
 40
1.0
 40
1.0
 40
1.0
 40
1.0
 10
9.0947704346
 20
9.6093569607
 30
0.0
 10
9.0947704346
 20
9.6136840344
 30
0.0
 10
9.095183577
 20
9.6223157569
 30
0.0
 10
9.0970519838
 20
9.6350973305
 30
0.0
 10
9.1001501138
 20
9.6475577555
 30
0.0
 10
9.1044499895
 20
9.6595805048
 30
0.0
 10
9.1099121401
 20
9.6710547095
 30
0.0
 10
9.1164867931
 20
9.6818744186
 30
0.0
 10
9.1241121453
 20
9.6919382389
 30
0.0
 10
9.1298536369
 20
9.69808582
 30
0.0
 10
9.1328703629
 20
9.7009997791
 30
0.0
  0
SPLINE
  5
334
100
AcDbEntity
  8
0
100
AcDbSpline
 62
7
  6
CONTINUOUS
 70
0
 71
3
 72
11
 73
7
 74
0
 42
0.0000001
 43
0.0000001
 44
0.0000000001
 40
0.0
 40
0.0
 40
0.0
 40
0.0
 40
0.2548327351
 40
0.5055483265
 40
0.7534772146
 40
1.0
 40
1.0
 40
1.0
 40
1.0
 10
13.4632528737
 20
7.4330718111
 30
0.0
 10
13.4619713445
 20
7.4327657586
 30
0.0
 10
13.4594063735
 20
7.4322486499
 30
0.0
 10
13.4555372062
 20
7.4317646225
 30
0.0
 10
13.4516851699
 20
7.4315801039
 30
0.0
 10
13.4491267807
 20
7.4316570627
 30
0.0
 10
13.4478552322
 20
7.4317452474
 30
0.0
  0
SPLINE
  5
335
100
AcDbEntity
  8
0
100
AcDbSpline
 62
7
  6
CONTINUOUS
 70
0
 71
3
 72
23
 73
19
 74
0
 42
0.0000001
 43
0.0000001
 44
0.0000000001
 40
0.0
 40
0.0
 40
0.0
 40
0.0
 40
0.0625889226
 40
0.125167624
 40
0.1877329075
 40
0.2502861371
 40
0.3128262436
 40
0.3753533822
 40
0.4378675286
 40
0.5003689263
 40
0.5628579629
 40
0.6253351925
 40
0.6878013258
 40
0.7502572203
 40
0.8127038688
 40
0.8751423858
 40
0.9375739925
 40
1.0
 40
1.0
 40
1.0
 40
1.0
 10
9.0054651439
 20
7.5143298779
 30
0.0
 10
9.001663689
 20
7.5089746653
 30
0.0
 10
8.9943661682
 20
7.4980449671
 30
0.0
 10
8.9843778742
 20
7.4810549221
 30
0.0
 10
8.9753796566
 20
7.4635238467
 30
0.0
 10
8.9674015033
 20
7.4455102615
 30
0.0
 10
8.9604695423
 20
7.4270730012
 30
0.0
 10
8.9546065626
 20
7.4082727797
 30
0.0
 10
8.9498318452
 20
7.3891713297
 30
0.0
 10
8.9461610846
 20
7.3698314319
 30
0.0
 10
8.9436063541
 20
7.3503166363
 30
0.0
 10
8.9421760466
 20
7.3306910727
 30
0.0
 10
8.9418748614
 20
7.3110192384
 30
0.0
 10
8.9427037951
 20
7.2913657629
 30
0.0
 10
8.944660108
 20
7.27179529
 30
0.0
 10
8.9477374455
 20
7.252371915
 30
0.0
 10
8.9519254402
 20
7.2331602824
 30
0.0
 10
8.9554494836
 20
7.2205332839
 30
0.0
 10
8.957390983
 20
7.2142774301
 30
0.0
  0
SPLINE
  5
336
100
AcDbEntity
  8
0
100
AcDbSpline
 62
7
  6
CONTINUOUS
 70
0
 71
3
 72
41
 73
37
 74
0
 42
0.0000001
 43
0.0000001
 44
0.0000000001
 40
0.0
 40
0.0
 40
0.0
 40
0.0
 40
0.029942123
 40
0.0449237706
 40
0.0599145177
 40
0.0899291716
 40
0.1200145961
 40
0.1350933574
 40
0.1501974726
 40
0.1804849654
 40
0.2108989488
 40
0.2414525624
 40
0.2721557217
 40
0.3030149378
 40
0.3340332219
 40
0.3652100719
 40
0.3965415365
 40
0.4280203507
 40
0.4596361361
 40
0.4913756582
 40
0.5232231336
 40
0.5551605782
 40
0.5871681905
 40
0.6192247616
 40
0.6513081064
 40
0.6833955071
 40
0.7154641657
 40
0.7474916563
 40
0.7794563734
 40
0.811337967
 40
0.843117763
 40
0.8747791516
 40
0.9063079641
 40
0.9376927517
 40
0.9689251728
 40
1.0
 40
1.0
 40
1.0
 40
1.0
 10
11.9425747271
 20
9.2094121173
 30
0.0
 10
11.9390743097
 20
9.2060309506
 30
0.0
 10
11.9336173984
 20
9.2011640247
 30
0.0
 10
11.9259750782
 20
9.1951252428
 30
0.0
 10
11.9180893696
 20
9.1893869729
 30
0.0
 10
11.907799821
 20
9.1827975463
 30
0.0
 10
11.8970099594
 20
9.1770337109
 30
0.0
 10
11.8881111292
 20
9.1729332663
 30
0.0
 10
11.8790284476
 20
9.1691713614
 30
0.0
 10
11.8673757891
 20
9.1651261934
 30
0.0
 10
11.8530156314
 20
9.161356184
 30
0.0
 10
11.8383421223
 20
9.1586853799
 30
0.0
 10
11.8234365782
 20
9.1571285225
 30
0.0
 10
11.8083808799
 20
9.1566939187
 30
0.0
 10
11.7932578688
 20
9.157383781
 30
0.0
 10
11.7781506651
 20
9.1591941244
 30
0.0
 10
11.7631422772
 20
9.1621148238
 30
0.0
 10
11.7483151338
 20
9.1661296698
 30
0.0
 10
11.733750642
 20
9.1712164642
 30
0.0
 10
11.7195287455
 20
9.1773471458
 30
0.0
 10
11.7057274922
 20
9.1844879461
 30
0.0
 10
11.6924226116
 20
9.1925995758
 30
0.0
 10
11.6796871054
 20
9.2016374403
 30
0.0
 10
11.6675908514
 20
9.211551883
 30
0.0
 10
11.6562002249
 20
9.2222884565
 30
0.0
 10
11.6455777385
 20
9.2337882186
 30
0.0
 10
11.6357817028
 20
9.2459880528
 30
0.0
 10
11.6268659092
 20
9.2588210113
 30
0.0
 10
11.6188793376
 20
9.2722166778
 30
0.0
 10
11.6118658888
 20
9.2861015518
 30
0.0
 10
11.6058641465
 20
9.3003994378
 30
0.0
 10
11.6009071612
 20
9.3150318931
 30
0.0
 10
11.597022279
 20
9.3299185203
 30
0.0
 10
11.5942309685
 20
9.3449778919
 30
0.0
 10
11.5925487326
 20
9.3601261927
 30
0.0
 10
11.5921719391
 20
9.3702574003
 30
0.0
 10
11.5921719391
 20
9.3753082536
 30
0.0
  0
SPLINE
  5
337
100
AcDbEntity
  8
0
100
AcDbSpline
 62
7
  6
CONTINUOUS
 70
0
 71
3
 72
27
 73
23
 74
0
 42
0.0000001
 43
0.0000001
 44
0.0000000001
 40
0.0
 40
0.0
 40
0.0
 40
0.0
 40
0.0606439556
 40
0.0910288704
 40
0.1214576289
 40
0.1824571069
 40
0.243682759
 40
0.2743937893
 40
0.305170709
 40
0.366921754
 40
0.4289611347
 40
0.4912983582
 40
0.5539370828
 40
0.6168751222
 40
0.680104572
 40
0.7118291247
 40
0.7436210711
 40
0.8073879874
 40
0.8713910262
 40
0.9034769936
 40
0.9356113106
 40
1.0
 40
1.0
 40
1.0
 40
1.0
 10
9.005466814
 20
7.5143322306
 30
0.0
 10
9.001333322
 20
7.5081037515
 30
0.0
 10
8.9954729173
 20
7.4985192967
 30
0.0
 10
8.9883802838
 20
7.4853317727
 30
0.0
 10
8.9817578306
 20
7.4718523254
 30
0.0
 10
8.9743956567
 20
7.45451614
 30
0.0
 10
8.9683044956
 20
7.4366570844
 30
0.0
 10
8.9642030412
 20
7.4220944957
 30
0.0
 10
8.9606128859
 20
7.407330866
 30
0.0
 10
8.9571101097
 20
7.3885849665
 30
0.0
 10
8.9545052973
 20
7.3657715167
 30
0.0
 10
8.9535058467
 20
7.3427218046
 30
0.0
 10
8.9541166016
 20
7.3195480018
 30
0.0
 10
8.95633418
 20
7.2963627196
 30
0.0
 10
8.9595091282
 20
7.2771443526
 30
0.0
 10
8.9628348969
 20
7.2618765145
 30
0.0
 10
8.9666898805
 20
7.2466651909
 30
0.0
 10
8.9724811484
 20
7.2278523683
 30
0.0
 10
8.9795255202
 20
7.2094335527
 30
0.0
 10
8.9858975914
 20
7.194966648
 30
0.0
 10
8.9927635946
 20
7.1806753933
 30
0.0
 10
8.9984444617
 20
7.1702085004
 30
0.0
 10
9.0024564545
 20
7.163360305
 30
0.0
  0
SPLINE
  5
338
100
AcDbEntity
  8
0
100
AcDbSpline
 62
7
  6
CONTINUOUS
 70
0
 71
3
 72
41
 73
37
 74
0
 42
0.0000001
 43
0.0000001
 44
0.0000000001
 40
0.0
 40
0.0
 40
0.0
 40
0.0
 40
0.0299421244
 40
0.0449237733
 40
0.05991452
 40
0.0899291767
 40
0.1200146037
 40
0.1350933625
 40
0.1501974807
 40
0.1804849728
 40
0.2108989538
 40
0.2414525638
 40
0.2721557191
 40
0.3030149318
 40
0.3340332139
 40
0.3652100638
 40
0.39654153
 40
0.4280203461
 40
0.4596361322
 40
0.4913756535
 40
0.5232231268
 40
0.5551605686
 40
0.5871681787
 40
0.6192247492
 40
0.6513080952
 40
0.683395499
 40
0.715464161
 40
0.7474916539
 40
0.7794563719
 40
0.811337962
 40
0.8431177653
 40
0.8747791215
 40
0.9063080259
 40
0.9376925771
 40
0.9689254639
 40
1.0
 40
1.0
 40
1.0
 40
1.0
 10
9.3280956797
 20
9.4988907426
 30
0.0
 10
9.3257648335
 20
9.4966392983
 30
0.0
 10
9.322131219
 20
9.4933985012
 30
0.0
 10
9.317042362
 20
9.4893774262
 30
0.0
 10
9.3117914743
 20
9.4855564068
 30
0.0
 10
9.3049398963
 20
9.4811686581
 30
0.0
 10
9.2977551836
 20
9.477330631
 30
0.0
 10
9.2918296508
 20
9.4746002471
 30
0.0
 10
9.285781709
 20
9.4720952588
 30
0.0
 10
9.2780224686
 20
9.4694016734
 30
0.0
 10
9.2684603711
 20
9.466891297
 30
0.0
 10
9.2586896187
 20
9.4651128573
 30
0.0
 10
9.2487643592
 20
9.464076166
 30
0.0
 10
9.238739114
 20
9.4637867563
 30
0.0
 10
9.228669045
 20
9.4642461026
 30
0.0
 10
9.2186095002
 20
9.4654515534
 30
0.0
 10
9.2086157539
 20
9.4673963702
 30
0.0
 10
9.1987426946
 20
9.4700697593
 30
0.0
 10
9.1890445297
 20
9.4734569362
 30
0.0
 10
9.1795744912
 20
9.4775392135
 30
0.0
 10
9.1703845488
 20
9.4822941044
 30
0.0
 10
9.1615251283
 20
9.4876954467
 30
0.0
 10
9.1530448394
 20
9.4937135463
 30
0.0
 10
9.1449902122
 20
9.500315339
 30
0.0
 10
9.1374054453
 20
9.5074645709
 30
0.0
 10
9.1303321661
 20
9.5151219951
 30
0.0
 10
9.1238092055
 20
9.5232455854
 30
0.0
 10
9.1178723811
 20
9.531790761
 30
0.0
 10
9.1125543068
 20
9.5407106312
 30
0.0
 10
9.1078842094
 20
9.5499562527
 30
0.0
 10
9.103887791
 20
9.5594768878
 30
0.0
 10
9.1005870304
 20
9.569220309
 30
0.0
 10
9.0980001979
 20
9.5791329604
 30
0.0
 10
9.0961414796
 20
9.5891606797
 30
0.0
 10
9.095021351
 20
9.599247586
 30
0.0
 10
9.0947704346
 20
9.6059937439
 30
0.0
 10
9.0947704346
 20
9.6093569607
 30
0.0
  0
SPLINE
  5
339
100
AcDbEntity
  8
0
100
AcDbSpline
 62
7
  6
CONTINUOUS
 70
0
 71
3
 72
15
 73
11
 74
0
 42
0.0000001
 43
0.0000001
 44
0.0000000001
 40
0.0
 40
0.0
 40
0.0
 40
0.0
 40
0.1249654757
 40
0.2500847778
 40
0.3752850828
 40
0.5004927074
 40
0.6256352967
 40
0.7506432973
 40
0.8754514537
 40
1.0
 40
1.0
 40
1.0
 40
1.0
 10
9.4217702652
 20
7.7194696273
 30
0.0
 10
9.4276455221
 20
7.7153909088
 30
0.0
 10
9.4391462758
 20
7.7068509987
 30
0.0
 10
9.4555545671
 20
7.6929693343
 30
0.0
 10
9.471064954
 20
7.6780700522
 30
0.0
 10
9.4856108628
 20
7.6622265236
 30
0.0
 10
9.4991342416
 20
7.6455161246
 30
0.0
 10
9.5115846136
 20
7.6280197229
 30
0.0
 10
9.5229188997
 20
7.6098217474
 30
0.0
 10
9.5297169851
 20
7.5972614598
 30
0.0
 10
9.5329188498
 20
7.5908926388
 30
0.0
  0
SPLINE
  5
33A
100
AcDbEntity
  8
0
100
AcDbSpline
 62
7
  6
CONTINUOUS
 70
0
 71
3
 72
15
 73
11
 74
0
 42
0.0000001
 43
0.0000001
 44
0.0000000001
 40
0.0
 40
0.0
 40
0.0
 40
0.0
 40
0.1273482789
 40
0.2538606571
 40
0.3795878378
 40
0.5046051156
 40
0.629017439
 40
0.7529533823
 40
0.8765605864
 40
1.0
 40
1.0
 40
1.0
 40
1.0
 10
7.7284682899
 20
6.9869608321
 30
0.0
 10
7.7284682899
 20
6.9934591571
 30
0.0
 10
7.7290887505
 20
7.0064221363
 30
0.0
 10
7.731894682
 20
7.0256172824
 30
0.0
 10
7.7365474035
 20
7.0443301361
 30
0.0
 10
7.7430048863
 20
7.0623856874
 30
0.0
 10
7.751207906
 20
7.079617429
 30
0.0
 10
7.7610816311
 20
7.0958662635
 30
0.0
 10
7.7725332534
 20
7.110979938
 30
0.0
 10
7.7811557532
 20
7.1202122458
 30
0.0
 10
7.7856862248
 20
7.1245883753
 30
0.0
  0
SPLINE
  5
33B
100
AcDbEntity
  8
0
100
AcDbSpline
 62
7
  6
CONTINUOUS
 70
0
 71
3
 72
41
 73
37
 74
0
 42
0.0000001
 43
0.0000001
 44
0.0000000001
 40
0.0
 40
0.0
 40
0.0
 40
0.0
 40
0.0299421244
 40
0.0449237733
 40
0.05991452
 40
0.0899291767
 40
0.1200146037
 40
0.1350933625
 40
0.1501974807
 40
0.1804849728
 40
0.2108989538
 40
0.2414525638
 40
0.2721557191
 40
0.3030149318
 40
0.3340332139
 40
0.3652100638
 40
0.39654153
 40
0.4280203461
 40
0.4596361322
 40
0.4913756535
 40
0.5232231268
 40
0.5551605686
 40
0.5871681787
 40
0.6192247492
 40
0.6513080952
 40
0.683395499
 40
0.715464161
 40
0.7474916539
 40
0.7794563719
 40
0.811337962
 40
0.8431177653
 40
0.8747791215
 40
0.9063080259
 40
0.9376925771
 40
0.9689254639
 40
1.0
 40
1.0
 40
1.0
 40
1.0
 10
9.9317993569
 20
6.6790209506
 30
0.0
 10
9.9294685107
 20
6.6767695063
 30
0.0
 10
9.9258348962
 20
6.6735287092
 30
0.0
 10
9.9207460392
 20
6.6695076342
 30
0.0
 10
9.9154951515
 20
6.6656866148
 30
0.0
 10
9.9086435735
 20
6.6612988661
 30
0.0
 10
9.9014588608
 20
6.657460839
 30
0.0
 10
9.895533328
 20
6.6547304551
 30
0.0
 10
9.8894853862
 20
6.6522254668
 30
0.0
 10
9.8817261458
 20
6.6495318814
 30
0.0
 10
9.8721640483
 20
6.647021505
 30
0.0
 10
9.8623932959
 20
6.6452430653
 30
0.0
 10
9.8524680364
 20
6.644206374
 30
0.0
 10
9.8424427912
 20
6.6439169643
 30
0.0
 10
9.8323727222
 20
6.6443763106
 30
0.0
 10
9.8223131774
 20
6.6455817614
 30
0.0
 10
9.8123194311
 20
6.6475265782
 30
0.0
 10
9.8024463718
 20
6.6501999673
 30
0.0
 10
9.7927482069
 20
6.6535871442
 30
0.0
 10
9.7832781684
 20
6.6576694215
 30
0.0
 10
9.774088226
 20
6.6624243124
 30
0.0
 10
9.7652288055
 20
6.6678256547
 30
0.0
 10
9.7567485167
 20
6.6738437543
 30
0.0
 10
9.7486938894
 20
6.680445547
 30
0.0
 10
9.7411091225
 20
6.6875947789
 30
0.0
 10
9.7340358433
 20
6.6952522031
 30
0.0
 10
9.7275128827
 20
6.7033757934
 30
0.0
 10
9.7215760583
 20
6.711920969
 30
0.0
 10
9.716257984
 20
6.7208408392
 30
0.0
 10
9.7115878866
 20
6.7300864607
 30
0.0
 10
9.7075914682
 20
6.7396070958
 30
0.0
 10
9.7042907076
 20
6.749350517
 30
0.0
 10
9.7017038751
 20
6.7592631684
 30
0.0
 10
9.6998451568
 20
6.7692908877
 30
0.0
 10
9.6987250282
 20
6.779377794
 30
0.0
 10
9.6984741118
 20
6.7861239519
 30
0.0
 10
9.6984741118
 20
6.7894871687
 30
0.0
  0
SPLINE
  5
33C
100
AcDbEntity
  8
0
100
AcDbSpline
 62
7
  6
CONTINUOUS
 70
0
 71
3
 72
41
 73
37
 74
0
 42
0.0000001
 43
0.0000001
 44
0.0000000001
 40
0.0
 40
0.0
 40
0.0
 40
0.0
 40
0.0071626665
 40
0.0146567922
 40
0.0224900003
 40
0.030668562
 40
0.0391975872
 40
0.048080862
 40
0.0573206522
 40
0.0669182435
 40
0.0768739335
 40
0.0871871924
 40
0.097856799
 40
0.1088807011
 40
0.1319796455
 40
0.1564575358
 40
0.182279017
 40
0.2094019974
 40
0.2377784932
 40
0.2673552866
 40
0.2980744788
 40
0.329873988
 40
0.3626879607
 40
0.3964471366
 40
0.4310791754
 40
0.4665089551
 40
0.502658886
 40
0.5394491939
 40
0.57679819
 40
0.6146225315
 40
0.6528374746
 40
0.691357142
 40
0.7689615337
 40
0.8467371347
 40
0.923981719
 40
1.0
 40
1.0
 40
1.0
 40
1.0
 10
7.5989129811
 20
10.0785413771
 30
0.0
 10
7.5976956029
 20
10.07736548
 30
0.0
 10
7.595262468
 20
10.0748986929
 30
0.0
 10
7.5916962821
 20
10.0709565435
 30
0.0
 10
7.5881346283
 20
10.0666924995
 30
0.0
 10
7.5845798017
 20
10.0621093212
 30
0.0
 10
7.5810337531
 20
10.0572096945
 30
0.0
 10
7.5774985718
 20
10.0519964332
 30
0.0
 10
7.5739762441
 20
10.0464726445
 30
0.0
 10
7.5704689429
 20
10.0406415828
 30
0.0
 10
7.5669787341
 20
10.0345067367
 30
0.0
 10
7.563507686
 20
10.0280717665
 30
0.0
 10
7.5600578943
 20
10.0213404817
 30
0.0
 10
7.5554168018
 20
10.0118270493
 30
0.0
 10
7.5496961863
 20
9.9992130009
 30
0.0
 10
7.5430511483
 20
9.9831894062
 30
0.0
 10
7.5365391595
 20
9.9660899508
 30
0.0
 10
7.5301759621
 20
9.9479555976
 30
0.0
 10
7.5239769597
 20
9.9288296068
 30
0.0
 10
7.5179571663
 20
9.9087577943
 30
0.0
 10
7.5121311556
 20
9.8877882941
 30
0.0
 10
7.5065130355
 20
9.8659714519
 30
0.0
 10
7.5011164081
 20
9.8433596811
 30
0.0
 10
7.4959543371
 20
9.8200073338
 30
0.0
 10
7.4910393174
 20
9.7959705692
 30
0.0
 10
7.4863832313
 20
9.7713072169
 30
0.0
 10
7.4819973343
 20
9.7460766288
 30
0.0
 10
7.4778922276
 20
9.7203395305
 30
0.0
 10
7.4740778286
 20
9.694157869
 30
0.0
 10
7.4705633665
 20
9.6675946853
 30
0.0
 10
7.4673572865
 20
9.640713888
 30
0.0
 10
7.4634947865
 20
9.6044475242
 30
0.0
 10
7.4594931304
 20
9.5587985751
 30
0.0
 10
7.4560332464
 20
9.5039323844
 30
0.0
 10
7.4539371538
 20
9.4493723639
 30
0.0
 10
7.4534567978
 20
9.413154441
 30
0.0
 10
7.4534567978
 20
9.3951911382
 30
0.0
  0
SPLINE
  5
33D
100
AcDbEntity
  8
0
100
AcDbSpline
 62
7
  6
CONTINUOUS
 70
0
 71
3
 72
39
 73
35
 74
0
 42
0.0000001
 43
0.0000001
 44
0.0000000001
 40
0.0
 40
0.0
 40
0.0
 40
0.0
 40
0.0299424796
 40
0.0599093277
 40
0.0899243268
 40
0.1200100989
 40
0.1501875564
 40
0.1804754082
 40
0.2108897438
 40
0.2414437065
 40
0.2721472214
 40
0.3030068034
 40
0.334025452
 40
0.3652026597
 40
0.3965344836
 40
0.4280136674
 40
0.4596298279
 40
0.4913697183
 40
0.5232175588
 40
0.5551553757
 40
0.587163368
 40
0.6192203146
 40
0.6513040285
 40
0.6833918015
 40
0.7154608406
 40
0.7474887097
 40
0.7794537919
 40
0.8113357643
 40
0.8431159187
 40
0.8747776681
 40
0.9063070433
 40
0.9376914486
 40
0.9689258945
 40
1.0
 40
1.0
 40
1.0
 40
1.0
 10
10.8997016791
 20
9.3709879051
 30
0.0
 10
10.8984076859
 20
9.3697379931
 30
0.0
 10
10.895717966
 20
9.3673390236
 30
0.0
 10
10.8914085881
 20
9.3640708729
 30
0.0
 10
10.8868464739
 20
9.3611493417
 30
0.0
 10
10.882057106
 20
9.3585908232
 30
0.0
 10
10.8770668085
 20
9.3564093073
 30
0.0
 10
10.8719031173
 20
9.3546168064
 30
0.0
 10
10.8665944998
 20
9.3532231006
 30
0.0
 10
10.8611702024
 20
9.3522357916
 30
0.0
 10
10.8556600867
 20
9.3516602458
 30
0.0
 10
10.8500944718
 20
9.3514995856
 30
0.0
 10
10.8445039716
 20
9.3517546137
 30
0.0
 10
10.8389193159
 20
9.3524238369
 30
0.0
 10
10.8333711862
 20
9.3535035113
 30
0.0
 10
10.827890055
 20
9.3549876593
 30
0.0
 10
10.8225060243
 20
9.3568680952
 30
0.0
 10
10.8172486401
 20
9.3591344184
 30
0.0
 10
10.8121467493
 20
9.361774139
 30
0.0
 10
10.8072283455
 20
9.3647727373
 30
0.0
 10
10.8025204295
 20
9.3681137503
 30
0.0
 10
10.7980488326
 20
9.371778815
 30
0.0
 10
10.7938380777
 20
9.3757477865
 30
0.0
 10
10.7899112705
 20
9.3799988767
 30
0.0
 10
10.7862899745
 20
9.3845087628
 30
0.0
 10
10.7829940955
 20
9.3892527091
 30
0.0
 10
10.7800417172
 20
9.3942046672
 30
0.0
 10
10.7774490639
 20
9.3993374644
 30
0.0
 10
10.7752303951
 20
9.4046229343
 30
0.0
 10
10.7733979418
 20
9.4100320996
 30
0.0
 10
10.7719618743
 20
9.4155351928
 30
0.0
 10
10.7709299449
 20
9.4211022223
 30
0.0
 10
10.7703081417
 20
9.4267020686
 30
0.0
 10
10.7701688133
 20
9.4304472881
 30
0.0
 10
10.7701688133
 20
9.432314364
 30
0.0
  0
SPLINE
  5
33E
100
AcDbEntity
  8
0
100
AcDbSpline
 62
7
  6
CONTINUOUS
 70
0
 71
3
 72
39
 73
35
 74
0
 42
0.0000001
 43
0.0000001
 44
0.0000000001
 40
0.0
 40
0.0
 40
0.0
 40
0.0
 40
0.0299424796
 40
0.0599093277
 40
0.0899243268
 40
0.1200100989
 40
0.1501875564
 40
0.1804754082
 40
0.2108897438
 40
0.2414437065
 40
0.2721472214
 40
0.3030068034
 40
0.334025452
 40
0.3652026597
 40
0.3965344836
 40
0.4280136674
 40
0.4596298279
 40
0.4913697183
 40
0.5232175588
 40
0.5551553757
 40
0.587163368
 40
0.6192203146
 40
0.6513040285
 40
0.6833918015
 40
0.7154608406
 40
0.7474887097
 40
0.7794537919
 40
0.8113357643
 40
0.8431159187
 40
0.8747776681
 40
0.9063070433
 40
0.9376914486
 40
0.9689258945
 40
1.0
 40
1.0
 40
1.0
 40
1.0
 10
8.6809699909
 20
6.8685612906
 30
0.0
 10
8.6796759978
 20
6.8673113786
 30
0.0
 10
8.6769862778
 20
6.8649124091
 30
0.0
 10
8.6726769
 20
6.8616442584
 30
0.0
 10
8.6681147858
 20
6.8587227272
 30
0.0
 10
8.6633254179
 20
6.8561642087
 30
0.0
 10
8.6583351204
 20
6.8539826928
 30
0.0
 10
8.6531714292
 20
6.8521901919
 30
0.0
 10
8.6478628117
 20
6.8507964861
 30
0.0
 10
8.6424385143
 20
6.8498091771
 30
0.0
 10
8.6369283986
 20
6.8492336313
 30
0.0
 10
8.6313627837
 20
6.8490729711
 30
0.0
 10
8.6257722834
 20
6.8493279992
 30
0.0
 10
8.6201876278
 20
6.8499972224
 30
0.0
 10
8.6146394981
 20
6.8510768968
 30
0.0
 10
8.6091583669
 20
6.8525610448
 30
0.0
 10
8.6037743362
 20
6.8544414807
 30
0.0
 10
8.598516952
 20
6.8567078039
 30
0.0
 10
8.5934150612
 20
6.8593475245
 30
0.0
 10
8.5884966574
 20
6.8623461228
 30
0.0
 10
8.5837887413
 20
6.8656871358
 30
0.0
 10
8.5793171445
 20
6.8693522005
 30
0.0
 10
8.5751063896
 20
6.873321172
 30
0.0
 10
8.5711795824
 20
6.8775722622
 30
0.0
 10
8.5675582864
 20
6.8820821483
 30
0.0
 10
8.5642624074
 20
6.8868260946
 30
0.0
 10
8.5613100291
 20
6.8917780527
 30
0.0
 10
8.5587173758
 20
6.8969108499
 30
0.0
 10
8.556498707
 20
6.9021963198
 30
0.0
 10
8.5546662537
 20
6.9076054851
 30
0.0
 10
8.5532301862
 20
6.9131085783
 30
0.0
 10
8.5521982568
 20
6.9186756078
 30
0.0
 10
8.5515764536
 20
6.9242754541
 30
0.0
 10
8.5514371251
 20
6.9280206736
 30
0.0
 10
8.5514371251
 20
6.9298877495
 30
0.0
  0
SPLINE
  5
33F
100
AcDbEntity
  8
0
100
AcDbSpline
 62
7
  6
CONTINUOUS
 70
0
 71
3
 72
11
 73
7
 74
0
 42
0.0000001
 43
0.0000001
 44
0.0000000001
 40
0.0
 40
0.0
 40
0.0
 40
0.0
 40
0.2481089046
 40
0.4975323235
 40
0.7481918481
 40
1.0
 40
1.0
 40
1.0
 40
1.0
 10
11.2830755293
 20
7.3519005344
 30
0.0
 10
11.2860537415
 20
7.3516939947
 30
0.0
 10
11.2920122097
 20
7.3510453427
 30
0.0
 10
11.3008683726
 20
7.3493814642
 30
0.0
 10
11.3096149716
 20
7.347036545
 30
0.0
 10
11.3153269336
 20
7.3450349485
 30
0.0
 10
11.3181474431
 20
7.3439282066
 30
0.0
  0
SPLINE
  5
340
100
AcDbEntity
  8
0
100
AcDbSpline
 62
7
  6
CONTINUOUS
 70
0
 71
3
 72
39
 73
35
 74
0
 42
0.0000001
 43
0.0000001
 44
0.0000000001
 40
0.0
 40
0.0
 40
0.0
 40
0.0
 40
0.0309163426
 40
0.0464320277
 40
0.0619831639
 40
0.0931854678
 40
0.1245187226
 40
0.1402331299
 40
0.1559758161
 40
0.1875347952
 40
0.219184833
 40
0.2509097245
 40
0.2826925772
 40
0.3145162209
 40
0.3463635722
 40
0.3782179432
 40
0.4100632931
 40
0.4418844251
 40
0.4736671352
 40
0.505398315
 40
0.5686359203
 40
0.6315404278
 40
0.6628590035
 40
0.6940725822
 40
0.7251764926
 40
0.7561672603
 40
0.7870426008
 40
0.817801419
 40
0.8484438203
 40
0.8789711283
 40
0.9093859094
 40
0.9396920013
 40
0.9698945427
 40
1.0
 40
1.0
 40
1.0
 40
1.0
 10
9.8341867252
 20
8.5924344473
 30
0.0
 10
9.8270240202
 20
8.5929311826
 30
0.0
 10
9.8162879613
 20
8.594054052
 30
0.0
 10
9.8020658843
 20
8.5962898204
 30
0.0
 10
9.7878629745
 20
8.5990244974
 30
0.0
 10
9.7702398762
 20
8.6033631904
 30
0.0
 10
9.752912267
 20
8.6088870424
 30
0.0
 10
9.7392533371
 20
8.6139999196
 30
0.0
 10
9.7257209819
 20
8.6195779669
 30
0.0
 10
9.70911805
 20
8.6273908874
 30
0.0
 10
9.6897975403
 20
8.6380412184
 30
0.0
 10
9.67114015
 20
8.6499117545
 30
0.0
 10
9.6532186178
 20
8.6629342312
 30
0.0
 10
9.6360980109
 20
8.6770371826
 30
0.0
 10
9.6198366848
 20
8.6921466319
 30
0.0
 10
9.6044862774
 20
8.7081871049
 30
0.0
 10
9.5900920776
 20
8.7250824862
 30
0.0
 10
9.576693578
 20
8.7427563811
 30
0.0
 10
9.5643244157
 20
8.761133771
 30
0.0
 10
9.5492637303
 20
8.78644023
 30
0.0
 10
9.5331368536
 20
8.8194536693
 30
0.0
 10
9.5207117446
 20
8.8539265089
 30
0.0
 10
9.5130753211
 20
8.8820509289
 30
0.0
 10
9.5085106439
 20
8.903323362
 30
0.0
 10
9.505108677
 20
8.9247347401
 30
0.0
 10
9.502874118
 20
8.9462204458
 30
0.0
 10
9.5018102243
 20
8.9677156127
 30
0.0
 10
9.501918509
 20
8.9891560338
 30
0.0
 10
9.5031988951
 20
9.0104776296
 30
0.0
 10
9.5056496934
 20
9.0316163348
 30
0.0
 10
9.5092675092
 20
9.0525077564
 30
0.0
 10
9.5140472874
 20
9.0730873695
 30
0.0
 10
9.5199815562
 20
9.0932888771
 30
0.0
 10
9.5247093108
 20
9.1064827004
 30
0.0
 10
9.5272619966
 20
9.1129916286
 30
0.0
  0
SPLINE
  5
341
100
AcDbEntity
  8
0
100
AcDbSpline
 62
7
  6
CONTINUOUS
 70
0
 71
3
 72
25
 73
21
 74
0
 42
0.0000001
 43
0.0000001
 44
0.0000000001
 40
0.0
 40
0.0
 40
0.0
 40
0.0
 40
0.0624814453
 40
0.0936533997
 40
0.1247812346
 40
0.1869108779
 40
0.2489165569
 40
0.2798910127
 40
0.3108500593
 40
0.3727334705
 40
0.4346258923
 40
0.4965776228
 40
0.5586401835
 40
0.6208648372
 40
0.6833008635
 40
0.7459936633
 40
0.8089827601
 40
0.8723002448
 40
0.9359680196
 40
1.0
 40
1.0
 40
1.0
 40
1.0
 10
8.9337040459
 20
8.8775596542
 30
0.0
 10
8.9307126027
 20
8.8699319671
 30
0.0
 10
8.9258285496
 20
8.858649415
 30
0.0
 10
8.9185360743
 20
8.8439986813
 30
0.0
 10
8.9107448325
 20
8.8296587363
 30
0.0
 10
8.900058064
 20
8.8123064805
 30
0.0
 10
8.8881295939
 20
8.7958066791
 30
0.0
 10
8.8778757821
 20
8.7831927244
 30
0.0
 10
8.8671599586
 20
8.7709903046
 30
0.0
 10
8.8528988417
 20
8.7565255253
 30
0.0
 10
8.8344757583
 20
8.7405581532
 30
0.0
 10
8.8148195733
 20
8.7260936103
 30
0.0
 10
8.7940207447
 20
8.7132423185
 30
0.0
 10
8.7721822297
 20
8.7021080318
 30
0.0
 10
8.7494206714
 20
8.6927865294
 30
0.0
 10
8.7258658271
 20
8.6853627882
 30
0.0
 10
8.7016600274
 20
8.6799083417
 30
0.0
 10
8.6769558239
 20
8.676479014
 30
0.0
 10
8.6519171039
 20
8.6751122876
 30
0.0
 10
8.6351558943
 20
8.6755875181
 30
0.0
 10
8.6267793779
 20
8.6761684315
 30
0.0
  0
SPLINE
  5
342
100
AcDbEntity
  8
0
100
AcDbSpline
 62
7
  6
CONTINUOUS
 70
0
 71
3
 72
25
 73
21
 74
0
 42
0.0000001
 43
0.0000001
 44
0.0000000001
 40
0.0
 40
0.0
 40
0.0
 40
0.0
 40
0.0624814453
 40
0.0936533997
 40
0.1247812345
 40
0.1869108778
 40
0.2489165567
 40
0.2798910125
 40
0.3108500591
 40
0.3727334703
 40
0.4346258921
 40
0.4965776226
 40
0.5586401832
 40
0.6208648369
 40
0.6833008632
 40
0.7459936631
 40
0.8089827599
 40
0.8723002447
 40
0.9359680196
 40
1.0
 40
1.0
 40
1.0
 40
1.0
 10
10.1411114003
 20
8.7938256698
 30
0.0
 10
10.1381199571
 20
8.7861979826
 30
0.0
 10
10.1332359038
 20
8.7749154302
 30
0.0
 10
10.1259434284
 20
8.7602646963
 30
0.0
 10
10.1181521864
 20
8.745924751
 30
0.0
 10
10.1074654177
 20
8.728572495
 30
0.0
 10
10.0955369473
 20
8.7120726933
 30
0.0
 10
10.0852831353
 20
8.6994587385
 30
0.0
 10
10.0745673115
 20
8.6872563186
 30
0.0
 10
10.0603061942
 20
8.6727915391
 30
0.0
 10
10.0418831104
 20
8.6568241669
 30
0.0
 10
10.0222269248
 20
8.642359624
 30
0.0
 10
10.0014280957
 20
8.6295083322
 30
0.0
 10
9.9795895801
 20
8.6183740456
 30
0.0
 10
9.9568280213
 20
8.6090525433
 30
0.0
 10
9.9332731764
 20
8.6016288024
 30
0.0
 10
9.9090673762
 20
8.5961743562
 30
0.0
 10
9.8843631721
 20
8.5927450289
 30
0.0
 10
9.8593244516
 20
8.5913783031
 30
0.0
 10
9.8425632417
 20
8.5918535339
 30
0.0
 10
9.8341867252
 20
8.5924344473
 30
0.0
  0
SPLINE
  5
343
100
AcDbEntity
  8
0
100
AcDbSpline
 62
7
  6
CONTINUOUS
 70
0
 71
3
 72
39
 73
35
 74
0
 42
0.0000001
 43
0.0000001
 44
0.0000000001
 40
0.0
 40
0.0
 40
0.0
 40
0.0
 40
0.0323164391
 40
0.0644975244
 40
0.0965259865
 40
0.1283897899
 40
0.1600820118
 40
0.1916005137
 40
0.2229474811
 40
0.2541289833
 40
0.2851545392
 40
0.3160367034
 40
0.3467906634
 40
0.3774338946
 40
0.4079858576
 40
0.4384677207
 40
0.4689020981
 40
0.499312783
 40
0.5297244677
 40
0.5601624335
 40
0.5906521876
 40
0.6212190293
 40
0.6518875045
 40
0.6826807702
 40
0.7136198862
 40
0.7447230023
 40
0.7760044229
 40
0.8074736815
 40
0.8391347575
 40
0.8709853238
 40
0.9030162561
 40
0.9352116322
 40
0.9675487249
 40
1.0
 40
1.0
 40
1.0
 40
1.0
 10
8.9280471926
 20
7.2623313496
 30
0.0
 10
8.9236137581
 20
7.271149883
 30
0.0
 10
8.9154992432
 20
7.2891299044
 30
0.0
 10
8.9056309489
 20
7.3169444514
 30
0.0
 10
8.8981104942
 20
7.3453417515
 30
0.0
 10
8.8929443708
 20
7.374107072
 30
0.0
 10
8.8901197038
 20
7.4030386825
 30
0.0
 10
8.8896092784
 20
7.4319447814
 30
0.0
 10
8.8913738758
 20
7.460644634
 30
0.0
 10
8.8953647647
 20
7.4889678599
 30
0.0
 10
8.9015256096
 20
7.5167537259
 30
0.0
 10
8.9097939602
 20
7.5438501117
 30
0.0
 10
8.9201023444
 20
7.5701123644
 30
0.0
 10
8.9323789235
 20
7.5954021179
 30
0.0
 10
8.9465477814
 20
7.6195861588
 30
0.0
 10
8.9625288814
 20
7.6425353848
 30
0.0
 10
8.9802377158
 20
7.6641239016
 30
0.0
 10
8.9995846727
 20
7.6842283091
 30
0.0
 10
9.020474172
 20
7.7027272022
 30
0.0
 10
9.0428035726
 20
7.7195009539
 30
0.0
 10
9.066461898
 20
7.7344318258
 30
0.0
 10
9.0913284225
 20
7.747404452
 30
0.0
 10
9.1172711611
 20
7.7583068014
 30
0.0
 10
9.1441453942
 20
7.7670316438
 30
0.0
 10
9.1717923509
 20
7.7734785425
 30
0.0
 10
9.2000381619
 20
7.777556407
 30
0.0
 10
9.2286932587
 20
7.7791866999
 30
0.0
 10
9.2575525208
 20
7.7783071168
 30
0.0
 10
9.286396299
 20
7.7748753519
 30
0.0
 10
9.3149925645
 20
7.7688730685
 30
0.0
 10
9.3430999941
 20
7.7603099494
 30
0.0
 10
9.3704732785
 20
7.749225455
 30
0.0
 10
9.3968649487
 20
7.7356937498
 30
0.0
 10
9.4136284532
 20
7.7251218326
 30
0.0
 10
9.4217702652
 20
7.7194696273
 30
0.0
  0
SPLINE
  5
344
100
AcDbEntity
  8
0
100
AcDbSpline
 62
7
  6
CONTINUOUS
 70
0
 71
3
 72
15
 73
11
 74
0
 42
0.0000001
 43
0.0000001
 44
0.0000000001
 40
0.0
 40
0.0
 40
0.0
 40
0.0
 40
0.1273473901
 40
0.2538608346
 40
0.3795878351
 40
0.5046051039
 40
0.6290174461
 40
0.7529533848
 40
0.8765605883
 40
1.0
 40
1.0
 40
1.0
 40
1.0
 10
10.7701688133
 20
9.432314364
 30
0.0
 10
10.7701688133
 20
9.4347165671
 30
0.0
 10
10.7703981808
 20
9.4395085622
 30
0.0
 10
10.7714354201
 20
9.4466043882
 30
0.0
 10
10.7731553955
 20
9.4535219365
 30
0.0
 10
10.7755425106
 20
9.4601964858
 30
0.0
 10
10.7785748881
 20
9.4665665075
 30
0.0
 10
10.7822248793
 20
9.4725731777
 30
0.0
 10
10.7864581724
 20
9.4781602115
 30
0.0
 10
10.7896456184
 20
9.4815731074
 30
0.0
 10
10.7913203853
 20
9.4831908217
 30
0.0
  0
SPLINE
  5
345
100
AcDbEntity
  8
0
100
AcDbSpline
 62
7
  6
CONTINUOUS
 70
0
 71
3
 72
25
 73
21
 74
0
 42
0.0000001
 43
0.0000001
 44
0.0000000001
 40
0.0
 40
0.0
 40
0.0
 40
0.0
 40
0.0624814453
 40
0.0936533997
 40
0.1247812345
 40
0.1869108778
 40
0.2489165568
 40
0.2798910126
 40
0.3108500592
 40
0.3727334704
 40
0.4346258922
 40
0.4965776227
 40
0.5586401833
 40
0.620864837
 40
0.6833008633
 40
0.7459936632
 40
0.80898276
 40
0.8723002447
 40
0.9359680196
 40
1.0
 40
1.0
 40
1.0
 40
1.0
 10
10.7448150775
 20
7.1832950303
 30
0.0
 10
10.7418236343
 20
7.1756673431
 30
0.0
 10
10.7369395811
 20
7.1643847909
 30
0.0
 10
10.7296471057
 20
7.1497340571
 30
0.0
 10
10.7218558638
 20
7.1353941119
 30
0.0
 10
10.7111690952
 20
7.118041856
 30
0.0
 10
10.6992406249
 20
7.1015420544
 30
0.0
 10
10.688986813
 20
7.0889280996
 30
0.0
 10
10.6782709894
 20
7.0767256798
 30
0.0
 10
10.6640098723
 20
7.0622609004
 30
0.0
 10
10.6455867886
 20
7.0462935282
 30
0.0
 10
10.6259306033
 20
7.0318289853
 30
0.0
 10
10.6051317744
 20
7.0189776935
 30
0.0
 10
10.583293259
 20
7.0078434069
 30
0.0
 10
10.5605317004
 20
6.9985219045
 30
0.0
 10
10.5369768558
 20
6.9910981635
 30
0.0
 10
10.5127710559
 20
6.9856437172
 30
0.0
 10
10.488066852
 20
6.9822143897
 30
0.0
 10
10.4630281317
 20
6.9808476636
 30
0.0
 10
10.446266922
 20
6.9813228943
 30
0.0
 10
10.4378904055
 20
6.9819038077
 30
0.0
  0
SPLINE
  5
346
100
AcDbEntity
  8
0
100
AcDbSpline
 62
7
  6
CONTINUOUS
 70
0
 71
3
 72
39
 73
35
 74
0
 42
0.0000001
 43
0.0000001
 44
0.0000000001
 40
0.0
 40
0.0
 40
0.0
 40
0.0
 40
0.0320313052
 40
0.0641954328
 40
0.0964598357
 40
0.1287899864
 40
0.161150816
 40
0.1935079956
 40
0.2258289573
 40
0.2580836684
 40
0.2902451891
 40
0.3222900511
 40
0.3541985019
 40
0.385954658
 40
0.417546603
 40
0.44896646
 40
0.4802104572
 40
0.5112789999
 40
0.5421767487
 40
0.5729126983
 40
0.6035002388
 40
0.6339571738
 40
0.6643056575
 40
0.6945720053
 40
0.7247863264
 40
0.7549819276
 40
0.7851944456
 40
0.815460688
 40
0.845817189
 40
0.8762985655
 40
0.9069356585
 40
0.9377541091
 40
0.9687717692
 40
1.0
 40
1.0
 40
1.0
 40
1.0
 10
11.2480036043
 20
7.1028936432
 30
0.0
 10
11.2444682648
 20
7.1042808778
 30
0.0
 10
11.2375075264
 20
7.1073907194
 30
0.0
 10
11.2275167031
 20
7.1129864793
 30
0.0
 10
11.2180299759
 20
7.1194636443
 30
0.0
 10
11.2091226822
 20
7.1267526474
 30
0.0
 10
11.200859571
 20
7.1347797205
 30
0.0
 10
11.1932968604
 20
7.1434677916
 30
0.0
 10
11.1864821567
 20
7.1527380996
 30
0.0
 10
11.1804552251
 20
7.1625112433
 30
0.0
 10
11.1752486888
 20
7.1727080032
 30
0.0
 10
11.1708888029
 20
7.1832498693
 30
0.0
 10
11.1673961831
 20
7.1940593345
 30
0.0
 10
11.1647864602
 20
7.2050599894
 30
0.0
 10
11.1630708261
 20
7.2161764638
 30
0.0
 10
11.1622564526
 20
7.2273342554
 30
0.0
 10
11.162346771
 20
7.2384594846
 30
0.0
 10
11.1633416054
 20
7.2494786106
 30
0.0
 10
11.1652371554
 20
7.2603181422
 30
0.0
 10
11.1680258289
 20
7.2709043763
 30
0.0
 10
11.1716959253
 20
7.2811631999
 30
0.0
 10
11.176231174
 20
7.2910199904
 30
0.0
 10
11.1816101425
 20
7.300399656
 30
0.0
 10
11.1878055315
 20
7.3092268586
 30
0.0
 10
11.1947833948
 20
7.3174264628
 30
0.0
 10
11.2025023333
 20
7.3249242518
 30
0.0
 10
11.2109127345
 20
7.3316479391
 30
0.0
 10
11.219956155
 20
7.3375284802
 30
0.0
 10
11.2295649314
 20
7.3425016758
 30
0.0
 10
11.239662199
 20
7.3465099533
 30
0.0
 10
11.2501621769
 20
7.3495043534
 30
0.0
 10
11.2609716258
 20
7.3514462011
 30
0.0
 10
11.2719892652
 20
7.3523091938
 30
0.0
 10
11.2793818484
 20
7.352156692
 30
0.0
 10
11.2830755293
 20
7.3519005344
 30
0.0
  0
SPLINE
  5
347
100
AcDbEntity
  8
0
100
AcDbSpline
 62
7
  6
CONTINUOUS
 70
0
 71
3
 72
39
 73
35
 74
0
 42
0.0000001
 43
0.0000001
 44
0.0000000001
 40
0.0
 40
0.0
 40
0.0
 40
0.0
 40
0.0310016415
 40
0.0621469092
 40
0.0934266304
 40
0.1248357121
 40
0.1563632744
 40
0.1879975526
 40
0.2197248192
 40
0.251529852
 40
0.2833962826
 40
0.3153068334
 40
0.347243665
 40
0.3791886904
 40
0.4111238546
 40
0.443031407
 40
0.4748941733
 40
0.50669584
 40
0.5384211716
 40
0.570056212
 40
0.6015884772
 40
0.6330071571
 40
0.6643032682
 40
0.6954697702
 40
0.7265016752
 40
0.7573961492
 40
0.7881525837
 40
0.8187726227
 40
0.8492601702
 40
0.8796213703
 40
0.9098645546
 40
0.9400001542
 40
0.9700405702
 40
1.0
 40
1.0
 40
1.0
 40
1.0
 10
10.8455109826
 20
8.7606697138
 30
0.0
 10
10.8428255089
 20
8.7608559521
 30
0.0
 10
10.8374530171
 20
8.761411093
 30
0.0
 10
10.8294514638
 20
8.7627814038
 30
0.0
 10
10.8215230718
 20
8.7646849841
 30
0.0
 10
10.8137044626
 20
8.7671122677
 30
0.0
 10
10.8060307103
 20
8.7700516603
 30
0.0
 10
10.7985363462
 20
8.7734888679
 30
0.0
 10
10.7912547134
 20
8.7774073366
 30
0.0
 10
10.7842179493
 20
8.7817883379
 30
0.0
 10
10.7774567999
 20
8.7866111142
 30
0.0
 10
10.771000506
 20
8.791853053
 30
0.0
 10
10.7648766538
 20
8.7974897977
 30
0.0
 10
10.759111081
 20
8.8034954285
 30
0.0
 10
10.7537278305
 20
8.809842654
 30
0.0
 10
10.7487490885
 20
8.8165029588
 30
0.0
 10
10.7441951414
 20
8.8234467556
 30
0.0
 10
10.7400842874
 20
8.830643499
 30
0.0
 10
10.7364328746
 20
8.8380618696
 30
0.0
 10
10.7332552883
 20
8.8456698945
 30
0.0
 10
10.7305639606
 20
8.8534350722
 30
0.0
 10
10.7283693073
 20
8.8613244637
 30
0.0
 10
10.7266797598
 20
8.8693048182
 30
0.0
 10
10.7255018004
 20
8.877342677
 30
0.0
 10
10.7248399699
 20
8.8854044619
 30
0.0
 10
10.724696833
 20
8.893456559
 30
0.0
 10
10.7250729572
 20
8.9014654142
 30
0.0
 10
10.7259669761
 20
8.9093976225
 30
0.0
 10
10.7273755741
 20
8.9172200052
 30
0.0
 10
10.7292934806
 20
8.9248997089
 30
0.0
 10
10.7317133671
 20
8.932404271
 30
0.0
 10
10.7346260359
 20
8.9397018852
 30
0.0
 10
10.7380199593
 20
8.9467608357
 30
0.0
 10
10.7405982978
 20
8.9512936587
 30
0.0
 10
10.7419623488
 20
8.9535087854
 30
0.0
  0
SPLINE
  5
348
100
AcDbEntity
  8
0
100
AcDbSpline
 62
7
  6
CONTINUOUS
 70
0
 71
3
 72
23
 73
19
 74
0
 42
0.0000001
 43
0.0000001
 44
0.0000000001
 40
0.0
 40
0.0
 40
0.0
 40
0.0
 40
0.0620114631
 40
0.1239249757
 40
0.1857760728
 40
0.2476017235
 40
0.3094396402
 40
0.3713276484
 40
0.4333030134
 40
0.4954016988
 40
0.557657607
 40
0.620102004
 40
0.6827627812
 40
0.7456641798
 40
0.8088262961
 40
0.8722622734
 40
0.9359882113
 40
1.0
 40
1.0
 40
1.0
 40
1.0
 10
10.9490597156
 20
8.8130373514
 30
0.0
 10
10.9477371383
 20
8.8108895752
 30
0.0
 10
10.9449482728
 20
8.8066852151
 30
0.0
 10
10.9403498453
 20
8.8006819511
 30
0.0
 10
10.935356984
 20
8.7950120343
 30
0.0
 10
10.9299892318
 20
8.789700102
 30
0.0
 10
10.9242675737
 20
8.7847690231
 30
0.0
 10
10.9182147499
 20
8.7802403952
 30
0.0
 10
10.9118550672
 20
8.7761342746
 30
0.0
 10
10.9052143583
 20
8.7724690986
 30
0.0
 10
10.898319924
 20
8.7692614758
 30
0.0
 10
10.8912004073
 20
8.7665260823
 30
0.0
 10
10.8838856493
 20
8.7642755709
 30
0.0
 10
10.8764065279
 20
8.7625204848
 30
0.0
 10
10.8687949557
 20
8.7612691848
 30
0.0
 10
10.8610832359
 20
8.7605274721
 30
0.0
 10
10.8533051274
 20
8.760299198
 30
0.0
 10
10.8481084386
 20
8.7604895797
 30
0.0
 10
10.8455109826
 20
8.7606697138
 30
0.0
  0
SPLINE
  5
349
100
AcDbEntity
  8
0
100
AcDbSpline
 62
7
  6
CONTINUOUS
 70
0
 71
3
 72
54
 73
50
 74
0
 42
0.0000001
 43
0.0000001
 44
0.0000000001
 40
0.0
 40
0.0
 40
0.0
 40
0.0
 40
0.0095822273
 40
0.0187372185
 40
0.0274871819
 40
0.035859765
 40
0.0515977889
 40
0.0590555803
 40
0.0662982983
 40
0.0733794635
 40
0.0803567208
 40
0.0872905371
 40
0.0942426171
 40
0.1012741388
 40
0.1084440685
 40
0.1158077003
 40
0.1234157401
 40
0.1313135413
 40
0.1395410807
 40
0.1481330115
 40
0.1571188616
 40
0.1665237243
 40
0.1763684224
 40
0.1866701818
 40
0.1974430944
 40
0.208698266
 40
0.2204445386
 40
0.2326884814
 40
0.2454347664
 40
0.258686547
 40
0.2724452901
 40
0.2867113279
 40
0.301483763
 40
0.3325374411
 40
0.3655814066
 40
0.4005761908
 40
0.437471444
 40
0.4762074098
 40
0.5167161537
 40
0.5589224948
 40
0.6027447509
 40
0.6480953336
 40
0.6948814082
 40
0.7430053452
 40
0.7923652918
 40
0.8428556327
 40
0.8943662074
 40
0.9467873312
 40
1.0
 40
1.0
 40
1.0
 40
1.0
 10
13.363225896
 20
6.5082605101
 30
0.0
 10
13.3621336285
 20
6.5072439984
 30
0.0
 10
13.3599499735
 20
6.5053066906
 30
0.0
 10
13.3565997421
 20
6.5026396488
 30
0.0
 10
13.3532524944
 20
6.5002810806
 30
0.0
 10
13.3488881918
 20
6.4976059012
 30
0.0
 10
13.3444357648
 20
6.4954698817
 30
0.0
 10
13.3399360273
 20
6.4939652369
 30
0.0
 10
13.3366334537
 20
6.4931724396
 30
0.0
 10
13.3333459762
 20
6.4926966493
 30
0.0
 10
13.3300758962
 20
6.4925385082
 30
0.0
 10
13.3268259468
 20
6.4926985848
 30
0.0
 10
13.3235988629
 20
6.4931766163
 30
0.0
 10
13.32039733
 20
6.4939721378
 30
0.0
 10
13.3172238339
 20
6.4950841323
 30
0.0
 10
13.3140805313
 20
6.4965112035
 30
0.0
 10
13.3109694303
 20
6.4982520007
 30
0.0
 10
13.3078921897
 20
6.5003048107
 30
0.0
 10
13.3048504223
 20
6.5026680505
 30
0.0
 10
13.3018456743
 20
6.5053400556
 30
0.0
 10
13.2988793501
 20
6.508318995
 30
0.0
 10
13.2959530358
 20
6.5116031105
 30
0.0
 10
13.2930681707
 20
6.5151903769
 30
0.0
 10
13.2902262804
 20
6.5190786996
 30
0.0
 10
13.2874289639
 20
6.5232658508
 30
0.0
 10
13.284677673
 20
6.527749351
 30
0.0
 10
13.281974037
 20
6.5325266427
 30
0.0
 10
13.2793195637
 20
6.5375949288
 30
0.0
 10
13.2767157557
 20
6.5429512473
 30
0.0
 10
13.2741642011
 20
6.5485924947
 30
0.0
 10
13.2716663172
 20
6.5545153323
 30
0.0
 10
13.2692235934
 20
6.5607163086
 30
0.0
 10
13.2659881588
 20
6.5694970724
 30
0.0
 10
13.2621065169
 20
6.5811523966
 30
0.0
 10
13.2577647903
 20
6.5959620874
 30
0.0
 10
13.2536754168
 20
6.6117845099
 30
0.0
 10
13.2498482025
 20
6.6285822723
 30
0.0
 10
13.2462923523
 20
6.6463158584
 30
0.0
 10
13.2430164381
 20
6.6649433442
 30
0.0
 10
13.2400283669
 20
6.6844206473
 30
0.0
 10
13.2373353603
 20
6.7047015998
 30
0.0
 10
13.2349439048
 20
6.7257380773
 30
0.0
 10
13.2328597704
 20
6.7474801205
 30
0.0
 10
13.2310879853
 20
6.769876081
 30
0.0
 10
13.2296328341
 20
6.7928727626
 30
0.0
 10
13.2284978558
 20
6.8164153812
 30
0.0
 10
13.2276857283
 20
6.840448257
 30
0.0
 10
13.2271985194
 20
6.864913823
 30
0.0
 10
13.2270917803
 20
6.8813627803
 30
0.0
 10
13.2270917803
 20
6.8896487766
 30
0.0
  0
SPLINE
  5
34A
100
AcDbEntity
  8
0
100
AcDbSpline
 62
7
  6
CONTINUOUS
 70
0
 71
3
 72
23
 73
19
 74
0
 42
0.0000001
 43
0.0000001
 44
0.0000000001
 40
0.0
 40
0.0
 40
0.0
 40
0.0
 40
0.0615756458
 40
0.1234925436
 40
0.1857221852
 40
0.2482266293
 40
0.3109609038
 40
0.3738732356
 40
0.4369070613
 40
0.5000024279
 40
0.5630977057
 40
0.6261312593
 40
0.6890431424
 40
0.7517767601
 40
0.8142804614
 40
0.8765090283
 40
0.9384250294
 40
1.0
 40
1.0
 40
1.0
 40
1.0
 10
10.8508262258
 20
9.5018070073
 30
0.0
 10
10.8510584319
 20
9.4996102282
 30
0.0
 10
10.8517141914
 20
9.4952223071
 30
0.0
 10
10.8532557118
 20
9.4887326065
 30
0.0
 10
10.855346398
 20
9.4823629651
 30
0.0
 10
10.8579702843
 20
9.4761622116
 30
0.0
 10
10.8611074261
 20
9.470177047
 30
0.0
 10
10.8647340472
 20
9.4644527564
 30
0.0
 10
10.8688226719
 20
9.4590325905
 30
0.0
 10
10.8733423629
 20
9.4539575239
 30
0.0
 10
10.8782589363
 20
9.449265927
 30
0.0
 10
10.8835352248
 20
9.4449932882
 30
0.0
 10
10.8891313428
 20
9.4411719428
 30
0.0
 10
10.8950050047
 20
9.4378308262
 30
0.0
 10
10.9011117697
 20
9.4349952751
 30
0.0
 10
10.9074056476
 20
9.4326867904
 30
0.0
 10
10.9138384101
 20
9.4309230449
 30
0.0
 10
10.9182011299
 20
9.4301167859
 30
0.0
 10
10.9203886027
 20
9.4298091923
 30
0.0
  0
SPLINE
  5
34B
100
AcDbEntity
  8
0
100
AcDbSpline
 62
7
  6
CONTINUOUS
 70
0
 71
3
 72
23
 73
19
 74
0
 42
0.0000001
 43
0.0000001
 44
0.0000000001
 40
0.0
 40
0.0
 40
0.0
 40
0.0
 40
0.0615756458
 40
0.1234925436
 40
0.1857221852
 40
0.2482266293
 40
0.3109609038
 40
0.3738732356
 40
0.4369070613
 40
0.5000024279
 40
0.5630977057
 40
0.6261312593
 40
0.6890431424
 40
0.7517767601
 40
0.8142804614
 40
0.8765090283
 40
0.9384250294
 40
1.0
 40
1.0
 40
1.0
 40
1.0
 10
8.6320945377
 20
6.9993803928
 30
0.0
 10
8.6323267438
 20
6.9971836137
 30
0.0
 10
8.6329825033
 20
6.9927956926
 30
0.0
 10
8.6345240237
 20
6.986305992
 30
0.0
 10
8.6366147099
 20
6.9799363506
 30
0.0
 10
8.6392385961
 20
6.9737355971
 30
0.0
 10
8.6423757379
 20
6.9677504325
 30
0.0
 10
8.6460023591
 20
6.9620261419
 30
0.0
 10
8.6500909838
 20
6.956605976
 30
0.0
 10
8.6546106748
 20
6.9515309094
 30
0.0
 10
8.6595272482
 20
6.9468393125
 30
0.0
 10
8.6648035367
 20
6.9425666737
 30
0.0
 10
8.6703996546
 20
6.9387453283
 30
0.0
 10
8.6762733166
 20
6.9354042117
 30
0.0
 10
8.6823800816
 20
6.9325686606
 30
0.0
 10
8.6886739595
 20
6.9302601759
 30
0.0
 10
8.6951067219
 20
6.9284964303
 30
0.0
 10
8.6994694417
 20
6.9276901714
 30
0.0
 10
8.7016569145
 20
6.9273825778
 30
0.0
  0
SPLINE
  5
34C
100
AcDbEntity
  8
0
100
AcDbSpline
 62
7
  6
CONTINUOUS
 70
0
 71
3
 72
41
 73
37
 74
0
 42
0.0000001
 43
0.0000001
 44
0.0000000001
 40
0.0
 40
0.0
 40
0.0
 40
0.0
 40
0.0063160019
 40
0.0126709115
 40
0.0191028735
 40
0.025648536
 40
0.0323425365
 40
0.0392170229
 40
0.0536151005
 40
0.0611959825
 40
0.0690578657
 40
0.085691147
 40
0.1036393496
 40
0.1229893511
 40
0.1438021707
 40
0.1661180724
 40
0.1899608479
 40
0.2153408109
 40
0.2422571426
 40
0.2706999484
 40
0.3006515231
 40
0.3320873635
 40
0.3649772499
 40
0.399285806
 40
0.4349729565
 40
0.4719946009
 40
0.510302896
 40
0.5498464805
 40
0.5905709594
 40
0.6324190812
 40
0.6753308783
 40
0.7192440038
 40
0.7640939069
 40
0.8098141327
 40
0.9035872209
 40
1.0
 40
1.0
 40
1.0
 40
1.0
 10
13.2956994336
 20
6.4638218998
 30
0.0
 10
13.2947495484
 20
6.4638877753
 30
0.0
 10
13.2928484142
 20
6.4640976684
 30
0.0
 10
13.2900180165
 20
6.4646447873
 30
0.0
 10
13.2872065478
 20
6.4654241827
 30
0.0
 10
13.2844156315
 20
6.4664351673
 30
0.0
 10
13.2816463756
 20
6.4676772099
 30
0.0
 10
13.277928026
 20
6.4696704778
 30
0.0
 10
13.2743106353
 20
6.4721104637
 30
0.0
 10
13.2708098999
 20
6.4749381214
 30
0.0
 10
13.2672168287
 20
6.4781777048
 30
0.0
 10
13.2628007462
 20
6.482822277
 30
0.0
 10
13.2577219685
 20
6.4891817831
 30
0.0
 10
13.2527730195
 20
6.4964189712
 30
0.0
 10
13.2479607669
 20
6.5045221999
 30
0.0
 10
13.2432918781
 20
6.5134791378
 30
0.0
 10
13.2387734708
 20
6.5232758113
 30
0.0
 10
13.2344126217
 20
6.5338967766
 30
0.0
 10
13.2302162933
 20
6.5453250655
 30
0.0
 10
13.226191348
 20
6.557542296
 30
0.0
 10
13.2223444157
 20
6.5705286782
 30
0.0
 10
13.2186818213
 20
6.584263062
 30
0.0
 10
13.2152096635
 20
6.5987230201
 30
0.0
 10
13.2119337308
 20
6.6138848766
 30
0.0
 10
13.208859443
 20
6.6297237482
 30
0.0
 10
13.2059919371
 20
6.6462136168
 30
0.0
 10
13.2033360087
 20
6.6633273663
 30
0.0
 10
13.2008960527
 20
6.6810368239
 30
0.0
 10
13.198676147
 20
6.6993128259
 30
0.0
 10
13.1966800104
 20
6.7181252647
 30
0.0
 10
13.1949109403
 20
6.7374431306
 30
0.0
 10
13.1933719005
 20
6.7572345653
 30
0.0
 10
13.1920654429
 20
6.7774669808
 30
0.0
 10
13.1906245039
 20
6.8052208273
 30
0.0
 10
13.189432625
 20
6.8407682793
 30
0.0
 10
13.1891246942
 20
6.8694407093
 30
0.0
 10
13.1891246942
 20
6.8839753854
 30
0.0
  0
SPLINE
  5
34D
100
AcDbEntity
  8
0
100
AcDbSpline
 62
7
  6
CONTINUOUS
 70
0
 71
3
 72
41
 73
37
 74
0
 42
0.0000001
 43
0.0000001
 44
0.0000000001
 40
0.0
 40
0.0
 40
0.0
 40
0.0
 40
0.0063160027
 40
0.0126709123
 40
0.0191028736
 40
0.025648535
 40
0.0323425337
 40
0.039217018
 40
0.0536150902
 40
0.061195969
 40
0.0690578489
 40
0.0856911232
 40
0.1036393187
 40
0.1229893131
 40
0.1438021261
 40
0.1661180215
 40
0.1899607915
 40
0.2153407496
 40
0.2422570772
 40
0.2706998797
 40
0.3006514519
 40
0.3320872906
 40
0.3649771763
 40
0.3992857324
 40
0.4349728838
 40
0.4719945299
 40
0.5103028274
 40
0.5498464152
 40
0.5905708981
 40
0.6324190246
 40
0.6753308269
 40
0.7192439583
 40
0.7640938679
 40
0.8098141007
 40
0.9035872042
 40
1.0
 40
1.0
 40
1.0
 40
1.0
 10
12.2689202911
 20
6.5350292752
 30
0.0
 10
12.2679704055
 20
6.5350951492
 30
0.0
 10
12.2660692707
 20
6.5353050395
 30
0.0
 10
12.2632388718
 20
6.5358521542
 30
0.0
 10
12.2604274018
 20
6.5366315456
 30
0.0
 10
12.2576364844
 20
6.5376425264
 30
0.0
 10
12.2548672272
 20
6.5388845652
 30
0.0
 10
12.2511488761
 20
6.5408778283
 30
0.0
 10
12.2475314837
 20
6.5433178098
 30
0.0
 10
12.2440307466
 20
6.5461454635
 30
0.0
 10
12.2404376738
 20
6.5493850428
 30
0.0
 10
12.2360215891
 20
6.5540296105
 30
0.0
 10
12.2309428089
 20
6.5603891118
 30
0.0
 10
12.2259938575
 20
6.5676262957
 30
0.0
 10
12.2211816025
 20
6.5757295209
 30
0.0
 10
12.2165127113
 20
6.5846864557
 30
0.0
 10
12.2119943017
 20
6.5944831268
 30
0.0
 10
12.2076334503
 20
6.6051040904
 30
0.0
 10
12.2034371198
 20
6.616532378
 30
0.0
 10
12.1994121723
 20
6.6287496079
 30
0.0
 10
12.1955652379
 20
6.64173599
 30
0.0
 10
12.1919026415
 20
6.6554703743
 30
0.0
 10
12.1884304818
 20
6.6699303334
 30
0.0
 10
12.1851545473
 20
6.6850921913
 30
0.0
 10
12.1820802577
 20
6.700931065
 30
0.0
 10
12.1792127503
 20
6.7174209362
 30
0.0
 10
12.1765568203
 20
6.7345346887
 30
0.0
 10
12.1741168629
 20
6.7522441496
 30
0.0
 10
12.171896956
 20
6.7705201556
 30
0.0
 10
12.1699008182
 20
6.7893325986
 30
0.0
 10
12.168131747
 20
6.8086504691
 30
0.0
 10
12.1665927063
 20
6.8284419088
 30
0.0
 10
12.1652862479
 20
6.8486743297
 30
0.0
 10
12.1638453081
 20
6.8764281838
 30
0.0
 10
12.1626534285
 20
6.9119756459
 30
0.0
 10
12.1623454975
 20
6.9406480842
 30
0.0
 10
12.1623454975
 20
6.9551827645
 30
0.0
  0
SPLINE
  5
34E
100
AcDbEntity
  8
0
100
AcDbSpline
 62
7
  6
CONTINUOUS
 70
0
 71
3
 72
8
 73
4
 74
0
 42
0.0000001
 43
0.0000001
 44
0.0000000001
 40
0.0
 40
0.0
 40
0.0
 40
0.0
 40
1.0
 40
1.0
 40
1.0
 40
1.0
 10
13.4326967006
 20
7.4350058148
 30
0.0
 10
13.4327214711
 20
7.4350114524
 30
0.0
 10
13.4327462415
 20
7.4350170901
 30
0.0
 10
13.4327710119
 20
7.4350227278
 30
0.0
  0
SPLINE
  5
34F
100
AcDbEntity
  8
0
100
AcDbSpline
 62
7
  6
CONTINUOUS
 70
0
 71
3
 72
15
 73
11
 74
0
 42
0.0000001
 43
0.0000001
 44
0.0000000001
 40
0.0
 40
0.0
 40
0.0
 40
0.0
 40
0.1273482789
 40
0.2538606571
 40
0.3795878378
 40
0.5046051156
 40
0.629017439
 40
0.7529533823
 40
0.8765605864
 40
1.0
 40
1.0
 40
1.0
 40
1.0
 10
11.5921719391
 20
6.719012074
 30
0.0
 10
11.5921719391
 20
6.725510399
 30
0.0
 10
11.5927923998
 20
6.7384733781
 30
0.0
 10
11.5955983312
 20
6.7576685242
 30
0.0
 10
11.6002510528
 20
6.7763813779
 30
0.0
 10
11.6067085356
 20
6.7944369292
 30
0.0
 10
11.6149115552
 20
6.8116686708
 30
0.0
 10
11.6247852804
 20
6.8279175053
 30
0.0
 10
11.6362369027
 20
6.8430311798
 30
0.0
 10
11.6448594024
 20
6.8522634876
 30
0.0
 10
11.649389874
 20
6.8566396171
 30
0.0
  0
SPLINE
  5
350
100
AcDbEntity
  8
0
100
AcDbSpline
 62
7
  6
CONTINUOUS
 70
0
 71
3
 72
11
 73
7
 74
0
 42
0.0000001
 43
0.0000001
 44
0.0000000001
 40
0.0
 40
0.0
 40
0.0
 40
0.0
 40
0.2464589102
 40
0.494350222
 40
0.7450792109
 40
1.0
 40
1.0
 40
1.0
 40
1.0
 10
13.5560595009
 20
8.9919977075
 30
0.0
 10
13.5573430006
 20
8.9919086939
 30
0.0
 10
13.5599115303
 20
8.9916281803
 30
0.0
 10
13.563736642
 20
8.9909026214
 30
0.0
 10
13.5675368818
 20
8.9898724602
 30
0.0
 10
13.570028187
 20
8.9889916426
 30
0.0
 10
13.5712661698
 20
8.9885034726
 30
0.0
  0
ENDSEC
  0
SECTION
  2
OBJECTS
  0
DICTIONARY
  5
C
100
AcDbDictionary
280
0
281
1
  3
ACAD_GROUP
350
D
  3
ACAD_MLINESTYLE
350
17
  3
ACAD_LAYOUT
350
1A
  3
ACAD_PLOTSETTINGS
350
19
  3
ACAD_PLOTSTYLENAME
350
E
  3
ACAD_IMAGE_DICT
350
       352
  3
ACAD_IMAGE_VARS
350
       353
  3
ACAD_TABLESTYLE
350
       354
  0
IMAGEDEF_REACTOR
  5
351
100
AcDbRasterImageDefReactor
 90
2
330
26D
  0
DICTIONARY
  5
D
102
{ACAD_REACTORS
330
C
102
}
100
AcDbDictionary
280
0
281
1
  0
ACDBDICTIONARYWDFLT
  5
E
102
{ACAD_REACTORS
330
C
102
}
100
AcDbDictionary
281
1
  3
Normal
350
F
100
AcDbDictionaryWithDefault
340
F
  0
DICTIONARY
  5
352
330
C
100
AcDbDictionary
281
1
  3
BK5_assy_2_img_1
350
       357
  0
RASTERVARIABLES
  5
353
330
C
100
AcDbRasterVariables
 90
0
 70
0
 71
1
 72
5
  0
DICTIONARY
  5
17
102
{ACAD_REACTORS
330
C
102
}
100
AcDbDictionary
280
0
281
1
  3
Standard
350
18
  0
DICTIONARY
  5
354
330
C
100
AcDbDictionary
281
1
  3
Standard
350
       358
  3
Standard1
350
       359
  0
DICTIONARY
  5
19
102
{ACAD_REACTORS
330
C
102
}
100
AcDbDictionary
281
1
  0
DICTIONARY
  5
1A
102
{ACAD_REACTORS
330
C
102
}
100
AcDbDictionary
281
1
  3
Model
350
355
  3
Layout1
350
356
  0
ACDBPLACEHOLDER
  5
F
102
{ACAD_REACTORS
330
E
102
}
  0
MLINESTYLE
  5
18
102
{ACAD_REACTORS
330
17
102
}
100
AcDbMlineStyle
  2
STANDARD
 70
0
  3

 62
256
 51
90.0
 52
90.0
 71
2
 49
0.5
 62
256
  6
BYLAYER
 49
-0.5
 62
256
  6
BYLAYER
  0
LAYOUT
  5
355
102
{ACAD_REACTORS
330
1A
102
}
100
AcDbPlotSettings
  1

  2
none_device
  4
ANSI_C_(22.00_x_17.00_Inches)
  6

 40
0.0
 41
0.0
 42
0.0
 43
0.0
 44
558.8
 45
431.8
 46
0.0
 47
0.0
 48
0.0
 49
0.0
140
0.0
141
0.0
142
1.0
143
1.0
 70
1024
 72
0
 73
0
 74
0
  7

 75
0
147
1.0
148
0.0
149
0.0
100
AcDbLayout
  1
Model
 70
0
 71
0
 10
0.0
 20
0.0
 11
22.0
 21
17.0
 12
0.0
 22
0.0
 32
0.0
 14
0.0
 24
0.0
 34
0.0
 15
0.0
 25
0.0
 35
0.0
146
0.0
 13
0.0
 23
0.0
 33
0.0
 16
1.0
 26
0.0
 36
0.0
 17
0.0
 27
1.0
 37
0.0
 76
0
330
207
345
0
346
0
  0
LAYOUT
  5
356
102
{ACAD_REACTORS
330
1A
102
}
100
AcDbPlotSettings
  1

  2
none_device
  4
ANSI_C_(22.00_x_17.00_Inches)
  6

 40
0.0
 41
0.0
 42
0.0
 43
0.0
 44
558.8
 45
431.8
 46
0.0
 47
0.0
 48
0.0
 49
0.0
140
0.0
141
0.0
142
1.0
143
1.0
 70
0
 72
0
 73
0
 74
0
  7

 75
0
147
1.0
148
0.0
149
0.0
100
AcDbLayout
  1
Layout1
 70
0
 71
1
 10
0.0
 20
0.0
 11
22.0
 21
17.0
 12
0.0
 22
0.0
 32
0.0
 14
0.0
 24
0.0
 34
0.0
 15
0.0
 25
0.0
 35
0.0
146
0.0
 13
0.0
 23
0.0
 33
0.0
 16
1.0
 26
0.0
 36
0.0
 17
0.0
 27
1.0
 37
0.0
 76
0
330
208
345
0
346
0
  0
IMAGEDEF
  5
357
102
{ACAD_REACTORS
330
352
330
351
102
}
100
AcDbRasterImageDef
 90
0
  1
BK5_assy_2_img_1.png
 10
369.0
 20
92.0
 11
0.0066666667
 21
0.0066666667
280
1
281
0
  0
TABLESTYLE
  5
358
102
{ACAD_REACTORS
330
354
330
270
102
}
330
354
100
AcDbTableStyle
  3
Standard
 70
0
 71
0
 40
0.06
 41
0.06
280
1
281
1
  7
Standard
140
0.18
170
1
 62
0
 63
7
283
0
  7
Standard
140
0.18
170
1
 62
0
 63
7
283
0
  7
Standard
140
0.18
170
1
 62
0
 63
7
283
0
  0
TABLESTYLE
  5
359
102
{ACAD_REACTORS
330
354
330
26F
102
}
330
354
100
AcDbTableStyle
  3
Standard1
 70
1
 71
0
 40
0.06
 41
0.06
280
1
281
1
  7
Standard
140
0.18
170
1
 62
0
 63
7
283
0
  7
Standard
140
0.18
170
1
 62
0
 63
7
283
0
  7
Standard
140
0.18
170
1
 62
0
 63
7
283
0
  0
ENDSEC
  0
EOF
