999
DXF file: BK4_assy_2.dxf
999
Pro/ENGINEER 2014200 by Parametric Technology Corporation
  0
SECTION
  2
HEADER
  9
$ACADVER
  1
AC1021
  9
$DWGCODEPAGE
  3
ANSI_1252
  9
$EXTMAX
 10
22.0
 20
17.0
 30
0.0
  9
$EXTMIN
 10
0.0
 20
0.0
 30
0.0
  9
$LIMMIN
 10
0.0
 20
0.0
  9
$LIMMAX
 10
22.0
 20
17.0
  9
$VIEWCTR
 10
11.0
 20
8.5
  9
$VIEWSIZE
 40
17.0
  9
$CLAYER
  8
0
  9
$LTSCALE
 40
1.21
  9
$CELTYPE
  6
BYLAYER
  9
$DIMSCALE
 40
1.0
  9
$DIMASZ
 40
0.1875
  9
$DIMEXO
 40
0.0625
  9
$DIMDLI
 40
0.836
  9
$DIMEXE
 40
0.125
  9
$DIMCEN
 40
0.198
  9
$DIMLFAC
 40
1.0
  9
$DIMBLK
  1
_FILLED
  9
$DIMTXT
 40
0.1
  9
$DIMTOL
 70
0
  9
$DIMLIM
 70
0
  9
$DIMTFAC
 40
1.0
  9
$DIMGAP
 40
0.09
  9
$DIMDSEP
 70
46
  9
$AUNITS
 70
0
  9
$PDMODE
 70
3
  9
$PDSIZE
 40
0.3125
  9
$HANDSEED
  5
333
  9
$TILEMODE
 70
1
  9
$MEASUREMENT
 70
0
  9
$INSUNITS
 70
1
  0
ENDSEC
  0
SECTION
  2
CLASSES
  0
CLASS
  1
ACDBDICTIONARYWDFLT
  2
AcDbDictionaryWithDefault
  3
AutoCAD 2000
 90
0
 91
1
280
0
281
0
  0
CLASS
  1
ACDBPLACEHOLDER
  2
AcDbPlaceHolder
  3
AutoCAD 2000
 90
0
 91
1
280
0
281
0
  0
CLASS
  1
LAYOUT
  2
AcDbLayout
  3
AutoCAD 2000
 90
0
 91
0
280
0
281
0
  0
CLASS
  1
RASTERVARIABLES
  2
AcDbRasterVariables
  3
ISM
 90
0
 91
1
280
0
281
0
  0
CLASS
  1
IMAGEDEF
  2
AcDbRasterImageDef
  3
ISM
 90
0
 91
1
280
0
281
0
  0
CLASS
  1
IMAGEDEF_REACTOR
  2
AcDbRasterImageDefReactor
  3
ISM
 90
0
 91
1
280
0
281
0
  0
CLASS
  1
IMAGE
  2
AcDbRasterImage
  3
ISM
 90
127
 91
1
280
0
281
1
  0
CLASS
  1
TABLESTYLE
  2
AcDbTableStyle
  3
ObjectDBX Classes
 90
2047
 91
1
280
0
281
0
  0
CLASS
  1
ACAD_TABLE
  2
AcDbTable
  3
ObjectDBX Classes
 90
1025
 91
2
280
0
281
1
  0
ENDSEC
  0
SECTION
  2
TABLES
  0
TABLE
  2
VPORT
  5
8
100
AcDbSymbolTable
 70
2
  0
VPORT
  5
1F4
100
AcDbSymbolTableRecord
100
AcDbViewportTableRecord
  2
*ACTIVE
 70
0
 10
0.0
 20
0.0
 11
1.0
 21
1.0
 12
11.0
 22
8.5
 13
0.0
 23
0.0
 14
1.0
 24
1.0
 15
0.0
 25
0.0
 16
0.0
 26
0.0
 36
1.0
 17
0.0
 27
0.0
 37
0.0
 40
17.0
 41
1.2941176471
 42
50.0
 43
0.0
 44
0.0
 50
0.0
 51
0.0
 71
0
 72
100
 73
1
 74
1
 75
0
 76
0
 77
0
 78
0
  0
ENDTAB
  0
TABLE
  2
LTYPE
  5
5
100
AcDbSymbolTable
 70
6
  0
LTYPE
  5
14
100
AcDbSymbolTableRecord
100
AcDbLinetypeTableRecord
  2
BYBLOCK
 70
0
  3

 72
65
 73
0
 40
0.0
  0
LTYPE
  5
15
100
AcDbSymbolTableRecord
100
AcDbLinetypeTableRecord
  2
BYLAYER
 70
0
  3

 72
65
 73
0
 40
0.0
  0
LTYPE
  5
16
100
AcDbSymbolTableRecord
100
AcDbLinetypeTableRecord
  2
CONTINUOUS
 70
64
  3
Solid line
 72
65
 73
0
 40
0.0
  0
LTYPE
  5
1F5
100
AcDbSymbolTableRecord
100
AcDbLinetypeTableRecord
  2
CENTER
 70
64
  3
____ _ ____ _ ____ _ ____ _ ____ _ ____ _ ____
 72
65
 73
4
 40
0.6
 49
0.375
 74
0
 49
-0.075
 74
0
 49
0.075
 74
0
 49
-0.075
 74
0
  0
LTYPE
  5
1F6
100
AcDbSymbolTableRecord
100
AcDbLinetypeTableRecord
  2
HIDDEN
 70
64
  3
- - - - - - - - - - - - - - - - - - - -
 72
65
 73
2
 40
0.2
 49
0.1
 74
0
 49
-0.1
 74
0
  0
LTYPE
  5
1F7
100
AcDbSymbolTableRecord
100
AcDbLinetypeTableRecord
  2
PHANTOM
 70
64
  3
_____ _ _ _____ _ _ _____ _ _ _____
 72
65
 73
6
 40
0.8
 49
0.45
 74
0
 49
-0.05
 74
0
 49
0.1
 74
0
 49
-0.05
 74
0
 49
0.1
 74
0
 49
-0.05
 74
0
  0
LTYPE
  5
1F8
100
AcDbSymbolTableRecord
100
AcDbLinetypeTableRecord
  2
DOT
 70
64
  3
. . . . . . . . . . . . . . . . . . . .
 72
65
 73
2
 40
0.2
 49
0.1
 74
0
 49
-0.1
 74
0
  0
LTYPE
  5
1F9
100
AcDbSymbolTableRecord
100
AcDbLinetypeTableRecord
  2
DASHED
 70
64
  3
- - - - - - - - - - - - - - - - - - - -
 72
65
 73
2
 40
0.2
 49
0.1
 74
0
 49
-0.1
 74
0
  0
ENDTAB
  0
TABLE
  2
LAYER
  5
2
100
AcDbSymbolTable
 70
36
  0
LAYER
  5
10
100
AcDbSymbolTableRecord
100
AcDbLayerTableRecord
  2
0
 70
0
 62
7
  6
CONTINUOUS
370
-3
390
F
  0
LAYER
  5
1FA
100
AcDbSymbolTableRecord
100
AcDbLayerTableRecord
  2
DEFAULT_1
 70
0
 62
7
  6
CENTER
370
-3
390
F
  0
LAYER
  5
1FB
100
AcDbSymbolTableRecord
100
AcDbLayerTableRecord
  2
DEFAULT_2
 70
0
 62
8
  6
HIDDEN
370
-3
390
F
  0
LAYER
  5
1FC
100
AcDbSymbolTableRecord
100
AcDbLayerTableRecord
  2
DEFAULT_3
 70
0
 62
7
  6
PHANTOM
370
-3
390
F
  0
LAYER
  5
1FD
100
AcDbSymbolTableRecord
100
AcDbLayerTableRecord
  2
DATUM_PLANES
 70
0
 62
7
  6
CONTINUOUS
370
-3
390
F
  0
LAYER
  5
1FE
100
AcDbSymbolTableRecord
100
AcDbLayerTableRecord
  2
DIMENSIONS
 70
0
 62
7
  6
CONTINUOUS
370
-3
390
F
  0
LAYER
  5
1FF
100
AcDbSymbolTableRecord
100
AcDbLayerTableRecord
  2
PARAMETERDIMENSIONS
 70
0
 62
7
  6
CONTINUOUS
370
-3
390
F
  0
LAYER
  5
200
100
AcDbSymbolTableRecord
100
AcDbLayerTableRecord
  2
PORT_AREAS
 70
0
 62
7
  6
CONTINUOUS
370
-3
390
F
  0
LAYER
  5
201
100
AcDbSymbolTableRecord
100
AcDbLayerTableRecord
  2
SUNNBOMCOSMETIC
 70
0
 62
7
  6
CONTINUOUS
370
-3
390
F
  0
LAYER
  5
202
100
AcDbSymbolTableRecord
100
AcDbLayerTableRecord
  2
SUNNBOMSTAMPING
 70
0
 62
7
  6
CONTINUOUS
370
-3
390
F
  0
LAYER
  5
203
100
AcDbSymbolTableRecord
100
AcDbLayerTableRecord
  2
THREADS
 70
0
 62
7
  6
CONTINUOUS
370
-3
390
F
  0
ENDTAB
  0
TABLE
  2
STYLE
  5
3
100
AcDbSymbolTable
 70
1
  0
STYLE
  5
11
100
AcDbSymbolTableRecord
100
AcDbTextStyleTableRecord
  2
STANDARD
 70
0
 40
0.0
 41
0.8
 50
0.0
 71
0
 42
0.2
  3
txt
  4

  0
STYLE
  5
204
100
AcDbSymbolTableRecord
100
AcDbTextStyleTableRecord
  2
TEXTSTYLE_1
 70
0
 40
0.0
 41
0.8
 50
0.0
 71
0
 42
0.2
  3
gdt
  4

  0
ENDTAB
  0
TABLE
  2
VIEW
  5
6
100
AcDbSymbolTable
 70
0
  0
ENDTAB
  0
TABLE
  2
UCS
  5
7
100
AcDbSymbolTable
 70
0
  0
ENDTAB
  0
TABLE
  2
APPID
  5
9
100
AcDbSymbolTable
 70
1
  0
APPID
  5
205
100
AcDbSymbolTableRecord
100
AcDbRegAppTableRecord
  2
ACAD
 70
0
  0
ENDTAB
  0
TABLE
  2
BLOCK_RECORD
  5
1
100
AcDbSymbolTable
 70
0
  0
BLOCK_RECORD
  5
206
100
AcDbSymbolTableRecord
100
AcDbBlockTableRecord
  2
*Model_Space
  0
BLOCK_RECORD
  5
207
100
AcDbSymbolTableRecord
100
AcDbBlockTableRecord
  2
*Paper_Space
  0
BLOCK_RECORD
  5
208
100
AcDbSymbolTableRecord
100
AcDbBlockTableRecord
  2
SUN_FIRST_THIRD_ANGLE_BL0
  0
BLOCK_RECORD
  5
209
100
AcDbSymbolTableRecord
100
AcDbBlockTableRecord
  2
*T1
  0
BLOCK_RECORD
  5
20A
100
AcDbSymbolTableRecord
100
AcDbBlockTableRecord
  2
*T2
  0
ENDTAB
  0
TABLE
  2
DIMSTYLE
  5
A
100
AcDbSymbolTable
 70
1
100
AcDbDimStyleTable
 71
0
  0
DIMSTYLE
105
20B
100
AcDbSymbolTableRecord
100
AcDbDimStyleTableRecord
  2
STANDARD
 70
0
  3

  4

 40
1.0
 41
0.1875
 42
0.0625
 43
0.38
 44
0.125
 45
0.0
 46
0.0
 47
0.001
 48
0.001
140
0.1
141
0.09
142
0.0
143
25.4
144
1.0
145
0.0
146
1.0
147
0.09
 71
0.0
 72
0.0
 73
1
 74
1
 75
0
 76
0
 77
0
 78
4
170
0
171
2
172
0
173
0
174
0
175
0
176
0
177
0
178
0
270
2
271
3
272
3
273
2
274
2
275
0
280
0
281
0
282
0
283
1
284
4
285
0
286
0
287
3
288
0
340
11
278
46
  0
ENDTAB
  0
ENDSEC
  0
SECTION
  2
BLOCKS
  0
BLOCK
  5
20
100
AcDbEntity
  8
0
100
AcDbBlockBegin
  2
*Model_Space
 70
0
 10
0.0
 20
0.0
 30
0.0
  3
*Model_Space
  1

  0
ENDBLK
  5
21
100
AcDbEntity
  8
0
100
AcDbBlockEnd
  0
BLOCK
  5
1C
100
AcDbEntity
  8
0
100
AcDbBlockBegin
  2
*Paper_Space
 70
0
 10
0.0
 20
0.0
 30
0.0
  3
*Paper_Space
  1

  0
ENDBLK
  5
1D
100
AcDbEntity
  8
0
100
AcDbBlockEnd
  0
BLOCK
  5
20C
100
AcDbEntity
  8
0
100
AcDbBlockBegin
 62
2
  6
CONTINUOUS
  2
SUN_FIRST_THIRD_ANGLE_BL0
 70
64
 10
20.4816717061
 20
1.2289683772
  3
SUN_FIRST_THIRD_ANGLE_BL0
  1

  0
TEXT
  5
20D
100
AcDbEntity
  8
0
100
AcDbText
 62
2
  6
CONTINUOUS
 10
19.4750896608
 20
1.4136269581
  7
STANDARD
 40
0.08
  1
FIRST ANGLE
 41
0.8
 72
0
100
AcDbText
  0
TEXT
  5
20E
100
AcDbEntity
  8
0
100
AcDbText
 62
2
  6
CONTINUOUS
 10
20.7842537513
 20
1.4047600029
  7
STANDARD
 40
0.08
  1
THIRD ANGLE
 41
0.8
 72
0
100
AcDbText
  0
LINE
  5
20F
100
AcDbEntity
  8
0
100
AcDbLine
 62
7
  6
CONTINUOUS
 10
19.4767170086
 20
1.1727031207
 11
19.6334271527
 21
1.1717972817
  0
LINE
  5
210
100
AcDbEntity
  8
0
100
AcDbLine
 62
7
  6
CONTINUOUS
 10
19.6596964832
 20
1.1717972817
 11
19.6950230232
 21
1.171593082
  0
LINE
  5
211
100
AcDbEntity
  8
0
100
AcDbLine
 62
7
  6
CONTINUOUS
 10
19.7194818561
 20
1.1708914427
 11
19.8852396156
 21
1.1699333054
  0
LINE
  5
212
100
AcDbEntity
  8
0
100
AcDbLine
 62
7
  6
CONTINUOUS
 10
19.4758111696
 20
1.2723454088
 11
19.88525039
 21
1.3511534004
  0
LINE
  5
213
100
AcDbEntity
  8
0
100
AcDbLine
 62
7
  6
CONTINUOUS
 10
19.88525039
 20
1.3511534004
 11
19.8831348489
 21
0.9851647912
  0
LINE
  5
214
100
AcDbEntity
  8
0
100
AcDbLine
 62
7
  6
CONTINUOUS
 10
19.8831348489
 20
0.9851647912
 11
19.4767170086
 21
1.0658141206
  0
LINE
  5
215
100
AcDbEntity
  8
0
100
AcDbLine
 62
7
  6
CONTINUOUS
 10
19.4767170086
 20
1.0658141206
 11
19.4779056764
 21
1.2714536432
  0
CIRCLE
  5
216
100
AcDbEntity
  8
0
100
AcDbCircle
 62
7
  6
CONTINUOUS
 10
20.2068232291
 20
1.1717972817
 40
0.175742101
  0
CIRCLE
  5
217
100
AcDbEntity
  8
0
100
AcDbCircle
 62
7
  6
CONTINUOUS
 10
20.2068232291
 20
1.1717972817
 40
0.1005522074
  0
LINE
  5
218
100
AcDbEntity
  8
0
100
AcDbLine
 62
7
  6
CONTINUOUS
 10
20.2077290681
 20
1.3756110529
 11
20.2071171714
 21
1.2379342989
  0
LINE
  5
219
100
AcDbEntity
  8
0
100
AcDbLine
 62
7
  6
CONTINUOUS
 10
20.2077290681
 20
1.2016899681
 11
20.2074674401
 21
1.1428236749
  0
LINE
  5
21A
100
AcDbEntity
  8
0
100
AcDbLine
 62
7
  6
CONTINUOUS
 10
20.208634907
 20
1.101141841
 11
20.2080230104
 21
0.963465087
  0
LINE
  5
21B
100
AcDbEntity
  8
0
100
AcDbLine
 62
7
  6
CONTINUOUS
 10
20.0066328138
 20
1.1745147986
 11
20.1443095678
 21
1.1739029019
  0
LINE
  5
21C
100
AcDbEntity
  8
0
100
AcDbLine
 62
7
  6
CONTINUOUS
 10
20.1832714155
 20
1.1727031207
 11
20.238153505
 21
1.172335442
  0
LINE
  5
21D
100
AcDbEntity
  8
0
100
AcDbLine
 62
7
  6
CONTINUOUS
 10
20.2756669918
 20
1.1717972817
 11
20.407916871
 21
1.1712095044
  0
CIRCLE
  5
21E
100
AcDbEntity
  8
0
100
AcDbCircle
 62
7
  6
CONTINUOUS
 10
20.7509457401
 20
1.1693297793
 40
0.1722024983
  0
CIRCLE
  5
21F
100
AcDbEntity
  8
0
100
AcDbCircle
 62
7
  6
CONTINUOUS
 10
20.7509457401
 20
1.1693297793
 40
0.0985164967
  0
LINE
  5
220
100
AcDbEntity
  8
0
100
AcDbLine
 62
7
  6
CONTINUOUS
 10
20.7169767782
 20
1.170462078
 11
20.7825395137
 21
1.1682766535
  0
LINE
  5
221
100
AcDbEntity
  8
0
100
AcDbLine
 62
7
  6
CONTINUOUS
 10
20.8177513651
 20
1.1693297793
 11
20.947965719
 21
1.1693297793
  0
LINE
  5
222
100
AcDbEntity
  8
0
100
AcDbLine
 62
7
  6
CONTINUOUS
 10
20.6875370113
 20
1.170462078
 11
20.5573226574
 21
1.170462078
  0
LINE
  5
223
100
AcDbEntity
  8
0
100
AcDbLine
 62
7
  6
CONTINUOUS
 10
20.7486811426
 20
1.1987695462
 11
20.7486811426
 21
1.1432869085
  0
LINE
  5
224
100
AcDbEntity
  8
0
100
AcDbLine
 62
7
  6
CONTINUOUS
 10
20.7498134414
 20
1.1059210505
 11
20.7498134414
 21
0.9757066966
  0
LINE
  5
225
100
AcDbEntity
  8
0
100
AcDbLine
 62
7
  6
CONTINUOUS
 10
20.7486811426
 20
1.2338708068
 11
20.7486811426
 21
1.3640851607
  0
LINE
  5
226
100
AcDbEntity
  8
0
100
AcDbLine
 62
7
  6
CONTINUOUS
 10
21.0702539817
 20
1.2701043662
 11
21.4790138229
 21
1.3448360823
  0
LINE
  5
227
100
AcDbEntity
  8
0
100
AcDbLine
 62
7
  6
CONTINUOUS
 10
21.4790138229
 20
1.3448360823
 11
21.4790138229
 21
0.9779712941
  0
LINE
  5
228
100
AcDbEntity
  8
0
100
AcDbLine
 62
7
  6
CONTINUOUS
 10
21.4790138229
 20
0.9779712941
 11
21.069121683
 21
1.0617614
  0
LINE
  5
229
100
AcDbEntity
  8
0
100
AcDbLine
 62
7
  6
CONTINUOUS
 10
21.0702539817
 20
1.2701043662
 11
21.069121683
 21
1.0617614
  0
LINE
  5
22A
100
AcDbEntity
  8
0
100
AcDbLine
 62
7
  6
CONTINUOUS
 10
21.4790138229
 20
1.1693297793
 11
21.3159628059
 21
1.1693297793
  0
LINE
  5
22B
100
AcDbEntity
  8
0
100
AcDbLine
 62
7
  6
CONTINUOUS
 10
21.2876553377
 20
1.1693297793
 11
21.2502894796
 21
1.1693297793
  0
LINE
  5
22C
100
AcDbEntity
  8
0
100
AcDbLine
 62
7
  6
CONTINUOUS
 10
21.2208497126
 20
1.1659328831
 11
21.0713862804
 21
1.1659328831
  0
LINE
  5
22D
100
AcDbEntity
  8
0
100
AcDbLine
 62
7
  6
CONTINUOUS
 10
20.4796138713
 20
1.5284908897
 11
20.4766766948
 21
0.9294458646
  0
ENDBLK
  5
22E
100
AcDbEntity
  8
0
  6
BYBLOCK
 62
0
100
AcDbBlockEnd
  0
BLOCK
  5
22F
100
AcDbEntity
  8
0
100
AcDbBlockBegin
  2
*T1
 70
1
 10
0.0
 20
0.0
  3
*T1
  1

  0
LINE
  5
230
100
AcDbEntity
  8
0
100
AcDbLine
 62
2
  6
CONTINUOUS
 10
9.275
 20
0.0
 11
-0.0
 21
0.0
  0
LINE
  5
231
100
AcDbEntity
  8
0
100
AcDbLine
 62
2
  6
CONTINUOUS
 10
9.275
 20
0.0
 11
9.275
 21
1.25
  0
LINE
  5
232
100
AcDbEntity
  8
0
100
AcDbLine
 62
2
  6
CONTINUOUS
 10
9.275
 20
0.625
 11
-0.0
 21
0.625
  0
LINE
  5
233
100
AcDbEntity
  8
0
100
AcDbLine
 62
2
  6
CONTINUOUS
 10
9.275
 20
1.25
 11
-0.0
 21
1.25
  0
LINE
  5
234
100
AcDbEntity
  8
0
100
AcDbLine
 62
2
  6
CONTINUOUS
 10
6.8
 20
0.0
 11
6.8
 21
1.25
  0
LINE
  5
235
100
AcDbEntity
  8
0
100
AcDbLine
 62
2
  6
CONTINUOUS
 10
6.4
 20
0.0
 11
6.4
 21
0.625
  0
LINE
  5
236
100
AcDbEntity
  8
0
100
AcDbLine
 62
2
  6
CONTINUOUS
 10
5.9
 20
0.0
 11
5.9
 21
0.625
  0
LINE
  5
237
100
AcDbEntity
  8
0
100
AcDbLine
 62
2
  6
CONTINUOUS
 10
5.2
 20
0.0
 11
5.2
 21
0.625
  0
LINE
  5
238
100
AcDbEntity
  8
0
100
AcDbLine
 62
2
  6
CONTINUOUS
 10
4.1
 20
0.0
 11
4.1
 21
1.25
  0
LINE
  5
239
100
AcDbEntity
  8
0
100
AcDbLine
 62
2
  6
CONTINUOUS
 10
-0.0
 20
0.0
 11
-0.0
 21
1.25
  0
MTEXT
  5
23A
100
AcDbEntity
  8
0
100
AcDbMText
 62
2
  6
CONTINUOUS
  7
STANDARD
 71
2
 72
1
 10
6.6
 20
0.325
 30
0.0
 11
1.0
 21
0.0
 31
0.0
 44
0.9
  1
2
 40
0.125
 41
0.2
  0
MTEXT
  5
23B
100
AcDbEntity
  8
0
100
AcDbMText
 62
2
  6
CONTINUOUS
  7
STANDARD
 71
2
 72
1
 10
6.15
 20
0.325
 30
0.0
 11
1.0
 21
0.0
 31
0.0
 44
0.9
  1
C
 40
0.125
 41
0.2
  0
MTEXT
  5
23C
100
AcDbEntity
  8
0
100
AcDbMText
 62
2
  6
CONTINUOUS
  7
STANDARD
 71
2
 72
1
 10
5.55
 20
0.325
 30
0.0
 11
1.0
 21
0.0
 31
0.0
 44
0.9
  1
1.000
 40
0.125
 41
1.0
  0
MTEXT
  5
23D
100
AcDbEntity
  8
0
100
AcDbMText
 62
2
  6
CONTINUOUS
  7
STANDARD
 71
2
 72
1
 10
4.65
 20
0.325
 30
0.0
 11
1.0
 21
0.0
 31
0.0
 44
0.9
  1
Jan-14-21
 40
0.125
 41
1.8
  0
MTEXT
  5
23E
100
AcDbEntity
  8
0
100
AcDbMText
 62
2
  6
CONTINUOUS
  7
STANDARD
 71
2
 72
1
 10
2.05
 20
0.4625
 30
0.0
 11
1.0
 21
0.0
 31
0.0
 44
0.9
  1
T-17A Sandwich ISO 07\PSequence into A with reverse flow check
 40
0.125
 41
7.8
  0
MTEXT
  5
23F
100
AcDbEntity
  8
0
100
AcDbMText
 62
2
  6
CONTINUOUS
  7
STANDARD
 71
1
 72
1
 10
6.45
 20
0.5625
 30
0.0
 11
1.0
 21
0.0
 31
0.0
 44
0.9
  1
SHEET
 40
0.06
 41
0.48
  0
MTEXT
  5
240
100
AcDbEntity
  8
0
100
AcDbMText
 62
2
  6
CONTINUOUS
  7
STANDARD
 71
1
 72
1
 10
5.95
 20
0.5625
 30
0.0
 11
1.0
 21
0.0
 31
0.0
 44
0.9
  1
DWG SIZE
 40
0.06
 41
0.768
  0
MTEXT
  5
241
100
AcDbEntity
  8
0
100
AcDbMText
 62
2
  6
CONTINUOUS
  7
STANDARD
 71
1
 72
1
 10
5.25
 20
0.5625
 30
0.0
 11
1.0
 21
0.0
 31
0.0
 44
0.9
  1
SCALE
 40
0.06
 41
0.48
  0
MTEXT
  5
242
100
AcDbEntity
  8
0
100
AcDbMText
 62
2
  6
CONTINUOUS
  7
STANDARD
 71
1
 72
1
 10
4.15
 20
0.5625
 30
0.0
 11
1.0
 21
0.0
 31
0.0
 44
0.9
  1
DATE
 40
0.06
 41
0.384
  0
MTEXT
  5
243
100
AcDbEntity
  8
0
100
AcDbMText
 62
2
  6
CONTINUOUS
  7
STANDARD
 71
1
 72
1
 10
0.05
 20
0.5625
 30
0.0
 11
1.0
 21
0.0
 31
0.0
 44
0.9
  1
DESCRIPTION
 40
0.06
 41
1.056
  0
MTEXT
  5
244
100
AcDbEntity
  8
0
100
AcDbMText
 62
2
  6
CONTINUOUS
  7
STANDARD
 71
2
 72
1
 10
5.45
 20
1.0375
 30
0.0
 11
1.0
 21
0.0
 31
0.0
 44
0.9
  1
ALL DIMENSIONS IN INCH\PVIEWS ARE THIRD ANGLE
 40
0.12
 41
4.224
  0
MTEXT
  5
245
100
AcDbEntity
  8
0
100
AcDbMText
 62
2
  6
CONTINUOUS
  7
STANDARD
 71
2
 72
1
 10
2.05
 20
0.95
 30
0.0
 11
1.0
 21
0.0
 31
0.0
 44
0.9
  1
BK4
 40
0.125
 41
0.6
  0
MTEXT
  5
246
100
AcDbEntity
  8
0
100
AcDbMText
 62
2
  6
CONTINUOUS
  7
STANDARD
 71
1
 72
1
 10
0.05
 20
1.1875
 30
0.0
 11
1.0
 21
0.0
 31
0.0
 44
0.9
  1
MODEL
 40
0.06
 41
0.48
  0
ENDBLK
  5
247
100
AcDbEntity
  8
0
  6
BYBLOCK
 62
0
100
AcDbBlockEnd
  0
BLOCK
  5
248
100
AcDbEntity
  8
0
100
AcDbBlockBegin
  2
*T2
 70
1
 10
0.0
 20
0.0
  3
*T2
  1

  0
LINE
  5
249
100
AcDbEntity
  8
0
100
AcDbLine
 62
2
  6
CONTINUOUS
 10
0.0
 20
0.0
 11
9.055
 21
0.0
  0
LINE
  5
24A
100
AcDbEntity
  8
0
100
AcDbLine
 62
2
  6
CONTINUOUS
 10
0.0
 20
0.0
 11
0.0
 21
-2.094
  0
LINE
  5
24B
100
AcDbEntity
  8
0
100
AcDbLine
 62
2
  6
CONTINUOUS
 10
0.0
 20
-0.344
 11
9.055
 21
-0.344
  0
LINE
  5
24C
100
AcDbEntity
  8
0
100
AcDbLine
 62
2
  6
CONTINUOUS
 10
0.0
 20
-0.594
 11
9.055
 21
-0.594
  0
LINE
  5
24D
100
AcDbEntity
  8
0
100
AcDbLine
 62
2
  6
CONTINUOUS
 10
0.0
 20
-0.844
 11
9.055
 21
-0.844
  0
LINE
  5
24E
100
AcDbEntity
  8
0
100
AcDbLine
 62
2
  6
CONTINUOUS
 10
0.0
 20
-1.094
 11
9.055
 21
-1.094
  0
LINE
  5
24F
100
AcDbEntity
  8
0
100
AcDbLine
 62
2
  6
CONTINUOUS
 10
0.0
 20
-1.344
 11
9.055
 21
-1.344
  0
LINE
  5
250
100
AcDbEntity
  8
0
100
AcDbLine
 62
2
  6
CONTINUOUS
 10
0.0
 20
-1.594
 11
9.055
 21
-1.594
  0
LINE
  5
251
100
AcDbEntity
  8
0
100
AcDbLine
 62
2
  6
CONTINUOUS
 10
0.0
 20
-1.844
 11
9.055
 21
-1.844
  0
LINE
  5
252
100
AcDbEntity
  8
0
100
AcDbLine
 62
2
  6
CONTINUOUS
 10
0.0
 20
-2.094
 11
9.055
 21
-2.094
  0
LINE
  5
253
100
AcDbEntity
  8
0
100
AcDbLine
 62
2
  6
CONTINUOUS
 10
3.055
 20
0.0
 11
3.055
 21
-2.094
  0
LINE
  5
254
100
AcDbEntity
  8
0
100
AcDbLine
 62
2
  6
CONTINUOUS
 10
9.055
 20
0.0
 11
9.055
 21
-2.094
  0
MTEXT
  5
255
100
AcDbEntity
  8
0
100
AcDbMText
 62
2
  6
CONTINUOUS
  7
STANDARD
 71
2
 72
1
 10
1.5275
 20
-0.0995
 30
0.0
 11
1.0
 21
0.0
 31
0.0
 44
0.9
  1
Technical Data
 40
0.145
 41
3.248
  0
MTEXT
  5
256
100
AcDbEntity
  8
0
100
AcDbMText
 62
2
  6
CONTINUOUS
  7
STANDARD
 71
2
 72
1
 10
4.555
 20
-0.0995
 30
0.0
 11
1.0
 21
0.0
 31
0.0
 44
0.9
  1
U.S. Units
 40
0.145
 41
2.32
  0
MTEXT
  5
257
100
AcDbEntity
  8
0
100
AcDbMText
 62
2
  6
CONTINUOUS
  7
STANDARD
 71
2
 72
1
 10
7.555
 20
-0.0995
 30
0.0
 11
1.0
 21
0.0
 31
0.0
 44
0.9
  1
Metric Units
 40
0.145
 41
2.784
  0
MTEXT
  5
258
100
AcDbEntity
  8
0
100
AcDbMText
 62
2
  6
CONTINUOUS
  7
STANDARD
 71
2
 72
1
 10
1.5275
 20
-0.4065
 30
0.0
 11
1.0
 21
0.0
 31
0.0
 44
0.9
  1
Cavity
 40
0.125
 41
1.2
  0
MTEXT
  5
259
100
AcDbEntity
  8
0
100
AcDbMText
 62
2
  6
CONTINUOUS
  7
STANDARD
 71
2
 72
1
 10
6.055
 20
-0.4065
 30
0.0
 11
1.0
 21
0.0
 31
0.0
 44
0.9
  1
T-17A
 40
0.125
 41
1.0
  0
MTEXT
  5
25A
100
AcDbEntity
  8
0
100
AcDbMText
 62
2
  6
CONTINUOUS
  7
STANDARD
 71
2
 72
1
 10
1.5275
 20
-0.6565
 30
0.0
 11
1.0
 21
0.0
 31
0.0
 44
0.9
  1
Body Features
 40
0.125
 41
2.6
  0
MTEXT
  5
25B
100
AcDbEntity
  8
0
100
AcDbMText
 62
2
  6
CONTINUOUS
  7
STANDARD
 71
2
 72
1
 10
6.055
 20
-0.6565
 30
0.0
 11
1.0
 21
0.0
 31
0.0
 44
0.9
  1
Sequence into A with reverse flow check
 40
0.125
 41
7.8
  0
MTEXT
  5
25C
100
AcDbEntity
  8
0
100
AcDbMText
 62
2
  6
CONTINUOUS
  7
STANDARD
 71
2
 72
1
 10
1.5275
 20
-0.9065
 30
0.0
 11
1.0
 21
0.0
 31
0.0
 44
0.9
  1
Body Type
 40
0.125
 41
1.8
  0
MTEXT
  5
25D
100
AcDbEntity
  8
0
100
AcDbMText
 62
2
  6
CONTINUOUS
  7
STANDARD
 71
2
 72
1
 10
6.055
 20
-0.9065
 30
0.0
 11
1.0
 21
0.0
 31
0.0
 44
0.9
  1
Sandwich
 40
0.125
 41
1.6
  0
MTEXT
  5
25E
100
AcDbEntity
  8
0
100
AcDbMText
 62
2
  6
CONTINUOUS
  7
STANDARD
 71
2
 72
1
 10
1.5275
 20
-1.1565
 30
0.0
 11
1.0
 21
0.0
 31
0.0
 44
0.9
  1
Interface
 40
0.125
 41
1.8
  0
MTEXT
  5
25F
100
AcDbEntity
  8
0
100
AcDbMText
 62
2
  6
CONTINUOUS
  7
STANDARD
 71
2
 72
1
 10
6.055
 20
-1.1565
 30
0.0
 11
1.0
 21
0.0
 31
0.0
 44
0.9
  1
ISO 07
 40
0.125
 41
1.2
  0
MTEXT
  5
260
100
AcDbEntity
  8
0
100
AcDbMText
 62
2
  6
CONTINUOUS
  7
STANDARD
 71
2
 72
1
 10
1.5275
 20
-1.4065
 30
0.0
 11
1.0
 21
0.0
 31
0.0
 44
0.9
  1
Open Cavity Quantity
 40
0.125
 41
4.0
  0
MTEXT
  5
261
100
AcDbEntity
  8
0
100
AcDbMText
 62
2
  6
CONTINUOUS
  7
STANDARD
 71
2
 72
1
 10
6.055
 20
-1.4065
 30
0.0
 11
1.0
 21
0.0
 31
0.0
 44
0.9
  1
1
 40
0.125
 41
0.2
  0
MTEXT
  5
262
100
AcDbEntity
  8
0
100
AcDbMText
 62
2
  6
CONTINUOUS
  7
STANDARD
 71
2
 72
1
 10
1.5275
 20
-1.6565
 30
0.0
 11
1.0
 21
0.0
 31
0.0
 44
0.9
  1
Stack Height
 40
0.125
 41
2.4
  0
MTEXT
  5
263
100
AcDbEntity
  8
0
100
AcDbMText
 62
2
  6
CONTINUOUS
  7
STANDARD
 71
2
 72
1
 10
4.555
 20
-1.6565
 30
0.0
 11
1.0
 21
0.0
 31
0.0
 44
0.9
  1
2.74 in.
 40
0.125
 41
1.6
  0
MTEXT
  5
264
100
AcDbEntity
  8
0
100
AcDbMText
 62
2
  6
CONTINUOUS
  7
STANDARD
 71
2
 72
1
 10
7.555
 20
-1.6565
 30
0.0
 11
1.0
 21
0.0
 31
0.0
 44
0.9
  1
70 mm
 40
0.125
 41
1.0
  0
MTEXT
  5
265
100
AcDbEntity
  8
0
100
AcDbMText
 62
2
  6
CONTINUOUS
  7
STANDARD
 71
2
 72
1
 10
1.5275
 20
-1.9065
 30
0.0
 11
1.0
 21
0.0
 31
0.0
 44
0.9
  1
Weight
 40
0.125
 41
1.2
  0
MTEXT
  5
266
100
AcDbEntity
  8
0
100
AcDbMText
 62
2
  6
CONTINUOUS
  7
STANDARD
 71
2
 72
1
 10
4.555
 20
-1.9065
 30
0.0
 11
1.0
 21
0.0
 31
0.0
 44
0.9
  1
5.269 lb.
 40
0.125
 41
1.8
  0
MTEXT
  5
267
100
AcDbEntity
  8
0
100
AcDbMText
 62
2
  6
CONTINUOUS
  7
STANDARD
 71
2
 72
1
 10
7.555
 20
-1.9065
 30
0.0
 11
1.0
 21
0.0
 31
0.0
 44
0.9
  1
2,390 kg.
 40
0.125
 41
1.8
  0
ENDBLK
  5
268
100
AcDbEntity
  8
0
  6
BYBLOCK
 62
0
100
AcDbBlockEnd
  0
ENDSEC
  0
SECTION
  2
ENTITIES
  0
IMAGE
  5
269
100
AcDbEntity
  8
0
100
AcDbRasterImage
 62
7
  6
CONTINUOUS
 10
19.2297077316
 20
0.3094318264
 30
0.0
 11
0.0066666667
 21
0.0
 31
0.0
 12
0.0
 22
0.0066666667
 32
0.0
 13
369.0
 23
92.0
340
       330
 70
9
280
0
281
50
282
50
283
0
360
       32A
 71
1
 91
2
 14
-0.5
 24
-0.5
 14
368.5
 24
91.5
  0
INSERT
  5
26A
100
AcDbEntity
  8
0
100
AcDbBlockReference
 62
2
  6
CONTINUOUS
  2
SUN_FIRST_THIRD_ANGLE_BL0
 10
20.4816717061
 20
1.2289683772
  0
ACAD_TABLE
  5
26B
100
AcDbEntity
  8
0
 62
2
  6
CONTINUOUS
100
AcDbBlockReference
  2
*T1
 10
12.42375
 20
0.30125
 30
0.0
100
AcDbTable
342
       332
343
209
 11
1.0
 21
0.0
 31
0.0
 90
6
 91
4
 92
6
 93
20
 94
0
 95
0
 96
0
 70
1
 41
0.0
141
0.525
141
0.1
141
0.525
141
0.1
142
4.1
142
1.1
142
0.7
142
0.5
142
0.4
142
2.475
171
1
172
0
173
0
174
0
175
1
176
1
 91
33
178
0
145
0.0
301
CELL_VALUE
 90
4
  1
T-17A Sandwich ISO 07\PSequence into A with reverse flow check
304
ACVALUE_END
170
2
140
0.125
171
1
172
0
173
0
174
0
175
1
176
1
 91
33
178
0
145
0.0
301
CELL_VALUE
 90
4
  1
Jan-14-21
304
ACVALUE_END
170
5
140
0.125
171
1
172
0
173
0
174
0
175
1
176
1
 91
33
178
0
145
0.0
301
CELL_VALUE
 90
4
  1
1.000
304
ACVALUE_END
170
5
140
0.125
171
1
172
0
173
0
174
0
175
1
176
1
 91
33
178
0
145
0.0
301
CELL_VALUE
 90
4
  1
C
304
ACVALUE_END
170
5
140
0.125
171
1
172
0
173
0
174
0
175
1
176
1
 91
33
178
0
145
0.0
301
CELL_VALUE
 90
4
  1
2
304
ACVALUE_END
170
5
140
0.125
171
1
172
0
173
0
174
0
175
1
176
1
 91
33
178
0
145
0.0
301
CELL_VALUE
 90
4
  1
 
304
ACVALUE_END
170
1
140
0.125
171
1
172
0
173
0
174
0
175
1
176
1
 91
33
178
0
145
0.0
301
CELL_VALUE
 90
4
  1
DESCRIPTION
304
ACVALUE_END
170
1
140
0.06
171
1
172
0
173
0
174
0
175
1
176
1
 91
33
178
0
145
0.0
301
CELL_VALUE
 90
4
  1
DATE
304
ACVALUE_END
170
1
140
0.06
171
1
172
0
173
0
174
0
175
1
176
1
 91
33
178
0
145
0.0
301
CELL_VALUE
 90
4
  1
SCALE
304
ACVALUE_END
170
1
140
0.06
171
1
172
0
173
0
174
0
175
1
176
1
 91
33
178
0
145
0.0
301
CELL_VALUE
 90
4
  1
DWG SIZE
304
ACVALUE_END
170
1
140
0.06
171
1
172
0
173
0
174
0
175
1
176
1
 91
33
178
0
145
0.0
301
CELL_VALUE
 90
4
  1
SHEET
304
ACVALUE_END
170
1
140
0.06
171
1
172
0
173
0
174
0
175
1
176
1
 91
33
178
0
145
0.0
301
CELL_VALUE
 90
4
  1
 
304
ACVALUE_END
170
1
140
0.125
171
1
172
0
173
0
174
0
175
1
176
1
 91
33
178
0
145
0.0
301
CELL_VALUE
 90
4
  1
BK4
304
ACVALUE_END
170
5
140
0.125
171
1
172
0
173
0
174
0
175
4
176
1
 91
33
178
0
145
0.0
301
CELL_VALUE
 90
4
  1
ALL DIMENSIONS IN INCH\PVIEWS ARE THIRD ANGLE
304
ACVALUE_END
170
5
140
0.12
171
1
172
0
173
1
174
0
175
1
176
1
 91
1
178
0
145
0.0
170
1
171
1
172
0
173
1
174
0
175
1
176
1
 91
1
178
0
145
0.0
170
1
171
1
172
0
173
1
174
0
175
1
176
1
 91
1
178
0
145
0.0
170
5
171
1
172
0
173
0
174
0
175
1
176
1
 91
33
178
0
145
0.0
301
CELL_VALUE
 90
4
  1
 
304
ACVALUE_END
170
1
140
0.125
171
1
172
0
173
0
174
0
175
1
176
1
 91
33
178
0
145
0.0
301
CELL_VALUE
 90
4
  1
MODEL
304
ACVALUE_END
170
1
140
0.06
171
1
172
0
173
0
174
0
175
1
176
1
 91
33
178
0
145
0.0
301
CELL_VALUE
 90
4
  1
 
304
ACVALUE_END
170
1
140
0.125
171
1
172
0
173
0
174
0
175
1
176
1
 91
33
178
0
145
0.0
301
CELL_VALUE
 90
4
  1
 
304
ACVALUE_END
170
1
140
0.125
171
1
172
0
173
0
174
0
175
1
176
1
 91
33
178
0
145
0.0
301
CELL_VALUE
 90
4
  1
 
304
ACVALUE_END
170
1
140
0.125
171
1
172
0
173
0
174
0
175
1
176
1
 91
33
178
0
145
0.0
301
CELL_VALUE
 90
4
  1
 
304
ACVALUE_END
170
1
140
0.125
171
1
172
0
173
0
174
0
175
1
176
1
 91
33
178
0
145
0.0
301
CELL_VALUE
 90
4
  1
 
304
ACVALUE_END
170
1
140
0.125
  0
ACAD_TABLE
  5
26C
100
AcDbEntity
  8
0
 62
2
  6
CONTINUOUS
100
AcDbBlockReference
  2
*T2
 10
12.4237499994
 20
16.47875
 30
0.0
100
AcDbTable
342
       331
343
20A
 11
1.0
 21
0.0
 31
0.0
 90
22
 91
8
 92
3
 93
16
 94
0
 95
0
 96
0
 41
0.028
141
0.344
141
0.25
141
0.25
141
0.25
141
0.25
141
0.25
141
0.25
141
0.25
142
3.055
142
3.0
142
3.0
171
1
172
0
173
0
174
0
175
1
176
1
 91
33
178
0
145
0.0
301
CELL_VALUE
 90
4
  1
Technical Data
304
ACVALUE_END
170
5
140
0.145
171
1
172
0
173
0
174
0
175
1
176
1
 91
33
178
0
145
0.0
301
CELL_VALUE
 90
4
  1
U.S. Units
304
ACVALUE_END
170
5
140
0.145
171
1
172
0
173
0
174
0
175
1
176
1
 91
33
178
0
145
0.0
301
CELL_VALUE
 90
4
  1
Metric Units
304
ACVALUE_END
170
5
140
0.145
171
1
172
0
173
0
174
0
175
1
176
1
 91
33
178
0
145
0.0
301
CELL_VALUE
 90
4
  1
Cavity
304
ACVALUE_END
170
5
140
0.125
171
1
172
0
173
0
174
0
175
2
176
1
 91
33
178
0
145
0.0
301
CELL_VALUE
 90
4
  1
T-17A
304
ACVALUE_END
170
5
140
0.125
171
1
172
0
173
1
174
0
175
1
176
1
 91
1
178
0
145
0.0
170
1
171
1
172
0
173
0
174
0
175
1
176
1
 91
33
178
0
145
0.0
301
CELL_VALUE
 90
4
  1
Body Features
304
ACVALUE_END
170
5
140
0.125
171
1
172
0
173
0
174
0
175
2
176
1
 91
33
178
0
145
0.0
301
CELL_VALUE
 90
4
  1
Sequence into A with reverse flow check
304
ACVALUE_END
170
5
140
0.125
171
1
172
0
173
1
174
0
175
1
176
1
 91
1
178
0
145
0.0
170
1
171
1
172
0
173
0
174
0
175
1
176
1
 91
33
178
0
145
0.0
301
CELL_VALUE
 90
4
  1
Body Type
304
ACVALUE_END
170
5
140
0.125
171
1
172
0
173
0
174
0
175
2
176
1
 91
33
178
0
145
0.0
301
CELL_VALUE
 90
4
  1
Sandwich
304
ACVALUE_END
170
5
140
0.125
171
1
172
0
173
1
174
0
175
1
176
1
 91
1
178
0
145
0.0
170
1
171
1
172
0
173
0
174
0
175
1
176
1
 91
33
178
0
145
0.0
301
CELL_VALUE
 90
4
  1
Interface
304
ACVALUE_END
170
5
140
0.125
171
1
172
0
173
0
174
0
175
2
176
1
 91
33
178
0
145
0.0
301
CELL_VALUE
 90
4
  1
ISO 07
304
ACVALUE_END
170
5
140
0.125
171
1
172
0
173
1
174
0
175
1
176
1
 91
1
178
0
145
0.0
170
1
171
1
172
0
173
0
174
0
175
1
176
1
 91
33
178
0
145
0.0
301
CELL_VALUE
 90
4
  1
Open Cavity Quantity
304
ACVALUE_END
170
5
140
0.125
171
1
172
0
173
0
174
0
175
2
176
1
 91
33
178
0
145
0.0
301
CELL_VALUE
 90
4
  1
1
304
ACVALUE_END
170
5
140
0.125
171
1
172
0
173
1
174
0
175
1
176
1
 91
1
178
0
145
0.0
170
1
171
1
172
0
173
0
174
0
175
1
176
1
 91
33
178
0
145
0.0
301
CELL_VALUE
 90
4
  1
Stack Height
304
ACVALUE_END
170
5
140
0.125
171
1
172
0
173
0
174
0
175
1
176
1
 91
33
178
0
145
0.0
301
CELL_VALUE
 90
4
  1
2.74 in.
304
ACVALUE_END
170
5
140
0.125
171
1
172
0
173
0
174
0
175
1
176
1
 91
33
178
0
145
0.0
301
CELL_VALUE
 90
4
  1
70 mm
304
ACVALUE_END
170
5
140
0.125
171
1
172
0
173
0
174
0
175
1
176
1
 91
33
178
0
145
0.0
301
CELL_VALUE
 90
4
  1
Weight
304
ACVALUE_END
170
5
140
0.125
171
1
172
0
173
0
174
0
175
1
176
1
 91
33
178
0
145
0.0
301
CELL_VALUE
 90
4
  1
5.269 lb.
304
ACVALUE_END
170
5
140
0.125
171
1
172
0
173
0
174
0
175
1
176
1
 91
33
178
0
145
0.0
301
CELL_VALUE
 90
4
  1
2,390 kg.
304
ACVALUE_END
170
5
140
0.125
  0
MTEXT
  5
26D
100
AcDbEntity
  8
0
100
AcDbMText
 62
2
  6
CONTINUOUS
  7
STANDARD
 71
1
 72
1
 10
0.52125
 20
5.75995
 30
0.0
 11
1.0
 21
0.0
 31
0.0
 44
0.6
  3
Notes\P \P1. Important: Carefully consider\P   the maximum system pressure. The\P   pressure rating of the manifold is\P   dependent on the manifold material,\P   with the port type/size a secondary\P   consideration. Manifolds\P   constructed of alu
  1
minum are not\P   rated for pressures higher than\P   3000 psi (210 bar), regardless of\P   the port type/size specified.\P2. Items without balloons are\P   shipped loose.
 40
0.1
 41
3.04
  0
LINE
  5
26E
100
AcDbEntity
  8
0
100
AcDbLine
 62
7
  6
CONTINUOUS
 10
0.30125
 20
0.30125
 11
0.30125
 21
16.69875
  0
LINE
  5
26F
100
AcDbEntity
  8
0
100
AcDbLine
 62
7
  6
CONTINUOUS
 10
0.30125
 20
0.30125
 11
21.69875
 21
0.30125
  0
LINE
  5
270
100
AcDbEntity
  8
0
100
AcDbLine
 62
7
  6
CONTINUOUS
 10
0.30125
 20
16.69875
 11
21.69875
 21
16.69875
  0
LINE
  5
271
100
AcDbEntity
  8
0
100
AcDbLine
 62
7
  6
CONTINUOUS
 10
21.69875
 20
0.30125
 11
21.69875
 21
16.69875
  0
LINE
  5
272
100
AcDbEntity
  8
0
100
AcDbLine
 62
7
  6
CONTINUOUS
 10
7.5251599039
 20
6.9668462958
 11
7.4992844281
 21
6.9986615456
  0
LINE
  5
273
100
AcDbEntity
  8
0
100
AcDbLine
 62
7
  6
CONTINUOUS
 10
7.4315364129
 20
9.488751724
 11
7.4315364129
 21
7.3753058908
  0
LINE
  5
274
100
AcDbEntity
  8
0
100
AcDbLine
 62
7
  6
CONTINUOUS
 10
7.4534567315
 20
9.4789251271
 11
7.4534567315
 21
7.3654792939
  0
LINE
  5
275
100
AcDbEntity
  8
0
100
AcDbLine
 62
7
  6
CONTINUOUS
 10
7.9592680103
 20
10.5114079776
 11
7.5689692124
 21
10.1344082664
  0
LINE
  5
276
100
AcDbEntity
  8
0
100
AcDbLine
 62
7
  6
CONTINUOUS
 10
7.9892117127
 20
10.5392750772
 11
7.5989129148
 21
10.162275366
  0
LINE
  5
277
100
AcDbEntity
  8
0
100
AcDbLine
 62
7
  6
CONTINUOUS
 10
7.9905847957
 20
10.5405771862
 11
7.9892117127
 21
10.5392750772
  0
LINE
  5
278
100
AcDbEntity
  8
0
100
AcDbLine
 62
7
  6
CONTINUOUS
 10
7.9605666936
 20
10.5126393086
 11
7.9592680103
 21
10.5114079776
  0
LINE
  5
279
100
AcDbEntity
  8
0
100
AcDbLine
 62
7
  6
CONTINUOUS
 10
7.9592680103
 20
10.5114079776
 11
7.9891996496
 21
10.5392880386
  0
LINE
  5
27A
100
AcDbEntity
  8
0
100
AcDbLine
 62
7
  6
CONTINUOUS
 10
7.5689692124
 20
10.1344082664
 11
7.5989129148
 21
10.162275366
  0
LINE
  5
27B
100
AcDbEntity
  8
0
100
AcDbLine
 62
7
  6
CONTINUOUS
 10
8.7774637331
 20
10.0164651214
 11
9.4669571091
 21
10.6824646198
  0
LINE
  5
27C
100
AcDbEntity
  8
0
100
AcDbLine
 62
7
  6
CONTINUOUS
 10
7.4315364129
 20
7.3753058908
 11
7.4534567315
 21
7.3654792939
  0
LINE
  5
27D
100
AcDbEntity
  8
0
100
AcDbLine
 62
7
  6
CONTINUOUS
 10
8.7774637331
 20
10.0164651214
 11
8.7774637331
 21
6.635724529
  0
LINE
  5
27E
100
AcDbEntity
  8
0
100
AcDbLine
 62
7
  6
CONTINUOUS
 10
13.3656117949
 20
6.3175353802
 11
8.7774637331
 21
6.635724529
  0
LINE
  5
27F
100
AcDbEntity
  8
0
100
AcDbLine
 62
7
  6
CONTINUOUS
 10
8.7774637331
 20
6.8608965736
 11
7.5600314695
 21
6.9453257878
  0
LINE
  5
280
100
AcDbEntity
  8
0
100
AcDbLine
 62
7
  6
CONTINUOUS
 10
7.4534567315
 20
7.3654792939
 11
8.7774637331
 21
7.2736590965
  0
LINE
  5
281
100
AcDbEntity
  8
0
100
AcDbLine
 62
7
  6
CONTINUOUS
 10
13.5772557276
 20
7.5090112659
 11
13.5948491875
 21
7.5077911554
  0
LINE
  5
282
100
AcDbEntity
  8
0
100
AcDbLine
 62
7
  6
CONTINUOUS
 10
13.6014605265
 20
7.5953010246
 11
14.2717286987
 21
7.548817769
  0
LINE
  5
283
100
AcDbEntity
  8
0
100
AcDbLine
 62
7
  6
CONTINUOUS
 10
13.5913192274
 20
7.6073567634
 11
14.2615873996
 21
7.5608735077
  0
LINE
  5
284
100
AcDbEntity
  8
0
100
AcDbLine
 62
7
  6
CONTINUOUS
 10
7.4315364129
 20
9.488751724
 11
7.4534567315
 21
9.4789251271
  0
LINE
  5
285
100
AcDbEntity
  8
0
100
AcDbLine
 62
7
  6
CONTINUOUS
 10
13.5046853181
 20
8.0836857161
 11
14.1749534903
 21
8.0372024605
  0
LINE
  5
286
100
AcDbEntity
  8
0
100
AcDbLine
 62
7
  6
CONTINUOUS
 10
13.5046853181
 20
8.1273886802
 11
14.1749534903
 21
8.0809054246
  0
LINE
  5
287
100
AcDbEntity
  8
0
100
AcDbLine
 62
7
  6
CONTINUOUS
 10
13.5913192274
 20
8.7710815036
 11
14.2615873996
 21
8.724598248
  0
LINE
  5
288
100
AcDbEntity
  8
0
100
AcDbLine
 62
7
  6
CONTINUOUS
 10
13.6014605265
 20
8.802728729
 11
14.2717286987
 21
8.7562454734
  0
LINE
  5
289
100
AcDbEntity
  8
0
100
AcDbLine
 62
7
  6
CONTINUOUS
 10
13.3656117949
 20
9.6982759726
 11
14.055105171
 21
10.364275471
  0
LINE
  5
28A
100
AcDbEntity
  8
0
100
AcDbLine
 62
7
  6
CONTINUOUS
 10
13.774728345
 20
8.9700925997
 11
14.4449965172
 21
8.9236093441
  0
LINE
  5
28B
100
AcDbEntity
  8
0
100
AcDbLine
 62
7
  6
CONTINUOUS
 10
7.4534567315
 20
9.4789251271
 11
8.7774637331
 21
9.3871049297
  0
LINE
  5
28C
100
AcDbEntity
  8
0
100
AcDbLine
 62
7
  6
CONTINUOUS
 10
13.684635089
 20
9.0643089554
 11
13.7027071468
 21
9.063055654
  0
LINE
  5
28D
100
AcDbEntity
  8
0
100
AcDbLine
 62
4
  6
CONTINUOUS
 10
13.588195987
 20
9.237127698
 11
13.59854874
 21
9.2471276901
  0
LINE
  5
28E
100
AcDbEntity
  8
0
100
AcDbLine
 62
4
  6
CONTINUOUS
 10
13.6270188109
 20
9.2746276684
 11
13.6321951874
 21
9.2796276645
  0
LINE
  5
28F
100
AcDbEntity
  8
0
100
AcDbLine
 62
4
  6
CONTINUOUS
 10
13.7098408351
 20
9.3546276053
 11
13.7150172116
 21
9.3596276014
  0
LINE
  5
290
100
AcDbEntity
  8
0
100
AcDbLine
 62
4
  6
CONTINUOUS
 10
13.6296069991
 20
9.1998535975
 11
13.6192542461
 21
9.1898536054
  0
LINE
  5
291
100
AcDbEntity
  8
0
100
AcDbLine
 62
4
  6
CONTINUOUS
 10
13.7150172116
 20
9.2050794635
 11
13.7098408351
 21
9.2000794674
  0
LINE
  5
292
100
AcDbEntity
  8
0
100
AcDbLine
 62
4
  6
CONTINUOUS
 10
13.6321951874
 20
9.1250795266
 11
13.6270188109
 21
9.1200795305
  0
LINE
  5
293
100
AcDbEntity
  8
0
100
AcDbLine
 62
4
  6
CONTINUOUS
 10
13.59854874
 20
9.0925795522
 11
13.588195987
 21
9.0825795601
  0
LINE
  5
294
100
AcDbEntity
  8
0
100
AcDbLine
 62
7
  6
CONTINUOUS
 10
8.7774637331
 20
10.0164651214
 11
13.3656117949
 21
9.6982759726
  0
LINE
  5
295
100
AcDbEntity
  8
0
100
AcDbLine
 62
7
  6
CONTINUOUS
 10
7.5989129148
 20
10.162275366
 11
8.8393578178
 21
10.0762502198
  0
LINE
  5
296
100
AcDbEntity
  8
0
100
AcDbLine
 62
7
  6
CONTINUOUS
 10
13.774728345
 20
8.9700925997
 11
13.6014605265
 21
8.802728729
  0
LINE
  5
297
100
AcDbEntity
  8
0
100
AcDbLine
 62
7
  6
CONTINUOUS
 10
7.9892117127
 20
10.5392750772
 11
9.2296566157
 21
10.453249931
  0
LINE
  5
298
100
AcDbEntity
  8
0
100
AcDbLine
 62
7
  6
CONTINUOUS
 10
9.249457603
 20
10.4723762172
 11
8.0280931579
 21
10.5570781291
  0
LINE
  5
299
100
AcDbEntity
  8
0
100
AcDbLine
 62
7
  6
CONTINUOUS
 10
9.4669571091
 20
10.6824646198
 11
14.055105171
 21
10.364275471
  0
LINE
  5
29A
100
AcDbEntity
  8
0
100
AcDbLine
 62
7
  6
CONTINUOUS
 10
13.3656117949
 20
9.6982759726
 11
13.3656117949
 21
6.3175353802
  0
LINE
  5
29B
100
AcDbEntity
  8
0
100
AcDbLine
 62
4
  6
CONTINUOUS
 10
13.5752550457
 20
9.1473536389
 11
13.577843234
 21
9.1884906714
  0
LINE
  5
29C
100
AcDbEntity
  8
0
100
AcDbLine
 62
7
  6
CONTINUOUS
 10
13.5913192274
 20
8.7710815036
 11
13.5046853181
 21
8.1273886802
  0
LINE
  5
29D
100
AcDbEntity
  8
0
100
AcDbLine
 62
4
  6
CONTINUOUS
 10
13.577843234
 20
9.1884906714
 11
13.5830196105
 21
9.21924869
  0
LINE
  5
29E
100
AcDbEntity
  8
0
100
AcDbLine
 62
4
  6
CONTINUOUS
 10
13.6192542461
 20
9.2413696506
 11
13.6218424343
 21
9.2567486605
  0
LINE
  5
29F
100
AcDbEntity
  8
0
100
AcDbLine
 62
4
  6
CONTINUOUS
 10
13.6425479404
 20
9.1737165531
 11
13.6373715639
 21
9.142958531
  0
LINE
  5
2A0
100
AcDbEntity
  8
0
100
AcDbLine
 62
4
  6
CONTINUOUS
 10
13.7020762703
 20
9.3213695875
 11
13.7046644586
 21
9.3367485974
  0
LINE
  5
2A1
100
AcDbEntity
  8
0
100
AcDbLine
 62
4
  6
CONTINUOUS
 10
13.5830196105
 20
9.21924869
 11
13.588195987
 21
9.237127698
  0
LINE
  5
2A2
100
AcDbEntity
  8
0
100
AcDbLine
 62
4
  6
CONTINUOUS
 10
13.6218424343
 20
9.2567486605
 11
13.6270188109
 21
9.2746276684
  0
LINE
  5
2A3
100
AcDbEntity
  8
0
100
AcDbLine
 62
4
  6
CONTINUOUS
 10
13.6373715639
 20
9.142958531
 11
13.6321951874
 21
9.1250795266
  0
LINE
  5
2A4
100
AcDbEntity
  8
0
100
AcDbLine
 62
4
  6
CONTINUOUS
 10
13.7046644586
 20
9.3367485974
 11
13.7098408351
 21
9.3546276053
  0
LINE
  5
2A5
100
AcDbEntity
  8
0
100
AcDbLine
 62
4
  6
CONTINUOUS
 10
13.7201935881
 20
9.222958468
 11
13.7150172116
 21
9.2050794635
  0
LINE
  5
2A6
100
AcDbEntity
  8
0
100
AcDbLine
 62
4
  6
CONTINUOUS
 10
13.588195987
 20
9.0825795601
 11
13.5830196105
 21
9.0904585724
  0
LINE
  5
2A7
100
AcDbEntity
  8
0
100
AcDbLine
 62
4
  6
CONTINUOUS
 10
13.6270188109
 20
9.1200795305
 11
13.6218424343
 21
9.1279585429
  0
LINE
  5
2A8
100
AcDbEntity
  8
0
100
AcDbLine
 62
7
  6
CONTINUOUS
 10
13.5046853181
 20
8.0836857161
 11
13.5913192274
 21
7.6073567634
  0
LINE
  5
2A9
100
AcDbEntity
  8
0
100
AcDbLine
 62
4
  6
CONTINUOUS
 10
13.577843234
 20
9.1112166024
 11
13.5752550457
 21
9.1473536389
  0
LINE
  5
2AA
100
AcDbEntity
  8
0
100
AcDbLine
 62
4
  6
CONTINUOUS
 10
13.6425479404
 20
9.2509906221
 11
13.6451361287
 21
9.2148535857
  0
LINE
  5
2AB
100
AcDbEntity
  8
0
100
AcDbLine
 62
4
  6
CONTINUOUS
 10
13.7253699646
 20
9.330990559
 11
13.7279581529
 21
9.2948535226
  0
LINE
  5
2AC
100
AcDbEntity
  8
0
100
AcDbLine
 62
4
  6
CONTINUOUS
 10
13.59854874
 20
9.2471276901
 11
13.59854874
 21
9.0925795522
  0
LINE
  5
2AD
100
AcDbEntity
  8
0
100
AcDbLine
 62
4
  6
CONTINUOUS
 10
13.6192542461
 20
9.1898536054
 11
13.6192542461
 21
9.2413696506
  0
LINE
  5
2AE
100
AcDbEntity
  8
0
100
AcDbLine
 62
4
  6
CONTINUOUS
 10
13.6451361287
 20
9.2148535857
 11
13.6425479404
 21
9.1737165531
  0
LINE
  5
2AF
100
AcDbEntity
  8
0
100
AcDbLine
 62
4
  6
CONTINUOUS
 10
13.7279581529
 20
9.2948535226
 11
13.7253699646
 21
9.2537164901
  0
LINE
  5
2B0
100
AcDbEntity
  8
0
100
AcDbLine
 62
4
  6
CONTINUOUS
 10
13.6813707643
 20
9.327127627
 11
13.6606652582
 21
9.1525795049
  0
LINE
  5
2B1
100
AcDbEntity
  8
0
100
AcDbLine
 62
4
  6
CONTINUOUS
 10
13.7253699646
 20
9.2537164901
 11
13.7201935881
 21
9.222958468
  0
LINE
  5
2B2
100
AcDbEntity
  8
0
100
AcDbLine
 62
7
  6
CONTINUOUS
 10
13.6874844024
 20
7.5838584005
 11
13.6905877226
 21
7.5891200326
  0
LINE
  5
2B3
100
AcDbEntity
  8
0
100
AcDbLine
 62
4
  6
CONTINUOUS
 10
13.6321951874
 20
9.2796276645
 11
13.6373715639
 21
9.2717486486
  0
LINE
  5
2B4
100
AcDbEntity
  8
0
100
AcDbLine
 62
4
  6
CONTINUOUS
 10
13.7098408351
 20
9.2000794674
 11
13.7046644586
 21
9.2079584798
  0
LINE
  5
2B5
100
AcDbEntity
  8
0
100
AcDbLine
 62
4
  6
CONTINUOUS
 10
13.7150172116
 20
9.3596276014
 11
13.7201935881
 21
9.3517485856
  0
LINE
  5
2B6
100
AcDbEntity
  8
0
100
AcDbLine
 62
7
  6
CONTINUOUS
 10
13.7839555137
 20
8.9749295414
 11
13.7863028284
 21
8.9692899065
  0
LINE
  5
2B7
100
AcDbEntity
  8
0
100
AcDbLine
 62
4
  6
CONTINUOUS
 10
13.5830196105
 20
9.0904585724
 11
13.577843234
 21
9.1112166024
  0
LINE
  5
2B8
100
AcDbEntity
  8
0
100
AcDbLine
 62
4
  6
CONTINUOUS
 10
13.6218424343
 20
9.1279585429
 11
13.6192542461
 21
9.1383375625
  0
LINE
  5
2B9
100
AcDbEntity
  8
0
100
AcDbLine
 62
4
  6
CONTINUOUS
 10
13.6373715639
 20
9.2717486486
 11
13.6425479404
 21
9.2509906221
  0
LINE
  5
2BA
100
AcDbEntity
  8
0
100
AcDbLine
 62
4
  6
CONTINUOUS
 10
13.7046644586
 20
9.2079584798
 11
13.7020762703
 21
9.2183374994
  0
LINE
  5
2BB
100
AcDbEntity
  8
0
100
AcDbLine
 62
4
  6
CONTINUOUS
 10
13.6813707643
 20
9.1725794891
 11
13.6606652582
 21
9.3071276428
  0
LINE
  5
2BC
100
AcDbEntity
  8
0
100
AcDbLine
 62
7
  6
CONTINUOUS
 10
14.055105171
 20
10.364275471
 11
14.055105171
 21
8.9506484008
  0
LINE
  5
2BD
100
AcDbEntity
  8
0
100
AcDbLine
 62
7
  6
CONTINUOUS
 10
14.055105171
 20
7.5638406617
 11
14.055105171
 21
6.9835348786
  0
LINE
  5
2BE
100
AcDbEntity
  8
0
100
AcDbLine
 62
4
  6
CONTINUOUS
 10
13.7201935881
 20
9.3517485856
 11
13.7253699646
 21
9.330990559
  0
LINE
  5
2BF
100
AcDbEntity
  8
0
100
AcDbLine
 62
7
  6
CONTINUOUS
 10
14.4300086925
 20
7.6598842927
 11
14.4387821411
 21
7.6747595412
  0
LINE
  5
2C0
100
AcDbEntity
  8
0
100
AcDbLine
 62
7
  6
CONTINUOUS
 10
13.3656117949
 20
6.3175353802
 11
14.055105171
 21
6.9835348786
  0
LINE
  5
2C1
100
AcDbEntity
  8
0
100
AcDbLine
 62
7
  6
CONTINUOUS
 10
14.501110866
 20
8.8157956155
 11
14.5155134932
 21
8.7811920074
  0
ARC
  5
2C2
100
AcDbEntity
  8
0
100
AcDbCircle
 62
7
  6
CONTINUOUS
 10
16.7664249438
 20
8.0588991667
 40
2.5915648882
100
AcDbArc
 50
179.5134673813
 51
179.9985734312
  0
ARC
  5
2C3
100
AcDbEntity
  8
0
100
AcDbCircle
 62
7
  6
CONTINUOUS
 10
16.0861273508
 20
8.1054251303
 40
2.5815354666
100
AcDbArc
 50
179.5125250425
 51
179.99951577
  0
ARC
  5
2C4
100
AcDbEntity
  8
0
100
AcDbCircle
 62
7
  6
CONTINUOUS
 10
16.7036313315
 20
8.0589403919
 40
2.5287712752
100
AcDbArc
 50
179.9994720696
 51
180.492534488
  0
ARC
  5
2C5
100
AcDbEntity
  8
0
100
AcDbCircle
 62
7
  6
CONTINUOUS
 10
16.033363159
 20
8.1054236475
 40
2.5287712748
100
AcDbArc
 50
179.9994720696
 51
180.492534488
  0
ARC
  5
2C6
100
AcDbEntity
  8
0
100
AcDbCircle
 62
7
  6
CONTINUOUS
 10
14.6808872552
 20
8.4393797899
 40
1.1389400837
100
AcDbArc
 50
161.3961041614
 51
163.0679604749
  0
ARC
  5
2C7
100
AcDbEntity
  8
0
100
AcDbCircle
 62
7
  6
CONTINUOUS
 10
15.3214868879
 20
8.4024037669
 40
1.1077888828
100
AcDbArc
 50
161.3725959887
 51
163.0914686476
  0
ARC
  5
2C8
100
AcDbEntity
  8
0
100
AcDbCircle
 62
7
  6
CONTINUOUS
 10
13.8391757897
 20
7.730287242
 40
0.3557924827
100
AcDbArc
 50
203.3840614968
 51
204.4305699897
  0
ARC
  5
2C9
100
AcDbEntity
  8
0
100
AcDbCircle
 62
7
  6
CONTINUOUS
 10
13.9137849919
 20
8.8090845553
 40
0.3555610439
100
AcDbArc
 50
147.6204948649
 51
148.6779612882
  0
ARC
  5
2CA
100
AcDbEntity
  8
0
100
AcDbCircle
 62
7
  6
CONTINUOUS
 10
13.6568303008
 20
8.9617165503
 40
0.1180755329
100
AcDbArc
 50
42.0490923018
 51
42.8438829549
  0
ARC
  5
2CB
100
AcDbEntity
  8
0
100
AcDbCircle
 62
7
  6
CONTINUOUS
 10
12.478534568
 20
7.2357244941
 40
0.1087826872
100
AcDbArc
 50
115.0291518462
 51
132.9138891776
  0
ARC
  5
2CC
100
AcDbEntity
  8
0
100
AcDbCircle
 62
7
  6
CONTINUOUS
 10
12.5024310617
 20
7.2110973557
 40
0.1087826764
100
AcDbArc
 50
295.0291509643
 51
312.9138924841
  0
ARC
  5
2CD
100
AcDbEntity
  8
0
100
AcDbCircle
 62
7
  6
CONTINUOUS
 10
13.6968927705
 20
9.0169185441
 40
0.0489288059
100
AcDbArc
 50
82.7993406545
 51
86.032357786
  0
SPLINE
  5
2CE
100
AcDbEntity
  8
0
100
AcDbSpline
 62
7
  6
CONTINUOUS
 70
0
 71
3
 72
23
 73
19
 74
0
 42
0.0000001
 43
0.0000001
 44
0.0000000001
 40
0.0
 40
0.0
 40
0.0
 40
0.0
 40
0.0778915856
 40
0.1545454438
 40
0.2297388202
 40
0.3032879841
 40
0.3750174017
 40
0.4447505127
 40
0.512316206
 40
0.5775550501
 40
0.6403154135
 40
0.7004563918
 40
0.75784725
 40
0.8123710763
 40
0.8639245062
 40
0.9124214177
 40
0.9577945528
 40
1.0
 40
1.0
 40
1.0
 40
1.0
 10
14.5684635871
 20
8.3877713565
 30
0.0
 10
14.5684635871
 20
8.3981319487
 30
0.0
 10
14.5683205803
 20
8.4186888148
 30
0.0
 10
14.567668122
 20
8.4492411397
 30
0.0
 10
14.5665801724
 20
8.4792032136
 30
0.0
 10
14.5650603629
 20
8.5084906734
 30
0.0
 10
14.5631125865
 20
8.5370249521
 30
0.0
 10
14.5607426893
 20
8.5647286889
 30
0.0
 10
14.5579566887
 20
8.5915259839
 30
0.0
 10
14.5547628448
 20
8.6173436216
 30
0.0
 10
14.5511695877
 20
8.642111399
 30
0.0
 10
14.5471873
 20
8.6657619296
 30
0.0
 10
14.5428266434
 20
8.6882309174
 30
0.0
 10
14.5381000622
 20
8.7094574494
 30
0.0
 10
14.5330203704
 20
8.7293840762
 30
0.0
 10
14.5276017709
 20
8.74795741
 30
0.0
 10
14.5218591439
 20
8.765127086
 30
0.0
 10
14.5176727956
 20
8.7760038122
 30
0.0
 10
14.5155156501
 20
8.7811866962
 30
0.0
  0
SPLINE
  5
2CF
100
AcDbEntity
  8
0
100
AcDbSpline
 62
7
  6
CONTINUOUS
 70
0
 71
3
 72
9
 73
5
 74
0
 42
0.0000001
 43
0.0000001
 44
0.0000000001
 40
0.0
 40
0.0
 40
0.0
 40
0.0
 40
0.5149357862
 40
1.0
 40
1.0
 40
1.0
 40
1.0
 10
14.4551378164
 20
8.9115536054
 30
0.0
 10
14.4535278681
 20
8.9137280234
 30
0.0
 10
14.4502811662
 20
8.9178635919
 30
0.0
 10
14.4467693466
 20
8.9217783708
 30
0.0
 10
14.4449965172
 20
8.9236093441
 30
0.0
  0
SPLINE
  5
2D0
100
AcDbEntity
  8
0
100
AcDbSpline
 62
7
  6
CONTINUOUS
 70
0
 71
3
 72
22
 73
18
 74
0
 42
0.0000001
 43
0.0000001
 44
0.0000000001
 40
0.0
 40
0.0
 40
0.0
 40
0.0
 40
0.1581228667
 40
0.2341982852
 40
0.3081049186
 40
0.379717385
 40
0.4489184745
 40
0.5156040998
 40
0.5796927374
 40
0.6411263993
 40
0.6998833948
 40
0.755975683
 40
0.8094620448
 40
0.8604412683
 40
0.9090606462
 40
0.9555055836
 40
1.0
 40
1.0
 40
1.0
 40
1.0
 10
14.2717286987
 20
7.548817769
 30
0.0
 10
14.2811983598
 20
7.5530209553
 30
0.0
 10
14.2951417634
 20
7.5594366324
 30
0.0
 10
14.3132517473
 20
7.5683591347
 30
0.0
 10
14.3261480868
 20
7.5750320823
 30
0.0
 10
14.3384980789
 20
7.5817736674
 30
0.0
 10
14.3502668945
 20
7.5885842631
 30
0.0
 10
14.3614202388
 20
7.5954645029
 30
0.0
 10
14.3719266886
 20
7.6024128794
 30
0.0
 10
14.3817569616
 20
7.6094289419
 30
0.0
 10
14.3908871102
 20
7.6165093377
 30
0.0
 10
14.3992967317
 20
7.6236523062
 30
0.0
 10
14.4069728626
 20
7.6308529514
 30
0.0
 10
14.4139069888
 20
7.6381080638
 30
0.0
 10
14.4200991007
 20
7.645411855
 30
0.0
 10
14.4255534161
 20
7.6527592498
 30
0.0
 10
14.4287701043
 20
7.6577820148
 30
0.0
 10
14.4302501316
 20
7.6602937713
 30
0.0
  0
SPLINE
  5
2D1
100
AcDbEntity
  8
0
100
AcDbSpline
 62
7
  6
CONTINUOUS
 70
0
 71
3
 72
9
 73
5
 74
0
 42
0.0000001
 43
0.0000001
 44
0.0000000001
 40
0.0
 40
0.0
 40
0.0
 40
0.0
 40
0.4955326499
 40
1.0
 40
1.0
 40
1.0
 40
1.0
 10
14.5012579904
 20
8.8154419138
 30
0.0
 10
14.4944863462
 20
8.8317022893
 30
0.0
 10
14.4798478194
 20
8.8641161201
 30
0.0
 10
14.4636348476
 20
8.8957629624
 30
0.0
 10
14.4551378164
 20
8.9115536054
 30
0.0
  0
SPLINE
  5
2D2
100
AcDbEntity
  8
0
100
AcDbSpline
 62
7
  6
CONTINUOUS
 70
0
 71
3
 72
28
 73
24
 74
0
 42
0.0000001
 43
0.0000001
 44
0.0000000001
 40
0.0
 40
0.0
 40
0.0
 40
0.0
 40
0.0188524871
 40
0.0388801737
 40
0.0600715651
 40
0.0824089768
 40
0.1058699668
 40
0.1304265019
 40
0.1560475994
 40
0.1826975814
 40
0.2103382308
 40
0.2389280827
 40
0.2987741688
 40
0.3618564495
 40
0.4277601831
 40
0.4960432585
 40
0.5662412158
 40
0.6378720029
 40
0.7104405345
 40
0.7834444448
 40
0.8563742018
 40
0.9287292883
 40
1.0
 40
1.0
 40
1.0
 40
1.0
 10
14.4387812377
 20
7.6747581658
 30
0.0
 10
14.4411141783
 20
7.6787136158
 30
0.0
 10
14.4457455747
 20
7.6869780989
 30
0.0
 10
14.4524123448
 20
7.700006887
 30
0.0
 10
14.4589978831
 20
7.714020741
 30
0.0
 10
14.4654899742
 20
7.728993825
 30
0.0
 10
14.4718762628
 20
7.7448989508
 30
0.0
 10
14.4781454552
 20
7.7617067977
 30
0.0
 10
14.4842852816
 20
7.7793865844
 30
0.0
 10
14.4902848331
 20
7.7979056319
 30
0.0
 10
14.4961326946
 20
7.8172298593
 30
0.0
 10
14.5038305571
 20
7.8444376874
 30
0.0
 10
14.5129609785
 20
7.8802053701
 30
0.0
 10
14.5229906308
 20
7.9251014503
 30
0.0
 10
14.5321782191
 20
7.9722725115
 30
0.0
 10
14.5404550199
 20
8.0213698406
 30
0.0
 10
14.5477590421
 20
8.0720307789
 30
0.0
 10
14.5540357237
 20
8.1238806032
 30
0.0
 10
14.5592383784
 20
8.17653589
 30
0.0
 10
14.5633281037
 20
8.2296065448
 30
0.0
 10
14.566275003
 20
8.2827009311
 30
0.0
 10
14.5680567545
 20
8.3354245563
 30
0.0
 10
14.5684635871
 20
8.3704108588
 30
0.0
 10
14.5684635871
 20
8.3877713565
 30
0.0
  0
SPLINE
  5
2D3
100
AcDbEntity
  8
0
100
AcDbSpline
 62
7
  6
CONTINUOUS
 70
0
 71
3
 72
23
 73
19
 74
0
 42
0.0000001
 43
0.0000001
 44
0.0000000001
 40
0.0
 40
0.0
 40
0.0
 40
0.0
 40
0.0450326416
 40
0.090627084
 40
0.1373223842
 40
0.1856173007
 40
0.2359593962
 40
0.2887361703
 40
0.344276113
 40
0.402854817
 40
0.4646973153
 40
0.5299824183
 40
0.5988535695
 40
0.671423373
 40
0.747772967
 40
0.8279612293
 40
0.9120297453
 40
1.0
 40
1.0
 40
1.0
 40
1.0
 10
13.7027074723
 20
9.0630555277
 30
0.0
 10
13.7045881939
 20
9.062925143
 30
0.0
 10
13.7083613827
 20
9.0624416035
 30
0.0
 10
13.7139531901
 20
9.0610577176
 30
0.0
 10
13.719485841
 20
9.0590171859
 30
0.0
 10
13.7249528514
 20
9.0563239977
 30
0.0
 10
13.7303496464
 20
9.0529819688
 30
0.0
 10
13.7356724722
 20
9.0489959871
 30
0.0
 10
13.7409180678
 20
9.0443706783
 30
0.0
 10
13.7460828171
 20
9.0391101616
 30
0.0
 10
13.7511632471
 20
9.0332190644
 30
0.0
 10
13.7561561969
 20
9.0267026467
 30
0.0
 10
13.7610579724
 20
9.0195660851
 30
0.0
 10
13.7658645971
 20
9.0118149421
 30
0.0
 10
13.7705727002
 20
9.0034557576
 30
0.0
 10
13.7751786091
 20
8.994495312
 30
0.0
 10
13.7796782739
 20
8.984940825
 30
0.0
 10
13.7825399977
 20
8.9783301871
 30
0.0
 10
13.7839551494
 20
8.974930171
 30
0.0
  0
SPLINE
  5
2D4
100
AcDbEntity
  8
0
100
AcDbSpline
 62
7
  6
CONTINUOUS
 70
0
 71
3
 72
23
 73
19
 74
0
 42
0.0000001
 43
0.0000001
 44
0.0000000001
 40
0.0
 40
0.0
 40
0.0
 40
0.0
 40
0.0450328014
 40
0.090626912
 40
0.1373220992
 40
0.1856177797
 40
0.2359593495
 40
0.2887351894
 40
0.3442762352
 40
0.4028552774
 40
0.4646962747
 40
0.5299819163
 40
0.5988545543
 40
0.6714232004
 40
0.7477722896
 40
0.8279625255
 40
0.9120310258
 40
1.0
 40
1.0
 40
1.0
 40
1.0
 10
13.594848862
 20
7.5077912816
 30
0.0
 10
13.5967296063
 20
7.5076608952
 30
0.0
 10
13.6005334292
 20
7.5076191119
 30
0.0
 10
13.6062628181
 20
7.5082173357
 30
0.0
 10
13.6120242821
 20
7.5094745659
 30
0.0
 10
13.617810631
 20
7.5113877422
 30
0.0
 10
13.6236172075
 20
7.5139525579
 30
0.0
 10
13.6294394987
 20
7.5171653792
 30
0.0
 10
13.6352732152
 20
7.5210226756
 30
0.0
 10
13.6411146818
 20
7.5255199637
 30
0.0
 10
13.6469599488
 20
7.5306531212
 30
0.0
 10
13.6528045824
 20
7.5364181167
 30
0.0
 10
13.6586444199
 20
7.5428099871
 30
0.0
 10
13.6644752208
 20
7.5498233185
 30
0.0
 10
13.6702922587
 20
7.5574526181
 30
0.0
 10
13.6760907844
 20
7.5656917945
 30
0.0
 10
13.6818663579
 20
7.5745337594
 30
0.0
 10
13.6856133165
 20
7.5806860286
 30
0.0
 10
13.687484242
 20
7.5838581315
 30
0.0
  0
SPLINE
  5
2D5
100
AcDbEntity
  8
0
100
AcDbSpline
 62
7
  6
CONTINUOUS
 70
0
 71
3
 72
21
 73
17
 74
0
 42
0.0000001
 43
0.0000001
 44
0.0000000001
 40
0.0
 40
0.0
 40
0.0
 40
0.0
 40
0.1231153359
 40
0.184837322
 40
0.2466817013
 40
0.3086598058
 40
0.3707815459
 40
0.4330548007
 40
0.4954844141
 40
0.558071395
 40
0.6208128987
 40
0.6837027994
 40
0.7467321283
 40
0.809889664
 40
0.8731630859
 40
1.0
 40
1.0
 40
1.0
 40
1.0
 10
14.2615873996
 20
8.724598248
 30
0.0
 10
14.2652440118
 20
8.6978374929
 30
0.0
 10
14.269737052
 20
8.6575098889
 30
0.0
 10
14.2733186825
 20
8.6035038622
 30
0.0
 10
14.2746985342
 20
8.562813946
 30
0.0
 10
14.2746686736
 20
8.5220123912
 30
0.0
 10
14.2731430757
 20
8.481144193
 30
0.0
 10
14.2700565544
 20
8.4402642261
 30
0.0
 10
14.2653705144
 20
8.3994335444
 30
0.0
 10
14.2590769735
 20
8.3587157036
 30
0.0
 10
14.2512010486
 20
8.3181717327
 30
0.0
 10
14.2417971275
 20
8.2778557897
 30
0.0
 10
14.2309438831
 20
8.2378121644
 30
0.0
 10
14.2187377758
 20
8.1980726361
 30
0.0
 10
14.2007903358
 20
8.1454815934
 30
0.0
 10
14.1856481439
 20
8.1065940126
 30
0.0
 10
14.1749534903
 20
8.0809054246
 30
0.0
  0
SPLINE
  5
2D6
100
AcDbEntity
  8
0
100
AcDbSpline
 62
7
  6
CONTINUOUS
 70
0
 71
3
 72
23
 73
19
 74
0
 42
0.0000001
 43
0.0000001
 44
0.0000000001
 40
0.0
 40
0.0
 40
0.0
 40
0.0
 40
0.0681436223
 40
0.1355717925
 40
0.2022246133
 40
0.2680530577
 40
0.3330188589
 40
0.3971018651
 40
0.4603047619
 40
0.5226553367
 40
0.5842062484
 40
0.6450322154
 40
0.7052236803
 40
0.7648789131
 40
0.8240963959
 40
0.8829688942
 40
0.9415804852
 40
1.0
 40
1.0
 40
1.0
 40
1.0
 10
14.1749534903
 20
8.0372024605
 30
0.0
 10
14.1802821867
 20
8.0272997616
 30
0.0
 10
14.1906339098
 20
8.0074623879
 30
0.0
 10
14.2052172605
 20
7.9774398783
 30
0.0
 10
14.2186695468
 20
7.9473101911
 30
0.0
 10
14.2308792787
 20
7.9170923297
 30
0.0
 10
14.2417388366
 20
7.8868119859
 30
0.0
 10
14.251151356
 20
7.8565029594
 30
0.0
 10
14.259037559
 20
7.8262058633
 30
0.0
 10
14.2653420571
 20
7.7959662892
 30
0.0
 10
14.2700385801
 20
7.7658320236
 30
0.0
 10
14.2731340388
 20
7.7358496608
 30
0.0
 10
14.2746663688
 20
7.7060606809
 30
0.0
 10
14.2747005351
 20
7.6764987287
 30
0.0
 10
14.2733228634
 20
7.6471880676
 30
0.0
 10
14.2706344146
 20
7.6181427342
 30
0.0
 10
14.266743175
 20
7.5893686283
 30
0.0
 10
14.263415367
 20
7.5703392784
 30
0.0
 10
14.2615873996
 20
7.5608735077
 30
0.0
  0
SPLINE
  5
2D7
100
AcDbEntity
  8
0
100
AcDbSpline
 62
7
  6
CONTINUOUS
 70
0
 71
3
 72
21
 73
17
 74
0
 42
0.0000001
 43
0.0000001
 44
0.0000000001
 40
0.0
 40
0.0
 40
0.0
 40
0.0
 40
0.0721750434
 40
0.1408704233
 40
0.2690156223
 40
0.3293895806
 40
0.3879136836
 40
0.4451490293
 40
0.5016982119
 40
0.5581866935
 40
0.6152406903
 40
0.6734670847
 40
0.733434797
 40
0.8604758414
 40
0.9285177531
 40
1.0
 40
1.0
 40
1.0
 40
1.0
 10
13.6014605265
 20
7.5953010246
 30
0.0
 10
13.602895356
 20
7.5938191367
 30
0.0
 10
13.605786854
 20
7.5910119246
 30
0.0
 10
13.6116664576
 20
7.5860531354
 30
0.0
 10
13.6178205692
 20
7.5819555194
 30
0.0
 10
13.6241976276
 20
7.5789034702
 30
0.0
 10
13.6289387899
 20
7.5771859788
 30
0.0
 10
13.6337274276
 20
7.5759983952
 30
0.0
 10
13.6385591314
 20
7.5753429917
 30
0.0
 10
13.6434283796
 20
7.5752205816
 30
0.0
 10
13.6483295997
 20
7.5756307568
 30
0.0
 10
13.6532578943
 20
7.576572815
 30
0.0
 10
13.6599851188
 20
7.5785729587
 30
0.0
 10
13.6666442577
 20
7.5816428371
 30
0.0
 10
13.6731515747
 20
7.5856107706
 30
0.0
 10
13.6764027422
 20
7.5879266591
 30
0.0
 10
13.6780285121
 20
7.5891637165
 30
0.0
  0
SPLINE
  5
2D8
100
AcDbEntity
  8
0
100
AcDbSpline
 62
7
  6
CONTINUOUS
 70
0
 71
3
 72
37
 73
33
 74
0
 42
0.0000001
 43
0.0000001
 44
0.0000000001
 40
0.0
 40
0.0
 40
0.0
 40
0.0
 40
0.0242160064
 40
0.0471276776
 40
0.0688728694
 40
0.0896181497
 40
0.1095643177
 40
0.1289412712
 40
0.1480010561
 40
0.1670091283
 40
0.1862325832
 40
0.2059292153
 40
0.2263374353
 40
0.2476687588
 40
0.2701059695
 40
0.2938027283
 40
0.3188839929
 40
0.3454511185
 40
0.3735850406
 40
0.4033469108
 40
0.4347832022
 40
0.4679286948
 40
0.5028057521
 40
0.5394275751
 40
0.5778008267
 40
0.6179236654
 40
0.6597872747
 40
0.7033790872
 40
0.7486826578
 40
0.7956778314
 40
0.8946424786
 40
1.0
 40
1.0
 40
1.0
 40
1.0
 10
13.774728345
 20
8.9700925997
 30
0.0
 10
13.7731183278
 20
8.971755421
 30
0.0
 10
13.7698712262
 20
8.9748845014
 30
0.0
 10
13.7647762296
 20
8.9790646101
 30
0.0
 10
13.7596026013
 20
8.9825895205
 30
0.0
 10
13.754354547
 20
8.9854525909
 30
0.0
 10
13.7490369966
 20
8.9876488433
 30
0.0
 10
13.7436556497
 20
8.9891739558
 30
0.0
 10
13.7382172847
 20
8.9900236255
 30
0.0
 10
13.7327302273
 20
8.9901959395
 30
0.0
 10
13.7272030513
 20
8.9896914799
 30
0.0
 10
13.721643819
 20
8.9885118432
 30
0.0
 10
13.716059529
 20
8.9866605687
 30
0.0
 10
13.7104555528
 20
8.9841426309
 30
0.0
 10
13.7048366361
 20
8.9809621534
 30
0.0
 10
13.6992072386
 20
8.9771232969
 30
0.0
 10
13.6935711917
 20
8.9726309979
 30
0.0
 10
13.6879328035
 20
8.9674896682
 30
0.0
 10
13.6822968378
 20
8.9617038863
 30
0.0
 10
13.6766675992
 20
8.9552793713
 30
0.0
 10
13.6710498665
 20
8.9482219773
 30
0.0
 10
13.6654488949
 20
8.9405378583
 30
0.0
 10
13.6598694735
 20
8.9322342104
 30
0.0
 10
13.6543165581
 20
8.9233186947
 30
0.0
 10
13.6487955679
 20
8.91379932
 30
0.0
 10
13.6433115576
 20
8.9036850574
 30
0.0
 10
13.6378694915
 20
8.8929855863
 30
0.0
 10
13.6324747064
 20
8.8817108126
 30
0.0
 10
13.6271321949
 20
8.8698710258
 30
0.0
 10
13.6199608667
 20
8.8530543365
 30
0.0
 10
13.6111912735
 20
8.8306855432
 30
0.0
 10
13.6046790506
 20
8.8122705231
 30
0.0
 10
13.6014605265
 20
8.802728729
 30
0.0
  0
SPLINE
  5
2D9
100
AcDbEntity
  8
0
100
AcDbSpline
 62
7
  6
CONTINUOUS
 70
0
 71
3
 72
29
 73
25
 74
0
 42
0.0000001
 43
0.0000001
 44
0.0000000001
 40
0.0
 40
0.0
 40
0.0
 40
0.0
 40
0.0844109308
 40
0.167021196
 40
0.2475180268
 40
0.3256369966
 40
0.401116176
 40
0.4737019132
 40
0.5431596849
 40
0.6092721542
 40
0.6718401978
 40
0.7306888572
 40
0.7586717622
 40
0.7856716262
 40
0.8116742211
 40
0.8366682477
 40
0.8606452028
 40
0.8835986256
 40
0.9055261083
 40
0.9264302219
 40
0.9463170845
 40
0.9651968369
 40
0.9830842384
 40
1.0
 40
1.0
 40
1.0
 40
1.0
 10
13.5046853181
 20
8.0836857161
 30
0.0
 10
13.5048041178
 20
8.0699120972
 30
0.0
 10
13.5052652712
 20
8.0426600129
 30
0.0
 10
13.5066508106
 20
8.0022918835
 30
0.0
 10
13.5087189203
 20
7.9629807754
 30
0.0
 10
13.511461265
 20
7.9248773275
 30
0.0
 10
13.5148669328
 20
7.8881234228
 30
0.0
 10
13.5189232795
 20
7.8528575651
 30
0.0
 10
13.523614441
 20
7.8192127113
 30
0.0
 10
13.5289220821
 20
7.7873149783
 30
0.0
 10
13.5348263226
 20
7.7572843475
 30
0.0
 10
13.5403121694
 20
7.7335248839
 30
0.0
 10
13.5450055668
 20
7.7155515801
 30
0.0
 10
13.5486010279
 20
7.7028339283
 30
0.0
 10
13.5523279264
 20
7.6906632803
 30
0.0
 10
13.5561827252
 20
7.6790510294
 30
0.0
 10
13.5601614923
 20
7.6680079867
 30
0.0
 10
13.564260664
 20
7.6575445433
 30
0.0
 10
13.5684765862
 20
7.6476703687
 30
0.0
 10
13.5728052506
 20
7.6383942173
 30
0.0
 10
13.5772429562
 20
7.62972457
 30
0.0
 10
13.5817858371
 20
7.6216697073
 30
0.0
 10
13.5864286322
 20
7.6142377322
 30
0.0
 10
13.5896766998
 20
7.6095751834
 30
0.0
 10
13.5913192274
 20
7.6073567634
 30
0.0
  0
SPLINE
  5
2DA
100
AcDbEntity
  8
0
100
AcDbSpline
 62
7
  6
CONTINUOUS
 70
0
 71
3
 72
23
 73
19
 74
0
 42
0.0000001
 43
0.0000001
 44
0.0000000001
 40
0.0
 40
0.0
 40
0.0
 40
0.0
 40
0.0517124017
 40
0.105817437
 40
0.1621248898
 40
0.2204554779
 40
0.2806133097
 40
0.342391697
 40
0.4055775525
 40
0.4699511935
 40
0.5352873143
 40
0.6013557937
 40
0.6679239017
 40
0.7347566859
 40
0.801615562
 40
0.8682649978
 40
0.9344779167
 40
1.0
 40
1.0
 40
1.0
 40
1.0
 10
13.5913192274
 20
8.7710815036
 30
0.0
 10
13.5880465874
 20
8.7603391763
 30
0.0
 10
13.5816526699
 20
8.7382643777
 30
0.0
 10
13.5726855148
 20
8.7042156544
 30
0.0
 10
13.564150853
 20
8.6685764699
 30
0.0
 10
13.5560813467
 20
8.6314831683
 30
0.0
 10
13.5485070015
 20
8.5930741257
 30
0.0
 10
13.5414571051
 20
8.5534941425
 30
0.0
 10
13.534958239
 20
8.5128926795
 30
0.0
 10
13.5290349252
 20
8.4714227928
 30
0.0
 10
13.5237099484
 20
8.4292408934
 30
0.0
 10
13.5190031529
 20
8.3865061499
 30
0.0
 10
13.5149324827
 20
8.343379698
 30
0.0
 10
13.5115135415
 20
8.3000245345
 30
0.0
 10
13.508758812
 20
8.2566044209
 30
0.0
 10
13.5066789244
 20
8.2132814656
 30
0.0
 10
13.5052820423
 20
8.1702216465
 30
0.0
 10
13.5048060269
 20
8.1416168251
 30
0.0
 10
13.5046853181
 20
8.1273886802
 30
0.0
  0
SPLINE
  5
2DB
100
AcDbEntity
  8
0
100
AcDbSpline
 62
7
  6
CONTINUOUS
 70
0
 71
3
 72
55
 73
51
 74
0
 42
0.0000001
 43
0.0000001
 44
0.0000000001
 40
0.0
 40
0.0
 40
0.0
 40
0.0
 40
0.0544796836
 40
0.1080730038
 40
0.1606188057
 40
0.2119841062
 40
0.2620411187
 40
0.3106614428
 40
0.3577215751
 40
0.4031061635
 40
0.4467061545
 40
0.4884199557
 40
0.5281545703
 40
0.5658265035
 40
0.6013637281
 40
0.6347062423
 40
0.6658099984
 40
0.694647824
 40
0.7082163713
 40
0.7212192512
 40
0.7336600645
 40
0.7455452452
 40
0.7568838525
 40
0.7676875652
 40
0.7779714304
 40
0.7877550967
 40
0.7970627058
 40
0.8059233995
 40
0.8143724103
 40
0.8224520268
 40
0.8302114288
 40
0.8377068764
 40
0.8450017153
 40
0.8521653036
 40
0.8592710663
 40
0.8663944188
 40
0.8736102248
 40
0.8809901605
 40
0.888600879
 40
0.8965027645
 40
0.9047487914
 40
0.9133845833
 40
0.92244909
 40
0.9319750597
 40
0.9419890353
 40
0.9525126212
 40
0.9635634308
 40
0.9751553269
 40
0.9872983602
 40
1.0
 40
1.0
 40
1.0
 40
1.0
 10
14.2475282361
 20
8.077771594
 30
0.0
 10
14.2475282361
 20
8.0672066291
 30
0.0
 10
14.2476769006
 20
8.046248252
 30
0.0
 10
14.2483554051
 20
8.0151065534
 30
0.0
 10
14.2494867231
 20
7.9845822413
 30
0.0
 10
14.251066986
 20
7.9547645271
 30
0.0
 10
14.2530918842
 20
7.9257366453
 30
0.0
 10
14.2555552538
 20
7.8975805288
 30
0.0
 10
14.2584503774
 20
7.8703764171
 30
0.0
 10
14.2617685621
 20
7.8442015444
 30
0.0
 10
14.2655003991
 20
7.8191299465
 30
0.0
 10
14.2696350303
 20
7.7952325431
 30
0.0
 10
14.2741605008
 20
7.7725768781
 30
0.0
 10
14.2790638714
 20
7.7512267807
 30
0.0
 10
14.2843307601
 20
7.7312422365
 30
0.0
 10
14.2899464469
 20
7.7126789129
 30
0.0
 10
14.2958944349
 20
7.6955887603
 30
0.0
 10
14.3012173589
 20
7.6823566834
 30
0.0
 10
14.3056496347
 20
7.6725666549
 30
0.0
 10
14.3089787105
 20
7.6657715984
 30
0.0
 10
14.3123782358
 20
7.6593788527
 30
0.0
 10
14.3158458349
 20
7.6533927605
 30
0.0
 10
14.3193790527
 20
7.6478173273
 30
0.0
 10
14.3229756021
 20
7.6426564475
 30
0.0
 10
14.3266334006
 20
7.6379138903
 30
0.0
 10
14.330349959
 20
7.6335927757
 30
0.0
 10
14.3341229779
 20
7.6296960377
 30
0.0
 10
14.3379503593
 20
7.6262266748
 30
0.0
 10
14.3418300827
 20
7.6231876633
 30
0.0
 10
14.3457597021
 20
7.6205813587
 30
0.0
 10
14.3497368612
 20
7.6184102715
 30
0.0
 10
14.353759062
 20
7.616677253
 30
0.0
 10
14.3578232294
 20
7.615384878
 30
0.0
 10
14.3619256234
 20
7.6145347866
 30
0.0
 10
14.366062206
 20
7.614128366
 30
0.0
 10
14.3702286047
 20
7.614166616
 30
0.0
 10
14.3744203541
 20
7.6146490576
 30
0.0
 10
14.3786334029
 20
7.6155741405
 30
0.0
 10
14.3828641675
 20
7.6169401919
 30
0.0
 10
14.3871093325
 20
7.6187455299
 30
0.0
 10
14.3913661404
 20
7.6209876278
 30
0.0
 10
14.3956320621
 20
7.6236640079
 30
0.0
 10
14.3999045361
 20
7.6267724586
 30
0.0
 10
14.4041808271
 20
7.6303107761
 30
0.0
 10
14.4084585193
 20
7.6342760478
 30
0.0
 10
14.4127349802
 20
7.6386653827
 30
0.0
 10
14.4170073811
 20
7.6434758714
 30
0.0
 10
14.4212727943
 20
7.6487043221
 30
0.0
 10
14.4255285186
 20
7.6543468131
 30
0.0
 10
14.4282948086
 20
7.6582927967
 30
0.0
 10
14.429677155
 20
7.6603314958
 30
0.0
  0
SPLINE
  5
2DC
100
AcDbEntity
  8
0
100
AcDbSpline
 62
7
  6
CONTINUOUS
 70
0
 71
3
 72
9
 73
5
 74
0
 42
0.0000001
 43
0.0000001
 44
0.0000000001
 40
0.0
 40
0.0
 40
0.0
 40
0.0
 40
0.2415810799
 40
1.0
 40
1.0
 40
1.0
 40
1.0
 10
14.429677155
 20
7.6603314958
 30
0.0
 10
14.4304481698
 20
7.6614685965
 30
0.0
 10
14.4335986513
 20
7.6662032962
 30
0.0
 10
14.4365901019
 20
7.6710431427
 30
0.0
 10
14.4387812377
 20
7.6747581658
 30
0.0
  0
SPLINE
  5
2DD
100
AcDbEntity
  8
0
100
AcDbSpline
 62
7
  6
CONTINUOUS
 70
0
 71
3
 72
11
 73
7
 74
0
 42
0.0000001
 43
0.0000001
 44
0.0000000001
 40
0.0
 40
0.0
 40
0.0
 40
0.0
 40
0.2707423955
 40
0.5275743428
 40
0.7705940619
 40
1.0
 40
1.0
 40
1.0
 40
1.0
 10
14.5155156501
 20
8.7811866962
 30
0.0
 10
14.5142193442
 20
8.7843012767
 30
0.0
 10
14.5115943238
 20
8.7903299554
 30
0.0
 10
14.5074371672
 20
8.7989880097
 30
0.0
 10
14.5031684401
 20
8.8070128638
 30
0.0
 10
14.5001657306
 20
8.8120793807
 30
0.0
 10
14.4986432071
 20
8.8144986728
 30
0.0
  0
SPLINE
  5
2DE
100
AcDbEntity
  8
0
100
AcDbSpline
 62
7
  6
CONTINUOUS
 70
0
 71
3
 72
55
 73
51
 74
0
 42
0.0000001
 43
0.0000001
 44
0.0000000001
 40
0.0
 40
0.0
 40
0.0
 40
0.0
 40
0.0091577868
 40
0.0177618445
 40
0.0258372884
 40
0.0334170679
 40
0.0405430748
 40
0.0472684852
 40
0.0536583613
 40
0.0597898466
 40
0.0657516837
 40
0.0716409717
 40
0.0775587123
 40
0.0836043685
 40
0.0898706698
 40
0.0964402932
 40
0.0998623988
 40
0.1033856202
 40
0.1107605558
 40
0.1186142058
 40
0.126983132
 40
0.1358954139
 40
0.14537248
 40
0.1554292655
 40
0.1660758699
 40
0.1773187873
 40
0.1891604404
 40
0.2016004246
 40
0.2146363091
 40
0.2282628502
 40
0.2424730097
 40
0.257258518
 40
0.2726089663
 40
0.3049559727
 40
0.3394089097
 40
0.3758441812
 40
0.4141231893
 40
0.4540951793
 40
0.4955985596
 40
0.5384619526
 40
0.5825062071
 40
0.6275453385
 40
0.6733874576
 40
0.7198363195
 40
0.7666923239
 40
0.8137540635
 40
0.8608176619
 40
0.9076794905
 40
0.9541447315
 40
1.0
 40
1.0
 40
1.0
 40
1.0
 10
14.4986432071
 20
8.8144986728
 30
0.0
 10
14.4971910205
 20
8.8168061994
 30
0.0
 10
14.4942596991
 20
8.8212112717
 30
0.0
 10
14.4896221711
 20
8.8273545822
 30
0.0
 10
14.484888118
 20
8.8328174174
 30
0.0
 10
14.4800620071
 20
8.8375935504
 30
0.0
 10
14.4751471713
 20
8.8416765374
 30
0.0
 10
14.47014771
 20
8.8450604982
 30
0.0
 10
14.465068022
 20
8.8477394752
 30
0.0
 10
14.4599131373
 20
8.8497060872
 30
0.0
 10
14.4546907112
 20
8.8509544605
 30
0.0
 10
14.4494102666
 20
8.8514804841
 30
0.0
 10
14.4440826884
 20
8.851281733
 30
0.0
 10
14.438718718
 20
8.8503606248
 30
0.0
 10
14.4333275098
 20
8.8487220329
 30
0.0
 10
14.4288787829
 20
8.8467890012
 30
0.0
 10
14.4253204237
 20
8.8449080022
 30
0.0
 10
14.4216514468
 20
8.8427334951
 30
0.0
 10
14.4170528475
 20
8.8395544287
 30
0.0
 10
14.4116113579
 20
8.8351004715
 30
0.0
 10
14.4061688618
 20
8.8299564627
 30
0.0
 10
14.4007306917
 20
8.8241286303
 30
0.0
 10
14.3953025352
 20
8.8176229857
 30
0.0
 10
14.3898897391
 20
8.8104470035
 30
0.0
 10
14.3844979796
 20
8.8026086353
 30
0.0
 10
14.3791335694
 20
8.7941163201
 30
0.0
 10
14.3738021934
 20
8.7849797474
 30
0.0
 10
14.3685097755
 20
8.775209215
 30
0.0
 10
14.3632626925
 20
8.7648155673
 30
0.0
 10
14.35806666
 20
8.7538107323
 30
0.0
 10
14.3529275783
 20
8.7422072507
 30
0.0
 10
14.3478516158
 20
8.7300181965
 30
0.0
 10
14.3410563513
 20
8.7127001725
 30
0.0
 10
14.3327899967
 20
8.6896754688
 30
0.0
 10
14.3233761731
 20
8.6604124773
 30
0.0
 10
14.314346724
 20
8.6291862112
 30
0.0
 10
14.3057432582
 20
8.5961397917
 30
0.0
 10
14.2976058431
 20
8.5614243054
 30
0.0
 10
14.2899724218
 20
8.5251988696
 30
0.0
 10
14.2828781567
 20
8.4876297317
 30
0.0
 10
14.2763559684
 20
8.4488893814
 30
0.0
 10
14.2704362246
 20
8.4091557322
 30
0.0
 10
14.2651460965
 20
8.3686114106
 30
0.0
 10
14.2605100603
 20
8.3274427996
 30
0.0
 10
14.256549663
 20
8.2858390027
 30
0.0
 10
14.2532830583
 20
8.2439914362
 30
0.0
 10
14.2507252194
 20
8.2020928488
 30
0.0
 10
14.2488879024
 20
8.1603341803
 30
0.0
 10
14.247779893
 20
8.118909764
 30
0.0
 10
14.2475282361
 20
8.0914235888
 30
0.0
 10
14.2475282361
 20
8.077771594
 30
0.0
  0
SPLINE
  5
2DF
100
AcDbEntity
  8
0
100
AcDbSpline
 62
7
  6
CONTINUOUS
 70
0
 71
3
 72
9
 73
5
 74
0
 42
0.0000001
 43
0.0000001
 44
0.0000000001
 40
0.0
 40
0.0
 40
0.0
 40
0.0
 40
0.5149357862
 40
1.0
 40
1.0
 40
1.0
 40
1.0
 10
13.5913192274
 20
7.6073567634
 30
0.0
 10
13.5929291756
 20
7.6051823453
 30
0.0
 10
13.5961758775
 20
7.6010467768
 30
0.0
 10
13.5996876972
 20
7.5971319979
 30
0.0
 10
13.6014605265
 20
7.5953010246
 30
0.0
  0
SPLINE
  5
2E0
100
AcDbEntity
  8
0
100
AcDbSpline
 62
7
  6
CONTINUOUS
 70
0
 71
3
 72
35
 73
31
 74
0
 42
0.0000001
 43
0.0000001
 44
0.0000000001
 40
0.0
 40
0.0
 40
0.0
 40
0.0
 40
0.0983149267
 40
0.1929984328
 40
0.2836527507
 40
0.3699091009
 40
0.4514285665
 40
0.4903175115
 40
0.5279115403
 40
0.5641796314
 40
0.5990939872
 40
0.6326290383
 40
0.6647643014
 40
0.6954831918
 40
0.7247729269
 40
0.7526277031
 40
0.7790472436
 40
0.804038024
 40
0.8276166926
 40
0.8498091572
 40
0.8706536534
 40
0.8902046188
 40
0.9085334348
 40
0.9257335391
 40
0.9339491307
 40
0.9419296973
 40
0.9572588153
 40
0.9719045283
 40
0.9860745908
 40
1.0
 40
1.0
 40
1.0
 40
1.0
 10
13.4509488013
 20
7.9466326124
 30
0.0
 10
13.4518427832
 20
7.9308192935
 30
0.0
 10
13.4539219242
 20
7.8997938293
 30
0.0
 10
13.458014177
 20
7.8542767992
 30
0.0
 10
13.4630058271
 20
7.8108035615
 30
0.0
 10
13.4688726951
 20
7.7695804332
 30
0.0
 10
13.4745526405
 20
7.7367683042
 30
0.0
 10
13.4795409279
 20
7.7118064316
 30
0.0
 10
13.4834238583
 20
7.6940609492
 30
0.0
 10
13.4875025262
 20
7.6770170677
 30
0.0
 10
13.4917718682
 20
7.6606948288
 30
0.0
 10
13.496227216
 20
7.6451135734
 30
0.0
 10
13.5008630175
 20
7.6302915815
 30
0.0
 10
13.5056735976
 20
7.6162461946
 30
0.0
 10
13.5106537621
 20
7.602993995
 30
0.0
 10
13.5157972519
 20
7.5905502979
 30
0.0
 10
13.5210980498
 20
7.5789294802
 30
0.0
 10
13.5265505616
 20
7.5681451331
 30
0.0
 10
13.5321481157
 20
7.5582093357
 30
0.0
 10
13.5378847776
 20
7.549133357
 30
0.0
 10
13.5437549073
 20
7.5409277383
 30
0.0
 10
13.5497522613
 20
7.5336012224
 30
0.0
 10
13.555871251
 20
7.5271629458
 30
0.0
 10
13.5611467941
 20
7.522474535
 30
0.0
 10
13.565419018
 20
7.5192008889
 30
0.0
 10
13.5696032075
 20
7.5163192407
 30
0.0
 10
13.5749107461
 20
7.5132551273
 30
0.0
 10
13.5814659341
 20
7.5104501102
 30
0.0
 10
13.5881112958
 20
7.5085742316
 30
0.0
 10
13.5926108456
 20
7.5079464365
 30
0.0
 10
13.594848862
 20
7.5077912816
 30
0.0
  0
SPLINE
  5
2E1
100
AcDbEntity
  8
0
100
AcDbSpline
 62
7
  6
CONTINUOUS
 70
0
 71
3
 72
35
 73
31
 74
0
 42
0.0000001
 43
0.0000001
 44
0.0000000001
 40
0.0
 40
0.0
 40
0.0
 40
0.0
 40
0.0980221813
 40
0.1926152209
 40
0.2833448057
 40
0.3698032778
 40
0.4113128845
 40
0.4516166994
 40
0.4906732935
 40
0.5284436268
 40
0.5648927179
 40
0.5999874975
 40
0.6336989016
 40
0.6660022919
 40
0.6968759925
 40
0.7263044408
 40
0.7542773249
 40
0.7807897792
 40
0.8058459546
 40
0.829457757
 40
0.8516475119
 40
0.872451406
 40
0.8919197268
 40
0.9101223007
 40
0.9271520361
 40
0.943127866
 40
0.9582008071
 40
0.9725549568
 40
0.98640679
 40
1.0
 40
1.0
 40
1.0
 40
1.0
 10
13.4935318607
 20
8.61632814
 30
0.0
 10
13.4965667444
 20
8.6329065821
 30
0.0
 10
13.5028712243
 20
8.6654224046
 30
0.0
 10
13.513226791
 20
8.713031883
 30
0.0
 10
13.5242740971
 20
8.7584423788
 30
0.0
 10
13.5341376693
 20
8.7947343172
 30
0.0
 10
13.54235438
 20
8.8224767628
 30
0.0
 10
13.5485697275
 20
8.8423089682
 30
0.0
 10
13.5549135063
 20
8.8614242672
 30
0.0
 10
13.5613778893
 20
8.8797980574
 30
0.0
 10
13.5679540667
 20
8.8974068773
 30
0.0
 10
13.5746338491
 20
8.9142280986
 30
0.0
 10
13.581408675
 20
8.9302401715
 30
0.0
 10
13.5882694292
 20
8.9454227785
 30
0.0
 10
13.5952077778
 20
8.9597564087
 30
0.0
 10
13.602214581
 20
8.9732229405
 30
0.0
 10
13.6092807134
 20
8.9858054416
 30
0.0
 10
13.6163977711
 20
8.9974878111
 30
0.0
 10
13.6235563269
 20
9.0082557024
 30
0.0
 10
13.630747718
 20
9.0180957253
 30
0.0
 10
13.6379636715
 20
9.0269954865
 30
0.0
 10
13.6451952269
 20
9.0349445274
 30
0.0
 10
13.6524349172
 20
9.0419327108
 30
0.0
 10
13.6596752751
 20
9.0479510636
 30
0.0
 10
13.6669089563
 20
9.0529918362
 30
0.0
 10
13.6741300609
 20
9.0570459642
 30
0.0
 10
13.6813311987
 20
9.0601052585
 30
0.0
 10
13.6885047213
 20
9.0621607362
 30
0.0
 10
13.6956378306
 20
9.0632024669
 30
0.0
 10
13.7003758515
 20
9.063217172
 30
0.0
 10
13.7027074723
 20
9.0630555277
 30
0.0
  0
SPLINE
  5
2E2
100
AcDbEntity
  8
0
100
AcDbSpline
 62
7
  6
CONTINUOUS
 70
0
 71
3
 72
9
 73
5
 74
0
 42
0.0000001
 43
0.0000001
 44
0.0000000001
 40
0.0
 40
0.0
 40
0.0
 40
0.0
 40
0.5149357862
 40
1.0
 40
1.0
 40
1.0
 40
1.0
 10
14.2615873996
 20
7.5608735077
 30
0.0
 10
14.2631973479
 20
7.5586990897
 30
0.0
 10
14.2664440498
 20
7.5545635212
 30
0.0
 10
14.2699558694
 20
7.5506487422
 30
0.0
 10
14.2717286987
 20
7.548817769
 30
0.0
  0
SPLINE
  5
2E3
100
AcDbEntity
  8
0
100
AcDbSpline
 62
7
  6
CONTINUOUS
 70
0
 71
3
 72
23
 73
19
 74
0
 42
0.0000001
 43
0.0000001
 44
0.0000000001
 40
0.0
 40
0.0
 40
0.0
 40
0.0
 40
0.0430432041
 40
0.0864276157
 40
0.130656649
 40
0.1763288731
 40
0.2240992276
 40
0.2746265429
 40
0.3285147701
 40
0.3862610475
 40
0.4482190742
 40
0.5145822216
 40
0.585391119
 40
0.6605550141
 40
0.7398801137
 40
0.8231012882
 40
0.9099156628
 40
1.0
 40
1.0
 40
1.0
 40
1.0
 10
14.4449965172
 20
8.9236093441
 30
0.0
 10
14.4450574658
 20
8.9199499137
 30
0.0
 10
14.4448367621
 20
8.9125906193
 30
0.0
 10
14.4433650787
 20
8.9015584707
 30
0.0
 10
14.4406401561
 20
8.8905330985
 30
0.0
 10
14.4365555023
 20
8.8795358995
 30
0.0
 10
14.4310177419
 20
8.8685902842
 30
0.0
 10
14.4239540714
 20
8.8577201389
 30
0.0
 10
14.4153159066
 20
8.8469464712
 30
0.0
 10
14.4050812755
 20
8.8362866693
 30
0.0
 10
14.3932565874
 20
8.8257545782
 30
0.0
 10
14.3798771286
 20
8.8153601005
 30
0.0
 10
14.3650038689
 20
8.8051102369
 30
0.0
 10
14.3487191312
 20
8.7950090597
 30
0.0
 10
14.3311209859
 20
8.7850576142
 30
0.0
 10
14.3123167726
 20
8.7752538256
 30
0.0
 10
14.2924173272
 20
8.7655936237
 30
0.0
 10
14.2787298509
 20
8.7593529918
 30
0.0
 10
14.2717286987
 20
8.7562454734
 30
0.0
  0
SPLINE
  5
2E4
100
AcDbEntity
  8
0
100
AcDbSpline
 62
7
  6
CONTINUOUS
 70
0
 71
3
 72
15
 73
11
 74
0
 42
0.0000001
 43
0.0000001
 44
0.0000000001
 40
0.0
 40
0.0
 40
0.0
 40
0.0
 40
0.1273482789
 40
0.2538606571
 40
0.3795878378
 40
0.5046051156
 40
0.629017439
 40
0.7529533823
 40
0.8765605864
 40
1.0
 40
1.0
 40
1.0
 40
1.0
 10
9.3434963008
 20
9.6149884231
 30
0.0
 10
9.3434963008
 20
9.6084900981
 30
0.0
 10
9.3428758402
 20
9.595527119
 30
0.0
 10
9.3400699087
 20
9.5763319729
 30
0.0
 10
9.3354171872
 20
9.5576191192
 30
0.0
 10
9.3289597044
 20
9.5395635679
 30
0.0
 10
9.3207566847
 20
9.5223318263
 30
0.0
 10
9.3108829596
 20
9.5060829918
 30
0.0
 10
9.2994313373
 20
9.4909693173
 30
0.0
 10
9.2908088375
 20
9.4817370095
 30
0.0
 10
9.2862783659
 20
9.47736088
 30
0.0
  0
SPLINE
  5
2E5
100
AcDbEntity
  8
0
100
AcDbSpline
 62
7
  6
CONTINUOUS
 70
0
 71
3
 72
15
 73
11
 74
0
 42
0.0000001
 43
0.0000001
 44
0.0000000001
 40
0.0
 40
0.0
 40
0.0
 40
0.0
 40
0.1273482789
 40
0.2538606571
 40
0.3795878378
 40
0.5046051156
 40
0.629017439
 40
0.7529533823
 40
0.8765605864
 40
1.0
 40
1.0
 40
1.0
 40
1.0
 10
9.3434963008
 20
6.9586922435
 30
0.0
 10
9.3434963008
 20
6.9521939184
 30
0.0
 10
9.3428758402
 20
6.9392309393
 30
0.0
 10
9.3400699087
 20
6.9200357932
 30
0.0
 10
9.3354171872
 20
6.9013229395
 30
0.0
 10
9.3289597044
 20
6.8832673882
 30
0.0
 10
9.3207566847
 20
6.8660356466
 30
0.0
 10
9.3108829596
 20
6.8497868121
 30
0.0
 10
9.2994313373
 20
6.8346731376
 30
0.0
 10
9.2908088375
 20
6.8254408298
 30
0.0
 10
9.2862783659
 20
6.8210647003
 30
0.0
  0
SPLINE
  5
2E6
100
AcDbEntity
  8
0
100
AcDbSpline
 62
7
  6
CONTINUOUS
 70
0
 71
3
 72
15
 73
11
 74
0
 42
0.0000001
 43
0.0000001
 44
0.0000000001
 40
0.0
 40
0.0
 40
0.0
 40
0.0
 40
0.1273482789
 40
0.2538606571
 40
0.3795878378
 40
0.5046051156
 40
0.629017439
 40
0.7529533823
 40
0.8765605864
 40
1.0
 40
1.0
 40
1.0
 40
1.0
 10
13.20719995
 20
6.6907434853
 30
0.0
 10
13.20719995
 20
6.6842451603
 30
0.0
 10
13.2065794894
 20
6.6712821811
 30
0.0
 10
13.2037735579
 20
6.652087035
 30
0.0
 10
13.1991208364
 20
6.6333741813
 30
0.0
 10
13.1926633536
 20
6.61531863
 30
0.0
 10
13.1844603339
 20
6.5980868884
 30
0.0
 10
13.1745866088
 20
6.5818380539
 30
0.0
 10
13.1631349865
 20
6.5667243794
 30
0.0
 10
13.1545124867
 20
6.5574920716
 30
0.0
 10
13.1499820152
 20
6.5531159421
 30
0.0
  0
SPLINE
  5
2E7
100
AcDbEntity
  8
0
100
AcDbSpline
 62
7
  6
CONTINUOUS
 70
0
 71
3
 72
15
 73
11
 74
0
 42
0.0000001
 43
0.0000001
 44
0.0000000001
 40
0.0
 40
0.0
 40
0.0
 40
0.0
 40
0.1273482789
 40
0.2538606571
 40
0.3795878378
 40
0.5046051156
 40
0.629017439
 40
0.7529533823
 40
0.8765605864
 40
1.0
 40
1.0
 40
1.0
 40
1.0
 10
13.20719995
 20
9.347039665
 30
0.0
 10
13.20719995
 20
9.34054134
 30
0.0
 10
13.2065794894
 20
9.3275783608
 30
0.0
 10
13.2037735579
 20
9.3083832147
 30
0.0
 10
13.1991208364
 20
9.289670361
 30
0.0
 10
13.1926633536
 20
9.2716148097
 30
0.0
 10
13.1844603339
 20
9.2543830681
 30
0.0
 10
13.1745866088
 20
9.2381342336
 30
0.0
 10
13.1631349865
 20
9.2230205591
 30
0.0
 10
13.1545124867
 20
9.2137882513
 30
0.0
 10
13.1499820152
 20
9.2094121218
 30
0.0
  0
SPLINE
  5
2E8
100
AcDbEntity
  8
0
100
AcDbSpline
 62
7
  6
CONTINUOUS
 70
0
 71
3
 72
15
 73
11
 74
0
 42
0.0000001
 43
0.0000001
 44
0.0000000001
 40
0.0
 40
0.0
 40
0.0
 40
0.0
 40
0.1273482808
 40
0.2538605196
 40
0.3795878971
 40
0.5046050835
 40
0.6290174393
 40
0.7529533827
 40
0.8765605876
 40
1.0
 40
1.0
 40
1.0
 40
1.0
 10
10.573602896
 20
9.5905335655
 30
0.0
 10
10.573602896
 20
9.5862064917
 30
0.0
 10
10.5731897536
 20
9.5775747692
 30
0.0
 10
10.5713213468
 20
9.5647931956
 30
0.0
 10
10.5682232168
 20
9.5523327706
 30
0.0
 10
10.5639233411
 20
9.5403100213
 30
0.0
 10
10.5584611905
 20
9.5288358166
 30
0.0
 10
10.5518865375
 20
9.5180161075
 30
0.0
 10
10.5442611853
 20
9.5079522873
 30
0.0
 10
10.5385196937
 20
9.5018047062
 30
0.0
 10
10.5355029677
 20
9.4988907471
 30
0.0
  0
SPLINE
  5
2E9
100
AcDbEntity
  8
0
100
AcDbSpline
 62
7
  6
CONTINUOUS
 70
0
 71
3
 72
15
 73
11
 74
0
 42
0.0000001
 43
0.0000001
 44
0.0000000001
 40
0.0
 40
0.0
 40
0.0
 40
0.0
 40
0.1273482808
 40
0.2538605196
 40
0.3795878971
 40
0.5046050835
 40
0.6290174393
 40
0.7529533827
 40
0.8765605876
 40
1.0
 40
1.0
 40
1.0
 40
1.0
 10
11.1773065732
 20
6.7706637735
 30
0.0
 10
11.1773065732
 20
6.7663366997
 30
0.0
 10
11.1768934308
 20
6.7577049772
 30
0.0
 10
11.175025024
 20
6.7449234036
 30
0.0
 10
11.171926894
 20
6.7324629786
 30
0.0
 10
11.1676270183
 20
6.7204402293
 30
0.0
 10
11.1621648677
 20
6.7089660246
 30
0.0
 10
11.1555902147
 20
6.6981463155
 30
0.0
 10
11.1479648625
 20
6.6880824953
 30
0.0
 10
11.1422233709
 20
6.6819349142
 30
0.0
 10
11.1392066449
 20
6.6790209551
 30
0.0
  0
SPLINE
  5
2EA
100
AcDbEntity
  8
0
100
AcDbSpline
 62
7
  6
CONTINUOUS
 70
0
 71
3
 72
15
 73
11
 74
0
 42
0.0000001
 43
0.0000001
 44
0.0000000001
 40
0.0
 40
0.0
 40
0.0
 40
0.0
 40
0.1273473901
 40
0.2538608346
 40
0.3795878351
 40
0.5046051039
 40
0.6290174461
 40
0.7529533848
 40
0.8765605883
 40
1.0
 40
1.0
 40
1.0
 40
1.0
 10
12.1282605392
 20
9.4218643673
 30
0.0
 10
12.1282605392
 20
9.4194621642
 30
0.0
 10
12.1280311717
 20
9.4146701691
 30
0.0
 10
12.1269939324
 20
9.4075743431
 30
0.0
 10
12.125273957
 20
9.4006567948
 30
0.0
 10
12.1228868419
 20
9.3939822455
 30
0.0
 10
12.1198544644
 20
9.3876122238
 30
0.0
 10
12.1162044731
 20
9.3816055536
 30
0.0
 10
12.11197118
 20
9.3760185198
 30
0.0
 10
12.1087837341
 20
9.3726056239
 30
0.0
 10
12.1071089671
 20
9.3709879096
 30
0.0
  0
SPLINE
  5
2EB
100
AcDbEntity
  8
0
100
AcDbSpline
 62
7
  6
CONTINUOUS
 70
0
 71
3
 72
15
 73
11
 74
0
 42
0.0000001
 43
0.0000001
 44
0.0000000001
 40
0.0
 40
0.0
 40
0.0
 40
0.0
 40
0.1273473901
 40
0.2538608346
 40
0.3795878351
 40
0.5046051039
 40
0.6290174461
 40
0.7529533848
 40
0.8765605883
 40
1.0
 40
1.0
 40
1.0
 40
1.0
 10
9.9095288511
 20
6.9194377528
 30
0.0
 10
9.9095288511
 20
6.9170355497
 30
0.0
 10
9.9092994836
 20
6.9122435546
 30
0.0
 10
9.9082622443
 20
6.9051477286
 30
0.0
 10
9.9065422689
 20
6.8982301803
 30
0.0
 10
9.9041551538
 20
6.891555631
 30
0.0
 10
9.9011227763
 20
6.8851856093
 30
0.0
 10
9.897472785
 20
6.8791789391
 30
0.0
 10
9.8932394919
 20
6.8735919053
 30
0.0
 10
9.8900520459
 20
6.8701790094
 30
0.0
 10
9.888377279
 20
6.8685612951
 30
0.0
  0
SPLINE
  5
2EC
100
AcDbEntity
  8
0
100
AcDbSpline
 62
7
  6
CONTINUOUS
 70
0
 71
3
 72
41
 73
37
 74
0
 42
0.0000001
 43
0.0000001
 44
0.0000000001
 40
0.0
 40
0.0
 40
0.0
 40
0.0
 40
0.0309333752
 40
0.0464561907
 40
0.0620136263
 40
0.0932266134
 40
0.1245684191
 40
0.1402864994
 40
0.1560326845
 40
0.1875987381
 40
0.2192565561
 40
0.2509907605
 40
0.2827850897
 40
0.3146227578
 40
0.3464867909
 40
0.3783603305
 40
0.4102268998
 40
0.4420706318
 40
0.4738764592
 40
0.5056302698
 40
0.5373190299
 40
0.5689308809
 40
0.6004552138
 40
0.6318827262
 40
0.6632054655
 40
0.6944168637
 40
0.7255117648
 40
0.756486449
 40
0.7873386552
 40
0.8180676017
 40
0.8486740056
 40
0.8791601016
 40
0.9095296581
 40
0.9397879905
 40
0.9699419663
 40
1.0
 40
1.0
 40
1.0
 40
1.0
 10
9.8341866321
 20
9.3885672558
 30
0.0
 10
9.8413575149
 20
9.3880699534
 30
0.0
 10
9.8521059361
 20
9.3869554433
 30
0.0
 10
9.8663481293
 20
9.3847481293
 30
0.0
 10
9.8805729346
 20
9.3820533646
 30
0.0
 10
9.898229609
 20
9.3777848301
 30
0.0
 10
9.9156028625
 20
9.3723540665
 30
0.0
 10
9.9293065121
 20
9.3673267873
 30
0.0
 10
9.942889334
 20
9.3618409946
 30
0.0
 10
9.9595668438
 20
9.3541533567
 30
0.0
 10
9.9789952084
 20
9.3436623759
 30
0.0
 10
9.9977774789
 20
9.3319534881
 30
0.0
 10
10.0158382332
 20
9.3190883395
 30
0.0
 10
10.0331084263
 20
9.3051323715
 30
0.0
 10
10.0495246346
 20
9.2901543757
 30
0.0
 10
10.0650292772
 20
9.2742256525
 30
0.0
 10
10.0795704434
 20
9.2574193639
 30
0.0
 10
10.0931017196
 20
9.2398099361
 30
0.0
 10
10.1055819363
 20
9.2214725586
 30
0.0
 10
10.1169748808
 20
9.2024827703
 30
0.0
 10
10.1272489868
 20
9.1829161328
 30
0.0
 10
10.1363770176
 20
9.1628479841
 30
0.0
 10
10.1443357556
 20
9.1423532665
 30
0.0
 10
10.1511057093
 20
9.1215064195
 30
0.0
 10
10.1566708458
 20
9.1003813292
 30
0.0
 10
10.1610183555
 20
9.079051324
 30
0.0
 10
10.1641384536
 20
9.0575892089
 30
0.0
 10
10.1660242228
 20
9.0360673287
 30
0.0
 10
10.1666714988
 20
9.0145576531
 30
0.0
 10
10.1660788008
 20
8.9931318712
 30
0.0
 10
10.1642473143
 20
8.9718615027
 30
0.0
 10
10.1611808963
 20
8.9508179657
 30
0.0
 10
10.1568861961
 20
8.9300727824
 30
0.0
 10
10.1513725817
 20
8.909697219
 30
0.0
 10
10.1446529954
 20
8.8897639279
 30
0.0
 10
10.1393708752
 20
8.8767960913
 30
0.0
 10
10.1365349988
 20
8.8704130016
 30
0.0
  0
SPLINE
  5
2ED
100
AcDbEntity
  8
0
100
AcDbSpline
 62
7
  6
CONTINUOUS
 70
0
 71
3
 72
41
 73
37
 74
0
 42
0.0000001
 43
0.0000001
 44
0.0000000001
 40
0.0
 40
0.0
 40
0.0
 40
0.0
 40
0.0309333752
 40
0.0464561907
 40
0.0620136263
 40
0.0932266134
 40
0.1245684191
 40
0.1402864994
 40
0.1560326845
 40
0.1875987381
 40
0.2192565561
 40
0.2509907605
 40
0.2827850897
 40
0.3146227578
 40
0.3464867909
 40
0.3783603305
 40
0.4102268998
 40
0.4420706318
 40
0.4738764592
 40
0.5056302698
 40
0.5373190299
 40
0.5689308809
 40
0.6004552138
 40
0.6318827262
 40
0.6632054655
 40
0.6944168637
 40
0.7255117648
 40
0.756486449
 40
0.7873386552
 40
0.8180676017
 40
0.8486740056
 40
0.8791601016
 40
0.9095296581
 40
0.9397879905
 40
0.9699419663
 40
1.0
 40
1.0
 40
1.0
 40
1.0
 10
11.0415939865
 20
9.3048332713
 30
0.0
 10
11.0487648693
 20
9.3043359689
 30
0.0
 10
11.0595132905
 20
9.3032214589
 30
0.0
 10
11.0737554837
 20
9.3010141449
 30
0.0
 10
11.087980289
 20
9.2983193802
 30
0.0
 10
11.1056369634
 20
9.2940508456
 30
0.0
 10
11.1230102169
 20
9.2886200821
 30
0.0
 10
11.1367138665
 20
9.2835928028
 30
0.0
 10
11.1502966884
 20
9.2781070102
 30
0.0
 10
11.1669741983
 20
9.2704193722
 30
0.0
 10
11.1864025628
 20
9.2599283915
 30
0.0
 10
11.2051848333
 20
9.2482195037
 30
0.0
 10
11.2232455876
 20
9.2353543551
 30
0.0
 10
11.2405157807
 20
9.2213983871
 30
0.0
 10
11.256931989
 20
9.2064203913
 30
0.0
 10
11.2724366316
 20
9.190491668
 30
0.0
 10
11.2869777978
 20
9.1736853794
 30
0.0
 10
11.300509074
 20
9.1560759517
 30
0.0
 10
11.3129892907
 20
9.1377385742
 30
0.0
 10
11.3243822352
 20
9.1187487859
 30
0.0
 10
11.3346563412
 20
9.0991821484
 30
0.0
 10
11.343784372
 20
9.0791139996
 30
0.0
 10
11.35174311
 20
9.058619282
 30
0.0
 10
11.3585130637
 20
9.0377724351
 30
0.0
 10
11.3640782002
 20
9.0166473448
 30
0.0
 10
11.3684257099
 20
8.9953173396
 30
0.0
 10
11.371545808
 20
8.9738552244
 30
0.0
 10
11.3734315772
 20
8.9523333443
 30
0.0
 10
11.3740788532
 20
8.9308236687
 30
0.0
 10
11.3734861553
 20
8.9093978868
 30
0.0
 10
11.3716546687
 20
8.8881275183
 30
0.0
 10
11.3685882507
 20
8.8670839813
 30
0.0
 10
11.3642935505
 20
8.8463387979
 30
0.0
 10
11.3587799361
 20
8.8259632346
 30
0.0
 10
11.3520603498
 20
8.8060299434
 30
0.0
 10
11.3467782297
 20
8.7930621069
 30
0.0
 10
11.3439423532
 20
8.7866790171
 30
0.0
  0
SPLINE
  5
2EE
100
AcDbEntity
  8
0
100
AcDbSpline
 62
7
  6
CONTINUOUS
 70
0
 71
3
 72
39
 73
35
 74
0
 42
0.0000001
 43
0.0000001
 44
0.0000000001
 40
0.0
 40
0.0
 40
0.0
 40
0.0
 40
0.031035685
 40
0.0622167064
 40
0.0935340461
 40
0.1249822204
 40
0.1565500817
 40
0.1882255135
 40
0.2199942992
 40
0.2518406701
 40
0.2837476183
 40
0.3156971601
 40
0.3476706701
 40
0.3796492097
 40
0.4116138503
 40
0.443545978
 40
0.475427589
 40
0.5072415777
 40
0.5389720285
 40
0.570604468
 40
0.6021260932
 40
0.6335259789
 40
0.664795271
 40
0.6959273603
 40
0.7269180072
 40
0.7577654342
 40
0.7884703851
 40
0.8190361536
 40
0.8494685724
 40
0.879775946
 40
0.9099689385
 40
0.940060414
 40
0.9700652318
 40
1.0
 40
1.0
 40
1.0
 40
1.0
 10
12.0529183203
 20
9.0049205502
 30
0.0
 10
12.0556586198
 20
9.0047305098
 30
0.0
 10
12.0611408151
 20
9.0041617178
 30
0.0
 10
12.0693045401
 20
9.0027531576
 30
0.0
 10
12.0773917045
 20
9.0007936736
 30
0.0
 10
12.0853639405
 20
8.998293066
 30
0.0
 10
12.0931843974
 20
8.9952632386
 30
0.0
 10
12.1008167173
 20
8.9917188755
 30
0.0
 10
12.1082256709
 20
8.987677015
 30
0.0
 10
12.1153771908
 20
8.9831570255
 30
0.0
 10
12.1222385612
 20
8.9781804533
 30
0.0
 10
12.1287785546
 20
8.9727708892
 30
0.0
 10
12.134967565
 20
8.9669538329
 30
0.0
 10
12.1407777639
 20
8.9607565804
 30
0.0
 10
12.1461831813
 20
8.9542080361
 30
0.0
 10
12.1511597911
 20
8.9473385588
 30
0.0
 10
12.1556855901
 20
8.9401798118
 30
0.0
 10
12.1597406647
 20
8.9327646109
 30
0.0
 10
12.1633072949
 20
8.9251267965
 30
0.0
 10
12.1663699588
 20
8.9173010537
 30
0.0
 10
12.1689153681
 20
8.9093227705
 30
0.0
 10
12.1709324951
 20
8.9012278959
 30
0.0
 10
12.1724126075
 20
8.8930528046
 30
0.0
 10
12.1733493294
 20
8.8848341621
 30
0.0
 10
12.1737385991
 20
8.8766087746
 30
0.0
 10
12.1735786857
 20
8.8684134606
 30
0.0
 10
12.1728701853
 20
8.8602849213
 30
0.0
 10
12.1716160536
 20
8.852259605
 30
0.0
 10
12.1698216216
 20
8.8443735677
 30
0.0
 10
12.1674945303
 20
8.8366623286
 30
0.0
 10
12.1646447671
 20
8.829160787
 30
0.0
 10
12.1612845048
 20
8.8219028962
 30
0.0
 10
12.1574286204
 20
8.8149222187
 30
0.0
 10
12.1545352704
 20
8.8104691721
 30
0.0
 10
12.1530127491
 20
8.8083008841
 30
0.0
  0
SPLINE
  5
2EF
100
AcDbEntity
  8
0
100
AcDbSpline
 62
7
  6
CONTINUOUS
 70
0
 71
3
 72
39
 73
35
 74
0
 42
0.0000001
 43
0.0000001
 44
0.0000000001
 40
0.0
 40
0.0
 40
0.0
 40
0.0
 40
0.0309163428
 40
0.046432028
 40
0.0619831643
 40
0.0931854683
 40
0.1245187232
 40
0.1402331306
 40
0.1559758169
 40
0.187534796
 40
0.2191848339
 40
0.2509097254
 40
0.2826925781
 40
0.3145162218
 40
0.3463635732
 40
0.3782179442
 40
0.410063294
 40
0.441884426
 40
0.473667136
 40
0.5053983158
 40
0.5686359209
 40
0.6315404283
 40
0.662859004
 40
0.6940725826
 40
0.725176493
 40
0.7561672606
 40
0.787042601
 40
0.8178014192
 40
0.8484438205
 40
0.8789711284
 40
0.9093859095
 40
0.9396920014
 40
0.9698945427
 40
1.0
 40
1.0
 40
1.0
 40
1.0
 10
10.4378903093
 20
7.7875861995
 30
0.0
 10
10.4450530141
 20
7.7870894643
 30
0.0
 10
10.4557890724
 20
7.7859665922
 30
0.0
 10
10.4700111488
 20
7.7837308228
 30
0.0
 10
10.484214058
 20
7.7809961451
 30
0.0
 10
10.5018371553
 20
7.7766574506
 30
0.0
 10
10.5191647635
 20
7.7711335976
 30
0.0
 10
10.5328236925
 20
7.7660207196
 30
0.0
 10
10.5463560469
 20
7.7604426715
 30
0.0
 10
10.5629589776
 20
7.7526297503
 30
0.0
 10
10.582279486
 20
7.7419794185
 30
0.0
 10
10.6009368749
 20
7.7301088816
 30
0.0
 10
10.6188584057
 20
7.7170864044
 30
0.0
 10
10.6359790112
 20
7.7029834527
 30
0.0
 10
10.6522403359
 20
7.6878740032
 30
0.0
 10
10.667590742
 20
7.67183353
 30
0.0
 10
10.6819849405
 20
7.6549381488
 30
0.0
 10
10.6953834388
 20
7.6372642541
 30
0.0
 10
10.7077525999
 20
7.6188868644
 30
0.0
 10
10.7228132839
 20
7.5935804059
 30
0.0
 10
10.7389401588
 20
7.5605669674
 30
0.0
 10
10.7513652664
 20
7.5260941288
 30
0.0
 10
10.7590016888
 20
7.4979697098
 30
0.0
 10
10.7635663654
 20
7.4766972775
 30
0.0
 10
10.7669683318
 20
7.4552859002
 30
0.0
 10
10.7692028903
 20
7.4338001953
 30
0.0
 10
10.7702667836
 20
7.4123050292
 30
0.0
 10
10.7701584986
 20
7.3908646089
 30
0.0
 10
10.7688781123
 20
7.3695430141
 30
0.0
 10
10.7664273139
 20
7.3484043098
 30
0.0
 10
10.7628094981
 20
7.327512889
 30
0.0
 10
10.7580297199
 20
7.3069332766
 30
0.0
 10
10.7520954513
 20
7.2867317699
 30
0.0
 10
10.7473676969
 20
7.2735379471
 30
0.0
 10
10.7448150112
 20
7.2670290192
 30
0.0
  0
SPLINE
  5
2F0
100
AcDbEntity
  8
0
100
AcDbSpline
 62
7
  6
CONTINUOUS
 70
0
 71
3
 72
21
 73
17
 74
0
 42
0.0000001
 43
0.0000001
 44
0.0000000001
 40
0.0
 40
0.0
 40
0.0
 40
0.0
 40
0.0614850772
 40
0.123009948
 40
0.1845978969
 40
0.2462785896
 40
0.3080756805
 40
0.3700121339
 40
0.432108103
 40
0.4943810518
 40
0.5568455782
 40
0.6195132601
 40
0.6823927172
 40
0.7454897933
 40
0.8723058413
 40
1.0
 40
1.0
 40
1.0
 40
1.0
 10
11.8789384533
 20
7.0930341809
 30
0.0
 10
11.8752953403
 20
7.0896437186
 30
0.0
 10
11.867800922
 20
7.0830779802
 30
0.0
 10
11.8559853395
 20
7.0739183612
 30
0.0
 10
11.8436302915
 20
7.065471636
 30
0.0
 10
11.8307771354
 20
7.0577617269
 30
0.0
 10
11.8174677391
 20
7.0508083589
 30
0.0
 10
11.8037457535
 20
7.0446276433
 30
0.0
 10
11.7896555185
 20
7.0392318926
 30
0.0
 10
11.7752418422
 20
7.0346297834
 30
0.0
 10
11.7605495144
 20
7.0308265138
 30
0.0
 10
11.7456231354
 20
7.0278240059
 30
0.0
 10
11.7305061731
 20
7.0256211295
 30
0.0
 10
11.7101231331
 20
7.0237417413
 30
0.0
 10
11.6843716215
 20
7.0233752537
 30
0.0
 10
11.6638088378
 20
7.0251310599
 30
0.0
 10
11.6535639718
 20
7.0264987854
 30
0.0
  0
SPLINE
  5
2F1
100
AcDbEntity
  8
0
100
AcDbSpline
 62
7
  6
CONTINUOUS
 70
0
 71
3
 72
33
 73
29
 74
0
 42
0.0000001
 43
0.0000001
 44
0.0000000001
 40
0.0
 40
0.0
 40
0.0
 40
0.0
 40
0.0712719564
 40
0.1436235603
 40
0.2165540253
 40
0.2895568166
 40
0.3621248831
 40
0.4337550199
 40
0.4690638544
 40
0.5039535539
 40
0.538364311
 40
0.5722374075
 40
0.6055153685
 40
0.6381421199
 40
0.6700631366
 40
0.7012256012
 40
0.7315785718
 40
0.7610731675
 40
0.7896627749
 40
0.8173032478
 40
0.8439531377
 40
0.8695739593
 40
0.8941305019
 40
0.9175912131
 40
0.9399286266
 40
0.9611198967
 40
0.9811474782
 40
1.0
 40
1.0
 40
1.0
 40
1.0
 10
13.4472448964
 20
8.0867572021
 30
0.0
 10
13.4472448964
 20
8.1089789851
 30
0.0
 10
13.4477655404
 20
8.1537606712
 30
0.0
 10
13.4500463326
 20
8.2212463034
 30
0.0
 10
13.4538180855
 20
8.2892057763
 30
0.0
 10
13.4590529993
 20
8.3571358504
 30
0.0
 10
13.4657122934
 20
8.424533638
 30
0.0
 10
13.4724389131
 20
8.4801013525
 30
0.0
 10
13.4785048887
 20
8.5239047161
 30
0.0
 10
13.4833549158
 20
8.556158877
 30
0.0
 10
13.4885179614
 20
8.5879109631
 30
0.0
 10
13.493984477
 20
8.619102203
 30
0.0
 10
13.4997442966
 20
8.6496748164
 30
0.0
 10
13.5057867127
 20
8.6795721948
 30
0.0
 10
13.5121004907
 20
8.7087389854
 30
0.0
 10
13.5186738909
 20
8.7371211974
 30
0.0
 10
13.5254946897
 20
8.7646663017
 30
0.0
 10
13.5325502028
 20
8.7913233372
 30
0.0
 10
13.5398272971
 20
8.8170430137
 30
0.0
 10
13.5473124288
 20
8.8417778034
 30
0.0
 10
13.5549916675
 20
8.8654820292
 30
0.0
 10
13.5628507245
 20
8.8881119574
 30
0.0
 10
13.5708749846
 20
8.9096258885
 30
0.0
 10
13.5790495344
 20
8.9299842741
 30
0.0
 10
13.5873591795
 20
8.9491497414
 30
0.0
 10
13.5957886086
 20
8.967087387
 30
0.0
 10
13.6043220486
 20
8.9837641382
 30
0.0
 10
13.6102500703
 20
8.9943427186
 30
0.0
 10
13.6132362308
 20
8.9994056964
 30
0.0
  0
SPLINE
  5
2F2
100
AcDbEntity
  8
0
100
AcDbSpline
 62
7
  6
CONTINUOUS
 70
0
 71
3
 72
32
 73
28
 74
0
 42
0.0000001
 43
0.0000001
 44
0.0000000001
 40
0.0
 40
0.0
 40
0.0
 40
0.0
 40
0.0851787614
 40
0.1685807002
 40
0.2498832653
 40
0.3287741212
 40
0.4049545312
 40
0.4781407237
 40
0.5480664211
 40
0.5817295925
 40
0.6144870438
 40
0.6463116105
 40
0.6771777326
 40
0.7070617063
 40
0.7359416555
 40
0.7637979445
 40
0.7906130811
 40
0.8163723145
 40
0.8410635061
 40
0.8646779434
 40
0.8872102421
 40
0.9086594218
 40
0.9290289468
 40
0.948328137
 40
0.9665725098
 40
0.9837856371
 40
1.0
 40
1.0
 40
1.0
 40
1.0
 10
7.4315364129
 20
7.3753058908
 30
0.0
 10
7.4315364129
 20
7.3643037793
 30
0.0
 10
7.4317238914
 20
7.3425285289
 30
0.0
 10
7.4325837656
 20
7.3102620748
 30
0.0
 10
7.4340159011
 20
7.2788287026
 30
0.0
 10
7.4360140988
 20
7.2483607984
 30
0.0
 10
7.438569681
 20
7.2189864667
 30
0.0
 10
7.4416716698
 20
7.1908293556
 30
0.0
 10
7.4447382331
 20
7.1682001246
 30
0.0
 10
7.4474677593
 20
7.1508012416
 30
0.0
 10
7.449616819
 20
7.1382942104
 30
0.0
 10
7.4518913886
 20
7.1261767754
 30
0.0
 10
7.4542891033
 20
7.1144616581
 30
0.0
 10
7.4568073873
 20
7.1031611717
 30
0.0
 10
7.4594436098
 20
7.0922871788
 30
0.0
 10
7.4621949316
 20
7.0818510819
 30
0.0
 10
7.4650584995
 20
7.0718638157
 30
0.0
 10
7.46803122
 20
7.0623358173
 30
0.0
 10
7.4711100401
 20
7.0532770388
 30
0.0
 10
7.4742916354
 20
7.0446968931
 30
0.0
 10
7.4775727841
 20
7.0366042978
 30
0.0
 10
7.480949969
 20
7.0290075845
 30
0.0
 10
7.4844198541
 20
7.0219145822
 30
0.0
 10
7.4879787813
 20
7.0153325127
 30
0.0
 10
7.4916234476
 20
7.0092680113
 30
0.0
 10
7.4953499649
 20
7.0037274363
 30
0.0
 10
7.497963065
 20
7.0002862519
 30
0.0
 10
7.4992845207
 20
6.9986614557
 30
0.0
  0
SPLINE
  5
2F3
100
AcDbEntity
  8
0
100
AcDbSpline
 62
7
  6
CONTINUOUS
 70
0
 71
3
 72
40
 73
36
 74
0
 42
0.0000001
 43
0.0000001
 44
0.0000000001
 40
0.0
 40
0.0
 40
0.0
 40
0.0
 40
0.0071626229
 40
0.0146567641
 40
0.0224900299
 40
0.0306686382
 40
0.0391976632
 40
0.0480809304
 40
0.057320739
 40
0.0669183362
 40
0.0768740602
 40
0.0871873292
 40
0.0978569438
 40
0.1088808796
 40
0.1319798546
 40
0.1564577669
 40
0.1822792814
 40
0.2094023218
 40
0.2377788737
 40
0.2673557011
 40
0.2980749227
 40
0.3298744798
 40
0.3626885204
 40
0.3964477562
 40
0.4310798366
 40
0.466509658
 40
0.5026596479
 40
0.539450022
 40
0.5767990774
 40
0.6146234699
 40
0.69135667
 40
0.7689611838
 40
0.8467369066
 40
0.9239815346
 40
1.0
 40
1.0
 40
1.0
 40
1.0
 10
7.5689692124
 20
10.1344082664
 30
0.0
 10
7.5678189937
 20
10.1332972404
 30
0.0
 10
7.5655200809
 20
10.1309665275
 30
0.0
 10
7.562150609
 20
10.1272418269
 30
0.0
 10
7.5587853955
 20
10.1232129814
 30
0.0
 10
7.5554266489
 20
10.1188825965
 30
0.0
 10
7.5520761975
 20
10.1142532365
 30
0.0
 10
7.5487360226
 20
10.1093275438
 30
0.0
 10
7.5454080003
 20
10.1041084467
 30
0.0
 10
7.542094144
 20
10.0985990343
 30
0.0
 10
7.5387964678
 20
10.092802579
 30
0.0
 10
7.535516877
 20
10.0867225651
 30
0.0
 10
7.532257373
 20
10.0803625797
 30
0.0
 10
7.5278722974
 20
10.0713739021
 30
0.0
 10
7.5224672233
 20
10.0594556513
 30
0.0
 10
7.516188725
 20
10.0443159272
 30
0.0
 10
7.510035934
 20
10.0281596825
 30
0.0
 10
7.5040237386
 20
10.0110256143
 30
0.0
 10
7.4981666785
 20
9.9929546099
 30
0.0
 10
7.4924789341
 20
9.9739899663
 30
0.0
 10
7.4869742809
 20
9.9541771551
 30
0.0
 10
7.4816660557
 20
9.9335637335
 30
0.0
 10
7.4765671145
 20
9.9121992236
 30
0.0
 10
7.4716897884
 20
9.8901349908
 30
0.0
 10
7.4670458772
 20
9.867424102
 30
0.0
 10
7.4626466147
 20
9.84412119
 30
0.0
 10
7.4585026445
 20
9.8202823224
 30
0.0
 10
7.4546239885
 20
9.795964888
 30
0.0
 10
7.4510199715
 20
9.7712273842
 30
0.0
 10
7.4465714708
 20
9.7376037513
 30
0.0
 10
7.4417659594
 20
9.6949651295
 30
0.0
 10
7.4372397546
 20
9.6433346953
 30
0.0
 10
7.4339707497
 20
9.5914947617
 30
0.0
 10
7.4319902715
 20
9.5399443304
 30
0.0
 10
7.4315364129
 20
9.5057241837
 30
0.0
 10
7.4315364129
 20
9.488751724
 30
0.0
  0
SPLINE
  5
2F4
100
AcDbEntity
  8
0
100
AcDbSpline
 62
7
  6
CONTINUOUS
 70
0
 71
3
 72
41
 73
37
 74
0
 42
0.0000001
 43
0.0000001
 44
0.0000000001
 40
0.0
 40
0.0
 40
0.0
 40
0.0
 40
0.029942123
 40
0.0449237706
 40
0.0599145177
 40
0.0899291716
 40
0.1200145961
 40
0.1350933574
 40
0.1501974726
 40
0.1804849654
 40
0.2108989488
 40
0.2414525624
 40
0.2721557217
 40
0.3030149378
 40
0.3340332219
 40
0.3652100719
 40
0.3965415365
 40
0.4280203507
 40
0.4596361361
 40
0.4913756582
 40
0.5232231336
 40
0.5551605782
 40
0.5871681905
 40
0.6192247616
 40
0.6513081064
 40
0.6833955071
 40
0.7154641657
 40
0.7474916563
 40
0.7794563734
 40
0.811337967
 40
0.843117763
 40
0.8747791516
 40
0.9063079641
 40
0.9376927517
 40
0.9689251728
 40
1.0
 40
1.0
 40
1.0
 40
1.0
 10
8.9930935128
 20
9.7808845594
 30
0.0
 10
8.9965939302
 20
9.7842657262
 30
0.0
 10
9.0020508416
 20
9.7891326521
 30
0.0
 10
9.0096931618
 20
9.795171434
 30
0.0
 10
9.0175788704
 20
9.8009097039
 30
0.0
 10
9.027868419
 20
9.8074991305
 30
0.0
 10
9.0386582805
 20
9.8132629658
 30
0.0
 10
9.0475571107
 20
9.8173634104
 30
0.0
 10
9.0566397924
 20
9.8211253154
 30
0.0
 10
9.0682924508
 20
9.8251704833
 30
0.0
 10
9.0826526085
 20
9.8289404928
 30
0.0
 10
9.0973261176
 20
9.8316112969
 30
0.0
 10
9.1122316617
 20
9.8331681543
 30
0.0
 10
9.12728736
 20
9.8336027581
 30
0.0
 10
9.1424103712
 20
9.8329128958
 30
0.0
 10
9.1575175748
 20
9.8311025524
 30
0.0
 10
9.1725259627
 20
9.8281818529
 30
0.0
 10
9.1873531061
 20
9.824167007
 30
0.0
 10
9.2019175979
 20
9.8190802126
 30
0.0
 10
9.2161394944
 20
9.812949531
 30
0.0
 10
9.2299407478
 20
9.8058087307
 30
0.0
 10
9.2432456283
 20
9.797697101
 30
0.0
 10
9.2559811345
 20
9.7886592365
 30
0.0
 10
9.2680773885
 20
9.7787447938
 30
0.0
 10
9.2794680151
 20
9.7680082203
 30
0.0
 10
9.2900905015
 20
9.7565084582
 30
0.0
 10
9.2998865372
 20
9.744308624
 30
0.0
 10
9.3088023308
 20
9.7314756655
 30
0.0
 10
9.3167889023
 20
9.718079999
 30
0.0
 10
9.3238023511
 20
9.704195125
 30
0.0
 10
9.3298040935
 20
9.689897239
 30
0.0
 10
9.3347610787
 20
9.6752647837
 30
0.0
 10
9.338645961
 20
9.6603781565
 30
0.0
 10
9.3414372714
 20
9.6453187848
 30
0.0
 10
9.3431195073
 20
9.6301704841
 30
0.0
 10
9.3434963008
 20
9.6200392765
 30
0.0
 10
9.3434963008
 20
9.6149884231
 30
0.0
  0
SPLINE
  5
2F5
100
AcDbEntity
  8
0
100
AcDbSpline
 62
7
  6
CONTINUOUS
 70
0
 71
3
 72
41
 73
37
 74
0
 42
0.0000001
 43
0.0000001
 44
0.0000000001
 40
0.0
 40
0.0
 40
0.0
 40
0.0
 40
0.029942123
 40
0.0449237706
 40
0.0599145177
 40
0.0899291716
 40
0.1200145961
 40
0.1350933574
 40
0.1501974726
 40
0.1804849654
 40
0.2108989488
 40
0.2414525624
 40
0.2721557217
 40
0.3030149378
 40
0.3340332219
 40
0.3652100719
 40
0.3965415365
 40
0.4280203507
 40
0.4596361361
 40
0.4913756582
 40
0.5232231336
 40
0.5551605782
 40
0.5871681905
 40
0.6192247616
 40
0.6513081064
 40
0.6833955071
 40
0.7154641657
 40
0.7474916563
 40
0.7794563734
 40
0.811337967
 40
0.843117763
 40
0.8747791516
 40
0.9063079641
 40
0.9376927517
 40
0.9689251728
 40
1.0
 40
1.0
 40
1.0
 40
1.0
 10
8.9930935128
 20
7.1245883798
 30
0.0
 10
8.9965939302
 20
7.1279695465
 30
0.0
 10
9.0020508416
 20
7.1328364724
 30
0.0
 10
9.0096931618
 20
7.1388752543
 30
0.0
 10
9.0175788704
 20
7.1446135242
 30
0.0
 10
9.027868419
 20
7.1512029508
 30
0.0
 10
9.0386582805
 20
7.1569667862
 30
0.0
 10
9.0475571107
 20
7.1610672308
 30
0.0
 10
9.0566397924
 20
7.1648291357
 30
0.0
 10
9.0682924508
 20
7.1688743037
 30
0.0
 10
9.0826526085
 20
7.1726443131
 30
0.0
 10
9.0973261176
 20
7.1753151172
 30
0.0
 10
9.1122316617
 20
7.1768719746
 30
0.0
 10
9.12728736
 20
7.1773065784
 30
0.0
 10
9.1424103712
 20
7.1766167161
 30
0.0
 10
9.1575175748
 20
7.1748063727
 30
0.0
 10
9.1725259627
 20
7.1718856733
 30
0.0
 10
9.1873531061
 20
7.1678708273
 30
0.0
 10
9.2019175979
 20
7.1627840329
 30
0.0
 10
9.2161394944
 20
7.1566533513
 30
0.0
 10
9.2299407478
 20
7.149512551
 30
0.0
 10
9.2432456283
 20
7.1414009213
 30
0.0
 10
9.2559811345
 20
7.1323630568
 30
0.0
 10
9.2680773885
 20
7.1224486141
 30
0.0
 10
9.2794680151
 20
7.1117120406
 30
0.0
 10
9.2900905015
 20
7.1002122785
 30
0.0
 10
9.2998865372
 20
7.0880124443
 30
0.0
 10
9.3088023308
 20
7.0751794858
 30
0.0
 10
9.3167889023
 20
7.0617838193
 30
0.0
 10
9.3238023511
 20
7.0478989453
 30
0.0
 10
9.3298040935
 20
7.0336010593
 30
0.0
 10
9.3347610787
 20
7.018968604
 30
0.0
 10
9.338645961
 20
7.0040819768
 30
0.0
 10
9.3414372714
 20
6.9890226051
 30
0.0
 10
9.3431195073
 20
6.9738743044
 30
0.0
 10
9.3434963008
 20
6.9637430968
 30
0.0
 10
9.3434963008
 20
6.9586922435
 30
0.0
  0
SPLINE
  5
2F6
100
AcDbEntity
  8
0
100
AcDbSpline
 62
7
  6
CONTINUOUS
 70
0
 71
3
 72
41
 73
37
 74
0
 42
0.0000001
 43
0.0000001
 44
0.0000000001
 40
0.0
 40
0.0
 40
0.0
 40
0.0
 40
0.029942123
 40
0.0449237706
 40
0.0599145177
 40
0.0899291716
 40
0.1200145961
 40
0.1350933574
 40
0.1501974726
 40
0.1804849654
 40
0.2108989488
 40
0.2414525624
 40
0.2721557217
 40
0.3030149378
 40
0.3340332219
 40
0.3652100719
 40
0.3965415365
 40
0.4280203507
 40
0.4596361361
 40
0.4913756582
 40
0.5232231336
 40
0.5551605782
 40
0.5871681905
 40
0.6192247616
 40
0.6513081064
 40
0.6833955071
 40
0.7154641657
 40
0.7474916563
 40
0.7794563734
 40
0.811337967
 40
0.843117763
 40
0.8747791516
 40
0.9063079641
 40
0.9376927517
 40
0.9689251728
 40
1.0
 40
1.0
 40
1.0
 40
1.0
 10
12.8567971621
 20
6.8566396216
 30
0.0
 10
12.8602975795
 20
6.8600207884
 30
0.0
 10
12.8657544908
 20
6.8648877142
 30
0.0
 10
12.873396811
 20
6.8709264961
 30
0.0
 10
12.8812825196
 20
6.876664766
 30
0.0
 10
12.8915720682
 20
6.8832541926
 30
0.0
 10
12.9023619297
 20
6.889018028
 30
0.0
 10
12.91126076
 20
6.8931184726
 30
0.0
 10
12.9203434416
 20
6.8968803776
 30
0.0
 10
12.9319961
 20
6.9009255455
 30
0.0
 10
12.9463562578
 20
6.9046955549
 30
0.0
 10
12.9610297668
 20
6.9073663591
 30
0.0
 10
12.9759353109
 20
6.9089232165
 30
0.0
 10
12.9909910093
 20
6.9093578203
 30
0.0
 10
13.0061140204
 20
6.9086679579
 30
0.0
 10
13.0212212241
 20
6.9068576146
 30
0.0
 10
13.036229612
 20
6.9039369151
 30
0.0
 10
13.0510567554
 20
6.8999220692
 30
0.0
 10
13.0656212471
 20
6.8948352747
 30
0.0
 10
13.0798431436
 20
6.8887045931
 30
0.0
 10
13.093644397
 20
6.8815637929
 30
0.0
 10
13.1069492775
 20
6.8734521631
 30
0.0
 10
13.1196847837
 20
6.8644142987
 30
0.0
 10
13.1317810378
 20
6.8544998559
 30
0.0
 10
13.1431716643
 20
6.8437632824
 30
0.0
 10
13.1537941507
 20
6.8322635203
 30
0.0
 10
13.1635901864
 20
6.8200636862
 30
0.0
 10
13.17250598
 20
6.8072307277
 30
0.0
 10
13.1804925515
 20
6.7938350612
 30
0.0
 10
13.1875060004
 20
6.7799501871
 30
0.0
 10
13.1935077427
 20
6.7656523011
 30
0.0
 10
13.198464728
 20
6.7510198459
 30
0.0
 10
13.2023496102
 20
6.7361332186
 30
0.0
 10
13.2051409206
 20
6.721073847
 30
0.0
 10
13.2068231566
 20
6.7059255462
 30
0.0
 10
13.20719995
 20
6.6957943386
 30
0.0
 10
13.20719995
 20
6.6907434853
 30
0.0
  0
SPLINE
  5
2F7
100
AcDbEntity
  8
0
100
AcDbSpline
 62
7
  6
CONTINUOUS
 70
0
 71
3
 72
41
 73
37
 74
0
 42
0.0000001
 43
0.0000001
 44
0.0000000001
 40
0.0
 40
0.0
 40
0.0
 40
0.0
 40
0.029942123
 40
0.0449237706
 40
0.0599145177
 40
0.0899291716
 40
0.1200145961
 40
0.1350933574
 40
0.1501974726
 40
0.1804849654
 40
0.2108989488
 40
0.2414525624
 40
0.2721557217
 40
0.3030149378
 40
0.3340332219
 40
0.3652100719
 40
0.3965415365
 40
0.4280203507
 40
0.4596361361
 40
0.4913756582
 40
0.5232231336
 40
0.5551605782
 40
0.5871681905
 40
0.6192247616
 40
0.6513081064
 40
0.6833955071
 40
0.7154641657
 40
0.7474916563
 40
0.7794563734
 40
0.811337967
 40
0.843117763
 40
0.8747791516
 40
0.9063079641
 40
0.9376927517
 40
0.9689251728
 40
1.0
 40
1.0
 40
1.0
 40
1.0
 10
12.8567971621
 20
9.5129358013
 30
0.0
 10
12.8602975795
 20
9.516316968
 30
0.0
 10
12.8657544908
 20
9.5211838939
 30
0.0
 10
12.873396811
 20
9.5272226758
 30
0.0
 10
12.8812825196
 20
9.5329609457
 30
0.0
 10
12.8915720682
 20
9.5395503723
 30
0.0
 10
12.9023619297
 20
9.5453142077
 30
0.0
 10
12.91126076
 20
9.5494146523
 30
0.0
 10
12.9203434416
 20
9.5531765573
 30
0.0
 10
12.9319961
 20
9.5572217252
 30
0.0
 10
12.9463562578
 20
9.5609917346
 30
0.0
 10
12.9610297668
 20
9.5636625388
 30
0.0
 10
12.9759353109
 20
9.5652193962
 30
0.0
 10
12.9909910093
 20
9.565654
 30
0.0
 10
13.0061140204
 20
9.5649641376
 30
0.0
 10
13.0212212241
 20
9.5631537942
 30
0.0
 10
13.036229612
 20
9.5602330948
 30
0.0
 10
13.0510567554
 20
9.5562182489
 30
0.0
 10
13.0656212471
 20
9.5511314544
 30
0.0
 10
13.0798431436
 20
9.5450007728
 30
0.0
 10
13.093644397
 20
9.5378599725
 30
0.0
 10
13.1069492775
 20
9.5297483428
 30
0.0
 10
13.1196847837
 20
9.5207104784
 30
0.0
 10
13.1317810378
 20
9.5107960356
 30
0.0
 10
13.1431716643
 20
9.5000594621
 30
0.0
 10
13.1537941507
 20
9.4885597
 30
0.0
 10
13.1635901864
 20
9.4763598658
 30
0.0
 10
13.17250598
 20
9.4635269074
 30
0.0
 10
13.1804925515
 20
9.4501312409
 30
0.0
 10
13.1875060004
 20
9.4362463668
 30
0.0
 10
13.1935077427
 20
9.4219484808
 30
0.0
 10
13.198464728
 20
9.4073160256
 30
0.0
 10
13.2023496102
 20
9.3924293983
 30
0.0
 10
13.2051409206
 20
9.3773700267
 30
0.0
 10
13.2068231566
 20
9.3622217259
 30
0.0
 10
13.20719995
 20
9.3520905183
 30
0.0
 10
13.20719995
 20
9.347039665
 30
0.0
  0
SPLINE
  5
2F8
100
AcDbEntity
  8
0
100
AcDbSpline
 62
7
  6
CONTINUOUS
 70
0
 71
3
 72
40
 73
36
 74
0
 42
0.0000001
 43
0.0000001
 44
0.0000000001
 40
0.0
 40
0.0
 40
0.0
 40
0.0
 40
0.0299422973
 40
0.0449240327
 40
0.059914866
 40
0.089929696
 40
0.1200152967
 40
0.1501925739
 40
0.180480241
 40
0.2108943975
 40
0.2414481839
 40
0.2721515165
 40
0.3030109074
 40
0.3340293686
 40
0.3652063985
 40
0.3965380456
 40
0.4280170434
 40
0.4596330122
 40
0.4913727167
 40
0.5232203738
 40
0.5551580001
 40
0.587165795
 40
0.6192225506
 40
0.6513060818
 40
0.6833936709
 40
0.7154625181
 40
0.7474901959
 40
0.7794550985
 40
0.8113368727
 40
0.8431168595
 40
0.8747783985
 40
0.906307485
 40
0.9376922173
 40
0.9689252845
 40
1.0
 40
1.0
 40
1.0
 40
1.0
 10
10.340277651
 20
9.7009997836
 30
0.0
 10
10.3426084971
 20
9.7032512278
 30
0.0
 10
10.3462421093
 20
9.706492024
 30
0.0
 10
10.3513309724
 20
9.7105131016
 30
0.0
 10
10.3565818357
 20
9.7143341103
 30
0.0
 10
10.3634336013
 20
9.7187219415
 30
0.0
 10
10.3720604578
 20
9.7233304259
 30
0.0
 10
10.3810494422
 20
9.7272599634
 30
0.0
 10
10.3903506875
 20
9.7304887769
 30
0.0
 10
10.3999130066
 20
9.7329992496
 30
0.0
 10
10.4096836992
 20
9.7347776633
 30
0.0
 10
10.4196089748
 20
9.7358143616
 30
0.0
 10
10.4296342157
 20
9.7361037694
 30
0.0
 10
10.4397042858
 20
9.7356444236
 30
0.0
 10
10.4497638303
 20
9.7344389727
 30
0.0
 10
10.4597575768
 20
9.732494156
 30
0.0
 10
10.469630636
 20
9.7298207668
 30
0.0
 10
10.4793288009
 20
9.72643359
 30
0.0
 10
10.4887988394
 20
9.7223513127
 30
0.0
 10
10.4979887818
 20
9.7175964218
 30
0.0
 10
10.5068482023
 20
9.7121950795
 30
0.0
 10
10.5153284912
 20
9.7061769799
 30
0.0
 10
10.5233831184
 20
9.6995751871
 30
0.0
 10
10.5309678853
 20
9.6924259552
 30
0.0
 10
10.5380411645
 20
9.6847685311
 30
0.0
 10
10.5445641251
 20
9.6766449407
 30
0.0
 10
10.5505009495
 20
9.6680997652
 30
0.0
 10
10.5558190238
 20
9.6591798949
 30
0.0
 10
10.5604891212
 20
9.6499342734
 30
0.0
 10
10.5644855396
 20
9.6404136383
 30
0.0
 10
10.5677863002
 20
9.6306702172
 30
0.0
 10
10.5703731328
 20
9.6207575657
 30
0.0
 10
10.572231851
 20
9.6107298464
 30
0.0
 10
10.5733519797
 20
9.6006429401
 30
0.0
 10
10.573602896
 20
9.5938967822
 30
0.0
 10
10.573602896
 20
9.5905335655
 30
0.0
  0
SPLINE
  5
2F9
100
AcDbEntity
  8
0
100
AcDbSpline
 62
7
  6
CONTINUOUS
 70
0
 71
3
 72
40
 73
36
 74
0
 42
0.0000001
 43
0.0000001
 44
0.0000000001
 40
0.0
 40
0.0
 40
0.0
 40
0.0
 40
0.0299422973
 40
0.0449240327
 40
0.059914866
 40
0.089929696
 40
0.1200152967
 40
0.1501925739
 40
0.180480241
 40
0.2108943975
 40
0.2414481839
 40
0.2721515165
 40
0.3030109074
 40
0.3340293686
 40
0.3652063985
 40
0.3965380456
 40
0.4280170434
 40
0.4596330122
 40
0.4913727167
 40
0.5232203738
 40
0.5551580001
 40
0.587165795
 40
0.6192225506
 40
0.6513060818
 40
0.6833936709
 40
0.7154625181
 40
0.7474901959
 40
0.7794550985
 40
0.8113368727
 40
0.8431168595
 40
0.8747783985
 40
0.906307485
 40
0.9376922173
 40
0.9689252845
 40
1.0
 40
1.0
 40
1.0
 40
1.0
 10
10.9439813282
 20
6.8811299915
 30
0.0
 10
10.9463121743
 20
6.8833814358
 30
0.0
 10
10.9499457865
 20
6.886622232
 30
0.0
 10
10.9550346496
 20
6.8906433096
 30
0.0
 10
10.9602855129
 20
6.8944643183
 30
0.0
 10
10.9671372785
 20
6.8988521495
 30
0.0
 10
10.975764135
 20
6.9034606339
 30
0.0
 10
10.9847531194
 20
6.9073901714
 30
0.0
 10
10.9940543647
 20
6.9106189849
 30
0.0
 10
11.0036166838
 20
6.9131294576
 30
0.0
 10
11.0133873764
 20
6.9149078713
 30
0.0
 10
11.023312652
 20
6.9159445696
 30
0.0
 10
11.0333378929
 20
6.9162339774
 30
0.0
 10
11.043407963
 20
6.9157746316
 30
0.0
 10
11.0534675075
 20
6.9145691807
 30
0.0
 10
11.063461254
 20
6.912624364
 30
0.0
 10
11.0733343132
 20
6.9099509748
 30
0.0
 10
11.0830324781
 20
6.906563798
 30
0.0
 10
11.0925025166
 20
6.9024815207
 30
0.0
 10
11.101692459
 20
6.8977266298
 30
0.0
 10
11.1105518795
 20
6.8923252875
 30
0.0
 10
11.1190321684
 20
6.8863071879
 30
0.0
 10
11.1270867956
 20
6.8797053951
 30
0.0
 10
11.1346715625
 20
6.8725561632
 30
0.0
 10
11.1417448417
 20
6.8648987391
 30
0.0
 10
11.1482678023
 20
6.8567751487
 30
0.0
 10
11.1542046267
 20
6.8482299732
 30
0.0
 10
11.159522701
 20
6.8393101029
 30
0.0
 10
11.1641927984
 20
6.8300644814
 30
0.0
 10
11.1681892168
 20
6.8205438463
 30
0.0
 10
11.1714899774
 20
6.8108004251
 30
0.0
 10
11.17407681
 20
6.8008877737
 30
0.0
 10
11.1759355282
 20
6.7908600544
 30
0.0
 10
11.1770556569
 20
6.7807731481
 30
0.0
 10
11.1773065732
 20
6.7740269902
 30
0.0
 10
11.1773065732
 20
6.7706637735
 30
0.0
  0
SPLINE
  5
2FA
100
AcDbEntity
  8
0
100
AcDbSpline
 62
7
  6
CONTINUOUS
 70
0
 71
3
 72
39
 73
35
 74
0
 42
0.0000001
 43
0.0000001
 44
0.0000000001
 40
0.0
 40
0.0
 40
0.0
 40
0.0
 40
0.0299424796
 40
0.0599093277
 40
0.0899243268
 40
0.1200100989
 40
0.1501875564
 40
0.1804754082
 40
0.2108897438
 40
0.2414437065
 40
0.2721472214
 40
0.3030068034
 40
0.334025452
 40
0.3652026597
 40
0.3965344836
 40
0.4280136674
 40
0.4596298279
 40
0.4913697183
 40
0.5232175588
 40
0.5551553757
 40
0.587163368
 40
0.6192203146
 40
0.6513040285
 40
0.6833918015
 40
0.7154608406
 40
0.7474887097
 40
0.7794537919
 40
0.8113357643
 40
0.8431159187
 40
0.8747776681
 40
0.9063070433
 40
0.9376914486
 40
0.9689258945
 40
1.0
 40
1.0
 40
1.0
 40
1.0
 10
11.9987276734
 20
9.4831908262
 30
0.0
 10
12.0000216665
 20
9.4844407382
 30
0.0
 10
12.0027113865
 20
9.4868397077
 30
0.0
 10
12.0070207644
 20
9.4901078584
 30
0.0
 10
12.0115828786
 20
9.4930293896
 30
0.0
 10
12.0163722464
 20
9.4955879081
 30
0.0
 10
12.0213625439
 20
9.497769424
 30
0.0
 10
12.0265262351
 20
9.4995619249
 30
0.0
 10
12.0318348526
 20
9.5009556308
 30
0.0
 10
12.03725915
 20
9.5019429397
 30
0.0
 10
12.0427692657
 20
9.5025184855
 30
0.0
 10
12.0483348806
 20
9.5026791457
 30
0.0
 10
12.0539253809
 20
9.5024241176
 30
0.0
 10
12.0595100366
 20
9.5017548944
 30
0.0
 10
12.0650581662
 20
9.50067522
 30
0.0
 10
12.0705392975
 20
9.499191072
 30
0.0
 10
12.0759233281
 20
9.4973106361
 30
0.0
 10
12.0811807123
 20
9.495044313
 30
0.0
 10
12.0862826032
 20
9.4924045923
 30
0.0
 10
12.0912010069
 20
9.489405994
 30
0.0
 10
12.095908923
 20
9.4860649811
 30
0.0
 10
12.1003805198
 20
9.4823999163
 30
0.0
 10
12.1045912748
 20
9.4784309448
 30
0.0
 10
12.1085180819
 20
9.4741798546
 30
0.0
 10
12.112139378
 20
9.4696699685
 30
0.0
 10
12.1154352569
 20
9.4649260222
 30
0.0
 10
12.1183876352
 20
9.4599740641
 30
0.0
 10
12.1209802885
 20
9.4548412669
 30
0.0
 10
12.1231989574
 20
9.449555797
 30
0.0
 10
12.1250314107
 20
9.4441466317
 30
0.0
 10
12.1264674781
 20
9.4386435385
 30
0.0
 10
12.1274994075
 20
9.433076509
 30
0.0
 10
12.1281212107
 20
9.4274766627
 30
0.0
 10
12.1282605392
 20
9.4237314432
 30
0.0
 10
12.1282605392
 20
9.4218643673
 30
0.0
  0
SPLINE
  5
2FB
100
AcDbEntity
  8
0
100
AcDbSpline
 62
7
  6
CONTINUOUS
 70
0
 71
3
 72
39
 73
35
 74
0
 42
0.0000001
 43
0.0000001
 44
0.0000000001
 40
0.0
 40
0.0
 40
0.0
 40
0.0
 40
0.0299424796
 40
0.0599093277
 40
0.0899243268
 40
0.1200100989
 40
0.1501875564
 40
0.1804754082
 40
0.2108897438
 40
0.2414437065
 40
0.2721472214
 40
0.3030068034
 40
0.334025452
 40
0.3652026597
 40
0.3965344836
 40
0.4280136674
 40
0.4596298279
 40
0.4913697183
 40
0.5232175588
 40
0.5551553757
 40
0.587163368
 40
0.6192203146
 40
0.6513040285
 40
0.6833918015
 40
0.7154608406
 40
0.7474887097
 40
0.7794537919
 40
0.8113357643
 40
0.8431159187
 40
0.8747776681
 40
0.9063070433
 40
0.9376914486
 40
0.9689258945
 40
1.0
 40
1.0
 40
1.0
 40
1.0
 10
9.7799959853
 20
6.9807642117
 30
0.0
 10
9.7812899784
 20
6.9820141237
 30
0.0
 10
9.7839796984
 20
6.9844130932
 30
0.0
 10
9.7882890763
 20
6.9876812439
 30
0.0
 10
9.7928511904
 20
6.9906027751
 30
0.0
 10
9.7976405583
 20
6.9931612936
 30
0.0
 10
9.8026308558
 20
6.9953428095
 30
0.0
 10
9.807794547
 20
6.9971353104
 30
0.0
 10
9.8131031645
 20
6.9985290162
 30
0.0
 10
9.8185274619
 20
6.9995163252
 30
0.0
 10
9.8240375776
 20
7.000091871
 30
0.0
 10
9.8296031925
 20
7.0002525312
 30
0.0
 10
9.8351936928
 20
6.9999975031
 30
0.0
 10
9.8407783484
 20
6.9993282799
 30
0.0
 10
9.8463264781
 20
6.9982486055
 30
0.0
 10
9.8518076093
 20
6.9967644575
 30
0.0
 10
9.85719164
 20
6.9948840216
 30
0.0
 10
9.8624490242
 20
6.9926176985
 30
0.0
 10
9.867550915
 20
6.9899779778
 30
0.0
 10
9.8724693188
 20
6.9869793795
 30
0.0
 10
9.8771772349
 20
6.9836383666
 30
0.0
 10
9.8816488317
 20
6.9799733018
 30
0.0
 10
9.8858595866
 20
6.9760043303
 30
0.0
 10
9.8897863938
 20
6.9717532401
 30
0.0
 10
9.8934076898
 20
6.967243354
 30
0.0
 10
9.8967035688
 20
6.9624994077
 30
0.0
 10
9.8996559471
 20
6.9575474496
 30
0.0
 10
9.9022486004
 20
6.9524146524
 30
0.0
 10
9.9044672692
 20
6.9471291825
 30
0.0
 10
9.9062997225
 20
6.9417200172
 30
0.0
 10
9.90773579
 20
6.936216924
 30
0.0
 10
9.9087677194
 20
6.9306498945
 30
0.0
 10
9.9093895226
 20
6.9250500482
 30
0.0
 10
9.9095288511
 20
6.9213048287
 30
0.0
 10
9.9095288511
 20
6.9194377528
 30
0.0
  0
SPLINE
  5
2FC
100
AcDbEntity
  8
0
100
AcDbSpline
 62
7
  6
CONTINUOUS
 70
0
 71
3
 72
25
 73
21
 74
0
 42
0.0000001
 43
0.0000001
 44
0.0000000001
 40
0.0
 40
0.0
 40
0.0
 40
0.0
 40
0.0623465489
 40
0.0934585148
 40
0.1245318963
 40
0.1865705168
 40
0.2485109913
 40
0.2794627975
 40
0.3104060922
 40
0.3722784996
 40
0.4341855459
 40
0.4961744984
 40
0.5582923278
 40
0.6205844173
 40
0.6830931874
 40
0.7458567391
 40
0.8089074598
 40
0.8722712227
 40
0.935965125
 40
1.0
 40
1.0
 40
1.0
 40
1.0
 10
9.5318382654
 20
9.2038722746
 30
0.0
 10
9.5350259008
 20
9.2110471158
 30
0.0
 10
9.5401851036
 20
9.221639385
 30
0.0
 10
9.5477997144
 20
9.23535123
 30
0.0
 10
9.5558833894
 20
9.2487473604
 30
0.0
 10
9.5668756802
 20
9.2649065708
 30
0.0
 10
9.5790186348
 20
9.2802013367
 30
0.0
 10
9.589385721
 20
9.291854762
 30
0.0
 10
9.6001772902
 20
9.3031042381
 30
0.0
 10
9.6144557245
 20
9.3163909144
 30
0.0
 10
9.632767484
 20
9.3309845943
 30
0.0
 10
9.6521780636
 20
9.3441384979
 30
0.0
 10
9.6725962224
 20
9.355765233
 30
0.0
 10
9.6939219324
 20
9.365784875
 30
0.0
 10
9.7160457102
 20
9.3741254545
 30
0.0
 10
9.7388494451
 20
9.3807246717
 30
0.0
 10
9.7622069964
 20
9.3855313133
 30
0.0
 10
9.7859860392
 20
9.3885063356
 30
0.0
 10
9.8100467806
 20
9.3896244198
 30
0.0
 10
9.8261422745
 20
9.3891251339
 30
0.0
 10
9.8341866321
 20
9.3885672558
 30
0.0
  0
SPLINE
  5
2FD
100
AcDbEntity
  8
0
100
AcDbSpline
 62
7
  6
CONTINUOUS
 70
0
 71
3
 72
25
 73
21
 74
0
 42
0.0000001
 43
0.0000001
 44
0.0000000001
 40
0.0
 40
0.0
 40
0.0
 40
0.0
 40
0.0623465489
 40
0.0934585148
 40
0.1245318963
 40
0.1865705168
 40
0.2485109913
 40
0.2794627975
 40
0.3104060922
 40
0.3722784996
 40
0.4341855459
 40
0.4961744984
 40
0.5582923278
 40
0.6205844173
 40
0.6830931874
 40
0.7458567391
 40
0.8089074598
 40
0.8722712227
 40
0.935965125
 40
1.0
 40
1.0
 40
1.0
 40
1.0
 10
10.7392456198
 20
9.1201382901
 30
0.0
 10
10.7424332552
 20
9.1273131313
 30
0.0
 10
10.747592458
 20
9.1379054006
 30
0.0
 10
10.7552070688
 20
9.1516172456
 30
0.0
 10
10.7632907438
 20
9.165013376
 30
0.0
 10
10.7742830346
 20
9.1811725863
 30
0.0
 10
10.7864259892
 20
9.1964673523
 30
0.0
 10
10.7967930754
 20
9.2081207776
 30
0.0
 10
10.8075846446
 20
9.2193702537
 30
0.0
 10
10.8218630789
 20
9.2326569299
 30
0.0
 10
10.8401748384
 20
9.2472506099
 30
0.0
 10
10.859585418
 20
9.2604045134
 30
0.0
 10
10.8800035768
 20
9.2720312485
 30
0.0
 10
10.9013292868
 20
9.2820508906
 30
0.0
 10
10.9234530646
 20
9.29039147
 30
0.0
 10
10.9462567995
 20
9.2969906872
 30
0.0
 10
10.9696143508
 20
9.3017973289
 30
0.0
 10
10.9933933936
 20
9.3047723512
 30
0.0
 10
11.017454135
 20
9.3058904354
 30
0.0
 10
11.0335496289
 20
9.3053911494
 30
0.0
 10
11.0415939865
 20
9.3048332713
 30
0.0
  0
SPLINE
  5
2FE
100
AcDbEntity
  8
0
100
AcDbSpline
 62
7
  6
CONTINUOUS
 70
0
 71
3
 72
21
 73
17
 74
0
 42
0.0000001
 43
0.0000001
 44
0.0000000001
 40
0.0
 40
0.0
 40
0.0
 40
0.0
 40
0.0619007618
 40
0.1237366836
 40
0.1855410966
 40
0.2473479814
 40
0.3091914522
 40
0.3711051515
 40
0.4331216473
 40
0.4952719492
 40
0.5575850139
 40
0.6200871899
 40
0.6828016334
 40
0.745748607
 40
0.872336424
 40
1.0
 40
1.0
 40
1.0
 40
1.0
 10
11.9528238914
 20
8.9582452617
 30
0.0
 10
11.9541931713
 20
8.9601953121
 30
0.0
 10
11.9570573586
 20
8.9640059337
 30
0.0
 10
11.9617137883
 20
8.9694277735
 30
0.0
 10
11.966711434
 20
8.9745322106
 30
0.0
 10
11.9720319153
 20
8.9792995351
 30
0.0
 10
11.9776558965
 20
8.9837115933
 30
0.0
 10
11.9835627677
 20
8.9877513426
 30
0.0
 10
11.9897307275
 20
8.9914031916
 30
0.0
 10
11.9961368925
 20
8.9946529672
 30
0.0
 10
12.002757439
 20
8.9974879512
 30
0.0
 10
12.0095675232
 20
8.9998969759
 30
0.0
 10
12.0165418457
 20
9.0018706292
 30
0.0
 10
12.0260399612
 20
9.0039147236
 30
0.0
 10
12.0382004414
 20
9.0053408963
 30
0.0
 10
12.0480158784
 20
9.0052605357
 30
0.0
 10
12.0529183203
 20
9.0049205502
 30
0.0
  0
SPLINE
  5
2FF
100
AcDbEntity
  8
0
100
AcDbSpline
 62
7
  6
CONTINUOUS
 70
0
 71
3
 72
25
 73
21
 74
0
 42
0.0000001
 43
0.0000001
 44
0.0000000001
 40
0.0
 40
0.0
 40
0.0
 40
0.0
 40
0.0624814452
 40
0.0936533995
 40
0.1247812343
 40
0.1869108774
 40
0.2489165562
 40
0.279891012
 40
0.3108500585
 40
0.3727334696
 40
0.4346258913
 40
0.4965776217
 40
0.5586401823
 40
0.620864836
 40
0.6833008624
 40
0.7459936624
 40
0.8089827593
 40
0.8723002443
 40
0.9359680195
 40
1.0
 40
1.0
 40
1.0
 40
1.0
 10
10.1309656075
 20
7.586194978
 30
0.0
 10
10.1339570509
 20
7.5938226657
 30
0.0
 10
10.1388411045
 20
7.6051052188
 30
0.0
 10
10.1461335805
 20
7.6197559536
 30
0.0
 10
10.1539248231
 20
7.6340958998
 30
0.0
 10
10.1646115927
 20
7.6514481568
 30
0.0
 10
10.1765400643
 20
7.6679479594
 30
0.0
 10
10.1867938772
 20
7.6805619149
 30
0.0
 10
10.197509702
 20
7.6927643353
 30
0.0
 10
10.2117708206
 20
7.7072291154
 30
0.0
 10
10.2301939062
 20
7.723196488
 30
0.0
 10
10.2498500937
 20
7.7376610311
 30
0.0
 10
10.2706489248
 20
7.7505123228
 30
0.0
 10
10.2924874425
 20
7.761646609
 30
0.0
 10
10.3152490034
 20
7.7709681106
 30
0.0
 10
10.3388038504
 20
7.7783918506
 30
0.0
 10
10.3630096527
 20
7.7838462954
 30
0.0
 10
10.3877138588
 20
7.7872756212
 30
0.0
 10
10.4127525812
 20
7.7886423449
 30
0.0
 10
10.4295137922
 20
7.788167113
 30
0.0
 10
10.4378903093
 20
7.7875861995
 30
0.0
  0
SPLINE
  5
300
100
AcDbEntity
  8
0
100
AcDbSpline
 62
7
  6
CONTINUOUS
 70
0
 71
3
 72
39
 73
35
 74
0
 42
0.0000001
 43
0.0000001
 44
0.0000000001
 40
0.0
 40
0.0
 40
0.0
 40
0.0
 40
0.0312185936
 40
0.0625821391
 40
0.0940795607
 40
0.1256979807
 40
0.1574231352
 40
0.1892397221
 40
0.2211316833
 40
0.25308243
 40
0.2850750202
 40
0.3170922983
 40
0.3491170076
 40
0.3811318866
 40
0.4131197593
 40
0.4450636294
 40
0.4769467886
 40
0.50875295
 40
0.5404664164
 40
0.5720722926
 40
0.6035567527
 40
0.6349073686
 40
0.6661135017
 40
0.6971667572
 40
0.7280614934
 40
0.7587953609
 40
0.7893698394
 40
0.8197907188
 40
0.85006846
 40
0.8802183596
 40
0.9102604253
 40
0.9402190927
 40
0.9701218913
 40
1.0
 40
1.0
 40
1.0
 40
1.0
 10
11.6370313557
 20
7.6592572429
 30
0.0
 10
11.6448072535
 20
7.6582191333
 30
0.0
 10
11.6603253724
 20
7.6555742987
 30
0.0
 10
11.6833130054
 20
7.6499785309
 30
0.0
 10
11.7059630785
 20
7.6428021894
 30
0.0
 10
11.7281711411
 20
7.6341073398
 30
0.0
 10
11.7498414207
 20
7.6239583717
 30
0.0
 10
11.7708835503
 20
7.6124215794
 30
0.0
 10
11.7912125456
 20
7.5995645575
 30
0.0
 10
11.8107478933
 20
7.5854559177
 30
0.0
 10
11.8294129055
 20
7.5701651599
 30
0.0
 10
11.8471340582
 20
7.5537627093
 30
0.0
 10
11.863840413
 20
7.5363200903
 30
0.0
 10
11.8794631139
 20
7.5179102214
 30
0.0
 10
11.8939349774
 20
7.4986078125
 30
0.0
 10
11.9071901872
 20
7.478489854
 30
0.0
 10
11.9191641087
 20
7.4576361807
 30
0.0
 10
11.9297932381
 20
7.4361300993
 30
0.0
 10
11.9390153067
 20
7.4140590606
 30
0.0
 10
11.9467695607
 20
7.3915153559
 30
0.0
 10
11.9529972405
 20
7.3685968103
 30
0.0
 10
11.9576422831
 20
7.3454074375
 30
0.0
 10
11.9606522691
 20
7.3220580082
 30
0.0
 10
11.9619796342
 20
7.2986664756
 30
0.0
 10
11.9615831423
 20
7.2753581834
 30
0.0
 10
11.9594296107
 20
7.2522657761
 30
0.0
 10
11.9554958444
 20
7.2295287262
 30
0.0
 10
11.949770696
 20
7.207292388
 30
0.0
 10
11.942257167
 20
7.1857065323
 30
0.0
 10
11.9329742806
 20
7.1649232656
 30
0.0
 10
11.9219589866
 20
7.1450945537
 30
0.0
 10
11.9092664419
 20
7.1263685888
 30
0.0
 10
11.8949732848
 20
7.1088886776
 30
0.0
 10
11.8844345957
 20
7.0981491645
 30
0.0
 10
11.8789384533
 20
7.0930341809
 30
0.0
  0
SPLINE
  5
301
100
AcDbEntity
  8
0
100
AcDbSpline
 62
7
  6
CONTINUOUS
 70
0
 71
3
 72
41
 73
37
 74
0
 42
0.0000001
 43
0.0000001
 44
0.0000000001
 40
0.0
 40
0.0
 40
0.0
 40
0.0
 40
0.0303199413
 40
0.0455359951
 40
0.0607904787
 40
0.0914161967
 40
0.1222211359
 40
0.137698003
 40
0.1532227581
 40
0.1844087859
 40
0.2157843537
 40
0.2473408856
 40
0.2790643697
 40
0.3109359173
 40
0.3429324238
 40
0.3750273059
 40
0.4071912929
 40
0.4393932545
 40
0.4716010509
 40
0.5037823934
 40
0.5359057059
 40
0.5679409773
 40
0.5998605953
 40
0.6316401473
 40
0.6632591737
 40
0.6947018537
 40
0.7259575996
 40
0.7570215315
 40
0.7878948036
 40
0.8185847516
 40
0.8491048266
 40
0.8794743254
 40
0.9097177885
 40
0.9398644678
 40
0.9699466712
 40
1.0
 40
1.0
 40
1.0
 40
1.0
 10
12.4325105054
 20
7.334292449
 30
0.0
 10
12.4356879472
 20
7.3357790074
 30
0.0
 10
12.4405705387
 20
7.3377855929
 30
0.0
 10
12.447250065
 20
7.3399942303
 30
0.0
 10
12.4540602632
 20
7.341897522
 30
0.0
 10
12.4627643764
 20
7.3436855317
 30
0.0
 10
12.4716211115
 20
7.3446695031
 30
0.0
 10
12.478767637
 20
7.3449754099
 30
0.0
 10
12.4859647764
 20
7.3449595337
 30
0.0
 10
12.494990493
 20
7.3443328966
 30
0.0
 10
12.5057586305
 20
7.3426237722
 30
0.0
 10
12.5163984041
 20
7.3399719818
 30
0.0
 10
12.52682594
 20
7.3364003303
 30
0.0
 10
12.5369601895
 20
7.3319385445
 30
0.0
 10
12.5467225555
 20
7.3266229242
 30
0.0
 10
12.5560376291
 20
7.320496008
 30
0.0
 10
12.5648335822
 20
7.313606217
 30
0.0
 10
12.5730426125
 20
7.3060074896
 30
0.0
 10
12.5806013429
 20
7.2977589061
 30
0.0
 10
12.5874512066
 20
7.2889243041
 30
0.0
 10
12.5935388151
 20
7.2795718809
 30
0.0
 10
12.5988163139
 20
7.269773781
 30
0.0
 10
12.6032417274
 20
7.2596056638
 30
0.0
 10
12.6067792918
 20
7.2491462451
 30
0.0
 10
12.6093997756
 20
7.2384768108
 30
0.0
 10
12.6110807826
 20
7.2276806939
 30
0.0
 10
12.6118070323
 20
7.2168427138
 30
0.0
 10
12.61157061
 20
7.2060485741
 30
0.0
 10
12.6103711784
 20
7.1953842166
 30
0.0
 10
12.6082161333
 20
7.1849351333
 30
0.0
 10
12.6051207153
 20
7.1747856436
 30
0.0
 10
12.601107988
 20
7.1650181218
 30
0.0
 10
12.5962089141
 20
7.1557122806
 30
0.0
 10
12.5904617333
 20
7.1469441037
 30
0.0
 10
12.5839132866
 20
7.1387862868
 30
0.0
 10
12.5790459562
 20
7.1337966867
 30
0.0
 10
12.5765005679
 20
7.1314278217
 30
0.0
  0
SPLINE
  5
302
100
AcDbEntity
  8
0
100
AcDbSpline
 62
7
  6
CONTINUOUS
 70
0
 71
3
 72
23
 73
19
 74
0
 42
0.0000001
 43
0.0000001
 44
0.0000000001
 40
0.0
 40
0.0
 40
0.0
 40
0.0
 40
0.0864513783
 40
0.1691728327
 40
0.2481990925
 40
0.3235814228
 40
0.3953906023
 40
0.4637195023
 40
0.5286872441
 40
0.5904426626
 40
0.6491695697
 40
0.7050907956
 40
0.7584735632
 40
0.8096324286
 40
0.8589318267
 40
0.9067840814
 40
0.9536444
 40
1.0
 40
1.0
 40
1.0
 40
1.0
 10
13.5152398557
 20
7.5831349353
 30
0.0
 10
13.516602391
 20
7.5801369693
 30
0.0
 10
13.5193540841
 20
7.5743086226
 30
0.0
 10
13.5236656133
 20
7.5658927388
 30
0.0
 10
13.5280669177
 20
7.558002557
 30
0.0
 10
13.5325549145
 20
7.5506438015
 30
0.0
 10
13.537126512
 20
7.5438216521
 30
0.0
 10
13.5417787007
 20
7.5375409762
 30
0.0
 10
13.5465084185
 20
7.5318062149
 30
0.0
 10
13.5513127658
 20
7.5266215562
 30
0.0
 10
13.5561887827
 20
7.5219908198
 30
0.0
 10
13.5611336868
 20
7.5179177412
 30
0.0
 10
13.5661445309
 20
7.5144057911
 30
0.0
 10
13.5712183967
 20
7.5114585654
 30
0.0
 10
13.576351817
 20
7.5090794139
 30
0.0
 10
13.5815412076
 20
7.5072717709
 30
0.0
 10
13.586781103
 20
7.5060384592
 30
0.0
 10
13.590312902
 20
7.5055997652
 30
0.0
 10
13.5920744285
 20
7.5054775986
 30
0.0
  0
SPLINE
  5
303
100
AcDbEntity
  8
0
100
AcDbSpline
 62
7
  6
CONTINUOUS
 70
0
 71
3
 72
28
 73
24
 74
0
 42
0.0000001
 43
0.0000001
 44
0.0000000001
 40
0.0
 40
0.0
 40
0.0
 40
0.0
 40
0.0207060093
 40
0.0422072441
 40
0.064500708
 40
0.0875816775
 40
0.111443842
 40
0.1360794558
 40
0.1614794738
 40
0.1876336247
 40
0.2145305566
 40
0.2421578441
 40
0.2995479544
 40
0.359687989
 40
0.4224478501
 40
0.4876861558
 40
0.5552514349
 40
0.6249831772
 40
0.6967127529
 40
0.7702643203
 40
0.8454554954
 40
0.922098445
 40
1.0
 40
1.0
 40
1.0
 40
1.0
 10
13.5150208065
 20
7.5831820266
 30
0.0
 10
13.5136661251
 20
7.5864367605
 30
0.0
 10
13.510992881
 20
7.5931082069
 30
0.0
 10
13.5071553554
 20
7.6033987579
 30
0.0
 10
13.5034170019
 20
7.6141547703
 30
0.0
 10
13.4997804181
 20
7.6253688658
 30
0.0
 10
13.4962480701
 20
7.6370334629
 30
0.0
 10
13.4928223764
 20
7.6491406313
 30
0.0
 10
13.4895056834
 20
7.6616821419
 30
0.0
 10
13.4863002625
 20
7.6746494555
 30
0.0
 10
13.4832082908
 20
7.6880337581
 30
0.0
 10
13.4791887945
 20
7.7066600653
 30
0.0
 10
13.4744796766
 20
7.7309249539
 30
0.0
 10
13.469381995
 20
7.7611976586
 30
0.0
 10
13.4647825841
 20
7.7929007096
 30
0.0
 10
13.4606941692
 20
7.8259476203
 30
0.0
 10
13.4571281143
 20
7.8602484175
 30
0.0
 10
13.4540943188
 20
7.8957095651
 30
0.0
 10
13.4516012093
 20
7.9322343391
 30
0.0
 10
13.4496557192
 20
7.9697230482
 30
0.0
 10
13.4482632606
 20
8.0080734033
 30
0.0
 10
13.4474277299
 20
8.0471805717
 30
0.0
 10
13.4472448964
 20
8.0734936976
 30
0.0
 10
13.4472448964
 20
8.0867572021
 30
0.0
  0
SPLINE
  5
304
100
AcDbEntity
  8
0
100
AcDbSpline
 62
7
  6
CONTINUOUS
 70
0
 71
3
 72
23
 73
19
 74
0
 42
0.0000001
 43
0.0000001
 44
0.0000000001
 40
0.0
 40
0.0
 40
0.0
 40
0.0
 40
0.0864393378
 40
0.1691499638
 40
0.2481670895
 40
0.3235416995
 40
0.3953449947
 40
0.4636696012
 40
0.5286349818
 40
0.5903897558
 40
0.6491179667
 40
0.7050422372
 40
0.7584298724
 40
0.8095951865
 40
0.8589025063
 40
0.9067638309
 40
0.9536340617
 40
1.0
 40
1.0
 40
1.0
 40
1.0
 10
13.6135067433
 20
8.9994962916
 30
0.0
 10
13.6152691861
 20
9.0022744972
 30
0.0
 10
13.6187972667
 20
9.007661433
 30
0.0
 10
13.6242264398
 20
9.0153931931
 30
0.0
 10
13.6296718692
 20
9.0225924542
 30
0.0
 10
13.6351298071
 20
9.0292539328
 30
0.0
 10
13.6405963986
 20
9.0353729886
 30
0.0
 10
13.6460680768
 20
9.0409451696
 30
0.0
 10
13.6515411275
 20
9.0459665671
 30
0.0
 10
13.6570121746
 20
9.05043338
 30
0.0
 10
13.6624777037
 20
9.0543423028
 30
0.0
 10
13.667934501
 20
9.0576899641
 30
0.0
 10
13.6733791292
 20
9.0604733997
 30
0.0
 10
13.6788082404
 20
9.0626894008
 30
0.0
 10
13.6842179181
 20
9.0643351849
 30
0.0
 10
13.6896041609
 20
9.0654078119
 30
0.0
 10
13.6949611655
 20
9.0659052708
 30
0.0
 10
13.69851774
 20
9.0658521816
 30
0.0
 10
13.7002783057
 20
9.0657300816
 30
0.0
  0
SPLINE
  5
305
100
AcDbEntity
  8
0
100
AcDbSpline
 62
7
  6
CONTINUOUS
 70
0
 71
3
 72
18
 73
14
 74
0
 42
0.0000001
 43
0.0000001
 44
0.0000000001
 40
0.0
 40
0.0
 40
0.0
 40
0.0
 40
0.1492435137
 40
0.2896566257
 40
0.4219550777
 40
0.485351101
 40
0.547069549
 40
0.6660129848
 40
0.7801156501
 40
0.8358360225
 40
0.8909169124
 40
0.9455668623
 40
1.0
 40
1.0
 40
1.0
 40
1.0
 10
7.5251599049
 20
6.9668463034
 30
0.0
 10
7.5264829978
 20
6.9652195032
 30
0.0
 10
7.5291516819
 20
6.9621417821
 30
0.0
 10
7.5333583027
 20
6.9579562593
 30
0.0
 10
7.5369761228
 20
6.9549103837
 30
0.0
 10
7.5399023788
 20
6.9527826316
 30
0.0
 10
7.5427730063
 20
6.9509048366
 30
0.0
 10
7.5464106812
 20
6.9489072821
 30
0.0
 10
7.5501767264
 20
6.9473700438
 30
0.0
 10
7.5532023309
 20
6.946452247
 30
0.0
 10
7.5554665844
 20
6.9459186156
 30
0.0
 10
7.5577425238
 20
6.9455348049
 30
0.0
 10
7.5592685019
 20
6.945378721
 30
0.0
 10
7.560031471
 20
6.9453258084
 30
0.0
  0
SPLINE
  5
306
100
AcDbEntity
  8
0
100
AcDbSpline
 62
7
  6
CONTINUOUS
 70
0
 71
3
 72
18
 73
14
 74
0
 42
0.0000001
 43
0.0000001
 44
0.0000000001
 40
0.0
 40
0.0
 40
0.0
 40
0.0
 40
0.0544328977
 40
0.1090825819
 40
0.164163178
 40
0.2198832571
 40
0.3339856861
 40
0.4529288702
 40
0.5146466453
 40
0.5780414074
 40
0.7103382159
 40
0.8507568709
 40
1.0
 40
1.0
 40
1.0
 40
1.0
 10
8.0280931565
 20
10.5570781086
 30
0.0
 10
8.0273301908
 20
10.557131021
 30
0.0
 10
8.0257972824
 20
10.5571870747
 30
0.0
 10
8.0234901616
 20
10.5571210972
 30
0.0
 10
8.0211739347
 20
10.5569051273
 30
0.0
 10
8.0180506136
 20
10.5564137748
 30
0.0
 10
8.0141084378
 20
10.5554110962
 30
0.0
 10
8.0102298645
 20
10.553934807
 30
0.0
 10
8.0071275347
 20
10.5524712645
 30
0.0
 10
8.0039356197
 20
10.5507678513
 30
0.0
 10
7.9999319403
 20
10.5482505316
 30
0.0
 10
7.9951878283
 20
10.5446856673
 30
0.0
 10
7.9921197817
 20
10.5420057584
 30
0.0
 10
7.9905847957
 20
10.5405771755
 30
0.0
  0
SPLINE
  5
307
100
AcDbEntity
  8
0
100
AcDbSpline
 62
7
  6
CONTINUOUS
 70
0
 71
3
 72
41
 73
37
 74
0
 42
0.0000001
 43
0.0000001
 44
0.0000000001
 40
0.0
 40
0.0
 40
0.0
 40
0.0
 40
0.0071626665
 40
0.0146567922
 40
0.0224900003
 40
0.030668562
 40
0.0391975872
 40
0.048080862
 40
0.0573206522
 40
0.0669182435
 40
0.0768739335
 40
0.0871871924
 40
0.097856799
 40
0.1088807011
 40
0.1319796455
 40
0.1564575358
 40
0.182279017
 40
0.2094019974
 40
0.2377784932
 40
0.2673552866
 40
0.2980744788
 40
0.329873988
 40
0.3626879607
 40
0.3964471366
 40
0.4310791754
 40
0.4665089551
 40
0.502658886
 40
0.5394491939
 40
0.57679819
 40
0.6146225315
 40
0.6528374746
 40
0.691357142
 40
0.7689615337
 40
0.8467371347
 40
0.923981719
 40
1.0
 40
1.0
 40
1.0
 40
1.0
 10
7.5989129148
 20
10.162275366
 30
0.0
 10
7.5976955366
 20
10.1610994689
 30
0.0
 10
7.5952624017
 20
10.1586326818
 30
0.0
 10
7.5916962157
 20
10.1546905325
 30
0.0
 10
7.588134562
 20
10.1504264884
 30
0.0
 10
7.5845797354
 20
10.1458433101
 30
0.0
 10
7.5810336868
 20
10.1409436834
 30
0.0
 10
7.5774985055
 20
10.1357304221
 30
0.0
 10
7.5739761778
 20
10.1302066335
 30
0.0
 10
7.5704688766
 20
10.1243755717
 30
0.0
 10
7.5669786678
 20
10.1182407256
 30
0.0
 10
7.5635076196
 20
10.1118057555
 30
0.0
 10
7.560057828
 20
10.1050744706
 30
0.0
 10
7.5554167355
 20
10.0955610382
 30
0.0
 10
7.54969612
 20
10.0829469898
 30
0.0
 10
7.5430510819
 20
10.0669233952
 30
0.0
 10
7.5365390932
 20
10.0498239397
 30
0.0
 10
7.5301758958
 20
10.0316895865
 30
0.0
 10
7.5239768934
 20
10.0125635958
 30
0.0
 10
7.5179571
 20
9.9924917832
 30
0.0
 10
7.5121310892
 20
9.971522283
 30
0.0
 10
7.5065129692
 20
9.9497054408
 30
0.0
 10
7.5011163417
 20
9.9270936701
 30
0.0
 10
7.4959542708
 20
9.9037413228
 30
0.0
 10
7.491039251
 20
9.8797045581
 30
0.0
 10
7.486383165
 20
9.8550412058
 30
0.0
 10
7.481997268
 20
9.8298106177
 30
0.0
 10
7.4778921613
 20
9.8040735194
 30
0.0
 10
7.4740777623
 20
9.7778918579
 30
0.0
 10
7.4705633001
 20
9.7513286742
 30
0.0
 10
7.4673572201
 20
9.7244478769
 30
0.0
 10
7.4634947202
 20
9.6881815132
 30
0.0
 10
7.459493064
 20
9.6425325641
 30
0.0
 10
7.4560331801
 20
9.5876663733
 30
0.0
 10
7.4539370874
 20
9.5331063529
 30
0.0
 10
7.4534567315
 20
9.4968884299
 30
0.0
 10
7.4534567315
 20
9.4789251271
 30
0.0
  0
SPLINE
  5
308
100
AcDbEntity
  8
0
100
AcDbSpline
 62
7
  6
CONTINUOUS
 70
0
 71
3
 72
15
 73
11
 74
0
 42
0.0000001
 43
0.0000001
 44
0.0000000001
 40
0.0
 40
0.0
 40
0.0
 40
0.0
 40
0.1273482789
 40
0.2538606571
 40
0.3795878378
 40
0.5046051156
 40
0.629017439
 40
0.7529533823
 40
0.8765605864
 40
1.0
 40
1.0
 40
1.0
 40
1.0
 10
12.7995792272
 20
9.3753082581
 30
0.0
 10
12.7995792272
 20
9.3818065832
 30
0.0
 10
12.8001996879
 20
9.3947695623
 30
0.0
 10
12.8030056193
 20
9.4139647084
 30
0.0
 10
12.8076583409
 20
9.4326775621
 30
0.0
 10
12.8141158237
 20
9.4507331134
 30
0.0
 10
12.8223188433
 20
9.467964855
 30
0.0
 10
12.8321925684
 20
9.4842136895
 30
0.0
 10
12.8436441908
 20
9.499327364
 30
0.0
 10
12.8522666905
 20
9.5085596718
 30
0.0
 10
12.8567971621
 20
9.5129358013
 30
0.0
  0
SPLINE
  5
309
100
AcDbEntity
  8
0
100
AcDbSpline
 62
7
  6
CONTINUOUS
 70
0
 71
3
 72
39
 73
35
 74
0
 42
0.0000001
 43
0.0000001
 44
0.0000000001
 40
0.0
 40
0.0
 40
0.0
 40
0.0
 40
0.0310356851
 40
0.0622167066
 40
0.0935340463
 40
0.1249822207
 40
0.156550082
 40
0.1882255138
 40
0.2199942996
 40
0.2518406705
 40
0.2837476187
 40
0.3156971605
 40
0.3476706705
 40
0.3796492101
 40
0.4116138507
 40
0.4435459784
 40
0.4754275893
 40
0.507241578
 40
0.5389720288
 40
0.5706044683
 40
0.6021260934
 40
0.6335259791
 40
0.6647952711
 40
0.6959273604
 40
0.7269180073
 40
0.7577654343
 40
0.7884703851
 40
0.8190361537
 40
0.8494685725
 40
0.879775946
 40
0.9099689386
 40
0.940060414
 40
0.9700652318
 40
1.0
 40
1.0
 40
1.0
 40
1.0
 10
12.0529183166
 20
8.7616255957
 30
0.0
 10
12.0501780171
 20
8.7618156361
 30
0.0
 10
12.0446958218
 20
8.7623844285
 30
0.0
 10
12.036532097
 20
8.763792989
 30
0.0
 10
12.0284449327
 20
8.7657524731
 30
0.0
 10
12.0204726969
 20
8.768253081
 30
0.0
 10
12.0126522402
 20
8.7712829085
 30
0.0
 10
12.0050199205
 20
8.7748272717
 30
0.0
 10
11.9976109671
 20
8.7788691324
 30
0.0
 10
11.9904594474
 20
8.7833891219
 30
0.0
 10
11.9835980772
 20
8.7883656942
 30
0.0
 10
11.9770580839
 20
8.7937752584
 30
0.0
 10
11.9708690738
 20
8.7995923147
 30
0.0
 10
11.9650588751
 20
8.8057895673
 30
0.0
 10
11.9596534578
 20
8.8123381116
 30
0.0
 10
11.9546768483
 20
8.8192075888
 30
0.0
 10
11.9501510494
 20
8.8263663358
 30
0.0
 10
11.946095975
 20
8.8337815366
 30
0.0
 10
11.9425293449
 20
8.841419351
 30
0.0
 10
11.9394666811
 20
8.8492450937
 30
0.0
 10
11.936921272
 20
8.8572233768
 30
0.0
 10
11.9349041452
 20
8.8653182513
 30
0.0
 10
11.9334240329
 20
8.8734933424
 30
0.0
 10
11.932487311
 20
8.8817119848
 30
0.0
 10
11.9320980414
 20
8.8899373723
 30
0.0
 10
11.9322579549
 20
8.8981326861
 30
0.0
 10
11.9329664553
 20
8.9062612254
 30
0.0
 10
11.9342205871
 20
8.9142865415
 30
0.0
 10
11.9360150191
 20
8.9221725787
 30
0.0
 10
11.9383421104
 20
8.9298838177
 30
0.0
 10
11.9411918735
 20
8.9373853592
 30
0.0
 10
11.9445521358
 20
8.9446432498
 30
0.0
 10
11.9484080202
 20
8.9516239272
 30
0.0
 10
11.9513013702
 20
8.9560769737
 30
0.0
 10
11.9528238914
 20
8.9582452617
 30
0.0
  0
SPLINE
  5
30A
100
AcDbEntity
  8
0
100
AcDbSpline
 62
7
  6
CONTINUOUS
 70
0
 71
3
 72
15
 73
11
 74
0
 42
0.0000001
 43
0.0000001
 44
0.0000000001
 40
0.0
 40
0.0
 40
0.0
 40
0.0
 40
0.1273473901
 40
0.2538608346
 40
0.3795878351
 40
0.5046051039
 40
0.6290174461
 40
0.7529533848
 40
0.8765605883
 40
1.0
 40
1.0
 40
1.0
 40
1.0
 10
9.7588444132
 20
6.929887754
 30
0.0
 10
9.7588444132
 20
6.9322899571
 30
0.0
 10
9.7590737807
 20
6.9370819522
 30
0.0
 10
9.76011102
 20
6.9441777782
 30
0.0
 10
9.7618309954
 20
6.9510953265
 30
0.0
 10
9.7642181105
 20
6.9577698758
 30
0.0
 10
9.767250488
 20
6.9641398975
 30
0.0
 10
9.7709004793
 20
6.9701465677
 30
0.0
 10
9.7751337724
 20
6.9757336015
 30
0.0
 10
9.7783212183
 20
6.9791464974
 30
0.0
 10
9.7799959853
 20
6.9807642117
 30
0.0
  0
SPLINE
  5
30B
100
AcDbEntity
  8
0
100
AcDbSpline
 62
7
  6
CONTINUOUS
 70
0
 71
3
 72
41
 73
37
 74
0
 42
0.0000001
 43
0.0000001
 44
0.0000000001
 40
0.0
 40
0.0
 40
0.0
 40
0.0
 40
0.029942123
 40
0.0449237706
 40
0.0599145177
 40
0.0899291716
 40
0.1200145961
 40
0.1350933574
 40
0.1501974726
 40
0.1804849654
 40
0.2108989488
 40
0.2414525624
 40
0.2721557217
 40
0.3030149378
 40
0.3340332219
 40
0.3652100719
 40
0.3965415365
 40
0.4280203507
 40
0.4596361361
 40
0.4913756582
 40
0.5232231336
 40
0.5551605782
 40
0.5871681905
 40
0.6192247616
 40
0.6513081064
 40
0.6833955071
 40
0.7154641657
 40
0.7474916563
 40
0.7794563734
 40
0.811337967
 40
0.843117763
 40
0.8747791516
 40
0.9063079641
 40
0.9376927517
 40
0.9689251728
 40
1.0
 40
1.0
 40
1.0
 40
1.0
 10
9.2862783659
 20
9.47736088
 30
0.0
 10
9.2827779485
 20
9.4739797132
 30
0.0
 10
9.2773210372
 20
9.4691127874
 30
0.0
 10
9.269678717
 20
9.4630740055
 30
0.0
 10
9.2617930084
 20
9.4573357356
 30
0.0
 10
9.2515034598
 20
9.450746309
 30
0.0
 10
9.2407135983
 20
9.4449824736
 30
0.0
 10
9.2318147681
 20
9.440882029
 30
0.0
 10
9.2227320864
 20
9.437120124
 30
0.0
 10
9.211079428
 20
9.4330749561
 30
0.0
 10
9.1967192702
 20
9.4293049467
 30
0.0
 10
9.1820457612
 20
9.4266341425
 30
0.0
 10
9.1671402171
 20
9.4250772851
 30
0.0
 10
9.1520845188
 20
9.4246426813
 30
0.0
 10
9.1369615076
 20
9.4253325437
 30
0.0
 10
9.121854304
 20
9.427142887
 30
0.0
 10
9.106845916
 20
9.4300635865
 30
0.0
 10
9.0920187726
 20
9.4340784324
 30
0.0
 10
9.0774542809
 20
9.4391652269
 30
0.0
 10
9.0632323844
 20
9.4452959084
 30
0.0
 10
9.049431131
 20
9.4524367087
 30
0.0
 10
9.0361262505
 20
9.4605483385
 30
0.0
 10
9.0233907443
 20
9.4695862029
 30
0.0
 10
9.0112944902
 20
9.4795006456
 30
0.0
 10
8.9999038637
 20
9.4902372192
 30
0.0
 10
8.9892813773
 20
9.5017369813
 30
0.0
 10
8.9794853416
 20
9.5139368154
 30
0.0
 10
8.970569548
 20
9.5267697739
 30
0.0
 10
8.9625829765
 20
9.5401654404
 30
0.0
 10
8.9555695276
 20
9.5540503145
 30
0.0
 10
8.9495677853
 20
9.5683482005
 30
0.0
 10
8.9446108001
 20
9.5829806557
 30
0.0
 10
8.9407259178
 20
9.5978672829
 30
0.0
 10
8.9379346074
 20
9.6129266546
 30
0.0
 10
8.9362523714
 20
9.6280749553
 30
0.0
 10
8.935875578
 20
9.6382061629
 30
0.0
 10
8.935875578
 20
9.6432570163
 30
0.0
  0
SPLINE
  5
30C
100
AcDbEntity
  8
0
100
AcDbSpline
 62
7
  6
CONTINUOUS
 70
0
 71
3
 72
15
 73
11
 74
0
 42
0.0000001
 43
0.0000001
 44
0.0000000001
 40
0.0
 40
0.0
 40
0.0
 40
0.0
 40
0.1273482808
 40
0.2538605196
 40
0.3795878971
 40
0.5046050835
 40
0.6290174393
 40
0.7529533827
 40
0.8765605876
 40
1.0
 40
1.0
 40
1.0
 40
1.0
 10
10.9058813999
 20
6.7894871732
 30
0.0
 10
10.9058813999
 20
6.7938142469
 30
0.0
 10
10.9062945423
 20
6.8024459694
 30
0.0
 10
10.908162949
 20
6.815227543
 30
0.0
 10
10.9112610791
 20
6.827687968
 30
0.0
 10
10.9155609548
 20
6.8397107173
 30
0.0
 10
10.9210231054
 20
6.851184922
 30
0.0
 10
10.9275977583
 20
6.8620046311
 30
0.0
 10
10.9352231106
 20
6.8720684514
 30
0.0
 10
10.9409646022
 20
6.8782160324
 30
0.0
 10
10.9439813282
 20
6.8811299915
 30
0.0
  0
SPLINE
  5
30D
100
AcDbEntity
  8
0
100
AcDbSpline
 62
7
  6
CONTINUOUS
 70
0
 71
3
 72
15
 73
11
 74
0
 42
0.0000001
 43
0.0000001
 44
0.0000000001
 40
0.0
 40
0.0
 40
0.0
 40
0.0
 40
0.1273482789
 40
0.2538606571
 40
0.3795878378
 40
0.5046051156
 40
0.629017439
 40
0.7529533823
 40
0.8765605864
 40
1.0
 40
1.0
 40
1.0
 40
1.0
 10
8.935875578
 20
9.6432570163
 30
0.0
 10
8.935875578
 20
9.6497553413
 30
0.0
 10
8.9364960386
 20
9.6627183205
 30
0.0
 10
8.9393019701
 20
9.6819134666
 30
0.0
 10
8.9439546916
 20
9.7006263202
 30
0.0
 10
8.9504121744
 20
9.7186818716
 30
0.0
 10
8.9586151941
 20
9.7359136132
 30
0.0
 10
8.9684889192
 20
9.7521624477
 30
0.0
 10
8.9799405415
 20
9.7672761222
 30
0.0
 10
8.9885630413
 20
9.7765084299
 30
0.0
 10
8.9930935128
 20
9.7808845594
 30
0.0
  0
SPLINE
  5
30E
100
AcDbEntity
  8
0
100
AcDbSpline
 62
7
  6
CONTINUOUS
 70
0
 71
3
 72
41
 73
37
 74
0
 42
0.0000001
 43
0.0000001
 44
0.0000000001
 40
0.0
 40
0.0
 40
0.0
 40
0.0
 40
0.029942123
 40
0.0449237706
 40
0.0599145177
 40
0.0899291716
 40
0.1200145961
 40
0.1350933574
 40
0.1501974726
 40
0.1804849654
 40
0.2108989488
 40
0.2414525624
 40
0.2721557217
 40
0.3030149378
 40
0.3340332219
 40
0.3652100719
 40
0.3965415365
 40
0.4280203507
 40
0.4596361361
 40
0.4913756582
 40
0.5232231336
 40
0.5551605782
 40
0.5871681905
 40
0.6192247616
 40
0.6513081064
 40
0.6833955071
 40
0.7154641657
 40
0.7474916563
 40
0.7794563734
 40
0.811337967
 40
0.843117763
 40
0.8747791516
 40
0.9063079641
 40
0.9376927517
 40
0.9689251728
 40
1.0
 40
1.0
 40
1.0
 40
1.0
 10
9.2862783659
 20
6.8210647003
 30
0.0
 10
9.2827779485
 20
6.8176835335
 30
0.0
 10
9.2773210372
 20
6.8128166077
 30
0.0
 10
9.269678717
 20
6.8067778258
 30
0.0
 10
9.2617930084
 20
6.8010395559
 30
0.0
 10
9.2515034598
 20
6.7944501293
 30
0.0
 10
9.2407135983
 20
6.7886862939
 30
0.0
 10
9.2318147681
 20
6.7845858493
 30
0.0
 10
9.2227320864
 20
6.7808239443
 30
0.0
 10
9.211079428
 20
6.7767787764
 30
0.0
 10
9.1967192702
 20
6.773008767
 30
0.0
 10
9.1820457612
 20
6.7703379628
 30
0.0
 10
9.1671402171
 20
6.7687811054
 30
0.0
 10
9.1520845188
 20
6.7683465016
 30
0.0
 10
9.1369615076
 20
6.769036364
 30
0.0
 10
9.121854304
 20
6.7708467073
 30
0.0
 10
9.106845916
 20
6.7737674068
 30
0.0
 10
9.0920187726
 20
6.7777822527
 30
0.0
 10
9.0774542809
 20
6.7828690472
 30
0.0
 10
9.0632323844
 20
6.7889997288
 30
0.0
 10
9.049431131
 20
6.796140529
 30
0.0
 10
9.0361262505
 20
6.8042521588
 30
0.0
 10
9.0233907443
 20
6.8132900232
 30
0.0
 10
9.0112944902
 20
6.823204466
 30
0.0
 10
8.9999038637
 20
6.8339410395
 30
0.0
 10
8.9892813773
 20
6.8454408016
 30
0.0
 10
8.9794853416
 20
6.8576406357
 30
0.0
 10
8.970569548
 20
6.8704735942
 30
0.0
 10
8.9625829765
 20
6.8838692607
 30
0.0
 10
8.9555695276
 20
6.8977541348
 30
0.0
 10
8.9495677853
 20
6.9120520208
 30
0.0
 10
8.9446108001
 20
6.926684476
 30
0.0
 10
8.9407259178
 20
6.9415711033
 30
0.0
 10
8.9379346074
 20
6.9566304749
 30
0.0
 10
8.9362523714
 20
6.9717787757
 30
0.0
 10
8.935875578
 20
6.9819099833
 30
0.0
 10
8.935875578
 20
6.9869608366
 30
0.0
  0
SPLINE
  5
30F
100
AcDbEntity
  8
0
100
AcDbSpline
 62
7
  6
CONTINUOUS
 70
0
 71
3
 72
39
 73
35
 74
0
 42
0.0000001
 43
0.0000001
 44
0.0000000001
 40
0.0
 40
0.0
 40
0.0
 40
0.0
 40
0.0309163426
 40
0.0464320277
 40
0.0619831639
 40
0.0931854678
 40
0.1245187227
 40
0.1402331299
 40
0.1559758162
 40
0.1875347953
 40
0.2191848331
 40
0.2509097246
 40
0.2826925773
 40
0.314516221
 40
0.3463635723
 40
0.3782179433
 40
0.4100632932
 40
0.4418844252
 40
0.4736671353
 40
0.5053983151
 40
0.5686359203
 40
0.6315404278
 40
0.6628590036
 40
0.6940725823
 40
0.7251764927
 40
0.7561672604
 40
0.7870426008
 40
0.8178014191
 40
0.8484438203
 40
0.8789711284
 40
0.9093859094
 40
0.9396920013
 40
0.9698945427
 40
1.0
 40
1.0
 40
1.0
 40
1.0
 10
10.4378903336
 20
7.0656377968
 30
0.0
 10
10.4307276287
 20
7.0661345321
 30
0.0
 10
10.4199915698
 20
7.0672574017
 30
0.0
 10
10.4057694929
 20
7.0694931702
 30
0.0
 10
10.3915665831
 20
7.0722278473
 30
0.0
 10
10.3739434849
 20
7.0765665404
 30
0.0
 10
10.3566158758
 20
7.0820903926
 30
0.0
 10
10.342956946
 20
7.0872032698
 30
0.0
 10
10.3294245908
 20
7.0927813172
 30
0.0
 10
10.3128216591
 20
7.1005942377
 30
0.0
 10
10.2935011495
 20
7.1112445688
 30
0.0
 10
10.2748437593
 20
7.123115105
 30
0.0
 10
10.2569222272
 20
7.1361375818
 30
0.0
 10
10.2398016205
 20
7.1502405331
 30
0.0
 10
10.2235402945
 20
7.1653499825
 30
0.0
 10
10.2081898872
 20
7.1813904555
 30
0.0
 10
10.1937956875
 20
7.1982858368
 30
0.0
 10
10.1803971881
 20
7.2159597317
 30
0.0
 10
10.1680280259
 20
7.2343371216
 30
0.0
 10
10.1529673406
 20
7.2596435805
 30
0.0
 10
10.1368404641
 20
7.2926570197
 30
0.0
 10
10.1244153551
 20
7.3271298593
 30
0.0
 10
10.1167789318
 20
7.3552542792
 30
0.0
 10
10.1122142547
 20
7.3765267122
 30
0.0
 10
10.1088122878
 20
7.3979380902
 30
0.0
 10
10.1065777288
 20
7.4194237958
 30
0.0
 10
10.1055138352
 20
7.4409189627
 30
0.0
 10
10.1056221199
 20
7.4623593837
 30
0.0
 10
10.106902506
 20
7.4836809794
 30
0.0
 10
10.1093533043
 20
7.5048196845
 30
0.0
 10
10.1129711201
 20
7.5257111061
 30
0.0
 10
10.1177508984
 20
7.5462907191
 30
0.0
 10
10.1236851671
 20
7.5664922266
 30
0.0
 10
10.1284129217
 20
7.5796860499
 30
0.0
 10
10.1309656075
 20
7.586194978
 30
0.0
  0
SPLINE
  5
310
100
AcDbEntity
  8
0
100
AcDbSpline
 62
7
  6
CONTINUOUS
 70
0
 71
3
 72
15
 73
11
 74
0
 42
0.0000001
 43
0.0000001
 44
0.0000000001
 40
0.0
 40
0.0
 40
0.0
 40
0.0
 40
0.1273482789
 40
0.2538606571
 40
0.3795878378
 40
0.5046051156
 40
0.629017439
 40
0.7529533823
 40
0.8765605864
 40
1.0
 40
1.0
 40
1.0
 40
1.0
 10
8.935875578
 20
6.9869608366
 30
0.0
 10
8.935875578
 20
6.9934591616
 30
0.0
 10
8.9364960386
 20
7.0064221408
 30
0.0
 10
8.9393019701
 20
7.0256172869
 30
0.0
 10
8.9439546916
 20
7.0443301406
 30
0.0
 10
8.9504121744
 20
7.0623856919
 30
0.0
 10
8.9586151941
 20
7.0796174335
 30
0.0
 10
8.9684889192
 20
7.095866268
 30
0.0
 10
8.9799405415
 20
7.1109799425
 30
0.0
 10
8.9885630413
 20
7.1202122503
 30
0.0
 10
8.9930935128
 20
7.1245883798
 30
0.0
  0
SPLINE
  5
311
100
AcDbEntity
  8
0
100
AcDbSpline
 62
7
  6
CONTINUOUS
 70
0
 71
3
 72
41
 73
37
 74
0
 42
0.0000001
 43
0.0000001
 44
0.0000000001
 40
0.0
 40
0.0
 40
0.0
 40
0.0
 40
0.029942123
 40
0.0449237706
 40
0.0599145177
 40
0.0899291716
 40
0.1200145961
 40
0.1350933574
 40
0.1501974726
 40
0.1804849654
 40
0.2108989488
 40
0.2414525624
 40
0.2721557217
 40
0.3030149378
 40
0.3340332219
 40
0.3652100719
 40
0.3965415365
 40
0.4280203507
 40
0.4596361361
 40
0.4913756582
 40
0.5232231336
 40
0.5551605782
 40
0.5871681905
 40
0.6192247616
 40
0.6513081064
 40
0.6833955071
 40
0.7154641657
 40
0.7474916563
 40
0.7794563734
 40
0.811337967
 40
0.843117763
 40
0.8747791516
 40
0.9063079641
 40
0.9376927517
 40
0.9689251728
 40
1.0
 40
1.0
 40
1.0
 40
1.0
 10
13.1499820152
 20
6.5531159421
 30
0.0
 10
13.1464815978
 20
6.5497347754
 30
0.0
 10
13.1410246864
 20
6.5448678495
 30
0.0
 10
13.1333823663
 20
6.5388290676
 30
0.0
 10
13.1254966576
 20
6.5330907977
 30
0.0
 10
13.115207109
 20
6.5265013711
 30
0.0
 10
13.1044172475
 20
6.5207375357
 30
0.0
 10
13.0955184173
 20
6.5166370911
 30
0.0
 10
13.0864357356
 20
6.5128751862
 30
0.0
 10
13.0747830772
 20
6.5088300182
 30
0.0
 10
13.0604229195
 20
6.5050600088
 30
0.0
 10
13.0457494104
 20
6.5023892047
 30
0.0
 10
13.0308438663
 20
6.5008323473
 30
0.0
 10
13.015788168
 20
6.5003977435
 30
0.0
 10
13.0006651568
 20
6.5010876058
 30
0.0
 10
12.9855579532
 20
6.5028979492
 30
0.0
 10
12.9705495653
 20
6.5058186487
 30
0.0
 10
12.9557224219
 20
6.5098334946
 30
0.0
 10
12.9411579301
 20
6.514920289
 30
0.0
 10
12.9269360336
 20
6.5210509706
 30
0.0
 10
12.9131347803
 20
6.5281917709
 30
0.0
 10
12.8998298997
 20
6.5363034006
 30
0.0
 10
12.8870943935
 20
6.5453412651
 30
0.0
 10
12.8749981395
 20
6.5552557078
 30
0.0
 10
12.8636075129
 20
6.5659922813
 30
0.0
 10
12.8529850265
 20
6.5774920434
 30
0.0
 10
12.8431889908
 20
6.5896918776
 30
0.0
 10
12.8342731973
 20
6.6025248361
 30
0.0
 10
12.8262866257
 20
6.6159205026
 30
0.0
 10
12.8192731769
 20
6.6298053766
 30
0.0
 10
12.8132714345
 20
6.6441032626
 30
0.0
 10
12.8083144493
 20
6.6587357179
 30
0.0
 10
12.8044295671
 20
6.6736223451
 30
0.0
 10
12.8016382566
 20
6.6886817168
 30
0.0
 10
12.7999560207
 20
6.7038300175
 30
0.0
 10
12.7995792272
 20
6.7139612251
 30
0.0
 10
12.7995792272
 20
6.7190120784
 30
0.0
  0
SPLINE
  5
312
100
AcDbEntity
  8
0
100
AcDbSpline
 62
7
  6
CONTINUOUS
 70
0
 71
3
 72
44
 73
40
 74
0
 42
0.0000001
 43
0.0000001
 44
0.0000000001
 40
0.0
 40
0.0
 40
0.0
 40
0.0
 40
0.0460763657
 40
0.0901468679
 40
0.1322107774
 40
0.1722755397
 40
0.2103576486
 40
0.2464842779
 40
0.2806953037
 40
0.3130451658
 40
0.3436061119
 40
0.3724707777
 40
0.3997561754
 40
0.4128536801
 40
0.4256132887
 40
0.4502054793
 40
0.4737481726
 40
0.496483535
 40
0.5076373227
 40
0.5186932889
 40
0.5296887313
 40
0.5406616239
 40
0.551650183
 40
0.5626924628
 40
0.573825902
 40
0.5850869403
 40
0.6081218964
 40
0.6320672684
 40
0.6571520133
 40
0.6835713855
 40
0.711488255
 40
0.7410354854
 40
0.7723196677
 40
0.8054247424
 40
0.8404151584
 40
0.8773392817
 40
0.9162313309
 40
0.9571140627
 40
1.0
 40
1.0
 40
1.0
 40
1.0
 10
13.701771622
 20
7.5883102034
 30
0.0
 10
13.6997876613
 20
7.5845698409
 30
0.0
 10
13.6958111444
 20
7.5773017092
 30
0.0
 10
13.6896742236
 20
7.5668147721
 30
0.0
 10
13.6835028986
 20
7.5569942942
 30
0.0
 10
13.677302862
 20
7.5478492724
 30
0.0
 10
13.6710796468
 20
7.5393879512
 30
0.0
 10
13.6648387254
 20
7.5316179704
 30
0.0
 10
13.6585855356
 20
7.5245462539
 30
0.0
 10
13.6523252732
 20
7.5181792416
 30
0.0
 10
13.6460629862
 20
7.5125225874
 30
0.0
 10
13.639803814
 20
7.507581925
 30
0.0
 10
13.6345236852
 20
7.5040177776
 30
0.0
 10
13.6303102755
 20
7.5015464487
 30
0.0
 10
13.6262113753
 20
7.4993783638
 30
0.0
 10
13.6210888487
 20
7.497103144
 30
0.0
 10
13.6148883879
 20
7.4950743278
 30
0.0
 10
13.609709966
 20
7.4939933632
 30
0.0
 10
13.6056063717
 20
7.4935091627
 30
0.0
 10
13.6025583379
 20
7.4933327445
 30
0.0
 10
13.599521891
 20
7.4933410716
 30
0.0
 10
13.5964977469
 20
7.4935340619
 30
0.0
 10
13.5934867432
 20
7.493911695
 30
0.0
 10
13.5904897167
 20
7.4944738835
 30
0.0
 10
13.5875073736
 20
7.4952204522
 30
0.0
 10
13.5835222623
 20
7.4964703641
 30
0.0
 10
13.5785620726
 20
7.4985119936
 30
0.0
 10
13.5727329148
 20
7.5016776611
 30
0.0
 10
13.5669849774
 20
7.5055724487
 30
0.0
 10
13.5613230131
 20
7.5101906392
 30
0.0
 10
13.5557507984
 20
7.5155269725
 30
0.0
 10
13.5502722079
 20
7.521575934
 30
0.0
 10
13.544891218
 20
7.5283318281
 30
0.0
 10
13.5396120059
 20
7.5357885369
 30
0.0
 10
13.5344387626
 20
7.5439393559
 30
0.0
 10
13.5293759297
 20
7.552777047
 30
0.0
 10
13.5244277885
 20
7.5622936864
 30
0.0
 10
13.5195988461
 20
7.5724806123
 30
0.0
 10
13.5165351066
 20
7.5795437953
 30
0.0
 10
13.5150208065
 20
7.5831820266
 30
0.0
  0
SPLINE
  5
313
100
AcDbEntity
  8
0
100
AcDbSpline
 62
7
  6
CONTINUOUS
 70
0
 71
3
 72
41
 73
37
 74
0
 42
0.0000001
 43
0.0000001
 44
0.0000000001
 40
0.0
 40
0.0
 40
0.0
 40
0.0
 40
0.029942123
 40
0.0449237706
 40
0.0599145177
 40
0.0899291716
 40
0.1200145961
 40
0.1350933574
 40
0.1501974726
 40
0.1804849654
 40
0.2108989488
 40
0.2414525624
 40
0.2721557217
 40
0.3030149378
 40
0.3340332219
 40
0.3652100719
 40
0.3965415365
 40
0.4280203507
 40
0.4596361361
 40
0.4913756582
 40
0.5232231336
 40
0.5551605782
 40
0.5871681905
 40
0.6192247616
 40
0.6513081064
 40
0.6833955071
 40
0.7154641657
 40
0.7474916563
 40
0.7794563734
 40
0.811337967
 40
0.843117763
 40
0.8747791516
 40
0.9063079641
 40
0.9376927517
 40
0.9689251728
 40
1.0
 40
1.0
 40
1.0
 40
1.0
 10
13.1499820152
 20
9.2094121218
 30
0.0
 10
13.1464815978
 20
9.2060309551
 30
0.0
 10
13.1410246864
 20
9.2011640292
 30
0.0
 10
13.1333823663
 20
9.1951252473
 30
0.0
 10
13.1254966576
 20
9.1893869774
 30
0.0
 10
13.115207109
 20
9.1827975508
 30
0.0
 10
13.1044172475
 20
9.1770337154
 30
0.0
 10
13.0955184173
 20
9.1729332708
 30
0.0
 10
13.0864357356
 20
9.1691713659
 30
0.0
 10
13.0747830772
 20
9.1651261979
 30
0.0
 10
13.0604229195
 20
9.1613561885
 30
0.0
 10
13.0457494104
 20
9.1586853844
 30
0.0
 10
13.0308438663
 20
9.157128527
 30
0.0
 10
13.015788168
 20
9.1566939232
 30
0.0
 10
13.0006651568
 20
9.1573837855
 30
0.0
 10
12.9855579532
 20
9.1591941289
 30
0.0
 10
12.9705495653
 20
9.1621148283
 30
0.0
 10
12.9557224219
 20
9.1661296743
 30
0.0
 10
12.9411579301
 20
9.1712164687
 30
0.0
 10
12.9269360336
 20
9.1773471503
 30
0.0
 10
12.9131347803
 20
9.1844879506
 30
0.0
 10
12.8998298997
 20
9.1925995803
 30
0.0
 10
12.8870943935
 20
9.2016374447
 30
0.0
 10
12.8749981395
 20
9.2115518875
 30
0.0
 10
12.8636075129
 20
9.222288461
 30
0.0
 10
12.8529850265
 20
9.2337882231
 30
0.0
 10
12.8431889908
 20
9.2459880573
 30
0.0
 10
12.8342731973
 20
9.2588210158
 30
0.0
 10
12.8262866257
 20
9.2722166823
 30
0.0
 10
12.8192731769
 20
9.2861015563
 30
0.0
 10
12.8132714345
 20
9.3003994423
 30
0.0
 10
12.8083144493
 20
9.3150318976
 30
0.0
 10
12.8044295671
 20
9.3299185248
 30
0.0
 10
12.8016382566
 20
9.3449778964
 30
0.0
 10
12.7999560207
 20
9.3601261972
 30
0.0
 10
12.7995792272
 20
9.3702574048
 30
0.0
 10
12.7995792272
 20
9.3753082581
 30
0.0
  0
SPLINE
  5
314
100
AcDbEntity
  8
0
100
AcDbSpline
 62
7
  6
CONTINUOUS
 70
0
 71
3
 72
41
 73
37
 74
0
 42
0.0000001
 43
0.0000001
 44
0.0000000001
 40
0.0
 40
0.0
 40
0.0
 40
0.0
 40
0.030933376
 40
0.0464561918
 40
0.0620136275
 40
0.0932266149
 40
0.1245684209
 40
0.1402865013
 40
0.1560326866
 40
0.1875987404
 40
0.2192565586
 40
0.2509907631
 40
0.2827850924
 40
0.3146227606
 40
0.3464867937
 40
0.3783603332
 40
0.4102269025
 40
0.4420706343
 40
0.4738764616
 40
0.5056302721
 40
0.537319032
 40
0.5689308828
 40
0.6004552155
 40
0.6318827277
 40
0.6632054668
 40
0.6944168649
 40
0.7255117658
 40
0.7564864498
 40
0.7873386559
 40
0.8180676022
 40
0.848674006
 40
0.8791601019
 40
0.9095296583
 40
0.9397879906
 40
0.9699419664
 40
1.0
 40
1.0
 40
1.0
 40
1.0
 10
9.8341865572
 20
8.6857180231
 30
0.0
 10
9.827015675
 20
8.6862153255
 30
0.0
 10
9.8162672554
 20
8.6873298427
 30
0.0
 10
9.8020250641
 20
8.6895371597
 30
0.0
 10
9.7878002605
 20
8.6922319262
 30
0.0
 10
9.7701435889
 20
8.6965004648
 30
0.0
 10
9.7527703382
 20
8.7019312311
 30
0.0
 10
9.7390666908
 20
8.7069585126
 30
0.0
 10
9.7254838714
 20
8.7124443072
 30
0.0
 10
9.7088063646
 20
8.7201319475
 30
0.0
 10
9.6893780038
 20
8.7306229306
 30
0.0
 10
9.6705957372
 20
8.7423318203
 30
0.0
 10
9.6525349868
 20
8.7551969704
 30
0.0
 10
9.6352647977
 20
8.7691529394
 30
0.0
 10
9.6188485932
 20
8.7841309359
 30
0.0
 10
9.6033439544
 20
8.8000596594
 30
0.0
 10
9.5888027919
 20
8.816865948
 30
0.0
 10
9.5752715192
 20
8.8344753754
 30
0.0
 10
9.5627913059
 20
8.8528127522
 30
0.0
 10
9.5513983646
 20
8.8718025395
 30
0.0
 10
9.5411242617
 20
8.8913691758
 30
0.0
 10
9.5319962337
 20
8.9114373231
 30
0.0
 10
9.5240374983
 20
8.931932039
 30
0.0
 10
9.517267547
 20
8.9527788841
 30
0.0
 10
9.5117024125
 20
8.9739039724
 30
0.0
 10
9.5073549048
 20
8.9952339755
 30
0.0
 10
9.5042348083
 20
9.0166960884
 30
0.0
 10
9.5023490405
 20
9.0382179662
 30
0.0
 10
9.5017017655
 20
9.0597276395
 30
0.0
 10
9.5022944643
 20
9.0811534189
 30
0.0
 10
9.5041259514
 20
9.102423785
 30
0.0
 10
9.5071923696
 20
9.1234673195
 30
0.0
 10
9.5114870698
 20
9.1442125005
 30
0.0
 10
9.5170006839
 20
9.1645880615
 30
0.0
 10
9.5237202697
 20
9.1845213504
 30
0.0
 10
9.5290023893
 20
9.1974891855
 30
0.0
 10
9.5318382654
 20
9.2038722746
 30
0.0
  0
SPLINE
  5
315
100
AcDbEntity
  8
0
100
AcDbSpline
 62
7
  6
CONTINUOUS
 70
0
 71
3
 72
40
 73
36
 74
0
 42
0.0000001
 43
0.0000001
 44
0.0000000001
 40
0.0
 40
0.0
 40
0.0
 40
0.0
 40
0.0299422973
 40
0.0449240327
 40
0.059914866
 40
0.089929696
 40
0.1200152967
 40
0.1501925739
 40
0.180480241
 40
0.2108943975
 40
0.2414481839
 40
0.2721515165
 40
0.3030109074
 40
0.3340293686
 40
0.3652063985
 40
0.3965380456
 40
0.4280170434
 40
0.4596330122
 40
0.4913727167
 40
0.5232203738
 40
0.5551580001
 40
0.587165795
 40
0.6192225506
 40
0.6513060818
 40
0.6833936709
 40
0.7154625181
 40
0.7474901959
 40
0.7794550985
 40
0.8113368727
 40
0.8431168595
 40
0.8747783985
 40
0.906307485
 40
0.9376922173
 40
0.9689252845
 40
1.0
 40
1.0
 40
1.0
 40
1.0
 10
10.5355029677
 20
9.4988907471
 30
0.0
 10
10.5331721215
 20
9.4966393028
 30
0.0
 10
10.5295385093
 20
9.4933985067
 30
0.0
 10
10.5244496462
 20
9.4893774291
 30
0.0
 10
10.519198783
 20
9.4855564203
 30
0.0
 10
10.5123470174
 20
9.4811685891
 30
0.0
 10
10.5037201609
 20
9.4765601047
 30
0.0
 10
10.4947311765
 20
9.4726305672
 30
0.0
 10
10.4854299312
 20
9.4694017538
 30
0.0
 10
10.4758676121
 20
9.4668912811
 30
0.0
 10
10.4660969195
 20
9.4651128673
 30
0.0
 10
10.4561716438
 20
9.464076169
 30
0.0
 10
10.446146403
 20
9.4637867612
 30
0.0
 10
10.4360763329
 20
9.464246107
 30
0.0
 10
10.4260167884
 20
9.465451558
 30
0.0
 10
10.4160230419
 20
9.4673963746
 30
0.0
 10
10.4061499827
 20
9.4700697638
 30
0.0
 10
10.3964518177
 20
9.4734569406
 30
0.0
 10
10.3869817793
 20
9.477539218
 30
0.0
 10
10.3777918369
 20
9.4822941088
 30
0.0
 10
10.3689324164
 20
9.4876954512
 30
0.0
 10
10.3604521275
 20
9.4937135508
 30
0.0
 10
10.3523975003
 20
9.5003153435
 30
0.0
 10
10.3448127334
 20
9.5074645754
 30
0.0
 10
10.3377394542
 20
9.5151219996
 30
0.0
 10
10.3312164935
 20
9.5232455899
 30
0.0
 10
10.3252796692
 20
9.5317907655
 30
0.0
 10
10.3199615948
 20
9.5407106357
 30
0.0
 10
10.3152914974
 20
9.5499562572
 30
0.0
 10
10.3112950791
 20
9.5594768923
 30
0.0
 10
10.3079943185
 20
9.5692203135
 30
0.0
 10
10.3054074859
 20
9.5791329649
 30
0.0
 10
10.3035487676
 20
9.5891606842
 30
0.0
 10
10.302428639
 20
9.5992475905
 30
0.0
 10
10.3021777227
 20
9.6059937484
 30
0.0
 10
10.3021777227
 20
9.6093569652
 30
0.0
  0
SPLINE
  5
316
100
AcDbEntity
  8
0
100
AcDbSpline
 62
7
  6
CONTINUOUS
 70
0
 71
3
 72
15
 73
11
 74
0
 42
0.0000001
 43
0.0000001
 44
0.0000000001
 40
0.0
 40
0.0
 40
0.0
 40
0.0
 40
0.1273482808
 40
0.2538605196
 40
0.3795878971
 40
0.5046050835
 40
0.6290174393
 40
0.7529533827
 40
0.8765605876
 40
1.0
 40
1.0
 40
1.0
 40
1.0
 10
10.3021777227
 20
9.6093569652
 30
0.0
 10
10.3021777227
 20
9.6136840389
 30
0.0
 10
10.3025908651
 20
9.6223157614
 30
0.0
 10
10.3044592718
 20
9.635097335
 30
0.0
 10
10.3075574019
 20
9.64755776
 30
0.0
 10
10.3118572776
 20
9.6595805093
 30
0.0
 10
10.3173194282
 20
9.671054714
 30
0.0
 10
10.3238940811
 20
9.6818744231
 30
0.0
 10
10.3315194334
 20
9.6919382434
 30
0.0
 10
10.337260925
 20
9.6980858244
 30
0.0
 10
10.340277651
 20
9.7009997836
 30
0.0
  0
SPLINE
  5
317
100
AcDbEntity
  8
0
100
AcDbSpline
 62
7
  6
CONTINUOUS
 70
0
 71
3
 72
40
 73
36
 74
0
 42
0.0000001
 43
0.0000001
 44
0.0000000001
 40
0.0
 40
0.0
 40
0.0
 40
0.0
 40
0.0299422973
 40
0.0449240327
 40
0.059914866
 40
0.089929696
 40
0.1200152967
 40
0.1501925739
 40
0.180480241
 40
0.2108943975
 40
0.2414481839
 40
0.2721515165
 40
0.3030109074
 40
0.3340293686
 40
0.3652063985
 40
0.3965380456
 40
0.4280170434
 40
0.4596330122
 40
0.4913727167
 40
0.5232203738
 40
0.5551580001
 40
0.587165795
 40
0.6192225506
 40
0.6513060818
 40
0.6833936709
 40
0.7154625181
 40
0.7474901959
 40
0.7794550985
 40
0.8113368727
 40
0.8431168595
 40
0.8747783985
 40
0.906307485
 40
0.9376922173
 40
0.9689252845
 40
1.0
 40
1.0
 40
1.0
 40
1.0
 10
11.1392066449
 20
6.6790209551
 30
0.0
 10
11.1368757987
 20
6.6767695108
 30
0.0
 10
11.1332421865
 20
6.6735287146
 30
0.0
 10
11.1281533234
 20
6.669507637
 30
0.0
 10
11.1229024602
 20
6.6656866283
 30
0.0
 10
11.1160506946
 20
6.6612987971
 30
0.0
 10
11.1074238381
 20
6.6566903127
 30
0.0
 10
11.0984348537
 20
6.6527607752
 30
0.0
 10
11.0891336084
 20
6.6495319618
 30
0.0
 10
11.0795712893
 20
6.6470214891
 30
0.0
 10
11.0698005967
 20
6.6452430753
 30
0.0
 10
11.059875321
 20
6.644206377
 30
0.0
 10
11.0498500802
 20
6.6439169692
 30
0.0
 10
11.0397800101
 20
6.644376315
 30
0.0
 10
11.0297204656
 20
6.645581766
 30
0.0
 10
11.0197267191
 20
6.6475265826
 30
0.0
 10
11.0098536599
 20
6.6501999718
 30
0.0
 10
11.000155495
 20
6.6535871486
 30
0.0
 10
10.9906854565
 20
6.657669426
 30
0.0
 10
10.9814955141
 20
6.6624243168
 30
0.0
 10
10.9726360936
 20
6.6678256592
 30
0.0
 10
10.9641558047
 20
6.6738437588
 30
0.0
 10
10.9561011775
 20
6.6804455515
 30
0.0
 10
10.9485164106
 20
6.6875947834
 30
0.0
 10
10.9414431314
 20
6.6952522076
 30
0.0
 10
10.9349201707
 20
6.7033757979
 30
0.0
 10
10.9289833464
 20
6.7119209735
 30
0.0
 10
10.923665272
 20
6.7208408437
 30
0.0
 10
10.9189951746
 20
6.7300864652
 30
0.0
 10
10.9149987563
 20
6.7396071003
 30
0.0
 10
10.9116979957
 20
6.7493505215
 30
0.0
 10
10.9091111631
 20
6.7592631729
 30
0.0
 10
10.9072524448
 20
6.7692908922
 30
0.0
 10
10.9061323162
 20
6.7793777985
 30
0.0
 10
10.9058813999
 20
6.7861239564
 30
0.0
 10
10.9058813999
 20
6.7894871732
 30
0.0
  0
SPLINE
  5
318
100
AcDbEntity
  8
0
100
AcDbSpline
 62
7
  6
CONTINUOUS
 70
0
 71
3
 72
39
 73
35
 74
0
 42
0.0000001
 43
0.0000001
 44
0.0000000001
 40
0.0
 40
0.0
 40
0.0
 40
0.0
 40
0.0299424796
 40
0.0599093277
 40
0.0899243268
 40
0.1200100989
 40
0.1501875564
 40
0.1804754082
 40
0.2108897438
 40
0.2414437065
 40
0.2721472214
 40
0.3030068034
 40
0.334025452
 40
0.3652026597
 40
0.3965344836
 40
0.4280136674
 40
0.4596298279
 40
0.4913697183
 40
0.5232175588
 40
0.5551553757
 40
0.587163368
 40
0.6192203146
 40
0.6513040285
 40
0.6833918015
 40
0.7154608406
 40
0.7474887097
 40
0.7794537919
 40
0.8113357643
 40
0.8431159187
 40
0.8747776681
 40
0.9063070433
 40
0.9376914486
 40
0.9689258945
 40
1.0
 40
1.0
 40
1.0
 40
1.0
 10
12.1071089671
 20
9.3709879096
 30
0.0
 10
12.105814974
 20
9.3697379976
 30
0.0
 10
12.103125254
 20
9.3673390281
 30
0.0
 10
12.0988158762
 20
9.3640708774
 30
0.0
 10
12.094253762
 20
9.3611493462
 30
0.0
 10
12.0894643941
 20
9.3585908277
 30
0.0
 10
12.0844740966
 20
9.3564093118
 30
0.0
 10
12.0793104054
 20
9.3546168109
 30
0.0
 10
12.0740017879
 20
9.3532231051
 30
0.0
 10
12.0685774905
 20
9.3522357961
 30
0.0
 10
12.0630673748
 20
9.3516602503
 30
0.0
 10
12.0575017599
 20
9.3514995901
 30
0.0
 10
12.0519112596
 20
9.3517546182
 30
0.0
 10
12.046326604
 20
9.3524238414
 30
0.0
 10
12.0407784743
 20
9.3535035158
 30
0.0
 10
12.0352973431
 20
9.3549876638
 30
0.0
 10
12.0299133124
 20
9.3568680997
 30
0.0
 10
12.0246559282
 20
9.3591344228
 30
0.0
 10
12.0195540374
 20
9.3617741435
 30
0.0
 10
12.0146356336
 20
9.3647727418
 30
0.0
 10
12.0099277175
 20
9.3681137548
 30
0.0
 10
12.0054561207
 20
9.3717788195
 30
0.0
 10
12.0012453658
 20
9.375747791
 30
0.0
 10
11.9973185586
 20
9.3799988812
 30
0.0
 10
11.9936972626
 20
9.3845087673
 30
0.0
 10
11.9904013836
 20
9.3892527136
 30
0.0
 10
11.9874490053
 20
9.3942046717
 30
0.0
 10
11.984856352
 20
9.3993374689
 30
0.0
 10
11.9826376832
 20
9.4046229388
 30
0.0
 10
11.9808052299
 20
9.4100321041
 30
0.0
 10
11.9793691624
 20
9.4155351973
 30
0.0
 10
11.978337233
 20
9.4211022268
 30
0.0
 10
11.9777154298
 20
9.4267020731
 30
0.0
 10
11.9775761014
 20
9.4304472926
 30
0.0
 10
11.9775761014
 20
9.4323143685
 30
0.0
  0
SPLINE
  5
319
100
AcDbEntity
  8
0
100
AcDbSpline
 62
7
  6
CONTINUOUS
 70
0
 71
3
 72
15
 73
11
 74
0
 42
0.0000001
 43
0.0000001
 44
0.0000000001
 40
0.0
 40
0.0
 40
0.0
 40
0.0
 40
0.1273482789
 40
0.2538606571
 40
0.3795878378
 40
0.5046051156
 40
0.629017439
 40
0.7529533823
 40
0.8765605864
 40
1.0
 40
1.0
 40
1.0
 40
1.0
 10
12.7995792272
 20
6.7190120784
 30
0.0
 10
12.7995792272
 20
6.7255104035
 30
0.0
 10
12.8001996879
 20
6.7384733826
 30
0.0
 10
12.8030056193
 20
6.7576685287
 30
0.0
 10
12.8076583409
 20
6.7763813824
 30
0.0
 10
12.8141158237
 20
6.7944369337
 30
0.0
 10
12.8223188433
 20
6.8116686753
 30
0.0
 10
12.8321925684
 20
6.8279175098
 30
0.0
 10
12.8436441908
 20
6.8430311843
 30
0.0
 10
12.8522666905
 20
6.8522634921
 30
0.0
 10
12.8567971621
 20
6.8566396216
 30
0.0
  0
SPLINE
  5
31A
100
AcDbEntity
  8
0
100
AcDbSpline
 62
7
  6
CONTINUOUS
 70
0
 71
3
 72
21
 73
17
 74
0
 42
0.0000001
 43
0.0000001
 44
0.0000000001
 40
0.0
 40
0.0
 40
0.0
 40
0.0
 40
0.0614850771
 40
0.1230099481
 40
0.1845978969
 40
0.2462785896
 40
0.3080756805
 40
0.3700121339
 40
0.4321081031
 40
0.494381052
 40
0.5568455784
 40
0.6195132602
 40
0.6823927174
 40
0.7454897935
 40
0.8723058414
 40
1.0
 40
1.0
 40
1.0
 40
1.0
 10
11.411656887
 20
7.5927218603
 30
0.0
 10
11.4152999998
 20
7.5961123223
 30
0.0
 10
11.4227944186
 20
7.602678059
 30
0.0
 10
11.4346100009
 20
7.6118376763
 30
0.0
 10
11.4469650484
 20
7.6202844004
 30
0.0
 10
11.4598182041
 20
7.6279943081
 30
0.0
 10
11.4731275997
 20
7.634947675
 30
0.0
 10
11.4868495845
 20
7.6411283894
 30
0.0
 10
11.5009398187
 20
7.6465241391
 30
0.0
 10
11.5153534941
 20
7.6511262475
 30
0.0
 10
11.530045821
 20
7.6549295163
 30
0.0
 10
11.5449721989
 20
7.6579320236
 30
0.0
 10
11.5600891601
 20
7.6601348995
 30
0.0
 10
11.5804721986
 20
7.6620142872
 30
0.0
 10
11.6062237083
 20
7.6623807745
 30
0.0
 10
11.6267864904
 20
7.6606249683
 30
0.0
 10
11.6370313557
 20
7.6592572429
 30
0.0
  0
SPLINE
  5
31B
100
AcDbEntity
  8
0
100
AcDbSpline
 62
7
  6
CONTINUOUS
 70
0
 71
3
 72
39
 73
35
 74
0
 42
0.0000001
 43
0.0000001
 44
0.0000000001
 40
0.0
 40
0.0
 40
0.0
 40
0.0
 40
0.0299424796
 40
0.0599093277
 40
0.0899243268
 40
0.1200100989
 40
0.1501875564
 40
0.1804754082
 40
0.2108897438
 40
0.2414437065
 40
0.2721472214
 40
0.3030068034
 40
0.334025452
 40
0.3652026597
 40
0.3965344836
 40
0.4280136674
 40
0.4596298279
 40
0.4913697183
 40
0.5232175588
 40
0.5551553757
 40
0.587163368
 40
0.6192203146
 40
0.6513040285
 40
0.6833918015
 40
0.7154608406
 40
0.7474887097
 40
0.7794537919
 40
0.8113357643
 40
0.8431159187
 40
0.8747776681
 40
0.9063070433
 40
0.9376914486
 40
0.9689258945
 40
1.0
 40
1.0
 40
1.0
 40
1.0
 10
9.888377279
 20
6.8685612951
 30
0.0
 10
9.8870832859
 20
6.8673113831
 30
0.0
 10
9.8843935659
 20
6.8649124136
 30
0.0
 10
9.880084188
 20
6.8616442629
 30
0.0
 10
9.8755220738
 20
6.8587227317
 30
0.0
 10
9.870732706
 20
6.8561642132
 30
0.0
 10
9.8657424085
 20
6.8539826973
 30
0.0
 10
9.8605787173
 20
6.8521901964
 30
0.0
 10
9.8552700998
 20
6.8507964906
 30
0.0
 10
9.8498458024
 20
6.8498091816
 30
0.0
 10
9.8443356867
 20
6.8492336358
 30
0.0
 10
9.8387700718
 20
6.8490729756
 30
0.0
 10
9.8331795715
 20
6.8493280037
 30
0.0
 10
9.8275949158
 20
6.8499972269
 30
0.0
 10
9.8220467862
 20
6.8510769013
 30
0.0
 10
9.8165656549
 20
6.8525610493
 30
0.0
 10
9.8111816243
 20
6.8544414852
 30
0.0
 10
9.8059242401
 20
6.8567078083
 30
0.0
 10
9.8008223492
 20
6.859347529
 30
0.0
 10
9.7959039455
 20
6.8623461273
 30
0.0
 10
9.7911960294
 20
6.8656871402
 30
0.0
 10
9.7867244326
 20
6.869352205
 30
0.0
 10
9.7825136776
 20
6.8733211765
 30
0.0
 10
9.7785868705
 20
6.8775722667
 30
0.0
 10
9.7749655744
 20
6.8820821528
 30
0.0
 10
9.7716696955
 20
6.8868260991
 30
0.0
 10
9.7687173172
 20
6.8917780572
 30
0.0
 10
9.7661246639
 20
6.8969108544
 30
0.0
 10
9.7639059951
 20
6.9021963243
 30
0.0
 10
9.7620735417
 20
6.9076054896
 30
0.0
 10
9.7606374743
 20
6.9131085828
 30
0.0
 10
9.7596055449
 20
6.9186756123
 30
0.0
 10
9.7589837417
 20
6.9242754586
 30
0.0
 10
9.7588444132
 20
6.9280206781
 30
0.0
 10
9.7588444132
 20
6.929887754
 30
0.0
  0
SPLINE
  5
31C
100
AcDbEntity
  8
0
100
AcDbSpline
 62
7
  6
CONTINUOUS
 70
0
 71
3
 72
32
 73
28
 74
0
 42
0.0000001
 43
0.0000001
 44
0.0000000001
 40
0.0
 40
0.0
 40
0.0
 40
0.0
 40
0.0851788256
 40
0.1685805939
 40
0.2498831809
 40
0.3287739947
 40
0.4049543857
 40
0.4781405615
 40
0.5480662501
 40
0.581729445
 40
0.6144868725
 40
0.6463114519
 40
0.6771775691
 40
0.7070615392
 40
0.7359415075
 40
0.763797774
 40
0.790612955
 40
0.8163721473
 40
0.8410634064
 40
0.8646777882
 40
0.8872101701
 40
0.9086592878
 40
0.9290289006
 40
0.9483280334
 40
0.9665724873
 40
0.9837855716
 40
1.0
 40
1.0
 40
1.0
 40
1.0
 10
7.4534567315
 20
7.3654792939
 30
0.0
 10
7.4534567315
 20
7.3538348699
 30
0.0
 10
7.4536551535
 20
7.3307883937
 30
0.0
 10
7.4545652304
 20
7.296638234
 30
0.0
 10
7.45608097
 20
7.2633698058
 30
0.0
 10
7.4581958223
 20
7.2311231891
 30
0.0
 10
7.4609005971
 20
7.2000339931
 30
0.0
 10
7.4641836738
 20
7.1702330736
 30
0.0
 10
7.4674292682
 20
7.1462827482
 30
0.0
 10
7.4703181244
 20
7.1278681156
 30
0.0
 10
7.4725926576
 20
7.1146309234
 30
0.0
 10
7.4750000044
 20
7.1018060719
 30
0.0
 10
7.4775376994
 20
7.0894070252
 30
0.0
 10
7.4802030009
 20
7.0774468144
 30
0.0
 10
7.4829931133
 20
7.0659379949
 30
0.0
 10
7.4859050727
 20
7.0548926366
 30
0.0
 10
7.4889357864
 20
7.0443223073
 30
0.0
 10
7.4920820862
 20
7.034238064
 30
0.0
 10
7.4953406019
 20
7.0246504217
 30
0.0
 10
7.4987079859
 20
7.0155693708
 30
0.0
 10
7.5021806285
 20
7.0070043096
 30
0.0
 10
7.5057550316
 20
6.9989641098
 30
0.0
 10
7.5094274214
 20
6.9914569889
 30
0.0
 10
7.5131941806
 20
6.9844906745
 30
0.0
 10
7.5170515552
 20
6.9780720891
 30
0.0
 10
7.5209956869
 20
6.9722080791
 30
0.0
 10
7.5237612922
 20
6.9685659584
 30
0.0
 10
7.5251599049
 20
6.9668463034
 30
0.0
  0
SPLINE
  5
31D
100
AcDbEntity
  8
0
100
AcDbSpline
 62
7
  6
CONTINUOUS
 70
0
 71
3
 72
25
 73
21
 74
0
 42
0.0000001
 43
0.0000001
 44
0.0000000001
 40
0.0
 40
0.0
 40
0.0
 40
0.0
 40
0.0623465486
 40
0.0934585143
 40
0.1245318956
 40
0.1865705158
 40
0.2485109899
 40
0.2794627959
 40
0.3104060905
 40
0.3722784976
 40
0.4341855437
 40
0.496174496
 40
0.5582923254
 40
0.6205844149
 40
0.6830931852
 40
0.7458567372
 40
0.8089074583
 40
0.8722712217
 40
0.9359651247
 40
1.0
 40
1.0
 40
1.0
 40
1.0
 10
10.1365349988
 20
8.8704130016
 30
0.0
 10
10.1333473628
 20
8.863238159
 30
0.0
 10
10.128188159
 20
8.8526458877
 30
0.0
 10
10.1205735464
 20
8.8389340402
 30
0.0
 10
10.1124898695
 20
8.8255379074
 30
0.0
 10
10.1014975761
 20
8.8093786944
 30
0.0
 10
10.0893546184
 20
8.794083926
 30
0.0
 10
10.0789875294
 20
8.7824304992
 30
0.0
 10
10.0681959573
 20
8.7711810216
 30
0.0
 10
10.0539175192
 20
8.757894344
 30
0.0
 10
10.0356057548
 20
8.7433006629
 30
0.0
 10
10.0161951698
 20
8.730146759
 30
0.0
 10
9.9957770055
 20
8.7185200242
 30
0.0
 10
9.9744512898
 20
8.7085003833
 30
0.0
 10
9.9523275063
 20
8.7001598057
 30
0.0
 10
9.9295237655
 20
8.6935605911
 30
0.0
 10
9.9061662085
 20
8.688753953
 30
0.0
 10
9.8823871602
 20
8.6857789348
 30
0.0
 10
9.8583264136
 20
8.6846608562
 30
0.0
 10
9.8422309165
 20
8.6851601449
 30
0.0
 10
9.8341865572
 20
8.6857180231
 30
0.0
  0
SPLINE
  5
31E
100
AcDbEntity
  8
0
100
AcDbSpline
 62
7
  6
CONTINUOUS
 70
0
 71
3
 72
25
 73
21
 74
0
 42
0.0000001
 43
0.0000001
 44
0.0000000001
 40
0.0
 40
0.0
 40
0.0
 40
0.0
 40
0.0623465485
 40
0.0934585142
 40
0.1245318956
 40
0.1865705157
 40
0.2485109898
 40
0.2794627958
 40
0.3104060903
 40
0.3722784974
 40
0.4341855435
 40
0.4961744958
 40
0.5582923251
 40
0.6205844146
 40
0.683093185
 40
0.745856737
 40
0.8089074581
 40
0.8722712216
 40
0.9359651246
 40
1.0
 40
1.0
 40
1.0
 40
1.0
 10
11.3439423532
 20
8.7866790171
 30
0.0
 10
11.3407547171
 20
8.7795041744
 30
0.0
 10
11.3355955132
 20
8.768911903
 30
0.0
 10
11.3279809005
 20
8.7552000552
 30
0.0
 10
11.3198972234
 20
8.7418039222
 30
0.0
 10
11.3089049297
 20
8.7256447088
 30
0.0
 10
11.2967619717
 20
8.7103499403
 30
0.0
 10
11.2863948825
 20
8.6986965133
 30
0.0
 10
11.2756033101
 20
8.6874470356
 30
0.0
 10
11.2613248716
 20
8.6741603578
 30
0.0
 10
11.2430131067
 20
8.6595666766
 30
0.0
 10
11.2236025212
 20
8.6464127727
 30
0.0
 10
11.2031843563
 20
8.6347860379
 30
0.0
 10
11.1818586401
 20
8.6247663971
 30
0.0
 10
11.159734856
 20
8.6164258197
 30
0.0
 10
11.1369311146
 20
8.6098266054
 30
0.0
 10
11.1135735571
 20
8.6050199676
 30
0.0
 10
11.0897945082
 20
8.6020449498
 30
0.0
 10
11.0657337611
 20
8.6009268717
 30
0.0
 10
11.0496382637
 20
8.6014261607
 30
0.0
 10
11.0415939043
 20
8.601984039
 30
0.0
  0
SPLINE
  5
31F
100
AcDbEntity
  8
0
100
AcDbSpline
 62
7
  6
CONTINUOUS
 70
0
 71
3
 72
21
 73
17
 74
0
 42
0.0000001
 43
0.0000001
 44
0.0000000001
 40
0.0
 40
0.0
 40
0.0
 40
0.0
 40
0.0619007618
 40
0.1237366835
 40
0.1855410965
 40
0.2473479812
 40
0.3091914519
 40
0.3711051512
 40
0.433121647
 40
0.4952719489
 40
0.5575850136
 40
0.6200871896
 40
0.6828016331
 40
0.7457486068
 40
0.8723364238
 40
1.0
 40
1.0
 40
1.0
 40
1.0
 10
12.1530127491
 20
8.8083008841
 30
0.0
 10
12.1516434692
 20
8.8063508337
 30
0.0
 10
12.1487792818
 20
8.802540212
 30
0.0
 10
12.144122852
 20
8.797118372
 30
0.0
 10
12.139125206
 20
8.7920139348
 30
0.0
 10
12.1338047246
 20
8.7872466101
 30
0.0
 10
12.1281807432
 20
8.7828345519
 30
0.0
 10
12.1222738717
 20
8.7787948025
 30
0.0
 10
12.1161059116
 20
8.7751429534
 30
0.0
 10
12.1096997464
 20
8.7718931778
 30
0.0
 10
12.1030791996
 20
8.7690581938
 30
0.0
 10
12.0962691151
 20
8.7666491692
 30
0.0
 10
12.0892947924
 20
8.764675516
 30
0.0
 10
12.0797966766
 20
8.7626314218
 30
0.0
 10
12.0676361959
 20
8.7612052493
 30
0.0
 10
12.0578207586
 20
8.7612856102
 30
0.0
 10
12.0529183166
 20
8.7616255957
 30
0.0
  0
SPLINE
  5
320
100
AcDbEntity
  8
0
100
AcDbSpline
 62
7
  6
CONTINUOUS
 70
0
 71
3
 72
25
 73
21
 74
0
 42
0.0000001
 43
0.0000001
 44
0.0000000001
 40
0.0
 40
0.0
 40
0.0
 40
0.0
 40
0.0624814453
 40
0.0936533997
 40
0.1247812345
 40
0.1869108778
 40
0.2489165567
 40
0.2798910125
 40
0.310850059
 40
0.3727334702
 40
0.434625892
 40
0.4965776225
 40
0.5586401831
 40
0.6208648369
 40
0.6833008632
 40
0.7459936631
 40
0.8089827599
 40
0.8723002446
 40
0.9359680196
 40
1.0
 40
1.0
 40
1.0
 40
1.0
 10
10.7448150112
 20
7.2670290192
 30
0.0
 10
10.7418235679
 20
7.2594013319
 30
0.0
 10
10.7369395147
 20
7.2481187796
 30
0.0
 10
10.7296470392
 20
7.2334680456
 30
0.0
 10
10.7218557971
 20
7.2191281002
 30
0.0
 10
10.7111690284
 20
7.2017758441
 30
0.0
 10
10.6992405578
 20
7.1852760423
 30
0.0
 10
10.6889867457
 20
7.1726620874
 30
0.0
 10
10.6782709219
 20
7.1604596675
 30
0.0
 10
10.6640098045
 20
7.1459948879
 30
0.0
 10
10.6455867205
 20
7.1300275157
 30
0.0
 10
10.6259305347
 20
7.1155629727
 30
0.0
 10
10.6051317055
 20
7.102711681
 30
0.0
 10
10.5832931897
 20
7.0915773944
 30
0.0
 10
10.5605316306
 20
7.0822558922
 30
0.0
 10
10.5369767856
 20
7.0748321513
 30
0.0
 10
10.5127709852
 20
7.0693777053
 30
0.0
 10
10.4880667809
 20
7.0659483782
 30
0.0
 10
10.4630280602
 20
7.0645816525
 30
0.0
 10
10.4462668502
 20
7.0650568834
 30
0.0
 10
10.4378903336
 20
7.0656377968
 30
0.0
  0
SPLINE
  5
321
100
AcDbEntity
  8
0
100
AcDbSpline
 62
7
  6
CONTINUOUS
 70
0
 71
3
 72
39
 73
35
 74
0
 42
0.0000001
 43
0.0000001
 44
0.0000000001
 40
0.0
 40
0.0
 40
0.0
 40
0.0
 40
0.0312185936
 40
0.0625821391
 40
0.0940795608
 40
0.1256979808
 40
0.1574231354
 40
0.1892397224
 40
0.2211316836
 40
0.2530824303
 40
0.2850750206
 40
0.3170922987
 40
0.349117008
 40
0.3811318871
 40
0.4131197598
 40
0.4450636299
 40
0.4769467891
 40
0.5087529506
 40
0.5404664169
 40
0.5720722931
 40
0.6035567532
 40
0.6349073691
 40
0.6661135021
 40
0.6971667576
 40
0.7280614937
 40
0.7587953611
 40
0.7893698396
 40
0.819790719
 40
0.8500684601
 40
0.8802183596
 40
0.9102604253
 40
0.9402190927
 40
0.9701218913
 40
1.0
 40
1.0
 40
1.0
 40
1.0
 10
11.6535639718
 20
7.0264987854
 30
0.0
 10
11.6457880738
 20
7.0275368951
 30
0.0
 10
11.6302699545
 20
7.0301817297
 30
0.0
 10
11.6072823209
 20
7.0357774978
 30
0.0
 10
11.5846322473
 20
7.0429538395
 30
0.0
 10
11.5624241841
 20
7.0516486895
 30
0.0
 10
11.5407539041
 20
7.0617976581
 30
0.0
 10
11.519711774
 20
7.0733344508
 30
0.0
 10
11.4993827784
 20
7.0861914733
 30
0.0
 10
11.4798474303
 20
7.1003001136
 30
0.0
 10
11.4611824178
 20
7.115590872
 30
0.0
 10
11.443461265
 20
7.1319933234
 30
0.0
 10
11.42675491
 20
7.149435943
 30
0.0
 10
11.4111322091
 20
7.1678458126
 30
0.0
 10
11.3966603456
 20
7.1871482222
 30
0.0
 10
11.3834051358
 20
7.2072661816
 30
0.0
 10
11.3714312145
 20
7.2281198557
 30
0.0
 10
11.3608020853
 20
7.2496259378
 30
0.0
 10
11.3515800171
 20
7.2716969773
 30
0.0
 10
11.3438257636
 20
7.2942406827
 30
0.0
 10
11.3375980843
 20
7.317159229
 30
0.0
 10
11.3329530425
 20
7.3403486026
 30
0.0
 10
11.3299430572
 20
7.3636980325
 30
0.0
 10
11.328615693
 20
7.3870895657
 30
0.0
 10
11.3290121859
 20
7.4103978584
 30
0.0
 10
11.3311657186
 20
7.433490266
 30
0.0
 10
11.3350994861
 20
7.4562273163
 30
0.0
 10
11.3408246358
 20
7.4784636547
 30
0.0
 10
11.3483381662
 20
7.5000495105
 30
0.0
 10
11.357621054
 20
7.5208327771
 30
0.0
 10
11.3686363495
 20
7.5406614887
 30
0.0
 10
11.3813288957
 20
7.5593874533
 30
0.0
 10
11.3956220545
 20
7.5768673638
 30
0.0
 10
11.4061607444
 20
7.5876068765
 30
0.0
 10
11.411656887
 20
7.5927218603
 30
0.0
  0
SPLINE
  5
322
100
AcDbEntity
  8
0
100
AcDbSpline
 62
7
  6
CONTINUOUS
 70
0
 71
3
 72
41
 73
37
 74
0
 42
0.0000001
 43
0.0000001
 44
0.0000000001
 40
0.0
 40
0.0
 40
0.0
 40
0.0
 40
0.0303199414
 40
0.0455359951
 40
0.0607904788
 40
0.0914161968
 40
0.122221136
 40
0.1376980031
 40
0.1532227582
 40
0.184408786
 40
0.2157843539
 40
0.2473408858
 40
0.27906437
 40
0.3109359176
 40
0.3429324241
 40
0.3750273062
 40
0.4071912932
 40
0.4393932549
 40
0.4716010513
 40
0.5037823938
 40
0.5359057063
 40
0.5679409777
 40
0.5998605957
 40
0.6316401476
 40
0.663259174
 40
0.694701854
 40
0.7259575998
 40
0.7570215317
 40
0.7878948037
 40
0.8185847517
 40
0.8491048267
 40
0.8794743255
 40
0.9097177885
 40
0.9398644678
 40
0.9699466712
 40
1.0
 40
1.0
 40
1.0
 40
1.0
 10
12.5484551183
 20
7.1125294099
 30
0.0
 10
12.5452776764
 20
7.1110428514
 30
0.0
 10
12.5403950848
 20
7.1090362659
 30
0.0
 10
12.5337155584
 20
7.1068276285
 30
0.0
 10
12.5269053602
 20
7.1049243367
 30
0.0
 10
12.5182012468
 20
7.1031363271
 30
0.0
 10
12.5093445116
 20
7.1021523557
 30
0.0
 10
12.502197986
 20
7.1018464489
 30
0.0
 10
12.4950008465
 20
7.1018623251
 30
0.0
 10
12.4859751297
 20
7.1024889623
 30
0.0
 10
12.4752069921
 20
7.1041980868
 30
0.0
 10
12.4645672184
 20
7.1068498774
 30
0.0
 10
12.4541396824
 20
7.1104215291
 30
0.0
 10
12.4440054328
 20
7.114883315
 30
0.0
 10
12.4342430667
 20
7.1201989355
 30
0.0
 10
12.424927993
 20
7.1263258519
 30
0.0
 10
12.4161320399
 20
7.1332156431
 30
0.0
 10
12.4079230097
 20
7.1408143708
 30
0.0
 10
12.4003642793
 20
7.1490629545
 30
0.0
 10
12.3935144156
 20
7.1578975568
 30
0.0
 10
12.3874268072
 20
7.1672499802
 30
0.0
 10
12.3821493085
 20
7.1770480803
 30
0.0
 10
12.3777238952
 20
7.1872161978
 30
0.0
 10
12.374186331
 20
7.1976756166
 30
0.0
 10
12.3715658474
 20
7.2083450511
 30
0.0
 10
12.3698848407
 20
7.2191411682
 30
0.0
 10
12.3691585913
 20
7.2299791484
 30
0.0
 10
12.3693950139
 20
7.2407732883
 30
0.0
 10
12.3705944458
 20
7.2514376459
 30
0.0
 10
12.3727494913
 20
7.2618867292
 30
0.0
 10
12.3758449096
 20
7.2720362189
 30
0.0
 10
12.3798576373
 20
7.2818037407
 30
0.0
 10
12.3847567116
 20
7.2911095818
 30
0.0
 10
12.3905038929
 20
7.2998777586
 30
0.0
 10
12.39705234
 20
7.3080355754
 30
0.0
 10
12.4019196706
 20
7.3130251754
 30
0.0
 10
12.4044650589
 20
7.3153940404
 30
0.0
  0
SPLINE
  5
323
100
AcDbEntity
  8
0
100
AcDbSpline
 62
7
  6
CONTINUOUS
 70
0
 71
3
 72
20
 73
16
 74
0
 42
0.0000001
 43
0.0000001
 44
0.0000000001
 40
0.0
 40
0.0
 40
0.0
 40
0.0
 40
0.0540908515
 40
0.1084089438
 40
0.1631784339
 40
0.2186174016
 40
0.2749355903
 40
0.3323321428
 40
0.4510483247
 40
0.512747921
 40
0.5761925591
 40
0.7088015233
 40
0.7782254824
 40
0.8498488392
 40
1.0
 40
1.0
 40
1.0
 40
1.0
 10
13.5920744285
 20
7.5054775986
 30
0.0
 10
13.5931647746
 20
7.5054019801
 30
0.0
 10
13.5953558443
 20
7.5053237987
 30
0.0
 10
13.5986537465
 20
7.5054268561
 30
0.0
 10
13.6019648649
 20
7.5057500001
 30
0.0
 10
13.6052879023
 20
7.5062929912
 30
0.0
 10
13.6086219909
 20
7.5070556646
 30
0.0
 10
13.6131304876
 20
7.508379478
 30
0.0
 10
13.6176145346
 20
7.5101396216
 30
0.0
 10
13.6220475042
 20
7.5122944008
 30
0.0
 10
13.6266135747
 20
7.5148036959
 30
0.0
 10
13.6311240114
 20
7.5177229141
 30
0.0
 10
13.6355723483
 20
7.5210091078
 30
0.0
 10
13.6401645976
 20
7.5246897964
 30
0.0
 10
13.6435016162
 20
7.5276878676
 30
0.0
 10
13.6456935395
 20
7.5297855907
 30
0.0
  0
SPLINE
  5
324
100
AcDbEntity
  8
0
100
AcDbSpline
 62
7
  6
CONTINUOUS
 70
0
 71
3
 72
40
 73
36
 74
0
 42
0.0000001
 43
0.0000001
 44
0.0000000001
 40
0.0
 40
0.0
 40
0.0
 40
0.0
 40
0.042894754
 40
0.083786591
 40
0.1226879317
 40
0.1596215401
 40
0.1946216569
 40
0.2277364976
 40
0.2590305904
 40
0.2885876551
 40
0.3165142934
 40
0.3429431675
 40
0.368036999
 40
0.3919908814
 40
0.415033495
 40
0.4374249984
 40
0.4594510998
 40
0.4814131839
 40
0.503615472
 40
0.5263516444
 40
0.5498935739
 40
0.5744835658
 40
0.5872415339
 40
0.600337079
 40
0.6276177049
 40
0.6564764743
 40
0.6870305929
 40
0.719372817
 40
0.7535754468
 40
0.789693144
 40
0.8277657358
 40
0.8678206343
 40
0.9098742929
 40
0.9539343008
 40
1.0
 40
1.0
 40
1.0
 40
1.0
 10
13.6132362308
 20
8.9994056964
 30
0.0
 10
13.6152376276
 20
9.0027990262
 30
0.0
 10
13.6192457947
 20
9.0093697304
 30
0.0
 10
13.6254327122
 20
9.0187899265
 30
0.0
 10
13.6316451649
 20
9.0275302239
 30
0.0
 10
13.6378774887
 20
9.0355826751
 30
0.0
 10
13.6441243259
 20
9.0429400508
 30
0.0
 10
13.6503803439
 20
9.0495957552
 30
0.0
 10
13.6566403887
 20
9.0555437953
 30
0.0
 10
13.6628995708
 20
9.0607786183
 30
0.0
 10
13.6691530825
 20
9.0652952039
 30
0.0
 10
13.6753964268
 20
9.0690885883
 30
0.0
 10
13.6816249434
 20
9.0721540795
 30
0.0
 10
13.6878337709
 20
9.0744867684
 30
0.0
 10
13.6940172057
 20
9.0760818848
 30
0.0
 10
13.7001683556
 20
9.0769351264
 30
0.0
 10
13.7062789643
 20
9.0770432691
 30
0.0
 10
13.7123398186
 20
9.0764053658
 30
0.0
 10
13.718341615
 20
9.0750226298
 30
0.0
 10
13.7242761068
 20
9.072898711
 30
0.0
 10
13.7301361623
 20
9.0700385926
 30
0.0
 10
13.7348944417
 20
9.0670826273
 30
0.0
 10
13.7386540495
 20
9.0643733759
 30
0.0
 10
13.7424851162
 20
9.0613482797
 30
0.0
 10
13.747221687
 20
9.0570948718
 30
0.0
 10
13.7527378892
 20
9.0513443846
 30
0.0
 10
13.7581584231
 20
9.0448847197
 30
0.0
 10
13.7634789825
 20
9.0377221671
 30
0.0
 10
13.7686953907
 20
9.0298630312
 30
0.0
 10
13.7738033257
 20
9.0213143621
 30
0.0
 10
13.7787984464
 20
9.0120837937
 30
0.0
 10
13.7836763076
 20
9.0021796
 30
0.0
 10
13.7884326379
 20
8.9916107214
 30
0.0
 10
13.7930630047
 20
8.9803868252
 30
0.0
 10
13.7959981115
 20
8.9726459609
 30
0.0
 10
13.7974467526
 20
8.9686708927
 30
0.0
  0
SPLINE
  5
325
100
AcDbEntity
  8
0
100
AcDbSpline
 62
7
  6
CONTINUOUS
 70
0
 71
3
 72
23
 73
19
 74
0
 42
0.0000001
 43
0.0000001
 44
0.0000000001
 40
0.0
 40
0.0
 40
0.0
 40
0.0
 40
0.0615756458
 40
0.1234925436
 40
0.1857221852
 40
0.2482266293
 40
0.3109609038
 40
0.3738732356
 40
0.4369070613
 40
0.5000024279
 40
0.5630977057
 40
0.6261312593
 40
0.6890431424
 40
0.7517767601
 40
0.8142804614
 40
0.8765090283
 40
0.9384250294
 40
1.0
 40
1.0
 40
1.0
 40
1.0
 10
12.0582335139
 20
9.5018070118
 30
0.0
 10
12.05846572
 20
9.4996102327
 30
0.0
 10
12.0591214795
 20
9.4952223116
 30
0.0
 10
12.0606629999
 20
9.488732611
 30
0.0
 10
12.0627536861
 20
9.4823629696
 30
0.0
 10
12.0653775724
 20
9.4761622161
 30
0.0
 10
12.0685147142
 20
9.4701770515
 30
0.0
 10
12.0721413353
 20
9.4644527609
 30
0.0
 10
12.07622996
 20
9.4590325949
 30
0.0
 10
12.080749651
 20
9.4539575284
 30
0.0
 10
12.0856662244
 20
9.4492659315
 30
0.0
 10
12.0909425129
 20
9.4449932927
 30
0.0
 10
12.0965386308
 20
9.4411719473
 30
0.0
 10
12.1024122928
 20
9.4378308307
 30
0.0
 10
12.1085190578
 20
9.4349952796
 30
0.0
 10
12.1148129357
 20
9.4326867949
 30
0.0
 10
12.1212456981
 20
9.4309230493
 30
0.0
 10
12.1256084179
 20
9.4301167904
 30
0.0
 10
12.1277958907
 20
9.4298091968
 30
0.0
  0
SPLINE
  5
326
100
AcDbEntity
  8
0
100
AcDbSpline
 62
7
  6
CONTINUOUS
 70
0
 71
3
 72
16
 73
12
 74
0
 42
0.0000001
 43
0.0000001
 44
0.0000000001
 40
0.0
 40
0.0
 40
0.0
 40
0.0
 40
0.1115902701
 40
0.225005863
 40
0.3413771683
 40
0.4617435447
 40
0.5237340094
 40
0.5870614775
 40
0.7180856114
 40
0.8555370532
 40
1.0
 40
1.0
 40
1.0
 40
1.0
 10
13.7030257346
 20
9.0654614612
 30
0.0
 10
13.7047843725
 20
9.0652393359
 30
0.0
 10
13.7083088491
 20
9.0645981638
 30
0.0
 10
13.7135203654
 20
9.0630660341
 30
0.0
 10
13.7186787873
 20
9.0609615773
 30
0.0
 10
13.7228879106
 20
9.0587550271
 30
0.0
 10
13.726218839
 20
9.0567194798
 30
0.0
 10
13.7296011282
 20
9.054450083
 30
0.0
 10
13.7337935285
 20
9.0512460165
 30
0.0
 10
13.7387005631
 20
9.0468854962
 30
0.0
 10
13.7418438755
 20
9.0436908065
 30
0.0
 10
13.7434043754
 20
9.0420082752
 30
0.0
  0
SPLINE
  5
327
100
AcDbEntity
  8
0
100
AcDbSpline
 62
7
  6
CONTINUOUS
 70
0
 71
3
 72
23
 73
19
 74
0
 42
0.0000001
 43
0.0000001
 44
0.0000000001
 40
0.0
 40
0.0
 40
0.0
 40
0.0
 40
0.0615756458
 40
0.1234925436
 40
0.1857221852
 40
0.2482266293
 40
0.3109609038
 40
0.3738732356
 40
0.4369070613
 40
0.5000024279
 40
0.5630977057
 40
0.6261312593
 40
0.6890431424
 40
0.7517767601
 40
0.8142804614
 40
0.8765090283
 40
0.9384250294
 40
1.0
 40
1.0
 40
1.0
 40
1.0
 10
9.8395018257
 20
6.9993803973
 30
0.0
 10
9.8397340319
 20
6.9971836182
 30
0.0
 10
9.8403897914
 20
6.9927956971
 30
0.0
 10
9.8419313118
 20
6.9863059965
 30
0.0
 10
9.844021998
 20
6.9799363551
 30
0.0
 10
9.8466458842
 20
6.9737356016
 30
0.0
 10
9.849783026
 20
6.967750437
 30
0.0
 10
9.8534096471
 20
6.9620261464
 30
0.0
 10
9.8574982718
 20
6.9566059804
 30
0.0
 10
9.8620179628
 20
6.9515309139
 30
0.0
 10
9.8669345363
 20
6.946839317
 30
0.0
 10
9.8722108247
 20
6.9425666782
 30
0.0
 10
9.8778069427
 20
6.9387453328
 30
0.0
 10
9.8836806047
 20
6.9354042162
 30
0.0
 10
9.8897873697
 20
6.9325686651
 30
0.0
 10
9.8960812476
 20
6.9302601804
 30
0.0
 10
9.90251401
 20
6.9284964348
 30
0.0
 10
9.9068767298
 20
6.9276901759
 30
0.0
 10
9.9090642026
 20
6.9273825823
 30
0.0
  0
SPLINE
  5
328
100
AcDbEntity
  8
0
100
AcDbSpline
 62
7
  6
CONTINUOUS
 70
0
 71
3
 72
41
 73
37
 74
0
 42
0.0000001
 43
0.0000001
 44
0.0000000001
 40
0.0
 40
0.0
 40
0.0
 40
0.0
 40
0.030933376
 40
0.0464561919
 40
0.0620136276
 40
0.0932266151
 40
0.1245684211
 40
0.1402865015
 40
0.1560326868
 40
0.1875987407
 40
0.2192565588
 40
0.2509907634
 40
0.2827850927
 40
0.3146227608
 40
0.346486794
 40
0.3783603335
 40
0.4102269027
 40
0.4420706346
 40
0.4738764618
 40
0.5056302723
 40
0.5373190322
 40
0.568930883
 40
0.6004552157
 40
0.6318827278
 40
0.663205467
 40
0.694416865
 40
0.7255117659
 40
0.7564864499
 40
0.7873386559
 40
0.8180676022
 40
0.8486740061
 40
0.8791601019
 40
0.9095296583
 40
0.9397879906
 40
0.9699419664
 40
1.0
 40
1.0
 40
1.0
 40
1.0
 10
11.0415939043
 20
8.601984039
 30
0.0
 10
11.0344230221
 20
8.6024813413
 30
0.0
 10
11.0236746027
 20
8.6035958593
 30
0.0
 10
11.0094324115
 20
8.6058031766
 30
0.0
 10
10.9952076081
 20
8.6084979432
 30
0.0
 10
10.9775509368
 20
8.6127664822
 30
0.0
 10
10.9601776863
 20
8.6181972488
 30
0.0
 10
10.9464740392
 20
8.6232245305
 30
0.0
 10
10.93289122
 20
8.6287103253
 30
0.0
 10
10.9162137135
 20
8.6363979658
 30
0.0
 10
10.8967853531
 20
8.6468889491
 30
0.0
 10
10.8780030869
 20
8.658597839
 30
0.0
 10
10.8599423369
 20
8.6714629893
 30
0.0
 10
10.8426721481
 20
8.6854189584
 30
0.0
 10
10.826255944
 20
8.700396955
 30
0.0
 10
10.8107513055
 20
8.7163256785
 30
0.0
 10
10.7962101434
 20
8.7331319671
 30
0.0
 10
10.7826788711
 20
8.7507413944
 30
0.0
 10
10.7701986582
 20
8.7690787712
 30
0.0
 10
10.7588057172
 20
8.7880685584
 30
0.0
 10
10.7485316145
 20
8.8076351946
 30
0.0
 10
10.7394035868
 20
8.8277033417
 30
0.0
 10
10.7314448517
 20
8.8481980575
 30
0.0
 10
10.7246749006
 20
8.8690449024
 30
0.0
 10
10.7191097664
 20
8.8901699905
 30
0.0
 10
10.7147622588
 20
8.9114999934
 30
0.0
 10
10.7116421625
 20
8.932962106
 30
0.0
 10
10.7097563947
 20
8.9544839836
 30
0.0
 10
10.7091091199
 20
8.9759936566
 30
0.0
 10
10.7097018188
 20
8.9974194358
 30
0.0
 10
10.7115333059
 20
9.0186898017
 30
0.0
 10
10.7145997241
 20
9.039733336
 30
0.0
 10
10.7188944243
 20
9.0604785167
 30
0.0
 10
10.7244080384
 20
9.0808540775
 30
0.0
 10
10.7311276242
 20
9.1007873662
 30
0.0
 10
10.7364097438
 20
9.1137552012
 30
0.0
 10
10.7392456198
 20
9.1201382901
 30
0.0
  0
SPLINE
  5
329
100
AcDbEntity
  8
0
100
AcDbSpline
 62
7
  6
CONTINUOUS
 70
0
 71
3
 72
15
 73
11
 74
0
 42
0.0000001
 43
0.0000001
 44
0.0000000001
 40
0.0
 40
0.0
 40
0.0
 40
0.0
 40
0.1273473901
 40
0.2538608346
 40
0.3795878351
 40
0.5046051039
 40
0.6290174461
 40
0.7529533848
 40
0.8765605883
 40
1.0
 40
1.0
 40
1.0
 40
1.0
 10
11.9775761014
 20
9.4323143685
 30
0.0
 10
11.9775761014
 20
9.4347165716
 30
0.0
 10
11.9778054688
 20
9.4395085667
 30
0.0
 10
11.9788427081
 20
9.4466043927
 30
0.0
 10
11.9805626835
 20
9.453521941
 30
0.0
 10
11.9829497987
 20
9.4601964903
 30
0.0
 10
11.9859821761
 20
9.466566512
 30
0.0
 10
11.9896321674
 20
9.4725731822
 30
0.0
 10
11.9938654605
 20
9.478160216
 30
0.0
 10
11.9970529065
 20
9.4815731119
 30
0.0
 10
11.9987276734
 20
9.4831908262
 30
0.0
  0
ENDSEC
  0
SECTION
  2
OBJECTS
  0
DICTIONARY
  5
C
100
AcDbDictionary
280
0
281
1
  3
ACAD_GROUP
350
D
  3
ACAD_MLINESTYLE
350
17
  3
ACAD_LAYOUT
350
1A
  3
ACAD_PLOTSETTINGS
350
19
  3
ACAD_PLOTSTYLENAME
350
E
  3
ACAD_IMAGE_DICT
350
       32B
  3
ACAD_IMAGE_VARS
350
       32C
  3
ACAD_TABLESTYLE
350
       32D
  0
IMAGEDEF_REACTOR
  5
32A
100
AcDbRasterImageDefReactor
 90
2
330
269
  0
DICTIONARY
  5
D
102
{ACAD_REACTORS
330
C
102
}
100
AcDbDictionary
280
0
281
1
  0
ACDBDICTIONARYWDFLT
  5
E
102
{ACAD_REACTORS
330
C
102
}
100
AcDbDictionary
281
1
  3
Normal
350
F
100
AcDbDictionaryWithDefault
340
F
  0
DICTIONARY
  5
32B
330
C
100
AcDbDictionary
281
1
  3
BK4_assy_2_img_1
350
       330
  0
RASTERVARIABLES
  5
32C
330
C
100
AcDbRasterVariables
 90
0
 70
0
 71
1
 72
5
  0
DICTIONARY
  5
17
102
{ACAD_REACTORS
330
C
102
}
100
AcDbDictionary
280
0
281
1
  3
Standard
350
18
  0
DICTIONARY
  5
32D
330
C
100
AcDbDictionary
281
1
  3
Standard
350
       331
  3
Standard1
350
       332
  0
DICTIONARY
  5
19
102
{ACAD_REACTORS
330
C
102
}
100
AcDbDictionary
281
1
  0
DICTIONARY
  5
1A
102
{ACAD_REACTORS
330
C
102
}
100
AcDbDictionary
281
1
  3
Model
350
32E
  3
Layout1
350
32F
  0
ACDBPLACEHOLDER
  5
F
102
{ACAD_REACTORS
330
E
102
}
  0
MLINESTYLE
  5
18
102
{ACAD_REACTORS
330
17
102
}
100
AcDbMlineStyle
  2
STANDARD
 70
0
  3

 62
256
 51
90.0
 52
90.0
 71
2
 49
0.5
 62
256
  6
BYLAYER
 49
-0.5
 62
256
  6
BYLAYER
  0
LAYOUT
  5
32E
102
{ACAD_REACTORS
330
1A
102
}
100
AcDbPlotSettings
  1

  2
none_device
  4
ANSI_C_(22.00_x_17.00_Inches)
  6

 40
0.0
 41
0.0
 42
0.0
 43
0.0
 44
558.8
 45
431.8
 46
0.0
 47
0.0
 48
0.0
 49
0.0
140
0.0
141
0.0
142
1.0
143
1.0
 70
1024
 72
0
 73
0
 74
0
  7

 75
0
147
1.0
148
0.0
149
0.0
100
AcDbLayout
  1
Model
 70
0
 71
0
 10
0.0
 20
0.0
 11
22.0
 21
17.0
 12
0.0
 22
0.0
 32
0.0
 14
0.0
 24
0.0
 34
0.0
 15
0.0
 25
0.0
 35
0.0
146
0.0
 13
0.0
 23
0.0
 33
0.0
 16
1.0
 26
0.0
 36
0.0
 17
0.0
 27
1.0
 37
0.0
 76
0
330
206
345
0
346
0
  0
LAYOUT
  5
32F
102
{ACAD_REACTORS
330
1A
102
}
100
AcDbPlotSettings
  1

  2
none_device
  4
ANSI_C_(22.00_x_17.00_Inches)
  6

 40
0.0
 41
0.0
 42
0.0
 43
0.0
 44
558.8
 45
431.8
 46
0.0
 47
0.0
 48
0.0
 49
0.0
140
0.0
141
0.0
142
1.0
143
1.0
 70
0
 72
0
 73
0
 74
0
  7

 75
0
147
1.0
148
0.0
149
0.0
100
AcDbLayout
  1
Layout1
 70
0
 71
1
 10
0.0
 20
0.0
 11
22.0
 21
17.0
 12
0.0
 22
0.0
 32
0.0
 14
0.0
 24
0.0
 34
0.0
 15
0.0
 25
0.0
 35
0.0
146
0.0
 13
0.0
 23
0.0
 33
0.0
 16
1.0
 26
0.0
 36
0.0
 17
0.0
 27
1.0
 37
0.0
 76
0
330
207
345
0
346
0
  0
IMAGEDEF
  5
330
102
{ACAD_REACTORS
330
32B
330
32A
102
}
100
AcDbRasterImageDef
 90
0
  1
BK4_assy_2_img_1.png
 10
369.0
 20
92.0
 11
0.0066666667
 21
0.0066666667
280
1
281
0
  0
TABLESTYLE
  5
331
102
{ACAD_REACTORS
330
32D
330
26C
102
}
330
32D
100
AcDbTableStyle
  3
Standard
 70
0
 71
0
 40
0.06
 41
0.06
280
1
281
1
  7
Standard
140
0.18
170
1
 62
0
 63
7
283
0
  7
Standard
140
0.18
170
1
 62
0
 63
7
283
0
  7
Standard
140
0.18
170
1
 62
0
 63
7
283
0
  0
TABLESTYLE
  5
332
102
{ACAD_REACTORS
330
32D
330
26B
102
}
330
32D
100
AcDbTableStyle
  3
Standard1
 70
1
 71
0
 40
0.06
 41
0.06
280
1
281
1
  7
Standard
140
0.18
170
1
 62
0
 63
7
283
0
  7
Standard
140
0.18
170
1
 62
0
 63
7
283
0
  7
Standard
140
0.18
170
1
 62
0
 63
7
283
0
  0
ENDSEC
  0
EOF
