999
DXF file: BK2_assy_2.dxf
999
Pro/ENGINEER 2014200 by Parametric Technology Corporation
  0
SECTION
  2
HEADER
  9
$ACADVER
  1
AC1021
  9
$DWGCODEPAGE
  3
ANSI_1252
  9
$EXTMAX
 10
22.0
 20
17.0
 30
0.0
  9
$EXTMIN
 10
0.0
 20
0.0
 30
0.0
  9
$LIMMIN
 10
0.0
 20
0.0
  9
$LIMMAX
 10
22.0
 20
17.0
  9
$VIEWCTR
 10
11.0
 20
8.5
  9
$VIEWSIZE
 40
17.0
  9
$CLAYER
  8
0
  9
$LTSCALE
 40
1.21
  9
$CELTYPE
  6
BYLAYER
  9
$DIMSCALE
 40
1.0
  9
$DIMASZ
 40
0.1875
  9
$DIMEXO
 40
0.0625
  9
$DIMDLI
 40
0.836
  9
$DIMEXE
 40
0.125
  9
$DIMCEN
 40
0.198
  9
$DIMLFAC
 40
1.0
  9
$DIMBLK
  1
_FILLED
  9
$DIMTXT
 40
0.1
  9
$DIMTOL
 70
0
  9
$DIMLIM
 70
0
  9
$DIMTFAC
 40
1.0
  9
$DIMGAP
 40
0.09
  9
$DIMDSEP
 70
46
  9
$AUNITS
 70
0
  9
$PDMODE
 70
3
  9
$PDSIZE
 40
0.3125
  9
$HANDSEED
  5
33D
  9
$TILEMODE
 70
1
  9
$MEASUREMENT
 70
0
  9
$INSUNITS
 70
1
  0
ENDSEC
  0
SECTION
  2
CLASSES
  0
CLASS
  1
ACDBDICTIONARYWDFLT
  2
AcDbDictionaryWithDefault
  3
AutoCAD 2000
 90
0
 91
1
280
0
281
0
  0
CLASS
  1
ACDBPLACEHOLDER
  2
AcDbPlaceHolder
  3
AutoCAD 2000
 90
0
 91
1
280
0
281
0
  0
CLASS
  1
LAYOUT
  2
AcDbLayout
  3
AutoCAD 2000
 90
0
 91
0
280
0
281
0
  0
CLASS
  1
RASTERVARIABLES
  2
AcDbRasterVariables
  3
ISM
 90
0
 91
1
280
0
281
0
  0
CLASS
  1
IMAGEDEF
  2
AcDbRasterImageDef
  3
ISM
 90
0
 91
1
280
0
281
0
  0
CLASS
  1
IMAGEDEF_REACTOR
  2
AcDbRasterImageDefReactor
  3
ISM
 90
0
 91
1
280
0
281
0
  0
CLASS
  1
IMAGE
  2
AcDbRasterImage
  3
ISM
 90
127
 91
1
280
0
281
1
  0
CLASS
  1
TABLESTYLE
  2
AcDbTableStyle
  3
ObjectDBX Classes
 90
2047
 91
1
280
0
281
0
  0
CLASS
  1
ACAD_TABLE
  2
AcDbTable
  3
ObjectDBX Classes
 90
1025
 91
2
280
0
281
1
  0
ENDSEC
  0
SECTION
  2
TABLES
  0
TABLE
  2
VPORT
  5
8
100
AcDbSymbolTable
 70
2
  0
VPORT
  5
1F4
100
AcDbSymbolTableRecord
100
AcDbViewportTableRecord
  2
*ACTIVE
 70
0
 10
0.0
 20
0.0
 11
1.0
 21
1.0
 12
11.0
 22
8.5
 13
0.0
 23
0.0
 14
1.0
 24
1.0
 15
0.0
 25
0.0
 16
0.0
 26
0.0
 36
1.0
 17
0.0
 27
0.0
 37
0.0
 40
17.0
 41
1.2941176471
 42
50.0
 43
0.0
 44
0.0
 50
0.0
 51
0.0
 71
0
 72
100
 73
1
 74
1
 75
0
 76
0
 77
0
 78
0
  0
ENDTAB
  0
TABLE
  2
LTYPE
  5
5
100
AcDbSymbolTable
 70
6
  0
LTYPE
  5
14
100
AcDbSymbolTableRecord
100
AcDbLinetypeTableRecord
  2
BYBLOCK
 70
0
  3

 72
65
 73
0
 40
0.0
  0
LTYPE
  5
15
100
AcDbSymbolTableRecord
100
AcDbLinetypeTableRecord
  2
BYLAYER
 70
0
  3

 72
65
 73
0
 40
0.0
  0
LTYPE
  5
16
100
AcDbSymbolTableRecord
100
AcDbLinetypeTableRecord
  2
CONTINUOUS
 70
64
  3
Solid line
 72
65
 73
0
 40
0.0
  0
LTYPE
  5
1F5
100
AcDbSymbolTableRecord
100
AcDbLinetypeTableRecord
  2
CENTER
 70
64
  3
____ _ ____ _ ____ _ ____ _ ____ _ ____ _ ____
 72
65
 73
4
 40
0.6
 49
0.375
 74
0
 49
-0.075
 74
0
 49
0.075
 74
0
 49
-0.075
 74
0
  0
LTYPE
  5
1F6
100
AcDbSymbolTableRecord
100
AcDbLinetypeTableRecord
  2
HIDDEN
 70
64
  3
- - - - - - - - - - - - - - - - - - - -
 72
65
 73
2
 40
0.2
 49
0.1
 74
0
 49
-0.1
 74
0
  0
LTYPE
  5
1F7
100
AcDbSymbolTableRecord
100
AcDbLinetypeTableRecord
  2
PHANTOM
 70
64
  3
_____ _ _ _____ _ _ _____ _ _ _____
 72
65
 73
6
 40
0.8
 49
0.45
 74
0
 49
-0.05
 74
0
 49
0.1
 74
0
 49
-0.05
 74
0
 49
0.1
 74
0
 49
-0.05
 74
0
  0
LTYPE
  5
1F8
100
AcDbSymbolTableRecord
100
AcDbLinetypeTableRecord
  2
DOT
 70
64
  3
. . . . . . . . . . . . . . . . . . . .
 72
65
 73
2
 40
0.2
 49
0.1
 74
0
 49
-0.1
 74
0
  0
LTYPE
  5
1F9
100
AcDbSymbolTableRecord
100
AcDbLinetypeTableRecord
  2
DASHED
 70
64
  3
- - - - - - - - - - - - - - - - - - - -
 72
65
 73
2
 40
0.2
 49
0.1
 74
0
 49
-0.1
 74
0
  0
ENDTAB
  0
TABLE
  2
LAYER
  5
2
100
AcDbSymbolTable
 70
36
  0
LAYER
  5
10
100
AcDbSymbolTableRecord
100
AcDbLayerTableRecord
  2
0
 70
0
 62
7
  6
CONTINUOUS
370
-3
390
F
  0
LAYER
  5
1FA
100
AcDbSymbolTableRecord
100
AcDbLayerTableRecord
  2
DEFAULT_1
 70
0
 62
7
  6
CENTER
370
-3
390
F
  0
LAYER
  5
1FB
100
AcDbSymbolTableRecord
100
AcDbLayerTableRecord
  2
DEFAULT_2
 70
0
 62
8
  6
HIDDEN
370
-3
390
F
  0
LAYER
  5
1FC
100
AcDbSymbolTableRecord
100
AcDbLayerTableRecord
  2
DEFAULT_3
 70
0
 62
7
  6
PHANTOM
370
-3
390
F
  0
LAYER
  5
1FD
100
AcDbSymbolTableRecord
100
AcDbLayerTableRecord
  2
DATUM_PLANES
 70
0
 62
7
  6
CONTINUOUS
370
-3
390
F
  0
LAYER
  5
1FE
100
AcDbSymbolTableRecord
100
AcDbLayerTableRecord
  2
DIMENSIONS
 70
0
 62
7
  6
CONTINUOUS
370
-3
390
F
  0
LAYER
  5
1FF
100
AcDbSymbolTableRecord
100
AcDbLayerTableRecord
  2
PARAMETERDIMENSIONS
 70
0
 62
7
  6
CONTINUOUS
370
-3
390
F
  0
LAYER
  5
200
100
AcDbSymbolTableRecord
100
AcDbLayerTableRecord
  2
PLANE
 70
0
 62
7
  6
CONTINUOUS
370
-3
390
F
  0
LAYER
  5
201
100
AcDbSymbolTableRecord
100
AcDbLayerTableRecord
  2
PORT_AREAS
 70
0
 62
7
  6
CONTINUOUS
370
-3
390
F
  0
LAYER
  5
202
100
AcDbSymbolTableRecord
100
AcDbLayerTableRecord
  2
SUNNBOMCOSMETIC
 70
0
 62
7
  6
CONTINUOUS
370
-3
390
F
  0
LAYER
  5
203
100
AcDbSymbolTableRecord
100
AcDbLayerTableRecord
  2
SUNNBOMSTAMPING
 70
0
 62
7
  6
CONTINUOUS
370
-3
390
F
  0
LAYER
  5
204
100
AcDbSymbolTableRecord
100
AcDbLayerTableRecord
  2
THREADS
 70
0
 62
7
  6
CONTINUOUS
370
-3
390
F
  0
ENDTAB
  0
TABLE
  2
STYLE
  5
3
100
AcDbSymbolTable
 70
1
  0
STYLE
  5
11
100
AcDbSymbolTableRecord
100
AcDbTextStyleTableRecord
  2
STANDARD
 70
0
 40
0.0
 41
0.8
 50
0.0
 71
0
 42
0.2
  3
txt
  4

  0
STYLE
  5
205
100
AcDbSymbolTableRecord
100
AcDbTextStyleTableRecord
  2
TEXTSTYLE_1
 70
0
 40
0.0
 41
0.8
 50
0.0
 71
0
 42
0.2
  3
gdt
  4

  0
ENDTAB
  0
TABLE
  2
VIEW
  5
6
100
AcDbSymbolTable
 70
0
  0
ENDTAB
  0
TABLE
  2
UCS
  5
7
100
AcDbSymbolTable
 70
0
  0
ENDTAB
  0
TABLE
  2
APPID
  5
9
100
AcDbSymbolTable
 70
1
  0
APPID
  5
206
100
AcDbSymbolTableRecord
100
AcDbRegAppTableRecord
  2
ACAD
 70
0
  0
ENDTAB
  0
TABLE
  2
BLOCK_RECORD
  5
1
100
AcDbSymbolTable
 70
0
  0
BLOCK_RECORD
  5
207
100
AcDbSymbolTableRecord
100
AcDbBlockTableRecord
  2
*Model_Space
  0
BLOCK_RECORD
  5
208
100
AcDbSymbolTableRecord
100
AcDbBlockTableRecord
  2
*Paper_Space
  0
BLOCK_RECORD
  5
209
100
AcDbSymbolTableRecord
100
AcDbBlockTableRecord
  2
SUN_FIRST_THIRD_ANGLE_BL0
  0
BLOCK_RECORD
  5
20A
100
AcDbSymbolTableRecord
100
AcDbBlockTableRecord
  2
*T1
  0
BLOCK_RECORD
  5
20B
100
AcDbSymbolTableRecord
100
AcDbBlockTableRecord
  2
*T2
  0
ENDTAB
  0
TABLE
  2
DIMSTYLE
  5
A
100
AcDbSymbolTable
 70
1
100
AcDbDimStyleTable
 71
0
  0
DIMSTYLE
105
20C
100
AcDbSymbolTableRecord
100
AcDbDimStyleTableRecord
  2
STANDARD
 70
0
  3

  4

 40
1.0
 41
0.1875
 42
0.0625
 43
0.38
 44
0.125
 45
0.0
 46
0.0
 47
0.001
 48
0.001
140
0.1
141
0.09
142
0.0
143
25.4
144
1.0
145
0.0
146
1.0
147
0.09
 71
0.0
 72
0.0
 73
1
 74
1
 75
0
 76
0
 77
0
 78
4
170
0
171
2
172
0
173
0
174
0
175
0
176
0
177
0
178
0
270
2
271
3
272
3
273
2
274
2
275
0
280
0
281
0
282
0
283
1
284
4
285
0
286
0
287
3
288
0
340
11
278
46
  0
ENDTAB
  0
ENDSEC
  0
SECTION
  2
BLOCKS
  0
BLOCK
  5
20
100
AcDbEntity
  8
0
100
AcDbBlockBegin
  2
*Model_Space
 70
0
 10
0.0
 20
0.0
 30
0.0
  3
*Model_Space
  1

  0
ENDBLK
  5
21
100
AcDbEntity
  8
0
100
AcDbBlockEnd
  0
BLOCK
  5
1C
100
AcDbEntity
  8
0
100
AcDbBlockBegin
  2
*Paper_Space
 70
0
 10
0.0
 20
0.0
 30
0.0
  3
*Paper_Space
  1

  0
ENDBLK
  5
1D
100
AcDbEntity
  8
0
100
AcDbBlockEnd
  0
BLOCK
  5
20D
100
AcDbEntity
  8
0
100
AcDbBlockBegin
 62
2
  6
CONTINUOUS
  2
SUN_FIRST_THIRD_ANGLE_BL0
 70
64
 10
20.4816717061
 20
1.2289683772
  3
SUN_FIRST_THIRD_ANGLE_BL0
  1

  0
TEXT
  5
20E
100
AcDbEntity
  8
0
100
AcDbText
 62
2
  6
CONTINUOUS
 10
19.4750896608
 20
1.4136269581
  7
STANDARD
 40
0.08
  1
FIRST ANGLE
 41
0.8
 72
0
100
AcDbText
  0
TEXT
  5
20F
100
AcDbEntity
  8
0
100
AcDbText
 62
2
  6
CONTINUOUS
 10
20.7842537513
 20
1.4047600029
  7
STANDARD
 40
0.08
  1
THIRD ANGLE
 41
0.8
 72
0
100
AcDbText
  0
LINE
  5
210
100
AcDbEntity
  8
0
100
AcDbLine
 62
7
  6
CONTINUOUS
 10
19.4767170086
 20
1.1727031207
 11
19.6334271527
 21
1.1717972817
  0
LINE
  5
211
100
AcDbEntity
  8
0
100
AcDbLine
 62
7
  6
CONTINUOUS
 10
19.6596964832
 20
1.1717972817
 11
19.6950230232
 21
1.171593082
  0
LINE
  5
212
100
AcDbEntity
  8
0
100
AcDbLine
 62
7
  6
CONTINUOUS
 10
19.7194818561
 20
1.1708914427
 11
19.8852396156
 21
1.1699333054
  0
LINE
  5
213
100
AcDbEntity
  8
0
100
AcDbLine
 62
7
  6
CONTINUOUS
 10
19.4758111696
 20
1.2723454088
 11
19.88525039
 21
1.3511534004
  0
LINE
  5
214
100
AcDbEntity
  8
0
100
AcDbLine
 62
7
  6
CONTINUOUS
 10
19.88525039
 20
1.3511534004
 11
19.8831348489
 21
0.9851647912
  0
LINE
  5
215
100
AcDbEntity
  8
0
100
AcDbLine
 62
7
  6
CONTINUOUS
 10
19.8831348489
 20
0.9851647912
 11
19.4767170086
 21
1.0658141206
  0
LINE
  5
216
100
AcDbEntity
  8
0
100
AcDbLine
 62
7
  6
CONTINUOUS
 10
19.4767170086
 20
1.0658141206
 11
19.4779056764
 21
1.2714536432
  0
CIRCLE
  5
217
100
AcDbEntity
  8
0
100
AcDbCircle
 62
7
  6
CONTINUOUS
 10
20.2068232291
 20
1.1717972817
 40
0.175742101
  0
CIRCLE
  5
218
100
AcDbEntity
  8
0
100
AcDbCircle
 62
7
  6
CONTINUOUS
 10
20.2068232291
 20
1.1717972817
 40
0.1005522074
  0
LINE
  5
219
100
AcDbEntity
  8
0
100
AcDbLine
 62
7
  6
CONTINUOUS
 10
20.2077290681
 20
1.3756110529
 11
20.2071171714
 21
1.2379342989
  0
LINE
  5
21A
100
AcDbEntity
  8
0
100
AcDbLine
 62
7
  6
CONTINUOUS
 10
20.2077290681
 20
1.2016899681
 11
20.2074674401
 21
1.1428236749
  0
LINE
  5
21B
100
AcDbEntity
  8
0
100
AcDbLine
 62
7
  6
CONTINUOUS
 10
20.208634907
 20
1.101141841
 11
20.2080230104
 21
0.963465087
  0
LINE
  5
21C
100
AcDbEntity
  8
0
100
AcDbLine
 62
7
  6
CONTINUOUS
 10
20.0066328138
 20
1.1745147986
 11
20.1443095678
 21
1.1739029019
  0
LINE
  5
21D
100
AcDbEntity
  8
0
100
AcDbLine
 62
7
  6
CONTINUOUS
 10
20.1832714155
 20
1.1727031207
 11
20.238153505
 21
1.172335442
  0
LINE
  5
21E
100
AcDbEntity
  8
0
100
AcDbLine
 62
7
  6
CONTINUOUS
 10
20.2756669918
 20
1.1717972817
 11
20.407916871
 21
1.1712095044
  0
CIRCLE
  5
21F
100
AcDbEntity
  8
0
100
AcDbCircle
 62
7
  6
CONTINUOUS
 10
20.7509457401
 20
1.1693297793
 40
0.1722024983
  0
CIRCLE
  5
220
100
AcDbEntity
  8
0
100
AcDbCircle
 62
7
  6
CONTINUOUS
 10
20.7509457401
 20
1.1693297793
 40
0.0985164967
  0
LINE
  5
221
100
AcDbEntity
  8
0
100
AcDbLine
 62
7
  6
CONTINUOUS
 10
20.7169767782
 20
1.170462078
 11
20.7825395137
 21
1.1682766535
  0
LINE
  5
222
100
AcDbEntity
  8
0
100
AcDbLine
 62
7
  6
CONTINUOUS
 10
20.8177513651
 20
1.1693297793
 11
20.947965719
 21
1.1693297793
  0
LINE
  5
223
100
AcDbEntity
  8
0
100
AcDbLine
 62
7
  6
CONTINUOUS
 10
20.6875370113
 20
1.170462078
 11
20.5573226574
 21
1.170462078
  0
LINE
  5
224
100
AcDbEntity
  8
0
100
AcDbLine
 62
7
  6
CONTINUOUS
 10
20.7486811426
 20
1.1987695462
 11
20.7486811426
 21
1.1432869085
  0
LINE
  5
225
100
AcDbEntity
  8
0
100
AcDbLine
 62
7
  6
CONTINUOUS
 10
20.7498134414
 20
1.1059210505
 11
20.7498134414
 21
0.9757066966
  0
LINE
  5
226
100
AcDbEntity
  8
0
100
AcDbLine
 62
7
  6
CONTINUOUS
 10
20.7486811426
 20
1.2338708068
 11
20.7486811426
 21
1.3640851607
  0
LINE
  5
227
100
AcDbEntity
  8
0
100
AcDbLine
 62
7
  6
CONTINUOUS
 10
21.0702539817
 20
1.2701043662
 11
21.4790138229
 21
1.3448360823
  0
LINE
  5
228
100
AcDbEntity
  8
0
100
AcDbLine
 62
7
  6
CONTINUOUS
 10
21.4790138229
 20
1.3448360823
 11
21.4790138229
 21
0.9779712941
  0
LINE
  5
229
100
AcDbEntity
  8
0
100
AcDbLine
 62
7
  6
CONTINUOUS
 10
21.4790138229
 20
0.9779712941
 11
21.069121683
 21
1.0617614
  0
LINE
  5
22A
100
AcDbEntity
  8
0
100
AcDbLine
 62
7
  6
CONTINUOUS
 10
21.0702539817
 20
1.2701043662
 11
21.069121683
 21
1.0617614
  0
LINE
  5
22B
100
AcDbEntity
  8
0
100
AcDbLine
 62
7
  6
CONTINUOUS
 10
21.4790138229
 20
1.1693297793
 11
21.3159628059
 21
1.1693297793
  0
LINE
  5
22C
100
AcDbEntity
  8
0
100
AcDbLine
 62
7
  6
CONTINUOUS
 10
21.2876553377
 20
1.1693297793
 11
21.2502894796
 21
1.1693297793
  0
LINE
  5
22D
100
AcDbEntity
  8
0
100
AcDbLine
 62
7
  6
CONTINUOUS
 10
21.2208497126
 20
1.1659328831
 11
21.0713862804
 21
1.1659328831
  0
LINE
  5
22E
100
AcDbEntity
  8
0
100
AcDbLine
 62
7
  6
CONTINUOUS
 10
20.4796138713
 20
1.5284908897
 11
20.4766766948
 21
0.9294458646
  0
ENDBLK
  5
22F
100
AcDbEntity
  8
0
  6
BYBLOCK
 62
0
100
AcDbBlockEnd
  0
BLOCK
  5
230
100
AcDbEntity
  8
0
100
AcDbBlockBegin
  2
*T1
 70
1
 10
0.0
 20
0.0
  3
*T1
  1

  0
LINE
  5
231
100
AcDbEntity
  8
0
100
AcDbLine
 62
2
  6
CONTINUOUS
 10
9.275
 20
0.0
 11
-0.0
 21
0.0
  0
LINE
  5
232
100
AcDbEntity
  8
0
100
AcDbLine
 62
2
  6
CONTINUOUS
 10
9.275
 20
0.0
 11
9.275
 21
1.25
  0
LINE
  5
233
100
AcDbEntity
  8
0
100
AcDbLine
 62
2
  6
CONTINUOUS
 10
9.275
 20
0.625
 11
-0.0
 21
0.625
  0
LINE
  5
234
100
AcDbEntity
  8
0
100
AcDbLine
 62
2
  6
CONTINUOUS
 10
9.275
 20
1.25
 11
-0.0
 21
1.25
  0
LINE
  5
235
100
AcDbEntity
  8
0
100
AcDbLine
 62
2
  6
CONTINUOUS
 10
6.8
 20
0.0
 11
6.8
 21
1.25
  0
LINE
  5
236
100
AcDbEntity
  8
0
100
AcDbLine
 62
2
  6
CONTINUOUS
 10
6.4
 20
0.0
 11
6.4
 21
0.625
  0
LINE
  5
237
100
AcDbEntity
  8
0
100
AcDbLine
 62
2
  6
CONTINUOUS
 10
5.9
 20
0.0
 11
5.9
 21
0.625
  0
LINE
  5
238
100
AcDbEntity
  8
0
100
AcDbLine
 62
2
  6
CONTINUOUS
 10
5.2
 20
0.0
 11
5.2
 21
0.625
  0
LINE
  5
239
100
AcDbEntity
  8
0
100
AcDbLine
 62
2
  6
CONTINUOUS
 10
4.1
 20
0.0
 11
4.1
 21
1.25
  0
LINE
  5
23A
100
AcDbEntity
  8
0
100
AcDbLine
 62
2
  6
CONTINUOUS
 10
-0.0
 20
0.0
 11
-0.0
 21
1.25
  0
MTEXT
  5
23B
100
AcDbEntity
  8
0
100
AcDbMText
 62
2
  6
CONTINUOUS
  7
STANDARD
 71
2
 72
1
 10
6.6
 20
0.325
 30
0.0
 11
1.0
 21
0.0
 31
0.0
 44
0.9
  1
2
 40
0.125
 41
0.2
  0
MTEXT
  5
23C
100
AcDbEntity
  8
0
100
AcDbMText
 62
2
  6
CONTINUOUS
  7
STANDARD
 71
2
 72
1
 10
6.15
 20
0.325
 30
0.0
 11
1.0
 21
0.0
 31
0.0
 44
0.9
  1
C
 40
0.125
 41
0.2
  0
MTEXT
  5
23D
100
AcDbEntity
  8
0
100
AcDbMText
 62
2
  6
CONTINUOUS
  7
STANDARD
 71
2
 72
1
 10
5.55
 20
0.325
 30
0.0
 11
1.0
 21
0.0
 31
0.0
 44
0.9
  1
1.000
 40
0.125
 41
1.0
  0
MTEXT
  5
23E
100
AcDbEntity
  8
0
100
AcDbMText
 62
2
  6
CONTINUOUS
  7
STANDARD
 71
2
 72
1
 10
4.65
 20
0.325
 30
0.0
 11
1.0
 21
0.0
 31
0.0
 44
0.9
  1
Oct-29-19
 40
0.125
 41
1.8
  0
MTEXT
  5
23F
100
AcDbEntity
  8
0
100
AcDbMText
 62
2
  6
CONTINUOUS
  7
STANDARD
 71
2
 72
1
 10
2.05
 20
0.4625
 30
0.0
 11
1.0
 21
0.0
 31
0.0
 44
0.9
  1
T-17A Sandwich ISO 07\PReducer on  A with reverse flow check
 40
0.125
 41
7.4
  0
MTEXT
  5
240
100
AcDbEntity
  8
0
100
AcDbMText
 62
2
  6
CONTINUOUS
  7
STANDARD
 71
1
 72
1
 10
6.45
 20
0.5625
 30
0.0
 11
1.0
 21
0.0
 31
0.0
 44
0.9
  1
SHEET
 40
0.06
 41
0.48
  0
MTEXT
  5
241
100
AcDbEntity
  8
0
100
AcDbMText
 62
2
  6
CONTINUOUS
  7
STANDARD
 71
1
 72
1
 10
5.95
 20
0.5625
 30
0.0
 11
1.0
 21
0.0
 31
0.0
 44
0.9
  1
DWG SIZE
 40
0.06
 41
0.768
  0
MTEXT
  5
242
100
AcDbEntity
  8
0
100
AcDbMText
 62
2
  6
CONTINUOUS
  7
STANDARD
 71
1
 72
1
 10
5.25
 20
0.5625
 30
0.0
 11
1.0
 21
0.0
 31
0.0
 44
0.9
  1
SCALE
 40
0.06
 41
0.48
  0
MTEXT
  5
243
100
AcDbEntity
  8
0
100
AcDbMText
 62
2
  6
CONTINUOUS
  7
STANDARD
 71
1
 72
1
 10
4.15
 20
0.5625
 30
0.0
 11
1.0
 21
0.0
 31
0.0
 44
0.9
  1
DATE
 40
0.06
 41
0.384
  0
MTEXT
  5
244
100
AcDbEntity
  8
0
100
AcDbMText
 62
2
  6
CONTINUOUS
  7
STANDARD
 71
1
 72
1
 10
0.05
 20
0.5625
 30
0.0
 11
1.0
 21
0.0
 31
0.0
 44
0.9
  1
DESCRIPTION
 40
0.06
 41
1.056
  0
MTEXT
  5
245
100
AcDbEntity
  8
0
100
AcDbMText
 62
2
  6
CONTINUOUS
  7
STANDARD
 71
2
 72
1
 10
5.45
 20
1.0375
 30
0.0
 11
1.0
 21
0.0
 31
0.0
 44
0.9
  1
ALL DIMENSIONS IN INCH\PVIEWS ARE THIRD ANGLE
 40
0.12
 41
4.224
  0
MTEXT
  5
246
100
AcDbEntity
  8
0
100
AcDbMText
 62
2
  6
CONTINUOUS
  7
STANDARD
 71
2
 72
1
 10
2.05
 20
0.95
 30
0.0
 11
1.0
 21
0.0
 31
0.0
 44
0.9
  1
BK2
 40
0.125
 41
0.6
  0
MTEXT
  5
247
100
AcDbEntity
  8
0
100
AcDbMText
 62
2
  6
CONTINUOUS
  7
STANDARD
 71
1
 72
1
 10
0.05
 20
1.1875
 30
0.0
 11
1.0
 21
0.0
 31
0.0
 44
0.9
  1
MODEL
 40
0.06
 41
0.48
  0
ENDBLK
  5
248
100
AcDbEntity
  8
0
  6
BYBLOCK
 62
0
100
AcDbBlockEnd
  0
BLOCK
  5
249
100
AcDbEntity
  8
0
100
AcDbBlockBegin
  2
*T2
 70
1
 10
0.0
 20
0.0
  3
*T2
  1

  0
LINE
  5
24A
100
AcDbEntity
  8
0
100
AcDbLine
 62
2
  6
CONTINUOUS
 10
0.0
 20
0.0
 11
9.055
 21
0.0
  0
LINE
  5
24B
100
AcDbEntity
  8
0
100
AcDbLine
 62
2
  6
CONTINUOUS
 10
0.0
 20
0.0
 11
0.0
 21
-2.344
  0
LINE
  5
24C
100
AcDbEntity
  8
0
100
AcDbLine
 62
2
  6
CONTINUOUS
 10
0.0
 20
-0.344
 11
9.055
 21
-0.344
  0
LINE
  5
24D
100
AcDbEntity
  8
0
100
AcDbLine
 62
2
  6
CONTINUOUS
 10
0.0
 20
-0.594
 11
9.055
 21
-0.594
  0
LINE
  5
24E
100
AcDbEntity
  8
0
100
AcDbLine
 62
2
  6
CONTINUOUS
 10
0.0
 20
-0.844
 11
9.055
 21
-0.844
  0
LINE
  5
24F
100
AcDbEntity
  8
0
100
AcDbLine
 62
2
  6
CONTINUOUS
 10
0.0
 20
-1.094
 11
9.055
 21
-1.094
  0
LINE
  5
250
100
AcDbEntity
  8
0
100
AcDbLine
 62
2
  6
CONTINUOUS
 10
0.0
 20
-1.344
 11
9.055
 21
-1.344
  0
LINE
  5
251
100
AcDbEntity
  8
0
100
AcDbLine
 62
2
  6
CONTINUOUS
 10
0.0
 20
-1.594
 11
9.055
 21
-1.594
  0
LINE
  5
252
100
AcDbEntity
  8
0
100
AcDbLine
 62
2
  6
CONTINUOUS
 10
0.0
 20
-1.844
 11
9.055
 21
-1.844
  0
LINE
  5
253
100
AcDbEntity
  8
0
100
AcDbLine
 62
2
  6
CONTINUOUS
 10
0.0
 20
-2.094
 11
9.055
 21
-2.094
  0
LINE
  5
254
100
AcDbEntity
  8
0
100
AcDbLine
 62
2
  6
CONTINUOUS
 10
0.0
 20
-2.344
 11
9.055
 21
-2.344
  0
LINE
  5
255
100
AcDbEntity
  8
0
100
AcDbLine
 62
2
  6
CONTINUOUS
 10
3.055
 20
0.0
 11
3.055
 21
-2.344
  0
LINE
  5
256
100
AcDbEntity
  8
0
100
AcDbLine
 62
2
  6
CONTINUOUS
 10
9.055
 20
0.0
 11
9.055
 21
-2.344
  0
MTEXT
  5
257
100
AcDbEntity
  8
0
100
AcDbMText
 62
2
  6
CONTINUOUS
  7
STANDARD
 71
2
 72
1
 10
1.5275
 20
-0.0995
 30
0.0
 11
1.0
 21
0.0
 31
0.0
 44
0.9
  1
Technical Data
 40
0.145
 41
3.248
  0
MTEXT
  5
258
100
AcDbEntity
  8
0
100
AcDbMText
 62
2
  6
CONTINUOUS
  7
STANDARD
 71
2
 72
1
 10
4.555
 20
-0.0995
 30
0.0
 11
1.0
 21
0.0
 31
0.0
 44
0.9
  1
U.S. Units
 40
0.145
 41
2.32
  0
MTEXT
  5
259
100
AcDbEntity
  8
0
100
AcDbMText
 62
2
  6
CONTINUOUS
  7
STANDARD
 71
2
 72
1
 10
7.555
 20
-0.0995
 30
0.0
 11
1.0
 21
0.0
 31
0.0
 44
0.9
  1
Metric Units
 40
0.145
 41
2.784
  0
MTEXT
  5
25A
100
AcDbEntity
  8
0
100
AcDbMText
 62
2
  6
CONTINUOUS
  7
STANDARD
 71
2
 72
1
 10
1.5275
 20
-0.4065
 30
0.0
 11
1.0
 21
0.0
 31
0.0
 44
0.9
  1
Cavity
 40
0.125
 41
1.2
  0
MTEXT
  5
25B
100
AcDbEntity
  8
0
100
AcDbMText
 62
2
  6
CONTINUOUS
  7
STANDARD
 71
2
 72
1
 10
6.055
 20
-0.4065
 30
0.0
 11
1.0
 21
0.0
 31
0.0
 44
0.9
  1
T-17A
 40
0.125
 41
1.0
  0
MTEXT
  5
25C
100
AcDbEntity
  8
0
100
AcDbMText
 62
2
  6
CONTINUOUS
  7
STANDARD
 71
2
 72
1
 10
1.5275
 20
-0.6565
 30
0.0
 11
1.0
 21
0.0
 31
0.0
 44
0.9
  1
Body Features
 40
0.125
 41
2.6
  0
MTEXT
  5
25D
100
AcDbEntity
  8
0
100
AcDbMText
 62
2
  6
CONTINUOUS
  7
STANDARD
 71
2
 72
1
 10
6.055
 20
-0.6565
 30
0.0
 11
1.0
 21
0.0
 31
0.0
 44
0.9
  1
Reducer on  A with reverse flow check
 40
0.125
 41
7.4
  0
MTEXT
  5
25E
100
AcDbEntity
  8
0
100
AcDbMText
 62
2
  6
CONTINUOUS
  7
STANDARD
 71
2
 72
1
 10
1.5275
 20
-0.9065
 30
0.0
 11
1.0
 21
0.0
 31
0.0
 44
0.9
  1
Body Type
 40
0.125
 41
1.8
  0
MTEXT
  5
25F
100
AcDbEntity
  8
0
100
AcDbMText
 62
2
  6
CONTINUOUS
  7
STANDARD
 71
2
 72
1
 10
6.055
 20
-0.9065
 30
0.0
 11
1.0
 21
0.0
 31
0.0
 44
0.9
  1
Sandwich
 40
0.125
 41
1.6
  0
MTEXT
  5
260
100
AcDbEntity
  8
0
100
AcDbMText
 62
2
  6
CONTINUOUS
  7
STANDARD
 71
2
 72
1
 10
1.5275
 20
-1.1565
 30
0.0
 11
1.0
 21
0.0
 31
0.0
 44
0.9
  1
Interface
 40
0.125
 41
1.8
  0
MTEXT
  5
261
100
AcDbEntity
  8
0
100
AcDbMText
 62
2
  6
CONTINUOUS
  7
STANDARD
 71
2
 72
1
 10
6.055
 20
-1.1565
 30
0.0
 11
1.0
 21
0.0
 31
0.0
 44
0.9
  1
ISO 07
 40
0.125
 41
1.2
  0
MTEXT
  5
262
100
AcDbEntity
  8
0
100
AcDbMText
 62
2
  6
CONTINUOUS
  7
STANDARD
 71
2
 72
1
 10
1.5275
 20
-1.4065
 30
0.0
 11
1.0
 21
0.0
 31
0.0
 44
0.9
  1
Open Cavity Quantity
 40
0.125
 41
4.0
  0
MTEXT
  5
263
100
AcDbEntity
  8
0
100
AcDbMText
 62
2
  6
CONTINUOUS
  7
STANDARD
 71
2
 72
1
 10
6.055
 20
-1.4065
 30
0.0
 11
1.0
 21
0.0
 31
0.0
 44
0.9
  1
1
 40
0.125
 41
0.2
  0
MTEXT
  5
264
100
AcDbEntity
  8
0
100
AcDbMText
 62
2
  6
CONTINUOUS
  7
STANDARD
 71
2
 72
1
 10
1.5275
 20
-1.6565
 30
0.0
 11
1.0
 21
0.0
 31
0.0
 44
0.9
  1
Stack Height
 40
0.125
 41
2.4
  0
MTEXT
  5
265
100
AcDbEntity
  8
0
100
AcDbMText
 62
2
  6
CONTINUOUS
  7
STANDARD
 71
2
 72
1
 10
4.555
 20
-1.6565
 30
0.0
 11
1.0
 21
0.0
 31
0.0
 44
0.9
  1
2.74 in.
 40
0.125
 41
1.6
  0
MTEXT
  5
266
100
AcDbEntity
  8
0
100
AcDbMText
 62
2
  6
CONTINUOUS
  7
STANDARD
 71
2
 72
1
 10
7.555
 20
-1.6565
 30
0.0
 11
1.0
 21
0.0
 31
0.0
 44
0.9
  1
70 mm
 40
0.125
 41
1.0
  0
MTEXT
  5
267
100
AcDbEntity
  8
0
100
AcDbMText
 62
2
  6
CONTINUOUS
  7
STANDARD
 71
2
 72
1
 10
1.5275
 20
-1.9065
 30
0.0
 11
1.0
 21
0.0
 31
0.0
 44
0.9
  1
Weight
 40
0.125
 41
1.2
  0
MTEXT
  5
268
100
AcDbEntity
  8
0
100
AcDbMText
 62
2
  6
CONTINUOUS
  7
STANDARD
 71
2
 72
1
 10
4.555
 20
-1.9065
 30
0.0
 11
1.0
 21
0.0
 31
0.0
 44
0.9
  1
5.205 lb.
 40
0.125
 41
1.8
  0
MTEXT
  5
269
100
AcDbEntity
  8
0
100
AcDbMText
 62
2
  6
CONTINUOUS
  7
STANDARD
 71
2
 72
1
 10
7.555
 20
-1.9065
 30
0.0
 11
1.0
 21
0.0
 31
0.0
 44
0.9
  1
2,361 kg.
 40
0.125
 41
1.8
  0
MTEXT
  5
26A
100
AcDbEntity
  8
0
100
AcDbMText
 62
2
  6
CONTINUOUS
  7
STANDARD
 71
2
 72
1
 10
1.5275
 20
-2.1565
 30
0.0
 11
1.0
 21
0.0
 31
0.0
 44
0.9
  1
Seal Plate Included (see notes)
 40
0.125
 41
6.2
  0
MTEXT
  5
26B
100
AcDbEntity
  8
0
100
AcDbMText
 62
2
  6
CONTINUOUS
  7
STANDARD
 71
2
 72
1
 10
6.055
 20
-2.1565
 30
0.0
 11
1.0
 21
0.0
 31
0.0
 44
0.9
  1
Yes
 40
0.125
 41
0.6
  0
ENDBLK
  5
26C
100
AcDbEntity
  8
0
  6
BYBLOCK
 62
0
100
AcDbBlockEnd
  0
ENDSEC
  0
SECTION
  2
ENTITIES
  0
IMAGE
  5
26D
100
AcDbEntity
  8
0
100
AcDbRasterImage
 62
7
  6
CONTINUOUS
 10
19.2297077316
 20
0.3094318264
 30
0.0
 11
0.0066666667
 21
0.0
 31
0.0
 12
0.0
 22
0.0066666667
 32
0.0
 13
369.0
 23
92.0
340
       33A
 70
9
280
0
281
50
282
50
283
0
360
       334
 71
1
 91
2
 14
-0.5
 24
-0.5
 14
368.5
 24
91.5
  0
INSERT
  5
26E
100
AcDbEntity
  8
0
100
AcDbBlockReference
 62
2
  6
CONTINUOUS
  2
SUN_FIRST_THIRD_ANGLE_BL0
 10
20.4816717061
 20
1.2289683772
  0
ACAD_TABLE
  5
26F
100
AcDbEntity
  8
0
 62
2
  6
CONTINUOUS
100
AcDbBlockReference
  2
*T1
 10
12.42375
 20
0.30125
 30
0.0
100
AcDbTable
342
       33C
343
20A
 11
1.0
 21
0.0
 31
0.0
 90
6
 91
4
 92
6
 93
20
 94
0
 95
0
 96
0
 70
1
 41
0.0
141
0.525
141
0.1
141
0.525
141
0.1
142
4.1
142
1.1
142
0.7
142
0.5
142
0.4
142
2.475
171
1
172
0
173
0
174
0
175
1
176
1
 91
33
178
0
145
0.0
301
CELL_VALUE
 90
4
  1
T-17A Sandwich ISO 07\PReducer on  A with reverse flow check
304
ACVALUE_END
170
2
140
0.125
171
1
172
0
173
0
174
0
175
1
176
1
 91
33
178
0
145
0.0
301
CELL_VALUE
 90
4
  1
Oct-29-19
304
ACVALUE_END
170
5
140
0.125
171
1
172
0
173
0
174
0
175
1
176
1
 91
33
178
0
145
0.0
301
CELL_VALUE
 90
4
  1
1.000
304
ACVALUE_END
170
5
140
0.125
171
1
172
0
173
0
174
0
175
1
176
1
 91
33
178
0
145
0.0
301
CELL_VALUE
 90
4
  1
C
304
ACVALUE_END
170
5
140
0.125
171
1
172
0
173
0
174
0
175
1
176
1
 91
33
178
0
145
0.0
301
CELL_VALUE
 90
4
  1
2
304
ACVALUE_END
170
5
140
0.125
171
1
172
0
173
0
174
0
175
1
176
1
 91
33
178
0
145
0.0
301
CELL_VALUE
 90
4
  1
 
304
ACVALUE_END
170
1
140
0.125
171
1
172
0
173
0
174
0
175
1
176
1
 91
33
178
0
145
0.0
301
CELL_VALUE
 90
4
  1
DESCRIPTION
304
ACVALUE_END
170
1
140
0.06
171
1
172
0
173
0
174
0
175
1
176
1
 91
33
178
0
145
0.0
301
CELL_VALUE
 90
4
  1
DATE
304
ACVALUE_END
170
1
140
0.06
171
1
172
0
173
0
174
0
175
1
176
1
 91
33
178
0
145
0.0
301
CELL_VALUE
 90
4
  1
SCALE
304
ACVALUE_END
170
1
140
0.06
171
1
172
0
173
0
174
0
175
1
176
1
 91
33
178
0
145
0.0
301
CELL_VALUE
 90
4
  1
DWG SIZE
304
ACVALUE_END
170
1
140
0.06
171
1
172
0
173
0
174
0
175
1
176
1
 91
33
178
0
145
0.0
301
CELL_VALUE
 90
4
  1
SHEET
304
ACVALUE_END
170
1
140
0.06
171
1
172
0
173
0
174
0
175
1
176
1
 91
33
178
0
145
0.0
301
CELL_VALUE
 90
4
  1
 
304
ACVALUE_END
170
1
140
0.125
171
1
172
0
173
0
174
0
175
1
176
1
 91
33
178
0
145
0.0
301
CELL_VALUE
 90
4
  1
BK2
304
ACVALUE_END
170
5
140
0.125
171
1
172
0
173
0
174
0
175
4
176
1
 91
33
178
0
145
0.0
301
CELL_VALUE
 90
4
  1
ALL DIMENSIONS IN INCH\PVIEWS ARE THIRD ANGLE
304
ACVALUE_END
170
5
140
0.12
171
1
172
0
173
1
174
0
175
1
176
1
 91
1
178
0
145
0.0
170
1
171
1
172
0
173
1
174
0
175
1
176
1
 91
1
178
0
145
0.0
170
1
171
1
172
0
173
1
174
0
175
1
176
1
 91
1
178
0
145
0.0
170
5
171
1
172
0
173
0
174
0
175
1
176
1
 91
33
178
0
145
0.0
301
CELL_VALUE
 90
4
  1
 
304
ACVALUE_END
170
1
140
0.125
171
1
172
0
173
0
174
0
175
1
176
1
 91
33
178
0
145
0.0
301
CELL_VALUE
 90
4
  1
MODEL
304
ACVALUE_END
170
1
140
0.06
171
1
172
0
173
0
174
0
175
1
176
1
 91
33
178
0
145
0.0
301
CELL_VALUE
 90
4
  1
 
304
ACVALUE_END
170
1
140
0.125
171
1
172
0
173
0
174
0
175
1
176
1
 91
33
178
0
145
0.0
301
CELL_VALUE
 90
4
  1
 
304
ACVALUE_END
170
1
140
0.125
171
1
172
0
173
0
174
0
175
1
176
1
 91
33
178
0
145
0.0
301
CELL_VALUE
 90
4
  1
 
304
ACVALUE_END
170
1
140
0.125
171
1
172
0
173
0
174
0
175
1
176
1
 91
33
178
0
145
0.0
301
CELL_VALUE
 90
4
  1
 
304
ACVALUE_END
170
1
140
0.125
171
1
172
0
173
0
174
0
175
1
176
1
 91
33
178
0
145
0.0
301
CELL_VALUE
 90
4
  1
 
304
ACVALUE_END
170
1
140
0.125
  0
ACAD_TABLE
  5
270
100
AcDbEntity
  8
0
 62
2
  6
CONTINUOUS
100
AcDbBlockReference
  2
*T2
 10
12.4237499994
 20
16.47875
 30
0.0
100
AcDbTable
342
       33B
343
20B
 11
1.0
 21
0.0
 31
0.0
 90
22
 91
9
 92
3
 93
16
 94
0
 95
0
 96
0
 41
0.028
141
0.344
141
0.25
141
0.25
141
0.25
141
0.25
141
0.25
141
0.25
141
0.25
141
0.25
142
3.055
142
3.0
142
3.0
171
1
172
0
173
0
174
0
175
1
176
1
 91
33
178
0
145
0.0
301
CELL_VALUE
 90
4
  1
Technical Data
304
ACVALUE_END
170
5
140
0.145
171
1
172
0
173
0
174
0
175
1
176
1
 91
33
178
0
145
0.0
301
CELL_VALUE
 90
4
  1
U.S. Units
304
ACVALUE_END
170
5
140
0.145
171
1
172
0
173
0
174
0
175
1
176
1
 91
33
178
0
145
0.0
301
CELL_VALUE
 90
4
  1
Metric Units
304
ACVALUE_END
170
5
140
0.145
171
1
172
0
173
0
174
0
175
1
176
1
 91
33
178
0
145
0.0
301
CELL_VALUE
 90
4
  1
Cavity
304
ACVALUE_END
170
5
140
0.125
171
1
172
0
173
0
174
0
175
2
176
1
 91
33
178
0
145
0.0
301
CELL_VALUE
 90
4
  1
T-17A
304
ACVALUE_END
170
5
140
0.125
171
1
172
0
173
1
174
0
175
1
176
1
 91
1
178
0
145
0.0
170
1
171
1
172
0
173
0
174
0
175
1
176
1
 91
33
178
0
145
0.0
301
CELL_VALUE
 90
4
  1
Body Features
304
ACVALUE_END
170
5
140
0.125
171
1
172
0
173
0
174
0
175
2
176
1
 91
33
178
0
145
0.0
301
CELL_VALUE
 90
4
  1
Reducer on  A with reverse flow check
304
ACVALUE_END
170
5
140
0.125
171
1
172
0
173
1
174
0
175
1
176
1
 91
1
178
0
145
0.0
170
1
171
1
172
0
173
0
174
0
175
1
176
1
 91
33
178
0
145
0.0
301
CELL_VALUE
 90
4
  1
Body Type
304
ACVALUE_END
170
5
140
0.125
171
1
172
0
173
0
174
0
175
2
176
1
 91
33
178
0
145
0.0
301
CELL_VALUE
 90
4
  1
Sandwich
304
ACVALUE_END
170
5
140
0.125
171
1
172
0
173
1
174
0
175
1
176
1
 91
1
178
0
145
0.0
170
1
171
1
172
0
173
0
174
0
175
1
176
1
 91
33
178
0
145
0.0
301
CELL_VALUE
 90
4
  1
Interface
304
ACVALUE_END
170
5
140
0.125
171
1
172
0
173
0
174
0
175
2
176
1
 91
33
178
0
145
0.0
301
CELL_VALUE
 90
4
  1
ISO 07
304
ACVALUE_END
170
5
140
0.125
171
1
172
0
173
1
174
0
175
1
176
1
 91
1
178
0
145
0.0
170
1
171
1
172
0
173
0
174
0
175
1
176
1
 91
33
178
0
145
0.0
301
CELL_VALUE
 90
4
  1
Open Cavity Quantity
304
ACVALUE_END
170
5
140
0.125
171
1
172
0
173
0
174
0
175
2
176
1
 91
33
178
0
145
0.0
301
CELL_VALUE
 90
4
  1
1
304
ACVALUE_END
170
5
140
0.125
171
1
172
0
173
1
174
0
175
1
176
1
 91
1
178
0
145
0.0
170
1
171
1
172
0
173
0
174
0
175
1
176
1
 91
33
178
0
145
0.0
301
CELL_VALUE
 90
4
  1
Stack Height
304
ACVALUE_END
170
5
140
0.125
171
1
172
0
173
0
174
0
175
1
176
1
 91
33
178
0
145
0.0
301
CELL_VALUE
 90
4
  1
2.74 in.
304
ACVALUE_END
170
5
140
0.125
171
1
172
0
173
0
174
0
175
1
176
1
 91
33
178
0
145
0.0
301
CELL_VALUE
 90
4
  1
70 mm
304
ACVALUE_END
170
5
140
0.125
171
1
172
0
173
0
174
0
175
1
176
1
 91
33
178
0
145
0.0
301
CELL_VALUE
 90
4
  1
Weight
304
ACVALUE_END
170
5
140
0.125
171
1
172
0
173
0
174
0
175
1
176
1
 91
33
178
0
145
0.0
301
CELL_VALUE
 90
4
  1
5.205 lb.
304
ACVALUE_END
170
5
140
0.125
171
1
172
0
173
0
174
0
175
1
176
1
 91
33
178
0
145
0.0
301
CELL_VALUE
 90
4
  1
2,361 kg.
304
ACVALUE_END
170
5
140
0.125
171
1
172
0
173
0
174
0
175
1
176
1
 91
33
178
0
145
0.0
301
CELL_VALUE
 90
4
  1
Seal Plate Included (see notes)
304
ACVALUE_END
170
5
140
0.125
171
1
172
0
173
0
174
0
175
2
176
1
 91
33
178
0
145
0.0
301
CELL_VALUE
 90
4
  1
Yes
304
ACVALUE_END
170
5
140
0.125
171
1
172
0
173
1
174
0
175
1
176
1
 91
1
178
0
145
0.0
170
1
  0
MTEXT
  5
271
100
AcDbEntity
  8
0
100
AcDbMText
 62
2
  6
CONTINUOUS
  7
STANDARD
 71
1
 72
1
 10
0.52125
 20
5.75995
 30
0.0
 11
1.0
 21
0.0
 31
0.0
 44
0.6
  3
Notes\P \P1. Stack height value in technical\P   data table includes seal retainer\P   plate.\P2. Important: Carefully consider\P   the maximum system pressure. The\P   pressure rating of the manifold is\P   dependent on the manifold material,\P   wi
  3
th the port type/size a secondary\P   consideration. Manifolds\P   constructed of aluminum are not\P   rated for pressures higher than\P   3000 psi (210 bar), regardless of\P   the port type/size specified.\P3. Items without balloons are\P   shipped 
  1
loose.
 40
0.1
 41
3.04
  0
LINE
  5
272
100
AcDbEntity
  8
0
100
AcDbLine
 62
7
  6
CONTINUOUS
 10
0.30125
 20
0.30125
 11
0.30125
 21
16.69875
  0
LINE
  5
273
100
AcDbEntity
  8
0
100
AcDbLine
 62
7
  6
CONTINUOUS
 10
0.30125
 20
0.30125
 11
21.69875
 21
0.30125
  0
LINE
  5
274
100
AcDbEntity
  8
0
100
AcDbLine
 62
7
  6
CONTINUOUS
 10
0.30125
 20
16.69875
 11
21.69875
 21
16.69875
  0
LINE
  5
275
100
AcDbEntity
  8
0
100
AcDbLine
 62
7
  6
CONTINUOUS
 10
21.69875
 20
0.30125
 11
21.69875
 21
16.69875
  0
LINE
  5
276
100
AcDbEntity
  8
0
100
AcDbLine
 62
7
  6
CONTINUOUS
 10
7.4989617751
 20
6.9668462958
 11
7.4730862993
 21
6.9986615456
  0
LINE
  5
277
100
AcDbEntity
  8
0
100
AcDbLine
 62
7
  6
CONTINUOUS
 10
7.4053382841
 20
9.488751724
 11
7.4053382841
 21
7.3753058908
  0
LINE
  5
278
100
AcDbEntity
  8
0
100
AcDbLine
 62
7
  6
CONTINUOUS
 10
7.4272586027
 20
9.4789251271
 11
7.4272586027
 21
7.3654792939
  0
LINE
  5
279
100
AcDbEntity
  8
0
100
AcDbLine
 62
7
  6
CONTINUOUS
 10
7.9330698815
 20
10.5114079776
 11
7.5427710836
 21
10.1344082664
  0
LINE
  5
27A
100
AcDbEntity
  8
0
100
AcDbLine
 62
7
  6
CONTINUOUS
 10
7.9630135839
 20
10.5392750772
 11
7.572714786
 21
10.162275366
  0
LINE
  5
27B
100
AcDbEntity
  8
0
100
AcDbLine
 62
7
  6
CONTINUOUS
 10
7.9643866669
 20
10.5405771862
 11
7.9630135839
 21
10.5392750772
  0
LINE
  5
27C
100
AcDbEntity
  8
0
100
AcDbLine
 62
7
  6
CONTINUOUS
 10
7.9343685649
 20
10.5126393086
 11
7.9330698815
 21
10.5114079776
  0
LINE
  5
27D
100
AcDbEntity
  8
0
100
AcDbLine
 62
7
  6
CONTINUOUS
 10
7.9330698815
 20
10.5114079776
 11
7.9630015208
 21
10.5392880386
  0
LINE
  5
27E
100
AcDbEntity
  8
0
100
AcDbLine
 62
7
  6
CONTINUOUS
 10
7.5427710836
 20
10.1344082664
 11
7.572714786
 21
10.162275366
  0
LINE
  5
27F
100
AcDbEntity
  8
0
100
AcDbLine
 62
7
  6
CONTINUOUS
 10
8.7512656043
 20
10.0164651214
 11
9.4407589803
 21
10.6824646198
  0
LINE
  5
280
100
AcDbEntity
  8
0
100
AcDbLine
 62
7
  6
CONTINUOUS
 10
7.383912086
 20
8.9163022239
 11
7.3972671702
 21
8.8998814498
  0
LINE
  5
281
100
AcDbEntity
  8
0
100
AcDbLine
 62
7
  6
CONTINUOUS
 10
8.7512656043
 20
10.0164651214
 11
8.7512656043
 21
6.635724529
  0
LINE
  5
282
100
AcDbEntity
  8
0
100
AcDbLine
 62
7
  6
CONTINUOUS
 10
7.4053382841
 20
7.3753058908
 11
7.4272586027
 21
7.3654792939
  0
LINE
  5
283
100
AcDbEntity
  8
0
100
AcDbLine
 62
7
  6
CONTINUOUS
 10
13.3394136662
 20
6.3175353802
 11
8.7512656043
 21
6.635724529
  0
LINE
  5
284
100
AcDbEntity
  8
0
100
AcDbLine
 62
7
  6
CONTINUOUS
 10
8.7512656043
 20
6.8608965736
 11
7.5338333408
 21
6.9453257878
  0
LINE
  5
285
100
AcDbEntity
  8
0
100
AcDbLine
 62
7
  6
CONTINUOUS
 10
7.4272586027
 20
7.3654792939
 11
8.7512656043
 21
7.2736590965
  0
LINE
  5
286
100
AcDbEntity
  8
0
100
AcDbLine
 62
7
  6
CONTINUOUS
 10
13.6664907925
 20
7.6205111755
 11
13.6840842524
 21
7.6192910649
  0
LINE
  5
287
100
AcDbEntity
  8
0
100
AcDbLine
 62
7
  6
CONTINUOUS
 10
13.6906955914
 20
7.7068009342
 11
14.3609637636
 21
7.6603176786
  0
LINE
  5
288
100
AcDbEntity
  8
0
100
AcDbLine
 62
7
  6
CONTINUOUS
 10
13.6805542923
 20
7.7188566729
 11
14.3508224645
 21
7.6723734173
  0
LINE
  5
289
100
AcDbEntity
  8
0
100
AcDbLine
 62
7
  6
CONTINUOUS
 10
7.4053382841
 20
9.488751724
 11
7.4272586027
 21
9.4789251271
  0
LINE
  5
28A
100
AcDbEntity
  8
0
100
AcDbLine
 62
7
  6
CONTINUOUS
 10
13.593920383
 20
8.1951856257
 11
14.2641885552
 21
8.1487023701
  0
LINE
  5
28B
100
AcDbEntity
  8
0
100
AcDbLine
 62
7
  6
CONTINUOUS
 10
13.593920383
 20
8.2388885898
 11
14.2641885552
 21
8.1924053341
  0
LINE
  5
28C
100
AcDbEntity
  8
0
100
AcDbLine
 62
7
  6
CONTINUOUS
 10
13.6805542923
 20
8.8825814132
 11
14.3508224645
 21
8.8360981576
  0
LINE
  5
28D
100
AcDbEntity
  8
0
100
AcDbLine
 62
7
  6
CONTINUOUS
 10
13.6906955914
 20
8.9142286386
 11
14.3609637636
 21
8.867745383
  0
LINE
  5
28E
100
AcDbEntity
  8
0
100
AcDbLine
 62
7
  6
CONTINUOUS
 10
13.3394136662
 20
9.6982759726
 11
14.0289070422
 21
10.364275471
  0
LINE
  5
28F
100
AcDbEntity
  8
0
100
AcDbLine
 62
7
  6
CONTINUOUS
 10
7.4272586027
 20
9.4789251271
 11
8.7512656043
 21
9.3871049297
  0
LINE
  5
290
100
AcDbEntity
  8
0
100
AcDbLine
 62
7
  6
CONTINUOUS
 10
13.8639634099
 20
9.0815925093
 11
14.5342315821
 21
9.0351092536
  0
LINE
  5
291
100
AcDbEntity
  8
0
100
AcDbLine
 62
7
  6
CONTINUOUS
 10
13.7738701539
 20
9.175808865
 11
13.7919422117
 21
9.1745555635
  0
LINE
  5
292
100
AcDbEntity
  8
0
100
AcDbLine
 62
4
  6
CONTINUOUS
 10
13.7878172798
 20
9.503548828
 11
13.7916995622
 21
9.507298825
  0
LINE
  5
293
100
AcDbEntity
  8
0
100
AcDbLine
 62
4
  6
CONTINUOUS
 10
13.7024070673
 20
9.3824118574
 11
13.6907602202
 21
9.3711618662
  0
LINE
  5
294
100
AcDbEntity
  8
0
100
AcDbLine
 62
4
  6
CONTINUOUS
 10
13.7354064676
 20
9.3949683162
 11
13.719877338
 21
9.379968328
  0
LINE
  5
295
100
AcDbEntity
  8
0
100
AcDbLine
 62
4
  6
CONTINUOUS
 10
13.7916995622
 20
9.3913877216
 11
13.7878172798
 21
9.3876377245
  0
LINE
  5
296
100
AcDbEntity
  8
0
100
AcDbLine
 62
7
  6
CONTINUOUS
 10
8.7512656043
 20
10.0164651214
 11
13.3394136662
 21
9.6982759726
  0
LINE
  5
297
100
AcDbEntity
  8
0
100
AcDbLine
 62
7
  6
CONTINUOUS
 10
7.572714786
 20
10.162275366
 11
8.813159689
 21
10.0762502198
  0
LINE
  5
298
100
AcDbEntity
  8
0
100
AcDbLine
 62
7
  6
CONTINUOUS
 10
13.8639634099
 20
9.0815925093
 11
13.6906955914
 21
8.9142286386
  0
LINE
  5
299
100
AcDbEntity
  8
0
100
AcDbLine
 62
7
  6
CONTINUOUS
 10
7.9630135839
 20
10.5392750772
 11
9.2034584869
 21
10.453249931
  0
LINE
  5
29A
100
AcDbEntity
  8
0
100
AcDbLine
 62
7
  6
CONTINUOUS
 10
9.2232594742
 20
10.4723762172
 11
8.0018950292
 21
10.5570781291
  0
LINE
  5
29B
100
AcDbEntity
  8
0
100
AcDbLine
 62
7
  6
CONTINUOUS
 10
9.4407589803
 20
10.6824646198
 11
14.0289070422
 21
10.364275471
  0
LINE
  5
29C
100
AcDbEntity
  8
0
100
AcDbLine
 62
7
  6
CONTINUOUS
 10
13.3394136662
 20
9.6982759726
 11
13.3394136662
 21
6.3175353802
  0
LINE
  5
29D
100
AcDbEntity
  8
0
100
AcDbLine
 62
4
  6
CONTINUOUS
 10
13.7819938562
 20
9.4786053146
 11
13.7839349974
 21
9.490139572
  0
LINE
  5
29E
100
AcDbEntity
  8
0
100
AcDbLine
 62
4
  6
CONTINUOUS
 10
13.7839349974
 20
9.490139572
 11
13.7878172798
 21
9.503548828
  0
LINE
  5
29F
100
AcDbEntity
  8
0
100
AcDbLine
 62
4
  6
CONTINUOUS
 10
13.7955818446
 20
9.4047969749
 11
13.7916995622
 21
9.3913877216
  0
LINE
  5
2A0
100
AcDbEntity
  8
0
100
AcDbLine
 62
7
  6
CONTINUOUS
 10
13.593920383
 20
8.1951856257
 11
13.6805542923
 21
7.7188566729
  0
LINE
  5
2A1
100
AcDbEntity
  8
0
100
AcDbLine
 62
4
  6
CONTINUOUS
 10
13.6965836437
 20
9.299512794
 11
13.6868779378
 21
9.4060489048
  0
LINE
  5
2A2
100
AcDbEntity
  8
0
100
AcDbLine
 62
4
  6
CONTINUOUS
 10
13.799464127
 20
9.4858210432
 11
13.8014052682
 21
9.4587182659
  0
LINE
  5
2A3
100
AcDbEntity
  8
0
100
AcDbLine
 62
4
  6
CONTINUOUS
 10
13.719877338
 20
9.3220127763
 11
13.719877338
 21
9.4379238797
  0
LINE
  5
2A4
100
AcDbEntity
  8
0
100
AcDbLine
 62
4
  6
CONTINUOUS
 10
13.7354064676
 20
9.3370127644
 11
13.7354064676
 21
9.4529238679
  0
LINE
  5
2A5
100
AcDbEntity
  8
0
100
AcDbLine
 62
4
  6
CONTINUOUS
 10
13.8014052682
 20
9.4587182659
 11
13.799464127
 21
9.4278654915
  0
LINE
  5
2A6
100
AcDbEntity
  8
0
100
AcDbLine
 62
4
  6
CONTINUOUS
 10
13.7062893497
 20
9.4247988901
 11
13.6965836437
 21
9.299512794
  0
LINE
  5
2A7
100
AcDbEntity
  8
0
100
AcDbLine
 62
4
  6
CONTINUOUS
 10
13.7664647267
 20
9.4829238442
 11
13.7509355971
 21
9.3520127526
  0
LINE
  5
2A8
100
AcDbEntity
  8
0
100
AcDbLine
 62
7
  6
CONTINUOUS
 10
13.6805542923
 20
8.8825814132
 11
13.593920383
 21
8.2388885898
  0
LINE
  5
2A9
100
AcDbEntity
  8
0
100
AcDbLine
 62
4
  6
CONTINUOUS
 10
13.799464127
 20
9.4278654915
 11
13.7955818446
 21
9.4047969749
  0
LINE
  5
2AA
100
AcDbEntity
  8
0
100
AcDbLine
 62
7
  6
CONTINUOUS
 10
13.7767194673
 20
7.6953583101
 11
13.7798227875
 21
7.7006199422
  0
LINE
  5
2AB
100
AcDbEntity
  8
0
100
AcDbLine
 62
4
  6
CONTINUOUS
 10
13.7878172798
 20
9.3876377245
 11
13.7839349974
 21
9.3935469838
  0
LINE
  5
2AC
100
AcDbEntity
  8
0
100
AcDbLine
 62
4
  6
CONTINUOUS
 10
13.7664647267
 20
9.3670127408
 11
13.7509355971
 21
9.4679238561
  0
LINE
  5
2AD
100
AcDbEntity
  8
0
100
AcDbLine
 62
7
  6
CONTINUOUS
 10
14.0289070422
 20
10.364275471
 11
14.0289070422
 21
9.0701536295
  0
LINE
  5
2AE
100
AcDbEntity
  8
0
100
AcDbLine
 62
7
  6
CONTINUOUS
 10
14.0289070422
 20
7.6833458904
 11
14.0289070422
 21
6.9835348786
  0
LINE
  5
2AF
100
AcDbEntity
  8
0
100
AcDbLine
 62
4
  6
CONTINUOUS
 10
13.7916995622
 20
9.507298825
 11
13.7955818446
 21
9.5013895631
  0
LINE
  5
2B0
100
AcDbEntity
  8
0
100
AcDbLine
 62
7
  6
CONTINUOUS
 10
13.8731905786
 20
9.086429451
 11
13.8755378933
 21
9.0807898161
  0
LINE
  5
2B1
100
AcDbEntity
  8
0
100
AcDbLine
 62
4
  6
CONTINUOUS
 10
13.7839349974
 20
9.3935469838
 11
13.7819938562
 21
9.4013312485
  0
LINE
  5
2B2
100
AcDbEntity
  8
0
100
AcDbLine
 62
4
  6
CONTINUOUS
 10
13.7955818446
 20
9.5013895631
 11
13.799464127
 21
9.4858210432
  0
LINE
  5
2B3
100
AcDbEntity
  8
0
100
AcDbLine
 62
7
  6
CONTINUOUS
 10
14.5192437574
 20
7.7713842023
 11
14.528017206
 21
7.7862594508
  0
LINE
  5
2B4
100
AcDbEntity
  8
0
100
AcDbLine
 62
7
  6
CONTINUOUS
 10
13.3394136662
 20
6.3175353802
 11
14.0289070422
 21
6.9835348786
  0
LINE
  5
2B5
100
AcDbEntity
  8
0
100
AcDbLine
 62
7
  6
CONTINUOUS
 10
14.5903459309
 20
8.9272955251
 11
14.6047485581
 21
8.892691917
  0
ARC
  5
2B6
100
AcDbEntity
  8
0
100
AcDbCircle
 62
7
  6
CONTINUOUS
 10
16.8556600088
 20
8.1703990763
 40
2.5915648883
100
AcDbArc
 50
179.5134673813
 51
179.9985734311
  0
ARC
  5
2B7
100
AcDbEntity
  8
0
100
AcDbCircle
 62
7
  6
CONTINUOUS
 10
16.1753624153
 20
8.2169250399
 40
2.5815354663
100
AcDbArc
 50
179.5125250424
 51
179.99951577
  0
ARC
  5
2B8
100
AcDbEntity
  8
0
100
AcDbCircle
 62
7
  6
CONTINUOUS
 10
16.1225982239
 20
8.2169235571
 40
2.5287712748
100
AcDbArc
 50
179.9994720696
 51
180.492534488
  0
ARC
  5
2B9
100
AcDbEntity
  8
0
100
AcDbCircle
 62
7
  6
CONTINUOUS
 10
16.7928663961
 20
8.1704403015
 40
2.5287712748
100
AcDbArc
 50
179.9994720696
 51
180.492534488
  0
ARC
  5
2BA
100
AcDbEntity
  8
0
100
AcDbCircle
 62
7
  6
CONTINUOUS
 10
14.7701223201
 20
8.5508796995
 40
1.1389400837
100
AcDbArc
 50
161.3961041614
 51
163.0679604749
  0
ARC
  5
2BB
100
AcDbEntity
  8
0
100
AcDbCircle
 62
7
  6
CONTINUOUS
 10
15.4107219528
 20
8.5139036765
 40
1.1077888828
100
AcDbArc
 50
161.3725959887
 51
163.0914686476
  0
ARC
  5
2BC
100
AcDbEntity
  8
0
100
AcDbCircle
 62
7
  6
CONTINUOUS
 10
14.0068526823
 20
8.9182021142
 40
0.3600735813
100
AcDbArc
 50
147.6271402322
 51
148.9578115975
  0
ARC
  5
2BD
100
AcDbEntity
  8
0
100
AcDbCircle
 62
7
  6
CONTINUOUS
 10
13.9312405449
 20
7.8430434688
 40
0.3588884132
100
AcDbArc
 50
203.1920574384
 51
204.4261507327
  0
ARC
  5
2BE
100
AcDbEntity
  8
0
100
AcDbCircle
 62
7
  6
CONTINUOUS
 10
13.7460653657
 20
9.0732164599
 40
0.1180755329
100
AcDbArc
 50
42.0490923018
 51
42.8438829547
  0
ARC
  5
2BF
100
AcDbEntity
  8
0
100
AcDbCircle
 62
7
  6
CONTINUOUS
 10
12.4523366674
 20
7.2357241112
 40
0.1087831315
100
AcDbArc
 50
115.0291755376
 51
132.913740586
  0
ARC
  5
2C0
100
AcDbEntity
  8
0
100
AcDbCircle
 62
7
  6
CONTINUOUS
 10
12.4762329329
 20
7.2110973557
 40
0.1087826764
100
AcDbArc
 50
295.0291509643
 51
312.9138924841
  0
ARC
  5
2C1
100
AcDbEntity
  8
0
100
AcDbCircle
 62
7
  6
CONTINUOUS
 10
13.7861278354
 20
9.1284184536
 40
0.0489288059
100
AcDbArc
 50
82.7993406545
 51
86.032357786
  0
SPLINE
  5
2C2
100
AcDbEntity
  8
0
100
AcDbSpline
 62
7
  6
CONTINUOUS
 70
0
 71
3
 72
47
 73
43
 74
0
 42
0.0000001
 43
0.0000001
 44
0.0000000001
 40
0.0
 40
0.0
 40
0.0
 40
0.0
 40
0.0109864278
 40
0.0225053988
 40
0.0345491702
 40
0.0471079767
 40
0.0737260278
 40
0.1022603135
 40
0.132590316
 40
0.1645817723
 40
0.1980850844
 40
0.2329411953
 40
0.2689795339
 40
0.3060230636
 40
0.3438863283
 40
0.3823798573
 40
0.4213088503
 40
0.4604766326
 40
0.4996843295
 40
0.5387331489
 40
0.577425328
 40
0.6155650386
 40
0.6529608071
 40
0.6894249245
 40
0.7247774693
 40
0.758844224
 40
0.7914623785
 40
0.8224771288
 40
0.8517491522
 40
0.8791503651
 40
0.8921160488
 40
0.9045749863
 40
0.9165161895
 40
0.9279314449
 40
0.9388141358
 40
0.9491589439
 40
0.9589625256
 40
0.9682254799
 40
0.9769515238
 40
0.9851474659
 40
0.9928243496
 40
1.0
 40
1.0
 40
1.0
 40
1.0
 10
7.405517306
 20
9.5168014422
 30
0.0
 10
7.4044849575
 20
9.5147986941
 30
0.0
 10
7.4024346307
 20
9.5106626686
 30
0.0
 10
7.3994654957
 20
9.5042283662
 30
0.0
 10
7.3965330776
 20
9.4974246163
 30
0.0
 10
7.3926008929
 20
9.4876828603
 30
0.0
 10
7.3878261549
 20
9.4746385181
 30
0.0
 10
7.3824100413
 20
9.4579614455
 30
0.0
 10
7.377230873
 20
9.4400593793
 30
0.0
 10
7.3723176349
 20
9.4210286037
 30
0.0
 10
7.3676964434
 20
9.4009713558
 30
0.0
 10
7.3633934182
 20
9.3799957363
 30
0.0
 10
7.3594311665
 20
9.3582148876
 30
0.0
 10
7.355832195
 20
9.3357464011
 30
0.0
 10
7.3526151822
 20
9.3127116341
 30
0.0
 10
7.3497985899
 20
9.2892350549
 30
0.0
 10
7.347396742
 20
9.2654435591
 30
0.0
 10
7.3454236861
 20
9.2414657327
 30
0.0
 10
7.343889064
 20
9.2174312379
 30
0.0
 10
7.3428022452
 20
9.1934699581
 30
0.0
 10
7.3421679447
 20
9.1697114996
 30
0.0
 10
7.3419906868
 20
9.1462842033
 30
0.0
 10
7.3422701081
 20
9.1233147905
 30
0.0
 10
7.3430058257
 20
9.1009272532
 30
0.0
 10
7.3441923384
 20
9.0792426393
 30
0.0
 10
7.3458243967
 20
9.0583778593
 30
0.0
 10
7.3478914019
 20
9.0384455901
 30
0.0
 10
7.3503833579
 20
9.0195529663
 30
0.0
 10
7.3532848046
 20
9.0018018974
 30
0.0
 10
7.3560807648
 20
8.9877924228
 30
0.0
 10
7.3585267567
 20
8.9772375796
 30
0.0
 10
7.3604195796
 20
8.9698111171
 30
0.0
 10
7.3624023285
 20
8.9627377744
 30
0.0
 10
7.3644720662
 20
8.9560268665
 30
0.0
 10
7.3666258528
 20
8.9496871753
 30
0.0
 10
7.3688608139
 20
8.9437272579
 30
0.0
 10
7.371174392
 20
8.9381552815
 30
0.0
 10
7.3735632357
 20
8.9329783919
 30
0.0
 10
7.3760240538
 20
8.9282031131
 30
0.0
 10
7.3785538036
 20
8.9238356046
 30
0.0
 10
7.381149668
 20
8.9198821579
 30
0.0
 10
7.3829825025
 20
8.9174456366
 30
0.0
 10
7.3839110304
 20
8.9163039193
 30
0.0
  0
SPLINE
  5
2C3
100
AcDbEntity
  8
0
100
AcDbSpline
 62
7
  6
CONTINUOUS
 70
0
 71
3
 72
9
 73
5
 74
0
 42
0.0000001
 43
0.0000001
 44
0.0000000001
 40
0.0
 40
0.0
 40
0.0
 40
0.0
 40
0.5234645794
 40
1.0
 40
1.0
 40
1.0
 40
1.0
 10
7.3972672191
 20
8.8998818067
 30
0.0
 10
7.3985075284
 20
8.8983568169
 30
0.0
 10
7.4010190404
 20
8.8955543093
 30
0.0
 10
7.4038581785
 20
8.8930760628
 30
0.0
 10
7.4052927089
 20
8.8920063324
 30
0.0
  0
SPLINE
  5
2C4
100
AcDbEntity
  8
0
100
AcDbSpline
 62
7
  6
CONTINUOUS
 70
0
 71
3
 72
41
 73
37
 74
0
 42
0.0000001
 43
0.0000001
 44
0.0000000001
 40
0.0
 40
0.0
 40
0.0
 40
0.0
 40
0.0257838558
 40
0.0531168312
 40
0.0819121517
 40
0.1120744805
 40
0.1434980784
 40
0.1760727675
 40
0.209679512
 40
0.2441957766
 40
0.2794934543
 40
0.3154404192
 40
0.3519021282
 40
0.3887404445
 40
0.4258163207
 40
0.4629890847
 40
0.500117571
 40
0.5370611923
 40
0.6098326746
 40
0.6453889406
 40
0.680212246
 40
0.714174012
 40
0.7471484231
 40
0.7790158183
 40
0.809662518
 40
0.838980305
 40
0.8668712693
 40
0.8932431594
 40
0.9180172087
 40
0.941124203
 40
0.9520355451
 40
0.9625115899
 40
0.9725482483
 40
0.9821423543
 40
0.9912925354
 40
1.0
 40
1.0
 40
1.0
 40
1.0
 10
7.4053507801
 20
9.4962103271
 30
0.0
 10
7.4035787182
 20
9.4914712827
 30
0.0
 10
7.4001048137
 20
9.4816417921
 30
0.0
 10
7.395219713
 20
9.4663264297
 30
0.0
 10
7.3905232518
 20
9.4500560158
 30
0.0
 10
7.3860351179
 20
9.4328961953
 30
0.0
 10
7.3817726107
 20
9.4149160507
 30
0.0
 10
7.3777544288
 20
9.3961880371
 30
0.0
 10
7.3739956858
 20
9.3767878369
 30
0.0
 10
7.3705126362
 20
9.3567937437
 30
0.0
 10
7.3673189801
 20
9.3362865886
 30
0.0
 10
7.3644276283
 20
9.3153492434
 30
0.0
 10
7.3618509223
 20
9.2940663397
 30
0.0
 10
7.3595983671
 20
9.2725239773
 30
0.0
 10
7.3576802166
 20
9.2508092021
 30
0.0
 10
7.3561032285
 20
9.2290099357
 30
0.0
 10
7.3548744374
 20
9.2072141599
 30
0.0
 10
7.3537127508
 20
9.1784218704
 30
0.0
 10
7.3532505459
 20
9.1499129815
 30
0.0
 10
7.3535163674
 20
9.1218228448
 30
0.0
 10
7.3540731657
 20
9.1013545267
 30
0.0
 10
7.3549854137
 20
9.0814061061
 30
0.0
 10
7.3562499608
 20
9.062058017
 30
0.0
 10
7.3578614874
 20
9.0433884512
 30
0.0
 10
7.3598127774
 20
9.0254727598
 30
0.0
 10
7.3620968198
 20
9.0083831345
 30
0.0
 10
7.3647027541
 20
8.9921884351
 30
0.0
 10
7.3676212154
 20
8.9769535853
 30
0.0
 10
7.3708390522
 20
8.9627398619
 30
0.0
 10
7.3738133567
 20
8.9515893478
 30
0.0
 10
7.3763473754
 20
8.9432333779
 30
0.0
 10
7.3782780187
 20
8.9373764372
 30
0.0
 10
7.3802732198
 20
8.9318149779
 30
0.0
 10
7.3823311701
 20
8.9265547238
 30
0.0
 10
7.3844499378
 20
8.9216011222
 30
0.0
 10
7.3859382484
 20
8.9184277024
 30
0.0
 10
7.3866937833
 20
8.9168951708
 30
0.0
  0
SPLINE
  5
2C5
100
AcDbEntity
  8
0
100
AcDbSpline
 62
7
  6
CONTINUOUS
 70
0
 71
3
 72
11
 73
7
 74
0
 42
0.0000001
 43
0.0000001
 44
0.0000000001
 40
0.0
 40
0.0
 40
0.0
 40
0.0
 40
0.2742017968
 40
0.5320062393
 40
0.7737562603
 40
1.0
 40
1.0
 40
1.0
 40
1.0
 10
7.3866937833
 20
8.9168951708
 30
0.0
 10
7.3875049293
 20
8.9152498373
 30
0.0
 10
7.3891457478
 20
8.9120898818
 30
0.0
 10
7.3917527716
 20
8.9076152049
 30
0.0
 10
7.3944264853
 20
8.9035589227
 30
0.0
 10
7.3963121877
 20
8.9010560404
 30
0.0
 10
7.3972672191
 20
8.8998818067
 30
0.0
  0
SPLINE
  5
2C6
100
AcDbEntity
  8
0
100
AcDbSpline
 62
7
  6
CONTINUOUS
 70
0
 71
3
 72
23
 73
19
 74
0
 42
0.0000001
 43
0.0000001
 44
0.0000000001
 40
0.0
 40
0.0
 40
0.0
 40
0.0
 40
0.0778915856
 40
0.1545454438
 40
0.2297388202
 40
0.3032879841
 40
0.3750174017
 40
0.4447505127
 40
0.512316206
 40
0.5775550501
 40
0.6403154135
 40
0.7004563918
 40
0.75784725
 40
0.8123710763
 40
0.8639245062
 40
0.9124214177
 40
0.9577945528
 40
1.0
 40
1.0
 40
1.0
 40
1.0
 10
14.657698652
 20
8.4992712661
 30
0.0
 10
14.657698652
 20
8.5096318582
 30
0.0
 10
14.6575556451
 20
8.5301887244
 30
0.0
 10
14.6569031869
 20
8.5607410493
 30
0.0
 10
14.6558152373
 20
8.5907031232
 30
0.0
 10
14.6542954278
 20
8.619990583
 30
0.0
 10
14.6523476514
 20
8.6485248617
 30
0.0
 10
14.6499777542
 20
8.6762285984
 30
0.0
 10
14.6471917536
 20
8.7030258935
 30
0.0
 10
14.6439979097
 20
8.7288435312
 30
0.0
 10
14.6404046526
 20
8.7536113086
 30
0.0
 10
14.6364223649
 20
8.7772618392
 30
0.0
 10
14.6320617082
 20
8.7997308269
 30
0.0
 10
14.6273351271
 20
8.820957359
 30
0.0
 10
14.6222554353
 20
8.8408839858
 30
0.0
 10
14.6168368358
 20
8.8594573196
 30
0.0
 10
14.6110942088
 20
8.8766269956
 30
0.0
 10
14.6069078605
 20
8.8875037217
 30
0.0
 10
14.604750715
 20
8.8926866058
 30
0.0
  0
SPLINE
  5
2C7
100
AcDbEntity
  8
0
100
AcDbSpline
 62
7
  6
CONTINUOUS
 70
0
 71
3
 72
9
 73
5
 74
0
 42
0.0000001
 43
0.0000001
 44
0.0000000001
 40
0.0
 40
0.0
 40
0.0
 40
0.0
 40
0.5149357862
 40
1.0
 40
1.0
 40
1.0
 40
1.0
 10
14.5443728813
 20
9.0230535149
 30
0.0
 10
14.542762933
 20
9.025227933
 30
0.0
 10
14.5395162311
 20
9.0293635015
 30
0.0
 10
14.5360044115
 20
9.0332782804
 30
0.0
 10
14.5342315821
 20
9.0351092536
 30
0.0
  0
SPLINE
  5
2C8
100
AcDbEntity
  8
0
100
AcDbSpline
 62
7
  6
CONTINUOUS
 70
0
 71
3
 72
22
 73
18
 74
0
 42
0.0000001
 43
0.0000001
 44
0.0000000001
 40
0.0
 40
0.0
 40
0.0
 40
0.0
 40
0.1581228667
 40
0.2341982852
 40
0.3081049186
 40
0.379717385
 40
0.4489184745
 40
0.5156040998
 40
0.5796927374
 40
0.6411263993
 40
0.6998833948
 40
0.755975683
 40
0.8094620448
 40
0.8604412683
 40
0.9090606462
 40
0.9555055836
 40
1.0
 40
1.0
 40
1.0
 40
1.0
 10
14.3609637636
 20
7.6603176786
 30
0.0
 10
14.3704334247
 20
7.6645208649
 30
0.0
 10
14.3843768283
 20
7.670936542
 30
0.0
 10
14.4024868122
 20
7.6798590443
 30
0.0
 10
14.4153831517
 20
7.6865319919
 30
0.0
 10
14.4277331438
 20
7.693273577
 30
0.0
 10
14.4395019594
 20
7.7000841727
 30
0.0
 10
14.4506553037
 20
7.7069644125
 30
0.0
 10
14.4611617535
 20
7.7139127889
 30
0.0
 10
14.4709920265
 20
7.7209288515
 30
0.0
 10
14.4801221751
 20
7.7280092473
 30
0.0
 10
14.4885317966
 20
7.7351522158
 30
0.0
 10
14.4962079275
 20
7.742352861
 30
0.0
 10
14.5031420537
 20
7.7496079734
 30
0.0
 10
14.5093341656
 20
7.7569117646
 30
0.0
 10
14.5147884809
 20
7.7642591594
 30
0.0
 10
14.5180051692
 20
7.7692819244
 30
0.0
 10
14.5194851965
 20
7.7717936809
 30
0.0
  0
SPLINE
  5
2C9
100
AcDbEntity
  8
0
100
AcDbSpline
 62
7
  6
CONTINUOUS
 70
0
 71
3
 72
9
 73
5
 74
0
 42
0.0000001
 43
0.0000001
 44
0.0000000001
 40
0.0
 40
0.0
 40
0.0
 40
0.0
 40
0.4955326499
 40
1.0
 40
1.0
 40
1.0
 40
1.0
 10
14.5904930553
 20
8.9269418233
 30
0.0
 10
14.5837214111
 20
8.9432021989
 30
0.0
 10
14.5690828843
 20
8.9756160297
 30
0.0
 10
14.5528699125
 20
9.007262872
 30
0.0
 10
14.5443728813
 20
9.0230535149
 30
0.0
  0
SPLINE
  5
2CA
100
AcDbEntity
  8
0
100
AcDbSpline
 62
7
  6
CONTINUOUS
 70
0
 71
3
 72
28
 73
24
 74
0
 42
0.0000001
 43
0.0000001
 44
0.0000000001
 40
0.0
 40
0.0
 40
0.0
 40
0.0
 40
0.0188524871
 40
0.0388801737
 40
0.0600715651
 40
0.0824089768
 40
0.1058699668
 40
0.1304265019
 40
0.1560475994
 40
0.1826975814
 40
0.2103382308
 40
0.2389280827
 40
0.2987741688
 40
0.3618564495
 40
0.4277601831
 40
0.4960432585
 40
0.5662412158
 40
0.6378720029
 40
0.7104405345
 40
0.7834444448
 40
0.8563742018
 40
0.9287292883
 40
1.0
 40
1.0
 40
1.0
 40
1.0
 10
14.5280163026
 20
7.7862580754
 30
0.0
 10
14.5303492432
 20
7.7902135254
 30
0.0
 10
14.5349806396
 20
7.7984780085
 30
0.0
 10
14.5416474096
 20
7.8115067965
 30
0.0
 10
14.548232948
 20
7.8255206506
 30
0.0
 10
14.5547250391
 20
7.8404937345
 30
0.0
 10
14.5611113277
 20
7.8563988603
 30
0.0
 10
14.5673805201
 20
7.8732067073
 30
0.0
 10
14.5735203465
 20
7.890886494
 30
0.0
 10
14.579519898
 20
7.9094055415
 30
0.0
 10
14.5853677595
 20
7.9287297689
 30
0.0
 10
14.593065622
 20
7.955937597
 30
0.0
 10
14.6021960434
 20
7.9917052797
 30
0.0
 10
14.6122256956
 20
8.0366013599
 30
0.0
 10
14.621413284
 20
8.083772421
 30
0.0
 10
14.6296900848
 20
8.1328697502
 30
0.0
 10
14.636994107
 20
8.1835306884
 30
0.0
 10
14.6432707886
 20
8.2353805127
 30
0.0
 10
14.6484734433
 20
8.2880357996
 30
0.0
 10
14.6525631686
 20
8.3411064544
 30
0.0
 10
14.6555100679
 20
8.3942008407
 30
0.0
 10
14.6572918194
 20
8.4469244659
 30
0.0
 10
14.657698652
 20
8.4819107684
 30
0.0
 10
14.657698652
 20
8.4992712661
 30
0.0
  0
SPLINE
  5
2CB
100
AcDbEntity
  8
0
100
AcDbSpline
 62
7
  6
CONTINUOUS
 70
0
 71
3
 72
23
 73
19
 74
0
 42
0.0000001
 43
0.0000001
 44
0.0000000001
 40
0.0
 40
0.0
 40
0.0
 40
0.0
 40
0.0450326416
 40
0.090627084
 40
0.1373223842
 40
0.1856173007
 40
0.2359593962
 40
0.2887361703
 40
0.344276113
 40
0.402854817
 40
0.4646973153
 40
0.5299824183
 40
0.5988535695
 40
0.671423373
 40
0.747772967
 40
0.8279612293
 40
0.9120297453
 40
1.0
 40
1.0
 40
1.0
 40
1.0
 10
13.7919425372
 20
9.1745554373
 30
0.0
 10
13.7938232588
 20
9.1744250526
 30
0.0
 10
13.7975964476
 20
9.1739415131
 30
0.0
 10
13.803188255
 20
9.1725576272
 30
0.0
 10
13.8087209059
 20
9.1705170955
 30
0.0
 10
13.8141879163
 20
9.1678239073
 30
0.0
 10
13.8195847113
 20
9.1644818784
 30
0.0
 10
13.8249075371
 20
9.1604958967
 30
0.0
 10
13.8301531327
 20
9.1558705879
 30
0.0
 10
13.835317882
 20
9.1506100712
 30
0.0
 10
13.840398312
 20
9.1447189739
 30
0.0
 10
13.8453912618
 20
9.1382025563
 30
0.0
 10
13.8502930373
 20
9.1310659947
 30
0.0
 10
13.855099662
 20
9.1233148517
 30
0.0
 10
13.8598077651
 20
9.1149556672
 30
0.0
 10
13.864413674
 20
9.1059952215
 30
0.0
 10
13.8689133388
 20
9.0964407346
 30
0.0
 10
13.8717750626
 20
9.0898300966
 30
0.0
 10
13.8731902143
 20
9.0864300806
 30
0.0
  0
SPLINE
  5
2CC
100
AcDbEntity
  8
0
100
AcDbSpline
 62
7
  6
CONTINUOUS
 70
0
 71
3
 72
23
 73
19
 74
0
 42
0.0000001
 43
0.0000001
 44
0.0000000001
 40
0.0
 40
0.0
 40
0.0
 40
0.0
 40
0.0450328014
 40
0.090626912
 40
0.1373220992
 40
0.1856177797
 40
0.2359593495
 40
0.2887351894
 40
0.3442762352
 40
0.4028552774
 40
0.4646962747
 40
0.5299819163
 40
0.5988545543
 40
0.6714232004
 40
0.7477722896
 40
0.8279625255
 40
0.9120310258
 40
1.0
 40
1.0
 40
1.0
 40
1.0
 10
13.6840839269
 20
7.6192911911
 30
0.0
 10
13.6859646712
 20
7.6191608048
 30
0.0
 10
13.6897684941
 20
7.6191190215
 30
0.0
 10
13.695497883
 20
7.6197172452
 30
0.0
 10
13.701259347
 20
7.6209744755
 30
0.0
 10
13.7070456959
 20
7.6228876518
 30
0.0
 10
13.7128522724
 20
7.6254524675
 30
0.0
 10
13.7186745635
 20
7.6286652887
 30
0.0
 10
13.7245082801
 20
7.6325225851
 30
0.0
 10
13.7303497467
 20
7.6370198733
 30
0.0
 10
13.7361950137
 20
7.6421530308
 30
0.0
 10
13.7420396473
 20
7.6479180263
 30
0.0
 10
13.7478794848
 20
7.6543098967
 30
0.0
 10
13.7537102857
 20
7.661323228
 30
0.0
 10
13.7595273236
 20
7.6689525277
 30
0.0
 10
13.7653258493
 20
7.6771917041
 30
0.0
 10
13.7711014228
 20
7.686033669
 30
0.0
 10
13.7748483814
 20
7.6921859382
 30
0.0
 10
13.7767193069
 20
7.6953580411
 30
0.0
  0
SPLINE
  5
2CD
100
AcDbEntity
  8
0
100
AcDbSpline
 62
7
  6
CONTINUOUS
 70
0
 71
3
 72
23
 73
19
 74
0
 42
0.0000001
 43
0.0000001
 44
0.0000000001
 40
0.0
 40
0.0
 40
0.0
 40
0.0
 40
0.0430432041
 40
0.0864276157
 40
0.130656649
 40
0.1763288731
 40
0.2240992276
 40
0.2746265429
 40
0.3285147701
 40
0.3862610475
 40
0.4482190742
 40
0.5145822216
 40
0.585391119
 40
0.6605550141
 40
0.7398801137
 40
0.8231012882
 40
0.9099156628
 40
1.0
 40
1.0
 40
1.0
 40
1.0
 10
14.5342315821
 20
9.0351092536
 30
0.0
 10
14.5342925307
 20
9.0314498233
 30
0.0
 10
14.534071827
 20
9.0240905289
 30
0.0
 10
14.5326001436
 20
9.0130583803
 30
0.0
 10
14.529875221
 20
9.002033008
 30
0.0
 10
14.5257905672
 20
8.9910358091
 30
0.0
 10
14.5202528068
 20
8.9800901938
 30
0.0
 10
14.5131891363
 20
8.9692200485
 30
0.0
 10
14.5045509715
 20
8.9584463808
 30
0.0
 10
14.4943163404
 20
8.9477865789
 30
0.0
 10
14.4824916523
 20
8.9372544877
 30
0.0
 10
14.4691121935
 20
8.9268600101
 30
0.0
 10
14.4542389338
 20
8.9166101465
 30
0.0
 10
14.4379541961
 20
8.9065089692
 30
0.0
 10
14.4203560508
 20
8.8965575238
 30
0.0
 10
14.4015518375
 20
8.8867537352
 30
0.0
 10
14.381652392
 20
8.8770935333
 30
0.0
 10
14.3679649157
 20
8.8708529014
 30
0.0
 10
14.3609637636
 20
8.867745383
 30
0.0
  0
SPLINE
  5
2CE
100
AcDbEntity
  8
0
100
AcDbSpline
 62
7
  6
CONTINUOUS
 70
0
 71
3
 72
21
 73
17
 74
0
 42
0.0000001
 43
0.0000001
 44
0.0000000001
 40
0.0
 40
0.0
 40
0.0
 40
0.0
 40
0.1231153359
 40
0.184837322
 40
0.2466817013
 40
0.3086598058
 40
0.3707815459
 40
0.4330548007
 40
0.4954844141
 40
0.558071395
 40
0.6208128987
 40
0.6837027994
 40
0.7467321283
 40
0.809889664
 40
0.8731630859
 40
1.0
 40
1.0
 40
1.0
 40
1.0
 10
14.3508224645
 20
8.8360981576
 30
0.0
 10
14.3544790767
 20
8.8093374025
 30
0.0
 10
14.3589721169
 20
8.7690097985
 30
0.0
 10
14.3625537474
 20
8.7150037718
 30
0.0
 10
14.3639335991
 20
8.6743138556
 30
0.0
 10
14.3639037385
 20
8.6335123007
 30
0.0
 10
14.3623781405
 20
8.5926441026
 30
0.0
 10
14.3592916193
 20
8.5517641357
 30
0.0
 10
14.3546055793
 20
8.510933454
 30
0.0
 10
14.3483120384
 20
8.4702156132
 30
0.0
 10
14.3404361135
 20
8.4296716423
 30
0.0
 10
14.3310321924
 20
8.3893556993
 30
0.0
 10
14.320178948
 20
8.349312074
 30
0.0
 10
14.3079728407
 20
8.3095725457
 30
0.0
 10
14.2900254007
 20
8.256981503
 30
0.0
 10
14.2748832088
 20
8.2180939222
 30
0.0
 10
14.2641885552
 20
8.1924053341
 30
0.0
  0
SPLINE
  5
2CF
100
AcDbEntity
  8
0
100
AcDbSpline
 62
7
  6
CONTINUOUS
 70
0
 71
3
 72
23
 73
19
 74
0
 42
0.0000001
 43
0.0000001
 44
0.0000000001
 40
0.0
 40
0.0
 40
0.0
 40
0.0
 40
0.0681436223
 40
0.1355717925
 40
0.2022246133
 40
0.2680530577
 40
0.3330188589
 40
0.3971018651
 40
0.4603047619
 40
0.5226553367
 40
0.5842062484
 40
0.6450322154
 40
0.7052236803
 40
0.7648789131
 40
0.8240963959
 40
0.8829688942
 40
0.9415804852
 40
1.0
 40
1.0
 40
1.0
 40
1.0
 10
14.2641885552
 20
8.1487023701
 30
0.0
 10
14.2695172516
 20
8.1387996712
 30
0.0
 10
14.2798689747
 20
8.1189622974
 30
0.0
 10
14.2944523254
 20
8.0889397879
 30
0.0
 10
14.3079046117
 20
8.0588101006
 30
0.0
 10
14.3201143436
 20
8.0285922393
 30
0.0
 10
14.3309739015
 20
7.9983118955
 30
0.0
 10
14.3403864209
 20
7.968002869
 30
0.0
 10
14.3482726239
 20
7.9377057729
 30
0.0
 10
14.354577122
 20
7.9074661988
 30
0.0
 10
14.359273645
 20
7.8773319332
 30
0.0
 10
14.3623691037
 20
7.8473495704
 30
0.0
 10
14.3639014337
 20
7.8175605905
 30
0.0
 10
14.3639356
 20
7.7879986382
 30
0.0
 10
14.3625579283
 20
7.7586879772
 30
0.0
 10
14.3598694795
 20
7.7296426438
 30
0.0
 10
14.3559782399
 20
7.7008685378
 30
0.0
 10
14.3526504319
 20
7.6818391879
 30
0.0
 10
14.3508224645
 20
7.6723734173
 30
0.0
  0
SPLINE
  5
2D0
100
AcDbEntity
  8
0
100
AcDbSpline
 62
7
  6
CONTINUOUS
 70
0
 71
3
 72
21
 73
17
 74
0
 42
0.0000001
 43
0.0000001
 44
0.0000000001
 40
0.0
 40
0.0
 40
0.0
 40
0.0
 40
0.0721750434
 40
0.1408704233
 40
0.2690156223
 40
0.3293895806
 40
0.3879136836
 40
0.4451490293
 40
0.5016982119
 40
0.5581866935
 40
0.6152406903
 40
0.6734670847
 40
0.733434797
 40
0.8604758414
 40
0.9285177531
 40
1.0
 40
1.0
 40
1.0
 40
1.0
 10
13.6906955914
 20
7.7068009342
 30
0.0
 10
13.6921304209
 20
7.7053190463
 30
0.0
 10
13.6950219189
 20
7.7025118341
 30
0.0
 10
13.7009015225
 20
7.697553045
 30
0.0
 10
13.707055634
 20
7.693455429
 30
0.0
 10
13.7134326925
 20
7.6904033797
 30
0.0
 10
13.7181738548
 20
7.6886858884
 30
0.0
 10
13.7229624925
 20
7.6874983047
 30
0.0
 10
13.7277941963
 20
7.6868429013
 30
0.0
 10
13.7326634444
 20
7.6867204912
 30
0.0
 10
13.7375646646
 20
7.6871306664
 30
0.0
 10
13.7424929592
 20
7.6880727246
 30
0.0
 10
13.7492201837
 20
7.6900728682
 30
0.0
 10
13.7558793226
 20
7.6931427467
 30
0.0
 10
13.7623866395
 20
7.6971106802
 30
0.0
 10
13.7656378071
 20
7.6994265687
 30
0.0
 10
13.767263577
 20
7.7006636261
 30
0.0
  0
SPLINE
  5
2D1
100
AcDbEntity
  8
0
100
AcDbSpline
 62
7
  6
CONTINUOUS
 70
0
 71
3
 72
37
 73
33
 74
0
 42
0.0000001
 43
0.0000001
 44
0.0000000001
 40
0.0
 40
0.0
 40
0.0
 40
0.0
 40
0.0242160064
 40
0.0471276776
 40
0.0688728694
 40
0.0896181497
 40
0.1095643177
 40
0.1289412712
 40
0.1480010561
 40
0.1670091283
 40
0.1862325832
 40
0.2059292153
 40
0.2263374353
 40
0.2476687588
 40
0.2701059695
 40
0.2938027283
 40
0.3188839929
 40
0.3454511185
 40
0.3735850406
 40
0.4033469108
 40
0.4347832022
 40
0.4679286948
 40
0.5028057521
 40
0.5394275751
 40
0.5778008267
 40
0.6179236654
 40
0.6597872747
 40
0.7033790872
 40
0.7486826578
 40
0.7956778314
 40
0.8946424786
 40
1.0
 40
1.0
 40
1.0
 40
1.0
 10
13.8639634099
 20
9.0815925093
 30
0.0
 10
13.8623533927
 20
9.0832553305
 30
0.0
 10
13.8591062911
 20
9.0863844109
 30
0.0
 10
13.8540112945
 20
9.0905645197
 30
0.0
 10
13.8488376662
 20
9.09408943
 30
0.0
 10
13.8435896119
 20
9.0969525005
 30
0.0
 10
13.8382720615
 20
9.0991487529
 30
0.0
 10
13.8328907145
 20
9.1006738654
 30
0.0
 10
13.8274523496
 20
9.1015235351
 30
0.0
 10
13.8219652922
 20
9.101695849
 30
0.0
 10
13.8164381162
 20
9.1011913895
 30
0.0
 10
13.8108788838
 20
9.1000117528
 30
0.0
 10
13.8052945939
 20
9.0981604782
 30
0.0
 10
13.7996906177
 20
9.0956425405
 30
0.0
 10
13.7940717009
 20
9.0924620629
 30
0.0
 10
13.7884423035
 20
9.0886232065
 30
0.0
 10
13.7828062566
 20
9.0841309075
 30
0.0
 10
13.7771678684
 20
9.0789895777
 30
0.0
 10
13.7715319027
 20
9.0732037959
 30
0.0
 10
13.7659026641
 20
9.0667792809
 30
0.0
 10
13.7602849314
 20
9.0597218869
 30
0.0
 10
13.7546839598
 20
9.0520377679
 30
0.0
 10
13.7491045384
 20
9.0437341199
 30
0.0
 10
13.743551623
 20
9.0348186042
 30
0.0
 10
13.7380306328
 20
9.0252992296
 30
0.0
 10
13.7325466225
 20
9.015184967
 30
0.0
 10
13.7271045564
 20
9.0044854958
 30
0.0
 10
13.7217097713
 20
8.9932107221
 30
0.0
 10
13.7163672598
 20
8.9813709354
 30
0.0
 10
13.7091959316
 20
8.9645542461
 30
0.0
 10
13.7004263384
 20
8.9421854528
 30
0.0
 10
13.6939141155
 20
8.9237704327
 30
0.0
 10
13.6906955914
 20
8.9142286386
 30
0.0
  0
SPLINE
  5
2D2
100
AcDbEntity
  8
0
100
AcDbSpline
 62
7
  6
CONTINUOUS
 70
0
 71
3
 72
29
 73
25
 74
0
 42
0.0000001
 43
0.0000001
 44
0.0000000001
 40
0.0
 40
0.0
 40
0.0
 40
0.0
 40
0.0844109308
 40
0.167021196
 40
0.2475180268
 40
0.3256369966
 40
0.401116176
 40
0.4737019132
 40
0.5431596849
 40
0.6092721542
 40
0.6718401978
 40
0.7306888572
 40
0.7586717622
 40
0.7856716262
 40
0.8116742211
 40
0.8366682477
 40
0.8606452028
 40
0.8835986256
 40
0.9055261083
 40
0.9264302219
 40
0.9463170845
 40
0.9651968369
 40
0.9830842384
 40
1.0
 40
1.0
 40
1.0
 40
1.0
 10
13.593920383
 20
8.1951856257
 30
0.0
 10
13.5940391827
 20
8.1814120067
 30
0.0
 10
13.5945003361
 20
8.1541599225
 30
0.0
 10
13.5958858754
 20
8.1137917931
 30
0.0
 10
13.5979539852
 20
8.074480685
 30
0.0
 10
13.6006963299
 20
8.0363772371
 30
0.0
 10
13.6041019976
 20
7.9996233323
 30
0.0
 10
13.6081583444
 20
7.9643574747
 30
0.0
 10
13.6128495059
 20
7.9307126209
 30
0.0
 10
13.618157147
 20
7.8988148879
 30
0.0
 10
13.6240613875
 20
7.8687842571
 30
0.0
 10
13.6295472343
 20
7.8450247935
 30
0.0
 10
13.6342406317
 20
7.8270514896
 30
0.0
 10
13.6378360928
 20
7.8143338378
 30
0.0
 10
13.6415629913
 20
7.8021631899
 30
0.0
 10
13.6454177901
 20
7.790550939
 30
0.0
 10
13.6493965572
 20
7.7795078963
 30
0.0
 10
13.6534957289
 20
7.7690444529
 30
0.0
 10
13.6577116511
 20
7.7591702783
 30
0.0
 10
13.6620403155
 20
7.7498941269
 30
0.0
 10
13.6664780211
 20
7.7412244795
 30
0.0
 10
13.671020902
 20
7.7331696169
 30
0.0
 10
13.6756636971
 20
7.7257376417
 30
0.0
 10
13.6789117647
 20
7.721075093
 30
0.0
 10
13.6805542923
 20
7.7188566729
 30
0.0
  0
SPLINE
  5
2D3
100
AcDbEntity
  8
0
100
AcDbSpline
 62
7
  6
CONTINUOUS
 70
0
 71
3
 72
23
 73
19
 74
0
 42
0.0000001
 43
0.0000001
 44
0.0000000001
 40
0.0
 40
0.0
 40
0.0
 40
0.0
 40
0.0517124017
 40
0.105817437
 40
0.1621248898
 40
0.2204554779
 40
0.2806133097
 40
0.342391697
 40
0.4055775525
 40
0.4699511935
 40
0.5352873143
 40
0.6013557937
 40
0.6679239017
 40
0.7347566859
 40
0.801615562
 40
0.8682649978
 40
0.9344779167
 40
1.0
 40
1.0
 40
1.0
 40
1.0
 10
13.6805542923
 20
8.8825814132
 30
0.0
 10
13.6772816523
 20
8.8718390859
 30
0.0
 10
13.6708877348
 20
8.8497642873
 30
0.0
 10
13.6619205797
 20
8.815715564
 30
0.0
 10
13.6533859179
 20
8.7800763795
 30
0.0
 10
13.6453164116
 20
8.7429830779
 30
0.0
 10
13.6377420664
 20
8.7045740352
 30
0.0
 10
13.63069217
 20
8.664994052
 30
0.0
 10
13.6241933038
 20
8.6243925891
 30
0.0
 10
13.61826999
 20
8.5829227024
 30
0.0
 10
13.6129450133
 20
8.540740803
 30
0.0
 10
13.6082382178
 20
8.4980060595
 30
0.0
 10
13.6041675476
 20
8.4548796076
 30
0.0
 10
13.6007486064
 20
8.4115244441
 30
0.0
 10
13.5979938769
 20
8.3681043305
 30
0.0
 10
13.5959139893
 20
8.3247813751
 30
0.0
 10
13.5945171072
 20
8.2817215561
 30
0.0
 10
13.5940410918
 20
8.2531167347
 30
0.0
 10
13.593920383
 20
8.2388885898
 30
0.0
  0
SPLINE
  5
2D4
100
AcDbEntity
  8
0
100
AcDbSpline
 62
7
  6
CONTINUOUS
 70
0
 71
3
 72
55
 73
51
 74
0
 42
0.0000001
 43
0.0000001
 44
0.0000000001
 40
0.0
 40
0.0
 40
0.0
 40
0.0
 40
0.0544796836
 40
0.1080730038
 40
0.1606188057
 40
0.2119841062
 40
0.2620411187
 40
0.3106614428
 40
0.3577215751
 40
0.4031061635
 40
0.4467061545
 40
0.4884199557
 40
0.5281545703
 40
0.5658265035
 40
0.6013637281
 40
0.6347062423
 40
0.6658099984
 40
0.694647824
 40
0.7082163713
 40
0.7212192512
 40
0.7336600645
 40
0.7455452452
 40
0.7568838525
 40
0.7676875652
 40
0.7779714304
 40
0.7877550967
 40
0.7970627058
 40
0.8059233995
 40
0.8143724103
 40
0.8224520268
 40
0.8302114288
 40
0.8377068764
 40
0.8450017153
 40
0.8521653036
 40
0.8592710663
 40
0.8663944188
 40
0.8736102248
 40
0.8809901605
 40
0.888600879
 40
0.8965027645
 40
0.9047487914
 40
0.9133845833
 40
0.92244909
 40
0.9319750597
 40
0.9419890353
 40
0.9525126212
 40
0.9635634308
 40
0.9751553269
 40
0.9872983602
 40
1.0
 40
1.0
 40
1.0
 40
1.0
 10
14.336763301
 20
8.1892715036
 30
0.0
 10
14.336763301
 20
8.1787065387
 30
0.0
 10
14.3369119655
 20
8.1577481615
 30
0.0
 10
14.33759047
 20
8.1266064629
 30
0.0
 10
14.338721788
 20
8.0960821508
 30
0.0
 10
14.3403020509
 20
8.0662644367
 30
0.0
 10
14.3423269491
 20
8.0372365549
 30
0.0
 10
14.3447903187
 20
8.0090804384
 30
0.0
 10
14.3476854423
 20
7.9818763267
 30
0.0
 10
14.351003627
 20
7.955701454
 30
0.0
 10
14.354735464
 20
7.930629856
 30
0.0
 10
14.3588700952
 20
7.9067324527
 30
0.0
 10
14.3633955657
 20
7.8840767876
 30
0.0
 10
14.3682989363
 20
7.8627266902
 30
0.0
 10
14.373565825
 20
7.8427421461
 30
0.0
 10
14.3791815118
 20
7.8241788225
 30
0.0
 10
14.3851294998
 20
7.8070886699
 30
0.0
 10
14.3904524238
 20
7.793856593
 30
0.0
 10
14.3948846996
 20
7.7840665645
 30
0.0
 10
14.3982137754
 20
7.777271508
 30
0.0
 10
14.4016133007
 20
7.7708787623
 30
0.0
 10
14.4050808998
 20
7.7648926701
 30
0.0
 10
14.4086141176
 20
7.7593172369
 30
0.0
 10
14.412210667
 20
7.7541563571
 30
0.0
 10
14.4158684655
 20
7.7494137999
 30
0.0
 10
14.4195850239
 20
7.7450926853
 30
0.0
 10
14.4233580428
 20
7.7411959473
 30
0.0
 10
14.4271854242
 20
7.7377265844
 30
0.0
 10
14.4310651476
 20
7.7346875729
 30
0.0
 10
14.434994767
 20
7.7320812683
 30
0.0
 10
14.4389719261
 20
7.7299101811
 30
0.0
 10
14.4429941269
 20
7.7281771625
 30
0.0
 10
14.4470582943
 20
7.7268847875
 30
0.0
 10
14.4511606883
 20
7.7260346962
 30
0.0
 10
14.4552972709
 20
7.7256282756
 30
0.0
 10
14.4594636696
 20
7.7256665256
 30
0.0
 10
14.463655419
 20
7.7261489672
 30
0.0
 10
14.4678684678
 20
7.7270740501
 30
0.0
 10
14.4720992324
 20
7.7284401015
 30
0.0
 10
14.4763443974
 20
7.7302454395
 30
0.0
 10
14.4806012052
 20
7.7324875374
 30
0.0
 10
14.484867127
 20
7.7351639174
 30
0.0
 10
14.489139601
 20
7.7382723681
 30
0.0
 10
14.493415892
 20
7.7418106857
 30
0.0
 10
14.4976935842
 20
7.7457759573
 30
0.0
 10
14.5019700451
 20
7.7501652923
 30
0.0
 10
14.506242446
 20
7.754975781
 30
0.0
 10
14.5105078592
 20
7.7602042317
 30
0.0
 10
14.5147635835
 20
7.7658467227
 30
0.0
 10
14.5175298735
 20
7.7697927063
 30
0.0
 10
14.5189122199
 20
7.7718314054
 30
0.0
  0
SPLINE
  5
2D5
100
AcDbEntity
  8
0
100
AcDbSpline
 62
7
  6
CONTINUOUS
 70
0
 71
3
 72
9
 73
5
 74
0
 42
0.0000001
 43
0.0000001
 44
0.0000000001
 40
0.0
 40
0.0
 40
0.0
 40
0.0
 40
0.2415810799
 40
1.0
 40
1.0
 40
1.0
 40
1.0
 10
14.5189122199
 20
7.7718314054
 30
0.0
 10
14.5196832347
 20
7.7729685061
 30
0.0
 10
14.5228337162
 20
7.7777032058
 30
0.0
 10
14.5258251668
 20
7.7825430523
 30
0.0
 10
14.5280163026
 20
7.7862580754
 30
0.0
  0
SPLINE
  5
2D6
100
AcDbEntity
  8
0
100
AcDbSpline
 62
7
  6
CONTINUOUS
 70
0
 71
3
 72
11
 73
7
 74
0
 42
0.0000001
 43
0.0000001
 44
0.0000000001
 40
0.0
 40
0.0
 40
0.0
 40
0.0
 40
0.2707423955
 40
0.5275743428
 40
0.7705940619
 40
1.0
 40
1.0
 40
1.0
 40
1.0
 10
14.604750715
 20
8.8926866058
 30
0.0
 10
14.6034544091
 20
8.8958011863
 30
0.0
 10
14.6008293887
 20
8.9018298649
 30
0.0
 10
14.5966722321
 20
8.9104879192
 30
0.0
 10
14.592403505
 20
8.9185127734
 30
0.0
 10
14.5894007955
 20
8.9235792903
 30
0.0
 10
14.587878272
 20
8.9259985824
 30
0.0
  0
SPLINE
  5
2D7
100
AcDbEntity
  8
0
100
AcDbSpline
 62
7
  6
CONTINUOUS
 70
0
 71
3
 72
55
 73
51
 74
0
 42
0.0000001
 43
0.0000001
 44
0.0000000001
 40
0.0
 40
0.0
 40
0.0
 40
0.0
 40
0.0091577868
 40
0.0177618445
 40
0.0258372884
 40
0.0334170679
 40
0.0405430748
 40
0.0472684852
 40
0.0536583613
 40
0.0597898466
 40
0.0657516837
 40
0.0716409717
 40
0.0775587123
 40
0.0836043685
 40
0.0898706698
 40
0.0964402932
 40
0.0998623988
 40
0.1033856202
 40
0.1107605558
 40
0.1186142058
 40
0.126983132
 40
0.1358954139
 40
0.14537248
 40
0.1554292655
 40
0.1660758699
 40
0.1773187873
 40
0.1891604404
 40
0.2016004246
 40
0.2146363091
 40
0.2282628502
 40
0.2424730097
 40
0.257258518
 40
0.2726089663
 40
0.3049559727
 40
0.3394089097
 40
0.3758441812
 40
0.4141231893
 40
0.4540951793
 40
0.4955985596
 40
0.5384619526
 40
0.5825062071
 40
0.6275453385
 40
0.6733874576
 40
0.7198363195
 40
0.7666923239
 40
0.8137540635
 40
0.8608176619
 40
0.9076794905
 40
0.9541447315
 40
1.0
 40
1.0
 40
1.0
 40
1.0
 10
14.587878272
 20
8.9259985824
 30
0.0
 10
14.5864260854
 20
8.928306109
 30
0.0
 10
14.5834947639
 20
8.9327111813
 30
0.0
 10
14.578857236
 20
8.9388544918
 30
0.0
 10
14.5741231829
 20
8.9443173269
 30
0.0
 10
14.569297072
 20
8.94909346
 30
0.0
 10
14.5643822362
 20
8.9531764469
 30
0.0
 10
14.5593827749
 20
8.9565604078
 30
0.0
 10
14.5543030869
 20
8.9592393848
 30
0.0
 10
14.5491482022
 20
8.9612059968
 30
0.0
 10
14.5439257761
 20
8.9624543701
 30
0.0
 10
14.5386453315
 20
8.9629803937
 30
0.0
 10
14.5333177533
 20
8.9627816426
 30
0.0
 10
14.5279537829
 20
8.9618605343
 30
0.0
 10
14.5225625747
 20
8.9602219425
 30
0.0
 10
14.5181138478
 20
8.9582889108
 30
0.0
 10
14.5145554886
 20
8.9564079118
 30
0.0
 10
14.5108865117
 20
8.9542334047
 30
0.0
 10
14.5062879124
 20
8.9510543383
 30
0.0
 10
14.5008464228
 20
8.9466003811
 30
0.0
 10
14.4954039267
 20
8.9414563723
 30
0.0
 10
14.4899657566
 20
8.9356285399
 30
0.0
 10
14.4845376001
 20
8.9291228953
 30
0.0
 10
14.4791248039
 20
8.9219469131
 30
0.0
 10
14.4737330445
 20
8.9141085448
 30
0.0
 10
14.4683686343
 20
8.9056162297
 30
0.0
 10
14.4630372583
 20
8.896479657
 30
0.0
 10
14.4577448404
 20
8.8867091246
 30
0.0
 10
14.4524977574
 20
8.8763154769
 30
0.0
 10
14.4473017249
 20
8.8653106419
 30
0.0
 10
14.4421626432
 20
8.8537071603
 30
0.0
 10
14.4370866807
 20
8.8415181061
 30
0.0
 10
14.4302914162
 20
8.8242000821
 30
0.0
 10
14.4220250616
 20
8.8011753784
 30
0.0
 10
14.412611238
 20
8.7719123869
 30
0.0
 10
14.4035817889
 20
8.7406861207
 30
0.0
 10
14.3949783231
 20
8.7076397012
 30
0.0
 10
14.386840908
 20
8.672924215
 30
0.0
 10
14.3792074867
 20
8.6366987792
 30
0.0
 10
14.3721132216
 20
8.5991296413
 30
0.0
 10
14.3655910333
 20
8.560389291
 30
0.0
 10
14.3596712895
 20
8.5206556418
 30
0.0
 10
14.3543811613
 20
8.4801113202
 30
0.0
 10
14.3497451252
 20
8.4389427092
 30
0.0
 10
14.3457847279
 20
8.3973389122
 30
0.0
 10
14.3425181232
 20
8.3554913458
 30
0.0
 10
14.3399602843
 20
8.3135927584
 30
0.0
 10
14.3381229673
 20
8.2718340899
 30
0.0
 10
14.3370149579
 20
8.2304096736
 30
0.0
 10
14.336763301
 20
8.2029234983
 30
0.0
 10
14.336763301
 20
8.1892715036
 30
0.0
  0
SPLINE
  5
2D8
100
AcDbEntity
  8
0
100
AcDbSpline
 62
7
  6
CONTINUOUS
 70
0
 71
3
 72
9
 73
5
 74
0
 42
0.0000001
 43
0.0000001
 44
0.0000000001
 40
0.0
 40
0.0
 40
0.0
 40
0.0
 40
0.5149357862
 40
1.0
 40
1.0
 40
1.0
 40
1.0
 10
13.6805542923
 20
7.7188566729
 30
0.0
 10
13.6821642405
 20
7.7166822549
 30
0.0
 10
13.6854109424
 20
7.7125466864
 30
0.0
 10
13.6889227621
 20
7.7086319074
 30
0.0
 10
13.6906955914
 20
7.7068009342
 30
0.0
  0
SPLINE
  5
2D9
100
AcDbEntity
  8
0
100
AcDbSpline
 62
7
  6
CONTINUOUS
 70
0
 71
3
 72
35
 73
31
 74
0
 42
0.0000001
 43
0.0000001
 44
0.0000000001
 40
0.0
 40
0.0
 40
0.0
 40
0.0
 40
0.098316349
 40
0.1930001389
 40
0.2836538474
 40
0.3699089103
 40
0.4514266134
 40
0.4903145673
 40
0.5279075609
 40
0.5641746057
 40
0.5990879227
 40
0.6326219656
 40
0.6647562812
 40
0.6954743017
 40
0.7247632691
 40
0.7526174058
 40
0.7790364513
 40
0.8040269062
 40
0.82760544
 40
0.8497979764
 40
0.8706427725
 40
0.8901942807
 40
0.9085238917
 40
0.9257250509
 40
0.9339412659
 40
0.9419225179
 40
0.9572531826
 40
0.9719006461
 40
0.9860726095
 40
1.0
 40
1.0
 40
1.0
 40
1.0
 10
13.5401943004
 20
8.0579480876
 30
0.0
 10
13.5410892412
 20
8.0421406564
 30
0.0
 10
13.5431701283
 20
8.0111269446
 30
0.0
 10
13.5472645711
 20
7.9656274702
 30
0.0
 10
13.5522579079
 20
7.922171521
 30
0.0
 10
13.5581259632
 20
7.8809652302
 30
0.0
 10
13.5638065092
 20
7.8481667806
 30
0.0
 10
13.568795024
 20
7.8232154965
 30
0.0
 10
13.5726780015
 20
7.8054776375
 30
0.0
 10
13.5767565979
 20
7.7884411423
 30
0.0
 10
13.5810257557
 20
7.7721260349
 30
0.0
 10
13.5854808099
 20
7.7565516386
 30
0.0
 10
13.5901162074
 20
7.7417362158
 30
0.0
 10
13.5949262803
 20
7.7276970925
 30
0.0
 10
13.5999058367
 20
7.7144508358
 30
0.0
 10
13.6050486188
 20
7.7020127456
 30
0.0
 10
13.6103486169
 20
7.6903971864
 30
0.0
 10
13.6158002387
 20
7.6796177365
 30
0.0
 10
13.6213968161
 20
7.6696864626
 30
0.0
 10
13.6271324215
 20
7.6606146251
 30
0.0
 10
13.6330014166
 20
7.6524127543
 30
0.0
 10
13.6389975627
 20
7.6450895849
 30
0.0
 10
13.6451152764
 20
7.6386542476
 30
0.0
 10
13.6503896591
 20
7.6339679937
 30
0.0
 10
13.6546609192
 20
7.6306958465
 30
0.0
 10
13.6588441946
 20
7.627815484
 30
0.0
 10
13.6641505531
 20
7.6247527337
 30
0.0
 10
13.6707042129
 20
7.6219489568
 30
0.0
 10
13.6773479933
 20
7.6200738739
 30
0.0
 10
13.6818464475
 20
7.6194463088
 30
0.0
 10
13.6840839269
 20
7.6192911911
 30
0.0
  0
SPLINE
  5
2DA
100
AcDbEntity
  8
0
100
AcDbSpline
 62
7
  6
CONTINUOUS
 70
0
 71
3
 72
35
 73
31
 74
0
 42
0.0000001
 43
0.0000001
 44
0.0000000001
 40
0.0
 40
0.0
 40
0.0
 40
0.0
 40
0.0980432323
 40
0.1926441261
 40
0.2833708087
 40
0.36981806
 40
0.4113196486
 40
0.4516142723
 40
0.4906607088
 40
0.5284202782
 40
0.564858258
 40
0.5999417999
 40
0.6336421945
 40
0.6659350149
 40
0.696798832
 40
0.7262183987
 40
0.7541835904
 40
0.7806898152
 40
0.8057414792
 40
0.8293506729
 40
0.8515399878
 40
0.8723458004
 40
0.891818559
 40
0.9100282626
 40
0.9270678758
 40
0.9430563106
 40
0.9581444308
 40
0.9725159744
 40
0.9863868549
 40
1.0
 40
1.0
 40
1.0
 40
1.0
 10
13.5831354899
 20
8.7298365706
 30
0.0
 10
13.5861730251
 20
8.746350363
 30
0.0
 10
13.5924808833
 20
8.7787370124
 30
0.0
 10
13.6028367368
 20
8.8261535983
 30
0.0
 10
13.6138789856
 20
8.8713738153
 30
0.0
 10
13.6237342177
 20
8.907509815
 30
0.0
 10
13.6319417907
 20
8.9351304298
 30
0.0
 10
13.6381490931
 20
8.9548740234
 30
0.0
 10
13.6444837775
 20
8.9739029003
 30
0.0
 10
13.6509380238
 20
8.9921927005
 30
0.0
 10
13.6575030863
 20
9.009720187
 30
0.0
 10
13.6641708652
 20
9.0264629365
 30
0.0
 10
13.6709328071
 20
9.0423996228
 30
0.0
 10
13.6777798886
 20
9.0575101187
 30
0.0
 10
13.6847038465
 20
9.0717750947
 30
0.0
 10
13.6916955652
 20
9.0851766248
 30
0.0
 10
13.6987460265
 20
9.0976979284
 30
0.0
 10
13.7058468731
 20
9.1093230661
 30
0.0
 10
13.712988732
 20
9.1200378463
 30
0.0
 10
13.7201630427
 20
9.1298289895
 30
0.0
 10
13.7273615646
 20
9.1386842419
 30
0.0
 10
13.7345754146
 20
9.1465932476
 30
0.0
 10
13.7417972027
 20
9.1535459434
 30
0.0
 10
13.7490194898
 20
9.159533464
 30
0.0
 10
13.7562349999
 20
9.1645481129
 30
0.0
 10
13.7634378651
 20
9.1685808898
 30
0.0
 10
13.7706207196
 20
9.1716237
 30
0.0
 10
13.7777759588
 20
9.1736676318
 30
0.0
 10
13.7848908629
 20
9.1747028725
 30
0.0
 10
13.7896167399
 20
9.1747166778
 30
0.0
 10
13.7919425372
 20
9.1745554373
 30
0.0
  0
SPLINE
  5
2DB
100
AcDbEntity
  8
0
100
AcDbSpline
 62
7
  6
CONTINUOUS
 70
0
 71
3
 72
9
 73
5
 74
0
 42
0.0000001
 43
0.0000001
 44
0.0000000001
 40
0.0
 40
0.0
 40
0.0
 40
0.0
 40
0.5149357862
 40
1.0
 40
1.0
 40
1.0
 40
1.0
 10
14.3508224645
 20
7.6723734173
 30
0.0
 10
14.3524324127
 20
7.6701989993
 30
0.0
 10
14.3556791146
 20
7.6660634308
 30
0.0
 10
14.3591909343
 20
7.6621486518
 30
0.0
 10
14.3609637636
 20
7.6603176786
 30
0.0
  0
SPLINE
  5
2DC
100
AcDbEntity
  8
0
100
AcDbSpline
 62
7
  6
CONTINUOUS
 70
0
 71
3
 72
15
 73
11
 74
0
 42
0.0000001
 43
0.0000001
 44
0.0000000001
 40
0.0
 40
0.0
 40
0.0
 40
0.0
 40
0.1273482789
 40
0.2538606571
 40
0.3795878378
 40
0.5046051156
 40
0.629017439
 40
0.7529533823
 40
0.8765605864
 40
1.0
 40
1.0
 40
1.0
 40
1.0
 10
9.317298172
 20
9.6149884231
 30
0.0
 10
9.317298172
 20
9.6084900981
 30
0.0
 10
9.3166777114
 20
9.595527119
 30
0.0
 10
9.3138717799
 20
9.5763319729
 30
0.0
 10
9.3092190584
 20
9.5576191192
 30
0.0
 10
9.3027615756
 20
9.5395635679
 30
0.0
 10
9.2945585559
 20
9.5223318263
 30
0.0
 10
9.2846848308
 20
9.5060829918
 30
0.0
 10
9.2732332085
 20
9.4909693173
 30
0.0
 10
9.2646107087
 20
9.4817370095
 30
0.0
 10
9.2600802372
 20
9.47736088
 30
0.0
  0
SPLINE
  5
2DD
100
AcDbEntity
  8
0
100
AcDbSpline
 62
7
  6
CONTINUOUS
 70
0
 71
3
 72
15
 73
11
 74
0
 42
0.0000001
 43
0.0000001
 44
0.0000000001
 40
0.0
 40
0.0
 40
0.0
 40
0.0
 40
0.1273482789
 40
0.2538606571
 40
0.3795878378
 40
0.5046051156
 40
0.629017439
 40
0.7529533823
 40
0.8765605864
 40
1.0
 40
1.0
 40
1.0
 40
1.0
 10
9.317298172
 20
6.9586922435
 30
0.0
 10
9.317298172
 20
6.9521939184
 30
0.0
 10
9.3166777114
 20
6.9392309393
 30
0.0
 10
9.3138717799
 20
6.9200357932
 30
0.0
 10
9.3092190584
 20
6.9013229395
 30
0.0
 10
9.3027615756
 20
6.8832673882
 30
0.0
 10
9.2945585559
 20
6.8660356466
 30
0.0
 10
9.2846848308
 20
6.8497868121
 30
0.0
 10
9.2732332085
 20
6.8346731376
 30
0.0
 10
9.2646107087
 20
6.8254408298
 30
0.0
 10
9.2600802372
 20
6.8210647003
 30
0.0
  0
SPLINE
  5
2DE
100
AcDbEntity
  8
0
100
AcDbSpline
 62
7
  6
CONTINUOUS
 70
0
 71
3
 72
15
 73
11
 74
0
 42
0.0000001
 43
0.0000001
 44
0.0000000001
 40
0.0
 40
0.0
 40
0.0
 40
0.0
 40
0.1273482789
 40
0.2538606571
 40
0.3795878378
 40
0.5046051156
 40
0.629017439
 40
0.7529533823
 40
0.8765605864
 40
1.0
 40
1.0
 40
1.0
 40
1.0
 10
13.1810018213
 20
6.6907434853
 30
0.0
 10
13.1810018213
 20
6.6842451603
 30
0.0
 10
13.1803813606
 20
6.6712821811
 30
0.0
 10
13.1775754292
 20
6.652087035
 30
0.0
 10
13.1729227076
 20
6.6333741813
 30
0.0
 10
13.1664652248
 20
6.61531863
 30
0.0
 10
13.1582622052
 20
6.5980868884
 30
0.0
 10
13.14838848
 20
6.5818380539
 30
0.0
 10
13.1369368577
 20
6.5667243794
 30
0.0
 10
13.128314358
 20
6.5574920716
 30
0.0
 10
13.1237838864
 20
6.5531159421
 30
0.0
  0
SPLINE
  5
2DF
100
AcDbEntity
  8
0
100
AcDbSpline
 62
7
  6
CONTINUOUS
 70
0
 71
3
 72
15
 73
11
 74
0
 42
0.0000001
 43
0.0000001
 44
0.0000000001
 40
0.0
 40
0.0
 40
0.0
 40
0.0
 40
0.1273482789
 40
0.2538606571
 40
0.3795878378
 40
0.5046051156
 40
0.629017439
 40
0.7529533823
 40
0.8765605864
 40
1.0
 40
1.0
 40
1.0
 40
1.0
 10
13.1810018213
 20
9.347039665
 30
0.0
 10
13.1810018213
 20
9.34054134
 30
0.0
 10
13.1803813606
 20
9.3275783608
 30
0.0
 10
13.1775754292
 20
9.3083832147
 30
0.0
 10
13.1729227076
 20
9.289670361
 30
0.0
 10
13.1664652248
 20
9.2716148097
 30
0.0
 10
13.1582622052
 20
9.2543830681
 30
0.0
 10
13.14838848
 20
9.2381342336
 30
0.0
 10
13.1369368577
 20
9.2230205591
 30
0.0
 10
13.128314358
 20
9.2137882513
 30
0.0
 10
13.1237838864
 20
9.2094121218
 30
0.0
  0
SPLINE
  5
2E0
100
AcDbEntity
  8
0
100
AcDbSpline
 62
7
  6
CONTINUOUS
 70
0
 71
3
 72
15
 73
11
 74
0
 42
0.0000001
 43
0.0000001
 44
0.0000000001
 40
0.0
 40
0.0
 40
0.0
 40
0.0
 40
0.1273482808
 40
0.2538605196
 40
0.3795878971
 40
0.5046050835
 40
0.6290174393
 40
0.7529533827
 40
0.8765605876
 40
1.0
 40
1.0
 40
1.0
 40
1.0
 10
10.5474047672
 20
9.5905335655
 30
0.0
 10
10.5474047672
 20
9.5862064917
 30
0.0
 10
10.5469916248
 20
9.5775747692
 30
0.0
 10
10.5451232181
 20
9.5647931956
 30
0.0
 10
10.542025088
 20
9.5523327706
 30
0.0
 10
10.5377252123
 20
9.5403100213
 30
0.0
 10
10.5322630617
 20
9.5288358166
 30
0.0
 10
10.5256884088
 20
9.5180161075
 30
0.0
 10
10.5180630565
 20
9.5079522873
 30
0.0
 10
10.5123215649
 20
9.5018047062
 30
0.0
 10
10.509304839
 20
9.4988907471
 30
0.0
  0
SPLINE
  5
2E1
100
AcDbEntity
  8
0
100
AcDbSpline
 62
7
  6
CONTINUOUS
 70
0
 71
3
 72
15
 73
11
 74
0
 42
0.0000001
 43
0.0000001
 44
0.0000000001
 40
0.0
 40
0.0
 40
0.0
 40
0.0
 40
0.1273482808
 40
0.2538605196
 40
0.3795878971
 40
0.5046050835
 40
0.6290174393
 40
0.7529533827
 40
0.8765605876
 40
1.0
 40
1.0
 40
1.0
 40
1.0
 10
11.1511084444
 20
6.7706637735
 30
0.0
 10
11.1511084444
 20
6.7663366997
 30
0.0
 10
11.150695302
 20
6.7577049772
 30
0.0
 10
11.1488268953
 20
6.7449234036
 30
0.0
 10
11.1457287652
 20
6.7324629786
 30
0.0
 10
11.1414288895
 20
6.7204402293
 30
0.0
 10
11.1359667389
 20
6.7089660246
 30
0.0
 10
11.129392086
 20
6.6981463155
 30
0.0
 10
11.1217667338
 20
6.6880824953
 30
0.0
 10
11.1160252421
 20
6.6819349142
 30
0.0
 10
11.1130085162
 20
6.6790209551
 30
0.0
  0
SPLINE
  5
2E2
100
AcDbEntity
  8
0
100
AcDbSpline
 62
7
  6
CONTINUOUS
 70
0
 71
3
 72
15
 73
11
 74
0
 42
0.0000001
 43
0.0000001
 44
0.0000000001
 40
0.0
 40
0.0
 40
0.0
 40
0.0
 40
0.1273473901
 40
0.2538608346
 40
0.3795878351
 40
0.5046051039
 40
0.6290174461
 40
0.7529533848
 40
0.8765605883
 40
1.0
 40
1.0
 40
1.0
 40
1.0
 10
12.1020624104
 20
9.4218643673
 30
0.0
 10
12.1020624104
 20
9.4194621642
 30
0.0
 10
12.1018330429
 20
9.4146701691
 30
0.0
 10
12.1007958036
 20
9.4075743431
 30
0.0
 10
12.0990758282
 20
9.4006567948
 30
0.0
 10
12.0966887131
 20
9.3939822455
 30
0.0
 10
12.0936563356
 20
9.3876122238
 30
0.0
 10
12.0900063443
 20
9.3816055536
 30
0.0
 10
12.0857730513
 20
9.3760185198
 30
0.0
 10
12.0825856053
 20
9.3726056239
 30
0.0
 10
12.0809108384
 20
9.3709879096
 30
0.0
  0
SPLINE
  5
2E3
100
AcDbEntity
  8
0
100
AcDbSpline
 62
7
  6
CONTINUOUS
 70
0
 71
3
 72
15
 73
11
 74
0
 42
0.0000001
 43
0.0000001
 44
0.0000000001
 40
0.0
 40
0.0
 40
0.0
 40
0.0
 40
0.1273473901
 40
0.2538608346
 40
0.3795878351
 40
0.5046051039
 40
0.6290174461
 40
0.7529533848
 40
0.8765605883
 40
1.0
 40
1.0
 40
1.0
 40
1.0
 10
9.8833307223
 20
6.9194377528
 30
0.0
 10
9.8833307223
 20
6.9170355497
 30
0.0
 10
9.8831013548
 20
6.9122435546
 30
0.0
 10
9.8820641155
 20
6.9051477286
 30
0.0
 10
9.8803441401
 20
6.8982301803
 30
0.0
 10
9.877957025
 20
6.891555631
 30
0.0
 10
9.8749246475
 20
6.8851856093
 30
0.0
 10
9.8712746562
 20
6.8791789391
 30
0.0
 10
9.8670413631
 20
6.8735919053
 30
0.0
 10
9.8638539172
 20
6.8701790094
 30
0.0
 10
9.8621791502
 20
6.8685612951
 30
0.0
  0
SPLINE
  5
2E4
100
AcDbEntity
  8
0
100
AcDbSpline
 62
7
  6
CONTINUOUS
 70
0
 71
3
 72
41
 73
37
 74
0
 42
0.0000001
 43
0.0000001
 44
0.0000000001
 40
0.0
 40
0.0
 40
0.0
 40
0.0
 40
0.0309333752
 40
0.0464561907
 40
0.0620136263
 40
0.0932266134
 40
0.1245684191
 40
0.1402864994
 40
0.1560326845
 40
0.1875987381
 40
0.2192565561
 40
0.2509907605
 40
0.2827850897
 40
0.3146227578
 40
0.3464867909
 40
0.3783603305
 40
0.4102268998
 40
0.4420706318
 40
0.4738764592
 40
0.5056302698
 40
0.5373190299
 40
0.5689308809
 40
0.6004552138
 40
0.6318827262
 40
0.6632054655
 40
0.6944168637
 40
0.7255117648
 40
0.756486449
 40
0.7873386552
 40
0.8180676017
 40
0.8486740056
 40
0.8791601016
 40
0.9095296581
 40
0.9397879905
 40
0.9699419663
 40
1.0
 40
1.0
 40
1.0
 40
1.0
 10
9.8079885034
 20
9.3885672558
 30
0.0
 10
9.8151593861
 20
9.3880699534
 30
0.0
 10
9.8259078073
 20
9.3869554433
 30
0.0
 10
9.8401500005
 20
9.3847481293
 30
0.0
 10
9.8543748058
 20
9.3820533646
 30
0.0
 10
9.8720314802
 20
9.3777848301
 30
0.0
 10
9.8894047337
 20
9.3723540665
 30
0.0
 10
9.9031083833
 20
9.3673267873
 30
0.0
 10
9.9166912052
 20
9.3618409946
 30
0.0
 10
9.9333687151
 20
9.3541533567
 30
0.0
 10
9.9527970796
 20
9.3436623759
 30
0.0
 10
9.9715793501
 20
9.3319534881
 30
0.0
 10
9.9896401044
 20
9.3190883395
 30
0.0
 10
10.0069102975
 20
9.3051323715
 30
0.0
 10
10.0233265058
 20
9.2901543757
 30
0.0
 10
10.0388311484
 20
9.2742256525
 30
0.0
 10
10.0533723146
 20
9.2574193639
 30
0.0
 10
10.0669035908
 20
9.2398099361
 30
0.0
 10
10.0793838075
 20
9.2214725586
 30
0.0
 10
10.090776752
 20
9.2024827703
 30
0.0
 10
10.101050858
 20
9.1829161328
 30
0.0
 10
10.1101788888
 20
9.1628479841
 30
0.0
 10
10.1181376268
 20
9.1423532665
 30
0.0
 10
10.1249075805
 20
9.1215064195
 30
0.0
 10
10.1304727171
 20
9.1003813292
 30
0.0
 10
10.1348202267
 20
9.079051324
 30
0.0
 10
10.1379403248
 20
9.0575892089
 30
0.0
 10
10.139826094
 20
9.0360673287
 30
0.0
 10
10.1404733701
 20
9.0145576531
 30
0.0
 10
10.1398806721
 20
8.9931318712
 30
0.0
 10
10.1380491855
 20
8.9718615027
 30
0.0
 10
10.1349827676
 20
8.9508179657
 30
0.0
 10
10.1306880674
 20
8.9300727824
 30
0.0
 10
10.125174453
 20
8.909697219
 30
0.0
 10
10.1184548666
 20
8.8897639279
 30
0.0
 10
10.1131727465
 20
8.8767960913
 30
0.0
 10
10.1103368701
 20
8.8704130016
 30
0.0
  0
SPLINE
  5
2E5
100
AcDbEntity
  8
0
100
AcDbSpline
 62
7
  6
CONTINUOUS
 70
0
 71
3
 72
41
 73
37
 74
0
 42
0.0000001
 43
0.0000001
 44
0.0000000001
 40
0.0
 40
0.0
 40
0.0
 40
0.0
 40
0.0309333752
 40
0.0464561907
 40
0.0620136263
 40
0.0932266134
 40
0.1245684191
 40
0.1402864994
 40
0.1560326845
 40
0.1875987381
 40
0.2192565561
 40
0.2509907605
 40
0.2827850897
 40
0.3146227578
 40
0.3464867909
 40
0.3783603305
 40
0.4102268998
 40
0.4420706318
 40
0.4738764592
 40
0.5056302698
 40
0.5373190299
 40
0.5689308809
 40
0.6004552138
 40
0.6318827262
 40
0.6632054655
 40
0.6944168637
 40
0.7255117648
 40
0.756486449
 40
0.7873386552
 40
0.8180676017
 40
0.8486740056
 40
0.8791601016
 40
0.9095296581
 40
0.9397879905
 40
0.9699419663
 40
1.0
 40
1.0
 40
1.0
 40
1.0
 10
11.0153958578
 20
9.3048332713
 30
0.0
 10
11.0225667405
 20
9.3043359689
 30
0.0
 10
11.0333151617
 20
9.3032214589
 30
0.0
 10
11.0475573549
 20
9.3010141449
 30
0.0
 10
11.0617821602
 20
9.2983193802
 30
0.0
 10
11.0794388346
 20
9.2940508456
 30
0.0
 10
11.0968120881
 20
9.2886200821
 30
0.0
 10
11.1105157377
 20
9.2835928028
 30
0.0
 10
11.1240985596
 20
9.2781070102
 30
0.0
 10
11.1407760695
 20
9.2704193722
 30
0.0
 10
11.160204434
 20
9.2599283915
 30
0.0
 10
11.1789867045
 20
9.2482195037
 30
0.0
 10
11.1970474588
 20
9.2353543551
 30
0.0
 10
11.2143176519
 20
9.2213983871
 30
0.0
 10
11.2307338602
 20
9.2064203913
 30
0.0
 10
11.2462385028
 20
9.190491668
 30
0.0
 10
11.260779669
 20
9.1736853794
 30
0.0
 10
11.2743109452
 20
9.1560759517
 30
0.0
 10
11.2867911619
 20
9.1377385742
 30
0.0
 10
11.2981841064
 20
9.1187487859
 30
0.0
 10
11.3084582124
 20
9.0991821484
 30
0.0
 10
11.3175862432
 20
9.0791139996
 30
0.0
 10
11.3255449812
 20
9.058619282
 30
0.0
 10
11.3323149349
 20
9.0377724351
 30
0.0
 10
11.3378800715
 20
9.0166473448
 30
0.0
 10
11.3422275811
 20
8.9953173396
 30
0.0
 10
11.3453476792
 20
8.9738552244
 30
0.0
 10
11.3472334484
 20
8.9523333443
 30
0.0
 10
11.3478807245
 20
8.9308236687
 30
0.0
 10
11.3472880265
 20
8.9093978868
 30
0.0
 10
11.3454565399
 20
8.8881275183
 30
0.0
 10
11.342390122
 20
8.8670839813
 30
0.0
 10
11.3380954218
 20
8.8463387979
 30
0.0
 10
11.3325818074
 20
8.8259632346
 30
0.0
 10
11.325862221
 20
8.8060299434
 30
0.0
 10
11.3205801009
 20
8.7930621069
 30
0.0
 10
11.3177442245
 20
8.7866790171
 30
0.0
  0
SPLINE
  5
2E6
100
AcDbEntity
  8
0
100
AcDbSpline
 62
7
  6
CONTINUOUS
 70
0
 71
3
 72
39
 73
35
 74
0
 42
0.0000001
 43
0.0000001
 44
0.0000000001
 40
0.0
 40
0.0
 40
0.0
 40
0.0
 40
0.031035685
 40
0.0622167064
 40
0.0935340461
 40
0.1249822204
 40
0.1565500817
 40
0.1882255135
 40
0.2199942992
 40
0.2518406701
 40
0.2837476183
 40
0.3156971601
 40
0.3476706701
 40
0.3796492097
 40
0.4116138503
 40
0.443545978
 40
0.475427589
 40
0.5072415777
 40
0.5389720285
 40
0.570604468
 40
0.6021260932
 40
0.6335259789
 40
0.664795271
 40
0.6959273603
 40
0.7269180072
 40
0.7577654342
 40
0.7884703851
 40
0.8190361536
 40
0.8494685724
 40
0.879775946
 40
0.9099689385
 40
0.940060414
 40
0.9700652318
 40
1.0
 40
1.0
 40
1.0
 40
1.0
 10
12.0267201915
 20
9.0049205502
 30
0.0
 10
12.029460491
 20
9.0047305098
 30
0.0
 10
12.0349426864
 20
9.0041617178
 30
0.0
 10
12.0431064113
 20
9.0027531576
 30
0.0
 10
12.0511935758
 20
9.0007936736
 30
0.0
 10
12.0591658117
 20
8.998293066
 30
0.0
 10
12.0669862686
 20
8.9952632386
 30
0.0
 10
12.0746185885
 20
8.9917188755
 30
0.0
 10
12.0820275421
 20
8.987677015
 30
0.0
 10
12.089179062
 20
8.9831570255
 30
0.0
 10
12.0960404324
 20
8.9781804533
 30
0.0
 10
12.1025804259
 20
8.9727708892
 30
0.0
 10
12.1087694362
 20
8.9669538329
 30
0.0
 10
12.1145796351
 20
8.9607565804
 30
0.0
 10
12.1199850525
 20
8.9542080361
 30
0.0
 10
12.1249616623
 20
8.9473385588
 30
0.0
 10
12.1294874613
 20
8.9401798118
 30
0.0
 10
12.1335425359
 20
8.9327646109
 30
0.0
 10
12.1371091661
 20
8.9251267965
 30
0.0
 10
12.1401718301
 20
8.9173010537
 30
0.0
 10
12.1427172393
 20
8.9093227705
 30
0.0
 10
12.1447343663
 20
8.9012278959
 30
0.0
 10
12.1462144787
 20
8.8930528046
 30
0.0
 10
12.1471512006
 20
8.8848341621
 30
0.0
 10
12.1475404703
 20
8.8766087746
 30
0.0
 10
12.1473805569
 20
8.8684134606
 30
0.0
 10
12.1466720565
 20
8.8602849213
 30
0.0
 10
12.1454179248
 20
8.852259605
 30
0.0
 10
12.1436234928
 20
8.8443735677
 30
0.0
 10
12.1412964015
 20
8.8366623286
 30
0.0
 10
12.1384466383
 20
8.829160787
 30
0.0
 10
12.135086376
 20
8.8219028962
 30
0.0
 10
12.1312304916
 20
8.8149222187
 30
0.0
 10
12.1283371416
 20
8.8104691721
 30
0.0
 10
12.1268146203
 20
8.8083008841
 30
0.0
  0
SPLINE
  5
2E7
100
AcDbEntity
  8
0
100
AcDbSpline
 62
7
  6
CONTINUOUS
 70
0
 71
3
 72
23
 73
19
 74
0
 42
0.0000001
 43
0.0000001
 44
0.0000000001
 40
0.0
 40
0.0
 40
0.0
 40
0.0
 40
0.0637767638
 40
0.1273450118
 40
0.1907019674
 40
0.2538561101
 40
0.3168132145
 40
0.3795820843
 40
0.4421733868
 40
0.5045993403
 40
0.5668738673
 40
0.6290123789
 40
0.6910316481
 40
0.752949645
 40
0.8147853545
 40
0.8765586015
 40
0.9382898522
 40
1.0
 40
1.0
 40
1.0
 40
1.0
 10
10.7739143869
 20
7.4014918033
 30
0.0
 10
10.7739143869
 20
7.3957060444
 30
0.0
 10
10.7736374403
 20
7.3841514831
 30
0.0
 10
10.7723875314
 20
7.3668899458
 30
0.0
 10
10.770306382
 20
7.3497652164
 30
0.0
 10
10.7673990056
 20
7.3328175484
 30
0.0
 10
10.7636718769
 20
7.3160856573
 30
0.0
 10
10.7591336273
 20
7.2996082222
 30
0.0
 10
10.7537946974
 20
7.2834232047
 30
0.0
 10
10.747667334
 20
7.2675679307
 30
0.0
 10
10.7407656065
 20
7.252078984
 30
0.0
 10
10.733105433
 20
7.2369920757
 30
0.0
 10
10.7247044628
 20
7.2223420033
 30
0.0
 10
10.7155820264
 20
7.2081625625
 30
0.0
 10
10.7057591474
 20
7.1944865171
 30
0.0
 10
10.6952583881
 20
7.1813452906
 30
0.0
 10
10.6841043884
 20
7.1687695968
 30
0.0
 10
10.6762485376
 20
7.1607807115
 30
0.0
 10
10.672221949
 20
7.1568913289
 30
0.0
  0
SPLINE
  5
2E8
100
AcDbEntity
  8
0
100
AcDbSpline
 62
7
  6
CONTINUOUS
 70
0
 71
3
 72
23
 73
19
 74
0
 42
0.0000001
 43
0.0000001
 44
0.0000000001
 40
0.0
 40
0.0
 40
0.0
 40
0.0
 40
0.0610618024
 40
0.1221846196
 40
0.1834162198
 40
0.2447989988
 40
0.3063700346
 40
0.3372409647
 40
0.3681695875
 40
0.4302002013
 40
0.4924878092
 40
0.5237352409
 40
0.5550498205
 40
0.6178725502
 40
0.6809622659
 40
0.7443126248
 40
0.8717054977
 40
1.0
 40
1.0
 40
1.0
 40
1.0
 10
11.8735993233
 20
7.0707286056
 30
0.0
 10
11.8691615066
 20
7.0665985526
 30
0.0
 10
11.8599474644
 20
7.0586850539
 30
0.0
 10
11.8452200695
 20
7.0479444739
 30
0.0
 10
11.8296662797
 20
7.0383773795
 30
0.0
 10
11.8133808885
 20
7.0300221222
 30
0.0
 10
11.7992901127
 20
7.0240930633
 30
0.0
 10
11.7877531075
 20
7.019972716
 30
0.0
 10
11.7760305678
 20
7.0162599815
 30
0.0
 10
11.7610950317
 20
7.0123980182
 30
0.0
 10
11.7458983802
 20
7.0095715108
 30
0.0
 10
11.7336122604
 20
7.0079158393
 30
0.0
 10
11.721225713
 20
7.0066572868
 30
0.0
 10
11.7056267723
 20
7.0058286325
 30
0.0
 10
11.6868256846
 20
7.0059914959
 30
0.0
 10
11.6616704396
 20
7.007705118
 30
0.0
 10
11.6303025076
 20
7.0125672861
 30
0.0
 10
11.6057208525
 20
7.0191010342
 30
0.0
 10
11.5935872927
 20
7.0229759175
 30
0.0
  0
SPLINE
  5
2E9
100
AcDbEntity
  8
0
100
AcDbSpline
 62
7
  6
CONTINUOUS
 70
0
 71
3
 72
33
 73
29
 74
0
 42
0.0000001
 43
0.0000001
 44
0.0000000001
 40
0.0
 40
0.0
 40
0.0
 40
0.0
 40
0.0712719148
 40
0.1436234307
 40
0.2165538319
 40
0.2895565623
 40
0.3621245732
 40
0.4337546598
 40
0.4690634762
 40
0.5039531608
 40
0.5383639018
 40
0.5722369824
 40
0.6055149365
 40
0.6381416899
 40
0.6700627125
 40
0.7012251783
 40
0.7315781495
 40
0.7610727602
 40
0.7896623955
 40
0.8173029001
 40
0.8439528129
 40
0.8695736556
 40
0.8941302377
 40
0.9175910048
 40
0.9399284769
 40
0.9611197928
 40
0.9811474169
 40
1.0
 40
1.0
 40
1.0
 40
1.0
 10
13.5364799613
 20
8.1982571117
 30
0.0
 10
13.5364799613
 20
8.2204788541
 30
0.0
 10
13.5370006037
 20
8.2652604441
 30
0.0
 10
13.5392813845
 20
8.3327459323
 30
0.0
 10
13.5430531253
 20
8.4007052547
 30
0.0
 10
13.5482880142
 20
8.4686351893
 30
0.0
 10
13.5549472808
 20
8.5360328429
 30
0.0
 10
13.5616738773
 20
8.5916004511
 30
0.0
 10
13.5677398248
 20
8.6354037369
 30
0.0
 10
13.5725898304
 20
8.6676578445
 30
0.0
 10
13.5777528576
 20
8.6994098784
 30
0.0
 10
13.5832193565
 20
8.7306010689
 30
0.0
 10
13.5889791527
 20
8.7611736407
 30
0.0
 10
13.595021543
 20
8.7910709859
 30
0.0
 10
13.6013352943
 20
8.8202377473
 30
0.0
 10
13.6079086725
 20
8.8486199296
 30
0.0
 10
13.6147294522
 20
8.8761650077
 30
0.0
 10
13.6217849388
 20
8.9028220288
 30
0.0
 10
13.6290620041
 20
8.9285417031
 30
0.0
 10
13.6365471062
 20
8.953276495
 30
0.0
 10
13.6442263218
 20
8.9769807206
 30
0.0
 10
13.6520853595
 20
8.9996106515
 30
0.0
 10
13.660109593
 20
9.0211246007
 30
0.0
 10
13.668284113
 20
9.0414830206
 30
0.0
 10
13.6765937287
 20
9.0606485268
 30
0.0
 10
13.6850231346
 20
9.078586207
 30
0.0
 10
13.6935565632
 20
9.0952629897
 30
0.0
 10
13.6994845519
 20
9.1058416086
 30
0.0
 10
13.7024707111
 20
9.1109046009
 30
0.0
  0
SPLINE
  5
2EA
100
AcDbEntity
  8
0
100
AcDbSpline
 62
7
  6
CONTINUOUS
 70
0
 71
3
 72
15
 73
11
 74
0
 42
0.0000001
 43
0.0000001
 44
0.0000000001
 40
0.0
 40
0.0
 40
0.0
 40
0.0
 40
0.1343421808
 40
0.2635230397
 40
0.3885925952
 40
0.5108022123
 40
0.6315454989
 40
0.7523136944
 40
0.8746310631
 40
1.0
 40
1.0
 40
1.0
 40
1.0
 10
9.6070501806
 20
9.3135203521
 30
0.0
 10
9.6078337504
 20
9.3141829088
 30
0.0
 10
9.6094198547
 20
9.315426253
 30
0.0
 10
9.6119041614
 20
9.317057233
 30
0.0
 10
9.614446226
 20
9.3184105948
 30
0.0
 10
9.617049745
 20
9.3194832541
 30
0.0
 10
9.619718686
 20
9.3202727111
 30
0.0
 10
9.6224567702
 20
9.3207773876
 30
0.0
 10
9.6252673774
 20
9.3209963248
 30
0.0
 10
9.6271622943
 20
9.32095286
 30
0.0
 10
9.6281175924
 20
9.3208865028
 30
0.0
  0
SPLINE
  5
2EB
100
AcDbEntity
  8
0
100
AcDbSpline
 62
7
  6
CONTINUOUS
 70
0
 71
3
 72
55
 73
51
 74
0
 42
0.0000001
 43
0.0000001
 44
0.0000000001
 40
0.0
 40
0.0
 40
0.0
 40
0.0
 40
0.0340922438
 40
0.0685672974
 40
0.1033107303
 40
0.1382131574
 40
0.1731795007
 40
0.2081340424
 40
0.2430234419
 40
0.2604353362
 40
0.2778215761
 40
0.3125124584
 40
0.3471130138
 40
0.3816538718
 40
0.3989189401
 40
0.4161866583
 40
0.4334634149
 40
0.4507555313
 40
0.4680689329
 40
0.4854082929
 40
0.5027770615
 40
0.5201767896
 40
0.5376065669
 40
0.5550628751
 40
0.5725391396
 40
0.5900254419
 40
0.6075086375
 40
0.6249723578
 40
0.6597531362
 40
0.6941901723
 40
0.7280654143
 40
0.7611420712
 40
0.7931751968
 40
0.8239194884
 40
0.8387345284
 40
0.8531382352
 40
0.8671026172
 40
0.8806008082
 40
0.8936073018
 40
0.9060985041
 40
0.9180530078
 40
0.9294520369
 40
0.9402803153
 40
0.9505266597
 40
0.9601849239
 40
0.9692555891
 40
0.9777470257
 40
0.9856777403
 40
0.9930798718
 40
1.0
 40
1.0
 40
1.0
 40
1.0
 10
9.8879350716
 20
8.8656757603
 30
0.0
 10
9.880506366
 20
8.8661909428
 30
0.0
 10
9.865586253
 20
8.8675529043
 30
0.0
 10
9.8432154383
 20
8.8705596203
 30
0.0
 10
9.8208193767
 20
8.8745555006
 30
0.0
 10
9.7985174409
 20
8.8795647338
 30
0.0
 10
9.7764283778
 20
8.8856232343
 30
0.0
 10
9.7546713521
 20
8.8927770501
 30
0.0
 10
9.736903427
 20
8.8997022123
 30
0.0
 10
9.722976216
 20
8.9058493805
 30
0.0
 10
9.7092829146
 20
8.9124011652
 30
0.0
 10
9.6926018565
 20
8.9213875148
 30
0.0
 10
9.6734143847
 20
8.9335139486
 30
0.0
 10
9.6582471902
 20
8.9447815976
 30
0.0
 10
9.6467021341
 20
8.9545000321
 30
0.0
 10
9.638354503
 20
8.9621458478
 30
0.0
 10
9.6303399993
 20
8.9701485832
 30
0.0
 10
9.6226804919
 20
8.9785055754
 30
0.0
 10
9.6153983038
 20
8.9872113655
 30
0.0
 10
9.608514838
 20
8.9962569358
 30
0.0
 10
9.6020507543
 20
9.005629845
 30
0.0
 10
9.5960253144
 20
9.0153139219
 30
0.0
 10
9.5904553386
 20
9.025288864
 30
0.0
 10
9.5853551199
 20
9.0355306118
 30
0.0
 10
9.5807358667
 20
9.0460115146
 30
0.0
 10
9.5766047546
 20
9.0567003538
 30
0.0
 10
9.5729649173
 20
9.0675634481
 30
0.0
 10
9.5687717184
 20
9.0822093128
 30
0.0
 10
9.5647450145
 20
9.1007344963
 30
0.0
 10
9.5617518071
 20
9.1230748128
 30
0.0
 10
9.5604526495
 20
9.1452014133
 30
0.0
 10
9.5606607939
 20
9.1668364588
 30
0.0
 10
9.5621699605
 20
9.1877310793
 30
0.0
 10
9.5643636626
 20
9.2045461492
 30
0.0
 10
9.5665917017
 20
9.2174538788
 30
0.0
 10
9.5684435266
 20
9.2267037037
 30
0.0
 10
9.5704749314
 20
9.2356208716
 30
0.0
 10
9.5726659386
 20
9.244185504
 30
0.0
 10
9.5749981725
 20
9.2523786986
 30
0.0
 10
9.5774554411
 20
9.2601825035
 30
0.0
 10
9.5800236135
 20
9.2675798886
 30
0.0
 10
9.5826905792
 20
9.2745548065
 30
0.0
 10
9.5854467344
 20
9.2810920402
 30
0.0
 10
9.5882847398
 20
9.2871773224
 30
0.0
 10
9.5911995283
 20
9.2927974192
 30
0.0
 10
9.5941887535
 20
9.2979399621
 30
0.0
 10
9.5972523879
 20
9.3025935691
 30
0.0
 10
9.6003932742
 20
9.3067481278
 30
0.0
 10
9.60361631
 20
9.3103932662
 30
0.0
 10
9.6058959709
 20
9.3125443965
 30
0.0
 10
9.6070501806
 20
9.3135203521
 30
0.0
  0
SPLINE
  5
2EC
100
AcDbEntity
  8
0
100
AcDbSpline
 62
7
  6
CONTINUOUS
 70
0
 71
3
 72
17
 73
13
 74
0
 42
0.0000001
 43
0.0000001
 44
0.0000000001
 40
0.0
 40
0.0
 40
0.0
 40
0.0
 40
0.0505194612
 40
0.1029432907
 40
0.213213035
 40
0.3303501337
 40
0.4538331757
 40
0.5831159597
 40
0.6497683658
 40
0.7176546092
 40
0.8568056746
 40
1.0
 40
1.0
 40
1.0
 40
1.0
 10
10.1132372868
 20
7.576250003
 30
0.0
 10
10.1132765382
 20
7.5788581779
 30
0.0
 10
10.1135006953
 20
7.584171694
 30
0.0
 10
10.1145296003
 20
7.5951361871
 30
0.0
 10
10.1169714765
 20
7.609402412
 30
0.0
 10
10.1217016899
 20
7.6269171677
 30
0.0
 10
10.1283239019
 20
7.6448575521
 30
0.0
 10
10.1353491686
 20
7.6598019827
 30
0.0
 10
10.1418860117
 20
7.6717563933
 30
0.0
 10
10.149160183
 20
7.6838758689
 30
0.0
 10
10.1593804298
 20
7.6988169882
 30
0.0
 10
10.1684986617
 20
7.7102108522
 30
0.0
 10
10.17331952
 20
7.7158165547
 30
0.0
  0
SPLINE
  5
2ED
100
AcDbEntity
  8
0
100
AcDbSpline
 62
7
  6
CONTINUOUS
 70
0
 71
3
 72
15
 73
11
 74
0
 42
0.0000001
 43
0.0000001
 44
0.0000000001
 40
0.0
 40
0.0
 40
0.0
 40
0.0
 40
0.1001891348
 40
0.2075475399
 40
0.322108956
 40
0.443840667
 40
0.5726446548
 40
0.7083819466
 40
0.8508989126
 40
1.0
 40
1.0
 40
1.0
 40
1.0
 10
10.1249990665
 20
7.5246876991
 30
0.0
 10
10.1240511782
 20
7.5262047461
 30
0.0
 10
10.1222453714
 20
7.5294479044
 30
0.0
 10
10.1198959862
 20
7.5347040747
 30
0.0
 10
10.117845686
 20
7.5404936466
 30
0.0
 10
10.1161271584
 20
7.5467873502
 30
0.0
 10
10.1147713993
 20
7.5535547295
 30
0.0
 10
10.1138075584
 20
7.5607632893
 30
0.0
 10
10.1132629291
 20
7.5683784766
 30
0.0
 10
10.1131972279
 20
7.5735881699
 30
0.0
 10
10.1132372868
 20
7.576250003
 30
0.0
  0
SPLINE
  5
2EE
100
AcDbEntity
  8
0
100
AcDbSpline
 62
7
  6
CONTINUOUS
 70
0
 71
3
 72
32
 73
28
 74
0
 42
0.0000001
 43
0.0000001
 44
0.0000000001
 40
0.0
 40
0.0
 40
0.0
 40
0.0
 40
0.0851787614
 40
0.1685807002
 40
0.2498832653
 40
0.3287741212
 40
0.4049545312
 40
0.4781407237
 40
0.5480664211
 40
0.5817295925
 40
0.6144870438
 40
0.6463116105
 40
0.6771777326
 40
0.7070617063
 40
0.7359416555
 40
0.7637979445
 40
0.7906130811
 40
0.8163723145
 40
0.8410635061
 40
0.8646779434
 40
0.8872102421
 40
0.9086594218
 40
0.9290289468
 40
0.948328137
 40
0.9665725098
 40
0.9837856371
 40
1.0
 40
1.0
 40
1.0
 40
1.0
 10
7.4053382841
 20
7.3753058908
 30
0.0
 10
7.4053382841
 20
7.3643037793
 30
0.0
 10
7.4055257626
 20
7.3425285289
 30
0.0
 10
7.4063856368
 20
7.3102620748
 30
0.0
 10
7.4078177723
 20
7.2788287026
 30
0.0
 10
7.40981597
 20
7.2483607984
 30
0.0
 10
7.4123715523
 20
7.2189864667
 30
0.0
 10
7.415473541
 20
7.1908293556
 30
0.0
 10
7.4185401044
 20
7.1682001246
 30
0.0
 10
7.4212696306
 20
7.1508012416
 30
0.0
 10
7.4234186903
 20
7.1382942104
 30
0.0
 10
7.4256932598
 20
7.1261767754
 30
0.0
 10
7.4280909745
 20
7.1144616581
 30
0.0
 10
7.4306092585
 20
7.1031611717
 30
0.0
 10
7.433245481
 20
7.0922871788
 30
0.0
 10
7.4359968028
 20
7.0818510819
 30
0.0
 10
7.4388603707
 20
7.0718638157
 30
0.0
 10
7.4418330912
 20
7.0623358173
 30
0.0
 10
7.4449119114
 20
7.0532770388
 30
0.0
 10
7.4480935066
 20
7.0446968931
 30
0.0
 10
7.4513746553
 20
7.0366042978
 30
0.0
 10
7.4547518402
 20
7.0290075845
 30
0.0
 10
7.4582217253
 20
7.0219145822
 30
0.0
 10
7.4617806526
 20
7.0153325127
 30
0.0
 10
7.4654253188
 20
7.0092680113
 30
0.0
 10
7.4691518361
 20
7.0037274363
 30
0.0
 10
7.4717649362
 20
7.0002862519
 30
0.0
 10
7.4730863919
 20
6.9986614557
 30
0.0
  0
SPLINE
  5
2EF
100
AcDbEntity
  8
0
100
AcDbSpline
 62
7
  6
CONTINUOUS
 70
0
 71
3
 72
40
 73
36
 74
0
 42
0.0000001
 43
0.0000001
 44
0.0000000001
 40
0.0
 40
0.0
 40
0.0
 40
0.0
 40
0.0071626229
 40
0.0146567641
 40
0.0224900299
 40
0.0306686382
 40
0.0391976632
 40
0.0480809304
 40
0.057320739
 40
0.0669183362
 40
0.0768740602
 40
0.0871873292
 40
0.0978569438
 40
0.1088808796
 40
0.1319798546
 40
0.1564577669
 40
0.1822792814
 40
0.2094023218
 40
0.2377788737
 40
0.2673557011
 40
0.2980749227
 40
0.3298744798
 40
0.3626885204
 40
0.3964477562
 40
0.4310798366
 40
0.466509658
 40
0.5026596479
 40
0.539450022
 40
0.5767990774
 40
0.6146234699
 40
0.69135667
 40
0.7689611838
 40
0.8467369066
 40
0.9239815346
 40
1.0
 40
1.0
 40
1.0
 40
1.0
 10
7.5427710836
 20
10.1344082664
 30
0.0
 10
7.5416208649
 20
10.1332972404
 30
0.0
 10
7.5393219522
 20
10.1309665275
 30
0.0
 10
7.5359524803
 20
10.1272418269
 30
0.0
 10
7.5325872667
 20
10.1232129814
 30
0.0
 10
7.5292285202
 20
10.1188825965
 30
0.0
 10
7.5258780687
 20
10.1142532365
 30
0.0
 10
7.5225378938
 20
10.1093275438
 30
0.0
 10
7.5192098715
 20
10.1041084467
 30
0.0
 10
7.5158960153
 20
10.0985990343
 30
0.0
 10
7.512598339
 20
10.092802579
 30
0.0
 10
7.5093187482
 20
10.0867225651
 30
0.0
 10
7.5060592443
 20
10.0803625797
 30
0.0
 10
7.5016741686
 20
10.0713739021
 30
0.0
 10
7.4962690945
 20
10.0594556513
 30
0.0
 10
7.4899905962
 20
10.0443159272
 30
0.0
 10
7.4838378052
 20
10.0281596825
 30
0.0
 10
7.4778256098
 20
10.0110256143
 30
0.0
 10
7.4719685497
 20
9.9929546099
 30
0.0
 10
7.4662808053
 20
9.9739899663
 30
0.0
 10
7.4607761521
 20
9.9541771551
 30
0.0
 10
7.455467927
 20
9.9335637335
 30
0.0
 10
7.4503689858
 20
9.9121992236
 30
0.0
 10
7.4454916597
 20
9.8901349908
 30
0.0
 10
7.4408477484
 20
9.867424102
 30
0.0
 10
7.436448486
 20
9.84412119
 30
0.0
 10
7.4323045157
 20
9.8202823224
 30
0.0
 10
7.4284258597
 20
9.795964888
 30
0.0
 10
7.4248218427
 20
9.7712273842
 30
0.0
 10
7.4203733421
 20
9.7376037513
 30
0.0
 10
7.4155678306
 20
9.6949651295
 30
0.0
 10
7.4110416258
 20
9.6433346953
 30
0.0
 10
7.407772621
 20
9.5914947617
 30
0.0
 10
7.4057921427
 20
9.5399443304
 30
0.0
 10
7.4053382841
 20
9.5057241837
 30
0.0
 10
7.4053382841
 20
9.488751724
 30
0.0
  0
SPLINE
  5
2F0
100
AcDbEntity
  8
0
100
AcDbSpline
 62
7
  6
CONTINUOUS
 70
0
 71
3
 72
41
 73
37
 74
0
 42
0.0000001
 43
0.0000001
 44
0.0000000001
 40
0.0
 40
0.0
 40
0.0
 40
0.0
 40
0.029942123
 40
0.0449237706
 40
0.0599145177
 40
0.0899291716
 40
0.1200145961
 40
0.1350933574
 40
0.1501974726
 40
0.1804849654
 40
0.2108989488
 40
0.2414525624
 40
0.2721557217
 40
0.3030149378
 40
0.3340332219
 40
0.3652100719
 40
0.3965415365
 40
0.4280203507
 40
0.4596361361
 40
0.4913756582
 40
0.5232231336
 40
0.5551605782
 40
0.5871681905
 40
0.6192247616
 40
0.6513081064
 40
0.6833955071
 40
0.7154641657
 40
0.7474916563
 40
0.7794563734
 40
0.811337967
 40
0.843117763
 40
0.8747791516
 40
0.9063079641
 40
0.9376927517
 40
0.9689251728
 40
1.0
 40
1.0
 40
1.0
 40
1.0
 10
8.9668953841
 20
9.7808845594
 30
0.0
 10
8.9703958015
 20
9.7842657262
 30
0.0
 10
8.9758527128
 20
9.7891326521
 30
0.0
 10
8.983495033
 20
9.795171434
 30
0.0
 10
8.9913807416
 20
9.8009097039
 30
0.0
 10
9.0016702902
 20
9.8074991305
 30
0.0
 10
9.0124601517
 20
9.8132629658
 30
0.0
 10
9.0213589819
 20
9.8173634104
 30
0.0
 10
9.0304416636
 20
9.8211253154
 30
0.0
 10
9.042094322
 20
9.8251704833
 30
0.0
 10
9.0564544798
 20
9.8289404928
 30
0.0
 10
9.0711279888
 20
9.8316112969
 30
0.0
 10
9.0860335329
 20
9.8331681543
 30
0.0
 10
9.1010892312
 20
9.8336027581
 30
0.0
 10
9.1162122424
 20
9.8329128958
 30
0.0
 10
9.131319446
 20
9.8311025524
 30
0.0
 10
9.146327834
 20
9.8281818529
 30
0.0
 10
9.1611549774
 20
9.824167007
 30
0.0
 10
9.1757194691
 20
9.8190802126
 30
0.0
 10
9.1899413656
 20
9.812949531
 30
0.0
 10
9.203742619
 20
9.8058087307
 30
0.0
 10
9.2170474995
 20
9.797697101
 30
0.0
 10
9.2297830057
 20
9.7886592365
 30
0.0
 10
9.2418792598
 20
9.7787447938
 30
0.0
 10
9.2532698863
 20
9.7680082203
 30
0.0
 10
9.2638923727
 20
9.7565084582
 30
0.0
 10
9.2736884084
 20
9.744308624
 30
0.0
 10
9.282604202
 20
9.7314756655
 30
0.0
 10
9.2905907735
 20
9.718079999
 30
0.0
 10
9.2976042224
 20
9.704195125
 30
0.0
 10
9.3036059647
 20
9.689897239
 30
0.0
 10
9.3085629499
 20
9.6752647837
 30
0.0
 10
9.3124478322
 20
9.6603781565
 30
0.0
 10
9.3152391426
 20
9.6453187848
 30
0.0
 10
9.3169213786
 20
9.6301704841
 30
0.0
 10
9.317298172
 20
9.6200392765
 30
0.0
 10
9.317298172
 20
9.6149884231
 30
0.0
  0
SPLINE
  5
2F1
100
AcDbEntity
  8
0
100
AcDbSpline
 62
7
  6
CONTINUOUS
 70
0
 71
3
 72
41
 73
37
 74
0
 42
0.0000001
 43
0.0000001
 44
0.0000000001
 40
0.0
 40
0.0
 40
0.0
 40
0.0
 40
0.029942123
 40
0.0449237706
 40
0.0599145177
 40
0.0899291716
 40
0.1200145961
 40
0.1350933574
 40
0.1501974726
 40
0.1804849654
 40
0.2108989488
 40
0.2414525624
 40
0.2721557217
 40
0.3030149378
 40
0.3340332219
 40
0.3652100719
 40
0.3965415365
 40
0.4280203507
 40
0.4596361361
 40
0.4913756582
 40
0.5232231336
 40
0.5551605782
 40
0.5871681905
 40
0.6192247616
 40
0.6513081064
 40
0.6833955071
 40
0.7154641657
 40
0.7474916563
 40
0.7794563734
 40
0.811337967
 40
0.843117763
 40
0.8747791516
 40
0.9063079641
 40
0.9376927517
 40
0.9689251728
 40
1.0
 40
1.0
 40
1.0
 40
1.0
 10
8.9668953841
 20
7.1245883798
 30
0.0
 10
8.9703958015
 20
7.1279695465
 30
0.0
 10
8.9758527128
 20
7.1328364724
 30
0.0
 10
8.983495033
 20
7.1388752543
 30
0.0
 10
8.9913807416
 20
7.1446135242
 30
0.0
 10
9.0016702902
 20
7.1512029508
 30
0.0
 10
9.0124601517
 20
7.1569667862
 30
0.0
 10
9.0213589819
 20
7.1610672308
 30
0.0
 10
9.0304416636
 20
7.1648291357
 30
0.0
 10
9.042094322
 20
7.1688743037
 30
0.0
 10
9.0564544798
 20
7.1726443131
 30
0.0
 10
9.0711279888
 20
7.1753151172
 30
0.0
 10
9.0860335329
 20
7.1768719746
 30
0.0
 10
9.1010892312
 20
7.1773065784
 30
0.0
 10
9.1162122424
 20
7.1766167161
 30
0.0
 10
9.131319446
 20
7.1748063727
 30
0.0
 10
9.146327834
 20
7.1718856733
 30
0.0
 10
9.1611549774
 20
7.1678708273
 30
0.0
 10
9.1757194691
 20
7.1627840329
 30
0.0
 10
9.1899413656
 20
7.1566533513
 30
0.0
 10
9.203742619
 20
7.149512551
 30
0.0
 10
9.2170474995
 20
7.1414009213
 30
0.0
 10
9.2297830057
 20
7.1323630568
 30
0.0
 10
9.2418792598
 20
7.1224486141
 30
0.0
 10
9.2532698863
 20
7.1117120406
 30
0.0
 10
9.2638923727
 20
7.1002122785
 30
0.0
 10
9.2736884084
 20
7.0880124443
 30
0.0
 10
9.282604202
 20
7.0751794858
 30
0.0
 10
9.2905907735
 20
7.0617838193
 30
0.0
 10
9.2976042224
 20
7.0478989453
 30
0.0
 10
9.3036059647
 20
7.0336010593
 30
0.0
 10
9.3085629499
 20
7.018968604
 30
0.0
 10
9.3124478322
 20
7.0040819768
 30
0.0
 10
9.3152391426
 20
6.9890226051
 30
0.0
 10
9.3169213786
 20
6.9738743044
 30
0.0
 10
9.317298172
 20
6.9637430968
 30
0.0
 10
9.317298172
 20
6.9586922435
 30
0.0
  0
SPLINE
  5
2F2
100
AcDbEntity
  8
0
100
AcDbSpline
 62
7
  6
CONTINUOUS
 70
0
 71
3
 72
41
 73
37
 74
0
 42
0.0000001
 43
0.0000001
 44
0.0000000001
 40
0.0
 40
0.0
 40
0.0
 40
0.0
 40
0.029942123
 40
0.0449237706
 40
0.0599145177
 40
0.0899291716
 40
0.1200145961
 40
0.1350933574
 40
0.1501974726
 40
0.1804849654
 40
0.2108989488
 40
0.2414525624
 40
0.2721557217
 40
0.3030149378
 40
0.3340332219
 40
0.3652100719
 40
0.3965415365
 40
0.4280203507
 40
0.4596361361
 40
0.4913756582
 40
0.5232231336
 40
0.5551605782
 40
0.5871681905
 40
0.6192247616
 40
0.6513081064
 40
0.6833955071
 40
0.7154641657
 40
0.7474916563
 40
0.7794563734
 40
0.811337967
 40
0.843117763
 40
0.8747791516
 40
0.9063079641
 40
0.9376927517
 40
0.9689251728
 40
1.0
 40
1.0
 40
1.0
 40
1.0
 10
12.8305990333
 20
6.8566396216
 30
0.0
 10
12.8340994507
 20
6.8600207884
 30
0.0
 10
12.839556362
 20
6.8648877142
 30
0.0
 10
12.8471986822
 20
6.8709264961
 30
0.0
 10
12.8550843908
 20
6.876664766
 30
0.0
 10
12.8653739394
 20
6.8832541926
 30
0.0
 10
12.876163801
 20
6.889018028
 30
0.0
 10
12.8850626312
 20
6.8931184726
 30
0.0
 10
12.8941453128
 20
6.8968803776
 30
0.0
 10
12.9057979713
 20
6.9009255455
 30
0.0
 10
12.920158129
 20
6.9046955549
 30
0.0
 10
12.9348316381
 20
6.9073663591
 30
0.0
 10
12.9497371822
 20
6.9089232165
 30
0.0
 10
12.9647928805
 20
6.9093578203
 30
0.0
 10
12.9799158916
 20
6.9086679579
 30
0.0
 10
12.9950230953
 20
6.9068576146
 30
0.0
 10
13.0100314832
 20
6.9039369151
 30
0.0
 10
13.0248586266
 20
6.8999220692
 30
0.0
 10
13.0394231184
 20
6.8948352747
 30
0.0
 10
13.0536450149
 20
6.8887045931
 30
0.0
 10
13.0674462682
 20
6.8815637929
 30
0.0
 10
13.0807511488
 20
6.8734521631
 30
0.0
 10
13.093486655
 20
6.8644142987
 30
0.0
 10
13.105582909
 20
6.8544998559
 30
0.0
 10
13.1169735355
 20
6.8437632824
 30
0.0
 10
13.1275960219
 20
6.8322635203
 30
0.0
 10
13.1373920576
 20
6.8200636862
 30
0.0
 10
13.1463078512
 20
6.8072307277
 30
0.0
 10
13.1542944228
 20
6.7938350612
 30
0.0
 10
13.1613078716
 20
6.7799501871
 30
0.0
 10
13.1673096139
 20
6.7656523011
 30
0.0
 10
13.1722665992
 20
6.7510198459
 30
0.0
 10
13.1761514814
 20
6.7361332186
 30
0.0
 10
13.1789427919
 20
6.721073847
 30
0.0
 10
13.1806250278
 20
6.7059255462
 30
0.0
 10
13.1810018213
 20
6.6957943386
 30
0.0
 10
13.1810018213
 20
6.6907434853
 30
0.0
  0
SPLINE
  5
2F3
100
AcDbEntity
  8
0
100
AcDbSpline
 62
7
  6
CONTINUOUS
 70
0
 71
3
 72
41
 73
37
 74
0
 42
0.0000001
 43
0.0000001
 44
0.0000000001
 40
0.0
 40
0.0
 40
0.0
 40
0.0
 40
0.029942123
 40
0.0449237706
 40
0.0599145177
 40
0.0899291716
 40
0.1200145961
 40
0.1350933574
 40
0.1501974726
 40
0.1804849654
 40
0.2108989488
 40
0.2414525624
 40
0.2721557217
 40
0.3030149378
 40
0.3340332219
 40
0.3652100719
 40
0.3965415365
 40
0.4280203507
 40
0.4596361361
 40
0.4913756582
 40
0.5232231336
 40
0.5551605782
 40
0.5871681905
 40
0.6192247616
 40
0.6513081064
 40
0.6833955071
 40
0.7154641657
 40
0.7474916563
 40
0.7794563734
 40
0.811337967
 40
0.843117763
 40
0.8747791516
 40
0.9063079641
 40
0.9376927517
 40
0.9689251728
 40
1.0
 40
1.0
 40
1.0
 40
1.0
 10
12.8305990333
 20
9.5129358013
 30
0.0
 10
12.8340994507
 20
9.516316968
 30
0.0
 10
12.839556362
 20
9.5211838939
 30
0.0
 10
12.8471986822
 20
9.5272226758
 30
0.0
 10
12.8550843908
 20
9.5329609457
 30
0.0
 10
12.8653739394
 20
9.5395503723
 30
0.0
 10
12.876163801
 20
9.5453142077
 30
0.0
 10
12.8850626312
 20
9.5494146523
 30
0.0
 10
12.8941453128
 20
9.5531765573
 30
0.0
 10
12.9057979713
 20
9.5572217252
 30
0.0
 10
12.920158129
 20
9.5609917346
 30
0.0
 10
12.9348316381
 20
9.5636625388
 30
0.0
 10
12.9497371822
 20
9.5652193962
 30
0.0
 10
12.9647928805
 20
9.565654
 30
0.0
 10
12.9799158916
 20
9.5649641376
 30
0.0
 10
12.9950230953
 20
9.5631537942
 30
0.0
 10
13.0100314832
 20
9.5602330948
 30
0.0
 10
13.0248586266
 20
9.5562182489
 30
0.0
 10
13.0394231184
 20
9.5511314544
 30
0.0
 10
13.0536450149
 20
9.5450007728
 30
0.0
 10
13.0674462682
 20
9.5378599725
 30
0.0
 10
13.0807511488
 20
9.5297483428
 30
0.0
 10
13.093486655
 20
9.5207104784
 30
0.0
 10
13.105582909
 20
9.5107960356
 30
0.0
 10
13.1169735355
 20
9.5000594621
 30
0.0
 10
13.1275960219
 20
9.4885597
 30
0.0
 10
13.1373920576
 20
9.4763598658
 30
0.0
 10
13.1463078512
 20
9.4635269074
 30
0.0
 10
13.1542944228
 20
9.4501312409
 30
0.0
 10
13.1613078716
 20
9.4362463668
 30
0.0
 10
13.1673096139
 20
9.4219484808
 30
0.0
 10
13.1722665992
 20
9.4073160256
 30
0.0
 10
13.1761514814
 20
9.3924293983
 30
0.0
 10
13.1789427919
 20
9.3773700267
 30
0.0
 10
13.1806250278
 20
9.3622217259
 30
0.0
 10
13.1810018213
 20
9.3520905183
 30
0.0
 10
13.1810018213
 20
9.347039665
 30
0.0
  0
SPLINE
  5
2F4
100
AcDbEntity
  8
0
100
AcDbSpline
 62
7
  6
CONTINUOUS
 70
0
 71
3
 72
40
 73
36
 74
0
 42
0.0000001
 43
0.0000001
 44
0.0000000001
 40
0.0
 40
0.0
 40
0.0
 40
0.0
 40
0.0299422973
 40
0.0449240327
 40
0.059914866
 40
0.089929696
 40
0.1200152967
 40
0.1501925739
 40
0.180480241
 40
0.2108943975
 40
0.2414481839
 40
0.2721515165
 40
0.3030109074
 40
0.3340293686
 40
0.3652063985
 40
0.3965380456
 40
0.4280170434
 40
0.4596330122
 40
0.4913727167
 40
0.5232203738
 40
0.5551580001
 40
0.587165795
 40
0.6192225506
 40
0.6513060818
 40
0.6833936709
 40
0.7154625181
 40
0.7474901959
 40
0.7794550985
 40
0.8113368727
 40
0.8431168595
 40
0.8747783985
 40
0.906307485
 40
0.9376922173
 40
0.9689252845
 40
1.0
 40
1.0
 40
1.0
 40
1.0
 10
10.3140795222
 20
9.7009997836
 30
0.0
 10
10.3164103684
 20
9.7032512278
 30
0.0
 10
10.3200439806
 20
9.706492024
 30
0.0
 10
10.3251328437
 20
9.7105131016
 30
0.0
 10
10.3303837069
 20
9.7143341103
 30
0.0
 10
10.3372354725
 20
9.7187219415
 30
0.0
 10
10.345862329
 20
9.7233304259
 30
0.0
 10
10.3548513134
 20
9.7272599634
 30
0.0
 10
10.3641525587
 20
9.7304887769
 30
0.0
 10
10.3737148778
 20
9.7329992496
 30
0.0
 10
10.3834855704
 20
9.7347776633
 30
0.0
 10
10.3934108461
 20
9.7358143616
 30
0.0
 10
10.4034360869
 20
9.7361037694
 30
0.0
 10
10.413506157
 20
9.7356444236
 30
0.0
 10
10.4235657015
 20
9.7344389727
 30
0.0
 10
10.433559448
 20
9.732494156
 30
0.0
 10
10.4434325072
 20
9.7298207668
 30
0.0
 10
10.4531306722
 20
9.72643359
 30
0.0
 10
10.4626007106
 20
9.7223513127
 30
0.0
 10
10.4717906531
 20
9.7175964218
 30
0.0
 10
10.4806500735
 20
9.7121950795
 30
0.0
 10
10.4891303624
 20
9.7061769799
 30
0.0
 10
10.4971849896
 20
9.6995751871
 30
0.0
 10
10.5047697565
 20
9.6924259552
 30
0.0
 10
10.5118430357
 20
9.6847685311
 30
0.0
 10
10.5183659964
 20
9.6766449407
 30
0.0
 10
10.5243028207
 20
9.6680997652
 30
0.0
 10
10.5296208951
 20
9.6591798949
 30
0.0
 10
10.5342909925
 20
9.6499342734
 30
0.0
 10
10.5382874109
 20
9.6404136383
 30
0.0
 10
10.5415881714
 20
9.6306702172
 30
0.0
 10
10.544175004
 20
9.6207575657
 30
0.0
 10
10.5460337223
 20
9.6107298464
 30
0.0
 10
10.5471538509
 20
9.6006429401
 30
0.0
 10
10.5474047672
 20
9.5938967822
 30
0.0
 10
10.5474047672
 20
9.5905335655
 30
0.0
  0
SPLINE
  5
2F5
100
AcDbEntity
  8
0
100
AcDbSpline
 62
7
  6
CONTINUOUS
 70
0
 71
3
 72
40
 73
36
 74
0
 42
0.0000001
 43
0.0000001
 44
0.0000000001
 40
0.0
 40
0.0
 40
0.0
 40
0.0
 40
0.0299422973
 40
0.0449240327
 40
0.059914866
 40
0.089929696
 40
0.1200152967
 40
0.1501925739
 40
0.180480241
 40
0.2108943975
 40
0.2414481839
 40
0.2721515165
 40
0.3030109074
 40
0.3340293686
 40
0.3652063985
 40
0.3965380456
 40
0.4280170434
 40
0.4596330122
 40
0.4913727167
 40
0.5232203738
 40
0.5551580001
 40
0.587165795
 40
0.6192225506
 40
0.6513060818
 40
0.6833936709
 40
0.7154625181
 40
0.7474901959
 40
0.7794550985
 40
0.8113368727
 40
0.8431168595
 40
0.8747783985
 40
0.906307485
 40
0.9376922173
 40
0.9689252845
 40
1.0
 40
1.0
 40
1.0
 40
1.0
 10
10.9177831994
 20
6.8811299915
 30
0.0
 10
10.9201140456
 20
6.8833814358
 30
0.0
 10
10.9237476578
 20
6.886622232
 30
0.0
 10
10.9288365209
 20
6.8906433096
 30
0.0
 10
10.9340873841
 20
6.8944643183
 30
0.0
 10
10.9409391497
 20
6.8988521495
 30
0.0
 10
10.9495660062
 20
6.9034606339
 30
0.0
 10
10.9585549906
 20
6.9073901714
 30
0.0
 10
10.9678562359
 20
6.9106189849
 30
0.0
 10
10.977418555
 20
6.9131294576
 30
0.0
 10
10.9871892476
 20
6.9149078713
 30
0.0
 10
10.9971145233
 20
6.9159445696
 30
0.0
 10
11.0071397641
 20
6.9162339774
 30
0.0
 10
11.0172098342
 20
6.9157746316
 30
0.0
 10
11.0272693787
 20
6.9145691807
 30
0.0
 10
11.0372631252
 20
6.912624364
 30
0.0
 10
11.0471361844
 20
6.9099509748
 30
0.0
 10
11.0568343494
 20
6.906563798
 30
0.0
 10
11.0663043878
 20
6.9024815207
 30
0.0
 10
11.0754943303
 20
6.8977266298
 30
0.0
 10
11.0843537507
 20
6.8923252875
 30
0.0
 10
11.0928340396
 20
6.8863071879
 30
0.0
 10
11.1008886668
 20
6.8797053951
 30
0.0
 10
11.1084734337
 20
6.8725561632
 30
0.0
 10
11.1155467129
 20
6.8648987391
 30
0.0
 10
11.1220696736
 20
6.8567751487
 30
0.0
 10
11.1280064979
 20
6.8482299732
 30
0.0
 10
11.1333245723
 20
6.8393101029
 30
0.0
 10
11.1379946697
 20
6.8300644814
 30
0.0
 10
11.1419910881
 20
6.8205438463
 30
0.0
 10
11.1452918486
 20
6.8108004251
 30
0.0
 10
11.1478786812
 20
6.8008877737
 30
0.0
 10
11.1497373995
 20
6.7908600544
 30
0.0
 10
11.1508575281
 20
6.7807731481
 30
0.0
 10
11.1511084444
 20
6.7740269902
 30
0.0
 10
11.1511084444
 20
6.7706637735
 30
0.0
  0
SPLINE
  5
2F6
100
AcDbEntity
  8
0
100
AcDbSpline
 62
7
  6
CONTINUOUS
 70
0
 71
3
 72
39
 73
35
 74
0
 42
0.0000001
 43
0.0000001
 44
0.0000000001
 40
0.0
 40
0.0
 40
0.0
 40
0.0
 40
0.0299424796
 40
0.0599093277
 40
0.0899243268
 40
0.1200100989
 40
0.1501875564
 40
0.1804754082
 40
0.2108897438
 40
0.2414437065
 40
0.2721472214
 40
0.3030068034
 40
0.334025452
 40
0.3652026597
 40
0.3965344836
 40
0.4280136674
 40
0.4596298279
 40
0.4913697183
 40
0.5232175588
 40
0.5551553757
 40
0.587163368
 40
0.6192203146
 40
0.6513040285
 40
0.6833918015
 40
0.7154608406
 40
0.7474887097
 40
0.7794537919
 40
0.8113357643
 40
0.8431159187
 40
0.8747776681
 40
0.9063070433
 40
0.9376914486
 40
0.9689258945
 40
1.0
 40
1.0
 40
1.0
 40
1.0
 10
11.9725295446
 20
9.4831908262
 30
0.0
 10
11.9738235377
 20
9.4844407382
 30
0.0
 10
11.9765132577
 20
9.4868397077
 30
0.0
 10
11.9808226356
 20
9.4901078584
 30
0.0
 10
11.9853847498
 20
9.4930293896
 30
0.0
 10
11.9901741177
 20
9.4955879081
 30
0.0
 10
11.9951644151
 20
9.497769424
 30
0.0
 10
12.0003281064
 20
9.4995619249
 30
0.0
 10
12.0056367239
 20
9.5009556308
 30
0.0
 10
12.0110610212
 20
9.5019429397
 30
0.0
 10
12.0165711369
 20
9.5025184855
 30
0.0
 10
12.0221367519
 20
9.5026791457
 30
0.0
 10
12.0277272521
 20
9.5024241176
 30
0.0
 10
12.0333119078
 20
9.5017548944
 30
0.0
 10
12.0388600374
 20
9.50067522
 30
0.0
 10
12.0443411687
 20
9.499191072
 30
0.0
 10
12.0497251994
 20
9.4973106361
 30
0.0
 10
12.0549825836
 20
9.495044313
 30
0.0
 10
12.0600844744
 20
9.4924045923
 30
0.0
 10
12.0650028782
 20
9.489405994
 30
0.0
 10
12.0697107942
 20
9.4860649811
 30
0.0
 10
12.074182391
 20
9.4823999163
 30
0.0
 10
12.078393146
 20
9.4784309448
 30
0.0
 10
12.0823199531
 20
9.4741798546
 30
0.0
 10
12.0859412492
 20
9.4696699685
 30
0.0
 10
12.0892371282
 20
9.4649260222
 30
0.0
 10
12.0921895064
 20
9.4599740641
 30
0.0
 10
12.0947821597
 20
9.4548412669
 30
0.0
 10
12.0970008286
 20
9.449555797
 30
0.0
 10
12.0988332819
 20
9.4441466317
 30
0.0
 10
12.1002693494
 20
9.4386435385
 30
0.0
 10
12.1013012787
 20
9.433076509
 30
0.0
 10
12.1019230819
 20
9.4274766627
 30
0.0
 10
12.1020624104
 20
9.4237314432
 30
0.0
 10
12.1020624104
 20
9.4218643673
 30
0.0
  0
SPLINE
  5
2F7
100
AcDbEntity
  8
0
100
AcDbSpline
 62
7
  6
CONTINUOUS
 70
0
 71
3
 72
39
 73
35
 74
0
 42
0.0000001
 43
0.0000001
 44
0.0000000001
 40
0.0
 40
0.0
 40
0.0
 40
0.0
 40
0.0299424796
 40
0.0599093277
 40
0.0899243268
 40
0.1200100989
 40
0.1501875564
 40
0.1804754082
 40
0.2108897438
 40
0.2414437065
 40
0.2721472214
 40
0.3030068034
 40
0.334025452
 40
0.3652026597
 40
0.3965344836
 40
0.4280136674
 40
0.4596298279
 40
0.4913697183
 40
0.5232175588
 40
0.5551553757
 40
0.587163368
 40
0.6192203146
 40
0.6513040285
 40
0.6833918015
 40
0.7154608406
 40
0.7474887097
 40
0.7794537919
 40
0.8113357643
 40
0.8431159187
 40
0.8747776681
 40
0.9063070433
 40
0.9376914486
 40
0.9689258945
 40
1.0
 40
1.0
 40
1.0
 40
1.0
 10
9.7537978565
 20
6.9807642117
 30
0.0
 10
9.7550918496
 20
6.9820141237
 30
0.0
 10
9.7577815696
 20
6.9844130932
 30
0.0
 10
9.7620909475
 20
6.9876812439
 30
0.0
 10
9.7666530617
 20
6.9906027751
 30
0.0
 10
9.7714424295
 20
6.9931612936
 30
0.0
 10
9.776432727
 20
6.9953428095
 30
0.0
 10
9.7815964182
 20
6.9971353104
 30
0.0
 10
9.7869050357
 20
6.9985290162
 30
0.0
 10
9.7923293331
 20
6.9995163252
 30
0.0
 10
9.7978394488
 20
7.000091871
 30
0.0
 10
9.8034050637
 20
7.0002525312
 30
0.0
 10
9.808995564
 20
6.9999975031
 30
0.0
 10
9.8145802197
 20
6.9993282799
 30
0.0
 10
9.8201283493
 20
6.9982486055
 30
0.0
 10
9.8256094806
 20
6.9967644575
 30
0.0
 10
9.8309935112
 20
6.9948840216
 30
0.0
 10
9.8362508954
 20
6.9926176985
 30
0.0
 10
9.8413527863
 20
6.9899779778
 30
0.0
 10
9.84627119
 20
6.9869793795
 30
0.0
 10
9.8509791061
 20
6.9836383666
 30
0.0
 10
9.8554507029
 20
6.9799733018
 30
0.0
 10
9.8596614579
 20
6.9760043303
 30
0.0
 10
9.863588265
 20
6.9717532401
 30
0.0
 10
9.8672095611
 20
6.967243354
 30
0.0
 10
9.87050544
 20
6.9624994077
 30
0.0
 10
9.8734578183
 20
6.9575474496
 30
0.0
 10
9.8760504716
 20
6.9524146524
 30
0.0
 10
9.8782691404
 20
6.9471291825
 30
0.0
 10
9.8801015938
 20
6.9417200172
 30
0.0
 10
9.8815376612
 20
6.936216924
 30
0.0
 10
9.8825695906
 20
6.9306498945
 30
0.0
 10
9.8831913938
 20
6.9250500482
 30
0.0
 10
9.8833307223
 20
6.9213048287
 30
0.0
 10
9.8833307223
 20
6.9194377528
 30
0.0
  0
SPLINE
  5
2F8
100
AcDbEntity
  8
0
100
AcDbSpline
 62
7
  6
CONTINUOUS
 70
0
 71
3
 72
25
 73
21
 74
0
 42
0.0000001
 43
0.0000001
 44
0.0000000001
 40
0.0
 40
0.0
 40
0.0
 40
0.0
 40
0.0623465489
 40
0.0934585148
 40
0.1245318963
 40
0.1865705168
 40
0.2485109913
 40
0.2794627975
 40
0.3104060922
 40
0.3722784996
 40
0.4341855459
 40
0.4961744984
 40
0.5582923278
 40
0.6205844173
 40
0.6830931874
 40
0.7458567391
 40
0.8089074598
 40
0.8722712227
 40
0.935965125
 40
1.0
 40
1.0
 40
1.0
 40
1.0
 10
9.5056401366
 20
9.2038722746
 30
0.0
 10
9.5088277721
 20
9.2110471158
 30
0.0
 10
9.5139869748
 20
9.221639385
 30
0.0
 10
9.5216015856
 20
9.23535123
 30
0.0
 10
9.5296852607
 20
9.2487473604
 30
0.0
 10
9.5406775514
 20
9.2649065708
 30
0.0
 10
9.552820506
 20
9.2802013367
 30
0.0
 10
9.5631875922
 20
9.291854762
 30
0.0
 10
9.5739791615
 20
9.3031042381
 30
0.0
 10
9.5882575957
 20
9.3163909144
 30
0.0
 10
9.6065693552
 20
9.3309845943
 30
0.0
 10
9.6259799348
 20
9.3441384979
 30
0.0
 10
9.6463980936
 20
9.355765233
 30
0.0
 10
9.6677238036
 20
9.365784875
 30
0.0
 10
9.6898475814
 20
9.3741254545
 30
0.0
 10
9.7126513164
 20
9.3807246717
 30
0.0
 10
9.7360088676
 20
9.3855313133
 30
0.0
 10
9.7597879104
 20
9.3885063356
 30
0.0
 10
9.7838486518
 20
9.3896244198
 30
0.0
 10
9.7999441457
 20
9.3891251339
 30
0.0
 10
9.8079885034
 20
9.3885672558
 30
0.0
  0
SPLINE
  5
2F9
100
AcDbEntity
  8
0
100
AcDbSpline
 62
7
  6
CONTINUOUS
 70
0
 71
3
 72
25
 73
21
 74
0
 42
0.0000001
 43
0.0000001
 44
0.0000000001
 40
0.0
 40
0.0
 40
0.0
 40
0.0
 40
0.0623465489
 40
0.0934585148
 40
0.1245318963
 40
0.1865705168
 40
0.2485109913
 40
0.2794627975
 40
0.3104060922
 40
0.3722784996
 40
0.4341855459
 40
0.4961744984
 40
0.5582923278
 40
0.6205844173
 40
0.6830931874
 40
0.7458567391
 40
0.8089074598
 40
0.8722712227
 40
0.935965125
 40
1.0
 40
1.0
 40
1.0
 40
1.0
 10
10.713047491
 20
9.1201382901
 30
0.0
 10
10.7162351265
 20
9.1273131313
 30
0.0
 10
10.7213943292
 20
9.1379054006
 30
0.0
 10
10.72900894
 20
9.1516172456
 30
0.0
 10
10.7370926151
 20
9.165013376
 30
0.0
 10
10.7480849058
 20
9.1811725863
 30
0.0
 10
10.7602278604
 20
9.1964673523
 30
0.0
 10
10.7705949466
 20
9.2081207776
 30
0.0
 10
10.7813865159
 20
9.2193702537
 30
0.0
 10
10.7956649501
 20
9.2326569299
 30
0.0
 10
10.8139767096
 20
9.2472506099
 30
0.0
 10
10.8333872892
 20
9.2604045134
 30
0.0
 10
10.853805448
 20
9.2720312485
 30
0.0
 10
10.875131158
 20
9.2820508906
 30
0.0
 10
10.8972549358
 20
9.29039147
 30
0.0
 10
10.9200586708
 20
9.2969906872
 30
0.0
 10
10.943416222
 20
9.3017973289
 30
0.0
 10
10.9671952648
 20
9.3047723512
 30
0.0
 10
10.9912560062
 20
9.3058904354
 30
0.0
 10
11.0073515001
 20
9.3053911494
 30
0.0
 10
11.0153958578
 20
9.3048332713
 30
0.0
  0
SPLINE
  5
2FA
100
AcDbEntity
  8
0
100
AcDbSpline
 62
7
  6
CONTINUOUS
 70
0
 71
3
 72
21
 73
17
 74
0
 42
0.0000001
 43
0.0000001
 44
0.0000000001
 40
0.0
 40
0.0
 40
0.0
 40
0.0
 40
0.0619007618
 40
0.1237366836
 40
0.1855410966
 40
0.2473479814
 40
0.3091914522
 40
0.3711051515
 40
0.4331216473
 40
0.4952719492
 40
0.5575850139
 40
0.6200871899
 40
0.6828016334
 40
0.745748607
 40
0.872336424
 40
1.0
 40
1.0
 40
1.0
 40
1.0
 10
11.9266257626
 20
8.9582452617
 30
0.0
 10
11.9279950425
 20
8.9601953121
 30
0.0
 10
11.9308592298
 20
8.9640059337
 30
0.0
 10
11.9355156595
 20
8.9694277735
 30
0.0
 10
11.9405133053
 20
8.9745322106
 30
0.0
 10
11.9458337865
 20
8.9792995351
 30
0.0
 10
11.9514577677
 20
8.9837115933
 30
0.0
 10
11.957364639
 20
8.9877513426
 30
0.0
 10
11.9635325988
 20
8.9914031916
 30
0.0
 10
11.9699387637
 20
8.9946529672
 30
0.0
 10
11.9765593102
 20
8.9974879512
 30
0.0
 10
11.9833693945
 20
8.9998969759
 30
0.0
 10
11.9903437169
 20
9.0018706292
 30
0.0
 10
11.9998418324
 20
9.0039147236
 30
0.0
 10
12.0120023127
 20
9.0053408963
 30
0.0
 10
12.0218177496
 20
9.0052605357
 30
0.0
 10
12.0267201915
 20
9.0049205502
 30
0.0
  0
SPLINE
  5
2FB
100
AcDbEntity
  8
0
100
AcDbSpline
 62
7
  6
CONTINUOUS
 70
0
 71
3
 72
39
 73
35
 74
0
 42
0.0000001
 43
0.0000001
 44
0.0000000001
 40
0.0
 40
0.0
 40
0.0
 40
0.0
 40
0.029942471
 40
0.0599093185
 40
0.089924325
 40
0.1200101043
 40
0.1501875632
 40
0.1804754155
 40
0.2108897611
 40
0.2414437393
 40
0.2721472649
 40
0.3030068482
 40
0.3340255005
 40
0.3652027199
 40
0.3965345553
 40
0.4280137416
 40
0.4596298994
 40
0.4913697937
 40
0.523217641
 40
0.5551554573
 40
0.5871634413
 40
0.619220384
 40
0.6513040994
 40
0.6833918697
 40
0.715460897
 40
0.7474887556
 40
0.7794538398
 40
0.8113357995
 40
0.8431159588
 40
0.874777715
 40
0.9063068673
 40
0.9376920959
 40
0.968924654
 40
1.0
 40
1.0
 40
1.0
 40
1.0
 10
10.1511624121
 20
7.6963326683
 30
0.0
 10
10.1573835379
 20
7.7023418093
 30
0.0
 10
10.1703149813
 20
7.713875116
 30
0.0
 10
10.1910331588
 20
7.7295872066
 30
0.0
 10
10.2129664558
 20
7.7436327909
 30
0.0
 10
10.2359923156
 20
7.7559330823
 30
0.0
 10
10.2599841458
 20
7.7664208804
 30
0.0
 10
10.2848095406
 20
7.7750385305
 30
0.0
 10
10.3103317004
 20
7.7817388717
 30
0.0
 10
10.3364100146
 20
7.7864853223
 30
0.0
 10
10.3629008979
 20
7.7892521103
 30
0.0
 10
10.3896585762
 20
7.7900243649
 30
0.0
 10
10.4165358902
 20
7.7887981857
 30
0.0
 10
10.443385098
 20
7.7855806449
 30
0.0
 10
10.4700586789
 20
7.7803897323
 30
0.0
 10
10.4964101335
 20
7.7732542487
 30
0.0
 10
10.5222947842
 20
7.7642136568
 30
0.0
 10
10.5475705542
 20
7.7533178336
 30
0.0
 10
10.572098736
 20
7.7406267958
 30
0.0
 10
10.5957447406
 20
7.726210368
 30
0.0
 10
10.6183788256
 20
7.7101478016
 30
0.0
 10
10.6398767946
 20
7.6925273398
 30
0.0
 10
10.6601206857
 20
7.6734457541
 30
0.0
 10
10.6789994051
 20
7.6530078052
 30
0.0
 10
10.6964093242
 20
7.6313256676
 30
0.0
 10
10.7122548438
 20
7.6085183223
 30
0.0
 10
10.7264489131
 20
7.5847109135
 30
0.0
 10
10.7389135011
 20
7.5600340644
 30
0.0
 10
10.7495800368
 20
7.5346231923
 30
0.0
 10
10.7583897766
 20
7.5086177172
 30
0.0
 10
10.7652941655
 20
7.4821605037
 30
0.0
 10
10.7702549574
 20
7.4553963394
 30
0.0
 10
10.7732447509
 20
7.4284740869
 30
0.0
 10
10.7739143869
 20
7.4104684574
 30
0.0
 10
10.7739143869
 20
7.4014918033
 30
0.0
  0
SPLINE
  5
2FC
100
AcDbEntity
  8
0
100
AcDbSpline
 62
7
  6
CONTINUOUS
 70
0
 71
3
 72
23
 73
19
 74
0
 42
0.0000001
 43
0.0000001
 44
0.0000000001
 40
0.0
 40
0.0
 40
0.0
 40
0.0
 40
0.0864515413
 40
0.1691731396
 40
0.2481995233
 40
0.323581956
 40
0.3953912155
 40
0.4637201721
 40
0.5286879465
 40
0.5904433728
 40
0.649170263
 40
0.7050914475
 40
0.7584741501
 40
0.8096329286
 40
0.8589322205
 40
0.9067843533
 40
0.9536445388
 40
1.0
 40
1.0
 40
1.0
 40
1.0
 10
13.6044744326
 20
7.6946359187
 30
0.0
 10
13.6058369741
 20
7.6916379113
 30
0.0
 10
13.6085886801
 20
7.6858094842
 30
0.0
 10
13.612900231
 20
7.6773934835
 30
0.0
 10
13.6173015588
 20
7.6695031919
 30
0.0
 10
13.6217895806
 20
7.6621443338
 30
0.0
 10
13.6263612045
 20
7.6553220891
 30
0.0
 10
13.6310134211
 20
7.6490413254
 30
0.0
 10
13.635743168
 20
7.643306484
 30
0.0
 10
13.6405475459
 20
7.638121753
 30
0.0
 10
13.6454235946
 20
7.6334909521
 30
0.0
 10
13.6503685317
 20
7.6294178169
 30
0.0
 10
13.6553794099
 20
7.6259058183
 30
0.0
 10
13.6604533109
 20
7.6229585521
 30
0.0
 10
13.6655867675
 20
7.6205793685
 30
0.0
 10
13.6707761954
 20
7.6187717015
 30
0.0
 10
13.6760161289
 20
7.6175383744
 30
0.0
 10
13.679547954
 20
7.6170996756
 30
0.0
 10
13.6813094934
 20
7.6169775082
 30
0.0
  0
SPLINE
  5
2FD
100
AcDbEntity
  8
0
100
AcDbSpline
 62
7
  6
CONTINUOUS
 70
0
 71
3
 72
27
 73
23
 74
0
 42
0.0000001
 43
0.0000001
 44
0.0000000001
 40
0.0
 40
0.0
 40
0.0
 40
0.0
 40
0.0207060806
 40
0.0422074268
 40
0.0645009527
 40
0.0875820303
 40
0.1114442488
 40
0.1360799654
 40
0.1614800304
 40
0.1876342771
 40
0.2421571907
 40
0.2995474156
 40
0.3596875511
 40
0.4224475002
 40
0.4876858819
 40
0.5552512249
 40
0.6249830234
 40
0.6967126378
 40
0.7702642588
 40
0.8454554227
 40
0.9220984759
 40
1.0
 40
1.0
 40
1.0
 40
1.0
 10
13.6042554291
 20
7.6946830068
 30
0.0
 10
13.6029007528
 20
7.6979377419
 30
0.0
 10
13.6002275198
 20
7.7046091978
 30
0.0
 10
13.5963900359
 20
7.7148997652
 30
0.0
 10
13.5926516845
 20
7.7256557845
 30
0.0
 10
13.5890151462
 20
7.7368698888
 30
0.0
 10
13.5854827964
 20
7.7485344863
 30
0.0
 10
13.5820571529
 20
7.7606416523
 30
0.0
 10
13.5787404366
 20
7.7731831664
 30
0.0
 10
13.5744064289
 20
7.7907167423
 30
0.0
 10
13.5692962618
 20
7.8136655802
 30
0.0
 10
13.5637145327
 20
7.8424257626
 30
0.0
 10
13.558616919
 20
7.8726985776
 30
0.0
 10
13.5540175289
 20
7.9044015109
 30
0.0
 10
13.5499291442
 20
7.9374483534
 30
0.0
 10
13.5463631123
 20
7.9717490544
 30
0.0
 10
13.5433293379
 20
8.0072100997
 30
0.0
 10
13.5408362443
 20
8.043734764
 30
0.0
 10
13.5388907689
 20
8.0812233485
 30
0.0
 10
13.5374983174
 20
8.1195735866
 30
0.0
 10
13.5366627944
 20
8.1586806207
 30
0.0
 10
13.5364799613
 20
8.1849936615
 30
0.0
 10
13.5364799613
 20
8.1982571117
 30
0.0
  0
SPLINE
  5
2FE
100
AcDbEntity
  8
0
100
AcDbSpline
 62
7
  6
CONTINUOUS
 70
0
 71
3
 72
39
 73
35
 74
0
 42
0.0000001
 43
0.0000001
 44
0.0000000001
 40
0.0
 40
0.0
 40
0.0
 40
0.0
 40
0.0315010001
 40
0.0631045852
 40
0.0947978326
 40
0.1265677974
 40
0.1902646592
 40
0.2221883373
 40
0.254138336
 40
0.3180483496
 40
0.3819180958
 40
0.413817998
 40
0.4456715646
 40
0.5091674386
 40
0.5408079396
 40
0.5723525489
 40
0.6037889692
 40
0.6351052654
 40
0.6662901804
 40
0.6973335711
 40
0.7282269781
 40
0.7589643378
 40
0.7895428251
 40
0.8199637866
 40
0.8502336756
 40
0.8803648465
 40
0.895387996
 40
0.9103840544
 40
0.9253563961
 40
0.9403087314
 40
0.9552448049
 40
0.9701689318
 40
0.985086604
 40
1.0
 40
1.0
 40
1.0
 40
1.0
 10
11.6446117771
 20
7.6627801109
 30
0.0
 10
11.6521045411
 20
7.6603872776
 30
0.0
 10
11.6669718959
 20
7.6551346738
 30
0.0
 10
11.6888009306
 20
7.6459501651
 30
0.0
 10
11.7101355709
 20
7.6355132832
 30
0.0
 10
11.7378565686
 20
7.6200072754
 30
0.0
 10
11.7643375285
 20
7.6022589625
 30
0.0
 10
11.7893577254
 20
7.5825282385
 30
0.0
 10
11.8133827211
 20
7.5615133131
 30
0.0
 10
11.8413807213
 20
7.533009291
 30
0.0
 10
11.8663704601
 20
7.5018491983
 30
0.0
 10
11.884357094
 20
7.4755285287
 30
0.0
 10
11.9009101879
 20
7.4483952403
 30
0.0
 10
11.9152749431
 20
7.4200449118
 30
0.0
 10
11.9271913358
 20
7.3907300196
 30
0.0
 10
11.9348330862
 20
7.3683589942
 30
0.0
 10
11.9411225533
 20
7.345654745
 30
0.0
 10
11.9459936368
 20
7.3226949584
 30
0.0
 10
11.9493781983
 20
7.299567402
 30
0.0
 10
11.9512079871
 20
7.2763696595
 30
0.0
 10
11.9514160751
 20
7.2532108882
 30
0.0
 10
11.9499391366
 20
7.2302127555
 30
0.0
 10
11.9467204208
 20
7.2075102774
 30
0.0
 10
11.9417130847
 20
7.1852513175
 30
0.0
 10
11.9348853825
 20
7.1635974597
 30
0.0
 10
11.9276577476
 20
7.1461767716
 30
0.0
 10
11.9209651892
 20
7.132726263
 30
0.0
 10
11.9154986571
 20
7.1229070707
 30
0.0
 10
11.9095862874
 20
7.1133706223
 30
0.0
 10
11.9032353913
 20
7.1041384185
 30
0.0
 10
11.8964555029
 20
7.0952315762
 30
0.0
 10
11.8892573807
 20
7.0866703136
 30
0.0
 10
11.8816544508
 20
7.0784744868
 30
0.0
 10
11.8763252477
 20
7.0732654865
 30
0.0
 10
11.8735993233
 20
7.0707286056
 30
0.0
  0
SPLINE
  5
2FF
100
AcDbEntity
  8
0
100
AcDbSpline
 62
7
  6
CONTINUOUS
 70
0
 71
3
 72
41
 73
37
 74
0
 42
0.0000001
 43
0.0000001
 44
0.0000000001
 40
0.0
 40
0.0
 40
0.0
 40
0.0
 40
0.0303199412
 40
0.0455359949
 40
0.0607904786
 40
0.0914161966
 40
0.1222211358
 40
0.1376980029
 40
0.153222758
 40
0.1844087858
 40
0.2157843536
 40
0.2473408855
 40
0.2790643696
 40
0.3109359172
 40
0.3429324237
 40
0.3750273058
 40
0.4071912928
 40
0.4393932544
 40
0.4716010508
 40
0.5037823933
 40
0.5359057058
 40
0.5679409772
 40
0.5998605952
 40
0.6316401472
 40
0.6632591736
 40
0.6947018537
 40
0.7259575995
 40
0.7570215315
 40
0.7878948035
 40
0.8185847515
 40
0.8491048266
 40
0.8794743254
 40
0.9097177885
 40
0.9398644678
 40
0.9699466712
 40
1.0
 40
1.0
 40
1.0
 40
1.0
 10
12.4063123765
 20
7.3342924488
 30
0.0
 10
12.4094898183
 20
7.3357790072
 30
0.0
 10
12.4143724097
 20
7.3377855929
 30
0.0
 10
12.4210519361
 20
7.3399942302
 30
0.0
 10
12.4278621342
 20
7.341897522
 30
0.0
 10
12.4365662474
 20
7.3436855317
 30
0.0
 10
12.4454229826
 20
7.3446695031
 30
0.0
 10
12.452569508
 20
7.3449754099
 30
0.0
 10
12.4597666475
 20
7.3449595337
 30
0.0
 10
12.4687923641
 20
7.3443328966
 30
0.0
 10
12.4795605016
 20
7.3426237722
 30
0.0
 10
12.4902002751
 20
7.3399719818
 30
0.0
 10
12.5006278111
 20
7.3364003303
 30
0.0
 10
12.5107620606
 20
7.3319385446
 30
0.0
 10
12.5205244266
 20
7.3266229242
 30
0.0
 10
12.5298395002
 20
7.3204960081
 30
0.0
 10
12.5386354533
 20
7.3136062171
 30
0.0
 10
12.5468444836
 20
7.3060074897
 30
0.0
 10
12.554403214
 20
7.2977589062
 30
0.0
 10
12.5612530778
 20
7.2889243042
 30
0.0
 10
12.5673406863
 20
7.279571881
 30
0.0
 10
12.5726181851
 20
7.2697737811
 30
0.0
 10
12.5770435986
 20
7.2596056639
 30
0.0
 10
12.580581163
 20
7.2491462452
 30
0.0
 10
12.5832016468
 20
7.2384768109
 30
0.0
 10
12.5848826538
 20
7.2276806939
 30
0.0
 10
12.5856089035
 20
7.2168427139
 30
0.0
 10
12.5853724812
 20
7.2060485742
 30
0.0
 10
12.5841730496
 20
7.1953842166
 30
0.0
 10
12.5820180046
 20
7.1849351334
 30
0.0
 10
12.5789225866
 20
7.1747856437
 30
0.0
 10
12.5749098593
 20
7.1650181218
 30
0.0
 10
12.5700107854
 20
7.1557122807
 30
0.0
 10
12.5642636045
 20
7.1469441037
 30
0.0
 10
12.5577151579
 20
7.1387862868
 30
0.0
 10
12.5528478275
 20
7.1337966867
 30
0.0
 10
12.5503024392
 20
7.1314278217
 30
0.0
  0
SPLINE
  5
300
100
AcDbEntity
  8
0
100
AcDbSpline
 62
7
  6
CONTINUOUS
 70
0
 71
3
 72
23
 73
19
 74
0
 42
0.0000001
 43
0.0000001
 44
0.0000000001
 40
0.0
 40
0.0
 40
0.0
 40
0.0
 40
0.0864395091
 40
0.1691502864
 40
0.2481675422
 40
0.3235422598
 40
0.3953456391
 40
0.4636703051
 40
0.5286357199
 40
0.5903905021
 40
0.6491186952
 40
0.7050429222
 40
0.7584304891
 40
0.8095957119
 40
0.85890292
 40
0.9067641166
 40
0.9536342076
 40
1.0
 40
1.0
 40
1.0
 40
1.0
 10
13.7027411448
 20
9.1109951554
 30
0.0
 10
13.7045036
 20
9.1137734031
 30
0.0
 10
13.7080317057
 20
9.1191604206
 30
0.0
 10
13.7134609184
 20
9.1268922991
 30
0.0
 10
13.718906388
 20
9.134091671
 30
0.0
 10
13.7243643668
 20
9.1407532527
 30
0.0
 10
13.7298309996
 20
9.1468724037
 30
0.0
 10
13.7353027195
 20
9.152444672
 30
0.0
 10
13.7407758122
 20
9.1574661485
 30
0.0
 10
13.7462469016
 20
9.1619330322
 30
0.0
 10
13.7517124732
 20
9.1658420175
 30
0.0
 10
13.757169313
 20
9.1691897328
 30
0.0
 10
13.7626139837
 20
9.171973214
 30
0.0
 10
13.7680431374
 20
9.174189252
 30
0.0
 10
13.7734528575
 20
9.1758350643
 30
0.0
 10
13.7788391425
 20
9.1769077108
 30
0.0
 10
13.784196189
 20
9.1774051803
 30
0.0
 10
13.7877527913
 20
9.1773520921
 30
0.0
 10
13.7895133706
 20
9.1772299912
 30
0.0
  0
SPLINE
  5
301
100
AcDbEntity
  8
0
100
AcDbSpline
 62
7
  6
CONTINUOUS
 70
0
 71
3
 72
18
 73
14
 74
0
 42
0.0000001
 43
0.0000001
 44
0.0000000001
 40
0.0
 40
0.0
 40
0.0
 40
0.0
 40
0.1492435137
 40
0.2896566257
 40
0.4219550777
 40
0.485351101
 40
0.547069549
 40
0.6660129848
 40
0.7801156501
 40
0.8358360225
 40
0.8909169124
 40
0.9455668623
 40
1.0
 40
1.0
 40
1.0
 40
1.0
 10
7.4989617761
 20
6.9668463034
 30
0.0
 10
7.5002848691
 20
6.9652195032
 30
0.0
 10
7.5029535531
 20
6.9621417821
 30
0.0
 10
7.5071601739
 20
6.9579562593
 30
0.0
 10
7.510777994
 20
6.9549103837
 30
0.0
 10
7.51370425
 20
6.9527826316
 30
0.0
 10
7.5165748775
 20
6.9509048366
 30
0.0
 10
7.5202125525
 20
6.9489072821
 30
0.0
 10
7.5239785976
 20
6.9473700438
 30
0.0
 10
7.5270042021
 20
6.946452247
 30
0.0
 10
7.5292684556
 20
6.9459186156
 30
0.0
 10
7.531544395
 20
6.9455348049
 30
0.0
 10
7.5330703731
 20
6.945378721
 30
0.0
 10
7.5338333422
 20
6.9453258084
 30
0.0
  0
SPLINE
  5
302
100
AcDbEntity
  8
0
100
AcDbSpline
 62
7
  6
CONTINUOUS
 70
0
 71
3
 72
25
 73
21
 74
0
 42
0.0000001
 43
0.0000001
 44
0.0000000001
 40
0.0
 40
0.0
 40
0.0
 40
0.0
 40
0.026093056
 40
0.0537297448
 40
0.0825880439
 40
0.1123682695
 40
0.1428278037
 40
0.1737829041
 40
0.2050979207
 40
0.2366734279
 40
0.2684363326
 40
0.3003317256
 40
0.3643644575
 40
0.4285445959
 40
0.4927327482
 40
0.556839696
 40
0.6208061412
 40
0.7481637377
 40
0.8745998829
 40
1.0
 40
1.0
 40
1.0
 40
1.0
 10
10.0404300664
 20
8.993367498
 30
0.0
 10
10.0395470942
 20
8.9918709174
 30
0.0
 10
10.0375876193
 20
8.9888717434
 30
0.0
 10
10.0342732492
 20
8.9844793115
 30
0.0
 10
10.0305826986
 20
8.980073423
 30
0.0
 10
10.0266001024
 20
8.9756737971
 30
0.0
 10
10.0223931928
 20
8.9712929442
 30
0.0
 10
10.0180138146
 20
8.9669386456
 30
0.0
 10
10.0135005982
 20
8.9626152839
 30
0.0
 10
10.0088821376
 20
8.9583252247
 30
0.0
 10
10.0041796489
 20
8.9540696982
 30
0.0
 10
9.9978107217
 20
8.9484351729
 30
0.0
 10
9.9897206103
 20
8.9414891556
 30
0.0
 10
9.9798654448
 20
8.933300526
 30
0.0
 10
9.9698925897
 20
8.9252478842
 30
0.0
 10
9.9598300113
 20
8.917330728
 30
0.0
 10
9.9463388692
 20
8.9069699714
 30
0.0
 10
9.9293429478
 20
8.8943604943
 30
0.0
 10
9.9087538883
 20
8.8797373549
 30
0.0
 10
9.8948865755
 20
8.8703032849
 30
0.0
 10
9.8879350716
 20
8.8656757603
 30
0.0
  0
SPLINE
  5
303
100
AcDbEntity
  8
0
100
AcDbSpline
 62
7
  6
CONTINUOUS
 70
0
 71
3
 72
18
 73
14
 74
0
 42
0.0000001
 43
0.0000001
 44
0.0000000001
 40
0.0
 40
0.0
 40
0.0
 40
0.0
 40
0.0544328977
 40
0.1090825819
 40
0.164163178
 40
0.2198832571
 40
0.3339856861
 40
0.4529288702
 40
0.5146466453
 40
0.5780414074
 40
0.7103382159
 40
0.8507568709
 40
1.0
 40
1.0
 40
1.0
 40
1.0
 10
8.0018950277
 20
10.5570781086
 30
0.0
 10
8.001132062
 20
10.557131021
 30
0.0
 10
7.9995991537
 20
10.5571870747
 30
0.0
 10
7.9972920328
 20
10.5571210972
 30
0.0
 10
7.9949758059
 20
10.5569051273
 30
0.0
 10
7.9918524848
 20
10.5564137748
 30
0.0
 10
7.987910309
 20
10.5554110962
 30
0.0
 10
7.9840317357
 20
10.553934807
 30
0.0
 10
7.9809294059
 20
10.5524712645
 30
0.0
 10
7.9777374909
 20
10.5507678513
 30
0.0
 10
7.9737338115
 20
10.5482505316
 30
0.0
 10
7.9689896996
 20
10.5446856673
 30
0.0
 10
7.965921653
 20
10.5420057584
 30
0.0
 10
7.9643866669
 20
10.5405771755
 30
0.0
  0
SPLINE
  5
304
100
AcDbEntity
  8
0
100
AcDbSpline
 62
7
  6
CONTINUOUS
 70
0
 71
3
 72
11
 73
7
 74
0
 42
0.0000001
 43
0.0000001
 44
0.0000000001
 40
0.0
 40
0.0
 40
0.0
 40
0.0
 40
0.2239894215
 40
0.4640016529
 40
0.7221957824
 40
1.0
 40
1.0
 40
1.0
 40
1.0
 10
10.1372013574
 20
7.5121506778
 30
0.0
 10
10.1360600034
 20
7.5128103421
 30
0.0
 10
10.1338007783
 20
7.514364541
 30
0.0
 10
10.1306505354
 20
7.5172341506
 30
0.0
 10
10.1276619618
 20
7.5207005147
 30
0.0
 10
10.1258654382
 20
7.5233011151
 30
0.0
 10
10.1249990665
 20
7.5246876991
 30
0.0
  0
SPLINE
  5
305
100
AcDbEntity
  8
0
100
AcDbSpline
 62
7
  6
CONTINUOUS
 70
0
 71
3
 72
18
 73
14
 74
0
 42
0.0000001
 43
0.0000001
 44
0.0000000001
 40
0.0
 40
0.0
 40
0.0
 40
0.0
 40
0.0569638248
 40
0.1148449515
 40
0.1736662013
 40
0.2334326482
 40
0.2941227675
 40
0.3556901784
 40
0.4811458904
 40
0.6090707354
 40
0.7386385093
 40
0.8691260939
 40
1.0
 40
1.0
 40
1.0
 40
1.0
 10
10.5401891345
 20
7.6283969924
 30
0.0
 10
10.5387007322
 20
7.6275907434
 30
0.0
 10
10.5357293497
 20
7.6259103172
 30
0.0
 10
10.5313328022
 20
7.6232057774
 30
0.0
 10
10.5269693877
 20
7.6202950665
 30
0.0
 10
10.522646389
 20
7.6171797503
 30
0.0
 10
10.5183701062
 20
7.6138657499
 30
0.0
 10
10.5127019275
 20
7.6091674728
 30
0.0
 10
10.5057723225
 20
7.602869176
 30
0.0
 10
10.497714472
 20
7.5948301004
 30
0.0
 10
10.4898000085
 20
7.5864452926
 30
0.0
 10
10.4819381083
 20
7.5778930363
 30
0.0
 10
10.4766675496
 20
7.5721882694
 30
0.0
 10
10.4740054572
 20
7.56935312
 30
0.0
  0
SPLINE
  5
306
100
AcDbEntity
  8
0
100
AcDbSpline
 62
7
  6
CONTINUOUS
 70
0
 71
3
 72
15
 73
11
 74
0
 42
0.0000001
 43
0.0000001
 44
0.0000000001
 40
0.0
 40
0.0
 40
0.0
 40
0.0
 40
0.1273473901
 40
0.2538608346
 40
0.3795878351
 40
0.5046051039
 40
0.6290174461
 40
0.7529533848
 40
0.8765605883
 40
1.0
 40
1.0
 40
1.0
 40
1.0
 10
11.9513779726
 20
9.4323143685
 30
0.0
 10
11.9513779726
 20
9.4347165716
 30
0.0
 10
11.9516073401
 20
9.4395085667
 30
0.0
 10
11.9526445794
 20
9.4466043927
 30
0.0
 10
11.9543645548
 20
9.453521941
 30
0.0
 10
11.9567516699
 20
9.4601964903
 30
0.0
 10
11.9597840474
 20
9.466566512
 30
0.0
 10
11.9634340386
 20
9.4725731822
 30
0.0
 10
11.9676673317
 20
9.478160216
 30
0.0
 10
11.9708547777
 20
9.4815731119
 30
0.0
 10
11.9725295446
 20
9.4831908262
 30
0.0
  0
SPLINE
  5
307
100
AcDbEntity
  8
0
100
AcDbSpline
 62
7
  6
CONTINUOUS
 70
0
 71
3
 72
15
 73
11
 74
0
 42
0.0000001
 43
0.0000001
 44
0.0000000001
 40
0.0
 40
0.0
 40
0.0
 40
0.0
 40
0.1258378452
 40
0.2537377544
 40
0.3825509138
 40
0.5111138331
 40
0.6382671888
 40
0.7628677657
 40
0.8838020573
 40
1.0
 40
1.0
 40
1.0
 40
1.0
 10
10.0000318368
 20
9.1180027951
 30
0.0
 10
10.0000375686
 20
9.1102736585
 30
0.0
 10
9.9998421343
 20
9.0946879105
 30
0.0
 10
9.9989565577
 20
9.0712055083
 30
0.0
 10
9.9974836533
 20
9.0475847909
 30
0.0
 10
9.9954375059
 20
9.0240528689
 30
0.0
 10
9.9928379056
 20
9.0008359124
 30
0.0
 10
9.9897100096
 20
8.9781568997
 30
0.0
 10
9.9860842648
 20
8.9562339057
 30
0.0
 10
9.9832950304
 20
8.9419357875
 30
0.0
 10
9.9818157138
 20
8.9349537395
 30
0.0
  0
SPLINE
  5
308
100
AcDbEntity
  8
0
100
AcDbSpline
 62
7
  6
CONTINUOUS
 70
0
 71
3
 72
15
 73
11
 74
0
 42
0.0000001
 43
0.0000001
 44
0.0000000001
 40
0.0
 40
0.0
 40
0.0
 40
0.0
 40
0.1273473901
 40
0.2538608346
 40
0.3795878351
 40
0.5046051039
 40
0.6290174461
 40
0.7529533848
 40
0.8765605883
 40
1.0
 40
1.0
 40
1.0
 40
1.0
 10
9.7326462844
 20
6.929887754
 30
0.0
 10
9.7326462844
 20
6.9322899571
 30
0.0
 10
9.7328756519
 20
6.9370819522
 30
0.0
 10
9.7339128912
 20
6.9441777782
 30
0.0
 10
9.7356328666
 20
6.9510953265
 30
0.0
 10
9.7380199818
 20
6.9577698758
 30
0.0
 10
9.7410523592
 20
6.9641398975
 30
0.0
 10
9.7447023505
 20
6.9701465677
 30
0.0
 10
9.7489356436
 20
6.9757336015
 30
0.0
 10
9.7521230896
 20
6.9791464974
 30
0.0
 10
9.7537978565
 20
6.9807642117
 30
0.0
  0
SPLINE
  5
309
100
AcDbEntity
  8
0
100
AcDbSpline
 62
7
  6
CONTINUOUS
 70
0
 71
3
 72
35
 73
31
 74
0
 42
0.0000001
 43
0.0000001
 44
0.0000000001
 40
0.0
 40
0.0
 40
0.0
 40
0.0
 40
0.1361637355
 40
0.2026221206
 40
0.2679847866
 40
0.3322401763
 40
0.3953753706
 40
0.4573769686
 40
0.5182324672
 40
0.5482277344
 40
0.5779344012
 40
0.6073539176
 40
0.6364900343
 40
0.6653504871
 40
0.693949775
 40
0.7223138632
 40
0.750488735
 40
0.7785550875
 40
0.8066534136
 40
0.8350241639
 40
0.8494326639
 40
0.8640734883
 40
0.8790276009
 40
0.8943874119
 40
0.9102523016
 40
0.9267208218
 40
0.943880202
 40
0.96179549
 40
0.9805015494
 40
1.0
 40
1.0
 40
1.0
 40
1.0
 10
10.0000318368
 20
9.1180027951
 30
0.0
 10
10.0027061167
 20
9.1124529757
 30
0.0
 10
10.0067174124
 20
9.104209683
 30
0.0
 10
10.0120757857
 20
9.0933333767
 30
0.0
 10
10.0160171026
 20
9.0853857647
 30
0.0
 10
10.0199049483
 20
9.0775794856
 30
0.0
 10
10.0237279745
 20
9.0699108062
 30
0.0
 10
10.0274700183
 20
9.0623736448
 30
0.0
 10
10.0305162055
 20
9.0561650083
 30
0.0
 10
10.0328829702
 20
9.0512507613
 30
0.0
 10
10.0346085746
 20
9.0476064428
 30
0.0
 10
10.0362854856
 20
9.0439822172
 30
0.0
 10
10.0379041741
 20
9.0403734839
 30
0.0
 10
10.0394524631
 20
9.0367742611
 30
0.0
 10
10.0409139841
 20
9.0331764586
 30
0.0
 10
10.0422678228
 20
9.0295696101
 30
0.0
 10
10.0434857002
 20
9.0259395901
 30
0.0
 10
10.0445292967
 20
9.0222673142
 30
0.0
 10
10.0453464513
 20
9.018527931
 30
0.0
 10
10.0457767731
 20
9.0153450887
 30
0.0
 10
10.0459270874
 20
9.0127503991
 30
0.0
 10
10.0459294912
 20
9.0107583379
 30
0.0
 10
10.0458063493
 20
9.0087267715
 30
0.0
 10
10.0455428683
 20
9.0066525609
 30
0.0
 10
10.0451248982
 20
9.0045338648
 30
0.0
 10
10.0445402625
 20
9.0023704677
 30
0.0
 10
10.0437801798
 20
9.0001640022
 30
0.0
 10
10.0428404539
 20
8.9979178373
 30
0.0
 10
10.0417220647
 20
8.9956368866
 30
0.0
 10
10.0408783416
 20
8.9941272953
 30
0.0
 10
10.0404300664
 20
8.993367498
 30
0.0
  0
SPLINE
  5
30A
100
AcDbEntity
  8
0
100
AcDbSpline
 62
7
  6
CONTINUOUS
 70
0
 71
3
 72
32
 73
28
 74
0
 42
0.0000001
 43
0.0000001
 44
0.0000000001
 40
0.0
 40
0.0
 40
0.0
 40
0.0
 40
0.0851788256
 40
0.1685805939
 40
0.2498831809
 40
0.3287739947
 40
0.4049543857
 40
0.4781405615
 40
0.5480662501
 40
0.581729445
 40
0.6144868725
 40
0.6463114519
 40
0.6771775691
 40
0.7070615392
 40
0.7359415075
 40
0.763797774
 40
0.790612955
 40
0.8163721473
 40
0.8410634064
 40
0.8646777882
 40
0.8872101701
 40
0.9086592878
 40
0.9290289006
 40
0.9483280334
 40
0.9665724873
 40
0.9837855716
 40
1.0
 40
1.0
 40
1.0
 40
1.0
 10
7.4272586027
 20
7.3654792939
 30
0.0
 10
7.4272586027
 20
7.3538348699
 30
0.0
 10
7.4274570247
 20
7.3307883937
 30
0.0
 10
7.4283671016
 20
7.296638234
 30
0.0
 10
7.4298828413
 20
7.2633698058
 30
0.0
 10
7.4319976935
 20
7.2311231891
 30
0.0
 10
7.4347024683
 20
7.2000339931
 30
0.0
 10
7.4379855451
 20
7.1702330736
 30
0.0
 10
7.4412311394
 20
7.1462827482
 30
0.0
 10
7.4441199956
 20
7.1278681156
 30
0.0
 10
7.4463945288
 20
7.1146309234
 30
0.0
 10
7.4488018756
 20
7.1018060719
 30
0.0
 10
7.4513395707
 20
7.0894070252
 30
0.0
 10
7.4540048722
 20
7.0774468144
 30
0.0
 10
7.4567949845
 20
7.0659379949
 30
0.0
 10
7.4597069439
 20
7.0548926366
 30
0.0
 10
7.4627376576
 20
7.0443223073
 30
0.0
 10
7.4658839574
 20
7.034238064
 30
0.0
 10
7.4691424732
 20
7.0246504217
 30
0.0
 10
7.4725098572
 20
7.0155693708
 30
0.0
 10
7.4759824997
 20
7.0070043096
 30
0.0
 10
7.4795569028
 20
6.9989641098
 30
0.0
 10
7.4832292926
 20
6.9914569889
 30
0.0
 10
7.4869960519
 20
6.9844906745
 30
0.0
 10
7.4908534264
 20
6.9780720891
 30
0.0
 10
7.4947975581
 20
6.9722080791
 30
0.0
 10
7.4975631634
 20
6.9685659584
 30
0.0
 10
7.4989617761
 20
6.9668463034
 30
0.0
  0
SPLINE
  5
30B
100
AcDbEntity
  8
0
100
AcDbSpline
 62
7
  6
CONTINUOUS
 70
0
 71
3
 72
41
 73
37
 74
0
 42
0.0000001
 43
0.0000001
 44
0.0000000001
 40
0.0
 40
0.0
 40
0.0
 40
0.0
 40
0.0071626665
 40
0.0146567922
 40
0.0224900003
 40
0.030668562
 40
0.0391975872
 40
0.048080862
 40
0.0573206522
 40
0.0669182435
 40
0.0768739335
 40
0.0871871924
 40
0.097856799
 40
0.1088807011
 40
0.1319796455
 40
0.1564575358
 40
0.182279017
 40
0.2094019974
 40
0.2377784932
 40
0.2673552866
 40
0.2980744788
 40
0.329873988
 40
0.3626879607
 40
0.3964471366
 40
0.4310791754
 40
0.4665089551
 40
0.502658886
 40
0.5394491939
 40
0.57679819
 40
0.6146225315
 40
0.6528374746
 40
0.691357142
 40
0.7689615337
 40
0.8467371347
 40
0.923981719
 40
1.0
 40
1.0
 40
1.0
 40
1.0
 10
7.572714786
 20
10.162275366
 30
0.0
 10
7.5714974078
 20
10.1610994689
 30
0.0
 10
7.5690642729
 20
10.1586326818
 30
0.0
 10
7.565498087
 20
10.1546905325
 30
0.0
 10
7.5619364332
 20
10.1504264884
 30
0.0
 10
7.5583816066
 20
10.1458433101
 30
0.0
 10
7.554835558
 20
10.1409436834
 30
0.0
 10
7.5513003767
 20
10.1357304221
 30
0.0
 10
7.547778049
 20
10.1302066335
 30
0.0
 10
7.5442707478
 20
10.1243755717
 30
0.0
 10
7.540780539
 20
10.1182407256
 30
0.0
 10
7.5373094909
 20
10.1118057555
 30
0.0
 10
7.5338596992
 20
10.1050744706
 30
0.0
 10
7.5292186067
 20
10.0955610382
 30
0.0
 10
7.5234979912
 20
10.0829469898
 30
0.0
 10
7.5168529532
 20
10.0669233952
 30
0.0
 10
7.5103409644
 20
10.0498239397
 30
0.0
 10
7.503977767
 20
10.0316895865
 30
0.0
 10
7.4977787646
 20
10.0125635958
 30
0.0
 10
7.4917589712
 20
9.9924917832
 30
0.0
 10
7.4859329605
 20
9.971522283
 30
0.0
 10
7.4803148404
 20
9.9497054408
 30
0.0
 10
7.474918213
 20
9.9270936701
 30
0.0
 10
7.469756142
 20
9.9037413228
 30
0.0
 10
7.4648411222
 20
9.8797045581
 30
0.0
 10
7.4601850362
 20
9.8550412058
 30
0.0
 10
7.4557991392
 20
9.8298106177
 30
0.0
 10
7.4516940325
 20
9.8040735194
 30
0.0
 10
7.4478796335
 20
9.7778918579
 30
0.0
 10
7.4443651714
 20
9.7513286742
 30
0.0
 10
7.4411590914
 20
9.7244478769
 30
0.0
 10
7.4372965914
 20
9.6881815132
 30
0.0
 10
7.4332949353
 20
9.6425325641
 30
0.0
 10
7.4298350513
 20
9.5876663733
 30
0.0
 10
7.4277389587
 20
9.5331063529
 30
0.0
 10
7.4272586027
 20
9.4968884299
 30
0.0
 10
7.4272586027
 20
9.4789251271
 30
0.0
  0
SPLINE
  5
30C
100
AcDbEntity
  8
0
100
AcDbSpline
 62
7
  6
CONTINUOUS
 70
0
 71
3
 72
15
 73
11
 74
0
 42
0.0000001
 43
0.0000001
 44
0.0000000001
 40
0.0
 40
0.0
 40
0.0
 40
0.0
 40
0.1273482789
 40
0.2538606571
 40
0.3795878378
 40
0.5046051156
 40
0.629017439
 40
0.7529533823
 40
0.8765605864
 40
1.0
 40
1.0
 40
1.0
 40
1.0
 10
12.7733810984
 20
9.3753082581
 30
0.0
 10
12.7733810984
 20
9.3818065832
 30
0.0
 10
12.7740015591
 20
9.3947695623
 30
0.0
 10
12.7768074905
 20
9.4139647084
 30
0.0
 10
12.7814602121
 20
9.4326775621
 30
0.0
 10
12.7879176949
 20
9.4507331134
 30
0.0
 10
12.7961207145
 20
9.467964855
 30
0.0
 10
12.8059944397
 20
9.4842136895
 30
0.0
 10
12.817446062
 20
9.499327364
 30
0.0
 10
12.8260685617
 20
9.5085596718
 30
0.0
 10
12.8305990333
 20
9.5129358013
 30
0.0
  0
SPLINE
  5
30D
100
AcDbEntity
  8
0
100
AcDbSpline
 62
7
  6
CONTINUOUS
 70
0
 71
3
 72
11
 73
7
 74
0
 42
0.0000001
 43
0.0000001
 44
0.0000000001
 40
0.0
 40
0.0
 40
0.0
 40
0.0
 40
0.2431349625
 40
0.4875690141
 40
0.738317799
 40
1.0
 40
1.0
 40
1.0
 40
1.0
 10
10.1497459289
 20
7.5093064681
 30
0.0
 10
10.1486924345
 20
7.5091968117
 30
0.0
 10
10.1465578481
 20
7.5091465873
 30
0.0
 10
10.1433599283
 20
7.5096032674
 30
0.0
 10
10.1402007714
 20
7.5105928353
 30
0.0
 10
10.1381883496
 20
7.5115802294
 30
0.0
 10
10.1372013574
 20
7.5121506778
 30
0.0
  0
SPLINE
  5
30E
100
AcDbEntity
  8
0
100
AcDbSpline
 62
7
  6
CONTINUOUS
 70
0
 71
3
 72
23
 73
19
 74
0
 42
0.0000001
 43
0.0000001
 44
0.0000000001
 40
0.0
 40
0.0
 40
0.0
 40
0.0
 40
0.0637767638
 40
0.1273450118
 40
0.1907019674
 40
0.2538561101
 40
0.3168132145
 40
0.3795820843
 40
0.4421733868
 40
0.5045993403
 40
0.5668738673
 40
0.6290123789
 40
0.6910316481
 40
0.752949645
 40
0.8147853545
 40
0.8765586015
 40
0.9382898522
 40
1.0
 40
1.0
 40
1.0
 40
1.0
 10
10.0494699742
 20
7.4517321939
 30
0.0
 10
10.0494699742
 20
7.4575179528
 30
0.0
 10
10.0497469208
 20
7.4690725141
 30
0.0
 10
10.0509968297
 20
7.4863340514
 30
0.0
 10
10.0530779791
 20
7.5034587808
 30
0.0
 10
10.0559853555
 20
7.5204064488
 30
0.0
 10
10.0597124842
 20
7.5371383399
 30
0.0
 10
10.0642507339
 20
7.553615775
 30
0.0
 10
10.0695896637
 20
7.5698007925
 30
0.0
 10
10.0757170271
 20
7.5856560665
 30
0.0
 10
10.0826187546
 20
7.6011450132
 30
0.0
 10
10.0902789281
 20
7.6162319215
 30
0.0
 10
10.0986798984
 20
7.6308819939
 30
0.0
 10
10.1078023348
 20
7.6450614347
 30
0.0
 10
10.1176252137
 20
7.6587374801
 30
0.0
 10
10.128125973
 20
7.6718787066
 30
0.0
 10
10.1392799727
 20
7.6844544004
 30
0.0
 10
10.1471358236
 20
7.6924432857
 30
0.0
 10
10.1511624121
 20
7.6963326683
 30
0.0
  0
SPLINE
  5
30F
100
AcDbEntity
  8
0
100
AcDbSpline
 62
7
  6
CONTINUOUS
 70
0
 71
3
 72
39
 73
35
 74
0
 42
0.0000001
 43
0.0000001
 44
0.0000000001
 40
0.0
 40
0.0
 40
0.0
 40
0.0
 40
0.0310356851
 40
0.0622167066
 40
0.0935340463
 40
0.1249822207
 40
0.156550082
 40
0.1882255138
 40
0.2199942996
 40
0.2518406705
 40
0.2837476187
 40
0.3156971605
 40
0.3476706705
 40
0.3796492101
 40
0.4116138507
 40
0.4435459784
 40
0.4754275893
 40
0.507241578
 40
0.5389720288
 40
0.5706044683
 40
0.6021260934
 40
0.6335259791
 40
0.6647952711
 40
0.6959273604
 40
0.7269180073
 40
0.7577654343
 40
0.7884703851
 40
0.8190361537
 40
0.8494685725
 40
0.879775946
 40
0.9099689386
 40
0.940060414
 40
0.9700652318
 40
1.0
 40
1.0
 40
1.0
 40
1.0
 10
12.0267201878
 20
8.7616255957
 30
0.0
 10
12.0239798883
 20
8.7618156361
 30
0.0
 10
12.018497693
 20
8.7623844285
 30
0.0
 10
12.0103339682
 20
8.763792989
 30
0.0
 10
12.0022468039
 20
8.7657524731
 30
0.0
 10
11.9942745681
 20
8.768253081
 30
0.0
 10
11.9864541114
 20
8.7712829085
 30
0.0
 10
11.9788217917
 20
8.7748272717
 30
0.0
 10
11.9714128383
 20
8.7788691324
 30
0.0
 10
11.9642613186
 20
8.7833891219
 30
0.0
 10
11.9573999484
 20
8.7883656942
 30
0.0
 10
11.9508599551
 20
8.7937752584
 30
0.0
 10
11.944670945
 20
8.7995923147
 30
0.0
 10
11.9388607463
 20
8.8057895673
 30
0.0
 10
11.9334553291
 20
8.8123381116
 30
0.0
 10
11.9284787195
 20
8.8192075888
 30
0.0
 10
11.9239529206
 20
8.8263663358
 30
0.0
 10
11.9198978462
 20
8.8337815366
 30
0.0
 10
11.9163312161
 20
8.841419351
 30
0.0
 10
11.9132685524
 20
8.8492450937
 30
0.0
 10
11.9107231432
 20
8.8572233768
 30
0.0
 10
11.9087060164
 20
8.8653182513
 30
0.0
 10
11.9072259041
 20
8.8734933424
 30
0.0
 10
11.9062891822
 20
8.8817119848
 30
0.0
 10
11.9058999126
 20
8.8899373723
 30
0.0
 10
11.9060598261
 20
8.8981326861
 30
0.0
 10
11.9067683266
 20
8.9062612254
 30
0.0
 10
11.9080224583
 20
8.9142865415
 30
0.0
 10
11.9098168903
 20
8.9221725787
 30
0.0
 10
11.9121439816
 20
8.9298838177
 30
0.0
 10
11.9149937448
 20
8.9373853592
 30
0.0
 10
11.9183540071
 20
8.9446432498
 30
0.0
 10
11.9222098914
 20
8.9516239272
 30
0.0
 10
11.9251032414
 20
8.9560769737
 30
0.0
 10
11.9266257626
 20
8.9582452617
 30
0.0
  0
SPLINE
  5
310
100
AcDbEntity
  8
0
100
AcDbSpline
 62
7
  6
CONTINUOUS
 70
0
 71
3
 72
13
 73
9
 74
0
 42
0.0000001
 43
0.0000001
 44
0.0000000001
 40
0.0
 40
0.0
 40
0.0
 40
0.0
 40
0.2417751135
 40
0.4882920538
 40
0.6136872199
 40
0.7406518134
 40
0.8693549383
 40
1.0
 40
1.0
 40
1.0
 40
1.0
 10
10.7711934159
 20
7.3579256255
 30
0.0
 10
10.7615632818
 20
7.3600222281
 30
0.0
 10
10.7423349538
 20
7.3653585998
 30
0.0
 10
10.7191551458
 20
7.3749631982
 30
0.0
 10
10.7012472317
 20
7.3846317184
 30
0.0
 10
10.6881445053
 20
7.3930043637
 30
0.0
 10
10.6755740564
 20
7.4025172634
 30
0.0
 10
10.6677082095
 20
7.4096060499
 30
0.0
 10
10.663919504
 20
7.4133487611
 30
0.0
  0
SPLINE
  5
311
100
AcDbEntity
  8
0
100
AcDbSpline
 62
7
  6
CONTINUOUS
 70
0
 71
3
 72
15
 73
11
 74
0
 42
0.0000001
 43
0.0000001
 44
0.0000000001
 40
0.0
 40
0.0
 40
0.0
 40
0.0
 40
0.1273482789
 40
0.2538606571
 40
0.3795878378
 40
0.5046051156
 40
0.629017439
 40
0.7529533823
 40
0.8765605864
 40
1.0
 40
1.0
 40
1.0
 40
1.0
 10
8.9096774492
 20
9.6432570163
 30
0.0
 10
8.9096774492
 20
9.6497553413
 30
0.0
 10
8.9102979098
 20
9.6627183205
 30
0.0
 10
8.9131038413
 20
9.6819134666
 30
0.0
 10
8.9177565628
 20
9.7006263202
 30
0.0
 10
8.9242140456
 20
9.7186818716
 30
0.0
 10
8.9324170653
 20
9.7359136132
 30
0.0
 10
8.9422907904
 20
9.7521624477
 30
0.0
 10
8.9537424127
 20
9.7672761222
 30
0.0
 10
8.9623649125
 20
9.7765084299
 30
0.0
 10
8.9668953841
 20
9.7808845594
 30
0.0
  0
SPLINE
  5
312
100
AcDbEntity
  8
0
100
AcDbSpline
 62
7
  6
CONTINUOUS
 70
0
 71
3
 72
39
 73
35
 74
0
 42
0.0000001
 43
0.0000001
 44
0.0000000001
 40
0.0
 40
0.0
 40
0.0
 40
0.0
 40
0.0311555047
 40
0.0624419812
 40
0.0938526485
 40
0.1253785844
 40
0.1570091245
 40
0.1887319279
 40
0.2205332304
 40
0.2523980521
 40
0.2843104404
 40
0.3162537162
 40
0.3482107312
 40
0.3801641284
 40
0.4120966057
 40
0.4439911786
 40
0.4758314397
 40
0.5076018122
 40
0.5392877934
 40
0.5708761876
 40
0.6023553226
 40
0.6337152485
 40
0.6649479145
 40
0.696047321
 40
0.7270096423
 40
0.7578333187
 40
0.7885191123
 40
0.8190701256
 40
0.8494917794
 40
0.879791749
 40
0.9099798568
 40
0.9400679224
 40
0.9700695704
 40
1.0
 40
1.0
 40
1.0
 40
1.0
 10
10.1497459289
 20
7.5093064681
 30
0.0
 10
10.1505533724
 20
7.5014493752
 30
0.0
 10
10.152676673
 20
7.4857494997
 30
0.0
 10
10.1573552588
 20
7.4624054084
 30
0.0
 10
10.1635150073
 20
7.439309677
 30
0.0
 10
10.1711298297
 20
7.4165604737
 30
0.0
 10
10.1801676818
 20
7.3942528956
 30
0.0
 10
10.1905905439
 20
7.3724806018
 30
0.0
 10
10.2023546062
 20
7.3513348838
 30
0.0
 10
10.2154104526
 20
7.3309044322
 30
0.0
 10
10.2297032643
 20
7.3112749286
 30
0.0
 10
10.245173051
 20
7.2925287005
 30
0.0
 10
10.2617548999
 20
7.2747443758
 30
0.0
 10
10.2793792465
 20
7.2579965567
 30
0.0
 10
10.2979721643
 20
7.242355509
 30
0.0
 10
10.317455672
 20
7.2278868694
 30
0.0
 10
10.3377480584
 20
7.2146513722
 30
0.0
 10
10.3587642217
 20
7.2027045957
 30
0.0
 10
10.3804160228
 20
7.19209673
 30
0.0
 10
10.402612652
 20
7.1828723676
 30
0.0
 10
10.4252610052
 20
7.1750703152
 30
0.0
 10
10.4482660706
 20
7.1687234313
 30
0.0
 10
10.4715313229
 20
7.1638584859
 30
0.0
 10
10.4949591241
 20
7.1604960462
 30
0.0
 10
10.5184511286
 20
7.1586503867
 30
0.0
 10
10.5419086927
 20
7.1583294249
 30
0.0
 10
10.5652332844
 20
7.1595346824
 30
0.0
 10
10.5883268978
 20
7.1622612735
 30
0.0
 10
10.6110924536
 20
7.1664979124
 30
0.0
 10
10.6334342449
 20
7.1722269764
 30
0.0
 10
10.6552582002
 20
7.1794244841
 30
0.0
 10
10.6764728095
 20
7.1880605164
 30
0.0
 10
10.6969875556
 20
7.1980981182
 30
0.0
 10
10.7101561394
 20
7.205705664
 30
0.0
 10
10.7165912801
 20
7.2097262494
 30
0.0
  0
SPLINE
  5
313
100
AcDbEntity
  8
0
100
AcDbSpline
 62
7
  6
CONTINUOUS
 70
0
 71
3
 72
29
 73
25
 74
0
 42
0.0000001
 43
0.0000001
 44
0.0000000001
 40
0.0
 40
0.0
 40
0.0
 40
0.0
 40
0.03203784
 40
0.0640395498
 40
0.0959821701
 40
0.1278566518
 40
0.1596620656
 40
0.191401679
 40
0.2230804495
 40
0.2547035594
 40
0.2862756701
 40
0.3178005921
 40
0.3492811945
 40
0.3807193907
 40
0.4434590659
 40
0.5060389852
 40
0.5684559392
 40
0.6307027805
 40
0.6927700548
 40
0.7546468495
 40
0.8163213157
 40
0.8777804076
 40
0.9390116221
 40
1.0
 40
1.0
 40
1.0
 40
1.0
 10
10.4740054572
 20
7.56935312
 30
0.0
 10
10.4714321829
 20
7.5666125627
 30
0.0
 10
10.4662455579
 20
7.5611743804
 30
0.0
 10
10.4582607531
 20
7.5532291994
 30
0.0
 10
10.4500194819
 20
7.545577068
 30
0.0
 10
10.4414891854
 20
7.5382826667
 30
0.0
 10
10.4326553486
 20
7.5313966677
 30
0.0
 10
10.423518665
 20
7.5249570234
 30
0.0
 10
10.414091613
 20
7.5189900767
 30
0.0
 10
10.4043949483
 20
7.5135119484
 30
0.0
 10
10.3944545188
 20
7.5085301307
 30
0.0
 10
10.3842988371
 20
7.5040451233
 30
0.0
 10
10.373956778
 20
7.5000520433
 30
0.0
 10
10.3599686831
 20
7.4953759951
 30
0.0
 10
10.3421518951
 20
7.4907066384
 30
0.0
 10
10.3204351401
 20
7.4868817513
 30
0.0
 10
10.2985502016
 20
7.4847240779
 30
0.0
 10
10.2766299957
 20
7.4841290541
 30
0.0
 10
10.2547843068
 20
7.48500393
 30
0.0
 10
10.233107629
 20
7.4872697301
 30
0.0
 10
10.2116839798
 20
7.4908605808
 30
0.0
 10
10.1905906379
 20
7.4957226213
 30
0.0
 10
10.1699033765
 20
7.5018121362
 30
0.0
 10
10.1564021533
 20
7.5066781491
 30
0.0
 10
10.1497459289
 20
7.5093064681
 30
0.0
  0
SPLINE
  5
314
100
AcDbEntity
  8
0
100
AcDbSpline
 62
7
  6
CONTINUOUS
 70
0
 71
3
 72
23
 73
19
 74
0
 42
0.0000001
 43
0.0000001
 44
0.0000000001
 40
0.0
 40
0.0
 40
0.0
 40
0.0
 40
0.0583060194
 40
0.1188104536
 40
0.1811814859
 40
0.2450768491
 40
0.3101447721
 40
0.3760264963
 40
0.4423583664
 40
0.5087740345
 40
0.5749066507
 40
0.6403910601
 40
0.7048659881
 40
0.7679762426
 40
0.829374797
 40
0.8887252898
 40
0.9457031164
 40
1.0
 40
1.0
 40
1.0
 40
1.0
 10
10.5555662395
 20
7.7489996449
 30
0.0
 10
10.5570573519
 20
7.7422994539
 30
0.0
 10
10.5601956904
 20
7.7286685157
 30
0.0
 10
10.5652554862
 20
7.7079470984
 30
0.0
 10
10.5707348148
 20
7.6866525104
 30
0.0
 10
10.5766028868
 20
7.6649048551
 30
0.0
 10
10.5828267486
 20
7.6428266405
 30
0.0
 10
10.5893713911
 20
7.6205422838
 30
0.0
 10
10.5961999782
 20
7.598177352
 30
0.0
 10
10.6032740496
 20
7.5758578661
 30
0.0
 10
10.6105537401
 20
7.5537095842
 30
0.0
 10
10.6179980056
 20
7.5318572912
 30
0.0
 10
10.6255648539
 20
7.5104240901
 30
0.0
 10
10.6332115801
 20
7.4895307108
 30
0.0
 10
10.6408950045
 20
7.4692948015
 30
0.0
 10
10.6485717055
 20
7.4498303197
 30
0.0
 10
10.6561982575
 20
7.4312468109
 30
0.0
 10
10.6613537151
 20
7.4192033366
 30
0.0
 10
10.663919504
 20
7.4133487611
 30
0.0
  0
SPLINE
  5
315
100
AcDbEntity
  8
0
100
AcDbSpline
 62
7
  6
CONTINUOUS
 70
0
 71
3
 72
15
 73
11
 74
0
 42
0.0000001
 43
0.0000001
 44
0.0000000001
 40
0.0
 40
0.0
 40
0.0
 40
0.0
 40
0.1273482789
 40
0.2538606571
 40
0.3795878378
 40
0.5046051156
 40
0.629017439
 40
0.7529533823
 40
0.8765605864
 40
1.0
 40
1.0
 40
1.0
 40
1.0
 10
8.9096774492
 20
6.9869608366
 30
0.0
 10
8.9096774492
 20
6.9934591616
 30
0.0
 10
8.9102979098
 20
7.0064221408
 30
0.0
 10
8.9131038413
 20
7.0256172869
 30
0.0
 10
8.9177565628
 20
7.0443301406
 30
0.0
 10
8.9242140456
 20
7.0623856919
 30
0.0
 10
8.9324170653
 20
7.0796174335
 30
0.0
 10
8.9422907904
 20
7.095866268
 30
0.0
 10
8.9537424127
 20
7.1109799425
 30
0.0
 10
8.9623649125
 20
7.1202122503
 30
0.0
 10
8.9668953841
 20
7.1245883798
 30
0.0
  0
SPLINE
  5
316
100
AcDbEntity
  8
0
100
AcDbSpline
 62
7
  6
CONTINUOUS
 70
0
 71
3
 72
26
 73
22
 74
0
 42
0.0000001
 43
0.0000001
 44
0.0000000001
 40
0.0
 40
0.0
 40
0.0
 40
0.0
 40
0.057473134
 40
0.1155937128
 40
0.1743779573
 40
0.2338466231
 40
0.2940130256
 40
0.354887321
 40
0.4164742155
 40
0.4787722818
 40
0.5417729489
 40
0.6054597431
 40
0.6698081256
 40
0.7347853311
 40
0.7674972606
 40
0.8003502713
 40
0.8333379708
 40
0.8664532842
 40
0.8996883054
 40
0.933033854
 40
1.0
 40
1.0
 40
1.0
 40
1.0
 10
10.663919504
 20
7.4133487611
 30
0.0
 10
10.6616329436
 20
7.4156075628
 30
0.0
 10
10.6571733675
 20
7.4202940975
 30
0.0
 10
10.6508948243
 20
7.4277636045
 30
0.0
 10
10.6450207807
 20
7.4356950425
 30
0.0
 10
10.6395802462
 20
7.4440665052
 30
0.0
 10
10.6345975728
 20
7.4528528217
 30
0.0
 10
10.6300906281
 20
7.4620242658
 30
0.0
 10
10.626067519
 20
7.4715470903
 30
0.0
 10
10.6225232389
 20
7.4813841115
 30
0.0
 10
10.6194352636
 20
7.4914957158
 30
0.0
 10
10.6167585277
 20
7.5018412393
 30
0.0
 10
10.6144196607
 20
7.5123803811
 30
0.0
 10
10.6126669343
 20
7.5212714082
 30
0.0
 10
10.6113045412
 20
7.5284435457
 30
0.0
 10
10.6102771842
 20
7.5338583891
 30
0.0
 10
10.6092205252
 20
7.5392906256
 30
0.0
 10
10.6081050266
 20
7.5447329485
 30
0.0
 10
10.606897757
 20
7.5501765602
 30
0.0
 10
10.6051156597
 20
7.5574292807
 30
0.0
 10
10.6035321321
 20
7.562818205
 30
0.0
 10
10.6023151309
 20
7.5663599483
 30
0.0
  0
SPLINE
  5
317
100
AcDbEntity
  8
0
100
AcDbSpline
 62
7
  6
CONTINUOUS
 70
0
 71
3
 72
41
 73
37
 74
0
 42
0.0000001
 43
0.0000001
 44
0.0000000001
 40
0.0
 40
0.0
 40
0.0
 40
0.0
 40
0.029942123
 40
0.0449237706
 40
0.0599145177
 40
0.0899291716
 40
0.1200145961
 40
0.1350933574
 40
0.1501974726
 40
0.1804849654
 40
0.2108989488
 40
0.2414525624
 40
0.2721557217
 40
0.3030149378
 40
0.3340332219
 40
0.3652100719
 40
0.3965415365
 40
0.4280203507
 40
0.4596361361
 40
0.4913756582
 40
0.5232231336
 40
0.5551605782
 40
0.5871681905
 40
0.6192247616
 40
0.6513081064
 40
0.6833955071
 40
0.7154641657
 40
0.7474916563
 40
0.7794563734
 40
0.811337967
 40
0.843117763
 40
0.8747791516
 40
0.9063079641
 40
0.9376927517
 40
0.9689251728
 40
1.0
 40
1.0
 40
1.0
 40
1.0
 10
9.2600802372
 20
9.47736088
 30
0.0
 10
9.2565798198
 20
9.4739797132
 30
0.0
 10
9.2511229084
 20
9.4691127874
 30
0.0
 10
9.2434805883
 20
9.4630740055
 30
0.0
 10
9.2355948796
 20
9.4573357356
 30
0.0
 10
9.225305331
 20
9.450746309
 30
0.0
 10
9.2145154695
 20
9.4449824736
 30
0.0
 10
9.2056166393
 20
9.440882029
 30
0.0
 10
9.1965339576
 20
9.437120124
 30
0.0
 10
9.1848812992
 20
9.4330749561
 30
0.0
 10
9.1705211415
 20
9.4293049467
 30
0.0
 10
9.1558476324
 20
9.4266341425
 30
0.0
 10
9.1409420883
 20
9.4250772851
 30
0.0
 10
9.12588639
 20
9.4246426813
 30
0.0
 10
9.1107633788
 20
9.4253325437
 30
0.0
 10
9.0956561752
 20
9.427142887
 30
0.0
 10
9.0806477873
 20
9.4300635865
 30
0.0
 10
9.0658206439
 20
9.4340784324
 30
0.0
 10
9.0512561521
 20
9.4391652269
 30
0.0
 10
9.0370342556
 20
9.4452959084
 30
0.0
 10
9.0232330022
 20
9.4524367087
 30
0.0
 10
9.0099281217
 20
9.4605483385
 30
0.0
 10
8.9971926155
 20
9.4695862029
 30
0.0
 10
8.9850963615
 20
9.4795006456
 30
0.0
 10
8.9737057349
 20
9.4902372192
 30
0.0
 10
8.9630832485
 20
9.5017369813
 30
0.0
 10
8.9532872128
 20
9.5139368154
 30
0.0
 10
8.9443714193
 20
9.5267697739
 30
0.0
 10
8.9363848477
 20
9.5401654404
 30
0.0
 10
8.9293713989
 20
9.5540503145
 30
0.0
 10
8.9233696565
 20
9.5683482005
 30
0.0
 10
8.9184126713
 20
9.5829806557
 30
0.0
 10
8.914527789
 20
9.5978672829
 30
0.0
 10
8.9117364786
 20
9.6129266546
 30
0.0
 10
8.9100542427
 20
9.6280749553
 30
0.0
 10
8.9096774492
 20
9.6382061629
 30
0.0
 10
8.9096774492
 20
9.6432570163
 30
0.0
  0
SPLINE
  5
318
100
AcDbEntity
  8
0
100
AcDbSpline
 62
7
  6
CONTINUOUS
 70
0
 71
3
 72
44
 73
40
 74
0
 42
0.0000001
 43
0.0000001
 44
0.0000000001
 40
0.0
 40
0.0
 40
0.0
 40
0.0
 40
0.0460536166
 40
0.0901017112
 40
0.1321439352
 40
0.1721877321
 40
0.2102497452
 40
0.2463574397
 40
0.2805506207
 40
0.3128842256
 40
0.3434303944
 40
0.3722822431
 40
0.3995568574
 40
0.4126498689
 40
0.4254055227
 40
0.4499918629
 40
0.4735313968
 40
0.4962665601
 40
0.507421318
 40
0.5184789921
 40
0.5294768614
 40
0.5404528613
 40
0.5514451883
 40
0.5624918424
 40
0.5736302198
 40
0.5848967453
 40
0.6079439965
 40
0.6319031526
 40
0.657002627
 40
0.6834374954
 40
0.7113700999
 40
0.7409332523
 40
0.7722332095
 40
0.8053537981
 40
0.840359427
 40
0.8772982058
 40
0.9162045423
 40
0.9571008902
 40
1.0
 40
1.0
 40
1.0
 40
1.0
 10
13.7908953519
 20
7.6996003533
 30
0.0
 10
13.7889122565
 20
7.6958660042
 30
0.0
 10
13.7849375449
 20
7.6886097032
 30
0.0
 10
13.7788034311
 20
7.6781402984
 30
0.0
 10
13.7726350967
 20
7.668336735
 30
0.0
 10
13.7664381594
 20
7.6592080091
 30
0.0
 10
13.7602181393
 20
7.6507623486
 30
0.0
 10
13.7539805727
 20
7.6430073212
 30
0.0
 10
13.7477307503
 20
7.6359499233
 30
0.0
 10
13.7414740341
 20
7.629596443
 30
0.0
 10
13.735215275
 20
7.623952672
 30
0.0
 10
13.7289597687
 20
7.6190240731
 30
0.0
 10
13.7236828101
 20
7.61546959
 30
0.0
 10
13.7194720394
 20
7.6130055276
 30
0.0
 10
13.7153755158
 20
7.6108442605
 30
0.0
 10
13.7102560101
 20
7.6085769931
 30
0.0
 10
13.7040593459
 20
7.6065572715
 30
0.0
 10
13.698884356
 20
7.6054831474
 30
0.0
 10
13.6947834983
 20
7.6050040516
 30
0.0
 10
13.691737414
 20
7.6048311965
 30
0.0
 10
13.6887029169
 20
7.6048428234
 30
0.0
 10
13.6856807211
 20
7.6050389442
 30
0.0
 10
13.6826716727
 20
7.6054195362
 30
0.0
 10
13.6796765913
 20
7.6059844054
 30
0.0
 10
13.6766961817
 20
7.6067334324
 30
0.0
 10
13.6727136219
 20
7.6079864733
 30
0.0
 10
13.6677566317
 20
7.610031356
 30
0.0
 10
13.6619313759
 20
7.6132001037
 30
0.0
 10
13.6561871909
 20
7.6170969883
 30
0.0
 10
13.650528986
 20
7.621716534
 30
0.0
 10
13.6449603572
 20
7.6270532895
 30
0.0
 10
13.6394853265
 20
7.6331019023
 30
0.0
 10
13.6341077648
 20
7.6398565929
 30
0.0
 10
13.6288318747
 20
7.6473112844
 30
0.0
 10
13.6236618822
 20
7.6554592955
 30
0.0
 10
13.6186021202
 20
7.6642933537
 30
0.0
 10
13.6136570037
 20
7.6738056054
 30
0.0
 10
13.608830877
 20
7.6839873443
 30
0.0
 10
13.6057688908
 20
7.691046775
 30
0.0
 10
13.6042554291
 20
7.6946830068
 30
0.0
  0
SPLINE
  5
319
100
AcDbEntity
  8
0
100
AcDbSpline
 62
7
  6
CONTINUOUS
 70
0
 71
3
 72
41
 73
37
 74
0
 42
0.0000001
 43
0.0000001
 44
0.0000000001
 40
0.0
 40
0.0
 40
0.0
 40
0.0
 40
0.029942123
 40
0.0449237706
 40
0.0599145177
 40
0.0899291716
 40
0.1200145961
 40
0.1350933574
 40
0.1501974726
 40
0.1804849654
 40
0.2108989488
 40
0.2414525624
 40
0.2721557217
 40
0.3030149378
 40
0.3340332219
 40
0.3652100719
 40
0.3965415365
 40
0.4280203507
 40
0.4596361361
 40
0.4913756582
 40
0.5232231336
 40
0.5551605782
 40
0.5871681905
 40
0.6192247616
 40
0.6513081064
 40
0.6833955071
 40
0.7154641657
 40
0.7474916563
 40
0.7794563734
 40
0.811337967
 40
0.843117763
 40
0.8747791516
 40
0.9063079641
 40
0.9376927517
 40
0.9689251728
 40
1.0
 40
1.0
 40
1.0
 40
1.0
 10
9.2600802372
 20
6.8210647003
 30
0.0
 10
9.2565798198
 20
6.8176835335
 30
0.0
 10
9.2511229084
 20
6.8128166077
 30
0.0
 10
9.2434805883
 20
6.8067778258
 30
0.0
 10
9.2355948796
 20
6.8010395559
 30
0.0
 10
9.225305331
 20
6.7944501293
 30
0.0
 10
9.2145154695
 20
6.7886862939
 30
0.0
 10
9.2056166393
 20
6.7845858493
 30
0.0
 10
9.1965339576
 20
6.7808239443
 30
0.0
 10
9.1848812992
 20
6.7767787764
 30
0.0
 10
9.1705211415
 20
6.773008767
 30
0.0
 10
9.1558476324
 20
6.7703379628
 30
0.0
 10
9.1409420883
 20
6.7687811054
 30
0.0
 10
9.12588639
 20
6.7683465016
 30
0.0
 10
9.1107633788
 20
6.769036364
 30
0.0
 10
9.0956561752
 20
6.7708467073
 30
0.0
 10
9.0806477873
 20
6.7737674068
 30
0.0
 10
9.0658206439
 20
6.7777822527
 30
0.0
 10
9.0512561521
 20
6.7828690472
 30
0.0
 10
9.0370342556
 20
6.7889997288
 30
0.0
 10
9.0232330022
 20
6.796140529
 30
0.0
 10
9.0099281217
 20
6.8042521588
 30
0.0
 10
8.9971926155
 20
6.8132900232
 30
0.0
 10
8.9850963615
 20
6.823204466
 30
0.0
 10
8.9737057349
 20
6.8339410395
 30
0.0
 10
8.9630832485
 20
6.8454408016
 30
0.0
 10
8.9532872128
 20
6.8576406357
 30
0.0
 10
8.9443714193
 20
6.8704735942
 30
0.0
 10
8.9363848477
 20
6.8838692607
 30
0.0
 10
8.9293713989
 20
6.8977541348
 30
0.0
 10
8.9233696565
 20
6.9120520208
 30
0.0
 10
8.9184126713
 20
6.926684476
 30
0.0
 10
8.914527789
 20
6.9415711033
 30
0.0
 10
8.9117364786
 20
6.9566304749
 30
0.0
 10
8.9100542427
 20
6.9717787757
 30
0.0
 10
8.9096774492
 20
6.9819099833
 30
0.0
 10
8.9096774492
 20
6.9869608366
 30
0.0
  0
SPLINE
  5
31A
100
AcDbEntity
  8
0
100
AcDbSpline
 62
7
  6
CONTINUOUS
 70
0
 71
3
 72
41
 73
37
 74
0
 42
0.0000001
 43
0.0000001
 44
0.0000000001
 40
0.0
 40
0.0
 40
0.0
 40
0.0
 40
0.030933376
 40
0.0464561918
 40
0.0620136275
 40
0.0932266149
 40
0.1245684209
 40
0.1402865013
 40
0.1560326866
 40
0.1875987404
 40
0.2192565586
 40
0.2509907631
 40
0.2827850924
 40
0.3146227606
 40
0.3464867937
 40
0.3783603332
 40
0.4102269025
 40
0.4420706343
 40
0.4738764616
 40
0.5056302721
 40
0.537319032
 40
0.5689308828
 40
0.6004552155
 40
0.6318827277
 40
0.6632054668
 40
0.6944168649
 40
0.7255117658
 40
0.7564864498
 40
0.7873386559
 40
0.8180676022
 40
0.848674006
 40
0.8791601019
 40
0.9095296583
 40
0.9397879906
 40
0.9699419664
 40
1.0
 40
1.0
 40
1.0
 40
1.0
 10
9.8079884284
 20
8.6857180231
 30
0.0
 10
9.8008175463
 20
8.6862153255
 30
0.0
 10
9.7900691267
 20
8.6873298427
 30
0.0
 10
9.7758269353
 20
8.6895371597
 30
0.0
 10
9.7616021317
 20
8.6922319262
 30
0.0
 10
9.7439454601
 20
8.6965004648
 30
0.0
 10
9.7265722094
 20
8.7019312311
 30
0.0
 10
9.7128685621
 20
8.7069585126
 30
0.0
 10
9.6992857426
 20
8.7124443072
 30
0.0
 10
9.6826082358
 20
8.7201319475
 30
0.0
 10
9.663179875
 20
8.7306229306
 30
0.0
 10
9.6443976084
 20
8.7423318203
 30
0.0
 10
9.6263368581
 20
8.7551969704
 30
0.0
 10
9.6090666689
 20
8.7691529394
 30
0.0
 10
9.5926504644
 20
8.7841309359
 30
0.0
 10
9.5771458256
 20
8.8000596594
 30
0.0
 10
9.5626046631
 20
8.816865948
 30
0.0
 10
9.5490733904
 20
8.8344753754
 30
0.0
 10
9.5365931771
 20
8.8528127522
 30
0.0
 10
9.5252002359
 20
8.8718025395
 30
0.0
 10
9.5149261329
 20
8.8913691758
 30
0.0
 10
9.5057981049
 20
8.9114373231
 30
0.0
 10
9.4978393695
 20
8.931932039
 30
0.0
 10
9.4910694182
 20
8.9527788841
 30
0.0
 10
9.4855042838
 20
8.9739039724
 30
0.0
 10
9.481156776
 20
8.9952339755
 30
0.0
 10
9.4780366795
 20
9.0166960884
 30
0.0
 10
9.4761509117
 20
9.0382179662
 30
0.0
 10
9.4755036367
 20
9.0597276395
 30
0.0
 10
9.4760963355
 20
9.0811534189
 30
0.0
 10
9.4779278226
 20
9.102423785
 30
0.0
 10
9.4809942408
 20
9.1234673195
 30
0.0
 10
9.485288941
 20
9.1442125005
 30
0.0
 10
9.4908025551
 20
9.1645880615
 30
0.0
 10
9.4975221409
 20
9.1845213504
 30
0.0
 10
9.5028042605
 20
9.1974891855
 30
0.0
 10
9.5056401366
 20
9.2038722746
 30
0.0
  0
SPLINE
  5
31B
100
AcDbEntity
  8
0
100
AcDbSpline
 62
7
  6
CONTINUOUS
 70
0
 71
3
 72
41
 73
37
 74
0
 42
0.0000001
 43
0.0000001
 44
0.0000000001
 40
0.0
 40
0.0
 40
0.0
 40
0.0
 40
0.029942123
 40
0.0449237706
 40
0.0599145177
 40
0.0899291716
 40
0.1200145961
 40
0.1350933574
 40
0.1501974726
 40
0.1804849654
 40
0.2108989488
 40
0.2414525624
 40
0.2721557217
 40
0.3030149378
 40
0.3340332219
 40
0.3652100719
 40
0.3965415365
 40
0.4280203507
 40
0.4596361361
 40
0.4913756582
 40
0.5232231336
 40
0.5551605782
 40
0.5871681905
 40
0.6192247616
 40
0.6513081064
 40
0.6833955071
 40
0.7154641657
 40
0.7474916563
 40
0.7794563734
 40
0.811337967
 40
0.843117763
 40
0.8747791516
 40
0.9063079641
 40
0.9376927517
 40
0.9689251728
 40
1.0
 40
1.0
 40
1.0
 40
1.0
 10
13.1237838864
 20
6.5531159421
 30
0.0
 10
13.120283469
 20
6.5497347754
 30
0.0
 10
13.1148265577
 20
6.5448678495
 30
0.0
 10
13.1071842375
 20
6.5388290676
 30
0.0
 10
13.0992985289
 20
6.5330907977
 30
0.0
 10
13.0890089803
 20
6.5265013711
 30
0.0
 10
13.0782191187
 20
6.5207375357
 30
0.0
 10
13.0693202885
 20
6.5166370911
 30
0.0
 10
13.0602376069
 20
6.5128751862
 30
0.0
 10
13.0485849484
 20
6.5088300182
 30
0.0
 10
13.0342247907
 20
6.5050600088
 30
0.0
 10
13.0195512816
 20
6.5023892047
 30
0.0
 10
13.0046457375
 20
6.5008323473
 30
0.0
 10
12.9895900392
 20
6.5003977435
 30
0.0
 10
12.9744670281
 20
6.5010876058
 30
0.0
 10
12.9593598244
 20
6.5028979492
 30
0.0
 10
12.9443514365
 20
6.5058186487
 30
0.0
 10
12.9295242931
 20
6.5098334946
 30
0.0
 10
12.9149598013
 20
6.514920289
 30
0.0
 10
12.9007379048
 20
6.5210509706
 30
0.0
 10
12.8869366515
 20
6.5281917709
 30
0.0
 10
12.8736317709
 20
6.5363034006
 30
0.0
 10
12.8608962647
 20
6.5453412651
 30
0.0
 10
12.8488000107
 20
6.5552557078
 30
0.0
 10
12.8374093842
 20
6.5659922813
 30
0.0
 10
12.8267868978
 20
6.5774920434
 30
0.0
 10
12.8169908621
 20
6.5896918776
 30
0.0
 10
12.8080750685
 20
6.6025248361
 30
0.0
 10
12.8000884969
 20
6.6159205026
 30
0.0
 10
12.7930750481
 20
6.6298053766
 30
0.0
 10
12.7870733058
 20
6.6441032626
 30
0.0
 10
12.7821163205
 20
6.6587357179
 30
0.0
 10
12.7782314383
 20
6.6736223451
 30
0.0
 10
12.7754401278
 20
6.6886817168
 30
0.0
 10
12.7737578919
 20
6.7038300175
 30
0.0
 10
12.7733810984
 20
6.7139612251
 30
0.0
 10
12.7733810984
 20
6.7190120784
 30
0.0
  0
SPLINE
  5
31C
100
AcDbEntity
  8
0
100
AcDbSpline
 62
7
  6
CONTINUOUS
 70
0
 71
3
 72
15
 73
11
 74
0
 42
0.0000001
 43
0.0000001
 44
0.0000000001
 40
0.0
 40
0.0
 40
0.0
 40
0.0
 40
0.1273482808
 40
0.2538605196
 40
0.3795878971
 40
0.5046050835
 40
0.6290174393
 40
0.7529533827
 40
0.8765605876
 40
1.0
 40
1.0
 40
1.0
 40
1.0
 10
10.2759795939
 20
9.6093569652
 30
0.0
 10
10.2759795939
 20
9.6136840389
 30
0.0
 10
10.2763927363
 20
9.6223157614
 30
0.0
 10
10.2782611431
 20
9.635097335
 30
0.0
 10
10.2813592731
 20
9.64755776
 30
0.0
 10
10.2856591488
 20
9.6595805093
 30
0.0
 10
10.2911212994
 20
9.671054714
 30
0.0
 10
10.2976959524
 20
9.6818744231
 30
0.0
 10
10.3053213046
 20
9.6919382434
 30
0.0
 10
10.3110627962
 20
9.6980858244
 30
0.0
 10
10.3140795222
 20
9.7009997836
 30
0.0
  0
SPLINE
  5
31D
100
AcDbEntity
  8
0
100
AcDbSpline
 62
7
  6
CONTINUOUS
 70
0
 71
3
 72
41
 73
37
 74
0
 42
0.0000001
 43
0.0000001
 44
0.0000000001
 40
0.0
 40
0.0
 40
0.0
 40
0.0
 40
0.029942123
 40
0.0449237706
 40
0.0599145177
 40
0.0899291716
 40
0.1200145961
 40
0.1350933574
 40
0.1501974726
 40
0.1804849654
 40
0.2108989488
 40
0.2414525624
 40
0.2721557217
 40
0.3030149378
 40
0.3340332219
 40
0.3652100719
 40
0.3965415365
 40
0.4280203507
 40
0.4596361361
 40
0.4913756582
 40
0.5232231336
 40
0.5551605782
 40
0.5871681905
 40
0.6192247616
 40
0.6513081064
 40
0.6833955071
 40
0.7154641657
 40
0.7474916563
 40
0.7794563734
 40
0.811337967
 40
0.843117763
 40
0.8747791516
 40
0.9063079641
 40
0.9376927517
 40
0.9689251728
 40
1.0
 40
1.0
 40
1.0
 40
1.0
 10
13.1237838864
 20
9.2094121218
 30
0.0
 10
13.120283469
 20
9.2060309551
 30
0.0
 10
13.1148265577
 20
9.2011640292
 30
0.0
 10
13.1071842375
 20
9.1951252473
 30
0.0
 10
13.0992985289
 20
9.1893869774
 30
0.0
 10
13.0890089803
 20
9.1827975508
 30
0.0
 10
13.0782191187
 20
9.1770337154
 30
0.0
 10
13.0693202885
 20
9.1729332708
 30
0.0
 10
13.0602376069
 20
9.1691713659
 30
0.0
 10
13.0485849484
 20
9.1651261979
 30
0.0
 10
13.0342247907
 20
9.1613561885
 30
0.0
 10
13.0195512816
 20
9.1586853844
 30
0.0
 10
13.0046457375
 20
9.157128527
 30
0.0
 10
12.9895900392
 20
9.1566939232
 30
0.0
 10
12.9744670281
 20
9.1573837855
 30
0.0
 10
12.9593598244
 20
9.1591941289
 30
0.0
 10
12.9443514365
 20
9.1621148283
 30
0.0
 10
12.9295242931
 20
9.1661296743
 30
0.0
 10
12.9149598013
 20
9.1712164687
 30
0.0
 10
12.9007379048
 20
9.1773471503
 30
0.0
 10
12.8869366515
 20
9.1844879506
 30
0.0
 10
12.8736317709
 20
9.1925995803
 30
0.0
 10
12.8608962647
 20
9.2016374447
 30
0.0
 10
12.8488000107
 20
9.2115518875
 30
0.0
 10
12.8374093842
 20
9.222288461
 30
0.0
 10
12.8267868978
 20
9.2337882231
 30
0.0
 10
12.8169908621
 20
9.2459880573
 30
0.0
 10
12.8080750685
 20
9.2588210158
 30
0.0
 10
12.8000884969
 20
9.2722166823
 30
0.0
 10
12.7930750481
 20
9.2861015563
 30
0.0
 10
12.7870733058
 20
9.3003994423
 30
0.0
 10
12.7821163205
 20
9.3150318976
 30
0.0
 10
12.7782314383
 20
9.3299185248
 30
0.0
 10
12.7754401278
 20
9.3449778964
 30
0.0
 10
12.7737578919
 20
9.3601261972
 30
0.0
 10
12.7733810984
 20
9.3702574048
 30
0.0
 10
12.7733810984
 20
9.3753082581
 30
0.0
  0
SPLINE
  5
31E
100
AcDbEntity
  8
0
100
AcDbSpline
 62
7
  6
CONTINUOUS
 70
0
 71
3
 72
40
 73
36
 74
0
 42
0.0000001
 43
0.0000001
 44
0.0000000001
 40
0.0
 40
0.0
 40
0.0
 40
0.0
 40
0.0299422973
 40
0.0449240327
 40
0.059914866
 40
0.089929696
 40
0.1200152967
 40
0.1501925739
 40
0.180480241
 40
0.2108943975
 40
0.2414481839
 40
0.2721515165
 40
0.3030109074
 40
0.3340293686
 40
0.3652063985
 40
0.3965380456
 40
0.4280170434
 40
0.4596330122
 40
0.4913727167
 40
0.5232203738
 40
0.5551580001
 40
0.587165795
 40
0.6192225506
 40
0.6513060818
 40
0.6833936709
 40
0.7154625181
 40
0.7474901959
 40
0.7794550985
 40
0.8113368727
 40
0.8431168595
 40
0.8747783985
 40
0.906307485
 40
0.9376922173
 40
0.9689252845
 40
1.0
 40
1.0
 40
1.0
 40
1.0
 10
10.509304839
 20
9.4988907471
 30
0.0
 10
10.5069739928
 20
9.4966393028
 30
0.0
 10
10.5033403806
 20
9.4933985067
 30
0.0
 10
10.4982515175
 20
9.4893774291
 30
0.0
 10
10.4930006542
 20
9.4855564203
 30
0.0
 10
10.4861488886
 20
9.4811685891
 30
0.0
 10
10.4775220321
 20
9.4765601047
 30
0.0
 10
10.4685330477
 20
9.4726305672
 30
0.0
 10
10.4592318024
 20
9.4694017538
 30
0.0
 10
10.4496694833
 20
9.4668912811
 30
0.0
 10
10.4398987907
 20
9.4651128673
 30
0.0
 10
10.4299735151
 20
9.464076169
 30
0.0
 10
10.4199482742
 20
9.4637867612
 30
0.0
 10
10.4098782041
 20
9.464246107
 30
0.0
 10
10.3998186596
 20
9.465451558
 30
0.0
 10
10.3898249131
 20
9.4673963746
 30
0.0
 10
10.3799518539
 20
9.4700697638
 30
0.0
 10
10.370253689
 20
9.4734569406
 30
0.0
 10
10.3607836505
 20
9.477539218
 30
0.0
 10
10.3515937081
 20
9.4822941088
 30
0.0
 10
10.3427342876
 20
9.4876954512
 30
0.0
 10
10.3342539987
 20
9.4937135508
 30
0.0
 10
10.3261993715
 20
9.5003153435
 30
0.0
 10
10.3186146046
 20
9.5074645754
 30
0.0
 10
10.3115413254
 20
9.5151219996
 30
0.0
 10
10.3050183648
 20
9.5232455899
 30
0.0
 10
10.2990815404
 20
9.5317907655
 30
0.0
 10
10.2937634661
 20
9.5407106357
 30
0.0
 10
10.2890933687
 20
9.5499562572
 30
0.0
 10
10.2850969503
 20
9.5594768923
 30
0.0
 10
10.2817961897
 20
9.5692203135
 30
0.0
 10
10.2792093572
 20
9.5791329649
 30
0.0
 10
10.2773506389
 20
9.5891606842
 30
0.0
 10
10.2762305103
 20
9.5992475905
 30
0.0
 10
10.2759795939
 20
9.6059937484
 30
0.0
 10
10.2759795939
 20
9.6093569652
 30
0.0
  0
SPLINE
  5
31F
100
AcDbEntity
  8
0
100
AcDbSpline
 62
7
  6
CONTINUOUS
 70
0
 71
3
 72
40
 73
36
 74
0
 42
0.0000001
 43
0.0000001
 44
0.0000000001
 40
0.0
 40
0.0
 40
0.0
 40
0.0
 40
0.0299422973
 40
0.0449240327
 40
0.059914866
 40
0.089929696
 40
0.1200152967
 40
0.1501925739
 40
0.180480241
 40
0.2108943975
 40
0.2414481839
 40
0.2721515165
 40
0.3030109074
 40
0.3340293686
 40
0.3652063985
 40
0.3965380456
 40
0.4280170434
 40
0.4596330122
 40
0.4913727167
 40
0.5232203738
 40
0.5551580001
 40
0.587165795
 40
0.6192225506
 40
0.6513060818
 40
0.6833936709
 40
0.7154625181
 40
0.7474901959
 40
0.7794550985
 40
0.8113368727
 40
0.8431168595
 40
0.8747783985
 40
0.906307485
 40
0.9376922173
 40
0.9689252845
 40
1.0
 40
1.0
 40
1.0
 40
1.0
 10
11.1130085162
 20
6.6790209551
 30
0.0
 10
11.11067767
 20
6.6767695108
 30
0.0
 10
11.1070440578
 20
6.6735287146
 30
0.0
 10
11.1019551947
 20
6.669507637
 30
0.0
 10
11.0967043314
 20
6.6656866283
 30
0.0
 10
11.0898525658
 20
6.6612987971
 30
0.0
 10
11.0812257093
 20
6.6566903127
 30
0.0
 10
11.072236725
 20
6.6527607752
 30
0.0
 10
11.0629354796
 20
6.6495319618
 30
0.0
 10
11.0533731605
 20
6.6470214891
 30
0.0
 10
11.0436024679
 20
6.6452430753
 30
0.0
 10
11.0336771923
 20
6.644206377
 30
0.0
 10
11.0236519514
 20
6.6439169692
 30
0.0
 10
11.0135818813
 20
6.644376315
 30
0.0
 10
11.0035223368
 20
6.645581766
 30
0.0
 10
10.9935285903
 20
6.6475265826
 30
0.0
 10
10.9836555312
 20
6.6501999718
 30
0.0
 10
10.9739573662
 20
6.6535871486
 30
0.0
 10
10.9644873277
 20
6.657669426
 30
0.0
 10
10.9552973853
 20
6.6624243168
 30
0.0
 10
10.9464379648
 20
6.6678256592
 30
0.0
 10
10.937957676
 20
6.6738437588
 30
0.0
 10
10.9299030487
 20
6.6804455515
 30
0.0
 10
10.9223182818
 20
6.6875947834
 30
0.0
 10
10.9152450026
 20
6.6952522076
 30
0.0
 10
10.908722042
 20
6.7033757979
 30
0.0
 10
10.9027852176
 20
6.7119209735
 30
0.0
 10
10.8974671433
 20
6.7208408437
 30
0.0
 10
10.8927970459
 20
6.7300864652
 30
0.0
 10
10.8888006275
 20
6.7396071003
 30
0.0
 10
10.8854998669
 20
6.7493505215
 30
0.0
 10
10.8829130344
 20
6.7592631729
 30
0.0
 10
10.8810543161
 20
6.7692908922
 30
0.0
 10
10.8799341875
 20
6.7793777985
 30
0.0
 10
10.8796832711
 20
6.7861239564
 30
0.0
 10
10.8796832711
 20
6.7894871732
 30
0.0
  0
SPLINE
  5
320
100
AcDbEntity
  8
0
100
AcDbSpline
 62
7
  6
CONTINUOUS
 70
0
 71
3
 72
39
 73
35
 74
0
 42
0.0000001
 43
0.0000001
 44
0.0000000001
 40
0.0
 40
0.0
 40
0.0
 40
0.0
 40
0.0299424796
 40
0.0599093277
 40
0.0899243268
 40
0.1200100989
 40
0.1501875564
 40
0.1804754082
 40
0.2108897438
 40
0.2414437065
 40
0.2721472214
 40
0.3030068034
 40
0.334025452
 40
0.3652026597
 40
0.3965344836
 40
0.4280136674
 40
0.4596298279
 40
0.4913697183
 40
0.5232175588
 40
0.5551553757
 40
0.587163368
 40
0.6192203146
 40
0.6513040285
 40
0.6833918015
 40
0.7154608406
 40
0.7474887097
 40
0.7794537919
 40
0.8113357643
 40
0.8431159187
 40
0.8747776681
 40
0.9063070433
 40
0.9376914486
 40
0.9689258945
 40
1.0
 40
1.0
 40
1.0
 40
1.0
 10
12.0809108384
 20
9.3709879096
 30
0.0
 10
12.0796168452
 20
9.3697379976
 30
0.0
 10
12.0769271253
 20
9.3673390281
 30
0.0
 10
12.0726177474
 20
9.3640708774
 30
0.0
 10
12.0680556332
 20
9.3611493462
 30
0.0
 10
12.0632662653
 20
9.3585908277
 30
0.0
 10
12.0582759678
 20
9.3564093118
 30
0.0
 10
12.0531122766
 20
9.3546168109
 30
0.0
 10
12.0478036591
 20
9.3532231051
 30
0.0
 10
12.0423793617
 20
9.3522357961
 30
0.0
 10
12.036869246
 20
9.3516602503
 30
0.0
 10
12.0313036311
 20
9.3514995901
 30
0.0
 10
12.0257131309
 20
9.3517546182
 30
0.0
 10
12.0201284752
 20
9.3524238414
 30
0.0
 10
12.0145803455
 20
9.3535035158
 30
0.0
 10
12.0090992143
 20
9.3549876638
 30
0.0
 10
12.0037151836
 20
9.3568680997
 30
0.0
 10
11.9984577994
 20
9.3591344228
 30
0.0
 10
11.9933559086
 20
9.3617741435
 30
0.0
 10
11.9884375048
 20
9.3647727418
 30
0.0
 10
11.9837295888
 20
9.3681137548
 30
0.0
 10
11.9792579919
 20
9.3717788195
 30
0.0
 10
11.975047237
 20
9.375747791
 30
0.0
 10
11.9711204298
 20
9.3799988812
 30
0.0
 10
11.9674991338
 20
9.3845087673
 30
0.0
 10
11.9642032548
 20
9.3892527136
 30
0.0
 10
11.9612508765
 20
9.3942046717
 30
0.0
 10
11.9586582232
 20
9.3993374689
 30
0.0
 10
11.9564395544
 20
9.4046229388
 30
0.0
 10
11.9546071011
 20
9.4100321041
 30
0.0
 10
11.9531710336
 20
9.4155351973
 30
0.0
 10
11.9521391042
 20
9.4211022268
 30
0.0
 10
11.951517301
 20
9.4267020731
 30
0.0
 10
11.9513779726
 20
9.4304472926
 30
0.0
 10
11.9513779726
 20
9.4323143685
 30
0.0
  0
SPLINE
  5
321
100
AcDbEntity
  8
0
100
AcDbSpline
 62
7
  6
CONTINUOUS
 70
0
 71
3
 72
39
 73
35
 74
0
 42
0.0000001
 43
0.0000001
 44
0.0000000001
 40
0.0
 40
0.0
 40
0.0
 40
0.0
 40
0.0299424796
 40
0.0599093277
 40
0.0899243268
 40
0.1200100989
 40
0.1501875564
 40
0.1804754082
 40
0.2108897438
 40
0.2414437065
 40
0.2721472214
 40
0.3030068034
 40
0.334025452
 40
0.3652026597
 40
0.3965344836
 40
0.4280136674
 40
0.4596298279
 40
0.4913697183
 40
0.5232175588
 40
0.5551553757
 40
0.587163368
 40
0.6192203146
 40
0.6513040285
 40
0.6833918015
 40
0.7154608406
 40
0.7474887097
 40
0.7794537919
 40
0.8113357643
 40
0.8431159187
 40
0.8747776681
 40
0.9063070433
 40
0.9376914486
 40
0.9689258945
 40
1.0
 40
1.0
 40
1.0
 40
1.0
 10
9.8621791502
 20
6.8685612951
 30
0.0
 10
9.8608851571
 20
6.8673113831
 30
0.0
 10
9.8581954371
 20
6.8649124136
 30
0.0
 10
9.8538860593
 20
6.8616442629
 30
0.0
 10
9.8493239451
 20
6.8587227317
 30
0.0
 10
9.8445345772
 20
6.8561642132
 30
0.0
 10
9.8395442797
 20
6.8539826973
 30
0.0
 10
9.8343805885
 20
6.8521901964
 30
0.0
 10
9.829071971
 20
6.8507964906
 30
0.0
 10
9.8236476736
 20
6.8498091816
 30
0.0
 10
9.8181375579
 20
6.8492336358
 30
0.0
 10
9.812571943
 20
6.8490729756
 30
0.0
 10
9.8069814427
 20
6.8493280037
 30
0.0
 10
9.8013967871
 20
6.8499972269
 30
0.0
 10
9.7958486574
 20
6.8510769013
 30
0.0
 10
9.7903675262
 20
6.8525610493
 30
0.0
 10
9.7849834955
 20
6.8544414852
 30
0.0
 10
9.7797261113
 20
6.8567078083
 30
0.0
 10
9.7746242205
 20
6.859347529
 30
0.0
 10
9.7697058167
 20
6.8623461273
 30
0.0
 10
9.7649979006
 20
6.8656871402
 30
0.0
 10
9.7605263038
 20
6.869352205
 30
0.0
 10
9.7563155489
 20
6.8733211765
 30
0.0
 10
9.7523887417
 20
6.8775722667
 30
0.0
 10
9.7487674457
 20
6.8820821528
 30
0.0
 10
9.7454715667
 20
6.8868260991
 30
0.0
 10
9.7425191884
 20
6.8917780572
 30
0.0
 10
9.7399265351
 20
6.8969108544
 30
0.0
 10
9.7377078663
 20
6.9021963243
 30
0.0
 10
9.735875413
 20
6.9076054896
 30
0.0
 10
9.7344393455
 20
6.9131085828
 30
0.0
 10
9.7334074161
 20
6.9186756123
 30
0.0
 10
9.7327856129
 20
6.9242754586
 30
0.0
 10
9.7326462844
 20
6.9280206781
 30
0.0
 10
9.7326462844
 20
6.929887754
 30
0.0
  0
SPLINE
  5
322
100
AcDbEntity
  8
0
100
AcDbSpline
 62
7
  6
CONTINUOUS
 70
0
 71
3
 72
25
 73
21
 74
0
 42
0.0000001
 43
0.0000001
 44
0.0000000001
 40
0.0
 40
0.0
 40
0.0
 40
0.0
 40
0.0623465486
 40
0.0934585143
 40
0.1245318956
 40
0.1865705158
 40
0.2485109899
 40
0.2794627959
 40
0.3104060905
 40
0.3722784976
 40
0.4341855437
 40
0.496174496
 40
0.5582923254
 40
0.6205844149
 40
0.6830931852
 40
0.7458567372
 40
0.8089074583
 40
0.8722712217
 40
0.9359651247
 40
1.0
 40
1.0
 40
1.0
 40
1.0
 10
10.1103368701
 20
8.8704130016
 30
0.0
 10
10.107149234
 20
8.863238159
 30
0.0
 10
10.1019900302
 20
8.8526458877
 30
0.0
 10
10.0943754177
 20
8.8389340402
 30
0.0
 10
10.0862917408
 20
8.8255379074
 30
0.0
 10
10.0752994473
 20
8.8093786944
 30
0.0
 10
10.0631564896
 20
8.794083926
 30
0.0
 10
10.0527894007
 20
8.7824304992
 30
0.0
 10
10.0419978286
 20
8.7711810216
 30
0.0
 10
10.0277193905
 20
8.757894344
 30
0.0
 10
10.009407626
 20
8.7433006629
 30
0.0
 10
9.989997041
 20
8.730146759
 30
0.0
 10
9.9695788767
 20
8.7185200242
 30
0.0
 10
9.948253161
 20
8.7085003833
 30
0.0
 10
9.9261293775
 20
8.7001598057
 30
0.0
 10
9.9033256367
 20
8.6935605911
 30
0.0
 10
9.8799680798
 20
8.688753953
 30
0.0
 10
9.8561890314
 20
8.6857789348
 30
0.0
 10
9.8321282848
 20
8.6846608562
 30
0.0
 10
9.8160327877
 20
8.6851601449
 30
0.0
 10
9.8079884284
 20
8.6857180231
 30
0.0
  0
SPLINE
  5
323
100
AcDbEntity
  8
0
100
AcDbSpline
 62
7
  6
CONTINUOUS
 70
0
 71
3
 72
25
 73
21
 74
0
 42
0.0000001
 43
0.0000001
 44
0.0000000001
 40
0.0
 40
0.0
 40
0.0
 40
0.0
 40
0.0623465485
 40
0.0934585142
 40
0.1245318956
 40
0.1865705157
 40
0.2485109898
 40
0.2794627958
 40
0.3104060903
 40
0.3722784974
 40
0.4341855435
 40
0.4961744958
 40
0.5582923251
 40
0.6205844146
 40
0.683093185
 40
0.745856737
 40
0.8089074581
 40
0.8722712216
 40
0.9359651246
 40
1.0
 40
1.0
 40
1.0
 40
1.0
 10
11.3177442245
 20
8.7866790171
 30
0.0
 10
11.3145565884
 20
8.7795041744
 30
0.0
 10
11.3093973844
 20
8.768911903
 30
0.0
 10
11.3017827717
 20
8.7552000552
 30
0.0
 10
11.2936990946
 20
8.7418039222
 30
0.0
 10
11.2827068009
 20
8.7256447088
 30
0.0
 10
11.2705638429
 20
8.7103499403
 30
0.0
 10
11.2601967537
 20
8.6986965133
 30
0.0
 10
11.2494051813
 20
8.6874470356
 30
0.0
 10
11.2351267428
 20
8.6741603578
 30
0.0
 10
11.2168149779
 20
8.6595666766
 30
0.0
 10
11.1974043924
 20
8.6464127727
 30
0.0
 10
11.1769862276
 20
8.6347860379
 30
0.0
 10
11.1556605113
 20
8.6247663971
 30
0.0
 10
11.1335367272
 20
8.6164258197
 30
0.0
 10
11.1107329858
 20
8.6098266054
 30
0.0
 10
11.0873754283
 20
8.6050199676
 30
0.0
 10
11.0635963794
 20
8.6020449498
 30
0.0
 10
11.0395356323
 20
8.6009268717
 30
0.0
 10
11.0234401349
 20
8.6014261607
 30
0.0
 10
11.0153957755
 20
8.601984039
 30
0.0
  0
SPLINE
  5
324
100
AcDbEntity
  8
0
100
AcDbSpline
 62
7
  6
CONTINUOUS
 70
0
 71
3
 72
21
 73
17
 74
0
 42
0.0000001
 43
0.0000001
 44
0.0000000001
 40
0.0
 40
0.0
 40
0.0
 40
0.0
 40
0.0619007618
 40
0.1237366835
 40
0.1855410965
 40
0.2473479812
 40
0.3091914519
 40
0.3711051512
 40
0.433121647
 40
0.4952719489
 40
0.5575850136
 40
0.6200871896
 40
0.6828016331
 40
0.7457486068
 40
0.8723364238
 40
1.0
 40
1.0
 40
1.0
 40
1.0
 10
12.1268146203
 20
8.8083008841
 30
0.0
 10
12.1254453405
 20
8.8063508337
 30
0.0
 10
12.1225811531
 20
8.802540212
 30
0.0
 10
12.1179247232
 20
8.797118372
 30
0.0
 10
12.1129270772
 20
8.7920139348
 30
0.0
 10
12.1076065958
 20
8.7872466101
 30
0.0
 10
12.1019826144
 20
8.7828345519
 30
0.0
 10
12.0960757429
 20
8.7787948025
 30
0.0
 10
12.0899077828
 20
8.7751429534
 30
0.0
 10
12.0835016176
 20
8.7718931778
 30
0.0
 10
12.0768810708
 20
8.7690581938
 30
0.0
 10
12.0700709863
 20
8.7666491692
 30
0.0
 10
12.0630966636
 20
8.764675516
 30
0.0
 10
12.0535985478
 20
8.7626314218
 30
0.0
 10
12.0414380671
 20
8.7612052493
 30
0.0
 10
12.0316226298
 20
8.7612856102
 30
0.0
 10
12.0267201878
 20
8.7616255957
 30
0.0
  0
SPLINE
  5
325
100
AcDbEntity
  8
0
100
AcDbSpline
 62
7
  6
CONTINUOUS
 70
0
 71
3
 72
39
 73
35
 74
0
 42
0.0000001
 43
0.0000001
 44
0.0000000001
 40
0.0
 40
0.0
 40
0.0
 40
0.0
 40
0.029942471
 40
0.0599093185
 40
0.089924325
 40
0.1200101043
 40
0.1501875632
 40
0.1804754155
 40
0.2108897611
 40
0.2414437393
 40
0.2721472649
 40
0.3030068482
 40
0.3340255005
 40
0.3652027199
 40
0.3965345553
 40
0.4280137416
 40
0.4596298994
 40
0.4913697937
 40
0.523217641
 40
0.5551554573
 40
0.5871634413
 40
0.619220384
 40
0.6513040994
 40
0.6833918697
 40
0.715460897
 40
0.7474887556
 40
0.7794538398
 40
0.8113357995
 40
0.8431159588
 40
0.874777715
 40
0.9063068673
 40
0.9376920959
 40
0.968924654
 40
1.0
 40
1.0
 40
1.0
 40
1.0
 10
10.672221949
 20
7.1568913289
 30
0.0
 10
10.6660008233
 20
7.1508821879
 30
0.0
 10
10.6530693798
 20
7.1393488812
 30
0.0
 10
10.6323512023
 20
7.1236367906
 30
0.0
 10
10.6104179053
 20
7.1095912063
 30
0.0
 10
10.5873920456
 20
7.0972909149
 30
0.0
 10
10.5634002154
 20
7.0868031169
 30
0.0
 10
10.5385748206
 20
7.0781854667
 30
0.0
 10
10.5130526607
 20
7.0714851255
 30
0.0
 10
10.4869743465
 20
7.0667386749
 30
0.0
 10
10.4604834633
 20
7.0639718869
 30
0.0
 10
10.4337257849
 20
7.0631996323
 30
0.0
 10
10.4068484709
 20
7.0644258115
 30
0.0
 10
10.3799992632
 20
7.0676433524
 30
0.0
 10
10.3533256822
 20
7.0728342649
 30
0.0
 10
10.3269742276
 20
7.0799697485
 30
0.0
 10
10.301089577
 20
7.0890103404
 30
0.0
 10
10.2758138069
 20
7.0999061636
 30
0.0
 10
10.2512856251
 20
7.1125972014
 30
0.0
 10
10.2276396205
 20
7.1270136292
 30
0.0
 10
10.2050055356
 20
7.1430761956
 30
0.0
 10
10.1835075665
 20
7.1606966574
 30
0.0
 10
10.1632636754
 20
7.1797782431
 30
0.0
 10
10.144384956
 20
7.200216192
 30
0.0
 10
10.1269750369
 20
7.2218983296
 30
0.0
 10
10.1111295174
 20
7.2447056749
 30
0.0
 10
10.096935448
 20
7.2685130837
 30
0.0
 10
10.08447086
 20
7.2931899329
 30
0.0
 10
10.0738043243
 20
7.3186008049
 30
0.0
 10
10.0649945845
 20
7.34460628
 30
0.0
 10
10.0580901956
 20
7.3710634935
 30
0.0
 10
10.0531294037
 20
7.3978276578
 30
0.0
 10
10.0501396103
 20
7.4247499103
 30
0.0
 10
10.0494699742
 20
7.4427555398
 30
0.0
 10
10.0494699742
 20
7.4517321939
 30
0.0
  0
SPLINE
  5
326
100
AcDbEntity
  8
0
100
AcDbSpline
 62
7
  6
CONTINUOUS
 70
0
 71
3
 72
39
 73
35
 74
0
 42
0.0000001
 43
0.0000001
 44
0.0000000001
 40
0.0
 40
0.0
 40
0.0
 40
0.0
 40
0.0315010001
 40
0.0631045852
 40
0.0947978325
 40
0.1265677974
 40
0.1902646592
 40
0.2221883373
 40
0.2541383359
 40
0.3180483495
 40
0.3819180957
 40
0.4138179979
 40
0.4456715645
 40
0.5091674385
 40
0.5408079395
 40
0.5723525488
 40
0.6037889691
 40
0.6351052653
 40
0.6662901803
 40
0.697333571
 40
0.728226978
 40
0.7589643377
 40
0.7895428251
 40
0.8199637865
 40
0.8502336756
 40
0.8803648464
 40
0.895387996
 40
0.9103840544
 40
0.925356396
 40
0.9403087314
 40
0.9552448049
 40
0.9701689318
 40
0.985086604
 40
1.0
 40
1.0
 40
1.0
 40
1.0
 10
11.5935872927
 20
7.0229759175
 30
0.0
 10
11.5860945287
 20
7.0253687508
 30
0.0
 10
11.571227174
 20
7.0306213546
 30
0.0
 10
11.5493981394
 20
7.0398058633
 30
0.0
 10
11.5280634992
 20
7.050242745
 30
0.0
 10
11.5003425016
 20
7.0657487528
 30
0.0
 10
11.4738615418
 20
7.0834970655
 30
0.0
 10
11.4488413451
 20
7.1032277895
 30
0.0
 10
11.4248163495
 20
7.1242427147
 30
0.0
 10
11.3968183494
 20
7.1527467365
 30
0.0
 10
11.3718286106
 20
7.183906829
 30
0.0
 10
11.3538419767
 20
7.2102274984
 30
0.0
 10
11.3372888828
 20
7.2373607867
 30
0.0
 10
11.3229241276
 20
7.2657111149
 30
0.0
 10
11.3110077348
 20
7.2950260069
 30
0.0
 10
11.3033659844
 20
7.3173970321
 30
0.0
 10
11.2970765172
 20
7.3401012812
 30
0.0
 10
11.2922054336
 20
7.3630610676
 30
0.0
 10
11.2888208719
 20
7.386188624
 30
0.0
 10
11.286991083
 20
7.4093863663
 30
0.0
 10
11.2867829948
 20
7.4325451375
 30
0.0
 10
11.2882599331
 20
7.4555432701
 30
0.0
 10
11.2914786486
 20
7.4782457481
 30
0.0
 10
11.2964859844
 20
7.500504708
 30
0.0
 10
11.3033136864
 20
7.5221585657
 30
0.0
 10
11.310541321
 20
7.5395792538
 30
0.0
 10
11.3172338792
 20
7.5530297625
 30
0.0
 10
11.3227004111
 20
7.5628489548
 30
0.0
 10
11.3286127807
 20
7.5723854033
 30
0.0
 10
11.3349636766
 20
7.5816176071
 30
0.0
 10
11.3417435649
 20
7.5905244495
 30
0.0
 10
11.3489416872
 20
7.5990857118
 30
0.0
 10
11.3565446163
 20
7.6072815393
 30
0.0
 10
11.3618738188
 20
7.6124905402
 30
0.0
 10
11.3645997432
 20
7.6150274211
 30
0.0
  0
SPLINE
  5
327
100
AcDbEntity
  8
0
100
AcDbSpline
 62
7
  6
CONTINUOUS
 70
0
 71
3
 72
41
 73
37
 74
0
 42
0.0000001
 43
0.0000001
 44
0.0000000001
 40
0.0
 40
0.0
 40
0.0
 40
0.0
 40
0.030319942
 40
0.0455359962
 40
0.0607904802
 40
0.0914161991
 40
0.1222211393
 40
0.1376980071
 40
0.1532227628
 40
0.1844087918
 40
0.215784361
 40
0.2473408943
 40
0.2790643799
 40
0.310935929
 40
0.3429324369
 40
0.3750273202
 40
0.4071913083
 40
0.4393932707
 40
0.4716010678
 40
0.5037824106
 40
0.5359057231
 40
0.5679409942
 40
0.5998606115
 40
0.6316401624
 40
0.6632591875
 40
0.694701866
 40
0.72595761
 40
0.75702154
 40
0.7878948101
 40
0.8185847561
 40
0.8491048294
 40
0.8794743266
 40
0.9097177885
 40
0.9398644671
 40
0.9699466703
 40
1.0
 40
1.0
 40
1.0
 40
1.0
 10
12.5222569895
 20
7.1125294099
 30
0.0
 10
12.5190795458
 20
7.1110428506
 30
0.0
 10
12.5141969514
 20
7.1090362641
 30
0.0
 10
12.5075174211
 20
7.1068276258
 30
0.0
 10
12.5007072188
 20
7.1049243336
 30
0.0
 10
12.4920031001
 20
7.1031363241
 30
0.0
 10
12.4831463596
 20
7.1021523537
 30
0.0
 10
12.4759998298
 20
7.1018464483
 30
0.0
 10
12.4688026861
 20
7.1018623263
 30
0.0
 10
12.4597769642
 20
7.1024889663
 30
0.0
 10
12.4490088208
 20
7.1041980953
 30
0.0
 10
12.4383690419
 20
7.1068498914
 30
0.0
 10
12.4279415011
 20
7.1104215494
 30
0.0
 10
12.4178072476
 20
7.1148833426
 30
0.0
 10
12.4080448785
 20
7.120198971
 30
0.0
 10
12.3987298026
 20
7.126325896
 30
0.0
 10
12.3899338485
 20
7.1332156963
 30
0.0
 10
12.3817248183
 20
7.1408144335
 30
0.0
 10
12.3741660892
 20
7.1490630269
 30
0.0
 10
12.3673162281
 20
7.157897639
 30
0.0
 10
12.3612286236
 20
7.1672500723
 30
0.0
 10
12.3559511301
 20
7.1770481819
 30
0.0
 10
12.3515257234
 20
7.1872163086
 30
0.0
 10
12.3479881672
 20
7.1976757362
 30
0.0
 10
12.3453676929
 20
7.2083451787
 30
0.0
 10
12.3436866968
 20
7.2191413029
 30
0.0
 10
12.3429604592
 20
7.2299792892
 30
0.0
 10
12.3431968947
 20
7.2407734341
 30
0.0
 10
12.3443963406
 20
7.2514377953
 30
0.0
 10
12.3465514009
 20
7.2618868809
 30
0.0
 10
12.349646835
 20
7.2720363712
 30
0.0
 10
12.353659579
 20
7.281803892
 30
0.0
 10
12.3585586702
 20
7.2911097302
 30
0.0
 10
12.364305868
 20
7.2998779028
 30
0.0
 10
12.3708543338
 20
7.3080357119
 30
0.0
 10
12.3757216725
 20
7.3130253088
 30
0.0
 10
12.3782670623
 20
7.3153941752
 30
0.0
  0
SPLINE
  5
328
100
AcDbEntity
  8
0
100
AcDbSpline
 62
7
  6
CONTINUOUS
 70
0
 71
3
 72
20
 73
16
 74
0
 42
0.0000001
 43
0.0000001
 44
0.0000000001
 40
0.0
 40
0.0
 40
0.0
 40
0.0
 40
0.0540908515
 40
0.1084089438
 40
0.1631784339
 40
0.2186174016
 40
0.2749355903
 40
0.3323321428
 40
0.4510483247
 40
0.512747921
 40
0.5761925591
 40
0.7088015233
 40
0.7782254824
 40
0.8498488392
 40
1.0
 40
1.0
 40
1.0
 40
1.0
 10
13.6813094934
 20
7.6169775082
 30
0.0
 10
13.6823998395
 20
7.6169018897
 30
0.0
 10
13.6845909092
 20
7.6168237083
 30
0.0
 10
13.6878888113
 20
7.6169267656
 30
0.0
 10
13.6911999298
 20
7.6172499097
 30
0.0
 10
13.6945229672
 20
7.6177929007
 30
0.0
 10
13.6978570558
 20
7.6185555742
 30
0.0
 10
13.7023655525
 20
7.6198793875
 30
0.0
 10
13.7068495994
 20
7.6216395312
 30
0.0
 10
13.7112825691
 20
7.6237943104
 30
0.0
 10
13.7158486396
 20
7.6263036054
 30
0.0
 10
13.7203590763
 20
7.6292228237
 30
0.0
 10
13.7248074132
 20
7.6325090174
 30
0.0
 10
13.7293996625
 20
7.6361897059
 30
0.0
 10
13.7327366811
 20
7.6391877772
 30
0.0
 10
13.7349286044
 20
7.6412855003
 30
0.0
  0
SPLINE
  5
329
100
AcDbEntity
  8
0
100
AcDbSpline
 62
7
  6
CONTINUOUS
 70
0
 71
3
 72
40
 73
36
 74
0
 42
0.0000001
 43
0.0000001
 44
0.0000000001
 40
0.0
 40
0.0
 40
0.0
 40
0.0
 40
0.0429007614
 40
0.0837986784
 40
0.1227065046
 40
0.1596466887
 40
0.1946536484
 40
0.2277754865
 40
0.2590766235
 40
0.2886408828
 40
0.3165745312
 40
0.343010385
 40
0.3681107926
 40
0.3920708425
 40
0.4151189549
 40
0.4375151018
 40
0.4595448386
 40
0.4815093789
 40
0.5037128297
 40
0.5264488946
 40
0.5499893735
 40
0.5745767138
 40
0.5873328892
 40
0.6004264377
 40
0.6277021806
 40
0.6565552262
 40
0.6871026701
 40
0.7194376265
 40
0.7536322391
 40
0.7897414487
 40
0.8278050559
 40
0.8678505343
 40
0.9098945177
 40
0.9539444587
 40
1.0
 40
1.0
 40
1.0
 40
1.0
 10
13.7024707111
 20
9.1109046009
 30
0.0
 10
13.7044716229
 20
9.1142971197
 30
0.0
 10
13.7084787667
 20
9.1208663231
 30
0.0
 10
13.7146641626
 20
9.1302844356
 30
0.0
 10
13.7208749944
 20
9.139023042
 30
0.0
 10
13.7271057607
 20
9.1470741171
 30
0.0
 10
13.7333510002
 20
9.1544304947
 30
0.0
 10
13.739605423
 20
9.1610855663
 30
0.0
 10
13.7458639149
 20
9.1670333018
 30
0.0
 10
13.7521214835
 20
9.1722682591
 30
0.0
 10
13.7583734786
 20
9.1767852505
 30
0.0
 10
13.7646152329
 20
9.1805795308
 30
0.0
 10
13.7708422465
 20
9.183646189
 30
0.0
 10
13.7770495476
 20
9.1859805059
 30
0.0
 10
13.7832315032
 20
9.1875776135
 30
0.0
 10
13.7893812104
 20
9.1884331988
 30
0.0
 10
13.7954904273
 20
9.1885441743
 30
0.0
 10
13.8015499396
 20
9.187909339
 30
0.0
 10
13.8075504923
 20
9.1865302059
 30
0.0
 10
13.8134837671
 20
9.1844100952
 30
0.0
 10
13.8193427227
 20
9.1815542519
 30
0.0
 10
13.8241001618
 20
9.1786019854
 30
0.0
 10
13.8278591569
 20
9.1758959058
 30
0.0
 10
13.8316894922
 20
9.1728741596
 30
0.0
 10
13.8364252957
 20
9.1686252448
 30
0.0
 10
13.8419406017
 20
9.1628802847
 30
0.0
 10
13.8473604074
 20
9.1564265446
 30
0.0
 10
13.8526802241
 20
9.1492701688
 30
0.0
 10
13.8578960459
 20
9.1414175622
 30
0.0
 10
13.8630034287
 20
9.1328756925
 30
0.0
 10
13.8679981015
 20
9.1236522208
 30
0.0
 10
13.872875621
 20
9.1137554052
 30
0.0
 10
13.8776316609
 20
9.1031941585
 30
0.0
 10
13.8822618938
 20
9.0919781646
 30
0.0
 10
13.8851969228
 20
9.0842426187
 30
0.0
 10
13.8866455575
 20
9.0802702513
 30
0.0
  0
SPLINE
  5
32A
100
AcDbEntity
  8
0
100
AcDbSpline
 62
7
  6
CONTINUOUS
 70
0
 71
3
 72
23
 73
19
 74
0
 42
0.0000001
 43
0.0000001
 44
0.0000000001
 40
0.0
 40
0.0
 40
0.0
 40
0.0
 40
0.0615756458
 40
0.1234925436
 40
0.1857221852
 40
0.2482266293
 40
0.3109609038
 40
0.3738732356
 40
0.4369070613
 40
0.5000024279
 40
0.5630977057
 40
0.6261312593
 40
0.6890431424
 40
0.7517767601
 40
0.8142804614
 40
0.8765090283
 40
0.9384250294
 40
1.0
 40
1.0
 40
1.0
 40
1.0
 10
12.0320353851
 20
9.5018070118
 30
0.0
 10
12.0322675912
 20
9.4996102327
 30
0.0
 10
12.0329233507
 20
9.4952223116
 30
0.0
 10
12.0344648711
 20
9.488732611
 30
0.0
 10
12.0365555573
 20
9.4823629696
 30
0.0
 10
12.0391794436
 20
9.4761622161
 30
0.0
 10
12.0423165854
 20
9.4701770515
 30
0.0
 10
12.0459432065
 20
9.4644527609
 30
0.0
 10
12.0500318312
 20
9.4590325949
 30
0.0
 10
12.0545515222
 20
9.4539575284
 30
0.0
 10
12.0594680956
 20
9.4492659315
 30
0.0
 10
12.0647443841
 20
9.4449932927
 30
0.0
 10
12.0703405021
 20
9.4411719473
 30
0.0
 10
12.076214164
 20
9.4378308307
 30
0.0
 10
12.082320929
 20
9.4349952796
 30
0.0
 10
12.0886148069
 20
9.4326867949
 30
0.0
 10
12.0950475694
 20
9.4309230493
 30
0.0
 10
12.0994102892
 20
9.4301167904
 30
0.0
 10
12.101597762
 20
9.4298091968
 30
0.0
  0
SPLINE
  5
32B
100
AcDbEntity
  8
0
100
AcDbSpline
 62
7
  6
CONTINUOUS
 70
0
 71
3
 72
16
 73
12
 74
0
 42
0.0000001
 43
0.0000001
 44
0.0000000001
 40
0.0
 40
0.0
 40
0.0
 40
0.0
 40
0.1115902701
 40
0.225005863
 40
0.3413771683
 40
0.4617435447
 40
0.5237340094
 40
0.5870614775
 40
0.7180856114
 40
0.8555370532
 40
1.0
 40
1.0
 40
1.0
 40
1.0
 10
13.7922607995
 20
9.1769613707
 30
0.0
 10
13.7940194374
 20
9.1767392454
 30
0.0
 10
13.797543914
 20
9.1760980734
 30
0.0
 10
13.8027554303
 20
9.1745659436
 30
0.0
 10
13.8079138522
 20
9.1724614869
 30
0.0
 10
13.8121229755
 20
9.1702549367
 30
0.0
 10
13.8154539039
 20
9.1682193894
 30
0.0
 10
13.818836193
 20
9.1659499926
 30
0.0
 10
13.8230285933
 20
9.162745926
 30
0.0
 10
13.827935628
 20
9.1583854057
 30
0.0
 10
13.8310789404
 20
9.1551907161
 30
0.0
 10
13.8326394403
 20
9.1535081848
 30
0.0
  0
SPLINE
  5
32C
100
AcDbEntity
  8
0
100
AcDbSpline
 62
7
  6
CONTINUOUS
 70
0
 71
3
 72
23
 73
19
 74
0
 42
0.0000001
 43
0.0000001
 44
0.0000000001
 40
0.0
 40
0.0
 40
0.0
 40
0.0
 40
0.0615756458
 40
0.1234925436
 40
0.1857221852
 40
0.2482266293
 40
0.3109609038
 40
0.3738732356
 40
0.4369070613
 40
0.5000024279
 40
0.5630977057
 40
0.6261312593
 40
0.6890431424
 40
0.7517767601
 40
0.8142804614
 40
0.8765090283
 40
0.9384250294
 40
1.0
 40
1.0
 40
1.0
 40
1.0
 10
9.813303697
 20
6.9993803973
 30
0.0
 10
9.8135359031
 20
6.9971836182
 30
0.0
 10
9.8141916626
 20
6.9927956971
 30
0.0
 10
9.815733183
 20
6.9863059965
 30
0.0
 10
9.8178238692
 20
6.9799363551
 30
0.0
 10
9.8204477554
 20
6.9737356016
 30
0.0
 10
9.8235848972
 20
6.967750437
 30
0.0
 10
9.8272115184
 20
6.9620261464
 30
0.0
 10
9.8313001431
 20
6.9566059804
 30
0.0
 10
9.8358198341
 20
6.9515309139
 30
0.0
 10
9.8407364075
 20
6.946839317
 30
0.0
 10
9.846012696
 20
6.9425666782
 30
0.0
 10
9.8516088139
 20
6.9387453328
 30
0.0
 10
9.8574824759
 20
6.9354042162
 30
0.0
 10
9.8635892409
 20
6.9325686651
 30
0.0
 10
9.8698831188
 20
6.9302601804
 30
0.0
 10
9.8763158812
 20
6.9284964348
 30
0.0
 10
9.880678601
 20
6.9276901759
 30
0.0
 10
9.8828660738
 20
6.9273825823
 30
0.0
  0
SPLINE
  5
32D
100
AcDbEntity
  8
0
100
AcDbSpline
 62
7
  6
CONTINUOUS
 70
0
 71
3
 72
41
 73
37
 74
0
 42
0.0000001
 43
0.0000001
 44
0.0000000001
 40
0.0
 40
0.0
 40
0.0
 40
0.0
 40
0.030933376
 40
0.0464561919
 40
0.0620136276
 40
0.0932266151
 40
0.1245684211
 40
0.1402865015
 40
0.1560326868
 40
0.1875987407
 40
0.2192565588
 40
0.2509907634
 40
0.2827850927
 40
0.3146227608
 40
0.346486794
 40
0.3783603335
 40
0.4102269027
 40
0.4420706346
 40
0.4738764618
 40
0.5056302723
 40
0.5373190322
 40
0.568930883
 40
0.6004552157
 40
0.6318827278
 40
0.663205467
 40
0.694416865
 40
0.7255117659
 40
0.7564864499
 40
0.7873386559
 40
0.8180676022
 40
0.8486740061
 40
0.8791601019
 40
0.9095296583
 40
0.9397879906
 40
0.9699419664
 40
1.0
 40
1.0
 40
1.0
 40
1.0
 10
11.0153957755
 20
8.601984039
 30
0.0
 10
11.0082248934
 20
8.6024813413
 30
0.0
 10
10.9974764739
 20
8.6035958593
 30
0.0
 10
10.9832342827
 20
8.6058031766
 30
0.0
 10
10.9690094793
 20
8.6084979432
 30
0.0
 10
10.951352808
 20
8.6127664822
 30
0.0
 10
10.9339795575
 20
8.6181972488
 30
0.0
 10
10.9202759104
 20
8.6232245305
 30
0.0
 10
10.9066930912
 20
8.6287103253
 30
0.0
 10
10.8900155847
 20
8.6363979658
 30
0.0
 10
10.8705872243
 20
8.6468889491
 30
0.0
 10
10.8518049581
 20
8.658597839
 30
0.0
 10
10.8337442081
 20
8.6714629893
 30
0.0
 10
10.8164740193
 20
8.6854189584
 30
0.0
 10
10.8000578153
 20
8.700396955
 30
0.0
 10
10.7845531768
 20
8.7163256785
 30
0.0
 10
10.7700120146
 20
8.7331319671
 30
0.0
 10
10.7564807423
 20
8.7507413944
 30
0.0
 10
10.7440005294
 20
8.7690787712
 30
0.0
 10
10.7326075884
 20
8.7880685584
 30
0.0
 10
10.7223334857
 20
8.8076351946
 30
0.0
 10
10.7132054581
 20
8.8277033417
 30
0.0
 10
10.7052467229
 20
8.8481980575
 30
0.0
 10
10.6984767718
 20
8.8690449024
 30
0.0
 10
10.6929116376
 20
8.8901699905
 30
0.0
 10
10.68856413
 20
8.9114999934
 30
0.0
 10
10.6854440337
 20
8.932962106
 30
0.0
 10
10.683558266
 20
8.9544839836
 30
0.0
 10
10.6829109911
 20
8.9759936566
 30
0.0
 10
10.68350369
 20
8.9974194358
 30
0.0
 10
10.6853351771
 20
9.0186898017
 30
0.0
 10
10.6884015954
 20
9.039733336
 30
0.0
 10
10.6926962956
 20
9.0604785167
 30
0.0
 10
10.6982099097
 20
9.0808540775
 30
0.0
 10
10.7049294954
 20
9.1007873662
 30
0.0
 10
10.710211615
 20
9.1137552012
 30
0.0
 10
10.713047491
 20
9.1201382901
 30
0.0
  0
SPLINE
  5
32E
100
AcDbEntity
  8
0
100
AcDbSpline
 62
7
  6
CONTINUOUS
 70
0
 71
3
 72
14
 73
10
 74
0
 42
0.0000001
 43
0.0000001
 44
0.0000000001
 40
0.0
 40
0.0
 40
0.0
 40
0.0
 40
0.2603826747
 40
0.3892062433
 40
0.516455475
 40
0.6416373104
 40
0.7642669569
 40
0.8838729381
 40
1.0
 40
1.0
 40
1.0
 40
1.0
 10
10.5401891345
 20
7.6283969924
 30
0.0
 10
10.5421207477
 20
7.6389079139
 30
0.0
 10
10.5447236732
 20
7.654674186
 30
0.0
 10
10.5475193263
 20
7.6756872671
 30
0.0
 10
10.5492362178
 20
7.6912421812
 30
0.0
 10
10.550558654
 20
7.7065805121
 30
0.0
 10
10.5514677373
 20
7.7216348997
 30
0.0
 10
10.5519479139
 20
7.7363373014
 30
0.0
 10
10.5519745714
 20
7.7460143773
 30
0.0
 10
10.5519090703
 20
7.7507801525
 30
0.0
  0
SPLINE
  5
32F
100
AcDbEntity
  8
0
100
AcDbSpline
 62
7
  6
CONTINUOUS
 70
0
 71
3
 72
15
 73
11
 74
0
 42
0.0000001
 43
0.0000001
 44
0.0000000001
 40
0.0
 40
0.0
 40
0.0
 40
0.0
 40
0.1273482789
 40
0.2538606571
 40
0.3795878378
 40
0.5046051156
 40
0.629017439
 40
0.7529533823
 40
0.8765605864
 40
1.0
 40
1.0
 40
1.0
 40
1.0
 10
12.7733810984
 20
6.7190120784
 30
0.0
 10
12.7733810984
 20
6.7255104035
 30
0.0
 10
12.7740015591
 20
6.7384733826
 30
0.0
 10
12.7768074905
 20
6.7576685287
 30
0.0
 10
12.7814602121
 20
6.7763813824
 30
0.0
 10
12.7879176949
 20
6.7944369337
 30
0.0
 10
12.7961207145
 20
6.8116686753
 30
0.0
 10
12.8059944397
 20
6.8279175098
 30
0.0
 10
12.817446062
 20
6.8430311843
 30
0.0
 10
12.8260685617
 20
6.8522634921
 30
0.0
 10
12.8305990333
 20
6.8566396216
 30
0.0
  0
SPLINE
  5
330
100
AcDbEntity
  8
0
100
AcDbSpline
 62
7
  6
CONTINUOUS
 70
0
 71
3
 72
43
 73
39
 74
0
 42
0.0000001
 43
0.0000001
 44
0.0000000001
 40
0.0
 40
0.0
 40
0.0
 40
0.0
 40
0.0066531814
 40
0.0135890503
 40
0.0208618624
 40
0.0285178281
 40
0.0365955603
 40
0.0451258742
 40
0.0541329543
 40
0.0636342097
 40
0.0736416387
 40
0.0841615047
 40
0.0951957361
 40
0.1067414434
 40
0.1187923078
 40
0.1313379962
 40
0.1443655426
 40
0.1578587489
 40
0.1861672713
 40
0.2160958641
 40
0.2474571525
 40
0.2800556002
 40
0.3136970058
 40
0.3481960466
 40
0.3833816352
 40
0.4191001236
 40
0.4916114751
 40
0.5648782024
 40
0.6383150261
 40
0.7115540746
 40
0.7480373847
 40
0.7844057047
 40
0.8206511345
 40
0.8567703784
 40
0.8927632232
 40
0.9286306074
 40
0.9643768217
 40
1.0
 40
1.0
 40
1.0
 40
1.0
 10
9.6281175924
 20
9.3208865028
 30
0.0
 10
9.6290722601
 20
9.3208201893
 30
0.0
 10
9.6310167455
 20
9.3205941369
 30
0.0
 10
9.6339607927
 20
9.3199986295
 30
0.0
 10
9.6369898632
 20
9.3191427548
 30
0.0
 10
9.6401085531
 20
9.3180297102
 30
0.0
 10
9.6433216904
 20
9.3166627195
 30
0.0
 10
9.6466340108
 20
9.3150460243
 30
0.0
 10
9.6500497954
 20
9.3131841567
 30
0.0
 10
9.653573181
 20
9.3110827173
 30
0.0
 10
9.6572076662
 20
9.3087478159
 30
0.0
 10
9.6609565051
 20
9.306186638
 30
0.0
 10
9.6648222418
 20
9.3034070037
 30
0.0
 10
9.6688070942
 20
9.300417735
 30
0.0
 10
9.6729125584
 20
9.2972283256
 30
0.0
 10
9.6771397351
 20
9.293849116
 30
0.0
 10
9.6814890639
 20
9.2902911067
 30
0.0
 10
9.68754823
 20
9.285242978
 30
0.0
 10
9.6954062387
 20
9.2785567927
 30
0.0
 10
9.7051667382
 20
9.2701413378
 30
0.0
 10
9.7153867131
 20
9.2613138407
 30
0.0
 10
9.7260457876
 20
9.2521777756
 30
0.0
 10
9.7371206017
 20
9.2428336887
 30
0.0
 10
9.7485864669
 20
9.2333772155
 30
0.0
 10
9.760418867
 20
9.2238975418
 30
0.0
 10
9.7767341999
 20
9.2112733683
 30
0.0
 10
9.797847108
 20
9.1959043456
 30
0.0
 10
9.8242146941
 20
9.178587461
 30
0.0
 10
9.8516195592
 20
9.162744636
 30
0.0
 10
9.8752656112
 20
9.1510748038
 30
0.0
 10
9.8946022619
 20
9.1428387302
 30
0.0
 10
9.9092734119
 20
9.1372587477
 30
0.0
 10
9.924112389
 20
9.1323039953
 30
0.0
 10
9.9390991168
 20
9.1280064236
 30
0.0
 10
9.9542100945
 20
9.1243944855
 30
0.0
 10
9.9694189258
 20
9.1214916049
 30
0.0
 10
9.9846948668
 20
9.1193162304
 30
0.0
 10
9.9949202133
 20
9.1183572874
 30
0.0
 10
10.0000318368
 20
9.1180027951
 30
0.0
  0
SPLINE
  5
331
100
AcDbEntity
  8
0
100
AcDbSpline
 62
7
  6
CONTINUOUS
 70
0
 71
3
 72
15
 73
11
 74
0
 42
0.0000001
 43
0.0000001
 44
0.0000000001
 40
0.0
 40
0.0
 40
0.0
 40
0.0
 40
0.1273482808
 40
0.2538605196
 40
0.3795878971
 40
0.5046050835
 40
0.6290174393
 40
0.7529533827
 40
0.8765605876
 40
1.0
 40
1.0
 40
1.0
 40
1.0
 10
10.8796832711
 20
6.7894871732
 30
0.0
 10
10.8796832711
 20
6.7938142469
 30
0.0
 10
10.8800964135
 20
6.8024459694
 30
0.0
 10
10.8819648203
 20
6.815227543
 30
0.0
 10
10.8850629503
 20
6.827687968
 30
0.0
 10
10.889362826
 20
6.8397107173
 30
0.0
 10
10.8948249766
 20
6.851184922
 30
0.0
 10
10.9013996296
 20
6.8620046311
 30
0.0
 10
10.9090249818
 20
6.8720684514
 30
0.0
 10
10.9147664734
 20
6.8782160324
 30
0.0
 10
10.9177831994
 20
6.8811299915
 30
0.0
  0
SPLINE
  5
332
100
AcDbEntity
  8
0
100
AcDbSpline
 62
7
  6
CONTINUOUS
 70
0
 71
3
 72
23
 73
19
 74
0
 42
0.0000001
 43
0.0000001
 44
0.0000000001
 40
0.0
 40
0.0
 40
0.0
 40
0.0
 40
0.0610618025
 40
0.1221846197
 40
0.1834162198
 40
0.2447989988
 40
0.3063700347
 40
0.3372409648
 40
0.3681695875
 40
0.4302002013
 40
0.4924878092
 40
0.5237352409
 40
0.5550498205
 40
0.6178725502
 40
0.6809622658
 40
0.7443126247
 40
0.8717054977
 40
1.0
 40
1.0
 40
1.0
 40
1.0
 10
11.3645997432
 20
7.6150274211
 30
0.0
 10
11.3690375599
 20
7.6191574741
 30
0.0
 10
11.3782516032
 20
7.6270709718
 30
0.0
 10
11.3929789976
 20
7.6378115527
 30
0.0
 10
11.4085327876
 20
7.6473786473
 30
0.0
 10
11.4248181788
 20
7.655733905
 30
0.0
 10
11.4389089548
 20
7.6616629641
 30
0.0
 10
11.45044596
 20
7.6657833116
 30
0.0
 10
11.4621684998
 20
7.6694960462
 30
0.0
 10
11.4771040361
 20
7.6733580097
 30
0.0
 10
11.4923006877
 20
7.6761845173
 30
0.0
 10
11.5045868076
 20
7.6778401889
 30
0.0
 10
11.5169733552
 20
7.6790987414
 30
0.0
 10
11.532572296
 20
7.6799273958
 30
0.0
 10
11.5513733839
 20
7.6797645325
 30
0.0
 10
11.5765286292
 20
7.6780509105
 30
0.0
 10
11.6078965617
 20
7.6731887424
 30
0.0
 10
11.6324782171
 20
7.6666549943
 30
0.0
 10
11.6446117771
 20
7.6627801109
 30
0.0
  0
SPLINE
  5
333
100
AcDbEntity
  8
0
100
AcDbSpline
 62
7
  6
CONTINUOUS
 70
0
 71
3
 72
21
 73
17
 74
0
 42
0.0000001
 43
0.0000001
 44
0.0000000001
 40
0.0
 40
0.0
 40
0.0
 40
0.0
 40
0.0633772537
 40
0.1268529624
 40
0.1903808635
 40
0.253908158
 40
0.3173769394
 40
0.3807295681
 40
0.4439130775
 40
0.5068827648
 40
0.5696034641
 40
0.6320487796
 40
0.6941986001
 40
0.7560368245
 40
0.8787171169
 40
1.0
 40
1.0
 40
1.0
 40
1.0
 10
10.6023151309
 20
7.5663599483
 30
0.0
 10
10.601694343
 20
7.5681665788
 30
0.0
 10
10.6003680676
 20
7.5717547481
 30
0.0
 10
10.598089574
 20
7.5770248211
 30
0.0
 10
10.5954903782
 20
7.5821504206
 30
0.0
 10
10.5925535658
 20
7.5870907716
 30
0.0
 10
10.5892780781
 20
7.5918073567
 30
0.0
 10
10.5856798262
 20
7.596269186
 30
0.0
 10
10.5817892721
 20
7.6004574818
 30
0.0
 10
10.5776468356
 20
7.6043681382
 30
0.0
 10
10.5732972441
 20
7.6080112164
 30
0.0
 10
10.5687846717
 20
7.6114081352
 30
0.0
 10
10.5641496258
 20
7.614587971
 30
0.0
 10
10.5578702706
 20
7.6185715033
 30
0.0
 10
10.5498831056
 20
7.6231787102
 30
0.0
 10
10.5434113222
 20
7.6266702502
 30
0.0
 10
10.5401891345
 20
7.6283969924
 30
0.0
  0
ENDSEC
  0
SECTION
  2
OBJECTS
  0
DICTIONARY
  5
C
100
AcDbDictionary
280
0
281
1
  3
ACAD_GROUP
350
D
  3
ACAD_MLINESTYLE
350
17
  3
ACAD_LAYOUT
350
1A
  3
ACAD_PLOTSETTINGS
350
19
  3
ACAD_PLOTSTYLENAME
350
E
  3
ACAD_IMAGE_DICT
350
       335
  3
ACAD_IMAGE_VARS
350
       336
  3
ACAD_TABLESTYLE
350
       337
  0
IMAGEDEF_REACTOR
  5
334
100
AcDbRasterImageDefReactor
 90
2
330
26D
  0
DICTIONARY
  5
D
102
{ACAD_REACTORS
330
C
102
}
100
AcDbDictionary
280
0
281
1
  0
ACDBDICTIONARYWDFLT
  5
E
102
{ACAD_REACTORS
330
C
102
}
100
AcDbDictionary
281
1
  3
Normal
350
F
100
AcDbDictionaryWithDefault
340
F
  0
DICTIONARY
  5
335
330
C
100
AcDbDictionary
281
1
  3
BK2_assy_2_img_1
350
       33A
  0
RASTERVARIABLES
  5
336
330
C
100
AcDbRasterVariables
 90
0
 70
0
 71
1
 72
5
  0
DICTIONARY
  5
17
102
{ACAD_REACTORS
330
C
102
}
100
AcDbDictionary
280
0
281
1
  3
Standard
350
18
  0
DICTIONARY
  5
337
330
C
100
AcDbDictionary
281
1
  3
Standard
350
       33B
  3
Standard1
350
       33C
  0
DICTIONARY
  5
19
102
{ACAD_REACTORS
330
C
102
}
100
AcDbDictionary
281
1
  0
DICTIONARY
  5
1A
102
{ACAD_REACTORS
330
C
102
}
100
AcDbDictionary
281
1
  3
Model
350
338
  3
Layout1
350
339
  0
ACDBPLACEHOLDER
  5
F
102
{ACAD_REACTORS
330
E
102
}
  0
MLINESTYLE
  5
18
102
{ACAD_REACTORS
330
17
102
}
100
AcDbMlineStyle
  2
STANDARD
 70
0
  3

 62
256
 51
90.0
 52
90.0
 71
2
 49
0.5
 62
256
  6
BYLAYER
 49
-0.5
 62
256
  6
BYLAYER
  0
LAYOUT
  5
338
102
{ACAD_REACTORS
330
1A
102
}
100
AcDbPlotSettings
  1

  2
none_device
  4
ANSI_C_(22.00_x_17.00_Inches)
  6

 40
0.0
 41
0.0
 42
0.0
 43
0.0
 44
558.8
 45
431.8
 46
0.0
 47
0.0
 48
0.0
 49
0.0
140
0.0
141
0.0
142
1.0
143
1.0
 70
1024
 72
0
 73
0
 74
0
  7

 75
0
147
1.0
148
0.0
149
0.0
100
AcDbLayout
  1
Model
 70
0
 71
0
 10
0.0
 20
0.0
 11
22.0
 21
17.0
 12
0.0
 22
0.0
 32
0.0
 14
0.0
 24
0.0
 34
0.0
 15
0.0
 25
0.0
 35
0.0
146
0.0
 13
0.0
 23
0.0
 33
0.0
 16
1.0
 26
0.0
 36
0.0
 17
0.0
 27
1.0
 37
0.0
 76
0
330
207
345
0
346
0
  0
LAYOUT
  5
339
102
{ACAD_REACTORS
330
1A
102
}
100
AcDbPlotSettings
  1

  2
none_device
  4
ANSI_C_(22.00_x_17.00_Inches)
  6

 40
0.0
 41
0.0
 42
0.0
 43
0.0
 44
558.8
 45
431.8
 46
0.0
 47
0.0
 48
0.0
 49
0.0
140
0.0
141
0.0
142
1.0
143
1.0
 70
0
 72
0
 73
0
 74
0
  7

 75
0
147
1.0
148
0.0
149
0.0
100
AcDbLayout
  1
Layout1
 70
0
 71
1
 10
0.0
 20
0.0
 11
22.0
 21
17.0
 12
0.0
 22
0.0
 32
0.0
 14
0.0
 24
0.0
 34
0.0
 15
0.0
 25
0.0
 35
0.0
146
0.0
 13
0.0
 23
0.0
 33
0.0
 16
1.0
 26
0.0
 36
0.0
 17
0.0
 27
1.0
 37
0.0
 76
0
330
208
345
0
346
0
  0
IMAGEDEF
  5
33A
102
{ACAD_REACTORS
330
335
330
334
102
}
100
AcDbRasterImageDef
 90
0
  1
BK2_assy_2_img_1.png
 10
369.0
 20
92.0
 11
0.0066666667
 21
0.0066666667
280
1
281
0
  0
TABLESTYLE
  5
33B
102
{ACAD_REACTORS
330
337
330
270
102
}
330
337
100
AcDbTableStyle
  3
Standard
 70
0
 71
0
 40
0.06
 41
0.06
280
1
281
1
  7
Standard
140
0.18
170
1
 62
0
 63
7
283
0
  7
Standard
140
0.18
170
1
 62
0
 63
7
283
0
  7
Standard
140
0.18
170
1
 62
0
 63
7
283
0
  0
TABLESTYLE
  5
33C
102
{ACAD_REACTORS
330
337
330
26F
102
}
330
337
100
AcDbTableStyle
  3
Standard1
 70
1
 71
0
 40
0.06
 41
0.06
280
1
281
1
  7
Standard
140
0.18
170
1
 62
0
 63
7
283
0
  7
Standard
140
0.18
170
1
 62
0
 63
7
283
0
  7
Standard
140
0.18
170
1
 62
0
 63
7
283
0
  0
ENDSEC
  0
EOF
