999
DXF file: BJ9_assy_2.dxf
999
Pro/ENGINEER 2014200 by Parametric Technology Corporation
  0
SECTION
  2
HEADER
  9
$ACADVER
  1
AC1021
  9
$DWGCODEPAGE
  3
ANSI_1252
  9
$EXTMAX
 10
22.0
 20
17.0
 30
0.0
  9
$EXTMIN
 10
0.0
 20
0.0
 30
0.0
  9
$LIMMIN
 10
0.0
 20
0.0
  9
$LIMMAX
 10
22.0
 20
17.0
  9
$VIEWCTR
 10
11.0
 20
8.5
  9
$VIEWSIZE
 40
17.0
  9
$CLAYER
  8
0
  9
$LTSCALE
 40
1.21
  9
$CELTYPE
  6
BYLAYER
  9
$DIMSCALE
 40
1.0
  9
$DIMASZ
 40
0.1875
  9
$DIMEXO
 40
0.0625
  9
$DIMDLI
 40
0.836
  9
$DIMEXE
 40
0.125
  9
$DIMCEN
 40
0.198
  9
$DIMLFAC
 40
1.0
  9
$DIMBLK
  1
_FILLED
  9
$DIMTXT
 40
0.1
  9
$DIMTOL
 70
0
  9
$DIMLIM
 70
0
  9
$DIMTFAC
 40
1.0
  9
$DIMGAP
 40
0.09
  9
$DIMDSEP
 70
46
  9
$AUNITS
 70
0
  9
$PDMODE
 70
3
  9
$PDSIZE
 40
0.3125
  9
$HANDSEED
  5
429
  9
$TILEMODE
 70
1
  9
$MEASUREMENT
 70
0
  9
$INSUNITS
 70
1
  0
ENDSEC
  0
SECTION
  2
CLASSES
  0
CLASS
  1
ACDBDICTIONARYWDFLT
  2
AcDbDictionaryWithDefault
  3
AutoCAD 2000
 90
0
 91
1
280
0
281
0
  0
CLASS
  1
ACDBPLACEHOLDER
  2
AcDbPlaceHolder
  3
AutoCAD 2000
 90
0
 91
1
280
0
281
0
  0
CLASS
  1
LAYOUT
  2
AcDbLayout
  3
AutoCAD 2000
 90
0
 91
0
280
0
281
0
  0
CLASS
  1
RASTERVARIABLES
  2
AcDbRasterVariables
  3
ISM
 90
0
 91
1
280
0
281
0
  0
CLASS
  1
IMAGEDEF
  2
AcDbRasterImageDef
  3
ISM
 90
0
 91
1
280
0
281
0
  0
CLASS
  1
IMAGEDEF_REACTOR
  2
AcDbRasterImageDefReactor
  3
ISM
 90
0
 91
1
280
0
281
0
  0
CLASS
  1
IMAGE
  2
AcDbRasterImage
  3
ISM
 90
127
 91
1
280
0
281
1
  0
CLASS
  1
TABLESTYLE
  2
AcDbTableStyle
  3
ObjectDBX Classes
 90
2047
 91
1
280
0
281
0
  0
CLASS
  1
ACAD_TABLE
  2
AcDbTable
  3
ObjectDBX Classes
 90
1025
 91
2
280
0
281
1
  0
ENDSEC
  0
SECTION
  2
TABLES
  0
TABLE
  2
VPORT
  5
8
100
AcDbSymbolTable
 70
2
  0
VPORT
  5
1F4
100
AcDbSymbolTableRecord
100
AcDbViewportTableRecord
  2
*ACTIVE
 70
0
 10
0.0
 20
0.0
 11
1.0
 21
1.0
 12
11.0
 22
8.5
 13
0.0
 23
0.0
 14
1.0
 24
1.0
 15
0.0
 25
0.0
 16
0.0
 26
0.0
 36
1.0
 17
0.0
 27
0.0
 37
0.0
 40
17.0
 41
1.2941176471
 42
50.0
 43
0.0
 44
0.0
 50
0.0
 51
0.0
 71
0
 72
100
 73
1
 74
1
 75
0
 76
0
 77
0
 78
0
  0
ENDTAB
  0
TABLE
  2
LTYPE
  5
5
100
AcDbSymbolTable
 70
6
  0
LTYPE
  5
14
100
AcDbSymbolTableRecord
100
AcDbLinetypeTableRecord
  2
BYBLOCK
 70
0
  3

 72
65
 73
0
 40
0.0
  0
LTYPE
  5
15
100
AcDbSymbolTableRecord
100
AcDbLinetypeTableRecord
  2
BYLAYER
 70
0
  3

 72
65
 73
0
 40
0.0
  0
LTYPE
  5
16
100
AcDbSymbolTableRecord
100
AcDbLinetypeTableRecord
  2
CONTINUOUS
 70
64
  3
Solid line
 72
65
 73
0
 40
0.0
  0
LTYPE
  5
1F5
100
AcDbSymbolTableRecord
100
AcDbLinetypeTableRecord
  2
CENTER
 70
64
  3
____ _ ____ _ ____ _ ____ _ ____ _ ____ _ ____
 72
65
 73
4
 40
0.6
 49
0.375
 74
0
 49
-0.075
 74
0
 49
0.075
 74
0
 49
-0.075
 74
0
  0
LTYPE
  5
1F6
100
AcDbSymbolTableRecord
100
AcDbLinetypeTableRecord
  2
HIDDEN
 70
64
  3
- - - - - - - - - - - - - - - - - - - -
 72
65
 73
2
 40
0.2
 49
0.1
 74
0
 49
-0.1
 74
0
  0
LTYPE
  5
1F7
100
AcDbSymbolTableRecord
100
AcDbLinetypeTableRecord
  2
PHANTOM
 70
64
  3
_____ _ _ _____ _ _ _____ _ _ _____
 72
65
 73
6
 40
0.8
 49
0.45
 74
0
 49
-0.05
 74
0
 49
0.1
 74
0
 49
-0.05
 74
0
 49
0.1
 74
0
 49
-0.05
 74
0
  0
LTYPE
  5
1F8
100
AcDbSymbolTableRecord
100
AcDbLinetypeTableRecord
  2
DOT
 70
64
  3
. . . . . . . . . . . . . . . . . . . .
 72
65
 73
2
 40
0.2
 49
0.1
 74
0
 49
-0.1
 74
0
  0
LTYPE
  5
1F9
100
AcDbSymbolTableRecord
100
AcDbLinetypeTableRecord
  2
DASHED
 70
64
  3
- - - - - - - - - - - - - - - - - - - -
 72
65
 73
2
 40
0.2
 49
0.1
 74
0
 49
-0.1
 74
0
  0
ENDTAB
  0
TABLE
  2
LAYER
  5
2
100
AcDbSymbolTable
 70
36
  0
LAYER
  5
10
100
AcDbSymbolTableRecord
100
AcDbLayerTableRecord
  2
0
 70
0
 62
7
  6
CONTINUOUS
370
-3
390
F
  0
LAYER
  5
1FA
100
AcDbSymbolTableRecord
100
AcDbLayerTableRecord
  2
DEFAULT_1
 70
0
 62
7
  6
CENTER
370
-3
390
F
  0
LAYER
  5
1FB
100
AcDbSymbolTableRecord
100
AcDbLayerTableRecord
  2
DEFAULT_2
 70
0
 62
8
  6
HIDDEN
370
-3
390
F
  0
LAYER
  5
1FC
100
AcDbSymbolTableRecord
100
AcDbLayerTableRecord
  2
DEFAULT_3
 70
0
 62
7
  6
PHANTOM
370
-3
390
F
  0
LAYER
  5
1FD
100
AcDbSymbolTableRecord
100
AcDbLayerTableRecord
  2
01___PRT_ALL_DTM_PLN
 70
0
 62
7
  6
CONTINUOUS
370
-3
390
F
  0
LAYER
  5
1FE
100
AcDbSymbolTableRecord
100
AcDbLayerTableRecord
  2
01___PRT_DEF_DTM_PLN
 70
0
 62
7
  6
CONTINUOUS
370
-3
390
F
  0
LAYER
  5
1FF
100
AcDbSymbolTableRecord
100
AcDbLayerTableRecord
  2
02___PRT_ALL_AXES
 70
0
 62
7
  6
CONTINUOUS
370
-3
390
F
  0
LAYER
  5
200
100
AcDbSymbolTableRecord
100
AcDbLayerTableRecord
  2
03___PRT_ALL_CURVES
 70
0
 62
7
  6
CONTINUOUS
370
-3
390
F
  0
LAYER
  5
201
100
AcDbSymbolTableRecord
100
AcDbLayerTableRecord
  2
04___PRT_ALL_DTM_PNT
 70
0
 62
7
  6
CONTINUOUS
370
-3
390
F
  0
LAYER
  5
202
100
AcDbSymbolTableRecord
100
AcDbLayerTableRecord
  2
05___PRT_ALL_DTM_CSYS
 70
0
 62
7
  6
CONTINUOUS
370
-3
390
F
  0
LAYER
  5
203
100
AcDbSymbolTableRecord
100
AcDbLayerTableRecord
  2
05___PRT_DEF_DTM_CSYS
 70
0
 62
7
  6
CONTINUOUS
370
-3
390
F
  0
LAYER
  5
204
100
AcDbSymbolTableRecord
100
AcDbLayerTableRecord
  2
06___PRT_ALL_SURFS
 70
0
 62
7
  6
CONTINUOUS
370
-3
390
F
  0
LAYER
  5
205
100
AcDbSymbolTableRecord
100
AcDbLayerTableRecord
  2
DATUM_PLANES
 70
0
 62
7
  6
CONTINUOUS
370
-3
390
F
  0
LAYER
  5
206
100
AcDbSymbolTableRecord
100
AcDbLayerTableRecord
  2
PORT_AREAS
 70
0
 62
7
  6
CONTINUOUS
370
-3
390
F
  0
LAYER
  5
207
100
AcDbSymbolTableRecord
100
AcDbLayerTableRecord
  2
SUNNBOMCOSMETIC
 70
0
 62
7
  6
CONTINUOUS
370
-3
390
F
  0
LAYER
  5
208
100
AcDbSymbolTableRecord
100
AcDbLayerTableRecord
  2
SUNNBOMSTAMPING
 70
0
 62
7
  6
CONTINUOUS
370
-3
390
F
  0
LAYER
  5
209
100
AcDbSymbolTableRecord
100
AcDbLayerTableRecord
  2
THREADS
 70
0
 62
7
  6
CONTINUOUS
370
-3
390
F
  0
ENDTAB
  0
TABLE
  2
STYLE
  5
3
100
AcDbSymbolTable
 70
1
  0
STYLE
  5
11
100
AcDbSymbolTableRecord
100
AcDbTextStyleTableRecord
  2
STANDARD
 70
0
 40
0.0
 41
0.8
 50
0.0
 71
0
 42
0.2
  3
txt
  4

  0
STYLE
  5
20A
100
AcDbSymbolTableRecord
100
AcDbTextStyleTableRecord
  2
TEXTSTYLE_1
 70
0
 40
0.0
 41
0.8
 50
0.0
 71
0
 42
0.2
  3
gdt
  4

  0
ENDTAB
  0
TABLE
  2
VIEW
  5
6
100
AcDbSymbolTable
 70
0
  0
ENDTAB
  0
TABLE
  2
UCS
  5
7
100
AcDbSymbolTable
 70
0
  0
ENDTAB
  0
TABLE
  2
APPID
  5
9
100
AcDbSymbolTable
 70
1
  0
APPID
  5
20B
100
AcDbSymbolTableRecord
100
AcDbRegAppTableRecord
  2
ACAD
 70
0
  0
ENDTAB
  0
TABLE
  2
BLOCK_RECORD
  5
1
100
AcDbSymbolTable
 70
0
  0
BLOCK_RECORD
  5
20C
100
AcDbSymbolTableRecord
100
AcDbBlockTableRecord
  2
*Model_Space
  0
BLOCK_RECORD
  5
20D
100
AcDbSymbolTableRecord
100
AcDbBlockTableRecord
  2
*Paper_Space
  0
BLOCK_RECORD
  5
20E
100
AcDbSymbolTableRecord
100
AcDbBlockTableRecord
  2
SUN_FIRST_THIRD_ANGLE_BL0
  0
BLOCK_RECORD
  5
20F
100
AcDbSymbolTableRecord
100
AcDbBlockTableRecord
  2
*T1
  0
BLOCK_RECORD
  5
210
100
AcDbSymbolTableRecord
100
AcDbBlockTableRecord
  2
*T2
  0
ENDTAB
  0
TABLE
  2
DIMSTYLE
  5
A
100
AcDbSymbolTable
 70
1
100
AcDbDimStyleTable
 71
0
  0
DIMSTYLE
105
211
100
AcDbSymbolTableRecord
100
AcDbDimStyleTableRecord
  2
STANDARD
 70
0
  3

  4

 40
1.0
 41
0.1875
 42
0.0625
 43
0.38
 44
0.125
 45
0.0
 46
0.0
 47
0.001
 48
0.001
140
0.1
141
0.09
142
0.0
143
25.4
144
1.0
145
0.0
146
1.0
147
0.09
 71
0.0
 72
0.0
 73
1
 74
1
 75
0
 76
0
 77
0
 78
4
170
0
171
2
172
0
173
0
174
0
175
0
176
0
177
0
178
0
270
2
271
3
272
3
273
2
274
2
275
0
280
0
281
0
282
0
283
1
284
4
285
0
286
0
287
3
288
0
340
11
278
46
  0
ENDTAB
  0
ENDSEC
  0
SECTION
  2
BLOCKS
  0
BLOCK
  5
20
100
AcDbEntity
  8
0
100
AcDbBlockBegin
  2
*Model_Space
 70
0
 10
0.0
 20
0.0
 30
0.0
  3
*Model_Space
  1

  0
ENDBLK
  5
21
100
AcDbEntity
  8
0
100
AcDbBlockEnd
  0
BLOCK
  5
1C
100
AcDbEntity
  8
0
100
AcDbBlockBegin
  2
*Paper_Space
 70
0
 10
0.0
 20
0.0
 30
0.0
  3
*Paper_Space
  1

  0
ENDBLK
  5
1D
100
AcDbEntity
  8
0
100
AcDbBlockEnd
  0
BLOCK
  5
212
100
AcDbEntity
  8
0
100
AcDbBlockBegin
 62
2
  6
CONTINUOUS
  2
SUN_FIRST_THIRD_ANGLE_BL0
 70
64
 10
20.4816717061
 20
1.2289683772
  3
SUN_FIRST_THIRD_ANGLE_BL0
  1

  0
TEXT
  5
213
100
AcDbEntity
  8
0
100
AcDbText
 62
2
  6
CONTINUOUS
 10
19.4750896608
 20
1.4136269581
  7
STANDARD
 40
0.08
  1
FIRST ANGLE
 41
0.8
 72
0
100
AcDbText
  0
TEXT
  5
214
100
AcDbEntity
  8
0
100
AcDbText
 62
2
  6
CONTINUOUS
 10
20.7842537513
 20
1.4047600029
  7
STANDARD
 40
0.08
  1
THIRD ANGLE
 41
0.8
 72
0
100
AcDbText
  0
LINE
  5
215
100
AcDbEntity
  8
0
100
AcDbLine
 62
7
  6
CONTINUOUS
 10
19.4767170086
 20
1.1727031207
 11
19.6334271527
 21
1.1717972817
  0
LINE
  5
216
100
AcDbEntity
  8
0
100
AcDbLine
 62
7
  6
CONTINUOUS
 10
19.6596964832
 20
1.1717972817
 11
19.6950230232
 21
1.171593082
  0
LINE
  5
217
100
AcDbEntity
  8
0
100
AcDbLine
 62
7
  6
CONTINUOUS
 10
19.7194818561
 20
1.1708914427
 11
19.8852396156
 21
1.1699333054
  0
LINE
  5
218
100
AcDbEntity
  8
0
100
AcDbLine
 62
7
  6
CONTINUOUS
 10
19.4758111696
 20
1.2723454088
 11
19.88525039
 21
1.3511534004
  0
LINE
  5
219
100
AcDbEntity
  8
0
100
AcDbLine
 62
7
  6
CONTINUOUS
 10
19.88525039
 20
1.3511534004
 11
19.8831348489
 21
0.9851647912
  0
LINE
  5
21A
100
AcDbEntity
  8
0
100
AcDbLine
 62
7
  6
CONTINUOUS
 10
19.8831348489
 20
0.9851647912
 11
19.4767170086
 21
1.0658141206
  0
LINE
  5
21B
100
AcDbEntity
  8
0
100
AcDbLine
 62
7
  6
CONTINUOUS
 10
19.4767170086
 20
1.0658141206
 11
19.4779056764
 21
1.2714536432
  0
CIRCLE
  5
21C
100
AcDbEntity
  8
0
100
AcDbCircle
 62
7
  6
CONTINUOUS
 10
20.2068232291
 20
1.1717972817
 40
0.175742101
  0
CIRCLE
  5
21D
100
AcDbEntity
  8
0
100
AcDbCircle
 62
7
  6
CONTINUOUS
 10
20.2068232291
 20
1.1717972817
 40
0.1005522074
  0
LINE
  5
21E
100
AcDbEntity
  8
0
100
AcDbLine
 62
7
  6
CONTINUOUS
 10
20.2077290681
 20
1.3756110529
 11
20.2071171714
 21
1.2379342989
  0
LINE
  5
21F
100
AcDbEntity
  8
0
100
AcDbLine
 62
7
  6
CONTINUOUS
 10
20.2077290681
 20
1.2016899681
 11
20.2074674401
 21
1.1428236749
  0
LINE
  5
220
100
AcDbEntity
  8
0
100
AcDbLine
 62
7
  6
CONTINUOUS
 10
20.208634907
 20
1.101141841
 11
20.2080230104
 21
0.963465087
  0
LINE
  5
221
100
AcDbEntity
  8
0
100
AcDbLine
 62
7
  6
CONTINUOUS
 10
20.0066328138
 20
1.1745147986
 11
20.1443095678
 21
1.1739029019
  0
LINE
  5
222
100
AcDbEntity
  8
0
100
AcDbLine
 62
7
  6
CONTINUOUS
 10
20.1832714155
 20
1.1727031207
 11
20.238153505
 21
1.172335442
  0
LINE
  5
223
100
AcDbEntity
  8
0
100
AcDbLine
 62
7
  6
CONTINUOUS
 10
20.2756669918
 20
1.1717972817
 11
20.407916871
 21
1.1712095044
  0
CIRCLE
  5
224
100
AcDbEntity
  8
0
100
AcDbCircle
 62
7
  6
CONTINUOUS
 10
20.7509457401
 20
1.1693297793
 40
0.1722024983
  0
CIRCLE
  5
225
100
AcDbEntity
  8
0
100
AcDbCircle
 62
7
  6
CONTINUOUS
 10
20.7509457401
 20
1.1693297793
 40
0.0985164967
  0
LINE
  5
226
100
AcDbEntity
  8
0
100
AcDbLine
 62
7
  6
CONTINUOUS
 10
20.7169767782
 20
1.170462078
 11
20.7825395137
 21
1.1682766535
  0
LINE
  5
227
100
AcDbEntity
  8
0
100
AcDbLine
 62
7
  6
CONTINUOUS
 10
20.8177513651
 20
1.1693297793
 11
20.947965719
 21
1.1693297793
  0
LINE
  5
228
100
AcDbEntity
  8
0
100
AcDbLine
 62
7
  6
CONTINUOUS
 10
20.6875370113
 20
1.170462078
 11
20.5573226574
 21
1.170462078
  0
LINE
  5
229
100
AcDbEntity
  8
0
100
AcDbLine
 62
7
  6
CONTINUOUS
 10
20.7486811426
 20
1.1987695462
 11
20.7486811426
 21
1.1432869085
  0
LINE
  5
22A
100
AcDbEntity
  8
0
100
AcDbLine
 62
7
  6
CONTINUOUS
 10
20.7498134414
 20
1.1059210505
 11
20.7498134414
 21
0.9757066966
  0
LINE
  5
22B
100
AcDbEntity
  8
0
100
AcDbLine
 62
7
  6
CONTINUOUS
 10
20.7486811426
 20
1.2338708068
 11
20.7486811426
 21
1.3640851607
  0
LINE
  5
22C
100
AcDbEntity
  8
0
100
AcDbLine
 62
7
  6
CONTINUOUS
 10
21.0702539817
 20
1.2701043662
 11
21.4790138229
 21
1.3448360823
  0
LINE
  5
22D
100
AcDbEntity
  8
0
100
AcDbLine
 62
7
  6
CONTINUOUS
 10
21.4790138229
 20
1.3448360823
 11
21.4790138229
 21
0.9779712941
  0
LINE
  5
22E
100
AcDbEntity
  8
0
100
AcDbLine
 62
7
  6
CONTINUOUS
 10
21.4790138229
 20
0.9779712941
 11
21.069121683
 21
1.0617614
  0
LINE
  5
22F
100
AcDbEntity
  8
0
100
AcDbLine
 62
7
  6
CONTINUOUS
 10
21.0702539817
 20
1.2701043662
 11
21.069121683
 21
1.0617614
  0
LINE
  5
230
100
AcDbEntity
  8
0
100
AcDbLine
 62
7
  6
CONTINUOUS
 10
21.4790138229
 20
1.1693297793
 11
21.3159628059
 21
1.1693297793
  0
LINE
  5
231
100
AcDbEntity
  8
0
100
AcDbLine
 62
7
  6
CONTINUOUS
 10
21.2876553377
 20
1.1693297793
 11
21.2502894796
 21
1.1693297793
  0
LINE
  5
232
100
AcDbEntity
  8
0
100
AcDbLine
 62
7
  6
CONTINUOUS
 10
21.2208497126
 20
1.1659328831
 11
21.0713862804
 21
1.1659328831
  0
LINE
  5
233
100
AcDbEntity
  8
0
100
AcDbLine
 62
7
  6
CONTINUOUS
 10
20.4796138713
 20
1.5284908897
 11
20.4766766948
 21
0.9294458646
  0
ENDBLK
  5
234
100
AcDbEntity
  8
0
  6
BYBLOCK
 62
0
100
AcDbBlockEnd
  0
BLOCK
  5
235
100
AcDbEntity
  8
0
100
AcDbBlockBegin
  2
*T1
 70
1
 10
0.0
 20
0.0
  3
*T1
  1

  0
LINE
  5
236
100
AcDbEntity
  8
0
100
AcDbLine
 62
2
  6
CONTINUOUS
 10
9.275
 20
0.0
 11
-0.0
 21
0.0
  0
LINE
  5
237
100
AcDbEntity
  8
0
100
AcDbLine
 62
2
  6
CONTINUOUS
 10
9.275
 20
0.0
 11
9.275
 21
1.25
  0
LINE
  5
238
100
AcDbEntity
  8
0
100
AcDbLine
 62
2
  6
CONTINUOUS
 10
9.275
 20
0.625
 11
-0.0
 21
0.625
  0
LINE
  5
239
100
AcDbEntity
  8
0
100
AcDbLine
 62
2
  6
CONTINUOUS
 10
9.275
 20
1.25
 11
-0.0
 21
1.25
  0
LINE
  5
23A
100
AcDbEntity
  8
0
100
AcDbLine
 62
2
  6
CONTINUOUS
 10
6.8
 20
0.0
 11
6.8
 21
1.25
  0
LINE
  5
23B
100
AcDbEntity
  8
0
100
AcDbLine
 62
2
  6
CONTINUOUS
 10
6.4
 20
0.0
 11
6.4
 21
0.625
  0
LINE
  5
23C
100
AcDbEntity
  8
0
100
AcDbLine
 62
2
  6
CONTINUOUS
 10
5.9
 20
0.0
 11
5.9
 21
0.625
  0
LINE
  5
23D
100
AcDbEntity
  8
0
100
AcDbLine
 62
2
  6
CONTINUOUS
 10
5.2
 20
0.0
 11
5.2
 21
0.625
  0
LINE
  5
23E
100
AcDbEntity
  8
0
100
AcDbLine
 62
2
  6
CONTINUOUS
 10
4.1
 20
0.0
 11
4.1
 21
1.25
  0
LINE
  5
23F
100
AcDbEntity
  8
0
100
AcDbLine
 62
2
  6
CONTINUOUS
 10
-0.0
 20
0.0
 11
-0.0
 21
1.25
  0
MTEXT
  5
240
100
AcDbEntity
  8
0
100
AcDbMText
 62
2
  6
CONTINUOUS
  7
STANDARD
 71
2
 72
1
 10
6.6
 20
0.325
 30
0.0
 11
1.0
 21
0.0
 31
0.0
 44
0.9
  1
2
 40
0.125
 41
0.2
  0
MTEXT
  5
241
100
AcDbEntity
  8
0
100
AcDbMText
 62
2
  6
CONTINUOUS
  7
STANDARD
 71
2
 72
1
 10
6.15
 20
0.325
 30
0.0
 11
1.0
 21
0.0
 31
0.0
 44
0.9
  1
C
 40
0.125
 41
0.2
  0
MTEXT
  5
242
100
AcDbEntity
  8
0
100
AcDbMText
 62
2
  6
CONTINUOUS
  7
STANDARD
 71
2
 72
1
 10
5.55
 20
0.325
 30
0.0
 11
1.0
 21
0.0
 31
0.0
 44
0.9
  1
1.000
 40
0.125
 41
1.0
  0
MTEXT
  5
243
100
AcDbEntity
  8
0
100
AcDbMText
 62
2
  6
CONTINUOUS
  7
STANDARD
 71
2
 72
1
 10
4.65
 20
0.325
 30
0.0
 11
1.0
 21
0.0
 31
0.0
 44
0.9
  1
Nov-21-19
 40
0.125
 41
1.8
  0
MTEXT
  5
244
100
AcDbEntity
  8
0
100
AcDbMText
 62
2
  6
CONTINUOUS
  7
STANDARD
 71
2
 72
1
 10
2.05
 20
0.4625
 30
0.0
 11
1.0
 21
0.0
 31
0.0
 44
0.9
  1
T-2A Sandwich ISO 05 - X&Y\P(See Technical Data for Body Features)
 40
0.125
 41
7.6
  0
MTEXT
  5
245
100
AcDbEntity
  8
0
100
AcDbMText
 62
2
  6
CONTINUOUS
  7
STANDARD
 71
1
 72
1
 10
6.45
 20
0.5625
 30
0.0
 11
1.0
 21
0.0
 31
0.0
 44
0.9
  1
SHEET
 40
0.06
 41
0.48
  0
MTEXT
  5
246
100
AcDbEntity
  8
0
100
AcDbMText
 62
2
  6
CONTINUOUS
  7
STANDARD
 71
1
 72
1
 10
5.95
 20
0.5625
 30
0.0
 11
1.0
 21
0.0
 31
0.0
 44
0.9
  1
DWG SIZE
 40
0.06
 41
0.768
  0
MTEXT
  5
247
100
AcDbEntity
  8
0
100
AcDbMText
 62
2
  6
CONTINUOUS
  7
STANDARD
 71
1
 72
1
 10
5.25
 20
0.5625
 30
0.0
 11
1.0
 21
0.0
 31
0.0
 44
0.9
  1
SCALE
 40
0.06
 41
0.48
  0
MTEXT
  5
248
100
AcDbEntity
  8
0
100
AcDbMText
 62
2
  6
CONTINUOUS
  7
STANDARD
 71
1
 72
1
 10
4.15
 20
0.5625
 30
0.0
 11
1.0
 21
0.0
 31
0.0
 44
0.9
  1
DATE
 40
0.06
 41
0.384
  0
MTEXT
  5
249
100
AcDbEntity
  8
0
100
AcDbMText
 62
2
  6
CONTINUOUS
  7
STANDARD
 71
1
 72
1
 10
0.05
 20
0.5625
 30
0.0
 11
1.0
 21
0.0
 31
0.0
 44
0.9
  1
DESCRIPTION
 40
0.06
 41
1.056
  0
MTEXT
  5
24A
100
AcDbEntity
  8
0
100
AcDbMText
 62
2
  6
CONTINUOUS
  7
STANDARD
 71
2
 72
1
 10
5.45
 20
1.0375
 30
0.0
 11
1.0
 21
0.0
 31
0.0
 44
0.9
  1
ALL DIMENSIONS IN INCH\PVIEWS ARE THIRD ANGLE
 40
0.12
 41
4.224
  0
MTEXT
  5
24B
100
AcDbEntity
  8
0
100
AcDbMText
 62
2
  6
CONTINUOUS
  7
STANDARD
 71
2
 72
1
 10
2.05
 20
0.95
 30
0.0
 11
1.0
 21
0.0
 31
0.0
 44
0.9
  1
BJ9
 40
0.125
 41
0.6
  0
MTEXT
  5
24C
100
AcDbEntity
  8
0
100
AcDbMText
 62
2
  6
CONTINUOUS
  7
STANDARD
 71
1
 72
1
 10
0.05
 20
1.1875
 30
0.0
 11
1.0
 21
0.0
 31
0.0
 44
0.9
  1
MODEL
 40
0.06
 41
0.48
  0
ENDBLK
  5
24D
100
AcDbEntity
  8
0
  6
BYBLOCK
 62
0
100
AcDbBlockEnd
  0
BLOCK
  5
24E
100
AcDbEntity
  8
0
100
AcDbBlockBegin
  2
*T2
 70
1
 10
0.0
 20
0.0
  3
*T2
  1

  0
LINE
  5
24F
100
AcDbEntity
  8
0
100
AcDbLine
 62
2
  6
CONTINUOUS
 10
0.0
 20
0.0
 11
9.055
 21
0.0
  0
LINE
  5
250
100
AcDbEntity
  8
0
100
AcDbLine
 62
2
  6
CONTINUOUS
 10
0.0
 20
0.0
 11
0.0
 21
-2.094
  0
LINE
  5
251
100
AcDbEntity
  8
0
100
AcDbLine
 62
2
  6
CONTINUOUS
 10
0.0
 20
-0.344
 11
9.055
 21
-0.344
  0
LINE
  5
252
100
AcDbEntity
  8
0
100
AcDbLine
 62
2
  6
CONTINUOUS
 10
0.0
 20
-0.594
 11
9.055
 21
-0.594
  0
LINE
  5
253
100
AcDbEntity
  8
0
100
AcDbLine
 62
2
  6
CONTINUOUS
 10
0.0
 20
-0.844
 11
9.055
 21
-0.844
  0
LINE
  5
254
100
AcDbEntity
  8
0
100
AcDbLine
 62
2
  6
CONTINUOUS
 10
0.0
 20
-1.094
 11
9.055
 21
-1.094
  0
LINE
  5
255
100
AcDbEntity
  8
0
100
AcDbLine
 62
2
  6
CONTINUOUS
 10
0.0
 20
-1.344
 11
9.055
 21
-1.344
  0
LINE
  5
256
100
AcDbEntity
  8
0
100
AcDbLine
 62
2
  6
CONTINUOUS
 10
0.0
 20
-1.594
 11
9.055
 21
-1.594
  0
LINE
  5
257
100
AcDbEntity
  8
0
100
AcDbLine
 62
2
  6
CONTINUOUS
 10
0.0
 20
-1.844
 11
9.055
 21
-1.844
  0
LINE
  5
258
100
AcDbEntity
  8
0
100
AcDbLine
 62
2
  6
CONTINUOUS
 10
0.0
 20
-2.094
 11
9.055
 21
-2.094
  0
LINE
  5
259
100
AcDbEntity
  8
0
100
AcDbLine
 62
2
  6
CONTINUOUS
 10
3.055
 20
0.0
 11
3.055
 21
-2.094
  0
LINE
  5
25A
100
AcDbEntity
  8
0
100
AcDbLine
 62
2
  6
CONTINUOUS
 10
9.055
 20
0.0
 11
9.055
 21
-2.094
  0
MTEXT
  5
25B
100
AcDbEntity
  8
0
100
AcDbMText
 62
2
  6
CONTINUOUS
  7
STANDARD
 71
2
 72
1
 10
1.5275
 20
-0.0995
 30
0.0
 11
1.0
 21
0.0
 31
0.0
 44
0.9
  1
Technical Data
 40
0.145
 41
3.248
  0
MTEXT
  5
25C
100
AcDbEntity
  8
0
100
AcDbMText
 62
2
  6
CONTINUOUS
  7
STANDARD
 71
2
 72
1
 10
4.555
 20
-0.0995
 30
0.0
 11
1.0
 21
0.0
 31
0.0
 44
0.9
  1
U.S. Units
 40
0.145
 41
2.32
  0
MTEXT
  5
25D
100
AcDbEntity
  8
0
100
AcDbMText
 62
2
  6
CONTINUOUS
  7
STANDARD
 71
2
 72
1
 10
7.555
 20
-0.0995
 30
0.0
 11
1.0
 21
0.0
 31
0.0
 44
0.9
  1
Metric Units
 40
0.145
 41
2.784
  0
MTEXT
  5
25E
100
AcDbEntity
  8
0
100
AcDbMText
 62
2
  6
CONTINUOUS
  7
STANDARD
 71
2
 72
1
 10
1.5275
 20
-0.4065
 30
0.0
 11
1.0
 21
0.0
 31
0.0
 44
0.9
  1
Cavity
 40
0.125
 41
1.2
  0
MTEXT
  5
25F
100
AcDbEntity
  8
0
100
AcDbMText
 62
2
  6
CONTINUOUS
  7
STANDARD
 71
2
 72
1
 10
6.055
 20
-0.4065
 30
0.0
 11
1.0
 21
0.0
 31
0.0
 44
0.9
  1
T-2A
 40
0.125
 41
0.8
  0
MTEXT
  5
260
100
AcDbEntity
  8
0
100
AcDbMText
 62
2
  6
CONTINUOUS
  7
STANDARD
 71
2
 72
1
 10
1.5275
 20
-0.6565
 30
0.0
 11
1.0
 21
0.0
 31
0.0
 44
0.9
  1
Body Features
 40
0.125
 41
2.6
  0
MTEXT
  5
261
100
AcDbEntity
  8
0
100
AcDbMText
 62
2
  6
CONTINUOUS
  7
STANDARD
 71
2
 72
1
 10
6.055
 20
-0.6565
 30
0.0
 11
1.0
 21
0.0
 31
0.0
 44
0.9
  1
Reducer on A and B with reverse flow check
 40
0.125
 41
8.4
  0
MTEXT
  5
262
100
AcDbEntity
  8
0
100
AcDbMText
 62
2
  6
CONTINUOUS
  7
STANDARD
 71
2
 72
1
 10
1.5275
 20
-0.9065
 30
0.0
 11
1.0
 21
0.0
 31
0.0
 44
0.9
  1
Body Type
 40
0.125
 41
1.8
  0
MTEXT
  5
263
100
AcDbEntity
  8
0
100
AcDbMText
 62
2
  6
CONTINUOUS
  7
STANDARD
 71
2
 72
1
 10
6.055
 20
-0.9065
 30
0.0
 11
1.0
 21
0.0
 31
0.0
 44
0.9
  1
Sandwich
 40
0.125
 41
1.6
  0
MTEXT
  5
264
100
AcDbEntity
  8
0
100
AcDbMText
 62
2
  6
CONTINUOUS
  7
STANDARD
 71
2
 72
1
 10
1.5275
 20
-1.1565
 30
0.0
 11
1.0
 21
0.0
 31
0.0
 44
0.9
  1
Interface
 40
0.125
 41
1.8
  0
MTEXT
  5
265
100
AcDbEntity
  8
0
100
AcDbMText
 62
2
  6
CONTINUOUS
  7
STANDARD
 71
2
 72
1
 10
6.055
 20
-1.1565
 30
0.0
 11
1.0
 21
0.0
 31
0.0
 44
0.9
  1
ISO 05 - X&Y
 40
0.125
 41
2.4
  0
MTEXT
  5
266
100
AcDbEntity
  8
0
100
AcDbMText
 62
2
  6
CONTINUOUS
  7
STANDARD
 71
2
 72
1
 10
1.5275
 20
-1.4065
 30
0.0
 11
1.0
 21
0.0
 31
0.0
 44
0.9
  1
Open Cavity Quantity
 40
0.125
 41
4.0
  0
MTEXT
  5
267
100
AcDbEntity
  8
0
100
AcDbMText
 62
2
  6
CONTINUOUS
  7
STANDARD
 71
2
 72
1
 10
6.055
 20
-1.4065
 30
0.0
 11
1.0
 21
0.0
 31
0.0
 44
0.9
  1
2
 40
0.125
 41
0.2
  0
MTEXT
  5
268
100
AcDbEntity
  8
0
100
AcDbMText
 62
2
  6
CONTINUOUS
  7
STANDARD
 71
2
 72
1
 10
1.5275
 20
-1.6565
 30
0.0
 11
1.0
 21
0.0
 31
0.0
 44
0.9
  1
Stack Height
 40
0.125
 41
2.4
  0
MTEXT
  5
269
100
AcDbEntity
  8
0
100
AcDbMText
 62
2
  6
CONTINUOUS
  7
STANDARD
 71
2
 72
1
 10
4.555
 20
-1.6565
 30
0.0
 11
1.0
 21
0.0
 31
0.0
 44
0.9
  1
2.99 in.
 40
0.125
 41
1.6
  0
MTEXT
  5
26A
100
AcDbEntity
  8
0
100
AcDbMText
 62
2
  6
CONTINUOUS
  7
STANDARD
 71
2
 72
1
 10
7.555
 20
-1.6565
 30
0.0
 11
1.0
 21
0.0
 31
0.0
 44
0.9
  1
76 mm
 40
0.125
 41
1.0
  0
MTEXT
  5
26B
100
AcDbEntity
  8
0
100
AcDbMText
 62
2
  6
CONTINUOUS
  7
STANDARD
 71
2
 72
1
 10
1.5275
 20
-1.9065
 30
0.0
 11
1.0
 21
0.0
 31
0.0
 44
0.9
  1
Weight
 40
0.125
 41
1.2
  0
MTEXT
  5
26C
100
AcDbEntity
  8
0
100
AcDbMText
 62
2
  6
CONTINUOUS
  7
STANDARD
 71
2
 72
1
 10
4.555
 20
-1.9065
 30
0.0
 11
1.0
 21
0.0
 31
0.0
 44
0.9
  1
3.724 lb.
 40
0.125
 41
1.8
  0
MTEXT
  5
26D
100
AcDbEntity
  8
0
100
AcDbMText
 62
2
  6
CONTINUOUS
  7
STANDARD
 71
2
 72
1
 10
7.555
 20
-1.9065
 30
0.0
 11
1.0
 21
0.0
 31
0.0
 44
0.9
  1
1,689 kg.
 40
0.125
 41
1.8
  0
ENDBLK
  5
26E
100
AcDbEntity
  8
0
  6
BYBLOCK
 62
0
100
AcDbBlockEnd
  0
ENDSEC
  0
SECTION
  2
ENTITIES
  0
IMAGE
  5
26F
100
AcDbEntity
  8
0
100
AcDbRasterImage
 62
7
  6
CONTINUOUS
 10
19.2297077316
 20
0.3094318264
 30
0.0
 11
0.0066666667
 21
0.0
 31
0.0
 12
0.0
 22
0.0066666667
 32
0.0
 13
369.0
 23
92.0
340
       426
 70
9
280
0
281
50
282
50
283
0
360
       420
 71
1
 91
2
 14
-0.5
 24
-0.5
 14
368.5
 24
91.5
  0
INSERT
  5
270
100
AcDbEntity
  8
0
100
AcDbBlockReference
 62
2
  6
CONTINUOUS
  2
SUN_FIRST_THIRD_ANGLE_BL0
 10
20.4816717061
 20
1.2289683772
  0
ACAD_TABLE
  5
271
100
AcDbEntity
  8
0
 62
2
  6
CONTINUOUS
100
AcDbBlockReference
  2
*T1
 10
12.42375
 20
0.30125
 30
0.0
100
AcDbTable
342
       428
343
20F
 11
1.0
 21
0.0
 31
0.0
 90
6
 91
4
 92
6
 93
20
 94
0
 95
0
 96
0
 70
1
 41
0.0
141
0.525
141
0.1
141
0.525
141
0.1
142
4.1
142
1.1
142
0.7
142
0.5
142
0.4
142
2.475
171
1
172
0
173
0
174
0
175
1
176
1
 91
33
178
0
145
0.0
301
CELL_VALUE
 90
4
  1
T-2A Sandwich ISO 05 - X&Y\P(See Technical Data for Body Features)
304
ACVALUE_END
170
2
140
0.125
171
1
172
0
173
0
174
0
175
1
176
1
 91
33
178
0
145
0.0
301
CELL_VALUE
 90
4
  1
Nov-21-19
304
ACVALUE_END
170
5
140
0.125
171
1
172
0
173
0
174
0
175
1
176
1
 91
33
178
0
145
0.0
301
CELL_VALUE
 90
4
  1
1.000
304
ACVALUE_END
170
5
140
0.125
171
1
172
0
173
0
174
0
175
1
176
1
 91
33
178
0
145
0.0
301
CELL_VALUE
 90
4
  1
C
304
ACVALUE_END
170
5
140
0.125
171
1
172
0
173
0
174
0
175
1
176
1
 91
33
178
0
145
0.0
301
CELL_VALUE
 90
4
  1
2
304
ACVALUE_END
170
5
140
0.125
171
1
172
0
173
0
174
0
175
1
176
1
 91
33
178
0
145
0.0
301
CELL_VALUE
 90
4
  1
 
304
ACVALUE_END
170
1
140
0.125
171
1
172
0
173
0
174
0
175
1
176
1
 91
33
178
0
145
0.0
301
CELL_VALUE
 90
4
  1
DESCRIPTION
304
ACVALUE_END
170
1
140
0.06
171
1
172
0
173
0
174
0
175
1
176
1
 91
33
178
0
145
0.0
301
CELL_VALUE
 90
4
  1
DATE
304
ACVALUE_END
170
1
140
0.06
171
1
172
0
173
0
174
0
175
1
176
1
 91
33
178
0
145
0.0
301
CELL_VALUE
 90
4
  1
SCALE
304
ACVALUE_END
170
1
140
0.06
171
1
172
0
173
0
174
0
175
1
176
1
 91
33
178
0
145
0.0
301
CELL_VALUE
 90
4
  1
DWG SIZE
304
ACVALUE_END
170
1
140
0.06
171
1
172
0
173
0
174
0
175
1
176
1
 91
33
178
0
145
0.0
301
CELL_VALUE
 90
4
  1
SHEET
304
ACVALUE_END
170
1
140
0.06
171
1
172
0
173
0
174
0
175
1
176
1
 91
33
178
0
145
0.0
301
CELL_VALUE
 90
4
  1
 
304
ACVALUE_END
170
1
140
0.125
171
1
172
0
173
0
174
0
175
1
176
1
 91
33
178
0
145
0.0
301
CELL_VALUE
 90
4
  1
BJ9
304
ACVALUE_END
170
5
140
0.125
171
1
172
0
173
0
174
0
175
4
176
1
 91
33
178
0
145
0.0
301
CELL_VALUE
 90
4
  1
ALL DIMENSIONS IN INCH\PVIEWS ARE THIRD ANGLE
304
ACVALUE_END
170
5
140
0.12
171
1
172
0
173
1
174
0
175
1
176
1
 91
1
178
0
145
0.0
170
1
171
1
172
0
173
1
174
0
175
1
176
1
 91
1
178
0
145
0.0
170
1
171
1
172
0
173
1
174
0
175
1
176
1
 91
1
178
0
145
0.0
170
5
171
1
172
0
173
0
174
0
175
1
176
1
 91
33
178
0
145
0.0
301
CELL_VALUE
 90
4
  1
 
304
ACVALUE_END
170
1
140
0.125
171
1
172
0
173
0
174
0
175
1
176
1
 91
33
178
0
145
0.0
301
CELL_VALUE
 90
4
  1
MODEL
304
ACVALUE_END
170
1
140
0.06
171
1
172
0
173
0
174
0
175
1
176
1
 91
33
178
0
145
0.0
301
CELL_VALUE
 90
4
  1
 
304
ACVALUE_END
170
1
140
0.125
171
1
172
0
173
0
174
0
175
1
176
1
 91
33
178
0
145
0.0
301
CELL_VALUE
 90
4
  1
 
304
ACVALUE_END
170
1
140
0.125
171
1
172
0
173
0
174
0
175
1
176
1
 91
33
178
0
145
0.0
301
CELL_VALUE
 90
4
  1
 
304
ACVALUE_END
170
1
140
0.125
171
1
172
0
173
0
174
0
175
1
176
1
 91
33
178
0
145
0.0
301
CELL_VALUE
 90
4
  1
 
304
ACVALUE_END
170
1
140
0.125
171
1
172
0
173
0
174
0
175
1
176
1
 91
33
178
0
145
0.0
301
CELL_VALUE
 90
4
  1
 
304
ACVALUE_END
170
1
140
0.125
  0
ACAD_TABLE
  5
272
100
AcDbEntity
  8
0
 62
2
  6
CONTINUOUS
100
AcDbBlockReference
  2
*T2
 10
12.4237499994
 20
16.47875
 30
0.0
100
AcDbTable
342
       427
343
210
 11
1.0
 21
0.0
 31
0.0
 90
22
 91
8
 92
3
 93
16
 94
0
 95
0
 96
0
 41
0.028
141
0.344
141
0.25
141
0.25
141
0.25
141
0.25
141
0.25
141
0.25
141
0.25
142
3.055
142
3.0
142
3.0
171
1
172
0
173
0
174
0
175
1
176
1
 91
33
178
0
145
0.0
301
CELL_VALUE
 90
4
  1
Technical Data
304
ACVALUE_END
170
5
140
0.145
171
1
172
0
173
0
174
0
175
1
176
1
 91
33
178
0
145
0.0
301
CELL_VALUE
 90
4
  1
U.S. Units
304
ACVALUE_END
170
5
140
0.145
171
1
172
0
173
0
174
0
175
1
176
1
 91
33
178
0
145
0.0
301
CELL_VALUE
 90
4
  1
Metric Units
304
ACVALUE_END
170
5
140
0.145
171
1
172
0
173
0
174
0
175
1
176
1
 91
33
178
0
145
0.0
301
CELL_VALUE
 90
4
  1
Cavity
304
ACVALUE_END
170
5
140
0.125
171
1
172
0
173
0
174
0
175
2
176
1
 91
33
178
0
145
0.0
301
CELL_VALUE
 90
4
  1
T-2A
304
ACVALUE_END
170
5
140
0.125
171
1
172
0
173
1
174
0
175
1
176
1
 91
1
178
0
145
0.0
170
1
171
1
172
0
173
0
174
0
175
1
176
1
 91
33
178
0
145
0.0
301
CELL_VALUE
 90
4
  1
Body Features
304
ACVALUE_END
170
5
140
0.125
171
1
172
0
173
0
174
0
175
2
176
1
 91
33
178
0
145
0.0
301
CELL_VALUE
 90
4
  1
Reducer on A and B with reverse flow check
304
ACVALUE_END
170
5
140
0.125
171
1
172
0
173
1
174
0
175
1
176
1
 91
1
178
0
145
0.0
170
1
171
1
172
0
173
0
174
0
175
1
176
1
 91
33
178
0
145
0.0
301
CELL_VALUE
 90
4
  1
Body Type
304
ACVALUE_END
170
5
140
0.125
171
1
172
0
173
0
174
0
175
2
176
1
 91
33
178
0
145
0.0
301
CELL_VALUE
 90
4
  1
Sandwich
304
ACVALUE_END
170
5
140
0.125
171
1
172
0
173
1
174
0
175
1
176
1
 91
1
178
0
145
0.0
170
1
171
1
172
0
173
0
174
0
175
1
176
1
 91
33
178
0
145
0.0
301
CELL_VALUE
 90
4
  1
Interface
304
ACVALUE_END
170
5
140
0.125
171
1
172
0
173
0
174
0
175
2
176
1
 91
33
178
0
145
0.0
301
CELL_VALUE
 90
4
  1
ISO 05 - X&Y
304
ACVALUE_END
170
5
140
0.125
171
1
172
0
173
1
174
0
175
1
176
1
 91
1
178
0
145
0.0
170
1
171
1
172
0
173
0
174
0
175
1
176
1
 91
33
178
0
145
0.0
301
CELL_VALUE
 90
4
  1
Open Cavity Quantity
304
ACVALUE_END
170
5
140
0.125
171
1
172
0
173
0
174
0
175
2
176
1
 91
33
178
0
145
0.0
301
CELL_VALUE
 90
4
  1
2
304
ACVALUE_END
170
5
140
0.125
171
1
172
0
173
1
174
0
175
1
176
1
 91
1
178
0
145
0.0
170
1
171
1
172
0
173
0
174
0
175
1
176
1
 91
33
178
0
145
0.0
301
CELL_VALUE
 90
4
  1
Stack Height
304
ACVALUE_END
170
5
140
0.125
171
1
172
0
173
0
174
0
175
1
176
1
 91
33
178
0
145
0.0
301
CELL_VALUE
 90
4
  1
2.99 in.
304
ACVALUE_END
170
5
140
0.125
171
1
172
0
173
0
174
0
175
1
176
1
 91
33
178
0
145
0.0
301
CELL_VALUE
 90
4
  1
76 mm
304
ACVALUE_END
170
5
140
0.125
171
1
172
0
173
0
174
0
175
1
176
1
 91
33
178
0
145
0.0
301
CELL_VALUE
 90
4
  1
Weight
304
ACVALUE_END
170
5
140
0.125
171
1
172
0
173
0
174
0
175
1
176
1
 91
33
178
0
145
0.0
301
CELL_VALUE
 90
4
  1
3.724 lb.
304
ACVALUE_END
170
5
140
0.125
171
1
172
0
173
0
174
0
175
1
176
1
 91
33
178
0
145
0.0
301
CELL_VALUE
 90
4
  1
1,689 kg.
304
ACVALUE_END
170
5
140
0.125
  0
MTEXT
  5
273
100
AcDbEntity
  8
0
100
AcDbMText
 62
2
  6
CONTINUOUS
  7
STANDARD
 71
1
 72
1
 10
0.52125
 20
5.75995
 30
0.0
 11
1.0
 21
0.0
 31
0.0
 44
0.6
  3
Notes\P \P1. Stack height value in technical\P   data table includes seal retainer\P   plate.\P2. This installation requires a\P   retainer and seal kit which are\P   purchased separately. See "Related\P   Accessories" section.\P3. Important: Careful
  3
ly consider\P   the maximum system pressure. The\P   pressure rating of the manifold is\P   dependent on the manifold material,\P   with the port type/size a secondary\P   consideration. Manifolds\P   constructed of aluminum are not\P   rated for pre
  1
ssures higher than\P   3000 psi (210 bar), regardless of\P   the port type/size specified.
 40
0.1
 41
3.04
  0
LINE
  5
274
100
AcDbEntity
  8
0
100
AcDbLine
 62
7
  6
CONTINUOUS
 10
0.30125
 20
0.30125
 11
0.30125
 21
16.69875
  0
LINE
  5
275
100
AcDbEntity
  8
0
100
AcDbLine
 62
7
  6
CONTINUOUS
 10
0.30125
 20
0.30125
 11
21.69875
 21
0.30125
  0
LINE
  5
276
100
AcDbEntity
  8
0
100
AcDbLine
 62
7
  6
CONTINUOUS
 10
0.30125
 20
16.69875
 11
21.69875
 21
16.69875
  0
LINE
  5
277
100
AcDbEntity
  8
0
100
AcDbLine
 62
7
  6
CONTINUOUS
 10
21.69875
 20
0.30125
 11
21.69875
 21
16.69875
  0
LINE
  5
278
100
AcDbEntity
  8
0
100
AcDbLine
 62
7
  6
CONTINUOUS
 10
7.7679113214
 20
9.1151234515
 11
7.7679113214
 21
7.5454938908
  0
LINE
  5
279
100
AcDbEntity
  8
0
100
AcDbLine
 62
7
  6
CONTINUOUS
 10
7.78983164
 20
9.1052968546
 11
7.78983164
 21
7.5356672939
  0
LINE
  5
27A
100
AcDbEntity
  8
0
100
AcDbLine
 62
7
  6
CONTINUOUS
 10
7.6620698603
 20
9.2968884174
 11
7.6525541951
 21
9.2807547519
  0
LINE
  5
27B
100
AcDbEntity
  8
0
100
AcDbLine
 62
7
  6
CONTINUOUS
 10
7.8376762835
 20
7.2696755247
 11
7.8118008077
 21
7.3014907745
  0
LINE
  5
27C
100
AcDbEntity
  8
0
100
AcDbLine
 62
7
  6
CONTINUOUS
 10
7.5978139526
 20
8.2568110509
 11
7.5838672589
 21
8.2903192379
  0
LINE
  5
27D
100
AcDbEntity
  8
0
100
AcDbLine
 62
7
  6
CONTINUOUS
 10
8.4149584002
 20
10.0724014767
 11
7.8569449994
 21
9.5334018896
  0
LINE
  5
27E
100
AcDbEntity
  8
0
100
AcDbLine
 62
7
  6
CONTINUOUS
 10
8.4449021026
 20
10.1002685763
 11
7.8868887018
 21
9.5612689892
  0
LINE
  5
27F
100
AcDbEntity
  8
0
100
AcDbLine
 62
7
  6
CONTINUOUS
 10
8.4458183056
 20
10.1011374212
 11
8.4449021026
 21
10.1002685763
  0
LINE
  5
280
100
AcDbEntity
  8
0
100
AcDbLine
 62
7
  6
CONTINUOUS
 10
8.4157999102
 20
10.0731992985
 11
8.4149584002
 21
10.0724014767
  0
LINE
  5
281
100
AcDbEntity
  8
0
100
AcDbLine
 62
7
  6
CONTINUOUS
 10
8.4149584002
 20
10.0724014767
 11
8.4448940533
 21
10.1002772249
  0
LINE
  5
282
100
AcDbEntity
  8
0
100
AcDbLine
 62
7
  6
CONTINUOUS
 10
7.8569449994
 20
9.5334018896
 11
7.8868887018
 21
9.5612689892
  0
LINE
  5
283
100
AcDbEntity
  8
0
100
AcDbLine
 62
7
  6
CONTINUOUS
 10
8.6917290046
 20
9.4615384185
 11
8.6917290046
 21
7.0467237097
  0
LINE
  5
284
100
AcDbEntity
  8
0
100
AcDbLine
 62
7
  6
CONTINUOUS
 10
8.6917290046
 20
9.4615384185
 11
9.4521387222
 21
10.1960378468
  0
LINE
  5
285
100
AcDbEntity
  8
0
100
AcDbLine
 62
7
  6
CONTINUOUS
 10
7.7679113214
 20
7.5454938908
 11
7.78983164
 21
7.5356672939
  0
LINE
  5
286
100
AcDbEntity
  8
0
100
AcDbLine
 62
4
  6
CONTINUOUS
 10
10.4350673964
 20
10.1144740767
 11
10.3923622902
 21
10.0732241093
  0
LINE
  5
287
100
AcDbEntity
  8
0
100
AcDbLine
 62
4
  6
CONTINUOUS
 10
10.6363514636
 20
10.0763995738
 11
10.6513604724
 21
10.083397164
  0
LINE
  5
288
100
AcDbEntity
  8
0
100
AcDbLine
 62
4
  6
CONTINUOUS
 10
10.7232847912
 20
10.0703707271
 11
10.7082757825
 21
10.0633731369
  0
LINE
  5
289
100
AcDbEntity
  8
0
100
AcDbLine
 62
4
  6
CONTINUOUS
 10
10.4350673964
 20
10.1144740767
 11
10.3833872874
 21
10.0985334292
  0
LINE
  5
28A
100
AcDbEntity
  8
0
100
AcDbLine
 62
7
  6
CONTINUOUS
 10
13.1403908903
 20
7.1738770931
 11
13.1024238041
 21
7.1682037019
  0
LINE
  5
28B
100
AcDbEntity
  8
0
100
AcDbLine
 62
7
  6
CONTINUOUS
 10
12.1922442462
 20
6.8039621532
 11
8.6917290046
 21
7.0467237097
  0
LINE
  5
28C
100
AcDbEntity
  8
0
100
AcDbLine
 62
4
  6
CONTINUOUS
 10
10.5452820005
 20
10.0934332199
 11
10.5426938129
 21
10.0909332224
  0
LINE
  5
28D
100
AcDbEntity
  8
0
100
AcDbLine
 62
4
  6
CONTINUOUS
 10
10.5877084236
 20
10.0744140014
 11
10.582532047
 21
10.0694140052
  0
LINE
  5
28E
100
AcDbEntity
  8
0
100
AcDbLine
 62
4
  6
CONTINUOUS
 10
10.2646282445
 20
9.7612710353
 11
10.2690651384
 21
9.7655567459
  0
LINE
  5
28F
100
AcDbEntity
  8
0
100
AcDbLine
 62
4
  6
CONTINUOUS
 10
10.3048362193
 20
9.7401089602
 11
10.3092731136
 21
9.7443946713
  0
LINE
  5
290
100
AcDbEntity
  8
0
100
AcDbLine
 62
4
  6
CONTINUOUS
 10
10.3645750402
 20
9.763526522
 11
10.3379536754
 21
9.7378122568
  0
LINE
  5
291
100
AcDbEntity
  8
0
100
AcDbLine
 62
4
  6
CONTINUOUS
 10
10.2109969202
 20
9.5780385698
 11
10.2420551793
 21
9.6080385462
  0
LINE
  5
292
100
AcDbEntity
  8
0
100
AcDbLine
 62
4
  6
CONTINUOUS
 10
10.3959092271
 20
9.7337930256
 11
10.4225305919
 21
9.7595072909
  0
LINE
  5
293
100
AcDbEntity
  8
0
100
AcDbLine
 62
4
  6
CONTINUOUS
 10
10.7822805845
 20
10.0823562919
 11
10.7512223255
 21
10.0523563155
  0
LINE
  5
294
100
AcDbEntity
  8
0
100
AcDbLine
 62
4
  6
CONTINUOUS
 10
10.4245897889
 20
9.7272106111
 11
10.455648048
 21
9.7572105875
  0
LINE
  5
295
100
AcDbEntity
  8
0
100
AcDbLine
 62
4
  6
CONTINUOUS
 10
10.2955738302
 20
9.5997336048
 11
10.2733893594
 21
9.5783050503
  0
LINE
  5
296
100
AcDbEntity
  8
0
100
AcDbLine
 62
4
  6
CONTINUOUS
 10
10.3158688647
 20
9.5707656758
 11
10.3800445799
 21
9.5984689487
  0
LINE
  5
297
100
AcDbEntity
  8
0
100
AcDbLine
 62
4
  6
CONTINUOUS
 10
11.0120223082
 20
10.0342697753
 11
11.0793027871
 21
10.0617577322
  0
LINE
  5
298
100
AcDbEntity
  8
0
100
AcDbLine
 62
4
  6
CONTINUOUS
 10
11.0917111918
 20
10.0287433325
 11
11.1589916707
 21
10.0562312893
  0
LINE
  5
299
100
AcDbEntity
  8
0
100
AcDbLine
 62
4
  6
CONTINUOUS
 10
11.3597556185
 20
10.0101543883
 11
11.4270360974
 21
10.0376423452
  0
LINE
  5
29A
100
AcDbEntity
  8
0
100
AcDbLine
 62
7
  6
CONTINUOUS
 10
8.6917290046
 20
7.1977006663
 11
7.860944677
 21
7.2553157552
  0
LINE
  5
29B
100
AcDbEntity
  8
0
100
AcDbLine
 62
7
  6
CONTINUOUS
 10
12.2674983798
 20
6.9506861438
 11
13.1735368411
 21
6.8878521631
  0
LINE
  5
29C
100
AcDbEntity
  8
0
100
AcDbLine
 62
4
  6
CONTINUOUS
 10
10.4825453407
 20
9.72319138
 11
10.5136035997
 21
9.7531913563
  0
LINE
  5
29D
100
AcDbEntity
  8
0
100
AcDbLine
 62
4
  6
CONTINUOUS
 10
10.4483387031
 20
9.5615788613
 11
10.4793969622
 21
9.5915788376
  0
LINE
  5
29E
100
AcDbEntity
  8
0
100
AcDbLine
 62
4
  6
CONTINUOUS
 10
10.6067358047
 20
9.714578742
 11
10.6377940638
 21
9.7445787184
  0
LINE
  5
29F
100
AcDbEntity
  8
0
100
AcDbLine
 62
4
  6
CONTINUOUS
 10
10.6763780192
 20
9.7304193853
 11
10.6564119958
 21
9.7111336865
  0
LINE
  5
2A0
100
AcDbEntity
  8
0
100
AcDbLine
 62
4
  6
CONTINUOUS
 10
10.5829017384
 20
9.6229854057
 11
10.6139599975
 21
9.6529853821
  0
LINE
  5
2A1
100
AcDbEntity
  8
0
100
AcDbLine
 62
4
  6
CONTINUOUS
 10
10.5145736154
 20
9.5569854545
 11
10.5456318745
 21
9.5869854309
  0
LINE
  5
2A2
100
AcDbEntity
  8
0
100
AcDbLine
 62
4
  6
CONTINUOUS
 10
10.6591992913
 20
9.6452546161
 11
10.6525439495
 21
9.6388260493
  0
LINE
  5
2A3
100
AcDbEntity
  8
0
100
AcDbLine
 62
4
  6
CONTINUOUS
 10
10.6519495258
 20
9.6296804521
 11
10.6452941845
 21
9.6232518857
  0
LINE
  5
2A4
100
AcDbEntity
  8
0
100
AcDbLine
 62
4
  6
CONTINUOUS
 10
10.7635024082
 20
9.7060036465
 11
10.7812499844
 21
9.7231464898
  0
LINE
  5
2A5
100
AcDbEntity
  8
0
100
AcDbLine
 62
4
  6
CONTINUOUS
 10
10.7198084712
 20
9.6180843023
 11
10.7464298359
 21
9.6437985676
  0
LINE
  5
2A6
100
AcDbEntity
  8
0
100
AcDbLine
 62
4
  6
CONTINUOUS
 10
10.8420183836
 20
9.7304157137
 11
10.8109601245
 21
9.7004157374
  0
LINE
  5
2A7
100
AcDbEntity
  8
0
100
AcDbLine
 62
4
  6
CONTINUOUS
 10
10.807038999
 20
9.6166282555
 11
10.8241921621
 21
9.6246255011
  0
LINE
  5
2A8
100
AcDbEntity
  8
0
100
AcDbLine
 62
4
  6
CONTINUOUS
 10
10.6986933633
 20
9.7005457794
 11
10.7613901006
 21
9.7268204835
  0
LINE
  5
2A9
100
AcDbEntity
  8
0
100
AcDbLine
 62
4
  6
CONTINUOUS
 10
11.1925114715
 20
9.7061089355
 11
11.187533246
 21
9.7041574705
  0
LINE
  5
2AA
100
AcDbEntity
  8
0
100
AcDbLine
 62
7
  6
CONTINUOUS
 10
7.78983164
 20
7.5356672939
 11
8.6917290046
 21
7.4731204992
  0
LINE
  5
2AB
100
AcDbEntity
  8
0
100
AcDbLine
 62
7
  6
CONTINUOUS
 10
13.1024238041
 20
7.1682037019
 11
12.1963853429
 21
7.2310376826
  0
LINE
  5
2AC
100
AcDbEntity
  8
0
100
AcDbLine
 62
4
  6
CONTINUOUS
 10
10.7751103982
 20
9.6372161536
 11
10.7662366104
 21
9.6286447323
  0
LINE
  5
2AD
100
AcDbEntity
  8
0
100
AcDbLine
 62
4
  6
CONTINUOUS
 10
10.8440776221
 20
9.6981190311
 11
10.8662620934
 21
9.7195475861
  0
LINE
  5
2AE
100
AcDbEntity
  8
0
100
AcDbLine
 62
4
  6
CONTINUOUS
 10
10.6928771925
 20
9.5492134702
 11
10.7150616634
 21
9.5706420248
  0
LINE
  5
2AF
100
AcDbEntity
  8
0
100
AcDbLine
 62
4
  6
CONTINUOUS
 10
11.2459249983
 20
10.0502024426
 11
11.2148667392
 21
10.0202024662
  0
LINE
  5
2B0
100
AcDbEntity
  8
0
100
AcDbLine
 62
4
  6
CONTINUOUS
 10
10.9026806432
 20
9.714725245
 11
10.8982437493
 21
9.7104395344
  0
LINE
  5
2B1
100
AcDbEntity
  8
0
100
AcDbLine
 62
4
  6
CONTINUOUS
 10
10.8241921621
 20
9.6246255011
 11
10.8330659499
 21
9.6331969224
  0
LINE
  5
2B2
100
AcDbEntity
  8
0
100
AcDbLine
 62
4
  6
CONTINUOUS
 10
10.9208103422
 20
9.6950943043
 11
10.9274656837
 21
9.7015228709
  0
LINE
  5
2B3
100
AcDbEntity
  8
0
100
AcDbLine
 62
4
  6
CONTINUOUS
 10
10.7894697419
 20
9.5425147542
 11
10.8116542127
 21
9.5639433088
  0
LINE
  5
2B4
100
AcDbEntity
  8
0
100
AcDbLine
 62
4
  6
CONTINUOUS
 10
10.9682680585
 20
9.6895063951
 11
10.9860156359
 21
9.7066492395
  0
LINE
  5
2B5
100
AcDbEntity
  8
0
100
AcDbLine
 62
4
  6
CONTINUOUS
 10
11.0235699721
 20
9.7086382477
 11
11.003603948
 21
9.6893525482
  0
LINE
  5
2B6
100
AcDbEntity
  8
0
100
AcDbLine
 62
4
  6
CONTINUOUS
 10
10.8696097644
 20
9.5599240776
 11
10.8474252936
 21
9.538495523
  0
LINE
  5
2B7
100
AcDbEntity
  8
0
100
AcDbLine
 62
4
  6
CONTINUOUS
 10
10.8761058416
 20
9.5319131095
 11
10.9071641007
 21
9.5619130858
  0
LINE
  5
2B8
100
AcDbEntity
  8
0
100
AcDbLine
 62
4
  6
CONTINUOUS
 10
11.0510617196
 20
9.6837646352
 11
11.0732461909
 21
9.7051931902
  0
LINE
  5
2B9
100
AcDbEntity
  8
0
100
AcDbLine
 62
4
  6
CONTINUOUS
 10
11.0863976091
 20
9.6836107883
 11
11.115237421
 21
9.7114679091
  0
LINE
  5
2BA
100
AcDbEntity
  8
0
100
AcDbLine
 62
4
  6
CONTINUOUS
 10
10.9606827585
 20
9.553608144
 11
10.9384982877
 21
9.5321795894
  0
LINE
  5
2BB
100
AcDbEntity
  8
0
100
AcDbLine
 62
4
  6
CONTINUOUS
 10
11.446688946
 20
10.0041255416
 11
11.4777472051
 21
10.0341255179
  0
LINE
  5
2BC
100
AcDbEntity
  8
0
100
AcDbLine
 62
4
  6
CONTINUOUS
 10
10.9809778344
 20
9.5246402121
 11
11.0120360935
 21
9.5546401884
  0
LINE
  5
2BD
100
AcDbEntity
  8
0
100
AcDbLine
 62
7
  6
CONTINUOUS
 10
9.5303676195
 20
7.6462808875
 11
9.5164416477
 21
7.6461487911
  0
LINE
  5
2BE
100
AcDbEntity
  8
0
100
AcDbLine
 62
7
  6
CONTINUOUS
 10
7.7679113214
 20
9.1151234515
 11
7.78983164
 21
9.1052968546
  0
LINE
  5
2BF
100
AcDbEntity
  8
0
100
AcDbLine
 62
4
  6
CONTINUOUS
 10
10.3800445799
 20
9.5984689487
 11
10.3821037908
 21
9.5661722681
  0
LINE
  5
2C0
100
AcDbEntity
  8
0
100
AcDbLine
 62
4
  6
CONTINUOUS
 10
11.1586934348
 20
9.6763003504
 11
11.1808779061
 21
9.6977289054
  0
LINE
  5
2C1
100
AcDbEntity
  8
0
100
AcDbLine
 62
4
  6
CONTINUOUS
 10
11.187533246
 20
9.7041574705
 11
11.1897516939
 21
9.7063003267
  0
LINE
  5
2C2
100
AcDbEntity
  8
0
100
AcDbLine
 62
4
  6
CONTINUOUS
 10
11.2050684902
 20
9.6753809347
 11
11.2228160664
 21
9.692523778
  0
LINE
  5
2C3
100
AcDbEntity
  8
0
100
AcDbLine
 62
4
  6
CONTINUOUS
 10
11.2906750537
 20
9.6809276258
 11
11.2973303946
 21
9.6873561918
  0
LINE
  5
2C4
100
AcDbEntity
  8
0
100
AcDbLine
 62
4
  6
CONTINUOUS
 10
11.3292589265
 20
9.6667682987
 11
11.3359142681
 21
9.6731968654
  0
LINE
  5
2C5
100
AcDbEntity
  8
0
100
AcDbLine
 62
7
  6
CONTINUOUS
 10
11.3697482413
 20
7.8939976039
 11
11.3567033128
 21
7.8948075136
  0
LINE
  5
2C6
100
AcDbEntity
  8
0
100
AcDbLine
 62
7
  6
CONTINUOUS
 10
7.7679113214
 20
8.1534572577
 11
7.6484595191
 21
8.1617412683
  0
LINE
  5
2C7
100
AcDbEntity
  8
0
100
AcDbLine
 62
7
  6
CONTINUOUS
 10
13.8842031826
 20
7.7317068302
 11
14.2686066239
 21
7.705048361
  0
LINE
  5
2C8
100
AcDbEntity
  8
0
100
AcDbLine
 62
7
  6
CONTINUOUS
 10
7.7679113214
 20
8.1674639185
 11
7.635947163
 21
8.176615664
  0
LINE
  5
2C9
100
AcDbEntity
  8
0
100
AcDbLine
 62
7
  6
CONTINUOUS
 10
13.6380181754
 20
7.8287697388
 11
13.7732067963
 21
7.8193943761
  0
LINE
  5
2CA
100
AcDbEntity
  8
0
100
AcDbLine
 62
7
  6
CONTINUOUS
 10
9.5659614669
 20
8.0185576012
 11
9.5576394798
 21
8.0195730142
  0
LINE
  5
2CB
100
AcDbEntity
  8
0
100
AcDbLine
 62
7
  6
CONTINUOUS
 10
11.3508539695
 20
7.8956958483
 11
11.3567033128
 21
7.8948075136
  0
LINE
  5
2CC
100
AcDbEntity
  8
0
100
AcDbLine
 62
4
  6
CONTINUOUS
 10
10.6358313428
 20
10.0683971758
 11
10.6363514636
 21
10.0763995738
  0
LINE
  5
2CD
100
AcDbEntity
  8
0
100
AcDbLine
 62
4
  6
CONTINUOUS
 10
10.723804912
 20
10.0783731251
 11
10.7232847912
 21
10.0703707271
  0
LINE
  5
2CE
100
AcDbEntity
  8
0
100
AcDbLine
 62
7
  6
CONTINUOUS
 10
9.543460686
 20
8.0203092499
 11
9.5573893457
 21
8.020441055
  0
LINE
  5
2CF
100
AcDbEntity
  8
0
100
AcDbLine
 62
7
  6
CONTINUOUS
 10
13.7530698848
 20
7.887595021
 11
14.1374733261
 21
7.8609365518
  0
LINE
  5
2D0
100
AcDbEntity
  8
0
100
AcDbLine
 62
7
  6
CONTINUOUS
 10
13.7458458726
 20
7.9273139507
 11
14.1302493139
 21
7.9006554815
  0
LINE
  5
2D1
100
AcDbEntity
  8
0
100
AcDbLine
 62
7
  6
CONTINUOUS
 10
13.1403908903
 20
8.7435066538
 11
13.1024238041
 21
8.7378332626
  0
LINE
  5
2D2
100
AcDbEntity
  8
0
100
AcDbLine
 62
7
  6
CONTINUOUS
 10
7.7679113214
 20
8.578479887
 11
7.5602373182
 21
8.5928821281
  0
LINE
  5
2D3
100
AcDbEntity
  8
0
100
AcDbLine
 62
7
  6
CONTINUOUS
 10
7.7679113214
 20
8.6324006957
 11
7.5602373182
 21
8.6468029367
  0
LINE
  5
2D4
100
AcDbEntity
  8
0
100
AcDbLine
 62
4
  6
CONTINUOUS
 10
10.7117139371
 20
9.7302655372
 11
10.7143675752
 21
9.7071144534
  0
LINE
  5
2D5
100
AcDbEntity
  8
0
100
AcDbLine
 62
7
  6
CONTINUOUS
 10
13.7458458726
 20
8.4924204253
 11
14.1302493139
 21
8.4657619561
  0
LINE
  5
2D6
100
AcDbEntity
  8
0
100
AcDbLine
 62
7
  6
CONTINUOUS
 10
13.7530698848
 20
8.5460950757
 11
14.1374733261
 21
8.5194366065
  0
LINE
  5
2D7
100
AcDbEntity
  8
0
100
AcDbLine
 62
4
  6
CONTINUOUS
 10
11.0068583474
 20
10.0667817711
 11
11.0120223082
 21
10.0342697753
  0
LINE
  5
2D8
100
AcDbEntity
  8
0
100
AcDbLine
 62
7
  6
CONTINUOUS
 10
12.1922442462
 20
9.218776862
 11
12.9526539638
 21
9.9532762903
  0
LINE
  5
2D9
100
AcDbEntity
  8
0
100
AcDbLine
 62
7
  6
CONTINUOUS
 10
12.2934424047
 20
9.2566393778
 11
12.8514558054
 21
9.7956389649
  0
LINE
  5
2DA
100
AcDbEntity
  8
0
100
AcDbLine
 62
7
  6
CONTINUOUS
 10
7.78983164
 20
9.1052968546
 11
8.6917290046
 21
9.04275006
  0
LINE
  5
2DB
100
AcDbEntity
  8
0
100
AcDbLine
 62
7
  6
CONTINUOUS
 10
13.1024238041
 20
8.7378332626
 11
12.1963853429
 21
8.8006672433
  0
LINE
  5
2DC
100
AcDbEntity
  8
0
100
AcDbLine
 62
7
  6
CONTINUOUS
 10
7.770722936
 20
9.1999828667
 11
7.635947163
 21
9.2093295983
  0
LINE
  5
2DD
100
AcDbEntity
  8
0
100
AcDbLine
 62
7
  6
CONTINUOUS
 10
7.7738495573
 20
9.2396801825
 11
7.6484595191
 21
9.2483760112
  0
LINE
  5
2DE
100
AcDbEntity
  8
0
100
AcDbLine
 62
4
  6
CONTINUOUS
 10
10.455648048
 20
9.7572105875
 11
10.4825453407
 21
9.72319138
  0
LINE
  5
2DF
100
AcDbEntity
  8
0
100
AcDbLine
 62
4
  6
CONTINUOUS
 10
10.4350673964
 20
10.1144740767
 11
10.4490287271
 21
10.0939811799
  0
LINE
  5
2E0
100
AcDbEntity
  8
0
100
AcDbLine
 62
4
  6
CONTINUOUS
 10
11.1589916707
 20
10.0562312893
 11
11.1641556314
 21
10.0237192935
  0
LINE
  5
2E1
100
AcDbEntity
  8
0
100
AcDbLine
 62
7
  6
CONTINUOUS
 10
13.7123173638
 20
8.9022014558
 11
13.8435882929
 21
8.893097786
  0
LINE
  5
2E2
100
AcDbEntity
  8
0
100
AcDbLine
 62
7
  6
CONTINUOUS
 10
13.8842031826
 20
8.9553133595
 11
14.2686066239
 21
8.9286548903
  0
LINE
  5
2E3
100
AcDbEntity
  8
0
100
AcDbLine
 62
7
  6
CONTINUOUS
 10
13.8986512069
 20
8.9692690802
 11
14.2830546483
 21
8.942610611
  0
LINE
  5
2E4
100
AcDbEntity
  8
0
100
AcDbLine
 62
7
  6
CONTINUOUS
 10
8.6917290046
 20
9.4615384185
 11
12.1922442462
 21
9.218776862
  0
LINE
  5
2E5
100
AcDbEntity
  8
0
100
AcDbLine
 62
4
  6
CONTINUOUS
 10
10.283451996
 20
9.6051676672
 11
10.2955738302
 21
9.5997336048
  0
LINE
  5
2E6
100
AcDbEntity
  8
0
100
AcDbLine
 62
4
  6
CONTINUOUS
 10
10.9860156359
 20
9.7066492395
 11
10.9821731968
 21
9.7115091238
  0
LINE
  5
2E7
100
AcDbEntity
  8
0
100
AcDbLine
 62
4
  6
CONTINUOUS
 10
11.3545916577
 20
10.0426663841
 11
11.3597556185
 21
10.0101543883
  0
LINE
  5
2E8
100
AcDbEntity
  8
0
100
AcDbLine
 62
7
  6
CONTINUOUS
 10
13.1994808659
 20
9.1938053971
 11
13.7574942666
 21
9.7328049842
  0
LINE
  5
2E9
100
AcDbEntity
  8
0
100
AcDbLine
 62
4
  6
CONTINUOUS
 10
10.9384982877
 20
9.5321795894
 11
10.9175026721
 21
9.5290422295
  0
LINE
  5
2EA
100
AcDbEntity
  8
0
100
AcDbLine
 62
4
  6
CONTINUOUS
 10
10.8474252936
 20
9.538495523
 11
10.8264296781
 21
9.5353581631
  0
LINE
  5
2EB
100
AcDbEntity
  8
0
100
AcDbLine
 62
4
  6
CONTINUOUS
 10
11.121238731
 20
9.5286933177
 11
11.0711662639
 21
9.5260413075
  0
LINE
  5
2EC
100
AcDbEntity
  8
0
100
AcDbLine
 62
7
  6
CONTINUOUS
 10
7.8868887018
 20
9.5612689892
 11
8.7341473559
 21
9.5025114019
  0
LINE
  5
2ED
100
AcDbEntity
  8
0
100
AcDbLine
 62
7
  6
CONTINUOUS
 10
13.1994808659
 20
9.1938053971
 11
12.2934424047
 21
9.2566393778
  0
LINE
  5
2EE
100
AcDbEntity
  8
0
100
AcDbLine
 62
4
  6
CONTINUOUS
 10
10.9175026721
 20
9.5290422295
 11
10.8761058416
 21
9.5319131095
  0
LINE
  5
2EF
100
AcDbEntity
  8
0
100
AcDbLine
 62
4
  6
CONTINUOUS
 10
10.8264296781
 20
9.5353581631
 11
10.8015915687
 21
9.5370806919
  0
LINE
  5
2F0
100
AcDbEntity
  8
0
100
AcDbLine
 62
4
  6
CONTINUOUS
 10
10.7381164617
 20
9.5414827055
 11
10.7049990194
 21
9.5437794079
  0
LINE
  5
2F1
100
AcDbEntity
  8
0
100
AcDbLine
 62
4
  6
CONTINUOUS
 10
10.252393737
 20
9.5751676908
 11
10.2109969202
 21
9.5780385698
  0
LINE
  5
2F2
100
AcDbEntity
  8
0
100
AcDbLine
 62
4
  6
CONTINUOUS
 10
10.5145736154
 20
9.5569854545
 11
10.5642498065
 21
9.553540399
  0
LINE
  5
2F3
100
AcDbEntity
  8
0
100
AcDbLine
 62
4
  6
CONTINUOUS
 10
10.9809778344
 20
9.5246402121
 11
11.0306539979
 21
9.5211951584
  0
LINE
  5
2F4
100
AcDbEntity
  8
0
100
AcDbLine
 62
4
  6
CONTINUOUS
 10
10.3357818054
 20
9.5785715302
 11
10.3799384136
 21
9.575509259
  0
LINE
  5
2F5
100
AcDbEntity
  8
0
100
AcDbLine
 62
4
  6
CONTINUOUS
 10
11.0318428542
 20
9.539486354
 11
10.9987254118
 21
9.5417830565
  0
LINE
  5
2F6
100
AcDbEntity
  8
0
100
AcDbLine
 62
4
  6
CONTINUOUS
 10
10.5654386628
 20
9.5718315946
 11
10.5323211928
 21
9.5741282989
  0
LINE
  5
2F7
100
AcDbEntity
  8
0
100
AcDbLine
 62
4
  6
CONTINUOUS
 10
10.2420551793
 20
9.6080385462
 11
10.283451996
 21
9.6051676672
  0
LINE
  5
2F8
100
AcDbEntity
  8
0
100
AcDbLine
 62
4
  6
CONTINUOUS
 10
10.4462794922
 20
9.593875542
 11
10.5125144045
 21
9.5892821352
  0
LINE
  5
2F9
100
AcDbEntity
  8
0
100
AcDbLine
 62
4
  6
CONTINUOUS
 10
10.5456318745
 20
9.5869854309
 11
10.5953080656
 21
9.5835403753
  0
LINE
  5
2FA
100
AcDbEntity
  8
0
100
AcDbLine
 62
4
  6
CONTINUOUS
 10
10.7360572784
 20
9.5737793842
 11
10.7691747208
 21
9.5714826818
  0
LINE
  5
2FB
100
AcDbEntity
  8
0
100
AcDbLine
 62
4
  6
CONTINUOUS
 10
10.8326498278
 20
9.5670806682
 11
10.8574879372
 21
9.5653581395
  0
LINE
  5
2FC
100
AcDbEntity
  8
0
100
AcDbLine
 62
4
  6
CONTINUOUS
 10
10.9071641007
 20
9.5619130858
 11
10.9485609312
 21
9.5590422059
  0
LINE
  5
2FD
100
AcDbEntity
  8
0
100
AcDbLine
 62
4
  6
CONTINUOUS
 10
11.0120360935
 20
9.5546401884
 11
11.061712257
 21
9.5511951348
  0
LINE
  5
2FE
100
AcDbEntity
  8
0
100
AcDbLine
 62
4
  6
CONTINUOUS
 10
10.1580726836
 20
9.5954891099
 11
10.1963134363
 21
9.5867125572
  0
LINE
  5
2FF
100
AcDbEntity
  8
0
100
AcDbLine
 62
4
  6
CONTINUOUS
 10
11.0829979823
 20
9.5374698706
 11
11.121238731
 21
9.5286933177
  0
LINE
  5
300
100
AcDbEntity
  8
0
100
AcDbLine
 62
4
  6
CONTINUOUS
 10
10.6463379738
 20
9.6499743925
 11
10.6591992913
 21
9.6452546161
  0
LINE
  5
301
100
AcDbEntity
  8
0
100
AcDbLine
 62
4
  6
CONTINUOUS
 10
10.3092731136
 20
9.7443946713
 11
10.2646282445
 21
9.7612710353
  0
LINE
  5
302
100
AcDbEntity
  8
0
100
AcDbLine
 62
4
  6
CONTINUOUS
 10
10.2446622204
 20
9.7419853358
 11
10.2507231381
 21
9.7392683043
  0
LINE
  5
303
100
AcDbEntity
  8
0
100
AcDbLine
 62
4
  6
CONTINUOUS
 10
10.7049990194
 20
9.5437794079
 11
10.6928771925
 21
9.5492134702
  0
LINE
  5
304
100
AcDbEntity
  8
0
100
AcDbLine
 62
4
  6
CONTINUOUS
 10
10.3379536754
 20
9.7378122568
 11
10.3500755091
 21
9.732378194
  0
LINE
  5
305
100
AcDbEntity
  8
0
100
AcDbLine
 62
4
  6
CONTINUOUS
 10
10.8015915687
 20
9.5370806919
 11
10.7894697419
 21
9.5425147542
  0
LINE
  5
306
100
AcDbEntity
  8
0
100
AcDbLine
 62
4
  6
CONTINUOUS
 10
10.32317822
 20
9.7663974013
 11
10.3292391361
 21
9.7636803692
  0
LINE
  5
307
100
AcDbEntity
  8
0
100
AcDbLine
 62
4
  6
CONTINUOUS
 10
10.6398276916
 20
9.6351145144
 11
10.6519495258
 21
9.6296804521
  0
LINE
  5
308
100
AcDbEntity
  8
0
100
AcDbLine
 62
4
  6
CONTINUOUS
 10
10.8574879372
 20
9.5653581395
 11
10.8696097644
 21
9.5599240776
  0
LINE
  5
309
100
AcDbEntity
  8
0
100
AcDbLine
 62
4
  6
CONTINUOUS
 10
10.7662366104
 20
9.6286447323
 11
10.7783584367
 21
9.6232106695
  0
LINE
  5
30A
100
AcDbEntity
  8
0
100
AcDbLine
 62
4
  6
CONTINUOUS
 10
10.9485609312
 20
9.5590422059
 11
10.9606827585
 21
9.553608144
  0
LINE
  5
30B
100
AcDbEntity
  8
0
100
AcDbLine
 62
4
  6
CONTINUOUS
 10
10.8330659499
 20
9.6331969224
 11
10.8209441088
 21
9.6386309852
  0
LINE
  5
30C
100
AcDbEntity
  8
0
100
AcDbLine
 62
4
  6
CONTINUOUS
 10
10.6703171065
 20
9.7331364171
 11
10.6763780192
 21
9.7304193853
  0
LINE
  5
30D
100
AcDbEntity
  8
0
100
AcDbLine
 62
4
  6
CONTINUOUS
 10
10.8993795357
 20
9.7172508837
 11
10.9026806432
 21
9.714725245
  0
LINE
  5
30E
100
AcDbEntity
  8
0
100
AcDbLine
 62
7
  6
CONTINUOUS
 10
12.1922442462
 20
9.218776862
 11
12.1922442462
 21
6.8039621532
  0
LINE
  5
30F
100
AcDbEntity
  8
0
100
AcDbLine
 62
7
  6
CONTINUOUS
 10
12.1963853429
 20
7.2310376826
 11
12.1963853429
 21
8.8006672433
  0
LINE
  5
310
100
AcDbEntity
  8
0
100
AcDbLine
 62
7
  6
CONTINUOUS
 10
13.2294245683
 20
9.1617850919
 11
13.787437969
 21
9.700784679
  0
LINE
  5
311
100
AcDbEntity
  8
0
100
AcDbLine
 62
4
  6
CONTINUOUS
 10
10.8116542127
 20
9.5639433088
 11
10.8326498278
 21
9.5670806682
  0
LINE
  5
312
100
AcDbEntity
  8
0
100
AcDbLine
 62
4
  6
CONTINUOUS
 10
10.7150616634
 20
9.5706420248
 11
10.7360572784
 21
9.5737793842
  0
LINE
  5
313
100
AcDbEntity
  8
0
100
AcDbLine
 62
4
  6
CONTINUOUS
 10
11.3187611464
 20
9.6651996169
 11
11.3292589265
 21
9.6667682987
  0
LINE
  5
314
100
AcDbEntity
  8
0
100
AcDbLine
 62
4
  6
CONTINUOUS
 10
11.2973303946
 20
9.6873561918
 11
11.3078281754
 21
9.6889248743
  0
LINE
  5
315
100
AcDbEntity
  8
0
100
AcDbLine
 62
4
  6
CONTINUOUS
 10
10.7650477541
 20
9.6103535367
 11
10.807038999
 21
9.6166282555
  0
LINE
  5
316
100
AcDbEntity
  8
0
100
AcDbLine
 62
4
  6
CONTINUOUS
 10
11.2228160664
 20
9.692523778
 11
11.2333138472
 21
9.6940924606
  0
LINE
  5
317
100
AcDbEntity
  8
0
100
AcDbLine
 62
4
  6
CONTINUOUS
 10
10.6988128418
 20
9.6149469434
 11
10.7198084712
 21
9.6180843023
  0
LINE
  5
318
100
AcDbEntity
  8
0
100
AcDbLine
 62
4
  6
CONTINUOUS
 10
10.7961060132
 20
9.640353513
 11
10.7751103982
 21
9.6372161536
  0
LINE
  5
319
100
AcDbEntity
  8
0
100
AcDbLine
 62
4
  6
CONTINUOUS
 10
10.6452941845
 20
9.6232518857
 11
10.624298562
 21
9.6201145263
  0
LINE
  5
31A
100
AcDbEntity
  8
0
100
AcDbLine
 62
4
  6
CONTINUOUS
 10
10.2733893594
 20
9.5783050503
 11
10.252393737
 21
9.5751676908
  0
LINE
  5
31B
100
AcDbEntity
  8
0
100
AcDbLine
 62
4
  6
CONTINUOUS
 10
10.6525439495
 20
9.6388260493
 11
10.6315483275
 21
9.6356886903
  0
LINE
  5
31C
100
AcDbEntity
  8
0
100
AcDbLine
 62
4
  6
CONTINUOUS
 10
10.3749136116
 20
9.7306556657
 11
10.3959092271
 21
9.7337930256
  0
LINE
  5
31D
100
AcDbEntity
  8
0
100
AcDbLine
 62
4
  6
CONTINUOUS
 10
10.2081451547
 20
9.5981411203
 11
10.1580726836
 21
9.5954891099
  0
LINE
  5
31E
100
AcDbEntity
  8
0
100
AcDbLine
 62
4
  6
CONTINUOUS
 10
10.9274656837
 20
9.7015228709
 11
10.9462428518
 21
9.702517375
  0
LINE
  5
31F
100
AcDbEntity
  8
0
100
AcDbLine
 62
4
  6
CONTINUOUS
 10
10.7812499844
 20
9.7231464898
 11
10.8000271535
 21
9.7241409948
  0
LINE
  5
320
100
AcDbEntity
  8
0
100
AcDbLine
 62
4
  6
CONTINUOUS
 10
10.624298562
 20
9.6201145263
 11
10.5829017384
 21
9.6229854057
  0
LINE
  5
321
100
AcDbEntity
  8
0
100
AcDbLine
 62
4
  6
CONTINUOUS
 10
10.6739747463
 20
9.6166694712
 11
10.6988128418
 21
9.6149469434
  0
LINE
  5
322
100
AcDbEntity
  8
0
100
AcDbLine
 62
4
  6
CONTINUOUS
 10
10.7783584367
 20
9.6232106695
 11
10.8142356843
 21
9.6207225739
  0
LINE
  5
323
100
AcDbEntity
  8
0
100
AcDbLine
 62
4
  6
CONTINUOUS
 10
10.5984308679
 20
9.6379853939
 11
10.6398276916
 21
9.6351145144
  0
LINE
  5
324
100
AcDbEntity
  8
0
100
AcDbLine
 62
4
  6
CONTINUOUS
 10
10.8209441088
 20
9.6386309852
 11
10.7961060132
 21
9.640353513
  0
LINE
  5
325
100
AcDbEntity
  8
0
100
AcDbLine
 62
4
  6
CONTINUOUS
 10
10.6139599975
 20
9.6529853821
 11
10.6387980913
 21
9.6512628544
  0
LINE
  5
326
100
AcDbEntity
  8
0
100
AcDbLine
 62
4
  6
CONTINUOUS
 10
10.6821346422
 20
9.7016941306
 11
10.6986933633
 21
9.7005457794
  0
LINE
  5
327
100
AcDbEntity
  8
0
100
AcDbLine
 62
4
  6
CONTINUOUS
 10
11.2442469288
 20
9.6703671954
 11
11.2111293759
 21
9.6726639055
  0
LINE
  5
328
100
AcDbEntity
  8
0
100
AcDbLine
 62
4
  6
CONTINUOUS
 10
11.1090172713
 20
9.679745404
 11
11.0924585501
 21
9.6808937552
  0
LINE
  5
329
100
AcDbEntity
  8
0
100
AcDbLine
 62
4
  6
CONTINUOUS
 10
10.9682680585
 20
9.6895063951
 11
10.9351506161
 21
9.6918030975
  0
LINE
  5
32A
100
AcDbEntity
  8
0
100
AcDbLine
 62
4
  6
CONTINUOUS
 10
10.8109601245
 20
9.7004157374
 11
10.7778426822
 21
9.7027124398
  0
LINE
  5
32B
100
AcDbEntity
  8
0
100
AcDbLine
 62
4
  6
CONTINUOUS
 10
10.2507231381
 20
9.7392683043
 11
10.2838405968
 21
9.7369716008
  0
LINE
  5
32C
100
AcDbEntity
  8
0
100
AcDbLine
 62
4
  6
CONTINUOUS
 10
10.3500755091
 20
9.732378194
 11
10.3749136116
 21
9.7306556657
  0
LINE
  5
32D
100
AcDbEntity
  8
0
100
AcDbLine
 62
4
  6
CONTINUOUS
 10
11.009664889
 20
9.6866355151
 11
11.0510617196
 21
9.6837646352
  0
LINE
  5
32E
100
AcDbEntity
  8
0
100
AcDbLine
 62
4
  6
CONTINUOUS
 10
11.2856437041
 20
9.6674963193
 11
11.3187611464
 21
9.6651996169
  0
LINE
  5
32F
100
AcDbEntity
  8
0
100
AcDbLine
 62
4
  6
CONTINUOUS
 10
10.9462428518
 20
9.702517375
 11
10.9793602941
 21
9.7002206726
  0
LINE
  5
330
100
AcDbEntity
  8
0
100
AcDbLine
 62
4
  6
CONTINUOUS
 10
10.9821731968
 20
9.7115091238
 11
10.9407763663
 21
9.7143800038
  0
LINE
  5
331
100
AcDbEntity
  8
0
100
AcDbLine
 62
4
  6
CONTINUOUS
 10
10.628920276
 20
9.7360072971
 11
10.6703171065
 21
9.7331364171
  0
LINE
  5
332
100
AcDbEntity
  8
0
100
AcDbLine
 62
4
  6
CONTINUOUS
 10
10.8000271535
 20
9.7241409948
 11
10.8331445958
 21
9.7218442924
  0
LINE
  5
333
100
AcDbEntity
  8
0
100
AcDbLine
 62
4
  6
CONTINUOUS
 10
10.8662620934
 20
9.7195475861
 11
10.8993795357
 21
9.7172508837
  0
LINE
  5
334
100
AcDbEntity
  8
0
100
AcDbLine
 62
4
  6
CONTINUOUS
 10
11.2333138472
 20
9.6940924606
 11
11.2664314001
 21
9.6917957505
  0
LINE
  5
335
100
AcDbEntity
  8
0
100
AcDbLine
 62
4
  6
CONTINUOUS
 10
11.3078281754
 20
9.6889248743
 11
11.3409456177
 21
9.6866281719
  0
LINE
  5
336
100
AcDbEntity
  8
0
100
AcDbLine
 62
4
  6
CONTINUOUS
 10
10.2900607621
 20
9.7686941048
 11
10.32317822
 21
9.7663974013
  0
LINE
  5
337
100
AcDbEntity
  8
0
100
AcDbLine
 62
4
  6
CONTINUOUS
 10
11.1897516939
 20
9.7063003267
 11
11.1925114715
 21
9.7061089355
  0
LINE
  5
338
100
AcDbEntity
  8
0
100
AcDbLine
 62
4
  6
CONTINUOUS
 10
11.3291138998
 20
9.6751996093
 11
11.2974754221
 21
9.6789248819
  0
LINE
  5
339
100
AcDbEntity
  8
0
100
AcDbLine
 62
4
  6
CONTINUOUS
 10
10.6387980913
 20
9.6512628544
 11
10.6463379738
 21
9.6499743925
  0
LINE
  5
33A
100
AcDbEntity
  8
0
100
AcDbLine
 62
4
  6
CONTINUOUS
 10
10.7778426822
 20
9.7027124398
 11
10.7635024082
 21
9.7060036465
  0
LINE
  5
33B
100
AcDbEntity
  8
0
100
AcDbLine
 62
4
  6
CONTINUOUS
 10
10.9351506161
 20
9.6918030975
 11
10.9208103422
 21
9.6950943043
  0
LINE
  5
33C
100
AcDbEntity
  8
0
100
AcDbLine
 62
4
  6
CONTINUOUS
 10
11.2974754221
 20
9.6789248819
 11
11.2906750537
 21
9.6809276258
  0
LINE
  5
33D
100
AcDbEntity
  8
0
100
AcDbLine
 62
4
  6
CONTINUOUS
 10
11.3359142681
 20
9.6731968654
 11
11.3291138998
 21
9.6751996093
  0
LINE
  5
33E
100
AcDbEntity
  8
0
100
AcDbLine
 62
4
  6
CONTINUOUS
 10
11.003603948
 20
9.6893525482
 11
11.009664889
 21
9.6866355151
  0
LINE
  5
33F
100
AcDbEntity
  8
0
100
AcDbLine
 62
4
  6
CONTINUOUS
 10
11.0924585501
 20
9.6808937552
 11
11.0863976091
 21
9.6836107883
  0
LINE
  5
340
100
AcDbEntity
  8
0
100
AcDbLine
 62
4
  6
CONTINUOUS
 10
11.2111293759
 20
9.6726639055
 11
11.2050684902
 21
9.6753809347
  0
LINE
  5
341
100
AcDbEntity
  8
0
100
AcDbLine
 62
4
  6
CONTINUOUS
 10
11.2795828183
 20
9.6702133485
 11
11.2856437041
 21
9.6674963193
  0
LINE
  5
342
100
AcDbEntity
  8
0
100
AcDbLine
 62
4
  6
CONTINUOUS
 10
11.3409456177
 20
9.6866281719
 11
11.3470065028
 21
9.683911142
  0
LINE
  5
343
100
AcDbEntity
  8
0
100
AcDbLine
 62
4
  6
CONTINUOUS
 10
10.5292327509
 20
10.0704308344
 11
10.5199202394
 21
10.0764356382
  0
LINE
  5
344
100
AcDbEntity
  8
0
100
AcDbLine
 62
4
  6
CONTINUOUS
 10
10.5426938129
 20
10.0909332224
 11
10.5473500692
 21
10.0879308211
  0
LINE
  5
345
100
AcDbEntity
  8
0
100
AcDbLine
 62
4
  6
CONTINUOUS
 10
10.5830521673
 20
10.0774164028
 11
10.5877084236
 21
10.0744140014
  0
LINE
  5
346
100
AcDbEntity
  8
0
100
AcDbLine
 62
4
  6
CONTINUOUS
 10
10.6032375523
 20
10.0894139887
 11
10.5985812978
 21
10.0924163918
  0
LINE
  5
347
100
AcDbEntity
  8
0
100
AcDbLine
 62
4
  6
CONTINUOUS
 10
10.6451438543
 20
10.0623923721
 11
10.6358313428
 21
10.0683971758
  0
LINE
  5
348
100
AcDbEntity
  8
0
100
AcDbLine
 62
4
  6
CONTINUOUS
 10
10.7144924012
 20
10.0843779295
 11
10.723804912
 21
10.0783731251
  0
LINE
  5
349
100
AcDbEntity
  8
0
100
AcDbLine
 62
4
  6
CONTINUOUS
 10
10.2838405968
 20
9.7369716008
 11
10.3048362193
 21
9.7401089602
  0
LINE
  5
34A
100
AcDbEntity
  8
0
100
AcDbLine
 62
4
  6
CONTINUOUS
 10
10.2690651384
 20
9.7655567459
 11
10.2900607621
 21
9.7686941048
  0
LINE
  5
34B
100
AcDbEntity
  8
0
100
AcDbLine
 62
7
  6
CONTINUOUS
 10
8.4449021026
 20
10.1002685763
 11
9.2921607566
 21
10.041510989
  0
LINE
  5
34C
100
AcDbEntity
  8
0
100
AcDbLine
 62
7
  6
CONTINUOUS
 10
13.7574942666
 20
9.7328049842
 11
12.8514558054
 21
9.7956389649
  0
LINE
  5
34D
100
AcDbEntity
  8
0
100
AcDbLine
 62
7
  6
CONTINUOUS
 10
9.3053731592
 20
10.0542731907
 11
8.4708461274
 21
10.1121478369
  0
LINE
  5
34E
100
AcDbEntity
  8
0
100
AcDbLine
 62
7
  6
CONTINUOUS
 10
12.8773998302
 20
9.8075182255
 11
13.7834382915
 21
9.7446842448
  0
LINE
  5
34F
100
AcDbEntity
  8
0
100
AcDbLine
 62
4
  6
CONTINUOUS
 10
10.3923622902
 20
10.0732241093
 11
11.5514733245
 21
9.992839486
  0
LINE
  5
350
100
AcDbEntity
  8
0
100
AcDbLine
 62
4
  6
CONTINUOUS
 10
11.5046444978
 20
10.0001063104
 11
11.446688946
 21
10.0041255416
  0
LINE
  5
351
100
AcDbEntity
  8
0
100
AcDbLine
 62
4
  6
CONTINUOUS
 10
10.6715334418
 20
10.0578827584
 11
10.6570445539
 21
10.0588875662
  0
LINE
  5
352
100
AcDbEntity
  8
0
100
AcDbLine
 62
4
  6
CONTINUOUS
 10
10.5556223384
 20
10.0659212207
 11
10.5411334505
 21
10.0669260285
  0
LINE
  5
353
100
AcDbEntity
  8
0
100
AcDbLine
 62
4
  6
CONTINUOUS
 10
10.7512223255
 20
10.0523563155
 11
10.8091778772
 21
10.0483370844
  0
LINE
  5
354
100
AcDbEntity
  8
0
100
AcDbLine
 62
4
  6
CONTINUOUS
 10
11.2148667392
 20
10.0202024662
 11
11.2728222909
 21
10.0161832351
  0
LINE
  5
355
100
AcDbEntity
  8
0
100
AcDbLine
 62
4
  6
CONTINUOUS
 10
11.1165528331
 20
10.0377385171
 11
11.1600194968
 21
10.0347240937
  0
LINE
  5
356
100
AcDbEntity
  8
0
100
AcDbLine
 62
4
  6
CONTINUOUS
 10
11.4622180756
 20
10.0191255298
 11
11.4984402954
 21
10.0166135103
  0
LINE
  5
357
100
AcDbEntity
  8
0
100
AcDbLine
 62
4
  6
CONTINUOUS
 10
10.5866805975
 20
10.0959211971
 11
10.5721917096
 21
10.0969260048
  0
LINE
  5
358
100
AcDbEntity
  8
0
100
AcDbLine
 62
4
  6
CONTINUOUS
 10
10.688102813
 20
10.0888875425
 11
10.7025917009
 21
10.0878827347
  0
LINE
  5
359
100
AcDbEntity
  8
0
100
AcDbLine
 62
4
  6
CONTINUOUS
 10
11.4777472051
 20
10.0341255179
 11
11.5357027568
 21
10.0301062868
  0
LINE
  5
35A
100
AcDbEntity
  8
0
100
AcDbLine
 62
4
  6
CONTINUOUS
 10
10.5411334505
 20
10.0669260285
 11
10.5292327509
 21
10.0704308344
  0
LINE
  5
35B
100
AcDbEntity
  8
0
100
AcDbLine
 62
4
  6
CONTINUOUS
 10
10.5473500692
 20
10.0879308211
 11
10.5830521673
 21
10.0774164028
  0
LINE
  5
35C
100
AcDbEntity
  8
0
100
AcDbLine
 62
4
  6
CONTINUOUS
 10
10.6570445539
 20
10.0588875662
 11
10.6451438543
 21
10.0623923721
  0
LINE
  5
35D
100
AcDbEntity
  8
0
100
AcDbLine
 62
4
  6
CONTINUOUS
 10
10.5985812978
 20
10.0924163918
 11
10.5866805975
 21
10.0959211971
  0
LINE
  5
35E
100
AcDbEntity
  8
0
100
AcDbLine
 62
4
  6
CONTINUOUS
 10
10.7025917009
 20
10.0878827347
 11
10.7144924012
 21
10.0843779295
  0
LINE
  5
35F
100
AcDbEntity
  8
0
100
AcDbLine
 62
4
  6
CONTINUOUS
 10
10.7082757825
 20
10.0633731369
 11
10.6886105181
 21
10.0593779487
  0
LINE
  5
360
100
AcDbEntity
  8
0
100
AcDbLine
 62
4
  6
CONTINUOUS
 10
10.582532047
 20
10.0694140052
 11
10.5726994147
 21
10.067416411
  0
LINE
  5
361
100
AcDbEntity
  8
0
100
AcDbLine
 62
4
  6
CONTINUOUS
 10
10.6513604724
 20
10.083397164
 11
10.6710257374
 21
10.0873923529
  0
LINE
  5
362
100
AcDbEntity
  8
0
100
AcDbLine
 62
4
  6
CONTINUOUS
 10
10.555114634
 20
10.0954308152
 11
10.5452820005
 21
10.0934332199
  0
LINE
  5
363
100
AcDbEntity
  8
0
100
AcDbLine
 62
4
  6
CONTINUOUS
 10
10.6886105181
 20
10.0593779487
 11
10.6715334418
 21
10.0578827584
  0
LINE
  5
364
100
AcDbEntity
  8
0
100
AcDbLine
 62
4
  6
CONTINUOUS
 10
10.5726994147
 20
10.067416411
 11
10.5556223384
 21
10.0659212207
  0
LINE
  5
365
100
AcDbEntity
  8
0
100
AcDbLine
 62
4
  6
CONTINUOUS
 10
10.6710257374
 20
10.0873923529
 11
10.688102813
 21
10.0888875425
  0
LINE
  5
366
100
AcDbEntity
  8
0
100
AcDbLine
 62
4
  6
CONTINUOUS
 10
10.5721917096
 20
10.0969260048
 11
10.555114634
 21
10.0954308152
  0
LINE
  5
367
100
AcDbEntity
  8
0
100
AcDbLine
 62
7
  6
CONTINUOUS
 10
9.4521387222
 20
10.1960378468
 11
12.9526539638
 21
9.9532762903
  0
LINE
  5
368
100
AcDbEntity
  8
0
100
AcDbLine
 62
4
  6
CONTINUOUS
 10
13.646511132
 20
7.4811576687
 11
13.6426288496
 21
7.4870669305
  0
LINE
  5
369
100
AcDbEntity
  8
0
100
AcDbLine
 62
4
  6
CONTINUOUS
 10
13.6503934144
 20
7.6008187692
 11
13.6542756968
 21
7.5949095099
  0
LINE
  5
36A
100
AcDbEntity
  8
0
100
AcDbLine
 62
7
  6
CONTINUOUS
 10
12.9526539638
 20
9.9532762903
 11
12.9526539638
 21
9.8022993337
  0
LINE
  5
36B
100
AcDbEntity
  8
0
100
AcDbLine
 62
7
  6
CONTINUOUS
 10
12.1922442462
 20
6.8039621532
 11
12.3390098093
 21
6.9457268093
  0
LINE
  5
36C
100
AcDbEntity
  8
0
100
AcDbLine
 62
7
  6
CONTINUOUS
 10
13.2294245683
 20
9.1617850919
 11
13.1994808659
 21
9.1938053971
  0
LINE
  5
36D
100
AcDbEntity
  8
0
100
AcDbLine
 62
7
  6
CONTINUOUS
 10
13.1024238041
 20
7.1682037019
 11
13.1024238041
 21
8.7378332626
  0
LINE
  5
36E
100
AcDbEntity
  8
0
100
AcDbLine
 62
7
  6
CONTINUOUS
 10
13.1403908903
 20
7.1738770931
 11
13.1403908903
 21
8.7435066538
  0
LINE
  5
36F
100
AcDbEntity
  8
0
100
AcDbLine
 62
7
  6
CONTINUOUS
 10
13.8111756458
 20
8.8384111177
 11
13.8401586563
 21
8.8875513707
  0
LINE
  5
370
100
AcDbEntity
  8
0
100
AcDbLine
 62
7
  6
CONTINUOUS
 10
13.7445926338
 20
7.878313268
 11
13.7590445681
 21
7.8435911951
  0
LINE
  5
371
100
AcDbEntity
  8
0
100
AcDbLine
 62
4
  6
CONTINUOUS
 10
13.6426288496
 20
7.4870669305
 11
13.6387465672
 21
7.5026354505
  0
LINE
  5
372
100
AcDbEntity
  8
0
100
AcDbLine
 62
4
  6
CONTINUOUS
 10
13.6387465672
 20
7.5026354505
 11
13.636805426
 21
7.5297382278
  0
LINE
  5
373
100
AcDbEntity
  8
0
100
AcDbLine
 62
4
  6
CONTINUOUS
 10
13.646511132
 20
7.5970687721
 11
13.6503934144
 21
7.6008187692
  0
LINE
  5
374
100
AcDbEntity
  8
0
100
AcDbLine
 62
4
  6
CONTINUOUS
 10
13.7028042266
 20
7.6514437292
 11
13.7183333561
 21
7.6664437174
  0
LINE
  5
375
100
AcDbEntity
  8
0
100
AcDbLine
 62
4
  6
CONTINUOUS
 10
13.7028042266
 20
7.5934881775
 11
13.7125099326
 21
7.6028631701
  0
LINE
  5
376
100
AcDbEntity
  8
0
100
AcDbLine
 62
4
  6
CONTINUOUS
 10
13.7358036269
 20
7.6060446363
 11
13.747450474
 21
7.6172946274
  0
LINE
  5
377
100
AcDbEntity
  8
0
100
AcDbLine
 62
4
  6
CONTINUOUS
 10
13.6503934144
 20
7.4849076657
 11
13.646511132
 21
7.4811576687
  0
LINE
  5
378
100
AcDbEntity
  8
0
100
AcDbLine
 62
4
  6
CONTINUOUS
 10
13.6542756968
 20
7.5949095099
 11
13.656216838
 21
7.5871252452
  0
LINE
  5
379
100
AcDbEntity
  8
0
100
AcDbLine
 62
4
  6
CONTINUOUS
 10
13.6717459675
 20
7.6214437529
 11
13.687275097
 21
7.5205326376
  0
LINE
  5
37A
100
AcDbEntity
  8
0
100
AcDbLine
 62
4
  6
CONTINUOUS
 10
13.7416270504
 20
7.6889436997
 11
13.7513327564
 21
7.5824075889
  0
LINE
  5
37B
100
AcDbEntity
  8
0
100
AcDbLine
 62
4
  6
CONTINUOUS
 10
13.7028042266
 20
7.5355326258
 11
13.7028042266
 21
7.6514437292
  0
LINE
  5
37C
100
AcDbEntity
  8
0
100
AcDbLine
 62
4
  6
CONTINUOUS
 10
13.636805426
 20
7.5297382278
 11
13.6387465672
 21
7.5605910022
  0
LINE
  5
37D
100
AcDbEntity
  8
0
100
AcDbLine
 62
4
  6
CONTINUOUS
 10
13.7319213445
 20
7.5636576036
 11
13.7416270504
 21
7.6889436997
  0
LINE
  5
37E
100
AcDbEntity
  8
0
100
AcDbLine
 62
4
  6
CONTINUOUS
 10
13.6717459675
 20
7.5055326495
 11
13.687275097
 21
7.6364437411
  0
LINE
  5
37F
100
AcDbEntity
  8
0
100
AcDbLine
 62
4
  6
CONTINUOUS
 10
13.6387465672
 20
7.5605910022
 11
13.6426288496
 21
7.5836595188
  0
LINE
  5
380
100
AcDbEntity
  8
0
100
AcDbLine
 62
4
  6
CONTINUOUS
 10
13.656216838
 20
7.5098511791
 11
13.6542756968
 21
7.4983169217
  0
LINE
  5
381
100
AcDbEntity
  8
0
100
AcDbLine
 62
4
  6
CONTINUOUS
 10
13.6426288496
 20
7.5836595188
 11
13.646511132
 21
7.5970687721
  0
LINE
  5
382
100
AcDbEntity
  8
0
100
AcDbLine
 62
4
  6
CONTINUOUS
 10
13.6542756968
 20
7.4983169217
 11
13.6503934144
 21
7.4849076657
  0
LINE
  5
383
100
AcDbEntity
  8
0
100
AcDbLine
 62
7
  6
CONTINUOUS
 10
13.787437969
 20
7.4665981104
 11
13.2294245683
 21
6.9275985233
  0
LINE
  5
384
100
AcDbEntity
  8
0
100
AcDbLine
 62
7
  6
CONTINUOUS
 10
13.2294245683
 20
6.9275985233
 11
13.2285830582
 21
6.9268007015
  0
LINE
  5
385
100
AcDbEntity
  8
0
100
AcDbLine
 62
7
  6
CONTINUOUS
 10
13.1985646628
 20
6.8988625788
 11
13.2285841047
 21
6.9268015028
  0
LINE
  5
386
100
AcDbEntity
  8
0
100
AcDbLine
 62
7
  6
CONTINUOUS
 10
13.787437969
 20
9.700784679
 11
13.7574942666
 21
9.7328049842
  0
LINE
  5
387
100
AcDbEntity
  8
0
100
AcDbLine
 62
7
  6
CONTINUOUS
 10
13.8764716471
 20
9.4545061092
 11
13.8764716471
 21
8.9438757353
  0
LINE
  5
388
100
AcDbEntity
  8
0
100
AcDbLine
 62
7
  6
CONTINUOUS
 10
13.806706685
 20
9.7303244753
 11
13.8325821608
 21
9.6985092255
  0
LINE
  5
389
100
AcDbEntity
  8
0
100
AcDbLine
 62
7
  6
CONTINUOUS
 10
14.3270991746
 20
7.7867660706
 11
14.3474458049
 21
7.8212634726
  0
LINE
  5
38A
100
AcDbEntity
  8
0
100
AcDbLine
 62
7
  6
CONTINUOUS
 10
14.4082132627
 20
8.8307262462
 11
14.4161327411
 21
8.8116989866
  0
ARC
  5
38B
100
AcDbEntity
  8
0
100
AcDbCircle
 62
7
  6
CONTINUOUS
 10
9.8769132698
 20
8.6196521953
 40
2.3168350454
100
AcDbArc
 50
179.328541535
 51
179.9990932774
  0
ARC
  5
38C
100
AcDbEntity
  8
0
100
AcDbCircle
 62
7
  6
CONTINUOUS
 10
16.0309493768
 20
8.2121943187
 40
2.3022216869
100
AcDbArc
 50
171.6607434677
 51
173.0086288777
  0
ARC
  5
38D
100
AcDbEntity
  8
0
100
AcDbCircle
 62
7
  6
CONTINUOUS
 10
16.4153528181
 20
8.1855358495
 40
2.3022216869
100
AcDbArc
 50
171.6607434676
 51
173.0086288778
  0
ARC
  5
38E
100
AcDbEntity
  8
0
100
AcDbCircle
 62
7
  6
CONTINUOUS
 10
9.7979329043
 20
8.6195663165
 40
2.2378546829
100
AcDbArc
 50
179.9968625215
 51
180.6832112997
  0
ARC
  5
38F
100
AcDbEntity
  8
0
100
AcDbCircle
 62
7
  6
CONTINUOUS
 10
8.5982780577
 20
8.9224803002
 40
1.0041729287
100
AcDbArc
 50
161.0622054474
 51
163.401859189
  0
ARC
  5
390
100
AcDbEntity
  8
0
100
AcDbCircle
 62
7
  6
CONTINUOUS
 10
14.6922359413
 20
8.0789253751
 40
0.9584571905
100
AcDbArc
 50
189.1014340788
 51
191.5149294916
  0
ARC
  5
391
100
AcDbEntity
  8
0
100
AcDbCircle
 62
7
  6
CONTINUOUS
 10
15.0766393826
 20
8.0522669059
 40
0.9584571905
100
AcDbArc
 50
189.1014340788
 51
191.5149294916
  0
ARC
  5
392
100
AcDbEntity
  8
0
100
AcDbCircle
 62
7
  6
CONTINUOUS
 10
8.2971786412
 20
8.5482134037
 40
0.7576452018
100
AcDbArc
 50
199.8738264202
 51
202.6148349527
  0
ARC
  5
393
100
AcDbEntity
  8
0
100
AcDbCircle
 62
7
  6
CONTINUOUS
 10
9.5328391402
 20
7.7817495598
 40
0.2391131023
100
AcDbArc
 50
86.0730082455
 51
86.7002265606
  0
ARC
  5
394
100
AcDbEntity
  8
0
100
AcDbCircle
 62
7
  6
CONTINUOUS
 10
9.5328433174
 20
7.781809198
 40
0.2390533181
100
AcDbArc
 50
84.8798062159
 51
86.0730281572
  0
ARC
  5
395
100
AcDbEntity
  8
0
100
AcDbCircle
 62
7
  6
CONTINUOUS
 10
9.5328407227
 20
7.7818102479
 40
0.2390524016
100
AcDbArc
 50
87.8672274589
 51
88.92134107
  0
ARC
  5
396
100
AcDbEntity
  8
0
100
AcDbCircle
 62
7
  6
CONTINUOUS
 10
9.5328532602
 20
7.7819219217
 40
0.2389401568
100
AcDbArc
 50
84.1199598734
 51
84.8797685874
  0
ARC
  5
397
100
AcDbEntity
  8
0
100
AcDbCircle
 62
7
  6
CONTINUOUS
 10
11.348543191
 20
7.6578819855
 40
0.2370660107
100
AcDbArc
 50
88.0274147659
 51
96.3211383739
  0
ARC
  5
398
100
AcDbEntity
  8
0
100
AcDbCircle
 62
7
  6
CONTINUOUS
 10
8.9730804582
 20
9.0246227802
 40
0.0709159027
100
AcDbArc
 50
162.652464657
 51
169.8848286145
  0
ARC
  5
399
100
AcDbEntity
  8
0
100
AcDbCircle
 62
7
  6
CONTINUOUS
 10
8.9841379384
 20
9.0125125541
 40
0.0709155883
100
AcDbArc
 50
342.6524193939
 51
349.8848117409
  0
ARC
  5
39A
100
AcDbEntity
  8
0
100
AcDbCircle
 62
7
  6
CONTINUOUS
 10
11.3465696773
 20
7.8481335563
 40
0.0477548502
100
AcDbArc
 50
84.8528342911
 51
96.1196517552
  0
ARC
  5
39B
100
AcDbEntity
  8
0
100
AcDbCircle
 62
7
  6
CONTINUOUS
 10
9.5483094244
 20
7.9782980518
 40
0.0423162563
100
AcDbArc
 50
77.810119523
 51
82.0037407453
  0
ARC
  5
39C
100
AcDbEntity
  8
0
100
AcDbCircle
 62
7
  6
CONTINUOUS
 10
9.5484482776
 20
7.9792052504
 40
0.0413985641
100
AcDbArc
 50
82.0193857454
 51
84.7507667766
  0
SPLINE
  5
39D
100
AcDbEntity
  8
0
100
AcDbSpline
 62
7
  6
CONTINUOUS
 70
0
 71
3
 72
29
 73
25
 74
0
 42
0.0000001
 43
0.0000001
 44
0.0000000001
 40
0.0
 40
0.0
 40
0.0
 40
0.0
 40
0.0712694795
 40
0.1436247345
 40
0.2165533993
 40
0.2895567269
 40
0.3621246814
 40
0.433754896
 40
0.503952326
 40
0.5722350301
 40
0.638138593
 40
0.7012208551
 40
0.7315740076
 40
0.7610689842
 40
0.7896587401
 40
0.8172996717
 40
0.8439498268
 40
0.8695710206
 40
0.8941280784
 40
0.9175890721
 40
0.9399271287
 40
0.9611187394
 40
0.9811468825
 40
1.0
 40
1.0
 40
1.0
 40
1.0
 10
7.5364683845
 20
8.6424941753
 30
0.0
 10
7.5364683845
 20
8.6580342244
 30
0.0
 10
7.5368325759
 20
8.6893521181
 30
0.0
 10
7.538427438
 20
8.7365474106
 30
0.0
 10
7.5410653324
 20
8.7840747318
 30
0.0
 10
7.5447261382
 20
8.8315806543
 30
0.0
 10
7.5493831868
 20
8.8787148726
 30
0.0
 10
7.5550016528
 20
8.9251281003
 30
0.0
 10
7.5615397508
 20
8.9704771091
 30
0.0
 10
7.5689485573
 20
9.0144266551
 30
0.0
 10
7.5771727558
 20
9.0566516262
 30
0.0
 10
7.5847480909
 20
9.090564485
 30
0.0
 10
7.5911909215
 20
9.1165841554
 30
0.0
 10
7.5961249918
 20
9.1352267183
 30
0.0
 10
7.601214231
 20
9.1532137214
 30
0.0
 10
7.606448719
 20
9.1705120077
 30
0.0
 10
7.6118191308
 20
9.1870895774
 30
0.0
 10
7.6173152617
 20
9.2029158717
 30
0.0
 10
7.6229267975
 20
9.2179617623
 30
0.0
 10
7.6286436996
 20
9.2321994957
 30
0.0
 10
7.6344547611
 20
9.2456030709
 30
0.0
 10
7.6403498838
 20
9.2581479251
 30
0.0
 10
7.646317607
 20
9.2698110408
 30
0.0
 10
7.6504632213
 20
9.2772094107
 30
0.0
 10
7.6525515916
 20
9.2807502896
 30
0.0
  0
SPLINE
  5
39E
100
AcDbEntity
  8
0
100
AcDbSpline
 62
7
  6
CONTINUOUS
 70
0
 71
3
 72
9
 73
5
 74
0
 42
0.0000001
 43
0.0000001
 44
0.0000000001
 40
0.0
 40
0.0
 40
0.0
 40
0.0
 40
0.4794076852
 40
1.0
 40
1.0
 40
1.0
 40
1.0
 10
7.6484595191
 20
8.1617412683
 30
0.0
 10
7.6462331679
 20
8.1639118182
 30
0.0
 10
7.6418388217
 20
8.1686987639
 30
0.0
 10
7.6378969497
 20
8.17385909
 30
0.0
 10
7.635947163
 20
8.176615664
 30
0.0
  0
SPLINE
  5
39F
100
AcDbEntity
  8
0
100
AcDbSpline
 62
7
  6
CONTINUOUS
 70
0
 71
3
 72
9
 73
5
 74
0
 42
0.0000001
 43
0.0000001
 44
0.0000000001
 40
0.0
 40
0.0
 40
0.0
 40
0.0
 40
0.5041850575
 40
1.0
 40
1.0
 40
1.0
 40
1.0
 10
7.635947163
 20
8.176615664
 30
0.0
 10
7.6289490769
 20
8.1898143237
 30
0.0
 10
7.615573028
 20
8.2162640994
 30
0.0
 10
7.6034339137
 20
8.2433097685
 30
0.0
 10
7.5977882601
 20
8.2568728014
 30
0.0
  0
SPLINE
  5
3A0
100
AcDbEntity
  8
0
100
AcDbSpline
 62
7
  6
CONTINUOUS
 70
0
 71
3
 72
22
 73
18
 74
0
 42
0.0000001
 43
0.0000001
 44
0.0000000001
 40
0.0
 40
0.0
 40
0.0
 40
0.0
 40
0.0448660164
 40
0.0916357014
 40
0.1916578542
 40
0.2452761456
 40
0.3014348278
 40
0.360194033
 40
0.421574515
 40
0.4855624249
 40
0.5521103397
 40
0.6211475981
 40
0.6925801132
 40
0.7663015548
 40
0.8421951416
 40
0.9201371251
 40
1.0
 40
1.0
 40
1.0
 40
1.0
 10
7.6617353185
 20
9.2963208462
 30
0.0
 10
7.6630262214
 20
9.2985122333
 30
0.0
 10
7.6658243163
 20
9.3028948006
 30
0.0
 10
7.6722765478
 20
9.3116438661
 30
0.0
 10
7.6798884974
 20
9.3201193991
 30
0.0
 10
7.6885050526
 20
9.3283207707
 30
0.0
 10
7.695740565
 20
9.3345657697
 30
0.0
 10
7.7035880735
 20
9.3407584989
 30
0.0
 10
7.7120330093
 20
9.3468970169
 30
0.0
 10
7.721055936
 20
9.352978892
 30
0.0
 10
7.7306338541
 20
9.3590032367
 30
0.0
 10
7.7407414528
 20
9.364968722
 30
0.0
 10
7.751351
 20
9.3708757444
 30
0.0
 10
7.7624341487
 20
9.3767242007
 30
0.0
 10
7.7739616704
 20
9.3825153374
 30
0.0
 10
7.7859045226
 20
9.3882501882
 30
0.0
 10
7.7940297292
 20
9.3919933709
 30
0.0
 10
7.798154877
 20
9.3938585769
 30
0.0
  0
SPLINE
  5
3A1
100
AcDbEntity
  8
0
100
AcDbSpline
 62
7
  6
CONTINUOUS
 70
0
 71
3
 72
23
 73
19
 74
0
 42
0.0000001
 43
0.0000001
 44
0.0000000001
 40
0.0
 40
0.0
 40
0.0
 40
0.0
 40
0.0422049582
 40
0.0875770255
 40
0.1360736519
 40
0.1876263295
 40
0.2421500124
 40
0.2995404153
 40
0.3596814437
 40
0.4224416151
 40
0.4876806874
 40
0.5552466654
 40
0.624980201
 40
0.6967094848
 40
0.7702589702
 40
0.8454538736
 40
0.9221090702
 40
1.0
 40
1.0
 40
1.0
 40
1.0
 10
7.5838674963
 20
8.290318668
 30
0.0
 10
7.5819364421
 20
8.2949581842
 30
0.0
 10
7.5781888952
 20
8.3046945523
 30
0.0
 10
7.5730479091
 20
8.3200640902
 30
0.0
 10
7.5681973489
 20
8.3366902386
 30
0.0
 10
7.5636498432
 20
8.3545278508
 30
0.0
 10
7.5594187311
 20
8.3735291649
 30
0.0
 10
7.5555149496
 20
8.3936427451
 30
0.0
 10
7.5519500904
 20
8.414814052
 30
0.0
 10
7.5487333127
 20
8.4369855479
 30
0.0
 10
7.5458742324
 20
8.4600969051
 30
0.0
 10
7.543380147
 20
8.4840852913
 30
0.0
 10
7.5412586537
 20
8.5088850704
 30
0.0
 10
7.5395149503
 20
8.5344283292
 30
0.0
 10
7.5381544306
 20
8.5606459549
 30
0.0
 10
7.5371804841
 20
8.5874676533
 30
0.0
 10
7.5365964227
 20
8.6148176152
 30
0.0
 10
7.5364683845
 20
8.6332197032
 30
0.0
 10
7.5364683845
 20
8.6424941753
 30
0.0
  0
SPLINE
  5
3A2
100
AcDbEntity
  8
0
100
AcDbSpline
 62
7
  6
CONTINUOUS
 70
0
 71
3
 72
21
 73
17
 74
0
 42
0.0000001
 43
0.0000001
 44
0.0000000001
 40
0.0
 40
0.0
 40
0.0
 40
0.0
 40
0.1231553579
 40
0.1848958394
 40
0.2467570542
 40
0.3087492493
 40
0.3708816145
 40
0.4331617231
 40
0.495593527
 40
0.5581779949
 40
0.6209127295
 40
0.6837916681
 40
0.7468067323
 40
0.8099475791
 40
0.8732024288
 40
1.0
 40
1.0
 40
1.0
 40
1.0
 10
7.5602373182
 20
8.6468029367
 30
0.0
 10
7.5571817925
 20
8.6702003908
 30
0.0
 10
7.553460445
 20
8.7054529018
 30
0.0
 10
7.5505725768
 20
8.7526481642
 30
0.0
 10
7.5495272477
 20
8.7881986269
 30
0.0
 10
7.5496858929
 20
8.8238395841
 30
0.0
 10
7.5511172606
 20
8.8595332692
 30
0.0
 10
7.553874618
 20
8.8952340224
 30
0.0
 10
7.5579883408
 20
8.9308914373
 30
0.0
 10
7.5634632937
 20
8.9664534234
 30
0.0
 10
7.5702805356
 20
9.0018695552
 30
0.0
 10
7.5783966133
 20
9.0370948653
 30
0.0
 10
7.5877470479
 20
9.0720924603
 30
0.0
 10
7.5982542445
 20
9.1068350799
 30
0.0
 10
7.6137002355
 20
9.1528270032
 30
0.0
 10
7.6267350409
 20
9.1868499791
 30
0.0
 10
7.635947163
 20
9.2093295983
 30
0.0
  0
SPLINE
  5
3A3
100
AcDbEntity
  8
0
100
AcDbSpline
 62
7
  6
CONTINUOUS
 70
0
 71
3
 72
11
 73
7
 74
0
 42
0.0000001
 43
0.0000001
 44
0.0000000001
 40
0.0
 40
0.0
 40
0.0
 40
0.0
 40
0.2456411742
 40
0.4929215352
 40
0.7436662094
 40
1.0
 40
1.0
 40
1.0
 40
1.0
 10
7.6484595191
 20
9.2483760112
 30
0.0
 10
7.6484744605
 20
9.251021867
 30
0.0
 10
7.6487082893
 20
9.2563327084
 30
0.0
 10
7.6497205154
 20
9.2642883008
 30
0.0
 10
7.6514457849
 20
9.2722390345
 30
0.0
 10
7.6530825151
 20
9.2774592508
 30
0.0
 10
7.6540258121
 20
9.2800541904
 30
0.0
  0
SPLINE
  5
3A4
100
AcDbEntity
  8
0
100
AcDbSpline
 62
7
  6
CONTINUOUS
 70
0
 71
3
 72
9
 73
5
 74
0
 42
0.0000001
 43
0.0000001
 44
0.0000000001
 40
0.0
 40
0.0
 40
0.0
 40
0.0
 40
0.4899846731
 40
1.0
 40
1.0
 40
1.0
 40
1.0
 10
7.6540258121
 20
9.2800541904
 30
0.0
 10
7.6550313356
 20
9.2828203102
 30
0.0
 10
7.65735414
 20
9.2883705082
 30
0.0
 10
7.6601803901
 20
9.2936812593
 30
0.0
 10
7.6617353185
 20
9.2963208462
 30
0.0
  0
SPLINE
  5
3A5
100
AcDbEntity
  8
0
100
AcDbSpline
 62
7
  6
CONTINUOUS
 70
0
 71
3
 72
15
 73
11
 74
0
 42
0.0000001
 43
0.0000001
 44
0.0000000001
 40
0.0
 40
0.0
 40
0.0
 40
0.0
 40
0.1321990855
 40
0.2618403048
 40
0.3890452197
 40
0.5140751808
 40
0.6372930342
 40
0.7591033803
 40
0.8798948361
 40
1.0
 40
1.0
 40
1.0
 40
1.0
 10
7.5846561212
 20
8.2906519349
 30
0.0
 10
7.5800673318
 20
8.303378858
 30
0.0
 10
7.5717052769
 20
8.3288577585
 30
0.0
 10
7.5617736714
 20
8.3674436937
 30
0.0
 10
7.554713054
 20
8.4059156486
 30
0.0
 10
7.5505537322
 20
8.4441474727
 30
0.0
 10
7.5492090632
 20
8.4820268584
 30
0.0
 10
7.5504938004
 20
8.5194704099
 30
0.0
 10
7.5541574163
 20
8.5564302337
 30
0.0
 10
7.558008664
 20
8.5807946121
 30
0.0
 10
7.5602373182
 20
8.5928821281
 30
0.0
  0
SPLINE
  5
3A6
100
AcDbEntity
  8
0
100
AcDbSpline
 62
7
  6
CONTINUOUS
 70
0
 71
3
 72
9
 73
5
 74
0
 42
0.0000001
 43
0.0000001
 44
0.0000000001
 40
0.0
 40
0.0
 40
0.0
 40
0.0
 40
0.2424516602
 40
1.0
 40
1.0
 40
1.0
 40
1.0
 10
13.8914271948
 20
8.9628849654
 30
0.0
 10
13.8908187961
 20
8.9622972973
 30
0.0
 10
13.8883355057
 20
8.9598465116
 30
0.0
 10
13.8859543815
 20
8.9572928916
 30
0.0
 10
13.8842031826
 20
8.9553133595
 30
0.0
  0
SPLINE
  5
3A7
100
AcDbEntity
  8
0
100
AcDbSpline
 62
7
  6
CONTINUOUS
 70
0
 71
3
 72
9
 73
5
 74
0
 42
0.0000001
 43
0.0000001
 44
0.0000000001
 40
0.0
 40
0.0
 40
0.0
 40
0.0
 40
0.2578199612
 40
1.0
 40
1.0
 40
1.0
 40
1.0
 10
13.8914271948
 20
8.9628849654
 30
0.0
 10
13.89202323
 20
8.9634606912
 30
0.0
 10
13.8943584328
 20
8.9656692976
 30
0.0
 10
13.8967897643
 20
8.967777199
 30
0.0
 10
13.8986512069
 20
8.9692690802
 30
0.0
  0
SPLINE
  5
3A8
100
AcDbEntity
  8
0
100
AcDbSpline
 62
7
  6
CONTINUOUS
 70
0
 71
3
 72
9
 73
5
 74
0
 42
0.0000001
 43
0.0000001
 44
0.0000000001
 40
0.0
 40
0.0
 40
0.0
 40
0.0
 40
0.2423492772
 40
1.0
 40
1.0
 40
1.0
 40
1.0
 10
14.2686066239
 20
7.705048361
 30
0.0
 10
14.2692144589
 20
7.7055355195
 30
0.0
 10
14.2716970473
 20
7.7075774106
 30
0.0
 10
14.274079064
 20
7.7097405871
 30
0.0
 10
14.2758306361
 20
7.7114324759
 30
0.0
  0
SPLINE
  5
3A9
100
AcDbEntity
  8
0
100
AcDbSpline
 62
7
  6
CONTINUOUS
 70
0
 71
3
 72
9
 73
5
 74
0
 42
0.0000001
 43
0.0000001
 44
0.0000000001
 40
0.0
 40
0.0
 40
0.0
 40
0.0
 40
0.2424516602
 40
1.0
 40
1.0
 40
1.0
 40
1.0
 10
14.2758306361
 20
7.7114324759
 30
0.0
 10
14.2764390348
 20
7.7120201439
 30
0.0
 10
14.2789223251
 20
7.7144709296
 30
0.0
 10
14.2813034493
 20
7.7170245496
 30
0.0
 10
14.2830546483
 20
7.7190040817
 30
0.0
  0
SPLINE
  5
3AA
100
AcDbEntity
  8
0
100
AcDbSpline
 62
7
  6
CONTINUOUS
 70
0
 71
3
 72
9
 73
5
 74
0
 42
0.0000001
 43
0.0000001
 44
0.0000000001
 40
0.0
 40
0.0
 40
0.0
 40
0.0
 40
0.5035395631
 40
1.0
 40
1.0
 40
1.0
 40
1.0
 10
13.8842031826
 20
8.9553133595
 30
0.0
 10
13.8763523375
 20
8.9441983286
 30
0.0
 10
13.8611423725
 20
8.9218517973
 30
0.0
 10
13.8468549079
 20
8.8989004941
 30
0.0
 10
13.8400370329
 20
8.8873451456
 30
0.0
  0
SPLINE
  5
3AB
100
AcDbEntity
  8
0
100
AcDbSpline
 62
7
  6
CONTINUOUS
 70
0
 71
3
 72
9
 73
5
 74
0
 42
0.0000001
 43
0.0000001
 44
0.0000000001
 40
0.0
 40
0.0
 40
0.0
 40
0.0
 40
0.5035395631
 40
1.0
 40
1.0
 40
1.0
 40
1.0
 10
14.2830546483
 20
7.7190040817
 30
0.0
 10
14.2909054934
 20
7.7301191126
 30
0.0
 10
14.3061154583
 20
7.752465644
 30
0.0
 10
14.320402923
 20
7.7754169472
 30
0.0
 10
14.327220798
 20
7.7869722957
 30
0.0
  0
SPLINE
  5
3AC
100
AcDbEntity
  8
0
100
AcDbSpline
 62
7
  6
CONTINUOUS
 70
0
 71
3
 72
23
 73
19
 74
0
 42
0.0000001
 43
0.0000001
 44
0.0000000001
 40
0.0
 40
0.0
 40
0.0
 40
0.0
 40
0.0432903358
 40
0.0886111095
 40
0.1362135929
 40
0.1863092711
 40
0.2390678977
 40
0.2946076476
 40
0.3530023406
 40
0.4142746704
 40
0.4784099503
 40
0.5453523313
 40
0.6150199742
 40
0.6873039377
 40
0.76208146
 40
0.8392182661
 40
0.9185728956
 40
1.0
 40
1.0
 40
1.0
 40
1.0
 10
13.7588718405
 20
7.844006439
 30
0.0
 10
13.759818263
 20
7.8417302318
 30
0.0
 10
13.7619391667
 20
7.8371455385
 30
0.0
 10
13.7657032272
 20
7.8303565848
 30
0.0
 10
13.7701302273
 20
7.8235138242
 30
0.0
 10
13.7752273984
 20
7.816621113
 30
0.0
 10
13.7809972766
 20
7.8096827502
 30
0.0
 10
13.7874352778
 20
7.802702477
 30
0.0
 10
13.79453222
 20
7.7956856438
 30
0.0
 10
13.8022721587
 20
7.7886362421
 30
0.0
 10
13.8106354791
 20
7.781559948
 30
0.0
 10
13.8195973031
 20
7.7744607218
 30
0.0
 10
13.8291304792
 20
7.7673438569
 30
0.0
 10
13.8392046841
 20
7.7602129568
 30
0.0
 10
13.8497888938
 20
7.753072344
 30
0.0
 10
13.8608509445
 20
7.7459250535
 30
0.0
 10
13.8723588687
 20
7.7387743186
 30
0.0
 10
13.8802105555
 20
7.7340645164
 30
0.0
 10
13.8842031826
 20
7.7317068302
 30
0.0
  0
SPLINE
  5
3AD
100
AcDbEntity
  8
0
100
AcDbSpline
 62
7
  6
CONTINUOUS
 70
0
 71
3
 72
23
 73
19
 74
0
 42
0.0000001
 43
0.0000001
 44
0.0000000001
 40
0.0
 40
0.0
 40
0.0
 40
0.0
 40
0.0432903358
 40
0.0886111095
 40
0.1362135929
 40
0.1863092711
 40
0.2390678977
 40
0.2946076476
 40
0.3530023406
 40
0.4142746704
 40
0.4784099503
 40
0.5453523313
 40
0.6150199742
 40
0.6873039377
 40
0.76208146
 40
0.8392182661
 40
0.9185728956
 40
1.0
 40
1.0
 40
1.0
 40
1.0
 10
14.4083859904
 20
8.8303110023
 30
0.0
 10
14.4074395679
 20
8.8325872095
 30
0.0
 10
14.4053186641
 20
8.8371719027
 30
0.0
 10
14.4015546036
 20
8.8439608564
 30
0.0
 10
14.3971276036
 20
8.850803617
 30
0.0
 10
14.3920304325
 20
8.8576963283
 30
0.0
 10
14.3862605542
 20
8.8646346911
 30
0.0
 10
14.3798225531
 20
8.8716149643
 30
0.0
 10
14.3727256109
 20
8.8786317975
 30
0.0
 10
14.3649856721
 20
8.8856811992
 30
0.0
 10
14.3566223517
 20
8.8927574933
 30
0.0
 10
14.3476605278
 20
8.8998567195
 30
0.0
 10
14.3381273516
 20
8.9069735844
 30
0.0
 10
14.3280531467
 20
8.9141044845
 30
0.0
 10
14.317468937
 20
8.9212450973
 30
0.0
 10
14.3064068863
 20
8.9283923877
 30
0.0
 10
14.2948989622
 20
8.9355431226
 30
0.0
 10
14.2870472754
 20
8.9402529249
 30
0.0
 10
14.2830546483
 20
8.942610611
 30
0.0
  0
SPLINE
  5
3AE
100
AcDbEntity
  8
0
100
AcDbSpline
 62
7
  6
CONTINUOUS
 70
0
 71
3
 72
47
 73
43
 74
0
 42
0.0000001
 43
0.0000001
 44
0.0000000001
 40
0.0
 40
0.0
 40
0.0
 40
0.0
 40
0.0097390474
 40
0.0199698054
 40
0.0306887706
 40
0.0418911797
 40
0.0535705278
 40
0.0657187093
 40
0.0783268726
 40
0.0913848251
 40
0.1188026063
 40
0.1478725169
 40
0.1784807562
 40
0.2105024129
 40
0.2438034215
 40
0.2782411642
 40
0.3136659887
 40
0.3499225137
 40
0.3868501632
 40
0.4242845303
 40
0.4620583808
 40
0.5000024026
 40
0.537946423
 40
0.5757202051
 40
0.6131544659
 40
0.6500819745
 40
0.6863382449
 40
0.7217628641
 40
0.7562003755
 40
0.7895009924
 40
0.8215223322
 40
0.8521302096
 40
0.8811996138
 40
0.9086170193
 40
0.9216746676
 40
0.9342827067
 40
0.9464306368
 40
0.9581096421
 40
0.9693118429
 40
0.9800304705
 40
0.9902609046
 40
1.0
 40
1.0
 40
1.0
 40
1.0
 10
14.3474481777
 20
7.8212674756
 30
0.0
 10
14.3491160727
 20
7.8240954691
 30
0.0
 10
14.3524336164
 20
7.8299551245
 30
0.0
 10
14.357248378
 20
7.8391137916
 30
0.0
 10
14.3620190615
 20
7.8488479959
 30
0.0
 10
14.3667395495
 20
7.8591461907
 30
0.0
 10
14.3714042268
 20
7.869996181
 30
0.0
 10
14.3760077589
 20
7.8813849646
 30
0.0
 10
14.3805444499
 20
7.8932991427
 30
0.0
 10
14.3865956034
 20
7.9101414853
 30
0.0
 10
14.3939298796
 20
7.9324148723
 30
0.0
 10
14.4022444427
 20
7.9605787575
 30
0.0
 10
14.410169477
 20
7.9904630598
 30
0.0
 10
14.4176668991
 20
8.0219251998
 30
0.0
 10
14.4247002226
 20
8.0548153861
 30
0.0
 10
14.4312356033
 20
8.0889766481
 30
0.0
 10
14.4372416799
 20
8.1242458475
 30
0.0
 10
14.4426892859
 20
8.1604545185
 30
0.0
 10
14.4475523085
 20
8.1974296031
 30
0.0
 10
14.4518074922
 20
8.2349943111
 30
0.0
 10
14.4554341689
 20
8.2729690564
 30
0.0
 10
14.4584150632
 20
8.3111722534
 30
0.0
 10
14.4607360103
 20
8.3494211944
 30
0.0
 10
14.4623856944
 20
8.3875329782
 30
0.0
 10
14.4633564168
 20
8.4253253515
 30
0.0
 10
14.4636437195
 20
8.4626175862
 30
0.0
 10
14.4632461186
 20
8.4992313998
 30
0.0
 10
14.4621658506
 20
8.5349917924
 30
0.0
 10
14.4604083949
 20
8.5697278691
 30
0.0
 10
14.4579821831
 20
8.6032737209
 30
0.0
 10
14.4548993498
 20
8.6354692222
 30
0.0
 10
14.4511751827
 20
8.6661609755
 30
0.0
 10
14.4468275676
 20
8.6952024953
 30
0.0
 10
14.4426380672
 20
8.71827466
 30
0.0
 10
14.438969459
 20
8.7357907262
 30
0.0
 10
14.4361208097
 20
8.7482168496
 30
0.0
 10
14.4331333225
 20
8.7601317943
 30
0.0
 10
14.4300108335
 20
8.7715214893
 30
0.0
 10
14.4267571376
 20
8.7823724098
 30
0.0
 10
14.4233757686
 20
8.7926716422
 30
0.0
 10
14.4198711436
 20
8.8024069609
 30
0.0
 10
14.4173941512
 20
8.808668343
 30
0.0
 10
14.416132532
 20
8.8116994887
 30
0.0
  0
SPLINE
  5
3AF
100
AcDbEntity
  8
0
100
AcDbSpline
 62
7
  6
CONTINUOUS
 70
0
 71
3
 72
71
 73
67
 74
0
 42
0.0000001
 43
0.0000001
 44
0.0000000001
 40
0.0
 40
0.0
 40
0.0
 40
0.0
 40
0.0086181769
 40
0.0180358616
 40
0.0282774586
 40
0.0393565278
 40
0.0512781193
 40
0.0640379079
 40
0.0776250778
 40
0.0920232712
 40
0.1072117669
 40
0.1231658877
 40
0.1398572575
 40
0.1572547554
 40
0.1753241015
 40
0.1940290556
 40
0.2133305876
 40
0.2331882383
 40
0.2743982911
 40
0.3173016118
 40
0.3615185692
 40
0.4066539401
 40
0.4523018244
 40
0.498050443
 40
0.543486841
 40
0.5882016236
 40
0.6317937783
 40
0.6530475103
 40
0.6738765743
 40
0.6942351706
 40
0.7140793344
 40
0.7333664045
 40
0.7520557961
 40
0.7701087697
 40
0.7874888656
 40
0.8041621724
 40
0.8200973098
 40
0.8352663455
 40
0.8496443226
 40
0.8632109019
 40
0.875949623
 40
0.8878502973
 40
0.8989084674
 40
0.9091286382
 40
0.9185247606
 40
0.9229228386
 40
0.9271266988
 40
0.9311424085
 40
0.9349775089
 40
0.9386412763
 40
0.9421446752
 40
0.9487194012
 40
0.9518277284
 40
0.9548406465
 40
0.9577799033
 40
0.9606691014
 40
0.9635332525
 40
0.9663980381
 40
0.9692890983
 40
0.9722313645
 40
0.9752484317
 40
0.9783620293
 40
0.9849505497
 40
0.9884623794
 40
0.9921350537
 40
1.0
 40
1.0
 40
1.0
 40
1.0
 10
14.319887164
 20
8.8568630208
 30
0.0
 10
14.3174279951
 20
8.8544876459
 30
0.0
 10
14.312525019
 20
8.8492614687
 30
0.0
 10
14.3055082809
 20
8.8404971693
 30
0.0
 10
14.2985277888
 20
8.830488552
 30
0.0
 10
14.2915994182
 20
8.8192601831
 30
0.0
 10
14.2847387928
 20
8.8068367811
 30
0.0
 10
14.2779612363
 20
8.7932471142
 30
0.0
 10
14.2712834014
 20
8.7785227553
 30
0.0
 10
14.2647211131
 20
8.7626986043
 30
0.0
 10
14.2582902364
 20
8.7458121737
 30
0.0
 10
14.252006348
 20
8.7279036833
 30
0.0
 10
14.2458844764
 20
8.709015931
 30
0.0
 10
14.2399397651
 20
8.6891941247
 30
0.0
 10
14.234186194
 20
8.6684858244
 30
0.0
 10
14.2286381997
 20
8.6469407216
 30
0.0
 10
14.223308602
 20
8.6246105714
 30
0.0
 10
14.216426733
 20
8.5934763061
 30
0.0
 10
14.2084920606
 20
8.5529915881
 30
0.0
 10
14.2001428027
 20
8.5027625625
 30
0.0
 10
14.1929336499
 20
8.4507848468
 30
0.0
 10
14.186934601
 20
8.39755818
 30
0.0
 10
14.1822038489
 20
8.3435939768
 30
0.0
 10
14.178787087
 20
8.2894110707
 30
0.0
 10
14.1767170516
 20
8.2355302929
 30
0.0
 10
14.1760134529
 20
8.1824699456
 30
0.0
 10
14.1765750191
 20
8.1390021964
 30
0.0
 10
14.1777301042
 20
8.105031393
 30
0.0
 10
14.1789306246
 20
8.0802874596
 30
0.0
 10
14.1804698779
 20
8.0561225824
 30
0.0
 10
14.1823438161
 20
8.0325949028
 30
0.0
 10
14.1845481033
 20
8.0097609887
 30
0.0
 10
14.1870771971
 20
7.9876757629
 30
0.0
 10
14.1899249669
 20
7.9663922812
 30
0.0
 10
14.1930845306
 20
7.9459616618
 30
0.0
 10
14.1965479653
 20
7.9264329127
 30
0.0
 10
14.2003071537
 20
7.9078528261
 30
0.0
 10
14.2043524441
 20
7.8902658084
 30
0.0
 10
14.2086745902
 20
7.8737138221
 30
0.0
 10
14.2132623595
 20
7.8582361053
 30
0.0
 10
14.2181055189
 20
7.8438692706
 30
0.0
 10
14.2231915611
 20
7.8306468392
 30
0.0
 10
14.2285096022
 20
7.8185993391
 30
0.0
 10
14.2340464219
 20
7.8077545898
 30
0.0
 10
14.2389362742
 20
7.7995670361
 30
0.0
 10
14.2429627566
 20
7.7936680516
 30
0.0
 10
14.2459625193
 20
7.7896585243
 30
0.0
 10
14.2490073665
 20
7.7859680899
 30
0.0
 10
14.2520956802
 20
7.7825991424
 30
0.0
 10
14.2552262178
 20
7.7795531694
 30
0.0
 10
14.259364964
 20
7.7760013631
 30
0.0
 10
14.2636754434
 20
7.7729961887
 30
0.0
 10
14.2681334332
 20
7.7706409455
 30
0.0
 10
14.2714486331
 20
7.7692391819
 30
0.0
 10
14.2747950244
 20
7.7681712766
 30
0.0
 10
14.2781704222
 20
7.7674387938
 30
0.0
 10
14.2815719542
 20
7.7670424823
 30
0.0
 10
14.2849967014
 20
7.7669825484
 30
0.0
 10
14.288441758
 20
7.7672589186
 30
0.0
 10
14.2919042458
 20
7.7678712763
 30
0.0
 10
14.2953817747
 20
7.7688187379
 30
0.0
 10
14.3001235853
 20
7.7705590952
 30
0.0
 10
14.3048082744
 20
7.7729627826
 30
0.0
 10
14.3093983513
 20
7.7759313087
 30
0.0
 10
14.3142031496
 20
7.779481076
 30
0.0
 10
14.317642927
 20
7.7825175235
 30
0.0
 10
14.319887164
 20
7.7846852901
 30
0.0
  0
SPLINE
  5
3B0
100
AcDbEntity
  8
0
100
AcDbSpline
 62
7
  6
CONTINUOUS
 70
0
 71
3
 72
11
 73
7
 74
0
 42
0.0000001
 43
0.0000001
 44
0.0000000001
 40
0.0
 40
0.0
 40
0.0
 40
0.0
 40
0.2194295797
 40
0.4588777944
 40
0.7189534041
 40
1.0
 40
1.0
 40
1.0
 40
1.0
 10
14.319887164
 20
7.7846852901
 30
0.0
 10
14.3223033852
 20
7.7870191807
 30
0.0
 10
14.327121302
 20
7.7921459931
 30
0.0
 10
14.3340219579
 20
7.8007317101
 30
0.0
 10
14.3408880464
 20
7.8105211965
 30
0.0
 10
14.3452623889
 20
7.817561369
 30
0.0
 10
14.3474481777
 20
7.8212674756
 30
0.0
  0
SPLINE
  5
3B1
100
AcDbEntity
  8
0
100
AcDbSpline
 62
7
  6
CONTINUOUS
 70
0
 71
3
 72
9
 73
5
 74
0
 42
0.0000001
 43
0.0000001
 44
0.0000000001
 40
0.0
 40
0.0
 40
0.0
 40
0.0
 40
0.2424516602
 40
1.0
 40
1.0
 40
1.0
 40
1.0
 10
14.2758306361
 20
8.9362264962
 30
0.0
 10
14.2752222374
 20
8.9356388281
 30
0.0
 10
14.272738947
 20
8.9331880424
 30
0.0
 10
14.2703578229
 20
8.9306344224
 30
0.0
 10
14.2686066239
 20
8.9286548903
 30
0.0
  0
SPLINE
  5
3B2
100
AcDbEntity
  8
0
100
AcDbSpline
 62
7
  6
CONTINUOUS
 70
0
 71
3
 72
9
 73
5
 74
0
 42
0.0000001
 43
0.0000001
 44
0.0000000001
 40
0.0
 40
0.0
 40
0.0
 40
0.0
 40
0.2423492772
 40
1.0
 40
1.0
 40
1.0
 40
1.0
 10
14.2830546483
 20
8.942610611
 30
0.0
 10
14.2824468133
 20
8.9421234525
 30
0.0
 10
14.2799642249
 20
8.9400815615
 30
0.0
 10
14.2775822081
 20
8.937918385
 30
0.0
 10
14.2758306361
 20
8.9362264962
 30
0.0
  0
SPLINE
  5
3B3
100
AcDbEntity
  8
0
100
AcDbSpline
 62
7
  6
CONTINUOUS
 70
0
 71
3
 72
23
 73
19
 74
0
 42
0.0000001
 43
0.0000001
 44
0.0000000001
 40
0.0
 40
0.0
 40
0.0
 40
0.0
 40
0.0586500584
 40
0.1174971748
 40
0.1766041375
 40
0.2360481059
 40
0.2959121929
 40
0.3562840494
 40
0.417251051
 40
0.4788922537
 40
0.5412731263
 40
0.604440809
 40
0.668420163
 40
0.7332144894
 40
0.7988073735
 40
0.8651659572
 40
0.9322480423
 40
1.0
 40
1.0
 40
1.0
 40
1.0
 10
14.2686066239
 20
8.9286548903
 30
0.0
 10
14.2690027102
 20
8.9200874687
 30
0.0
 10
14.2695010934
 20
8.9029084155
 30
0.0
 10
14.2692796108
 20
8.8770776736
 30
0.0
 10
14.2680014763
 20
8.8511599575
 30
0.0
 10
14.2655796147
 20
8.8251736261
 30
0.0
 10
14.2619350307
 20
8.7991426263
 30
0.0
 10
14.2570021629
 20
8.7730972833
 30
0.0
 10
14.2507322148
 20
8.747073281
 30
0.0
 10
14.24310022
 20
8.7211093038
 30
0.0
 10
14.2341072018
 20
8.6952442478
 30
0.0
 10
14.2237780975
 20
8.669515133
 30
0.0
 10
14.2121618255
 20
8.6439538808
 30
0.0
 10
14.1993271714
 20
8.6185853335
 30
0.0
 10
14.1853552587
 20
8.593427541
 30
0.0
 10
14.1703356352
 20
8.5684907198
 30
0.0
 10
14.1543616935
 20
8.5437787894
 30
0.0
 10
14.1431892562
 20
8.527529078
 30
0.0
 10
14.1374733261
 20
8.5194366065
 30
0.0
  0
SPLINE
  5
3B4
100
AcDbEntity
  8
0
100
AcDbSpline
 62
7
  6
CONTINUOUS
 70
0
 71
3
 72
21
 73
17
 74
0
 42
0.0000001
 43
0.0000001
 44
0.0000000001
 40
0.0
 40
0.0
 40
0.0
 40
0.0
 40
0.1269527041
 40
0.1902689165
 40
0.2534593491
 40
0.3165116873
 40
0.37941528
 40
0.4421620112
 40
0.5047460954
 40
0.5671657261
 40
0.6294227274
 40
0.6915221182
 40
0.7534726662
 40
0.8152847883
 40
0.8769699244
 40
1.0
 40
1.0
 40
1.0
 40
1.0
 10
14.1302493139
 20
8.4657619561
 30
0.0
 10
14.1363777619
 20
8.4423307989
 30
0.0
 10
14.1447547776
 20
8.4069905095
 30
0.0
 10
14.1539260234
 20
8.3595090964
 30
0.0
 10
14.1597034057
 20
8.3238041639
 30
0.0
 10
14.1643007505
 20
8.288007074
 30
0.0
 10
14.1676448078
 20
8.2521553791
 30
0.0
 10
14.1696766058
 20
8.2162943227
 30
0.0
 10
14.1703590764
 20
8.1804742291
 30
0.0
 10
14.1696801652
 20
8.144747443
 30
0.0
 10
14.1676516284
 20
8.1091646736
 30
0.0
 10
14.1643102759
 20
8.0737714655
 30
0.0
 10
14.1597149719
 20
8.0386055366
 30
0.0
 10
14.1539388651
 20
8.0036946714
 30
0.0
 10
14.1447848481
 20
7.9575570594
 30
0.0
 10
14.1363968899
 20
7.9233070997
 30
0.0
 10
14.1302493139
 20
7.9006554815
 30
0.0
  0
SPLINE
  5
3B5
100
AcDbEntity
  8
0
100
AcDbSpline
 62
7
  6
CONTINUOUS
 70
0
 71
3
 72
21
 73
17
 74
0
 42
0.0000001
 43
0.0000001
 44
0.0000000001
 40
0.0
 40
0.0
 40
0.0
 40
0.0
 40
0.1230300756
 40
0.1847152118
 40
0.2465273339
 40
0.3084778819
 40
0.3705772727
 40
0.432834274
 40
0.4952539046
 40
0.5578379889
 40
0.6205847201
 40
0.6834883127
 40
0.746540651
 40
0.8097310835
 40
0.8730472959
 40
1.0
 40
1.0
 40
1.0
 40
1.0
 10
13.7458458726
 20
8.4924204253
 30
0.0
 10
13.7396982967
 20
8.4697688072
 30
0.0
 10
13.7313103385
 20
8.4355188474
 30
0.0
 10
13.7221563214
 20
8.3893812354
 30
0.0
 10
13.7163802146
 20
8.3544703702
 30
0.0
 10
13.7117849106
 20
8.3193044413
 30
0.0
 10
13.7084435581
 20
8.2839112332
 30
0.0
 10
13.7064150213
 20
8.2483284638
 30
0.0
 10
13.7057361102
 20
8.2126016777
 30
0.0
 10
13.7064185808
 20
8.1767815841
 30
0.0
 10
13.7084503788
 20
8.1409205277
 30
0.0
 10
13.711794436
 20
8.1050688328
 30
0.0
 10
13.7163917808
 20
8.0692717429
 30
0.0
 10
13.7221691631
 20
8.0335668104
 30
0.0
 10
13.7313404089
 20
7.9860853973
 30
0.0
 10
13.7397174246
 20
7.9507451079
 30
0.0
 10
13.7458458726
 20
7.9273139507
 30
0.0
  0
SPLINE
  5
3B6
100
AcDbEntity
  8
0
100
AcDbSpline
 62
7
  6
CONTINUOUS
 70
0
 71
3
 72
24
 73
20
 74
0
 42
0.0000001
 43
0.0000001
 44
0.0000000001
 40
0.0
 40
0.0
 40
0.0
 40
0.0
 40
0.0913270067
 40
0.1792345887
 40
0.2633975065
 40
0.3435123174
 40
0.419314425
 40
0.4906094671
 40
0.5245345675
 40
0.5573078303
 40
0.6194264789
 40
0.67715515
 40
0.7308292085
 40
0.7809307172
 40
0.8280591397
 40
0.8728796032
 40
0.9160685661
 40
0.9582602556
 40
1.0
 40
1.0
 40
1.0
 40
1.0
 10
14.1374733261
 20
7.8609365518
 30
0.0
 10
14.1431170962
 20
7.8576038493
 30
0.0
 10
14.1541301982
 20
7.8509552699
 30
0.0
 10
14.1700823601
 20
7.8408092843
 30
0.0
 10
14.1850819075
 20
7.8306763983
 30
0.0
 10
14.1990381136
 20
7.8205658222
 30
0.0
 10
14.2118636636
 20
7.8104883074
 30
0.0
 10
14.2217010706
 20
7.8019931825
 30
0.0
 10
14.2289187614
 20
7.7952100887
 30
0.0
 10
14.235463534
 20
7.7886791294
 30
0.0
 10
14.2428439404
 20
7.7805729183
 30
0.0
 10
14.2505161828
 20
7.7707466194
 30
0.0
 10
14.2568360921
 20
7.7610105551
 30
0.0
 10
14.2618221084
 20
7.7513749423
 30
0.0
 10
14.265515079
 20
7.7418501176
 30
0.0
 10
14.267973905
 20
7.7324460744
 30
0.0
 10
14.2692740116
 20
7.723171427
 30
0.0
 10
14.2695033119
 20
7.7140329757
 30
0.0
 10
14.2690026956
 20
7.7080176204
 30
0.0
 10
14.2686066239
 20
7.705048361
 30
0.0
  0
SPLINE
  5
3B7
100
AcDbEntity
  8
0
100
AcDbSpline
 62
7
  6
CONTINUOUS
 70
0
 71
3
 72
15
 73
11
 74
0
 42
0.0000001
 43
0.0000001
 44
0.0000000001
 40
0.0
 40
0.0
 40
0.0
 40
0.0
 40
0.1195882985
 40
0.2396126262
 40
0.360556304
 40
0.482967703
 40
0.6074530981
 40
0.7346676949
 40
0.8652861107
 40
1.0
 40
1.0
 40
1.0
 40
1.0
 10
13.7530698848
 20
7.887595021
 30
0.0
 10
13.7528353616
 20
7.8858368543
 30
0.0
 10
13.7524686224
 20
7.8822993459
 30
0.0
 10
13.7522470019
 20
7.8769527234
 30
0.0
 10
13.7523722257
 20
7.8715605873
 30
0.0
 10
13.7528629746
 20
7.8661227165
 30
0.0
 10
13.7537376158
 20
7.8606388475
 30
0.0
 10
13.7550144251
 20
7.8551092807
 30
0.0
 10
13.7567092248
 20
7.8495346892
 30
0.0
 10
13.7581047266
 20
7.8458513974
 30
0.0
 10
13.7588718405
 20
7.844006439
 30
0.0
  0
SPLINE
  5
3B8
100
AcDbEntity
  8
0
100
AcDbSpline
 62
7
  6
CONTINUOUS
 70
0
 71
3
 72
47
 73
43
 74
0
 42
0.0000001
 43
0.0000001
 44
0.0000000001
 40
0.0
 40
0.0
 40
0.0
 40
0.0
 40
0.0097388016
 40
0.0199693228
 40
0.0306880581
 40
0.0418902423
 40
0.0535693719
 40
0.0657173433
 40
0.0783253065
 40
0.0913830708
 40
0.1188005198
 40
0.147870153
 40
0.1784781397
 40
0.2104995798
 40
0.2438004302
 40
0.2782380752
 40
0.3136628374
 40
0.3499193177
 40
0.3868469682
 40
0.4242813864
 40
0.4620553222
 40
0.4999994461
 40
0.5379435913
 40
0.5757175327
 40
0.6131519718
 40
0.6500796699
 40
0.6863361429
 40
0.7217609787
 40
0.7561987107
 40
0.7894995403
 40
0.8215210976
 40
0.8521291969
 40
0.8811988106
 40
0.9086164033
 40
0.9216741378
 40
0.9342822619
 40
0.9464302782
 40
0.9581093687
 40
0.9693116501
 40
0.9800303501
 40
0.9902608481
 40
1.0
 40
1.0
 40
1.0
 40
1.0
 10
13.8111760408
 20
8.8384118072
 30
0.0
 10
13.8095592134
 20
8.8356705244
 30
0.0
 10
13.8063432451
 20
8.8299905227
 30
0.0
 10
13.8016759015
 20
8.8211126308
 30
0.0
 10
13.7970512836
 20
8.8116768165
 30
0.0
 10
13.792475322
 20
8.8016942745
 30
0.0
 10
13.7879534611
 20
8.7911768257
 30
0.0
 10
13.7834908714
 20
8.7801370732
 30
0.0
 10
13.7790930733
 20
8.7685880045
 30
0.0
 10
13.7732271692
 20
8.7522617495
 30
0.0
 10
13.766117417
 20
8.7306708098
 30
0.0
 10
13.7580573828
 20
8.7033697949
 30
0.0
 10
13.750374943
 20
8.6744010086
 30
0.0
 10
13.7431070193
 20
8.6439026627
 30
0.0
 10
13.7362889746
 20
8.6120199512
 30
0.0
 10
13.7299536216
 20
8.5789050373
 30
0.0
 10
13.7241313615
 20
8.5447160771
 30
0.0
 10
13.7188504711
 20
8.5096163817
 30
0.0
 10
13.7141362626
 20
8.4737737048
 30
0.0
 10
13.7100112784
 20
8.4373594171
 30
0.0
 10
13.7064955571
 20
8.4005476144
 30
0.0
 10
13.7036058445
 20
8.36351433
 30
0.0
 10
13.701355874
 20
8.3264366762
 30
0.0
 10
13.6997566137
 20
8.289491952
 30
0.0
 10
13.6988155275
 20
8.2528568334
 30
0.0
 10
13.6985369383
 20
8.2167065202
 30
0.0
 10
13.6989222839
 20
8.181213837
 30
0.0
 10
13.6999693976
 20
8.1465484265
 30
0.0
 10
13.7016729671
 20
8.1128759567
 30
0.0
 10
13.7040248194
 20
8.0803572588
 30
0.0
 10
13.7070131929
 20
8.0491475545
 30
0.0
 10
13.7106232664
 20
8.0193955448
 30
0.0
 10
13.7148377034
 20
7.9912432383
 30
0.0
 10
13.7188988774
 20
7.9688775149
 30
0.0
 10
13.7224551196
 20
7.9518977714
 30
0.0
 10
13.7252165205
 20
7.9398521213
 30
0.0
 10
13.7281125101
 20
7.9283019951
 30
0.0
 10
13.731139369
 20
7.9172610338
 30
0.0
 10
13.7342934181
 20
7.906742351
 30
0.0
 10
13.7375712319
 20
7.8967584677
 30
0.0
 10
13.7409685279
 20
7.8873212358
 30
0.0
 10
13.7433696633
 20
7.8812515729
 30
0.0
 10
13.7445926459
 20
7.8783132394
 30
0.0
  0
SPLINE
  5
3B9
100
AcDbEntity
  8
0
100
AcDbSpline
 62
7
  6
CONTINUOUS
 70
0
 71
3
 72
20
 73
16
 74
0
 42
0.0000001
 43
0.0000001
 44
0.0000000001
 40
0.0
 40
0.0
 40
0.0
 40
0.0
 40
0.1331037673
 40
0.2634964055
 40
0.327677312
 40
0.3911929477
 40
0.4540734952
 40
0.5163596019
 40
0.5781028428
 40
0.6393597248
 40
0.700191946
 40
0.7606604287
 40
0.8208241912
 40
0.8807392578
 40
1.0
 40
1.0
 40
1.0
 40
1.0
 10
13.8400370329
 20
8.8873451456
 30
0.0
 10
13.8319742747
 20
8.8736798934
 30
0.0
 10
13.8167686955
 20
8.8461707884
 30
0.0
 10
13.800159941
 20
8.8107785008
 30
0.0
 10
13.7886711722
 20
8.7822316228
 30
0.0
 10
13.7810117667
 20
8.7608377356
 30
0.0
 10
13.7742819709
 20
8.7393700081
 30
0.0
 10
13.768488339
 20
8.7178495383
 30
0.0
 10
13.7636220304
 20
8.6962990754
 30
0.0
 10
13.7596669979
 20
8.6747393128
 30
0.0
 10
13.7565926306
 20
8.6531902858
 30
0.0
 10
13.7543632765
 20
8.631669043
 30
0.0
 10
13.7529346753
 20
8.6101896046
 30
0.0
 10
13.7520357804
 20
8.5816692866
 30
0.0
 10
13.7524133382
 20
8.5602963019
 30
0.0
 10
13.7530698848
 20
8.5460950757
 30
0.0
  0
SPLINE
  5
3BA
100
AcDbEntity
  8
0
100
AcDbSpline
 62
7
  6
CONTINUOUS
 70
0
 71
3
 72
9
 73
5
 74
0
 42
0.0000001
 43
0.0000001
 44
0.0000000001
 40
0.0
 40
0.0
 40
0.0
 40
0.0
 40
0.5156474505
 40
1.0
 40
1.0
 40
1.0
 40
1.0
 10
14.416132532
 20
8.8116994887
 30
0.0
 10
14.414773036
 20
8.8149657914
 30
0.0
 10
14.4120154961
 20
8.821250734
 30
0.0
 10
14.4089819773
 20
8.8274081748
 30
0.0
 10
14.4074362708
 20
8.8303500342
 30
0.0
  0
SPLINE
  5
3BB
100
AcDbEntity
  8
0
100
AcDbSpline
 62
7
  6
CONTINUOUS
 70
0
 71
3
 72
27
 73
23
 74
0
 42
0.0000001
 43
0.0000001
 44
0.0000000001
 40
0.0
 40
0.0
 40
0.0
 40
0.0
 40
0.0862376397
 40
0.166476999
 40
0.2409287868
 40
0.3098931797
 40
0.3737956139
 40
0.4332053045
 40
0.4888618794
 40
0.5155840016
 40
0.5417313436
 40
0.5674464209
 40
0.5928800766
 40
0.6181886775
 40
0.6435307976
 40
0.669064262
 40
0.6949432855
 40
0.7482846378
 40
0.8046652017
 40
0.8649789148
 40
0.929919677
 40
1.0
 40
1.0
 40
1.0
 40
1.0
 10
14.4074362708
 20
8.8303500342
 30
0.0
 10
14.4059345734
 20
8.8332081334
 30
0.0
 10
14.4028953314
 20
8.8386538797
 30
0.0
 10
14.3980297954
 20
8.8462562425
 30
0.0
 10
14.393030984
 20
8.8529835548
 30
0.0
 10
14.3879044903
 20
8.8588244146
 30
0.0
 10
14.3826558379
 20
8.8637694046
 30
0.0
 10
14.3772908901
 20
8.8678083511
 30
0.0
 10
14.3726627468
 20
8.8704449704
 30
0.0
 10
14.3689314755
 20
8.8720612644
 30
0.0
 10
14.3661487552
 20
8.8730255028
 30
0.0
 10
14.3633457397
 20
8.8737569187
 30
0.0
 10
14.3605237571
 20
8.8742549565
 30
0.0
 10
14.3576843753
 20
8.874519456
 30
0.0
 10
14.3548291718
 20
8.8745503532
 30
0.0
 10
14.3519595571
 20
8.8743475974
 30
0.0
 10
14.3480783587
 20
8.8737604821
 30
0.0
 10
14.3431621216
 20
8.8724143376
 30
0.0
 10
14.3373021312
 20
8.8698822086
 30
0.0
 10
14.3314271984
 20
8.866427593
 30
0.0
 10
14.3255457227
 20
8.8620622633
 30
0.0
 10
14.3217742664
 20
8.8586858218
 30
0.0
 10
14.319887164
 20
8.8568630208
 30
0.0
  0
SPLINE
  5
3BC
100
AcDbEntity
  8
0
100
AcDbSpline
 62
7
  6
CONTINUOUS
 70
0
 71
3
 72
15
 73
11
 74
0
 42
0.0000001
 43
0.0000001
 44
0.0000000001
 40
0.0
 40
0.0
 40
0.0
 40
0.0
 40
0.1273483281
 40
0.2538605602
 40
0.3795878981
 40
0.5046051042
 40
0.6290174419
 40
0.7529533761
 40
0.876560577
 40
1.0
 40
1.0
 40
1.0
 40
1.0
 10
9.5518860039
 20
9.0696078128
 30
0.0
 10
9.5518860039
 20
9.0652806838
 30
0.0
 10
9.5514728502
 20
9.0566488528
 30
0.0
 10
9.5496043969
 20
9.0438671237
 30
0.0
 10
9.546506191
 20
9.031406554
 30
0.0
 10
9.5422062157
 20
9.0193836732
 30
0.0
 10
9.5367439326
 20
9.0079093559
 30
0.0
 10
9.5301691086
 20
8.9970895684
 30
0.0
 10
9.5225435801
 20
8.9870256833
 30
0.0
 10
9.5168019418
 20
8.9808780979
 30
0.0
 10
9.5137851631
 20
8.977964118
 30
0.0
  0
SPLINE
  5
3BD
100
AcDbEntity
  8
0
100
AcDbSpline
 62
7
  6
CONTINUOUS
 70
0
 71
3
 72
15
 73
11
 74
0
 42
0.0000001
 43
0.0000001
 44
0.0000000001
 40
0.0
 40
0.0
 40
0.0
 40
0.0
 40
0.1273483281
 40
0.2538605602
 40
0.3795878981
 40
0.5046051042
 40
0.6290174419
 40
0.7529533761
 40
0.876560577
 40
1.0
 40
1.0
 40
1.0
 40
1.0
 10
11.6044786215
 20
8.9272600313
 30
0.0
 10
11.6044786215
 20
8.9229329023
 30
0.0
 10
11.6040654679
 20
8.9143010713
 30
0.0
 10
11.6021970145
 20
8.9015193422
 30
0.0
 10
11.5990988086
 20
8.8890587725
 30
0.0
 10
11.5947988334
 20
8.8770358917
 30
0.0
 10
11.5893365503
 20
8.8655615744
 30
0.0
 10
11.5827617262
 20
8.8547417869
 30
0.0
 10
11.5751361978
 20
8.8446779017
 30
0.0
 10
11.5693945594
 20
8.8385303164
 30
0.0
 10
11.5663777807
 20
8.8356163365
 30
0.0
  0
SPLINE
  5
3BE
100
AcDbEntity
  8
0
100
AcDbSpline
 62
7
  6
CONTINUOUS
 70
0
 71
3
 72
15
 73
11
 74
0
 42
0.0000001
 43
0.0000001
 44
0.0000000001
 40
0.0
 40
0.0
 40
0.0
 40
0.0
 40
0.1273483281
 40
0.2538605602
 40
0.3795878981
 40
0.5046051042
 40
0.6290174419
 40
0.7529533761
 40
0.876560577
 40
1.0
 40
1.0
 40
1.0
 40
1.0
 10
9.5518860039
 20
7.3193502208
 30
0.0
 10
9.5518860039
 20
7.3150230918
 30
0.0
 10
9.5514728502
 20
7.3063912608
 30
0.0
 10
9.5496043969
 20
7.2936095317
 30
0.0
 10
9.546506191
 20
7.281148962
 30
0.0
 10
9.5422062157
 20
7.2691260812
 30
0.0
 10
9.5367439326
 20
7.2576517639
 30
0.0
 10
9.5301691086
 20
7.2468319764
 30
0.0
 10
9.5225435801
 20
7.2367680912
 30
0.0
 10
9.5168019418
 20
7.2306205059
 30
0.0
 10
9.5137851631
 20
7.227706526
 30
0.0
  0
SPLINE
  5
3BF
100
AcDbEntity
  8
0
100
AcDbSpline
 62
7
  6
CONTINUOUS
 70
0
 71
3
 72
15
 73
11
 74
0
 42
0.0000001
 43
0.0000001
 44
0.0000000001
 40
0.0
 40
0.0
 40
0.0
 40
0.0
 40
0.1273483281
 40
0.2538605602
 40
0.3795878981
 40
0.5046051042
 40
0.6290174419
 40
0.7529533761
 40
0.876560577
 40
1.0
 40
1.0
 40
1.0
 40
1.0
 10
11.6044786215
 20
7.1770024393
 30
0.0
 10
11.6044786215
 20
7.1726753103
 30
0.0
 10
11.6040654679
 20
7.1640434793
 30
0.0
 10
11.6021970145
 20
7.1512617502
 30
0.0
 10
11.5990988086
 20
7.1388011805
 30
0.0
 10
11.5947988334
 20
7.1267782997
 30
0.0
 10
11.5893365503
 20
7.1153039824
 30
0.0
 10
11.5827617262
 20
7.1044841949
 30
0.0
 10
11.5751361978
 20
7.0944203097
 30
0.0
 10
11.5693945594
 20
7.0882727244
 30
0.0
 10
11.5663777807
 20
7.0853587445
 30
0.0
  0
SPLINE
  5
3C0
100
AcDbEntity
  8
0
100
AcDbSpline
 62
7
  6
CONTINUOUS
 70
0
 71
3
 72
41
 73
37
 74
0
 42
0.0000001
 43
0.0000001
 44
0.0000000001
 40
0.0
 40
0.0
 40
0.0
 40
0.0
 40
0.0312471447
 40
0.0469365857
 40
0.0626665637
 40
0.0942388895
 40
0.1259576974
 40
0.1578076434
 40
0.1897701382
 40
0.2218240474
 40
0.2539461625
 40
0.2700278639
 40
0.2861172605
 40
0.3183007358
 40
0.3504761069
 40
0.3826176579
 40
0.4147005008
 40
0.4467011311
 40
0.4785979567
 40
0.5103717901
 40
0.5420062979
 40
0.573488398
 40
0.6048085969
 40
0.6359612578
 40
0.6669447907
 40
0.6977617553
 40
0.7284188683
 40
0.7589269076
 40
0.7893005103
 40
0.8195578596
 40
0.8497202643
 40
0.879811637
 40
0.9098578812
 40
0.9398862057
 40
0.9699243862
 40
1.0
 40
1.0
 40
1.0
 40
1.0
 10
10.04982091
 20
8.4321803222
 30
0.0
 10
10.0554151945
 20
8.4317923572
 30
0.0
 10
10.0638000756
 20
8.4308758022
 30
0.0
 10
10.0748910788
 20
8.4290009384
 30
0.0
 10
10.0859585233
 20
8.4266843307
 30
0.0
 10
10.0996616469
 20
8.4229737947
 30
0.0
 10
10.1157678541
 20
8.4172575141
 30
0.0
 10
10.1314586269
 20
8.410308297
 30
0.0
 10
10.1466352927
 20
8.4021706377
 30
0.0
 10
10.1612028493
 20
8.3928968369
 30
0.0
 10
10.1727568412
 20
8.384272788
 30
0.0
 10
10.1816082514
 20
8.37686761
 30
0.0
 10
10.1901884739
 20
8.3691333755
 30
0.0
 10
10.2003712585
 20
8.358878437
 30
0.0
 10
10.2116460223
 20
8.3457128137
 30
0.0
 10
10.221910306
 20
8.3317668682
 30
0.0
 10
10.2311008385
 20
8.3171281584
 30
0.0
 10
10.2391616316
 20
8.3018877694
 30
0.0
 10
10.2460435599
 20
8.2861403865
 30
0.0
 10
10.2517047881
 20
8.2699835533
 30
0.0
 10
10.2561109194
 20
8.2535171429
 30
0.0
 10
10.2592351704
 20
8.2368427716
 30
0.0
 10
10.2610584911
 20
8.2200632274
 30
0.0
 10
10.2615696598
 20
8.2032818967
 30
0.0
 10
10.2607653442
 20
8.1866021912
 30
0.0
 10
10.2586501235
 20
8.1701269748
 30
0.0
 10
10.2552364842
 20
8.1539579911
 30
0.0
 10
10.2505447822
 20
8.1381952887
 30
0.0
 10
10.2446031716
 20
8.1229366455
 30
0.0
 10
10.2374474918
 20
8.1082769883
 30
0.0
 10
10.2291211268
 20
8.0943078218
 30
0.0
 10
10.2196747698
 20
8.0811166259
 30
0.0
 10
10.2091663238
 20
8.068786382
 30
0.0
 10
10.1976600619
 20
8.0573946571
 30
0.0
 10
10.1852283111
 20
8.0470143839
 30
0.0
 10
10.1763798493
 20
8.0408160943
 30
0.0
 10
10.1718324979
 20
8.0379084626
 30
0.0
  0
SPLINE
  5
3C1
100
AcDbEntity
  8
0
100
AcDbSpline
 62
7
  6
CONTINUOUS
 70
0
 71
3
 72
21
 73
17
 74
0
 42
0.0000001
 43
0.0000001
 44
0.0000000001
 40
0.0
 40
0.0
 40
0.0
 40
0.0
 40
0.1273176984
 40
0.2537999461
 40
0.3167619614
 40
0.3795355204
 40
0.4421314992
 40
0.5045621453
 40
0.5668413456
 40
0.6289845231
 40
0.6910084433
 40
0.7529310869
 40
0.8147714401
 40
0.8765493236
 40
0.9382852134
 40
1.0
 40
1.0
 40
1.0
 40
1.0
 10
10.6535243939
 20
8.7517274889
 30
0.0
 10
10.6535243939
 20
8.7449826808
 30
0.0
 10
10.6528805569
 20
8.7315286414
 30
0.0
 10
10.6504489657
 20
8.7148965443
 30
0.0
 10
10.6475426986
 20
8.7018501206
 30
0.0
 10
10.6448923347
 20
8.6922270722
 30
0.0
 10
10.64177434
 20
8.6827750204
 30
0.0
 10
10.6381959032
 20
8.6735154859
 30
0.0
 10
10.6341652746
 20
8.6644698845
 30
0.0
 10
10.6296916667
 20
8.6556590929
 30
0.0
 10
10.6247854286
 20
8.6471034214
 30
0.0
 10
10.6194578749
 20
8.6388225875
 30
0.0
 10
10.6137212405
 20
8.6308357529
 30
0.0
 10
10.6075887193
 20
8.6231612604
 30
0.0
 10
10.6010747258
 20
8.6158170222
 30
0.0
 10
10.5964868331
 20
8.6111515296
 30
0.0
 10
10.5941352844
 20
8.6088801218
 30
0.0
  0
SPLINE
  5
3C2
100
AcDbEntity
  8
0
100
AcDbSpline
 62
7
  6
CONTINUOUS
 70
0
 71
3
 72
41
 73
37
 74
0
 42
0.0000001
 43
0.0000001
 44
0.0000000001
 40
0.0
 40
0.0
 40
0.0
 40
0.0
 40
0.0312471447
 40
0.0469365857
 40
0.0626665637
 40
0.0942388895
 40
0.1259576974
 40
0.1578076434
 40
0.1897701382
 40
0.2218240474
 40
0.2539461625
 40
0.2700278639
 40
0.2861172605
 40
0.3183007358
 40
0.3504761069
 40
0.3826176579
 40
0.4147005008
 40
0.4467011311
 40
0.4785979567
 40
0.5103717901
 40
0.5420062979
 40
0.573488398
 40
0.6048085969
 40
0.6359612578
 40
0.6669447907
 40
0.6977617553
 40
0.7284188683
 40
0.7589269076
 40
0.7893005103
 40
0.8195578596
 40
0.8497202643
 40
0.879811637
 40
0.9098578812
 40
0.9398862057
 40
0.9699243862
 40
1.0
 40
1.0
 40
1.0
 40
1.0
 10
10.8351186183
 20
8.3777197412
 30
0.0
 10
10.8407129028
 20
8.3773317762
 30
0.0
 10
10.8490977839
 20
8.3764152211
 30
0.0
 10
10.8601887871
 20
8.3745403574
 30
0.0
 10
10.8712562316
 20
8.3722237496
 30
0.0
 10
10.8849593553
 20
8.3685132136
 30
0.0
 10
10.9010655624
 20
8.3627969331
 30
0.0
 10
10.9167563352
 20
8.3558477159
 30
0.0
 10
10.9319330011
 20
8.3477100566
 30
0.0
 10
10.9465005576
 20
8.3384362558
 30
0.0
 10
10.9580545495
 20
8.329812207
 30
0.0
 10
10.9669059597
 20
8.3224070289
 30
0.0
 10
10.9754861822
 20
8.3146727945
 30
0.0
 10
10.9856689668
 20
8.304417856
 30
0.0
 10
10.9969437306
 20
8.2912522327
 30
0.0
 10
11.0072080143
 20
8.2773062872
 30
0.0
 10
11.0163985468
 20
8.2626675774
 30
0.0
 10
11.0244593399
 20
8.2474271883
 30
0.0
 10
11.0313412682
 20
8.2316798055
 30
0.0
 10
11.0370024964
 20
8.2155229723
 30
0.0
 10
11.0414086277
 20
8.1990565619
 30
0.0
 10
11.0445328787
 20
8.1823821905
 30
0.0
 10
11.0463561994
 20
8.1656026463
 30
0.0
 10
11.0468673681
 20
8.1488213157
 30
0.0
 10
11.0460630525
 20
8.1321416102
 30
0.0
 10
11.0439478318
 20
8.1156663938
 30
0.0
 10
11.0405341925
 20
8.0994974101
 30
0.0
 10
11.0358424905
 20
8.0837347077
 30
0.0
 10
11.0299008799
 20
8.0684760644
 30
0.0
 10
11.0227452001
 20
8.0538164073
 30
0.0
 10
11.0144188351
 20
8.0398472407
 30
0.0
 10
11.0049724781
 20
8.0266560448
 30
0.0
 10
10.9944640321
 20
8.0143258009
 30
0.0
 10
10.9829577702
 20
8.002934076
 30
0.0
 10
10.9705260194
 20
7.9925538028
 30
0.0
 10
10.9616775576
 20
7.9863555133
 30
0.0
 10
10.9571302062
 20
7.9834478816
 30
0.0
  0
SPLINE
  5
3C3
100
AcDbEntity
  8
0
100
AcDbSpline
 62
7
  6
CONTINUOUS
 70
0
 71
3
 72
29
 73
25
 74
0
 42
0.0000001
 43
0.0000001
 44
0.0000000001
 40
0.0
 40
0.0
 40
0.0
 40
0.0
 40
0.0309064341
 40
0.0619690679
 40
0.093174808
 40
0.1245169331
 40
0.155980864
 40
0.1875512634
 40
0.219211368
 40
0.2509431833
 40
0.3145196164
 40
0.3781719934
 40
0.4417720234
 40
0.4735288226
 40
0.50523279
 40
0.5684197575
 40
0.6312865582
 40
0.6625932129
 40
0.6938018022
 40
0.7558910369
 40
0.8175540956
 40
0.8787851909
 40
0.939592696
 40
1.0
 40
1.0
 40
1.0
 40
1.0
 10
9.1138386507
 20
8.7632072233
 30
0.0
 10
9.1154757585
 20
8.7630936895
 30
0.0
 10
9.1187510978
 20
8.762745185
 30
0.0
 10
9.1236238323
 20
8.7618663059
 30
0.0
 10
9.1284440276
 20
8.7606363245
 30
0.0
 10
9.1331862517
 20
8.759065099
 30
0.0
 10
9.1378271706
 20
8.7571645816
 30
0.0
 10
9.1423449124
 20
8.7549492768
 30
0.0
 10
9.1467198768
 20
8.7524351599
 30
0.0
 10
9.1523411683
 20
8.7487066334
 30
0.0
 10
9.1589248396
 20
8.7433881488
 30
0.0
 10
9.1660100355
 20
8.7361144555
 30
0.0
 10
9.1711891579
 20
8.7294226207
 30
0.0
 10
9.1748696247
 20
8.7237651535
 30
0.0
 10
9.1782308971
 20
8.7179375817
 30
0.0
 10
9.1818371781
 20
8.7103592817
 30
0.0
 10
9.1846393691
 20
8.7024716079
 30
0.0
 10
9.1863866025
 20
8.6960450043
 30
0.0
 10
9.1877997618
 20
8.6895791184
 30
0.0
 10
9.1889507043
 20
8.6814169057
 30
0.0
 10
9.1893407722
 20
8.6715863724
 30
0.0
 10
9.1887370115
 20
8.6618336437
 30
0.0
 10
9.1871403877
 20
8.6522617988
 30
0.0
 10
9.1854091926
 20
8.6460473474
 30
0.0
 10
9.1843792503
 20
8.6430097588
 30
0.0
  0
SPLINE
  5
3C4
100
AcDbEntity
  8
0
100
AcDbSpline
 62
7
  6
CONTINUOUS
 70
0
 71
3
 72
29
 73
25
 74
0
 42
0.0000001
 43
0.0000001
 44
0.0000000001
 40
0.0
 40
0.0
 40
0.0
 40
0.0
 40
0.0309064341
 40
0.0619690679
 40
0.093174808
 40
0.1245169331
 40
0.155980864
 40
0.1875512634
 40
0.219211368
 40
0.2509431833
 40
0.3145196164
 40
0.3781719934
 40
0.4417720234
 40
0.4735288226
 40
0.50523279
 40
0.5684197575
 40
0.6312865582
 40
0.6625932129
 40
0.6938018022
 40
0.7558910369
 40
0.8175540956
 40
0.8787851909
 40
0.939592696
 40
1.0
 40
1.0
 40
1.0
 40
1.0
 10
11.7701349456
 20
8.5789924496
 30
0.0
 10
11.7717720534
 20
8.5788789158
 30
0.0
 10
11.7750473926
 20
8.5785304113
 30
0.0
 10
11.7799201272
 20
8.5776515322
 30
0.0
 10
11.7847403225
 20
8.5764215508
 30
0.0
 10
11.7894825465
 20
8.5748503253
 30
0.0
 10
11.7941234654
 20
8.5729498079
 30
0.0
 10
11.7986412072
 20
8.5707345031
 30
0.0
 10
11.8030161716
 20
8.5682203861
 30
0.0
 10
11.8086374631
 20
8.5644918597
 30
0.0
 10
11.8152211345
 20
8.5591733751
 30
0.0
 10
11.8223063304
 20
8.5518996818
 30
0.0
 10
11.8274854528
 20
8.545207847
 30
0.0
 10
11.8311659195
 20
8.5395503797
 30
0.0
 10
11.834527192
 20
8.5337228079
 30
0.0
 10
11.8381334729
 20
8.526144508
 30
0.0
 10
11.840935664
 20
8.5182568341
 30
0.0
 10
11.8426828973
 20
8.5118302306
 30
0.0
 10
11.8440960567
 20
8.5053643447
 30
0.0
 10
11.8452469991
 20
8.497202132
 30
0.0
 10
11.8456370671
 20
8.4873715986
 30
0.0
 10
11.8450333063
 20
8.47761887
 30
0.0
 10
11.8434366825
 20
8.4680470251
 30
0.0
 10
11.8417054874
 20
8.4618325737
 30
0.0
 10
11.8406755451
 20
8.4587949851
 30
0.0
  0
SPLINE
  5
3C5
100
AcDbEntity
  8
0
100
AcDbSpline
 62
7
  6
CONTINUOUS
 70
0
 71
3
 72
39
 73
35
 74
0
 42
0.0000001
 43
0.0000001
 44
0.0000000001
 40
0.0
 40
0.0
 40
0.0
 40
0.0
 40
0.0320740222
 40
0.064256535
 40
0.096521487
 40
0.1288454311
 40
0.1612010235
 40
0.1935615223
 40
0.2259000627
 40
0.258190783
 40
0.2904093347
 40
0.3225334569
 40
0.3545434262
 40
0.3864224299
 40
0.4181568616
 40
0.4497365402
 40
0.481154869
 40
0.5124089318
 40
0.5434994899
 40
0.5744309344
 40
0.6052111901
 40
0.6358515654
 40
0.6663665512
 40
0.6967735513
 40
0.7270925567
 40
0.7573457684
 40
0.7875571617
 40
0.8177519885
 40
0.8479562134
 40
0.8781959224
 40
0.9084966997
 40
0.9388829741
 40
0.9693773576
 40
1.0
 40
1.0
 40
1.0
 40
1.0
 10
11.9173220689
 20
7.3187643883
 30
0.0
 10
11.9191944447
 20
7.3179530495
 30
0.0
 10
11.9228839498
 20
7.316181178
 30
0.0
 10
11.9282039283
 20
7.3131025201
 30
0.0
 10
11.9332870538
 20
7.3096180313
 30
0.0
 10
11.9381002248
 20
7.3057518986
 30
0.0
 10
11.9426131833
 20
7.3015303481
 30
0.0
 10
11.9467980231
 20
7.2969821495
 30
0.0
 10
11.950629552
 20
7.2921378909
 30
0.0
 10
11.9540853831
 20
7.2870297857
 30
0.0
 10
11.9571460137
 20
7.2816912817
 30
0.0
 10
11.9597948472
 20
7.2761567514
 30
0.0
 10
11.9620181587
 20
7.2704611825
 30
0.0
 10
11.9638050387
 20
7.2646399155
 30
0.0
 10
11.9651473115
 20
7.2587284097
 30
0.0
 10
11.9660394362
 20
7.2527620445
 30
0.0
 10
11.9664784058
 20
7.2467759527
 30
0.0
 10
11.9664636596
 20
7.2408048818
 30
0.0
 10
11.9659969567
 20
7.2348830803
 30
0.0
 10
11.9650822875
 20
7.2290442103
 30
0.0
 10
11.963725797
 20
7.2233212739
 30
0.0
 10
11.9619357186
 20
7.2177465503
 30
0.0
 10
11.9597223452
 20
7.2123515304
 30
0.0
 10
11.9570980028
 20
7.2071668489
 30
0.0
 10
11.9540770156
 20
7.2022222234
 30
0.0
 10
11.9506757088
 20
7.1975463732
 30
0.0
 10
11.946912415
 20
7.1931669234
 30
0.0
 10
11.9428074831
 20
7.189110294
 30
0.0
 10
11.938383311
 20
7.1854015455
 30
0.0
 10
11.9336643206
 20
7.1820642233
 30
0.0
 10
11.928676998
 20
7.1791201947
 30
0.0
 10
11.9234496512
 20
7.1765893957
 30
0.0
 10
11.9180131513
 20
7.1744897976
 30
0.0
 10
11.9142781484
 20
7.1733900968
 30
0.0
 10
11.9123882904
 20
7.1729166316
 30
0.0
  0
SPLINE
  5
3C6
100
AcDbEntity
  8
0
100
AcDbSpline
 62
7
  6
CONTINUOUS
 70
0
 71
3
 72
43
 73
39
 74
0
 42
0.0000001
 43
0.0000001
 44
0.0000000001
 40
0.0
 40
0.0
 40
0.0
 40
0.0
 40
0.0379403561
 40
0.0762772703
 40
0.1149222977
 40
0.1537882401
 40
0.2318250805
 40
0.3096763248
 40
0.3483106895
 40
0.3866327606
 40
0.4245553993
 40
0.461992642
 40
0.4988599643
 40
0.5350745482
 40
0.5705555554
 40
0.6052244092
 40
0.6390050899
 40
0.6718244337
 40
0.7036124533
 40
0.7343026852
 40
0.7638325704
 40
0.792143884
 40
0.819183232
 40
0.8449026469
 40
0.8692602986
 40
0.8922213868
 40
0.9031700835
 40
0.9137604011
 40
0.923990592
 40
0.9338595721
 40
0.9433670879
 40
0.9525138178
 40
0.9613013814
 40
0.969732647
 40
0.9778116645
 40
0.9855440694
 40
0.9929371083
 40
1.0
 40
1.0
 40
1.0
 40
1.0
 10
13.1825783739
 20
8.180552924
 30
0.0
 10
13.1825783739
 20
8.1896862382
 30
0.0
 10
13.1827005039
 20
8.2080485452
 30
0.0
 10
13.1832417693
 20
8.2357089957
 30
0.0
 10
13.1841409146
 20
8.26358313
 30
0.0
 10
13.1858163133
 20
8.3009911869
 30
0.0
 10
13.1887845747
 20
8.347784989
 30
0.0
 10
13.192898273
 20
8.394436128
 30
0.0
 10
13.1968687451
 20
8.4314914278
 30
0.0
 10
13.2001639225
 20
8.4589498339
 30
0.0
 10
13.2037756852
 20
8.4860776823
 30
0.0
 10
13.2076952446
 20
8.5128089173
 30
0.0
 10
13.2119130087
 20
8.5390783994
 30
0.0
 10
13.2164186664
 20
8.5648221349
 30
0.0
 10
13.2212011957
 20
8.5899774158
 30
0.0
 10
13.2262488943
 20
8.6144829814
 30
0.0
 10
13.2315494034
 20
8.6382791702
 30
0.0
 10
13.237089742
 20
8.6613080688
 30
0.0
 10
13.2428563375
 20
8.6835136559
 30
0.0
 10
13.2488350591
 20
8.7048419458
 30
0.0
 10
13.2550112528
 20
8.7252411248
 30
0.0
 10
13.2613697797
 20
8.7446616982
 30
0.0
 10
13.2678950566
 20
8.7630565947
 30
0.0
 10
13.2745711048
 20
8.7803814188
 30
0.0
 10
13.2813815823
 20
8.7965941872
 30
0.0
 10
13.2872444525
 20
8.809340402
 30
0.0
 10
13.292000037
 20
8.8189400736
 30
0.0
 10
13.2955333646
 20
8.8257233136
 30
0.0
 10
13.2990878028
 20
8.8322005842
 30
0.0
 10
13.3026612587
 20
8.8383679776
 30
0.0
 10
13.3062515737
 20
8.8442217729
 30
0.0
 10
13.309856555
 20
8.8497584713
 30
0.0
 10
13.313474109
 20
8.8549747208
 30
0.0
 10
13.3171020119
 20
8.8598674463
 30
0.0
 10
13.3207381971
 20
8.8644336738
 30
0.0
 10
13.3243805198
 20
8.8686707578
 30
0.0
 10
13.3280267961
 20
8.8725760271
 30
0.0
 10
13.3305147245
 20
8.8750113922
 30
0.0
 10
13.3317593317
 20
8.8761697357
 30
0.0
  0
SPLINE
  5
3C7
100
AcDbEntity
  8
0
100
AcDbSpline
 62
7
  6
CONTINUOUS
 70
0
 71
3
 72
51
 73
47
 74
0
 42
0.0000001
 43
0.0000001
 44
0.0000000001
 40
0.0
 40
0.0
 40
0.0
 40
0.0
 40
0.0417744683
 40
0.0840379783
 40
0.1266600061
 40
0.1695085183
 40
0.2124506398
 40
0.2553531056
 40
0.2980828147
 40
0.340507344
 40
0.3824954781
 40
0.4239177372
 40
0.4646469112
 40
0.5045585996
 40
0.5435317641
 40
0.5814492947
 40
0.618198601
 40
0.6536722357
 40
0.687768567
 40
0.7203925213
 40
0.7514564269
 40
0.7663786334
 40
0.7808818693
 40
0.7949577079
 40
0.8085984786
 40
0.8217971992
 40
0.8345477656
 40
0.8468449089
 40
0.8586844038
 40
0.8700630626
 40
0.8809789739
 40
0.8914315506
 40
0.9014218177
 40
0.9109525401
 40
0.9200285868
 40
0.9286571749
 40
0.9368483468
 40
0.9446153723
 40
0.951975373
 40
0.9589498998
 40
0.9655656818
 40
0.9778458874
 40
0.9836071498
 40
0.9891799107
 40
0.9946230128
 40
1.0
 40
1.0
 40
1.0
 40
1.0
 10
13.5464776154
 20
8.2297178539
 30
0.0
 10
13.5464776154
 20
8.2397920018
 30
0.0
 10
13.5466347838
 20
8.2600585494
 30
0.0
 10
13.5473295896
 20
8.290596479
 30
0.0
 10
13.5484828033
 20
8.3213797785
 30
0.0
 10
13.5500906358
 20
8.3523065185
 30
0.0
 10
13.5521477798
 20
8.3832744014
 30
0.0
 10
13.5546474326
 20
8.4141809684
 30
0.0
 10
13.5575813151
 20
8.4449239703
 30
0.0
 10
13.5609397011
 20
8.4754017013
 30
0.0
 10
13.5647114482
 20
8.5055133398
 30
0.0
 10
13.5688840349
 20
8.5351592835
 30
0.0
 10
13.5734436011
 20
8.564241483
 30
0.0
 10
13.5783749931
 20
8.5926637694
 30
0.0
 10
13.5836618125
 20
8.6203321781
 30
0.0
 10
13.5892864699
 20
8.6471552639
 30
0.0
 10
13.5952302411
 20
8.6730444185
 30
0.0
 10
13.6014733308
 20
8.6979141509
 30
0.0
 10
13.6079949278
 20
8.7216824706
 30
0.0
 10
13.6147733127
 20
8.7442708774
 30
0.0
 10
13.6206936006
 20
8.7622827803
 30
0.0
 10
13.6255519177
 20
8.776037826
 30
0.0
 10
13.6291968559
 20
8.785875306
 30
0.0
 10
13.6328888357
 20
8.7953643993
 30
0.0
 10
13.6366247905
 20
8.8044972996
 30
0.0
 10
13.640401657
 20
8.8132664741
 30
0.0
 10
13.6442162739
 20
8.8216647169
 30
0.0
 10
13.6480655259
 20
8.829685117
 30
0.0
 10
13.6519461996
 20
8.8373211048
 30
0.0
 10
13.6558551374
 20
8.8445664164
 30
0.0
 10
13.6597890953
 20
8.8514151462
 30
0.0
 10
13.6637448956
 20
8.8578617023
 30
0.0
 10
13.6677192916
 20
8.8639008672
 30
0.0
 10
13.6717091191
 20
8.8695277416
 30
0.0
 10
13.6757111684
 20
8.8747378101
 30
0.0
 10
13.679722344
 20
8.8795268747
 30
0.0
 10
13.6837395135
 20
8.8838911025
 30
0.0
 10
13.6877597888
 20
8.8878269982
 30
0.0
 10
13.6917799448
 20
8.8913312191
 30
0.0
 10
13.6957981969
 20
8.8944012683
 30
0.0
 10
13.7010167831
 20
8.897825603
 30
0.0
 10
13.7063672269
 20
8.9005036272
 30
0.0
 10
13.7117866828
 20
8.9022799634
 30
0.0
 10
13.7157490597
 20
8.9031366868
 30
0.0
 10
13.7196892208
 20
8.903543406
 30
0.0
 10
13.7223051976
 20
8.9035135853
 30
0.0
 10
13.7235987818
 20
8.9034238826
 30
0.0
  0
SPLINE
  5
3C8
100
AcDbEntity
  8
0
100
AcDbSpline
 62
7
  6
CONTINUOUS
 70
0
 71
3
 72
30
 73
26
 74
0
 42
0.0000001
 43
0.0000001
 44
0.0000000001
 40
0.0
 40
0.0
 40
0.0
 40
0.0
 40
0.0851784903
 40
0.1685810969
 40
0.2498834953
 40
0.3287745917
 40
0.4049551108
 40
0.4781414856
 40
0.5480673724
 40
0.6144864538
 40
0.6771752938
 40
0.7070594378
 40
0.735939494
 40
0.7637959642
 40
0.790611226
 40
0.8163706451
 40
0.8410619855
 40
0.8646766072
 40
0.8872090812
 40
0.9086584391
 40
0.9290281656
 40
0.9483275241
 40
0.96657212
 40
0.9837854028
 40
1.0
 40
1.0
 40
1.0
 40
1.0
 10
7.7679113214
 20
7.5454938908
 30
0.0
 10
7.7679113214
 20
7.5383664163
 30
0.0
 10
7.7680327789
 20
7.5242597241
 30
0.0
 10
7.7685898195
 20
7.5033565291
 30
0.0
 10
7.7695176062
 20
7.4829929891
 30
0.0
 10
7.770812085
 20
7.4632549472
 30
0.0
 10
7.7724676703
 20
7.4442253493
 30
0.0
 10
7.7744772005
 20
7.4259842232
 30
0.0
 10
7.7768319873
 20
7.4086080871
 30
0.0
 10
7.7795219086
 20
7.3921699666
 30
0.0
 10
7.7820720102
 20
7.379109991
 30
0.0
 10
7.7842825239
 20
7.3691899906
 30
0.0
 10
7.7859903751
 20
7.3621454481
 30
0.0
 10
7.7877727381
 20
7.3553845926
 30
0.0
 10
7.7896278504
 20
7.348914501
 30
0.0
 10
7.79155365
 20
7.3427419327
 30
0.0
 10
7.7935482031
 20
7.3368733393
 30
0.0
 10
7.7956093243
 20
7.3313148146
 30
0.0
 10
7.7977349446
 20
7.3260721378
 30
0.0
 10
7.7999227829
 20
7.3211507076
 30
0.0
 10
7.8021706631
 20
7.3165555895
 30
0.0
 10
7.80447625
 20
7.3122914759
 30
0.0
 10
7.8068373474
 20
7.3083626404
 30
0.0
 10
7.8092515179
 20
7.3047732433
 30
0.0
 10
7.810944332
 20
7.302543877
 30
0.0
 10
7.8118004168
 20
7.3014912651
 30
0.0
  0
SPLINE
  5
3C9
100
AcDbEntity
  8
0
100
AcDbSpline
 62
7
  6
CONTINUOUS
 70
0
 71
3
 72
37
 73
33
 74
0
 42
0.0000001
 43
0.0000001
 44
0.0000000001
 40
0.0
 40
0.0
 40
0.0
 40
0.0
 40
0.0071625163
 40
0.0146566855
 40
0.0224900841
 40
0.0306688224
 40
0.0391978881
 40
0.0480811142
 40
0.0573209621
 40
0.0669185876
 40
0.0871864145
 40
0.1088789618
 40
0.1319780012
 40
0.1564560409
 40
0.1822776811
 40
0.2094008015
 40
0.2377774489
 40
0.267354417
 40
0.2980737688
 40
0.3298734368
 40
0.3626876084
 40
0.3964469841
 40
0.4310791962
 40
0.4665091598
 40
0.5026593021
 40
0.5394498154
 40
0.6146219384
 40
0.6913554392
 40
0.7689602702
 40
0.8467363389
 40
0.9239810822
 40
1.0
 40
1.0
 40
1.0
 40
1.0
 10
7.8569449994
 20
9.5334018896
 30
0.0
 10
7.8561998624
 20
9.5326821424
 30
0.0
 10
7.854710565
 20
9.5311722376
 30
0.0
 10
7.8525277135
 20
9.528759249
 30
0.0
 10
7.85034758
 20
9.526149215
 30
0.0
 10
7.8481716537
 20
9.5233438172
 30
0.0
 10
7.8460011154
 20
9.5203447543
 30
0.0
 10
7.8438372372
 20
9.5171537357
 30
0.0
 10
7.8416812373
 20
9.5137726223
 30
0.0
 10
7.8387656268
 20
9.5089251772
 30
0.0
 10
7.835159256
 20
9.5023945953
 30
0.0
 10
7.8309584899
 20
9.4939715278
 30
0.0
 10
7.8268194098
 20
9.4848450776
 30
0.0
 10
7.8227519913
 20
9.4750369656
 30
0.0
 10
7.8187660095
 20
9.4645704112
 30
0.0
 10
7.8148710946
 20
9.4534703751
 30
0.0
 10
7.8110766857
 20
9.4417633655
 30
0.0
 10
7.8073919777
 20
9.4294774145
 30
0.0
 10
7.8038258766
 20
9.4166419938
 30
0.0
 10
7.8003870206
 20
9.4032879153
 30
0.0
 10
7.7970837528
 20
9.3894472546
 30
0.0
 10
7.793924057
 20
9.3751532881
 30
0.0
 10
7.7909155678
 20
9.3604403954
 30
0.0
 10
7.7880655792
 20
9.3453439737
 30
0.0
 10
7.7853809598
 20
9.3299003219
 30
0.0
 10
7.7820066097
 20
9.3087441531
 30
0.0
 10
7.7782566987
 20
9.2817065219
 30
0.0
 10
7.7745383472
 20
9.2487156694
 30
0.0
 10
7.7716061491
 20
9.2152675631
 30
0.0
 10
7.7694883692
 20
9.1816839352
 30
0.0
 10
7.7682053466
 20
9.14828779
 30
0.0
 10
7.7679113214
 20
9.1261188144
 30
0.0
 10
7.7679113214
 20
9.1151234515
 30
0.0
  0
SPLINE
  5
3CA
100
AcDbEntity
  8
0
100
AcDbSpline
 62
7
  6
CONTINUOUS
 70
0
 71
3
 72
18
 73
14
 74
0
 42
0.0000001
 43
0.0000001
 44
0.0000000001
 40
0.0
 40
0.0
 40
0.0
 40
0.0
 40
0.1294076276
 40
0.2597856545
 40
0.3901258577
 40
0.51931019
 40
0.6461363633
 40
0.7082893742
 40
0.7693796743
 40
0.8292506184
 40
0.8877432942
 40
0.9447077174
 40
1.0
 40
1.0
 40
1.0
 40
1.0
 10
10.7960288064
 20
8.3766670102
 30
0.0
 10
10.7954345694
 20
8.374647175
 30
0.0
 10
10.7943833697
 20
8.3705490912
 30
0.0
 10
10.7932446001
 20
8.364299546
 30
0.0
 10
10.7925643734
 20
8.3579864907
 30
0.0
 10
10.7923664507
 20
8.3516976639
 30
0.0
 10
10.7926176396
 20
8.3465207408
 30
0.0
 10
10.7930776079
 20
8.3424771239
 30
0.0
 10
10.7935465102
 20
8.3395339333
 30
0.0
 10
10.7941410044
 20
8.3366742874
 30
0.0
 10
10.7948590722
 20
8.3339122996
 30
0.0
 10
10.7956986098
 20
8.331262798
 30
0.0
 10
10.7963475114
 20
8.329554247
 30
0.0
 10
10.7966925794
 20
8.3287234665
 30
0.0
  0
SPLINE
  5
3CB
100
AcDbEntity
  8
0
100
AcDbSpline
 62
7
  6
CONTINUOUS
 70
0
 71
3
 72
31
 73
27
 74
0
 42
0.0000001
 43
0.0000001
 44
0.0000000001
 40
0.0
 40
0.0
 40
0.0
 40
0.0
 40
0.0837555642
 40
0.1662446768
 40
0.2470724977
 40
0.3258546537
 40
0.4022198895
 40
0.4758128164
 40
0.5462968199
 40
0.6133572196
 40
0.6455131161
 40
0.6767069117
 40
0.706907253
 40
0.7360847605
 40
0.7642125779
 40
0.7912663376
 40
0.8172245934
 40
0.8420690725
 40
0.8657850072
 40
0.8883618409
 40
0.9097934986
 40
0.9300793285
 40
0.9492247108
 40
0.9672436127
 40
0.9841584699
 40
1.0
 40
1.0
 40
1.0
 40
1.0
 10
13.8686601955
 20
7.7412291598
 30
0.0
 10
13.8677925828
 20
7.7331795561
 30
0.0
 10
13.8659249897
 20
7.7172173251
 30
0.0
 10
13.8627045955
 20
7.6935507962
 30
0.0
 10
13.8590986717
 20
7.6704262043
 30
0.0
 10
13.8551259191
 20
7.6479626097
 30
0.0
 10
13.850806951
 20
7.626275506
 30
0.0
 10
13.8461642153
 20
7.6054762882
 30
0.0
 10
13.8412218233
 20
7.5856719018
 30
0.0
 10
13.8368155204
 20
7.5698680563
 30
0.0
 10
13.8331494508
 20
7.5578063476
 30
0.0
 10
13.8303797175
 20
7.5491974939
 30
0.0
 10
13.8275549387
 20
7.5409101256
 30
0.0
 10
13.8246786912
 20
7.5329548769
 30
0.0
 10
13.821754731
 20
7.5253419465
 30
0.0
 10
13.8187868085
 20
7.5180810881
 30
0.0
 10
13.8157787591
 20
7.5111815853
 30
0.0
 10
13.8127344617
 20
7.504652242
 30
0.0
 10
13.8096578068
 20
7.498501371
 30
0.0
 10
13.8065527592
 20
7.4927367557
 30
0.0
 10
13.8034232109
 20
7.4873657026
 30
0.0
 10
13.8002731911
 20
7.4823949315
 30
0.0
 10
13.7971065505
 20
7.4778306575
 30
0.0
 10
13.7939270758
 20
7.4736783655
 30
0.0
 10
13.7907387423
 20
7.4699435932
 30
0.0
 10
13.7885393782
 20
7.4676619901
 30
0.0
 10
13.787437969
 20
7.4665981104
 30
0.0
  0
SPLINE
  5
3CC
100
AcDbEntity
  8
0
100
AcDbSpline
 62
7
  6
CONTINUOUS
 70
0
 71
3
 72
29
 73
25
 74
0
 42
0.0000001
 43
0.0000001
 44
0.0000000001
 40
0.0
 40
0.0
 40
0.0
 40
0.0
 40
0.0318177393
 40
0.0636177963
 40
0.0953910456
 40
0.127133992
 40
0.1588409317
 40
0.1905077853
 40
0.2221311444
 40
0.2537083814
 40
0.2852376322
 40
0.3167177189
 40
0.3481483209
 40
0.379529745
 40
0.4421288736
 40
0.5045485169
 40
0.5668060936
 40
0.6289228027
 40
0.6909219214
 40
0.7528275505
 40
0.8146639902
 40
0.8764554404
 40
0.9382244425
 40
1.0
 40
1.0
 40
1.0
 40
1.0
 10
9.7474916212
 20
7.8113379444
 30
0.0
 10
9.7478489155
 20
7.8145490251
 30
0.0
 10
9.7483756943
 20
7.8209918784
 30
0.0
 10
9.7486001693
 20
7.8306808889
 30
0.0
 10
9.7482603201
 20
7.840359233
 30
0.0
 10
9.7473613605
 20
7.8499920656
 30
0.0
 10
9.7459116124
 20
7.859546516
 30
0.0
 10
9.7439225666
 20
7.8689908809
 30
0.0
 10
9.7414084092
 20
7.8782954368
 30
0.0
 10
9.7383855915
 20
7.8874325185
 30
0.0
 10
9.7348724111
 20
7.8963767215
 30
0.0
 10
9.7308886838
 20
7.905104887
 30
0.0
 10
9.726455137
 20
7.9135965374
 30
0.0
 10
9.7199796967
 20
7.9245675179
 30
0.0
 10
9.7108677478
 20
7.9376106645
 30
0.0
 10
9.698479547
 20
7.9520765752
 30
0.0
 10
9.6848151825
 20
7.9652715547
 30
0.0
 10
9.670039603
 20
7.9771375104
 30
0.0
 10
9.6543067302
 20
7.9876343015
 30
0.0
 10
9.6377601535
 20
7.9967332033
 30
0.0
 10
9.6205337148
 20
8.0044136531
 30
0.0
 10
9.6027523207
 20
8.0106601799
 30
0.0
 10
9.5845353997
 20
8.0154602517
 30
0.0
 10
9.572174011
 20
8.0176885128
 30
0.0
 10
9.5659615621
 20
8.0185575042
 30
0.0
  0
SPLINE
  5
3CD
100
AcDbEntity
  8
0
100
AcDbSpline
 62
7
  6
CONTINUOUS
 70
0
 71
3
 72
29
 73
25
 74
0
 42
0.0000001
 43
0.0000001
 44
0.0000000001
 40
0.0
 40
0.0
 40
0.0
 40
0.0
 40
0.0319309273
 40
0.0638346926
 40
0.0957014388
 40
0.1275274468
 40
0.159306792
 40
0.1910353303
 40
0.2227097743
 40
0.2543276918
 40
0.2858875101
 40
0.317388524
 40
0.3488309493
 40
0.3802156188
 40
0.4427984313
 40
0.5051755277
 40
0.5673702466
 40
0.6294094595
 40
0.6913220523
 40
0.7531374327
 40
0.8148847903
 40
0.8765925077
 40
0.9382880537
 40
1.0
 40
1.0
 40
1.0
 40
1.0
 10
11.5586027679
 20
7.7004440143
 30
0.0
 10
11.5587500064
 20
7.7036181675
 30
0.0
 10
11.5588625648
 20
7.709973714
 30
0.0
 10
11.5584855591
 20
7.7194948121
 30
0.0
 10
11.5575660433
 20
7.7289686955
 30
0.0
 10
11.556110956
 20
7.7383625403
 30
0.0
 10
11.5541299965
 20
7.7476455886
 30
0.0
 10
11.5516358061
 20
7.7567883459
 30
0.0
 10
11.5486434359
 20
7.7657633282
 30
0.0
 10
11.5451699501
 20
7.7745451006
 30
0.0
 10
11.5412340313
 20
7.7831104472
 30
0.0
 10
11.5368557415
 20
7.791438373
 30
0.0
 10
11.5320558445
 20
7.7995104558
 30
0.0
 10
11.525130687
 20
7.8098982403
 30
0.0
 10
11.5155260967
 20
7.8221740322
 30
0.0
 10
11.5026540216
 20
7.8356727513
 30
0.0
 10
11.4886114454
 20
7.8478652223
 30
0.0
 10
11.4735595082
 20
7.8587047084
 30
0.0
 10
11.4576481163
 20
7.8681613242
 30
0.0
 10
11.441016763
 20
7.8762158221
 30
0.0
 10
11.4237951766
 20
7.8828564752
 30
0.0
 10
11.4061040696
 20
7.8880762623
 30
0.0
 10
11.3880588835
 20
7.8918706935
 30
0.0
 10
11.3758648783
 20
7.8934476943
 30
0.0
 10
11.3697483537
 20
7.8939975197
 30
0.0
  0
SPLINE
  5
3CE
100
AcDbEntity
  8
0
100
AcDbSpline
 62
7
  6
CONTINUOUS
 70
0
 71
3
 72
40
 73
36
 74
0
 42
0.0000001
 43
0.0000001
 44
0.0000000001
 40
0.0
 40
0.0
 40
0.0
 40
0.0
 40
0.0299422956
 40
0.059908968
 40
0.0899238
 40
0.1200094056
 40
0.1350882594
 40
0.1501924656
 40
0.1804801452
 40
0.2108943177
 40
0.241448122
 40
0.2721514726
 40
0.3030108797
 40
0.334029354
 40
0.3652063934
 40
0.3965380465
 40
0.4280170486
 40
0.4596330217
 40
0.4913727316
 40
0.5232203951
 40
0.5551580282
 40
0.5871658292
 40
0.6192225887
 40
0.6513061205
 40
0.6833937063
 40
0.715462548
 40
0.7474902197
 40
0.779455117
 40
0.8113368874
 40
0.8431168691
 40
0.8747784143
 40
0.9063074703
 40
0.9376922765
 40
0.9689251917
 40
1.0
 40
1.0
 40
1.0
 40
1.0
 10
9.3185616715
 20
7.4298173153
 30
0.0
 10
9.3208925198
 20
7.4320687384
 30
0.0
 10
9.3257374897
 20
7.4363898725
 30
0.0
 10
9.3334999551
 20
7.4422766915
 30
0.0
 10
9.3417174177
 20
7.4475390074
 30
0.0
 10
9.3489022755
 20
7.4513770566
 30
0.0
 10
9.3548277879
 20
7.4541073732
 30
0.0
 10
9.3608757328
 20
7.4566123057
 30
0.0
 10
9.3686349625
 20
7.4593058227
 30
0.0
 10
9.3781970464
 20
7.4618161179
 30
0.0
 10
9.3879677787
 20
7.4635944757
 30
0.0
 10
9.3978930121
 20
7.464631086
 30
0.0
 10
9.4079182243
 20
7.4649204178
 30
0.0
 10
9.4179882536
 20
7.4644609992
 30
0.0
 10
9.4280477528
 20
7.4632554847
 30
0.0
 10
9.4380414495
 20
7.4613106169
 30
0.0
 10
9.4479144573
 20
7.4586371895
 30
0.0
 10
9.4576125699
 20
7.4552499836
 30
0.0
 10
9.4670825556
 20
7.4511676842
 30
0.0
 10
9.4762724447
 20
7.4464127763
 30
0.0
 10
9.4851318108
 20
7.4410114207
 30
0.0
 10
9.4936120438
 20
7.4349933113
 30
0.0
 10
9.5016666131
 20
7.428391512
 30
0.0
 10
9.5092513211
 20
7.4212422784
 30
0.0
 10
9.5163245433
 20
7.41358486
 30
0.0
 10
9.5228474531
 20
7.4054612847
 30
0.0
 10
9.5287842336
 20
7.3969161319
 30
0.0
 10
9.5341022699
 20
7.3879962895
 30
0.0
 10
9.5387723337
 20
7.3787506995
 30
0.0
 10
9.5427687249
 20
7.3692300982
 30
0.0
 10
9.5460694566
 20
7.3594867144
 30
0.0
 10
9.5486562768
 20
7.3495740965
 30
0.0
 10
9.5505149653
 20
7.3395464254
 30
0.0
 10
9.5516350957
 20
7.329459559
 30
0.0
 10
9.5518860039
 20
7.3227134341
 30
0.0
 10
9.5518860039
 20
7.3193502208
 30
0.0
  0
SPLINE
  5
3CF
100
AcDbEntity
  8
0
100
AcDbSpline
 62
7
  6
CONTINUOUS
 70
0
 71
3
 72
40
 73
36
 74
0
 42
0.0000001
 43
0.0000001
 44
0.0000000001
 40
0.0
 40
0.0
 40
0.0
 40
0.0
 40
0.0299422956
 40
0.059908968
 40
0.0899238
 40
0.1200094056
 40
0.1350882594
 40
0.1501924656
 40
0.1804801452
 40
0.2108943177
 40
0.241448122
 40
0.2721514726
 40
0.3030108797
 40
0.334029354
 40
0.3652063934
 40
0.3965380465
 40
0.4280170486
 40
0.4596330217
 40
0.4913727316
 40
0.5232203951
 40
0.5551580282
 40
0.5871658292
 40
0.6192225887
 40
0.6513061205
 40
0.6833937063
 40
0.715462548
 40
0.7474902197
 40
0.779455117
 40
0.8113368874
 40
0.8431168691
 40
0.8747784143
 40
0.9063074703
 40
0.9376922765
 40
0.9689251917
 40
1.0
 40
1.0
 40
1.0
 40
1.0
 10
11.3711542891
 20
7.2874695338
 30
0.0
 10
11.3734851374
 20
7.2897209569
 30
0.0
 10
11.3783301074
 20
7.294042091
 30
0.0
 10
11.3860925727
 20
7.29992891
 30
0.0
 10
11.3943100354
 20
7.3051912259
 30
0.0
 10
11.4014948931
 20
7.3090292751
 30
0.0
 10
11.4074204055
 20
7.3117595917
 30
0.0
 10
11.4134683504
 20
7.3142645242
 30
0.0
 10
11.4212275801
 20
7.3169580412
 30
0.0
 10
11.430789664
 20
7.3194683364
 30
0.0
 10
11.4405603963
 20
7.3212466942
 30
0.0
 10
11.4504856297
 20
7.3222833045
 30
0.0
 10
11.460510842
 20
7.3225726363
 30
0.0
 10
11.4705808712
 20
7.3221132177
 30
0.0
 10
11.4806403704
 20
7.3209077032
 30
0.0
 10
11.4906340671
 20
7.3189628354
 30
0.0
 10
11.5005070749
 20
7.316289408
 30
0.0
 10
11.5102051876
 20
7.3129022021
 30
0.0
 10
11.5196751733
 20
7.3088199027
 30
0.0
 10
11.5288650624
 20
7.3040649948
 30
0.0
 10
11.5377244284
 20
7.2986636392
 30
0.0
 10
11.5462046615
 20
7.2926455298
 30
0.0
 10
11.5542592307
 20
7.2860437304
 30
0.0
 10
11.5618439387
 20
7.2788944969
 30
0.0
 10
11.568917161
 20
7.2712370784
 30
0.0
 10
11.5754400708
 20
7.2631135032
 30
0.0
 10
11.5813768512
 20
7.2545683504
 30
0.0
 10
11.5866948875
 20
7.245648508
 30
0.0
 10
11.5913649513
 20
7.236402918
 30
0.0
 10
11.5953613426
 20
7.2268823167
 30
0.0
 10
11.5986620743
 20
7.2171389329
 30
0.0
 10
11.6012488944
 20
7.207226315
 30
0.0
 10
11.6031075829
 20
7.1971986439
 30
0.0
 10
11.6042277133
 20
7.1871117774
 30
0.0
 10
11.6044786215
 20
7.1803656525
 30
0.0
 10
11.6044786215
 20
7.1770024393
 30
0.0
  0
SPLINE
  5
3D0
100
AcDbEntity
  8
0
100
AcDbSpline
 62
7
  6
CONTINUOUS
 70
0
 71
3
 72
40
 73
36
 74
0
 42
0.0000001
 43
0.0000001
 44
0.0000000001
 40
0.0
 40
0.0
 40
0.0
 40
0.0
 40
0.0299422956
 40
0.059908968
 40
0.0899238
 40
0.1200094056
 40
0.1350882594
 40
0.1501924656
 40
0.1804801452
 40
0.2108943177
 40
0.241448122
 40
0.2721514726
 40
0.3030108797
 40
0.334029354
 40
0.3652063934
 40
0.3965380465
 40
0.4280170486
 40
0.4596330217
 40
0.4913727316
 40
0.5232203951
 40
0.5551580282
 40
0.5871658292
 40
0.6192225887
 40
0.6513061205
 40
0.6833937063
 40
0.715462548
 40
0.7474902197
 40
0.779455117
 40
0.8113368874
 40
0.8431168691
 40
0.8747784143
 40
0.9063074703
 40
0.9376922765
 40
0.9689251917
 40
1.0
 40
1.0
 40
1.0
 40
1.0
 10
9.3185616715
 20
9.1800749073
 30
0.0
 10
9.3208925198
 20
9.1823263304
 30
0.0
 10
9.3257374897
 20
9.1866474645
 30
0.0
 10
9.3334999551
 20
9.1925342836
 30
0.0
 10
9.3417174177
 20
9.1977965994
 30
0.0
 10
9.3489022755
 20
9.2016346487
 30
0.0
 10
9.3548277879
 20
9.2043649652
 30
0.0
 10
9.3608757328
 20
9.2068698977
 30
0.0
 10
9.3686349625
 20
9.2095634147
 30
0.0
 10
9.3781970464
 20
9.2120737099
 30
0.0
 10
9.3879677787
 20
9.2138520678
 30
0.0
 10
9.3978930121
 20
9.2148886781
 30
0.0
 10
9.4079182243
 20
9.2151780098
 30
0.0
 10
9.4179882536
 20
9.2147185912
 30
0.0
 10
9.4280477528
 20
9.2135130767
 30
0.0
 10
9.4380414495
 20
9.2115682089
 30
0.0
 10
9.4479144573
 20
9.2088947815
 30
0.0
 10
9.4576125699
 20
9.2055075756
 30
0.0
 10
9.4670825556
 20
9.2014252762
 30
0.0
 10
9.4762724447
 20
9.1966703683
 30
0.0
 10
9.4851318108
 20
9.1912690127
 30
0.0
 10
9.4936120438
 20
9.1852509033
 30
0.0
 10
9.5016666131
 20
9.178649104
 30
0.0
 10
9.5092513211
 20
9.1714998704
 30
0.0
 10
9.5163245433
 20
9.163842452
 30
0.0
 10
9.5228474531
 20
9.1557188768
 30
0.0
 10
9.5287842336
 20
9.1471737239
 30
0.0
 10
9.5341022699
 20
9.1382538815
 30
0.0
 10
9.5387723337
 20
9.1290082915
 30
0.0
 10
9.5427687249
 20
9.1194876902
 30
0.0
 10
9.5460694566
 20
9.1097443064
 30
0.0
 10
9.5486562768
 20
9.0998316885
 30
0.0
 10
9.5505149653
 20
9.0898040174
 30
0.0
 10
9.5516350957
 20
9.079717151
 30
0.0
 10
9.5518860039
 20
9.0729710261
 30
0.0
 10
9.5518860039
 20
9.0696078128
 30
0.0
  0
SPLINE
  5
3D1
100
AcDbEntity
  8
0
100
AcDbSpline
 62
7
  6
CONTINUOUS
 70
0
 71
3
 72
40
 73
36
 74
0
 42
0.0000001
 43
0.0000001
 44
0.0000000001
 40
0.0
 40
0.0
 40
0.0
 40
0.0
 40
0.0299422956
 40
0.059908968
 40
0.0899238
 40
0.1200094056
 40
0.1350882594
 40
0.1501924656
 40
0.1804801452
 40
0.2108943177
 40
0.241448122
 40
0.2721514726
 40
0.3030108797
 40
0.334029354
 40
0.3652063934
 40
0.3965380465
 40
0.4280170486
 40
0.4596330217
 40
0.4913727316
 40
0.5232203951
 40
0.5551580282
 40
0.5871658292
 40
0.6192225887
 40
0.6513061205
 40
0.6833937063
 40
0.715462548
 40
0.7474902197
 40
0.779455117
 40
0.8113368874
 40
0.8431168691
 40
0.8747784143
 40
0.9063074703
 40
0.9376922765
 40
0.9689251917
 40
1.0
 40
1.0
 40
1.0
 40
1.0
 10
11.3711542891
 20
9.0377271258
 30
0.0
 10
11.3734851374
 20
9.0399785489
 30
0.0
 10
11.3783301074
 20
9.044299683
 30
0.0
 10
11.3860925727
 20
9.050186502
 30
0.0
 10
11.3943100354
 20
9.0554488179
 30
0.0
 10
11.4014948931
 20
9.0592868671
 30
0.0
 10
11.4074204055
 20
9.0620171837
 30
0.0
 10
11.4134683504
 20
9.0645221162
 30
0.0
 10
11.4212275801
 20
9.0672156332
 30
0.0
 10
11.430789664
 20
9.0697259284
 30
0.0
 10
11.4405603963
 20
9.0715042862
 30
0.0
 10
11.4504856297
 20
9.0725408965
 30
0.0
 10
11.460510842
 20
9.0728302283
 30
0.0
 10
11.4705808712
 20
9.0723708097
 30
0.0
 10
11.4806403704
 20
9.0711652952
 30
0.0
 10
11.4906340671
 20
9.0692204274
 30
0.0
 10
11.5005070749
 20
9.066547
 30
0.0
 10
11.5102051876
 20
9.0631597941
 30
0.0
 10
11.5196751733
 20
9.0590774947
 30
0.0
 10
11.5288650624
 20
9.0543225868
 30
0.0
 10
11.5377244284
 20
9.0489212312
 30
0.0
 10
11.5462046615
 20
9.0429031218
 30
0.0
 10
11.5542592307
 20
9.0363013225
 30
0.0
 10
11.5618439387
 20
9.0291520889
 30
0.0
 10
11.568917161
 20
9.0214946705
 30
0.0
 10
11.5754400708
 20
9.0133710953
 30
0.0
 10
11.5813768512
 20
9.0048259424
 30
0.0
 10
11.5866948875
 20
8.9959061
 30
0.0
 10
11.5913649513
 20
8.98666051
 30
0.0
 10
11.5953613426
 20
8.9771399087
 30
0.0
 10
11.5986620743
 20
8.9673965249
 30
0.0
 10
11.6012488944
 20
8.957483907
 30
0.0
 10
11.6031075829
 20
8.9474562359
 30
0.0
 10
11.6042277133
 20
8.9373693695
 30
0.0
 10
11.6044786215
 20
8.9306232446
 30
0.0
 10
11.6044786215
 20
8.9272600313
 30
0.0
  0
SPLINE
  5
3D2
100
AcDbEntity
  8
0
100
AcDbSpline
 62
7
  6
CONTINUOUS
 70
0
 71
3
 72
15
 73
11
 74
0
 42
0.0000001
 43
0.0000001
 44
0.0000000001
 40
0.0
 40
0.0
 40
0.0
 40
0.0
 40
0.1226258953
 40
0.2459003082
 40
0.3698620734
 40
0.4945309656
 40
0.6199084911
 40
0.7459728165
 40
0.8726916764
 40
1.0
 40
1.0
 40
1.0
 40
1.0
 10
11.8693630717
 20
7.3229586407
 30
0.0
 10
11.8713058703
 20
7.3234453691
 30
0.0
 10
11.8752447405
 20
7.3242579886
 30
0.0
 10
11.8812488566
 20
7.3249816897
 30
0.0
 10
11.8873260428
 20
7.3252062202
 30
0.0
 10
11.8934352113
 20
7.3249275909
 30
0.0
 10
11.8995350958
 20
7.3241456553
 30
0.0
 10
11.9055841447
 20
7.3228641417
 30
0.0
 10
11.9115401118
 20
7.3210907776
 30
0.0
 10
11.9154141695
 20
7.3195911201
 30
0.0
 10
11.9173220689
 20
7.3187643883
 30
0.0
  0
SPLINE
  5
3D3
100
AcDbEntity
  8
0
100
AcDbSpline
 62
7
  6
CONTINUOUS
 70
0
 71
3
 72
42
 73
38
 74
0
 42
0.0000001
 43
0.0000001
 44
0.0000000001
 40
0.0
 40
0.0
 40
0.0
 40
0.0
 40
0.0299419634
 40
0.0449235299
 40
0.0599142017
 40
0.0899287029
 40
0.1200139772
 40
0.1350926626
 40
0.1501967046
 40
0.1804840506
 40
0.2108978877
 40
0.2414513551
 40
0.2721543675
 40
0.3030134354
 40
0.3340315696
 40
0.3652082675
 40
0.3965395775
 40
0.4280182343
 40
0.4596338596
 40
0.4913732188
 40
0.5232205284
 40
0.5551578047
 40
0.5871652463
 40
0.6192216448
 40
0.6513048151
 40
0.6833920402
 40
0.7154605222
 40
0.747487836
 40
0.7794523759
 40
0.8113337934
 40
0.8431134117
 40
0.8747746318
 40
0.9063032512
 40
0.9376879208
 40
0.9533258
 40
0.9689252634
 40
1.0
 40
1.0
 40
1.0
 40
1.0
 10
10.2898379665
 20
8.9239152441
 30
0.0
 10
10.2934711057
 20
8.9274245657
 30
0.0
 10
10.2991349731
 20
8.9324758988
 30
0.0
 10
10.3070670919
 20
8.9387435032
 30
0.0
 10
10.3152518089
 20
8.944699222
 30
0.0
 10
10.3259315186
 20
8.9515383166
 30
0.0
 10
10.3371304824
 20
8.9575205452
 30
0.0
 10
10.3463667252
 20
8.9617763085
 30
0.0
 10
10.3557937616
 20
8.9656807521
 30
0.0
 10
10.3678882219
 20
8.9698791323
 30
0.0
 10
10.3827928109
 20
8.9737919174
 30
0.0
 10
10.3980226204
 20
8.9765638245
 30
0.0
 10
10.413493249
 20
8.9781795612
 30
0.0
 10
10.4291197131
 20
8.9786305049
 30
0.0
 10
10.4448160316
 20
8.9779143606
 30
0.0
 10
10.4604959339
 20
8.9760352651
 30
0.0
 10
10.476073266
 20
8.973003728
 30
0.0
 10
10.4914624751
 20
8.9688365739
 30
0.0
 10
10.5065790691
 20
8.9635568426
 30
0.0
 10
10.5213400748
 20
8.9571936598
 30
0.0
 10
10.5356644868
 20
8.949782074
 30
0.0
 10
10.5494737054
 20
8.9413628641
 30
0.0
 10
10.562691963
 20
8.9319823153
 30
0.0
 10
10.5752467335
 20
8.9216919661
 30
0.0
 10
10.5870691266
 20
8.9105483279
 30
0.0
 10
10.5980942606
 20
8.898612577
 30
0.0
 10
10.6082616154
 20
8.8859502221
 30
0.0
 10
10.6175153611
 20
8.8726307477
 30
0.0
 10
10.6258046619
 20
8.8587272412
 30
0.0
 10
10.6330839532
 20
8.8443159802
 30
0.0
 10
10.6393131886
 20
8.829476079
 30
0.0
 10
10.6444580717
 20
8.8142888397
 30
0.0
 10
10.6484901806
 20
8.7988381262
 30
0.0
 10
10.6509075195
 20
8.785796049
 30
0.0
 10
10.6522635749
 20
8.7753168981
 30
0.0
 10
10.6532313584
 20
8.7648477749
 30
0.0
 10
10.6535243939
 20
8.7569698302
 30
0.0
 10
10.6535243939
 20
8.7517274889
 30
0.0
  0
SPLINE
  5
3D4
100
AcDbEntity
  8
0
100
AcDbSpline
 62
7
  6
CONTINUOUS
 70
0
 71
3
 72
23
 73
19
 74
0
 42
0.0000001
 43
0.0000001
 44
0.0000000001
 40
0.0
 40
0.0
 40
0.0
 40
0.0
 40
0.0626378704
 40
0.125068022
 40
0.1873169114
 40
0.2494158143
 40
0.3114011548
 40
0.3733149366
 40
0.4352045
 40
0.4971218279
 40
0.5591224305
 40
0.6212641093
 40
0.6836049957
 40
0.7462007166
 40
0.8091020871
 40
0.8723502226
 40
0.9359779986
 40
1.0
 40
1.0
 40
1.0
 40
1.0
 10
11.6995943461
 20
8.5285292326
 30
0.0
 10
11.7002209001
 20
8.5303771161
 30
0.0
 10
11.7015964354
 20
8.5340259684
 30
0.0
 10
11.7040281267
 20
8.539335181
 30
0.0
 10
11.7068215984
 20
8.544444746
 30
0.0
 10
11.7099720057
 20
8.5493260661
 30
0.0
 10
11.7134729037
 20
8.5539497704
 30
0.0
 10
11.7173156497
 20
8.5582852504
 30
0.0
 10
11.7214889614
 20
8.562300974
 30
0.0
 10
11.7259783653
 20
8.5659647514
 30
0.0
 10
11.7307656418
 20
8.5692442573
 30
0.0
 10
11.7358283604
 20
8.5721076943
 30
0.0
 10
11.7411395055
 20
8.5745246412
 30
0.0
 10
11.746667295
 20
8.5764671301
 30
0.0
 10
11.7523751527
 20
8.5779106947
 30
0.0
 10
11.7582223956
 20
8.5788357176
 30
0.0
 10
11.7641638475
 20
8.5792282616
 30
0.0
 10
11.7681453916
 20
8.5791304256
 30
0.0
 10
11.7701349456
 20
8.5789924496
 30
0.0
  0
SPLINE
  5
3D5
100
AcDbEntity
  8
0
100
AcDbSpline
 62
7
  6
CONTINUOUS
 70
0
 71
3
 72
41
 73
37
 74
0
 42
0.0000001
 43
0.0000001
 44
0.0000000001
 40
0.0
 40
0.0
 40
0.0
 40
0.0
 40
0.0305068382
 40
0.0608690141
 40
0.0911179896
 40
0.1212907936
 40
0.151426902
 40
0.1815669309
 40
0.2117508352
 40
0.2420163359
 40
0.2723975006
 40
0.302923575
 40
0.3336180852
 40
0.3644982202
 40
0.3955744812
 40
0.426850572
 40
0.4583234981
 40
0.4899838429
 40
0.5218161913
 40
0.5537996776
 40
0.5859086408
 40
0.6181133765
 40
0.6503809798
 40
0.6826762752
 40
0.7149628301
 40
0.7472040467
 40
0.7793643184
 40
0.8114102325
 40
0.8433117792
 40
0.8592045002
 40
0.8750520695
 40
0.9065943187
 40
0.9379340932
 40
0.9535299812
 40
0.9690745322
 40
1.0
 40
1.0
 40
1.0
 40
1.0
 10
8.9053902537
 20
9.0457675541
 30
0.0
 10
8.9060876604
 20
9.047997262
 30
0.0
 10
8.9077033361
 20
9.0523796535
 30
0.0
 10
8.9107724137
 20
9.0586591225
 30
0.0
 10
8.9144519288
 20
9.0645723464
 30
0.0
 10
8.9187058297
 20
9.0700647179
 30
0.0
 10
8.9234931818
 20
9.075087394
 30
0.0
 10
8.9287681985
 20
9.0795963189
 30
0.0
 10
8.9344810845
 20
9.083552914
 30
0.0
 10
8.940578659
 20
9.0869241903
 30
0.0
 10
8.947005026
 20
9.0896828696
 30
0.0
 10
8.9537021856
 20
9.0918073897
 30
0.0
 10
8.9606105988
 20
9.093281849
 30
0.0
 10
8.9676696918
 20
9.0940959061
 30
0.0
 10
8.974818304
 20
9.0942446547
 30
0.0
 10
8.9819950853
 20
9.0937284912
 30
0.0
 10
8.9891388531
 20
9.0925529875
 30
0.0
 10
8.9961889202
 20
9.0907287758
 30
0.0
 10
9.0030854086
 20
9.0882714502
 30
0.0
 10
9.0097695604
 20
9.0852014843
 30
0.0
 10
9.0161840592
 20
9.0815441594
 30
0.0
 10
9.0222733719
 20
9.077329498
 30
0.0
 10
9.0279841202
 20
9.072592189
 30
0.0
 10
9.0332654858
 20
9.0673714994
 30
0.0
 10
9.0380696559
 20
9.0617111367
 30
0.0
 10
9.0423522883
 20
9.0556591217
 30
0.0
 10
9.0460730639
 20
9.049267386
 30
0.0
 10
9.0491960344
 20
9.0425920841
 30
0.0
 10
9.0512778042
 20
9.0368333366
 30
0.0
 10
9.0526148657
 20
9.0321450341
 30
0.0
 10
9.0537272201
 20
9.0274266553
 30
0.0
 10
9.054699042
 20
9.021466799
 30
0.0
 10
9.055101123
 20
9.0154606418
 30
0.0
 10
9.0550751201
 20
9.0106742158
 30
0.0
 10
9.0548191423
 20
9.005926771
 30
0.0
 10
9.0543674454
 20
9.002389247
 30
0.0
 10
9.0539512614
 20
9.0000578127
 30
0.0
  0
SPLINE
  5
3D6
100
AcDbEntity
  8
0
100
AcDbSpline
 62
7
  6
CONTINUOUS
 70
0
 71
3
 72
23
 73
19
 74
0
 42
0.0000001
 43
0.0000001
 44
0.0000000001
 40
0.0
 40
0.0
 40
0.0
 40
0.0
 40
0.0626378704
 40
0.125068022
 40
0.1873169114
 40
0.2494158143
 40
0.3114011548
 40
0.3733149366
 40
0.4352045
 40
0.4971218279
 40
0.5591224305
 40
0.6212641093
 40
0.6836049957
 40
0.7462007166
 40
0.8091020871
 40
0.8723502226
 40
0.9359779986
 40
1.0
 40
1.0
 40
1.0
 40
1.0
 10
9.0432980512
 20
8.7127440064
 30
0.0
 10
9.0439246053
 20
8.7145918899
 30
0.0
 10
9.0453001406
 20
8.7182407421
 30
0.0
 10
9.0477318318
 20
8.7235499547
 30
0.0
 10
9.0505253036
 20
8.7286595197
 30
0.0
 10
9.0536757108
 20
8.7335408399
 30
0.0
 10
9.0571766089
 20
8.7381645441
 30
0.0
 10
9.0610193549
 20
8.7425000241
 30
0.0
 10
9.0651926665
 20
8.7465157478
 30
0.0
 10
9.0696820705
 20
8.7501795252
 30
0.0
 10
9.074469347
 20
8.753459031
 30
0.0
 10
9.0795320655
 20
8.756322468
 30
0.0
 10
9.0848432107
 20
8.758739415
 30
0.0
 10
9.0903710002
 20
8.7606819039
 30
0.0
 10
9.0960788578
 20
8.7621254684
 30
0.0
 10
9.1019261008
 20
8.7630504913
 30
0.0
 10
9.1078675527
 20
8.7634430354
 30
0.0
 10
9.1118490968
 20
8.7633451993
 30
0.0
 10
9.1138386507
 20
8.7632072233
 30
0.0
  0
SPLINE
  5
3D7
100
AcDbEntity
  8
0
100
AcDbSpline
 62
7
  6
CONTINUOUS
 70
0
 71
3
 72
23
 73
19
 74
0
 42
0.0000001
 43
0.0000001
 44
0.0000000001
 40
0.0
 40
0.0
 40
0.0
 40
0.0
 40
0.061394249
 40
0.1228994926
 40
0.1845331703
 40
0.2463114417
 40
0.3082487361
 40
0.3703572005
 40
0.4326459417
 40
0.4951200893
 40
0.5577796048
 40
0.620617841
 40
0.6836204848
 40
0.7467647
 40
0.8100183634
 40
0.8733409047
 40
0.9366846461
 40
1.0
 40
1.0
 40
1.0
 40
1.0
 10
11.3224419839
 20
7.8935067305
 30
0.0
 10
11.3167539934
 20
7.8928762872
 30
0.0
 10
11.305409212
 20
7.8911998096
 30
0.0
 10
11.2886082159
 20
7.8874425767
 30
0.0
 10
11.2720968451
 20
7.882437613
 30
0.0
 10
11.2559731056
 20
7.8761840579
 30
0.0
 10
11.2403400429
 20
7.8686837644
 30
0.0
 10
11.2253087347
 20
7.8599433436
 30
0.0
 10
11.2109985756
 20
7.8499763858
 30
0.0
 10
11.1975377316
 20
7.8388063374
 30
0.0
 10
11.1850626892
 20
7.8264699116
 30
0.0
 10
11.1737167119
 20
7.8130209625
 30
0.0
 10
11.1636468783
 20
7.7985344475
 30
0.0
 10
11.154999528
 20
7.7831098858
 30
0.0
 10
11.1479136124
 20
7.7668742893
 30
0.0
 10
11.1425127958
 20
7.7499814734
 30
0.0
 10
11.1388972686
 20
7.7326138151
 30
0.0
 10
11.1377211278
 20
7.7208397195
 30
0.0
 10
11.137447831
 20
7.7149441539
 30
0.0
  0
SPLINE
  5
3D8
100
AcDbEntity
  8
0
100
AcDbSpline
 62
7
  6
CONTINUOUS
 70
0
 71
3
 72
15
 73
11
 74
0
 42
0.0000001
 43
0.0000001
 44
0.0000000001
 40
0.0
 40
0.0
 40
0.0
 40
0.0
 40
0.1232692184
 40
0.2468892213
 40
0.3709474064
 40
0.4955201282
 40
0.6206705802
 40
0.7464481347
 40
0.8728848372
 40
1.0
 40
1.0
 40
1.0
 40
1.0
 10
10.7131068391
 20
8.3472999903
 30
0.0
 10
10.7175337055
 20
8.3501305824
 30
0.0
 10
10.7266371697
 20
8.355438309
 30
0.0
 10
10.7409162648
 20
8.3622685625
 30
0.0
 10
10.7557550711
 20
8.3679383158
 30
0.0
 10
10.7710645368
 20
8.3724125162
 30
0.0
 10
10.7867540381
 20
8.3756643272
 30
0.0
 10
10.8027305348
 20
8.3776739494
 30
0.0
 10
10.8188978084
 20
8.3784294264
 30
0.0
 10
10.8297131998
 20
8.3780946082
 30
0.0
 10
10.8351186183
 20
8.3777197412
 30
0.0
  0
SPLINE
  5
3D9
100
AcDbEntity
  8
0
100
AcDbSpline
 62
7
  6
CONTINUOUS
 70
0
 71
3
 72
37
 73
33
 74
0
 42
0.0000001
 43
0.0000001
 44
0.0000000001
 40
0.0
 40
0.0
 40
0.0
 40
0.0
 40
0.0418983892
 40
0.0832114181
 40
0.1238850166
 40
0.1638714083
 40
0.2031315207
 40
0.2416368133
 40
0.2793703203
 40
0.3163265932
 40
0.3525109843
 40
0.3879381465
 40
0.4226298663
 40
0.4566126264
 40
0.4899151972
 40
0.522566696
 40
0.5545945566
 40
0.5860224108
 40
0.616868958
 40
0.6471475843
 40
0.7059926465
 40
0.7625435693
 40
0.7899192283
 40
0.8166429352
 40
0.8426701293
 40
0.8679461804
 40
0.8924088561
 40
0.9159875485
 40
0.9386076361
 40
0.9601934835
 40
0.9806754352
 40
1.0
 40
1.0
 40
1.0
 40
1.0
 10
9.9914258482
 20
8.4280172324
 30
0.0
 10
9.9890813531
 20
8.4248242756
 30
0.0
 10
9.9846420013
 20
8.4183201241
 30
0.0
 10
9.9787318375
 20
8.4081970579
 30
0.0
 10
9.9736396601
 20
8.3978391023
 30
0.0
 10
9.9693839725
 20
8.3873194889
 30
0.0
 10
9.9659728644
 20
8.3767115706
 30
0.0
 10
9.9634042645
 20
8.366087883
 30
0.0
 10
9.9616658981
 20
8.3555180462
 30
0.0
 10
9.9607360074
 20
8.3450671622
 30
0.0
 10
9.9605844883
 20
8.3347944675
 30
0.0
 10
9.9611743662
 20
8.3247524392
 30
0.0
 10
9.9624633974
 20
8.3149863795
 30
0.0
 10
9.9644056712
 20
8.3055344398
 30
0.0
 10
9.966953057
 20
8.2964279594
 30
0.0
 10
9.9700563605
 20
8.2876920408
 30
0.0
 10
9.9736664043
 20
8.2793463168
 30
0.0
 10
9.9777346244
 20
8.2714059633
 30
0.0
 10
9.9822138257
 20
8.263881987
 30
0.0
 10
9.9886099901
 20
8.2545077269
 30
0.0
 10
9.9973786544
 20
8.2438430666
 30
0.0
 10
10.0071104393
 20
8.2344454993
 30
0.0
 10
10.0152233275
 20
8.2278337431
 30
0.0
 10
10.0213538192
 20
8.2233765744
 30
0.0
 10
10.0275537557
 20
8.2193720373
 30
0.0
 10
10.0337814404
 20
8.2158248543
 30
0.0
 10
10.0399936999
 20
8.2127408919
 30
0.0
 10
10.046146312
 20
8.2101272385
 30
0.0
 10
10.0521934766
 20
8.2079920355
 30
0.0
 10
10.0580885712
 20
8.2063445319
 30
0.0
 10
10.0637833344
 20
8.2051948935
 30
0.0
 10
10.0675268204
 20
8.2047544117
 30
0.0
 10
10.0693495234
 20
8.2046286976
 30
0.0
  0
SPLINE
  5
3DA
100
AcDbEntity
  8
0
100
AcDbSpline
 62
7
  6
CONTINUOUS
 70
0
 71
3
 72
15
 73
11
 74
0
 42
0.0000001
 43
0.0000001
 44
0.0000000001
 40
0.0
 40
0.0
 40
0.0
 40
0.0
 40
0.1232692184
 40
0.2468892213
 40
0.3709474064
 40
0.4955201282
 40
0.6206705802
 40
0.7464481347
 40
0.8728848372
 40
1.0
 40
1.0
 40
1.0
 40
1.0
 10
9.9278091308
 20
8.4017605714
 30
0.0
 10
9.9322359972
 20
8.4045911635
 30
0.0
 10
9.9413394614
 20
8.4098988901
 30
0.0
 10
9.9556185565
 20
8.4167291436
 30
0.0
 10
9.9704573628
 20
8.4223988968
 30
0.0
 10
9.9857668285
 20
8.4268730973
 30
0.0
 10
10.0014563298
 20
8.4301249082
 30
0.0
 10
10.0174328265
 20
8.4321345305
 30
0.0
 10
10.0336001001
 20
8.4328900075
 30
0.0
 10
10.0444154915
 20
8.4325551892
 30
0.0
 10
10.04982091
 20
8.4321803222
 30
0.0
  0
SPLINE
  5
3DB
100
AcDbEntity
  8
0
100
AcDbSpline
 62
7
  6
CONTINUOUS
 70
0
 71
3
 72
29
 73
25
 74
0
 42
0.0000001
 43
0.0000001
 44
0.0000000001
 40
0.0
 40
0.0
 40
0.0
 40
0.0
 40
0.061556135
 40
0.1231854965
 40
0.1849066521
 40
0.246737207
 40
0.3086937238
 40
0.3707912513
 40
0.4330426613
 40
0.4954576522
 40
0.5580417199
 40
0.6207949523
 40
0.6522426427
 40
0.6837297462
 40
0.715253955
 40
0.7468125385
 40
0.778402172
 40
0.8100188025
 40
0.8416578377
 40
0.8733143273
 40
0.9049828674
 40
0.9366568121
 40
0.9683324522
 40
1.0
 40
1.0
 40
1.0
 40
1.0
 10
9.5373408932
 20
8.0208202877
 30
0.0
 10
9.5313083315
 20
8.0209338618
 30
0.0
 10
9.5192223596
 20
8.0207036707
 30
0.0
 10
9.5011635774
 20
8.0189767313
 30
0.0
 10
9.4832636619
 20
8.0158573623
 30
0.0
 10
9.465632104
 20
8.0113352898
 30
0.0
 10
9.44838383
 20
8.005402313
 30
0.0
 10
9.4316430434
 20
7.9980538914
 30
0.0
 10
9.4155441678
 20
7.9892917611
 30
0.0
 10
9.4002326671
 20
7.9791267661
 30
0.0
 10
9.3858664189
 20
7.9675843925
 30
0.0
 10
9.3748260813
 20
7.9568570034
 30
0.0
 10
9.3666393266
 20
7.9476452956
 30
0.0
 10
9.3608378507
 20
7.9404243732
 30
0.0
 10
9.3554028335
 20
7.9329104097
 30
0.0
 10
9.3503560308
 20
7.9251181726
 30
0.0
 10
9.345718931
 20
7.9170647887
 30
0.0
 10
9.3415119762
 20
7.9087695932
 30
0.0
 10
9.3377543977
 20
7.9002541124
 30
0.0
 10
9.3344638681
 20
7.8915419346
 30
0.0
 10
9.3316561546
 20
7.8826587288
 30
0.0
 10
9.3293445176
 20
7.8736316178
 30
0.0
 10
9.3275399348
 20
7.8644899927
 30
0.0
 10
9.3266798517
 20
7.8583371657
 30
0.0
 10
9.3263366843
 20
7.855252193
 30
0.0
  0
SPLINE
  5
3DC
100
AcDbEntity
  8
0
100
AcDbSpline
 62
7
  6
CONTINUOUS
 70
0
 71
3
 72
16
 73
12
 74
0
 42
0.0000001
 43
0.0000001
 44
0.0000000001
 40
0.0
 40
0.0
 40
0.0
 40
0.0
 40
0.1492584419
 40
0.2896950245
 40
0.4220074249
 40
0.4854090867
 40
0.5471333479
 40
0.6660891595
 40
0.780204822
 40
0.890962882
 40
1.0
 40
1.0
 40
1.0
 40
1.0
 10
13.1985646629
 20
6.8988625874
 30
0.0
 10
13.1975404371
 20
6.8979093626
 30
0.0
 10
13.1954932403
 20
6.8961211744
 30
0.0
 10
13.1923276905
 20
6.8937424544
 30
0.0
 10
13.1896561714
 20
6.8920627471
 30
0.0
 10
13.1875263313
 20
6.8909261237
 30
0.0
 10
13.1854563107
 20
6.88994956
 30
0.0
 10
13.1828681115
 20
6.8889645338
 30
0.0
 10
13.1797371198
 20
6.8881679653
 30
0.0
 10
13.1766238146
 20
6.8877741474
 30
0.0
 10
13.174556521
 20
6.8877814438
 30
0.0
 10
13.1735368414
 20
6.8878521676
 30
0.0
  0
SPLINE
  5
3DD
100
AcDbEntity
  8
0
100
AcDbSpline
 62
7
  6
CONTINUOUS
 70
0
 71
3
 72
30
 73
26
 74
0
 42
0.0000001
 43
0.0000001
 44
0.0000000001
 40
0.0
 40
0.0
 40
0.0
 40
0.0
 40
0.0162145972
 40
0.03342788
 40
0.0516724759
 40
0.0709718344
 40
0.0913415609
 40
0.1127909188
 40
0.1353233928
 40
0.1589380145
 40
0.1836293549
 40
0.209388774
 40
0.2362040358
 40
0.264060506
 40
0.2929405622
 40
0.3228247062
 40
0.3855135462
 40
0.4519326276
 40
0.5218585144
 40
0.5950448892
 40
0.6712254083
 40
0.7501165047
 40
0.8314189031
 40
0.9148215097
 40
1.0
 40
1.0
 40
1.0
 40
1.0
 10
13.8325825517
 20
9.6985087349
 30
0.0
 10
13.8334386364
 20
9.697456123
 30
0.0
 10
13.8351314506
 20
9.6952267567
 30
0.0
 10
13.837545621
 20
9.6916373596
 30
0.0
 10
13.8399067184
 20
9.6877085241
 30
0.0
 10
13.8422123054
 20
9.6834444105
 30
0.0
 10
13.8444601855
 20
9.6788492924
 30
0.0
 10
13.8466480239
 20
9.6739278622
 30
0.0
 10
13.8487736442
 20
9.6686851854
 30
0.0
 10
13.8508347653
 20
9.6631266607
 30
0.0
 10
13.8528293184
 20
9.6572580673
 30
0.0
 10
13.854755118
 20
9.651085499
 30
0.0
 10
13.8566102303
 20
9.6446154074
 30
0.0
 10
13.8583925934
 20
9.6378545519
 30
0.0
 10
13.8601004445
 20
9.6308100094
 30
0.0
 10
13.8623109583
 20
9.620890009
 30
0.0
 10
13.8648610598
 20
9.6078300334
 30
0.0
 10
13.8675509812
 20
9.5913919129
 30
0.0
 10
13.8699057679
 20
9.5740157768
 30
0.0
 10
13.8719152981
 20
9.5557746507
 30
0.0
 10
13.8735708834
 20
9.5367450528
 30
0.0
 10
13.8748653622
 20
9.5170070109
 30
0.0
 10
13.8757931489
 20
9.4966434709
 30
0.0
 10
13.8763501895
 20
9.4757402759
 30
0.0
 10
13.8764716471
 20
9.4616335837
 30
0.0
 10
13.8764716471
 20
9.4545061092
 30
0.0
  0
SPLINE
  5
3DE
100
AcDbEntity
  8
0
100
AcDbSpline
 62
7
  6
CONTINUOUS
 70
0
 71
3
 72
16
 73
12
 74
0
 42
0.0000001
 43
0.0000001
 44
0.0000000001
 40
0.0
 40
0.0
 40
0.0
 40
0.0
 40
0.1090377933
 40
0.2197964262
 40
0.3339122029
 40
0.4528687424
 40
0.5145945014
 40
0.5779976197
 40
0.7103106686
 40
0.8507398971
 40
1.0
 40
1.0
 40
1.0
 40
1.0
 10
13.7834382912
 20
9.7446842403
 30
0.0
 10
13.7844579769
 20
9.7446135161
 30
0.0
 10
13.7865065001
 20
9.7443353986
 30
0.0
 10
13.7895356519
 20
9.743515587
 30
0.0
 10
13.7925267274
 20
9.7422944529
 30
0.0
 10
13.794954206
 20
9.7409615871
 30
0.0
 10
13.7968696114
 20
9.7397085747
 30
0.0
 10
13.7988221985
 20
9.7382888231
 30
0.0
 10
13.8012362331
 20
9.7362564463
 30
0.0
 10
13.8040431186
 20
9.7334635951
 30
0.0
 10
13.8058238472
 20
9.7314099751
 30
0.0
 10
13.8067066845
 20
9.730324472
 30
0.0
  0
SPLINE
  5
3DF
100
AcDbEntity
  8
0
100
AcDbSpline
 62
7
  6
CONTINUOUS
 70
0
 71
3
 72
23
 73
19
 74
0
 42
0.0000001
 43
0.0000001
 44
0.0000000001
 40
0.0
 40
0.0
 40
0.0
 40
0.0
 40
0.0799654369
 40
0.1583392093
 40
0.2349374391
 40
0.3095821447
 40
0.3821019701
 40
0.4523328936
 40
0.5201190398
 40
0.5853136402
 40
0.6477801521
 40
0.707393335
 40
0.7640406171
 40
0.8176238168
 40
0.8680614418
 40
0.9152913624
 40
0.9592745978
 40
1.0
 40
1.0
 40
1.0
 40
1.0
 10
10.0648802828
 20
8.4305350729
 30
0.0
 10
10.0640086324
 20
8.4251714825
 30
0.0
 10
10.0622075327
 20
8.4145630941
 30
0.0
 10
10.0593022812
 20
8.3988641799
 30
0.0
 10
10.0562259126
 20
8.3835664549
 30
0.0
 10
10.0529863917
 20
8.3687093007
 30
0.0
 10
10.0495921029
 20
8.3543308957
 30
0.0
 10
10.0460518313
 20
8.3404681879
 30
0.0
 10
10.0423747385
 20
8.3271567813
 30
0.0
 10
10.0385703407
 20
8.3144308345
 30
0.0
 10
10.0346484999
 20
8.3023229569
 30
0.0
 10
10.0306193728
 20
8.2908641225
 30
0.0
 10
10.0264933884
 20
8.2800835898
 30
0.0
 10
10.0222811919
 20
8.2700087849
 30
0.0
 10
10.0179936565
 20
8.2606652563
 30
0.0
 10
10.0136416902
 20
8.252076357
 30
0.0
 10
10.0092365565
 20
8.2442638908
 30
0.0
 10
10.0061530498
 20
8.2393988648
 30
0.0
 10
10.0045987845
 20
8.2371091012
 30
0.0
  0
SPLINE
  5
3E0
100
AcDbEntity
  8
0
100
AcDbSpline
 62
7
  6
CONTINUOUS
 70
0
 71
3
 72
41
 73
37
 74
0
 42
0.0000001
 43
0.0000001
 44
0.0000000001
 40
0.0
 40
0.0
 40
0.0
 40
0.0
 40
0.0063160079
 40
0.012670914
 40
0.0191028693
 40
0.0256485311
 40
0.0323425104
 40
0.0392169797
 40
0.0536150169
 40
0.0611958751
 40
0.0690577399
 40
0.0856909608
 40
0.1036391145
 40
0.1229890565
 40
0.143801821
 40
0.1661176928
 40
0.1899604125
 40
0.2153403247
 40
0.2422566544
 40
0.2706994287
 40
0.3006509523
 40
0.3320868137
 40
0.3649767025
 40
0.3992852168
 40
0.4349723983
 40
0.4719940776
 40
0.5103023547
 40
0.5498459695
 40
0.5905705077
 40
0.6324186414
 40
0.6753304665
 40
0.7192436716
 40
0.7640936164
 40
0.8098138291
 40
0.9035871702
 40
1.0
 40
1.0
 40
1.0
 40
1.0
 10
13.648880787
 20
7.8260116183
 30
0.0
 10
13.6479680838
 20
7.8260749091
 30
0.0
 10
13.6461413699
 20
7.8262765881
 30
0.0
 10
13.6434217592
 20
7.8268022352
 30
0.0
 10
13.6407203358
 20
7.827551086
 30
0.0
 10
13.6380386735
 20
7.8285224914
 30
0.0
 10
13.635377804
 20
7.8297158633
 30
0.0
 10
13.6318050047
 20
7.8316310738
 30
0.0
 10
13.6283292073
 20
7.8339755104
 30
0.0
 10
13.6249654972
 20
7.8366924471
 30
0.0
 10
13.6215130742
 20
7.8398051916
 30
0.0
 10
13.6172698387
 20
7.8442679067
 30
0.0
 10
13.6123898634
 20
7.8503784342
 30
0.0
 10
13.607634624
 20
7.8573322815
 30
0.0
 10
13.60301073
 20
7.8651182752
 30
0.0
 10
13.5985246017
 20
7.8737245689
 30
0.0
 10
13.5941830485
 20
7.8831377207
 30
0.0
 10
13.5899928849
 20
7.8933429032
 30
0.0
 10
13.5859608225
 20
7.9043238187
 30
0.0
 10
13.5820934197
 20
7.9160627878
 30
0.0
 10
13.5783970493
 20
7.9285408008
 30
0.0
 10
13.57487783
 20
7.9417375486
 30
0.0
 10
13.5715415826
 20
7.9556314666
 30
0.0
 10
13.568393858
 20
7.9701998046
 30
0.0
 10
13.5654399135
 20
7.985418667
 30
0.0
 10
13.5626846556
 20
8.0012630462
 30
0.0
 10
13.5601326694
 20
8.0177068808
 30
0.0
 10
13.5577882198
 20
8.034723111
 30
0.0
 10
13.5556552172
 20
8.0522837139
 30
0.0
 10
13.5537372019
 20
8.0703597519
 30
0.0
 10
13.5520373724
 20
8.0889214362
 30
0.0
 10
13.5505585853
 20
8.107938157
 30
0.0
 10
13.5493032584
 20
8.1273785891
 30
0.0
 10
13.5479187138
 20
8.154046051
 30
0.0
 10
13.5467734964
 20
8.1882020396
 30
0.0
 10
13.5464776154
 20
8.2157521306
 30
0.0
 10
13.5464776154
 20
8.2297178539
 30
0.0
  0
SPLINE
  5
3E1
100
AcDbEntity
  8
0
100
AcDbSpline
 62
7
  6
CONTINUOUS
 70
0
 71
3
 72
14
 73
10
 74
0
 42
0.0000001
 43
0.0000001
 44
0.0000000001
 40
0.0
 40
0.0
 40
0.0
 40
0.0
 40
0.2670393992
 40
0.3949824327
 40
0.5198347465
 40
0.6421520886
 40
0.7625301657
 40
0.8815961347
 40
1.0
 40
1.0
 40
1.0
 40
1.0
 10
13.2427425677
 20
7.7945551766
 30
0.0
 10
13.2443336569
 20
7.7934017321
 30
0.0
 10
13.2467857437
 20
7.7918229883
 30
0.0
 10
13.250191602
 20
7.7900760805
 30
0.0
 10
13.2527298861
 20
7.7889849265
 30
0.0
 10
13.255286731
 20
7.7880953053
 30
0.0
 10
13.2578612635
 20
7.787407573
 30
0.0
 10
13.260452115
 20
7.7869222123
 30
0.0
 10
13.2621915718
 20
7.7867335928
 30
0.0
 10
13.2630608422
 20
7.7866733126
 30
0.0
  0
SPLINE
  5
3E2
100
AcDbEntity
  8
0
100
AcDbSpline
 62
7
  6
CONTINUOUS
 70
0
 71
3
 72
33
 73
29
 74
0
 42
0.0000001
 43
0.0000001
 44
0.0000000001
 40
0.0
 40
0.0
 40
0.0
 40
0.0
 40
0.0162144692
 40
0.0334275894
 40
0.0516720786
 40
0.0709712473
 40
0.091340872
 40
0.1127900333
 40
0.1353223936
 40
0.1589368226
 40
0.183628034
 40
0.2093872636
 40
0.2362023918
 40
0.2640586644
 40
0.2929385944
 40
0.3228225234
 40
0.3536886216
 40
0.3855131152
 40
0.4182705339
 40
0.4519336172
 40
0.486473739
 40
0.521860682
 40
0.5950467061
 40
0.6712269155
 40
0.7501175304
 40
0.8314199122
 40
0.9148213441
 40
1.0
 40
1.0
 40
1.0
 40
1.0
 10
13.2554294384
 20
7.7755366065
 30
0.0
 10
13.2540084357
 20
7.7772838142
 30
0.0
 10
13.2511985538
 20
7.7809842835
 30
0.0
 10
13.2471912788
 20
7.786942233
 30
0.0
 10
13.2432721488
 20
7.7934636355
 30
0.0
 10
13.2394450925
 20
7.8005415367
 30
0.0
 10
13.2357138981
 20
7.8081688961
 30
0.0
 10
13.2320822919
 20
7.8163378759
 30
0.0
 10
13.2285540286
 20
7.8250401072
 30
0.0
 10
13.2251327673
 20
7.8342665995
 30
0.0
 10
13.2218220525
 20
7.8440077808
 30
0.0
 10
13.2186254151
 20
7.854253522
 30
0.0
 10
13.215546157
 20
7.8649931232
 30
0.0
 10
13.2125875979
 20
7.8762153617
 30
0.0
 10
13.2097528128
 20
7.8879084781
 30
0.0
 10
13.2070448379
 20
7.9000602116
 30
0.0
 10
13.2044665345
 20
7.9126578047
 30
0.0
 10
13.2020206198
 20
7.9256880218
 30
0.0
 10
13.1997097236
 20
7.9391371656
 30
0.0
 10
13.1975362531
 20
7.9529910865
 30
0.0
 10
13.1955025403
 20
7.9672352234
 30
0.0
 10
13.1929515733
 20
7.9869490085
 30
0.0
 10
13.1901414384
 20
8.0124586913
 30
0.0
 10
13.187393321
 20
8.0440455481
 30
0.0
 10
13.1852446265
 20
8.0768085294
 30
0.0
 10
13.1837046199
 20
8.1106096142
 30
0.0
 10
13.182779972
 20
8.1453065685
 30
0.0
 10
13.1825783739
 20
8.1687220464
 30
0.0
 10
13.1825783739
 20
8.180552924
 30
0.0
  0
SPLINE
  5
3E3
100
AcDbEntity
  8
0
100
AcDbSpline
 62
7
  6
CONTINUOUS
 70
0
 71
3
 72
16
 73
12
 74
0
 42
0.0000001
 43
0.0000001
 44
0.0000000001
 40
0.0
 40
0.0
 40
0.0
 40
0.0
 40
0.109037118
 40
0.219795178
 40
0.3339108405
 40
0.4528666521
 40
0.5145909133
 40
0.5779925751
 40
0.7103049755
 40
0.8507415581
 40
1.0
 40
1.0
 40
1.0
 40
1.0
 10
8.4708461271
 20
10.1121478324
 30
0.0
 10
8.4698264475
 20
10.1122185562
 30
0.0
 10
8.4677591539
 20
10.1122258526
 30
0.0
 10
8.4646458486
 20
10.1118320347
 30
0.0
 10
8.461514857
 20
10.1110354662
 30
0.0
 10
8.4589266577
 20
10.11005044
 30
0.0
 10
8.4568566371
 20
10.1090738763
 30
0.0
 10
8.4547267971
 20
10.1079372529
 30
0.0
 10
8.4520552779
 20
10.1062575456
 30
0.0
 10
8.4488897282
 20
10.1038788256
 30
0.0
 10
8.4468425313
 20
10.1020906374
 30
0.0
 10
8.4458183056
 20
10.1011374126
 30
0.0
  0
SPLINE
  5
3E4
100
AcDbEntity
  8
0
100
AcDbSpline
 62
7
  6
CONTINUOUS
 70
0
 71
3
 72
14
 73
10
 74
0
 42
0.0000001
 43
0.0000001
 44
0.0000000001
 40
0.0
 40
0.0
 40
0.0
 40
0.0
 40
0.2669150707
 40
0.3948356745
 40
0.5196877196
 40
0.6420243468
 40
0.7624365391
 40
0.8815466447
 40
1.0
 40
1.0
 40
1.0
 40
1.0
 10
13.3166574525
 20
8.859131306
 30
0.0
 10
13.3183855094
 20
8.8600461206
 30
0.0
 10
13.321021083
 20
8.8612603983
 30
0.0
 10
13.3246197535
 20
8.8625088489
 30
0.0
 10
13.3272730542
 20
8.8632322897
 30
0.0
 10
13.3299169535
 20
8.8637553137
 30
0.0
 10
13.3325505765
 20
8.8640776281
 30
0.0
 10
13.3351725151
 20
8.8641988765
 30
0.0
 10
13.3369139897
 20
8.8641455394
 30
0.0
 10
13.3377796319
 20
8.8640855109
 30
0.0
  0
SPLINE
  5
3E5
100
AcDbEntity
  8
0
100
AcDbSpline
 62
7
  6
CONTINUOUS
 70
0
 71
3
 72
16
 73
12
 74
0
 42
0.0000001
 43
0.0000001
 44
0.0000000001
 40
0.0
 40
0.0
 40
0.0
 40
0.0
 40
0.1492601029
 40
0.2896893314
 40
0.4220023803
 40
0.4854054986
 40
0.5471312576
 40
0.6660877971
 40
0.7802035738
 40
0.8909622067
 40
1.0
 40
1.0
 40
1.0
 40
1.0
 10
7.837676284
 20
7.269675528
 30
0.0
 10
7.8385591213
 20
7.2685900249
 30
0.0
 10
7.8403398499
 20
7.2665364049
 30
0.0
 10
7.8431467354
 20
7.2637435537
 30
0.0
 10
7.84556077
 20
7.2617111769
 30
0.0
 10
7.847513357
 20
7.2602914253
 30
0.0
 10
7.8494287624
 20
7.2590384129
 30
0.0
 10
7.8518562411
 20
7.2577055471
 30
0.0
 10
7.8548473166
 20
7.256484413
 30
0.0
 10
7.8578764684
 20
7.2556646014
 30
0.0
 10
7.8599249915
 20
7.2553864839
 30
0.0
 10
7.8609446773
 20
7.2553157597
 30
0.0
  0
SPLINE
  5
3E6
100
AcDbEntity
  8
0
100
AcDbSpline
 62
7
  6
CONTINUOUS
 70
0
 71
3
 72
41
 73
37
 74
0
 42
0.0000001
 43
0.0000001
 44
0.0000000001
 40
0.0
 40
0.0
 40
0.0
 40
0.0
 40
0.0312471432
 40
0.0469365837
 40
0.0626665616
 40
0.0942388864
 40
0.1259576937
 40
0.1578076391
 40
0.1897701335
 40
0.2218240423
 40
0.2539461572
 40
0.2700278585
 40
0.2861172552
 40
0.3183007305
 40
0.3504761017
 40
0.3826176529
 40
0.414700496
 40
0.4467011267
 40
0.4785979527
 40
0.5103717865
 40
0.5420062947
 40
0.5734883953
 40
0.6048085946
 40
0.6359612559
 40
0.6669447891
 40
0.6977617541
 40
0.7284188674
 40
0.7589269069
 40
0.7893005098
 40
0.8195578593
 40
0.8497202641
 40
0.8798116369
 40
0.9098578811
 40
0.9398862056
 40
0.9699243861
 40
1.0
 40
1.0
 40
1.0
 40
1.0
 10
10.8351185227
 20
7.9530281276
 30
0.0
 10
10.8295242375
 20
7.9534160926
 30
0.0
 10
10.8211393541
 20
7.9543326365
 30
0.0
 10
10.8100483486
 20
7.9562074969
 30
0.0
 10
10.7989809017
 20
7.9585241015
 30
0.0
 10
10.7852777742
 20
7.9622346316
 30
0.0
 10
10.7691715624
 20
7.9679509072
 30
0.0
 10
10.7534807845
 20
7.9749001196
 30
0.0
 10
10.7383041133
 20
7.9830377749
 30
0.0
 10
10.7237365512
 20
7.9923115723
 30
0.0
 10
10.7121825545
 20
8.0009356188
 30
0.0
 10
10.7033311404
 20
8.0083407954
 30
0.0
 10
10.694750914
 20
8.0160750286
 30
0.0
 10
10.6845681246
 20
8.0263299659
 30
0.0
 10
10.6732933551
 20
8.0394955884
 30
0.0
 10
10.6630290657
 20
8.0534415337
 30
0.0
 10
10.6538385278
 20
8.0680802439
 30
0.0
 10
10.6457777294
 20
8.0833206338
 30
0.0
 10
10.6388957961
 20
8.099068018
 30
0.0
 10
10.6332345633
 20
8.1152248531
 30
0.0
 10
10.6288284276
 20
8.1316912656
 30
0.0
 10
10.6257041728
 20
8.1483656396
 30
0.0
 10
10.6238808485
 20
8.1651451866
 30
0.0
 10
10.6233696769
 20
8.1819265204
 30
0.0
 10
10.6241739899
 20
8.1986062292
 30
0.0
 10
10.6262892085
 20
8.215081449
 30
0.0
 10
10.6297028463
 20
8.2312504362
 30
0.0
 10
10.6343945472
 20
8.2470131421
 30
0.0
 10
10.6403361571
 20
8.2622717888
 30
0.0
 10
10.6474918369
 20
8.2769314494
 30
0.0
 10
10.6558182022
 20
8.2909006191
 30
0.0
 10
10.66526456
 20
8.304091818
 30
0.0
 10
10.6757730073
 20
8.3164220647
 30
0.0
 10
10.6872792709
 20
8.3278137921
 30
0.0
 10
10.6997110236
 20
8.3381940674
 30
0.0
 10
10.7085594869
 20
8.3443923581
 30
0.0
 10
10.7131068391
 20
8.3472999903
 30
0.0
  0
SPLINE
  5
3E7
100
AcDbEntity
  8
0
100
AcDbSpline
 62
7
  6
CONTINUOUS
 70
0
 71
3
 72
11
 73
7
 74
0
 42
0.0000001
 43
0.0000001
 44
0.0000000001
 40
0.0
 40
0.0
 40
0.0
 40
0.0
 40
0.2554047722
 40
0.5062080734
 40
0.7538921454
 40
1.0
 40
1.0
 40
1.0
 40
1.0
 10
13.6601550652
 20
7.8270868853
 30
0.0
 10
13.6592174087
 20
7.8268459672
 30
0.0
 10
13.6573403572
 20
7.8264374255
 30
0.0
 10
13.6545061198
 20
7.8260501342
 30
0.0
 10
13.6516849514
 20
7.8258951745
 30
0.0
 10
13.6498114245
 20
7.8259470839
 30
0.0
 10
13.648880787
 20
7.8260116183
 30
0.0
  0
SPLINE
  5
3E8
100
AcDbEntity
  8
0
100
AcDbSpline
 62
7
  6
CONTINUOUS
 70
0
 71
3
 72
31
 73
27
 74
0
 42
0.0000001
 43
0.0000001
 44
0.0000000001
 40
0.0
 40
0.0
 40
0.0
 40
0.0
 40
0.0851787309
 40
0.1685810121
 40
0.2498835895
 40
0.328774602
 40
0.404955116
 40
0.4781414295
 40
0.5480672418
 40
0.6144862178
 40
0.6463107921
 40
0.6771770202
 40
0.7070609923
 40
0.7359410551
 40
0.7637973337
 40
0.7906125905
 40
0.8163718057
 40
0.8410631226
 40
0.8646775355
 40
0.8872099623
 40
0.9086591137
 40
0.9290287662
 40
0.9483279273
 40
0.966572423
 40
0.9837855238
 40
1.0
 40
1.0
 40
1.0
 40
1.0
 10
7.78983164
 20
7.5356672939
 30
0.0
 10
7.78983164
 20
7.5278974603
 30
0.0
 10
7.7899640415
 20
7.5125194627
 30
0.0
 10
7.7905712921
 20
7.4897324363
 30
0.0
 10
7.7915826904
 20
7.4675337298
 30
0.0
 10
7.7929938392
 20
7.4460168596
 30
0.0
 10
7.7947986374
 20
7.4252723153
 30
0.0
 10
7.7969892681
 20
7.4053872503
 30
0.0
 10
7.7995563261
 20
7.3864453155
 30
0.0
 10
7.8020338338
 20
7.371304181
 30
0.0
 10
7.8042065991
 20
7.3597287632
 30
0.0
 10
7.8058998935
 20
7.3514553711
 30
0.0
 10
7.8076783603
 20
7.3434748055
 30
0.0
 10
7.8095400711
 20
7.3357954319
 30
0.0
 10
7.8114831212
 20
7.3284253097
 30
0.0
 10
7.8135053809
 20
7.321372153
 30
0.0
 10
7.8156047909
 20
7.3146433442
 30
0.0
 10
7.8177790597
 20
7.3082458953
 30
0.0
 10
7.8200259848
 20
7.3021864762
 30
0.0
 10
7.8223431363
 20
7.2964713549
 30
0.0
 10
7.824728194
 20
7.2911064534
 30
0.0
 10
7.8271786297
 20
7.286097253
 30
0.0
 10
7.8296920398
 20
7.2814489124
 30
0.0
 10
7.8322659064
 20
7.277166047
 30
0.0
 10
7.8348976702
 20
7.2732532289
 30
0.0
 10
7.8367430533
 20
7.2708229929
 30
0.0
 10
7.837676284
 20
7.269675528
 30
0.0
  0
SPLINE
  5
3E9
100
AcDbEntity
  8
0
100
AcDbSpline
 62
7
  6
CONTINUOUS
 70
0
 71
3
 72
17
 73
13
 74
0
 42
0.0000001
 43
0.0000001
 44
0.0000000001
 40
0.0
 40
0.0
 40
0.0
 40
0.0
 40
0.1504727749
 40
0.2917301711
 40
0.4244679502
 40
0.487938881
 40
0.5496414896
 40
0.6683008156
 40
0.7818340527
 40
0.8918017756
 40
0.9460163312
 40
1.0
 40
1.0
 40
1.0
 40
1.0
 10
12.8514558054
 20
9.7956389649
 30
0.0
 10
12.8525159183
 20
9.7966629555
 30
0.0
 10
12.8546347669
 20
9.7985842877
 30
0.0
 10
12.8579155511
 20
9.8011447704
 30
0.0
 10
12.8606867802
 20
9.80295568
 30
0.0
 10
12.8628965776
 20
9.8041819754
 30
0.0
 10
12.8650412854
 20
9.8052347944
 30
0.0
 10
12.8677232419
 20
9.8062985641
 30
0.0
 10
12.870969788
 20
9.8071625418
 30
0.0
 10
12.8736746415
 20
9.8075236565
 30
0.0
 10
12.8758117936
 20
9.8075922913
 30
0.0
 10
12.8768719461
 20
9.807554826
 30
0.0
 10
12.8773994581
 20
9.8075182468
 30
0.0
  0
SPLINE
  5
3EA
100
AcDbEntity
  8
0
100
AcDbSpline
 62
7
  6
CONTINUOUS
 70
0
 71
3
 72
37
 73
33
 74
0
 42
0.0000001
 43
0.0000001
 44
0.0000000001
 40
0.0
 40
0.0
 40
0.0
 40
0.0
 40
0.0760188415
 40
0.1532636881
 40
0.2310397316
 40
0.3086445611
 40
0.3853780575
 40
0.4605501949
 40
0.4973407038
 40
0.5334908265
 40
0.5689208013
 40
0.6035530356
 40
0.6373123921
 40
0.6701265432
 40
0.7019262376
 40
0.7326456062
 40
0.762222541
 40
0.7905991829
 40
0.8177223328
 40
0.843543977
 40
0.8680219827
 40
0.8911210325
 40
0.9128136039
 40
0.9330814081
 40
0.9426790343
 40
0.9519188834
 40
0.9608021526
 40
0.9693312087
 40
0.977509893
 40
0.9853432393
 40
0.9928374113
 40
1.0
 40
1.0
 40
1.0
 40
1.0
 10
12.1963853429
 20
8.8006672433
 30
0.0
 10
12.1963853429
 20
8.8126534553
 30
0.0
 10
12.1967058657
 20
8.8368202208
 30
0.0
 10
12.198104504
 20
8.8732259029
 30
0.0
 10
12.2004131387
 20
8.9098359741
 30
0.0
 10
12.2036095642
 20
8.9462982954
 30
0.0
 10
12.2076630155
 20
8.9822621604
 30
0.0
 10
12.2117508393
 20
9.0117363254
 30
0.0
 10
12.2154292769
 20
9.0347990073
 30
0.0
 10
12.2183558345
 20
9.0516343797
 30
0.0
 10
12.2214626472
 20
9.0680912381
 30
0.0
 10
12.2247422409
 20
9.0841300062
 30
0.0
 10
12.2281866855
 20
9.0997120871
 30
0.0
 10
12.2317876389
 20
9.1148000127
 30
0.0
 10
12.2355363818
 20
9.1293575173
 30
0.0
 10
12.2394238408
 20
9.1433496218
 30
0.0
 10
12.2434406137
 20
9.1567427296
 30
0.0
 10
12.2475769609
 20
9.1695047295
 30
0.0
 10
12.2518228621
 20
9.1816050675
 30
0.0
 10
12.2561680441
 20
9.1930148296
 30
0.0
 10
12.2606020156
 20
9.2037068036
 30
0.0
 10
12.2651140887
 20
9.2136556979
 30
0.0
 10
12.2696934065
 20
9.2228378262
 30
0.0
 10
12.273624775
 20
9.2299569172
 30
0.0
 10
12.2768031221
 20
9.2352411968
 30
0.0
 10
12.279153428
 20
9.2389270021
 30
0.0
 10
12.2815123034
 20
9.2424055924
 30
0.0
 10
12.2838784433
 20
9.2456749153
 30
0.0
 10
12.2862504455
 20
9.2487331098
 30
0.0
 10
12.2886270258
 20
9.2515783448
 30
0.0
 10
12.291006593
 20
9.2542087833
 30
0.0
 10
12.2926301105
 20
9.2558547618
 30
0.0
 10
12.2934424047
 20
9.2566393778
 30
0.0
  0
SPLINE
  5
3EB
100
AcDbEntity
  8
0
100
AcDbSpline
 62
7
  6
CONTINUOUS
 70
0
 71
3
 72
37
 73
33
 74
0
 42
0.0000001
 43
0.0000001
 44
0.0000000001
 40
0.0
 40
0.0
 40
0.0
 40
0.0
 40
0.0760189178
 40
0.1532636611
 40
0.2310397298
 40
0.3086445608
 40
0.3853780616
 40
0.4605501846
 40
0.4973406979
 40
0.5334908402
 40
0.5689208038
 40
0.6035530159
 40
0.6373123916
 40
0.6701265632
 40
0.7019262312
 40
0.732645583
 40
0.7622225511
 40
0.7905991985
 40
0.8177223189
 40
0.8435439591
 40
0.8680219988
 40
0.8911210382
 40
0.9128135855
 40
0.9330814124
 40
0.9426790379
 40
0.9519188858
 40
0.9608021119
 40
0.9693311776
 40
0.9775099159
 40
0.9853433145
 40
0.9928374837
 40
1.0
 40
1.0
 40
1.0
 40
1.0
 10
13.1403908903
 20
8.7435066538
 30
0.0
 10
13.1403908903
 20
8.7545020167
 30
0.0
 10
13.1406849154
 20
8.7766709923
 30
0.0
 10
13.1419679381
 20
8.8100671375
 30
0.0
 10
13.144085718
 20
8.8436507655
 30
0.0
 10
13.1470179161
 20
8.8770988717
 30
0.0
 10
13.1507362676
 20
8.9100897242
 30
0.0
 10
13.1544861786
 20
8.9371273555
 30
0.0
 10
13.1578605286
 20
8.9582835242
 30
0.0
 10
13.1605451481
 20
8.9737271761
 30
0.0
 10
13.1633951367
 20
8.9888235977
 30
0.0
 10
13.1664036258
 20
9.0035364904
 30
0.0
 10
13.1695633217
 20
9.0178304569
 30
0.0
 10
13.1728665895
 20
9.0316711176
 30
0.0
 10
13.1763054454
 20
9.0450251961
 30
0.0
 10
13.1798715466
 20
9.0578606168
 30
0.0
 10
13.1835562546
 20
9.0701465678
 30
0.0
 10
13.1873506634
 20
9.0818535774
 30
0.0
 10
13.1912455784
 20
9.0929536135
 30
0.0
 10
13.1952315602
 20
9.103420168
 30
0.0
 10
13.1992989787
 20
9.1132282799
 30
0.0
 10
13.2034380587
 20
9.1223547301
 30
0.0
 10
13.2076388248
 20
9.1307777977
 30
0.0
 10
13.2112451957
 20
9.1373083795
 30
0.0
 10
13.2141608061
 20
9.1421558247
 30
0.0
 10
13.216316806
 20
9.145536938
 30
0.0
 10
13.2184806842
 20
9.1487279566
 30
0.0
 10
13.2206512226
 20
9.1517270195
 30
0.0
 10
13.2228271489
 20
9.1545324173
 30
0.0
 10
13.2250072823
 20
9.1571424513
 30
0.0
 10
13.2271901339
 20
9.1595554399
 30
0.0
 10
13.2286794313
 20
9.1610653448
 30
0.0
 10
13.2294245683
 20
9.1617850919
 30
0.0
  0
SPLINE
  5
3EC
100
AcDbEntity
  8
0
100
AcDbSpline
 62
7
  6
CONTINUOUS
 70
0
 71
3
 72
37
 73
33
 74
0
 42
0.0000001
 43
0.0000001
 44
0.0000000001
 40
0.0
 40
0.0
 40
0.0
 40
0.0
 40
0.0760188415
 40
0.1532636881
 40
0.2310397316
 40
0.3086445611
 40
0.3853780575
 40
0.4605501949
 40
0.4973407038
 40
0.5334908265
 40
0.5689208013
 40
0.6035530356
 40
0.6373123921
 40
0.6701265432
 40
0.7019262376
 40
0.7326456062
 40
0.762222541
 40
0.7905991829
 40
0.8177223328
 40
0.843543977
 40
0.8680219827
 40
0.8911210325
 40
0.9128136039
 40
0.9330814081
 40
0.9426790343
 40
0.9519188834
 40
0.9608021526
 40
0.9693312087
 40
0.977509893
 40
0.9853432393
 40
0.9928374113
 40
1.0
 40
1.0
 40
1.0
 40
1.0
 10
13.1024238041
 20
8.7378332626
 30
0.0
 10
13.1024238041
 20
8.7498194746
 30
0.0
 10
13.1027443269
 20
8.7739862401
 30
0.0
 10
13.1041429653
 20
8.8103919222
 30
0.0
 10
13.1064516
 20
8.8470019934
 30
0.0
 10
13.1096480254
 20
8.8834643147
 30
0.0
 10
13.1137014767
 20
8.9194281797
 30
0.0
 10
13.1177893005
 20
8.9489023447
 30
0.0
 10
13.1214677382
 20
8.9719650266
 30
0.0
 10
13.1243942958
 20
8.988800399
 30
0.0
 10
13.1275011084
 20
9.0052572574
 30
0.0
 10
13.1307807022
 20
9.0212960255
 30
0.0
 10
13.1342251467
 20
9.0368781064
 30
0.0
 10
13.1378261002
 20
9.051966032
 30
0.0
 10
13.1415748431
 20
9.0665235366
 30
0.0
 10
13.145462302
 20
9.0805156411
 30
0.0
 10
13.1494790749
 20
9.0939087489
 30
0.0
 10
13.1536154222
 20
9.1066707488
 30
0.0
 10
13.1578613234
 20
9.1187710868
 30
0.0
 10
13.1622065053
 20
9.1301808489
 30
0.0
 10
13.1666404769
 20
9.1408728229
 30
0.0
 10
13.1711525499
 20
9.1508217172
 30
0.0
 10
13.1757318677
 20
9.1600038455
 30
0.0
 10
13.1796632363
 20
9.1671229365
 30
0.0
 10
13.1828415833
 20
9.1724072161
 30
0.0
 10
13.1851918893
 20
9.1760930214
 30
0.0
 10
13.1875507646
 20
9.1795716117
 30
0.0
 10
13.1899169045
 20
9.1828409346
 30
0.0
 10
13.1922889068
 20
9.1858991291
 30
0.0
 10
13.194665487
 20
9.1887443641
 30
0.0
 10
13.1970450542
 20
9.1913748026
 30
0.0
 10
13.1986685717
 20
9.1930207811
 30
0.0
 10
13.1994808659
 20
9.1938053971
 30
0.0
  0
SPLINE
  5
3ED
100
AcDbEntity
  8
0
100
AcDbSpline
 62
7
  6
CONTINUOUS
 70
0
 71
3
 72
23
 73
19
 74
0
 42
0.0000001
 43
0.0000001
 44
0.0000000001
 40
0.0
 40
0.0
 40
0.0
 40
0.0
 40
0.0755943795
 40
0.1466381136
 40
0.2134648076
 40
0.276513129
 40
0.3363244122
 40
0.3935446119
 40
0.4489206108
 40
0.5032854618
 40
0.5575232172
 40
0.6125244805
 40
0.6691407076
 40
0.7281464197
 40
0.7902174387
 40
0.855922056
 40
0.9257257604
 40
1.0
 40
1.0
 40
1.0
 40
1.0
 10
13.787437969
 20
9.700784679
 30
0.0
 10
13.7883940246
 20
9.7017081578
 30
0.0
 10
13.7903049161
 20
9.7034427544
 30
0.0
 10
13.7932621992
 20
9.7057601193
 30
0.0
 10
13.7962160579
 20
9.7077063708
 30
0.0
 10
13.7991636952
 20
9.7092785889
 30
0.0
 10
13.8021026971
 20
9.7104738554
 30
0.0
 10
13.8050300036
 20
9.7112893869
 30
0.0
 10
13.8079418245
 20
9.7117221523
 30
0.0
 10
13.8108332704
 20
9.7117702436
 30
0.0
 10
13.8136987903
 20
9.7114327969
 30
0.0
 10
13.8165328477
 20
9.7107109804
 30
0.0
 10
13.8193305982
 20
9.7096070817
 30
0.0
 10
13.8220883733
 20
9.7081244417
 30
0.0
 10
13.8248033327
 20
9.7062663558
 30
0.0
 10
13.8274733387
 20
9.7040361284
 30
0.0
 10
13.8300961841
 20
9.7014369924
 30
0.0
 10
13.8317585008
 20
9.6995219592
 30
0.0
 10
13.8325825517
 20
9.6985087349
 30
0.0
  0
SPLINE
  5
3EE
100
AcDbEntity
  8
0
100
AcDbSpline
 62
7
  6
CONTINUOUS
 70
0
 71
3
 72
17
 73
13
 74
0
 42
0.0000001
 43
0.0000001
 44
0.0000000001
 40
0.0
 40
0.0
 40
0.0
 40
0.0
 40
0.1504730098
 40
0.2917304958
 40
0.4244682464
 40
0.4879391303
 40
0.549641677
 40
0.6683008574
 40
0.7818339705
 40
0.8918016563
 40
0.9460162481
 40
1.0
 40
1.0
 40
1.0
 40
1.0
 10
13.7574942666
 20
9.7328049842
 30
0.0
 10
13.7585543947
 20
9.7338289893
 30
0.0
 10
13.7606732734
 20
9.7357503472
 30
0.0
 10
13.7639541058
 20
9.7383108587
 30
0.0
 10
13.766725376
 20
9.7401217825
 30
0.0
 10
13.768935206
 20
9.7413480826
 30
0.0
 10
13.7710799447
 20
9.7424009016
 30
0.0
 10
13.7737619401
 20
9.7434646641
 30
0.0
 10
13.7770085333
 20
9.74432862
 30
0.0
 10
13.7797134247
 20
9.7446897055
 30
0.0
 10
13.7818506057
 20
9.7447583106
 30
0.0
 10
13.7829107723
 20
9.7447208284
 30
0.0
 10
13.7834382912
 20
9.7446842403
 30
0.0
  0
SPLINE
  5
3EF
100
AcDbEntity
  8
0
100
AcDbSpline
 62
7
  6
CONTINUOUS
 70
0
 71
3
 72
37
 73
33
 74
0
 42
0.0000001
 43
0.0000001
 44
0.0000000001
 40
0.0
 40
0.0
 40
0.0
 40
0.0
 40
0.0071625887
 40
0.0146567607
 40
0.022490107
 40
0.0306687913
 40
0.0391978474
 40
0.0480811166
 40
0.0573209657
 40
0.0669185919
 40
0.0871863961
 40
0.1088789675
 40
0.1319780173
 40
0.156456023
 40
0.1822776672
 40
0.2094008171
 40
0.237777459
 40
0.2673543938
 40
0.2980737624
 40
0.3298734568
 40
0.3626876079
 40
0.3964469644
 40
0.4310791987
 40
0.4665091735
 40
0.5026592962
 40
0.5394498051
 40
0.6146219425
 40
0.6913554389
 40
0.7689602684
 40
0.8467363119
 40
0.9239811585
 40
1.0
 40
1.0
 40
1.0
 40
1.0
 10
7.8868887018
 20
9.5612689892
 30
0.0
 10
7.8860764076
 20
9.5604843731
 30
0.0
 10
7.8844528901
 20
9.5588383947
 30
0.0
 10
7.882073323
 20
9.5562079562
 30
0.0
 10
7.8796967427
 20
9.5533627212
 30
0.0
 10
7.8773247405
 20
9.5503045267
 30
0.0
 10
7.8749586005
 20
9.5470352037
 30
0.0
 10
7.8725997252
 20
9.5435566135
 30
0.0
 10
7.8702494192
 20
9.5398708082
 30
0.0
 10
7.8670710722
 20
9.5345865286
 30
0.0
 10
7.8631397036
 20
9.5274674375
 30
0.0
 10
7.8585603858
 20
9.5182853093
 30
0.0
 10
7.8540483128
 20
9.508336415
 30
0.0
 10
7.8496143412
 20
9.497644441
 30
0.0
 10
7.8452691593
 20
9.4862346788
 30
0.0
 10
7.8410232581
 20
9.4741343409
 30
0.0
 10
7.8368869109
 20
9.461372341
 30
0.0
 10
7.8328701379
 20
9.4479792331
 30
0.0
 10
7.828982679
 20
9.4339871286
 30
0.0
 10
7.8252339361
 20
9.4194296241
 30
0.0
 10
7.8216329826
 20
9.4043416985
 30
0.0
 10
7.8181885381
 20
9.3887596175
 30
0.0
 10
7.8149089443
 20
9.3727208494
 30
0.0
 10
7.8118021317
 20
9.3562639911
 30
0.0
 10
7.8088755741
 20
9.3394286186
 30
0.0
 10
7.8051971364
 20
9.3163659367
 30
0.0
 10
7.8011093127
 20
9.2868917718
 30
0.0
 10
7.7970558613
 20
9.2509279068
 30
0.0
 10
7.7938594359
 20
9.2144655854
 30
0.0
 10
7.7915508012
 20
9.1778555143
 30
0.0
 10
7.7901521628
 20
9.1414498321
 30
0.0
 10
7.78983164
 20
9.1172830667
 30
0.0
 10
7.78983164
 20
9.1052968546
 30
0.0
  0
SPLINE
  5
3F0
100
AcDbEntity
  8
0
100
AcDbSpline
 62
7
  6
CONTINUOUS
 70
0
 71
3
 72
32
 73
28
 74
0
 42
0.0000001
 43
0.0000001
 44
0.0000000001
 40
0.0
 40
0.0
 40
0.0
 40
0.0
 40
0.0155786384
 40
0.0318149812
 40
0.0488724148
 40
0.0668780917
 40
0.0859220511
 40
0.1060630862
 40
0.1273356362
 40
0.149756285
 40
0.1733281829
 40
0.1980460557
 40
0.2238979665
 40
0.2508696003
 40
0.2789437332
 40
0.3081034431
 40
0.3383313385
 40
0.3696107328
 40
0.4019258261
 40
0.4352613036
 40
0.5049354315
 40
0.5785205918
 40
0.6559001575
 40
0.7369388948
 40
0.8214653394
 40
0.9092525098
 40
1.0
 40
1.0
 40
1.0
 40
1.0
 10
10.0970193903
 20
8.2152575111
 30
0.0
 10
10.0976346682
 20
8.2161278819
 30
0.0
 10
10.0987818416
 20
8.2179847058
 30
0.0
 10
10.100219442
 20
8.2210098277
 30
0.0
 10
10.1014165407
 20
8.2243142802
 30
0.0
 10
10.102389789
 20
8.2278895886
 30
0.0
 10
10.1031567155
 20
8.2317292474
 30
0.0
 10
10.1037363627
 20
8.235826728
 30
0.0
 10
10.1041475519
 20
8.2401761014
 30
0.0
 10
10.1044098194
 20
8.24477172
 30
0.0
 10
10.1045422933
 20
8.2496084398
 30
0.0
 10
10.1045639853
 20
8.2546814838
 30
0.0
 10
10.1044937183
 20
8.2599865754
 30
0.0
 10
10.104349498
 20
8.2655197926
 30
0.0
 10
10.104149462
 20
8.2712776745
 30
0.0
 10
10.1039106889
 20
8.2772570254
 30
0.0
 10
10.1036503446
 20
8.2834549677
 30
0.0
 10
10.1033849031
 20
8.2898687773
 30
0.0
 10
10.1031306592
 20
8.296495844
 30
0.0
 10
10.1028233397
 20
8.3057496451
 30
0.0
 10
10.1025533031
 20
8.3178298294
 30
0.0
 10
10.1025333826
 20
8.3329272934
 30
0.0
 10
10.1029378487
 20
8.3487980434
 30
0.0
 10
10.1038934653
 20
8.3653960307
 30
0.0
 10
10.1055286506
 20
8.3826576038
 30
0.0
 10
10.1079723818
 20
8.4004949857
 30
0.0
 10
10.1101919208
 20
8.4125128878
 30
0.0
 10
10.1114736856
 20
8.4185880595
 30
0.0
  0
SPLINE
  5
3F1
100
AcDbEntity
  8
0
100
AcDbSpline
 62
7
  6
CONTINUOUS
 70
0
 71
3
 72
39
 73
35
 74
0
 42
0.0000001
 43
0.0000001
 44
0.0000000001
 40
0.0
 40
0.0
 40
0.0
 40
0.0
 40
0.0320740218
 40
0.0642565341
 40
0.0965214861
 40
0.12884543
 40
0.1612010223
 40
0.1935615211
 40
0.2259000616
 40
0.2581907819
 40
0.2904093337
 40
0.3225334559
 40
0.3545434254
 40
0.3864224293
 40
0.4181568611
 40
0.4497365398
 40
0.4811548688
 40
0.5124089318
 40
0.54349949
 40
0.5744309346
 40
0.6052111904
 40
0.6358515658
 40
0.6663665516
 40
0.6967735517
 40
0.7270925571
 40
0.7573457688
 40
0.787557162
 40
0.8177519888
 40
0.8479562137
 40
0.8781959226
 40
0.9084966999
 40
0.9388829742
 40
0.9693773576
 40
1.0
 40
1.0
 40
1.0
 40
1.0
 10
11.8644293056
 20
7.1771108793
 30
0.0
 10
11.8625569297
 20
7.1779222181
 30
0.0
 10
11.8588674236
 20
7.1796940881
 30
0.0
 10
11.8535474444
 20
7.1827727454
 30
0.0
 10
11.8484643181
 20
7.1862572337
 30
0.0
 10
11.8436511462
 20
7.1901233659
 30
0.0
 10
11.8391381867
 20
7.1943449161
 30
0.0
 10
11.834953346
 20
7.1988931145
 30
0.0
 10
11.8311218162
 20
7.2037373729
 30
0.0
 10
11.8276659843
 20
7.2088454781
 30
0.0
 10
11.8246053528
 20
7.214183982
 30
0.0
 10
11.8219565185
 20
7.2197185125
 30
0.0
 10
11.8197332062
 20
7.2254140815
 30
0.0
 10
11.8179463255
 20
7.2312353488
 30
0.0
 10
11.816604052
 20
7.2371468549
 30
0.0
 10
11.8157119267
 20
7.2431132204
 30
0.0
 10
11.8152729565
 20
7.2490993127
 30
0.0
 10
11.8152877022
 20
7.255070384
 30
0.0
 10
11.8157544046
 20
7.260992186
 30
0.0
 10
11.8166690734
 20
7.2668310565
 30
0.0
 10
11.8180255637
 20
7.2725539933
 30
0.0
 10
11.8198156418
 20
7.2781287175
 30
0.0
 10
11.822029015
 20
7.283523738
 30
0.0
 10
11.8246533573
 20
7.2887084199
 30
0.0
 10
11.8276743444
 20
7.2936530459
 30
0.0
 10
11.8310756512
 20
7.2983288966
 30
0.0
 10
11.8348389451
 20
7.3027083468
 30
0.0
 10
11.8389438772
 20
7.3067649767
 30
0.0
 10
11.8433680495
 20
7.3104737256
 30
0.0
 10
11.8480870401
 20
7.3138110482
 30
0.0
 10
11.853074363
 20
7.316755077
 30
0.0
 10
11.8583017101
 20
7.3192858762
 30
0.0
 10
11.8637382103
 20
7.3213854746
 30
0.0
 10
11.8674732135
 20
7.3224851755
 30
0.0
 10
11.8693630717
 20
7.3229586407
 30
0.0
  0
SPLINE
  5
3F2
100
AcDbEntity
  8
0
100
AcDbSpline
 62
7
  6
CONTINUOUS
 70
0
 71
3
 72
9
 73
5
 74
0
 42
0.0000001
 43
0.0000001
 44
0.0000000001
 40
0.0
 40
0.0
 40
0.0
 40
0.0
 40
0.4962767293
 40
1.0
 40
1.0
 40
1.0
 40
1.0
 10
9.5576394798
 20
8.0195730142
 30
0.0
 10
9.5589657629
 20
8.0192740083
 30
0.0
 10
9.5616106703
 20
8.0185422619
 30
0.0
 10
9.5641745303
 20
8.0175649554
 30
0.0
 10
9.565441184
 20
8.017017318
 30
0.0
  0
SPLINE
  5
3F3
100
AcDbEntity
  8
0
100
AcDbSpline
 62
7
  6
CONTINUOUS
 70
0
 71
3
 72
24
 73
20
 74
0
 42
0.0000001
 43
0.0000001
 44
0.0000000001
 40
0.0
 40
0.0
 40
0.0
 40
0.0
 40
0.0391884206
 40
0.079896426
 40
0.1224091694
 40
0.1670582174
 40
0.2141745673
 40
0.2640758961
 40
0.3170797657
 40
0.3735214041
 40
0.4337548691
 40
0.4981614917
 40
0.5671641371
 40
0.6412345668
 40
0.7209052987
 40
0.806783149
 40
0.8522670546
 40
0.8995642739
 40
1.0
 40
1.0
 40
1.0
 40
1.0
 10
9.565441184
 20
8.017017318
 30
0.0
 10
9.5668880764
 20
8.0163917544
 30
0.0
 10
9.5697759301
 20
8.0149682108
 30
0.0
 10
9.5739749609
 20
8.0123844882
 30
0.0
 10
9.5781055231
 20
8.0093088049
 30
0.0
 10
9.5821606199
 20
8.0057323609
 30
0.0
 10
9.5861376494
 20
8.001644008
 30
0.0
 10
9.5900299142
 20
7.9970263187
 30
0.0
 10
9.5938305958
 20
7.9918597019
 30
0.0
 10
9.5975310931
 20
7.9861199101
 30
0.0
 10
9.6011213176
 20
7.9797779523
 30
0.0
 10
9.6045891718
 20
7.9727993711
 30
0.0
 10
9.6079195558
 20
7.9651431913
 30
0.0
 10
9.6110936455
 20
7.9567609355
 30
0.0
 10
9.614088264
 20
7.9475960338
 30
0.0
 10
9.6163663681
 20
7.9394157273
 30
0.0
 10
9.618069901
 20
7.9324335703
 30
0.0
 10
9.6197522656
 20
7.924845502
 30
0.0
 10
9.6208642545
 20
7.9190052999
 30
0.0
 10
9.6215210644
 20
7.9150190746
 30
0.0
  0
LINE
  5
3F4
100
AcDbEntity
  8
0
100
AcDbLine
 62
7
  6
CONTINUOUS
 10
9.5576394798
 20
8.0195730142
 11
9.557331726
 21
8.0196049107
  0
LINE
  5
3F5
100
AcDbEntity
  8
0
100
AcDbLine
 62
7
  6
CONTINUOUS
 10
9.5576394798
 20
8.0195730142
 11
9.5572445935
 21
8.0196602121
  0
SPLINE
  5
3F6
100
AcDbEntity
  8
0
100
AcDbSpline
 62
7
  6
CONTINUOUS
 70
0
 71
3
 72
39
 73
35
 74
0
 42
0.0000001
 43
0.0000001
 44
0.0000000001
 40
0.0
 40
0.0
 40
0.0
 40
0.0
 40
0.0365826355
 40
0.0758067457
 40
0.1178326031
 40
0.1627240831
 40
0.2103573098
 40
0.2603016473
 40
0.3117354785
 40
0.3634921201
 40
0.4142902161
 40
0.4630427149
 40
0.5090488983
 40
0.5519967415
 40
0.5918594173
 40
0.6287725611
 40
0.6629467769
 40
0.6946156331
 40
0.7240086382
 40
0.7513393025
 40
0.7768012207
 40
0.8005686495
 40
0.8227980665
 40
0.8436301543
 40
0.8631940628
 40
0.8816079124
 40
0.8989825076
 40
0.9154228959
 40
0.93102988
 40
0.9459021896
 40
0.9601374899
 40
0.9738335409
 40
0.9870884976
 40
1.0
 40
1.0
 40
1.0
 40
1.0
 10
9.6215210644
 20
7.9150190746
 30
0.0
 10
9.6221343019
 20
7.9113565017
 30
0.0
 10
9.6232649826
 20
7.9037428223
 30
0.0
 10
9.6245992096
 20
7.8918536754
 30
0.0
 10
9.6255696382
 20
7.8790828685
 30
0.0
 10
9.6261082728
 20
7.8654320055
 30
0.0
 10
9.6261420938
 20
7.8509664047
 30
0.0
 10
9.6256039989
 20
7.8358458959
 30
0.0
 10
9.6244501984
 20
7.8203398525
 30
0.0
 10
9.6226779646
 20
7.8048049134
 30
0.0
 10
9.6203329518
 20
7.7896214583
 30
0.0
 10
9.6174993808
 20
7.7751160683
 30
0.0
 10
9.6142783763
 20
7.7615097017
 30
0.0
 10
9.6107669718
 20
7.7489101172
 30
0.0
 10
9.6070462897
 20
7.737337055
 30
0.0
 10
9.6031786973
 20
7.7267561225
 30
0.0
 10
9.5992101166
 20
7.7171066255
 30
0.0
 10
9.5951737047
 20
7.7083190869
 30
0.0
 10
9.5910933259
 20
7.7003247302
 30
0.0
 10
9.58698626
 20
7.6930599181
 30
0.0
 10
9.5828650645
 20
7.6864677862
 30
0.0
 10
9.5787391936
 20
7.6804982951
 30
0.0
 10
9.5746158282
 20
7.675107867
 30
0.0
 10
9.5704999998
 20
7.6702591029
 30
0.0
 10
9.5663963186
 20
7.6659191371
 30
0.0
 10
9.5623077431
 20
7.6620601716
 30
0.0
 10
9.5582370657
 20
7.6586579514
 30
0.0
 10
9.5541864797
 20
7.6556917048
 30
0.0
 10
9.5501577759
 20
7.6531437954
 30
0.0
 10
9.5461526826
 20
7.6509990087
 30
0.0
 10
9.5421727453
 20
7.6492444922
 30
0.0
 10
9.5382191989
 20
7.6478699367
 30
0.0
 10
9.5342943834
 20
7.646865849
 30
0.0
 10
9.5316692455
 20
7.6464345537
 30
0.0
 10
9.5303676195
 20
7.6462808875
 30
0.0
  0
SPLINE
  5
3F7
100
AcDbEntity
  8
0
100
AcDbSpline
 62
7
  6
CONTINUOUS
 70
0
 71
3
 72
15
 73
11
 74
0
 42
0.0000001
 43
0.0000001
 44
0.0000000001
 40
0.0
 40
0.0
 40
0.0
 40
0.0
 40
0.1273483281
 40
0.2538605602
 40
0.3795878981
 40
0.5046051042
 40
0.6290174419
 40
0.7529533761
 40
0.876560577
 40
1.0
 40
1.0
 40
1.0
 40
1.0
 10
11.3330534483
 20
8.946083431
 30
0.0
 10
11.3330534483
 20
8.95041056
 30
0.0
 10
11.333466602
 20
8.959042391
 30
0.0
 10
11.3353350553
 20
8.9718241201
 30
0.0
 10
11.3384332612
 20
8.9842846898
 30
0.0
 10
11.3427332365
 20
8.9963075706
 30
0.0
 10
11.3481955195
 20
9.0077818879
 30
0.0
 10
11.3547703436
 20
9.0186016754
 30
0.0
 10
11.3623958721
 20
9.0286655605
 30
0.0
 10
11.3681375104
 20
9.0348131459
 30
0.0
 10
11.3711542891
 20
9.0377271258
 30
0.0
  0
SPLINE
  5
3F8
100
AcDbEntity
  8
0
100
AcDbSpline
 62
7
  6
CONTINUOUS
 70
0
 71
3
 72
25
 73
21
 74
0
 42
0.0000001
 43
0.0000001
 44
0.0000000001
 40
0.0
 40
0.0
 40
0.0
 40
0.0
 40
0.0516905368
 40
0.1011917582
 40
0.1486963313
 40
0.1942930415
 40
0.2801602798
 40
0.3596048202
 40
0.4333059203
 40
0.5018594574
 40
0.5657854988
 40
0.6255461069
 40
0.6815602618
 40
0.7342154982
 40
0.8308434557
 40
0.8534874909
 40
0.8756037856
 40
0.9184566978
 40
0.9598519192
 40
1.0
 40
1.0
 40
1.0
 40
1.0
 10
11.4326322112
 20
7.78941809
 30
0.0
 10
11.432061339
 20
7.7916902473
 30
0.0
 10
11.4308966714
 20
7.7961267046
 30
0.0
 10
11.4290317996
 20
7.8026035835
 30
0.0
 10
11.4270909432
 20
7.808769194
 30
0.0
 10
11.4244695504
 20
7.8164459709
 30
0.0
 10
11.4210579853
 20
7.8253799624
 30
0.0
 10
11.4166896315
 20
7.835297939
 30
0.0
 10
11.4121664699
 20
7.8442756786
 30
0.0
 10
11.4075136754
 20
7.8523852396
 30
0.0
 10
11.4027508417
 20
7.8596872162
 30
0.0
 10
11.3978936745
 20
7.8662312494
 30
0.0
 10
11.3929535765
 20
7.8720596089
 30
0.0
 10
11.3864593358
 20
7.8787286825
 30
0.0
 10
11.380418962
 20
7.8837172642
 30
0.0
 10
11.3750550828
 20
7.8872260289
 30
0.0
 10
11.3716383219
 20
7.8892515166
 30
0.0
 10
11.3673260063
 20
7.8914243139
 30
0.0
 10
11.3620565237
 20
7.8934542031
 30
0.0
 10
11.3584823657
 20
7.8944253586
 30
0.0
 10
11.3567033128
 20
7.8948075136
 30
0.0
  0
SPLINE
  5
3F9
100
AcDbEntity
  8
0
100
AcDbSpline
 62
7
  6
CONTINUOUS
 70
0
 71
3
 72
40
 73
36
 74
0
 42
0.0000001
 43
0.0000001
 44
0.0000000001
 40
0.0
 40
0.0
 40
0.0
 40
0.0
 40
0.0299422956
 40
0.059908968
 40
0.0899238
 40
0.1200094056
 40
0.1350882594
 40
0.1501924656
 40
0.1804801452
 40
0.2108943177
 40
0.241448122
 40
0.2721514726
 40
0.3030108797
 40
0.334029354
 40
0.3652063934
 40
0.3965380465
 40
0.4280170486
 40
0.4596330217
 40
0.4913727316
 40
0.5232203951
 40
0.5551580282
 40
0.5871658292
 40
0.6192225887
 40
0.6513061205
 40
0.6833937063
 40
0.715462548
 40
0.7474902197
 40
0.779455117
 40
0.8113368874
 40
0.8431168691
 40
0.8747784143
 40
0.9063074703
 40
0.9376922765
 40
0.9689251917
 40
1.0
 40
1.0
 40
1.0
 40
1.0
 10
9.5137851631
 20
7.227706526
 30
0.0
 10
9.5114543148
 20
7.2254551029
 30
0.0
 10
9.5066093448
 20
7.2211339688
 30
0.0
 10
9.4988468795
 20
7.2152471497
 30
0.0
 10
9.4906294168
 20
7.2099848339
 30
0.0
 10
9.4834445591
 20
7.2061467846
 30
0.0
 10
9.4775190467
 20
7.2034164681
 30
0.0
 10
9.4714711018
 20
7.2009115356
 30
0.0
 10
9.4637118721
 20
7.1982180185
 30
0.0
 10
9.4541497882
 20
7.1957077233
 30
0.0
 10
9.4443790559
 20
7.1939293655
 30
0.0
 10
9.4344538225
 20
7.1928927552
 30
0.0
 10
9.4244286102
 20
7.1926034235
 30
0.0
 10
9.414358581
 20
7.1930628421
 30
0.0
 10
9.4042990818
 20
7.1942683566
 30
0.0
 10
9.3943053851
 20
7.1962132244
 30
0.0
 10
9.3844323773
 20
7.1988866518
 30
0.0
 10
9.3747342646
 20
7.2022738577
 30
0.0
 10
9.3652642789
 20
7.206356157
 30
0.0
 10
9.3560743898
 20
7.211111065
 30
0.0
 10
9.3472150238
 20
7.2165124205
 30
0.0
 10
9.3387347907
 20
7.22253053
 30
0.0
 10
9.3306802215
 20
7.2291323293
 30
0.0
 10
9.3230955135
 20
7.2362815629
 30
0.0
 10
9.3160222912
 20
7.2439389813
 30
0.0
 10
9.3094993814
 20
7.2520625565
 30
0.0
 10
9.303562601
 20
7.2606077093
 30
0.0
 10
9.2982445647
 20
7.2695275518
 30
0.0
 10
9.2935745009
 20
7.2787731418
 30
0.0
 10
9.2895781096
 20
7.2882937431
 30
0.0
 10
9.2862773779
 20
7.2980371269
 30
0.0
 10
9.2836905578
 20
7.3079497448
 30
0.0
 10
9.2818318693
 20
7.3179774159
 30
0.0
 10
9.2807117389
 20
7.3280642823
 30
0.0
 10
9.2804608306
 20
7.3348104072
 30
0.0
 10
9.2804608306
 20
7.3381736205
 30
0.0
  0
SPLINE
  5
3FA
100
AcDbEntity
  8
0
100
AcDbSpline
 62
7
  6
CONTINUOUS
 70
0
 71
3
 72
40
 73
36
 74
0
 42
0.0000001
 43
0.0000001
 44
0.0000000001
 40
0.0
 40
0.0
 40
0.0
 40
0.0
 40
0.0299422956
 40
0.059908968
 40
0.0899238
 40
0.1200094056
 40
0.1350882594
 40
0.1501924656
 40
0.1804801452
 40
0.2108943177
 40
0.241448122
 40
0.2721514726
 40
0.3030108797
 40
0.334029354
 40
0.3652063934
 40
0.3965380465
 40
0.4280170486
 40
0.4596330217
 40
0.4913727316
 40
0.5232203951
 40
0.5551580282
 40
0.5871658292
 40
0.6192225887
 40
0.6513061205
 40
0.6833937063
 40
0.715462548
 40
0.7474902197
 40
0.779455117
 40
0.8113368874
 40
0.8431168691
 40
0.8747784143
 40
0.9063074703
 40
0.9376922765
 40
0.9689251917
 40
1.0
 40
1.0
 40
1.0
 40
1.0
 10
11.5663777807
 20
7.0853587445
 30
0.0
 10
11.5640469324
 20
7.0831073214
 30
0.0
 10
11.5592019624
 20
7.0787861873
 30
0.0
 10
11.5514394971
 20
7.0728993682
 30
0.0
 10
11.5432220345
 20
7.0676370524
 30
0.0
 10
11.5360371767
 20
7.0637990031
 30
0.0
 10
11.5301116643
 20
7.0610686866
 30
0.0
 10
11.5240637194
 20
7.0585637541
 30
0.0
 10
11.5163044897
 20
7.055870237
 30
0.0
 10
11.5067424058
 20
7.0533599418
 30
0.0
 10
11.4969716735
 20
7.051581584
 30
0.0
 10
11.4870464401
 20
7.0505449737
 30
0.0
 10
11.4770212279
 20
7.050255642
 30
0.0
 10
11.4669511986
 20
7.0507150606
 30
0.0
 10
11.4568916994
 20
7.0519205751
 30
0.0
 10
11.4468980027
 20
7.0538654429
 30
0.0
 10
11.4370249949
 20
7.0565388703
 30
0.0
 10
11.4273268823
 20
7.0599260761
 30
0.0
 10
11.4178568966
 20
7.0640083755
 30
0.0
 10
11.4086670075
 20
7.0687632835
 30
0.0
 10
11.3998076414
 20
7.074164639
 30
0.0
 10
11.3913274084
 20
7.0801827484
 30
0.0
 10
11.3832728391
 20
7.0867845478
 30
0.0
 10
11.3756881311
 20
7.0939337814
 30
0.0
 10
11.3686149089
 20
7.1015911998
 30
0.0
 10
11.3620919991
 20
7.109714775
 30
0.0
 10
11.3561552186
 20
7.1182599278
 30
0.0
 10
11.3508371823
 20
7.1271797703
 30
0.0
 10
11.3461671185
 20
7.1364253603
 30
0.0
 10
11.3421707273
 20
7.1459459616
 30
0.0
 10
11.3388699956
 20
7.1556893454
 30
0.0
 10
11.3362831754
 20
7.1656019633
 30
0.0
 10
11.3344244869
 20
7.1756296344
 30
0.0
 10
11.3333043565
 20
7.1857165008
 30
0.0
 10
11.3330534483
 20
7.1924626257
 30
0.0
 10
11.3330534483
 20
7.195825839
 30
0.0
  0
SPLINE
  5
3FB
100
AcDbEntity
  8
0
100
AcDbSpline
 62
7
  6
CONTINUOUS
 70
0
 71
3
 72
40
 73
36
 74
0
 42
0.0000001
 43
0.0000001
 44
0.0000000001
 40
0.0
 40
0.0
 40
0.0
 40
0.0
 40
0.0299422956
 40
0.059908968
 40
0.0899238
 40
0.1200094056
 40
0.1350882594
 40
0.1501924656
 40
0.1804801452
 40
0.2108943177
 40
0.241448122
 40
0.2721514726
 40
0.3030108797
 40
0.334029354
 40
0.3652063934
 40
0.3965380465
 40
0.4280170486
 40
0.4596330217
 40
0.4913727316
 40
0.5232203951
 40
0.5551580282
 40
0.5871658292
 40
0.6192225887
 40
0.6513061205
 40
0.6833937063
 40
0.715462548
 40
0.7474902197
 40
0.779455117
 40
0.8113368874
 40
0.8431168691
 40
0.8747784143
 40
0.9063074703
 40
0.9376922765
 40
0.9689251917
 40
1.0
 40
1.0
 40
1.0
 40
1.0
 10
9.5137851631
 20
8.977964118
 30
0.0
 10
9.5114543148
 20
8.9757126949
 30
0.0
 10
9.5066093448
 20
8.9713915608
 30
0.0
 10
9.4988468795
 20
8.9655047417
 30
0.0
 10
9.4906294168
 20
8.9602424259
 30
0.0
 10
9.4834445591
 20
8.9564043766
 30
0.0
 10
9.4775190467
 20
8.9536740601
 30
0.0
 10
9.4714711018
 20
8.9511691276
 30
0.0
 10
9.4637118721
 20
8.9484756106
 30
0.0
 10
9.4541497882
 20
8.9459653154
 30
0.0
 10
9.4443790559
 20
8.9441869575
 30
0.0
 10
9.4344538225
 20
8.9431503472
 30
0.0
 10
9.4244286102
 20
8.9428610155
 30
0.0
 10
9.414358581
 20
8.9433204341
 30
0.0
 10
9.4042990818
 20
8.9445259486
 30
0.0
 10
9.3943053851
 20
8.9464708164
 30
0.0
 10
9.3844323773
 20
8.9491442438
 30
0.0
 10
9.3747342646
 20
8.9525314497
 30
0.0
 10
9.3652642789
 20
8.9566137491
 30
0.0
 10
9.3560743898
 20
8.961368657
 30
0.0
 10
9.3472150238
 20
8.9667700126
 30
0.0
 10
9.3387347907
 20
8.972788122
 30
0.0
 10
9.3306802215
 20
8.9793899213
 30
0.0
 10
9.3230955135
 20
8.9865391549
 30
0.0
 10
9.3160222912
 20
8.9941965733
 30
0.0
 10
9.3094993814
 20
9.0023201485
 30
0.0
 10
9.303562601
 20
9.0108653014
 30
0.0
 10
9.2982445647
 20
9.0197851438
 30
0.0
 10
9.2935745009
 20
9.0290307338
 30
0.0
 10
9.2895781096
 20
9.0385513351
 30
0.0
 10
9.2862773779
 20
9.0482947189
 30
0.0
 10
9.2836905578
 20
9.0582073368
 30
0.0
 10
9.2818318693
 20
9.0682350079
 30
0.0
 10
9.2807117389
 20
9.0783218743
 30
0.0
 10
9.2804608306
 20
9.0850679992
 30
0.0
 10
9.2804608306
 20
9.0884312125
 30
0.0
  0
SPLINE
  5
3FC
100
AcDbEntity
  8
0
100
AcDbSpline
 62
7
  6
CONTINUOUS
 70
0
 71
3
 72
40
 73
36
 74
0
 42
0.0000001
 43
0.0000001
 44
0.0000000001
 40
0.0
 40
0.0
 40
0.0
 40
0.0
 40
0.0299422956
 40
0.059908968
 40
0.0899238
 40
0.1200094056
 40
0.1350882594
 40
0.1501924656
 40
0.1804801452
 40
0.2108943177
 40
0.241448122
 40
0.2721514726
 40
0.3030108797
 40
0.334029354
 40
0.3652063934
 40
0.3965380465
 40
0.4280170486
 40
0.4596330217
 40
0.4913727316
 40
0.5232203951
 40
0.5551580282
 40
0.5871658292
 40
0.6192225887
 40
0.6513061205
 40
0.6833937063
 40
0.715462548
 40
0.7474902197
 40
0.779455117
 40
0.8113368874
 40
0.8431168691
 40
0.8747784143
 40
0.9063074703
 40
0.9376922765
 40
0.9689251917
 40
1.0
 40
1.0
 40
1.0
 40
1.0
 10
11.5663777807
 20
8.8356163365
 30
0.0
 10
11.5640469324
 20
8.8333649134
 30
0.0
 10
11.5592019624
 20
8.8290437793
 30
0.0
 10
11.5514394971
 20
8.8231569602
 30
0.0
 10
11.5432220345
 20
8.8178946444
 30
0.0
 10
11.5360371767
 20
8.8140565951
 30
0.0
 10
11.5301116643
 20
8.8113262786
 30
0.0
 10
11.5240637194
 20
8.8088213461
 30
0.0
 10
11.5163044897
 20
8.806127829
 30
0.0
 10
11.5067424058
 20
8.8036175338
 30
0.0
 10
11.4969716735
 20
8.801839176
 30
0.0
 10
11.4870464401
 20
8.8008025657
 30
0.0
 10
11.4770212279
 20
8.800513234
 30
0.0
 10
11.4669511986
 20
8.8009726526
 30
0.0
 10
11.4568916994
 20
8.8021781671
 30
0.0
 10
11.4468980027
 20
8.8041230349
 30
0.0
 10
11.4370249949
 20
8.8067964623
 30
0.0
 10
11.4273268823
 20
8.8101836682
 30
0.0
 10
11.4178568966
 20
8.8142659675
 30
0.0
 10
11.4086670075
 20
8.8190208755
 30
0.0
 10
11.3998076414
 20
8.824422231
 30
0.0
 10
11.3913274084
 20
8.8304403405
 30
0.0
 10
11.3832728391
 20
8.8370421398
 30
0.0
 10
11.3756881311
 20
8.8441913734
 30
0.0
 10
11.3686149089
 20
8.8518487918
 30
0.0
 10
11.3620919991
 20
8.859972367
 30
0.0
 10
11.3561552186
 20
8.8685175198
 30
0.0
 10
11.3508371823
 20
8.8774373623
 30
0.0
 10
11.3461671185
 20
8.8866829523
 30
0.0
 10
11.3421707273
 20
8.8962035536
 30
0.0
 10
11.3388699956
 20
8.9059469374
 30
0.0
 10
11.3362831754
 20
8.9158595553
 30
0.0
 10
11.3344244869
 20
8.9258872264
 30
0.0
 10
11.3333043565
 20
8.9359740928
 30
0.0
 10
11.3330534483
 20
8.9427202177
 30
0.0
 10
11.3330534483
 20
8.946083431
 30
0.0
  0
SPLINE
  5
3FD
100
AcDbEntity
  8
0
100
AcDbSpline
 62
7
  6
CONTINUOUS
 70
0
 71
3
 72
57
 73
53
 74
0
 42
0.0000001
 43
0.0000001
 44
0.0000000001
 40
0.0
 40
0.0
 40
0.0
 40
0.0
 40
0.0452111151
 40
0.0910028922
 40
0.1371914731
 40
0.183589865
 40
0.2300105241
 40
0.2762656379
 40
0.3221682775
 40
0.3675333237
 40
0.4121784488
 40
0.4559250957
 40
0.4985994741
 40
0.5400335829
 40
0.5800662712
 40
0.6185443608
 40
0.637155417
 40
0.6553246567
 40
0.6730357378
 40
0.6902730659
 40
0.7070219026
 40
0.7232683064
 40
0.7389993698
 40
0.7542031206
 40
0.7688687611
 40
0.7829866902
 40
0.7965486293
 40
0.8095478594
 40
0.8219792442
 40
0.8338396478
 40
0.8451280137
 40
0.8558458432
 40
0.8659975471
 40
0.8755909364
 40
0.8846379793
 40
0.8931554241
 40
0.9011659533
 40
0.9086991512
 40
0.9157928765
 40
0.9224945133
 40
0.9288620062
 40
0.9349644242
 40
0.9408812842
 40
0.946700577
 40
0.9525151341
 40
0.9584180353
 40
0.9644979297
 40
0.9708353444
 40
0.9775004039
 40
0.9845522178
 40
0.9920391601
 40
1.0
 40
1.0
 40
1.0
 40
1.0
 10
13.4781494701
 20
8.4660526963
 30
0.0
 10
13.4781494701
 20
8.4538785148
 30
0.0
 10
13.4779323507
 20
8.4293733018
 30
0.0
 10
13.4769749636
 20
8.3924419455
 30
0.0
 10
13.4753874397
 20
8.3552122346
 30
0.0
 10
13.4731765523
 20
8.3178447534
 30
0.0
 10
13.4703518379
 20
8.2805006813
 30
0.0
 10
13.4669254786
 20
8.2433410401
 30
0.0
 10
13.4629122863
 20
8.2065260691
 30
0.0
 10
13.458329628
 20
8.1702145039
 30
0.0
 10
13.4531973575
 20
8.1345628895
 30
0.0
 10
13.4475377274
 20
8.0997248906
 30
0.0
 10
13.4413752925
 20
8.0658506419
 30
0.0
 10
13.4347368209
 20
8.033086006
 30
0.0
 10
13.42765113
 20
8.0015722148
 30
0.0
 10
13.4213313764
 20
7.976192045
 30
0.0
 10
13.4160639315
 20
7.9566229597
 30
0.0
 10
13.4120649519
 20
7.942504824
 30
0.0
 10
13.4079780838
 20
7.9287974295
 30
0.0
 10
13.4038077022
 20
7.9155155275
 30
0.0
 10
13.3995583633
 20
7.9026734161
 30
0.0
 10
13.3952346098
 20
7.8902849206
 30
0.0
 10
13.3908411737
 20
7.8783633543
 30
0.0
 10
13.3863827583
 20
7.8669215346
 30
0.0
 10
13.3818642078
 20
7.8559717383
 30
0.0
 10
13.3772904005
 20
7.8455257025
 30
0.0
 10
13.3726662391
 20
7.8355946154
 30
0.0
 10
13.367996752
 20
7.8261890678
 30
0.0
 10
13.363286882
 20
7.8173190996
 30
0.0
 10
13.3585417265
 20
7.8089941034
 30
0.0
 10
13.3537662724
 20
7.8012228976
 30
0.0
 10
13.3489655642
 20
7.7940136482
 30
0.0
 10
13.3441445979
 20
7.7873738844
 30
0.0
 10
13.3393082373
 20
7.781310539
 30
0.0
 10
13.3344613516
 20
7.7758298435
 30
0.0
 10
13.3296084965
 20
7.7709375456
 30
0.0
 10
13.3247541758
 20
7.7666387499
 30
0.0
 10
13.3199025373
 20
7.762938248
 30
0.0
 10
13.3150575864
 20
7.7598405465
 30
0.0
 10
13.3102232719
 20
7.7573500858
 30
0.0
 10
13.3054037522
 20
7.7554715726
 30
0.0
 10
13.3006040641
 20
7.7542095933
 30
0.0
 10
13.295830493
 20
7.7535686391
 30
0.0
 10
13.291090926
 20
7.7535516812
 30
0.0
 10
13.2863942329
 20
7.7541596375
 30
0.0
 10
13.2817491888
 20
7.7553906913
 30
0.0
 10
13.277163291
 20
7.757240805
 30
0.0
 10
13.2726424176
 20
7.759704958
 30
0.0
 10
13.2681909128
 20
7.7627776523
 30
0.0
 10
13.2638123754
 20
7.7664538829
 30
0.0
 10
13.2595102295
 20
7.7707283197
 30
0.0
 10
13.2567820075
 20
7.7738735421
 30
0.0
 10
13.2554294384
 20
7.7755366065
 30
0.0
  0
SPLINE
  5
3FE
100
AcDbEntity
  8
0
100
AcDbSpline
 62
7
  6
CONTINUOUS
 70
0
 71
3
 72
15
 73
11
 74
0
 42
0.0000001
 43
0.0000001
 44
0.0000000001
 40
0.0
 40
0.0
 40
0.0
 40
0.0
 40
0.1226258958
 40
0.245900309
 40
0.3698620744
 40
0.4945309666
 40
0.6199084919
 40
0.7459728169
 40
0.8726916763
 40
1.0
 40
1.0
 40
1.0
 40
1.0
 10
11.9123882904
 20
7.1729166316
 30
0.0
 10
11.9104454923
 20
7.1724299033
 30
0.0
 10
11.9065066231
 20
7.171617284
 30
0.0
 10
11.9005025087
 20
7.1708935829
 30
0.0
 10
11.8944253241
 20
7.1706690521
 30
0.0
 10
11.8883161573
 20
7.1709476808
 30
0.0
 10
11.8822162743
 20
7.1717296157
 30
0.0
 10
11.876167227
 20
7.1730111282
 30
0.0
 10
11.8702112613
 20
7.1747844909
 30
0.0
 10
11.8663372045
 20
7.1762841476
 30
0.0
 10
11.8644293056
 20
7.1771108793
 30
0.0
  0
SPLINE
  5
3FF
100
AcDbEntity
  8
0
100
AcDbSpline
 62
7
  6
CONTINUOUS
 70
0
 71
3
 72
23
 73
19
 74
0
 42
0.0000001
 43
0.0000001
 44
0.0000000001
 40
0.0
 40
0.0
 40
0.0
 40
0.0
 40
0.0626378702
 40
0.1250680217
 40
0.1873169108
 40
0.2494158134
 40
0.3114011537
 40
0.3733149354
 40
0.4352044985
 40
0.4971218264
 40
0.5591224289
 40
0.6212641077
 40
0.6836049942
 40
0.7462007153
 40
0.8091020861
 40
0.8723502219
 40
0.9359779984
 40
1.0
 40
1.0
 40
1.0
 40
1.0
 10
11.8406755451
 20
8.4587949851
 30
0.0
 10
11.840048991
 20
8.4569471014
 30
0.0
 10
11.8386734555
 20
8.4532982488
 30
0.0
 10
11.8362417639
 20
8.4479890356
 30
0.0
 10
11.8334482918
 20
8.4428794701
 30
0.0
 10
11.830297884
 20
8.4379981495
 30
0.0
 10
11.8267969854
 20
8.4333744449
 30
0.0
 10
11.8229542388
 20
8.4290389646
 30
0.0
 10
11.8187809264
 20
8.4250232407
 30
0.0
 10
11.8142915217
 20
8.4213594632
 30
0.0
 10
11.8095042444
 20
8.4180799574
 30
0.0
 10
11.804441525
 20
8.4152165205
 30
0.0
 10
11.799130379
 20
8.4127995738
 30
0.0
 10
11.7936025886
 20
8.4108570853
 30
0.0
 10
11.7878947301
 20
8.4094135213
 30
0.0
 10
11.7820474863
 20
8.4084884991
 30
0.0
 10
11.7761060336
 20
8.408095956
 30
0.0
 10
11.7721244891
 20
8.4081937924
 30
0.0
 10
11.7701349349
 20
8.4083317684
 30
0.0
  0
SPLINE
  5
400
100
AcDbEntity
  8
0
100
AcDbSpline
 62
7
  6
CONTINUOUS
 70
0
 71
3
 72
42
 73
38
 74
0
 42
0.0000001
 43
0.0000001
 44
0.0000000001
 40
0.0
 40
0.0
 40
0.0
 40
0.0
 40
0.0299419634
 40
0.0449235299
 40
0.0599142017
 40
0.0899287029
 40
0.1200139772
 40
0.1350926626
 40
0.1501967046
 40
0.1804840506
 40
0.2108978877
 40
0.2414513551
 40
0.2721543675
 40
0.3030134354
 40
0.3340315696
 40
0.3652082675
 40
0.3965395775
 40
0.4280182343
 40
0.4596338596
 40
0.4913732188
 40
0.5232205284
 40
0.5551578047
 40
0.5871652463
 40
0.6192216448
 40
0.6513048151
 40
0.6833920402
 40
0.7154605222
 40
0.747487836
 40
0.7794523759
 40
0.8113337934
 40
0.8431134117
 40
0.8747746318
 40
0.9063032512
 40
0.9376879208
 40
0.9533258
 40
0.9689252634
 40
1.0
 40
1.0
 40
1.0
 40
1.0
 10
10.5941352844
 20
8.6088801218
 30
0.0
 10
10.5905021452
 20
8.6053708002
 30
0.0
 10
10.5848382778
 20
8.6003194671
 30
0.0
 10
10.576906159
 20
8.5940518627
 30
0.0
 10
10.568721442
 20
8.5880961439
 30
0.0
 10
10.5580417322
 20
8.5812570493
 30
0.0
 10
10.5468427685
 20
8.5752748207
 30
0.0
 10
10.5376065257
 20
8.5710190574
 30
0.0
 10
10.5281794893
 20
8.5671146138
 30
0.0
 10
10.516085029
 20
8.5629162336
 30
0.0
 10
10.5011804399
 20
8.5590034485
 30
0.0
 10
10.4859506304
 20
8.5562315414
 30
0.0
 10
10.4704800019
 20
8.5546158047
 30
0.0
 10
10.4548535377
 20
8.554164861
 30
0.0
 10
10.4391572193
 20
8.5548810053
 30
0.0
 10
10.4234773169
 20
8.5567601008
 30
0.0
 10
10.4078999849
 20
8.5597916379
 30
0.0
 10
10.3925107758
 20
8.563958792
 30
0.0
 10
10.3773941818
 20
8.5692385233
 30
0.0
 10
10.362633176
 20
8.5756017061
 30
0.0
 10
10.3483087641
 20
8.5830132919
 30
0.0
 10
10.3344995454
 20
8.5914325018
 30
0.0
 10
10.3212812879
 20
8.6008130506
 30
0.0
 10
10.3087265173
 20
8.6111033998
 30
0.0
 10
10.2969041243
 20
8.6222470379
 30
0.0
 10
10.2858789903
 20
8.6341827889
 30
0.0
 10
10.2757116355
 20
8.6468451438
 30
0.0
 10
10.2664578898
 20
8.6601646182
 30
0.0
 10
10.258168589
 20
8.6740681247
 30
0.0
 10
10.2508892977
 20
8.6884793857
 30
0.0
 10
10.2446600623
 20
8.7033192869
 30
0.0
 10
10.2395151792
 20
8.7185065262
 30
0.0
 10
10.2354830702
 20
8.7339572397
 30
0.0
 10
10.2330657313
 20
8.7469993169
 30
0.0
 10
10.2317096759
 20
8.7574784678
 30
0.0
 10
10.2307418924
 20
8.767947591
 30
0.0
 10
10.2304488569
 20
8.7758255357
 30
0.0
 10
10.2304488569
 20
8.781067877
 30
0.0
  0
SPLINE
  5
401
100
AcDbEntity
  8
0
100
AcDbSpline
 62
7
  6
CONTINUOUS
 70
0
 71
3
 72
41
 73
37
 74
0
 42
0.0000001
 43
0.0000001
 44
0.0000000001
 40
0.0
 40
0.0
 40
0.0
 40
0.0
 40
0.0305068379
 40
0.0608690139
 40
0.0911179892
 40
0.1212907932
 40
0.1514269016
 40
0.1815669305
 40
0.2117508349
 40
0.2420163355
 40
0.2723975003
 40
0.3029235748
 40
0.3336180849
 40
0.3644982199
 40
0.395574481
 40
0.4268505717
 40
0.4583234978
 40
0.4899838425
 40
0.5218161908
 40
0.5537996771
 40
0.5859086402
 40
0.6181133759
 40
0.6503809792
 40
0.6826762746
 40
0.7149628295
 40
0.7472040462
 40
0.779364318
 40
0.8114102322
 40
0.843311779
 40
0.8592045002
 40
0.8750520696
 40
0.9065943191
 40
0.9379340937
 40
0.9535299823
 40
0.9690745331
 40
1.0
 40
1.0
 40
1.0
 40
1.0
 10
9.051827826
 20
8.9913678204
 30
0.0
 10
9.0511304191
 20
8.9891381128
 30
0.0
 10
9.0495147443
 20
8.9847557213
 30
0.0
 10
9.0464456658
 20
8.9784762533
 30
0.0
 10
9.0427661508
 20
8.9725630299
 30
0.0
 10
9.0385122499
 20
8.967070659
 30
0.0
 10
9.0337248979
 20
8.9620479834
 30
0.0
 10
9.0284498814
 20
8.9575390591
 30
0.0
 10
9.0227369956
 20
8.9535824644
 30
0.0
 10
9.0166394214
 20
8.9502111885
 30
0.0
 10
9.0102130549
 20
8.9474525094
 30
0.0
 10
9.0035158957
 20
8.9453279895
 30
0.0
 10
8.9966074829
 20
8.9438535303
 30
0.0
 10
8.9895483904
 20
8.9430394733
 30
0.0
 10
8.9823997787
 20
8.9428907246
 30
0.0
 10
8.9752229978
 20
8.943406888
 30
0.0
 10
8.9680792305
 20
8.9445823914
 30
0.0
 10
8.9610291639
 20
8.9464066029
 30
0.0
 10
8.9541326758
 20
8.9488639281
 30
0.0
 10
8.9474485243
 20
8.9519338935
 30
0.0
 10
8.9410340258
 20
8.9555912178
 30
0.0
 10
8.9349447134
 20
8.9598058787
 30
0.0
 10
8.9292339652
 20
8.964543187
 30
0.0
 10
8.9239525997
 20
8.969763876
 30
0.0
 10
8.9191484295
 20
8.975424238
 30
0.0
 10
8.9148657969
 20
8.9814762523
 30
0.0
 10
8.9111450211
 20
8.9878679873
 30
0.0
 10
8.9080220501
 20
8.9945432885
 30
0.0
 10
8.9059402799
 20
9.0003020355
 30
0.0
 10
8.9046032181
 20
9.0049903375
 30
0.0
 10
8.9034908632
 20
9.0097087159
 30
0.0
 10
8.9025190406
 20
9.0156685717
 30
0.0
 10
8.9021169594
 20
9.0216747286
 30
0.0
 10
8.9021429609
 20
9.0264611543
 30
0.0
 10
8.902398938
 20
9.0312085989
 30
0.0
 10
8.902850638
 20
9.0347461222
 30
0.0
 10
8.903266822
 20
9.0370775563
 30
0.0
  0
SPLINE
  5
402
100
AcDbEntity
  8
0
100
AcDbSpline
 62
7
  6
CONTINUOUS
 70
0
 71
3
 72
23
 73
19
 74
0
 42
0.0000001
 43
0.0000001
 44
0.0000000001
 40
0.0
 40
0.0
 40
0.0
 40
0.0
 40
0.0626378702
 40
0.1250680217
 40
0.1873169108
 40
0.2494158134
 40
0.3114011537
 40
0.3733149354
 40
0.4352044985
 40
0.4971218264
 40
0.5591224289
 40
0.6212641077
 40
0.6836049942
 40
0.7462007153
 40
0.8091020861
 40
0.8723502219
 40
0.9359779984
 40
1.0
 40
1.0
 40
1.0
 40
1.0
 10
9.1843792503
 20
8.6430097588
 30
0.0
 10
9.1837526961
 20
8.6411618751
 30
0.0
 10
9.1823771606
 20
8.6375130225
 30
0.0
 10
9.1799454691
 20
8.6322038094
 30
0.0
 10
9.177151997
 20
8.6270942438
 30
0.0
 10
9.1740015892
 20
8.6222129232
 30
0.0
 10
9.1705006906
 20
8.6175892186
 30
0.0
 10
9.1666579439
 20
8.6132537383
 30
0.0
 10
9.1624846316
 20
8.6092380144
 30
0.0
 10
9.1579952269
 20
8.6055742369
 30
0.0
 10
9.1532079496
 20
8.6022947311
 30
0.0
 10
9.1481452302
 20
8.5994312942
 30
0.0
 10
9.1428340841
 20
8.5970143476
 30
0.0
 10
9.1373062938
 20
8.5950718591
 30
0.0
 10
9.1315984353
 20
8.5936282951
 30
0.0
 10
9.1257511915
 20
8.5927032729
 30
0.0
 10
9.1198097388
 20
8.5923107297
 30
0.0
 10
9.1158281943
 20
8.5924085661
 30
0.0
 10
9.1138386401
 20
8.5925465421
 30
0.0
  0
SPLINE
  5
403
100
AcDbEntity
  8
0
100
AcDbSpline
 62
7
  6
CONTINUOUS
 70
0
 71
3
 72
39
 73
35
 74
0
 42
0.0000001
 43
0.0000001
 44
0.0000000001
 40
0.0
 40
0.0
 40
0.0
 40
0.0
 40
0.0136055566
 40
0.0274651882
 40
0.0416741486
 40
0.0563299918
 40
0.071531496
 40
0.0873786938
 40
0.1039735623
 40
0.1214210311
 40
0.1398306116
 40
0.1593179857
 40
0.1800062701
 40
0.2020297254
 40
0.2255343438
 40
0.2506819779
 40
0.2776526308
 40
0.3066461176
 40
0.3378829222
 40
0.3716006916
 40
0.408042832
 40
0.4474321653
 40
0.4899197459
 40
0.5354980139
 40
0.5838783737
 40
0.634386488
 40
0.6859614966
 40
0.7373426051
 40
0.7873732273
 40
0.8352306225
 40
0.880474742
 40
0.9229682156
 40
0.96276084
 40
1.0
 40
1.0
 40
1.0
 40
1.0
 10
11.3547444224
 20
7.5197907136
 30
0.0
 10
11.3561191898
 20
7.5199431162
 30
0.0
 10
11.3588825229
 20
7.5203707555
 30
0.0
 10
11.3630039326
 20
7.5213727885
 30
0.0
 10
11.3671296866
 20
7.5227464806
 30
0.0
 10
11.3712565702
 20
7.5245016261
 30
0.0
 10
11.3753823697
 20
7.526648559
 30
0.0
 10
11.3795043107
 20
7.5292003555
 30
0.0
 10
11.3836193958
 20
7.5321722244
 30
0.0
 10
11.3877242552
 20
7.5355819672
 30
0.0
 10
11.3918150417
 20
7.5394503677
 30
0.0
 10
11.3958869068
 20
7.5438018605
 30
0.0
 10
11.3999346686
 20
7.5486643123
 30
0.0
 10
11.4039509988
 20
7.5540707927
 30
0.0
 10
11.4079277519
 20
7.560058892
 30
0.0
 10
11.4118541169
 20
7.5666724056
 30
0.0
 10
11.4157163082
 20
7.5739616585
 30
0.0
 10
11.4194967452
 20
7.5819838144
 30
0.0
 10
11.4231722915
 20
7.5908028305
 30
0.0
 10
11.4267123794
 20
7.6004877889
 30
0.0
 10
11.430076434
 20
7.6111084019
 30
0.0
 10
11.4332108603
 20
7.6227254266
 30
0.0
 10
11.4360464044
 20
7.6353729954
 30
0.0
 10
11.4384977625
 20
7.6490306311
 30
0.0
 10
11.4404691624
 20
7.6635893118
 30
0.0
 10
11.4418689176
 20
7.6788265244
 30
0.0
 10
11.4426312729
 20
7.6944143388
 30
0.0
 10
11.4427356154
 20
7.7099717091
 30
0.0
 10
11.4422111179
 20
7.725142088
 30
0.0
 10
11.4411241937
 20
7.7396565885
 30
0.0
 10
11.4395579811
 20
7.7533558249
 30
0.0
 10
11.4375949884
 20
7.7661746818
 30
0.0
 10
11.4353077443
 20
7.7781115325
 30
0.0
 10
11.4335509484
 20
7.7857453943
 30
0.0
 10
11.4326322112
 20
7.78941809
 30
0.0
  0
SPLINE
  5
404
100
AcDbEntity
  8
0
100
AcDbSpline
 62
7
  6
CONTINUOUS
 70
0
 71
3
 72
15
 73
11
 74
0
 42
0.0000001
 43
0.0000001
 44
0.0000000001
 40
0.0
 40
0.0
 40
0.0
 40
0.0
 40
0.1273483281
 40
0.2538605602
 40
0.3795878981
 40
0.5046051042
 40
0.6290174419
 40
0.7529533761
 40
0.876560577
 40
1.0
 40
1.0
 40
1.0
 40
1.0
 10
9.2804608306
 20
7.3381736205
 30
0.0
 10
9.2804608306
 20
7.3425007495
 30
0.0
 10
9.2808739843
 20
7.3511325805
 30
0.0
 10
9.2827424377
 20
7.3639143096
 30
0.0
 10
9.2858406435
 20
7.3763748793
 30
0.0
 10
9.2901406188
 20
7.38839776
 30
0.0
 10
9.2956029019
 20
7.3998720774
 30
0.0
 10
9.302177726
 20
7.4106918649
 30
0.0
 10
9.3098032544
 20
7.42075575
 30
0.0
 10
9.3155448928
 20
7.4269033354
 30
0.0
 10
9.3185616715
 20
7.4298173153
 30
0.0
  0
SPLINE
  5
405
100
AcDbEntity
  8
0
100
AcDbSpline
 62
7
  6
CONTINUOUS
 70
0
 71
3
 72
15
 73
11
 74
0
 42
0.0000001
 43
0.0000001
 44
0.0000000001
 40
0.0
 40
0.0
 40
0.0
 40
0.0
 40
0.1232692199
 40
0.246889224
 40
0.3709474097
 40
0.4955201317
 40
0.6206705834
 40
0.7464481369
 40
0.8728848378
 40
1.0
 40
1.0
 40
1.0
 40
1.0
 10
10.9571302062
 20
7.9834478816
 30
0.0
 10
10.9527033431
 20
7.9806172916
 30
0.0
 10
10.9435998858
 20
7.9753095686
 30
0.0
 10
10.9293208019
 20
7.9684793189
 30
0.0
 10
10.9144820075
 20
7.9628095677
 30
0.0
 10
10.8991725542
 20
7.9583353674
 30
0.0
 10
10.8834830655
 20
7.9550835547
 30
0.0
 10
10.8675065816
 20
7.9530739291
 30
0.0
 10
10.8513393205
 20
7.9523184459
 30
0.0
 10
10.8405239371
 20
7.9526532608
 30
0.0
 10
10.8351185227
 20
7.9530281276
 30
0.0
  0
SPLINE
  5
406
100
AcDbEntity
  8
0
100
AcDbSpline
 62
7
  6
CONTINUOUS
 70
0
 71
3
 72
29
 73
25
 74
0
 42
0.0000001
 43
0.0000001
 44
0.0000000001
 40
0.0
 40
0.0
 40
0.0
 40
0.0
 40
0.0309064346
 40
0.0619690689
 40
0.093174809
 40
0.1245169344
 40
0.1559808655
 40
0.187551265
 40
0.2192113697
 40
0.2509431851
 40
0.3145196183
 40
0.3781719951
 40
0.441772025
 40
0.4735288242
 40
0.5052327915
 40
0.5684197586
 40
0.6312865591
 40
0.6625932138
 40
0.6938018029
 40
0.7558910374
 40
0.8175540959
 40
0.8787851911
 40
0.9395926961
 40
1.0
 40
1.0
 40
1.0
 40
1.0
 10
9.1138386401
 20
8.5925465421
 30
0.0
 10
9.1122015324
 20
8.5926600759
 30
0.0
 10
9.1089261934
 20
8.5930085816
 30
0.0
 10
9.1040534593
 20
8.5938874617
 30
0.0
 10
9.0992332644
 20
8.5951174434
 30
0.0
 10
9.0944910409
 20
8.5966886695
 30
0.0
 10
9.0898501225
 20
8.5985891874
 30
0.0
 10
9.0853323813
 20
8.6008044926
 30
0.0
 10
9.0809574174
 20
8.6033186099
 30
0.0
 10
9.0753361266
 20
8.6070471367
 30
0.0
 10
9.0687524563
 20
8.6123656216
 30
0.0
 10
9.0616672615
 20
8.6196393149
 30
0.0
 10
9.0564881399
 20
8.6263311496
 30
0.0
 10
9.0528076738
 20
8.6319886167
 30
0.0
 10
9.0494464019
 20
8.6378161883
 30
0.0
 10
9.0458401216
 20
8.6453944879
 30
0.0
 10
9.0430379311
 20
8.6532821614
 30
0.0
 10
9.0412906981
 20
8.6597087645
 30
0.0
 10
9.0398775391
 20
8.6661746501
 30
0.0
 10
9.038726597
 20
8.6743368622
 30
0.0
 10
9.0383365293
 20
8.6841673949
 30
0.0
 10
9.0389402902
 20
8.6939201228
 30
0.0
 10
9.040536914
 20
8.7034919671
 30
0.0
 10
9.042268109
 20
8.709706418
 30
0.0
 10
9.0432980512
 20
8.7127440064
 30
0.0
  0
SPLINE
  5
407
100
AcDbEntity
  8
0
100
AcDbSpline
 62
7
  6
CONTINUOUS
 70
0
 71
3
 72
15
 73
11
 74
0
 42
0.0000001
 43
0.0000001
 44
0.0000000001
 40
0.0
 40
0.0
 40
0.0
 40
0.0
 40
0.1232692199
 40
0.246889224
 40
0.3709474097
 40
0.4955201317
 40
0.6206705834
 40
0.7464481369
 40
0.8728848378
 40
1.0
 40
1.0
 40
1.0
 40
1.0
 10
10.1718324979
 20
8.0379084626
 30
0.0
 10
10.1674056348
 20
8.0350778726
 30
0.0
 10
10.1583021775
 20
8.0297701497
 30
0.0
 10
10.1440230936
 20
8.0229399
 30
0.0
 10
10.1291842992
 20
8.0172701487
 30
0.0
 10
10.1138748459
 20
8.0127959484
 30
0.0
 10
10.0981853572
 20
8.0095441357
 30
0.0
 10
10.0822088733
 20
8.0075345102
 30
0.0
 10
10.0660416122
 20
8.0067790269
 30
0.0
 10
10.0552262288
 20
8.0071138418
 30
0.0
 10
10.0498208144
 20
8.0074887086
 30
0.0
  0
SPLINE
  5
408
100
AcDbEntity
  8
0
100
AcDbSpline
 62
7
  6
CONTINUOUS
 70
0
 71
3
 72
15
 73
11
 74
0
 42
0.0000001
 43
0.0000001
 44
0.0000000001
 40
0.0
 40
0.0
 40
0.0
 40
0.0
 40
0.1273483281
 40
0.2538605602
 40
0.3795878981
 40
0.5046051042
 40
0.6290174419
 40
0.7529533761
 40
0.876560577
 40
1.0
 40
1.0
 40
1.0
 40
1.0
 10
9.2804608306
 20
9.0884312125
 30
0.0
 10
9.2804608306
 20
9.0927583415
 30
0.0
 10
9.2808739843
 20
9.1013901725
 30
0.0
 10
9.2827424377
 20
9.1141719016
 30
0.0
 10
9.2858406435
 20
9.1266324713
 30
0.0
 10
9.2901406188
 20
9.1386553521
 30
0.0
 10
9.2956029019
 20
9.1501296694
 30
0.0
 10
9.302177726
 20
9.1609494569
 30
0.0
 10
9.3098032544
 20
9.171013342
 30
0.0
 10
9.3155448928
 20
9.1771609274
 30
0.0
 10
9.3185616715
 20
9.1800749073
 30
0.0
  0
SPLINE
  5
409
100
AcDbEntity
  8
0
100
AcDbSpline
 62
7
  6
CONTINUOUS
 70
0
 71
3
 72
52
 73
48
 74
0
 42
0.0000001
 43
0.0000001
 44
0.0000000001
 40
0.0
 40
0.0
 40
0.0
 40
0.0
 40
0.0095820836
 40
0.0187371377
 40
0.0274872859
 40
0.035859924
 40
0.0515978647
 40
0.059055626
 40
0.0662983938
 40
0.0733795814
 40
0.0803568578
 40
0.0872906927
 40
0.0942428037
 40
0.1012743544
 40
0.1084443122
 40
0.1158080167
 40
0.1234160681
 40
0.1313139295
 40
0.1395415473
 40
0.1481334816
 40
0.1571194366
 40
0.1665243504
 40
0.1763690736
 40
0.1866709548
 40
0.1974438974
 40
0.2086991325
 40
0.2204455065
 40
0.2326894857
 40
0.2454358603
 40
0.2586877194
 40
0.2724465183
 40
0.3014833613
 40
0.3325371839
 40
0.3655812995
 40
0.4005762791
 40
0.4374716875
 40
0.4762077832
 40
0.5167167149
 40
0.5589232708
 40
0.6027456718
 40
0.6480964027
 40
0.6948826884
 40
0.7430067899
 40
0.7923669955
 40
0.842857424
 40
0.8943680125
 40
1.0
 40
1.0
 40
1.0
 40
1.0
 10
13.2285830578
 20
6.9268005373
 30
0.0
 10
13.2278754598
 20
6.9261420235
 30
0.0
 10
13.2264608167
 20
6.9248869915
 30
0.0
 10
13.2242904165
 20
6.9231592038
 30
0.0
 10
13.2221219451
 20
6.9216312251
 30
0.0
 10
13.2192945824
 20
6.9198981842
 30
0.0
 10
13.2164101674
 20
6.9185144001
 30
0.0
 10
13.2134950816
 20
6.9175397167
 30
0.0
 10
13.2113555766
 20
6.9170260835
 30
0.0
 10
13.2092258299
 20
6.916717886
 30
0.0
 10
13.2071073655
 20
6.9166154735
 30
0.0
 10
13.2050019373
 20
6.9167191382
 30
0.0
 10
13.2029113341
 20
6.9170288973
 30
0.0
 10
13.2008372741
 20
6.9175442541
 30
0.0
 10
13.1987813657
 20
6.9182646323
 30
0.0
 10
13.1967450576
 20
6.9191892044
 30
0.0
 10
13.1947295572
 20
6.9203169155
 30
0.0
 10
13.1927360285
 20
6.9216468261
 30
0.0
 10
13.19076549
 20
6.9231778429
 30
0.0
 10
13.1888188799
 20
6.9249088335
 30
0.0
 10
13.1868972295
 20
6.9268387332
 30
0.0
 10
13.1850014591
 20
6.928966296
 30
0.0
 10
13.1831325297
 20
6.9312902458
 30
0.0
 10
13.1812914917
 20
6.9338092635
 30
0.0
 10
13.1794792763
 20
6.9365218374
 30
0.0
 10
13.1776969019
 20
6.9394264101
 30
0.0
 10
13.1759454122
 20
6.9425213161
 30
0.0
 10
13.1742257394
 20
6.9458047239
 30
0.0
 10
13.1725389222
 20
6.9492747385
 30
0.0
 10
13.1708859247
 20
6.9529293399
 30
0.0
 10
13.168688728
 20
6.9581393995
 30
0.0
 10
13.1660440403
 20
6.9651068004
 30
0.0
 10
13.1630745705
 20
6.97402266
 30
0.0
 10
13.1602618598
 20
6.983617022
 30
0.0
 10
13.1576126384
 20
6.9938672915
 30
0.0
 10
13.1551332429
 20
7.0047494626
 30
0.0
 10
13.1528296387
 20
7.0162378726
 30
0.0
 10
13.1507073981
 20
7.0283053913
 30
0.0
 10
13.1487716391
 20
7.0409234492
 30
0.0
 10
13.1470270156
 20
7.0540621298
 30
0.0
 10
13.1454777442
 20
7.0676902628
 30
0.0
 10
13.1441275833
 20
7.0817754861
 30
0.0
 10
13.1429797647
 20
7.096284351
 30
0.0
 10
13.1420370734
 20
7.1111823565
 30
0.0
 10
13.1413017737
 20
7.1264340697
 30
0.0
 10
13.1405944644
 20
7.1473679874
 30
0.0
 10
13.1403908903
 20
7.1632212727
 30
0.0
 10
13.1403908903
 20
7.1738770931
 30
0.0
  0
SPLINE
  5
40A
100
AcDbEntity
  8
0
100
AcDbSpline
 62
7
  6
CONTINUOUS
 70
0
 71
3
 72
18
 73
14
 74
0
 42
0.0000001
 43
0.0000001
 44
0.0000000001
 40
0.0
 40
0.0
 40
0.0
 40
0.0
 40
0.1460889576
 40
0.2839828072
 40
0.4141622564
 40
0.5375746669
 40
0.6556897801
 40
0.7133984875
 40
0.7705641772
 40
0.8274938277
 40
0.8845004615
 40
0.9419013321
 40
1.0
 40
1.0
 40
1.0
 40
1.0
 10
10.0693495234
 20
8.2046286976
 30
0.0
 10
10.0708584226
 20
8.204524627
 30
0.0
 10
10.0738017119
 20
8.2044397007
 30
0.0
 10
10.0780874747
 20
8.204717166
 30
0.0
 10
10.0820899034
 20
8.2054106279
 30
0.0
 10
10.0857837927
 20
8.2065262594
 30
0.0
 10
10.0886103463
 20
8.2078227822
 30
0.0
 10
10.0906781239
 20
8.2090687448
 30
0.0
 10
10.0921292612
 20
8.2101004365
 30
0.0
 10
10.0934913585
 20
8.2112357155
 30
0.0
 10
10.0947639702
 20
8.2124739879
 30
0.0
 10
10.0959474891
 20
8.2138136393
 30
0.0
 10
10.0966721739
 20
8.2147663395
 30
0.0
 10
10.0970193903
 20
8.2152575111
 30
0.0
  0
SPLINE
  5
40B
100
AcDbEntity
  8
0
100
AcDbSpline
 62
7
  6
CONTINUOUS
 70
0
 71
3
 72
41
 73
37
 74
0
 42
0.0000001
 43
0.0000001
 44
0.0000000001
 40
0.0
 40
0.0
 40
0.0
 40
0.0
 40
0.0312471432
 40
0.0469365837
 40
0.0626665616
 40
0.0942388864
 40
0.1259576937
 40
0.1578076391
 40
0.1897701335
 40
0.2218240423
 40
0.2539461572
 40
0.2700278585
 40
0.2861172552
 40
0.3183007305
 40
0.3504761017
 40
0.3826176529
 40
0.414700496
 40
0.4467011267
 40
0.4785979527
 40
0.5103717865
 40
0.5420062947
 40
0.5734883953
 40
0.6048085946
 40
0.6359612559
 40
0.6669447891
 40
0.6977617541
 40
0.7284188674
 40
0.7589269069
 40
0.7893005098
 40
0.8195578593
 40
0.8497202641
 40
0.8798116369
 40
0.9098578811
 40
0.9398862056
 40
0.9699243861
 40
1.0
 40
1.0
 40
1.0
 40
1.0
 10
10.0498208144
 20
8.0074887086
 30
0.0
 10
10.0442265292
 20
8.0078766736
 30
0.0
 10
10.0358416458
 20
8.0087932176
 30
0.0
 10
10.0247506403
 20
8.0106680779
 30
0.0
 10
10.0136831934
 20
8.0129846825
 30
0.0
 10
9.9999800659
 20
8.0166952127
 30
0.0
 10
9.9838738541
 20
8.0224114883
 30
0.0
 10
9.9681830762
 20
8.0293607006
 30
0.0
 10
9.953006405
 20
8.0374983559
 30
0.0
 10
9.9384388429
 20
8.0467721533
 30
0.0
 10
9.9268848462
 20
8.0553961999
 30
0.0
 10
9.9180334321
 20
8.0628013764
 30
0.0
 10
9.9094532057
 20
8.0705356096
 30
0.0
 10
9.8992704163
 20
8.0807905469
 30
0.0
 10
9.8879956468
 20
8.0939561694
 30
0.0
 10
9.8777313574
 20
8.1079021147
 30
0.0
 10
9.8685408195
 20
8.1225408249
 30
0.0
 10
9.8604800211
 20
8.1377812148
 30
0.0
 10
9.8535980878
 20
8.1535285991
 30
0.0
 10
9.847936855
 20
8.1696854341
 30
0.0
 10
9.8435307193
 20
8.1861518467
 30
0.0
 10
9.8404064645
 20
8.2028262206
 30
0.0
 10
9.8385831402
 20
8.2196057677
 30
0.0
 10
9.8380719686
 20
8.2363871015
 30
0.0
 10
9.8388762816
 20
8.2530668102
 30
0.0
 10
9.8409915002
 20
8.2695420301
 30
0.0
 10
9.844405138
 20
8.2857110172
 30
0.0
 10
9.8490968389
 20
8.3014737232
 30
0.0
 10
9.8550384489
 20
8.3167323699
 30
0.0
 10
9.8621941286
 20
8.3313920304
 30
0.0
 10
9.8705204939
 20
8.3453612002
 30
0.0
 10
9.8799668517
 20
8.3585523991
 30
0.0
 10
9.890475299
 20
8.3708826458
 30
0.0
 10
9.9019815626
 20
8.3822743731
 30
0.0
 10
9.9144133153
 20
8.3926546485
 30
0.0
 10
9.9232617786
 20
8.3988529392
 30
0.0
 10
9.9278091308
 20
8.4017605714
 30
0.0
  0
SPLINE
  5
40C
100
AcDbEntity
  8
0
100
AcDbSpline
 62
7
  6
CONTINUOUS
 70
0
 71
3
 72
39
 73
35
 74
0
 42
0.0000001
 43
0.0000001
 44
0.0000000001
 40
0.0
 40
0.0
 40
0.0
 40
0.0
 40
0.0063160496
 40
0.0126710053
 40
0.0191030048
 40
0.0256487367
 40
0.0323427861
 40
0.039217295
 40
0.0536155191
 40
0.0690526933
 40
0.0856860708
 40
0.1036344562
 40
0.1229845698
 40
0.1437975453
 40
0.1661136391
 40
0.1899565658
 40
0.2153367352
 40
0.2422532615
 40
0.2706962878
 40
0.3006480884
 40
0.3320841399
 40
0.3649743143
 40
0.3992831008
 40
0.4349705058
 40
0.4719924753
 40
0.5103010104
 40
0.5498449059
 40
0.5905697156
 40
0.6324181087
 40
0.6753302621
 40
0.7192436886
 40
0.809812795
 40
0.903586429
 40
1.0
 40
1.0
 40
1.0
 40
1.0
 10
13.1735368414
 20
6.8878521676
 30
0.0
 10
13.1729030215
 20
6.8878961286
 30
0.0
 10
13.1716344742
 20
6.8880362078
 30
0.0
 10
13.1697458643
 20
6.8884012671
 30
0.0
 10
13.1678698737
 20
6.8889212918
 30
0.0
 10
13.1660076171
 20
6.8895959255
 30
0.0
 10
13.1641598192
 20
6.8904246744
 30
0.0
 10
13.1616786108
 20
6.891754712
 30
0.0
 10
13.1586083652
 20
6.8938257766
 30
0.0
 10
13.1550571051
 20
6.8968785959
 30
0.0
 10
13.1515849651
 20
6.9005302093
 30
0.0
 10
13.148195989
 20
6.9047738632
 30
0.0
 10
13.144893776
 20
6.9096028774
 30
0.0
 10
13.1416827441
 20
6.9150098551
 30
0.0
 10
13.1385673961
 20
6.9209864588
 30
0.0
 10
13.1355524302
 20
6.9275233818
 30
0.0
 10
13.132642621
 20
6.9346103265
 30
0.0
 10
13.1298425743
 20
6.9422359637
 30
0.0
 10
13.1271568927
 20
6.9503880313
 30
0.0
 10
13.1245899922
 20
6.9590533208
 30
0.0
 10
13.1221460795
 20
6.9682177218
 30
0.0
 10
13.1198292632
 20
6.9778662729
 30
0.0
 10
13.1176433563
 20
6.9879831679
 30
0.0
 10
13.1155920022
 20
6.9985518099
 30
0.0
 10
13.1136786481
 20
7.0095548376
 30
0.0
 10
13.1119064368
 20
7.0209741531
 30
0.0
 10
13.1102783573
 20
7.0327909617
 30
0.0
 10
13.1087971132
 20
7.0449858045
 30
0.0
 10
13.1074651574
 20
7.057538585
 30
0.0
 10
13.1062847255
 20
7.0704286298
 30
0.0
 10
13.1049013031
 20
7.0882198306
 30
0.0
 10
13.1035758816
 20
7.1111449637
 30
0.0
 10
13.1026292365
 20
7.1393732495
 30
0.0
 10
13.1024238041
 20
7.1585052902
 30
0.0
 10
13.1024238041
 20
7.1682037019
 30
0.0
  0
SPLINE
  5
40D
100
AcDbEntity
  8
0
100
AcDbSpline
 62
7
  6
CONTINUOUS
 70
0
 71
3
 72
39
 73
35
 74
0
 42
0.0000001
 43
0.0000001
 44
0.0000000001
 40
0.0
 40
0.0
 40
0.0
 40
0.0
 40
0.0063160573
 40
0.0126710135
 40
0.0191030068
 40
0.0256487263
 40
0.0323427579
 40
0.0392172443
 40
0.0536154123
 40
0.0690525201
 40
0.0856858257
 40
0.1036341375
 40
0.1229841789
 40
0.1437970855
 40
0.1661131156
 40
0.189955985
 40
0.2153361042
 40
0.2422525882
 40
0.2706955804
 40
0.3006473555
 40
0.3320833901
 40
0.3649735564
 40
0.3992823435
 40
0.4349697575
 40
0.4719917444
 40
0.510300305
 40
0.5498442339
 40
0.5905690843
 40
0.6324175253
 40
0.6753297333
 40
0.7192432205
 40
0.8098124654
 40
0.9035862569
 40
1.0
 40
1.0
 40
1.0
 40
1.0
 10
12.2674987519
 20
6.9506861225
 30
0.0
 10
12.2668649298
 20
6.9507300736
 30
0.0
 10
12.2655963779
 20
6.9508701329
 30
0.0
 10
12.2637077598
 20
6.9512351638
 30
0.0
 10
12.261831761
 20
6.951755161
 30
0.0
 10
12.259969496
 20
6.9524297681
 30
0.0
 10
12.2581216898
 20
6.9532584916
 30
0.0
 10
12.2556404705
 20
6.9545884959
 30
0.0
 10
12.2525702105
 20
6.9566595217
 30
0.0
 10
12.249018933
 20
6.9597123
 30
0.0
 10
12.2455467758
 20
6.9633638764
 30
0.0
 10
12.2421577827
 20
6.9676074975
 30
0.0
 10
12.238855553
 20
6.972436483
 30
0.0
 10
12.2356445046
 20
6.977843436
 30
0.0
 10
12.2325291404
 20
6.9838200192
 30
0.0
 10
12.2295141585
 20
6.9903569257
 30
0.0
 10
12.2266043338
 20
6.997443858
 30
0.0
 10
12.2238042719
 20
7.0050694867
 30
0.0
 10
12.2211185755
 20
7.0132215499
 30
0.0
 10
12.2185516607
 20
7.0218868388
 30
0.0
 10
12.2161077343
 20
7.031051243
 30
0.0
 10
12.2137909048
 20
7.040699801
 30
0.0
 10
12.2116049854
 20
7.0508167066
 30
0.0
 10
12.2095536194
 20
7.0613853625
 30
0.0
 10
12.2076402541
 20
7.0723884075
 30
0.0
 10
12.2058680325
 20
7.0838077437
 30
0.0
 10
12.2042399433
 20
7.0956245759
 30
0.0
 10
12.2027586904
 20
7.1078194453
 30
0.0
 10
12.2014267266
 20
7.1203722551
 30
0.0
 10
12.2002462877
 20
7.1332623318
 30
0.0
 10
12.1988628568
 20
7.1510535796
 30
0.0
 10
12.1975374273
 20
7.1739787766
 30
0.0
 10
12.1965907764
 20
7.2022071442
 30
0.0
 10
12.1963853429
 20
7.2213392416
 30
0.0
 10
12.1963853429
 20
7.2310376826
 30
0.0
  0
SPLINE
  5
40E
100
AcDbEntity
  8
0
100
AcDbSpline
 62
7
  6
CONTINUOUS
 70
0
 71
3
 72
29
 73
25
 74
0
 42
0.0000001
 43
0.0000001
 44
0.0000000001
 40
0.0
 40
0.0
 40
0.0
 40
0.0
 40
0.0309064346
 40
0.0619690689
 40
0.093174809
 40
0.1245169344
 40
0.1559808655
 40
0.187551265
 40
0.2192113697
 40
0.2509431851
 40
0.3145196183
 40
0.3781719951
 40
0.441772025
 40
0.4735288242
 40
0.5052327915
 40
0.5684197586
 40
0.6312865591
 40
0.6625932138
 40
0.6938018029
 40
0.7558910374
 40
0.8175540959
 40
0.8787851911
 40
0.9395926961
 40
1.0
 40
1.0
 40
1.0
 40
1.0
 10
11.7701349349
 20
8.4083317684
 30
0.0
 10
11.7684978272
 20
8.4084453022
 30
0.0
 10
11.7652224882
 20
8.4087938079
 30
0.0
 10
11.7603497541
 20
8.4096726879
 30
0.0
 10
11.7555295592
 20
8.4109026696
 30
0.0
 10
11.7507873357
 20
8.4124738958
 30
0.0
 10
11.7461464174
 20
8.4143744137
 30
0.0
 10
11.7416286761
 20
8.4165897188
 30
0.0
 10
11.7372537122
 20
8.4191038362
 30
0.0
 10
11.7316324215
 20
8.422832363
 30
0.0
 10
11.7250487511
 20
8.4281508478
 30
0.0
 10
11.7179635563
 20
8.4354245412
 30
0.0
 10
11.7127844347
 20
8.4421163759
 30
0.0
 10
11.7091039686
 20
8.447773843
 30
0.0
 10
11.7057426967
 20
8.4536014146
 30
0.0
 10
11.7021364164
 20
8.4611797142
 30
0.0
 10
11.6993342259
 20
8.4690673876
 30
0.0
 10
11.697586993
 20
8.4754939908
 30
0.0
 10
11.6961738339
 20
8.4819598763
 30
0.0
 10
11.6950228918
 20
8.4901220885
 30
0.0
 10
11.6946328241
 20
8.4999526211
 30
0.0
 10
11.695236585
 20
8.5097053491
 30
0.0
 10
11.6968332088
 20
8.5192771933
 30
0.0
 10
11.6985644038
 20
8.5254916443
 30
0.0
 10
11.6995943461
 20
8.5285292326
 30
0.0
  0
SPLINE
  5
40F
100
AcDbEntity
  8
0
100
AcDbSpline
 62
7
  6
CONTINUOUS
 70
0
 71
3
 72
11
 73
7
 74
0
 42
0.0000001
 43
0.0000001
 44
0.0000000001
 40
0.0
 40
0.0
 40
0.0
 40
0.0
 40
0.246203594
 40
0.4939436925
 40
0.7447268815
 40
1.0
 40
1.0
 40
1.0
 40
1.0
 10
13.7235987818
 20
8.9034238826
 30
0.0
 10
13.7245175884
 20
8.9033601686
 30
0.0
 10
13.7263565623
 20
8.9031566296
 30
0.0
 10
13.7290942933
 20
8.9026251724
 30
0.0
 10
13.731813412
 20
8.9018675739
 30
0.0
 10
13.7335941716
 20
8.9012189141
 30
0.0
 10
13.7344788053
 20
8.900859282
 30
0.0
  0
SPLINE
  5
410
100
AcDbEntity
  8
0
100
AcDbSpline
 62
7
  6
CONTINUOUS
 70
0
 71
3
 72
39
 73
35
 74
0
 42
0.0000001
 43
0.0000001
 44
0.0000000001
 40
0.0
 40
0.0
 40
0.0
 40
0.0
 40
0.0253492203
 40
0.0497970285
 40
0.0733025456
 40
0.0958450951
 40
0.1174281692
 40
0.1380884248
 40
0.1579078655
 40
0.1770226469
 40
0.1956326689
 40
0.2140060868
 40
0.2324690485
 40
0.2513892963
 40
0.2711440468
 40
0.2920913731
 40
0.3145453976
 40
0.3387618297
 40
0.3649355124
 40
0.3932003451
 40
0.4236382446
 40
0.4562837926
 40
0.4911351374
 40
0.5281586203
 40
0.567298429
 40
0.608480105
 40
0.6516172806
 40
0.696615409
 40
0.7433740825
 40
0.7917914678
 40
0.8417641195
 40
0.8931897147
 40
0.9459679357
 40
1.0
 40
1.0
 40
1.0
 40
1.0
 10
10.7966925794
 20
8.3287234665
 30
0.0
 10
10.7970246392
 20
8.3279240046
 30
0.0
 10
10.7977236176
 20
8.326372284
 30
0.0
 10
10.7988997098
 20
8.3241603454
 30
0.0
 10
10.8001803318
 20
8.3221190621
 30
0.0
 10
10.8015606132
 20
8.3202639173
 30
0.0
 10
10.8030349544
 20
8.3186099846
 30
0.0
 10
10.8045977678
 20
8.3171725493
 30
0.0
 10
10.8062433257
 20
8.3159670813
 30
0.0
 10
10.8079654229
 20
8.3150087701
 30
0.0
 10
10.8097576475
 20
8.3143135787
 30
0.0
 10
10.811612061
 20
8.3138959015
 30
0.0
 10
10.813519763
 20
8.3137698752
 30
0.0
 10
10.8154708372
 20
8.3139449211
 30
0.0
 10
10.8174559111
 20
8.3144285001
 30
0.0
 10
10.8194676939
 20
8.3152225973
 30
0.0
 10
10.8215005422
 20
8.3163283962
 30
0.0
 10
10.8235515074
 20
8.3177431564
 30
0.0
 10
10.8256182323
 20
8.3194636691
 30
0.0
 10
10.8277004753
 20
8.3214833919
 30
0.0
 10
10.8297981291
 20
8.3237947462
 30
0.0
 10
10.8319129508
 20
8.3263873647
 30
0.0
 10
10.8340467867
 20
8.3292498593
 30
0.0
 10
10.836203217
 20
8.3323687866
 30
0.0
 10
10.8383857005
 20
8.3357302201
 30
0.0
 10
10.840599227
 20
8.3393188964
 30
0.0
 10
10.8428485036
 20
8.3431195843
 30
0.0
 10
10.8451391849
 20
8.3471164639
 30
0.0
 10
10.8474768842
 20
8.3512938835
 30
0.0
 10
10.8498672915
 20
8.3556363027
 30
0.0
 10
10.8523162905
 20
8.3601283279
 30
0.0
 10
10.8548294509
 20
8.3647549769
 30
0.0
 10
10.8574121256
 20
8.3695016283
 30
0.0
 10
10.8591643173
 20
8.372700819
 30
0.0
 10
10.8600542945
 20
8.3743172108
 30
0.0
  0
SPLINE
  5
411
100
AcDbEntity
  8
0
100
AcDbSpline
 62
7
  6
CONTINUOUS
 70
0
 71
3
 72
21
 73
17
 74
0
 42
0.0000001
 43
0.0000001
 44
0.0000000001
 40
0.0
 40
0.0
 40
0.0
 40
0.0
 40
0.1273176984
 40
0.2537999461
 40
0.3167619614
 40
0.3795355204
 40
0.4421314992
 40
0.5045621453
 40
0.5668413456
 40
0.6289845231
 40
0.6910084433
 40
0.7529310869
 40
0.8147714401
 40
0.8765493236
 40
0.9382852134
 40
1.0
 40
1.0
 40
1.0
 40
1.0
 10
10.2304488569
 20
8.781067877
 30
0.0
 10
10.2304488569
 20
8.7878126851
 30
0.0
 10
10.231092694
 20
8.8012667245
 30
0.0
 10
10.2335242852
 20
8.8178988216
 30
0.0
 10
10.2364305523
 20
8.8309452452
 30
0.0
 10
10.2390809162
 20
8.8405682937
 30
0.0
 10
10.2421989109
 20
8.8500203454
 30
0.0
 10
10.2457773476
 20
8.85927988
 30
0.0
 10
10.2498079763
 20
8.8683254814
 30
0.0
 10
10.2542815842
 20
8.877136273
 30
0.0
 10
10.2591878223
 20
8.8856919445
 30
0.0
 10
10.2645153759
 20
8.8939727784
 30
0.0
 10
10.2702520104
 20
8.901959613
 30
0.0
 10
10.2763845316
 20
8.9096341055
 30
0.0
 10
10.2828985251
 20
8.9169783437
 30
0.0
 10
10.2874864178
 20
8.9216438363
 30
0.0
 10
10.2898379665
 20
8.9239152441
 30
0.0
  0
SPLINE
  5
412
100
AcDbEntity
  8
0
100
AcDbSpline
 62
7
  6
CONTINUOUS
 70
0
 71
3
 72
51
 73
47
 74
0
 42
0.0000001
 43
0.0000001
 44
0.0000000001
 40
0.0
 40
0.0
 40
0.0
 40
0.0
 40
0.0053769891
 40
0.0108200889
 40
0.0163928368
 40
0.0221540886
 40
0.0344342525
 40
0.0410500032
 40
0.0480245107
 40
0.0553844764
 40
0.0631514814
 40
0.0713426172
 40
0.0799711848
 40
0.0890471962
 40
0.0985778991
 40
0.1085681328
 40
0.1190206916
 40
0.1299365723
 40
0.1413152152
 40
0.1531546828
 40
0.1654518125
 40
0.1782023553
 40
0.1914010647
 40
0.2050418156
 40
0.2191176457
 40
0.2336208658
 40
0.2485430663
 40
0.2796069568
 40
0.3122309025
 40
0.3463272317
 40
0.3818008704
 40
0.4185501867
 40
0.4564677329
 40
0.4954409182
 40
0.5353526324
 40
0.5760818364
 40
0.6175041295
 40
0.6594923009
 40
0.7019168705
 40
0.7446466218
 40
0.787549133
 40
0.8304912969
 40
0.8733398638
 40
0.9159619161
 40
0.9582255157
 40
1.0
 40
1.0
 40
1.0
 40
1.0
 10
13.2630608422
 20
7.7866733126
 30
0.0
 10
13.2643544275
 20
7.786583608
 30
0.0
 10
13.2669704044
 20
7.786553717
 30
0.0
 10
13.2709105668
 20
7.7869604283
 30
0.0
 10
13.2748729537
 20
7.787817081
 30
0.0
 10
13.2802924082
 20
7.7895933871
 30
0.0
 10
13.2856428588
 20
7.7922713534
 30
0.0
 10
13.2908614639
 20
7.7956956271
 30
0.0
 10
13.2948797093
 20
7.7987656554
 30
0.0
 10
13.2988998854
 20
7.8022698302
 30
0.0
 10
13.3029201534
 20
7.8062057065
 30
0.0
 10
13.3069373433
 20
7.8105698945
 30
0.0
 10
13.3109485128
 20
7.8153589401
 30
0.0
 10
13.314950582
 20
7.8205689747
 30
0.0
 10
13.3189404049
 20
7.8261958311
 30
0.0
 10
13.3229148201
 20
7.8322349676
 30
0.0
 10
13.3268706175
 20
7.8386815074
 30
0.0
 10
13.3308045937
 20
7.8455302137
 30
0.0
 10
13.3347135301
 20
7.852775511
 30
0.0
 10
13.3385942212
 20
7.8604114798
 30
0.0
 10
13.3424434733
 20
7.8684318681
 30
0.0
 10
13.3462581067
 20
7.876830096
 30
0.0
 10
13.3500349745
 20
7.8855992615
 30
0.0
 10
13.353770945
 20
7.8947321509
 30
0.0
 10
13.3574629273
 20
7.9042212378
 30
0.0
 10
13.3611078801
 20
7.9140587107
 30
0.0
 10
13.3659662042
 20
7.9278137531
 30
0.0
 10
13.3718865105
 20
7.9458256532
 30
0.0
 10
13.3786649122
 20
7.968414062
 30
0.0
 10
13.385186527
 20
7.9921823892
 30
0.0
 10
13.3914296338
 20
8.0170521348
 30
0.0
 10
13.3973734216
 20
8.0429413079
 30
0.0
 10
13.4029980952
 20
8.0697644171
 30
0.0
 10
13.40828493
 20
8.0974328538
 30
0.0
 10
13.4132163366
 20
8.1258551725
 30
0.0
 10
13.4177759165
 20
8.1549374081
 30
0.0
 10
13.421948516
 20
8.1845833914
 30
0.0
 10
13.4257202747
 20
8.2146950722
 30
0.0
 10
13.4290786711
 20
8.2451728481
 30
0.0
 10
13.4320125629
 20
8.2759158971
 30
0.0
 10
13.4345122234
 20
8.306822512
 30
0.0
 10
13.4365693745
 20
8.3377904459
 30
0.0
 10
13.438177211
 20
8.3687172321
 30
0.0
 10
13.4393304302
 20
8.3995005891
 30
0.0
 10
13.4400252365
 20
8.4300385669
 30
0.0
 10
13.4401824061
 20
8.450305151
 30
0.0
 10
13.4401824061
 20
8.4603793083
 30
0.0
  0
SPLINE
  5
413
100
AcDbEntity
  8
0
100
AcDbSpline
 62
7
  6
CONTINUOUS
 70
0
 71
3
 72
40
 73
36
 74
0
 42
0.0000001
 43
0.0000001
 44
0.0000000001
 40
0.0
 40
0.0
 40
0.0
 40
0.0
 40
0.0063160361
 40
0.012670985
 40
0.0191029768
 40
0.0256486774
 40
0.0323427276
 40
0.0392172367
 40
0.0536154166
 40
0.0690525603
 40
0.0856859191
 40
0.1036342594
 40
0.1229843618
 40
0.1437972644
 40
0.1661133339
 40
0.1899562493
 40
0.2153363101
 40
0.2422528294
 40
0.2706958154
 40
0.300647514
 40
0.3320835523
 40
0.3649736548
 40
0.3992823678
 40
0.4349697243
 40
0.471991612
 40
0.5103000984
 40
0.5498439005
 40
0.5905686402
 40
0.6324169852
 40
0.6753290134
 40
0.7192424156
 40
0.7640925682
 40
0.8098130079
 40
0.9035867219
 40
1.0
 40
1.0
 40
1.0
 40
1.0
 10
13.3377796319
 20
8.8640855109
 30
0.0
 10
13.3386923331
 20
8.864022219
 30
0.0
 10
13.340519047
 20
8.8638205439
 30
0.0
 10
13.343238639
 20
8.8632948111
 30
0.0
 10
13.3459400562
 20
8.8625459578
 30
0.0
 10
13.3486217265
 20
8.861574542
 30
0.0
 10
13.3512825419
 20
8.8603811077
 30
0.0
 10
13.3548554752
 20
8.858465842
 30
0.0
 10
13.3592766433
 20
8.8554835328
 30
0.0
 10
13.3643904557
 20
8.8510874701
 30
0.0
 10
13.3693903274
 20
8.8458291394
 30
0.0
 10
13.3742704696
 20
8.8397182863
 30
0.0
 10
13.3790256329
 20
8.832764494
 30
0.0
 10
13.3836495437
 20
8.8249784607
 30
0.0
 10
13.3881356367
 20
8.8163721438
 30
0.0
 10
13.3924771673
 20
8.8069589684
 30
0.0
 10
13.3966673293
 20
8.7967537814
 30
0.0
 10
13.4006993716
 20
8.7857728555
 30
0.0
 10
13.4045667497
 20
8.7740338767
 30
0.0
 10
13.4082631109
 20
8.7615558656
 30
0.0
 10
13.4117823208
 20
8.7483591239
 30
0.0
 10
13.4151185463
 20
8.73446521
 30
0.0
 10
13.418266256
 20
8.7198968828
 30
0.0
 10
13.4212201966
 20
8.7046780381
 30
0.0
 10
13.4239754378
 20
8.6888336768
 30
0.0
 10
13.4265274093
 20
8.6723898627
 30
0.0
 10
13.428871854
 20
8.655373659
 30
0.0
 10
13.4310048469
 20
8.6378130852
 30
0.0
 10
13.4329228503
 20
8.6197370771
 30
0.0
 10
13.4346226731
 20
8.6011754271
 30
0.0
 10
13.4361014564
 20
8.5821587442
 30
0.0
 10
13.4373567753
 20
8.5627183489
 30
0.0
 10
13.4387413125
 20
8.5360509463
 30
0.0
 10
13.4398865272
 20
8.5018950319
 30
0.0
 10
13.4401824061
 20
8.4743450041
 30
0.0
 10
13.4401824061
 20
8.4603793083
 30
0.0
  0
SPLINE
  5
414
100
AcDbEntity
  8
0
100
AcDbSpline
 62
7
  6
CONTINUOUS
 70
0
 71
3
 72
15
 73
11
 74
0
 42
0.0000001
 43
0.0000001
 44
0.0000000001
 40
0.0
 40
0.0
 40
0.0
 40
0.0
 40
0.1273483281
 40
0.2538605602
 40
0.3795878981
 40
0.5046051042
 40
0.6290174419
 40
0.7529533761
 40
0.876560577
 40
1.0
 40
1.0
 40
1.0
 40
1.0
 10
11.3330534483
 20
7.195825839
 30
0.0
 10
11.3330534483
 20
7.200152968
 30
0.0
 10
11.333466602
 20
7.208784799
 30
0.0
 10
11.3353350553
 20
7.221566528
 30
0.0
 10
11.3384332612
 20
7.2340270978
 30
0.0
 10
11.3427332365
 20
7.2460499785
 30
0.0
 10
11.3481955195
 20
7.2575242959
 30
0.0
 10
11.3547703436
 20
7.2683440833
 30
0.0
 10
11.3623958721
 20
7.2784079685
 30
0.0
 10
11.3681375104
 20
7.2845555539
 30
0.0
 10
11.3711542891
 20
7.2874695338
 30
0.0
  0
SPLINE
  5
415
100
AcDbEntity
  8
0
100
AcDbSpline
 62
7
  6
CONTINUOUS
 70
0
 71
3
 72
55
 73
51
 74
0
 42
0.0000001
 43
0.0000001
 44
0.0000000001
 40
0.0
 40
0.0
 40
0.0
 40
0.0
 40
0.0095825819
 40
0.0187371424
 40
0.0274870077
 40
0.0358597765
 40
0.0515981845
 40
0.0590560109
 40
0.0662987855
 40
0.0733799977
 40
0.0803572919
 40
0.0872911216
 40
0.0942431942
 40
0.1012746911
 40
0.1084445784
 40
0.115808164
 40
0.1234161365
 40
0.1313138569
 40
0.1395413357
 40
0.1481331538
 40
0.1571189369
 40
0.166523697
 40
0.176368282
 40
0.1866699867
 40
0.1974427542
 40
0.2086978719
 40
0.2204440349
 40
0.2326878727
 40
0.2454341107
 40
0.2586857537
 40
0.2724444547
 40
0.2867103953
 40
0.3014827497
 40
0.3167595002
 40
0.332537753
 40
0.3655816089
 40
0.4005762908
 40
0.4374714424
 40
0.4762073351
 40
0.5167160364
 40
0.5589223426
 40
0.6027445495
 40
0.6480951047
 40
0.6948811777
 40
0.7430051698
 40
0.792365118
 40
0.8428554393
 40
0.8943663173
 40
0.946786822
 40
1.0
 40
1.0
 40
1.0
 40
1.0
 10
13.3317593317
 20
8.8761697357
 30
0.0
 10
13.3329339007
 20
8.8772628954
 30
0.0
 10
13.3352819874
 20
8.8793462143
 30
0.0
 10
13.3388845908
 20
8.8822141476
 30
0.0
 10
13.3424838825
 20
8.8847504646
 30
0.0
 10
13.3471769859
 20
8.8876272943
 30
0.0
 10
13.3519648307
 20
8.8899244773
 30
0.0
 10
13.3568036109
 20
8.8915425525
 30
0.0
 10
13.3603549702
 20
8.8923952169
 30
0.0
 10
13.3638901205
 20
8.892906936
 30
0.0
 10
13.3674065598
 20
8.8930770929
 30
0.0
 10
13.3709013558
 20
8.8929050775
 30
0.0
 10
13.3743715598
 20
8.8923911166
 30
0.0
 10
13.3778142883
 20
8.8915357612
 30
0.0
 10
13.3812268756
 20
8.8903401017
 30
0.0
 10
13.3846069824
 20
8.8888055972
 30
0.0
 10
13.3879524714
 20
8.886933754
 30
0.0
 10
13.3912615594
 20
8.8847263955
 30
0.0
 10
13.3945324625
 20
8.8821851747
 30
0.0
 10
13.3977636193
 20
8.8793119907
 30
0.0
 10
13.4009533946
 20
8.8761086849
 30
0.0
 10
13.4041001842
 20
8.8725772486
 30
0.0
 10
13.4072024115
 20
8.8687198206
 30
0.0
 10
13.410258365
 20
8.8645386181
 30
0.0
 10
13.4132664811
 20
8.8600361255
 30
0.0
 10
13.4162250107
 20
8.8552149063
 30
0.0
 10
13.4191323562
 20
8.8500777916
 30
0.0
 10
13.4219868268
 20
8.8446277508
 30
0.0
 10
13.4247867713
 20
8.8388679619
 30
0.0
 10
13.427530602
 20
8.832801803
 30
0.0
 10
13.4302166456
 20
8.8264328111
 30
0.0
 10
13.4328434011
 20
8.8197647479
 30
0.0
 10
13.4354092372
 20
8.8128015246
 30
0.0
 10
13.437912719
 20
8.8055472494
 30
0.0
 10
13.4412164404
 20
8.7953347037
 30
0.0
 10
13.4451655155
 20
8.7818638051
 30
0.0
 10
13.4495629977
 20
8.7648496509
 30
0.0
 10
13.4536785573
 20
8.7467864419
 30
0.0
 10
13.4575023091
 20
8.727716964
 30
0.0
 10
13.4610250288
 20
8.7076862128
 30
0.0
 10
13.46423822
 20
8.6867416247
 30
0.0
 10
13.4671341279
 20
8.6649328417
 30
0.0
 10
13.4697057632
 20
8.6423116103
 30
0.0
 10
13.4719469181
 20
8.6189316411
 30
0.0
 10
13.4738521819
 20
8.5948484864
 30
0.0
 10
13.475416965
 20
8.570119359
 30
0.0
 10
13.4766374648
 20
8.5448031253
 30
0.0
 10
13.4775107683
 20
8.5189598043
 30
0.0
 10
13.4780346977
 20
8.4926511087
 30
0.0
 10
13.4781494701
 20
8.474962998
 30
0.0
 10
13.4781494701
 20
8.4660526963
 30
0.0
  0
SPLINE
  5
416
100
AcDbEntity
  8
0
100
AcDbSpline
 62
4
  6
CONTINUOUS
 70
0
 71
3
 72
289
 73
285
 74
0
 42
0.0000001
 43
0.0000001
 44
0.0000000001
 40
0.0
 40
0.0
 40
0.0
 40
0.0
 40
0.015625
 40
0.0234375
 40
0.03125
 40
0.0390625
 40
0.046875
 40
0.05078125
 40
0.0546875
 40
0.056640625
 40
0.05859375
 40
0.060546875
 40
0.0615234375
 40
0.0620117188
 40
0.0625
 40
0.0629882812
 40
0.0634765625
 40
0.064453125
 40
0.06640625
 40
0.068359375
 40
0.0703125
 40
0.07421875
 40
0.078125
 40
0.0859375
 40
0.09375
 40
0.1015625
 40
0.109375
 40
0.11328125
 40
0.1171875
 40
0.119140625
 40
0.12109375
 40
0.123046875
 40
0.1240234375
 40
0.1245117188
 40
0.125
 40
0.1254882812
 40
0.1259765625
 40
0.126953125
 40
0.12890625
 40
0.130859375
 40
0.1328125
 40
0.13671875
 40
0.140625
 40
0.1484375
 40
0.15625
 40
0.1640625
 40
0.171875
 40
0.17578125
 40
0.1796875
 40
0.181640625
 40
0.18359375
 40
0.185546875
 40
0.1865234375
 40
0.1870117188
 40
0.1875
 40
0.1879882812
 40
0.1884765625
 40
0.189453125
 40
0.19140625
 40
0.193359375
 40
0.1953125
 40
0.19921875
 40
0.203125
 40
0.2109375
 40
0.21875
 40
0.2265625
 40
0.234375
 40
0.23828125
 40
0.2421875
 40
0.244140625
 40
0.24609375
 40
0.248046875
 40
0.2490234375
 40
0.2495117188
 40
0.25
 40
0.2504882812
 40
0.2509765625
 40
0.251953125
 40
0.25390625
 40
0.255859375
 40
0.2578125
 40
0.26171875
 40
0.265625
 40
0.2734375
 40
0.28125
 40
0.2890625
 40
0.296875
 40
0.30078125
 40
0.3046875
 40
0.306640625
 40
0.30859375
 40
0.310546875
 40
0.3115234375
 40
0.3120117188
 40
0.3125
 40
0.3129882812
 40
0.3134765625
 40
0.314453125
 40
0.31640625
 40
0.318359375
 40
0.3203125
 40
0.32421875
 40
0.328125
 40
0.3359375
 40
0.34375
 40
0.3515625
 40
0.359375
 40
0.36328125
 40
0.3671875
 40
0.369140625
 40
0.37109375
 40
0.373046875
 40
0.3740234375
 40
0.3745117188
 40
0.375
 40
0.3754882812
 40
0.3759765625
 40
0.376953125
 40
0.37890625
 40
0.380859375
 40
0.3828125
 40
0.38671875
 40
0.390625
 40
0.3984375
 40
0.40625
 40
0.4140625
 40
0.421875
 40
0.42578125
 40
0.4296875
 40
0.431640625
 40
0.43359375
 40
0.435546875
 40
0.4365234375
 40
0.4375
 40
0.4384765625
 40
0.439453125
 40
0.44140625
 40
0.443359375
 40
0.4453125
 40
0.44921875
 40
0.453125
 40
0.4609375
 40
0.46875
 40
0.4765625
 40
0.484375
 40
0.48828125
 40
0.4921875
 40
0.49609375
 40
0.498046875
 40
0.4990234375
 40
0.5
 40
0.5009765625
 40
0.501953125
 40
0.50390625
 40
0.5078125
 40
0.51171875
 40
0.515625
 40
0.5234375
 40
0.53125
 40
0.5390625
 40
0.546875
 40
0.5546875
 40
0.55859375
 40
0.560546875
 40
0.5625
 40
0.564453125
 40
0.56640625
 40
0.5703125
 40
0.578125
 40
0.5859375
 40
0.59375
 40
0.6015625
 40
0.609375
 40
0.61328125
 40
0.6171875
 40
0.62109375
 40
0.623046875
 40
0.625
 40
0.626953125
 40
0.62890625
 40
0.6328125
 40
0.63671875
 40
0.640625
 40
0.6484375
 40
0.65625
 40
0.6640625
 40
0.671875
 40
0.67578125
 40
0.6796875
 40
0.68359375
 40
0.685546875
 40
0.6865234375
 40
0.6875
 40
0.6884765625
 40
0.689453125
 40
0.69140625
 40
0.6953125
 40
0.69921875
 40
0.703125
 40
0.7109375
 40
0.71875
 40
0.7265625
 40
0.734375
 40
0.73828125
 40
0.7421875
 40
0.744140625
 40
0.74609375
 40
0.748046875
 40
0.7490234375
 40
0.7495117188
 40
0.75
 40
0.7504882812
 40
0.7509765625
 40
0.751953125
 40
0.75390625
 40
0.755859375
 40
0.7578125
 40
0.76171875
 40
0.765625
 40
0.7734375
 40
0.78125
 40
0.7890625
 40
0.796875
 40
0.80078125
 40
0.8046875
 40
0.806640625
 40
0.80859375
 40
0.810546875
 40
0.8115234375
 40
0.8120117188
 40
0.8125
 40
0.8129882812
 40
0.8134765625
 40
0.814453125
 40
0.81640625
 40
0.818359375
 40
0.8203125
 40
0.82421875
 40
0.828125
 40
0.8359375
 40
0.84375
 40
0.8515625
 40
0.859375
 40
0.86328125
 40
0.8671875
 40
0.869140625
 40
0.87109375
 40
0.873046875
 40
0.8740234375
 40
0.8745117188
 40
0.875
 40
0.8754882812
 40
0.8759765625
 40
0.876953125
 40
0.87890625
 40
0.880859375
 40
0.8828125
 40
0.88671875
 40
0.890625
 40
0.8984375
 40
0.90625
 40
0.9140625
 40
0.921875
 40
0.92578125
 40
0.9296875
 40
0.931640625
 40
0.93359375
 40
0.935546875
 40
0.9365234375
 40
0.9370117188
 40
0.9375
 40
0.9379882812
 40
0.9384765625
 40
0.939453125
 40
0.94140625
 40
0.943359375
 40
0.9453125
 40
0.94921875
 40
0.953125
 40
0.9609375
 40
0.96875
 40
0.9765625
 40
0.984375
 40
1.0
 40
1.0
 40
1.0
 40
1.0
 10
10.1813059756
 20
9.7601593379
 30
0.0
 10
10.1807736531
 20
9.7593271049
 30
0.0
 10
10.1799751691
 20
9.7580787554
 30
0.0
 10
10.1789105248
 20
9.7564142894
 30
0.0
 10
10.178112039
 20
9.75516594
 30
0.0
 10
10.177313563
 20
9.7539175904
 30
0.0
 10
10.1766481357
 20
9.7528772996
 30
0.0
 10
10.1761158625
 20
9.7520450658
 30
0.0
 10
10.1757830357
 20
9.7515249223
 30
0.0
 10
10.1755171315
 20
9.7511088014
 30
0.0
 10
10.1753167251
 20
9.7507967276
 30
0.0
 10
10.1751528319
 20
9.7505366125
 30
0.0
 10
10.1750319992
 20
9.750354637
 30
0.0
 10
10.1749724881
 20
9.750250487
 30
0.0
 10
10.1749009912
 20
9.7501728363
 30
0.0
 10
10.1749321807
 20
9.7500934204
 30
0.0
 10
10.1749379486
 20
9.7499881483
 30
0.0
 10
10.1749647306
 20
9.7498036351
 30
0.0
 10
10.1749942658
 20
9.7495401949
 30
0.0
 10
10.1750334426
 20
9.7492240024
 30
0.0
 10
10.1750843739
 20
9.7488024349
 30
0.0
 10
10.1751484847
 20
9.7482754678
 30
0.0
 10
10.1752508123
 20
9.7474323248
 30
0.0
 10
10.1753788079
 20
9.7463783945
 30
0.0
 10
10.1755323633
 20
9.7451136788
 30
0.0
 10
10.1756859384
 20
9.7438489632
 30
0.0
 10
10.1758138849
 20
9.7427950325
 30
0.0
 10
10.1759163107
 20
9.7419518903
 30
0.0
 10
10.1759801717
 20
9.7414249212
 30
0.0
 10
10.1760316157
 20
9.7410033578
 30
0.0
 10
10.1760692264
 20
9.7406871526
 30
0.0
 10
10.1761036615
 20
9.7404237523
 30
0.0
 10
10.1761216963
 20
9.740239168
 30
0.0
 10
10.1761414795
 20
9.7401340098
 30
0.0
 10
10.1761296183
 20
9.7400542437
 30
0.0
 10
10.1762198126
 20
9.7399779082
 30
0.0
 10
10.1763044736
 20
9.7398749309
 30
0.0
 10
10.1764692162
 20
9.7396952782
 30
0.0
 10
10.1766958915
 20
9.7394383399
 30
0.0
 10
10.1769716133
 20
9.7391301388
 30
0.0
 10
10.1773379461
 20
9.7387191603
 30
0.0
 10
10.1777963061
 20
9.7382054522
 30
0.0
 10
10.1785294337
 20
9.7373835109
 30
0.0
 10
10.179445929
 20
9.7363560871
 30
0.0
 10
10.1805456842
 20
9.7351231771
 30
0.0
 10
10.181645459
 20
9.7338902681
 30
0.0
 10
10.1825619053
 20
9.732862842
 30
0.0
 10
10.183295131
 20
9.7320409053
 30
0.0
 10
10.1837532417
 20
9.7315271852
 30
0.0
 10
10.184120086
 20
9.7311162314
 30
0.0
 10
10.1843942452
 20
9.7308079552
 30
0.0
 10
10.1846258097
 20
9.7305512517
 30
0.0
 10
10.1847818241
 20
9.7303711798
 30
0.0
 10
10.1848804698
 20
9.7302688741
 30
0.0
 10
10.1849277076
 20
9.7301904758
 30
0.0
 10
10.1850771841
 20
9.7301184571
 30
0.0
 10
10.1852408241
 20
9.730020207
 30
0.0
 10
10.1855438096
 20
9.7298493061
 30
0.0
 10
10.1859679593
 20
9.7296046198
 30
0.0
 10
10.1864806572
 20
9.7293112283
 30
0.0
 10
10.1871629556
 20
9.7289199586
 30
0.0
 10
10.1880162733
 20
9.7284308992
 30
0.0
 10
10.1893813331
 20
9.7276483887
 30
0.0
 10
10.1910877436
 20
9.7266702559
 30
0.0
 10
10.1931353974
 20
9.7254964939
 30
0.0
 10
10.1951830693
 20
9.724322734
 30
0.0
 10
10.1968894346
 20
9.723344596
 30
0.0
 10
10.1982545848
 20
9.722562096
 30
0.0
 10
10.1991076727
 20
9.7220730098
 30
0.0
 10
10.1997904427
 20
9.7216817952
 30
0.0
 10
10.2003017
 20
9.7213882354
 30
0.0
 10
10.2007303571
 20
9.7211440758
 30
0.0
 10
10.2010252961
 20
9.7209722346
 30
0.0
 10
10.2012018287
 20
9.7208754911
 30
0.0
 10
10.2013117033
 20
9.7207988445
 30
0.0
 10
10.2015076791
 20
9.7207378279
 30
0.0
 10
10.2017389471
 20
9.7206510206
 30
0.0
 10
10.2021576591
 20
9.7205016479
 30
0.0
 10
10.2027485034
 20
9.7202869303
 30
0.0
 10
10.203460648
 20
9.7200298376
 30
0.0
 10
10.2044090803
 20
9.7196868489
 30
0.0
 10
10.2055949952
 20
9.7192581809
 30
0.0
 10
10.2074922497
 20
9.7185722741
 30
0.0
 10
10.2098638901
 20
9.7177149037
 30
0.0
 10
10.2127098257
 20
9.7166860533
 30
0.0
 10
10.215555777
 20
9.715657206
 30
0.0
 10
10.2179273782
 20
9.7147998277
 30
0.0
 10
10.2198247111
 20
9.7141139368
 30
0.0
 10
10.2210104266
 20
9.7136852284
 30
0.0
 10
10.2219592683
 20
9.7133423227
 30
0.0
 10
10.222670162
 20
9.7130849762
 30
0.0
 10
10.2232649201
 20
9.7128710526
 30
0.0
 10
10.2236766453
 20
9.7127202626
 30
0.0
 10
10.2239191079
 20
9.7126357262
 30
0.0
 10
10.2240806977
 20
9.712567734
 30
0.0
 10
10.2243197205
 20
9.7125172866
 30
0.0
 10
10.224611408
 20
9.7124439035
 30
0.0
 10
10.2251344455
 20
9.7123183345
 30
0.0
 10
10.2258750627
 20
9.7121374594
 30
0.0
 10
10.2267666195
 20
9.7119210474
 30
0.0
 10
10.2279543782
 20
9.7116322752
 30
0.0
 10
10.2294394134
 20
9.7112713863
 30
0.0
 10
10.2318152814
 20
9.7106939214
 30
0.0
 10
10.2347851814
 20
9.709972105
 30
0.0
 10
10.238349032
 20
9.7091059184
 30
0.0
 10
10.2419128961
 20
9.7082397356
 30
0.0
 10
10.2448827625
 20
9.7075179099
 30
0.0
 10
10.2472586978
 20
9.7069404635
 30
0.0
 10
10.2487435619
 20
9.7065795275
 30
0.0
 10
10.2499316717
 20
9.706290852
 30
0.0
 10
10.2508221559
 20
9.7060741444
 30
0.0
 10
10.251566129
 20
9.7058941943
 30
0.0
 10
10.2520831756
 20
9.7057669741
 30
0.0
 10
10.252384462
 20
9.7056962366
 30
0.0
 10
10.2525940001
 20
9.7056376628
 30
0.0
 10
10.2528663298
 20
9.7056001921
 30
0.0
 10
10.2532075336
 20
9.7055428702
 30
0.0
 10
10.253814845
 20
9.7054459865
 30
0.0
 10
10.2546770976
 20
9.7053057881
 30
0.0
 10
10.2557140843
 20
9.7051383175
 30
0.0
 10
10.2570959356
 20
9.7049147554
 30
0.0
 10
10.2588235228
 20
9.7046353945
 30
0.0
 10
10.2615875099
 20
9.7041883658
 30
0.0
 10
10.2650425452
 20
9.7036295972
 30
0.0
 10
10.2691885692
 20
9.702959069
 30
0.0
 10
10.2733345844
 20
9.7022885366
 30
0.0
 10
10.2767896418
 20
9.7017297786
 30
0.0
 10
10.2795535847
 20
9.7012827286
 30
0.0
 10
10.2812812842
 20
9.7010034219
 30
0.0
 10
10.2826629051
 20
9.7007797485
 30
0.0
 10
10.2837005957
 20
9.7006126178
 30
0.0
 10
10.2845606461
 20
9.7004713563
 30
0.0
 10
10.2852592092
 20
9.700362801
 30
0.0
 10
10.2857543781
 20
9.7002692143
 30
0.0
 10
10.2863592992
 20
9.7002220817
 30
0.0
 10
10.2871275227
 20
9.7001430113
 30
0.0
 10
10.2881009557
 20
9.7000497406
 30
0.0
 10
10.2892634452
 20
9.6999354328
 30
0.0
 10
10.2908153976
 20
9.6997838547
 30
0.0
 10
10.2927546648
 20
9.6995940971
 30
0.0
 10
10.2958578685
 20
9.6992906441
 30
0.0
 10
10.2997367451
 20
9.6989112747
 30
0.0
 10
10.3043914473
 20
9.6984560475
 30
0.0
 10
10.309046153
 20
9.698000841
 30
0.0
 10
10.3129250211
 20
9.6976214201
 30
0.0
 10
10.3160282417
 20
9.69731807
 30
0.0
 10
10.3183553108
 20
9.6970900467
 30
0.0
 10
10.3202956371
 20
9.6969016523
 30
0.0
 10
10.3216517028
 20
9.6967665871
 30
0.0
 10
10.3224299743
 20
9.6966943865
 30
0.0
 10
10.3230041654
 20
9.6966262087
 30
0.0
 10
10.3236147181
 20
9.6966116503
 30
0.0
 10
10.324416105
 20
9.6965735361
 30
0.0
 10
10.3258244415
 20
9.6965155503
 30
0.0
 10
10.3278332612
 20
9.6964281575
 30
0.0
 10
10.3302451674
 20
9.6963252368
 30
0.0
 10
10.3334605798
 20
9.6961873255
 30
0.0
 10
10.3374800081
 20
9.6960151868
 30
0.0
 10
10.3423032345
 20
9.6958084438
 30
0.0
 10
10.3471265506
 20
9.6956020063
 30
0.0
 10
10.3519495955
 20
9.6953945236
 30
0.0
 10
10.3559696289
 20
9.6952248507
 30
0.0
 10
10.3587820292
 20
9.6950997554
 30
0.0
 10
10.3603916488
 20
9.6950381451
 30
0.0
 10
10.3615917263
 20
9.6949641261
 30
0.0
 10
10.3628190854
 20
9.6949964158
 30
0.0
 10
10.3644460482
 20
9.6950023871
 30
0.0
 10
10.3672976668
 20
9.6950301139
 30
0.0
 10
10.3713690886
 20
9.6950606908
 30
0.0
 10
10.3762557916
 20
9.6951012506
 30
0.0
 10
10.3811422181
 20
9.6951407925
 30
0.0
 10
10.3860287536
 20
9.6951805384
 30
0.0
 10
10.3901007337
 20
9.6952138285
 30
0.0
 10
10.393358582
 20
9.6952399541
 30
0.0
 10
10.3958012551
 20
9.6952609667
 30
0.0
 10
10.3978390831
 20
9.69527396
 30
0.0
 10
10.3994642611
 20
9.6952944868
 30
0.0
 10
10.4006970377
 20
9.6952821958
 30
0.0
 10
10.4018767839
 20
9.6953755832
 30
0.0
 10
10.4034683031
 20
9.6954631848
 30
0.0
 10
10.4054513465
 20
9.6955853522
 30
0.0
 10
10.407833719
 20
9.695726532
 30
0.0
 10
10.4110092656
 20
9.6959166651
 30
0.0
 10
10.4149790234
 20
9.6961536833
 30
0.0
 10
10.4197425998
 20
9.6964383764
 30
0.0
 10
10.4245061889
 20
9.6967230213
 30
0.0
 10
10.4284759147
 20
9.6969601601
 30
0.0
 10
10.4316515253
 20
9.6971500521
 30
0.0
 10
10.4340337027
 20
9.6972919673
 30
0.0
 10
10.4360173565
 20
9.6974118338
 30
0.0
 10
10.4374088462
 20
9.6974925927
 30
0.0
 10
10.438199405
 20
9.6975436554
 30
0.0
 10
10.4388052209
 20
9.6975681075
 30
0.0
 10
10.4393617386
 20
9.6976454821
 30
0.0
 10
10.4401209581
 20
9.6977301884
 30
0.0
 10
10.4414415803
 20
9.6978870251
 30
0.0
 10
10.4433323721
 20
9.6981065809
 30
0.0
 10
10.4455995293
 20
9.6983719727
 30
0.0
 10
10.448623032
 20
9.698725156
 30
0.0
 10
10.4524021951
 20
9.6991668659
 30
0.0
 10
10.4569372846
 20
9.6996968184
 30
0.0
 10
10.4614723435
 20
9.7002267995
 30
0.0
 10
10.4652515829
 20
9.7006684378
 30
0.0
 10
10.468274933
 20
9.7010217645
 30
0.0
 10
10.4701646187
 20
9.7012425597
 30
0.0
 10
10.471676157
 20
9.7014192735
 30
0.0
 10
10.4728103862
 20
9.7015515964
 30
0.0
 10
10.4737537469
 20
9.701662541
 30
0.0
 10
10.4744176911
 20
9.7017388768
 30
0.0
 10
10.4747914796
 20
9.7017845667
 30
0.0
 10
10.4750876194
 20
9.7018130043
 30
0.0
 10
10.4753233696
 20
9.7018637266
 30
0.0
 10
10.4756587677
 20
9.7019235831
 30
0.0
 10
10.4762358999
 20
9.7020319536
 30
0.0
 10
10.4770655057
 20
9.7021848753
 30
0.0
 10
10.4780588363
 20
9.7023691917
 30
0.0
 10
10.4793840443
 20
9.7026146638
 30
0.0
 10
10.4810402915
 20
9.7029216009
 30
0.0
 10
10.483690434
 20
9.7034126461
 30
0.0
 10
10.4870030614
 20
9.7040264713
 30
0.0
 10
10.4909782376
 20
9.7047630531
 30
0.0
 10
10.4949534015
 20
9.7054996388
 30
0.0
 10
10.4982660596
 20
9.7061134539
 30
0.0
 10
10.5009161406
 20
9.7066045194
 30
0.0
 10
10.5025725442
 20
9.7069114049
 30
0.0
 10
10.5038974312
 20
9.707156983
 30
0.0
 10
10.5048917423
 20
9.7073409756
 30
0.0
 10
10.5057182805
 20
9.7074949102
 30
0.0
 10
10.5063008889
 20
9.7076014725
 30
0.0
 10
10.5066275128
 20
9.7076642264
 30
0.0
 10
10.5068902145
 20
9.7077060488
 30
0.0
 10
10.5070851287
 20
9.7077679124
 30
0.0
 10
10.5073686593
 20
9.7078434067
 30
0.0
 10
10.5078538212
 20
9.7079787786
 30
0.0
 10
10.5085526693
 20
9.7081704643
 30
0.0
 10
10.5093888217
 20
9.708401216
 30
0.0
 10
10.5105045527
 20
9.7087086303
 30
0.0
 10
10.5118989215
 20
9.7090929854
 30
0.0
 10
10.5141300766
 20
9.7097079048
 30
0.0
 10
10.5169189633
 20
9.7104765708
 30
0.0
 10
10.5202656539
 20
9.7113989625
 30
0.0
 10
10.52361233
 20
9.7123213576
 30
0.0
 10
10.5264012526
 20
9.7130900149
 30
0.0
 10
10.528632336
 20
9.7137049518
 30
0.0
 10
10.530026887
 20
9.7140892626
 30
0.0
 10
10.5311422441
 20
9.7143967677
 30
0.0
 10
10.5319795387
 20
9.7146272418
 30
0.0
 10
10.5326748131
 20
9.7148197961
 30
0.0
 10
10.5331663547
 20
9.7149536175
 30
0.0
 10
10.5334396635
 20
9.7150315961
 30
0.0
 10
10.5336659758
 20
9.7150858285
 30
0.0
 10
10.5338107515
 20
9.7151563125
 30
0.0
 10
10.5340322265
 20
9.7152446225
 30
0.0
 10
10.5344065568
 20
9.7154018061
 30
0.0
 10
10.5349482421
 20
9.7156249733
 30
0.0
 10
10.5355952992
 20
9.715893365
 30
0.0
 10
10.5364590777
 20
9.7162510141
 30
0.0
 10
10.5375384462
 20
9.7166981463
 30
0.0
 10
10.539265634
 20
9.7174135181
 30
0.0
 10
10.5414245503
 20
9.7183077466
 30
0.0
 10
10.5440152813
 20
9.7193808146
 30
0.0
 10
10.5466059959
 20
9.7204538855
 30
0.0
 10
10.5487649533
 20
9.7213481067
 30
0.0
 10
10.5504920589
 20
9.7220634931
 30
0.0
 10
10.5515716363
 20
9.7225105881
 30
0.0
 10
10.552434986
 20
9.7228683135
 30
0.0
 10
10.5530833531
 20
9.7231364723
 30
0.0
 10
10.5536209398
 20
9.7233603682
 30
0.0
 10
10.5540025869
 20
9.7235162509
 30
0.0
 10
10.5542123386
 20
9.7236066454
 30
0.0
 10
10.5543931247
 20
9.7236707264
 30
0.0
 10
10.5544841876
 20
9.7237490074
 30
0.0
 10
10.5546369013
 20
9.723848429
 30
0.0
 10
10.5548895687
 20
9.7240247244
 30
0.0
 10
10.5552581456
 20
9.7242753686
 30
0.0
 10
10.5556971747
 20
9.724576658
 30
0.0
 10
10.5562836867
 20
9.7249781968
 30
0.0
 10
10.5570164363
 20
9.7254801821
 30
0.0
 10
10.5581890539
 20
9.726283324
 30
0.0
 10
10.559654751
 20
9.7272872633
 30
0.0
 10
10.5614136196
 20
9.7284919853
 30
0.0
 10
10.5631724797
 20
9.7296967088
 30
0.0
 10
10.5655176294
 20
9.7313030062
 30
0.0
 10
10.5672764911
 20
9.7325077293
 30
0.0
 10
10.5684490656
 20
9.7333108781
 30
0.0
  0
SPLINE
  5
417
100
AcDbEntity
  8
0
100
AcDbSpline
 62
4
  6
CONTINUOUS
 70
0
 71
3
 72
289
 73
285
 74
0
 42
0.0000001
 43
0.0000001
 44
0.0000000001
 40
0.0
 40
0.0
 40
0.0
 40
0.0
 40
0.015625
 40
0.0234375
 40
0.03125
 40
0.0390625
 40
0.046875
 40
0.05078125
 40
0.0546875
 40
0.056640625
 40
0.05859375
 40
0.060546875
 40
0.0615234375
 40
0.0620117188
 40
0.0625
 40
0.0629882812
 40
0.0634765625
 40
0.064453125
 40
0.06640625
 40
0.068359375
 40
0.0703125
 40
0.07421875
 40
0.078125
 40
0.0859375
 40
0.09375
 40
0.1015625
 40
0.109375
 40
0.11328125
 40
0.1171875
 40
0.119140625
 40
0.12109375
 40
0.123046875
 40
0.1240234375
 40
0.1245117188
 40
0.125
 40
0.1254882812
 40
0.1259765625
 40
0.126953125
 40
0.12890625
 40
0.130859375
 40
0.1328125
 40
0.13671875
 40
0.140625
 40
0.1484375
 40
0.15625
 40
0.1640625
 40
0.171875
 40
0.17578125
 40
0.1796875
 40
0.181640625
 40
0.18359375
 40
0.185546875
 40
0.1865234375
 40
0.1870117188
 40
0.1875
 40
0.1879882812
 40
0.1884765625
 40
0.189453125
 40
0.19140625
 40
0.193359375
 40
0.1953125
 40
0.19921875
 40
0.203125
 40
0.2109375
 40
0.21875
 40
0.2265625
 40
0.234375
 40
0.23828125
 40
0.2421875
 40
0.244140625
 40
0.24609375
 40
0.248046875
 40
0.2490234375
 40
0.2495117188
 40
0.25
 40
0.2504882812
 40
0.2509765625
 40
0.251953125
 40
0.25390625
 40
0.255859375
 40
0.2578125
 40
0.26171875
 40
0.265625
 40
0.2734375
 40
0.28125
 40
0.2890625
 40
0.296875
 40
0.30078125
 40
0.3046875
 40
0.306640625
 40
0.30859375
 40
0.310546875
 40
0.3115234375
 40
0.3120117188
 40
0.3125
 40
0.3129882812
 40
0.3134765625
 40
0.314453125
 40
0.31640625
 40
0.318359375
 40
0.3203125
 40
0.32421875
 40
0.328125
 40
0.3359375
 40
0.34375
 40
0.3515625
 40
0.359375
 40
0.36328125
 40
0.3671875
 40
0.369140625
 40
0.37109375
 40
0.373046875
 40
0.3740234375
 40
0.3745117188
 40
0.375
 40
0.3754882812
 40
0.3759765625
 40
0.376953125
 40
0.37890625
 40
0.380859375
 40
0.3828125
 40
0.38671875
 40
0.390625
 40
0.3984375
 40
0.40625
 40
0.4140625
 40
0.421875
 40
0.42578125
 40
0.4296875
 40
0.431640625
 40
0.43359375
 40
0.435546875
 40
0.4365234375
 40
0.4375
 40
0.4384765625
 40
0.439453125
 40
0.44140625
 40
0.443359375
 40
0.4453125
 40
0.44921875
 40
0.453125
 40
0.4609375
 40
0.46875
 40
0.4765625
 40
0.484375
 40
0.48828125
 40
0.4921875
 40
0.49609375
 40
0.498046875
 40
0.4990234375
 40
0.5
 40
0.5009765625
 40
0.501953125
 40
0.50390625
 40
0.5078125
 40
0.51171875
 40
0.515625
 40
0.5234375
 40
0.53125
 40
0.5390625
 40
0.546875
 40
0.5546875
 40
0.55859375
 40
0.560546875
 40
0.5625
 40
0.564453125
 40
0.56640625
 40
0.5703125
 40
0.578125
 40
0.5859375
 40
0.59375
 40
0.6015625
 40
0.609375
 40
0.61328125
 40
0.6171875
 40
0.62109375
 40
0.623046875
 40
0.625
 40
0.626953125
 40
0.62890625
 40
0.6328125
 40
0.63671875
 40
0.640625
 40
0.6484375
 40
0.65625
 40
0.6640625
 40
0.671875
 40
0.67578125
 40
0.6796875
 40
0.68359375
 40
0.685546875
 40
0.6865234375
 40
0.6875
 40
0.6884765625
 40
0.689453125
 40
0.69140625
 40
0.6953125
 40
0.69921875
 40
0.703125
 40
0.7109375
 40
0.71875
 40
0.7265625
 40
0.734375
 40
0.73828125
 40
0.7421875
 40
0.744140625
 40
0.74609375
 40
0.748046875
 40
0.7490234375
 40
0.7495117188
 40
0.75
 40
0.7504882812
 40
0.7509765625
 40
0.751953125
 40
0.75390625
 40
0.755859375
 40
0.7578125
 40
0.76171875
 40
0.765625
 40
0.7734375
 40
0.78125
 40
0.7890625
 40
0.796875
 40
0.80078125
 40
0.8046875
 40
0.806640625
 40
0.80859375
 40
0.810546875
 40
0.8115234375
 40
0.8120117188
 40
0.8125
 40
0.8129882812
 40
0.8134765625
 40
0.814453125
 40
0.81640625
 40
0.818359375
 40
0.8203125
 40
0.82421875
 40
0.828125
 40
0.8359375
 40
0.84375
 40
0.8515625
 40
0.859375
 40
0.86328125
 40
0.8671875
 40
0.869140625
 40
0.87109375
 40
0.873046875
 40
0.8740234375
 40
0.8745117188
 40
0.875
 40
0.8754882812
 40
0.8759765625
 40
0.876953125
 40
0.87890625
 40
0.880859375
 40
0.8828125
 40
0.88671875
 40
0.890625
 40
0.8984375
 40
0.90625
 40
0.9140625
 40
0.921875
 40
0.92578125
 40
0.9296875
 40
0.931640625
 40
0.93359375
 40
0.935546875
 40
0.9365234375
 40
0.9370117188
 40
0.9375
 40
0.9379882812
 40
0.9384765625
 40
0.939453125
 40
0.94140625
 40
0.943359375
 40
0.9453125
 40
0.94921875
 40
0.953125
 40
0.9609375
 40
0.96875
 40
0.9765625
 40
0.984375
 40
1.0
 40
1.0
 40
1.0
 40
1.0
 10
10.5684490611
 20
9.7333108737
 30
0.0
 10
10.5689813836
 20
9.7341431067
 30
0.0
 10
10.5697798676
 20
9.7353914561
 30
0.0
 10
10.5708445119
 20
9.7370559221
 30
0.0
 10
10.5716429977
 20
9.7383042715
 30
0.0
 10
10.5724414737
 20
9.7395526211
 30
0.0
 10
10.573106901
 20
9.7405929119
 30
0.0
 10
10.5736391742
 20
9.7414251458
 30
0.0
 10
10.5739720011
 20
9.7419452892
 30
0.0
 10
10.5742379052
 20
9.7423614101
 30
0.0
 10
10.5744383116
 20
9.742673484
 30
0.0
 10
10.5746022049
 20
9.742933599
 30
0.0
 10
10.5747230375
 20
9.7431155746
 30
0.0
 10
10.5747825486
 20
9.7432197246
 30
0.0
 10
10.5748540455
 20
9.7432973752
 30
0.0
 10
10.574822856
 20
9.7433767911
 30
0.0
 10
10.5748170881
 20
9.7434820633
 30
0.0
 10
10.5747903061
 20
9.7436665764
 30
0.0
 10
10.5747607709
 20
9.7439300166
 30
0.0
 10
10.5747215941
 20
9.7442462091
 30
0.0
 10
10.5746706628
 20
9.7446677766
 30
0.0
 10
10.574606552
 20
9.7451947437
 30
0.0
 10
10.5745042245
 20
9.7460378867
 30
0.0
 10
10.5743762288
 20
9.747091817
 30
0.0
 10
10.5742226734
 20
9.7483565328
 30
0.0
 10
10.5740690983
 20
9.7496212484
 30
0.0
 10
10.5739411518
 20
9.750675179
 30
0.0
 10
10.573838726
 20
9.7515183213
 30
0.0
 10
10.573774865
 20
9.7520452904
 30
0.0
 10
10.573723421
 20
9.7524668537
 30
0.0
 10
10.5736858104
 20
9.7527830589
 30
0.0
 10
10.5736513752
 20
9.7530464593
 30
0.0
 10
10.5736333404
 20
9.7532310436
 30
0.0
 10
10.5736135572
 20
9.7533362017
 30
0.0
 10
10.5736254184
 20
9.7534159678
 30
0.0
 10
10.5735352241
 20
9.7534923033
 30
0.0
 10
10.5734505631
 20
9.7535952806
 30
0.0
 10
10.5732858205
 20
9.7537749334
 30
0.0
 10
10.5730591453
 20
9.7540318716
 30
0.0
 10
10.5727834234
 20
9.7543400728
 30
0.0
 10
10.5724170906
 20
9.7547510512
 30
0.0
 10
10.5719587307
 20
9.7552647593
 30
0.0
 10
10.571225603
 20
9.7560867007
 30
0.0
 10
10.5703091077
 20
9.7571141245
 30
0.0
 10
10.5692093525
 20
9.7583470344
 30
0.0
 10
10.5681095777
 20
9.7595799434
 30
0.0
 10
10.5671931314
 20
9.7606073696
 30
0.0
 10
10.5664599057
 20
9.7614293062
 30
0.0
 10
10.566001795
 20
9.7619430263
 30
0.0
 10
10.5656349507
 20
9.7623539802
 30
0.0
 10
10.5653607915
 20
9.7626622564
 30
0.0
 10
10.565129227
 20
9.7629189599
 30
0.0
 10
10.5649732126
 20
9.7630990317
 30
0.0
 10
10.5648745669
 20
9.7632013375
 30
0.0
 10
10.5648273291
 20
9.7632797358
 30
0.0
 10
10.5646778526
 20
9.7633517544
 30
0.0
 10
10.5645142127
 20
9.7634500045
 30
0.0
 10
10.5642112271
 20
9.7636209055
 30
0.0
 10
10.5637870774
 20
9.7638655918
 30
0.0
 10
10.5632743796
 20
9.7641589833
 30
0.0
 10
10.5625920811
 20
9.764550253
 30
0.0
 10
10.5617387634
 20
9.7650393123
 30
0.0
 10
10.5603737036
 20
9.7658218229
 30
0.0
 10
10.5586672931
 20
9.7667999556
 30
0.0
 10
10.5566196393
 20
9.7679737176
 30
0.0
 10
10.5545719674
 20
9.7691474775
 30
0.0
 10
10.5528656021
 20
9.7701256155
 30
0.0
 10
10.551500452
 20
9.7709081155
 30
0.0
 10
10.550647364
 20
9.7713972017
 30
0.0
 10
10.549964594
 20
9.7717884163
 30
0.0
 10
10.5494533368
 20
9.7720819762
 30
0.0
 10
10.5490246796
 20
9.7723261357
 30
0.0
 10
10.5487297406
 20
9.772497977
 30
0.0
 10
10.5485532081
 20
9.7725947205
 30
0.0
 10
10.5484433334
 20
9.772671367
 30
0.0
 10
10.5482473576
 20
9.7727323836
 30
0.0
 10
10.5480160896
 20
9.772819191
 30
0.0
 10
10.5475973776
 20
9.7729685637
 30
0.0
 10
10.5470065333
 20
9.7731832812
 30
0.0
 10
10.5462943887
 20
9.7734403739
 30
0.0
 10
10.5453459564
 20
9.7737833627
 30
0.0
 10
10.5441600415
 20
9.7742120307
 30
0.0
 10
10.542262787
 20
9.7748979375
 30
0.0
 10
10.5398911466
 20
9.7757553078
 30
0.0
 10
10.537045211
 20
9.7767841583
 30
0.0
 10
10.5341992597
 20
9.7778130055
 30
0.0
 10
10.5318276585
 20
9.7786703838
 30
0.0
 10
10.5299303256
 20
9.7793562747
 30
0.0
 10
10.5287446101
 20
9.7797849831
 30
0.0
 10
10.5277957684
 20
9.7801278889
 30
0.0
 10
10.5270848747
 20
9.7803852353
 30
0.0
 10
10.5264901166
 20
9.7805991589
 30
0.0
 10
10.5260783914
 20
9.780749949
 30
0.0
 10
10.5258359288
 20
9.7808344854
 30
0.0
 10
10.525674339
 20
9.7809024775
 30
0.0
 10
10.5254353162
 20
9.780952925
 30
0.0
 10
10.5251436287
 20
9.7810263081
 30
0.0
 10
10.5246205912
 20
9.7811518771
 30
0.0
 10
10.523879974
 20
9.7813327521
 30
0.0
 10
10.5229884173
 20
9.7815491641
 30
0.0
 10
10.5218006585
 20
9.7818379363
 30
0.0
 10
10.5203156233
 20
9.7821988252
 30
0.0
 10
10.5179397553
 20
9.7827762902
 30
0.0
 10
10.5149698553
 20
9.7834981066
 30
0.0
 10
10.5114060047
 20
9.7843642931
 30
0.0
 10
10.5078421406
 20
9.7852304759
 30
0.0
 10
10.5048722743
 20
9.7859523016
 30
0.0
 10
10.5024963389
 20
9.786529748
 30
0.0
 10
10.5010114748
 20
9.7868906841
 30
0.0
 10
10.499823365
 20
9.7871793595
 30
0.0
 10
10.4989328808
 20
9.7873960671
 30
0.0
 10
10.4981889077
 20
9.7875760172
 30
0.0
 10
10.4976718611
 20
9.7877032374
 30
0.0
 10
10.4973705747
 20
9.7877739749
 30
0.0
 10
10.4971610366
 20
9.7878325488
 30
0.0
 10
10.496888707
 20
9.7878700194
 30
0.0
 10
10.4965475031
 20
9.7879273414
 30
0.0
 10
10.4959401917
 20
9.7880242251
 30
0.0
 10
10.4950779392
 20
9.7881644235
 30
0.0
 10
10.4940409525
 20
9.788331894
 30
0.0
 10
10.4926591011
 20
9.7885554562
 30
0.0
 10
10.4909315139
 20
9.788834817
 30
0.0
 10
10.4881675268
 20
9.7892818457
 30
0.0
 10
10.4847124915
 20
9.7898406144
 30
0.0
 10
10.4805664675
 20
9.7905111425
 30
0.0
 10
10.4764204523
 20
9.791181675
 30
0.0
 10
10.4729653949
 20
9.7917404329
 30
0.0
 10
10.470201452
 20
9.7921874829
 30
0.0
 10
10.4684737525
 20
9.7924667896
 30
0.0
 10
10.4670921316
 20
9.792690463
 30
0.0
 10
10.466054441
 20
9.7928575938
 30
0.0
 10
10.4651943907
 20
9.7929988553
 30
0.0
 10
10.4644958276
 20
9.7931074105
 30
0.0
 10
10.4640006586
 20
9.7932009973
 30
0.0
 10
10.4633957375
 20
9.7932481298
 30
0.0
 10
10.462627514
 20
9.7933272003
 30
0.0
 10
10.461654081
 20
9.7934204709
 30
0.0
 10
10.4604915916
 20
9.7935347788
 30
0.0
 10
10.4589396391
 20
9.7936863568
 30
0.0
 10
10.4570003719
 20
9.7938761144
 30
0.0
 10
10.4538971682
 20
9.7941795675
 30
0.0
 10
10.4500182916
 20
9.7945589368
 30
0.0
 10
10.4453635894
 20
9.795014164
 30
0.0
 10
10.4407088837
 20
9.7954693706
 30
0.0
 10
10.4368300156
 20
9.7958487915
 30
0.0
 10
10.433726795
 20
9.7961521415
 30
0.0
 10
10.4313997259
 20
9.7963801649
 30
0.0
 10
10.4294593996
 20
9.7965685593
 30
0.0
 10
10.4281033339
 20
9.7967036245
 30
0.0
 10
10.4273250624
 20
9.7967758251
 30
0.0
 10
10.4267508713
 20
9.7968440028
 30
0.0
 10
10.4261403186
 20
9.7968585612
 30
0.0
 10
10.4253389317
 20
9.7968966754
 30
0.0
 10
10.4239305952
 20
9.7969546612
 30
0.0
 10
10.4219217755
 20
9.797042054
 30
0.0
 10
10.4195098693
 20
9.7971449748
 30
0.0
 10
10.4162944569
 20
9.797282886
 30
0.0
 10
10.4122750286
 20
9.7974550247
 30
0.0
 10
10.4074518022
 20
9.7976617677
 30
0.0
 10
10.4026284861
 20
9.7978682052
 30
0.0
 10
10.3978054413
 20
9.7980756879
 30
0.0
 10
10.3937854078
 20
9.7982453609
 30
0.0
 10
10.3909730075
 20
9.7983704562
 30
0.0
 10
10.389363388
 20
9.7984320665
 30
0.0
 10
10.3881633104
 20
9.7985060854
 30
0.0
 10
10.3869359513
 20
9.7984737957
 30
0.0
 10
10.3853089886
 20
9.7984678244
 30
0.0
 10
10.38245737
 20
9.7984400976
 30
0.0
 10
10.3783859481
 20
9.7984095208
 30
0.0
 10
10.3734992451
 20
9.7983689609
 30
0.0
 10
10.3686128186
 20
9.798329419
 30
0.0
 10
10.3637262831
 20
9.7982896732
 30
0.0
 10
10.3596543031
 20
9.798256383
 30
0.0
 10
10.3563964547
 20
9.7982302575
 30
0.0
 10
10.3539537816
 20
9.7982092448
 30
0.0
 10
10.3519159536
 20
9.7981962515
 30
0.0
 10
10.3502907756
 20
9.7981757248
 30
0.0
 10
10.349057999
 20
9.7981880158
 30
0.0
 10
10.3478782528
 20
9.7980946284
 30
0.0
 10
10.3462867336
 20
9.7980070267
 30
0.0
 10
10.3443036902
 20
9.7978848593
 30
0.0
 10
10.3419213177
 20
9.7977436796
 30
0.0
 10
10.3387457711
 20
9.7975535464
 30
0.0
 10
10.3347760133
 20
9.7973165283
 30
0.0
 10
10.330012437
 20
9.7970318351
 30
0.0
 10
10.3252488478
 20
9.7967471902
 30
0.0
 10
10.321279122
 20
9.7965100515
 30
0.0
 10
10.3181035114
 20
9.7963201595
 30
0.0
 10
10.3157213341
 20
9.7961782443
 30
0.0
 10
10.3137376803
 20
9.7960583778
 30
0.0
 10
10.3123461906
 20
9.7959776188
 30
0.0
 10
10.3115556318
 20
9.7959265561
 30
0.0
 10
10.3109498158
 20
9.7959021041
 30
0.0
 10
10.3103932981
 20
9.7958247294
 30
0.0
 10
10.3096340786
 20
9.7957400232
 30
0.0
 10
10.3083134564
 20
9.7955831864
 30
0.0
 10
10.3064226646
 20
9.7953636306
 30
0.0
 10
10.3041555074
 20
9.7950982389
 30
0.0
 10
10.3011320047
 20
9.7947450556
 30
0.0
 10
10.2973528416
 20
9.7943033456
 30
0.0
 10
10.2928177521
 20
9.7937733932
 30
0.0
 10
10.2882826932
 20
9.793243412
 30
0.0
 10
10.2845034538
 20
9.7928017738
 30
0.0
 10
10.2814801037
 20
9.792448447
 30
0.0
 10
10.279590418
 20
9.7922276518
 30
0.0
 10
10.2780788797
 20
9.7920509381
 30
0.0
 10
10.2769446505
 20
9.7919186151
 30
0.0
 10
10.2760012898
 20
9.7918076706
 30
0.0
 10
10.2753373456
 20
9.7917313348
 30
0.0
 10
10.2749635571
 20
9.7916856448
 30
0.0
 10
10.2746674173
 20
9.7916572072
 30
0.0
 10
10.2744316672
 20
9.791606485
 30
0.0
 10
10.2740962691
 20
9.7915466285
 30
0.0
 10
10.2735191368
 20
9.7914382579
 30
0.0
 10
10.272689531
 20
9.7912853363
 30
0.0
 10
10.2716962004
 20
9.7911010199
 30
0.0
 10
10.2703709925
 20
9.7908555477
 30
0.0
 10
10.2687147452
 20
9.7905486106
 30
0.0
 10
10.2660646027
 20
9.7900575654
 30
0.0
 10
10.2627519753
 20
9.7894437402
 30
0.0
 10
10.2587767991
 20
9.7887071585
 30
0.0
 10
10.2548016352
 20
9.7879705727
 30
0.0
 10
10.2514889771
 20
9.7873567577
 30
0.0
 10
10.2488388961
 20
9.7868656922
 30
0.0
 10
10.2471824925
 20
9.7865588067
 30
0.0
 10
10.2458576055
 20
9.7863132286
 30
0.0
 10
10.2448632944
 20
9.7861292359
 30
0.0
 10
10.2440367563
 20
9.7859753013
 30
0.0
 10
10.2434541478
 20
9.7858687391
 30
0.0
 10
10.2431275239
 20
9.7858059852
 30
0.0
 10
10.2428648222
 20
9.7857641627
 30
0.0
 10
10.2426699081
 20
9.7857022991
 30
0.0
 10
10.2423863774
 20
9.7856268049
 30
0.0
 10
10.2419012155
 20
9.7854914329
 30
0.0
 10
10.2412023674
 20
9.7852997472
 30
0.0
 10
10.240366215
 20
9.7850689956
 30
0.0
 10
10.239250484
 20
9.7847615812
 30
0.0
 10
10.2378561152
 20
9.7843772262
 30
0.0
 10
10.2356249601
 20
9.7837623068
 30
0.0
 10
10.2328360734
 20
9.7829936407
 30
0.0
 10
10.2294893829
 20
9.7820712491
 30
0.0
 10
10.2261427067
 20
9.7811488539
 30
0.0
 10
10.2233537841
 20
9.7803801966
 30
0.0
 10
10.2211227007
 20
9.7797652598
 30
0.0
 10
10.2197281497
 20
9.779380949
 30
0.0
 10
10.2186127926
 20
9.7790734438
 30
0.0
 10
10.217775498
 20
9.7788429697
 30
0.0
 10
10.2170802236
 20
9.7786504155
 30
0.0
 10
10.216588682
 20
9.7785165941
 30
0.0
 10
10.2163153732
 20
9.7784386155
 30
0.0
 10
10.2160890609
 20
9.7783843831
 30
0.0
 10
10.2159442853
 20
9.778313899
 30
0.0
 10
10.2157228102
 20
9.7782255891
 30
0.0
 10
10.2153484799
 20
9.7780684054
 30
0.0
 10
10.2148067946
 20
9.7778452382
 30
0.0
 10
10.2141597375
 20
9.7775768465
 30
0.0
 10
10.213295959
 20
9.7772191974
 30
0.0
 10
10.2122165905
 20
9.7767720653
 30
0.0
 10
10.2104894027
 20
9.7760566934
 30
0.0
 10
10.2083304864
 20
9.7751624649
 30
0.0
 10
10.2057397554
 20
9.774089397
 30
0.0
 10
10.2031490408
 20
9.7730163261
 30
0.0
 10
10.2009900834
 20
9.7721221049
 30
0.0
 10
10.1992629778
 20
9.7714067184
 30
0.0
 10
10.1981834004
 20
9.7709596234
 30
0.0
 10
10.1973200507
 20
9.770601898
 30
0.0
 10
10.1966716836
 20
9.7703337393
 30
0.0
 10
10.1961340969
 20
9.7701098433
 30
0.0
 10
10.1957524499
 20
9.7699539607
 30
0.0
 10
10.1955426982
 20
9.7698635662
 30
0.0
 10
10.1953619121
 20
9.7697994851
 30
0.0
 10
10.1952708491
 20
9.7697212041
 30
0.0
 10
10.1951181354
 20
9.7696217826
 30
0.0
 10
10.194865468
 20
9.7694454871
 30
0.0
 10
10.1944968911
 20
9.769194843
 30
0.0
 10
10.194057862
 20
9.7688935536
 30
0.0
 10
10.1934713501
 20
9.7684920148
 30
0.0
 10
10.1927386004
 20
9.7679900295
 30
0.0
 10
10.1915659828
 20
9.7671868875
 30
0.0
 10
10.1901002857
 20
9.7661829483
 30
0.0
 10
10.1883414171
 20
9.7649782262
 30
0.0
 10
10.186582557
 20
9.7637735028
 30
0.0
 10
10.1842374073
 20
9.7621672054
 30
0.0
 10
10.1824785457
 20
9.7609624822
 30
0.0
 10
10.1813059711
 20
9.7601593335
 30
0.0
  0
ELLIPSE
  5
418
100
AcDbEntity
  8
0
100
AcDbEllipse
 62
7
  6
CONTINUOUS
 10
11.3480252995
 20
7.7076940841
 30
0.0
 11
0.2032975498
 21
0.071174745
 31
0.0
 40
0.8630730277
 41
2.7179300809
 42
4.4497790799
  0
ELLIPSE
  5
419
100
AcDbEntity
  8
0
100
AcDbEllipse
 62
7
  6
CONTINUOUS
 10
9.5369141527
 20
7.8332950687
 30
0.0
 11
0.2096285067
 21
0.0530926739
 31
0.0
 40
0.8562957692
 41
2.7364485806
 42
4.403234704
  0
ELLIPSE
  5
41A
100
AcDbEntity
  8
0
100
AcDbEllipse
 62
7
  6
CONTINUOUS
 10
9.5369141527
 20
7.8332950687
 30
0.0
 11
0.187191529
 21
-0.130341692
 31
0.0
 40
0.7696175009
 41
8.3150937855
 42
10.0469427844
  0
ELLIPSE
  5
41B
100
AcDbEntity
  8
0
100
AcDbEllipse
 62
7
  6
CONTINUOUS
 10
11.3480252995
 20
7.7076940841
 30
0.0
 11
0.2032975498
 21
0.071174745
 31
0.0
 40
0.8630730277
 41
-0.4236625726
 42
1.3081864263
  0
ELLIPSE
  5
41C
100
AcDbEntity
  8
0
100
AcDbEllipse
 62
7
  6
CONTINUOUS
 10
11.3480252995
 20
7.7076940841
 30
0.0
 11
0.1934038487
 21
-0.1200402163
 31
0.0
 40
0.7728098092
 41
8.3317504004
 42
10.0635993993
  0
ELLIPSE
  5
41D
100
AcDbEntity
  8
0
100
AcDbEllipse
 62
7
  6
CONTINUOUS
 10
11.3480252995
 20
7.7076940841
 30
0.0
 11
0.1934038487
 21
-0.1200402163
 31
0.0
 40
0.7728098092
 41
-1.0930275604
 42
0.6388214386
  0
ELLIPSE
  5
41E
100
AcDbEntity
  8
0
100
AcDbEllipse
 62
7
  6
CONTINUOUS
 10
9.5369141527
 20
7.8332950687
 30
0.0
 11
0.2096285067
 21
0.0530926739
 31
0.0
 40
0.8562957692
 41
-0.405144073
 42
1.2616295183
  0
ELLIPSE
  5
41F
100
AcDbEntity
  8
0
100
AcDbEllipse
 62
7
  6
CONTINUOUS
 10
9.5369141527
 20
7.8332950687
 30
0.0
 11
0.187191529
 21
-0.130341692
 31
0.0
 40
0.7696175009
 41
-1.1096841753
 42
0.6221648237
  0
ENDSEC
  0
SECTION
  2
OBJECTS
  0
DICTIONARY
  5
C
100
AcDbDictionary
280
0
281
1
  3
ACAD_GROUP
350
D
  3
ACAD_MLINESTYLE
350
17
  3
ACAD_LAYOUT
350
1A
  3
ACAD_PLOTSETTINGS
350
19
  3
ACAD_PLOTSTYLENAME
350
E
  3
ACAD_IMAGE_DICT
350
       421
  3
ACAD_IMAGE_VARS
350
       422
  3
ACAD_TABLESTYLE
350
       423
  0
IMAGEDEF_REACTOR
  5
420
100
AcDbRasterImageDefReactor
 90
2
330
26F
  0
DICTIONARY
  5
D
102
{ACAD_REACTORS
330
C
102
}
100
AcDbDictionary
280
0
281
1
  0
ACDBDICTIONARYWDFLT
  5
E
102
{ACAD_REACTORS
330
C
102
}
100
AcDbDictionary
281
1
  3
Normal
350
F
100
AcDbDictionaryWithDefault
340
F
  0
DICTIONARY
  5
421
330
C
100
AcDbDictionary
281
1
  3
BJ9_assy_2_img_1
350
       426
  0
RASTERVARIABLES
  5
422
330
C
100
AcDbRasterVariables
 90
0
 70
0
 71
1
 72
5
  0
DICTIONARY
  5
17
102
{ACAD_REACTORS
330
C
102
}
100
AcDbDictionary
280
0
281
1
  3
Standard
350
18
  0
DICTIONARY
  5
423
330
C
100
AcDbDictionary
281
1
  3
Standard
350
       427
  3
Standard1
350
       428
  0
DICTIONARY
  5
19
102
{ACAD_REACTORS
330
C
102
}
100
AcDbDictionary
281
1
  0
DICTIONARY
  5
1A
102
{ACAD_REACTORS
330
C
102
}
100
AcDbDictionary
281
1
  3
Model
350
424
  3
Layout1
350
425
  0
ACDBPLACEHOLDER
  5
F
102
{ACAD_REACTORS
330
E
102
}
  0
MLINESTYLE
  5
18
102
{ACAD_REACTORS
330
17
102
}
100
AcDbMlineStyle
  2
STANDARD
 70
0
  3

 62
256
 51
90.0
 52
90.0
 71
2
 49
0.5
 62
256
  6
BYLAYER
 49
-0.5
 62
256
  6
BYLAYER
  0
LAYOUT
  5
424
102
{ACAD_REACTORS
330
1A
102
}
100
AcDbPlotSettings
  1

  2
none_device
  4
ANSI_C_(22.00_x_17.00_Inches)
  6

 40
0.0
 41
0.0
 42
0.0
 43
0.0
 44
558.8
 45
431.8
 46
0.0
 47
0.0
 48
0.0
 49
0.0
140
0.0
141
0.0
142
1.0
143
1.0
 70
1024
 72
0
 73
0
 74
0
  7

 75
0
147
1.0
148
0.0
149
0.0
100
AcDbLayout
  1
Model
 70
0
 71
0
 10
0.0
 20
0.0
 11
22.0
 21
17.0
 12
0.0
 22
0.0
 32
0.0
 14
0.0
 24
0.0
 34
0.0
 15
0.0
 25
0.0
 35
0.0
146
0.0
 13
0.0
 23
0.0
 33
0.0
 16
1.0
 26
0.0
 36
0.0
 17
0.0
 27
1.0
 37
0.0
 76
0
330
20C
345
0
346
0
  0
LAYOUT
  5
425
102
{ACAD_REACTORS
330
1A
102
}
100
AcDbPlotSettings
  1

  2
none_device
  4
ANSI_C_(22.00_x_17.00_Inches)
  6

 40
0.0
 41
0.0
 42
0.0
 43
0.0
 44
558.8
 45
431.8
 46
0.0
 47
0.0
 48
0.0
 49
0.0
140
0.0
141
0.0
142
1.0
143
1.0
 70
0
 72
0
 73
0
 74
0
  7

 75
0
147
1.0
148
0.0
149
0.0
100
AcDbLayout
  1
Layout1
 70
0
 71
1
 10
0.0
 20
0.0
 11
22.0
 21
17.0
 12
0.0
 22
0.0
 32
0.0
 14
0.0
 24
0.0
 34
0.0
 15
0.0
 25
0.0
 35
0.0
146
0.0
 13
0.0
 23
0.0
 33
0.0
 16
1.0
 26
0.0
 36
0.0
 17
0.0
 27
1.0
 37
0.0
 76
0
330
20D
345
0
346
0
  0
IMAGEDEF
  5
426
102
{ACAD_REACTORS
330
421
330
420
102
}
100
AcDbRasterImageDef
 90
0
  1
BJ9_assy_2_img_1.png
 10
369.0
 20
92.0
 11
0.0066666667
 21
0.0066666667
280
1
281
0
  0
TABLESTYLE
  5
427
102
{ACAD_REACTORS
330
423
330
272
102
}
330
423
100
AcDbTableStyle
  3
Standard
 70
0
 71
0
 40
0.06
 41
0.06
280
1
281
1
  7
Standard
140
0.18
170
1
 62
0
 63
7
283
0
  7
Standard
140
0.18
170
1
 62
0
 63
7
283
0
  7
Standard
140
0.18
170
1
 62
0
 63
7
283
0
  0
TABLESTYLE
  5
428
102
{ACAD_REACTORS
330
423
330
271
102
}
330
423
100
AcDbTableStyle
  3
Standard1
 70
1
 71
0
 40
0.06
 41
0.06
280
1
281
1
  7
Standard
140
0.18
170
1
 62
0
 63
7
283
0
  7
Standard
140
0.18
170
1
 62
0
 63
7
283
0
  7
Standard
140
0.18
170
1
 62
0
 63
7
283
0
  0
ENDSEC
  0
EOF
