999
DXF file: BJ4_assy_2.dxf
999
Pro/ENGINEER 2014200 by Parametric Technology Corporation
  0
SECTION
  2
HEADER
  9
$ACADVER
  1
AC1021
  9
$DWGCODEPAGE
  3
ANSI_1252
  9
$EXTMAX
 10
22.0
 20
17.0
 30
0.0
  9
$EXTMIN
 10
0.0
 20
0.0
 30
0.0
  9
$LIMMIN
 10
0.0
 20
0.0
  9
$LIMMAX
 10
22.0
 20
17.0
  9
$VIEWCTR
 10
11.0
 20
8.5
  9
$VIEWSIZE
 40
17.0
  9
$CLAYER
  8
0
  9
$LTSCALE
 40
1.21
  9
$CELTYPE
  6
BYLAYER
  9
$DIMSCALE
 40
1.0
  9
$DIMASZ
 40
0.1875
  9
$DIMEXO
 40
0.0625
  9
$DIMDLI
 40
0.836
  9
$DIMEXE
 40
0.125
  9
$DIMCEN
 40
0.198
  9
$DIMLFAC
 40
1.0
  9
$DIMBLK
  1
_FILLED
  9
$DIMTXT
 40
0.1
  9
$DIMTOL
 70
0
  9
$DIMLIM
 70
0
  9
$DIMTFAC
 40
1.0
  9
$DIMGAP
 40
0.09
  9
$DIMDSEP
 70
46
  9
$AUNITS
 70
0
  9
$PDMODE
 70
3
  9
$PDSIZE
 40
0.3125
  9
$HANDSEED
  5
492
  9
$TILEMODE
 70
1
  9
$MEASUREMENT
 70
0
  9
$INSUNITS
 70
1
  0
ENDSEC
  0
SECTION
  2
CLASSES
  0
CLASS
  1
ACDBDICTIONARYWDFLT
  2
AcDbDictionaryWithDefault
  3
AutoCAD 2000
 90
0
 91
1
280
0
281
0
  0
CLASS
  1
ACDBPLACEHOLDER
  2
AcDbPlaceHolder
  3
AutoCAD 2000
 90
0
 91
1
280
0
281
0
  0
CLASS
  1
LAYOUT
  2
AcDbLayout
  3
AutoCAD 2000
 90
0
 91
0
280
0
281
0
  0
CLASS
  1
RASTERVARIABLES
  2
AcDbRasterVariables
  3
ISM
 90
0
 91
1
280
0
281
0
  0
CLASS
  1
IMAGEDEF
  2
AcDbRasterImageDef
  3
ISM
 90
0
 91
1
280
0
281
0
  0
CLASS
  1
IMAGEDEF_REACTOR
  2
AcDbRasterImageDefReactor
  3
ISM
 90
0
 91
1
280
0
281
0
  0
CLASS
  1
IMAGE
  2
AcDbRasterImage
  3
ISM
 90
127
 91
1
280
0
281
1
  0
CLASS
  1
TABLESTYLE
  2
AcDbTableStyle
  3
ObjectDBX Classes
 90
2047
 91
1
280
0
281
0
  0
CLASS
  1
ACAD_TABLE
  2
AcDbTable
  3
ObjectDBX Classes
 90
1025
 91
2
280
0
281
1
  0
ENDSEC
  0
SECTION
  2
TABLES
  0
TABLE
  2
VPORT
  5
8
100
AcDbSymbolTable
 70
2
  0
VPORT
  5
1F4
100
AcDbSymbolTableRecord
100
AcDbViewportTableRecord
  2
*ACTIVE
 70
0
 10
0.0
 20
0.0
 11
1.0
 21
1.0
 12
11.0
 22
8.5
 13
0.0
 23
0.0
 14
1.0
 24
1.0
 15
0.0
 25
0.0
 16
0.0
 26
0.0
 36
1.0
 17
0.0
 27
0.0
 37
0.0
 40
17.0
 41
1.2941176471
 42
50.0
 43
0.0
 44
0.0
 50
0.0
 51
0.0
 71
0
 72
100
 73
1
 74
1
 75
0
 76
0
 77
0
 78
0
  0
ENDTAB
  0
TABLE
  2
LTYPE
  5
5
100
AcDbSymbolTable
 70
6
  0
LTYPE
  5
14
100
AcDbSymbolTableRecord
100
AcDbLinetypeTableRecord
  2
BYBLOCK
 70
0
  3

 72
65
 73
0
 40
0.0
  0
LTYPE
  5
15
100
AcDbSymbolTableRecord
100
AcDbLinetypeTableRecord
  2
BYLAYER
 70
0
  3

 72
65
 73
0
 40
0.0
  0
LTYPE
  5
16
100
AcDbSymbolTableRecord
100
AcDbLinetypeTableRecord
  2
CONTINUOUS
 70
64
  3
Solid line
 72
65
 73
0
 40
0.0
  0
LTYPE
  5
1F5
100
AcDbSymbolTableRecord
100
AcDbLinetypeTableRecord
  2
CENTER
 70
64
  3
____ _ ____ _ ____ _ ____ _ ____ _ ____ _ ____
 72
65
 73
4
 40
0.6
 49
0.375
 74
0
 49
-0.075
 74
0
 49
0.075
 74
0
 49
-0.075
 74
0
  0
LTYPE
  5
1F6
100
AcDbSymbolTableRecord
100
AcDbLinetypeTableRecord
  2
HIDDEN
 70
64
  3
- - - - - - - - - - - - - - - - - - - -
 72
65
 73
2
 40
0.2
 49
0.1
 74
0
 49
-0.1
 74
0
  0
LTYPE
  5
1F7
100
AcDbSymbolTableRecord
100
AcDbLinetypeTableRecord
  2
PHANTOM
 70
64
  3
_____ _ _ _____ _ _ _____ _ _ _____
 72
65
 73
6
 40
0.8
 49
0.45
 74
0
 49
-0.05
 74
0
 49
0.1
 74
0
 49
-0.05
 74
0
 49
0.1
 74
0
 49
-0.05
 74
0
  0
LTYPE
  5
1F8
100
AcDbSymbolTableRecord
100
AcDbLinetypeTableRecord
  2
DOT
 70
64
  3
. . . . . . . . . . . . . . . . . . . .
 72
65
 73
2
 40
0.2
 49
0.1
 74
0
 49
-0.1
 74
0
  0
LTYPE
  5
1F9
100
AcDbSymbolTableRecord
100
AcDbLinetypeTableRecord
  2
DASHED
 70
64
  3
- - - - - - - - - - - - - - - - - - - -
 72
65
 73
2
 40
0.2
 49
0.1
 74
0
 49
-0.1
 74
0
  0
ENDTAB
  0
TABLE
  2
LAYER
  5
2
100
AcDbSymbolTable
 70
36
  0
LAYER
  5
10
100
AcDbSymbolTableRecord
100
AcDbLayerTableRecord
  2
0
 70
0
 62
7
  6
CONTINUOUS
370
-3
390
F
  0
LAYER
  5
1FA
100
AcDbSymbolTableRecord
100
AcDbLayerTableRecord
  2
DEFAULT_1
 70
0
 62
7
  6
CENTER
370
-3
390
F
  0
LAYER
  5
1FB
100
AcDbSymbolTableRecord
100
AcDbLayerTableRecord
  2
DEFAULT_2
 70
0
 62
8
  6
HIDDEN
370
-3
390
F
  0
LAYER
  5
1FC
100
AcDbSymbolTableRecord
100
AcDbLayerTableRecord
  2
DEFAULT_3
 70
0
 62
7
  6
PHANTOM
370
-3
390
F
  0
LAYER
  5
1FD
100
AcDbSymbolTableRecord
100
AcDbLayerTableRecord
  2
01___PRT_ALL_DTM_PLN
 70
0
 62
7
  6
CONTINUOUS
370
-3
390
F
  0
LAYER
  5
1FE
100
AcDbSymbolTableRecord
100
AcDbLayerTableRecord
  2
01___PRT_DEF_DTM_PLN
 70
0
 62
7
  6
CONTINUOUS
370
-3
390
F
  0
LAYER
  5
1FF
100
AcDbSymbolTableRecord
100
AcDbLayerTableRecord
  2
02___PRT_ALL_AXES
 70
0
 62
7
  6
CONTINUOUS
370
-3
390
F
  0
LAYER
  5
200
100
AcDbSymbolTableRecord
100
AcDbLayerTableRecord
  2
03___PRT_ALL_CURVES
 70
0
 62
7
  6
CONTINUOUS
370
-3
390
F
  0
LAYER
  5
201
100
AcDbSymbolTableRecord
100
AcDbLayerTableRecord
  2
04___PRT_ALL_DTM_PNT
 70
0
 62
7
  6
CONTINUOUS
370
-3
390
F
  0
LAYER
  5
202
100
AcDbSymbolTableRecord
100
AcDbLayerTableRecord
  2
05___PRT_ALL_DTM_CSYS
 70
0
 62
7
  6
CONTINUOUS
370
-3
390
F
  0
LAYER
  5
203
100
AcDbSymbolTableRecord
100
AcDbLayerTableRecord
  2
05___PRT_DEF_DTM_CSYS
 70
0
 62
7
  6
CONTINUOUS
370
-3
390
F
  0
LAYER
  5
204
100
AcDbSymbolTableRecord
100
AcDbLayerTableRecord
  2
06___PRT_ALL_SURFS
 70
0
 62
7
  6
CONTINUOUS
370
-3
390
F
  0
LAYER
  5
205
100
AcDbSymbolTableRecord
100
AcDbLayerTableRecord
  2
DATUM_PLANES
 70
0
 62
7
  6
CONTINUOUS
370
-3
390
F
  0
LAYER
  5
206
100
AcDbSymbolTableRecord
100
AcDbLayerTableRecord
  2
PORT_AREAS
 70
0
 62
7
  6
CONTINUOUS
370
-3
390
F
  0
LAYER
  5
207
100
AcDbSymbolTableRecord
100
AcDbLayerTableRecord
  2
SUNNBOMCOSMETIC
 70
0
 62
7
  6
CONTINUOUS
370
-3
390
F
  0
LAYER
  5
208
100
AcDbSymbolTableRecord
100
AcDbLayerTableRecord
  2
SUNNBOMSTAMPING
 70
0
 62
7
  6
CONTINUOUS
370
-3
390
F
  0
LAYER
  5
209
100
AcDbSymbolTableRecord
100
AcDbLayerTableRecord
  2
THREADS
 70
0
 62
7
  6
CONTINUOUS
370
-3
390
F
  0
ENDTAB
  0
TABLE
  2
STYLE
  5
3
100
AcDbSymbolTable
 70
1
  0
STYLE
  5
11
100
AcDbSymbolTableRecord
100
AcDbTextStyleTableRecord
  2
STANDARD
 70
0
 40
0.0
 41
0.8
 50
0.0
 71
0
 42
0.2
  3
txt
  4

  0
STYLE
  5
20A
100
AcDbSymbolTableRecord
100
AcDbTextStyleTableRecord
  2
TEXTSTYLE_1
 70
0
 40
0.0
 41
0.8
 50
0.0
 71
0
 42
0.2
  3
gdt
  4

  0
ENDTAB
  0
TABLE
  2
VIEW
  5
6
100
AcDbSymbolTable
 70
0
  0
ENDTAB
  0
TABLE
  2
UCS
  5
7
100
AcDbSymbolTable
 70
0
  0
ENDTAB
  0
TABLE
  2
APPID
  5
9
100
AcDbSymbolTable
 70
1
  0
APPID
  5
20B
100
AcDbSymbolTableRecord
100
AcDbRegAppTableRecord
  2
ACAD
 70
0
  0
ENDTAB
  0
TABLE
  2
BLOCK_RECORD
  5
1
100
AcDbSymbolTable
 70
0
  0
BLOCK_RECORD
  5
20C
100
AcDbSymbolTableRecord
100
AcDbBlockTableRecord
  2
*Model_Space
  0
BLOCK_RECORD
  5
20D
100
AcDbSymbolTableRecord
100
AcDbBlockTableRecord
  2
*Paper_Space
  0
BLOCK_RECORD
  5
20E
100
AcDbSymbolTableRecord
100
AcDbBlockTableRecord
  2
SUN_FIRST_THIRD_ANGLE_BL0
  0
BLOCK_RECORD
  5
20F
100
AcDbSymbolTableRecord
100
AcDbBlockTableRecord
  2
*T1
  0
BLOCK_RECORD
  5
210
100
AcDbSymbolTableRecord
100
AcDbBlockTableRecord
  2
*T2
  0
ENDTAB
  0
TABLE
  2
DIMSTYLE
  5
A
100
AcDbSymbolTable
 70
1
100
AcDbDimStyleTable
 71
0
  0
DIMSTYLE
105
211
100
AcDbSymbolTableRecord
100
AcDbDimStyleTableRecord
  2
STANDARD
 70
0
  3

  4

 40
1.0
 41
0.1875
 42
0.0625
 43
0.38
 44
0.125
 45
0.0
 46
0.0
 47
0.001
 48
0.001
140
0.1
141
0.09
142
0.0
143
25.4
144
1.0
145
0.0
146
1.0
147
0.09
 71
0.0
 72
0.0
 73
1
 74
1
 75
0
 76
0
 77
0
 78
4
170
0
171
2
172
0
173
0
174
0
175
0
176
0
177
0
178
0
270
2
271
3
272
3
273
2
274
2
275
0
280
0
281
0
282
0
283
1
284
4
285
0
286
0
287
3
288
0
340
11
278
46
  0
ENDTAB
  0
ENDSEC
  0
SECTION
  2
BLOCKS
  0
BLOCK
  5
20
100
AcDbEntity
  8
0
100
AcDbBlockBegin
  2
*Model_Space
 70
0
 10
0.0
 20
0.0
 30
0.0
  3
*Model_Space
  1

  0
ENDBLK
  5
21
100
AcDbEntity
  8
0
100
AcDbBlockEnd
  0
BLOCK
  5
1C
100
AcDbEntity
  8
0
100
AcDbBlockBegin
  2
*Paper_Space
 70
0
 10
0.0
 20
0.0
 30
0.0
  3
*Paper_Space
  1

  0
ENDBLK
  5
1D
100
AcDbEntity
  8
0
100
AcDbBlockEnd
  0
BLOCK
  5
212
100
AcDbEntity
  8
0
100
AcDbBlockBegin
 62
2
  6
CONTINUOUS
  2
SUN_FIRST_THIRD_ANGLE_BL0
 70
64
 10
20.4816717061
 20
1.2289683772
  3
SUN_FIRST_THIRD_ANGLE_BL0
  1

  0
TEXT
  5
213
100
AcDbEntity
  8
0
100
AcDbText
 62
2
  6
CONTINUOUS
 10
19.4750896608
 20
1.4136269581
  7
STANDARD
 40
0.08
  1
FIRST ANGLE
 41
0.8
 72
0
100
AcDbText
  0
TEXT
  5
214
100
AcDbEntity
  8
0
100
AcDbText
 62
2
  6
CONTINUOUS
 10
20.7842537513
 20
1.4047600029
  7
STANDARD
 40
0.08
  1
THIRD ANGLE
 41
0.8
 72
0
100
AcDbText
  0
LINE
  5
215
100
AcDbEntity
  8
0
100
AcDbLine
 62
7
  6
CONTINUOUS
 10
19.4767170086
 20
1.1727031207
 11
19.6334271527
 21
1.1717972817
  0
LINE
  5
216
100
AcDbEntity
  8
0
100
AcDbLine
 62
7
  6
CONTINUOUS
 10
19.6596964832
 20
1.1717972817
 11
19.6950230232
 21
1.171593082
  0
LINE
  5
217
100
AcDbEntity
  8
0
100
AcDbLine
 62
7
  6
CONTINUOUS
 10
19.7194818561
 20
1.1708914427
 11
19.8852396156
 21
1.1699333054
  0
LINE
  5
218
100
AcDbEntity
  8
0
100
AcDbLine
 62
7
  6
CONTINUOUS
 10
19.4758111696
 20
1.2723454088
 11
19.88525039
 21
1.3511534004
  0
LINE
  5
219
100
AcDbEntity
  8
0
100
AcDbLine
 62
7
  6
CONTINUOUS
 10
19.88525039
 20
1.3511534004
 11
19.8831348489
 21
0.9851647912
  0
LINE
  5
21A
100
AcDbEntity
  8
0
100
AcDbLine
 62
7
  6
CONTINUOUS
 10
19.8831348489
 20
0.9851647912
 11
19.4767170086
 21
1.0658141206
  0
LINE
  5
21B
100
AcDbEntity
  8
0
100
AcDbLine
 62
7
  6
CONTINUOUS
 10
19.4767170086
 20
1.0658141206
 11
19.4779056764
 21
1.2714536432
  0
CIRCLE
  5
21C
100
AcDbEntity
  8
0
100
AcDbCircle
 62
7
  6
CONTINUOUS
 10
20.2068232291
 20
1.1717972817
 40
0.175742101
  0
CIRCLE
  5
21D
100
AcDbEntity
  8
0
100
AcDbCircle
 62
7
  6
CONTINUOUS
 10
20.2068232291
 20
1.1717972817
 40
0.1005522074
  0
LINE
  5
21E
100
AcDbEntity
  8
0
100
AcDbLine
 62
7
  6
CONTINUOUS
 10
20.2077290681
 20
1.3756110529
 11
20.2071171714
 21
1.2379342989
  0
LINE
  5
21F
100
AcDbEntity
  8
0
100
AcDbLine
 62
7
  6
CONTINUOUS
 10
20.2077290681
 20
1.2016899681
 11
20.2074674401
 21
1.1428236749
  0
LINE
  5
220
100
AcDbEntity
  8
0
100
AcDbLine
 62
7
  6
CONTINUOUS
 10
20.208634907
 20
1.101141841
 11
20.2080230104
 21
0.963465087
  0
LINE
  5
221
100
AcDbEntity
  8
0
100
AcDbLine
 62
7
  6
CONTINUOUS
 10
20.0066328138
 20
1.1745147986
 11
20.1443095678
 21
1.1739029019
  0
LINE
  5
222
100
AcDbEntity
  8
0
100
AcDbLine
 62
7
  6
CONTINUOUS
 10
20.1832714155
 20
1.1727031207
 11
20.238153505
 21
1.172335442
  0
LINE
  5
223
100
AcDbEntity
  8
0
100
AcDbLine
 62
7
  6
CONTINUOUS
 10
20.2756669918
 20
1.1717972817
 11
20.407916871
 21
1.1712095044
  0
CIRCLE
  5
224
100
AcDbEntity
  8
0
100
AcDbCircle
 62
7
  6
CONTINUOUS
 10
20.7509457401
 20
1.1693297793
 40
0.1722024983
  0
CIRCLE
  5
225
100
AcDbEntity
  8
0
100
AcDbCircle
 62
7
  6
CONTINUOUS
 10
20.7509457401
 20
1.1693297793
 40
0.0985164967
  0
LINE
  5
226
100
AcDbEntity
  8
0
100
AcDbLine
 62
7
  6
CONTINUOUS
 10
20.7169767782
 20
1.170462078
 11
20.7825395137
 21
1.1682766535
  0
LINE
  5
227
100
AcDbEntity
  8
0
100
AcDbLine
 62
7
  6
CONTINUOUS
 10
20.8177513651
 20
1.1693297793
 11
20.947965719
 21
1.1693297793
  0
LINE
  5
228
100
AcDbEntity
  8
0
100
AcDbLine
 62
7
  6
CONTINUOUS
 10
20.6875370113
 20
1.170462078
 11
20.5573226574
 21
1.170462078
  0
LINE
  5
229
100
AcDbEntity
  8
0
100
AcDbLine
 62
7
  6
CONTINUOUS
 10
20.7486811426
 20
1.1987695462
 11
20.7486811426
 21
1.1432869085
  0
LINE
  5
22A
100
AcDbEntity
  8
0
100
AcDbLine
 62
7
  6
CONTINUOUS
 10
20.7498134414
 20
1.1059210505
 11
20.7498134414
 21
0.9757066966
  0
LINE
  5
22B
100
AcDbEntity
  8
0
100
AcDbLine
 62
7
  6
CONTINUOUS
 10
20.7486811426
 20
1.2338708068
 11
20.7486811426
 21
1.3640851607
  0
LINE
  5
22C
100
AcDbEntity
  8
0
100
AcDbLine
 62
7
  6
CONTINUOUS
 10
21.0702539817
 20
1.2701043662
 11
21.4790138229
 21
1.3448360823
  0
LINE
  5
22D
100
AcDbEntity
  8
0
100
AcDbLine
 62
7
  6
CONTINUOUS
 10
21.4790138229
 20
1.3448360823
 11
21.4790138229
 21
0.9779712941
  0
LINE
  5
22E
100
AcDbEntity
  8
0
100
AcDbLine
 62
7
  6
CONTINUOUS
 10
21.4790138229
 20
0.9779712941
 11
21.069121683
 21
1.0617614
  0
LINE
  5
22F
100
AcDbEntity
  8
0
100
AcDbLine
 62
7
  6
CONTINUOUS
 10
21.0702539817
 20
1.2701043662
 11
21.069121683
 21
1.0617614
  0
LINE
  5
230
100
AcDbEntity
  8
0
100
AcDbLine
 62
7
  6
CONTINUOUS
 10
21.4790138229
 20
1.1693297793
 11
21.3159628059
 21
1.1693297793
  0
LINE
  5
231
100
AcDbEntity
  8
0
100
AcDbLine
 62
7
  6
CONTINUOUS
 10
21.2876553377
 20
1.1693297793
 11
21.2502894796
 21
1.1693297793
  0
LINE
  5
232
100
AcDbEntity
  8
0
100
AcDbLine
 62
7
  6
CONTINUOUS
 10
21.2208497126
 20
1.1659328831
 11
21.0713862804
 21
1.1659328831
  0
LINE
  5
233
100
AcDbEntity
  8
0
100
AcDbLine
 62
7
  6
CONTINUOUS
 10
20.4796138713
 20
1.5284908897
 11
20.4766766948
 21
0.9294458646
  0
ENDBLK
  5
234
100
AcDbEntity
  8
0
  6
BYBLOCK
 62
0
100
AcDbBlockEnd
  0
BLOCK
  5
235
100
AcDbEntity
  8
0
100
AcDbBlockBegin
  2
*T1
 70
1
 10
0.0
 20
0.0
  3
*T1
  1

  0
LINE
  5
236
100
AcDbEntity
  8
0
100
AcDbLine
 62
2
  6
CONTINUOUS
 10
9.275
 20
0.0
 11
-0.0
 21
0.0
  0
LINE
  5
237
100
AcDbEntity
  8
0
100
AcDbLine
 62
2
  6
CONTINUOUS
 10
9.275
 20
0.0
 11
9.275
 21
1.25
  0
LINE
  5
238
100
AcDbEntity
  8
0
100
AcDbLine
 62
2
  6
CONTINUOUS
 10
9.275
 20
0.625
 11
-0.0
 21
0.625
  0
LINE
  5
239
100
AcDbEntity
  8
0
100
AcDbLine
 62
2
  6
CONTINUOUS
 10
9.275
 20
1.25
 11
-0.0
 21
1.25
  0
LINE
  5
23A
100
AcDbEntity
  8
0
100
AcDbLine
 62
2
  6
CONTINUOUS
 10
6.8
 20
0.0
 11
6.8
 21
1.25
  0
LINE
  5
23B
100
AcDbEntity
  8
0
100
AcDbLine
 62
2
  6
CONTINUOUS
 10
6.4
 20
0.0
 11
6.4
 21
0.625
  0
LINE
  5
23C
100
AcDbEntity
  8
0
100
AcDbLine
 62
2
  6
CONTINUOUS
 10
5.9
 20
0.0
 11
5.9
 21
0.625
  0
LINE
  5
23D
100
AcDbEntity
  8
0
100
AcDbLine
 62
2
  6
CONTINUOUS
 10
5.2
 20
0.0
 11
5.2
 21
0.625
  0
LINE
  5
23E
100
AcDbEntity
  8
0
100
AcDbLine
 62
2
  6
CONTINUOUS
 10
4.1
 20
0.0
 11
4.1
 21
1.25
  0
LINE
  5
23F
100
AcDbEntity
  8
0
100
AcDbLine
 62
2
  6
CONTINUOUS
 10
-0.0
 20
0.0
 11
-0.0
 21
1.25
  0
MTEXT
  5
240
100
AcDbEntity
  8
0
100
AcDbMText
 62
2
  6
CONTINUOUS
  7
STANDARD
 71
2
 72
1
 10
6.6
 20
0.325
 30
0.0
 11
1.0
 21
0.0
 31
0.0
 44
0.9
  1
2
 40
0.125
 41
0.2
  0
MTEXT
  5
241
100
AcDbEntity
  8
0
100
AcDbMText
 62
2
  6
CONTINUOUS
  7
STANDARD
 71
2
 72
1
 10
6.15
 20
0.325
 30
0.0
 11
1.0
 21
0.0
 31
0.0
 44
0.9
  1
C
 40
0.125
 41
0.2
  0
MTEXT
  5
242
100
AcDbEntity
  8
0
100
AcDbMText
 62
2
  6
CONTINUOUS
  7
STANDARD
 71
2
 72
1
 10
5.55
 20
0.325
 30
0.0
 11
1.0
 21
0.0
 31
0.0
 44
0.9
  1
1.000
 40
0.125
 41
1.0
  0
MTEXT
  5
243
100
AcDbEntity
  8
0
100
AcDbMText
 62
2
  6
CONTINUOUS
  7
STANDARD
 71
2
 72
1
 10
4.65
 20
0.325
 30
0.0
 11
1.0
 21
0.0
 31
0.0
 44
0.9
  1
Oct-26-20
 40
0.125
 41
1.8
  0
MTEXT
  5
244
100
AcDbEntity
  8
0
100
AcDbMText
 62
2
  6
CONTINUOUS
  7
STANDARD
 71
2
 72
1
 10
2.05
 20
0.4625
 30
0.0
 11
1.0
 21
0.0
 31
0.0
 44
0.9
  1
T-2A Sandwich ISO 05 - X&Y\P(See Technical Data for Body Features)
 40
0.125
 41
7.6
  0
MTEXT
  5
245
100
AcDbEntity
  8
0
100
AcDbMText
 62
2
  6
CONTINUOUS
  7
STANDARD
 71
1
 72
1
 10
6.45
 20
0.5625
 30
0.0
 11
1.0
 21
0.0
 31
0.0
 44
0.9
  1
SHEET
 40
0.06
 41
0.48
  0
MTEXT
  5
246
100
AcDbEntity
  8
0
100
AcDbMText
 62
2
  6
CONTINUOUS
  7
STANDARD
 71
1
 72
1
 10
5.95
 20
0.5625
 30
0.0
 11
1.0
 21
0.0
 31
0.0
 44
0.9
  1
DWG SIZE
 40
0.06
 41
0.768
  0
MTEXT
  5
247
100
AcDbEntity
  8
0
100
AcDbMText
 62
2
  6
CONTINUOUS
  7
STANDARD
 71
1
 72
1
 10
5.25
 20
0.5625
 30
0.0
 11
1.0
 21
0.0
 31
0.0
 44
0.9
  1
SCALE
 40
0.06
 41
0.48
  0
MTEXT
  5
248
100
AcDbEntity
  8
0
100
AcDbMText
 62
2
  6
CONTINUOUS
  7
STANDARD
 71
1
 72
1
 10
4.15
 20
0.5625
 30
0.0
 11
1.0
 21
0.0
 31
0.0
 44
0.9
  1
DATE
 40
0.06
 41
0.384
  0
MTEXT
  5
249
100
AcDbEntity
  8
0
100
AcDbMText
 62
2
  6
CONTINUOUS
  7
STANDARD
 71
1
 72
1
 10
0.05
 20
0.5625
 30
0.0
 11
1.0
 21
0.0
 31
0.0
 44
0.9
  1
DESCRIPTION
 40
0.06
 41
1.056
  0
MTEXT
  5
24A
100
AcDbEntity
  8
0
100
AcDbMText
 62
2
  6
CONTINUOUS
  7
STANDARD
 71
2
 72
1
 10
5.45
 20
1.0375
 30
0.0
 11
1.0
 21
0.0
 31
0.0
 44
0.9
  1
ALL DIMENSIONS IN INCH\PVIEWS ARE THIRD ANGLE
 40
0.12
 41
4.224
  0
MTEXT
  5
24B
100
AcDbEntity
  8
0
100
AcDbMText
 62
2
  6
CONTINUOUS
  7
STANDARD
 71
2
 72
1
 10
2.05
 20
0.95
 30
0.0
 11
1.0
 21
0.0
 31
0.0
 44
0.9
  1
BJ4
 40
0.125
 41
0.6
  0
MTEXT
  5
24C
100
AcDbEntity
  8
0
100
AcDbMText
 62
2
  6
CONTINUOUS
  7
STANDARD
 71
1
 72
1
 10
0.05
 20
1.1875
 30
0.0
 11
1.0
 21
0.0
 31
0.0
 44
0.9
  1
MODEL
 40
0.06
 41
0.48
  0
ENDBLK
  5
24D
100
AcDbEntity
  8
0
  6
BYBLOCK
 62
0
100
AcDbBlockEnd
  0
BLOCK
  5
24E
100
AcDbEntity
  8
0
100
AcDbBlockBegin
  2
*T2
 70
1
 10
0.0
 20
0.0
  3
*T2
  1

  0
LINE
  5
24F
100
AcDbEntity
  8
0
100
AcDbLine
 62
2
  6
CONTINUOUS
 10
0.0
 20
0.0
 11
9.055
 21
0.0
  0
LINE
  5
250
100
AcDbEntity
  8
0
100
AcDbLine
 62
2
  6
CONTINUOUS
 10
0.0
 20
0.0
 11
0.0
 21
-2.344
  0
LINE
  5
251
100
AcDbEntity
  8
0
100
AcDbLine
 62
2
  6
CONTINUOUS
 10
0.0
 20
-0.344
 11
9.055
 21
-0.344
  0
LINE
  5
252
100
AcDbEntity
  8
0
100
AcDbLine
 62
2
  6
CONTINUOUS
 10
0.0
 20
-0.594
 11
9.055
 21
-0.594
  0
LINE
  5
253
100
AcDbEntity
  8
0
100
AcDbLine
 62
2
  6
CONTINUOUS
 10
0.0
 20
-0.844
 11
9.055
 21
-0.844
  0
LINE
  5
254
100
AcDbEntity
  8
0
100
AcDbLine
 62
2
  6
CONTINUOUS
 10
0.0
 20
-1.094
 11
9.055
 21
-1.094
  0
LINE
  5
255
100
AcDbEntity
  8
0
100
AcDbLine
 62
2
  6
CONTINUOUS
 10
0.0
 20
-1.344
 11
9.055
 21
-1.344
  0
LINE
  5
256
100
AcDbEntity
  8
0
100
AcDbLine
 62
2
  6
CONTINUOUS
 10
0.0
 20
-1.594
 11
9.055
 21
-1.594
  0
LINE
  5
257
100
AcDbEntity
  8
0
100
AcDbLine
 62
2
  6
CONTINUOUS
 10
0.0
 20
-1.844
 11
9.055
 21
-1.844
  0
LINE
  5
258
100
AcDbEntity
  8
0
100
AcDbLine
 62
2
  6
CONTINUOUS
 10
0.0
 20
-2.094
 11
9.055
 21
-2.094
  0
LINE
  5
259
100
AcDbEntity
  8
0
100
AcDbLine
 62
2
  6
CONTINUOUS
 10
0.0
 20
-2.344
 11
9.055
 21
-2.344
  0
LINE
  5
25A
100
AcDbEntity
  8
0
100
AcDbLine
 62
2
  6
CONTINUOUS
 10
3.055
 20
0.0
 11
3.055
 21
-2.344
  0
LINE
  5
25B
100
AcDbEntity
  8
0
100
AcDbLine
 62
2
  6
CONTINUOUS
 10
9.055
 20
0.0
 11
9.055
 21
-2.344
  0
MTEXT
  5
25C
100
AcDbEntity
  8
0
100
AcDbMText
 62
2
  6
CONTINUOUS
  7
STANDARD
 71
2
 72
1
 10
1.5275
 20
-0.0995
 30
0.0
 11
1.0
 21
0.0
 31
0.0
 44
0.9
  1
Technical Data
 40
0.145
 41
3.248
  0
MTEXT
  5
25D
100
AcDbEntity
  8
0
100
AcDbMText
 62
2
  6
CONTINUOUS
  7
STANDARD
 71
2
 72
1
 10
4.555
 20
-0.0995
 30
0.0
 11
1.0
 21
0.0
 31
0.0
 44
0.9
  1
U.S. Units
 40
0.145
 41
2.32
  0
MTEXT
  5
25E
100
AcDbEntity
  8
0
100
AcDbMText
 62
2
  6
CONTINUOUS
  7
STANDARD
 71
2
 72
1
 10
7.555
 20
-0.0995
 30
0.0
 11
1.0
 21
0.0
 31
0.0
 44
0.9
  1
Metric Units
 40
0.145
 41
2.784
  0
MTEXT
  5
25F
100
AcDbEntity
  8
0
100
AcDbMText
 62
2
  6
CONTINUOUS
  7
STANDARD
 71
2
 72
1
 10
1.5275
 20
-0.4065
 30
0.0
 11
1.0
 21
0.0
 31
0.0
 44
0.9
  1
Cavity
 40
0.125
 41
1.2
  0
MTEXT
  5
260
100
AcDbEntity
  8
0
100
AcDbMText
 62
2
  6
CONTINUOUS
  7
STANDARD
 71
2
 72
1
 10
6.055
 20
-0.4065
 30
0.0
 11
1.0
 21
0.0
 31
0.0
 44
0.9
  1
T-2A
 40
0.125
 41
0.8
  0
MTEXT
  5
261
100
AcDbEntity
  8
0
100
AcDbMText
 62
2
  6
CONTINUOUS
  7
STANDARD
 71
2
 72
1
 10
1.5275
 20
-0.6565
 30
0.0
 11
1.0
 21
0.0
 31
0.0
 44
0.9
  1
Body Features
 40
0.125
 41
2.6
  0
MTEXT
  5
262
100
AcDbEntity
  8
0
100
AcDbMText
 62
2
  6
CONTINUOUS
  7
STANDARD
 71
2
 72
1
 10
6.055
 20
-0.6565
 30
0.0
 11
1.0
 21
0.0
 31
0.0
 44
0.9
  1
Sequence into A or out of B with reverse flow check
 40
0.125
 41
10.2
  0
MTEXT
  5
263
100
AcDbEntity
  8
0
100
AcDbMText
 62
2
  6
CONTINUOUS
  7
STANDARD
 71
2
 72
1
 10
1.5275
 20
-0.9065
 30
0.0
 11
1.0
 21
0.0
 31
0.0
 44
0.9
  1
Body Type
 40
0.125
 41
1.8
  0
MTEXT
  5
264
100
AcDbEntity
  8
0
100
AcDbMText
 62
2
  6
CONTINUOUS
  7
STANDARD
 71
2
 72
1
 10
6.055
 20
-0.9065
 30
0.0
 11
1.0
 21
0.0
 31
0.0
 44
0.9
  1
Sandwich
 40
0.125
 41
1.6
  0
MTEXT
  5
265
100
AcDbEntity
  8
0
100
AcDbMText
 62
2
  6
CONTINUOUS
  7
STANDARD
 71
2
 72
1
 10
1.5275
 20
-1.1565
 30
0.0
 11
1.0
 21
0.0
 31
0.0
 44
0.9
  1
Interface
 40
0.125
 41
1.8
  0
MTEXT
  5
266
100
AcDbEntity
  8
0
100
AcDbMText
 62
2
  6
CONTINUOUS
  7
STANDARD
 71
2
 72
1
 10
6.055
 20
-1.1565
 30
0.0
 11
1.0
 21
0.0
 31
0.0
 44
0.9
  1
ISO 05 - X&Y
 40
0.125
 41
2.4
  0
MTEXT
  5
267
100
AcDbEntity
  8
0
100
AcDbMText
 62
2
  6
CONTINUOUS
  7
STANDARD
 71
2
 72
1
 10
1.5275
 20
-1.4065
 30
0.0
 11
1.0
 21
0.0
 31
0.0
 44
0.9
  1
Open Cavity Quantity
 40
0.125
 41
4.0
  0
MTEXT
  5
268
100
AcDbEntity
  8
0
100
AcDbMText
 62
2
  6
CONTINUOUS
  7
STANDARD
 71
2
 72
1
 10
6.055
 20
-1.4065
 30
0.0
 11
1.0
 21
0.0
 31
0.0
 44
0.9
  1
1
 40
0.125
 41
0.2
  0
MTEXT
  5
269
100
AcDbEntity
  8
0
100
AcDbMText
 62
2
  6
CONTINUOUS
  7
STANDARD
 71
2
 72
1
 10
1.5275
 20
-1.6565
 30
0.0
 11
1.0
 21
0.0
 31
0.0
 44
0.9
  1
Stack Height
 40
0.125
 41
2.4
  0
MTEXT
  5
26A
100
AcDbEntity
  8
0
100
AcDbMText
 62
2
  6
CONTINUOUS
  7
STANDARD
 71
2
 72
1
 10
4.555
 20
-1.6565
 30
0.0
 11
1.0
 21
0.0
 31
0.0
 44
0.9
  1
2.49 in.
 40
0.125
 41
1.6
  0
MTEXT
  5
26B
100
AcDbEntity
  8
0
100
AcDbMText
 62
2
  6
CONTINUOUS
  7
STANDARD
 71
2
 72
1
 10
7.555
 20
-1.6565
 30
0.0
 11
1.0
 21
0.0
 31
0.0
 44
0.9
  1
63 mm
 40
0.125
 41
1.0
  0
MTEXT
  5
26C
100
AcDbEntity
  8
0
100
AcDbMText
 62
2
  6
CONTINUOUS
  7
STANDARD
 71
2
 72
1
 10
1.5275
 20
-1.9065
 30
0.0
 11
1.0
 21
0.0
 31
0.0
 44
0.9
  1
Weight
 40
0.125
 41
1.2
  0
MTEXT
  5
26D
100
AcDbEntity
  8
0
100
AcDbMText
 62
2
  6
CONTINUOUS
  7
STANDARD
 71
2
 72
1
 10
4.555
 20
-1.9065
 30
0.0
 11
1.0
 21
0.0
 31
0.0
 44
0.9
  1
2.362 lb.
 40
0.125
 41
1.8
  0
MTEXT
  5
26E
100
AcDbEntity
  8
0
100
AcDbMText
 62
2
  6
CONTINUOUS
  7
STANDARD
 71
2
 72
1
 10
7.555
 20
-1.9065
 30
0.0
 11
1.0
 21
0.0
 31
0.0
 44
0.9
  1
1,072 kg.
 40
0.125
 41
1.8
  0
MTEXT
  5
26F
100
AcDbEntity
  8
0
100
AcDbMText
 62
2
  6
CONTINUOUS
  7
STANDARD
 71
2
 72
1
 10
1.5275
 20
-2.1565
 30
0.0
 11
1.0
 21
0.0
 31
0.0
 44
0.9
  1
Seal Plate Included (see notes)
 40
0.125
 41
6.2
  0
MTEXT
  5
270
100
AcDbEntity
  8
0
100
AcDbMText
 62
2
  6
CONTINUOUS
  7
STANDARD
 71
2
 72
1
 10
6.055
 20
-2.1565
 30
0.0
 11
1.0
 21
0.0
 31
0.0
 44
0.9
  1
No
 40
0.125
 41
0.4
  0
ENDBLK
  5
271
100
AcDbEntity
  8
0
  6
BYBLOCK
 62
0
100
AcDbBlockEnd
  0
ENDSEC
  0
SECTION
  2
ENTITIES
  0
IMAGE
  5
272
100
AcDbEntity
  8
0
100
AcDbRasterImage
 62
7
  6
CONTINUOUS
 10
19.2297077316
 20
0.3094318264
 30
0.0
 11
0.0066666667
 21
0.0
 31
0.0
 12
0.0
 22
0.0066666667
 32
0.0
 13
369.0
 23
92.0
340
       48F
 70
9
280
0
281
50
282
50
283
0
360
       489
 71
1
 91
2
 14
-0.5
 24
-0.5
 14
368.5
 24
91.5
  0
INSERT
  5
273
100
AcDbEntity
  8
0
100
AcDbBlockReference
 62
2
  6
CONTINUOUS
  2
SUN_FIRST_THIRD_ANGLE_BL0
 10
20.4816717061
 20
1.2289683772
  0
ACAD_TABLE
  5
274
100
AcDbEntity
  8
0
 62
2
  6
CONTINUOUS
100
AcDbBlockReference
  2
*T1
 10
12.42375
 20
0.30125
 30
0.0
100
AcDbTable
342
       491
343
20F
 11
1.0
 21
0.0
 31
0.0
 90
6
 91
4
 92
6
 93
20
 94
0
 95
0
 96
0
 70
1
 41
0.0
141
0.525
141
0.1
141
0.525
141
0.1
142
4.1
142
1.1
142
0.7
142
0.5
142
0.4
142
2.475
171
1
172
0
173
0
174
0
175
1
176
1
 91
33
178
0
145
0.0
301
CELL_VALUE
 90
4
  1
T-2A Sandwich ISO 05 - X&Y\P(See Technical Data for Body Features)
304
ACVALUE_END
170
2
140
0.125
171
1
172
0
173
0
174
0
175
1
176
1
 91
33
178
0
145
0.0
301
CELL_VALUE
 90
4
  1
Oct-26-20
304
ACVALUE_END
170
5
140
0.125
171
1
172
0
173
0
174
0
175
1
176
1
 91
33
178
0
145
0.0
301
CELL_VALUE
 90
4
  1
1.000
304
ACVALUE_END
170
5
140
0.125
171
1
172
0
173
0
174
0
175
1
176
1
 91
33
178
0
145
0.0
301
CELL_VALUE
 90
4
  1
C
304
ACVALUE_END
170
5
140
0.125
171
1
172
0
173
0
174
0
175
1
176
1
 91
33
178
0
145
0.0
301
CELL_VALUE
 90
4
  1
2
304
ACVALUE_END
170
5
140
0.125
171
1
172
0
173
0
174
0
175
1
176
1
 91
33
178
0
145
0.0
301
CELL_VALUE
 90
4
  1
 
304
ACVALUE_END
170
1
140
0.125
171
1
172
0
173
0
174
0
175
1
176
1
 91
33
178
0
145
0.0
301
CELL_VALUE
 90
4
  1
DESCRIPTION
304
ACVALUE_END
170
1
140
0.06
171
1
172
0
173
0
174
0
175
1
176
1
 91
33
178
0
145
0.0
301
CELL_VALUE
 90
4
  1
DATE
304
ACVALUE_END
170
1
140
0.06
171
1
172
0
173
0
174
0
175
1
176
1
 91
33
178
0
145
0.0
301
CELL_VALUE
 90
4
  1
SCALE
304
ACVALUE_END
170
1
140
0.06
171
1
172
0
173
0
174
0
175
1
176
1
 91
33
178
0
145
0.0
301
CELL_VALUE
 90
4
  1
DWG SIZE
304
ACVALUE_END
170
1
140
0.06
171
1
172
0
173
0
174
0
175
1
176
1
 91
33
178
0
145
0.0
301
CELL_VALUE
 90
4
  1
SHEET
304
ACVALUE_END
170
1
140
0.06
171
1
172
0
173
0
174
0
175
1
176
1
 91
33
178
0
145
0.0
301
CELL_VALUE
 90
4
  1
 
304
ACVALUE_END
170
1
140
0.125
171
1
172
0
173
0
174
0
175
1
176
1
 91
33
178
0
145
0.0
301
CELL_VALUE
 90
4
  1
BJ4
304
ACVALUE_END
170
5
140
0.125
171
1
172
0
173
0
174
0
175
4
176
1
 91
33
178
0
145
0.0
301
CELL_VALUE
 90
4
  1
ALL DIMENSIONS IN INCH\PVIEWS ARE THIRD ANGLE
304
ACVALUE_END
170
5
140
0.12
171
1
172
0
173
1
174
0
175
1
176
1
 91
1
178
0
145
0.0
170
1
171
1
172
0
173
1
174
0
175
1
176
1
 91
1
178
0
145
0.0
170
1
171
1
172
0
173
1
174
0
175
1
176
1
 91
1
178
0
145
0.0
170
5
171
1
172
0
173
0
174
0
175
1
176
1
 91
33
178
0
145
0.0
301
CELL_VALUE
 90
4
  1
 
304
ACVALUE_END
170
1
140
0.125
171
1
172
0
173
0
174
0
175
1
176
1
 91
33
178
0
145
0.0
301
CELL_VALUE
 90
4
  1
MODEL
304
ACVALUE_END
170
1
140
0.06
171
1
172
0
173
0
174
0
175
1
176
1
 91
33
178
0
145
0.0
301
CELL_VALUE
 90
4
  1
 
304
ACVALUE_END
170
1
140
0.125
171
1
172
0
173
0
174
0
175
1
176
1
 91
33
178
0
145
0.0
301
CELL_VALUE
 90
4
  1
 
304
ACVALUE_END
170
1
140
0.125
171
1
172
0
173
0
174
0
175
1
176
1
 91
33
178
0
145
0.0
301
CELL_VALUE
 90
4
  1
 
304
ACVALUE_END
170
1
140
0.125
171
1
172
0
173
0
174
0
175
1
176
1
 91
33
178
0
145
0.0
301
CELL_VALUE
 90
4
  1
 
304
ACVALUE_END
170
1
140
0.125
171
1
172
0
173
0
174
0
175
1
176
1
 91
33
178
0
145
0.0
301
CELL_VALUE
 90
4
  1
 
304
ACVALUE_END
170
1
140
0.125
  0
ACAD_TABLE
  5
275
100
AcDbEntity
  8
0
 62
2
  6
CONTINUOUS
100
AcDbBlockReference
  2
*T2
 10
12.4237499994
 20
16.47875
 30
0.0
100
AcDbTable
342
       490
343
210
 11
1.0
 21
0.0
 31
0.0
 90
22
 91
9
 92
3
 93
16
 94
0
 95
0
 96
0
 41
0.028
141
0.344
141
0.25
141
0.25
141
0.25
141
0.25
141
0.25
141
0.25
141
0.25
141
0.25
142
3.055
142
3.0
142
3.0
171
1
172
0
173
0
174
0
175
1
176
1
 91
33
178
0
145
0.0
301
CELL_VALUE
 90
4
  1
Technical Data
304
ACVALUE_END
170
5
140
0.145
171
1
172
0
173
0
174
0
175
1
176
1
 91
33
178
0
145
0.0
301
CELL_VALUE
 90
4
  1
U.S. Units
304
ACVALUE_END
170
5
140
0.145
171
1
172
0
173
0
174
0
175
1
176
1
 91
33
178
0
145
0.0
301
CELL_VALUE
 90
4
  1
Metric Units
304
ACVALUE_END
170
5
140
0.145
171
1
172
0
173
0
174
0
175
1
176
1
 91
33
178
0
145
0.0
301
CELL_VALUE
 90
4
  1
Cavity
304
ACVALUE_END
170
5
140
0.125
171
1
172
0
173
0
174
0
175
2
176
1
 91
33
178
0
145
0.0
301
CELL_VALUE
 90
4
  1
T-2A
304
ACVALUE_END
170
5
140
0.125
171
1
172
0
173
1
174
0
175
1
176
1
 91
1
178
0
145
0.0
170
1
171
1
172
0
173
0
174
0
175
1
176
1
 91
33
178
0
145
0.0
301
CELL_VALUE
 90
4
  1
Body Features
304
ACVALUE_END
170
5
140
0.125
171
1
172
0
173
0
174
0
175
2
176
1
 91
33
178
0
145
0.0
301
CELL_VALUE
 90
4
  1
Sequence into A or out of B with reverse flow check
304
ACVALUE_END
170
5
140
0.125
171
1
172
0
173
1
174
0
175
1
176
1
 91
1
178
0
145
0.0
170
1
171
1
172
0
173
0
174
0
175
1
176
1
 91
33
178
0
145
0.0
301
CELL_VALUE
 90
4
  1
Body Type
304
ACVALUE_END
170
5
140
0.125
171
1
172
0
173
0
174
0
175
2
176
1
 91
33
178
0
145
0.0
301
CELL_VALUE
 90
4
  1
Sandwich
304
ACVALUE_END
170
5
140
0.125
171
1
172
0
173
1
174
0
175
1
176
1
 91
1
178
0
145
0.0
170
1
171
1
172
0
173
0
174
0
175
1
176
1
 91
33
178
0
145
0.0
301
CELL_VALUE
 90
4
  1
Interface
304
ACVALUE_END
170
5
140
0.125
171
1
172
0
173
0
174
0
175
2
176
1
 91
33
178
0
145
0.0
301
CELL_VALUE
 90
4
  1
ISO 05 - X&Y
304
ACVALUE_END
170
5
140
0.125
171
1
172
0
173
1
174
0
175
1
176
1
 91
1
178
0
145
0.0
170
1
171
1
172
0
173
0
174
0
175
1
176
1
 91
33
178
0
145
0.0
301
CELL_VALUE
 90
4
  1
Open Cavity Quantity
304
ACVALUE_END
170
5
140
0.125
171
1
172
0
173
0
174
0
175
2
176
1
 91
33
178
0
145
0.0
301
CELL_VALUE
 90
4
  1
1
304
ACVALUE_END
170
5
140
0.125
171
1
172
0
173
1
174
0
175
1
176
1
 91
1
178
0
145
0.0
170
1
171
1
172
0
173
0
174
0
175
1
176
1
 91
33
178
0
145
0.0
301
CELL_VALUE
 90
4
  1
Stack Height
304
ACVALUE_END
170
5
140
0.125
171
1
172
0
173
0
174
0
175
1
176
1
 91
33
178
0
145
0.0
301
CELL_VALUE
 90
4
  1
2.49 in.
304
ACVALUE_END
170
5
140
0.125
171
1
172
0
173
0
174
0
175
1
176
1
 91
33
178
0
145
0.0
301
CELL_VALUE
 90
4
  1
63 mm
304
ACVALUE_END
170
5
140
0.125
171
1
172
0
173
0
174
0
175
1
176
1
 91
33
178
0
145
0.0
301
CELL_VALUE
 90
4
  1
Weight
304
ACVALUE_END
170
5
140
0.125
171
1
172
0
173
0
174
0
175
1
176
1
 91
33
178
0
145
0.0
301
CELL_VALUE
 90
4
  1
2.362 lb.
304
ACVALUE_END
170
5
140
0.125
171
1
172
0
173
0
174
0
175
1
176
1
 91
33
178
0
145
0.0
301
CELL_VALUE
 90
4
  1
1,072 kg.
304
ACVALUE_END
170
5
140
0.125
171
1
172
0
173
0
174
0
175
1
176
1
 91
33
178
0
145
0.0
301
CELL_VALUE
 90
4
  1
Seal Plate Included (see notes)
304
ACVALUE_END
170
5
140
0.125
171
1
172
0
173
0
174
0
175
2
176
1
 91
33
178
0
145
0.0
301
CELL_VALUE
 90
4
  1
No
304
ACVALUE_END
170
5
140
0.125
171
1
172
0
173
1
174
0
175
1
176
1
 91
1
178
0
145
0.0
170
1
  0
MTEXT
  5
276
100
AcDbEntity
  8
0
100
AcDbMText
 62
2
  6
CONTINUOUS
  7
STANDARD
 71
1
 72
1
 10
0.52125
 20
5.75995
 30
0.0
 11
1.0
 21
0.0
 31
0.0
 44
0.6
  3
Notes\P \P1. Stack height value in technical\P   data table includes seal retainer\P   plate.\P2. This installation requires a\P   retainer and seal kit which are\P   purchased separately. See "Related\P   Accessories" section.\P3. Important: Careful
  3
ly consider\P   the maximum system pressure. The\P   pressure rating of the manifold is\P   dependent on the manifold material,\P   with the port type/size a secondary\P   consideration. Manifolds\P   constructed of aluminum are not\P   rated for pre
  1
ssures higher than\P   3000 psi (210 bar), regardless of\P   the port type/size specified.
 40
0.1
 41
3.04
  0
LINE
  5
277
100
AcDbEntity
  8
0
100
AcDbLine
 62
7
  6
CONTINUOUS
 10
0.30125
 20
0.30125
 11
0.30125
 21
16.69875
  0
LINE
  5
278
100
AcDbEntity
  8
0
100
AcDbLine
 62
7
  6
CONTINUOUS
 10
0.30125
 20
0.30125
 11
21.69875
 21
0.30125
  0
LINE
  5
279
100
AcDbEntity
  8
0
100
AcDbLine
 62
7
  6
CONTINUOUS
 10
0.30125
 20
16.69875
 11
21.69875
 21
16.69875
  0
LINE
  5
27A
100
AcDbEntity
  8
0
100
AcDbLine
 62
7
  6
CONTINUOUS
 10
21.69875
 20
0.30125
 11
21.69875
 21
16.69875
  0
LINE
  5
27B
100
AcDbEntity
  8
0
100
AcDbLine
 62
7
  6
CONTINUOUS
 10
9.4770924947
 20
10.58625281
 11
10.1080927965
 21
11.195752334
  0
LINE
  5
27C
100
AcDbEntity
  8
0
100
AcDbLine
 62
7
  6
CONTINUOUS
 10
10.4891730002
 20
5.8905230414
 11
10.5083908896
 21
5.881029772
  0
LINE
  5
27D
100
AcDbEntity
  8
0
100
AcDbLine
 62
7
  6
CONTINUOUS
 10
9.6400787739
 20
6.402730131
 11
9.6699452003
 21
6.374936286
  0
LINE
  5
27E
100
AcDbEntity
  8
0
100
AcDbLine
 62
7
  6
CONTINUOUS
 10
9.9123325121
 20
6.3127928329
 11
11.4819620728
 21
6.2039386531
  0
LINE
  5
27F
100
AcDbEntity
  8
0
100
AcDbLine
 62
7
  6
CONTINUOUS
 10
10.2218432736
 20
10.6496268641
 11
10.1937505986
 21
10.6224914222
  0
LINE
  5
280
100
AcDbEntity
  8
02___PRT_ALL_AXES
100
AcDbLine
 62
7
  6
CONTINUOUS
 10
10.1184319776
 20
10.6127871392
 11
10.148298404
 21
10.6405809843
  0
LINE
  5
281
100
AcDbEntity
  8
0
100
AcDbLine
 62
7
  6
CONTINUOUS
 10
9.9043091283
 20
6.3349865412
 11
11.473938689
 21
6.2261323614
  0
LINE
  5
282
100
AcDbEntity
  8
0
100
AcDbLine
 62
7
  6
CONTINUOUS
 10
10.3753446647
 20
10.609897831
 11
10.4034373397
 21
10.6370332728
  0
LINE
  5
283
100
AcDbEntity
  8
0
100
AcDbLine
 62
7
  6
CONTINUOUS
 10
10.4966087753
 20
10.6160299741
 11
10.4960969663
 21
10.6155449247
  0
LINE
  5
284
100
AcDbEntity
  8
0
100
AcDbLine
 62
7
  6
CONTINUOUS
 10
9.9123325121
 20
6.3127928329
 11
9.9043091283
 21
6.3349865412
  0
LINE
  5
285
100
AcDbEntity
  8
0
100
AcDbLine
 62
7
  6
CONTINUOUS
 10
9.4770924947
 20
10.58625281
 11
9.4770924947
 21
7.0847713671
  0
LINE
  5
286
100
AcDbEntity
  8
0
100
AcDbLine
 62
7
  6
CONTINUOUS
 10
11.8919072035
 20
6.9173033982
 11
9.4770924947
 21
7.0847713671
  0
LINE
  5
287
100
AcDbEntity
  8
0
100
AcDbLine
 62
7
  6
CONTINUOUS
 10
9.6263661901
 20
7.0744192011
 11
9.6263661901
 21
6.4287364694
  0
LINE
  5
288
100
AcDbEntity
  8
0
100
AcDbLine
 62
7
  6
CONTINUOUS
 10
10.2971421703
 20
9.4964255409
 11
10.2857332852
 21
9.4877378493
  0
LINE
  5
289
100
AcDbEntity
  8
0
100
AcDbLine
 62
7
  6
CONTINUOUS
 10
9.9043091283
 20
6.3349865412
 11
9.9043091283
 21
7.0551437929
  0
LINE
  5
28A
100
AcDbEntity
  8
0
100
AcDbLine
 62
7
  6
CONTINUOUS
 10
10.2218432736
 20
10.6496268641
 11
10.2218432736
 21
10.6152205121
  0
LINE
  5
28B
100
AcDbEntity
  8
0
100
AcDbLine
 62
7
  6
CONTINUOUS
 10
10.3266866441
 20
10.6568977894
 11
10.3266866441
 21
10.6065233798
  0
LINE
  5
28C
100
AcDbEntity
  8
0
100
AcDbLine
 62
7
  6
CONTINUOUS
 10
10.3809727232
 20
6.2802925238
 11
10.3809727232
 21
6.027202703
  0
LINE
  5
28D
100
AcDbEntity
  8
0
100
AcDbLine
 62
7
  6
CONTINUOUS
 10
12.5229075053
 20
11.0282843652
 11
11.8919072035
 21
10.4187848411
  0
LINE
  5
28E
100
AcDbEntity
  8
0
100
AcDbLine
 62
7
  6
CONTINUOUS
 10
10.5323926627
 20
6.2653459643
 11
10.5323926627
 21
5.8809425229
  0
LINE
  5
28F
100
AcDbEntity
  8
0
100
AcDbLine
 62
7
  6
CONTINUOUS
 10
10.5718654406
 20
6.2551296705
 11
10.5718654406
 21
5.8707262292
  0
LINE
  5
290
100
AcDbEntity
  8
0
100
AcDbLine
 62
4
  6
CONTINUOUS
 10
11.9410827804
 20
9.7684033833
 11
11.9100245213
 21
9.7384034069
  0
LINE
  5
291
100
AcDbEntity
  8
0
100
AcDbLine
 62
4
  6
CONTINUOUS
 10
11.9747292276
 20
9.7429478076
 11
11.9669646633
 21
9.735447814
  0
LINE
  5
292
100
AcDbEntity
  8
0
100
AcDbLine
 62
4
  6
CONTINUOUS
 10
11.9592000976
 20
9.720703375
 11
11.9514355328
 21
9.7132033809
  0
LINE
  5
293
100
AcDbEntity
  8
0
100
AcDbLine
 62
4
  6
CONTINUOUS
 10
12.4509559056
 20
8.3193920507
 11
12.4431913408
 21
8.3191365006
  0
LINE
  5
294
100
AcDbEntity
  8
0
100
AcDbLine
 62
7
  6
CONTINUOUS
 10
11.4819620728
 20
6.2039386531
 11
11.473938689
 21
6.2261323614
  0
LINE
  5
295
100
AcDbEntity
  8
0
100
AcDbLine
 62
4
  6
CONTINUOUS
 10
11.9488473451
 20
9.6527478318
 11
11.9799056042
 21
9.6827478081
  0
LINE
  5
296
100
AcDbEntity
  8
0
100
AcDbLine
 62
4
  6
CONTINUOUS
 10
11.9100245213
 20
9.5065812001
 11
11.9410827804
 21
9.5365811764
  0
LINE
  5
297
100
AcDbEntity
  8
0
100
AcDbLine
 62
4
  6
CONTINUOUS
 10
11.9488473451
 20
9.4571478447
 11
11.9799056042
 21
9.4871478211
  0
LINE
  5
298
100
AcDbEntity
  8
0
100
AcDbLine
 62
4
  6
CONTINUOUS
 10
12.4509559056
 20
8.4063253782
 11
12.4587204704
 21
8.4065809284
  0
LINE
  5
299
100
AcDbEntity
  8
0
100
AcDbLine
 62
4
  6
CONTINUOUS
 10
12.4354267761
 20
8.1522587392
 11
12.4664850352
 21
8.1460364958
  0
LINE
  5
29A
100
AcDbEntity
  8
0
100
AcDbLine
 62
7
  6
CONTINUOUS
 10
11.1369719151
 20
6.2159394034
 11
11.1369719151
 21
5.8315359621
  0
LINE
  5
29B
100
AcDbEntity
  8
0
100
AcDbLine
 62
7
  6
CONTINUOUS
 10
11.1908927174
 20
6.2196788304
 11
11.1908927174
 21
5.835275389
  0
LINE
  5
29C
100
AcDbEntity
  8
0
100
AcDbLine
 62
4
  6
CONTINUOUS
 10
11.9488473451
 20
9.3702145172
 11
11.9747292276
 21
9.3952144973
  0
LINE
  5
29D
100
AcDbEntity
  8
0
100
AcDbLine
 62
4
  6
CONTINUOUS
 10
11.9747292276
 20
9.3372589456
 11
11.9488473451
 21
9.3122589654
  0
LINE
  5
29E
100
AcDbEntity
  8
0
100
AcDbLine
 62
4
  6
CONTINUOUS
 10
12.4742495999
 20
8.2694475951
 11
12.505307859
 21
8.2632253516
  0
LINE
  5
29F
100
AcDbEntity
  8
0
100
AcDbLine
 62
4
  6
CONTINUOUS
 10
11.9100245213
 20
9.6152478595
 11
11.9410827804
 21
9.6814700557
  0
LINE
  5
2A0
100
AcDbEntity
  8
0
100
AcDbLine
 62
4
  6
CONTINUOUS
 10
11.9100245213
 20
9.4196478725
 11
11.9410827804
 21
9.4858700687
  0
LINE
  5
2A1
100
AcDbEntity
  8
0
100
AcDbLine
 62
4
  6
CONTINUOUS
 10
12.2867907925
 20
9.4106597189
 11
12.2912276864
 21
9.4149454296
  0
LINE
  5
2A2
100
AcDbEntity
  8
0
100
AcDbLine
 62
4
  6
CONTINUOUS
 10
11.9100245213
 20
9.0429367863
 11
11.9410827804
 21
9.0729367627
  0
LINE
  5
2A3
100
AcDbEntity
  8
0
100
AcDbLine
 62
4
  6
CONTINUOUS
 10
12.2690432156
 20
9.3355613232
 11
12.2734801099
 21
9.3398470343
  0
LINE
  5
2A4
100
AcDbEntity
  8
0
100
AcDbLine
 62
4
  6
CONTINUOUS
 10
12.2956645803
 20
9.3281581323
 11
12.2690432156
 21
9.3024438671
  0
LINE
  5
2A5
100
AcDbEntity
  8
0
100
AcDbLine
 62
4
  6
CONTINUOUS
 10
12.1062091999
 20
9.1092810161
 11
12.1372674589
 21
9.1392809925
  0
LINE
  5
2A6
100
AcDbEntity
  8
0
100
AcDbLine
 62
4
  6
CONTINUOUS
 10
12.2690432156
 20
9.2444883154
 11
12.2956645803
 21
9.2702025806
  0
LINE
  5
2A7
100
AcDbEntity
  8
0
100
AcDbLine
 62
4
  6
CONTINUOUS
 10
11.930730027
 20
8.8890701151
 11
11.9359064037
 21
8.8940701113
  0
LINE
  5
2A8
100
AcDbEntity
  8
0
100
AcDbLine
 62
4
  6
CONTINUOUS
 10
12.2646063212
 20
9.2070851481
 11
12.2956645803
 21
9.2370851245
  0
LINE
  5
2A9
100
AcDbEntity
  8
0
100
AcDbLine
 62
4
  6
CONTINUOUS
 10
12.1328305651
 20
9.077039737
 11
12.1106460942
 21
9.0556111824
  0
LINE
  5
2AA
100
AcDbEntity
  8
0
100
AcDbLine
 62
4
  6
CONTINUOUS
 10
11.9799056042
 20
8.8786145281
 11
11.9488473451
 21
8.8486145517
  0
LINE
  5
2AB
100
AcDbEntity
  8
0
100
AcDbLine
 62
4
  6
CONTINUOUS
 10
11.9152008984
 20
8.8161145761
 11
11.9177890861
 21
8.8186145736
  0
LINE
  5
2AC
100
AcDbEntity
  8
0
100
AcDbLine
 62
4
  6
CONTINUOUS
 10
12.2646063212
 20
9.1491295964
 11
12.2956645803
 21
9.1791295728
  0
LINE
  5
2AD
100
AcDbEntity
  8
0
100
AcDbLine
 62
4
  6
CONTINUOUS
 10
12.4509559056
 20
8.8989475678
 11
12.4431913408
 21
8.8986920177
  0
LINE
  5
2AE
100
AcDbEntity
  8
0
100
AcDbLine
 62
4
  6
CONTINUOUS
 10
12.4897787295
 20
8.9364475401
 11
12.4820141647
 21
8.9361919899
  0
LINE
  5
2AF
100
AcDbEntity
  8
0
100
AcDbLine
 62
4
  6
CONTINUOUS
 10
11.9255536508
 20
8.9275367832
 11
11.9177890861
 21
8.927281233
  0
LINE
  5
2B0
100
AcDbEntity
  8
0
100
AcDbLine
 62
4
  6
CONTINUOUS
 10
11.9643764747
 20
8.9650367554
 11
11.9566119099
 21
8.9647812053
  0
LINE
  5
2B1
100
AcDbEntity
  8
0
100
AcDbLine
 62
4
  6
CONTINUOUS
 10
12.4509559056
 20
8.9858808954
 11
12.4587204704
 21
8.9861364455
  0
LINE
  5
2B2
100
AcDbEntity
  8
0
100
AcDbLine
 62
4
  6
CONTINUOUS
 10
12.1811927112
 20
8.7125455878
 11
12.2055956289
 21
8.7112789021
  0
LINE
  5
2B3
100
AcDbEntity
  8
0
100
AcDbLine
 62
4
  6
CONTINUOUS
 10
12.4742495999
 20
8.5374920218
 11
12.505307859
 21
8.5312697783
  0
LINE
  5
2B4
100
AcDbEntity
  8
0
100
AcDbLine
 62
4
  6
CONTINUOUS
 10
12.4742495999
 20
8.6171809054
 11
12.505307859
 21
8.6109586619
  0
LINE
  5
2B5
100
AcDbEntity
  8
0
100
AcDbLine
 62
4
  6
CONTINUOUS
 10
12.2956645803
 20
8.500221701
 11
12.2934461324
 21
8.5008386224
  0
LINE
  5
2B6
100
AcDbEntity
  8
0
100
AcDbLine
 62
7
  6
CONTINUOUS
 10
11.473938689
 20
6.2261323614
 11
11.473938689
 21
6.9462896131
  0
LINE
  5
2B7
100
AcDbEntity
  8
0
100
AcDbLine
 62
7
  6
CONTINUOUS
 10
11.6045792525
 20
6.2013781052
 11
11.6045792525
 21
5.942345302
  0
LINE
  5
2B8
100
AcDbEntity
  8
0
100
AcDbLine
 62
7
  6
CONTINUOUS
 10
11.6190272768
 20
6.2018003748
 11
11.6190272768
 21
5.9563010227
  0
LINE
  5
2B9
100
AcDbEntity
  8
0
100
AcDbLine
 62
4
  6
CONTINUOUS
 10
11.9514355328
 20
9.7132033809
 11
11.9488473451
 21
9.7034589395
  0
LINE
  5
2BA
100
AcDbEntity
  8
0
100
AcDbLine
 62
4
  6
CONTINUOUS
 10
11.9669646633
 20
9.735447814
 11
11.961788287
 21
9.7159589303
  0
LINE
  5
2BB
100
AcDbEntity
  8
0
100
AcDbLine
 62
4
  6
CONTINUOUS
 10
11.9100245213
 20
9.2675145492
 11
11.9410827804
 21
9.3337367454
  0
LINE
  5
2BC
100
AcDbEntity
  8
0
100
AcDbLine
 62
4
  6
CONTINUOUS
 10
11.9566119099
 20
9.2690478518
 11
11.9643764747
 21
9.2837922898
  0
LINE
  5
2BD
100
AcDbEntity
  8
0
100
AcDbLine
 62
4
  6
CONTINUOUS
 10
11.9721410395
 20
9.2116034003
 11
11.9643764747
 21
9.1968589623
  0
LINE
  5
2BE
100
AcDbEntity
  8
0
100
AcDbLine
 62
4
  6
CONTINUOUS
 10
11.9177890861
 20
8.9997256727
 11
11.9255536508
 21
9.0144701107
  0
LINE
  5
2BF
100
AcDbEntity
  8
0
100
AcDbLine
 62
4
  6
CONTINUOUS
 10
11.9566119099
 20
9.0372256449
 11
11.9643764747
 21
9.051970083
  0
LINE
  5
2C0
100
AcDbEntity
  8
0
100
AcDbLine
 62
4
  6
CONTINUOUS
 10
11.9333182156
 20
8.9422812212
 11
11.9255536508
 21
8.9275367832
  0
LINE
  5
2C1
100
AcDbEntity
  8
0
100
AcDbLine
 62
4
  6
CONTINUOUS
 10
11.9721410395
 20
8.9797811934
 11
11.9643764747
 21
8.9650367554
  0
LINE
  5
2C2
100
AcDbEntity
  8
0
100
AcDbLine
 62
4
  6
CONTINUOUS
 10
11.9695528509
 20
8.8106589839
 11
11.9747292276
 21
8.8156589801
  0
LINE
  5
2C3
100
AcDbEntity
  8
0
100
AcDbLine
 62
4
  6
CONTINUOUS
 10
11.9540237223
 20
8.7377034449
 11
11.9566119099
 21
8.7402034424
  0
LINE
  5
2C4
100
AcDbEntity
  8
0
100
AcDbLine
 62
4
  6
CONTINUOUS
 10
12.5130724238
 20
9.2704586115
 11
12.4703673175
 21
9.229208644
  0
LINE
  5
2C5
100
AcDbEntity
  8
0
100
AcDbLine
 62
4
  6
CONTINUOUS
 10
11.9022599565
 20
8.6804590393
 11
11.9449650628
 21
8.7217090068
  0
LINE
  5
2C6
100
AcDbEntity
  8
0
100
AcDbLine
 62
4
  6
CONTINUOUS
 10
12.1062091999
 20
8.8719392332
 11
12.1372674589
 21
8.9019392096
  0
LINE
  5
2C7
100
AcDbEntity
  8
0
100
AcDbLine
 62
4
  6
CONTINUOUS
 10
12.2646063212
 20
9.0249391324
 11
12.2956645803
 21
9.0549391087
  0
LINE
  5
2C8
100
AcDbEntity
  8
0
100
AcDbLine
 62
4
  6
CONTINUOUS
 10
12.461308658
 20
9.2132142059
 11
12.4587204704
 21
9.2107142084
  0
LINE
  5
2C9
100
AcDbEntity
  8
0
100
AcDbLine
 62
4
  6
CONTINUOUS
 10
12.2845723446
 20
8.9945486401
 11
12.2646063212
 21
8.9752629413
  0
LINE
  5
2CA
100
AcDbEntity
  8
0
100
AcDbLine
 62
4
  6
CONTINUOUS
 10
12.4457795294
 20
9.1402586669
 11
12.4406031527
 21
9.1352586707
  0
LINE
  5
2CB
100
AcDbEntity
  8
0
100
AcDbLine
 62
4
  6
CONTINUOUS
 10
12.1062091999
 20
8.8057043209
 11
12.1372674589
 21
8.8357042973
  0
LINE
  5
2CC
100
AcDbEntity
  8
0
100
AcDbLine
 62
4
  6
CONTINUOUS
 10
12.1745373699
 20
8.8717043159
 11
12.2055956289
 21
8.9017042923
  0
LINE
  5
2CD
100
AcDbEntity
  8
0
100
AcDbLine
 62
4
  6
CONTINUOUS
 10
12.201158735
 20
8.8477423939
 11
12.1945033933
 21
8.8413138271
  0
LINE
  5
2CE
100
AcDbEntity
  8
0
100
AcDbLine
 62
4
  6
CONTINUOUS
 10
12.5001314819
 20
9.1348030747
 11
12.4975432942
 21
9.1323030772
  0
LINE
  5
2CF
100
AcDbEntity
  8
0
100
AcDbLine
 62
4
  6
CONTINUOUS
 10
12.4354267761
 20
9.0723031227
 11
12.4664850352
 21
9.1023030991
  0
LINE
  5
2D0
100
AcDbEntity
  8
0
100
AcDbLine
 62
4
  6
CONTINUOUS
 10
12.1856296055
 20
8.8244630417
 11
12.1789742642
 21
8.8180344753
  0
LINE
  5
2D1
100
AcDbEntity
  8
0
100
AcDbLine
 62
4
  6
CONTINUOUS
 10
12.2668247684
 20
8.8725338316
 11
12.2845723446
 21
8.8896766749
  0
LINE
  5
2D2
100
AcDbEntity
  8
0
100
AcDbLine
 62
4
  6
CONTINUOUS
 10
12.4846023533
 20
9.0618475357
 11
12.4794259766
 21
9.0568475395
  0
LINE
  5
2D3
100
AcDbEntity
  8
0
100
AcDbLine
 62
4
  6
CONTINUOUS
 10
12.1789742642
 20
8.7435201886
 11
12.2055956289
 21
8.7692344538
  0
LINE
  5
2D4
100
AcDbEntity
  8
0
100
AcDbLine
 62
4
  6
CONTINUOUS
 10
12.4897787295
 20
9.0233808676
 11
12.4975432942
 21
9.0236364178
  0
LINE
  5
2D5
100
AcDbEntity
  8
0
100
AcDbLine
 62
4
  6
CONTINUOUS
 10
11.9255536508
 20
9.0144701107
 11
11.9333182156
 21
9.0147256609
  0
LINE
  5
2D6
100
AcDbEntity
  8
0
100
AcDbLine
 62
4
  6
CONTINUOUS
 10
11.9643764747
 20
9.051970083
 11
11.9721410395
 21
9.0522256331
  0
LINE
  5
2D7
100
AcDbEntity
  8
0
100
AcDbLine
 62
4
  6
CONTINUOUS
 10
12.1062091999
 20
9.0044090717
 11
12.1372674589
 21
9.0012915919
  0
LINE
  5
2D8
100
AcDbEntity
  8
0
100
AcDbLine
 62
4
  6
CONTINUOUS
 10
12.2572114976
 20
8.9184438986
 11
12.2867907925
 21
8.9138978628
  0
LINE
  5
2D9
100
AcDbEntity
  8
0
100
AcDbLine
 62
4
  6
CONTINUOUS
 10
11.9488473451
 20
9.2325700818
 11
11.9514355328
 21
9.2495589672
  0
LINE
  5
2DA
100
AcDbEntity
  8
0
100
AcDbLine
 62
4
  6
CONTINUOUS
 10
11.9100245213
 20
8.9632479027
 11
11.9126127089
 21
8.9802367881
  0
LINE
  5
2DB
100
AcDbEntity
  8
0
100
AcDbLine
 62
4
  6
CONTINUOUS
 10
11.9799056042
 20
9.3639922737
 11
11.9773174159
 21
9.3470033877
  0
LINE
  5
2DC
100
AcDbEntity
  8
0
100
AcDbLine
 62
4
  6
CONTINUOUS
 10
11.9126127089
 20
8.8643256847
 11
11.9100245213
 21
8.8473367993
  0
LINE
  5
2DD
100
AcDbEntity
  8
0
100
AcDbLine
 62
4
  6
CONTINUOUS
 10
11.9773174159
 20
9.3470033877
 11
11.9747292276
 21
9.3372589456
  0
LINE
  5
2DE
100
AcDbEntity
  8
0
100
AcDbLine
 62
4
  6
CONTINUOUS
 10
11.9514355328
 20
9.2495589672
 11
11.9566119099
 21
9.2690478518
  0
LINE
  5
2DF
100
AcDbEntity
  8
0
100
AcDbLine
 62
4
  6
CONTINUOUS
 10
11.9773174159
 20
9.2310922842
 11
11.9721410395
 21
9.2116034003
  0
LINE
  5
2E0
100
AcDbEntity
  8
0
100
AcDbLine
 62
4
  6
CONTINUOUS
 10
11.9126127089
 20
8.9802367881
 11
11.9177890861
 21
8.9997256727
  0
LINE
  5
2E1
100
AcDbEntity
  8
0
100
AcDbLine
 62
4
  6
CONTINUOUS
 10
11.9514355328
 20
9.0177367603
 11
11.9566119099
 21
9.0372256449
  0
LINE
  5
2E2
100
AcDbEntity
  8
0
100
AcDbLine
 62
4
  6
CONTINUOUS
 10
11.938494592
 20
8.9617701051
 11
11.9333182156
 21
8.9422812212
  0
LINE
  5
2E3
100
AcDbEntity
  8
0
100
AcDbLine
 62
4
  6
CONTINUOUS
 10
11.9152008984
 20
8.8740701278
 11
11.9126127089
 21
8.8643256847
  0
LINE
  5
2E4
100
AcDbEntity
  8
0
100
AcDbLine
 62
4
  6
CONTINUOUS
 10
11.9281418394
 20
8.8793256737
 11
11.930730027
 21
8.8890701151
  0
LINE
  5
2E5
100
AcDbEntity
  8
0
100
AcDbLine
 62
4
  6
CONTINUOUS
 10
11.9177890861
 20
8.8186145736
 11
11.9203772737
 21
8.828359015
  0
LINE
  5
2E6
100
AcDbEntity
  8
0
100
AcDbLine
 62
4
  6
CONTINUOUS
 10
11.9773174159
 20
8.9992700774
 11
11.9721410395
 21
8.9797811934
  0
LINE
  5
2E7
100
AcDbEntity
  8
0
100
AcDbLine
 62
4
  6
CONTINUOUS
 10
11.938494592
 20
8.8458590017
 11
11.9333182156
 21
8.8263701178
  0
LINE
  5
2E8
100
AcDbEntity
  8
0
100
AcDbLine
 62
4
  6
CONTINUOUS
 10
11.9540237223
 20
8.7956589967
 11
11.9514355328
 21
8.7859145535
  0
LINE
  5
2E9
100
AcDbEntity
  8
0
100
AcDbLine
 62
4
  6
CONTINUOUS
 10
11.9695528509
 20
9.0207478589
 11
11.9799056042
 21
9.0524811832
  0
LINE
  5
2EA
100
AcDbEntity
  8
0
100
AcDbLine
 62
4
  6
CONTINUOUS
 10
11.9022599565
 20
8.6804590393
 11
11.9211193457
 21
8.7314965314
  0
LINE
  5
2EB
100
AcDbEntity
  8
0
100
AcDbLine
 62
4
  6
CONTINUOUS
 10
12.1372674589
 20
9.0012915919
 11
12.1062091999
 21
8.9381741455
  0
LINE
  5
2EC
100
AcDbEntity
  8
0
100
AcDbLine
 62
4
  6
CONTINUOUS
 10
12.2956645803
 20
8.8507147889
 11
12.2646063212
 21
8.8207148126
  0
LINE
  5
2ED
100
AcDbEntity
  8
0
100
AcDbLine
 62
4
  6
CONTINUOUS
 10
12.2646063212
 20
8.787597315
 11
12.2867907925
 21
8.80902587
  0
LINE
  5
2EE
100
AcDbEntity
  8
0
100
AcDbLine
 62
4
  6
CONTINUOUS
 10
12.1106460942
 20
8.6361233493
 11
12.1328305651
 21
8.6575519039
  0
LINE
  5
2EF
100
AcDbEntity
  8
0
100
AcDbLine
 62
4
  6
CONTINUOUS
 10
12.1745373699
 20
8.6674799961
 11
12.1900664994
 21
8.6824799843
  0
LINE
  5
2F0
100
AcDbEntity
  8
0
100
AcDbLine
 62
4
  6
CONTINUOUS
 10
12.2845723446
 20
8.7682460162
 11
12.2801354507
 21
8.7639603055
  0
LINE
  5
2F1
100
AcDbEntity
  8
0
100
AcDbLine
 62
4
  6
CONTINUOUS
 10
12.2668247684
 20
8.7152258976
 11
12.2734801099
 21
8.7216544643
  0
LINE
  5
2F2
100
AcDbEntity
  8
0
100
AcDbLine
 62
4
  6
CONTINUOUS
 10
12.1106460942
 20
8.5395307999
 11
12.1328305651
 21
8.5609593545
  0
LINE
  5
2F3
100
AcDbEntity
  8
0
100
AcDbLine
 62
4
  6
CONTINUOUS
 10
12.505307859
 20
8.9079808645
 11
12.4742495999
 21
8.8779808881
  0
LINE
  5
2F4
100
AcDbEntity
  8
0
100
AcDbLine
 62
4
  6
CONTINUOUS
 10
12.2646063212
 20
8.6634068786
 11
12.2823538986
 21
8.680549723
  0
LINE
  5
2F5
100
AcDbEntity
  8
0
100
AcDbLine
 62
4
  6
CONTINUOUS
 10
12.2867907925
 20
8.6517179913
 11
12.2668247684
 21
8.6324322918
  0
LINE
  5
2F6
100
AcDbEntity
  8
0
100
AcDbLine
 62
4
  6
CONTINUOUS
 10
12.1328305651
 20
8.5030038028
 11
12.1106460942
 21
8.4815752482
  0
LINE
  5
2F7
100
AcDbEntity
  8
0
100
AcDbLine
 62
4
  6
CONTINUOUS
 10
12.1062091999
 20
8.4441720948
 11
12.1372674589
 21
8.4741720711
  0
LINE
  5
2F8
100
AcDbEntity
  8
0
100
AcDbLine
 62
4
  6
CONTINUOUS
 10
12.2646063212
 20
8.5806132175
 11
12.2867907925
 21
8.6020417725
  0
LINE
  5
2F9
100
AcDbEntity
  8
0
100
AcDbLine
 62
4
  6
CONTINUOUS
 10
12.2668247684
 20
8.5496386307
 11
12.2956645803
 21
8.5774957515
  0
LINE
  5
2FA
100
AcDbEntity
  8
0
100
AcDbLine
 62
4
  6
CONTINUOUS
 10
12.1328305651
 20
8.4119308087
 11
12.1106460942
 21
8.3905022541
  0
LINE
  5
2FB
100
AcDbEntity
  8
0
100
AcDbLine
 62
4
  6
CONTINUOUS
 10
11.9643764747
 20
9.1968589623
 11
11.9566119099
 21
9.1966034121
  0
LINE
  5
2FC
100
AcDbEntity
  8
0
100
AcDbLine
 62
4
  6
CONTINUOUS
 10
11.9643764747
 20
9.2837922898
 11
11.9721410395
 21
9.28404784
  0
LINE
  5
2FD
100
AcDbEntity
  8
0
100
AcDbLine
 62
4
  6
CONTINUOUS
 10
11.9022599565
 20
8.6804590393
 11
11.9211193457
 21
8.6658550916
  0
LINE
  5
2FE
100
AcDbEntity
  8
0
100
AcDbLine
 62
7
  6
CONTINUOUS
 10
11.8919072035
 20
10.4187848411
 11
11.8919072035
 21
6.9173033982
  0
LINE
  5
2FF
100
AcDbEntity
  8
0
100
AcDbLine
 62
4
  6
CONTINUOUS
 10
11.9100245213
 20
8.8473367993
 11
11.9100245213
 21
8.8328479114
  0
LINE
  5
300
100
AcDbEntity
  8
0
100
AcDbLine
 62
4
  6
CONTINUOUS
 10
11.9100245213
 20
8.9487590148
 11
11.9100245213
 21
8.9632479027
  0
LINE
  5
301
100
AcDbEntity
  8
0
100
AcDbLine
 62
4
  6
CONTINUOUS
 10
11.9100245213
 20
9.7384034069
 11
11.9100245213
 21
9.7963589586
  0
LINE
  5
302
100
AcDbEntity
  8
0
100
AcDbLine
 62
4
  6
CONTINUOUS
 10
11.9255536508
 20
9.7534033951
 11
11.9255536508
 21
9.7896256149
  0
LINE
  5
303
100
AcDbEntity
  8
0
100
AcDbLine
 62
4
  6
CONTINUOUS
 10
11.930730027
 20
9.4179145245
 11
11.930730027
 21
9.4613811883
  0
LINE
  5
304
100
AcDbEntity
  8
0
100
AcDbLine
 62
7
  6
CONTINUOUS
 10
11.9332179571
 20
6.2947620943
 11
11.9332179571
 21
6.9572065244
  0
LINE
  5
305
100
AcDbEntity
  8
0
100
AcDbLine
 62
4
  6
CONTINUOUS
 10
11.9410827804
 20
9.826358935
 11
11.9410827804
 21
9.7684033833
  0
LINE
  5
306
100
AcDbEntity
  8
0
100
AcDbLine
 62
4
  6
CONTINUOUS
 10
11.9410827804
 20
8.9932478791
 11
11.9410827804
 21
8.9787589912
  0
LINE
  5
307
100
AcDbEntity
  8
0
100
AcDbLine
 62
4
  6
CONTINUOUS
 10
11.9410827804
 20
8.8773367757
 11
11.9410827804
 21
8.8628478877
  0
LINE
  5
308
100
AcDbEntity
  8
0
100
AcDbLine
 62
4
  6
CONTINUOUS
 10
11.9410827804
 20
9.0729367627
 11
11.9410827804
 21
9.1308923144
  0
LINE
  5
309
100
AcDbEntity
  8
0
100
AcDbLine
 62
4
  6
CONTINUOUS
 10
11.9410827804
 20
9.5365811764
 11
11.9410827804
 21
9.5945367281
  0
LINE
  5
30A
100
AcDbEntity
  8
0
100
AcDbLine
 62
4
  6
CONTINUOUS
 10
11.9449650628
 20
8.7217090068
 11
11.9449650628
 21
9.8808200411
  0
LINE
  5
30B
100
AcDbEntity
  8
0
100
AcDbLine
 62
4
  6
CONTINUOUS
 10
11.9488473451
 20
9.7034589395
 11
11.9488473451
 21
9.6527478318
  0
LINE
  5
30C
100
AcDbEntity
  8
0
100
AcDbLine
 62
4
  6
CONTINUOUS
 10
11.9488473451
 20
8.7689256681
 11
11.9488473451
 21
8.7544367802
  0
LINE
  5
30D
100
AcDbEntity
  8
0
100
AcDbLine
 62
4
  6
CONTINUOUS
 10
11.9488473451
 20
8.8486145517
 11
11.9488473451
 21
8.9065701034
  0
LINE
  5
30E
100
AcDbEntity
  8
0
100
AcDbLine
 62
4
  6
CONTINUOUS
 10
11.9488473451
 20
8.986258987
 11
11.9488473451
 21
9.000747875
  0
LINE
  5
30F
100
AcDbEntity
  8
0
100
AcDbLine
 62
4
  6
CONTINUOUS
 10
11.9488473451
 20
9.2180811939
 11
11.9488473451
 21
9.2325700818
  0
LINE
  5
310
100
AcDbEntity
  8
0
100
AcDbLine
 62
4
  6
CONTINUOUS
 10
11.9488473451
 20
9.4209256249
 11
11.9488473451
 21
9.4933700646
  0
LINE
  5
311
100
AcDbEntity
  8
0
100
AcDbLine
 62
4
  6
CONTINUOUS
 10
11.961788287
 20
9.6652478225
 11
11.961788287
 21
9.7159589303
  0
LINE
  5
312
100
AcDbEntity
  8
0
100
AcDbLine
 62
4
  6
CONTINUOUS
 10
11.9643764747
 20
8.8636145399
 11
11.9643764747
 21
8.8998367597
  0
LINE
  5
313
100
AcDbEntity
  8
0
100
AcDbLine
 62
4
  6
CONTINUOUS
 10
11.9799056042
 20
9.3784811616
 11
11.9799056042
 21
9.3639922737
  0
LINE
  5
314
100
AcDbEntity
  8
0
100
AcDbLine
 62
4
  6
CONTINUOUS
 10
11.9799056042
 20
9.2625700582
 11
11.9799056042
 21
9.2480811703
  0
LINE
  5
315
100
AcDbEntity
  8
0
100
AcDbLine
 62
4
  6
CONTINUOUS
 10
11.9799056042
 20
9.0307478513
 11
11.9799056042
 21
9.0162589634
  0
LINE
  5
316
100
AcDbEntity
  8
0
100
AcDbLine
 62
4
  6
CONTINUOUS
 10
11.9799056042
 20
8.9365700798
 11
11.9799056042
 21
8.8786145281
  0
LINE
  5
317
100
AcDbEntity
  8
0
100
AcDbLine
 62
4
  6
CONTINUOUS
 10
11.9799056042
 20
8.7989256445
 11
11.9799056042
 21
8.7844367565
  0
LINE
  5
318
100
AcDbEntity
  8
0
100
AcDbLine
 62
4
  6
CONTINUOUS
 10
11.9799056042
 20
9.6827478081
 11
11.9799056042
 21
9.7334589159
  0
LINE
  5
319
100
AcDbEntity
  8
0
100
AcDbLine
 62
4
  6
CONTINUOUS
 10
12.1195198825
 20
9.1883730682
 11
12.1136040235
 21
9.1385021752
  0
LINE
  5
31A
100
AcDbEntity
  8
0
100
AcDbLine
 62
4
  6
CONTINUOUS
 10
11.9799056042
 20
9.2480811703
 11
11.9773174159
 21
9.2310922842
  0
LINE
  5
31B
100
AcDbEntity
  8
0
100
AcDbLine
 62
4
  6
CONTINUOUS
 10
11.9410827804
 20
8.9787589912
 11
11.938494592
 21
8.9617701051
  0
LINE
  5
31C
100
AcDbEntity
  8
0
100
AcDbLine
 62
4
  6
CONTINUOUS
 10
11.9203772737
 20
8.828359015
 11
11.9281418394
 21
8.8793256737
  0
LINE
  5
31D
100
AcDbEntity
  8
0
100
AcDbLine
 62
4
  6
CONTINUOUS
 10
11.9488473451
 20
9.000747875
 11
11.9514355328
 21
9.0177367603
  0
LINE
  5
31E
100
AcDbEntity
  8
0
100
AcDbLine
 62
4
  6
CONTINUOUS
 10
11.9410827804
 20
8.8628478877
 11
11.938494592
 21
8.8458590017
  0
LINE
  5
31F
100
AcDbEntity
  8
0
100
AcDbLine
 62
4
  6
CONTINUOUS
 10
11.9799056042
 20
9.0162589634
 11
11.9773174159
 21
8.9992700774
  0
LINE
  5
320
100
AcDbEntity
  8
0
100
AcDbLine
 62
4
  6
CONTINUOUS
 10
11.9514355328
 20
8.7859145535
 11
11.9488473451
 21
8.7689256681
  0
LINE
  5
321
100
AcDbEntity
  8
0
100
AcDbLine
 62
4
  6
CONTINUOUS
 10
11.9592000976
 20
8.7499478838
 11
11.9669646633
 21
8.8009145425
  0
LINE
  5
322
100
AcDbEntity
  8
0
100
AcDbLine
 62
4
  6
CONTINUOUS
 10
11.9799056042
 20
8.7844367565
 11
11.9773174159
 21
8.7674478705
  0
LINE
  5
323
100
AcDbEntity
  8
0
100
AcDbLine
 62
4
  6
CONTINUOUS
 10
12.1372674589
 20
9.0978841757
 11
12.1328305651
 21
9.077039737
  0
LINE
  5
324
100
AcDbEntity
  8
0
100
AcDbLine
 62
4
  6
CONTINUOUS
 10
12.2668247684
 20
9.3913740194
 11
12.2646063212
 21
9.380951799
  0
LINE
  5
325
100
AcDbEntity
  8
0
100
AcDbLine
 62
4
  6
CONTINUOUS
 10
12.1062091999
 20
8.615278917
 11
12.1106460942
 21
8.6361233493
  0
LINE
  5
326
100
AcDbEntity
  8
0
100
AcDbLine
 62
4
  6
CONTINUOUS
 10
11.9669646633
 20
8.8009145425
 11
11.9695528509
 21
8.8106589839
  0
LINE
  5
327
100
AcDbEntity
  8
0
100
AcDbLine
 62
4
  6
CONTINUOUS
 10
11.9566119099
 20
8.7402034424
 11
11.9592000976
 21
8.7499478838
  0
LINE
  5
328
100
AcDbEntity
  8
0
100
AcDbLine
 62
4
  6
CONTINUOUS
 10
11.9773174159
 20
8.7674478705
 11
11.9721410395
 21
8.7479589866
  0
LINE
  5
329
100
AcDbEntity
  8
0
100
AcDbLine
 62
4
  6
CONTINUOUS
 10
12.2956645803
 20
9.2370851245
 11
12.2646063212
 21
9.1491295964
  0
LINE
  5
32A
100
AcDbEntity
  8
0
100
AcDbLine
 62
4
  6
CONTINUOUS
 10
12.2867907925
 20
8.9635740263
 11
12.2646063212
 21
8.9173073619
  0
LINE
  5
32B
100
AcDbEntity
  8
0
100
AcDbLine
 62
4
  6
CONTINUOUS
 10
12.4431913408
 20
8.9711364574
 11
12.4509559056
 21
8.9858808954
  0
LINE
  5
32C
100
AcDbEntity
  8
0
100
AcDbLine
 62
4
  6
CONTINUOUS
 10
12.4664850352
 20
8.7255920129
 11
12.4354267761
 21
8.6955920366
  0
LINE
  5
32D
100
AcDbEntity
  8
0
100
AcDbLine
 62
4
  6
CONTINUOUS
 10
12.1062091999
 20
8.3393001019
 11
12.1372674589
 21
8.3693000783
  0
LINE
  5
32E
100
AcDbEntity
  8
0
100
AcDbLine
 62
4
  6
CONTINUOUS
 10
12.2646063212
 20
8.4729815023
 11
12.2867907925
 21
8.4944100573
  0
LINE
  5
32F
100
AcDbEntity
  8
0
100
AcDbLine
 62
4
  6
CONTINUOUS
 10
12.2934461324
 20
8.5008386224
 11
12.2956645803
 21
8.5029814786
  0
LINE
  5
330
100
AcDbEntity
  8
0
100
AcDbLine
 62
4
  6
CONTINUOUS
 10
12.4354267761
 20
8.608658709
 11
12.4664850352
 21
8.6386586854
  0
LINE
  5
331
100
AcDbEntity
  8
0
100
AcDbLine
 62
4
  6
CONTINUOUS
 10
12.2668247684
 20
8.4309677496
 11
12.2845723446
 21
8.4481105929
  0
LINE
  5
332
100
AcDbEntity
  8
0
100
AcDbLine
 62
4
  6
CONTINUOUS
 10
12.4354267761
 20
8.5507031573
 11
12.4664850352
 21
8.5807031336
  0
LINE
  5
333
100
AcDbEntity
  8
0
100
AcDbLine
 62
4
  6
CONTINUOUS
 10
12.2779170038
 20
8.3671676988
 11
12.2845723446
 21
8.3735962647
  0
LINE
  5
334
100
AcDbEntity
  8
0
100
AcDbLine
 62
4
  6
CONTINUOUS
 10
12.2668247684
 20
8.3067773132
 11
12.2734801099
 21
8.3132058799
  0
LINE
  5
335
100
AcDbEntity
  8
0
100
AcDbLine
 62
4
  6
CONTINUOUS
 10
12.4664850352
 20
8.4937698061
 11
12.4354267761
 21
8.4637698297
  0
LINE
  5
336
100
AcDbEntity
  8
0
100
AcDbLine
 62
4
  6
CONTINUOUS
 10
11.9410827804
 20
9.3337367454
 11
11.9100245213
 21
9.3399589889
  0
LINE
  5
337
100
AcDbEntity
  8
0
100
AcDbLine
 62
4
  6
CONTINUOUS
 10
11.9514355328
 20
8.7424478897
 11
11.9540237223
 21
8.7377034449
  0
LINE
  5
338
100
AcDbEntity
  8
0
100
AcDbLine
 62
4
  6
CONTINUOUS
 10
11.9126127089
 20
8.8208590209
 11
11.9152008984
 21
8.8161145761
  0
LINE
  5
339
100
AcDbEntity
  8
0
100
AcDbLine
 62
4
  6
CONTINUOUS
 10
11.9747292276
 20
8.8156589801
 11
11.9773174159
 21
8.8109145343
  0
LINE
  5
33A
100
AcDbEntity
  8
0
100
AcDbLine
 62
4
  6
CONTINUOUS
 10
11.9359064037
 20
8.8940701113
 11
11.938494592
 21
8.8893256655
  0
LINE
  5
33B
100
AcDbEntity
  8
0
100
AcDbLine
 62
4
  6
CONTINUOUS
 10
11.9177890861
 20
8.927281233
 11
11.9126127089
 21
8.9367701243
  0
LINE
  5
33C
100
AcDbEntity
  8
0
100
AcDbLine
 62
4
  6
CONTINUOUS
 10
12.1106460942
 20
8.3905022541
 11
12.1062091999
 21
8.4027752642
  0
LINE
  5
33D
100
AcDbEntity
  8
0
100
AcDbLine
 62
4
  6
CONTINUOUS
 10
12.1106460942
 20
8.4815752482
 11
12.1062091999
 21
8.4938482583
  0
LINE
  5
33E
100
AcDbEntity
  8
0
100
AcDbLine
 62
4
  6
CONTINUOUS
 10
11.9100245213
 20
8.8328479114
 11
11.9126127089
 21
8.8208590209
  0
LINE
  5
33F
100
AcDbEntity
  8
0
100
AcDbLine
 62
4
  6
CONTINUOUS
 10
11.9488473451
 20
8.7544367802
 11
11.9514355328
 21
8.7424478897
  0
LINE
  5
340
100
AcDbEntity
  8
0
100
AcDbLine
 62
4
  6
CONTINUOUS
 10
11.9126127089
 20
8.9367701243
 11
11.9100245213
 21
8.9487590148
  0
LINE
  5
341
100
AcDbEntity
  8
0
100
AcDbLine
 62
4
  6
CONTINUOUS
 10
11.938494592
 20
8.8893256655
 11
11.9410827804
 21
8.8773367757
  0
LINE
  5
342
100
AcDbEntity
  8
0
100
AcDbLine
 62
4
  6
CONTINUOUS
 10
11.9773174159
 20
8.8109145343
 11
11.9799056042
 21
8.7989256445
  0
LINE
  5
343
100
AcDbEntity
  8
0
100
AcDbLine
 62
4
  6
CONTINUOUS
 10
11.938494592
 20
9.0052367689
 11
11.9410827804
 21
8.9932478791
  0
LINE
  5
344
100
AcDbEntity
  8
0
100
AcDbLine
 62
4
  6
CONTINUOUS
 10
11.9514355328
 20
8.9742700965
 11
11.9488473451
 21
8.986258987
  0
LINE
  5
345
100
AcDbEntity
  8
0
100
AcDbLine
 62
4
  6
CONTINUOUS
 10
12.1062091999
 20
8.8057043209
 11
12.1062091999
 21
8.7560281298
  0
LINE
  5
346
100
AcDbEntity
  8
0
100
AcDbLine
 62
4
  6
CONTINUOUS
 10
12.1062091999
 20
8.3393001019
 11
12.1062091999
 21
8.2896239384
  0
LINE
  5
347
100
AcDbEntity
  8
0
100
AcDbLine
 62
4
  6
CONTINUOUS
 10
12.1062091999
 20
8.4027752642
 11
12.1062091999
 21
8.4441720948
  0
LINE
  5
348
100
AcDbEntity
  8
0
100
AcDbLine
 62
4
  6
CONTINUOUS
 10
12.1062091999
 20
8.4938482583
 11
12.1062091999
 21
8.5186863676
  0
LINE
  5
349
100
AcDbEntity
  8
0
100
AcDbLine
 62
4
  6
CONTINUOUS
 10
12.1062091999
 20
8.5821614747
 11
12.1062091999
 21
8.615278917
  0
LINE
  5
34A
100
AcDbEntity
  8
0
100
AcDbLine
 62
4
  6
CONTINUOUS
 10
12.1062091999
 20
9.0678841994
 11
12.1062091999
 21
9.1092810161
  0
LINE
  5
34B
100
AcDbEntity
  8
0
100
AcDbLine
 62
4
  6
CONTINUOUS
 10
12.1150829886
 20
9.0019413418
 11
12.1150829886
 21
8.9577847336
  0
LINE
  5
34C
100
AcDbEntity
  8
0
100
AcDbLine
 62
4
  6
CONTINUOUS
 10
12.1239567773
 20
8.323325504
 11
12.1239567773
 21
8.3564429463
  0
LINE
  5
34D
100
AcDbEntity
  8
0
100
AcDbLine
 62
4
  6
CONTINUOUS
 10
12.1239567773
 20
8.7897296954
 11
12.1239567773
 21
8.8228471653
  0
LINE
  5
34E
100
AcDbEntity
  8
0
100
AcDbLine
 62
4
  6
CONTINUOUS
 10
12.1372674589
 20
9.1392809925
 11
12.1372674589
 21
9.0978841757
  0
LINE
  5
34F
100
AcDbEntity
  8
0
100
AcDbLine
 62
4
  6
CONTINUOUS
 10
12.1372674589
 20
8.9350566796
 11
12.1372674589
 21
8.8688217673
  0
LINE
  5
350
100
AcDbEntity
  8
0
100
AcDbLine
 62
4
  6
CONTINUOUS
 10
12.1372674589
 20
8.8357042973
 11
12.1372674589
 21
8.7860281062
  0
LINE
  5
351
100
AcDbEntity
  8
0
100
AcDbLine
 62
4
  6
CONTINUOUS
 10
12.1372674589
 20
8.6452788933
 11
12.1372674589
 21
8.612161451
  0
LINE
  5
352
100
AcDbEntity
  8
0
100
AcDbLine
 62
4
  6
CONTINUOUS
 10
12.1372674589
 20
8.548686344
 11
12.1372674589
 21
8.5238482346
  0
LINE
  5
353
100
AcDbEntity
  8
0
100
AcDbLine
 62
4
  6
CONTINUOUS
 10
12.1372674589
 20
8.4741720711
 11
12.1372674589
 21
8.4327752406
  0
LINE
  5
354
100
AcDbEntity
  8
0
100
AcDbLine
 62
4
  6
CONTINUOUS
 10
12.1372674589
 20
8.3693000783
 11
12.1372674589
 21
8.3196239148
  0
LINE
  5
355
100
AcDbEntity
  8
0
100
AcDbLine
 62
4
  6
CONTINUOUS
 10
12.1745373699
 20
8.780631308
 11
12.1745373699
 21
8.7557932125
  0
LINE
  5
356
100
AcDbEntity
  8
0
100
AcDbLine
 62
4
  6
CONTINUOUS
 10
12.1745373699
 20
8.8303074923
 11
12.1745373699
 21
8.8717043159
  0
LINE
  5
357
100
AcDbEntity
  8
0
100
AcDbLine
 62
4
  6
CONTINUOUS
 10
12.1811927112
 20
8.6545900361
 11
12.1811927112
 21
8.7125455878
  0
LINE
  5
358
100
AcDbEntity
  8
0
100
AcDbLine
 62
4
  6
CONTINUOUS
 10
12.1900664994
 20
8.8453074804
 11
12.1900664994
 21
8.8867043041
  0
LINE
  5
359
100
AcDbEntity
  8
0
100
AcDbLine
 62
4
  6
CONTINUOUS
 10
12.2055956289
 20
8.9017042923
 11
12.2055956289
 21
8.8768661984
  0
LINE
  5
35A
100
AcDbEntity
  8
0
100
AcDbLine
 62
4
  6
CONTINUOUS
 10
12.2572114976
 20
8.9350026198
 11
12.2572114976
 21
8.9184438986
  0
LINE
  5
35B
100
AcDbEntity
  8
0
100
AcDbLine
 62
4
  6
CONTINUOUS
 10
12.2646063212
 20
9.380951799
 11
12.2646063212
 21
9.3478343402
  0
LINE
  5
35C
100
AcDbEntity
  8
0
100
AcDbLine
 62
4
  6
CONTINUOUS
 10
12.2646063212
 20
9.2815994279
 11
12.2646063212
 21
9.2567613254
  0
LINE
  5
35D
100
AcDbEntity
  8
0
100
AcDbLine
 62
4
  6
CONTINUOUS
 10
12.2646063212
 20
8.622010048
 11
12.2646063212
 21
8.5806132175
  0
LINE
  5
35E
100
AcDbEntity
  8
0
100
AcDbLine
 62
4
  6
CONTINUOUS
 10
12.2646063212
 20
8.346031233
 11
12.2646063212
 21
8.3129137906
  0
LINE
  5
35F
100
AcDbEntity
  8
0
100
AcDbLine
 62
4
  6
CONTINUOUS
 10
12.2646063212
 20
8.3874280083
 11
12.2646063212
 21
8.4205455611
  0
LINE
  5
360
100
AcDbEntity
  8
0
100
AcDbLine
 62
4
  6
CONTINUOUS
 10
12.2646063212
 20
8.5226576658
 11
12.2646063212
 21
8.5392163869
  0
LINE
  5
361
100
AcDbEntity
  8
0
100
AcDbLine
 62
4
  6
CONTINUOUS
 10
12.2646063212
 20
8.6634068786
 11
12.2646063212
 21
8.6965243209
  0
LINE
  5
362
100
AcDbEntity
  8
0
100
AcDbLine
 62
4
  6
CONTINUOUS
 10
12.2646063212
 20
8.8207148126
 11
12.2646063212
 21
8.8538322549
  0
LINE
  5
363
100
AcDbEntity
  8
0
100
AcDbLine
 62
4
  6
CONTINUOUS
 10
12.2055956289
 20
8.8768661984
 11
12.2048561457
 21
8.8678725467
  0
LINE
  5
364
100
AcDbEntity
  8
0
100
AcDbLine
 62
4
  6
CONTINUOUS
 10
12.1254357419
 20
8.2750779107
 11
12.1195198825
 21
8.2252070207
  0
LINE
  5
365
100
AcDbEntity
  8
0
100
AcDbLine
 62
4
  6
CONTINUOUS
 10
12.2646063212
 20
8.8538322549
 11
12.2668247684
 21
8.8725338316
  0
LINE
  5
366
100
AcDbEntity
  8
0
100
AcDbLine
 62
4
  6
CONTINUOUS
 10
12.2646063212
 20
8.6965243209
 11
12.2668247684
 21
8.7152258976
  0
LINE
  5
367
100
AcDbEntity
  8
0
100
AcDbLine
 62
4
  6
CONTINUOUS
 10
12.2048561457
 20
8.8678725467
 11
12.201158735
 21
8.8477423939
  0
LINE
  5
368
100
AcDbEntity
  8
0
100
AcDbLine
 62
4
  6
CONTINUOUS
 10
12.2734801099
 20
9.3398470343
 11
12.2867907925
 21
9.4106597189
  0
LINE
  5
369
100
AcDbEntity
  8
0
100
AcDbLine
 62
4
  6
CONTINUOUS
 10
12.2690432156
 20
9.3024438671
 11
12.2646063212
 21
9.2815994279
  0
LINE
  5
36A
100
AcDbEntity
  8
0
100
AcDbLine
 62
4
  6
CONTINUOUS
 10
12.1062091999
 20
8.5186863676
 11
12.1106460942
 21
8.5395307999
  0
LINE
  5
36B
100
AcDbEntity
  8
0
100
AcDbLine
 62
4
  6
CONTINUOUS
 10
12.2956645803
 20
9.3695549525
 11
12.2934461324
 21
9.3591327323
  0
LINE
  5
36C
100
AcDbEntity
  8
0
100
AcDbLine
 62
4
  6
CONTINUOUS
 10
12.1900664994
 20
8.8453074804
 11
12.1856296055
 21
8.8244630417
  0
LINE
  5
36D
100
AcDbEntity
  8
0
100
AcDbLine
 62
4
  6
CONTINUOUS
 10
12.1372674589
 20
8.5238482346
 11
12.1328305651
 21
8.5030038028
  0
LINE
  5
36E
100
AcDbEntity
  8
0
100
AcDbLine
 62
4
  6
CONTINUOUS
 10
12.1372674589
 20
8.4327752406
 11
12.1328305651
 21
8.4119308087
  0
LINE
  5
36F
100
AcDbEntity
  8
0
100
AcDbLine
 62
4
  6
CONTINUOUS
 10
12.2867907925
 20
9.0049708569
 11
12.2845723446
 21
8.9945486401
  0
LINE
  5
370
100
AcDbEntity
  8
0
100
AcDbLine
 62
4
  6
CONTINUOUS
 10
12.2668247684
 20
8.6324322918
 11
12.2646063212
 21
8.622010048
  0
LINE
  5
371
100
AcDbEntity
  8
0
100
AcDbLine
 62
4
  6
CONTINUOUS
 10
12.2646063212
 20
8.5392163869
 11
12.2668247684
 21
8.5496386307
  0
LINE
  5
372
100
AcDbEntity
  8
0
100
AcDbLine
 62
4
  6
CONTINUOUS
 10
12.2646063212
 20
8.4205455611
 11
12.2668247684
 21
8.4309677496
  0
LINE
  5
373
100
AcDbEntity
  8
0
100
AcDbLine
 62
4
  6
CONTINUOUS
 10
12.4380149644
 20
9.1834697803
 11
12.4431913408
 21
9.2029586642
  0
LINE
  5
374
100
AcDbEntity
  8
0
100
AcDbLine
 62
4
  6
CONTINUOUS
 10
12.4587204704
 20
9.2107142084
 11
12.4561322827
 21
9.200969767
  0
LINE
  5
375
100
AcDbEntity
  8
0
100
AcDbLine
 62
4
  6
CONTINUOUS
 10
12.448367717
 20
9.1500031083
 11
12.4457795294
 21
9.1402586669
  0
LINE
  5
376
100
AcDbEntity
  8
0
100
AcDbLine
 62
4
  6
CONTINUOUS
 10
12.461308658
 20
9.1552586541
 11
12.4638968475
 21
9.1650030973
  0
LINE
  5
377
100
AcDbEntity
  8
0
100
AcDbLine
 62
4
  6
CONTINUOUS
 10
12.2867907925
 20
8.7759084277
 11
12.2845723446
 21
8.7682460162
  0
LINE
  5
378
100
AcDbEntity
  8
0
100
AcDbLine
 62
4
  6
CONTINUOUS
 10
12.4457795294
 20
8.9301697919
 11
12.4354267761
 21
8.8984364676
  0
LINE
  5
379
100
AcDbEntity
  8
0
100
AcDbLine
 62
4
  6
CONTINUOUS
 10
12.2823538986
 20
8.680549723
 11
12.2867907925
 21
8.6931147666
  0
LINE
  5
37A
100
AcDbEntity
  8
0
100
AcDbLine
 62
4
  6
CONTINUOUS
 10
12.5130724238
 20
9.2704586115
 11
12.4942130346
 21
9.2194211194
  0
LINE
  5
37B
100
AcDbEntity
  8
0
100
AcDbLine
 62
4
  6
CONTINUOUS
 10
12.4820141647
 20
9.0086364296
 11
12.4897787295
 21
9.0233808676
  0
LINE
  5
37C
100
AcDbEntity
  8
0
100
AcDbLine
 62
4
  6
CONTINUOUS
 10
12.4587204704
 20
8.9136920059
 11
12.4509559056
 21
8.8989475678
  0
LINE
  5
37D
100
AcDbEntity
  8
0
100
AcDbLine
 62
4
  6
CONTINUOUS
 10
12.4975432942
 20
8.9511919781
 11
12.4897787295
 21
8.9364475401
  0
LINE
  5
37E
100
AcDbEntity
  8
0
100
AcDbLine
 62
4
  6
CONTINUOUS
 10
12.505307859
 20
8.4443364507
 11
12.4742495999
 21
8.4143364744
  0
LINE
  5
37F
100
AcDbEntity
  8
0
100
AcDbLine
 62
4
  6
CONTINUOUS
 10
12.4742495999
 20
8.1825142675
 11
12.505307859
 21
8.2125142439
  0
LINE
  5
380
100
AcDbEntity
  8
0
100
AcDbLine
 62
4
  6
CONTINUOUS
 10
11.9410827804
 20
9.413425629
 11
11.9100245213
 21
9.4196478725
  0
LINE
  5
381
100
AcDbEntity
  8
02___PRT_ALL_AXES
100
AcDbLine
 62
7
  6
CONTINUOUS
 10
10.4787559607
 20
10.6127871392
 11
10.4488895343
 21
10.6405809843
  0
LINE
  5
382
100
AcDbEntity
  8
0
100
AcDbLine
 62
4
  6
CONTINUOUS
 10
11.9566119099
 20
8.9647812053
 11
11.9514355328
 21
8.9742700965
  0
LINE
  5
383
100
AcDbEntity
  8
0
100
AcDbLine
 62
4
  6
CONTINUOUS
 10
11.9333182156
 20
9.0147256609
 11
11.938494592
 21
9.0052367689
  0
LINE
  5
384
100
AcDbEntity
  8
0
100
AcDbLine
 62
4
  6
CONTINUOUS
 10
11.9721410395
 20
9.0522256331
 11
11.9773174159
 21
9.0427367411
  0
LINE
  5
385
100
AcDbEntity
  8
0
100
AcDbLine
 62
4
  6
CONTINUOUS
 10
11.9566119099
 20
9.1966034121
 11
11.9514355328
 21
9.2060923034
  0
LINE
  5
386
100
AcDbEntity
  8
0
100
AcDbLine
 62
4
  6
CONTINUOUS
 10
12.4431913408
 20
8.3191365006
 11
12.4380149644
 21
8.3286253925
  0
LINE
  5
387
100
AcDbEntity
  8
0
100
AcDbLine
 62
4
  6
CONTINUOUS
 10
11.9721410395
 20
9.28404784
 11
11.9773174159
 21
9.274558948
  0
LINE
  5
388
100
AcDbEntity
  8
0
100
AcDbLine
 62
4
  6
CONTINUOUS
 10
12.4587204704
 20
8.4065809284
 11
12.4638968475
 21
8.3970920371
  0
LINE
  5
389
100
AcDbEntity
  8
0
100
AcDbLine
 62
4
  6
CONTINUOUS
 10
12.1328305651
 20
8.5609593545
 11
12.1372674589
 21
8.548686344
  0
LINE
  5
38A
100
AcDbEntity
  8
0
100
AcDbLine
 62
4
  6
CONTINUOUS
 10
12.1328305651
 20
8.6575519039
 11
12.1372674589
 21
8.6452788933
  0
LINE
  5
38B
100
AcDbEntity
  8
0
100
AcDbLine
 62
4
  6
CONTINUOUS
 10
12.2646063212
 20
8.3129137906
 11
12.2668247684
 21
8.3067773132
  0
LINE
  5
38C
100
AcDbEntity
  8
0
100
AcDbLine
 62
4
  6
CONTINUOUS
 10
12.2845723446
 20
8.3735962647
 11
12.2867907925
 21
8.367459788
  0
LINE
  5
38D
100
AcDbEntity
  8
0
100
AcDbLine
 62
4
  6
CONTINUOUS
 10
12.2845723446
 20
8.4481105929
 11
12.2867907925
 21
8.4419741162
  0
LINE
  5
38E
100
AcDbEntity
  8
0
100
AcDbLine
 62
4
  6
CONTINUOUS
 10
12.1745373699
 20
8.7557932125
 11
12.1789742642
 21
8.7435201886
  0
LINE
  5
38F
100
AcDbEntity
  8
0
100
AcDbLine
 62
4
  6
CONTINUOUS
 10
12.1789742642
 20
8.8180344753
 11
12.1745373699
 21
8.8303074923
  0
LINE
  5
390
100
AcDbEntity
  8
0
100
AcDbLine
 62
4
  6
CONTINUOUS
 10
12.1106460942
 20
9.0556111824
 11
12.1062091999
 21
9.0678841994
  0
LINE
  5
391
100
AcDbEntity
  8
0
100
AcDbLine
 62
4
  6
CONTINUOUS
 10
12.1945033933
 20
8.8413138271
 11
12.1900664994
 21
8.8535868445
  0
LINE
  5
392
100
AcDbEntity
  8
0
100
AcDbLine
 62
4
  6
CONTINUOUS
 10
11.9773174159
 20
9.0427367411
 11
11.9799056042
 21
9.0307478513
  0
LINE
  5
393
100
AcDbEntity
  8
0
100
AcDbLine
 62
4
  6
CONTINUOUS
 10
11.9514355328
 20
9.2060923034
 11
11.9488473451
 21
9.2180811939
  0
LINE
  5
394
100
AcDbEntity
  8
0
100
AcDbLine
 62
4
  6
CONTINUOUS
 10
11.9773174159
 20
9.274558948
 11
11.9799056042
 21
9.2625700582
  0
LINE
  5
395
100
AcDbEntity
  8
0
100
AcDbLine
 62
4
  6
CONTINUOUS
 10
11.9773174159
 20
9.3904700514
 11
11.9799056042
 21
9.3784811616
  0
LINE
  5
396
100
AcDbEntity
  8
0
100
AcDbLine
 62
4
  6
CONTINUOUS
 10
12.1195198825
 20
8.2252070207
 11
12.1136040235
 21
8.2636493476
  0
LINE
  5
397
100
AcDbEntity
  8
0
100
AcDbLine
 62
4
  6
CONTINUOUS
 10
12.1254357419
 20
9.1499307383
 11
12.1195198825
 21
9.1883730682
  0
LINE
  5
398
100
AcDbEntity
  8
0
100
AcDbLine
 62
4
  6
CONTINUOUS
 10
12.2756985569
 20
8.7072385984
 11
12.2756985569
 21
8.6741211561
  0
LINE
  5
399
100
AcDbEntity
  8
0
100
AcDbLine
 62
4
  6
CONTINUOUS
 10
12.2867907925
 20
9.0463676874
 11
12.2867907925
 21
9.0049708569
  0
LINE
  5
39A
100
AcDbEntity
  8
0
100
AcDbLine
 62
4
  6
CONTINUOUS
 10
12.2867907925
 20
8.8752608099
 11
12.2867907925
 21
8.8421433676
  0
LINE
  5
39B
100
AcDbEntity
  8
0
100
AcDbLine
 62
4
  6
CONTINUOUS
 10
12.2867907925
 20
8.80902587
 11
12.2867907925
 21
8.7759084277
  0
LINE
  5
39C
100
AcDbEntity
  8
0
100
AcDbLine
 62
4
  6
CONTINUOUS
 10
12.2867907925
 20
8.4419741162
 11
12.2867907925
 21
8.4088565633
  0
LINE
  5
39D
100
AcDbEntity
  8
0
100
AcDbLine
 62
4
  6
CONTINUOUS
 10
12.2867907925
 20
8.367459788
 11
12.2867907925
 21
8.3343423457
  0
LINE
  5
39E
100
AcDbEntity
  8
0
100
AcDbLine
 62
4
  6
CONTINUOUS
 10
12.2867907925
 20
8.6931147666
 11
12.2867907925
 21
8.7345115971
  0
LINE
  5
39F
100
AcDbEntity
  8
0
100
AcDbLine
 62
4
  6
CONTINUOUS
 10
12.2956645803
 20
9.4026724104
 11
12.2956645803
 21
9.3695549525
  0
LINE
  5
3A0
100
AcDbEntity
  8
0
100
AcDbLine
 62
4
  6
CONTINUOUS
 10
12.2956645803
 20
8.5029814786
 11
12.2956645803
 21
8.500221701
  0
LINE
  5
3A1
100
AcDbEntity
  8
0
100
AcDbLine
 62
7
  6
CONTINUOUS
 10
12.3618219421
 20
6.7087617772
 11
12.3618219421
 21
7.3712062073
  0
LINE
  5
3A2
100
AcDbEntity
  8
0
100
AcDbLine
 62
7
  6
CONTINUOUS
 10
12.3745997358
 20
7.383548609
 11
12.3745997358
 21
6.7338819725
  0
LINE
  5
3A3
100
AcDbEntity
  8
0
100
AcDbLine
 62
4
  6
CONTINUOUS
 10
12.4354267761
 20
8.3406142823
 11
12.4354267761
 21
8.3551031703
  0
LINE
  5
3A4
100
AcDbEntity
  8
0
100
AcDbLine
 62
4
  6
CONTINUOUS
 10
12.4354267761
 20
8.9201697995
 11
12.4354267761
 21
8.9346586874
  0
LINE
  5
3A5
100
AcDbEntity
  8
0
100
AcDbLine
 62
4
  6
CONTINUOUS
 10
12.4354267761
 20
9.014347571
 11
12.4354267761
 21
9.0723031227
  0
LINE
  5
3A6
100
AcDbEntity
  8
0
100
AcDbLine
 62
4
  6
CONTINUOUS
 10
12.4354267761
 20
9.1519920063
 11
12.4354267761
 21
9.1664808943
  0
LINE
  5
3A7
100
AcDbEntity
  8
0
100
AcDbLine
 62
4
  6
CONTINUOUS
 10
12.4457795294
 20
8.1477698437
 11
12.4457795294
 21
8.1043031799
  0
LINE
  5
3A8
100
AcDbEntity
  8
0
100
AcDbLine
 62
4
  6
CONTINUOUS
 10
12.4509559056
 20
9.0873031109
 11
12.4509559056
 21
9.0510808911
  0
LINE
  5
3A9
100
AcDbEntity
  8
0
100
AcDbLine
 62
4
  6
CONTINUOUS
 10
12.4664850352
 20
9.1023030991
 11
12.4664850352
 21
9.0443475474
  0
LINE
  5
3AA
100
AcDbEntity
  8
0
100
AcDbLine
 62
4
  6
CONTINUOUS
 10
12.4664850352
 20
8.9646586638
 11
12.4664850352
 21
8.9501697758
  0
LINE
  5
3AB
100
AcDbEntity
  8
0
100
AcDbLine
 62
4
  6
CONTINUOUS
 10
12.4664850352
 20
8.5299920259
 11
12.4664850352
 21
8.4575475862
  0
LINE
  5
3AC
100
AcDbEntity
  8
0
100
AcDbLine
 62
4
  6
CONTINUOUS
 10
12.4664850352
 20
8.3851031466
 11
12.4664850352
 21
8.3706142587
  0
LINE
  5
3AD
100
AcDbEntity
  8
0
100
AcDbLine
 62
4
  6
CONTINUOUS
 10
12.4664850352
 20
9.1819919827
 11
12.4664850352
 21
9.1964808706
  0
LINE
  5
3AE
100
AcDbEntity
  8
0
100
AcDbLine
 62
4
  6
CONTINUOUS
 10
12.4703673175
 20
9.229208644
 11
12.4703673175
 21
8.0700976097
  0
LINE
  5
3AF
100
AcDbEntity
  8
0
100
AcDbLine
 62
4
  6
CONTINUOUS
 10
12.2749590745
 20
8.3229137831
 11
12.2764380392
 21
8.3574597956
  0
LINE
  5
3B0
100
AcDbEntity
  8
0
100
AcDbLine
 62
4
  6
CONTINUOUS
 10
12.2764380392
 20
8.3574597956
 11
12.2779170038
 21
8.3671676988
  0
LINE
  5
3B1
100
AcDbEntity
  8
0
100
AcDbLine
 62
4
  6
CONTINUOUS
 10
12.2734801099
 20
8.3132058799
 11
12.2749590745
 21
8.3229137831
  0
LINE
  5
3B2
100
AcDbEntity
  8
0
100
AcDbLine
 62
4
  6
CONTINUOUS
 10
12.4354267761
 20
9.1664808943
 11
12.4380149644
 21
9.1834697803
  0
LINE
  5
3B3
100
AcDbEntity
  8
0
100
AcDbLine
 62
4
  6
CONTINUOUS
 10
12.4561322827
 20
9.200969767
 11
12.448367717
 21
9.1500031083
  0
LINE
  5
3B4
100
AcDbEntity
  8
0
100
AcDbLine
 62
4
  6
CONTINUOUS
 10
12.4638968475
 20
9.1650030973
 11
12.4664850352
 21
9.1819919827
  0
LINE
  5
3B5
100
AcDbEntity
  8
0
100
AcDbLine
 62
4
  6
CONTINUOUS
 10
12.4354267761
 20
8.9346586874
 11
12.4380149644
 21
8.9516475734
  0
LINE
  5
3B6
100
AcDbEntity
  8
0
100
AcDbLine
 62
4
  6
CONTINUOUS
 10
12.4742495999
 20
9.0880697631
 11
12.4768377883
 21
9.1050586491
  0
LINE
  5
3B7
100
AcDbEntity
  8
0
100
AcDbLine
 62
4
  6
CONTINUOUS
 10
12.4664850352
 20
8.9501697758
 11
12.4638968475
 21
8.9331808905
  0
LINE
  5
3B8
100
AcDbEntity
  8
0
100
AcDbLine
 62
4
  6
CONTINUOUS
 10
12.4949551066
 20
9.1225586358
 11
12.4871905409
 21
9.0715919771
  0
LINE
  5
3B9
100
AcDbEntity
  8
0
100
AcDbLine
 62
4
  6
CONTINUOUS
 10
12.4742495999
 20
8.9721586596
 11
12.4768377883
 21
8.9891475457
  0
LINE
  5
3BA
100
AcDbEntity
  8
0
100
AcDbLine
 62
4
  6
CONTINUOUS
 10
12.5027196714
 20
9.0865919661
 11
12.505307859
 21
9.1035808515
  0
LINE
  5
3BB
100
AcDbEntity
  8
0
100
AcDbLine
 62
4
  6
CONTINUOUS
 10
12.505307859
 20
8.9876697481
 11
12.5027196714
 21
8.9706808627
  0
LINE
  5
3BC
100
AcDbEntity
  8
0
100
AcDbLine
 62
4
  6
CONTINUOUS
 10
12.4354267761
 20
8.3551031703
 11
12.4380149644
 21
8.3720920563
  0
LINE
  5
3BD
100
AcDbEntity
  8
0
100
AcDbLine
 62
4
  6
CONTINUOUS
 10
12.4664850352
 20
8.3706142587
 11
12.4638968475
 21
8.3536253733
  0
LINE
  5
3BE
100
AcDbEntity
  8
0
100
AcDbLine
 62
4
  6
CONTINUOUS
 10
12.2668247684
 20
8.3564534215
 11
12.2646063212
 21
8.346031233
  0
LINE
  5
3BF
100
AcDbEntity
  8
0
100
AcDbLine
 62
4
  6
CONTINUOUS
 10
12.2867907925
 20
8.3343423457
 11
12.2845723446
 21
8.3239201565
  0
LINE
  5
3C0
100
AcDbEntity
  8
0
100
AcDbLine
 62
4
  6
CONTINUOUS
 10
12.4768377883
 20
9.1050586491
 11
12.4820141647
 21
9.124547533
  0
LINE
  5
3C1
100
AcDbEntity
  8
0
100
AcDbLine
 62
4
  6
CONTINUOUS
 10
12.4380149644
 20
8.9516475734
 11
12.4431913408
 21
8.9711364574
  0
LINE
  5
3C2
100
AcDbEntity
  8
0
100
AcDbLine
 62
4
  6
CONTINUOUS
 10
12.4975432942
 20
9.1323030772
 11
12.4949551066
 21
9.1225586358
  0
LINE
  5
3C3
100
AcDbEntity
  8
0
100
AcDbLine
 62
4
  6
CONTINUOUS
 10
12.4871905409
 20
9.0715919771
 11
12.4846023533
 21
9.0618475357
  0
LINE
  5
3C4
100
AcDbEntity
  8
0
100
AcDbLine
 62
4
  6
CONTINUOUS
 10
12.5001314819
 20
9.076847523
 11
12.5027196714
 21
9.0865919661
  0
LINE
  5
3C5
100
AcDbEntity
  8
0
100
AcDbLine
 62
4
  6
CONTINUOUS
 10
12.4768377883
 20
8.9891475457
 11
12.4820141647
 21
9.0086364296
  0
LINE
  5
3C6
100
AcDbEntity
  8
0
100
AcDbLine
 62
4
  6
CONTINUOUS
 10
12.4638968475
 20
8.9331808905
 11
12.4587204704
 21
8.9136920059
  0
LINE
  5
3C7
100
AcDbEntity
  8
0
100
AcDbLine
 62
4
  6
CONTINUOUS
 10
12.5027196714
 20
8.9706808627
 11
12.4975432942
 21
8.9511919781
  0
LINE
  5
3C8
100
AcDbEntity
  8
0
100
AcDbLine
 62
4
  6
CONTINUOUS
 10
12.4380149644
 20
8.3720920563
 11
12.4431913408
 21
8.3915809402
  0
LINE
  5
3C9
100
AcDbEntity
  8
0
100
AcDbLine
 62
4
  6
CONTINUOUS
 10
12.4638968475
 20
8.3536253733
 11
12.4587204704
 21
8.3341364887
  0
LINE
  5
3CA
100
AcDbEntity
  8
0
100
AcDbLine
 62
4
  6
CONTINUOUS
 10
12.4664850352
 20
8.6386586854
 11
12.4354267761
 21
8.5507031573
  0
LINE
  5
3CB
100
AcDbEntity
  8
0
100
AcDbLine
 62
4
  6
CONTINUOUS
 10
12.505307859
 20
8.6834031016
 11
12.4742495999
 21
8.6171809054
  0
LINE
  5
3CC
100
AcDbEntity
  8
0
100
AcDbLine
 62
4
  6
CONTINUOUS
 10
12.505307859
 20
8.5312697783
 11
12.4742495999
 21
8.4650475821
  0
LINE
  5
3CD
100
AcDbEntity
  8
0
100
AcDbLine
 62
4
  6
CONTINUOUS
 10
12.505307859
 20
8.3356697913
 11
12.4742495999
 21
8.2694475951
  0
LINE
  5
3CE
100
AcDbEntity
  8
0
100
AcDbLine
 62
4
  6
CONTINUOUS
 10
12.4431913408
 20
8.3915809402
 11
12.4509559056
 21
8.4063253782
  0
LINE
  5
3CF
100
AcDbEntity
  8
0
100
AcDbLine
 62
4
  6
CONTINUOUS
 10
12.4587204704
 20
8.3341364887
 11
12.4509559056
 21
8.3193920507
  0
LINE
  5
3D0
100
AcDbEntity
  8
0
100
AcDbLine
 62
4
  6
CONTINUOUS
 10
11.9410827804
 20
9.6814700557
 11
11.9100245213
 21
9.6876922992
  0
LINE
  5
3D1
100
AcDbEntity
  8
0
100
AcDbLine
 62
4
  6
CONTINUOUS
 10
11.9747292276
 20
9.3952144973
 11
11.9773174159
 21
9.3904700514
  0
LINE
  5
3D2
100
AcDbEntity
  8
0
100
AcDbLine
 62
4
  6
CONTINUOUS
 10
11.961788287
 20
9.7159589303
 11
11.9592000976
 21
9.720703375
  0
LINE
  5
3D3
100
AcDbEntity
  8
0
100
AcDbLine
 62
4
  6
CONTINUOUS
 10
11.9799056042
 20
9.7334589159
 11
11.9747292276
 21
9.7429478076
  0
LINE
  5
3D4
100
AcDbEntity
  8
0
100
AcDbLine
 62
4
  6
CONTINUOUS
 10
12.4431913408
 20
8.8986920177
 11
12.4380149644
 21
8.9081809097
  0
LINE
  5
3D5
100
AcDbEntity
  8
0
100
AcDbLine
 62
4
  6
CONTINUOUS
 10
12.2646063212
 20
9.2567613254
 11
12.2690432156
 21
9.2444883154
  0
LINE
  5
3D6
100
AcDbEntity
  8
0
100
AcDbLine
 62
4
  6
CONTINUOUS
 10
12.4380149644
 20
8.3286253925
 11
12.4354267761
 21
8.3406142823
  0
LINE
  5
3D7
100
AcDbEntity
  8
0
100
AcDbLine
 62
4
  6
CONTINUOUS
 10
12.4638968475
 20
8.3970920371
 11
12.4664850352
 21
8.3851031466
  0
LINE
  5
3D8
100
AcDbEntity
  8
0
100
AcDbLine
 62
4
  6
CONTINUOUS
 10
12.2734801099
 20
8.7216544643
 11
12.2756985569
 21
8.7072385984
  0
LINE
  5
3D9
100
AcDbEntity
  8
0
100
AcDbLine
 62
4
  6
CONTINUOUS
 10
12.2845723446
 20
8.8896766749
 11
12.2867907925
 21
8.8752608099
  0
LINE
  5
3DA
100
AcDbEntity
  8
0
100
AcDbLine
 62
4
  6
CONTINUOUS
 10
12.4742495999
 20
8.8779808881
 11
12.4742495999
 21
8.8200253364
  0
LINE
  5
3DB
100
AcDbEntity
  8
0
100
AcDbLine
 62
4
  6
CONTINUOUS
 10
12.4742495999
 20
8.4143364744
 11
12.4742495999
 21
8.3563809227
  0
LINE
  5
3DC
100
AcDbEntity
  8
0
100
AcDbLine
 62
4
  6
CONTINUOUS
 10
12.4742495999
 20
8.1245587158
 11
12.4742495999
 21
8.1825142675
  0
LINE
  5
3DD
100
AcDbEntity
  8
0
100
AcDbLine
 62
4
  6
CONTINUOUS
 10
12.4742495999
 20
8.9576697717
 11
12.4742495999
 21
8.9721586596
  0
LINE
  5
3DE
100
AcDbEntity
  8
0
100
AcDbLine
 62
4
  6
CONTINUOUS
 10
12.4742495999
 20
9.0735808751
 11
12.4742495999
 21
9.0880697631
  0
LINE
  5
3DF
100
AcDbEntity
  8
0
100
AcDbLine
 62
4
  6
CONTINUOUS
 10
12.4846023533
 20
8.5330031263
 11
12.4846023533
 21
8.4895364625
  0
LINE
  5
3E0
100
AcDbEntity
  8
0
100
AcDbLine
 62
4
  6
CONTINUOUS
 10
12.4897787295
 20
8.1975142557
 11
12.4897787295
 21
8.1612920359
  0
LINE
  5
3E1
100
AcDbEntity
  8
0
100
AcDbLine
 62
4
  6
CONTINUOUS
 10
12.505307859
 20
9.002158636
 11
12.505307859
 21
8.9876697481
  0
LINE
  5
3E2
100
AcDbEntity
  8
0
100
AcDbLine
 62
4
  6
CONTINUOUS
 10
12.505307859
 20
8.2125142439
 11
12.505307859
 21
8.1545586922
  0
LINE
  5
3E3
100
AcDbEntity
  8
0
100
AcDbLine
 62
4
  6
CONTINUOUS
 10
12.505307859
 20
9.1035808515
 11
12.505307859
 21
9.1180697394
  0
LINE
  5
3E4
100
AcDbEntity
  8
0
100
AcDbLine
 62
7
  6
CONTINUOUS
 10
12.5229075053
 20
11.0282843652
 11
12.5229075053
 21
7.5268029223
  0
LINE
  5
3E5
100
AcDbEntity
  8
0
100
AcDbLine
 62
4
  6
CONTINUOUS
 10
12.4664850352
 20
8.1460364958
 11
12.4354267761
 21
8.0798142996
  0
LINE
  5
3E6
100
AcDbEntity
  8
0
100
AcDbLine
 62
4
  6
CONTINUOUS
 10
12.5130724238
 20
9.2704586115
 11
12.4942130346
 21
9.2850625592
  0
LINE
  5
3E7
100
AcDbEntity
  8
0
100
AcDbLine
 62
4
  6
CONTINUOUS
 10
12.4820141647
 20
8.9361919899
 11
12.4768377883
 21
8.9456808819
  0
LINE
  5
3E8
100
AcDbEntity
  8
0
100
AcDbLine
 62
4
  6
CONTINUOUS
 10
12.4587204704
 20
8.9861364455
 11
12.4638968475
 21
8.9766475543
  0
LINE
  5
3E9
100
AcDbEntity
  8
0
100
AcDbLine
 62
4
  6
CONTINUOUS
 10
12.4975432942
 20
9.0236364178
 11
12.5027196714
 21
9.0141475265
  0
LINE
  5
3EA
100
AcDbEntity
  8
0
100
AcDbLine
 62
4
  6
CONTINUOUS
 10
12.4794259766
 20
9.0568475395
 11
12.4768377883
 21
9.0615919853
  0
LINE
  5
3EB
100
AcDbEntity
  8
0
100
AcDbLine
 62
4
  6
CONTINUOUS
 10
12.4406031527
 20
9.1352586707
 11
12.4380149644
 21
9.1400031165
  0
LINE
  5
3EC
100
AcDbEntity
  8
0
100
AcDbLine
 62
4
  6
CONTINUOUS
 10
12.5027196714
 20
9.1300586299
 11
12.5001314819
 21
9.1348030747
  0
LINE
  5
3ED
100
AcDbEntity
  8
0
100
AcDbLine
 62
4
  6
CONTINUOUS
 10
12.4638968475
 20
9.2084697611
 11
12.461308658
 21
9.2132142059
  0
LINE
  5
3EE
100
AcDbEntity
  8
0
100
AcDbLine
 62
4
  6
CONTINUOUS
 10
12.2646063212
 20
9.3478343402
 11
12.2690432156
 21
9.3355613232
  0
LINE
  5
3EF
100
AcDbEntity
  8
0
100
AcDbLine
 62
4
  6
CONTINUOUS
 10
12.2912276864
 20
9.4149454296
 11
12.2956645803
 21
9.4026724104
  0
LINE
  5
3F0
100
AcDbEntity
  8
0
100
AcDbLine
 62
4
  6
CONTINUOUS
 10
12.4380149644
 20
8.9081809097
 11
12.4354267761
 21
8.9201697995
  0
LINE
  5
3F1
100
AcDbEntity
  8
0
100
AcDbLine
 62
4
  6
CONTINUOUS
 10
12.4638968475
 20
8.9766475543
 11
12.4664850352
 21
8.9646586638
  0
LINE
  5
3F2
100
AcDbEntity
  8
0
100
AcDbLine
 62
4
  6
CONTINUOUS
 10
12.4768377883
 20
8.9456808819
 11
12.4742495999
 21
8.9576697717
  0
LINE
  5
3F3
100
AcDbEntity
  8
0
100
AcDbLine
 62
4
  6
CONTINUOUS
 10
12.4380149644
 20
9.1400031165
 11
12.4354267761
 21
9.1519920063
  0
LINE
  5
3F4
100
AcDbEntity
  8
0
100
AcDbLine
 62
4
  6
CONTINUOUS
 10
12.4768377883
 20
9.0615919853
 11
12.4742495999
 21
9.0735808751
  0
LINE
  5
3F5
100
AcDbEntity
  8
0
100
AcDbLine
 62
4
  6
CONTINUOUS
 10
12.5027196714
 20
9.0141475265
 11
12.505307859
 21
9.002158636
  0
LINE
  5
3F6
100
AcDbEntity
  8
0
100
AcDbLine
 62
4
  6
CONTINUOUS
 10
12.4664850352
 20
9.1964808706
 11
12.4638968475
 21
9.2084697611
  0
LINE
  5
3F7
100
AcDbEntity
  8
0
100
AcDbLine
 62
4
  6
CONTINUOUS
 10
12.505307859
 20
9.1180697394
 11
12.5027196714
 21
9.1300586299
  0
LINE
  5
3F8
100
AcDbEntity
  8
0
100
AcDbLine
 62
7
  6
CONTINUOUS
 10
12.5229075053
 20
7.5268029223
 11
11.8919072035
 21
6.9173033982
  0
LINE
  5
3F9
100
AcDbEntity
  8
0
100
AcDbLine
 62
7
  6
CONTINUOUS
 10
10.1937505986
 20
10.6224914222
 11
10.2705012942
 21
10.6026269057
  0
LINE
  5
3FA
100
AcDbEntity
  8
0
100
AcDbLine
 62
7
  6
CONTINUOUS
 10
11.8919072035
 20
10.4187848411
 11
9.4770924947
 21
10.58625281
  0
LINE
  5
3FB
100
AcDbEntity
  8
0
100
AcDbLine
 62
7
  6
CONTINUOUS
 10
10.4034373397
 20
10.6370332728
 11
10.3266866441
 21
10.6568977894
  0
LINE
  5
3FC
100
AcDbEntity
  8
0
100
AcDbLine
 62
7
  6
CONTINUOUS
 10
11.9332179571
 20
6.2947620943
 11
12.3618219421
 21
6.7087617772
  0
LINE
  5
3FD
100
AcDbEntity
  8
0
100
AcDbLine
 62
7
  6
CONTINUOUS
 10
11.932283167
 20
6.2938759513
 11
11.9332179571
 21
6.2947620943
  0
LINE
  5
3FE
100
AcDbEntity
  8
0
100
AcDbLine
 62
7
  6
CONTINUOUS
 10
11.932283167
 20
6.2938759513
 11
11.9024167406
 21
6.2660821062
  0
LINE
  5
3FF
100
AcDbEntity
  8
0
100
AcDbLine
 62
7
  6
CONTINUOUS
 10
10.2705012942
 20
10.6026269057
 11
10.3753446647
 21
10.609897831
  0
LINE
  5
400
100
AcDbEntity
  8
0
100
AcDbLine
 62
7
  6
CONTINUOUS
 10
10.3266866441
 20
10.6568977894
 11
10.2218432736
 21
10.6496268641
  0
LINE
  5
401
100
AcDbEntity
  8
0
100
AcDbLine
 62
7
  6
CONTINUOUS
 10
11.5222831208
 20
5.8961821458
 11
11.4916091104
 21
5.881029772
  0
LINE
  5
402
100
AcDbEntity
  8
0
100
AcDbLine
 62
7
  6
CONTINUOUS
 10
10.1080927965
 20
11.195752334
 11
12.5229075053
 21
11.0282843652
  0
ARC
  5
403
100
AcDbEntity
  8
0
100
AcDbCircle
 62
7
  6
CONTINUOUS
 10
11.0110395226
 20
8.0380488467
 40
2.210103635
100
AcDbArc
 50
273.2665005552
 51
274.6677615151
  0
ARC
  5
404
100
AcDbEntity
  8
0
100
AcDbCircle
 62
7
  6
CONTINUOUS
 10
11.0110395226
 20
8.4224522881
 40
2.210103635
100
AcDbArc
 50
273.2665005552
 51
274.6677615151
  0
ARC
  5
405
100
AcDbEntity
  8
0
100
AcDbCircle
 62
7
  6
CONTINUOUS
 10
10.6618263761
 20
4.8016082297
 40
1.4920107078
100
AcDbArc
 50
71.4301899841
 51
73.3829217194
  0
ARC
  5
406
100
AcDbEntity
  8
0
100
AcDbCircle
 62
7
  6
CONTINUOUS
 10
10.828824849
 20
4.9548854356
 40
1.3253917187
100
AcDbArc
 50
99.0504770942
 51
101.1789715723
  0
ARC
  5
407
100
AcDbEntity
  8
0
100
AcDbCircle
 62
7
  6
CONTINUOUS
 10
11.8032487268
 20
5.236359812
 40
1.1584024232
100
AcDbArc
 50
121.5247220346
 51
121.9123380639
  0
ARC
  5
408
100
AcDbEntity
  8
0
100
AcDbCircle
 62
7
  6
CONTINUOUS
 10
9.6333415202
 20
5.806677663
 40
1.0092916166
100
AcDbArc
 50
27.0292794725
 51
27.3325113777
  0
ARC
  5
409
100
AcDbEntity
  8
0
100
AcDbCircle
 62
7
  6
CONTINUOUS
 10
10.791064949
 20
7.1834164041
 40
0.9538158545
100
AcDbArc
 50
254.2644742826
 51
256.7139235525
  0
ARC
  5
40A
100
AcDbEntity
  8
0
100
AcDbCircle
 62
7
  6
CONTINUOUS
 10
10.791064949
 20
6.7990129628
 40
0.9538158545
100
AcDbArc
 50
254.2644742826
 51
256.7139235525
  0
ARC
  5
40B
100
AcDbEntity
  8
0
100
AcDbCircle
 62
7
  6
CONTINUOUS
 10
11.1834021192
 20
6.581077347
 40
0.7641475746
100
AcDbArc
 50
293.7608747297
 51
296.3085175792
  0
ARC
  5
40C
100
AcDbEntity
  8
0
100
AcDbCircle
 62
7
  6
CONTINUOUS
 10
10.4900744026
 20
9.7487442885
 40
0.2104661308
100
AcDbArc
 50
140.2915634173
 51
141.5076753458
  0
ARC
  5
40D
100
AcDbEntity
  8
0
100
AcDbCircle
 62
7
  6
CONTINUOUS
 10
10.1652248909
 20
9.6485373636
 40
0.2009446612
100
AcDbArc
 50
303.677317455
 51
306.8490849595
  0
ARC
  5
40E
100
AcDbEntity
  8
0
100
AcDbCircle
 62
7
  6
CONTINUOUS
 10
10.234490374
 20
9.5655952708
 40
0.0932073711
100
AcDbArc
 50
295.6938218616
 51
303.3514523459
  0
ARC
  5
40F
100
AcDbEntity
  8
0
100
AcDbCircle
 62
7
  6
CONTINUOUS
 10
10.8366912641
 20
8.3733395484
 40
0.0711722288
100
AcDbArc
 50
10.0722621775
 51
11.9023509921
  0
ARC
  5
410
100
AcDbEntity
  8
0
100
AcDbCircle
 62
7
  6
CONTINUOUS
 10
10.8483587153
 20
8.3782378751
 40
0.0588890957
100
AcDbArc
 50
5.0124147131
 51
9.5768771665
  0
SPLINE
  5
411
100
AcDbEntity
  8
02___PRT_ALL_AXES
100
AcDbSpline
 62
7
  6
CONTINUOUS
 70
0
 71
3
 72
31
 73
27
 74
0
 42
0.0000001
 43
0.0000001
 44
0.0000000001
 40
0.0
 40
0.0
 40
0.0
 40
0.0
 40
0.01486732
 40
0.0310571289
 40
0.0486182023
 40
0.0675764778
 40
0.0879396338
 40
0.1097039615
 40
0.1328522195
 40
0.157358698
 40
0.1831909828
 40
0.2103074992
 40
0.2386627542
 40
0.268205473
 40
0.2988785978
 40
0.3306228323
 40
0.363373444
 40
0.3970626492
 40
0.4669709818
 40
0.5397532505
 40
0.6147770757
 40
0.691384739
 40
0.7688995017
 40
0.8466285275
 40
0.923899717
 40
1.0
 40
1.0
 40
1.0
 40
1.0
 10
10.1482975159
 20
10.6405801495
 30
0.0
 10
10.1490075974
 20
10.6412409822
 30
0.0
 10
10.1505589244
 20
10.6425492547
 30
0.0
 10
10.1531389291
 20
10.6443989506
 30
0.0
 10
10.1560629057
 20
10.6462134049
 30
0.0
 10
10.1593240208
 20
10.6479885427
 30
0.0
 10
10.1629149489
 20
10.6497207445
 30
0.0
 10
10.1668276084
 20
10.6514056058
 30
0.0
 10
10.1710528492
 20
10.6530394775
 30
0.0
 10
10.1755808468
 20
10.6546184613
 30
0.0
 10
10.1804010363
 20
10.6561385606
 30
0.0
 10
10.1855020002
 20
10.6575964672
 30
0.0
 10
10.1908717383
 20
10.6589884713
 30
0.0
 10
10.1964975409
 20
10.6603112321
 30
0.0
 10
10.2023660587
 20
10.6615617837
 30
0.0
 10
10.2084634
 20
10.6627368444
 30
0.0
 10
10.2147750803
 20
10.663833808
 30
0.0
 10
10.2235649862
 20
10.6652056096
 30
0.0
 10
10.2349776749
 20
10.6666980208
 30
0.0
 10
10.2491127884
 20
10.668120349
 30
0.0
 10
10.2637178104
 20
10.669181502
 30
0.0
 10
10.278654054
 20
10.6698711919
 30
0.0
 10
10.2937794478
 20
10.6701825774
 30
0.0
 10
10.3089511949
 20
10.6701129358
 30
0.0
 10
10.324024
 20
10.6696625283
 30
0.0
 10
10.3340164933
 20
10.6691058242
 30
0.0
 10
10.3389697069
 20
10.6687623176
 30
0.0
  0
SPLINE
  5
412
100
AcDbEntity
  8
02___PRT_ALL_AXES
100
AcDbSpline
 62
7
  6
CONTINUOUS
 70
0
 71
3
 72
27
 73
23
 74
0
 42
0.0000001
 43
0.0000001
 44
0.0000000001
 40
0.0
 40
0.0
 40
0.0
 40
0.0
 40
0.0165873807
 40
0.0341539798
 40
0.0527299573
 40
0.0723379475
 40
0.0929930859
 40
0.114702669
 40
0.1374694408
 40
0.1612927079
 40
0.2120802826
 40
0.2669842705
 40
0.3258794689
 40
0.3885983692
 40
0.4549487443
 40
0.5247081753
 40
0.5976357819
 40
0.6734625524
 40
0.7519099341
 40
0.8326954885
 40
0.91551621
 40
1.0
 40
1.0
 40
1.0
 40
1.0
 10
10.4488904224
 20
10.6405801495
 30
0.0
 10
10.4484252727
 20
10.6410130381
 30
0.0
 10
10.4474386588
 20
10.6418737121
 30
0.0
 10
10.4458443936
 20
10.6431154685
 30
0.0
 10
10.444095851
 20
10.6443430899
 30
0.0
 10
10.4421947846
 20
10.6455552416
 30
0.0
 10
10.4401430622
 20
10.646750683
 30
0.0
 10
10.4379428986
 20
10.6479283127
 30
0.0
 10
10.43559657
 20
10.6490869527
 30
0.0
 10
10.4322035148
 20
10.6506379584
 30
0.0
 10
10.4276068329
 20
10.6525112308
 30
0.0
 10
10.4216630589
 20
10.6546197468
 30
0.0
 10
10.4152035681
 20
10.6566248287
 30
0.0
 10
10.4082553018
 20
10.6585185335
 30
0.0
 10
10.4008469866
 20
10.660292289
 30
0.0
 10
10.3930095034
 20
10.6619390194
 30
0.0
 10
10.3847757011
 20
10.6634512118
 30
0.0
 10
10.3761802325
 20
10.6648229261
 30
0.0
 10
10.3672587649
 20
10.666047945
 30
0.0
 10
10.3580480543
 20
10.6671213983
 30
0.0
 10
10.348588162
 20
10.6680382099
 30
0.0
 10
10.3421983023
 20
10.6685384138
 30
0.0
 10
10.3389697069
 20
10.6687623176
 30
0.0
  0
SPLINE
  5
413
100
AcDbEntity
  8
02___PRT_ALL_AXES
100
AcDbSpline
 62
7
  6
CONTINUOUS
 70
0
 71
3
 72
51
 73
47
 74
0
 42
0.0000001
 43
0.0000001
 44
0.0000000001
 40
0.0
 40
0.0
 40
0.0
 40
0.0
 40
0.0452834938
 40
0.0911408758
 40
0.1373605742
 40
0.1837585359
 40
0.2301551887
 40
0.2763629395
 40
0.3221936323
 40
0.3674637212
 40
0.4119921854
 40
0.4556023791
 40
0.4981212827
 40
0.5393835091
 40
0.5792290734
 40
0.6175081145
 40
0.6540781494
 40
0.6888099381
 40
0.7215843428
 40
0.7522994562
 40
0.7808677966
 40
0.7943273114
 40
0.8072276986
 40
0.8195644933
 40
0.831336171
 40
0.8425430969
 40
0.8531877033
 40
0.8632756497
 40
0.8728171466
 40
0.8818262931
 40
0.890321771
 40
0.8983285304
 40
0.9058794787
 40
0.9197706597
 40
0.9262367659
 40
0.9324690866
 40
0.9385474987
 40
0.9445586058
 40
0.9505924158
 40
0.9567377297
 40
0.963078105
 40
0.9696891799
 40
0.9766367521
 40
0.9839756932
 40
0.9917511862
 40
1.0
 40
1.0
 40
1.0
 40
1.0
 10
10.2582182314
 20
10.5907623774
 30
0.0
 10
10.2615444991
 20
10.5905316999
 30
0.0
 10
10.2682435791
 20
10.5901286674
 30
0.0
 10
10.2783488811
 20
10.5896987433
 30
0.0
 10
10.2885421609
 20
10.5894414498
 30
0.0
 10
10.2987780347
 20
10.5893575977
 30
0.0
 10
10.3090129774
 20
10.5894477606
 30
0.0
 10
10.3192031501
 20
10.5897111918
 30
0.0
 10
10.3293043858
 20
10.5901471726
 30
0.0
 10
10.3392729806
 20
10.5907534109
 30
0.0
 10
10.3490659656
 20
10.5915276269
 30
0.0
 10
10.3586410944
 20
10.5924660597
 30
0.0
 10
10.3679570553
 20
10.5935650161
 30
0.0
 10
10.3769736583
 20
10.5948192859
 30
0.0
 10
10.3856520538
 20
10.5962238067
 30
0.0
 10
10.3939548682
 20
10.5977720001
 30
0.0
 10
10.4018463897
 20
10.5994575454
 30
0.0
 10
10.4092927403
 20
10.6012725887
 30
0.0
 10
10.4162620624
 20
10.6032096781
 30
0.0
 10
10.4227245314
 20
10.6052598377
 30
0.0
 10
10.4277603803
 20
10.607090107
 30
0.0
 10
10.4315083086
 20
10.6086110953
 30
0.0
 10
10.4341196407
 20
10.6097518629
 30
0.0
 10
10.4365847328
 20
10.6109142354
 30
0.0
 10
10.4389010528
 20
10.6120968857
 30
0.0
 10
10.4410661925
 20
10.6132985365
 30
0.0
 10
10.4430778049
 20
10.6145179757
 30
0.0
 10
10.4449337066
 20
10.6157540423
 30
0.0
 10
10.4466320708
 20
10.6170053536
 30
0.0
 10
10.448171207
 20
10.6182706999
 30
0.0
 10
10.4495493471
 20
10.6195488254
 30
0.0
 10
10.4507651614
 20
10.6208390724
 30
0.0
 10
10.4521295042
 20
10.6225257348
 30
0.0
 10
10.4532224654
 20
10.6242834915
 30
0.0
 10
10.4539770429
 20
10.6260939129
 30
0.0
 10
10.4543607373
 20
10.6274255867
 30
0.0
 10
10.4545743426
 20
10.6287611433
 30
0.0
 10
10.454616971
 20
10.6300985361
 30
0.0
 10
10.4544882775
 20
10.6314353007
 30
0.0
 10
10.4541890569
 20
10.6327691288
 30
0.0
 10
10.4537203163
 20
10.6340980551
 30
0.0
 10
10.45308313
 20
10.6354204215
 30
0.0
 10
10.4522787434
 20
10.6367348316
 30
0.0
 10
10.4513087007
 20
10.6380402811
 30
0.0
 10
10.4501743621
 20
10.639335649
 30
0.0
 10
10.4493350367
 20
10.640166372
 30
0.0
 10
10.4488904224
 20
10.6405801495
 30
0.0
  0
SPLINE
  5
414
100
AcDbEntity
  8
02___PRT_ALL_AXES
100
AcDbSpline
 62
7
  6
CONTINUOUS
 70
0
 71
3
 72
39
 73
35
 74
0
 42
0.0000001
 43
0.0000001
 44
0.0000000001
 40
0.0
 40
0.0
 40
0.0
 40
0.0
 40
0.1050225111
 40
0.2065100121
 40
0.3035267659
 40
0.3501045583
 40
0.395260271
 40
0.4388975244
 40
0.4809296158
 40
0.5212737852
 40
0.5598543628
 40
0.5966046541
 40
0.6314633415
 40
0.6643819646
 40
0.6953225748
 40
0.7242588032
 40
0.7511840292
 40
0.7761083244
 40
0.7990678025
 40
0.8201320451
 40
0.8394087402
 40
0.8570618144
 40
0.87332079
 40
0.8884931082
 40
0.895798427
 40
0.9029844035
 40
0.910109372
 40
0.917233455
 40
0.9244168036
 40
0.9317178244
 40
0.9468769456
 40
0.9631175814
 40
0.9807484158
 40
1.0
 40
1.0
 40
1.0
 40
1.0
 10
10.2582182314
 20
10.5907623774
 30
0.0
 10
10.2533263404
 20
10.5911016312
 30
0.0
 10
10.2437155398
 20
10.5918977757
 30
0.0
 10
10.2296294203
 20
10.5934736143
 30
0.0
 10
10.2182999505
 20
10.5950992965
 30
0.0
 10
10.2096116722
 20
10.5965791435
 30
0.0
 10
10.2034008717
 20
10.5977544563
 30
0.0
 10
10.1974219771
 20
10.5990076042
 30
0.0
 10
10.1916895061
 20
10.600335248
 30
0.0
 10
10.1862173446
 20
10.6017342456
 30
0.0
 10
10.1810187494
 20
10.603201259
 30
0.0
 10
10.1761062463
 20
10.6047324112
 30
0.0
 10
10.1714917534
 20
10.6063242687
 30
0.0
 10
10.1671863293
 20
10.6079727746
 30
0.0
 10
10.1632002069
 20
10.6096738208
 30
0.0
 10
10.1595429465
 20
10.6114236641
 30
0.0
 10
10.1562229632
 20
10.61321778
 30
0.0
 10
10.1532479617
 20
10.615052283
 30
0.0
 10
10.1506247683
 20
10.6169233017
 30
0.0
 10
10.1483589624
 20
10.6188267809
 30
0.0
 10
10.1464560469
 20
10.6207599192
 30
0.0
 10
10.1449207135
 20
10.6227199772
 30
0.0
 10
10.1437581704
 20
10.6247041248
 30
0.0
 10
10.1430977955
 20
10.6263981505
 30
0.0
 10
10.1427727544
 20
10.6277462474
 30
0.0
 10
10.1426274419
 20
10.6287465576
 30
0.0
 10
10.1425780184
 20
10.6297476862
 30
0.0
 10
10.1426246305
 20
10.6307488274
 30
0.0
 10
10.1427671399
 20
10.6317491742
 30
0.0
 10
10.1430883769
 20
10.6330972201
 30
0.0
 10
10.1437439459
 20
10.6347913329
 30
0.0
 10
10.1449010115
 20
10.6367758581
 30
0.0
 10
10.1464307955
 20
10.6387361573
 30
0.0
 10
10.1476395013
 20
10.6399677724
 30
0.0
 10
10.1482975159
 20
10.6405801495
 30
0.0
  0
SPLINE
  5
415
100
AcDbEntity
  8
0
100
AcDbSpline
 62
7
  6
CONTINUOUS
 70
0
 71
3
 72
9
 73
5
 74
0
 42
0.0000001
 43
0.0000001
 44
0.0000000001
 40
0.0
 40
0.0
 40
0.0
 40
0.0
 40
0.2426770998
 40
1.0
 40
1.0
 40
1.0
 40
1.0
 10
11.6123970102
 20
5.949281986
 30
0.0
 10
11.6117888197
 20
5.9486945191
 30
0.0
 10
11.6092557683
 20
5.9463016379
 30
0.0
 10
11.6066200546
 20
5.9440181684
 30
0.0
 10
11.6045792525
 20
5.942345302
 30
0.0
  0
SPLINE
  5
416
100
AcDbEntity
  8
0
100
AcDbSpline
 62
7
  6
CONTINUOUS
 70
0
 71
3
 72
9
 73
5
 74
0
 42
0.0000001
 43
0.0000001
 44
0.0000000001
 40
0.0
 40
0.0
 40
0.0
 40
0.0
 40
0.2426666479
 40
1.0
 40
1.0
 40
1.0
 40
1.0
 10
11.6190272768
 20
5.9563010227
 30
0.0
 10
11.618519649
 20
5.9557072498
 30
0.0
 10
11.6163959532
 20
5.9532876653
 30
0.0
 10
11.6141505448
 20
5.9509757705
 30
0.0
 10
11.6123970102
 20
5.949281986
 30
0.0
  0
SPLINE
  5
417
100
AcDbEntity
  8
0
100
AcDbSpline
 62
7
  6
CONTINUOUS
 70
0
 71
3
 72
9
 73
5
 74
0
 42
0.0000001
 43
0.0000001
 44
0.0000000001
 40
0.0
 40
0.0
 40
0.0
 40
0.0
 40
0.504378312
 40
1.0
 40
1.0
 40
1.0
 40
1.0
 10
11.6045792525
 20
5.942345302
 30
0.0
 10
11.5910755022
 20
5.9339364483
 30
0.0
 10
11.5639626648
 20
5.9178017923
 30
0.0
 10
11.5360898683
 20
5.9030045975
 30
0.0
 10
11.5220757304
 20
5.8960797551
 30
0.0
  0
SPLINE
  5
418
100
AcDbEntity
  8
0
100
AcDbSpline
 62
7
  6
CONTINUOUS
 70
0
 71
3
 72
23
 73
19
 74
0
 42
0.0000001
 43
0.0000001
 44
0.0000000001
 40
0.0
 40
0.0
 40
0.0
 40
0.0
 40
0.0436203086
 40
0.0892268542
 40
0.137068591
 40
0.187353676
 40
0.2402538462
 40
0.2958872461
 40
0.3543311569
 40
0.4156094827
 40
0.4797102731
 40
0.5465788188
 40
0.6161346312
 40
0.6882694307
 40
0.7628606873
 40
0.8397744221
 40
0.9188692703
 40
1.0
 40
1.0
 40
1.0
 40
1.0
 10
10.4893812334
 20
5.8904202145
 30
0.0
 10
10.4870712978
 20
5.891560783
 30
0.0
 10
10.4824341741
 20
5.8940758795
 30
0.0
 10
10.4756068846
 20
5.8984369315
 30
0.0
 10
10.4687704957
 20
5.903479218
 30
0.0
 10
10.461928946
 20
5.9092101504
 30
0.0
 10
10.4550878478
 20
5.9156338012
 30
0.0
 10
10.4482503073
 20
5.9227453736
 30
0.0
 10
10.4414220482
 20
5.9305361856
 30
0.0
 10
10.4346058041
 20
5.9389895881
 30
0.0
 10
10.4278066355
 20
5.948085494
 30
0.0
 10
10.4210267853
 20
5.9577978759
 30
0.0
 10
10.4142701184
 20
5.968098424
 30
0.0
 10
10.4075382314
 20
5.9789553781
 30
0.0
 10
10.4008335144
 20
5.9903362316
 30
0.0
 10
10.3941568652
 20
6.002207314
 30
0.0
 10
10.3875093728
 20
6.0145351531
 30
0.0
 10
10.3831502547
 20
6.0229345702
 30
0.0
 10
10.3809727232
 20
6.027202703
 30
0.0
  0
SPLINE
  5
419
100
AcDbEntity
  8
0
100
AcDbSpline
 62
7
  6
CONTINUOUS
 70
0
 71
3
 72
47
 73
43
 74
0
 42
0.0000001
 43
0.0000001
 44
0.0000000001
 40
0.0
 40
0.0
 40
0.0
 40
0.0
 40
0.0099874638
 40
0.0204476834
 40
0.0313771515
 40
0.0427708334
 40
0.0546218702
 40
0.0669225517
 40
0.0796641282
 40
0.0928362942
 40
0.1204271347
 40
0.1495984091
 40
0.1802407165
 40
0.2122338314
 40
0.2454489836
 40
0.2797497839
 40
0.3149929168
 40
0.3510298084
 40
0.3877071885
 40
0.4248680172
 40
0.4623527228
 40
0.4999997959
 40
0.5376468789
 40
0.575131606
 40
0.6122924455
 40
0.6489698269
 40
0.6850067267
 40
0.7202498875
 40
0.7545507276
 40
0.7877659112
 40
0.8197590481
 40
0.8504013805
 40
0.8795726993
 40
0.9071635849
 40
0.9203357726
 40
0.933077377
 40
0.9453780958
 40
0.9572291635
 40
0.968622847
 40
0.9795522717
 40
0.9900124597
 40
1.0
 40
1.0
 40
1.0
 40
1.0
 10
11.4916129958
 20
5.8810317266
 30
0.0
 10
11.4886224614
 20
5.8795544489
 30
0.0
 10
11.482448755
 20
5.8766325331
 30
0.0
 10
11.4728465566
 20
5.8724330894
 30
0.0
 10
11.4626983785
 20
5.8683202546
 30
0.0
 10
11.4520159305
 20
5.8642990448
 30
0.0
 10
11.4408115549
 20
5.8603737396
 30
0.0
 10
11.4290980542
 20
5.8565490205
 30
0.0
 10
11.4168887983
 20
5.8528294497
 30
0.0
 10
11.3997009694
 20
5.8479399179
 30
0.0
 10
11.3770706572
 20
5.8421444364
 30
0.0
 10
11.3485793788
 20
5.8357757642
 30
0.0
 10
11.3184793299
 20
5.8299202403
 30
0.0
 10
11.2869093236
 20
5.8246048986
 30
0.0
 10
11.2540146657
 20
5.8198547422
 30
0.0
 10
11.2199470146
 20
5.8156922101
 30
0.0
 10
11.184863556
 20
5.8121364821
 30
0.0
 10
11.1489262352
 20
5.8092043117
 30
0.0
 10
11.1123009742
 20
5.8069095271
 30
0.0
 10
11.0751569418
 20
5.8052625796
 30
0.0
 10
11.0376657178
 20
5.8042713436
 30
0.0
 10
11.0000004776
 20
5.803940487
 30
0.0
 10
10.96233523
 20
5.8042713269
 30
0.0
 10
10.9248439915
 20
5.8052625469
 30
0.0
 10
10.8876999471
 20
5.8069094776
 30
0.0
 10
10.8510746783
 20
5.8092042461
 30
0.0
 10
10.8151373436
 20
5.8121363996
 30
0.0
 10
10.7800538581
 20
5.815692113
 30
0.0
 10
10.7459861718
 20
5.8198546305
 30
0.0
 10
10.7130914805
 20
5.8246047735
 30
0.0
 10
10.6815214451
 20
5.8299200994
 30
0.0
 10
10.6514213622
 20
5.835775609
 30
0.0
 10
10.6229300426
 20
5.8421442716
 30
0.0
 10
10.6002996886
 20
5.8479397397
 30
0.0
 10
10.5831118242
 20
5.852829262
 30
0.0
 10
10.5709025374
 20
5.8565488313
 30
0.0
 10
10.5591890053
 20
5.8603735576
 30
0.0
 10
10.5479846059
 20
5.8642988654
 30
0.0
 10
10.5373021552
 20
5.8683200569
 30
0.0
 10
10.5271539831
 20
5.8724328407
 30
0.0
 10
10.5175517671
 20
5.876632246
 30
0.0
 10
10.5113780459
 20
5.8795541667
 30
0.0
 10
10.5083874929
 20
5.8810314643
 30
0.0
  0
SPLINE
  5
41A
100
AcDbEntity
  8
0
100
AcDbSpline
 62
7
  6
CONTINUOUS
 70
0
 71
3
 72
21
 73
17
 74
0
 42
0.0000001
 43
0.0000001
 44
0.0000000001
 40
0.0
 40
0.0
 40
0.0
 40
0.0
 40
0.1230212981
 40
0.1847065752
 40
0.2465215318
 40
0.3084771567
 40
0.3705832678
 40
0.432847904
 40
0.4952752623
 40
0.5578663069
 40
0.6206183946
 40
0.6835249868
 40
0.7465773451
 40
0.8097643485
 40
0.8730733734
 40
1.0
 40
1.0
 40
1.0
 40
1.0
 10
11.1369719151
 20
5.8315359621
 30
0.0
 10
11.1138927341
 20
5.8269886059
 30
0.0
 10
11.0790602926
 20
5.8210161996
 30
0.0
 10
11.0322890776
 20
5.8151060522
 30
0.0
 10
10.996977769
 20
5.8117788382
 30
0.0
 10
10.9614933262
 20
5.8096444306
 30
0.0
 10
10.9258686052
 20
5.8087736943
 30
0.0
 10
10.8901453937
 20
5.8092225895
 30
0.0
 10
10.854371772
 20
5.8110245882
 30
0.0
 10
10.8185992458
 20
5.8141878741
 30
0.0
 10
10.7828793058
 20
5.8186968247
 30
0.0
 10
10.7472596925
 20
5.8245110665
 30
0.0
 10
10.711781553
 20
5.8315687806
 30
0.0
 10
10.6764773622
 20
5.8397944703
 30
0.0
 10
10.6296334361
 20
5.8522140223
 30
0.0
 10
10.5948730264
 20
5.8630018167
 30
0.0
 10
10.5718654406
 20
5.8707262292
 30
0.0
  0
SPLINE
  5
41B
100
AcDbEntity
  8
0
100
AcDbSpline
 62
7
  6
CONTINUOUS
 70
0
 71
3
 72
11
 73
7
 74
0
 42
0.0000001
 43
0.0000001
 44
0.0000000001
 40
0.0
 40
0.0
 40
0.0
 40
0.0
 40
0.2465919593
 40
0.494712682
 40
0.7454424776
 40
1.0
 40
1.0
 40
1.0
 40
1.0
 10
10.5323926627
 20
5.8809425229
 30
0.0
 10
10.5304502498
 20
5.8808876883
 30
0.0
 10
10.5265489401
 20
5.8808950348
 30
0.0
 10
10.5206832488
 20
5.8812785566
 30
0.0
 10
10.5147931768
 20
5.882056839
 30
0.0
 10
10.5108867197
 20
5.8828463868
 30
0.0
 10
10.5089352746
 20
5.8833108482
 30
0.0
  0
SPLINE
  5
41C
100
AcDbEntity
  8
0
100
AcDbSpline
 62
7
  6
CONTINUOUS
 70
0
 71
3
 72
10
 73
6
 74
0
 42
0.0000001
 43
0.0000001
 44
0.0000000001
 40
0.0
 40
0.0
 40
0.0
 40
0.0
 40
0.2418255986
 40
0.4885199497
 40
1.0
 40
1.0
 40
1.0
 40
1.0
 10
10.5089352746
 20
5.8833108482
 30
0.0
 10
10.5073007572
 20
5.8836998779
 30
0.0
 10
10.5040204468
 20
5.8845807385
 30
0.0
 10
10.4974215465
 20
5.8867630438
 30
0.0
 10
10.4925676681
 20
5.8888468601
 30
0.0
 10
10.4893812334
 20
5.8904202145
 30
0.0
  0
LINE
  5
41D
100
AcDbEntity
  8
0
100
AcDbLine
 62
7
  6
CONTINUOUS
 10
11.4912927722
 20
5.8817027252
 11
11.4905636581
 21
5.8813828376
  0
SPLINE
  5
41E
100
AcDbEntity
  8
0
100
AcDbSpline
 62
7
  6
CONTINUOUS
 70
0
 71
3
 72
15
 73
11
 74
0
 42
0.0000001
 43
0.0000001
 44
0.0000000001
 40
0.0
 40
0.0
 40
0.0
 40
0.0
 40
0.1321602046
 40
0.2618009952
 40
0.3890353631
 40
0.5141096583
 40
0.6373677171
 40
0.75919507
 40
0.8799649792
 40
1.0
 40
1.0
 40
1.0
 40
1.0
 10
11.4905636581
 20
5.8813828376
 30
0.0
 10
11.4781825547
 20
5.8759590954
 30
0.0
 10
11.4533417909
 20
5.8659121063
 30
0.0
 10
11.4155477278
 20
5.8533786689
 30
0.0
 10
11.3776769583
 20
5.8436613794
 30
0.0
 10
11.3398505826
 20
5.8367928752
 30
0.0
 10
11.3021831967
 20
5.8326930467
 30
0.0
 10
11.2647676148
 20
5.8311863588
 30
0.0
 10
11.2276667781
 20
5.8320332065
 30
0.0
 10
11.2031023587
 20
5.8339925565
 30
0.0
 10
11.1908927174
 20
5.835275389
 30
0.0
  0
SPLINE
  5
41F
100
AcDbEntity
  8
0
100
AcDbSpline
 62
7
  6
CONTINUOUS
 70
0
 71
3
 72
88
 73
84
 74
0
 42
0.0000001
 43
0.0000001
 44
0.0000000001
 40
0.0
 40
0.0
 40
0.0
 40
0.0
 40
0.00398019
 40
0.0081241279
 40
0.012435984
 40
0.0169193403
 40
0.0215772217
 40
0.026411968
 40
0.03142524
 40
0.0366182254
 40
0.0419916187
 40
0.0475457474
 40
0.0532805245
 40
0.0591955312
 40
0.0652900466
 40
0.0715630374
 40
0.0846387255
 40
0.0984100564
 40
0.1128606485
 40
0.1279711965
 40
0.1437198106
 40
0.1600822931
 40
0.1770323702
 40
0.1945418895
 40
0.2125809905
 40
0.2311182618
 40
0.2501208831
 40
0.2695547551
 40
0.289384621
 40
0.309574183
 40
0.3300862123
 40
0.3508826567
 40
0.3719247472
 40
0.3931731028
 40
0.4145878328
 40
0.4361286373
 40
0.4577549081
 40
0.5010997345
 40
0.5442957932
 40
0.5657364549
 40
0.5870180425
 40
0.6081005829
 40
0.6289445938
 40
0.6495111877
 40
0.6697621758
 40
0.6896601722
 40
0.7091687011
 40
0.7282523074
 40
0.7468766714
 40
0.7650087296
 40
0.7826168049
 40
0.7996707468
 40
0.8161420806
 40
0.8320041762
 40
0.8472324412
 40
0.8618045456
 40
0.8757006897
 40
0.8889039322
 40
0.8952415306
 40
0.9014010782
 40
0.9073814661
 40
0.9131818436
 40
0.9188016978
 40
0.9242407986
 40
0.9294993296
 40
0.9345778344
 40
0.939477329
 40
0.9441993212
 40
0.9487458596
 40
0.953119651
 40
0.9573240595
 40
0.9613632868
 40
0.9652423839
 40
0.9689674258
 40
0.9725455946
 40
0.9759852982
 40
0.9824864684
 40
0.985575327
 40
0.9885737973
 40
0.9914977211
 40
0.9943643259
 40
0.9971920046
 40
1.0
 40
1.0
 40
1.0
 40
1.0
 10
11.6346133055
 20
10.7632580054
 30
0.0
 10
11.6333120736
 20
10.7620011118
 30
0.0
 10
11.6305969842
 20
10.7594962143
 30
0.0
 10
11.6262862572
 20
10.755837623
 30
0.0
 10
11.6216589775
 20
10.7522052751
 30
0.0
 10
11.6167176836
 20
10.7486010994
 30
0.0
 10
11.6114647845
 20
10.7450267791
 30
0.0
 10
11.6059028541
 20
10.7414840531
 30
0.0
 10
11.6000346741
 20
10.7379746201
 30
0.0
 10
11.593863156
 20
10.7345003012
 30
0.0
 10
11.5873914164
 20
10.7310627641
 30
0.0
 10
11.5806226724
 20
10.7276637776
 30
0.0
 10
11.5735603272
 20
10.7243050116
 30
0.0
 10
11.5662079251
 20
10.7209881708
 30
0.0
 10
11.5585691486
 20
10.7177149174
 30
0.0
 10
11.5478589143
 20
10.7133504626
 30
0.0
 10
11.533774056
 20
10.7080275862
 30
0.0
 10
11.5160199305
 20
10.7019248352
 30
0.0
 10
11.497222958
 20
10.6960339808
 30
0.0
 10
11.4774210393
 20
10.6903669969
 30
0.0
 10
11.4566539285
 20
10.6849354167
 30
0.0
 10
11.4349634591
 20
10.6797503025
 30
0.0
 10
11.4123933551
 20
10.6748222175
 30
0.0
 10
11.3889891617
 20
10.6701612026
 30
0.0
 10
11.3647981391
 20
10.6657767508
 30
0.0
 10
11.3398691627
 20
10.6616777897
 30
0.0
 10
11.3142526169
 20
10.6578726647
 30
0.0
 10
11.28800029
 20
10.6543691211
 30
0.0
 10
11.2611652668
 20
10.6511742895
 30
0.0
 10
11.2338018198
 20
10.6482946711
 30
0.0
 10
11.2059652986
 20
10.6457361258
 30
0.0
 10
11.1777120169
 20
10.6435038568
 30
0.0
 10
11.1490991378
 20
10.6416024028
 30
0.0
 10
11.1201845514
 20
10.6400356278
 30
0.0
 10
11.0910267756
 20
10.6388067242
 30
0.0
 10
11.0616847641
 20
10.6379181638
 30
0.0
 10
11.0223679982
 20
10.6371892357
 30
0.0
 10
10.9731974473
 20
10.6371375152
 30
0.0
 10
10.9241232463
 20
10.6382269964
 30
0.0
 10
10.8851006733
 20
10.6397869559
 30
0.0
 10
10.8561374735
 20
10.6412925318
 30
0.0
 10
10.8274654182
 20
10.6431333958
 30
0.0
 10
10.7991424775
 20
10.6453058355
 30
0.0
 10
10.7712259664
 20
10.6478054256
 30
0.0
 10
10.7437723572
 20
10.6506270825
 30
0.0
 10
10.7168371835
 20
10.6537650649
 30
0.0
 10
10.6904749221
 20
10.6572129882
 30
0.0
 10
10.6647388829
 20
10.6609638359
 30
0.0
 10
10.6396810994
 20
10.6650099735
 30
0.0
 10
10.6153522202
 20
10.6693431647
 30
0.0
 10
10.5918014018
 20
10.673954586
 30
0.0
 10
10.5690762029
 20
10.6788348428
 30
0.0
 10
10.5472224872
 20
10.683973993
 30
0.0
 10
10.5262843169
 20
10.6893615672
 30
0.0
 10
10.5063038812
 20
10.6949865925
 30
0.0
 10
10.4873213108
 20
10.7008376199
 30
0.0
 10
10.4693748894
 20
10.7069027515
 30
0.0
 10
10.4551247483
 20
10.7121948863
 30
0.0
 10
10.4442789216
 20
10.7165357383
 30
0.0
 10
10.4365369583
 20
10.7197927406
 30
0.0
 10
10.4290799818
 20
10.723093906
 30
0.0
 10
10.4219117423
 20
10.7264376334
 30
0.0
 10
10.415035826
 20
10.7298221791
 30
0.0
 10
10.4084557019
 20
10.733245907
 30
0.0
 10
10.4021746455
 20
10.7367070432
 30
0.0
 10
10.3961958131
 20
10.7402039031
 30
0.0
 10
10.3905221834
 20
10.7437347304
 30
0.0
 10
10.3851565774
 20
10.74729777
 30
0.0
 10
10.3801016867
 20
10.7508913119
 30
0.0
 10
10.3753599903
 20
10.7545135465
 30
0.0
 10
10.3709338884
 20
10.7581628033
 30
0.0
 10
10.3668255488
 20
10.7618372677
 30
0.0
 10
10.3630370431
 20
10.7655353027
 30
0.0
 10
10.3595703584
 20
10.769255046
 30
0.0
 10
10.3564269911
 20
10.7729952444
 30
0.0
 10
10.3527395243
 20
10.7779131739
 30
0.0
 10
10.3496082647
 20
10.782963662
 30
0.0
 10
10.3471221807
 20
10.7881219907
 30
0.0
 10
10.3456200999
 20
10.7919369597
 30
0.0
 10
10.3444503748
 20
10.7957612112
 30
0.0
 10
10.3436139646
 20
10.7995928876
 30
0.0
 10
10.3431117935
 20
10.8034292572
 30
0.0
 10
10.3429999998
 20
10.8059922526
 30
0.0
 10
10.343
 20
10.8072685876
 30
0.0
  0
SPLINE
  5
420
100
AcDbEntity
  8
0
100
AcDbSpline
 62
7
  6
CONTINUOUS
 70
0
 71
3
 72
11
 73
7
 74
0
 42
0.0000001
 43
0.0000001
 44
0.0000000001
 40
0.0
 40
0.0
 40
0.0
 40
0.0
 40
0.2520037183
 40
0.5026338506
 40
0.7519330987
 40
1.0
 40
1.0
 40
1.0
 40
1.0
 10
9.9766724924
 20
10.250237901
 30
0.0
 10
9.9766724924
 20
10.2482684991
 30
0.0
 10
9.9765159181
 20
10.2443385784
 30
0.0
 10
9.9758083553
 20
10.2384987117
 30
0.0
 10
9.974633624
 20
10.2327659652
 30
0.0
 10
9.9735414746
 20
10.2290302175
 30
0.0
 10
9.9729206788
 20
10.227193666
 30
0.0
  0
SPLINE
  5
421
100
AcDbEntity
  8
0
100
AcDbSpline
 62
7
  6
CONTINUOUS
 70
0
 71
3
 72
37
 73
33
 74
0
 42
0.0000001
 43
0.0000001
 44
0.0000000001
 40
0.0
 40
0.0
 40
0.0
 40
0.0
 40
0.0311466476
 40
0.0624482391
 40
0.093895328
 40
0.1254805417
 40
0.1571907946
 40
0.1890115952
 40
0.2209259356
 40
0.2529150311
 40
0.284958639
 40
0.3170354579
 40
0.3491235488
 40
0.3812007523
 40
0.4451977724
 40
0.5088980103
 40
0.5406103272
 40
0.5721976339
 40
0.6036476391
 40
0.6349508386
 40
0.6661007532
 40
0.6970941041
 40
0.727930928
 40
0.7586146239
 40
0.7891519281
 40
0.8195528177
 40
0.8498303372
 40
0.8800003401
 40
0.9100811543
 40
0.9400931797
 40
0.9700584251
 40
1.0
 40
1.0
 40
1.0
 40
1.0
 10
9.9001679967
 20
7.433108082
 30
0.0
 10
9.902007748
 20
7.4329804948
 30
0.0
 10
9.9056884294
 20
7.4325899967
 30
0.0
 10
9.9111647992
 20
7.4316064257
 30
0.0
 10
9.9165825446
 20
7.4302286205
 30
0.0
 10
9.921912324
 20
7.4284641749
 30
0.0
 10
9.9271258909
 20
7.4263224192
 30
0.0
 10
9.9321954097
 20
7.4238148674
 30
0.0
 10
9.9370938755
 20
7.4209548885
 30
0.0
 10
9.9417951836
 20
7.4177577706
 30
0.0
 10
9.9462743012
 20
7.4142405578
 30
0.0
 10
9.9505073164
 20
7.4104220829
 30
0.0
 10
9.9544718462
 20
7.4063224303
 30
0.0
 10
9.9593663817
 20
7.4005171216
 30
0.0
 10
9.964711744
 20
7.392673844
 30
0.0
 10
9.968922312
 20
7.3841906266
 30
0.0
 10
9.9715469894
 20
7.3771385052
 30
0.0
 10
9.9731323933
 20
7.3717521028
 30
0.0
 10
9.9743282619
 20
7.3662910305
 30
0.0
 10
9.9751283151
 20
7.3607841371
 30
0.0
 10
9.975528195
 20
7.3552608705
 30
0.0
 10
9.9755257194
 20
7.3497506832
 30
0.0
 10
9.9751208339
 20
7.3442829958
 30
0.0
 10
9.9743156318
 20
7.3388870103
 30
0.0
 10
9.9731143405
 20
7.3335915654
 30
0.0
 10
9.9715233132
 20
7.3284249774
 30
0.0
 10
9.9695510059
 20
7.323414886
 30
0.0
 10
9.9672079099
 20
7.3185880995
 30
0.0
 10
9.9645065382
 20
7.3139704828
 30
0.0
 10
9.9614612242
 20
7.3095866912
 30
0.0
 10
9.9580885544
 20
7.3054605017
 30
0.0
 10
9.9556327876
 20
7.3028951246
 30
0.0
 10
9.9543576726
 20
7.3016634721
 30
0.0
  0
SPLINE
  5
422
100
AcDbEntity
  8
0
100
AcDbSpline
 62
7
  6
CONTINUOUS
 70
0
 71
3
 72
40
 73
36
 74
0
 42
0.0000001
 43
0.0000001
 44
0.0000000001
 40
0.0
 40
0.0
 40
0.0
 40
0.0
 40
0.0312686985
 40
0.0627081123
 40
0.0943084853
 40
0.1260579244
 40
0.1579396645
 40
0.1899342165
 40
0.2220192285
 40
0.2541703108
 40
0.2863615745
 40
0.3185662883
 40
0.3507575093
 40
0.3829087141
 40
0.4149944106
 40
0.4469907236
 40
0.4788759458
 40
0.5106310453
 40
0.5422401212
 40
0.573690801
 40
0.6049745703
 40
0.6360870267
 40
0.6670280487
 40
0.6978018692
 40
0.728417047
 40
0.7588863269
 40
0.7892263842
 40
0.819457452
 40
0.8496028339
 40
0.8646548215
 40
0.8796952286
 40
0.9097483666
 40
0.9397977643
 40
0.9698722388
 40
1.0
 40
1.0
 40
1.0
 40
1.0
 10
11.468831926
 20
7.3247358861
 30
0.0
 10
11.4708625934
 20
7.3245950588
 30
0.0
 10
11.4749254164
 20
7.3241475332
 30
0.0
 10
11.4809608434
 20
7.3229898074
 30
0.0
 10
11.4869166573
 20
7.3213513868
 30
0.0
 10
11.4927533342
 20
7.3192434661
 30
0.0
 10
11.4984329551
 20
7.3166801785
 30
0.0
 10
11.5039185437
 20
7.3136787599
 30
0.0
 10
11.5091745844
 20
7.3102592524
 30
0.0
 10
11.5141671854
 20
7.3064444088
 30
0.0
 10
11.518864309
 20
7.3022594785
 30
0.0
 10
11.5232359623
 20
7.2977320233
 30
0.0
 10
11.5272543705
 20
7.2928917053
 30
0.0
 10
11.5308941287
 20
7.2877700741
 30
0.0
 10
11.5341323332
 20
7.2824003471
 30
0.0
 10
11.536948693
 20
7.2768171886
 30
0.0
 10
11.5393256262
 20
7.2710564884
 30
0.0
 10
11.5412483351
 20
7.2651551402
 30
0.0
 10
11.5427048684
 20
7.2591508228
 30
0.0
 10
11.5436861696
 20
7.2530817835
 30
0.0
 10
11.544186113
 20
7.2469866237
 30
0.0
 10
11.5442015305
 20
7.2409040877
 30
0.0
 10
11.5437322261
 20
7.2348728499
 30
0.0
 10
11.5427809837
 20
7.2289313066
 30
0.0
 10
11.5413535581
 20
7.2231173566
 30
0.0
 10
11.5394586804
 20
7.2174682131
 30
0.0
 10
11.5371079592
 20
7.2120200938
 30
0.0
 10
11.5343161115
 20
7.2068083493
 30
0.0
 10
11.5316343941
 20
7.2026873065
 30
0.0
 10
11.5292883754
 20
7.1995437995
 30
0.0
 10
11.5268135832
 20
7.1965083833
 30
0.0
 10
11.5234802285
 20
7.1929193046
 30
0.0
 10
11.5191243828
 20
7.1889730729
 30
0.0
 10
11.5144411418
 20
7.1854138898
 30
0.0
 10
11.5111235842
 20
7.1833168197
 30
0.0
 10
11.5094223647
 20
7.1823408906
 30
0.0
  0
SPLINE
  5
423
100
AcDbEntity
  8
0
100
AcDbSpline
 62
7
  6
CONTINUOUS
 70
0
 71
3
 72
23
 73
19
 74
0
 42
0.0000001
 43
0.0000001
 44
0.0000000001
 40
0.0
 40
0.0
 40
0.0
 40
0.0
 40
0.0639326169
 40
0.1275595874
 40
0.1908823889
 40
0.2539227745
 40
0.316700758
 40
0.3792442305
 40
0.4415852965
 40
0.5037598693
 40
0.5658068099
 40
0.6277668322
 40
0.6896816848
 40
0.7515932603
 40
0.8135426285
 40
0.8755692236
 40
0.9377102114
 40
1.0
 40
1.0
 40
1.0
 40
1.0
 10
11.2155190756
 20
7.3863208355
 30
0.0
 10
11.2155190756
 20
7.3846135845
 30
0.0
 10
11.215399072
 20
7.3812059847
 30
0.0
 10
11.2148571677
 20
7.3761333976
 30
0.0
 10
11.2139567919
 20
7.371135929
 30
0.0
 10
11.2127034085
 20
7.366238551
 30
0.0
 10
11.2111041798
 20
7.3614648525
 30
0.0
 10
11.2091683498
 20
7.3568376883
 30
0.0
 10
11.2069069054
 20
7.3523787028
 30
0.0
 10
11.2043324529
 20
7.3481083045
 30
0.0
 10
11.2014590506
 20
7.3440455453
 30
0.0
 10
11.1983020249
 20
7.3402080626
 30
0.0
 10
11.1948778384
 20
7.3366120088
 30
0.0
 10
11.191203906
 20
7.3332720234
 30
0.0
 10
11.1872984439
 20
7.3302012807
 30
0.0
 10
11.1831802149
 20
7.3274114572
 30
0.0
 10
11.178868858
 20
7.3249129614
 30
0.0
 10
11.1758824276
 20
7.3234490946
 30
0.0
 10
11.1743646079
 20
7.3227686095
 30
0.0
  0
SPLINE
  5
424
100
AcDbEntity
  8
0
100
AcDbSpline
 62
7
  6
CONTINUOUS
 70
0
 71
3
 72
39
 73
35
 74
0
 42
0.0000001
 43
0.0000001
 44
0.0000000001
 40
0.0
 40
0.0
 40
0.0
 40
0.0
 40
0.0310484207
 40
0.0622434145
 40
0.0935752878
 40
0.1250387826
 40
0.1566225119
 40
0.1883141354
 40
0.2200992304
 40
0.2519617495
 40
0.283884392
 40
0.3158488479
 40
0.3478361551
 40
0.3798270379
 40
0.4118022283
 40
0.4437427792
 40
0.4756303755
 40
0.5074476588
 40
0.5391785122
 40
0.5708083201
 40
0.6023242086
 40
0.6337152835
 40
0.6649728399
 40
0.6960905193
 40
0.7270644376
 40
0.7578932818
 40
0.788578385
 40
0.8191237388
 40
0.8495359534
 40
0.8798241715
 40
0.9099999406
 40
0.9400770378
 40
0.9700712329
 40
1.0
 40
1.0
 40
1.0
 40
1.0
 10
11.4688316727
 20
10.2225135719
 30
0.0
 10
11.4705554897
 20
10.2223940248
 30
0.0
 10
11.4740041559
 20
10.2220354855
 30
0.0
 10
11.4791392952
 20
10.2211462128
 30
0.0
 10
11.4842256841
 20
10.2199082777
 30
0.0
 10
11.4892388683
 20
10.218327922
 30
0.0
 10
11.4941553697
 20
10.2164126855
 30
0.0
 10
11.4989520003
 20
10.2141719013
 30
0.0
 10
11.5036062848
 20
10.2116164096
 30
0.0
 10
11.5080964674
 20
10.2087585267
 30
0.0
 10
11.5124016391
 20
10.2056119742
 30
0.0
 10
11.51650182
 20
10.2021917853
 30
0.0
 10
11.5203780751
 20
10.1985142561
 30
0.0
 10
11.5240125884
 20
10.1945968373
 30
0.0
 10
11.5273887195
 20
10.1904580255
 30
0.0
 10
11.5304910696
 20
10.1861172743
 30
0.0
 10
11.5333055374
 20
10.1815948988
 30
0.0
 10
11.5358194071
 20
10.1769119987
 30
0.0
 10
11.5380213534
 20
10.1720903318
 30
0.0
 10
11.5399014797
 20
10.1671522213
 30
0.0
 10
11.5414513395
 20
10.1621204583
 30
0.0
 10
11.542663993
 20
10.1570182162
 30
0.0
 10
11.543534029
 20
10.1518689489
 30
0.0
 10
11.5440575479
 20
10.1466962882
 30
0.0
 10
11.5442321792
 20
10.1415239556
 30
0.0
 10
11.5440570865
 20
10.1363756707
 30
0.0
 10
11.5435330188
 20
10.1312750555
 30
0.0
 10
11.5426622638
 20
10.126245536
 30
0.0
 10
11.5414486467
 20
10.1213102558
 30
0.0
 10
11.5398975091
 20
10.1164919775
 30
0.0
 10
11.5380157532
 20
10.1118130128
 30
0.0
 10
11.535811736
 20
10.1072949969
 30
0.0
 10
11.5332955441
 20
10.1029592582
 30
0.0
 10
11.5314153508
 20
10.1002006766
 30
0.0
 10
11.530427782
 20
10.0988593789
 30
0.0
  0
SPLINE
  5
425
100
AcDbEntity
  8
0
100
AcDbSpline
 62
7
  6
CONTINUOUS
 70
0
 71
3
 72
23
 73
19
 74
0
 42
0.0000001
 43
0.0000001
 44
0.0000000001
 40
0.0
 40
0.0
 40
0.0
 40
0.0
 40
0.0639326169
 40
0.1275595874
 40
0.1908823889
 40
0.2539227745
 40
0.316700758
 40
0.3792442305
 40
0.4415852965
 40
0.5037598693
 40
0.5658068099
 40
0.6277668322
 40
0.6896816848
 40
0.7515932603
 40
0.8135426285
 40
0.8755692236
 40
0.9377102114
 40
1.0
 40
1.0
 40
1.0
 40
1.0
 10
11.2155190756
 20
10.0426169864
 30
0.0
 10
11.2155190756
 20
10.0409097354
 30
0.0
 10
11.215399072
 20
10.0375021356
 30
0.0
 10
11.2148571677
 20
10.0324295485
 30
0.0
 10
11.2139567919
 20
10.0274320799
 30
0.0
 10
11.2127034085
 20
10.0225347019
 30
0.0
 10
11.2111041798
 20
10.0177610034
 30
0.0
 10
11.2091683498
 20
10.0131338392
 30
0.0
 10
11.2069069054
 20
10.0086748537
 30
0.0
 10
11.2043324529
 20
10.0044044554
 30
0.0
 10
11.2014590506
 20
10.0003416962
 30
0.0
 10
11.1983020249
 20
9.9965042135
 30
0.0
 10
11.1948778384
 20
9.9929081597
 30
0.0
 10
11.191203906
 20
9.9895681743
 30
0.0
 10
11.1872984439
 20
9.9864974316
 30
0.0
 10
11.1831802149
 20
9.9837076081
 30
0.0
 10
11.178868858
 20
9.9812091123
 30
0.0
 10
11.1758824276
 20
9.9797452455
 30
0.0
 10
11.1743646079
 20
9.9790647604
 30
0.0
  0
SPLINE
  5
426
100
AcDbEntity
  8
0
100
AcDbSpline
 62
7
  6
CONTINUOUS
 70
0
 71
3
 72
41
 73
37
 74
0
 42
0.0000001
 43
0.0000001
 44
0.0000000001
 40
0.0
 40
0.0
 40
0.0
 40
0.0
 40
0.031144444
 40
0.0624425093
 40
0.0938872508
 40
0.1254695847
 40
0.1571771078
 40
0.1889951283
 40
0.2209066801
 40
0.2528929859
 40
0.2849338014
 40
0.3170078274
 40
0.3490931225
 40
0.3811675283
 40
0.4132090962
 40
0.4451965119
 40
0.4771095115
 40
0.5089292827
 40
0.5406388458
 40
0.5722234075
 40
0.6036706813
 40
0.6349711679
 40
0.6661183875
 40
0.6971090579
 40
0.7279432122
 40
0.7586242475
 40
0.7891589026
 40
0.8195571573
 40
0.8498320547
 40
0.8649308931
 40
0.8800050545
 40
0.9100832586
 40
0.9400926739
 40
0.9550812746
 40
0.9700610358
 40
1.0
 40
1.0
 40
1.0
 40
1.0
 10
9.8093710963
 20
9.9744773847
 30
0.0
 10
9.8126850479
 20
9.9742475614
 30
0.0
 10
9.8193149395
 20
9.9735442021
 30
0.0
 10
9.8291793865
 20
9.9717724692
 30
0.0
 10
9.8389381948
 20
9.9692907434
 30
0.0
 10
9.8485386134
 20
9.9661124555
 30
0.0
 10
9.8579296739
 20
9.962254584
 30
0.0
 10
9.8670612715
 20
9.9577377938
 30
0.0
 10
9.8758847626
 20
9.9525862103
 30
0.0
 10
9.8843531304
 20
9.9468273446
 30
0.0
 10
9.8924212554
 20
9.9404919239
 30
0.0
 10
9.9000461475
 20
9.9336137384
 30
0.0
 10
9.9071871734
 20
9.9262294587
 30
0.0
 10
9.9138062712
 20
9.9183784438
 30
0.0
 10
9.9198681507
 20
9.9101025326
 30
0.0
 10
9.9253404803
 20
9.9014458233
 30
0.0
 10
9.9301940577
 20
9.8924544415
 30
0.0
 10
9.9344029649
 20
9.8831762966
 30
0.0
 10
9.9379447057
 20
9.8736608304
 30
0.0
 10
9.940800326
 20
9.8639587564
 30
0.0
 10
9.9429545151
 20
9.8541217935
 30
0.0
 10
9.9443956898
 20
9.8442023941
 30
0.0
 10
9.9451160577
 20
9.8342534675
 30
0.0
 10
9.9451116637
 20
9.8243281036
 30
0.0
 10
9.9443824109
 20
9.8144792829
 30
0.0
 10
9.9429320853
 20
9.8047596334
 30
0.0
 10
9.940768271
 20
9.7952210089
 30
0.0
 10
9.9379025789
 20
9.785914739
 30
0.0
 10
9.9349389788
 20
9.7783865113
 30
0.0
 10
9.932234534
 20
9.7725321535
 30
0.0
 10
9.9293159286
 20
9.7668050837
 30
0.0
 10
9.9252636034
 20
9.7598778972
 30
0.0
 10
9.9206900772
 20
9.7532942363
 30
0.0
 10
9.9167379031
 20
9.7482618316
 30
0.0
 10
9.9125971618
 20
9.7433937128
 30
0.0
 10
9.9092797229
 20
9.7399280141
 30
0.0
 10
9.9069829024
 20
9.737709458
 30
0.0
  0
SPLINE
  5
427
100
AcDbEntity
  8
0
100
AcDbSpline
 62
7
  6
CONTINUOUS
 70
0
 71
3
 72
41
 73
37
 74
0
 42
0.0000001
 43
0.0000001
 44
0.0000000001
 40
0.0
 40
0.0
 40
0.0
 40
0.0
 40
0.031144444
 40
0.0624425093
 40
0.0938872508
 40
0.1254695847
 40
0.1571771078
 40
0.1889951283
 40
0.2209066801
 40
0.2528929859
 40
0.2849338014
 40
0.3170078274
 40
0.3490931225
 40
0.3811675283
 40
0.4132090962
 40
0.4451965119
 40
0.4771095115
 40
0.5089292827
 40
0.5406388458
 40
0.5722234075
 40
0.6036706813
 40
0.6349711679
 40
0.6661183875
 40
0.6971090579
 40
0.7279432122
 40
0.7586242475
 40
0.7891589026
 40
0.8195571573
 40
0.8498320547
 40
0.8649308931
 40
0.8800050545
 40
0.9100832586
 40
0.9400926739
 40
0.9550812746
 40
0.9700610358
 40
1.0
 40
1.0
 40
1.0
 40
1.0
 10
9.8093710963
 20
7.9218848822
 30
0.0
 10
9.8126850479
 20
7.9216550589
 30
0.0
 10
9.8193149395
 20
7.9209516996
 30
0.0
 10
9.8291793865
 20
7.9191799667
 30
0.0
 10
9.8389381948
 20
7.9166982409
 30
0.0
 10
9.8485386134
 20
7.9135199531
 30
0.0
 10
9.8579296739
 20
7.9096620815
 30
0.0
 10
9.8670612715
 20
7.9051452913
 30
0.0
 10
9.8758847626
 20
7.8999937078
 30
0.0
 10
9.8843531304
 20
7.8942348421
 30
0.0
 10
9.8924212554
 20
7.8878994214
 30
0.0
 10
9.9000461475
 20
7.8810212359
 30
0.0
 10
9.9071871734
 20
7.8736369562
 30
0.0
 10
9.9138062712
 20
7.8657859414
 30
0.0
 10
9.9198681507
 20
7.8575100301
 30
0.0
 10
9.9253404803
 20
7.8488533208
 30
0.0
 10
9.9301940577
 20
7.839861939
 30
0.0
 10
9.9344029649
 20
7.8305837941
 30
0.0
 10
9.9379447057
 20
7.8210683279
 30
0.0
 10
9.940800326
 20
7.8113662539
 30
0.0
 10
9.9429545151
 20
7.801529291
 30
0.0
 10
9.9443956898
 20
7.7916098916
 30
0.0
 10
9.9451160577
 20
7.781660965
 30
0.0
 10
9.9451116637
 20
7.7717356012
 30
0.0
 10
9.9443824109
 20
7.7618867804
 30
0.0
 10
9.9429320853
 20
7.752167131
 30
0.0
 10
9.940768271
 20
7.7426285064
 30
0.0
 10
9.9379025789
 20
7.7333222365
 30
0.0
 10
9.9349389788
 20
7.7257940088
 30
0.0
 10
9.932234534
 20
7.719939651
 30
0.0
 10
9.9293159286
 20
7.7142125813
 30
0.0
 10
9.9252636034
 20
7.7072853947
 30
0.0
 10
9.9206900772
 20
7.7007017338
 30
0.0
 10
9.9167379031
 20
7.6956693292
 30
0.0
 10
9.9125971618
 20
7.6908012103
 30
0.0
 10
9.9092797229
 20
7.6873355117
 30
0.0
 10
9.9069829024
 20
7.6851169555
 30
0.0
  0
SPLINE
  5
428
100
AcDbEntity
  8
0
100
AcDbSpline
 62
7
  6
CONTINUOUS
 70
0
 71
3
 72
41
 73
37
 74
0
 42
0.0000001
 43
0.0000001
 44
0.0000000001
 40
0.0
 40
0.0
 40
0.0
 40
0.0
 40
0.031144444
 40
0.0624425093
 40
0.0938872508
 40
0.1254695847
 40
0.1571771078
 40
0.1889951283
 40
0.2209066801
 40
0.2528929859
 40
0.2849338014
 40
0.3170078274
 40
0.3490931225
 40
0.3811675283
 40
0.4132090962
 40
0.4451965119
 40
0.4771095115
 40
0.5089292827
 40
0.5406388458
 40
0.5722234075
 40
0.6036706813
 40
0.6349711679
 40
0.6661183875
 40
0.6971090579
 40
0.7279432122
 40
0.7586242475
 40
0.7891589026
 40
0.8195571573
 40
0.8498320547
 40
0.8649308931
 40
0.8800050545
 40
0.9100832586
 40
0.9400926739
 40
0.9550812746
 40
0.9700610358
 40
1.0
 40
1.0
 40
1.0
 40
1.0
 10
11.5596286883
 20
7.8005041059
 30
0.0
 10
11.5629426399
 20
7.8002742826
 30
0.0
 10
11.5695725315
 20
7.7995709234
 30
0.0
 10
11.5794369785
 20
7.7977991905
 30
0.0
 10
11.5891957868
 20
7.7953174646
 30
0.0
 10
11.5987962054
 20
7.7921391768
 30
0.0
 10
11.6081872659
 20
7.7882813052
 30
0.0
 10
11.6173188636
 20
7.783764515
 30
0.0
 10
11.6261423546
 20
7.7786129315
 30
0.0
 10
11.6346107224
 20
7.7728540658
 30
0.0
 10
11.6426788474
 20
7.7665186451
 30
0.0
 10
11.6503037395
 20
7.7596404596
 30
0.0
 10
11.6574447655
 20
7.75225618
 30
0.0
 10
11.6640638632
 20
7.7444051651
 30
0.0
 10
11.6701257427
 20
7.7361292538
 30
0.0
 10
11.6755980723
 20
7.7274725446
 30
0.0
 10
11.6804516497
 20
7.7184811627
 30
0.0
 10
11.6846605569
 20
7.7092030179
 30
0.0
 10
11.6882022978
 20
7.6996875516
 30
0.0
 10
11.691057918
 20
7.6899854776
 30
0.0
 10
11.6932121071
 20
7.6801485147
 30
0.0
 10
11.6946532818
 20
7.6702291153
 30
0.0
 10
11.6953736497
 20
7.6602801887
 30
0.0
 10
11.6953692557
 20
7.6503548249
 30
0.0
 10
11.6946400029
 20
7.6405060042
 30
0.0
 10
11.6931896773
 20
7.6307863547
 30
0.0
 10
11.6910258631
 20
7.6212477301
 30
0.0
 10
11.6881601709
 20
7.6119414602
 30
0.0
 10
11.6851965709
 20
7.6044132325
 30
0.0
 10
11.682492126
 20
7.5985588747
 30
0.0
 10
11.6795735206
 20
7.592831805
 30
0.0
 10
11.6755211954
 20
7.5859046184
 30
0.0
 10
11.6709476692
 20
7.5793209575
 30
0.0
 10
11.6669954952
 20
7.5742885529
 30
0.0
 10
11.6628547539
 20
7.569420434
 30
0.0
 10
11.6595373149
 20
7.5659547354
 30
0.0
 10
11.6572404944
 20
7.5637361792
 30
0.0
  0
SPLINE
  5
429
100
AcDbEntity
  8
0
100
AcDbSpline
 62
7
  6
CONTINUOUS
 70
0
 71
3
 72
41
 73
37
 74
0
 42
0.0000001
 43
0.0000001
 44
0.0000000001
 40
0.0
 40
0.0
 40
0.0
 40
0.0
 40
0.031144444
 40
0.0624425093
 40
0.0938872508
 40
0.1254695847
 40
0.1571771078
 40
0.1889951283
 40
0.2209066801
 40
0.2528929859
 40
0.2849338014
 40
0.3170078274
 40
0.3490931225
 40
0.3811675283
 40
0.4132090962
 40
0.4451965119
 40
0.4771095115
 40
0.5089292827
 40
0.5406388458
 40
0.5722234075
 40
0.6036706813
 40
0.6349711679
 40
0.6661183875
 40
0.6971090579
 40
0.7279432122
 40
0.7586242475
 40
0.7891589026
 40
0.8195571573
 40
0.8498320547
 40
0.8649308931
 40
0.8800050545
 40
0.9100832586
 40
0.9400926739
 40
0.9550812746
 40
0.9700610358
 40
1.0
 40
1.0
 40
1.0
 40
1.0
 10
11.5596286883
 20
9.8530966084
 30
0.0
 10
11.5629426399
 20
9.8528667851
 30
0.0
 10
11.5695725315
 20
9.8521634259
 30
0.0
 10
11.5794369785
 20
9.850391693
 30
0.0
 10
11.5891957868
 20
9.8479099671
 30
0.0
 10
11.5987962054
 20
9.8447316793
 30
0.0
 10
11.6081872659
 20
9.8408738077
 30
0.0
 10
11.6173188636
 20
9.8363570175
 30
0.0
 10
11.6261423546
 20
9.831205434
 30
0.0
 10
11.6346107224
 20
9.8254465683
 30
0.0
 10
11.6426788474
 20
9.8191111476
 30
0.0
 10
11.6503037395
 20
9.8122329621
 30
0.0
 10
11.6574447655
 20
9.8048486825
 30
0.0
 10
11.6640638632
 20
9.7969976676
 30
0.0
 10
11.6701257427
 20
9.7887217563
 30
0.0
 10
11.6755980723
 20
9.7800650471
 30
0.0
 10
11.6804516497
 20
9.7710736652
 30
0.0
 10
11.6846605569
 20
9.7617955203
 30
0.0
 10
11.6882022978
 20
9.7522800541
 30
0.0
 10
11.691057918
 20
9.7425779801
 30
0.0
 10
11.6932121071
 20
9.7327410172
 30
0.0
 10
11.6946532818
 20
9.7228216178
 30
0.0
 10
11.6953736497
 20
9.7128726912
 30
0.0
 10
11.6953692557
 20
9.7029473274
 30
0.0
 10
11.6946400029
 20
9.6930985066
 30
0.0
 10
11.6931896773
 20
9.6833788572
 30
0.0
 10
11.6910258631
 20
9.6738402326
 30
0.0
 10
11.6881601709
 20
9.6645339627
 30
0.0
 10
11.6851965709
 20
9.657005735
 30
0.0
 10
11.682492126
 20
9.6511513772
 30
0.0
 10
11.6795735206
 20
9.6454243075
 30
0.0
 10
11.6755211954
 20
9.6384971209
 30
0.0
 10
11.6709476692
 20
9.63191346
 30
0.0
 10
11.6669954952
 20
9.6268810554
 30
0.0
 10
11.6628547539
 20
9.6220129365
 30
0.0
 10
11.6595373149
 20
9.6185472379
 30
0.0
 10
11.6572404944
 20
9.6163286817
 30
0.0
  0
SPLINE
  5
42A
100
AcDbEntity
  8
0
100
AcDbSpline
 62
7
  6
CONTINUOUS
 70
0
 71
3
 72
41
 73
37
 74
0
 42
0.0000001
 43
0.0000001
 44
0.0000000001
 40
0.0
 40
0.0
 40
0.0
 40
0.0
 40
0.0326783315
 40
0.048996403
 40
0.0652946017
 40
0.0978181138
 40
0.1302353576
 40
0.1464017532
 40
0.1625360873
 40
0.194698348
 40
0.2267186638
 40
0.2585920543
 40
0.2903168616
 40
0.3218944728
 40
0.3533289785
 40
0.3846267946
 40
0.4157962772
 40
0.4468473524
 40
0.4777911832
 40
0.5086398683
 40
0.5394061766
 40
0.5701033246
 40
0.6007447935
 40
0.6313441823
 40
0.6619150943
 40
0.6924710566
 40
0.7230254423
 40
0.753591394
 40
0.7841817767
 40
0.8148091391
 40
0.8454856746
 40
0.8762231621
 40
0.9070328993
 40
0.9379256437
 40
0.9689115357
 40
1.0
 40
1.0
 40
1.0
 40
1.0
 10
10.1488608692
 20
9.5589923343
 30
0.0
 10
10.1461476058
 20
9.5626533186
 30
0.0
 10
10.1422720233
 20
9.568289207
 30
0.0
 10
10.1375189976
 20
9.5760567202
 30
0.0
 10
10.1330548348
 20
9.5839694314
 30
0.0
 10
10.12801613
 20
9.59412672
 30
0.0
 10
10.1237152911
 20
9.6045978282
 30
0.0
 10
10.120731924
 20
9.6131167442
 30
0.0
 10
10.118059893
 20
9.6217011063
 30
0.0
 10
10.1152938058
 20
9.6325641066
 30
0.0
 10
10.1128949289
 20
9.6457526126
 30
0.0
 10
10.1114141999
 20
9.6590141541
 30
0.0
 10
10.110840461
 20
9.6722836067
 30
0.0
 10
10.1111572174
 20
9.6855001901
 30
0.0
 10
10.1123437881
 20
9.6986071244
 30
0.0
 10
10.114376144
 20
9.7115518854
 30
0.0
 10
10.1172277304
 20
9.7242860905
 30
0.0
 10
10.1208701676
 20
9.7367653233
 30
0.0
 10
10.1252738405
 20
9.7489488592
 30
0.0
 10
10.1304083785
 20
9.7607993425
 30
0.0
 10
10.1362430296
 20
9.7722824307
 30
0.0
 10
10.1427469349
 20
9.7833664317
 30
0.0
 10
10.1498893187
 20
9.7940219465
 30
0.0
 10
10.1576396033
 20
9.8042215297
 30
0.0
 10
10.1659674635
 20
9.8139393727
 30
0.0
 10
10.1748428241
 20
9.823151015
 30
0.0
 10
10.1842358127
 20
9.831833081
 30
0.0
 10
10.1941166753
 20
9.8399630428
 30
0.0
 10
10.204455653
 20
9.8475190189
 30
0.0
 10
10.2152228354
 20
9.8544796068
 30
0.0
 10
10.2263879798
 20
9.8608237441
 30
0.0
 10
10.2379203241
 20
9.8665306117
 30
0.0
 10
10.2497882978
 20
9.8715795525
 30
0.0
 10
10.2619595243
 20
9.8759500937
 30
0.0
 10
10.274399646
 20
9.8796217751
 30
0.0
 10
10.2828354831
 20
9.8815871133
 30
0.0
 10
10.2870844669
 20
9.8824470028
 30
0.0
  0
SPLINE
  5
42B
100
AcDbEntity
  8
0
100
AcDbSpline
 62
7
  6
CONTINUOUS
 70
0
 71
3
 72
29
 73
25
 74
0
 42
0.0000001
 43
0.0000001
 44
0.0000000001
 40
0.0
 40
0.0
 40
0.0
 40
0.0
 40
0.0319896515
 40
0.0638667936
 40
0.0956288807
 40
0.1272824526
 40
0.1588323674
 40
0.190284944
 40
0.2216477519
 40
0.2529290912
 40
0.2841379685
 40
0.315283475
 40
0.3463751749
 40
0.3774225668
 40
0.4394044785
 40
0.5013174375
 40
0.5632246059
 40
0.6251806686
 40
0.6872316618
 40
0.7494154587
 40
0.8117626066
 40
0.8742972978
 40
0.9370383331
 40
1.0
 40
1.0
 40
1.0
 40
1.0
 10
10.9587013234
 20
9.125411079
 30
0.0
 10
10.9587013234
 20
9.1229719001
 30
0.0
 10
10.9585741609
 20
9.1181011417
 30
0.0
 10
10.958000828
 20
9.1108288883
 30
0.0
 10
10.9570481854
 20
9.1036221818
 30
0.0
 10
10.9557214651
 20
9.0965003336
 30
0.0
 10
10.9540277079
 20
9.0894810494
 30
0.0
 10
10.9519756892
 20
9.082581206
 30
0.0
 10
10.9495755634
 20
9.0758163994
 30
0.0
 10
10.9468388691
 20
9.0692008103
 30
0.0
 10
10.9437781429
 20
9.0627471837
 30
0.0
 10
10.9404065992
 20
9.0564669248
 30
0.0
 10
10.9367380228
 20
9.0503697448
 30
0.0
 10
10.9314734581
 20
9.0425014389
 30
0.0
 10
10.9242166827
 20
9.0331554042
 30
0.0
 10
10.9145455478
 20
9.022778464
 30
0.0
 10
10.9040239467
 20
9.0132694285
 30
0.0
 10
10.8927558349
 20
9.0046436058
 30
0.0
 10
10.8808367236
 20
8.9969059892
 30
0.0
 10
10.8683540716
 20
8.9900552144
 30
0.0
 10
10.8553874578
 20
8.9840854946
 30
0.0
 10
10.8420089819
 20
8.978988382
 30
0.0
 10
10.8282851537
 20
8.9747542706
 30
0.0
 10
10.8189610915
 20
8.9725038579
 30
0.0
 10
10.8142624959
 20
8.9715187003
 30
0.0
  0
SPLINE
  5
42C
100
AcDbEntity
  8
0
100
AcDbSpline
 62
7
  6
CONTINUOUS
 70
0
 71
3
 72
15
 73
11
 74
0
 42
0.0000001
 43
0.0000001
 44
0.0000000001
 40
0.0
 40
0.0
 40
0.0
 40
0.0
 40
0.1239292876
 40
0.247984899
 40
0.3722686287
 40
0.4968724334
 40
0.6218809595
 40
0.7473671169
 40
0.873391276
 40
1.0
 40
1.0
 40
1.0
 40
1.0
 10
11.4730036404
 20
8.5427217717
 30
0.0
 10
11.469378698
 20
8.5393482199
 30
0.0
 10
11.4618490769
 20
8.5328874834
 30
0.0
 10
11.4498049225
 20
8.5241323131
 30
0.0
 10
11.4370745187
 20
8.5163554561
 30
0.0
 10
11.4237323582
 20
8.5095987759
 30
0.0
 10
11.4098552872
 20
8.5038957935
 30
0.0
 10
11.3955224834
 20
8.4992729942
 30
0.0
 10
11.38081607
 20
8.4957496483
 30
0.0
 10
11.3708385212
 20
8.4941452817
 30
0.0
 10
11.365817367
 20
8.4935281453
 30
0.0
  0
SPLINE
  5
42D
100
AcDbEntity
  8
0
100
AcDbSpline
 62
7
  6
CONTINUOUS
 70
0
 71
3
 72
35
 73
31
 74
0
 42
0.0000001
 43
0.0000001
 44
0.0000000001
 40
0.0
 40
0.0
 40
0.0
 40
0.0
 40
0.0308953602
 40
0.0464099139
 40
0.0619651956
 40
0.0931879215
 40
0.1245548515
 40
0.1402896588
 40
0.1560535304
 40
0.1876533142
 40
0.2193382686
 40
0.2510870694
 40
0.282879062
 40
0.3146948176
 40
0.3465164849
 40
0.3783279646
 40
0.441842258
 40
0.4735446175
 40
0.5051899459
 40
0.5682606008
 40
0.5996919225
 40
0.6310413048
 40
0.6934634769
 40
0.7555213129
 40
0.7864168049
 40
0.8172169623
 40
0.8785147734
 40
0.9090289423
 40
0.9394494622
 40
1.0
 40
1.0
 40
1.0
 40
1.0
 10
10.7443872889
 20
8.5666383946
 30
0.0
 10
10.7482632706
 20
8.5663695944
 30
0.0
 10
10.7540726342
 20
8.5657279153
 30
0.0
 10
10.7617541731
 20
8.564408966
 30
0.0
 10
10.7694181081
 20
8.5627778437
 30
0.0
 10
10.7789029387
 20
8.5601664858
 30
0.0
 10
10.7881808857
 20
8.5568299076
 30
0.0
 10
10.7954613162
 20
8.5537443695
 30
0.0
 10
10.802650732
 20
8.5503826004
 30
0.0
 10
10.8114237205
 20
8.5456884331
 30
0.0
 10
10.8215530723
 20
8.539329263
 30
0.0
 10
10.8312551664
 20
8.5322948872
 30
0.0
 10
10.8404980049
 20
8.524642353
 30
0.0
 10
10.8492568743
 20
8.5164278922
 30
0.0
 10
10.857513395
 20
8.5077054112
 30
0.0
 10
10.867826179
 20
8.4954772126
 30
0.0
 10
10.8770986686
 20
8.4824242531
 30
0.0
 10
10.8852998783
 20
8.4687338188
 30
0.0
 10
10.8927739886
 20
8.4546959789
 30
0.0
 10
10.8991896835
 20
8.4401555242
 30
0.0
 10
10.9045400099
 20
8.4252560313
 30
0.0
 10
10.9091704183
 20
8.4102019237
 30
0.0
 10
10.9136435796
 20
8.391093537
 30
0.0
 10
10.916378932
 20
8.371718706
 30
0.0
 10
10.9175192874
 20
8.3561930856
 30
0.0
 10
10.9179630229
 20
8.3407282114
 30
0.0
 10
10.9173695832
 20
8.3252954478
 30
0.0
 10
10.9157280901
 20
8.3100071472
 30
0.0
 10
10.9133965443
 20
8.2949047074
 30
0.0
 10
10.910855589
 20
8.2837266876
 30
0.0
 10
10.9088059617
 20
8.2763931013
 30
0.0
  0
SPLINE
  5
42E
100
AcDbEntity
  8
0
100
AcDbSpline
 62
7
  6
CONTINUOUS
 70
0
 71
3
 72
39
 73
35
 74
0
 42
0.0000001
 43
0.0000001
 44
0.0000000001
 40
0.0
 40
0.0
 40
0.0
 40
0.0
 40
0.0299152276
 40
0.0598232082
 40
0.0897580414
 40
0.1197507397
 40
0.1498295507
 40
0.1800183099
 40
0.210335989
 40
0.2407964731
 40
0.2714087065
 40
0.3021770837
 40
0.3331019838
 40
0.364180364
 40
0.3954063499
 40
0.4267717808
 40
0.4582666863
 40
0.4898796867
 40
0.5215983153
 40
0.5534092695
 40
0.5852986006
 40
0.61725185
 40
0.6492541454
 40
0.6812902654
 40
0.7133446832
 40
0.7454015989
 40
0.7774449685
 40
0.8094585417
 40
0.8414259165
 40
0.8733306249
 40
0.9051562603
 40
0.936886663
 40
0.9685061781
 40
1.0
 40
1.0
 40
1.0
 40
1.0
 10
10.1488608692
 20
8.0188573679
 30
0.0
 10
10.1519860129
 20
8.0226406399
 30
0.0
 10
10.1585930502
 20
8.0299189868
 30
0.0
 10
10.1694774931
 20
8.0398639468
 30
0.0
 10
10.1812459289
 20
8.0487677363
 30
0.0
 10
10.1938004258
 20
8.0565751721
 30
0.0
 10
10.2070391275
 20
8.0632474354
 30
0.0
 10
10.2208576991
 20
8.0687595452
 30
0.0
 10
10.2351522392
 20
8.0730998726
 30
0.0
 10
10.2498212966
 20
8.0762684221
 30
0.0
 10
10.2647674468
 20
8.0782751295
 30
0.0
 10
10.2798983196
 20
8.0791380431
 30
0.0
 10
10.2951271706
 20
8.0788816006
 30
0.0
 10
10.3103730654
 20
8.0775350746
 30
0.0
 10
10.3255607689
 20
8.0751312383
 30
0.0
 10
10.3406204226
 20
8.0717052702
 30
0.0
 10
10.3554870812
 20
8.0672938914
 30
0.0
 10
10.370100167
 20
8.0619347184
 30
0.0
 10
10.3844028844
 20
8.0556658067
 30
0.0
 10
10.3983416272
 20
8.0485253604
 30
0.0
 10
10.4118653992
 20
8.0405515838
 30
0.0
 10
10.4249252638
 20
8.0317826522
 30
0.0
 10
10.4374738312
 20
8.0222567866
 30
0.0
 10
10.4494647904
 20
8.0120124177
 30
0.0
 10
10.4608524916
 20
8.0010884281
 30
0.0
 10
10.471591582
 20
7.9895244667
 30
0.0
 10
10.4816367039
 20
7.9773613303
 30
0.0
 10
10.4909422604
 20
7.9646414053
 30
0.0
 10
10.4994622604
 20
7.9514091792
 30
0.0
 10
10.5071502662
 20
7.9377117692
 30
0.0
 10
10.5139594221
 20
7.9235996415
 30
0.0
 10
10.5198427404
 20
7.9091268353
 30
0.0
 10
10.5247531061
 20
7.8943531836
 30
0.0
 10
10.5273533368
 20
7.8843224359
 30
0.0
 10
10.5284748531
 20
7.8792795955
 30
0.0
  0
SPLINE
  5
42F
100
AcDbEntity
  8
0
100
AcDbSpline
 62
7
  6
CONTINUOUS
 70
0
 71
3
 72
11
 73
7
 74
0
 42
0.0000001
 43
0.0000001
 44
0.0000000001
 40
0.0
 40
0.0
 40
0.0
 40
0.0
 40
0.2486310942
 40
0.4997467994
 40
0.7509809199
 40
1.0
 40
1.0
 40
1.0
 40
1.0
 10
10.3253443421
 20
9.8797404694
 30
0.0
 10
10.3211154093
 20
9.8802704171
 30
0.0
 10
10.3125760057
 20
9.8810436642
 30
0.0
 10
10.2996972774
 20
9.8813448535
 30
0.0
 10
10.2868200298
 20
9.8808078118
 30
0.0
 10
10.278285111
 20
9.8799142883
 30
0.0
 10
10.2740549572
 20
9.8793422279
 30
0.0
  0
SPLINE
  5
430
100
AcDbEntity
  8
0
100
AcDbSpline
 62
7
  6
CONTINUOUS
 70
0
 71
3
 72
9
 73
5
 74
0
 42
0.0000001
 43
0.0000001
 44
0.0000000001
 40
0.0
 40
0.0
 40
0.0
 40
0.0
 40
0.2450757125
 40
1.0
 40
1.0
 40
1.0
 40
1.0
 10
10.4641554175
 20
9.7597385089
 30
0.0
 10
10.4642308183
 20
9.7606549997
 30
0.0
 10
10.4644952563
 20
9.7643981424
 30
0.0
 10
10.4645946664
 20
9.7681522169
 30
0.0
 10
10.4645939518
 20
9.7709848873
 30
0.0
  0
SPLINE
  5
431
100
AcDbEntity
  8
0
100
AcDbSpline
 62
7
  6
CONTINUOUS
 70
0
 71
3
 72
18
 73
14
 74
0
 42
0.0000001
 43
0.0000001
 44
0.0000000001
 40
0.0
 40
0.0
 40
0.0
 40
0.0
 40
0.158815694
 40
0.3110099942
 40
0.4554026435
 40
0.590545149
 40
0.7146905489
 40
0.7720174393
 40
0.8258067144
 40
0.8757745705
 40
0.9216390696
 40
0.9631265233
 40
1.0
 40
1.0
 40
1.0
 40
1.0
 10
10.4589376658
 20
9.5813004722
 30
0.0
 10
10.4593772679
 20
9.5824366951
 30
0.0
 10
10.4602076333
 20
9.5846737374
 30
0.0
 10
10.4613287246
 20
9.5879829322
 30
0.0
 10
10.4622963099
 20
9.591150877
 30
0.0
 10
10.4631045576
 20
9.594140807
 30
0.0
 10
10.4636540744
 20
9.596507342
 30
0.0
 10
10.4640049268
 20
9.5982777756
 30
0.0
 10
10.4642164651
 20
9.5994953686
 30
0.0
 10
10.4643825755
 20
9.6006312102
 30
0.0
 10
10.4645025329
 20
9.6016779709
 30
0.0
 10
10.4645757318
 20
9.6026283409
 30
0.0
 10
10.4645942259
 20
9.6032295179
 30
0.0
 10
10.464593942
 20
9.6035123798
 30
0.0
  0
SPLINE
  5
432
100
AcDbEntity
  8
0
100
AcDbSpline
 62
7
  6
CONTINUOUS
 70
0
 71
3
 72
35
 73
31
 74
0
 42
0.0000001
 43
0.0000001
 44
0.0000000001
 40
0.0
 40
0.0
 40
0.0
 40
0.0
 40
0.0325177194
 40
0.0649921539
 40
0.0974085241
 40
0.1297579252
 40
0.1620298296
 40
0.1942156978
 40
0.2263082793
 40
0.2583016512
 40
0.2901912634
 40
0.3219739387
 40
0.3536479822
 40
0.385212937
 40
0.4166694454
 40
0.4480193678
 40
0.4792655946
 40
0.5104117668
 40
0.5724051232
 40
0.6340605898
 40
0.6647851397
 40
0.695444326
 40
0.7260451141
 40
0.7565947697
 40
0.8175549967
 40
0.8783988574
 40
0.9088028131
 40
0.939199383
 40
0.9695948306
 40
1.0
 40
1.0
 40
1.0
 40
1.0
 10
10.3384293378
 20
9.7740868748
 30
0.0
 10
10.3404306944
 20
9.7713864887
 30
0.0
 10
10.344290502
 20
9.7658837182
 30
0.0
 10
10.3496357404
 20
9.7573459856
 30
0.0
 10
10.3545186892
 20
9.7485552774
 30
0.0
 10
10.358926334
 20
9.7395402991
 30
0.0
 10
10.3628483979
 20
9.7303296144
 30
0.0
 10
10.3662770976
 20
9.720952435
 30
0.0
 10
10.3692071899
 20
9.711437873
 30
0.0
 10
10.3716357894
 20
9.7018147659
 30
0.0
 10
10.3735622498
 20
9.6921114247
 30
0.0
 10
10.3749880335
 20
9.6823554149
 30
0.0
 10
10.3759165584
 20
9.6725733789
 30
0.0
 10
10.3763529107
 20
9.6627909019
 30
0.0
 10
10.3763036257
 20
9.653032397
 30
0.0
 10
10.3757766088
 20
9.6433211442
 30
0.0
 10
10.374780776
 20
9.6336788536
 30
0.0
 10
10.372844553
 20
9.6209642191
 30
0.0
 10
10.3693063682
 20
9.6053338427
 30
0.0
 10
10.3643362071
 20
9.590145426
 30
0.0
 10
10.3595567564
 20
9.578355819
 30
0.0
 10
10.355586636
 20
9.5697127376
 30
0.0
 10
10.3512396046
 20
9.5612733752
 30
0.0
 10
10.3449630965
 20
9.5503186258
 30
0.0
 10
10.3362331531
 20
9.5371858397
 30
0.0
 10
10.3264012732
 20
9.5248765851
 30
0.0
 10
10.3179337032
 20
9.5155771814
 30
0.0
 10
10.3112923163
 20
9.5088833929
 30
0.0
 10
10.3043716454
 20
9.5024791278
 30
0.0
 10
10.2995800636
 20
9.4984090689
 30
0.0
 10
10.2971422068
 20
9.4964256025
 30
0.0
  0
SPLINE
  5
433
100
AcDbEntity
  8
0
100
AcDbSpline
 62
7
  6
CONTINUOUS
 70
0
 71
3
 72
37
 73
33
 74
0
 42
0.0000001
 43
0.0000001
 44
0.0000000001
 40
0.0
 40
0.0
 40
0.0
 40
0.0
 40
0.0821185298
 40
0.1230201074
 40
0.1637697479
 40
0.2446666926
 40
0.3245569464
 40
0.3640423256
 40
0.4031632057
 40
0.480117236
 40
0.5550242398
 40
0.6273628073
 40
0.6964498176
 40
0.7295088922
 40
0.7613989538
 40
0.7919689995
 40
0.8210539798
 40
0.848479057
 40
0.8740675217
 40
0.8976510397
 40
0.9190823999
 40
0.9382495222
 40
0.9469626024
 40
0.9550900482
 40
0.9626332934
 40
0.9695962056
 40
0.9759889585
 40
0.9818237875
 40
0.9871179706
 40
0.9918938631
 40
0.9961770113
 40
1.0
 40
1.0
 40
1.0
 40
1.0
 10
10.4879829483
 20
9.8043547041
 30
0.0
 10
10.4909489738
 20
9.80035267
 30
0.0
 10
10.4951543855
 20
9.7941752163
 30
0.0
 10
10.5002387896
 20
9.7856383916
 30
0.0
 10
10.5049400378
 20
9.7769683411
 30
0.0
 10
10.5101156785
 20
9.7658772979
 30
0.0
 10
10.5143593973
 20
9.7544793662
 30
0.0
 10
10.5171696674
 20
9.7452825083
 30
0.0
 10
10.5195687767
 20
9.7361540957
 30
0.0
 10
10.5218545879
 20
9.7247838008
 30
0.0
 10
10.5234973391
 20
9.7112701368
 30
0.0
 10
10.5240867926
 20
9.6981483753
 30
0.0
 10
10.5237714582
 20
9.6875581944
 30
0.0
 10
10.5230751937
 20
9.6794558815
 30
0.0
 10
10.5223681333
 20
9.6737036192
 30
0.0
 10
10.5214900327
 20
9.6682191119
 30
0.0
 10
10.5204649935
 20
9.6630360226
 30
0.0
 10
10.5193197136
 20
9.6581882215
 30
0.0
 10
10.5180828607
 20
9.6537083295
 30
0.0
 10
10.5167843377
 20
9.6496259287
 30
0.0
 10
10.515454109
 20
9.6459657814
 30
0.0
 10
10.5143095974
 20
9.6432008317
 30
0.0
 10
10.513397671
 20
9.6412158368
 30
0.0
 10
10.5127443838
 20
9.6398885849
 30
0.0
 10
10.5121024685
 20
9.6386746922
 30
0.0
 10
10.5114741922
 20
9.63757332
 30
0.0
 10
10.5108615129
 20
9.6365831717
 30
0.0
 10
10.5102660744
 20
9.6357023468
 30
0.0
 10
10.5096891225
 20
9.634928584
 30
0.0
 10
10.5091315564
 20
9.6342592044
 30
0.0
 10
10.5085940487
 20
9.6336912396
 30
0.0
 10
10.5082294948
 20
9.6333602239
 30
0.0
 10
10.508050478
 20
9.6332128059
 30
0.0
  0
SPLINE
  5
434
100
AcDbEntity
  8
0
100
AcDbSpline
 62
7
  6
CONTINUOUS
 70
0
 71
3
 72
17
 73
13
 74
0
 42
0.0000001
 43
0.0000001
 44
0.0000000001
 40
0.0
 40
0.0
 40
0.0
 40
0.0
 40
0.0626642104
 40
0.125338177
 40
0.1880086363
 40
0.2506775206
 40
0.3759632943
 40
0.5011867402
 40
0.6262893053
 40
0.7511946167
 40
0.8758066027
 40
1.0
 40
1.0
 40
1.0
 40
1.0
 10
10.6942596662
 20
8.1954254811
 30
0.0
 10
10.6921796446
 20
8.1961582308
 30
0.0
 10
10.6880575398
 20
8.1977350061
 30
0.0
 10
10.6820056822
 20
8.2004161686
 30
0.0
 10
10.6760952944
 20
8.2033968936
 30
0.0
 10
10.6684182175
 20
8.2077451049
 30
0.0
 10
10.6592154396
 20
8.213839288
 30
0.0
 10
10.6488448344
 20
8.2220587705
 30
0.0
 10
10.6391570224
 20
8.2310505981
 30
0.0
 10
10.6301497871
 20
8.2406918082
 30
0.0
 10
10.6218107797
 20
8.2508725441
 30
0.0
 10
10.6166737451
 20
8.2579703282
 30
0.0
 10
10.6142100121
 20
8.2615804393
 30
0.0
  0
SPLINE
  5
435
100
AcDbEntity
  8
0
100
AcDbSpline
 62
7
  6
CONTINUOUS
 70
0
 71
3
 72
15
 73
11
 74
0
 42
0.0000001
 43
0.0000001
 44
0.0000000001
 40
0.0
 40
0.0
 40
0.0
 40
0.0
 40
0.1250082639
 40
0.2500094116
 40
0.3749992552
 40
0.4999871549
 40
0.6249770829
 40
0.749972662
 40
0.874982233
 40
1.0
 40
1.0
 40
1.0
 40
1.0
 10
10.757752474
 20
8.1911494201
 30
0.0
 10
10.7551236723
 20
8.1906046006
 30
0.0
 10
10.7498290984
 20
8.1896854744
 30
0.0
 10
10.7418141778
 20
8.1888406529
 30
0.0
 10
10.7337601556
 20
8.1885449554
 30
0.0
 10
10.7257051811
 20
8.1888069556
 30
0.0
 10
10.7176877448
 20
8.1896278815
 30
0.0
 10
10.7097458128
 20
8.1910011664
 30
0.0
 10
10.7019160281
 20
8.192913015
 30
0.0
 10
10.6967919971
 20
8.194533392
 30
0.0
 10
10.6942596662
 20
8.1954254811
 30
0.0
  0
SPLINE
  5
436
100
AcDbEntity
  8
0
100
AcDbSpline
 62
7
  6
CONTINUOUS
 70
0
 71
3
 72
38
 73
34
 74
0
 42
0.0000001
 43
0.0000001
 44
0.0000000001
 40
0.0
 40
0.0
 40
0.0
 40
0.0
 40
0.0364099392
 40
0.0728526987
 40
0.109337017
 40
0.1458756757
 40
0.1824745822
 40
0.2191364026
 40
0.2558581821
 40
0.2926299816
 40
0.3662268118
 40
0.403003852
 40
0.4396991659
 40
0.512569009
 40
0.5485829748
 40
0.5841725013
 40
0.6192126889
 40
0.6535651371
 40
0.6870804415
 40
0.7196027989
 40
0.7509768637
 40
0.781055868
 40
0.8097103912
 40
0.8368371299
 40
0.8623667021
 40
0.886270147
 40
0.9085638256
 40
0.9293129801
 40
0.9486343812
 40
0.9666980218
 40
0.9837269715
 40
0.9919400288
 40
1.0
 40
1.0
 40
1.0
 40
1.0
 10
10.6142100121
 20
8.2615804393
 30
0.0
 10
10.6124826532
 20
8.2641115406
 30
0.0
 10
10.6091796254
 20
8.2692824699
 30
0.0
 10
10.6046914564
 20
8.2773214851
 30
0.0
 10
10.6006683071
 20
8.2856150992
 30
0.0
 10
10.5971078973
 20
8.2941314315
 30
0.0
 10
10.5940046774
 20
8.3028403395
 30
0.0
 10
10.5913501877
 20
8.3117120136
 30
0.0
 10
10.5891332832
 20
8.3207178675
 30
0.0
 10
10.5867425778
 20
8.3328679639
 30
0.0
 10
10.5851702544
 20
8.3451698253
 30
0.0
 10
10.5843405606
 20
8.3575218398
 30
0.0
 10
10.5839784477
 20
8.3698355609
 30
0.0
 10
10.584266195
 20
8.3820951703
 30
0.0
 10
10.5851178558
 20
8.3942257202
 30
0.0
 10
10.5860063311
 20
8.4031583494
 30
0.0
 10
10.5871206673
 20
8.4119243673
 30
0.0
 10
10.5884348572
 20
8.4204860094
 30
0.0
 10
10.5899237925
 20
8.428803715
 30
0.0
 10
10.5915641329
 20
8.4368371702
 30
0.0
 10
10.5933352091
 20
8.444546355
 30
0.0
 10
10.5952199546
 20
8.451892983
 30
0.0
 10
10.5972057118
 20
8.4588420171
 30
0.0
 10
10.5992848291
 20
8.4653631019
 30
0.0
 10
10.6014549764
 20
8.4714317158
 30
0.0
 10
10.6037191402
 20
8.4770298624
 30
0.0
 10
10.6060853551
 20
8.4821462332
 30
0.0
 10
10.6085661204
 20
8.486775761
 30
0.0
 10
10.6111779026
 20
8.4909188407
 30
0.0
 10
10.6139395636
 20
8.4945795861
 30
0.0
 10
10.61641336
 20
8.4972662789
 30
0.0
 10
10.6184786103
 20
8.499162933
 30
0.0
 10
10.6195397997
 20
8.5000302576
 30
0.0
 10
10.6200777059
 20
8.5004435513
 30
0.0
  0
SPLINE
  5
437
100
AcDbEntity
  8
0
100
AcDbSpline
 62
7
  6
CONTINUOUS
 70
0
 71
3
 72
27
 73
23
 74
0
 42
0.0000001
 43
0.0000001
 44
0.0000000001
 40
0.0
 40
0.0
 40
0.0
 40
0.0
 40
0.0268772024
 40
0.054478056
 40
0.0827288769
 40
0.1115614336
 40
0.140908318
 40
0.1707055435
 40
0.2314201801
 40
0.2933117507
 40
0.3560704527
 40
0.4194619127
 40
0.4833109531
 40
0.547486968
 40
0.6118921669
 40
0.7410238902
 40
0.805739125
 40
0.8704790015
 40
0.902861154
 40
0.9352422687
 40
0.9676234128
 40
1.0
 40
1.0
 40
1.0
 40
1.0
 10
10.9007322956
 20
8.3409182198
 30
0.0
 10
10.9001440344
 20
8.3390757591
 30
0.0
 10
10.8988960436
 20
8.33535879
 30
0.0
 10
10.8968471824
 20
8.3297685716
 30
0.0
 10
10.8946025376
 20
8.3241024176
 30
0.0
 10
10.8921694528
 20
8.3183778778
 30
0.0
 10
10.8895543739
 20
8.3126117242
 30
0.0
 10
10.8858093315
 20
8.3048414228
 30
0.0
 10
10.880706235
 20
8.2951292925
 30
0.0
 10
10.8739650556
 20
8.2836137735
 30
0.0
 10
10.866583961
 20
8.2722663645
 30
0.0
 10
10.8585690438
 20
8.2611822144
 30
0.0
 10
10.84991898
 20
8.2504542318
 30
0.0
 10
10.8406258621
 20
8.2401761999
 30
0.0
 10
10.8273632517
 20
8.2272034784
 30
0.0
 10
10.8127775453
 20
8.215556491
 30
0.0
 10
10.7969246442
 20
8.205777468
 30
0.0
 10
10.7864914683
 20
8.2005598352
 30
0.0
 10
10.77787165
 20
8.1970096159
 30
0.0
 10
10.7712780632
 20
8.1946775848
 30
0.0
 10
10.7645711602
 20
8.1926967762
 30
0.0
 10
10.7600338239
 20
8.1916222302
 30
0.0
 10
10.757752474
 20
8.1911494201
 30
0.0
  0
SPLINE
  5
438
100
AcDbEntity
  8
0
100
AcDbSpline
 62
7
  6
CONTINUOUS
 70
0
 71
3
 72
39
 73
35
 74
0
 42
0.0000001
 43
0.0000001
 44
0.0000000001
 40
0.0
 40
0.0
 40
0.0
 40
0.0
 40
0.0761045614
 40
0.1533638414
 40
0.2310945098
 40
0.308606284
 40
0.3852117318
 40
0.4229632652
 40
0.4602356444
 40
0.4969471857
 40
0.533017899
 40
0.5683697145
 40
0.6029267318
 40
0.6366155259
 40
0.6693654831
 40
0.7011090544
 40
0.7317820724
 40
0.7613241683
 40
0.7896792262
 40
0.8167957883
 40
0.8426276049
 40
0.8671343875
 40
0.8902826946
 40
0.9120469165
 40
0.9224050883
 40
0.9324120712
 40
0.9420675339
 40
0.9513720755
 40
0.9603272196
 40
0.9689354834
 40
0.9772009228
 40
0.9851288947
 40
0.9927259654
 40
1.0
 40
1.0
 40
1.0
 40
1.0
 10
11.4819620728
 20
6.2039386531
 30
0.0
 10
11.4928852427
 20
6.2031811287
 30
0.0
 10
11.5149190396
 20
6.2019533818
 30
0.0
 10
11.5481559042
 20
6.2009604832
 30
0.0
 10
11.5816099322
 20
6.2008066568
 30
0.0
 10
11.6149630002
 20
6.2014934197
 30
0.0
 10
11.6425418107
 20
6.2027666482
 30
0.0
 10
11.6643101873
 20
6.204206541
 30
0.0
 10
11.6803355451
 20
6.2054848516
 30
0.0
 10
11.6961007755
 20
6.2069636322
 30
0.0
 10
11.7115684195
 20
6.2086393578
 30
0.0
 10
11.7267016915
 20
6.2105080084
 30
0.0
 10
11.741464612
 20
6.2125651175
 30
0.0
 10
11.7558220901
 20
6.2148057638
 30
0.0
 10
11.769740017
 20
6.2172245673
 30
0.0
 10
11.7831853399
 20
6.2198157296
 30
0.0
 10
11.7961261388
 20
6.2225730469
 30
0.0
 10
11.8085317194
 20
6.2254899133
 30
0.0
 10
11.8203726956
 20
6.2285593228
 30
0.0
 10
11.8316210611
 20
6.2317739166
 30
0.0
 10
11.8422502367
 20
6.2351260047
 30
0.0
 10
11.8522352511
 20
6.2386075767
 30
0.0
 10
11.8615525255
 20
6.2422103204
 30
0.0
 10
11.8688583796
 20
6.2453562111
 30
0.0
 10
11.8743446087
 20
6.2479341769
 30
0.0
 10
11.8782108155
 20
6.2498606263
 30
0.0
 10
11.8818944084
 20
6.2518108989
 30
0.0
 10
11.8853932279
 20
6.2537838481
 30
0.0
 10
11.8887052264
 20
6.2557782756
 30
0.0
 10
11.8918284512
 20
6.257793088
 30
0.0
 10
11.8947611325
 20
6.259827107
 30
0.0
 10
11.8975015921
 20
6.2618792405
 30
0.0
 10
11.9000480707
 20
6.2639482258
 30
0.0
 10
11.9016496054
 20
6.2653682557
 30
0.0
 10
11.9024157453
 20
6.2660811879
 30
0.0
  0
SPLINE
  5
439
100
AcDbEntity
  8
0
100
AcDbSpline
 62
7
  6
CONTINUOUS
 70
0
 71
3
 72
17
 73
13
 74
0
 42
0.0000001
 43
0.0000001
 44
0.0000000001
 40
0.0
 40
0.0
 40
0.0
 40
0.0
 40
0.1480475465
 40
0.2876832517
 40
0.4195860392
 40
0.482920882
 40
0.5446651876
 40
0.6639007805
 40
0.7785650961
 40
0.8900650781
 40
0.9451345358
 40
1.0
 40
1.0
 40
1.0
 40
1.0
 10
12.3618219421
 20
6.7087617772
 30
0.0
 10
12.3628498071
 20
6.7097546186
 30
0.0
 10
12.3647868933
 20
6.7117480228
 30
0.0
 10
12.3673913841
 20
6.7148546407
 30
0.0
 10
12.3692594955
 20
6.7174982484
 30
0.0
 10
12.370546049
 20
6.7196201579
 30
0.0
 10
12.3716696369
 20
6.7216944598
 30
0.0
 10
12.3728372854
 20
6.7243048762
 30
0.0
 10
12.3738528128
 20
6.7274880271
 30
0.0
 10
12.3743638609
 20
6.730161858
 30
0.0
 10
12.3745661075
 20
6.7322908522
 30
0.0
 10
12.3745997346
 20
6.7333523685
 30
0.0
 10
12.3745997305
 20
6.7338819725
 30
0.0
  0
SPLINE
  5
43A
100
AcDbEntity
  8
0
100
AcDbSpline
 62
7
  6
CONTINUOUS
 70
0
 71
3
 72
18
 73
14
 74
0
 42
0.0000001
 43
0.0000001
 44
0.0000000001
 40
0.0
 40
0.0
 40
0.0
 40
0.0
 40
0.0548620589
 40
0.1099280789
 40
0.165399508
 40
0.2214731255
 40
0.2783387361
 40
0.3361775086
 40
0.4554063416
 40
0.5804417492
 40
0.7123343341
 40
0.8519577333
 40
1.0
 40
1.0
 40
1.0
 40
1.0
 10
11.657
 20
10.8072685876
 30
0.0
 10
11.6569999999
 20
10.8063407203
 30
0.0
 10
11.6569410977
 20
10.8044810033
 30
0.0
 10
11.6566762951
 20
10.8016944535
 30
0.0
 10
11.6562351081
 20
10.7989095095
 30
0.0
 10
11.6556176823
 20
10.7961271883
 30
0.0
 10
11.654824257
 20
10.7933481925
 30
0.0
 10
11.6535192499
 20
10.7896111882
 30
0.0
 10
11.6514286507
 20
10.7849371963
 30
0.0
 10
11.6482466283
 20
10.7794171941
 30
0.0
 10
11.6443710975
 20
10.7739329213
 30
0.0
 10
11.6398079547
 20
10.7684898825
 30
0.0
 10
11.6364141745
 20
10.7649975114
 30
0.0
 10
11.6346133055
 20
10.7632580054
 30
0.0
  0
SPLINE
  5
43B
100
AcDbEntity
  8
0
100
AcDbSpline
 62
7
  6
CONTINUOUS
 70
0
 71
3
 72
55
 73
51
 74
0
 42
0.0000001
 43
0.0000001
 44
0.0000000001
 40
0.0
 40
0.0
 40
0.0
 40
0.0
 40
0.0077405257
 40
0.0160544501
 40
0.0249606726
 40
0.0344721687
 40
0.044595521
 40
0.0553324833
 40
0.0666807747
 40
0.0786348526
 40
0.0911862043
 40
0.1043237792
 40
0.1180344224
 40
0.1323028749
 40
0.1471122616
 40
0.162444009
 40
0.1782781527
 40
0.1945934236
 40
0.2285751811
 40
0.2641976254
 40
0.3012529971
 40
0.3395210523
 40
0.3787713176
 40
0.4187652369
 40
0.4592582441
 40
0.5000017836
 40
0.5407453086
 40
0.5812382691
 40
0.6212321052
 40
0.6604822534
 40
0.6987501673
 40
0.7358053802
 40
0.7714276421
 40
0.8054091819
 40
0.8217243075
 40
0.837558339
 40
0.8528899611
 40
0.8676991902
 40
0.8819675391
 40
0.8956779981
 40
0.9088154605
 40
0.9213666419
 40
0.9333205641
 40
0.9446687312
 40
0.9554054953
 40
0.9655287052
 40
0.975040063
 40
0.98394624
 40
0.9922596592
 40
1.0
 40
1.0
 40
1.0
 40
1.0
 10
10.4960970715
 20
10.6155449171
 30
0.0
 10
10.4953259728
 20
10.6148273772
 30
0.0
 10
10.4936660099
 20
10.6134035262
 30
0.0
 10
10.4909429325
 20
10.6113699369
 30
0.0
 10
10.4879042175
 20
10.6093670252
 30
0.0
 10
10.4845548756
 20
10.6073979819
 30
0.0
 10
10.4809000878
 20
10.6054657058
 30
0.0
 10
10.4769456591
 20
10.6035733634
 30
0.0
 10
10.4726979576
 20
10.60172395
 30
0.0
 10
10.4681638326
 20
10.5999205083
 30
0.0
 10
10.4633506427
 20
10.5981659957
 30
0.0
 10
10.4582662343
 20
10.5964632832
 30
0.0
 10
10.4529189085
 20
10.5948152231
 30
0.0
 10
10.447317427
 20
10.5932244967
 30
0.0
 10
10.4414709707
 20
10.5916937784
 30
0.0
 10
10.4353891437
 20
10.5902255844
 30
0.0
 10
10.4290819303
 20
10.5888223313
 30
0.0
 10
10.4202656733
 20
10.5870165714
 30
0.0
 10
10.4087565
 20
10.5849476772
 30
0.0
 10
10.3944021273
 20
10.5827898697
 30
0.0
 10
10.3794171795
 20
10.5809390189
 30
0.0
 10
10.3639002713
 20
10.579407495
 30
0.0
 10
10.3479534258
 20
10.5782055638
 30
0.0
 10
10.3316815983
 20
10.5773412614
 30
0.0
 10
10.3151919035
 20
10.5768203668
 30
0.0
 10
10.2985929139
 20
10.576646361
 30
0.0
 10
10.2819939312
 20
10.5768204077
 30
0.0
 10
10.2655042574
 20
10.5773413459
 30
0.0
 10
10.249232466
 20
10.5782056948
 30
0.0
 10
10.2332856706
 20
10.5794076716
 30
0.0
 10
10.2177688235
 20
10.5809392375
 30
0.0
 10
10.2027839463
 20
10.5827901246
 30
0.0
 10
10.1884296562
 20
10.5849479691
 30
0.0
 10
10.1769205621
 20
10.5870168864
 30
0.0
 10
10.1681043791
 20
10.5888226848
 30
0.0
 10
10.1617972213
 20
10.5902259476
 30
0.0
 10
10.1557154527
 20
10.591694155
 30
0.0
 10
10.1498690585
 20
10.5932249025
 30
0.0
 10
10.1442676379
 20
10.5948156218
 30
0.0
 10
10.1389203812
 20
10.5964637211
 30
0.0
 10
10.1338360373
 20
10.598166426
 30
0.0
 10
10.1290229195
 20
10.5999209627
 30
0.0
 10
10.1244888662
 20
10.601724418
 30
0.0
 10
10.1202412338
 20
10.6035738284
 30
0.0
 10
10.1162868933
 20
10.6054662075
 30
0.0
 10
10.1126321645
 20
10.6073984562
 30
0.0
 10
10.1092829028
 20
10.6093675496
 30
0.0
 10
10.1062442924
 20
10.6113704482
 30
0.0
 10
10.1035213123
 20
10.6134040003
 30
0.0
 10
10.1018614464
 20
10.6148278219
 30
0.0
 10
10.1010903878
 20
10.6155453679
 30
0.0
  0
LINE
  5
43C
100
AcDbEntity
  8
0
100
AcDbLine
 62
7
  6
CONTINUOUS
 10
10.4645939764
 20
9.7549234301
 11
10.4641554175
 21
9.7597385089
  0
SPLINE
  5
43D
100
AcDbEntity
  8
0
100
AcDbSpline
 62
7
  6
CONTINUOUS
 70
0
 71
3
 72
40
 73
36
 74
0
 42
0.0000001
 43
0.0000001
 44
0.0000000001
 40
0.0
 40
0.0
 40
0.0
 40
0.0
 40
0.0304627124
 40
0.0607944752
 40
0.0910240327
 40
0.1211834828
 40
0.1513070157
 40
0.1814296781
 40
0.2115861277
 40
0.2418094612
 40
0.2721301573
 40
0.3025751696
 40
0.3331671905
 40
0.3639240934
 40
0.3948585503
 40
0.425977814
 40
0.4572836516
 40
0.4887724116
 40
0.5204352109
 40
0.5522582284
 40
0.5842230956
 40
0.6163073772
 40
0.6484851383
 40
0.6807275939
 40
0.7130038409
 40
0.7452816651
 40
0.7775284186
 40
0.8097119545
 40
0.8418015961
 40
0.8737691392
 40
0.9055897659
 40
0.9372431202
 40
0.9530054453
 40
0.9687214111
 40
1.0
 40
1.0
 40
1.0
 40
1.0
 10
9.8274153145
 20
10.2838934188
 30
0.0
 10
9.8281151375
 20
10.2859637632
 30
0.0
 10
9.829706504
 20
10.2900327319
 30
0.0
 10
9.8326530125
 20
10.2958707851
 30
0.0
 10
9.8361287411
 20
10.3013851391
 30
0.0
 10
9.8401037961
 20
10.3065320936
 30
0.0
 10
9.8445447789
 20
10.311272363
 30
0.0
 10
9.8494148105
 20
10.3155701905
 30
0.0
 10
9.8546740832
 20
10.3193938318
 30
0.0
 10
9.8602802641
 20
10.322715589
 30
0.0
 10
9.866188917
 20
10.3255118916
 30
0.0
 10
9.8723538863
 20
10.3277633056
 30
0.0
 10
9.8787276511
 20
10.3294545181
 30
0.0
 10
9.8852616448
 20
10.3305743008
 30
0.0
 10
9.8919065443
 20
10.3311154637
 30
0.0
 10
9.8986125335
 20
10.331074809
 30
0.0
 10
9.9053295471
 20
10.33045309
 30
0.0
 10
9.9120075031
 20
10.3292549799
 30
0.0
 10
9.9185965334
 20
10.3274890496
 30
0.0
 10
9.925047218
 20
10.3251677564
 30
0.0
 10
9.9313108338
 20
10.322307436
 30
0.0
 10
9.9373396215
 20
10.318928296
 30
0.0
 10
9.943087078
 20
10.3150544013
 30
0.0
 10
9.9485082759
 20
10.3107136436
 30
0.0
 10
9.9535602122
 20
10.3059376852
 30
0.0
 10
9.9582021841
 20
10.3007618666
 30
0.0
 10
9.9623961867
 20
10.2952250716
 30
0.0
 10
9.9661073264
 20
10.2893695253
 30
0.0
 10
9.9693042367
 20
10.2832405786
 30
0.0
 10
9.9719594995
 20
10.2768862491
 30
0.0
 10
9.9740499772
 20
10.270357353
 30
0.0
 10
9.9753080011
 20
10.2648057221
 30
0.0
 10
9.9760146994
 20
10.2603307078
 30
0.0
 10
9.9765192818
 20
10.2558557902
 30
0.0
 10
9.9766724924
 20
10.2524818567
 30
0.0
 10
9.9766724924
 20
10.250237901
 30
0.0
  0
SPLINE
  5
43E
100
AcDbEntity
  8
0
100
AcDbSpline
 62
7
  6
CONTINUOUS
 70
0
 71
3
 72
15
 73
11
 74
0
 42
0.0000001
 43
0.0000001
 44
0.0000000001
 40
0.0
 40
0.0
 40
0.0
 40
0.0
 40
0.1233171148
 40
0.2468171822
 40
0.3706750007
 40
0.4950496181
 40
0.6200773069
 40
0.7458672043
 40
0.8724928123
 40
1.0
 40
1.0
 40
1.0
 40
1.0
 10
9.8459783207
 20
7.413868254
 30
0.0
 10
9.8477286433
 20
7.4155589166
 30
0.0
 10
9.8514171593
 20
7.4187567667
 30
0.0
 10
9.8574371308
 20
7.4229355129
 30
0.0
 10
9.8638877351
 20
7.4264581196
 30
0.0
 10
9.8707029227
 20
7.4292884109
 30
0.0
 10
9.8778139574
 20
7.43139829
 30
0.0
 10
9.8851492116
 20
7.4327666412
 30
0.0
 10
9.8926338085
 20
7.4333801628
 30
0.0
 10
9.8976578302
 20
7.4332821626
 30
0.0
 10
9.9001679967
 20
7.433108082
 30
0.0
  0
SPLINE
  5
43F
100
AcDbEntity
  8
0
100
AcDbSpline
 62
7
  6
CONTINUOUS
 70
0
 71
3
 72
15
 73
11
 74
0
 42
0.0000001
 43
0.0000001
 44
0.0000000001
 40
0.0
 40
0.0
 40
0.0
 40
0.0
 40
0.1233107527
 40
0.2469886945
 40
0.3711045405
 40
0.4957193577
 40
0.6208846731
 40
0.7466354229
 40
0.8730075248
 40
1.0
 40
1.0
 40
1.0
 40
1.0
 10
11.4282409808
 20
7.3156164447
 30
0.0
 10
11.4297457112
 20
7.316479655
 30
0.0
 10
11.4328264861
 20
7.3180949923
 30
0.0
 10
11.4376240467
 20
7.3201658305
 30
0.0
 10
11.4425808663
 20
7.3218774705
 30
0.0
 10
11.4476714394
 20
7.3232207461
 30
0.0
 10
11.4528698705
 20
7.3241886025
 30
0.0
 10
11.4581497828
 20
7.3247760317
 30
0.0
 10
11.4634837456
 20
7.3249797913
 30
0.0
 10
11.4670496654
 20
7.3248594862
 30
0.0
 10
11.468831926
 20
7.3247358861
 30
0.0
  0
SPLINE
  5
440
100
AcDbEntity
  8
0
100
AcDbSpline
 62
7
  6
CONTINUOUS
 70
0
 71
3
 72
30
 73
26
 74
0
 42
0.0000001
 43
0.0000001
 44
0.0000000001
 40
0.0
 40
0.0
 40
0.0
 40
0.0
 40
0.0300365906
 40
0.0601689809
 40
0.0904077223
 40
0.1207615834
 40
0.1512374416
 40
0.1818402667
 40
0.2434080716
 40
0.3054967348
 40
0.3680784811
 40
0.4310978122
 40
0.4944736758
 40
0.5581028639
 40
0.6218639493
 40
0.6856231856
 40
0.7492414786
 40
0.7809706895
 40
0.8126150135
 40
0.8441597369
 40
0.8755917655
 40
0.9068999258
 40
0.938074026
 40
0.9691103351
 40
1.0
 40
1.0
 40
1.0
 40
1.0
 10
11.100673534
 20
7.4606916988
 30
0.0
 10
11.1021436658
 20
7.4613508039
 30
0.0
 10
11.1051333977
 20
7.4625736645
 30
0.0
 10
11.1097356048
 20
7.4641123223
 30
0.0
 10
11.1144444747
 20
7.4653538501
 30
0.0
 10
11.1192411358
 20
7.4662946005
 30
0.0
 10
11.1241072759
 20
7.4669320078
 30
0.0
 10
11.130674406
 20
7.4673761591
 30
0.0
 10
11.1389687701
 20
7.4671622215
 30
0.0
 10
11.1488729757
 20
7.4656881259
 30
0.0
 10
11.1586046102
 20
7.4630170248
 30
0.0
 10
11.1680139525
 20
7.4591837604
 30
0.0
 10
11.1769539017
 20
7.4542386804
 30
0.0
 10
11.1852791161
 20
7.4482482119
 30
0.0
 10
11.1928485915
 20
7.4412959273
 30
0.0
 10
11.199526958
 20
7.4334846883
 30
0.0
 10
11.2042521017
 20
7.4263492963
 30
0.0
 10
11.2074667734
 20
7.420339704
 30
0.0
 10
11.2095819223
 20
7.4157046607
 30
0.0
 10
11.2113914434
 20
7.4109591704
 30
0.0
 10
11.212885842
 20
7.4061239617
 30
0.0
 10
11.2140569378
 20
7.4012208453
 30
0.0
 10
11.2148984519
 20
7.3962719386
 30
0.0
 10
11.2154055139
 20
7.3913004106
 30
0.0
 10
11.2155190756
 20
7.387977713
 30
0.0
 10
11.2155190756
 20
7.3863208355
 30
0.0
  0
SPLINE
  5
441
100
AcDbEntity
  8
0
100
AcDbSpline
 62
7
  6
CONTINUOUS
 70
0
 71
3
 72
21
 73
17
 74
0
 42
0.0000001
 43
0.0000001
 44
0.0000000001
 40
0.0
 40
0.0
 40
0.0
 40
0.0
 40
0.0618613322
 40
0.1236696743
 40
0.1854573491
 40
0.2472570953
 40
0.3091015069
 40
0.3710226096
 40
0.4330513201
 40
0.495216863
 40
0.5575464417
 40
0.6200647356
 40
0.6827933944
 40
0.7457514291
 40
0.8723494796
 40
1.0
 40
1.0
 40
1.0
 40
1.0
 10
11.4072355635
 20
10.1946533152
 30
0.0
 10
11.4080980786
 20
10.1958247674
 30
0.0
 10
11.4098973817
 20
10.1981125039
 30
0.0
 10
11.4128085809
 20
10.2013636088
 30
0.0
 10
11.4159207426
 20
10.2044210984
 30
0.0
 10
11.4192228445
 20
10.2072736301
 30
0.0
 10
11.4227032616
 20
10.2099108634
 30
0.0
 10
11.4263496564
 20
10.2123231417
 30
0.0
 10
11.4301491053
 20
10.2145015562
 30
0.0
 10
11.4340880476
 20
10.2164380758
 30
0.0
 10
11.4381523903
 20
10.2181255621
 30
0.0
 10
11.4423275157
 20
10.2195577094
 30
0.0
 10
11.4465985793
 20
10.2207291907
 30
0.0
 10
11.4524098018
 20
10.2219398503
 30
0.0
 10
11.4598416748
 20
10.222778771
 30
0.0
 10
11.4658370428
 20
10.2227212502
 30
0.0
 10
11.4688316727
 20
10.2225135719
 30
0.0
  0
SPLINE
  5
442
100
AcDbEntity
  8
0
100
AcDbSpline
 62
7
  6
CONTINUOUS
 70
0
 71
3
 72
30
 73
26
 74
0
 42
0.0000001
 43
0.0000001
 44
0.0000000001
 40
0.0
 40
0.0
 40
0.0
 40
0.0
 40
0.0300365906
 40
0.0601689809
 40
0.0904077223
 40
0.1207615834
 40
0.1512374416
 40
0.1818402667
 40
0.2434080716
 40
0.3054967348
 40
0.3680784811
 40
0.4310978122
 40
0.4944736758
 40
0.5581028639
 40
0.6218639493
 40
0.6856231856
 40
0.7492414786
 40
0.7809706895
 40
0.8126150135
 40
0.8441597369
 40
0.8755917655
 40
0.9068999258
 40
0.938074026
 40
0.9691103351
 40
1.0
 40
1.0
 40
1.0
 40
1.0
 10
11.100673534
 20
10.1169878497
 30
0.0
 10
11.1021436658
 20
10.1176469548
 30
0.0
 10
11.1051333977
 20
10.1188698154
 30
0.0
 10
11.1097356048
 20
10.1204084732
 30
0.0
 10
11.1144444747
 20
10.121650001
 30
0.0
 10
11.1192411358
 20
10.1225907514
 30
0.0
 10
11.1241072759
 20
10.1232281587
 30
0.0
 10
11.130674406
 20
10.12367231
 30
0.0
 10
11.1389687701
 20
10.1234583724
 30
0.0
 10
11.1488729757
 20
10.1219842768
 30
0.0
 10
11.1586046102
 20
10.1193131757
 30
0.0
 10
11.1680139525
 20
10.1154799113
 30
0.0
 10
11.1769539017
 20
10.1105348313
 30
0.0
 10
11.1852791161
 20
10.1045443628
 30
0.0
 10
11.1928485915
 20
10.0975920782
 30
0.0
 10
11.199526958
 20
10.0897808392
 30
0.0
 10
11.2042521017
 20
10.0826454472
 30
0.0
 10
11.2074667734
 20
10.0766358549
 30
0.0
 10
11.2095819223
 20
10.0720008116
 30
0.0
 10
11.2113914434
 20
10.0672553213
 30
0.0
 10
11.212885842
 20
10.0624201126
 30
0.0
 10
11.2140569378
 20
10.0575169962
 30
0.0
 10
11.2148984519
 20
10.0525680895
 30
0.0
 10
11.2154055139
 20
10.0475965615
 30
0.0
 10
11.2155190756
 20
10.0442738639
 30
0.0
 10
11.2155190756
 20
10.0426169864
 30
0.0
  0
SPLINE
  5
443
100
AcDbEntity
  8
0
100
AcDbSpline
 62
7
  6
CONTINUOUS
 70
0
 71
3
 72
19
 73
15
 74
0
 42
0.0000001
 43
0.0000001
 44
0.0000000001
 40
0.0
 40
0.0
 40
0.0
 40
0.0
 40
0.0616584454
 40
0.1233399317
 40
0.185067215
 40
0.2468625626
 40
0.3087474945
 40
0.3707425066
 40
0.4328668994
 40
0.4951385746
 40
0.6201443393
 40
0.7459117862
 40
0.8725152911
 40
1.0
 40
1.0
 40
1.0
 40
1.0
 10
9.7117592901
 20
9.9398201382
 30
0.0
 10
9.7133359884
 20
9.9413431104
 30
0.0
 10
9.7165725788
 20
9.9443054215
 30
0.0
 10
9.7216602498
 20
9.9484823859
 30
0.0
 10
9.7269688605
 20
9.9523832413
 30
0.0
 10
9.7324848142
 20
9.9559980381
 30
0.0
 10
9.7381943094
 20
9.9593176737
 30
0.0
 10
9.7440828732
 20
9.9623337784
 30
0.0
 10
9.7501358753
 20
9.9650388614
 30
0.0
 10
9.7584141153
 20
9.9682252941
 30
0.0
 10
9.7691051227
 20
9.971397668
 30
0.0
 10
9.7823175796
 20
9.9738622721
 30
0.0
 10
9.7957997625
 20
9.9749674857
 30
0.0
 10
9.8048495244
 20
9.9747909568
 30
0.0
 10
9.8093710963
 20
9.9744773847
 30
0.0
  0
SPLINE
  5
444
100
AcDbEntity
  8
0
100
AcDbSpline
 62
7
  6
CONTINUOUS
 70
0
 71
3
 72
19
 73
15
 74
0
 42
0.0000001
 43
0.0000001
 44
0.0000000001
 40
0.0
 40
0.0
 40
0.0
 40
0.0
 40
0.0616584454
 40
0.1233399317
 40
0.185067215
 40
0.2468625626
 40
0.3087474945
 40
0.3707425066
 40
0.4328668994
 40
0.4951385746
 40
0.6201443393
 40
0.7459117862
 40
0.8725152911
 40
1.0
 40
1.0
 40
1.0
 40
1.0
 10
9.7117592901
 20
7.8872276357
 30
0.0
 10
9.7133359884
 20
7.8887506079
 30
0.0
 10
9.7165725788
 20
7.891712919
 30
0.0
 10
9.7216602498
 20
7.8958898834
 30
0.0
 10
9.7269688605
 20
7.8997907388
 30
0.0
 10
9.7324848142
 20
7.9034055356
 30
0.0
 10
9.7381943094
 20
7.9067251712
 30
0.0
 10
9.7440828732
 20
7.9097412759
 30
0.0
 10
9.7501358753
 20
7.9124463589
 30
0.0
 10
9.7584141153
 20
7.9156327916
 30
0.0
 10
9.7691051227
 20
7.9188051655
 30
0.0
 10
9.7823175796
 20
7.9212697696
 30
0.0
 10
9.7957997625
 20
7.9223749832
 30
0.0
 10
9.8048495244
 20
7.9221984543
 30
0.0
 10
9.8093710963
 20
7.9218848822
 30
0.0
  0
SPLINE
  5
445
100
AcDbEntity
  8
0
100
AcDbSpline
 62
7
  6
CONTINUOUS
 70
0
 71
3
 72
19
 73
15
 74
0
 42
0.0000001
 43
0.0000001
 44
0.0000000001
 40
0.0
 40
0.0
 40
0.0
 40
0.0
 40
0.0616584454
 40
0.1233399317
 40
0.185067215
 40
0.2468625626
 40
0.3087474945
 40
0.3707425066
 40
0.4328668994
 40
0.4951385746
 40
0.6201443393
 40
0.7459117862
 40
0.8725152911
 40
1.0
 40
1.0
 40
1.0
 40
1.0
 10
11.4620168821
 20
7.7658468594
 30
0.0
 10
11.4635935804
 20
7.7673698317
 30
0.0
 10
11.4668301708
 20
7.7703321428
 30
0.0
 10
11.4719178418
 20
7.7745091071
 30
0.0
 10
11.4772264525
 20
7.7784099625
 30
0.0
 10
11.4827424062
 20
7.7820247594
 30
0.0
 10
11.4884519014
 20
7.785344395
 30
0.0
 10
11.4943404652
 20
7.7883604996
 30
0.0
 10
11.5003934673
 20
7.7910655826
 30
0.0
 10
11.5086717073
 20
7.7942520153
 30
0.0
 10
11.5193627147
 20
7.7974243892
 30
0.0
 10
11.5325751716
 20
7.7998889934
 30
0.0
 10
11.5460573545
 20
7.8009942069
 30
0.0
 10
11.5551071164
 20
7.800817678
 30
0.0
 10
11.5596286883
 20
7.8005041059
 30
0.0
  0
SPLINE
  5
446
100
AcDbEntity
  8
0
100
AcDbSpline
 62
7
  6
CONTINUOUS
 70
0
 71
3
 72
19
 73
15
 74
0
 42
0.0000001
 43
0.0000001
 44
0.0000000001
 40
0.0
 40
0.0
 40
0.0
 40
0.0
 40
0.0616584454
 40
0.1233399317
 40
0.185067215
 40
0.2468625626
 40
0.3087474945
 40
0.3707425066
 40
0.4328668994
 40
0.4951385746
 40
0.6201443393
 40
0.7459117862
 40
0.8725152911
 40
1.0
 40
1.0
 40
1.0
 40
1.0
 10
11.4620168821
 20
9.8184393619
 30
0.0
 10
11.4635935804
 20
9.8199623342
 30
0.0
 10
11.4668301708
 20
9.8229246452
 30
0.0
 10
11.4719178418
 20
9.8271016096
 30
0.0
 10
11.4772264525
 20
9.831002465
 30
0.0
 10
11.4827424062
 20
9.8346172619
 30
0.0
 10
11.4884519014
 20
9.8379368975
 30
0.0
 10
11.4943404652
 20
9.8409530021
 30
0.0
 10
11.5003934673
 20
9.8436580851
 30
0.0
 10
11.5086717073
 20
9.8468445178
 30
0.0
 10
11.5193627147
 20
9.8500168917
 30
0.0
 10
11.5325751716
 20
9.8524814958
 30
0.0
 10
11.5460573545
 20
9.8535867094
 30
0.0
 10
11.5551071164
 20
9.8534101805
 30
0.0
 10
11.5596286883
 20
9.8530966084
 30
0.0
  0
SPLINE
  5
447
100
AcDbEntity
  8
0
100
AcDbSpline
 62
7
  6
CONTINUOUS
 70
0
 71
3
 72
26
 73
22
 74
0
 42
0.0000001
 43
0.0000001
 44
0.0000000001
 40
0.0
 40
0.0
 40
0.0
 40
0.0
 40
0.0606590247
 40
0.0910863557
 40
0.1215787865
 40
0.1827577362
 40
0.2442147435
 40
0.3059565661
 40
0.3679851562
 40
0.4302969678
 40
0.4928822873
 40
0.5557246534
 40
0.6188004423
 40
0.6820787178
 40
0.7137876153
 40
0.7455324592
 40
0.8090951289
 40
0.8727281872
 40
0.9045597028
 40
0.9363888714
 40
1.0
 40
1.0
 40
1.0
 40
1.0
 10
10.3574708187
 20
9.4824607428
 30
0.0
 10
10.3528235639
 20
9.4815202531
 30
0.0
 10
10.3457973062
 20
9.4803305876
 30
0.0
 10
10.3363605559
 20
9.4791977551
 30
0.0
 10
10.326851306
 20
9.4783672354
 30
0.0
 10
10.3148813894
 20
9.477909333
 30
0.0
 10
10.3004645137
 20
9.4783082667
 30
0.0
 10
10.2860396381
 20
9.4796745643
 30
0.0
 10
10.2716740655
 20
9.4820247699
 30
0.0
 10
10.2574392349
 20
9.4853712655
 30
0.0
 10
10.2434112907
 20
9.4897211898
 30
0.0
 10
10.2296704275
 20
9.4950753565
 30
0.0
 10
10.2163009838
 20
9.5014265553
 30
0.0
 10
10.2055469768
 20
9.5075339536
 30
0.0
 10
10.1972157924
 20
9.5128969397
 30
0.0
 10
10.1890717153
 20
9.5185790246
 30
0.0
 10
10.1792883512
 20
9.5262565791
 30
0.0
 10
10.1701087602
 20
9.5346571216
 30
0.0
 10
10.1631634455
 20
9.5417852416
 30
0.0
 10
10.1564977486
 20
9.5491725055
 30
0.0
 10
10.151821474
 20
9.5549976144
 30
0.0
 10
10.1488608692
 20
9.5589923343
 30
0.0
  0
SPLINE
  5
448
100
AcDbEntity
  8
0
100
AcDbSpline
 62
7
  6
CONTINUOUS
 70
0
 71
3
 72
23
 73
19
 74
0
 42
0.0000001
 43
0.0000001
 44
0.0000000001
 40
0.0
 40
0.0
 40
0.0
 40
0.0
 40
0.0717970627
 40
0.1426841506
 40
0.2125395385
 40
0.2812712112
 40
0.3488136678
 40
0.4151229075
 40
0.480170256
 40
0.5439355345
 40
0.6063992611
 40
0.6675338589
 40
0.78554917
 40
0.8422644214
 40
0.8971748886
 40
0.9499358981
 40
0.975353823
 40
1.0
 40
1.0
 40
1.0
 40
1.0
 10
10.3421888412
 20
9.47988249
 30
0.0
 10
10.345883328
 20
9.4809103973
 30
0.0
 10
10.3531671098
 20
9.4831704647
 30
0.0
 10
10.363795188
 20
9.4871781816
 30
0.0
 10
10.3740149624
 20
9.4917486305
 30
0.0
 10
10.3837837157
 20
9.4968409193
 30
0.0
 10
10.3930676394
 20
9.5024112723
 30
0.0
 10
10.4018403591
 20
9.5084140101
 30
0.0
 10
10.4100822371
 20
9.5148025288
 30
0.0
 10
10.4177790509
 20
9.521529494
 30
0.0
 10
10.4249214749
 20
9.5285477037
 30
0.0
 10
10.4335923166
 20
9.5381128535
 30
0.0
 10
10.4412525641
 20
9.5481550983
 30
0.0
 10
10.4478374164
 20
9.5585090187
 30
0.0
 10
10.4521318691
 20
9.5661727004
 30
0.0
 10
10.4552587646
 20
9.5725610741
 30
0.0
 10
10.4574606988
 20
9.5775930652
 30
0.0
 10
10.4584626659
 20
9.5800727581
 30
0.0
 10
10.4589376658
 20
9.5813004722
 30
0.0
  0
SPLINE
  5
449
100
AcDbEntity
  8
0
100
AcDbSpline
 62
7
  6
CONTINUOUS
 70
0
 71
3
 72
15
 73
11
 74
0
 42
0.0000001
 43
0.0000001
 44
0.0000000001
 40
0.0
 40
0.0
 40
0.0
 40
0.0
 40
0.1232165248
 40
0.2471300805
 40
0.3716834729
 40
0.4967891624
 40
0.6223292631
 40
0.7481579422
 40
0.874107302
 40
1.0
 40
1.0
 40
1.0
 40
1.0
 10
10.2110784541
 20
9.8517371735
 30
0.0
 10
10.2172559777
 20
9.8506450527
 30
0.0
 10
10.22955619
 20
9.8479048468
 30
0.0
 10
10.2476062595
 20
9.8421398724
 30
0.0
 10
10.2651435629
 20
9.8347075564
 30
0.0
 10
10.2819839442
 20
9.8256306673
 30
0.0
 10
10.2979402702
 20
9.8149576604
 30
0.0
 10
10.3128257505
 20
9.8027656225
 30
0.0
 10
10.3264591171
 20
9.7891641604
 30
0.0
 10
10.3346129078
 20
9.779236385
 30
0.0
 10
10.3384293378
 20
9.7740868748
 30
0.0
  0
SPLINE
  5
44A
100
AcDbEntity
  8
0
100
AcDbSpline
 62
7
  6
CONTINUOUS
 70
0
 71
3
 72
37
 73
33
 74
0
 42
0.0000001
 43
0.0000001
 44
0.0000000001
 40
0.0
 40
0.0
 40
0.0
 40
0.0
 40
0.0005259981
 40
0.0011501255
 40
0.0018812718
 40
0.0027262588
 40
0.004778968
 40
0.0073458699
 40
0.0104578746
 40
0.0141426961
 40
0.0184266055
 40
0.0233336648
 40
0.028885393
 40
0.0351021586
 40
0.049591183
 40
0.0668889787
 40
0.0870141264
 40
0.1099090837
 40
0.1354438407
 40
0.1634295952
 40
0.1936390267
 40
0.2258278397
 40
0.259753102
 40
0.3319097127
 40
0.4085596671
 40
0.4885184334
 40
0.5709071202
 40
0.6550628686
 40
0.7404624917
 40
0.8266698567
 40
0.9133000122
 40
1.0
 40
1.0
 40
1.0
 40
1.0
 10
10.3197062053
 20
9.8822714726
 30
0.0
 10
10.3197325748
 20
9.8822927605
 30
0.0
 10
10.3197942903
 20
9.8823342928
 30
0.0
 10
10.3199020435
 20
9.882390135
 30
0.0
 10
10.3200330418
 20
9.8824446688
 30
0.0
 10
10.3202543015
 20
9.8825205813
 30
0.0
 10
10.3205955583
 20
9.882608995
 30
0.0
 10
10.3210846533
 20
9.8827043211
 30
0.0
 10
10.3216814043
 20
9.882794039
 30
0.0
 10
10.3223905377
 20
9.8828773859
 30
0.0
 10
10.3232166866
 20
9.8829535667
 30
0.0
 10
10.3241641696
 20
9.8830215793
 30
0.0
 10
10.3252370291
 20
9.8830799709
 30
0.0
 10
10.3269275334
 20
9.8831465757
 30
0.0
 10
10.3293759842
 20
9.8831910254
 30
0.0
 10
10.3327208831
 20
9.8831727179
 30
0.0
 10
10.336605926
 20
9.8830622351
 30
0.0
 10
10.341017396
 20
9.8828337501
 30
0.0
 10
10.3459270667
 20
9.8824591282
 30
0.0
 10
10.3512943553
 20
9.8819097051
 30
0.0
 10
10.3570697821
 20
9.8811577122
 30
0.0
 10
10.3631989631
 20
9.8801774573
 30
0.0
 10
10.3719497233
 20
9.8785008955
 30
0.0
 10
10.3833990134
 20
9.875716653
 30
0.0
 10
10.3974558336
 20
9.8712420599
 30
0.0
 10
10.4117564107
 20
9.8654913452
 30
0.0
 10
10.4260004052
 20
9.8584284336
 30
0.0
 10
10.4399268382
 20
9.8500525541
 30
0.0
 10
10.4533036138
 20
9.840395293
 30
0.0
 10
10.4659232968
 20
9.8295196389
 30
0.0
 10
10.4775996807
 20
9.8175205233
 30
0.0
 10
10.4846568497
 20
9.808842582
 30
0.0
 10
10.4879829483
 20
9.8043547041
 30
0.0
  0
SPLINE
  5
44B
100
AcDbEntity
  8
0
100
AcDbSpline
 62
7
  6
CONTINUOUS
 70
0
 71
3
 72
31
 73
27
 74
0
 42
0.0000001
 43
0.0000001
 44
0.0000000001
 40
0.0
 40
0.0
 40
0.0
 40
0.0
 40
0.0606400987
 40
0.1216521758
 40
0.1830426664
 40
0.2448102268
 40
0.3069462711
 40
0.3694345582
 40
0.4322498805
 40
0.4953556608
 40
0.5587001995
 40
0.6222122916
 40
0.6540149575
 40
0.685822394
 40
0.7176182187
 40
0.7493842218
 40
0.7811005408
 40
0.8127460307
 40
0.8442988669
 40
0.8600364113
 40
0.87574291
 40
0.9070468078
 40
0.93819841
 40
0.9537154105
 40
0.9691898419
 40
1.0
 40
1.0
 40
1.0
 40
1.0
 10
10.6745120821
 20
9.3090289152
 30
0.0
 10
10.6820783483
 20
9.310615339
 30
0.0
 10
10.6974210282
 20
9.3130622424
 30
0.0
 10
10.7207370097
 20
9.3145896728
 30
0.0
 10
10.7442405712
 20
9.3140150936
 30
0.0
 10
10.7677433269
 20
9.3113559555
 30
0.0
 10
10.7910604362
 20
9.3066209746
 30
0.0
 10
10.8139982144
 20
9.2998101474
 30
0.0
 10
10.8363470759
 20
9.290917784
 30
0.0
 10
10.8578731821
 20
9.2799361949
 30
0.0
 10
10.8783068236
 20
9.2668650566
 30
0.0
 10
10.8941659644
 20
9.2542423613
 30
0.0
 10
10.9059728837
 20
9.2431302433
 30
0.0
 10
10.9143421096
 20
9.2342945769
 30
0.0
 10
10.9221660193
 20
9.2249783499
 30
0.0
 10
10.9293888865
 20
9.2152023339
 30
0.0
 10
10.9359526771
 20
9.2049940043
 30
0.0
 10
10.9417984615
 20
9.1943887471
 30
0.0
 10
10.9460274757
 20
9.185246774
 30
0.0
 10
10.9489939763
 20
9.1777817287
 30
0.0
 10
10.9516690781
 20
9.1702410441
 30
0.0
 10
10.9544636224
 20
9.1606654203
 30
0.0
 10
10.9564930091
 20
9.1509228645
 30
0.0
 10
10.9576357706
 20
9.1430812657
 30
0.0
 10
10.9584529581
 20
9.1352433577
 30
0.0
 10
10.9587013234
 20
9.1293389566
 30
0.0
 10
10.9587013234
 20
9.125411079
 30
0.0
  0
SPLINE
  5
44C
100
AcDbEntity
  8
0
100
AcDbSpline
 62
7
  6
CONTINUOUS
 70
0
 71
3
 72
41
 73
37
 74
0
 42
0.0000001
 43
0.0000001
 44
0.0000000001
 40
0.0
 40
0.0
 40
0.0
 40
0.0
 40
0.0307612732
 40
0.0616953804
 40
0.092802775
 40
0.1240794373
 40
0.1555172559
 40
0.171295896
 40
0.1871101118
 40
0.2188318225
 40
0.2506704418
 40
0.2666301242
 40
0.2826114606
 40
0.3146228824
 40
0.3466872012
 40
0.3787807953
 40
0.410879588
 40
0.4429594391
 40
0.4749965339
 40
0.5069677765
 40
0.5388511922
 40
0.5706263471
 40
0.6022747894
 40
0.6337805095
 40
0.665130413
 40
0.6963147936
 40
0.7273277878
 40
0.7581677799
 40
0.7888377386
 40
0.8193454414
 40
0.8497035413
 40
0.8799294426
 40
0.9100449431
 40
0.9400757863
 40
0.9700502916
 40
1.0
 40
1.0
 40
1.0
 40
1.0
 10
11.2704771253
 20
8.9231068415
 30
0.0
 10
11.2761510685
 20
8.9238042104
 30
0.0
 10
11.2875950521
 20
8.9247253792
 30
0.0
 10
11.3048593986
 20
8.9246937372
 30
0.0
 10
11.3221614316
 20
8.923265338
 30
0.0
 10
11.3393877974
 20
8.9204612752
 30
0.0
 10
11.3535757459
 20
8.917005948
 30
0.0
 10
11.3647823617
 20
8.9135891533
 30
0.0
 10
11.3759019312
 20
8.9097343846
 30
0.0
 10
11.3895588422
 20
8.9041214387
 30
0.0
 10
11.402788087
 20
8.8975041358
 30
0.0
 10
11.4130850927
 20
8.8916293667
 30
0.0
 10
11.4231895665
 20
8.8853681706
 30
0.0
 10
11.4354046406
 20
8.8768503019
 30
0.0
 10
11.4493063773
 20
8.8655950466
 30
0.0
 10
11.462383203
 20
8.8533668024
 30
0.0
 10
11.4745596825
 20
8.8402380256
 30
0.0
 10
11.485765227
 20
8.8262847404
 30
0.0
 10
11.4959333438
 20
8.8115869872
 30
0.0
 10
11.5050019757
 20
8.796228672
 30
0.0
 10
11.5129136431
 20
8.7802976122
 30
0.0
 10
11.5196157516
 20
8.7638855392
 30
0.0
 10
11.5250609571
 20
8.7470880849
 30
0.0
 10
11.529207639
 20
8.7300047225
 30
0.0
 10
11.5320204608
 20
8.7127386358
 30
0.0
 10
11.5334710147
 20
8.6953964871
 30
0.0
 10
11.5335385249
 20
8.6780880625
 30
0.0
 10
11.5322106261
 20
8.6609257639
 30
0.0
 10
11.5294841178
 20
8.6440239252
 30
0.0
 10
11.5253656811
 20
8.6274979474
 30
0.0
 10
11.5198725439
 20
8.6114632597
 30
0.0
 10
11.5130329444
 20
8.5960340738
 30
0.0
 10
11.5048866687
 20
8.5813221137
 30
0.0
 10
11.4954845473
 20
8.5674347255
 30
0.0
 10
11.4848904179
 20
8.554475056
 30
0.0
 10
11.4770780109
 20
8.5465135836
 30
0.0
 10
11.4730036404
 20
8.5427217717
 30
0.0
  0
SPLINE
  5
44D
100
AcDbEntity
  8
0
100
AcDbSpline
 62
7
  6
CONTINUOUS
 70
0
 71
3
 72
23
 73
19
 74
0
 42
0.0000001
 43
0.0000001
 44
0.0000000001
 40
0.0
 40
0.0
 40
0.0
 40
0.0
 40
0.0628363452
 40
0.125457911
 40
0.1878821642
 40
0.2501312969
 40
0.3122330306
 40
0.3742214579
 40
0.4361378287
 40
0.4980311302
 40
0.559958242
 40
0.6219833792
 40
0.6841763612
 40
0.7466094625
 40
0.8093531169
 40
0.8724702401
 40
0.9360088877
 40
1.0
 40
1.0
 40
1.0
 40
1.0
 10
10.579968616
 20
8.4335588674
 30
0.0
 10
10.5812616003
 20
8.4381851777
 30
0.0
 10
10.5841297907
 20
8.4473448458
 30
0.0
 10
10.589292298
 20
8.460758216
 30
0.0
 10
10.5953125489
 20
8.4737611258
 30
0.0
 10
10.6021937942
 20
8.4862851429
 30
0.0
 10
10.6099374568
 20
8.4982566702
 30
0.0
 10
10.6185414391
 20
8.509595184
 30
0.0
 10
10.6279984279
 20
8.5202131277
 30
0.0
 10
10.6382936537
 20
8.5300158299
 30
0.0
 10
10.6494022365
 20
8.5389021548
 30
0.0
 10
10.6612861781
 20
8.5467660198
 30
0.0
 10
10.6738911955
 20
8.5534991222
 30
0.0
 10
10.6871439191
 20
8.5589951475
 30
0.0
 10
10.7009498046
 20
8.5631553814
 30
0.0
 10
10.7151937158
 20
8.5658951894
 30
0.0
 10
10.7297388968
 20
8.5671516622
 30
0.0
 10
10.7395071346
 20
8.5669768345
 30
0.0
 10
10.7443872889
 20
8.5666383946
 30
0.0
  0
SPLINE
  5
44E
100
AcDbEntity
  8
0
100
AcDbSpline
 62
7
  6
CONTINUOUS
 70
0
 71
3
 72
21
 73
17
 74
0
 42
0.0000001
 43
0.0000001
 44
0.0000000001
 40
0.0
 40
0.0
 40
0.0
 40
0.0
 40
0.1279736829
 40
0.2550838576
 40
0.318318015
 40
0.3813189028
 40
0.4440856599
 40
0.5066205374
 40
0.5689292432
 40
0.631021129
 40
0.6929092509
 40
0.7546102802
 40
0.8161449444
 40
0.8775358601
 40
0.9388125282
 40
1.0
 40
1.0
 40
1.0
 40
1.0
 10
10.1160804324
 20
7.8634060869
 30
0.0
 10
10.1145570443
 20
7.8702559234
 30
0.0
 10
10.1121645467
 20
7.8840622276
 30
0.0
 10
10.1109052688
 20
7.9015031681
 30
0.0
 10
10.110994062
 20
7.9154002234
 30
0.0
 10
10.1116149713
 20
7.9257504054
 30
0.0
 10
10.1127979444
 20
7.9360129127
 30
0.0
 10
10.1145484666
 20
7.9461557555
 30
0.0
 10
10.1168697693
 20
7.9561456032
 30
0.0
 10
10.1197625054
 20
7.9659484577
 30
0.0
 10
10.1232245093
 20
7.9755298186
 30
0.0
 10
10.127250529
 20
7.9848551303
 30
0.0
 10
10.1318321098
 20
7.9938900024
 30
0.0
 10
10.1369575646
 20
8.0026011188
 30
0.0
 10
10.1426115759
 20
8.0109554581
 30
0.0
 10
10.1467241382
 20
8.0162706596
 30
0.0
 10
10.1488608692
 20
8.0188573679
 30
0.0
  0
SPLINE
  5
44F
100
AcDbEntity
  8
0
100
AcDbSpline
 62
7
  6
CONTINUOUS
 70
0
 71
3
 72
14
 73
10
 74
0
 42
0.0000001
 43
0.0000001
 44
0.0000000001
 40
0.0
 40
0.0
 40
0.0
 40
0.0
 40
0.217669346
 40
0.3340950525
 40
0.45601538
 40
0.5836011331
 40
0.7168786217
 40
0.8557531763
 40
1.0
 40
1.0
 40
1.0
 40
1.0
 10
10.9070226067
 20
8.3833831092
 30
0.0
 10
10.9073001104
 20
8.3802616112
 30
0.0
 10
10.9073706099
 20
8.375434334
 30
0.0
 10
10.906898955
 20
8.3688846033
 30
0.0
 10
10.9062415464
 20
8.363654722
 30
0.0
 10
10.9052926096
 20
8.3582242615
 30
0.0
 10
10.9040567646
 20
8.3526017242
 30
0.0
 10
10.9025389451
 20
8.3468006994
 30
0.0
 10
10.9013639427
 20
8.3428965672
 30
0.0
 10
10.9007322956
 20
8.3409182198
 30
0.0
  0
SPLINE
  5
450
100
AcDbEntity
  8
0
100
AcDbSpline
 62
7
  6
CONTINUOUS
 70
0
 71
3
 72
18
 73
14
 74
0
 42
0.0000001
 43
0.0000001
 44
0.0000000001
 40
0.0
 40
0.0
 40
0.0
 40
0.0
 40
0.0544283445
 40
0.1090738848
 40
0.1641509678
 40
0.2198686475
 40
0.3339693981
 40
0.4529160294
 40
0.5146381007
 40
0.5780380279
 40
0.7103448746
 40
0.8507621281
 40
1.0
 40
1.0
 40
1.0
 40
1.0
 10
9.6263661954
 20
6.4287364694
 30
0.0
 10
9.6263661997
 20
6.4281877007
 30
0.0
 10
9.6264023088
 20
6.4270876338
 30
0.0
 10
9.6265646065
 20
6.4254394697
 30
0.0
 10
9.6268350375
 20
6.4237922952
 30
0.0
 10
9.6273434889
 20
6.4215812294
 30
0.0
 10
9.6282598872
 20
6.4188098196
 30
0.0
 10
9.6295130734
 20
6.416108185
 30
0.0
 10
9.6307183983
 20
6.4139618249
 30
0.0
 10
9.6321002873
 20
6.4117636484
 30
0.0
 10
9.6341067238
 20
6.4090263673
 30
0.0
 10
9.6369014216
 20
6.4058133123
 30
0.0
 10
9.6389772884
 20
6.403755193
 30
0.0
 10
9.6400787885
 20
6.4027301321
 30
0.0
  0
SPLINE
  5
451
100
AcDbEntity
  8
0
100
AcDbSpline
 62
7
  6
CONTINUOUS
 70
0
 71
3
 72
31
 73
27
 74
0
 42
0.0000001
 43
0.0000001
 44
0.0000000001
 40
0.0
 40
0.0
 40
0.0
 40
0.0
 40
0.0165871091
 40
0.0341536703
 40
0.0527302526
 40
0.0723385666
 40
0.0929932951
 40
0.1147026719
 40
0.1374699173
 40
0.1612934054
 40
0.1861678307
 40
0.2120841024
 40
0.2390303392
 40
0.2669915909
 40
0.2959507237
 40
0.3258880358
 40
0.3567820684
 40
0.3886091614
 40
0.4549583764
 40
0.5247169311
 40
0.5976414593
 40
0.6734690209
 40
0.7519196486
 40
0.8326984863
 40
0.9154981136
 40
1.0
 40
1.0
 40
1.0
 40
1.0
 10
9.6699448255
 20
6.3749366387
 30
0.0
 10
9.670970543
 20
6.3739820932
 30
0.0
 10
9.6731461224
 20
6.3720841873
 30
0.0
 10
9.6766617581
 20
6.3693459805
 30
0.0
 10
9.6805177488
 20
6.3666390841
 30
0.0
 10
9.6847099727
 20
6.3639662274
 30
0.0
 10
9.689234252
 20
6.3613300882
 30
0.0
 10
9.6940859194
 20
6.3587332784
 30
0.0
 10
9.6992600212
 20
6.3561785264
 30
0.0
 10
9.7047511964
 20
6.3536684058
 30
0.0
 10
9.7105537772
 20
6.3512055989
 30
0.0
 10
9.7166617202
 20
6.3487926117
 30
0.0
 10
9.7230686789
 20
6.3464320432
 30
0.0
 10
9.7297679572
 20
6.3441263072
 30
0.0
 10
9.7367525652
 20
6.3418778955
 30
0.0
 10
9.7440151856
 20
6.3396891179
 30
0.0
 10
9.751548229
 20
6.3375623195
 30
0.0
 10
9.7620888959
 20
6.3347734803
 30
0.0
 10
9.7758871494
 20
6.3314697684
 30
0.0
 10
9.7931694093
 20
6.3278388546
 30
0.0
 10
9.8113257785
 20
6.3245040559
 30
0.0
 10
9.8302800798
 20
6.3214795323
 30
0.0
 10
9.8499528976
 20
6.3187781652
 30
0.0
 10
9.8702617206
 20
6.3164114332
 30
0.0
 10
9.8911212141
 20
6.3143894029
 30
0.0
 10
9.9052114947
 20
6.3132866771
 30
0.0
 10
9.9123325121
 20
6.3127928329
 30
0.0
  0
SPLINE
  5
452
100
AcDbEntity
  8
0
100
AcDbSpline
 62
7
  6
CONTINUOUS
 70
0
 71
3
 72
40
 73
36
 74
0
 42
0.0000001
 43
0.0000001
 44
0.0000000001
 40
0.0
 40
0.0
 40
0.0
 40
0.0
 40
0.0312686878
 40
0.0627080934
 40
0.094308462
 40
0.1260578954
 40
0.1579396317
 40
0.1899341802
 40
0.2220191899
 40
0.2541702707
 40
0.2863615338
 40
0.318566248
 40
0.35075747
 40
0.3829086764
 40
0.4149943751
 40
0.4469906908
 40
0.478875916
 40
0.5106310187
 40
0.5422400979
 40
0.573690781
 40
0.6049745535
 40
0.636087013
 40
0.6670280378
 40
0.6978018607
 40
0.7284170407
 40
0.7588863223
 40
0.789226381
 40
0.8194574499
 40
0.8496028325
 40
0.8646548204
 40
0.8796952278
 40
0.909748366
 40
0.939797764
 40
0.9698722387
 40
1.0
 40
1.0
 40
1.0
 40
1.0
 10
11.4688316727
 20
7.1732214427
 30
0.0
 10
11.4668010034
 20
7.1733622701
 30
0.0
 10
11.4627381728
 20
7.1738097593
 30
0.0
 10
11.456702736
 20
7.1749674734
 30
0.0
 10
11.450746911
 20
7.1766058779
 30
0.0
 10
11.444910221
 20
7.1787137835
 30
0.0
 10
11.4392305866
 20
7.1812770588
 30
0.0
 10
11.4337449835
 20
7.1842784664
 30
0.0
 10
11.4284889278
 20
7.1876979649
 30
0.0
 10
11.4234963113
 20
7.1915128013
 30
0.0
 10
11.4187991722
 20
7.1956977261
 30
0.0
 10
11.4144275032
 20
7.2002251776
 30
0.0
 10
11.4104090795
 20
7.2050654936
 30
0.0
 10
11.4067693061
 20
7.2101871244
 30
0.0
 10
11.403531087
 20
7.2155568525
 30
0.0
 10
11.4007147131
 20
7.2211400136
 30
0.0
 10
11.3983377667
 20
7.2269007177
 30
0.0
 10
11.3964150454
 20
7.2328020709
 30
0.0
 10
11.3949585006
 20
7.2388063944
 30
0.0
 10
11.3939771892
 20
7.2448754409
 30
0.0
 10
11.3934772366
 20
7.2509706084
 30
0.0
 10
11.3934618112
 20
7.2570531529
 30
0.0
 10
11.3939311089
 20
7.2630843996
 30
0.0
 10
11.394882346
 20
7.2690259521
 30
0.0
 10
11.3963097676
 20
7.2748399115
 30
0.0
 10
11.3982046427
 20
7.2804890644
 30
0.0
 10
11.4005553626
 20
7.2859371929
 30
0.0
 10
11.4033472104
 20
7.2911489464
 30
0.0
 10
11.4060289288
 20
7.2952699963
 30
0.0
 10
11.4083749489
 20
7.2984135086
 30
0.0
 10
11.4108497429
 20
7.30144893
 30
0.0
 10
11.4141831005
 20
7.3050380147
 30
0.0
 10
11.4185389508
 20
7.3089842528
 30
0.0
 10
11.4232221972
 20
7.3125434413
 30
0.0
 10
11.4265397591
 20
7.3146405143
 30
0.0
 10
11.4282409808
 20
7.3156164447
 30
0.0
  0
SPLINE
  5
453
100
AcDbEntity
  8
0
100
AcDbSpline
 62
7
  6
CONTINUOUS
 70
0
 71
3
 72
26
 73
22
 74
0
 42
0.0000001
 43
0.0000001
 44
0.0000000001
 40
0.0
 40
0.0
 40
0.0
 40
0.0
 40
0.0606590247
 40
0.0910863556
 40
0.1215787864
 40
0.1827577361
 40
0.2442147434
 40
0.305956566
 40
0.3679851561
 40
0.4302969677
 40
0.4928822873
 40
0.5557246535
 40
0.6188004424
 40
0.682078718
 40
0.7137876155
 40
0.7455324593
 40
0.8090951291
 40
0.8727281873
 40
0.9045597029
 40
0.9363888715
 40
1.0
 40
1.0
 40
1.0
 40
1.0
 10
10.2870844669
 20
9.8824470028
 30
0.0
 10
10.2917317219
 20
9.8833874926
 30
0.0
 10
10.29875798
 20
9.8845771581
 30
0.0
 10
10.3081947308
 20
9.8857099906
 30
0.0
 10
10.3177039812
 20
9.8865405103
 30
0.0
 10
10.3296738984
 20
9.8869984126
 30
0.0
 10
10.3440907749
 20
9.8865994787
 30
0.0
 10
10.3585156513
 20
9.8852331808
 30
0.0
 10
10.3728812246
 20
9.8828829748
 30
0.0
 10
10.387116056
 20
9.8795364787
 30
0.0
 10
10.4011440008
 20
9.8751865538
 30
0.0
 10
10.4148848646
 20
9.8698323863
 30
0.0
 10
10.4282543088
 20
9.8634811867
 30
0.0
 10
10.4390083162
 20
9.8573737876
 30
0.0
 10
10.4473395007
 20
9.8520108008
 30
0.0
 10
10.455483578
 20
9.8463287152
 30
0.0
 10
10.4652669422
 20
9.8386511598
 30
0.0
 10
10.4744465334
 20
9.8302506164
 30
0.0
 10
10.4813918479
 20
9.8231224955
 30
0.0
 10
10.4880575447
 20
9.8157352309
 30
0.0
 10
10.4927338193
 20
9.8099101214
 30
0.0
 10
10.4956944242
 20
9.8059154013
 30
0.0
  0
SPLINE
  5
454
100
AcDbEntity
  8
0
100
AcDbSpline
 62
7
  6
CONTINUOUS
 70
0
 71
3
 72
23
 73
19
 74
0
 42
0.0000001
 43
0.0000001
 44
0.0000000001
 40
0.0
 40
0.0
 40
0.0
 40
0.0
 40
0.0638442343
 40
0.1285605232
 40
0.1938701293
 40
0.2594984696
 40
0.3251847216
 40
0.3906898641
 40
0.4558019941
 40
0.5203378899
 40
0.5841416156
 40
0.647080479
 40
0.7090390063
 40
0.769910625
 40
0.8295871821
 40
0.8879443374
 40
0.9448238271
 40
1.0
 40
1.0
 40
1.0
 40
1.0
 10
10.254343803
 20
9.8731031908
 30
0.0
 10
10.258596567
 20
9.8732451556
 30
0.0
 10
10.2671718865
 20
9.8732535672
 30
0.0
 10
10.2800758493
 20
9.8724424421
 30
0.0
 10
10.2930214045
 20
9.8708045051
 30
0.0
 10
10.3059031646
 20
9.8683524961
 30
0.0
 10
10.3186231154
 20
9.8651135726
 30
0.0
 10
10.331092402
 20
9.8611268768
 30
0.0
 10
10.3432335237
 20
9.8564408284
 30
0.0
 10
10.354981024
 20
9.851110404
 30
0.0
 10
10.3662813226
 20
9.8451948216
 30
0.0
 10
10.3770918376
 20
9.8387558118
 30
0.0
 10
10.3873796479
 20
9.8318565989
 30
0.0
 10
10.3971199438
 20
9.8245617028
 30
0.0
 10
10.4062942691
 20
9.8169376746
 30
0.0
 10
10.4148890054
 20
9.809054887
 30
0.0
 10
10.4228930654
 20
9.8009913296
 30
0.0
 10
10.4279153956
 20
9.79546026
 30
0.0
 10
10.4303297478
 20
9.7926863985
 30
0.0
  0
SPLINE
  5
455
100
AcDbEntity
  8
0
100
AcDbSpline
 62
7
  6
CONTINUOUS
 70
0
 71
3
 72
41
 73
37
 74
0
 42
0.0000001
 43
0.0000001
 44
0.0000000001
 40
0.0
 40
0.0
 40
0.0
 40
0.0
 40
0.031144444
 40
0.0624425093
 40
0.0938872508
 40
0.1254695847
 40
0.1571771078
 40
0.1889951283
 40
0.2209066801
 40
0.2528929859
 40
0.2849338014
 40
0.3170078274
 40
0.3490931225
 40
0.3811675283
 40
0.4132090962
 40
0.4451965119
 40
0.4771095115
 40
0.5089292827
 40
0.5406388458
 40
0.5722234075
 40
0.6036706813
 40
0.6349711679
 40
0.6661183875
 40
0.6971090579
 40
0.7279432122
 40
0.7586242475
 40
0.7891589026
 40
0.8195571573
 40
0.8498320547
 40
0.8649308931
 40
0.8800050545
 40
0.9100832586
 40
0.9400926739
 40
0.9550812746
 40
0.9700610358
 40
1.0
 40
1.0
 40
1.0
 40
1.0
 10
9.8093710963
 20
9.7030522114
 30
0.0
 10
9.8060571446
 20
9.7032820347
 30
0.0
 10
9.799427253
 20
9.703985394
 30
0.0
 10
9.789562806
 20
9.7057571269
 30
0.0
 10
9.7798039977
 20
9.7082388527
 30
0.0
 10
9.7702035791
 20
9.7114171406
 30
0.0
 10
9.7608125186
 20
9.7152750121
 30
0.0
 10
9.751680921
 20
9.7197918024
 30
0.0
 10
9.74285743
 20
9.7249433858
 30
0.0
 10
9.7343890621
 20
9.7307022516
 30
0.0
 10
9.7263209371
 20
9.7370376722
 30
0.0
 10
9.718696045
 20
9.7439158578
 30
0.0
 10
9.7115550191
 20
9.7513001374
 30
0.0
 10
9.7049359213
 20
9.7591511523
 30
0.0
 10
9.6988740418
 20
9.7674270635
 30
0.0
 10
9.6934017122
 20
9.7760837728
 30
0.0
 10
9.6885481348
 20
9.7850751546
 30
0.0
 10
9.6843392276
 20
9.7943532995
 30
0.0
 10
9.6807974868
 20
9.8038687657
 30
0.0
 10
9.6779418666
 20
9.8135708398
 30
0.0
 10
9.6757876774
 20
9.8234078027
 30
0.0
 10
9.6743465027
 20
9.833327202
 30
0.0
 10
9.6736261348
 20
9.8432761287
 30
0.0
 10
9.6736305288
 20
9.8532014925
 30
0.0
 10
9.6743597816
 20
9.8630503132
 30
0.0
 10
9.6758101072
 20
9.8727699627
 30
0.0
 10
9.6779739215
 20
9.8823085873
 30
0.0
 10
9.6808396137
 20
9.8916148572
 30
0.0
 10
9.6838032137
 20
9.8991430848
 30
0.0
 10
9.6865076585
 20
9.9049974427
 30
0.0
 10
9.6894262639
 20
9.9107245124
 30
0.0
 10
9.6934785892
 20
9.917651699
 30
0.0
 10
9.6980521153
 20
9.9242353598
 30
0.0
 10
9.7020042894
 20
9.9292677645
 30
0.0
 10
9.7061450307
 20
9.9341358833
 30
0.0
 10
9.7094624697
 20
9.937601582
 30
0.0
 10
9.7117592901
 20
9.9398201382
 30
0.0
  0
SPLINE
  5
456
100
AcDbEntity
  8
0
100
AcDbSpline
 62
7
  6
CONTINUOUS
 70
0
 71
3
 72
39
 73
35
 74
0
 42
0.0000001
 43
0.0000001
 44
0.0000000001
 40
0.0
 40
0.0
 40
0.0
 40
0.0
 40
0.0310484294
 40
0.0622434345
 40
0.0935753096
 40
0.1250388104
 40
0.1566225435
 40
0.1883141702
 40
0.220099268
 40
0.2519617889
 40
0.2838844326
 40
0.315848889
 40
0.347836196
 40
0.379827078
 40
0.4118022672
 40
0.4437428162
 40
0.4756304104
 40
0.5074476912
 40
0.5391785419
 40
0.5708083469
 40
0.6023242325
 40
0.6337153044
 40
0.6649728579
 40
0.6960905346
 40
0.7270644503
 40
0.757893292
 40
0.7885783932
 40
0.8191237451
 40
0.849535958
 40
0.8798241748
 40
0.9099999428
 40
0.9400770392
 40
0.9700712335
 40
1.0
 40
1.0
 40
1.0
 40
1.0
 10
11.4688314304
 20
10.0709991283
 30
0.0
 10
11.4671076154
 20
10.0711186752
 30
0.0
 10
11.4636589554
 20
10.0714772404
 30
0.0
 10
11.4585238264
 20
10.0723665316
 30
0.0
 10
11.4534374459
 20
10.0736044744
 30
0.0
 10
11.4484242735
 20
10.0751848446
 30
0.0
 10
11.4435077835
 20
10.0771000908
 30
0.0
 10
11.438711165
 20
10.0793408843
 30
0.0
 10
11.434056893
 20
10.0818963837
 30
0.0
 10
11.4295667233
 20
10.0847542731
 30
0.0
 10
11.4252615647
 20
10.0879008307
 30
0.0
 10
11.4211613968
 20
10.0913210234
 30
0.0
 10
11.4172851547
 20
10.0949985549
 30
0.0
 10
11.4136506543
 20
10.0989159749
 30
0.0
 10
11.4102745358
 20
10.1030547867
 30
0.0
 10
11.4071721979
 20
10.1073955368
 30
0.0
 10
11.4043577417
 20
10.1119179101
 30
0.0
 10
11.4018438832
 20
10.1166008069
 30
0.0
 10
11.3996419473
 20
10.1214224696
 30
0.0
 10
11.3977618307
 20
10.1263605751
 30
0.0
 10
11.3962119797
 20
10.1313923324
 30
0.0
 10
11.3949993343
 20
10.1364945681
 30
0.0
 10
11.3941293054
 20
10.1416438284
 30
0.0
 10
11.3936057926
 20
10.1468164817
 30
0.0
 10
11.3934311664
 20
10.1519888066
 30
0.0
 10
11.3936062632
 20
10.1571370834
 30
0.0
 10
11.394130334
 20
10.1622376906
 30
0.0
 10
11.395001091
 20
10.1672672019
 30
0.0
 10
11.3962147091
 20
10.172202474
 30
0.0
 10
11.3977658467
 20
10.1770207444
 30
0.0
 10
11.3996476015
 20
10.1816997014
 30
0.0
 10
11.4018516166
 20
10.18621771
 30
0.0
 10
11.4043678055
 20
10.190553442
 30
0.0
 10
11.4062479962
 20
10.1933120194
 30
0.0
 10
11.4072355635
 20
10.1946533152
 30
0.0
  0
SPLINE
  5
457
100
AcDbEntity
  8
0
100
AcDbSpline
 62
7
  6
CONTINUOUS
 70
0
 71
3
 72
39
 73
35
 74
0
 42
0.0000001
 43
0.0000001
 44
0.0000000001
 40
0.0
 40
0.0
 40
0.0
 40
0.0
 40
0.076104783
 40
0.1533644547
 40
0.2310954084
 40
0.3086074569
 40
0.3852131652
 40
0.4229648022
 40
0.4602372774
 40
0.496948921
 40
0.5330197132
 40
0.5683715705
 40
0.6029286209
 40
0.6366174601
 40
0.6693674365
 40
0.7011109735
 40
0.7317839448
 40
0.7613260091
 40
0.7896810114
 40
0.8167974608
 40
0.8426291454
 40
0.8671358095
 40
0.8902839757
 40
0.9120480183
 40
0.9224060996
 40
0.9324129635
 40
0.942068336
 40
0.9513727683
 40
0.9603278223
 40
0.9689360023
 40
0.9772013001
 40
0.9851291051
 40
0.9927260409
 40
1.0
 40
1.0
 40
1.0
 40
1.0
 10
11.473938689
 20
6.2261323614
 30
0.0
 10
11.4858462862
 20
6.2253065668
 30
0.0
 10
11.5098658583
 20
6.2239681721
 30
0.0
 10
11.5460981599
 20
6.2228858004
 30
0.0
 10
11.5825672039
 20
6.2227181211
 30
0.0
 10
11.6189261678
 20
6.2234668098
 30
0.0
 10
11.6489904717
 20
6.2248547976
 30
0.0
 10
11.6727206775
 20
6.2264244905
 30
0.0
 10
11.690190281
 20
6.2278180267
 30
0.0
 10
11.7073763112
 20
6.2294300906
 30
0.0
 10
11.724237927
 20
6.2312568578
 30
0.0
 10
11.7407350245
 20
6.2332939469
 30
0.0
 10
11.756828389
 20
6.2355364756
 30
0.0
 10
11.7724797704
 20
6.2379790717
 30
0.0
 10
11.7876519764
 20
6.240615886
 30
0.0
 10
11.8023089695
 20
6.2434406057
 30
0.0
 10
11.8164159626
 20
6.2464464514
 30
0.0
 10
11.8299395018
 20
6.249626214
 30
0.0
 10
11.8428475426
 20
6.2529722693
 30
0.0
 10
11.855109546
 20
6.2564766049
 30
0.0
 10
11.8666965464
 20
6.2601308251
 30
0.0
 10
11.8775813307
 20
6.2639261876
 30
0.0
 10
11.8877381896
 20
6.2678536403
 30
0.0
 10
11.8957023565
 20
6.2712830803
 30
0.0
 10
11.9016829272
 20
6.2740933896
 30
0.0
 10
11.9058974885
 20
6.2761934785
 30
0.0
 10
11.9099129879
 20
6.2783195116
 30
0.0
 10
11.9137270529
 20
6.280470289
 30
0.0
 10
11.9173374607
 20
6.2826444787
 30
0.0
 10
11.9207420824
 20
6.2848408784
 30
0.0
 10
11.9239389697
 20
6.2870582191
 30
0.0
 10
11.9269263116
 20
6.2892952902
 30
0.0
 10
11.929702193
 20
6.291550743
 30
0.0
 10
11.9314480003
 20
6.2930987604
 30
0.0
 10
11.9322831592
 20
6.2938759519
 30
0.0
  0
SPLINE
  5
458
100
AcDbEntity
  8
0
100
AcDbSpline
 62
7
  6
CONTINUOUS
 70
0
 71
3
 72
42
 73
38
 74
0
 42
0.0000001
 43
0.0000001
 44
0.0000000001
 40
0.0
 40
0.0
 40
0.0
 40
0.0
 40
0.0056733034
 40
0.0105621206
 40
0.0148396916
 40
0.0168176051
 40
0.018725225
 40
0.020593285
 40
0.0224519588
 40
0.0262446778
 40
0.0302972767
 40
0.034739374
 40
0.0396478288
 40
0.0450628578
 40
0.0510041339
 40
0.0574754992
 40
0.0644705945
 40
0.0719811778
 40
0.0799966648
 40
0.0885032001
 40
0.1069318619
 40
0.1271708625
 40
0.1491249558
 40
0.1727228699
 40
0.1979025759
 40
0.2246217526
 40
0.2528519512
 40
0.2825769348
 40
0.3137983788
 40
0.3465251979
 40
0.4166123117
 40
0.4931927119
 40
0.5768346068
 40
0.6683288898
 40
0.768673616
 40
0.8789626245
 40
1.0
 40
1.0
 40
1.0
 40
1.0
 10
10.508050478
 20
9.6332128059
 30
0.0
 10
10.5078490756
 20
9.6330469535
 30
0.0
 10
10.5074567007
 20
9.6327578325
 30
0.0
 10
10.5068505111
 20
9.6324379392
 30
0.0
 10
10.5063558695
 20
9.6322881261
 30
0.0
 10
10.5059821891
 20
9.6322443837
 30
0.0
 10
10.5057169064
 20
9.6322458696
 30
0.0
 10
10.5054593498
 20
9.6322800622
 30
0.0
 10
10.5051241847
 20
9.6323683957
 30
0.0
 10
10.5047170561
 20
9.6325614761
 30
0.0
 10
10.5042659775
 20
9.6329070771
 30
0.0
 10
10.5038439514
 20
9.6333593121
 30
0.0
 10
10.5034468705
 20
9.6339118386
 30
0.0
 10
10.5030712038
 20
9.6345596834
 30
0.0
 10
10.5027144873
 20
9.6352985323
 30
0.0
 10
10.5023743246
 20
9.6361241158
 30
0.0
 10
10.5020483819
 20
9.6370323573
 30
0.0
 10
10.5017347952
 20
9.6380196363
 30
0.0
 10
10.5014316497
 20
9.6390825886
 30
0.0
 10
10.5010279632
 20
9.640638492
 30
0.0
 10
10.5005444883
 20
9.6427537886
 30
0.0
 10
10.4999901326
 20
9.6454861089
 30
0.0
 10
10.4994334674
 20
9.64846011
 30
0.0
 10
10.4988626992
 20
9.6516624448
 30
0.0
 10
10.4982654481
 20
9.6550826128
 30
0.0
 10
10.497630223
 20
9.658712402
 30
0.0
 10
10.4969456918
 20
9.6625457564
 30
0.0
 10
10.4962002729
 20
9.6665785039
 30
0.0
 10
10.4953826704
 20
9.6708080877
 30
0.0
 10
10.4941522957
 20
9.6768481107
 30
0.0
 10
10.4923606733
 20
9.6849021724
 30
0.0
 10
10.4897624517
 20
9.6951717026
 30
0.0
 10
10.4865461468
 20
9.7062943777
 30
0.0
 10
10.4825632116
 20
9.7183243367
 30
0.0
 10
10.4776334061
 20
9.7313196896
 30
0.0
 10
10.4715455726
 20
9.7453114737
 30
0.0
 10
10.4667848383
 20
9.7548324854
 30
0.0
 10
10.4641554175
 20
9.7597385089
 30
0.0
  0
SPLINE
  5
459
100
AcDbEntity
  8
0
100
AcDbSpline
 62
7
  6
CONTINUOUS
 70
0
 71
3
 72
26
 73
22
 74
0
 42
0.0000001
 43
0.0000001
 44
0.0000000001
 40
0.0
 40
0.0
 40
0.0
 40
0.0
 40
0.2241807406
 40
0.4218822521
 40
0.5103022079
 40
0.5914966931
 40
0.6652138975
 40
0.7312023403
 40
0.7892372032
 40
0.8391397329
 40
0.880782214
 40
0.8985070156
 40
0.9142027362
 40
0.9279478411
 40
0.9398911725
 40
0.9502967577
 40
0.9596032875
 40
0.968459615
 40
0.9776620835
 40
0.987976288
 40
1.0
 40
1.0
 40
1.0
 40
1.0
 10
10.3253443421
 20
9.8797404694
 30
0.0
 10
10.3248764765
 20
9.8798837285
 30
0.0
 10
10.3239962228
 20
9.8801540221
 30
0.0
 10
10.3229339681
 20
9.8804890783
 30
0.0
 10
10.322172624
 20
9.8807403418
 30
0.0
 10
10.3216703007
 20
9.8809128627
 30
0.0
 10
10.3212169319
 20
9.8810770349
 30
0.0
 10
10.3208145659
 20
9.881233297
 30
0.0
 10
10.3204651848
 20
9.8813820341
 30
0.0
 10
10.3201708768
 20
9.881523622
 30
0.0
 10
10.3199630453
 20
9.8816413642
 30
0.0
 10
10.31982788
 20
9.8817341419
 30
0.0
 10
10.3197473759
 20
9.8817984928
 30
0.0
 10
10.3196824135
 20
9.8818615148
 30
0.0
 10
10.3196332614
 20
9.8819234587
 30
0.0
 10
10.3196003206
 20
9.881984743
 30
0.0
 10
10.3195844807
 20
9.8820458443
 30
0.0
 10
10.3195872358
 20
9.8821064825
 30
0.0
 10
10.3196092382
 20
9.8821653264
 30
0.0
 10
10.3196497909
 20
9.882221698
 30
0.0
 10
10.3196857855
 20
9.8822549878
 30
0.0
 10
10.3197062053
 20
9.8822714726
 30
0.0
  0
SPLINE
  5
45A
100
AcDbEntity
  8
0
100
AcDbSpline
 62
7
  6
CONTINUOUS
 70
0
 71
3
 72
15
 73
11
 74
0
 42
0.0000001
 43
0.0000001
 44
0.0000000001
 40
0.0
 40
0.0
 40
0.0
 40
0.0
 40
0.1239292877
 40
0.2479848993
 40
0.3722686288
 40
0.4968724333
 40
0.6218809592
 40
0.7473671166
 40
0.8733912757
 40
1.0
 40
1.0
 40
1.0
 40
1.0
 10
11.1632908245
 20
8.8739131875
 30
0.0
 10
11.1669157681
 20
8.8772867404
 30
0.0
 10
11.1744453878
 20
8.8837474835
 30
0.0
 10
11.1864895458
 20
8.8925026572
 30
0.0
 10
11.1992199522
 20
8.900279519
 30
0.0
 10
11.2125621164
 20
8.9070362028
 30
0.0
 10
11.2264391912
 20
8.9127391883
 30
0.0
 10
11.2407719994
 20
8.9173619901
 30
0.0
 10
11.2554784175
 20
8.9208853376
 30
0.0
 10
11.2654559695
 20
8.9224897049
 30
0.0
 10
11.2704771253
 20
8.9231068415
 30
0.0
  0
SPLINE
  5
45B
100
AcDbEntity
  8
0
100
AcDbSpline
 62
7
  6
CONTINUOUS
 70
0
 71
3
 72
31
 73
27
 74
0
 42
0.0000001
 43
0.0000001
 44
0.0000000001
 40
0.0
 40
0.0
 40
0.0
 40
0.0
 40
0.0606400989
 40
0.1216521761
 40
0.183042667
 40
0.2448102277
 40
0.3069462724
 40
0.36943456
 40
0.4322498826
 40
0.4953556634
 40
0.5587002025
 40
0.6222122949
 40
0.6540149609
 40
0.6858223975
 40
0.7176182222
 40
0.7493842253
 40
0.7811005441
 40
0.8127460337
 40
0.8442988696
 40
0.8600364138
 40
0.8757429123
 40
0.9070468095
 40
0.938198411
 40
0.9537154111
 40
0.9691898422
 40
1.0
 40
1.0
 40
1.0
 40
1.0
 10
10.8142624959
 20
8.9715187003
 30
0.0
 10
10.8066962285
 20
8.9699322763
 30
0.0
 10
10.7913535462
 20
8.9674853727
 30
0.0
 10
10.7680375611
 20
8.9659579425
 30
0.0
 10
10.7445339959
 20
8.9665325226
 30
0.0
 10
10.7210312368
 20
8.9691916621
 30
0.0
 10
10.6977141241
 20
8.9739266452
 30
0.0
 10
10.6747763428
 20
8.9807374752
 30
0.0
 10
10.6524274785
 20
8.9896298419
 30
0.0
 10
10.6309013702
 20
9.0006114351
 30
0.0
 10
10.6104677271
 20
9.0136825781
 30
0.0
 10
10.5946085857
 20
9.0263052778
 30
0.0
 10
10.5828016666
 20
9.0374173995
 30
0.0
 10
10.5744324411
 20
9.0462530689
 30
0.0
 10
10.5666085321
 20
9.0555692989
 30
0.0
 10
10.5593856661
 20
9.065345318
 30
0.0
 10
10.5528218771
 20
9.0755536507
 30
0.0
 10
10.5469760946
 20
9.086158911
 30
0.0
 10
10.5427470825
 20
9.0953008866
 30
0.0
 10
10.5397805837
 20
9.1027659339
 30
0.0
 10
10.537105484
 20
9.1103066203
 30
0.0
 10
10.5343109425
 20
9.1198822463
 30
0.0
 10
10.532281559
 20
9.1296248041
 30
0.0
 10
10.5311388004
 20
9.1374664043
 30
0.0
 10
10.5303216159
 20
9.1453043137
 30
0.0
 10
10.5300732522
 20
9.1512087156
 30
0.0
 10
10.5300732522
 20
9.1551365938
 30
0.0
  0
SPLINE
  5
45C
100
AcDbEntity
  8
0
100
AcDbSpline
 62
7
  6
CONTINUOUS
 70
0
 71
3
 72
41
 73
37
 74
0
 42
0.0000001
 43
0.0000001
 44
0.0000000001
 40
0.0
 40
0.0
 40
0.0
 40
0.0
 40
0.031144444
 40
0.0624425093
 40
0.0938872508
 40
0.1254695847
 40
0.1571771078
 40
0.1889951283
 40
0.2209066801
 40
0.2528929859
 40
0.2849338014
 40
0.3170078274
 40
0.3490931225
 40
0.3811675283
 40
0.4132090962
 40
0.4451965119
 40
0.4771095115
 40
0.5089292827
 40
0.5406388458
 40
0.5722234075
 40
0.6036706813
 40
0.6349711679
 40
0.6661183875
 40
0.6971090579
 40
0.7279432122
 40
0.7586242475
 40
0.7891589026
 40
0.8195571573
 40
0.8498320547
 40
0.8649308931
 40
0.8800050545
 40
0.9100832586
 40
0.9400926739
 40
0.9550812746
 40
0.9700610358
 40
1.0
 40
1.0
 40
1.0
 40
1.0
 10
11.5596286883
 20
9.5816714352
 30
0.0
 10
11.5563147367
 20
9.5819012585
 30
0.0
 10
11.549684845
 20
9.5826046177
 30
0.0
 10
11.539820398
 20
9.5843763506
 30
0.0
 10
11.5300615897
 20
9.5868580765
 30
0.0
 10
11.5204611711
 20
9.5900363643
 30
0.0
 10
11.5110701106
 20
9.5938942359
 30
0.0
 10
11.501938513
 20
9.5984110261
 30
0.0
 10
11.493115022
 20
9.6035626096
 30
0.0
 10
11.4846466541
 20
9.6093214753
 30
0.0
 10
11.4765785291
 20
9.615656896
 30
0.0
 10
11.468953637
 20
9.6225350815
 30
0.0
 10
11.4618126111
 20
9.6299193611
 30
0.0
 10
11.4551935133
 20
9.637770376
 30
0.0
 10
11.4491316338
 20
9.6460462873
 30
0.0
 10
11.4436593042
 20
9.6547029965
 30
0.0
 10
11.4388057268
 20
9.6636943784
 30
0.0
 10
11.4345968196
 20
9.6729725232
 30
0.0
 10
11.4310550788
 20
9.6824879895
 30
0.0
 10
11.4281994586
 20
9.6921900635
 30
0.0
 10
11.4260452694
 20
9.7020270264
 30
0.0
 10
11.4246040947
 20
9.7119464258
 30
0.0
 10
11.4238837269
 20
9.7218953524
 30
0.0
 10
11.4238881208
 20
9.7318207162
 30
0.0
 10
11.4246173737
 20
9.7416695369
 30
0.0
 10
11.4260676992
 20
9.7513891864
 30
0.0
 10
11.4282315135
 20
9.760927811
 30
0.0
 10
11.4310972057
 20
9.7702340809
 30
0.0
 10
11.4340608057
 20
9.7777623086
 30
0.0
 10
11.4367652505
 20
9.7836166664
 30
0.0
 10
11.4396838559
 20
9.7893437361
 30
0.0
 10
11.4437361812
 20
9.7962709227
 30
0.0
 10
11.4483097073
 20
9.8028545836
 30
0.0
 10
11.4522618814
 20
9.8078869882
 30
0.0
 10
11.4564026227
 20
9.8127551071
 30
0.0
 10
11.4597200617
 20
9.8162208057
 30
0.0
 10
11.4620168821
 20
9.8184393619
 30
0.0
  0
SPLINE
  5
45D
100
AcDbEntity
  8
0
100
AcDbSpline
 62
7
  6
CONTINUOUS
 70
0
 71
3
 72
41
 73
37
 74
0
 42
0.0000001
 43
0.0000001
 44
0.0000000001
 40
0.0
 40
0.0
 40
0.0
 40
0.0
 40
0.0307612731
 40
0.0616953802
 40
0.0928027747
 40
0.1240794369
 40
0.1555172553
 40
0.1712958954
 40
0.1871101111
 40
0.2188318215
 40
0.2506704407
 40
0.266630123
 40
0.2826114594
 40
0.3146228811
 40
0.3466871997
 40
0.3787807937
 40
0.4108795863
 40
0.4429594373
 40
0.4749965321
 40
0.5069677747
 40
0.5388511904
 40
0.5706263453
 40
0.6022747877
 40
0.633780508
 40
0.6651304116
 40
0.6963147924
 40
0.7273277868
 40
0.7581677791
 40
0.788837738
 40
0.819345441
 40
0.8497035411
 40
0.8799294425
 40
0.9100449431
 40
0.9400757864
 40
0.9700502918
 40
1.0
 40
1.0
 40
1.0
 40
1.0
 10
11.365817367
 20
8.4935281453
 30
0.0
 10
11.3601434242
 20
8.4928307764
 30
0.0
 10
11.3486994415
 20
8.4919096076
 30
0.0
 10
11.3314350963
 20
8.4919412494
 30
0.0
 10
11.3141330646
 20
8.4933696484
 30
0.0
 10
11.2969066999
 20
8.4961737106
 30
0.0
 10
11.2827187524
 20
8.4996290372
 30
0.0
 10
11.2715121374
 20
8.5030458313
 30
0.0
 10
11.2603925686
 20
8.5069005993
 30
0.0
 10
11.2467356583
 20
8.5125135443
 30
0.0
 10
11.2335064143
 20
8.5191308463
 30
0.0
 10
11.2232094092
 20
8.5250056144
 30
0.0
 10
11.2131049358
 20
8.5312668096
 30
0.0
 10
11.2008898622
 20
8.5397846771
 30
0.0
 10
11.1869881259
 20
8.5510399308
 30
0.0
 10
11.1739113004
 20
8.5632681733
 30
0.0
 10
11.1617348209
 20
8.5763969483
 30
0.0
 10
11.1505292763
 20
8.5903502318
 30
0.0
 10
11.1403611591
 20
8.6050479831
 30
0.0
 10
11.1312925266
 20
8.6204062965
 30
0.0
 10
11.1233808583
 20
8.6363373546
 30
0.0
 10
11.1166787487
 20
8.6527494258
 30
0.0
 10
11.1112335419
 20
8.6695468784
 30
0.0
 10
11.1070868585
 20
8.6866302392
 30
0.0
 10
11.1042740348
 20
8.7038963245
 30
0.0
 10
11.1028234789
 20
8.7212384719
 30
0.0
 10
11.1027559664
 20
8.7385468953
 30
0.0
 10
11.1040838627
 20
8.7557091931
 30
0.0
 10
11.1068103683
 20
8.7726110311
 30
0.0
 10
11.1109288022
 20
8.7891370085
 30
0.0
 10
11.1164219364
 20
8.8051716961
 30
0.0
 10
11.1232615327
 20
8.8206008822
 30
0.0
 10
11.1314078052
 20
8.8353128429
 30
0.0
 10
11.1408099233
 20
8.8492002319
 30
0.0
 10
11.1514040491
 20
8.8621599028
 30
0.0
 10
11.1592164543
 20
8.8701213759
 30
0.0
 10
11.1632908245
 20
8.8739131875
 30
0.0
  0
SPLINE
  5
45E
100
AcDbEntity
  8
0
100
AcDbSpline
 62
7
  6
CONTINUOUS
 70
0
 71
3
 72
11
 73
7
 74
0
 42
0.0000001
 43
0.0000001
 44
0.0000000001
 40
0.0
 40
0.0
 40
0.0
 40
0.0
 40
0.2520037245
 40
0.5026338564
 40
0.7519331034
 40
1.0
 40
1.0
 40
1.0
 40
1.0
 10
9.8236635026
 20
10.2608491471
 30
0.0
 10
9.8236635026
 20
10.2628185521
 30
0.0
 10
9.8238200721
 20
10.2667484792
 30
0.0
 10
9.8245276348
 20
10.2725883553
 30
0.0
 10
9.825702367
 20
10.2783211109
 30
0.0
 10
9.8267945177
 20
10.2820568645
 30
0.0
 10
9.8274153145
 20
10.2838934188
 30
0.0
  0
SPLINE
  5
45F
100
AcDbEntity
  8
0
100
AcDbSpline
 62
7
  6
CONTINUOUS
 70
0
 71
3
 72
23
 73
19
 74
0
 42
0.0000001
 43
0.0000001
 44
0.0000000001
 40
0.0
 40
0.0
 40
0.0
 40
0.0
 40
0.0628363448
 40
0.1254579102
 40
0.187882163
 40
0.2501312952
 40
0.3122330285
 40
0.3742214554
 40
0.4361378258
 40
0.4980311269
 40
0.5599582386
 40
0.6219833757
 40
0.6841763578
 40
0.7466094595
 40
0.8093531144
 40
0.8724702384
 40
0.936008887
 40
1.0
 40
1.0
 40
1.0
 40
1.0
 10
10.9088059617
 20
8.2763931013
 30
0.0
 10
10.9075129772
 20
8.2717667901
 30
0.0
 10
10.9046447862
 20
8.2626071201
 30
0.0
 10
10.8994822775
 20
8.2491937472
 30
0.0
 10
10.8934620249
 20
8.236190835
 30
0.0
 10
10.8865807776
 20
8.2236668157
 30
0.0
 10
10.8788371126
 20
8.2116952864
 30
0.0
 10
10.8702331275
 20
8.200356771
 30
0.0
 10
10.8607761356
 20
8.1897388262
 30
0.0
 10
10.8504809065
 20
8.1799361233
 30
0.0
 10
10.83937232
 20
8.1710497982
 30
0.0
 10
10.8274883744
 20
8.1631859336
 30
0.0
 10
10.8148833529
 20
8.1564528325
 30
0.0
 10
10.8016306252
 20
8.1509568091
 30
0.0
 10
10.7878247355
 20
8.1467965779
 30
0.0
 10
10.7735808203
 20
8.1440567732
 30
0.0
 10
10.7590356356
 20
8.142800305
 30
0.0
 10
10.7492673958
 20
8.1429751356
 30
0.0
 10
10.7443872404
 20
8.1433135756
 30
0.0
  0
SPLINE
  5
460
100
AcDbEntity
  8
0
100
AcDbSpline
 62
7
  6
CONTINUOUS
 70
0
 71
3
 72
18
 73
14
 74
0
 42
0.0000001
 43
0.0000001
 44
0.0000000001
 40
0.0
 40
0.0
 40
0.0
 40
0.0
 40
0.0548620589
 40
0.1099280789
 40
0.165399508
 40
0.2214731255
 40
0.2783387361
 40
0.3361775086
 40
0.4554063416
 40
0.5804417492
 40
0.7123343341
 40
0.8519577333
 40
1.0
 40
1.0
 40
1.0
 40
1.0
 10
10.343
 20
10.8072685876
 30
0.0
 10
10.3430000001
 20
10.8081964549
 30
0.0
 10
10.3430589023
 20
10.8100561719
 30
0.0
 10
10.3433237049
 20
10.8128427217
 30
0.0
 10
10.3437648919
 20
10.8156276657
 30
0.0
 10
10.3443823177
 20
10.8184099868
 30
0.0
 10
10.345175743
 20
10.8211889826
 30
0.0
 10
10.3464807501
 20
10.824925987
 30
0.0
 10
10.3485713493
 20
10.8295999789
 30
0.0
 10
10.3517533717
 20
10.8351199811
 30
0.0
 10
10.3556289025
 20
10.8406042539
 30
0.0
 10
10.3601920453
 20
10.8460472927
 30
0.0
 10
10.3635858255
 20
10.8495396638
 30
0.0
 10
10.3653866945
 20
10.8512791698
 30
0.0
  0
SPLINE
  5
461
100
AcDbEntity
  8
0
100
AcDbSpline
 62
7
  6
CONTINUOUS
 70
0
 71
3
 72
9
 73
5
 74
0
 42
0.0000001
 43
0.0000001
 44
0.0000000001
 40
0.0
 40
0.0
 40
0.0
 40
0.0
 40
0.4862217708
 40
1.0
 40
1.0
 40
1.0
 40
1.0
 10
10.3561250106
 20
10.7734729932
 30
0.0
 10
10.3575030054
 20
10.7752304199
 30
0.0
 10
10.3604800195
 20
10.7787342403
 30
0.0
 10
10.363689382
 20
10.7820248798
 30
0.0
 10
10.3653866945
 20
10.783664358
 30
0.0
  0
SPLINE
  5
462
100
AcDbEntity
  8
0
100
AcDbSpline
 62
7
  6
CONTINUOUS
 70
0
 71
3
 72
23
 73
19
 74
0
 42
0.0000001
 43
0.0000001
 44
0.0000000001
 40
0.0
 40
0.0
 40
0.0
 40
0.0
 40
0.0639326193
 40
0.1275595908
 40
0.1908823935
 40
0.2539227795
 40
0.3167007635
 40
0.3792442362
 40
0.4415853022
 40
0.5037598747
 40
0.5658068149
 40
0.6277668367
 40
0.6896816887
 40
0.7515932634
 40
0.8135426308
 40
0.8755692251
 40
0.9377102121
 40
1.0
 40
1.0
 40
1.0
 40
1.0
 10
11.0595190678
 20
7.3971394402
 30
0.0
 10
11.0595190678
 20
7.3988466919
 30
0.0
 10
11.0596390678
 20
7.4022542933
 30
0.0
 10
11.0601809697
 20
7.4073268829
 30
0.0
 10
11.0610813447
 20
7.4123243538
 30
0.0
 10
11.0623347265
 20
7.4172217343
 30
0.0
 10
11.0639339544
 20
7.4219954354
 30
0.0
 10
11.0658697838
 20
7.426622602
 30
0.0
 10
11.0681312278
 20
7.43108159
 30
0.0
 10
11.0707056803
 20
7.4353519906
 30
0.0
 10
11.073579083
 20
7.4394147521
 30
0.0
 10
11.0767361091
 20
7.4432522369
 30
0.0
 10
11.0801602965
 20
7.4468482926
 30
0.0
 10
11.0838342298
 20
7.4501882799
 30
0.0
 10
11.0877396933
 20
7.4532590241
 30
0.0
 10
11.0918579236
 20
7.456048849
 30
0.0
 10
11.0961692822
 20
7.458547346
 30
0.0
 10
11.0991557137
 20
7.4600112134
 30
0.0
 10
11.100673534
 20
7.4606916988
 30
0.0
  0
SPLINE
  5
463
100
AcDbEntity
  8
0
100
AcDbSpline
 62
7
  6
CONTINUOUS
 70
0
 71
3
 72
41
 73
37
 74
0
 42
0.0000001
 43
0.0000001
 44
0.0000000001
 40
0.0
 40
0.0
 40
0.0
 40
0.0
 40
0.031144444
 40
0.0624425093
 40
0.0938872508
 40
0.1254695847
 40
0.1571771078
 40
0.1889951283
 40
0.2209066801
 40
0.2528929859
 40
0.2849338014
 40
0.3170078274
 40
0.3490931225
 40
0.3811675283
 40
0.4132090962
 40
0.4451965119
 40
0.4771095115
 40
0.5089292827
 40
0.5406388458
 40
0.5722234075
 40
0.6036706813
 40
0.6349711679
 40
0.6661183875
 40
0.6971090579
 40
0.7279432122
 40
0.7586242475
 40
0.7891589026
 40
0.8195571573
 40
0.8498320547
 40
0.8649308931
 40
0.8800050545
 40
0.9100832586
 40
0.9400926739
 40
0.9550812746
 40
0.9700610358
 40
1.0
 40
1.0
 40
1.0
 40
1.0
 10
9.8093710963
 20
7.6504597089
 30
0.0
 10
9.8060571446
 20
7.6506895323
 30
0.0
 10
9.799427253
 20
7.6513928915
 30
0.0
 10
9.789562806
 20
7.6531646244
 30
0.0
 10
9.7798039977
 20
7.6556463502
 30
0.0
 10
9.7702035791
 20
7.6588246381
 30
0.0
 10
9.7608125186
 20
7.6626825096
 30
0.0
 10
9.751680921
 20
7.6671992999
 30
0.0
 10
9.74285743
 20
7.6723508833
 30
0.0
 10
9.7343890621
 20
7.6781097491
 30
0.0
 10
9.7263209371
 20
7.6844451698
 30
0.0
 10
9.718696045
 20
7.6913233553
 30
0.0
 10
9.7115550191
 20
7.6987076349
 30
0.0
 10
9.7049359213
 20
7.7065586498
 30
0.0
 10
9.6988740418
 20
7.714834561
 30
0.0
 10
9.6934017122
 20
7.7234912703
 30
0.0
 10
9.6885481348
 20
7.7324826522
 30
0.0
 10
9.6843392276
 20
7.741760797
 30
0.0
 10
9.6807974868
 20
7.7512762633
 30
0.0
 10
9.6779418666
 20
7.7609783373
 30
0.0
 10
9.6757876774
 20
7.7708153002
 30
0.0
 10
9.6743465027
 20
7.7807346995
 30
0.0
 10
9.6736261348
 20
7.7906836262
 30
0.0
 10
9.6736305288
 20
7.80060899
 30
0.0
 10
9.6743597816
 20
7.8104578107
 30
0.0
 10
9.6758101072
 20
7.8201774602
 30
0.0
 10
9.6779739215
 20
7.8297160848
 30
0.0
 10
9.6808396137
 20
7.8390223547
 30
0.0
 10
9.6838032137
 20
7.8465505823
 30
0.0
 10
9.6865076585
 20
7.8524049402
 30
0.0
 10
9.6894262639
 20
7.8581320099
 30
0.0
 10
9.6934785892
 20
7.8650591965
 30
0.0
 10
9.6980521153
 20
7.8716428573
 30
0.0
 10
9.7020042894
 20
7.876675262
 30
0.0
 10
9.7061450307
 20
7.8815433809
 30
0.0
 10
9.7094624697
 20
7.8850090795
 30
0.0
 10
9.7117592901
 20
7.8872276357
 30
0.0
  0
SPLINE
  5
464
100
AcDbEntity
  8
0
100
AcDbSpline
 62
7
  6
CONTINUOUS
 70
0
 71
3
 72
21
 73
17
 74
0
 42
0.0000001
 43
0.0000001
 44
0.0000000001
 40
0.0
 40
0.0
 40
0.0
 40
0.0
 40
0.127973683
 40
0.2550838578
 40
0.3183180152
 40
0.3813189031
 40
0.4440856602
 40
0.5066205376
 40
0.5689292433
 40
0.6310211291
 40
0.692909251
 40
0.7546102802
 40
0.8161449444
 40
0.87753586
 40
0.9388125281
 40
1.0
 40
1.0
 40
1.0
 40
1.0
 10
10.5284748531
 20
7.8792795955
 30
0.0
 10
10.5299982414
 20
7.8724297586
 30
0.0
 10
10.5323907391
 20
7.8586234533
 30
0.0
 10
10.5336500168
 20
7.8411825116
 30
0.0
 10
10.5335612234
 20
7.8272854554
 30
0.0
 10
10.5329403138
 20
7.8169352727
 30
0.0
 10
10.5317573404
 20
7.8066727647
 30
0.0
 10
10.5300068178
 20
7.7965299212
 30
0.0
 10
10.5276855146
 20
7.7865400729
 30
0.0
 10
10.5247927779
 20
7.7767372179
 30
0.0
 10
10.5213307733
 20
7.7671558564
 30
0.0
 10
10.5173047529
 20
7.7578305444
 30
0.0
 10
10.5127231713
 20
7.7487956719
 30
0.0
 10
10.5075977156
 20
7.7400845552
 30
0.0
 10
10.5019437033
 20
7.7317302157
 30
0.0
 10
10.4978311406
 20
7.726415014
 30
0.0
 10
10.4956944094
 20
7.7238283055
 30
0.0
  0
SPLINE
  5
465
100
AcDbEntity
  8
0
100
AcDbSpline
 62
7
  6
CONTINUOUS
 70
0
 71
3
 72
15
 73
11
 74
0
 42
0.0000001
 43
0.0000001
 44
0.0000000001
 40
0.0
 40
0.0
 40
0.0
 40
0.0
 40
0.1297017361
 40
0.2588927647
 40
0.387145746
 40
0.5140400491
 40
0.63915812
 40
0.7620997642
 40
0.882494861
 40
1.0
 40
1.0
 40
1.0
 40
1.0
 10
10.7715360078
 20
8.4720477256
 30
0.0
 10
10.7740843179
 20
8.4711498808
 30
0.0
 10
10.7791728483
 20
8.4693632493
 30
0.0
 10
10.7867829696
 20
8.4666937764
 30
0.0
 10
10.7943346806
 20
8.4640344698
 30
0.0
 10
10.8017989368
 20
8.4613823119
 30
0.0
 10
10.8091471112
 20
8.4587340964
 30
0.0
 10
10.8163515791
 20
8.4560867947
 30
0.0
 10
10.8233859974
 20
8.453437154
 30
0.0
 10
10.8280059471
 20
8.4516435758
 30
0.0
 10
10.8302822598
 20
8.4507435546
 30
0.0
  0
SPLINE
  5
466
100
AcDbEntity
  8
0
100
AcDbSpline
 62
7
  6
CONTINUOUS
 70
0
 71
3
 72
35
 73
31
 74
0
 42
0.0000001
 43
0.0000001
 44
0.0000000001
 40
0.0
 40
0.0
 40
0.0
 40
0.0
 40
0.0308953613
 40
0.0464099153
 40
0.0619651971
 40
0.0931879237
 40
0.124554854
 40
0.1402896615
 40
0.1560535333
 40
0.1876533174
 40
0.2193382719
 40
0.2510870728
 40
0.2828790654
 40
0.314694821
 40
0.3465164882
 40
0.3783279679
 40
0.4418422609
 40
0.4735446202
 40
0.5051899484
 40
0.5682606029
 40
0.5996919243
 40
0.6310413065
 40
0.6934634782
 40
0.7555213138
 40
0.7864168057
 40
0.817216963
 40
0.8785147738
 40
0.9090289425
 40
0.9394494623
 40
1.0
 40
1.0
 40
1.0
 40
1.0
 10
10.7443872404
 20
8.1433135756
 30
0.0
 10
10.7405112591
 20
8.1435823758
 30
0.0
 10
10.7347018966
 20
8.1442240606
 30
0.0
 10
10.7270203589
 20
8.1455430118
 30
0.0
 10
10.7193564251
 20
8.1471741357
 30
0.0
 10
10.7098715965
 20
8.1497854966
 30
0.0
 10
10.7005936514
 20
8.1531220768
 30
0.0
 10
10.6933132226
 20
8.1562076165
 30
0.0
 10
10.6861238085
 20
8.159569387
 30
0.0
 10
10.6773508223
 20
8.1642635559
 30
0.0
 10
10.6672214731
 20
8.1706227275
 30
0.0
 10
10.6575193817
 20
8.1776571045
 30
0.0
 10
10.6482765458
 20
8.1853096395
 30
0.0
 10
10.639517679
 20
8.1935241008
 30
0.0
 10
10.6312611609
 20
8.202246582
 30
0.0
 10
10.62094838
 20
8.2144747805
 30
0.0
 10
10.6116758934
 20
8.2275277396
 30
0.0
 10
10.6034746864
 20
8.2412181729
 30
0.0
 10
10.5960005786
 20
8.2552560117
 30
0.0
 10
10.5895848859
 20
8.2697964651
 30
0.0
 10
10.5842345615
 20
8.2846959564
 30
0.0
 10
10.5796041549
 20
8.2997500623
 30
0.0
 10
10.5751309954
 20
8.3188584468
 30
0.0
 10
10.5723956444
 20
8.3382332753
 30
0.0
 10
10.5712552899
 20
8.3537588937
 30
0.0
 10
10.5708115549
 20
8.3692237659
 30
0.0
 10
10.571404995
 20
8.3846565274
 30
0.0
 10
10.5730464883
 20
8.399944826
 30
0.0
 10
10.575378034
 20
8.4150472638
 30
0.0
 10
10.577918989
 20
8.426225282
 30
0.0
 10
10.579968616
 20
8.4335588674
 30
0.0
  0
LINE
  5
467
100
AcDbEntity
  8
0
100
AcDbLine
 62
7
  6
CONTINUOUS
 10
10.4611109571
 20
9.8108587728
 11
10.4571578375
 21
9.8369287866
  0
SPLINE
  5
468
100
AcDbEntity
  8
0
100
AcDbSpline
 62
7
  6
CONTINUOUS
 70
0
 71
3
 72
11
 73
7
 74
0
 42
0.0000001
 43
0.0000001
 44
0.0000000001
 40
0.0
 40
0.0
 40
0.0
 40
0.0
 40
0.2449823196
 40
0.4918121614
 40
0.7427463839
 40
1.0
 40
1.0
 40
1.0
 40
1.0
 10
10.9013538007
 20
8.4031502981
 30
0.0
 10
10.9019675954
 20
8.4019960227
 30
0.0
 10
10.9031053063
 20
8.3996270407
 30
0.0
 10
10.9045210509
 20
8.3959202709
 30
0.0
 10
10.9056476102
 20
8.3920474872
 30
0.0
 10
10.9061981797
 20
8.3893888911
 30
0.0
 10
10.9064270889
 20
8.3880353019
 30
0.0
  0
SPLINE
  5
469
100
AcDbEntity
  8
0
100
AcDbSpline
 62
7
  6
CONTINUOUS
 70
0
 71
3
 72
23
 73
19
 74
0
 42
0.0000001
 43
0.0000001
 44
0.0000000001
 40
0.0
 40
0.0
 40
0.0
 40
0.0
 40
0.080965546
 40
0.1595345685
 40
0.2355592869
 40
0.308942449
 40
0.3796165576
 40
0.4475546964
 40
0.5127683785
 40
0.5753076601
 40
0.6352644318
 40
0.6927731008
 40
0.7480128006
 40
0.8012121853
 40
0.8526504218
 40
0.9026605638
 40
0.9516335329
 40
1.0
 40
1.0
 40
1.0
 40
1.0
 10
10.8302822598
 20
8.4507435546
 30
0.0
 10
10.8324702785
 20
8.4498784435
 30
0.0
 10
10.8367714484
 20
8.4481480749
 30
0.0
 10
10.8430848729
 20
8.4455018775
 30
0.0
 10
10.8491508571
 20
8.4428375391
 30
0.0
 10
10.8549548256
 20
8.4401500033
 30
0.0
 10
10.8604847436
 20
8.4374334205
 30
0.0
 10
10.865730599
 20
8.4346813544
 30
0.0
 10
10.870684346
 20
8.431886578
 30
0.0
 10
10.8753396191
 20
8.4290410461
 30
0.0
 10
10.8796914771
 20
8.4261358637
 30
0.0
 10
10.883736081
 20
8.4231611635
 30
0.0
 10
10.8874704413
 20
8.420106137
 30
0.0
 10
10.8908920639
 20
8.4169589548
 30
0.0
 10
10.8939986734
 20
8.4137068683
 30
0.0
 10
10.8967881803
 20
8.4103361359
 30
0.0
 10
10.8992577781
 20
8.4068328473
 30
0.0
 10
10.900693904
 20
8.4043912709
 30
0.0
 10
10.9013538007
 20
8.4031502981
 30
0.0
  0
SPLINE
  5
46A
100
AcDbEntity
  8
0
100
AcDbSpline
 62
7
  6
CONTINUOUS
 70
0
 71
3
 72
42
 73
38
 74
0
 42
0.0000001
 43
0.0000001
 44
0.0000000001
 40
0.0
 40
0.0
 40
0.0
 40
0.0
 40
0.1028987252
 40
0.2033968056
 40
0.3011290846
 40
0.3956372753
 40
0.486307464
 40
0.5723288168
 40
0.6526316456
 40
0.6902197006
 40
0.7258340897
 40
0.7592532554
 40
0.7902422014
 40
0.8185601303
 40
0.8439785779
 40
0.8662963777
 40
0.8762477181
 40
0.885377007
 40
0.893684083
 40
0.9011766866
 40
0.9078721733
 40
0.9138073785
 40
0.9190388485
 40
0.9236489327
 40
0.9277588876
 40
0.931530453
 40
0.9351590546
 40
0.938849229
 40
0.9427793487
 40
0.9470829058
 40
0.951847477
 40
0.9571231505
 40
0.9629347684
 40
0.9692904546
 40
0.9761874956
 40
0.9836158181
 40
1.0
 40
1.0
 40
1.0
 40
1.0
 10
10.4303297478
 20
9.7926863985
 30
0.0
 10
10.4316172601
 20
9.7912071691
 30
0.0
 10
10.4341295308
 20
9.7882545734
 30
0.0
 10
10.4377548968
 20
9.7838051613
 30
0.0
 10
10.4411929298
 20
9.7794108488
 30
0.0
 10
10.4444396297
 20
9.7751058549
 30
0.0
 10
10.4474894944
 20
9.7709328038
 30
0.0
 10
10.4503343493
 20
9.7669457532
 30
0.0
 10
10.452571701
 20
9.7637681825
 30
0.0
 10
10.4542589953
 20
9.7613782304
 30
0.0
 10
10.4554370915
 20
9.7597225586
 30
0.0
 10
10.4565533548
 20
9.7581772836
 30
0.0
 10
10.4576048205
 20
9.7567568579
 30
0.0
 10
10.4585884474
 20
9.7554761457
 30
0.0
 10
10.4595009457
 20
9.75434972
 30
0.0
 10
10.4602248886
 20
9.7535216678
 30
0.0
 10
10.4607694586
 20
9.7529505868
 30
0.0
 10
10.4611426806
 20
9.7525855063
 30
0.0
 10
10.461496219
 20
9.7522678616
 30
0.0
 10
10.4618299282
 20
9.751998326
 30
0.0
 10
10.4621439166
 20
9.7517774957
 30
0.0
 10
10.462438253
 20
9.7516054665
 30
0.0
 10
10.4627132666
 20
9.7514821051
 30
0.0
 10
10.4629696353
 20
9.751407616
 30
0.0
 10
10.4632078554
 20
9.7513821407
 30
0.0
 10
10.4634278775
 20
9.7514061055
 30
0.0
 10
10.4636283072
 20
9.7514796715
 30
0.0
 10
10.4638075556
 20
9.7516006803
 30
0.0
 10
10.4639657018
 20
9.751765839
 30
0.0
 10
10.4641038973
 20
9.7519726223
 30
0.0
 10
10.4642233925
 20
9.7522192339
 30
0.0
 10
10.4643251982
 20
9.7525041583
 30
0.0
 10
10.4644100016
 20
9.7528259238
 30
0.0
 10
10.4644783492
 20
9.7531830029
 30
0.0
 10
10.4645307258
 20
9.7535738267
 30
0.0
 10
10.4645814664
 20
9.7541570459
 30
0.0
 10
10.4645937691
 20
9.7546111758
 30
0.0
 10
10.4645939764
 20
9.7549234301
 30
0.0
  0
SPLINE
  5
46B
100
AcDbEntity
  8
0
100
AcDbSpline
 62
7
  6
CONTINUOUS
 70
0
 71
3
 72
88
 73
84
 74
0
 42
0.0000001
 43
0.0000001
 44
0.0000000001
 40
0.0
 40
0.0
 40
0.0
 40
0.0
 40
0.00398019
 40
0.0081241279
 40
0.012435984
 40
0.0169193403
 40
0.0215772217
 40
0.026411968
 40
0.03142524
 40
0.0366182254
 40
0.0419916187
 40
0.0475457474
 40
0.0532805245
 40
0.0591955312
 40
0.0652900466
 40
0.0715630374
 40
0.0846387255
 40
0.0984100564
 40
0.1128606485
 40
0.1279711965
 40
0.1437198106
 40
0.1600822931
 40
0.1770323702
 40
0.1945418895
 40
0.2125809905
 40
0.2311182618
 40
0.2501208831
 40
0.2695547551
 40
0.289384621
 40
0.309574183
 40
0.3300862123
 40
0.3508826567
 40
0.3719247472
 40
0.3931731028
 40
0.4145878328
 40
0.4361286373
 40
0.4577549081
 40
0.5010997345
 40
0.5442957932
 40
0.5657364549
 40
0.5870180425
 40
0.6081005829
 40
0.6289445938
 40
0.6495111877
 40
0.6697621758
 40
0.6896601722
 40
0.7091687011
 40
0.7282523074
 40
0.7468766714
 40
0.7650087296
 40
0.7826168049
 40
0.7996707468
 40
0.8161420806
 40
0.8320041762
 40
0.8472324412
 40
0.8618045456
 40
0.8757006897
 40
0.8889039322
 40
0.8952415306
 40
0.9014010782
 40
0.9073814661
 40
0.9131818436
 40
0.9188016978
 40
0.9242407986
 40
0.9294993296
 40
0.9345778344
 40
0.939477329
 40
0.9441993212
 40
0.9487458596
 40
0.953119651
 40
0.9573240595
 40
0.9613632868
 40
0.9652423839
 40
0.9689674258
 40
0.9725455946
 40
0.9759852982
 40
0.9824864684
 40
0.985575327
 40
0.9885737973
 40
0.9914977211
 40
0.9943643259
 40
0.9971920046
 40
1.0
 40
1.0
 40
1.0
 40
1.0
 10
10.3653866945
 20
10.8512791698
 30
0.0
 10
10.3666879264
 20
10.8525360633
 30
0.0
 10
10.3694030158
 20
10.8550409608
 30
0.0
 10
10.3737137428
 20
10.8586995522
 30
0.0
 10
10.3783410225
 20
10.8623319001
 30
0.0
 10
10.3832823164
 20
10.8659360757
 30
0.0
 10
10.3885352155
 20
10.8695103961
 30
0.0
 10
10.3940971459
 20
10.873053122
 30
0.0
 10
10.3999653259
 20
10.8765625551
 30
0.0
 10
10.406136844
 20
10.8800368739
 30
0.0
 10
10.4126085836
 20
10.8834744111
 30
0.0
 10
10.4193773276
 20
10.8868733976
 30
0.0
 10
10.4264396728
 20
10.8902321636
 30
0.0
 10
10.4337920749
 20
10.8935490044
 30
0.0
 10
10.4414308514
 20
10.8968222578
 30
0.0
 10
10.4521410857
 20
10.9011867126
 30
0.0
 10
10.466225944
 20
10.9065095889
 30
0.0
 10
10.4839800695
 20
10.91261234
 30
0.0
 10
10.502777042
 20
10.9185031943
 30
0.0
 10
10.5225789607
 20
10.9241701783
 30
0.0
 10
10.5433460715
 20
10.9296017585
 30
0.0
 10
10.5650365409
 20
10.9347868727
 30
0.0
 10
10.5876066449
 20
10.9397149577
 30
0.0
 10
10.6110108383
 20
10.9443759726
 30
0.0
 10
10.6352018609
 20
10.9487604244
 30
0.0
 10
10.6601308373
 20
10.9528593854
 30
0.0
 10
10.6857473831
 20
10.9566645105
 30
0.0
 10
10.71199971
 20
10.9601680541
 30
0.0
 10
10.7388347332
 20
10.9633628857
 30
0.0
 10
10.7661981802
 20
10.966242504
 30
0.0
 10
10.7940347014
 20
10.9688010494
 30
0.0
 10
10.8222879831
 20
10.9710333184
 30
0.0
 10
10.8509008622
 20
10.9729347724
 30
0.0
 10
10.8798154486
 20
10.9745015474
 30
0.0
 10
10.9089732244
 20
10.975730451
 30
0.0
 10
10.9383152359
 20
10.9766190113
 30
0.0
 10
10.9776320018
 20
10.9773479394
 30
0.0
 10
11.0268025527
 20
10.9773996599
 30
0.0
 10
11.0758767537
 20
10.9763101788
 30
0.0
 10
11.1148993267
 20
10.9747502193
 30
0.0
 10
11.1438625265
 20
10.9732446434
 30
0.0
 10
11.1725345818
 20
10.9714037794
 30
0.0
 10
11.2008575225
 20
10.9692313396
 30
0.0
 10
11.2287740336
 20
10.9667317495
 30
0.0
 10
11.2562276428
 20
10.9639100927
 30
0.0
 10
11.2831628165
 20
10.9607721102
 30
0.0
 10
11.3095250779
 20
10.9573241869
 30
0.0
 10
11.3352611171
 20
10.9535733393
 30
0.0
 10
11.3603189006
 20
10.9495272017
 30
0.0
 10
11.3846477798
 20
10.9451940105
 30
0.0
 10
11.4081985982
 20
10.9405825892
 30
0.0
 10
11.4309237971
 20
10.9357023324
 30
0.0
 10
11.4527775128
 20
10.9305631822
 30
0.0
 10
11.4737156831
 20
10.9251756079
 30
0.0
 10
11.4936961188
 20
10.9195505826
 30
0.0
 10
11.5126786892
 20
10.9136995552
 30
0.0
 10
11.5306251106
 20
10.9076344236
 30
0.0
 10
11.5448752517
 20
10.9023422889
 30
0.0
 10
11.5557210784
 20
10.8980014369
 30
0.0
 10
11.5634630417
 20
10.8947444345
 30
0.0
 10
11.5709200182
 20
10.8914432692
 30
0.0
 10
11.5780882577
 20
10.8880995417
 30
0.0
 10
11.584964174
 20
10.8847149961
 30
0.0
 10
11.5915442981
 20
10.8812912681
 30
0.0
 10
11.5978253545
 20
10.877830132
 30
0.0
 10
11.6038041869
 20
10.874333272
 30
0.0
 10
11.6094778166
 20
10.8708024447
 30
0.0
 10
11.6148434226
 20
10.8672394051
 30
0.0
 10
11.6198983133
 20
10.8636458632
 30
0.0
 10
11.6246400097
 20
10.8600236287
 30
0.0
 10
11.6290661116
 20
10.8563743719
 30
0.0
 10
11.6331744512
 20
10.8526999075
 30
0.0
 10
11.6369629569
 20
10.8490018724
 30
0.0
 10
11.6404296416
 20
10.8452821291
 30
0.0
 10
11.6435730089
 20
10.8415419308
 30
0.0
 10
11.6472604757
 20
10.8366240013
 30
0.0
 10
11.6503917353
 20
10.8315735132
 30
0.0
 10
11.6528778193
 20
10.8264151845
 30
0.0
 10
11.6543799001
 20
10.8226002155
 30
0.0
 10
11.6555496252
 20
10.8187759639
 30
0.0
 10
11.6563860354
 20
10.8149442876
 30
0.0
 10
11.6568882065
 20
10.811107918
 30
0.0
 10
11.6570000002
 20
10.8085449225
 30
0.0
 10
11.657
 20
10.8072685876
 30
0.0
  0
SPLINE
  5
46C
100
AcDbEntity
  8
0
100
AcDbSpline
 62
7
  6
CONTINUOUS
 70
0
 71
3
 72
69
 73
65
 74
0
 42
0.0000001
 43
0.0000001
 44
0.0000000001
 40
0.0
 40
0.0
 40
0.0
 40
0.0
 40
0.0085742228
 40
0.0179225384
 40
0.0280751009
 40
0.0390500141
 40
0.05085389
 40
0.0634848755
 40
0.0769343459
 40
0.0911879075
 40
0.1062262933
 40
0.122026148
 40
0.1385605331
 40
0.1557992554
 40
0.1737093055
 40
0.1922551752
 40
0.2113990282
 40
0.2311009461
 40
0.2513191938
 40
0.2720103613
 40
0.3146292596
 40
0.3585846191
 40
0.4034860065
 40
0.4489318686
 40
0.4945142895
 40
0.539823773
 40
0.5844539842
 40
0.6280065551
 40
0.6700958571
 40
0.6904766616
 40
0.7103554182
 40
0.7296898166
 40
0.7484393361
 40
0.7665654055
 40
0.784031696
 40
0.8008043627
 40
0.8168522451
 40
0.8321472364
 40
0.8466647556
 40
0.8603841328
 40
0.8732892276
 40
0.8853693592
 40
0.8966203101
 40
0.9070457284
 40
0.9166592138
 40
0.9254870457
 40
0.9296200642
 40
0.9335743239
 40
0.9373584369
 40
0.940982763
 40
0.9477983047
 40
0.9510242094
 40
0.9541512074
 40
0.9571996832
 40
0.9601918539
 40
0.9631513115
 40
0.9661025286
 40
0.9690702013
 40
0.9720785897
 40
0.9751508761
 40
0.9783086479
 40
0.9849529193
 40
0.9921503551
 40
1.0
 40
1.0
 40
1.0
 40
1.0
 10
10.100579163
 20
10.643494721
 30
0.0
 10
10.1014863229
 20
10.6443709702
 30
0.0
 10
10.103476463
 20
10.6461065699
 30
0.0
 10
10.1068029261
 20
10.6485598708
 30
0.0
 10
10.1105882536
 20
10.6509673166
 30
0.0
 10
10.114823469
 20
10.6533234451
 30
0.0
 10
10.1194991703
 20
10.6556231151
 30
0.0
 10
10.1246045141
 20
10.6578609603
 30
0.0
 10
10.1301275967
 20
10.6600316916
 30
0.0
 10
10.1360554122
 20
10.6621300961
 30
0.0
 10
10.1423738979
 20
10.664151135
 30
0.0
 10
10.1490680105
 20
10.6660899152
 30
0.0
 10
10.156121767
 20
10.6679417216
 30
0.0
 10
10.163518277
 20
10.6697020748
 30
0.0
 10
10.1712398047
 20
10.6713667067
 30
0.0
 10
10.179267821
 20
10.6729315638
 30
0.0
 10
10.1875830413
 20
10.6743928521
 30
0.0
 10
10.19616547
 20
10.6757470312
 30
0.0
 10
10.2049944874
 20
10.6769908347
 30
0.0
 10
10.2171871077
 20
10.6785129201
 30
0.0
 10
10.2328870221
 20
10.6801103607
 30
0.0
 10
10.2521769977
 20
10.6815292539
 30
0.0
 10
10.2719132216
 20
10.6824544224
 30
0.0
 10
10.2919058845
 20
10.6828767962
 30
0.0
 10
10.3119628522
 20
10.6827922294
 30
0.0
 10
10.3318912928
 20
10.6822015549
 30
0.0
 10
10.3514997043
 20
10.6811105689
 30
0.0
 10
10.3705995227
 20
10.6795299712
 30
0.0
 10
10.3861015421
 20
10.6777998442
 30
0.0
 10
10.3981057372
 20
10.6761740784
 30
0.0
 10
10.4067726969
 20
10.6748563247
 30
0.0
 10
10.4151792395
 20
10.6734303588
 30
0.0
 10
10.4233051733
 20
10.6718996181
 30
0.0
 10
10.4311309649
 20
10.670267811
 30
0.0
 10
10.438637826
 20
10.6685388979
 30
0.0
 10
10.4458077557
 20
10.666717087
 30
0.0
 10
10.4526235773
 20
10.6648067929
 30
0.0
 10
10.4590689932
 20
10.6628126365
 30
0.0
 10
10.4651286446
 20
10.6607394625
 30
0.0
 10
10.4707881443
 20
10.6585922768
 30
0.0
 10
10.4760341163
 20
10.6563762172
 30
0.0
 10
10.4808542859
 20
10.65409656
 30
0.0
 10
10.4852374688
 20
10.6517586602
 30
0.0
 10
10.4891737498
 20
10.6493677554
 30
0.0
 10
10.4926539958
 20
10.6469291778
 30
0.0
 10
10.4952220264
 20
10.6448169384
 30
0.0
 10
10.497028157
 20
10.6431042236
 30
0.0
 10
10.4982336013
 20
10.6418396851
 30
0.0
 10
10.4993191296
 20
10.6405673539
 30
0.0
 10
10.5005795225
 20
10.6388963212
 30
0.0
 10
10.5016344323
 20
10.6371755765
 30
0.0
 10
10.5024477585
 20
10.635415593
 30
0.0
 10
10.5029236346
 20
10.6341153181
 30
0.0
 10
10.5032758133
 20
10.632811742
 30
0.0
 10
10.5035039723
 20
10.6315057356
 30
0.0
 10
10.5036077502
 20
10.6301983042
 30
0.0
 10
10.5035869753
 20
10.6288905136
 30
0.0
 10
10.5034417412
 20
10.6275834354
 30
0.0
 10
10.5031722002
 20
10.6262781333
 30
0.0
 10
10.5027786888
 20
10.6249755424
 30
0.0
 10
10.5020777854
 20
10.6232141207
 30
0.0
 10
10.5008709797
 20
10.6210119856
 30
0.0
 10
10.4989613357
 20
10.6184459747
 30
0.0
 10
10.4974392742
 20
10.6168321745
 30
0.0
 10
10.4966087753
 20
10.6160299741
 30
0.0
  0
SPLINE
  5
46D
100
AcDbEntity
  8
0
100
AcDbSpline
 62
7
  6
CONTINUOUS
 70
0
 71
3
 72
41
 73
37
 74
0
 42
0.0000001
 43
0.0000001
 44
0.0000000001
 40
0.0
 40
0.0
 40
0.0
 40
0.0
 40
0.031144444
 40
0.0624425093
 40
0.0938872508
 40
0.1254695847
 40
0.1571771078
 40
0.1889951283
 40
0.2209066801
 40
0.2528929859
 40
0.2849338014
 40
0.3170078274
 40
0.3490931225
 40
0.3811675283
 40
0.4132090962
 40
0.4451965119
 40
0.4771095115
 40
0.5089292827
 40
0.5406388458
 40
0.5722234075
 40
0.6036706813
 40
0.6349711679
 40
0.6661183875
 40
0.6971090579
 40
0.7279432122
 40
0.7586242475
 40
0.7891589026
 40
0.8195571573
 40
0.8498320547
 40
0.8649308931
 40
0.8800050545
 40
0.9100832586
 40
0.9400926739
 40
0.9550812746
 40
0.9700610358
 40
1.0
 40
1.0
 40
1.0
 40
1.0
 10
11.5596286883
 20
7.5290789327
 30
0.0
 10
11.5563147367
 20
7.529308756
 30
0.0
 10
11.549684845
 20
7.5300121152
 30
0.0
 10
11.539820398
 20
7.5317838481
 30
0.0
 10
11.5300615897
 20
7.534265574
 30
0.0
 10
11.5204611711
 20
7.5374438618
 30
0.0
 10
11.5110701106
 20
7.5413017334
 30
0.0
 10
11.501938513
 20
7.5458185236
 30
0.0
 10
11.493115022
 20
7.5509701071
 30
0.0
 10
11.4846466541
 20
7.5567289728
 30
0.0
 10
11.4765785291
 20
7.5630643935
 30
0.0
 10
11.468953637
 20
7.569942579
 30
0.0
 10
11.4618126111
 20
7.5773268586
 30
0.0
 10
11.4551935133
 20
7.5851778735
 30
0.0
 10
11.4491316338
 20
7.5934537848
 30
0.0
 10
11.4436593042
 20
7.602110494
 30
0.0
 10
11.4388057268
 20
7.6111018759
 30
0.0
 10
11.4345968196
 20
7.6203800207
 30
0.0
 10
11.4310550788
 20
7.629895487
 30
0.0
 10
11.4281994586
 20
7.639597561
 30
0.0
 10
11.4260452694
 20
7.6494345239
 30
0.0
 10
11.4246040947
 20
7.6593539233
 30
0.0
 10
11.4238837269
 20
7.6693028499
 30
0.0
 10
11.4238881208
 20
7.6792282137
 30
0.0
 10
11.4246173737
 20
7.6890770344
 30
0.0
 10
11.4260676992
 20
7.6987966839
 30
0.0
 10
11.4282315135
 20
7.7083353085
 30
0.0
 10
11.4310972057
 20
7.7176415784
 30
0.0
 10
11.4340608057
 20
7.7251698061
 30
0.0
 10
11.4367652505
 20
7.7310241639
 30
0.0
 10
11.4396838559
 20
7.7367512336
 30
0.0
 10
11.4437361812
 20
7.7436784202
 30
0.0
 10
11.4483097073
 20
7.7502620811
 30
0.0
 10
11.4522618814
 20
7.7552944857
 30
0.0
 10
11.4564026227
 20
7.7601626046
 30
0.0
 10
11.4597200617
 20
7.7636283032
 30
0.0
 10
11.4620168821
 20
7.7658468594
 30
0.0
  0
SPLINE
  5
46E
100
AcDbEntity
  8
0
100
AcDbSpline
 62
7
  6
CONTINUOUS
 70
0
 71
3
 72
29
 73
25
 74
0
 42
0.0000001
 43
0.0000001
 44
0.0000000001
 40
0.0
 40
0.0
 40
0.0
 40
0.0
 40
0.0319896504
 40
0.063866792
 40
0.0956288783
 40
0.1272824497
 40
0.1588323641
 40
0.1902849403
 40
0.2216477478
 40
0.2529290868
 40
0.284137964
 40
0.3152834703
 40
0.3463751702
 40
0.3774225621
 40
0.4394044739
 40
0.5013174333
 40
0.5632246022
 40
0.6251806654
 40
0.6872316592
 40
0.7494154566
 40
0.8117626051
 40
0.8742972969
 40
0.9370383327
 40
1.0
 40
1.0
 40
1.0
 40
1.0
 10
10.5300732522
 20
9.1551365938
 30
0.0
 10
10.5300732522
 20
9.157575772
 30
0.0
 10
10.5302004188
 20
9.1624465289
 30
0.0
 10
10.5307737564
 20
9.1697187799
 30
0.0
 10
10.5317264001
 20
9.1769254843
 30
0.0
 10
10.5330531229
 20
9.1840473301
 30
0.0
 10
10.5347468822
 20
9.1910666118
 30
0.0
 10
10.5367989027
 20
9.1979664528
 30
0.0
 10
10.53919903
 20
9.2047312568
 30
0.0
 10
10.5419357256
 20
9.2113468434
 30
0.0
 10
10.5449964528
 20
9.2178004675
 30
0.0
 10
10.5483679974
 20
9.2240807238
 30
0.0
 10
10.5520365744
 20
9.2301779014
 30
0.0
 10
10.5573011397
 20
9.2380462042
 30
0.0
 10
10.5645579153
 20
9.247392235
 30
0.0
 10
10.5742290498
 20
9.2577691709
 30
0.0
 10
10.5847506497
 20
9.2672782025
 30
0.0
 10
10.5960187599
 20
9.2759040216
 30
0.0
 10
10.6079378692
 20
9.2836416352
 30
0.0
 10
10.6204205187
 20
9.2904924073
 30
0.0
 10
10.6333871297
 20
9.296462125
 30
0.0
 10
10.6467656027
 20
9.3015592358
 30
0.0
 10
10.6604894276
 20
9.3057933458
 30
0.0
 10
10.6698134876
 20
9.308043758
 30
0.0
 10
10.6745120821
 20
9.3090289152
 30
0.0
  0
SPLINE
  5
46F
100
AcDbEntity
  8
0
100
AcDbSpline
 62
7
  6
CONTINUOUS
 70
0
 71
3
 72
78
 73
74
 74
0
 42
0.0000001
 43
0.0000001
 44
0.0000000001
 40
0.0
 40
0.0
 40
0.0
 40
0.0
 40
0.0069315607
 40
0.0105986818
 40
0.0144066946
 40
0.0183600745
 40
0.0224625768
 40
0.0267173439
 40
0.0311268963
 40
0.0356932785
 40
0.0404180544
 40
0.045302359
 40
0.0503469906
 40
0.0555523593
 40
0.0609186033
 40
0.0721323544
 40
0.0839846083
 40
0.0964676555
 40
0.1095707974
 40
0.1232807369
 40
0.1375818876
 40
0.152456613
 40
0.167885436
 40
0.1838472262
 40
0.2003193497
 40
0.2172777971
 40
0.2346972899
 40
0.2525513964
 40
0.2708126345
 40
0.2894525617
 40
0.3084418563
 40
0.3277503955
 40
0.3473473453
 40
0.3672012374
 40
0.3872800435
 40
0.4075512453
 40
0.448538136
 40
0.4898954658
 40
0.5313529895
 40
0.5726396204
 40
0.6134857076
 40
0.6336605735
 40
0.6536260181
 40
0.673349766
 40
0.6928000679
 40
0.7119457804
 40
0.7307564359
 40
0.7492023195
 40
0.7672545498
 40
0.7848851733
 40
0.802067251
 40
0.8187749458
 40
0.8349836232
 40
0.850669966
 40
0.8658121116
 40
0.8803897811
 40
0.8943844374
 40
0.9077794756
 40
0.9205604623
 40
0.9327154214
 40
0.9442351702
 40
0.9497550878
 40
0.955114279
 40
0.9603125826
 40
0.9653501677
 40
0.970227466
 40
0.9749452655
 40
0.9795047194
 40
0.9839073911
 40
0.9881554217
 40
0.992251433
 40
0.996198455
 40
1.0
 40
1.0
 40
1.0
 40
1.0
 10
11.6439157265
 20
10.7734209781
 30
0.0
 10
11.6420261522
 20
10.7758347254
 30
0.0
 10
11.638935867
 20
10.7793716285
 30
0.0
 10
11.6344358806
 20
10.7838831682
 30
0.0
 10
11.6307195311
 20
10.7873108326
 30
0.0
 10
11.6267274153
 20
10.7907170764
 30
0.0
 10
11.6224609989
 20
10.7941007682
 30
0.0
 10
11.6179221691
 20
10.797460369
 30
0.0
 10
11.6131129008
 20
10.8007945434
 30
0.0
 10
11.6080352504
 20
10.8041018269
 30
0.0
 10
11.6026914169
 20
10.8073808137
 30
0.0
 10
11.5970837243
 20
10.8106301258
 30
0.0
 10
11.5912145803
 20
10.8138482988
 30
0.0
 10
11.5850865458
 20
10.8170340233
 30
0.0
 10
11.5764470875
 20
10.8212991077
 30
0.0
 10
11.5650086438
 20
10.8265282131
 30
0.0
 10
11.5504890029
 20
10.8325630977
 30
0.0
 10
11.5350063112
 20
10.8384361362
 30
0.0
 10
11.5185875415
 20
10.8441370283
 30
0.0
 10
11.5012610985
 20
10.8496557763
 30
0.0
 10
11.4830571173
 20
10.8549826654
 30
0.0
 10
11.464007303
 20
10.8601083163
 30
0.0
 10
11.4441448938
 20
10.8650237033
 30
0.0
 10
11.4235045767
 20
10.8697201626
 30
0.0
 10
11.4021224214
 20
10.8741894144
 30
0.0
 10
11.3800358176
 20
10.8784235746
 30
0.0
 10
11.357283411
 20
10.8824151856
 30
0.0
 10
11.3339050285
 20
10.8861572168
 30
0.0
 10
11.3099416002
 20
10.8896430757
 30
0.0
 10
11.2854350865
 20
10.8928666188
 30
0.0
 10
11.2604284087
 20
10.8958221647
 30
0.0
 10
11.2349653747
 20
10.898504515
 30
0.0
 10
11.209090593
 20
10.9009089502
 30
0.0
 10
11.1828494068
 20
10.9030312308
 30
0.0
 10
11.1562877553
 20
10.9048676418
 30
0.0
 10
11.1203764978
 20
10.9069381256
 30
0.0
 10
11.0750295763
 20
10.9087845595
 30
0.0
 10
11.0202852793
 20
10.9098147929
 30
0.0
 10
10.9653987831
 20
10.9096600522
 30
0.0
 10
10.9107547011
 20
10.9083214593
 30
0.0
 10
10.8655551679
 20
10.9062189577
 30
0.0
 10
10.829811524
 20
10.9039450274
 30
0.0
 10
10.8034113456
 20
10.9019589676
 30
0.0
 10
10.7773557063
 20
10.8996889269
 30
0.0
 10
10.7516902215
 20
10.8971388728
 30
0.0
 10
10.7264598648
 20
10.8943133073
 30
0.0
 10
10.7017088307
 20
10.8912172043
 30
0.0
 10
10.6774804757
 20
10.8878560157
 30
0.0
 10
10.6538172345
 20
10.884235655
 30
0.0
 10
10.6307605402
 20
10.880362503
 30
0.0
 10
10.6083507502
 20
10.8762433881
 30
0.0
 10
10.5866270798
 20
10.8718855694
 30
0.0
 10
10.5656275323
 20
10.8672967255
 30
0.0
 10
10.5453888245
 20
10.8624849389
 30
0.0
 10
10.5259463103
 20
10.8574586976
 30
0.0
 10
10.507333921
 20
10.8522268616
 30
0.0
 10
10.4895840979
 20
10.8467986471
 30
0.0
 10
10.4727277533
 20
10.8411836039
 30
0.0
 10
10.4567941007
 20
10.8353915902
 30
0.0
 10
10.4418109146
 20
10.8294327807
 30
0.0
 10
10.4299756845
 20
10.8242658898
 30
0.0
 10
10.4210122324
 20
10.8200482548
 30
0.0
 10
10.4146391458
 20
10.8168949184
 30
0.0
 10
10.4085224274
 20
10.8137077579
 30
0.0
 10
10.4026647004
 20
10.8104881806
 30
0.0
 10
10.3970685275
 20
10.8072375412
 30
0.0
 10
10.391736335
 20
10.8039572662
 30
0.0
 10
10.3866704254
 20
10.8006488018
 30
0.0
 10
10.3818729969
 20
10.7973134975
 30
0.0
 10
10.3773460557
 20
10.7939527856
 30
0.0
 10
10.3730915566
 20
10.7905680021
 30
0.0
 10
10.3691115284
 20
10.7871607729
 30
0.0
 10
10.366595896
 20
10.7848323569
 30
0.0
 10
10.3653866945
 20
10.783664358
 30
0.0
  0
SPLINE
  5
470
100
AcDbEntity
  8
0
100
AcDbSpline
 62
7
  6
CONTINUOUS
 70
0
 71
3
 72
53
 73
49
 74
0
 42
0.0000001
 43
0.0000001
 44
0.0000000001
 40
0.0
 40
0.0
 40
0.0
 40
0.0
 40
0.0099478138
 40
0.0203710141
 40
0.0312661788
 40
0.0426283033
 40
0.0544508681
 40
0.0667261041
 40
0.0794450708
 40
0.0925977372
 40
0.1061731631
 40
0.1201594674
 40
0.1345439811
 40
0.1493132882
 40
0.1644532324
 40
0.1799490562
 40
0.2119455736
 40
0.2451738662
 40
0.2794964501
 40
0.3147691418
 40
0.3508421053
 40
0.3875608403
 40
0.4247671375
 40
0.4623000162
 40
0.4999966591
 40
0.5376933323
 40
0.5752263001
 40
0.6124327435
 40
0.6491516859
 40
0.6852249173
 40
0.7204979311
 40
0.7548208833
 40
0.7880495959
 40
0.8200465913
 40
0.8355426679
 40
0.8506828861
 40
0.8654524562
 40
0.8798372681
 40
0.8938238624
 40
0.9073995874
 40
0.9205525796
 40
0.9332718518
 40
0.9455474263
 40
0.9573703225
 40
0.9687327759
 40
0.9796283001
 40
0.9900518325
 40
1.0
 40
1.0
 40
1.0
 40
1.0
 10
11.4792854096
 20
10.6910262759
 30
0.0
 10
11.4763862793
 20
10.6924719217
 30
0.0
 10
11.4703987443
 20
10.6953313944
 30
0.0
 10
11.4610811855
 20
10.6994404083
 30
0.0
 10
11.4512275323
 20
10.7034650771
 30
0.0
 10
11.4408492484
 20
10.7074006142
 30
0.0
 10
11.4299582748
 20
10.711242508
 30
0.0
 10
11.4185672041
 20
10.7149862568
 30
0.0
 10
11.4066892152
 20
10.7186274849
 30
0.0
 10
11.3943380777
 20
10.7221619746
 30
0.0
 10
11.3815281108
 20
10.7255855558
 30
0.0
 10
11.3682741876
 20
10.7288942588
 30
0.0
 10
11.3545916988
 20
10.7320842121
 30
0.0
 10
11.3404965451
 20
10.7351516612
 30
0.0
 10
11.3260050945
 20
10.7380930847
 30
0.0
 10
11.305963073
 20
10.7418826804
 30
0.0
 10
11.2800409593
 20
10.7462663778
 30
0.0
 10
11.247955585
 20
10.7509191962
 30
0.0
 10
11.2147170068
 20
10.7549968943
 30
0.0
 10
11.1804798358
 20
10.7584803036
 30
0.0
 10
11.1454031677
 20
10.7613530117
 30
0.0
 10
11.1096501175
 20
10.7636015006
 30
0.0
 10
11.0733869672
 20
10.7652151881
 30
0.0
 10
11.0367824037
 20
10.7661864924
 30
0.0
 10
11.0000067165
 20
10.766510849
 30
0.0
 10
10.9632309982
 20
10.7661867328
 30
0.0
 10
10.9266263419
 20
10.7652156623
 30
0.0
 10
10.8903630373
 20
10.7636022021
 30
0.0
 10
10.8546097698
 20
10.7613539444
 30
0.0
 10
10.8195328223
 20
10.758481466
 30
0.0
 10
10.785295315
 20
10.7549982796
 30
0.0
 10
10.7520563469
 20
10.7509207908
 30
0.0
 10
10.719970527
 20
10.7462681728
 30
0.0
 10
10.6940480035
 20
10.7418846516
 30
0.0
 10
10.6740056254
 20
10.7380951807
 30
0.0
 10
10.6595138909
 20
10.7351538632
 30
0.0
 10
10.6454184429
 20
10.7320864869
 30
0.0
 10
10.6317356453
 20
10.7288966381
 30
0.0
 10
10.6184814046
 20
10.7255880134
 30
0.0
 10
10.6056711092
 20
10.722164508
 30
0.0
 10
10.5933196289
 20
10.7186301151
 30
0.0
 10
10.5814412925
 20
10.7149889429
 30
0.0
 10
10.5700498586
 20
10.7112452823
 30
0.0
 10
10.559158516
 20
10.7074034565
 30
0.0
 10
10.5487798573
 20
10.7034679724
 30
0.0
 10
10.5389258088
 20
10.6994433921
 30
0.0
 10
10.529607865
 20
10.6953344085
 30
0.0
 10
10.5236200514
 20
10.6924750011
 30
0.0
 10
10.5207207864
 20
10.6910293674
 30
0.0
  0
SPLINE
  5
471
100
AcDbEntity
  8
0
100
AcDbSpline
 62
7
  6
CONTINUOUS
 70
0
 71
3
 72
37
 73
33
 74
0
 42
0.0000001
 43
0.0000001
 44
0.0000000001
 40
0.0
 40
0.0
 40
0.0
 40
0.0
 40
0.0311466476
 40
0.0624482391
 40
0.093895328
 40
0.1254805417
 40
0.1571907946
 40
0.1890115952
 40
0.2209259356
 40
0.2529150311
 40
0.284958639
 40
0.3170354579
 40
0.3491235488
 40
0.3812007523
 40
0.4451977724
 40
0.5088980103
 40
0.5406103272
 40
0.5721976339
 40
0.6036476391
 40
0.6349508386
 40
0.6661007532
 40
0.6970941041
 40
0.727930928
 40
0.7586146239
 40
0.7891519281
 40
0.8195528177
 40
0.8498303372
 40
0.8800003401
 40
0.9100811543
 40
0.9400931797
 40
0.9700584251
 40
1.0
 40
1.0
 40
1.0
 40
1.0
 10
9.9001679967
 20
7.2824236441
 30
0.0
 10
9.8983282453
 20
7.2825512313
 30
0.0
 10
9.894647564
 20
7.2829417293
 30
0.0
 10
9.8891711941
 20
7.2839253004
 30
0.0
 10
9.8837534487
 20
7.2853031056
 30
0.0
 10
9.8784236693
 20
7.2870675512
 30
0.0
 10
9.8732101024
 20
7.2892093069
 30
0.0
 10
9.8681405836
 20
7.2917168587
 30
0.0
 10
9.8632421178
 20
7.2945768376
 30
0.0
 10
9.8585408097
 20
7.2977739554
 30
0.0
 10
9.8540616921
 20
7.3012911683
 30
0.0
 10
9.8498286769
 20
7.3051096432
 30
0.0
 10
9.8458641471
 20
7.3092092957
 30
0.0
 10
9.8409696116
 20
7.3150146045
 30
0.0
 10
9.8356242493
 20
7.3228578821
 30
0.0
 10
9.8314136813
 20
7.3313410995
 30
0.0
 10
9.828789004
 20
7.3383932209
 30
0.0
 10
9.8272036001
 20
7.3437796232
 30
0.0
 10
9.8260077314
 20
7.3492406956
 30
0.0
 10
9.8252076783
 20
7.3547475889
 30
0.0
 10
9.8248077983
 20
7.3602708556
 30
0.0
 10
9.8248102739
 20
7.3657810429
 30
0.0
 10
9.8252151595
 20
7.3712487303
 30
0.0
 10
9.8260203615
 20
7.3766447158
 30
0.0
 10
9.8272216528
 20
7.3819401607
 30
0.0
 10
9.8288126801
 20
7.3871067487
 30
0.0
 10
9.8307849874
 20
7.3921168401
 30
0.0
 10
9.8331280834
 20
7.3969436266
 30
0.0
 10
9.8358294551
 20
7.4015612433
 30
0.0
 10
9.8388747691
 20
7.4059450349
 30
0.0
 10
9.8422474389
 20
7.4100712244
 30
0.0
 10
9.8447032057
 20
7.4126366015
 30
0.0
 10
9.8459783207
 20
7.413868254
 30
0.0
  0
SPLINE
  5
472
100
AcDbEntity
  8
0
100
AcDbSpline
 62
7
  6
CONTINUOUS
 70
0
 71
3
 72
23
 73
19
 74
0
 42
0.0000001
 43
0.0000001
 44
0.0000000001
 40
0.0
 40
0.0
 40
0.0
 40
0.0
 40
0.0639326191
 40
0.1275595905
 40
0.1908823931
 40
0.2539227792
 40
0.316700763
 40
0.3792442357
 40
0.4415853017
 40
0.5037598743
 40
0.5658068145
 40
0.6277668364
 40
0.6896816884
 40
0.7515932631
 40
0.8135426307
 40
0.875569225
 40
0.937710212
 40
1.0
 40
1.0
 40
1.0
 40
1.0
 10
11.0595190677
 20
10.0534355936
 30
0.0
 10
11.0595190677
 20
10.0551428453
 30
0.0
 10
11.059639068
 20
10.0585504465
 30
0.0
 10
11.0601809701
 20
10.063623036
 30
0.0
 10
11.0610813451
 20
10.0686205067
 30
0.0
 10
11.062334727
 20
10.073517887
 30
0.0
 10
11.063933955
 20
10.0782915879
 30
0.0
 10
11.0658697844
 20
10.0829187543
 30
0.0
 10
11.0681312285
 20
10.0873777421
 30
0.0
 10
11.070705681
 20
10.0916481426
 30
0.0
 10
11.0735790836
 20
10.0957109038
 30
0.0
 10
11.0767361098
 20
10.0995483885
 30
0.0
 10
11.080160297
 20
10.1031444441
 30
0.0
 10
11.0838342303
 20
10.1064844312
 30
0.0
 10
11.0877396936
 20
10.1095551753
 30
0.0
 10
11.0918579239
 20
10.1123450001
 30
0.0
 10
11.0961692823
 20
10.114843497
 30
0.0
 10
11.0991557138
 20
10.1163073643
 30
0.0
 10
11.100673534
 20
10.1169878497
 30
0.0
  0
SPLINE
  5
473
100
AcDbEntity
  8
0
100
AcDbSpline
 62
7
  6
CONTINUOUS
 70
0
 71
3
 72
41
 73
37
 74
0
 42
0.0000001
 43
0.0000001
 44
0.0000000001
 40
0.0
 40
0.0
 40
0.0
 40
0.0
 40
0.0326783315
 40
0.048996403
 40
0.0652946017
 40
0.0978181137
 40
0.1302353574
 40
0.1464017531
 40
0.1625360871
 40
0.1946983477
 40
0.2267186634
 40
0.258592054
 40
0.2903168612
 40
0.3218944723
 40
0.353328978
 40
0.384626794
 40
0.4157962766
 40
0.4468473518
 40
0.4777911826
 40
0.5086398677
 40
0.539406176
 40
0.570103324
 40
0.6007447929
 40
0.6313441817
 40
0.6619150938
 40
0.6924710561
 40
0.7230254419
 40
0.7535913936
 40
0.7841817763
 40
0.8148091388
 40
0.8454856744
 40
0.8762231619
 40
0.9070328991
 40
0.9379256436
 40
0.9689115356
 40
1.0
 40
1.0
 40
1.0
 40
1.0
 10
10.4956944242
 20
9.8059154013
 30
0.0
 10
10.4984076875
 20
9.8022544172
 30
0.0
 10
10.5022832689
 20
9.7966185281
 30
0.0
 10
10.5070362939
 20
9.788851015
 30
0.0
 10
10.5115004563
 20
9.7809383038
 30
0.0
 10
10.5165391602
 20
9.7707810151
 30
0.0
 10
10.5208399984
 20
9.7603099071
 30
0.0
 10
10.5238233649
 20
9.7517909912
 30
0.0
 10
10.5264953954
 20
9.7432066292
 30
0.0
 10
10.5292614819
 20
9.7323436291
 30
0.0
 10
10.531660358
 20
9.7191551234
 30
0.0
 10
10.5331410864
 20
9.7058935823
 30
0.0
 10
10.5337148246
 20
9.69262413
 30
0.0
 10
10.5333980676
 20
9.6794075471
 30
0.0
 10
10.5322114964
 20
9.6663006133
 30
0.0
 10
10.5301791401
 20
9.6533558528
 30
0.0
 10
10.5273275533
 20
9.6406216481
 30
0.0
 10
10.5236851159
 20
9.6281424159
 30
0.0
 10
10.5192814427
 20
9.6159588805
 30
0.0
 10
10.5141469045
 20
9.6041083977
 30
0.0
 10
10.5083122533
 20
9.59262531
 30
0.0
 10
10.5018083478
 20
9.5815413095
 30
0.0
 10
10.494665964
 20
9.5708857952
 30
0.0
 10
10.4869156794
 20
9.5606862124
 30
0.0
 10
10.4785878193
 20
9.5509683699
 30
0.0
 10
10.4697124588
 20
9.5417567281
 30
0.0
 10
10.4603194703
 20
9.5330746624
 30
0.0
 10
10.4504386079
 20
9.524944701
 30
0.0
 10
10.4400996304
 20
9.5173887253
 30
0.0
 10
10.4293324482
 20
9.5104281376
 30
0.0
 10
10.4181673041
 20
9.5040840007
 30
0.0
 10
10.4066349601
 20
9.4983771333
 30
0.0
 10
10.3947669867
 20
9.4933281927
 30
0.0
 10
10.3825957605
 20
9.4889576517
 30
0.0
 10
10.3701556392
 20
9.4852859704
 30
0.0
 10
10.3617198024
 20
9.4833206323
 30
0.0
 10
10.3574708187
 20
9.4824607428
 30
0.0
  0
SPLINE
  5
474
100
AcDbEntity
  8
0
100
AcDbSpline
 62
7
  6
CONTINUOUS
 70
0
 71
3
 72
23
 73
19
 74
0
 42
0.0000001
 43
0.0000001
 44
0.0000000001
 40
0.0
 40
0.0
 40
0.0
 40
0.0
 40
0.0749628755
 40
0.1455692105
 40
0.2121610308
 40
0.2751643503
 40
0.3350995418
 40
0.3925846725
 40
0.4483308921
 40
0.5031250774
 40
0.5577995457
 40
0.6131926739
 40
0.670107897
 40
0.7292790073
 40
0.7913522907
 40
0.8568786303
 40
0.9263109639
 40
1.0
 40
1.0
 40
1.0
 40
1.0
 10
10.1010903878
 20
10.6155453679
 30
0.0
 10
10.1004984131
 20
10.6160962586
 30
0.0
 10
10.0993816774
 20
10.6172022456
 30
0.0
 10
10.0978748623
 20
10.6189277503
 30
0.0
 10
10.096589944
 20
10.6206669198
 30
0.0
 10
10.095528836
 20
10.6224182453
 30
0.0
 10
10.0946933192
 20
10.6241801831
 30
0.0
 10
10.0940852497
 20
10.6259509221
 30
0.0
 10
10.09370637
 20
10.6277281926
 30
0.0
 10
10.0935579786
 20
10.6295091713
 30
0.0
 10
10.0936407163
 20
10.6312906258
 30
0.0
 10
10.0939541922
 20
10.6330692676
 30
0.0
 10
10.0944973262
 20
10.6348421047
 30
0.0
 10
10.095268352
 20
10.6366067464
 30
0.0
 10
10.0962655497
 20
10.6383612441
 30
0.0
 10
10.097487077
 20
10.6401040834
 30
0.0
 10
10.098931049
 20
10.6418335659
 30
0.0
 10
10.1000074214
 20
10.6429424609
 30
0.0
 10
10.100579163
 20
10.643494721
 30
0.0
  0
SPLINE
  5
475
100
AcDbEntity
  8
0
100
AcDbSpline
 62
7
  6
CONTINUOUS
 70
0
 71
3
 72
11
 73
7
 74
0
 42
0.0000001
 43
0.0000001
 44
0.0000000001
 40
0.0
 40
0.0
 40
0.0
 40
0.0
 40
0.2350093774
 40
0.4802265778
 40
0.7354381532
 40
1.0
 40
1.0
 40
1.0
 40
1.0
 10
10.4645939518
 20
9.7709848873
 30
0.0
 10
10.4645931602
 20
9.7741227735
 30
0.0
 10
10.4644019418
 20
9.7805355078
 30
0.0
 10
10.4636591696
 20
9.7903293961
 30
0.0
 10
10.4625360288
 20
9.8004832236
 30
0.0
 10
10.4616080247
 20
9.8073614438
 30
0.0
 10
10.4611109571
 20
9.8108587728
 30
0.0
  0
SPLINE
  5
476
100
AcDbEntity
  8
0
100
AcDbSpline
 62
7
  6
CONTINUOUS
 70
0
 71
3
 72
53
 73
49
 74
0
 42
0.0000001
 43
0.0000001
 44
0.0000000001
 40
0.0
 40
0.0
 40
0.0
 40
0.0
 40
0.003125957
 40
0.0058654366
 40
0.0082210968
 40
0.0102062304
 40
0.0110697766
 40
0.0118557027
 40
0.0132317908
 40
0.0138535301
 40
0.0144540089
 40
0.0150537605
 40
0.0156727038
 40
0.017031621
 40
0.0177997893
 40
0.0186369786
 40
0.0205356255
 40
0.0227504206
 40
0.0239783347
 40
0.0252859097
 40
0.0281358701
 40
0.0312900916
 40
0.0347355973
 40
0.0384579513
 40
0.042441505
 40
0.0511322966
 40
0.0606938803
 40
0.0710213775
 40
0.0820248948
 40
0.0936247207
 40
0.105756631
 40
0.1183615758
 40
0.1448142966
 40
0.1726838312
 40
0.2017575106
 40
0.2318843958
 40
0.2629528185
 40
0.2948870059
 40
0.3276300971
 40
0.3611461365
 40
0.4304000987
 40
0.5025704479
 40
0.577681968
 40
0.6558223949
 40
0.7371024393
 40
0.8216057869
 40
0.9093156363
 40
1.0
 40
1.0
 40
1.0
 40
1.0
 10
10.464593942
 20
9.6035123798
 30
0.0
 10
10.4645937356
 20
9.6037179349
 30
0.0
 10
10.4645844323
 20
9.6041037388
 30
0.0
 10
10.4645373227
 20
9.604642765
 30
0.0
 10
10.4644582999
 20
9.6051022121
 30
0.0
 10
10.4643620779
 20
9.6054319356
 30
0.0
 10
10.4642657935
 20
9.605651148
 30
0.0
 10
10.4641678204
 20
9.6058244091
 30
0.0
 10
10.4640495351
 20
9.6059681406
 30
0.0
 10
10.463910029
 20
9.6060682705
 30
0.0
 10
10.4638008564
 20
9.6061193408
 30
0.0
 10
10.4636841982
 20
9.606148829
 30
0.0
 10
10.4635142632
 20
9.606160089
 30
0.0
 10
10.4633339709
 20
9.6061262623
 30
0.0
 10
10.4631510694
 20
9.606058635
 30
0.0
 10
10.4629433093
 20
9.6059581493
 30
0.0
 10
10.462668904
 20
9.6057810341
 30
0.0
 10
10.4623955878
 20
9.6055597576
 30
0.0
 10
10.4621642243
 20
9.6053498209
 30
0.0
 10
10.4619100999
 20
9.6051030932
 30
0.0
 10
10.4615800737
 20
9.6047531319
 30
0.0
 10
10.4611734442
 20
9.6042830907
 30
0.0
 10
10.460746602
 20
9.6037552179
 30
0.0
 10
10.4603004531
 20
9.603173189
 30
0.0
 10
10.4596622504
 20
9.6023040774
 30
0.0
 10
10.4588264544
 20
9.6011040761
 30
0.0
 10
10.4577842748
 20
9.5995400972
 30
0.0
 10
10.456680137
 20
9.597834895
 30
0.0
 10
10.4555176585
 20
9.5960079125
 30
0.0
 10
10.4542992432
 20
9.5940759161
 30
0.0
 10
10.4530273115
 20
9.5920531764
 30
0.0
 10
10.4512323656
 20
9.589205581
 30
0.0
 10
10.4488698891
 20
9.5854924066
 30
0.0
 10
10.4458761075
 20
9.5808976063
 30
0.0
 10
10.4426822411
 20
9.5761454051
 30
0.0
 10
10.4392886911
 20
9.5712748707
 30
0.0
 10
10.4356933945
 20
9.56631688
 30
0.0
 10
10.4318941169
 20
9.5612958332
 30
0.0
 10
10.4278865537
 20
9.5562323368
 30
0.0
 10
10.422198036
 20
9.5493724309
 30
0.0
 10
10.4145357077
 20
9.5407852298
 30
0.0
 10
10.4045179952
 20
9.5306571684
 30
0.0
 10
10.3935265289
 20
9.520699744
 30
0.0
 10
10.3815060118
 20
9.5110230011
 30
0.0
 10
10.3684033888
 20
9.5017522372
 30
0.0
 10
10.3541781631
 20
9.4930377672
 30
0.0
 10
10.3388229974
 20
9.4850641871
 30
0.0
 10
10.3280198723
 20
9.4804553791
 30
0.0
 10
10.3224458487
 20
9.4783364655
 30
0.0
  0
SPLINE
  5
477
100
AcDbEntity
  8
0
100
AcDbSpline
 62
7
  6
CONTINUOUS
 70
0
 71
3
 72
40
 73
36
 74
0
 42
0.0000001
 43
0.0000001
 44
0.0000000001
 40
0.0
 40
0.0
 40
0.0
 40
0.0
 40
0.0304627124
 40
0.0607944752
 40
0.0910240327
 40
0.1211834829
 40
0.1513070159
 40
0.1814296783
 40
0.2115861278
 40
0.2418094612
 40
0.2721301572
 40
0.3025751692
 40
0.3331671899
 40
0.3639240925
 40
0.3948585489
 40
0.4259778123
 40
0.4572836494
 40
0.4887724089
 40
0.5204352077
 40
0.5522582248
 40
0.5842230916
 40
0.6163073729
 40
0.6484851336
 40
0.6807275891
 40
0.713003836
 40
0.7452816603
 40
0.777528414
 40
0.8097119503
 40
0.8418015924
 40
0.8737691361
 40
0.9055897636
 40
0.9372431188
 40
0.9530054444
 40
0.9687214106
 40
1.0
 40
1.0
 40
1.0
 40
1.0
 10
9.9729206788
 20
10.227193666
 30
0.0
 10
9.972220856
 20
10.225123322
 30
0.0
 10
9.9706294898
 20
10.221054354
 30
0.0
 10
9.9676829819
 20
10.2152163017
 30
0.0
 10
9.9642072541
 20
10.2097019484
 30
0.0
 10
9.9602322001
 20
10.2045549946
 30
0.0
 10
9.9557912184
 20
10.1998147257
 30
0.0
 10
9.950921188
 20
10.1955168985
 30
0.0
 10
9.9456619166
 20
10.1916932573
 30
0.0
 10
9.9400557371
 20
10.1883715
 30
0.0
 10
9.9341470856
 20
10.1855751971
 30
0.0
 10
9.9279821177
 20
10.1833237826
 30
0.0
 10
9.9216083543
 20
10.1816325694
 30
0.0
 10
9.9150743621
 20
10.1805127857
 30
0.0
 10
9.9084294638
 20
10.1799716217
 30
0.0
 10
9.9017234759
 20
10.180012275
 30
0.0
 10
9.8950064634
 20
10.1806339924
 30
0.0
 10
9.8883285083
 20
10.1818321009
 30
0.0
 10
9.8817394789
 20
10.1835980292
 30
0.0
 10
9.8752887949
 20
10.1859193204
 30
0.0
 10
9.8690251795
 20
10.1887796387
 30
0.0
 10
9.8629963919
 20
10.1921587764
 30
0.0
 10
9.8572489354
 20
10.1960326688
 30
0.0
 10
9.8518277372
 20
10.2003734241
 30
0.0
 10
9.8467758002
 20
10.2051493801
 30
0.0
 10
9.8421338273
 20
10.2103251963
 30
0.0
 10
9.8379398235
 20
10.2158619888
 30
0.0
 10
9.8342286823
 20
10.2217175329
 30
0.0
 10
9.8310317702
 20
10.2278464774
 30
0.0
 10
9.8283765052
 20
10.2342008049
 30
0.0
 10
9.826286025
 20
10.2407296991
 30
0.0
 10
9.825027999
 20
10.2462813287
 30
0.0
 10
9.8243212986
 20
10.2507563421
 30
0.0
 10
9.8238167142
 20
10.2552312587
 30
0.0
 10
9.8236635026
 20
10.2586051917
 30
0.0
 10
9.8236635026
 20
10.2608491471
 30
0.0
  0
SPLINE
  5
478
100
AcDbEntity
  8
0
100
AcDbSpline
 62
7
  6
CONTINUOUS
 70
0
 71
3
 72
15
 73
11
 74
0
 42
0.0000001
 43
0.0000001
 44
0.0000000001
 40
0.0
 40
0.0
 40
0.0
 40
0.0
 40
0.1233171148
 40
0.2468171822
 40
0.3706750007
 40
0.4950496181
 40
0.6200773069
 40
0.7458672043
 40
0.8724928123
 40
1.0
 40
1.0
 40
1.0
 40
1.0
 10
9.9543576726
 20
7.3016634721
 30
0.0
 10
9.9526073501
 20
7.2999728094
 30
0.0
 10
9.9489188341
 20
7.2967749593
 30
0.0
 10
9.9428988625
 20
7.2925962132
 30
0.0
 10
9.9364482583
 20
7.2890736065
 30
0.0
 10
9.9296330707
 20
7.2862433152
 30
0.0
 10
9.9225220359
 20
7.2841334361
 30
0.0
 10
9.9151867817
 20
7.2827650848
 30
0.0
 10
9.9077021848
 20
7.2821515633
 30
0.0
 10
9.9026781632
 20
7.2822495635
 30
0.0
 10
9.9001679967
 20
7.2824236441
 30
0.0
  0
SPLINE
  5
479
100
AcDbEntity
  8
0
100
AcDbSpline
 62
7
  6
CONTINUOUS
 70
0
 71
3
 72
15
 73
11
 74
0
 42
0.0000001
 43
0.0000001
 44
0.0000000001
 40
0.0
 40
0.0
 40
0.0
 40
0.0
 40
0.1233107633
 40
0.2469887131
 40
0.3711045636
 40
0.4957193818
 40
0.6208846932
 40
0.7466354355
 40
0.8730075258
 40
1.0
 40
1.0
 40
1.0
 40
1.0
 10
11.5094223647
 20
7.1823408906
 30
0.0
 10
11.5079176432
 20
7.1814776853
 30
0.0
 10
11.504836887
 20
7.179862357
 30
0.0
 10
11.5000393563
 20
7.1777915278
 30
0.0
 10
11.4950825682
 20
7.1760798927
 30
0.0
 10
11.4899920278
 20
7.1747366171
 30
0.0
 10
11.4847936299
 20
7.1737687569
 30
0.0
 10
11.4795137512
 20
7.1731813179
 30
0.0
 10
11.4741798212
 20
7.1729775444
 30
0.0
 10
11.4706139226
 20
7.1730978432
 30
0.0
 10
11.4688316727
 20
7.1732214427
 30
0.0
  0
SPLINE
  5
47A
100
AcDbEntity
  8
0
100
AcDbSpline
 62
7
  6
CONTINUOUS
 70
0
 71
3
 72
34
 73
30
 74
0
 42
0.0000001
 43
0.0000001
 44
0.0000000001
 40
0.0
 40
0.0
 40
0.0
 40
0.0
 40
0.0187182873
 40
0.0372554154
 40
0.0558277331
 40
0.0746456243
 40
0.0939050905
 40
0.1137836076
 40
0.1344355134
 40
0.1559924891
 40
0.1785622406
 40
0.2022316816
 40
0.2270674079
 40
0.2531187587
 40
0.2804191559
 40
0.3089875259
 40
0.3388305627
 40
0.3699421692
 40
0.4023064694
 40
0.4358963431
 40
0.470675716
 40
0.5065991223
 40
0.5436120349
 40
0.5816524119
 40
0.6605259577
 40
0.7425742896
 40
0.8270545684
 40
0.9131491917
 40
1.0
 40
1.0
 40
1.0
 40
1.0
 10
10.6200777059
 20
8.5004435513
 30
0.0
 10
10.6208609685
 20
8.5010453615
 30
0.0
 10
10.6224734721
 20
8.5021754784
 30
0.0
 10
10.6250334792
 20
8.5036413073
 30
0.0
 10
10.6277213339
 20
8.5048699264
 30
0.0
 10
10.6305431842
 20
8.5058679116
 30
0.0
 10
10.6335051684
 20
8.5066428379
 30
0.0
 10
10.636613194
 20
8.5072024118
 30
0.0
 10
10.6398729852
 20
8.5075546949
 30
0.0
 10
10.6432899156
 20
8.5077076398
 30
0.0
 10
10.6468689084
 20
8.5076692091
 30
0.0
 10
10.6506142254
 20
8.5074472329
 30
0.0
 10
10.6545294146
 20
8.5070494978
 30
0.0
 10
10.6586171738
 20
8.5064837472
 30
0.0
 10
10.662879299
 20
8.5057577318
 30
0.0
 10
10.6673166337
 20
8.5048792113
 30
0.0
 10
10.6719289823
 20
8.503856037
 30
0.0
 10
10.6767151196
 20
8.5026960589
 30
0.0
 10
10.6816726948
 20
8.5014072798
 30
0.0
 10
10.6867982506
 20
8.4999976886
 30
0.0
 10
10.6920871554
 20
8.4984753926
 30
0.0
 10
10.6975336044
 20
8.4968485342
 30
0.0
 10
10.7031306091
 20
8.4951252529
 30
0.0
 10
10.7108766697
 20
8.49268029
 30
0.0
 10
10.7208606884
 20
8.4894310939
 30
0.0
 10
10.7331421092
 20
8.4853240633
 30
0.0
 10
10.7457603887
 20
8.4810236196
 30
0.0
 10
10.7585993243
 20
8.4765854991
 30
0.0
 10
10.7672133684
 20
8.4735707844
 30
0.0
 10
10.7715360078
 20
8.4720477256
 30
0.0
  0
SPLINE
  5
47B
100
AcDbEntity
  8
0
100
AcDbSpline
 62
7
  6
CONTINUOUS
 70
0
 71
3
 72
30
 73
26
 74
0
 42
0.0000001
 43
0.0000001
 44
0.0000000001
 40
0.0
 40
0.0
 40
0.0
 40
0.0
 40
0.0300365905
 40
0.0601689807
 40
0.0904077219
 40
0.1207615829
 40
0.1512374409
 40
0.1818402659
 40
0.2434080702
 40
0.3054967328
 40
0.3680784785
 40
0.4310978089
 40
0.4944736719
 40
0.5581028595
 40
0.6218639447
 40
0.685623181
 40
0.7492414743
 40
0.7809706856
 40
0.8126150099
 40
0.8441597339
 40
0.8755917631
 40
0.906899924
 40
0.9380740251
 40
0.9691103349
 40
1.0
 40
1.0
 40
1.0
 40
1.0
 10
11.1743646079
 20
7.3227686095
 30
0.0
 10
11.1728944764
 20
7.3221095045
 30
0.0
 10
11.1699047451
 20
7.3208866442
 30
0.0
 10
11.165302539
 20
7.3193479866
 30
0.0
 10
11.1605936702
 20
7.3181064589
 30
0.0
 10
11.1557970101
 20
7.3171657085
 30
0.0
 10
11.150930871
 20
7.3165283011
 30
0.0
 10
11.1443637423
 20
7.3160841494
 30
0.0
 10
11.13606938
 20
7.3162980862
 30
0.0
 10
11.1261651763
 20
7.3177721804
 30
0.0
 10
11.1164335436
 20
7.3204432795
 30
0.0
 10
11.1070242027
 20
7.3242765417
 30
0.0
 10
11.0980842545
 20
7.3292216189
 30
0.0
 10
11.0897590406
 20
7.3352120845
 30
0.0
 10
11.0821895652
 20
7.3421643659
 30
0.0
 10
11.075511198
 20
7.3499756015
 30
0.0
 10
11.0707860531
 20
7.3571109907
 30
0.0
 10
11.0675713802
 20
7.3631205808
 30
0.0
 10
11.0654562301
 20
7.3677556225
 30
0.0
 10
11.0636467077
 20
7.3725011113
 30
0.0
 10
11.0621523075
 20
7.3773363186
 30
0.0
 10
11.0609812102
 20
7.3822394336
 30
0.0
 10
11.0601396941
 20
7.3871883391
 30
0.0
 10
11.0596326302
 20
7.3921598659
 30
0.0
 10
11.0595190678
 20
7.395482563
 30
0.0
 10
11.0595190678
 20
7.3971394402
 30
0.0
  0
SPLINE
  5
47C
100
AcDbEntity
  8
0
100
AcDbSpline
 62
7
  6
CONTINUOUS
 70
0
 71
3
 72
39
 73
35
 74
0
 42
0.0000001
 43
0.0000001
 44
0.0000000001
 40
0.0
 40
0.0
 40
0.0
 40
0.0
 40
0.0299152276
 40
0.0598232081
 40
0.0897580413
 40
0.1197507396
 40
0.1498295507
 40
0.1800183099
 40
0.2103359891
 40
0.2407964732
 40
0.2714087067
 40
0.302177084
 40
0.3331019841
 40
0.3641803643
 40
0.3954063503
 40
0.4267717812
 40
0.4582666868
 40
0.4898796872
 40
0.5215983157
 40
0.55340927
 40
0.5852986011
 40
0.6172518505
 40
0.6492541458
 40
0.6812902657
 40
0.7133446836
 40
0.7454015992
 40
0.7774449688
 40
0.8094585419
 40
0.8414259167
 40
0.8733306251
 40
0.9051562604
 40
0.936886663
 40
0.9685061781
 40
1.0
 40
1.0
 40
1.0
 40
1.0
 10
10.4956944094
 20
7.7238283055
 30
0.0
 10
10.4925692658
 20
7.7200450336
 30
0.0
 10
10.4859622272
 20
7.7127666882
 30
0.0
 10
10.4750777844
 20
7.7028217287
 30
0.0
 10
10.4633093481
 20
7.6939179403
 30
0.0
 10
10.450754851
 20
7.6861105054
 30
0.0
 10
10.4375161493
 20
7.679438243
 30
0.0
 10
10.4236975777
 20
7.6739261342
 30
0.0
 10
10.4094030376
 20
7.6695858075
 30
0.0
 10
10.3947339804
 20
7.6664172589
 30
0.0
 10
10.3797878305
 20
7.6644105521
 30
0.0
 10
10.3646569579
 20
7.6635476392
 30
0.0
 10
10.3494281073
 20
7.6638040822
 30
0.0
 10
10.3341822129
 20
7.6651506087
 30
0.0
 10
10.3189945097
 20
7.6675544455
 30
0.0
 10
10.3039348565
 20
7.6709804139
 30
0.0
 10
10.2890681983
 20
7.675391793
 30
0.0
 10
10.274455113
 20
7.6807509662
 30
0.0
 10
10.2601523961
 20
7.6870198782
 30
0.0
 10
10.2462136537
 20
7.6941603245
 30
0.0
 10
10.2326898822
 20
7.7021341012
 30
0.0
 10
10.219630018
 20
7.7109030328
 30
0.0
 10
10.2070814511
 20
7.7204288984
 30
0.0
 10
10.1950904923
 20
7.7306732672
 30
0.0
 10
10.1837027916
 20
7.7415972568
 30
0.0
 10
10.1729637015
 20
7.753161218
 30
0.0
 10
10.1629185801
 20
7.7653243542
 30
0.0
 10
10.1536130239
 20
7.778044279
 30
0.0
 10
10.1450930241
 20
7.7912765048
 30
0.0
 10
10.1374050186
 20
7.8049739146
 30
0.0
 10
10.130595863
 20
7.8190860419
 30
0.0
 10
10.1247125449
 20
7.8335588478
 30
0.0
 10
10.1198021794
 20
7.8483324991
 30
0.0
 10
10.1172019487
 20
7.8583632466
 30
0.0
 10
10.1160804324
 20
7.8634060869
 30
0.0
  0
SPLINE
  5
47D
100
AcDbEntity
  8
0
100
AcDbSpline
 62
7
  6
CONTINUOUS
 70
0
 71
3
 72
31
 73
27
 74
0
 42
0.0000001
 43
0.0000001
 44
0.0000000001
 40
0.0
 40
0.0
 40
0.0
 40
0.0
 40
0.0165871334
 40
0.0341538496
 40
0.0527304463
 40
0.0723389123
 40
0.0929936446
 40
0.1147031633
 40
0.1374704021
 40
0.1612940169
 40
0.1861684261
 40
0.2120848056
 40
0.2390310176
 40
0.2669923564
 40
0.2959514567
 40
0.3258888337
 40
0.3567828269
 40
0.3886099628
 40
0.4549591526
 40
0.5247176576
 40
0.5976421064
 40
0.6734695843
 40
0.751920056
 40
0.8326988668
 40
0.9154981224
 40
1.0
 40
1.0
 40
1.0
 40
1.0
 10
9.6400787885
 20
6.4027301321
 30
0.0
 10
9.6411969437
 20
6.401689572
 30
0.0
 10
9.6435685842
 20
6.3996206244
 30
0.0
 10
9.6474010898
 20
6.3966357174
 30
0.0
 10
9.6516045719
 20
6.3936848585
 30
0.0
 10
9.6561746263
 20
6.3907711923
 30
0.0
 10
9.6611066196
 20
6.3878974686
 30
0.0
 10
9.6663955317
 20
6.3850666994
 30
0.0
 10
9.6720359056
 20
6.3822817007
 30
0.0
 10
9.6780219443
 20
6.3795454288
 30
0.0
 10
9.6843474306
 20
6.3768606648
 30
0.0
 10
9.6910058081
 20
6.374230275
 30
0.0
 10
9.697990133
 20
6.3716569667
 30
0.0
 10
9.7052931259
 20
6.3691434884
 30
0.0
 10
9.7129071516
 20
6.3666924478
 30
0.0
 10
9.7208242451
 20
6.3643064627
 30
0.0
 10
9.7290361247
 20
6.3619879992
 30
0.0
 10
9.7405266599
 20
6.3589478775
 30
0.0
 10
9.7555683271
 20
6.3553464584
 30
0.0
 10
9.7744079506
 20
6.3513883672
 30
0.0
 10
9.7942004455
 20
6.3477530685
 30
0.0
 10
9.8148627677
 20
6.3444560068
 30
0.0
 10
9.8363083585
 20
6.3415112156
 30
0.0
 10
9.8584472415
 20
6.3389312213
 30
0.0
 10
9.8811864304
 20
6.3367269796
 30
0.0
 10
9.8965464082
 20
6.3355248877
 30
0.0
 10
9.9043091283
 20
6.3349865412
 30
0.0
  0
SPLINE
  5
47E
100
AcDbEntity
  8
0
100
AcDbSpline
 62
7
  6
CONTINUOUS
 70
0
 71
3
 72
21
 73
17
 74
0
 42
0.0000001
 43
0.0000001
 44
0.0000000001
 40
0.0
 40
0.0
 40
0.0
 40
0.0
 40
0.0618613272
 40
0.1236696641
 40
0.185457334
 40
0.2472570757
 40
0.3091014833
 40
0.3710225827
 40
0.433051291
 40
0.4952168328
 40
0.5575464116
 40
0.6200647069
 40
0.6827933684
 40
0.7457514075
 40
0.8723494696
 40
1.0
 40
1.0
 40
1.0
 40
1.0
 10
11.530427782
 20
10.0988593789
 30
0.0
 10
11.5295652641
 20
10.0976879227
 30
0.0
 10
11.5277659546
 20
10.0954001787
 30
0.0
 10
11.5248547446
 20
10.0921490638
 30
0.0
 10
11.5217425708
 20
10.0890915656
 30
0.0
 10
11.5184404557
 20
10.0862390267
 30
0.0
 10
11.5149600242
 20
10.0836017879
 30
0.0
 10
11.5113136142
 20
10.0811895057
 30
0.0
 10
11.5075141492
 20
10.0790110891
 30
0.0
 10
11.5035751903
 20
10.0770745691
 30
0.0
 10
11.4995108306
 20
10.0753870843
 30
0.0
 10
11.4953356879
 20
10.0739549404
 30
0.0
 10
11.4910646067
 20
10.0727834646
 30
0.0
 10
11.485253361
 20
10.0715728143
 30
0.0
 10
11.477821459
 20
10.0707339123
 30
0.0
 10
11.4718260708
 20
10.0707914492
 30
0.0
 10
11.4688314304
 20
10.0709991283
 30
0.0
  0
SPLINE
  5
47F
100
AcDbEntity
  8
0
100
AcDbSpline
 62
7
  6
CONTINUOUS
 70
0
 71
3
 72
30
 73
26
 74
0
 42
0.0000001
 43
0.0000001
 44
0.0000000001
 40
0.0
 40
0.0
 40
0.0
 40
0.0
 40
0.0300365905
 40
0.0601689807
 40
0.090407722
 40
0.1207615829
 40
0.151237441
 40
0.1818402659
 40
0.2434080703
 40
0.305496733
 40
0.3680784787
 40
0.4310978092
 40
0.4944736722
 40
0.5581028598
 40
0.621863945
 40
0.6856231814
 40
0.7492414747
 40
0.7809706859
 40
0.8126150102
 40
0.8441597341
 40
0.8755917632
 40
0.9068999242
 40
0.9380740251
 40
0.9691103349
 40
1.0
 40
1.0
 40
1.0
 40
1.0
 10
11.1743646079
 20
9.9790647604
 30
0.0
 10
11.1728944764
 20
9.9784056554
 30
0.0
 10
11.169904745
 20
9.9771827951
 30
0.0
 10
11.1653025389
 20
9.9756441374
 30
0.0
 10
11.1605936699
 20
9.9744026098
 30
0.0
 10
11.1557970097
 20
9.9734618593
 30
0.0
 10
11.1509308706
 20
9.9728244519
 30
0.0
 10
11.1443637418
 20
9.9723803003
 30
0.0
 10
11.1360693794
 20
9.9725942372
 30
0.0
 10
11.1261651755
 20
9.9740683314
 30
0.0
 10
11.1164335426
 20
9.9767394307
 30
0.0
 10
11.1070242017
 20
9.9805726931
 30
0.0
 10
11.0980842534
 20
9.9855177705
 30
0.0
 10
11.0897590394
 20
9.9915082363
 30
0.0
 10
11.082189564
 20
9.998460518
 30
0.0
 10
11.0755111969
 20
10.0062717539
 30
0.0
 10
11.0707860521
 20
10.0134071433
 30
0.0
 10
11.0675713793
 20
10.0194167335
 30
0.0
 10
11.0654562293
 20
10.0240517754
 30
0.0
 10
11.0636467069
 20
10.0287972643
 30
0.0
 10
11.0621523069
 20
10.0336324717
 30
0.0
 10
11.0609812098
 20
10.0385355868
 30
0.0
 10
11.0601396937
 20
10.0434844924
 30
0.0
 10
11.05963263
 20
10.0484560193
 30
0.0
 10
11.0595190677
 20
10.0517787164
 30
0.0
 10
11.0595190677
 20
10.0534355936
 30
0.0
  0
SPLINE
  5
480
100
AcDbEntity
  8
0
100
AcDbSpline
 62
7
  6
CONTINUOUS
 70
0
 71
3
 72
19
 73
15
 74
0
 42
0.0000001
 43
0.0000001
 44
0.0000000001
 40
0.0
 40
0.0
 40
0.0
 40
0.0
 40
0.0616584454
 40
0.1233399317
 40
0.185067215
 40
0.2468625626
 40
0.3087474945
 40
0.3707425066
 40
0.4328668994
 40
0.4951385746
 40
0.6201443393
 40
0.7459117862
 40
0.8725152911
 40
1.0
 40
1.0
 40
1.0
 40
1.0
 10
9.9069829024
 20
9.737709458
 30
0.0
 10
9.9054062041
 20
9.7361864857
 30
0.0
 10
9.9021696137
 20
9.7332241746
 30
0.0
 10
9.8970819427
 20
9.7290472103
 30
0.0
 10
9.891773332
 20
9.7251463549
 30
0.0
 10
9.8862573783
 20
9.721531558
 30
0.0
 10
9.8805478831
 20
9.7182119224
 30
0.0
 10
9.8746593193
 20
9.7151958178
 30
0.0
 10
9.8686063172
 20
9.7124907347
 30
0.0
 10
9.8603280772
 20
9.709304302
 30
0.0
 10
9.8496370698
 20
9.7061319281
 30
0.0
 10
9.8364246129
 20
9.703667324
 30
0.0
 10
9.82294243
 20
9.7025621104
 30
0.0
 10
9.8138926681
 20
9.7027386393
 30
0.0
 10
9.8093710963
 20
9.7030522114
 30
0.0
  0
SPLINE
  5
481
100
AcDbEntity
  8
0
100
AcDbSpline
 62
7
  6
CONTINUOUS
 70
0
 71
3
 72
19
 73
15
 74
0
 42
0.0000001
 43
0.0000001
 44
0.0000000001
 40
0.0
 40
0.0
 40
0.0
 40
0.0
 40
0.0616584454
 40
0.1233399317
 40
0.185067215
 40
0.2468625626
 40
0.3087474945
 40
0.3707425066
 40
0.4328668994
 40
0.4951385746
 40
0.6201443393
 40
0.7459117862
 40
0.8725152911
 40
1.0
 40
1.0
 40
1.0
 40
1.0
 10
9.9069829024
 20
7.6851169555
 30
0.0
 10
9.9054062041
 20
7.6835939832
 30
0.0
 10
9.9021696137
 20
7.6806316721
 30
0.0
 10
9.8970819427
 20
7.6764547078
 30
0.0
 10
9.891773332
 20
7.6725538524
 30
0.0
 10
9.8862573783
 20
7.6689390555
 30
0.0
 10
9.8805478831
 20
7.6656194199
 30
0.0
 10
9.8746593193
 20
7.6626033153
 30
0.0
 10
9.8686063172
 20
7.6598982323
 30
0.0
 10
9.8603280772
 20
7.6567117995
 30
0.0
 10
9.8496370698
 20
7.6535394256
 30
0.0
 10
9.8364246129
 20
7.6510748215
 30
0.0
 10
9.82294243
 20
7.649969608
 30
0.0
 10
9.8138926681
 20
7.6501461369
 30
0.0
 10
9.8093710963
 20
7.6504597089
 30
0.0
  0
SPLINE
  5
482
100
AcDbEntity
  8
0
100
AcDbSpline
 62
7
  6
CONTINUOUS
 70
0
 71
3
 72
19
 73
15
 74
0
 42
0.0000001
 43
0.0000001
 44
0.0000000001
 40
0.0
 40
0.0
 40
0.0
 40
0.0
 40
0.0616584454
 40
0.1233399317
 40
0.185067215
 40
0.2468625626
 40
0.3087474945
 40
0.3707425066
 40
0.4328668994
 40
0.4951385746
 40
0.6201443393
 40
0.7459117862
 40
0.8725152911
 40
1.0
 40
1.0
 40
1.0
 40
1.0
 10
11.6572404944
 20
7.5637361792
 30
0.0
 10
11.6556637961
 20
7.5622132069
 30
0.0
 10
11.6524272057
 20
7.5592508959
 30
0.0
 10
11.6473395347
 20
7.5550739315
 30
0.0
 10
11.642030924
 20
7.5511730761
 30
0.0
 10
11.6365149703
 20
7.5475582792
 30
0.0
 10
11.6308054752
 20
7.5442386436
 30
0.0
 10
11.6249169113
 20
7.541222539
 30
0.0
 10
11.6188639092
 20
7.538517456
 30
0.0
 10
11.6105856693
 20
7.5353310233
 30
0.0
 10
11.5998946618
 20
7.5321586494
 30
0.0
 10
11.5866822049
 20
7.5296940452
 30
0.0
 10
11.573200022
 20
7.5285888317
 30
0.0
 10
11.5641502602
 20
7.5287653606
 30
0.0
 10
11.5596286883
 20
7.5290789327
 30
0.0
  0
SPLINE
  5
483
100
AcDbEntity
  8
0
100
AcDbSpline
 62
7
  6
CONTINUOUS
 70
0
 71
3
 72
23
 73
19
 74
0
 42
0.0000001
 43
0.0000001
 44
0.0000000001
 40
0.0
 40
0.0
 40
0.0
 40
0.0
 40
0.0640628176
 40
0.128835295
 40
0.1941256765
 40
0.2597315686
 40
0.3254460131
 40
0.3910611267
 40
0.4563700735
 40
0.5211695806
 40
0.585262343
 40
0.6484595165
 40
0.710583288
 40
0.7714695552
 40
0.8309707432
 40
0.8889587883
 40
0.9453283119
 40
1.0
 40
1.0
 40
1.0
 40
1.0
 10
10.7715461201
 20
8.4720443886
 30
0.0
 10
10.7673348539
 20
8.4723365541
 30
0.0
 10
10.7588504132
 20
8.4727263606
 30
0.0
 10
10.7460540372
 20
8.4726916354
 30
0.0
 10
10.7331713497
 20
8.4720626469
 30
0.0
 10
10.7202692711
 20
8.4708378902
 30
0.0
 10
10.7074150975
 20
8.4690246464
 30
0.0
 10
10.6946758917
 20
8.4666322956
 30
0.0
 10
10.6821181357
 20
8.463673282
 30
0.0
 10
10.6698073394
 20
8.4601630577
 30
0.0
 10
10.6578077236
 20
8.4561198983
 30
0.0
 10
10.6461818645
 20
8.4515648575
 30
0.0
 10
10.6349903768
 20
8.4465216283
 30
0.0
 10
10.6242915769
 20
8.4410164005
 30
0.0
 10
10.6141412481
 20
8.4350777671
 30
0.0
 10
10.6045921242
 20
8.4287363411
 30
0.0
 10
10.5956944676
 20
8.4220253596
 30
0.0
 10
10.5901401356
 20
8.4172525151
 30
0.0
 10
10.5874902657
 20
8.4148118877
 30
0.0
  0
SPLINE
  5
484
100
AcDbEntity
  8
0
100
AcDbSpline
 62
7
  6
CONTINUOUS
 70
0
 71
3
 72
9
 73
5
 74
0
 42
0.0000001
 43
0.0000001
 44
0.0000000001
 40
0.0
 40
0.0
 40
0.0
 40
0.0
 40
0.5028919308
 40
1.0
 40
1.0
 40
1.0
 40
1.0
 10
10.9013538007
 20
8.4031502981
 30
0.0
 10
10.9024480755
 20
8.4007361305
 30
0.0
 10
10.9043751422
 20
8.3958183049
 30
0.0
 10
10.9057584258
 20
8.3907200168
 30
0.0
 10
10.9063039059
 20
8.3881573196
 30
0.0
  0
LINE
  5
485
100
AcDbEntity
  8
0
100
AcDbLine
 62
7
  6
CONTINUOUS
 10
10.9063039059
 20
8.3881573196
 11
10.9063333272
 21
8.3880184175
  0
SPLINE
  5
486
100
AcDbEntity
  8
0
100
AcDbSpline
 62
7
  6
CONTINUOUS
 70
0
 71
3
 72
19
 73
15
 74
0
 42
0.0000001
 43
0.0000001
 44
0.0000000001
 40
0.0
 40
0.0
 40
0.0
 40
0.0
 40
0.0616584454
 40
0.1233399317
 40
0.185067215
 40
0.2468625626
 40
0.3087474945
 40
0.3707425066
 40
0.4328668994
 40
0.4951385746
 40
0.6201443393
 40
0.7459117862
 40
0.8725152911
 40
1.0
 40
1.0
 40
1.0
 40
1.0
 10
11.6572404944
 20
9.6163286817
 30
0.0
 10
11.6556637961
 20
9.6148057094
 30
0.0
 10
11.6524272057
 20
9.6118433983
 30
0.0
 10
11.6473395347
 20
9.607666434
 30
0.0
 10
11.642030924
 20
9.6037655786
 30
0.0
 10
11.6365149703
 20
9.6001507817
 30
0.0
 10
11.6308054752
 20
9.5968311461
 30
0.0
 10
11.6249169113
 20
9.5938150415
 30
0.0
 10
11.6188639092
 20
9.5911099585
 30
0.0
 10
11.6105856693
 20
9.5879235257
 30
0.0
 10
11.5998946618
 20
9.5847511519
 30
0.0
 10
11.5866822049
 20
9.5822865477
 30
0.0
 10
11.573200022
 20
9.5811813342
 30
0.0
 10
11.5641502602
 20
9.5813578631
 30
0.0
 10
11.5596286883
 20
9.5816714352
 30
0.0
  0
SPLINE
  5
487
100
AcDbEntity
  8
0
100
AcDbSpline
 62
4
  6
CONTINUOUS
 70
0
 71
3
 72
308
 73
304
 74
0
 42
0.0000001
 43
0.0000001
 44
0.0000000001
 40
0.0
 40
0.0
 40
0.0
 40
0.0
 40
0.015625
 40
0.0234375
 40
0.03125
 40
0.0390625
 40
0.04296875
 40
0.046875
 40
0.05078125
 40
0.0546875
 40
0.056640625
 40
0.05859375
 40
0.060546875
 40
0.0615234375
 40
0.0620117188
 40
0.0625
 40
0.0629882812
 40
0.0634765625
 40
0.064453125
 40
0.06640625
 40
0.068359375
 40
0.0703125
 40
0.07421875
 40
0.078125
 40
0.0859375
 40
0.09375
 40
0.1015625
 40
0.109375
 40
0.11328125
 40
0.1171875
 40
0.119140625
 40
0.12109375
 40
0.123046875
 40
0.1240234375
 40
0.1245117188
 40
0.125
 40
0.1254882812
 40
0.1259765625
 40
0.126953125
 40
0.12890625
 40
0.130859375
 40
0.1328125
 40
0.13671875
 40
0.140625
 40
0.1484375
 40
0.15625
 40
0.1640625
 40
0.171875
 40
0.17578125
 40
0.1796875
 40
0.181640625
 40
0.18359375
 40
0.185546875
 40
0.1865234375
 40
0.1870117188
 40
0.1875
 40
0.1879882812
 40
0.1884765625
 40
0.189453125
 40
0.19140625
 40
0.193359375
 40
0.1953125
 40
0.19921875
 40
0.203125
 40
0.2109375
 40
0.21875
 40
0.2265625
 40
0.234375
 40
0.23828125
 40
0.2421875
 40
0.244140625
 40
0.24609375
 40
0.248046875
 40
0.2490234375
 40
0.25
 40
0.2509765625
 40
0.251953125
 40
0.25390625
 40
0.255859375
 40
0.2578125
 40
0.26171875
 40
0.265625
 40
0.2734375
 40
0.28125
 40
0.2890625
 40
0.296875
 40
0.30078125
 40
0.3046875
 40
0.30859375
 40
0.310546875
 40
0.3115234375
 40
0.3125
 40
0.3134765625
 40
0.314453125
 40
0.31640625
 40
0.3203125
 40
0.32421875
 40
0.328125
 40
0.3359375
 40
0.34375
 40
0.3515625
 40
0.359375
 40
0.36328125
 40
0.3671875
 40
0.37109375
 40
0.373046875
 40
0.3740234375
 40
0.375
 40
0.3759765625
 40
0.376953125
 40
0.37890625
 40
0.3828125
 40
0.38671875
 40
0.390625
 40
0.3984375
 40
0.40625
 40
0.4140625
 40
0.421875
 40
0.42578125
 40
0.4296875
 40
0.43359375
 40
0.435546875
 40
0.4365234375
 40
0.4375
 40
0.4384765625
 40
0.439453125
 40
0.44140625
 40
0.4453125
 40
0.44921875
 40
0.453125
 40
0.4609375
 40
0.46875
 40
0.4765625
 40
0.484375
 40
0.48828125
 40
0.4921875
 40
0.49609375
 40
0.498046875
 40
0.4990234375
 40
0.5
 40
0.5009765625
 40
0.501953125
 40
0.50390625
 40
0.5078125
 40
0.51171875
 40
0.515625
 40
0.5234375
 40
0.53125
 40
0.5390625
 40
0.546875
 40
0.55078125
 40
0.5546875
 40
0.556640625
 40
0.55859375
 40
0.560546875
 40
0.5615234375
 40
0.5625
 40
0.5634765625
 40
0.564453125
 40
0.56640625
 40
0.568359375
 40
0.5703125
 40
0.57421875
 40
0.578125
 40
0.5859375
 40
0.59375
 40
0.6015625
 40
0.609375
 40
0.61328125
 40
0.6171875
 40
0.619140625
 40
0.62109375
 40
0.623046875
 40
0.6240234375
 40
0.6245117188
 40
0.625
 40
0.6254882812
 40
0.6259765625
 40
0.626953125
 40
0.62890625
 40
0.630859375
 40
0.6328125
 40
0.63671875
 40
0.640625
 40
0.6484375
 40
0.65625
 40
0.6640625
 40
0.671875
 40
0.67578125
 40
0.6796875
 40
0.681640625
 40
0.68359375
 40
0.685546875
 40
0.6865234375
 40
0.6870117188
 40
0.6875
 40
0.6879882812
 40
0.6884765625
 40
0.689453125
 40
0.69140625
 40
0.693359375
 40
0.6953125
 40
0.69921875
 40
0.703125
 40
0.7109375
 40
0.71875
 40
0.7265625
 40
0.73046875
 40
0.734375
 40
0.73828125
 40
0.7421875
 40
0.744140625
 40
0.74609375
 40
0.748046875
 40
0.7490234375
 40
0.7495117188
 40
0.75
 40
0.7504882812
 40
0.7509765625
 40
0.751953125
 40
0.75390625
 40
0.755859375
 40
0.7578125
 40
0.76171875
 40
0.765625
 40
0.76953125
 40
0.7734375
 40
0.78125
 40
0.7890625
 40
0.79296875
 40
0.796875
 40
0.80078125
 40
0.8046875
 40
0.806640625
 40
0.80859375
 40
0.810546875
 40
0.8115234375
 40
0.8120117188
 40
0.8125
 40
0.8129882812
 40
0.8134765625
 40
0.814453125
 40
0.81640625
 40
0.818359375
 40
0.8203125
 40
0.82421875
 40
0.828125
 40
0.83203125
 40
0.8359375
 40
0.84375
 40
0.8515625
 40
0.85546875
 40
0.859375
 40
0.86328125
 40
0.8671875
 40
0.869140625
 40
0.87109375
 40
0.8720703125
 40
0.873046875
 40
0.8740234375
 40
0.8745117188
 40
0.875
 40
0.8754882812
 40
0.8759765625
 40
0.876953125
 40
0.8779296875
 40
0.87890625
 40
0.880859375
 40
0.8828125
 40
0.88671875
 40
0.890625
 40
0.89453125
 40
0.8984375
 40
0.90625
 40
0.9140625
 40
0.91796875
 40
0.921875
 40
0.92578125
 40
0.9296875
 40
0.931640625
 40
0.93359375
 40
0.9345703125
 40
0.935546875
 40
0.9365234375
 40
0.9370117188
 40
0.9372558594
 40
0.9375
 40
0.9377441406
 40
0.9379882812
 40
0.9384765625
 40
0.939453125
 40
0.9404296875
 40
0.94140625
 40
0.943359375
 40
0.9453125
 40
0.94921875
 40
0.953125
 40
0.95703125
 40
0.9609375
 40
0.96875
 40
0.9765625
 40
0.984375
 40
1.0
 40
1.0
 40
1.0
 40
1.0
 10
12.2801354507
 20
9.0937549937
 30
0.0
 10
12.2809749849
 20
9.0948731331
 30
0.0
 10
12.2822342861
 20
9.0965503424
 30
0.0
 10
12.2839133545
 20
9.0987866211
 30
0.0
 10
12.2851726557
 20
9.1004638307
 30
0.0
 10
12.2862220735
 20
9.1018615035
 30
0.0
 10
12.2870616075
 20
9.1029796461
 30
0.0
 10
12.2876912586
 20
9.1038182409
 30
0.0
 10
12.2883209072
 20
9.1046568821
 30
0.0
 10
12.2888456224
 20
9.1053556056
 30
0.0
 10
12.2892653765
 20
9.105914907
 30
0.0
 10
12.2895802414
 20
9.1063335016
 30
0.0
 10
12.289842472
 20
9.1066851343
 30
0.0
 10
12.2900263412
 20
9.1069257747
 30
0.0
 10
12.2901309288
 20
9.1070718752
 30
0.0
 10
12.290210723
 20
9.1071572477
 30
0.0
 10
12.2902853435
 20
9.1073351358
 30
0.0
 10
12.2903866423
 20
9.1075400494
 30
0.0
 10
12.2905630742
 20
9.1079136836
 30
0.0
 10
12.2908155595
 20
9.1084395861
 30
0.0
 10
12.2911183536
 20
9.1090740337
 30
0.0
 10
12.2915221448
 20
9.1099187887
 30
0.0
 10
12.2920268614
 20
9.1109751348
 30
0.0
 10
12.2928344204
 20
9.1126650635
 30
0.0
 10
12.2938438649
 20
9.1147775522
 30
0.0
 10
12.2950552003
 20
9.1173125033
 30
0.0
 10
12.2962665343
 20
9.1198474712
 30
0.0
 10
12.2972759824
 20
9.1219599179
 30
0.0
 10
12.2980835341
 20
9.1236499305
 30
0.0
 10
12.2985882694
 20
9.1247060636
 30
0.0
 10
12.2989920222
 20
9.1255512557
 30
0.0
 10
12.2992949336
 20
9.1261843676
 30
0.0
 10
12.2995470521
 20
9.1267144491
 30
0.0
 10
12.2997241387
 20
9.1270806231
 30
0.0
 10
12.2998243885
 20
9.1272974899
 30
0.0
 10
12.2999022312
 20
9.1274386616
 30
0.0
 10
12.2999699237
 20
9.1276619346
 30
0.0
 10
12.300063721
 20
9.127930994
 30
0.0
 10
12.3002262166
 20
9.1284151908
 30
0.0
 10
12.3004592156
 20
9.1290999248
 30
0.0
 10
12.3007384452
 20
9.1299245915
 30
0.0
 10
12.3011108803
 20
9.1310231041
 30
0.0
 10
12.30157638
 20
9.132396602
 30
0.0
 10
12.3023212043
 20
9.1345939989
 30
0.0
 10
12.3032522261
 20
9.1373408141
 30
0.0
 10
12.3043694562
 20
9.1406369609
 30
0.0
 10
12.3054866841
 20
9.1439331229
 30
0.0
 10
12.3064177115
 20
9.1466798999
 30
0.0
 10
12.3071625246
 20
9.1488773731
 30
0.0
 10
12.3076280526
 20
9.1502506773
 30
0.0
 10
12.3080004297
 20
9.1513495875
 30
0.0
 10
12.3082798365
 20
9.1521730397
 30
0.0
 10
12.3085122812
 20
9.1528615732
 30
0.0
 10
12.3086757663
 20
9.1533389873
 30
0.0
 10
12.3087679781
 20
9.1536189145
 30
0.0
 10
12.3088405407
 20
9.153808805
 30
0.0
 10
12.3089000923
 20
9.1540753556
 30
0.0
 10
12.3089840329
 20
9.1544040165
 30
0.0
 10
12.3091288144
 20
9.1549916318
 30
0.0
 10
12.3093367506
 20
9.1558245686
 30
0.0
 10
12.3095858009
 20
9.1568268808
 30
0.0
 10
12.3099180332
 20
9.1581623233
 30
0.0
 10
12.3103332669
 20
9.1598319598
 30
0.0
 10
12.3109976725
 20
9.162503192
 30
0.0
 10
12.311828169
 20
9.1658422954
 30
0.0
 10
12.3128247679
 20
9.1698491955
 30
0.0
 10
12.3138213712
 20
9.1738560907
 30
0.0
 10
12.3146518567
 20
9.1771952063
 30
0.0
 10
12.3153162843
 20
9.1798664142
 30
0.0
 10
12.3157314622
 20
9.1815361124
 30
0.0
 10
12.3160638093
 20
9.1828714283
 30
0.0
 10
12.3163125087
 20
9.1838741271
 30
0.0
 10
12.3165215425
 20
9.1847058543
 30
0.0
 10
12.3166847677
 20
9.1853798826
 30
0.0
 10
12.3168181217
 20
9.1858617771
 30
0.0
 10
12.3169097364
 20
9.1864338551
 30
0.0
 10
12.3170464694
 20
9.1871651236
 30
0.0
 10
12.3172123833
 20
9.1880900173
 30
0.0
 10
12.3174136211
 20
9.1891952636
 30
0.0
 10
12.3176811904
 20
9.1906705411
 30
0.0
 10
12.318015908
 20
9.1925140848
 30
0.0
 10
12.3185513133
 20
9.1954640637
 30
0.0
 10
12.3192206177
 20
9.1991514332
 30
0.0
 10
12.320023768
 20
9.2035763127
 30
0.0
 10
12.3208269018
 20
9.2080012141
 30
0.0
 10
12.3214962476
 20
9.211688529
 30
0.0
 10
12.3220315701
 20
9.214638617
 30
0.0
 10
12.3224334837
 20
9.2168505366
 30
0.0
 10
12.3227670701
 20
9.218695859
 30
0.0
 10
12.3230032135
 20
9.2199835499
 30
0.0
 10
12.3231340415
 20
9.2207256732
 30
0.0
 10
12.3232437434
 20
9.2212645185
 30
0.0
 10
12.3233091775
 20
9.2218712027
 30
0.0
 10
12.323411864
 20
9.222656452
 30
0.0
 10
12.3235843712
 20
9.2240416632
 30
0.0
 10
12.3238345712
 20
9.2260147723
 30
0.0
 10
12.3241332013
 20
9.2283849706
 30
0.0
 10
12.3245319374
 20
9.2315443729
 30
0.0
 10
12.3250301629
 20
9.2354939224
 30
0.0
 10
12.3256281232
 20
9.2402332511
 30
0.0
 10
12.3262260365
 20
9.2449726283
 30
0.0
 10
12.3267243793
 20
9.2489220565
 30
0.0
 10
12.3271228809
 20
9.2520817015
 30
0.0
 10
12.3274222259
 20
9.2544511597
 30
0.0
 10
12.3276701895
 20
9.256426584
 30
0.0
 10
12.3278466891
 20
9.2578076623
 30
0.0
 10
12.3279429787
 20
9.2585995335
 30
0.0
 10
12.3280280621
 20
9.2591858771
 30
0.0
 10
12.3280639646
 20
9.2598011182
 30
0.0
 10
12.3281289895
 20
9.26061136
 30
0.0
 10
12.3282347903
 20
9.2620339794
 30
0.0
 10
12.3283901131
 20
9.2640638374
 30
0.0
 10
12.3285747117
 20
9.2665007181
 30
0.0
 10
12.3288214681
 20
9.2697495252
 30
0.0
 10
12.3291296978
 20
9.2738106602
 30
0.0
 10
12.3294996724
 20
9.2786839673
 30
0.0
 10
12.3298695962
 20
9.2835572924
 30
0.0
 10
12.330177953
 20
9.2876183823
 30
0.0
 10
12.3304244552
 20
9.2908672797
 30
0.0
 10
12.3306098295
 20
9.2933038851
 30
0.0
 10
12.3307627256
 20
9.2953346043
 30
0.0
 10
12.3308728583
 20
9.2967556864
 30
0.0
 10
12.3309309424
 20
9.2975683912
 30
0.0
 10
12.3309881647
 20
9.2981760667
 30
0.0
 10
12.3309931749
 20
9.2987908256
 30
0.0
 10
12.3310180674
 20
9.2996080334
 30
0.0
 10
12.3310531438
 20
9.3010392983
 30
0.0
 10
12.3311076892
 20
9.3030833605
 30
0.0
 10
12.3311712449
 20
9.3055364928
 30
0.0
 10
12.3312566492
 20
9.3088072461
 30
0.0
 10
12.3313631754
 20
9.3128957165
 30
0.0
 10
12.3314911119
 20
9.3178018774
 30
0.0
 10
12.331618995
 20
9.3227080066
 30
0.0
 10
12.3317256547
 20
9.3267965562
 30
0.0
 10
12.3318107921
 20
9.3300671511
 30
0.0
 10
12.331875162
 20
9.3325207665
 30
0.0
 10
12.3319271601
 20
9.3345633171
 30
0.0
 10
12.331966784
 20
9.3359972805
 30
0.0
 10
12.3319843902
 20
9.3368101645
 30
0.0
 10
12.3320117814
 20
9.3374382047
 30
0.0
 10
12.3319849446
 20
9.3379959981
 30
0.0
 10
12.3319680774
 20
9.3387642254
 30
0.0
 10
12.3319297469
 20
9.3400972069
 30
0.0
 10
12.3318795965
 20
9.3420074348
 30
0.0
 10
12.331817444
 20
9.3442971536
 30
0.0
 10
12.3317352627
 20
9.3473510042
 30
0.0
 10
12.3316323001
 20
9.351168012
 30
0.0
 10
12.3315088445
 20
9.3557485493
 30
0.0
 10
12.3313853687
 20
9.3603290635
 30
0.0
 10
12.3312824565
 20
9.3641461292
 30
0.0
 10
12.3312001746
 20
9.3671998639
 30
0.0
 10
12.3311486366
 20
9.3691082574
 30
0.0
 10
12.3311076626
 20
9.3706354095
 30
0.0
 10
12.3310762298
 20
9.371779576
 30
0.0
 10
12.3310522702
 20
9.3727368576
 30
0.0
 10
12.3310280911
 20
9.373494139
 30
0.0
 10
12.3310236503
 20
9.3740854459
 30
0.0
 10
12.3309669412
 20
9.3745876412
 30
0.0
 10
12.3309095871
 20
9.3752883627
 30
0.0
 10
12.3308316302
 20
9.3761535848
 30
0.0
 10
12.3307407633
 20
9.3771964226
 30
0.0
 10
12.3306186708
 20
9.3785852763
 30
0.0
 10
12.330466376
 20
9.3803218902
 30
0.0
 10
12.3302225249
 20
9.3831001669
 30
0.0
 10
12.3299177725
 20
9.3865731173
 30
0.0
 10
12.3295520439
 20
9.3907406144
 30
0.0
 10
12.32918632
 20
9.3949081176
 30
0.0
 10
12.3288815558
 20
9.3983810526
 30
0.0
 10
12.3286377283
 20
9.4011593601
 30
0.0
 10
12.3284853735
 20
9.4028958958
 30
0.0
 10
12.328363404
 20
9.4042849099
 30
0.0
 10
12.3282721615
 20
9.4053272579
 30
0.0
 10
12.3281953797
 20
9.4061940124
 30
0.0
 10
12.3281430972
 20
9.4068044082
 30
0.0
 10
12.3281109345
 20
9.407147479
 30
0.0
 10
12.3280932548
 20
9.4074209148
 30
0.0
 10
12.3280509492
 20
9.407632683
 30
0.0
 10
12.3280031315
 20
9.407936551
 30
0.0
 10
12.3279154483
 20
9.408458298
 30
0.0
 10
12.3277922791
 20
9.4092088904
 30
0.0
 10
12.3276435804
 20
9.4101073586
 30
0.0
 10
12.3274456283
 20
9.4113060995
 30
0.0
 10
12.3271980811
 20
9.4128042575
 30
0.0
 10
12.3268020654
 20
9.4152014601
 30
0.0
 10
12.3263070252
 20
9.4181979116
 30
0.0
 10
12.3257129863
 20
9.4217936774
 30
0.0
 10
12.3251189427
 20
9.4253894303
 30
0.0
 10
12.3246239141
 20
9.4283859138
 30
0.0
 10
12.3242278751
 20
9.4307830524
 30
0.0
 10
12.3239803871
 20
9.432281373
 30
0.0
 10
12.3237823135
 20
9.4334797801
 30
0.0
 10
12.3236339861
 20
9.4343792681
 30
0.0
 10
12.3235096553
 20
9.4351266699
 30
0.0
 10
12.3234240457
 20
9.4356541127
 30
0.0
 10
12.3233729056
 20
9.4359488545
 30
0.0
 10
12.3233408053
 20
9.4361886555
 30
0.0
 10
12.3232847964
 20
9.4363568051
 30
0.0
 10
12.3232184574
 20
9.4366059974
 30
0.0
 10
12.3230984787
 20
9.4370304392
 30
0.0
 10
12.322929112
 20
9.4376428726
 30
0.0
 10
12.3227250024
 20
9.4383751869
 30
0.0
 10
12.3224531599
 20
9.4393525161
 30
0.0
 10
12.3221132529
 20
9.4405738659
 30
0.0
 10
12.3215694597
 20
9.4425281998
 30
0.0
 10
12.3208896983
 20
9.4449710576
 30
0.0
 10
12.3200739931
 20
9.4479025119
 30
0.0
 10
12.3193942372
 20
9.4503453867
 30
0.0
 10
12.3188504321
 20
9.4522996832
 30
0.0
 10
12.3184425804
 20
9.4537654178
 30
0.0
 10
12.3180347201
 20
9.4552311051
 30
0.0
 10
12.3176948636
 20
9.4564526588
 30
0.0
 10
12.3174229176
 20
9.4574295712
 30
0.0
 10
12.3172191245
 20
9.4581631584
 30
0.0
 10
12.3170487673
 20
9.4587716093
 30
0.0
 10
12.3169305568
 20
9.4592031606
 30
0.0
 10
12.3168613847
 20
9.4594409617
 30
0.0
 10
12.3168140784
 20
9.4596441011
 30
0.0
 10
12.3167492923
 20
9.4597524864
 30
0.0
 10
12.316669008
 20
9.4599300514
 30
0.0
 10
12.3165256696
 20
9.4602253911
 30
0.0
 10
12.3163223856
 20
9.4606553557
 30
0.0
 10
12.3160778092
 20
9.4611678672
 30
0.0
 10
12.3157519294
 20
9.4618524196
 30
0.0
 10
12.3153445034
 20
9.4627076971
 30
0.0
 10
12.3148556249
 20
9.4637342071
 30
0.0
 10
12.3143667376
 20
9.4647606697
 30
0.0
 10
12.313714891
 20
9.4661293032
 30
0.0
 10
12.3129000815
 20
9.4678400888
 30
0.0
 10
12.3120852728
 20
9.4695508786
 30
0.0
 10
12.3114334251
 20
9.4709195053
 30
0.0
 10
12.3109445412
 20
9.4719459881
 30
0.0
 10
12.3104556499
 20
9.4729724225
 30
0.0
 10
12.3100482636
 20
9.4738279354
 30
0.0
 10
12.3097223029
 20
9.4745120077
 30
0.0
 10
12.3094779735
 20
9.4750259853
 30
0.0
 10
12.3092739166
 20
9.4754513628
 30
0.0
 10
12.3091319581
 20
9.4757548913
 30
0.0
 10
12.3090494629
 20
9.4759193357
 30
0.0
 10
12.3089914678
 20
9.4760680234
 30
0.0
 10
12.3089186554
 20
9.4761197938
 30
0.0
 10
12.3088267406
 20
9.4762226268
 30
0.0
 10
12.3086634817
 20
9.4763868338
 30
0.0
 10
12.3084315137
 20
9.47662965
 30
0.0
 10
12.3081526132
 20
9.4769175046
 30
0.0
 10
12.3077809341
 20
9.4773025421
 30
0.0
 10
12.3073162706
 20
9.4777834164
 30
0.0
 10
12.3067587021
 20
9.4783606467
 30
0.0
 10
12.3062011262
 20
9.4789378285
 30
0.0
 10
12.3054576942
 20
9.4797074212
 30
0.0
 10
12.3045284034
 20
9.4806694064
 30
0.0
 10
12.3035991129
 20
9.4816313931
 30
0.0
 10
12.3028556805
 20
9.4824009834
 30
0.0
 10
12.3022981059
 20
9.4829781725
 30
0.0
 10
12.3017405326
 20
9.4835553754
 30
0.0
 10
12.3012758839
 20
9.484036335
 30
0.0
 10
12.3009041746
 20
9.4844211984
 30
0.0
 10
12.3006718344
 20
9.4846615202
 30
0.0
 10
12.3004860124
 20
9.4848542766
 30
0.0
 10
12.3003465084
 20
9.4849974775
 30
0.0
 10
12.3002306927
 20
9.4851211584
 30
0.0
 10
12.3001370585
 20
9.485210354
 30
0.0
 10
12.3000695151
 20
9.4853038899
 30
0.0
 10
12.2999917335
 20
9.4852957439
 30
0.0
 10
12.2998916011
 20
9.4853204013
 30
0.0
 10
12.2997652085
 20
9.4853390367
 30
0.0
 10
12.2996140626
 20
9.4853666154
 30
0.0
 10
12.2994123513
 20
9.4854015651
 30
0.0
 10
12.299160275
 20
9.485445876
 30
0.0
 10
12.2987569178
 20
9.4855164249
 30
0.0
 10
12.2982527333
 20
9.4856047306
 30
0.0
 10
12.2976477068
 20
9.4857106461
 30
0.0
 10
12.2970426816
 20
9.4858165754
 30
0.0
 10
12.296235981
 20
9.4859578096
 30
0.0
 10
12.2952276053
 20
9.486134354
 30
0.0
 10
12.2942192296
 20
9.486310898
 30
0.0
 10
12.293412529
 20
9.4864521328
 30
0.0
 10
12.2928075036
 20
9.4865580603
 30
0.0
 10
12.2922024779
 20
9.4866639827
 30
0.0
 10
12.291698291
 20
9.486752267
 30
0.0
 10
12.2912949388
 20
9.4868228594
 30
0.0
 10
12.2910428496
 20
9.4868670594
 30
0.0
 10
12.2908411648
 20
9.4869022369
 30
0.0
 10
12.2906899379
 20
9.4869291196
 30
0.0
 10
12.2905637988
 20
9.4869499327
 30
0.0
 10
12.2904757305
 20
9.4869676205
 30
0.0
 10
12.290425048
 20
9.4869728583
 30
0.0
 10
12.290388044
 20
9.4869905043
 30
0.0
 10
12.2903471872
 20
9.4869557142
 30
0.0
 10
12.2902940553
 20
9.4869276178
 30
0.0
 10
12.2902004484
 20
9.4868699272
 30
0.0
 10
12.2900670516
 20
9.4867919675
 30
0.0
 10
12.2899068353
 20
9.4866965087
 30
0.0
 10
12.2896932626
 20
9.4865698964
 30
0.0
 10
12.2894262799
 20
9.4864114031
 30
0.0
 10
12.2889991169
 20
9.4861579411
 30
0.0
 10
12.28846516
 20
9.4858410699
 30
0.0
 10
12.287824413
 20
9.4854608432
 30
0.0
 10
12.2871836657
 20
9.4850806115
 30
0.0
 10
12.2863293361
 20
9.4845736377
 30
0.0
 10
12.285261424
 20
9.4839399198
 30
0.0
 10
12.2839799296
 20
9.4831794586
 30
0.0
 10
12.2822712703
 20
9.4821655102
 30
0.0
 10
12.2809897758
 20
9.481405049
 30
0.0
 10
12.2801354462
 20
9.4808980748
 30
0.0
  0
SPLINE
  5
488
100
AcDbEntity
  8
0
100
AcDbSpline
 62
4
  6
CONTINUOUS
 70
0
 71
3
 72
308
 73
304
 74
0
 42
0.0000001
 43
0.0000001
 44
0.0000000001
 40
0.0
 40
0.0
 40
0.0
 40
0.0
 40
0.015625
 40
0.0234375
 40
0.03125
 40
0.0390625
 40
0.04296875
 40
0.046875
 40
0.05078125
 40
0.0546875
 40
0.056640625
 40
0.05859375
 40
0.060546875
 40
0.0615234375
 40
0.0620117188
 40
0.0625
 40
0.0629882812
 40
0.0634765625
 40
0.064453125
 40
0.06640625
 40
0.068359375
 40
0.0703125
 40
0.07421875
 40
0.078125
 40
0.0859375
 40
0.09375
 40
0.1015625
 40
0.109375
 40
0.11328125
 40
0.1171875
 40
0.119140625
 40
0.12109375
 40
0.123046875
 40
0.1240234375
 40
0.1245117188
 40
0.125
 40
0.1254882812
 40
0.1259765625
 40
0.126953125
 40
0.12890625
 40
0.130859375
 40
0.1328125
 40
0.13671875
 40
0.140625
 40
0.1484375
 40
0.15625
 40
0.1640625
 40
0.171875
 40
0.17578125
 40
0.1796875
 40
0.181640625
 40
0.18359375
 40
0.185546875
 40
0.1865234375
 40
0.1870117188
 40
0.1875
 40
0.1879882812
 40
0.1884765625
 40
0.189453125
 40
0.19140625
 40
0.193359375
 40
0.1953125
 40
0.19921875
 40
0.203125
 40
0.2109375
 40
0.21875
 40
0.2265625
 40
0.234375
 40
0.23828125
 40
0.2421875
 40
0.244140625
 40
0.24609375
 40
0.248046875
 40
0.2490234375
 40
0.25
 40
0.2509765625
 40
0.251953125
 40
0.25390625
 40
0.255859375
 40
0.2578125
 40
0.26171875
 40
0.265625
 40
0.2734375
 40
0.28125
 40
0.2890625
 40
0.296875
 40
0.30078125
 40
0.3046875
 40
0.30859375
 40
0.310546875
 40
0.3115234375
 40
0.3125
 40
0.3134765625
 40
0.314453125
 40
0.31640625
 40
0.3203125
 40
0.32421875
 40
0.328125
 40
0.3359375
 40
0.34375
 40
0.3515625
 40
0.359375
 40
0.36328125
 40
0.3671875
 40
0.37109375
 40
0.373046875
 40
0.3740234375
 40
0.375
 40
0.3759765625
 40
0.376953125
 40
0.37890625
 40
0.3828125
 40
0.38671875
 40
0.390625
 40
0.3984375
 40
0.40625
 40
0.4140625
 40
0.421875
 40
0.42578125
 40
0.4296875
 40
0.43359375
 40
0.435546875
 40
0.4365234375
 40
0.4375
 40
0.4384765625
 40
0.439453125
 40
0.44140625
 40
0.4453125
 40
0.44921875
 40
0.453125
 40
0.4609375
 40
0.46875
 40
0.4765625
 40
0.484375
 40
0.48828125
 40
0.4921875
 40
0.49609375
 40
0.498046875
 40
0.4990234375
 40
0.5
 40
0.5009765625
 40
0.501953125
 40
0.50390625
 40
0.5078125
 40
0.51171875
 40
0.515625
 40
0.5234375
 40
0.53125
 40
0.5390625
 40
0.546875
 40
0.55078125
 40
0.5546875
 40
0.556640625
 40
0.55859375
 40
0.560546875
 40
0.5615234375
 40
0.5625
 40
0.5634765625
 40
0.564453125
 40
0.56640625
 40
0.568359375
 40
0.5703125
 40
0.57421875
 40
0.578125
 40
0.5859375
 40
0.59375
 40
0.6015625
 40
0.609375
 40
0.61328125
 40
0.6171875
 40
0.619140625
 40
0.62109375
 40
0.623046875
 40
0.6240234375
 40
0.6245117188
 40
0.625
 40
0.6254882812
 40
0.6259765625
 40
0.626953125
 40
0.62890625
 40
0.630859375
 40
0.6328125
 40
0.63671875
 40
0.640625
 40
0.6484375
 40
0.65625
 40
0.6640625
 40
0.671875
 40
0.67578125
 40
0.6796875
 40
0.681640625
 40
0.68359375
 40
0.685546875
 40
0.6865234375
 40
0.6870117188
 40
0.6875
 40
0.6879882812
 40
0.6884765625
 40
0.689453125
 40
0.69140625
 40
0.693359375
 40
0.6953125
 40
0.69921875
 40
0.703125
 40
0.7109375
 40
0.71875
 40
0.7265625
 40
0.73046875
 40
0.734375
 40
0.73828125
 40
0.7421875
 40
0.744140625
 40
0.74609375
 40
0.748046875
 40
0.7490234375
 40
0.7495117188
 40
0.75
 40
0.7504882812
 40
0.7509765625
 40
0.751953125
 40
0.75390625
 40
0.755859375
 40
0.7578125
 40
0.76171875
 40
0.765625
 40
0.76953125
 40
0.7734375
 40
0.78125
 40
0.7890625
 40
0.79296875
 40
0.796875
 40
0.80078125
 40
0.8046875
 40
0.806640625
 40
0.80859375
 40
0.810546875
 40
0.8115234375
 40
0.8120117188
 40
0.8125
 40
0.8129882812
 40
0.8134765625
 40
0.814453125
 40
0.81640625
 40
0.818359375
 40
0.8203125
 40
0.82421875
 40
0.828125
 40
0.83203125
 40
0.8359375
 40
0.84375
 40
0.8515625
 40
0.85546875
 40
0.859375
 40
0.86328125
 40
0.8671875
 40
0.869140625
 40
0.87109375
 40
0.8720703125
 40
0.873046875
 40
0.8740234375
 40
0.8745117188
 40
0.875
 40
0.8754882812
 40
0.8759765625
 40
0.876953125
 40
0.8779296875
 40
0.87890625
 40
0.880859375
 40
0.8828125
 40
0.88671875
 40
0.890625
 40
0.89453125
 40
0.8984375
 40
0.90625
 40
0.9140625
 40
0.91796875
 40
0.921875
 40
0.92578125
 40
0.9296875
 40
0.931640625
 40
0.93359375
 40
0.9345703125
 40
0.935546875
 40
0.9365234375
 40
0.9370117188
 40
0.9372558594
 40
0.9375
 40
0.9377441406
 40
0.9379882812
 40
0.9384765625
 40
0.939453125
 40
0.9404296875
 40
0.94140625
 40
0.943359375
 40
0.9453125
 40
0.94921875
 40
0.953125
 40
0.95703125
 40
0.9609375
 40
0.96875
 40
0.9765625
 40
0.984375
 40
1.0
 40
1.0
 40
1.0
 40
1.0
 10
12.2801354507
 20
9.4808980792
 30
0.0
 10
12.2792959166
 20
9.4797799397
 30
0.0
 10
12.2780366153
 20
9.4781027305
 30
0.0
 10
12.276357547
 20
9.4758664518
 30
0.0
 10
12.2750982458
 20
9.4741892421
 30
0.0
 10
12.274048828
 20
9.4727915694
 30
0.0
 10
12.273209294
 20
9.4716734268
 30
0.0
 10
12.2725796429
 20
9.4708348319
 30
0.0
 10
12.2719499943
 20
9.4699961908
 30
0.0
 10
12.2714252791
 20
9.4692974673
 30
0.0
 10
12.271005525
 20
9.4687381658
 30
0.0
 10
12.2706906601
 20
9.4683195712
 30
0.0
 10
12.2704284295
 20
9.4679679385
 30
0.0
 10
12.2702445603
 20
9.4677272981
 30
0.0
 10
12.2701399727
 20
9.4675811976
 30
0.0
 10
12.2700601785
 20
9.4674958251
 30
0.0
 10
12.269985558
 20
9.4673179371
 30
0.0
 10
12.2698842592
 20
9.4671130235
 30
0.0
 10
12.2697078273
 20
9.4667393892
 30
0.0
 10
12.269455342
 20
9.4662134868
 30
0.0
 10
12.2691525479
 20
9.4655790391
 30
0.0
 10
12.2687487566
 20
9.4647342842
 30
0.0
 10
12.2682440401
 20
9.4636779381
 30
0.0
 10
12.267436481
 20
9.4619880093
 30
0.0
 10
12.2664270366
 20
9.4598755207
 30
0.0
 10
12.2652157012
 20
9.4573405696
 30
0.0
 10
12.2640043672
 20
9.4548056017
 30
0.0
 10
12.2629949191
 20
9.452693155
 30
0.0
 10
12.2621873674
 20
9.4510031424
 30
0.0
 10
12.2616826321
 20
9.4499470093
 30
0.0
 10
12.2612788793
 20
9.4491018171
 30
0.0
 10
12.2609759679
 20
9.4484687052
 30
0.0
 10
12.2607238494
 20
9.4479386237
 30
0.0
 10
12.2605467628
 20
9.4475724497
 30
0.0
 10
12.260446513
 20
9.4473555829
 30
0.0
 10
12.2603686703
 20
9.4472144112
 30
0.0
 10
12.2603009777
 20
9.4469911383
 30
0.0
 10
12.2602071805
 20
9.4467220789
 30
0.0
 10
12.2600446849
 20
9.446237882
 30
0.0
 10
12.2598116859
 20
9.445553148
 30
0.0
 10
12.2595324563
 20
9.4447284814
 30
0.0
 10
12.2591600212
 20
9.4436299688
 30
0.0
 10
12.2586945215
 20
9.4422564709
 30
0.0
 10
12.2579496972
 20
9.4400590739
 30
0.0
 10
12.2570186754
 20
9.4373122588
 30
0.0
 10
12.2559014453
 20
9.434016112
 30
0.0
 10
12.2547842174
 20
9.4307199499
 30
0.0
 10
12.25385319
 20
9.4279731729
 30
0.0
 10
12.2531083769
 20
9.4257756997
 30
0.0
 10
12.2526428489
 20
9.4244023955
 30
0.0
 10
12.2522704718
 20
9.4233034854
 30
0.0
 10
12.251991065
 20
9.4224800331
 30
0.0
 10
12.2517586203
 20
9.4217914996
 30
0.0
 10
12.2515951352
 20
9.4213140856
 30
0.0
 10
12.2515029234
 20
9.4210341584
 30
0.0
 10
12.2514303608
 20
9.4208442679
 30
0.0
 10
12.2513708091
 20
9.4205777173
 30
0.0
 10
12.2512868686
 20
9.4202490563
 30
0.0
 10
12.2511420871
 20
9.4196614411
 30
0.0
 10
12.2509341509
 20
9.4188285042
 30
0.0
 10
12.2506851006
 20
9.417826192
 30
0.0
 10
12.2503528683
 20
9.4164907495
 30
0.0
 10
12.2499376346
 20
9.414821113
 30
0.0
 10
12.249273229
 20
9.4121498809
 30
0.0
 10
12.2484427325
 20
9.4088107774
 30
0.0
 10
12.2474461336
 20
9.4048038774
 30
0.0
 10
12.2464495303
 20
9.4007969822
 30
0.0
 10
12.2456190448
 20
9.3974578666
 30
0.0
 10
12.2449546172
 20
9.3947866587
 30
0.0
 10
12.2445394393
 20
9.3931169605
 30
0.0
 10
12.2442070922
 20
9.3917816446
 30
0.0
 10
12.2439583928
 20
9.3907789457
 30
0.0
 10
12.243749359
 20
9.3899472186
 30
0.0
 10
12.2435861338
 20
9.3892731903
 30
0.0
 10
12.2434527798
 20
9.3887912957
 30
0.0
 10
12.2433611651
 20
9.3882192177
 30
0.0
 10
12.2432244321
 20
9.3874879493
 30
0.0
 10
12.2430585182
 20
9.3865630555
 30
0.0
 10
12.2428572804
 20
9.3854578092
 30
0.0
 10
12.2425897111
 20
9.3839825317
 30
0.0
 10
12.2422549935
 20
9.382138988
 30
0.0
 10
12.2417195882
 20
9.3791890092
 30
0.0
 10
12.2410502838
 20
9.3755016397
 30
0.0
 10
12.2402471335
 20
9.3710767601
 30
0.0
 10
12.2394439997
 20
9.3666518587
 30
0.0
 10
12.2387746539
 20
9.3629645438
 30
0.0
 10
12.2382393314
 20
9.3600144559
 30
0.0
 10
12.2378374178
 20
9.3578025362
 30
0.0
 10
12.2375038314
 20
9.3559572138
 30
0.0
 10
12.237267688
 20
9.354669523
 30
0.0
 10
12.23713686
 20
9.3539273996
 30
0.0
 10
12.2370271581
 20
9.3533885543
 30
0.0
 10
12.236961724
 20
9.3527818702
 30
0.0
 10
12.2368590375
 20
9.3519966209
 30
0.0
 10
12.2366865303
 20
9.3506114097
 30
0.0
 10
12.2364363303
 20
9.3486383005
 30
0.0
 10
12.2361377002
 20
9.3462681023
 30
0.0
 10
12.2357389641
 20
9.3431086999
 30
0.0
 10
12.2352407385
 20
9.3391591504
 30
0.0
 10
12.2346427783
 20
9.3344198218
 30
0.0
 10
12.234044865
 20
9.3296804446
 30
0.0
 10
12.2335465222
 20
9.3257310164
 30
0.0
 10
12.2331480206
 20
9.3225713714
 30
0.0
 10
12.2328486756
 20
9.3202019132
 30
0.0
 10
12.232600712
 20
9.3182264889
 30
0.0
 10
12.2324242124
 20
9.3168454106
 30
0.0
 10
12.2323279228
 20
9.3160535393
 30
0.0
 10
12.2322428394
 20
9.3154671957
 30
0.0
 10
12.2322069369
 20
9.3148519546
 30
0.0
 10
12.232141912
 20
9.3140417129
 30
0.0
 10
12.2320361112
 20
9.3126190935
 30
0.0
 10
12.2318807884
 20
9.3105892354
 30
0.0
 10
12.2316961898
 20
9.3081523547
 30
0.0
 10
12.2314494334
 20
9.3049035477
 30
0.0
 10
12.2311412037
 20
9.3008424126
 30
0.0
 10
12.230771229
 20
9.2959691056
 30
0.0
 10
12.2304013052
 20
9.2910957804
 30
0.0
 10
12.2300929484
 20
9.2870346905
 30
0.0
 10
12.2298464463
 20
9.2837857932
 30
0.0
 10
12.229661072
 20
9.2813491878
 30
0.0
 10
12.2295081759
 20
9.2793184686
 30
0.0
 10
12.2293980432
 20
9.2778973864
 30
0.0
 10
12.2293399591
 20
9.2770846817
 30
0.0
 10
12.2292827368
 20
9.2764770062
 30
0.0
 10
12.2292777266
 20
9.2758622472
 30
0.0
 10
12.2292528341
 20
9.2750450394
 30
0.0
 10
12.2292177577
 20
9.2736137746
 30
0.0
 10
12.2291632123
 20
9.2715697123
 30
0.0
 10
12.2290996566
 20
9.2691165801
 30
0.0
 10
12.2290142523
 20
9.2658458268
 30
0.0
 10
12.2289077261
 20
9.2617573564
 30
0.0
 10
12.2287797896
 20
9.2568511955
 30
0.0
 10
12.2286519064
 20
9.2519450663
 30
0.0
 10
12.2285452467
 20
9.2478565167
 30
0.0
 10
12.2284601094
 20
9.2445859218
 30
0.0
 10
12.2283957395
 20
9.2421323063
 30
0.0
 10
12.2283437414
 20
9.2400897558
 30
0.0
 10
12.2283041175
 20
9.2386557923
 30
0.0
 10
12.2282865113
 20
9.2378429083
 30
0.0
 10
12.2282591201
 20
9.2372148681
 30
0.0
 10
12.2282859569
 20
9.2366570748
 30
0.0
 10
12.2283028241
 20
9.2358888474
 30
0.0
 10
12.2283411546
 20
9.2345558659
 30
0.0
 10
12.2283913049
 20
9.232645638
 30
0.0
 10
12.2284534575
 20
9.2303559193
 30
0.0
 10
12.2285356388
 20
9.2273020686
 30
0.0
 10
12.2286386013
 20
9.2234850609
 30
0.0
 10
12.228762057
 20
9.2189045235
 30
0.0
 10
12.2288855328
 20
9.2143240094
 30
0.0
 10
12.228988445
 20
9.2105069437
 30
0.0
 10
12.2290707269
 20
9.2074532089
 30
0.0
 10
12.2291222649
 20
9.2055448155
 30
0.0
 10
12.2291632389
 20
9.2040176634
 30
0.0
 10
12.2291946717
 20
9.2028734968
 30
0.0
 10
12.2292186313
 20
9.2019162153
 30
0.0
 10
12.2292428104
 20
9.2011589339
 30
0.0
 10
12.2292472512
 20
9.2005676269
 30
0.0
 10
12.2293039603
 20
9.2000654317
 30
0.0
 10
12.2293613144
 20
9.1993647102
 30
0.0
 10
12.2294392713
 20
9.1984994881
 30
0.0
 10
12.2295301382
 20
9.1974566503
 30
0.0
 10
12.2296522306
 20
9.1960677965
 30
0.0
 10
12.2298045255
 20
9.1943311826
 30
0.0
 10
12.2300483766
 20
9.1915529059
 30
0.0
 10
12.230353129
 20
9.1880799556
 30
0.0
 10
12.2307188576
 20
9.1839124585
 30
0.0
 10
12.2310845815
 20
9.1797449552
 30
0.0
 10
12.2313893457
 20
9.1762720202
 30
0.0
 10
12.2316331732
 20
9.1734937128
 30
0.0
 10
12.231785528
 20
9.171757177
 30
0.0
 10
12.2319074975
 20
9.170368163
 30
0.0
 10
12.23199874
 20
9.1693258149
 30
0.0
 10
12.2320755218
 20
9.1684590605
 30
0.0
 10
12.2321278043
 20
9.1678486646
 30
0.0
 10
12.232159967
 20
9.1675055939
 30
0.0
 10
12.2321776467
 20
9.1672321581
 30
0.0
 10
12.2322199523
 20
9.1670203898
 30
0.0
 10
12.23226777
 20
9.1667165218
 30
0.0
 10
12.2323554532
 20
9.1661947749
 30
0.0
 10
12.2324786224
 20
9.1654441824
 30
0.0
 10
12.2326273211
 20
9.1645457142
 30
0.0
 10
12.2328252732
 20
9.1633469733
 30
0.0
 10
12.2330728204
 20
9.1618488154
 30
0.0
 10
12.2334688361
 20
9.1594516127
 30
0.0
 10
12.2339638763
 20
9.1564551612
 30
0.0
 10
12.2345579152
 20
9.1528593955
 30
0.0
 10
12.2351519588
 20
9.1492636426
 30
0.0
 10
12.2356469874
 20
9.1462671591
 30
0.0
 10
12.2360430264
 20
9.1438700204
 30
0.0
 10
12.2362905144
 20
9.1423716998
 30
0.0
 10
12.236488588
 20
9.1411732927
 30
0.0
 10
12.2366369154
 20
9.1402738047
 30
0.0
 10
12.2367612462
 20
9.1395264029
 30
0.0
 10
12.2368468558
 20
9.1389989601
 30
0.0
 10
12.2368979958
 20
9.1387042183
 30
0.0
 10
12.2369300962
 20
9.1384644173
 30
0.0
 10
12.2369861051
 20
9.1382962678
 30
0.0
 10
12.2370524441
 20
9.1380470755
 30
0.0
 10
12.2371724228
 20
9.1376226337
 30
0.0
 10
12.2373417895
 20
9.1370102002
 30
0.0
 10
12.2375458991
 20
9.136277886
 30
0.0
 10
12.2378177416
 20
9.1353005568
 30
0.0
 10
12.2381576486
 20
9.1340792069
 30
0.0
 10
12.2387014418
 20
9.132124873
 30
0.0
 10
12.2393812032
 20
9.1296820152
 30
0.0
 10
12.2401969084
 20
9.1267505609
 30
0.0
 10
12.2408766643
 20
9.1243076861
 30
0.0
 10
12.2414204694
 20
9.1223533896
 30
0.0
 10
12.2418283211
 20
9.120887655
 30
0.0
 10
12.2422361814
 20
9.1194219677
 30
0.0
 10
12.2425760378
 20
9.1182004141
 30
0.0
 10
12.2428479839
 20
9.1172235016
 30
0.0
 10
12.243051777
 20
9.1164899145
 30
0.0
 10
12.2432221342
 20
9.1158814635
 30
0.0
 10
12.2433403447
 20
9.1154499123
 30
0.0
 10
12.2434095168
 20
9.1152121111
 30
0.0
 10
12.243456823
 20
9.1150089718
 30
0.0
 10
12.2435216092
 20
9.1149005864
 30
0.0
 10
12.2436018935
 20
9.1147230214
 30
0.0
 10
12.2437452319
 20
9.1144276818
 30
0.0
 10
12.2439485159
 20
9.1139977172
 30
0.0
 10
12.2441930923
 20
9.1134852057
 30
0.0
 10
12.2445189721
 20
9.1128006532
 30
0.0
 10
12.2449263981
 20
9.1119453758
 30
0.0
 10
12.2454152766
 20
9.1109188658
 30
0.0
 10
12.2459041639
 20
9.1098924031
 30
0.0
 10
12.2465560105
 20
9.1085237697
 30
0.0
 10
12.24737082
 20
9.1068129841
 30
0.0
 10
12.2481856287
 20
9.1051021943
 30
0.0
 10
12.2488374764
 20
9.1037335675
 30
0.0
 10
12.2493263603
 20
9.1027070847
 30
0.0
 10
12.2498152516
 20
9.1016806504
 30
0.0
 10
12.2502226379
 20
9.1008251375
 30
0.0
 10
12.2505485986
 20
9.1001410652
 30
0.0
 10
12.250792928
 20
9.0996270875
 30
0.0
 10
12.2509969849
 20
9.0992017101
 30
0.0
 10
12.2511389434
 20
9.0988981816
 30
0.0
 10
12.2512214386
 20
9.0987337372
 30
0.0
 10
12.2512794337
 20
9.0985850495
 30
0.0
 10
12.2513522461
 20
9.0985332791
 30
0.0
 10
12.2514441608
 20
9.0984304461
 30
0.0
 10
12.2516074197
 20
9.098266239
 30
0.0
 10
12.2518393878
 20
9.0980234229
 30
0.0
 10
12.2521182883
 20
9.0977355682
 30
0.0
 10
12.2524899674
 20
9.0973505308
 30
0.0
 10
12.2529546309
 20
9.0968696565
 30
0.0
 10
12.2535121994
 20
9.0962924262
 30
0.0
 10
12.2540697753
 20
9.0957152443
 30
0.0
 10
12.2548132072
 20
9.0949456517
 30
0.0
 10
12.2557424981
 20
9.0939836665
 30
0.0
 10
12.2566717886
 20
9.0930216797
 30
0.0
 10
12.257415221
 20
9.0922520895
 30
0.0
 10
12.2579727956
 20
9.0916749003
 30
0.0
 10
12.2585303689
 20
9.0910976975
 30
0.0
 10
12.2589950176
 20
9.0906167378
 30
0.0
 10
12.2593667269
 20
9.0902318744
 30
0.0
 10
12.2595990671
 20
9.0899915527
 30
0.0
 10
12.2597848891
 20
9.0897987962
 30
0.0
 10
12.2599243931
 20
9.0896555953
 30
0.0
 10
12.2600402088
 20
9.0895319144
 30
0.0
 10
12.260133843
 20
9.0894427188
 30
0.0
 10
12.2602013864
 20
9.089349183
 30
0.0
 10
12.260279168
 20
9.089357329
 30
0.0
 10
12.2603793004
 20
9.0893326716
 30
0.0
 10
12.260505693
 20
9.0893140361
 30
0.0
 10
12.2606568389
 20
9.0892864574
 30
0.0
 10
12.2608585502
 20
9.0892515077
 30
0.0
 10
12.2611106265
 20
9.0892071968
 30
0.0
 10
12.2615139837
 20
9.089136648
 30
0.0
 10
12.2620181682
 20
9.0890483423
 30
0.0
 10
12.2626231947
 20
9.0889424267
 30
0.0
 10
12.2632282199
 20
9.0888364975
 30
0.0
 10
12.2640349205
 20
9.0886952632
 30
0.0
 10
12.2650432962
 20
9.0885187189
 30
0.0
 10
12.2660516719
 20
9.0883421749
 30
0.0
 10
12.2668583725
 20
9.08820094
 30
0.0
 10
12.2674633978
 20
9.0880950126
 30
0.0
 10
12.2680684236
 20
9.0879890902
 30
0.0
 10
12.2685726105
 20
9.0879008059
 30
0.0
 10
12.2689759627
 20
9.0878302134
 30
0.0
 10
12.2692280519
 20
9.0877860135
 30
0.0
 10
12.2694297367
 20
9.087750836
 30
0.0
 10
12.2695809636
 20
9.0877239533
 30
0.0
 10
12.2697071027
 20
9.0877031402
 30
0.0
 10
12.269795171
 20
9.0876854523
 30
0.0
 10
12.2698458535
 20
9.0876802146
 30
0.0
 10
12.2698828575
 20
9.0876625686
 30
0.0
 10
12.2699237143
 20
9.0876973586
 30
0.0
 10
12.2699768462
 20
9.0877254551
 30
0.0
 10
12.2700704531
 20
9.0877831456
 30
0.0
 10
12.2702038499
 20
9.0878611054
 30
0.0
 10
12.2703640662
 20
9.0879565641
 30
0.0
 10
12.2705776389
 20
9.0880831764
 30
0.0
 10
12.2708446216
 20
9.0882416698
 30
0.0
 10
12.2712717846
 20
9.0884951318
 30
0.0
 10
12.2718057415
 20
9.0888120029
 30
0.0
 10
12.2724464885
 20
9.0891922296
 30
0.0
 10
12.2730872358
 20
9.0895724613
 30
0.0
 10
12.2739415654
 20
9.0900794351
 30
0.0
 10
12.2750094775
 20
9.090713153
 30
0.0
 10
12.2762909719
 20
9.0914736143
 30
0.0
 10
12.2779996312
 20
9.0924875626
 30
0.0
 10
12.2792811256
 20
9.0932480239
 30
0.0
 10
12.2801354553
 20
9.0937549981
 30
0.0
  0
ENDSEC
  0
SECTION
  2
OBJECTS
  0
DICTIONARY
  5
C
100
AcDbDictionary
280
0
281
1
  3
ACAD_GROUP
350
D
  3
ACAD_MLINESTYLE
350
17
  3
ACAD_LAYOUT
350
1A
  3
ACAD_PLOTSETTINGS
350
19
  3
ACAD_PLOTSTYLENAME
350
E
  3
ACAD_IMAGE_DICT
350
       48A
  3
ACAD_IMAGE_VARS
350
       48B
  3
ACAD_TABLESTYLE
350
       48C
  0
IMAGEDEF_REACTOR
  5
489
100
AcDbRasterImageDefReactor
 90
2
330
272
  0
DICTIONARY
  5
D
102
{ACAD_REACTORS
330
C
102
}
100
AcDbDictionary
280
0
281
1
  0
ACDBDICTIONARYWDFLT
  5
E
102
{ACAD_REACTORS
330
C
102
}
100
AcDbDictionary
281
1
  3
Normal
350
F
100
AcDbDictionaryWithDefault
340
F
  0
DICTIONARY
  5
48A
330
C
100
AcDbDictionary
281
1
  3
BJ4_assy_2_img_1
350
       48F
  0
RASTERVARIABLES
  5
48B
330
C
100
AcDbRasterVariables
 90
0
 70
0
 71
1
 72
5
  0
DICTIONARY
  5
17
102
{ACAD_REACTORS
330
C
102
}
100
AcDbDictionary
280
0
281
1
  3
Standard
350
18
  0
DICTIONARY
  5
48C
330
C
100
AcDbDictionary
281
1
  3
Standard
350
       490
  3
Standard1
350
       491
  0
DICTIONARY
  5
19
102
{ACAD_REACTORS
330
C
102
}
100
AcDbDictionary
281
1
  0
DICTIONARY
  5
1A
102
{ACAD_REACTORS
330
C
102
}
100
AcDbDictionary
281
1
  3
Model
350
48D
  3
Layout1
350
48E
  0
ACDBPLACEHOLDER
  5
F
102
{ACAD_REACTORS
330
E
102
}
  0
MLINESTYLE
  5
18
102
{ACAD_REACTORS
330
17
102
}
100
AcDbMlineStyle
  2
STANDARD
 70
0
  3

 62
256
 51
90.0
 52
90.0
 71
2
 49
0.5
 62
256
  6
BYLAYER
 49
-0.5
 62
256
  6
BYLAYER
  0
LAYOUT
  5
48D
102
{ACAD_REACTORS
330
1A
102
}
100
AcDbPlotSettings
  1

  2
none_device
  4
ANSI_C_(22.00_x_17.00_Inches)
  6

 40
0.0
 41
0.0
 42
0.0
 43
0.0
 44
558.8
 45
431.8
 46
0.0
 47
0.0
 48
0.0
 49
0.0
140
0.0
141
0.0
142
1.0
143
1.0
 70
1024
 72
0
 73
0
 74
0
  7

 75
0
147
1.0
148
0.0
149
0.0
100
AcDbLayout
  1
Model
 70
0
 71
0
 10
0.0
 20
0.0
 11
22.0
 21
17.0
 12
0.0
 22
0.0
 32
0.0
 14
0.0
 24
0.0
 34
0.0
 15
0.0
 25
0.0
 35
0.0
146
0.0
 13
0.0
 23
0.0
 33
0.0
 16
1.0
 26
0.0
 36
0.0
 17
0.0
 27
1.0
 37
0.0
 76
0
330
20C
345
0
346
0
  0
LAYOUT
  5
48E
102
{ACAD_REACTORS
330
1A
102
}
100
AcDbPlotSettings
  1

  2
none_device
  4
ANSI_C_(22.00_x_17.00_Inches)
  6

 40
0.0
 41
0.0
 42
0.0
 43
0.0
 44
558.8
 45
431.8
 46
0.0
 47
0.0
 48
0.0
 49
0.0
140
0.0
141
0.0
142
1.0
143
1.0
 70
0
 72
0
 73
0
 74
0
  7

 75
0
147
1.0
148
0.0
149
0.0
100
AcDbLayout
  1
Layout1
 70
0
 71
1
 10
0.0
 20
0.0
 11
22.0
 21
17.0
 12
0.0
 22
0.0
 32
0.0
 14
0.0
 24
0.0
 34
0.0
 15
0.0
 25
0.0
 35
0.0
146
0.0
 13
0.0
 23
0.0
 33
0.0
 16
1.0
 26
0.0
 36
0.0
 17
0.0
 27
1.0
 37
0.0
 76
0
330
20D
345
0
346
0
  0
IMAGEDEF
  5
48F
102
{ACAD_REACTORS
330
48A
330
489
102
}
100
AcDbRasterImageDef
 90
0
  1
BJ4_assy_2_img_1.png
 10
369.0
 20
92.0
 11
0.0066666667
 21
0.0066666667
280
1
281
0
  0
TABLESTYLE
  5
490
102
{ACAD_REACTORS
330
48C
330
275
102
}
330
48C
100
AcDbTableStyle
  3
Standard
 70
0
 71
0
 40
0.06
 41
0.06
280
1
281
1
  7
Standard
140
0.18
170
1
 62
0
 63
7
283
0
  7
Standard
140
0.18
170
1
 62
0
 63
7
283
0
  7
Standard
140
0.18
170
1
 62
0
 63
7
283
0
  0
TABLESTYLE
  5
491
102
{ACAD_REACTORS
330
48C
330
274
102
}
330
48C
100
AcDbTableStyle
  3
Standard1
 70
1
 71
0
 40
0.06
 41
0.06
280
1
281
1
  7
Standard
140
0.18
170
1
 62
0
 63
7
283
0
  7
Standard
140
0.18
170
1
 62
0
 63
7
283
0
  7
Standard
140
0.18
170
1
 62
0
 63
7
283
0
  0
ENDSEC
  0
EOF
