999
DXF file: BJ2_assy_2.dxf
999
Pro/ENGINEER 2014200 by Parametric Technology Corporation
  0
SECTION
  2
HEADER
  9
$ACADVER
  1
AC1021
  9
$DWGCODEPAGE
  3
ANSI_1252
  9
$EXTMAX
 10
22.0
 20
17.0
 30
0.0
  9
$EXTMIN
 10
0.0
 20
0.0
 30
0.0
  9
$LIMMIN
 10
0.0
 20
0.0
  9
$LIMMAX
 10
22.0
 20
17.0
  9
$VIEWCTR
 10
11.0
 20
8.5
  9
$VIEWSIZE
 40
17.0
  9
$CLAYER
  8
0
  9
$LTSCALE
 40
1.21
  9
$CELTYPE
  6
BYLAYER
  9
$DIMSCALE
 40
1.0
  9
$DIMASZ
 40
0.1875
  9
$DIMEXO
 40
0.0625
  9
$DIMDLI
 40
0.836
  9
$DIMEXE
 40
0.125
  9
$DIMCEN
 40
0.198
  9
$DIMLFAC
 40
1.0
  9
$DIMBLK
  1
_FILLED
  9
$DIMTXT
 40
0.1
  9
$DIMTOL
 70
0
  9
$DIMLIM
 70
0
  9
$DIMTFAC
 40
1.0
  9
$DIMGAP
 40
0.09
  9
$DIMDSEP
 70
46
  9
$AUNITS
 70
0
  9
$PDMODE
 70
3
  9
$PDSIZE
 40
0.3125
  9
$HANDSEED
  5
3DA
  9
$TILEMODE
 70
1
  9
$MEASUREMENT
 70
0
  9
$INSUNITS
 70
1
  0
ENDSEC
  0
SECTION
  2
CLASSES
  0
CLASS
  1
ACDBDICTIONARYWDFLT
  2
AcDbDictionaryWithDefault
  3
AutoCAD 2000
 90
0
 91
1
280
0
281
0
  0
CLASS
  1
ACDBPLACEHOLDER
  2
AcDbPlaceHolder
  3
AutoCAD 2000
 90
0
 91
1
280
0
281
0
  0
CLASS
  1
LAYOUT
  2
AcDbLayout
  3
AutoCAD 2000
 90
0
 91
0
280
0
281
0
  0
CLASS
  1
RASTERVARIABLES
  2
AcDbRasterVariables
  3
ISM
 90
0
 91
1
280
0
281
0
  0
CLASS
  1
IMAGEDEF
  2
AcDbRasterImageDef
  3
ISM
 90
0
 91
1
280
0
281
0
  0
CLASS
  1
IMAGEDEF_REACTOR
  2
AcDbRasterImageDefReactor
  3
ISM
 90
0
 91
1
280
0
281
0
  0
CLASS
  1
IMAGE
  2
AcDbRasterImage
  3
ISM
 90
127
 91
1
280
0
281
1
  0
CLASS
  1
TABLESTYLE
  2
AcDbTableStyle
  3
ObjectDBX Classes
 90
2047
 91
1
280
0
281
0
  0
CLASS
  1
ACAD_TABLE
  2
AcDbTable
  3
ObjectDBX Classes
 90
1025
 91
2
280
0
281
1
  0
ENDSEC
  0
SECTION
  2
TABLES
  0
TABLE
  2
VPORT
  5
8
100
AcDbSymbolTable
 70
2
  0
VPORT
  5
1F4
100
AcDbSymbolTableRecord
100
AcDbViewportTableRecord
  2
*ACTIVE
 70
0
 10
0.0
 20
0.0
 11
1.0
 21
1.0
 12
11.0
 22
8.5
 13
0.0
 23
0.0
 14
1.0
 24
1.0
 15
0.0
 25
0.0
 16
0.0
 26
0.0
 36
1.0
 17
0.0
 27
0.0
 37
0.0
 40
17.0
 41
1.2941176471
 42
50.0
 43
0.0
 44
0.0
 50
0.0
 51
0.0
 71
0
 72
100
 73
1
 74
1
 75
0
 76
0
 77
0
 78
0
  0
ENDTAB
  0
TABLE
  2
LTYPE
  5
5
100
AcDbSymbolTable
 70
6
  0
LTYPE
  5
14
100
AcDbSymbolTableRecord
100
AcDbLinetypeTableRecord
  2
BYBLOCK
 70
0
  3

 72
65
 73
0
 40
0.0
  0
LTYPE
  5
15
100
AcDbSymbolTableRecord
100
AcDbLinetypeTableRecord
  2
BYLAYER
 70
0
  3

 72
65
 73
0
 40
0.0
  0
LTYPE
  5
16
100
AcDbSymbolTableRecord
100
AcDbLinetypeTableRecord
  2
CONTINUOUS
 70
64
  3
Solid line
 72
65
 73
0
 40
0.0
  0
LTYPE
  5
1F5
100
AcDbSymbolTableRecord
100
AcDbLinetypeTableRecord
  2
CENTER
 70
64
  3
____ _ ____ _ ____ _ ____ _ ____ _ ____ _ ____
 72
65
 73
4
 40
0.6
 49
0.375
 74
0
 49
-0.075
 74
0
 49
0.075
 74
0
 49
-0.075
 74
0
  0
LTYPE
  5
1F6
100
AcDbSymbolTableRecord
100
AcDbLinetypeTableRecord
  2
HIDDEN
 70
64
  3
- - - - - - - - - - - - - - - - - - - -
 72
65
 73
2
 40
0.2
 49
0.1
 74
0
 49
-0.1
 74
0
  0
LTYPE
  5
1F7
100
AcDbSymbolTableRecord
100
AcDbLinetypeTableRecord
  2
PHANTOM
 70
64
  3
_____ _ _ _____ _ _ _____ _ _ _____
 72
65
 73
6
 40
0.8
 49
0.45
 74
0
 49
-0.05
 74
0
 49
0.1
 74
0
 49
-0.05
 74
0
 49
0.1
 74
0
 49
-0.05
 74
0
  0
LTYPE
  5
1F8
100
AcDbSymbolTableRecord
100
AcDbLinetypeTableRecord
  2
DOT
 70
64
  3
. . . . . . . . . . . . . . . . . . . .
 72
65
 73
2
 40
0.2
 49
0.1
 74
0
 49
-0.1
 74
0
  0
LTYPE
  5
1F9
100
AcDbSymbolTableRecord
100
AcDbLinetypeTableRecord
  2
DASHED
 70
64
  3
- - - - - - - - - - - - - - - - - - - -
 72
65
 73
2
 40
0.2
 49
0.1
 74
0
 49
-0.1
 74
0
  0
ENDTAB
  0
TABLE
  2
LAYER
  5
2
100
AcDbSymbolTable
 70
36
  0
LAYER
  5
10
100
AcDbSymbolTableRecord
100
AcDbLayerTableRecord
  2
0
 70
0
 62
7
  6
CONTINUOUS
370
-3
390
F
  0
LAYER
  5
1FA
100
AcDbSymbolTableRecord
100
AcDbLayerTableRecord
  2
DEFAULT_1
 70
0
 62
7
  6
CENTER
370
-3
390
F
  0
LAYER
  5
1FB
100
AcDbSymbolTableRecord
100
AcDbLayerTableRecord
  2
DEFAULT_2
 70
0
 62
8
  6
HIDDEN
370
-3
390
F
  0
LAYER
  5
1FC
100
AcDbSymbolTableRecord
100
AcDbLayerTableRecord
  2
DEFAULT_3
 70
0
 62
7
  6
PHANTOM
370
-3
390
F
  0
LAYER
  5
1FD
100
AcDbSymbolTableRecord
100
AcDbLayerTableRecord
  2
01___PRT_ALL_DTM_PLN
 70
0
 62
7
  6
CONTINUOUS
370
-3
390
F
  0
LAYER
  5
1FE
100
AcDbSymbolTableRecord
100
AcDbLayerTableRecord
  2
01___PRT_DEF_DTM_PLN
 70
0
 62
7
  6
CONTINUOUS
370
-3
390
F
  0
LAYER
  5
1FF
100
AcDbSymbolTableRecord
100
AcDbLayerTableRecord
  2
02___PRT_ALL_AXES
 70
0
 62
7
  6
CONTINUOUS
370
-3
390
F
  0
LAYER
  5
200
100
AcDbSymbolTableRecord
100
AcDbLayerTableRecord
  2
03___PRT_ALL_CURVES
 70
0
 62
7
  6
CONTINUOUS
370
-3
390
F
  0
LAYER
  5
201
100
AcDbSymbolTableRecord
100
AcDbLayerTableRecord
  2
04___PRT_ALL_DTM_PNT
 70
0
 62
7
  6
CONTINUOUS
370
-3
390
F
  0
LAYER
  5
202
100
AcDbSymbolTableRecord
100
AcDbLayerTableRecord
  2
05___PRT_ALL_DTM_CSYS
 70
0
 62
7
  6
CONTINUOUS
370
-3
390
F
  0
LAYER
  5
203
100
AcDbSymbolTableRecord
100
AcDbLayerTableRecord
  2
05___PRT_DEF_DTM_CSYS
 70
0
 62
7
  6
CONTINUOUS
370
-3
390
F
  0
LAYER
  5
204
100
AcDbSymbolTableRecord
100
AcDbLayerTableRecord
  2
06___PRT_ALL_SURFS
 70
0
 62
7
  6
CONTINUOUS
370
-3
390
F
  0
LAYER
  5
205
100
AcDbSymbolTableRecord
100
AcDbLayerTableRecord
  2
DATUM_PLANES
 70
0
 62
7
  6
CONTINUOUS
370
-3
390
F
  0
LAYER
  5
206
100
AcDbSymbolTableRecord
100
AcDbLayerTableRecord
  2
PORT_AREAS
 70
0
 62
7
  6
CONTINUOUS
370
-3
390
F
  0
LAYER
  5
207
100
AcDbSymbolTableRecord
100
AcDbLayerTableRecord
  2
SUNNBOMCOSMETIC
 70
0
 62
7
  6
CONTINUOUS
370
-3
390
F
  0
LAYER
  5
208
100
AcDbSymbolTableRecord
100
AcDbLayerTableRecord
  2
SUNNBOMSTAMPING
 70
0
 62
7
  6
CONTINUOUS
370
-3
390
F
  0
LAYER
  5
209
100
AcDbSymbolTableRecord
100
AcDbLayerTableRecord
  2
THREADS
 70
0
 62
7
  6
CONTINUOUS
370
-3
390
F
  0
ENDTAB
  0
TABLE
  2
STYLE
  5
3
100
AcDbSymbolTable
 70
1
  0
STYLE
  5
11
100
AcDbSymbolTableRecord
100
AcDbTextStyleTableRecord
  2
STANDARD
 70
0
 40
0.0
 41
0.8
 50
0.0
 71
0
 42
0.2
  3
txt
  4

  0
STYLE
  5
20A
100
AcDbSymbolTableRecord
100
AcDbTextStyleTableRecord
  2
TEXTSTYLE_1
 70
0
 40
0.0
 41
0.8
 50
0.0
 71
0
 42
0.2
  3
gdt
  4

  0
ENDTAB
  0
TABLE
  2
VIEW
  5
6
100
AcDbSymbolTable
 70
0
  0
ENDTAB
  0
TABLE
  2
UCS
  5
7
100
AcDbSymbolTable
 70
0
  0
ENDTAB
  0
TABLE
  2
APPID
  5
9
100
AcDbSymbolTable
 70
1
  0
APPID
  5
20B
100
AcDbSymbolTableRecord
100
AcDbRegAppTableRecord
  2
ACAD
 70
0
  0
ENDTAB
  0
TABLE
  2
BLOCK_RECORD
  5
1
100
AcDbSymbolTable
 70
0
  0
BLOCK_RECORD
  5
20C
100
AcDbSymbolTableRecord
100
AcDbBlockTableRecord
  2
*Model_Space
  0
BLOCK_RECORD
  5
20D
100
AcDbSymbolTableRecord
100
AcDbBlockTableRecord
  2
*Paper_Space
  0
BLOCK_RECORD
  5
20E
100
AcDbSymbolTableRecord
100
AcDbBlockTableRecord
  2
SUN_FIRST_THIRD_ANGLE_BL0
  0
BLOCK_RECORD
  5
20F
100
AcDbSymbolTableRecord
100
AcDbBlockTableRecord
  2
*T1
  0
BLOCK_RECORD
  5
210
100
AcDbSymbolTableRecord
100
AcDbBlockTableRecord
  2
*T2
  0
ENDTAB
  0
TABLE
  2
DIMSTYLE
  5
A
100
AcDbSymbolTable
 70
1
100
AcDbDimStyleTable
 71
0
  0
DIMSTYLE
105
211
100
AcDbSymbolTableRecord
100
AcDbDimStyleTableRecord
  2
STANDARD
 70
0
  3

  4

 40
1.0
 41
0.1875
 42
0.0625
 43
0.38
 44
0.125
 45
0.0
 46
0.0
 47
0.001
 48
0.001
140
0.1
141
0.09
142
0.0
143
25.4
144
1.0
145
0.0
146
1.0
147
0.09
 71
0.0
 72
0.0
 73
1
 74
1
 75
0
 76
0
 77
0
 78
4
170
0
171
2
172
0
173
0
174
0
175
0
176
0
177
0
178
0
270
2
271
3
272
3
273
2
274
2
275
0
280
0
281
0
282
0
283
1
284
4
285
0
286
0
287
3
288
0
340
11
278
46
  0
ENDTAB
  0
ENDSEC
  0
SECTION
  2
BLOCKS
  0
BLOCK
  5
20
100
AcDbEntity
  8
0
100
AcDbBlockBegin
  2
*Model_Space
 70
0
 10
0.0
 20
0.0
 30
0.0
  3
*Model_Space
  1

  0
ENDBLK
  5
21
100
AcDbEntity
  8
0
100
AcDbBlockEnd
  0
BLOCK
  5
1C
100
AcDbEntity
  8
0
100
AcDbBlockBegin
  2
*Paper_Space
 70
0
 10
0.0
 20
0.0
 30
0.0
  3
*Paper_Space
  1

  0
ENDBLK
  5
1D
100
AcDbEntity
  8
0
100
AcDbBlockEnd
  0
BLOCK
  5
212
100
AcDbEntity
  8
0
100
AcDbBlockBegin
 62
2
  6
CONTINUOUS
  2
SUN_FIRST_THIRD_ANGLE_BL0
 70
64
 10
20.4816717061
 20
1.2289683772
  3
SUN_FIRST_THIRD_ANGLE_BL0
  1

  0
TEXT
  5
213
100
AcDbEntity
  8
0
100
AcDbText
 62
2
  6
CONTINUOUS
 10
19.4750896608
 20
1.4136269581
  7
STANDARD
 40
0.08
  1
FIRST ANGLE
 41
0.8
 72
0
100
AcDbText
  0
TEXT
  5
214
100
AcDbEntity
  8
0
100
AcDbText
 62
2
  6
CONTINUOUS
 10
20.7842537513
 20
1.4047600029
  7
STANDARD
 40
0.08
  1
THIRD ANGLE
 41
0.8
 72
0
100
AcDbText
  0
LINE
  5
215
100
AcDbEntity
  8
0
100
AcDbLine
 62
7
  6
CONTINUOUS
 10
19.4767170086
 20
1.1727031207
 11
19.6334271527
 21
1.1717972817
  0
LINE
  5
216
100
AcDbEntity
  8
0
100
AcDbLine
 62
7
  6
CONTINUOUS
 10
19.6596964832
 20
1.1717972817
 11
19.6950230232
 21
1.171593082
  0
LINE
  5
217
100
AcDbEntity
  8
0
100
AcDbLine
 62
7
  6
CONTINUOUS
 10
19.7194818561
 20
1.1708914427
 11
19.8852396156
 21
1.1699333054
  0
LINE
  5
218
100
AcDbEntity
  8
0
100
AcDbLine
 62
7
  6
CONTINUOUS
 10
19.4758111696
 20
1.2723454088
 11
19.88525039
 21
1.3511534004
  0
LINE
  5
219
100
AcDbEntity
  8
0
100
AcDbLine
 62
7
  6
CONTINUOUS
 10
19.88525039
 20
1.3511534004
 11
19.8831348489
 21
0.9851647912
  0
LINE
  5
21A
100
AcDbEntity
  8
0
100
AcDbLine
 62
7
  6
CONTINUOUS
 10
19.8831348489
 20
0.9851647912
 11
19.4767170086
 21
1.0658141206
  0
LINE
  5
21B
100
AcDbEntity
  8
0
100
AcDbLine
 62
7
  6
CONTINUOUS
 10
19.4767170086
 20
1.0658141206
 11
19.4779056764
 21
1.2714536432
  0
CIRCLE
  5
21C
100
AcDbEntity
  8
0
100
AcDbCircle
 62
7
  6
CONTINUOUS
 10
20.2068232291
 20
1.1717972817
 40
0.175742101
  0
CIRCLE
  5
21D
100
AcDbEntity
  8
0
100
AcDbCircle
 62
7
  6
CONTINUOUS
 10
20.2068232291
 20
1.1717972817
 40
0.1005522074
  0
LINE
  5
21E
100
AcDbEntity
  8
0
100
AcDbLine
 62
7
  6
CONTINUOUS
 10
20.2077290681
 20
1.3756110529
 11
20.2071171714
 21
1.2379342989
  0
LINE
  5
21F
100
AcDbEntity
  8
0
100
AcDbLine
 62
7
  6
CONTINUOUS
 10
20.2077290681
 20
1.2016899681
 11
20.2074674401
 21
1.1428236749
  0
LINE
  5
220
100
AcDbEntity
  8
0
100
AcDbLine
 62
7
  6
CONTINUOUS
 10
20.208634907
 20
1.101141841
 11
20.2080230104
 21
0.963465087
  0
LINE
  5
221
100
AcDbEntity
  8
0
100
AcDbLine
 62
7
  6
CONTINUOUS
 10
20.0066328138
 20
1.1745147986
 11
20.1443095678
 21
1.1739029019
  0
LINE
  5
222
100
AcDbEntity
  8
0
100
AcDbLine
 62
7
  6
CONTINUOUS
 10
20.1832714155
 20
1.1727031207
 11
20.238153505
 21
1.172335442
  0
LINE
  5
223
100
AcDbEntity
  8
0
100
AcDbLine
 62
7
  6
CONTINUOUS
 10
20.2756669918
 20
1.1717972817
 11
20.407916871
 21
1.1712095044
  0
CIRCLE
  5
224
100
AcDbEntity
  8
0
100
AcDbCircle
 62
7
  6
CONTINUOUS
 10
20.7509457401
 20
1.1693297793
 40
0.1722024983
  0
CIRCLE
  5
225
100
AcDbEntity
  8
0
100
AcDbCircle
 62
7
  6
CONTINUOUS
 10
20.7509457401
 20
1.1693297793
 40
0.0985164967
  0
LINE
  5
226
100
AcDbEntity
  8
0
100
AcDbLine
 62
7
  6
CONTINUOUS
 10
20.7169767782
 20
1.170462078
 11
20.7825395137
 21
1.1682766535
  0
LINE
  5
227
100
AcDbEntity
  8
0
100
AcDbLine
 62
7
  6
CONTINUOUS
 10
20.8177513651
 20
1.1693297793
 11
20.947965719
 21
1.1693297793
  0
LINE
  5
228
100
AcDbEntity
  8
0
100
AcDbLine
 62
7
  6
CONTINUOUS
 10
20.6875370113
 20
1.170462078
 11
20.5573226574
 21
1.170462078
  0
LINE
  5
229
100
AcDbEntity
  8
0
100
AcDbLine
 62
7
  6
CONTINUOUS
 10
20.7486811426
 20
1.1987695462
 11
20.7486811426
 21
1.1432869085
  0
LINE
  5
22A
100
AcDbEntity
  8
0
100
AcDbLine
 62
7
  6
CONTINUOUS
 10
20.7498134414
 20
1.1059210505
 11
20.7498134414
 21
0.9757066966
  0
LINE
  5
22B
100
AcDbEntity
  8
0
100
AcDbLine
 62
7
  6
CONTINUOUS
 10
20.7486811426
 20
1.2338708068
 11
20.7486811426
 21
1.3640851607
  0
LINE
  5
22C
100
AcDbEntity
  8
0
100
AcDbLine
 62
7
  6
CONTINUOUS
 10
21.0702539817
 20
1.2701043662
 11
21.4790138229
 21
1.3448360823
  0
LINE
  5
22D
100
AcDbEntity
  8
0
100
AcDbLine
 62
7
  6
CONTINUOUS
 10
21.4790138229
 20
1.3448360823
 11
21.4790138229
 21
0.9779712941
  0
LINE
  5
22E
100
AcDbEntity
  8
0
100
AcDbLine
 62
7
  6
CONTINUOUS
 10
21.4790138229
 20
0.9779712941
 11
21.069121683
 21
1.0617614
  0
LINE
  5
22F
100
AcDbEntity
  8
0
100
AcDbLine
 62
7
  6
CONTINUOUS
 10
21.0702539817
 20
1.2701043662
 11
21.069121683
 21
1.0617614
  0
LINE
  5
230
100
AcDbEntity
  8
0
100
AcDbLine
 62
7
  6
CONTINUOUS
 10
21.4790138229
 20
1.1693297793
 11
21.3159628059
 21
1.1693297793
  0
LINE
  5
231
100
AcDbEntity
  8
0
100
AcDbLine
 62
7
  6
CONTINUOUS
 10
21.2876553377
 20
1.1693297793
 11
21.2502894796
 21
1.1693297793
  0
LINE
  5
232
100
AcDbEntity
  8
0
100
AcDbLine
 62
7
  6
CONTINUOUS
 10
21.2208497126
 20
1.1659328831
 11
21.0713862804
 21
1.1659328831
  0
LINE
  5
233
100
AcDbEntity
  8
0
100
AcDbLine
 62
7
  6
CONTINUOUS
 10
20.4796138713
 20
1.5284908897
 11
20.4766766948
 21
0.9294458646
  0
ENDBLK
  5
234
100
AcDbEntity
  8
0
  6
BYBLOCK
 62
0
100
AcDbBlockEnd
  0
BLOCK
  5
235
100
AcDbEntity
  8
0
100
AcDbBlockBegin
  2
*T1
 70
1
 10
0.0
 20
0.0
  3
*T1
  1

  0
LINE
  5
236
100
AcDbEntity
  8
0
100
AcDbLine
 62
2
  6
CONTINUOUS
 10
9.275
 20
0.0
 11
-0.0
 21
0.0
  0
LINE
  5
237
100
AcDbEntity
  8
0
100
AcDbLine
 62
2
  6
CONTINUOUS
 10
9.275
 20
0.0
 11
9.275
 21
1.25
  0
LINE
  5
238
100
AcDbEntity
  8
0
100
AcDbLine
 62
2
  6
CONTINUOUS
 10
9.275
 20
0.625
 11
-0.0
 21
0.625
  0
LINE
  5
239
100
AcDbEntity
  8
0
100
AcDbLine
 62
2
  6
CONTINUOUS
 10
9.275
 20
1.25
 11
-0.0
 21
1.25
  0
LINE
  5
23A
100
AcDbEntity
  8
0
100
AcDbLine
 62
2
  6
CONTINUOUS
 10
6.8
 20
0.0
 11
6.8
 21
1.25
  0
LINE
  5
23B
100
AcDbEntity
  8
0
100
AcDbLine
 62
2
  6
CONTINUOUS
 10
6.4
 20
0.0
 11
6.4
 21
0.625
  0
LINE
  5
23C
100
AcDbEntity
  8
0
100
AcDbLine
 62
2
  6
CONTINUOUS
 10
5.9
 20
0.0
 11
5.9
 21
0.625
  0
LINE
  5
23D
100
AcDbEntity
  8
0
100
AcDbLine
 62
2
  6
CONTINUOUS
 10
5.2
 20
0.0
 11
5.2
 21
0.625
  0
LINE
  5
23E
100
AcDbEntity
  8
0
100
AcDbLine
 62
2
  6
CONTINUOUS
 10
4.1
 20
0.0
 11
4.1
 21
1.25
  0
LINE
  5
23F
100
AcDbEntity
  8
0
100
AcDbLine
 62
2
  6
CONTINUOUS
 10
-0.0
 20
0.0
 11
-0.0
 21
1.25
  0
MTEXT
  5
240
100
AcDbEntity
  8
0
100
AcDbMText
 62
2
  6
CONTINUOUS
  7
STANDARD
 71
2
 72
1
 10
6.6
 20
0.325
 30
0.0
 11
1.0
 21
0.0
 31
0.0
 44
0.9
  1
2
 40
0.125
 41
0.2
  0
MTEXT
  5
241
100
AcDbEntity
  8
0
100
AcDbMText
 62
2
  6
CONTINUOUS
  7
STANDARD
 71
2
 72
1
 10
6.15
 20
0.325
 30
0.0
 11
1.0
 21
0.0
 31
0.0
 44
0.9
  1
C
 40
0.125
 41
0.2
  0
MTEXT
  5
242
100
AcDbEntity
  8
0
100
AcDbMText
 62
2
  6
CONTINUOUS
  7
STANDARD
 71
2
 72
1
 10
5.55
 20
0.325
 30
0.0
 11
1.0
 21
0.0
 31
0.0
 44
0.9
  1
1.000
 40
0.125
 41
1.0
  0
MTEXT
  5
243
100
AcDbEntity
  8
0
100
AcDbMText
 62
2
  6
CONTINUOUS
  7
STANDARD
 71
2
 72
1
 10
4.65
 20
0.325
 30
0.0
 11
1.0
 21
0.0
 31
0.0
 44
0.9
  1
Jul-24-20
 40
0.125
 41
1.8
  0
MTEXT
  5
244
100
AcDbEntity
  8
0
100
AcDbMText
 62
2
  6
CONTINUOUS
  7
STANDARD
 71
2
 72
1
 10
2.05
 20
0.4625
 30
0.0
 11
1.0
 21
0.0
 31
0.0
 44
0.9
  1
T-2A Sandwich ISO 05 - X&Y\PReducer on  A with reverse flow check
 40
0.125
 41
7.4
  0
MTEXT
  5
245
100
AcDbEntity
  8
0
100
AcDbMText
 62
2
  6
CONTINUOUS
  7
STANDARD
 71
1
 72
1
 10
6.45
 20
0.5625
 30
0.0
 11
1.0
 21
0.0
 31
0.0
 44
0.9
  1
SHEET
 40
0.06
 41
0.48
  0
MTEXT
  5
246
100
AcDbEntity
  8
0
100
AcDbMText
 62
2
  6
CONTINUOUS
  7
STANDARD
 71
1
 72
1
 10
5.95
 20
0.5625
 30
0.0
 11
1.0
 21
0.0
 31
0.0
 44
0.9
  1
DWG SIZE
 40
0.06
 41
0.768
  0
MTEXT
  5
247
100
AcDbEntity
  8
0
100
AcDbMText
 62
2
  6
CONTINUOUS
  7
STANDARD
 71
1
 72
1
 10
5.25
 20
0.5625
 30
0.0
 11
1.0
 21
0.0
 31
0.0
 44
0.9
  1
SCALE
 40
0.06
 41
0.48
  0
MTEXT
  5
248
100
AcDbEntity
  8
0
100
AcDbMText
 62
2
  6
CONTINUOUS
  7
STANDARD
 71
1
 72
1
 10
4.15
 20
0.5625
 30
0.0
 11
1.0
 21
0.0
 31
0.0
 44
0.9
  1
DATE
 40
0.06
 41
0.384
  0
MTEXT
  5
249
100
AcDbEntity
  8
0
100
AcDbMText
 62
2
  6
CONTINUOUS
  7
STANDARD
 71
1
 72
1
 10
0.05
 20
0.5625
 30
0.0
 11
1.0
 21
0.0
 31
0.0
 44
0.9
  1
DESCRIPTION
 40
0.06
 41
1.056
  0
MTEXT
  5
24A
100
AcDbEntity
  8
0
100
AcDbMText
 62
2
  6
CONTINUOUS
  7
STANDARD
 71
2
 72
1
 10
5.45
 20
1.0375
 30
0.0
 11
1.0
 21
0.0
 31
0.0
 44
0.9
  1
ALL DIMENSIONS IN INCH\PVIEWS ARE THIRD ANGLE
 40
0.12
 41
4.224
  0
MTEXT
  5
24B
100
AcDbEntity
  8
0
100
AcDbMText
 62
2
  6
CONTINUOUS
  7
STANDARD
 71
2
 72
1
 10
2.05
 20
0.95
 30
0.0
 11
1.0
 21
0.0
 31
0.0
 44
0.9
  1
BJ2
 40
0.125
 41
0.6
  0
MTEXT
  5
24C
100
AcDbEntity
  8
0
100
AcDbMText
 62
2
  6
CONTINUOUS
  7
STANDARD
 71
1
 72
1
 10
0.05
 20
1.1875
 30
0.0
 11
1.0
 21
0.0
 31
0.0
 44
0.9
  1
MODEL
 40
0.06
 41
0.48
  0
ENDBLK
  5
24D
100
AcDbEntity
  8
0
  6
BYBLOCK
 62
0
100
AcDbBlockEnd
  0
BLOCK
  5
24E
100
AcDbEntity
  8
0
100
AcDbBlockBegin
  2
*T2
 70
1
 10
0.0
 20
0.0
  3
*T2
  1

  0
LINE
  5
24F
100
AcDbEntity
  8
0
100
AcDbLine
 62
2
  6
CONTINUOUS
 10
0.0
 20
0.0
 11
9.055
 21
0.0
  0
LINE
  5
250
100
AcDbEntity
  8
0
100
AcDbLine
 62
2
  6
CONTINUOUS
 10
0.0
 20
0.0
 11
0.0
 21
-2.094
  0
LINE
  5
251
100
AcDbEntity
  8
0
100
AcDbLine
 62
2
  6
CONTINUOUS
 10
0.0
 20
-0.344
 11
9.055
 21
-0.344
  0
LINE
  5
252
100
AcDbEntity
  8
0
100
AcDbLine
 62
2
  6
CONTINUOUS
 10
0.0
 20
-0.594
 11
9.055
 21
-0.594
  0
LINE
  5
253
100
AcDbEntity
  8
0
100
AcDbLine
 62
2
  6
CONTINUOUS
 10
0.0
 20
-0.844
 11
9.055
 21
-0.844
  0
LINE
  5
254
100
AcDbEntity
  8
0
100
AcDbLine
 62
2
  6
CONTINUOUS
 10
0.0
 20
-1.094
 11
9.055
 21
-1.094
  0
LINE
  5
255
100
AcDbEntity
  8
0
100
AcDbLine
 62
2
  6
CONTINUOUS
 10
0.0
 20
-1.344
 11
9.055
 21
-1.344
  0
LINE
  5
256
100
AcDbEntity
  8
0
100
AcDbLine
 62
2
  6
CONTINUOUS
 10
0.0
 20
-1.594
 11
9.055
 21
-1.594
  0
LINE
  5
257
100
AcDbEntity
  8
0
100
AcDbLine
 62
2
  6
CONTINUOUS
 10
0.0
 20
-1.844
 11
9.055
 21
-1.844
  0
LINE
  5
258
100
AcDbEntity
  8
0
100
AcDbLine
 62
2
  6
CONTINUOUS
 10
0.0
 20
-2.094
 11
9.055
 21
-2.094
  0
LINE
  5
259
100
AcDbEntity
  8
0
100
AcDbLine
 62
2
  6
CONTINUOUS
 10
3.055
 20
0.0
 11
3.055
 21
-2.094
  0
LINE
  5
25A
100
AcDbEntity
  8
0
100
AcDbLine
 62
2
  6
CONTINUOUS
 10
9.055
 20
0.0
 11
9.055
 21
-2.094
  0
MTEXT
  5
25B
100
AcDbEntity
  8
0
100
AcDbMText
 62
2
  6
CONTINUOUS
  7
STANDARD
 71
2
 72
1
 10
1.5275
 20
-0.0995
 30
0.0
 11
1.0
 21
0.0
 31
0.0
 44
0.9
  1
Technical Data
 40
0.145
 41
3.248
  0
MTEXT
  5
25C
100
AcDbEntity
  8
0
100
AcDbMText
 62
2
  6
CONTINUOUS
  7
STANDARD
 71
2
 72
1
 10
4.555
 20
-0.0995
 30
0.0
 11
1.0
 21
0.0
 31
0.0
 44
0.9
  1
U.S. Units
 40
0.145
 41
2.32
  0
MTEXT
  5
25D
100
AcDbEntity
  8
0
100
AcDbMText
 62
2
  6
CONTINUOUS
  7
STANDARD
 71
2
 72
1
 10
7.555
 20
-0.0995
 30
0.0
 11
1.0
 21
0.0
 31
0.0
 44
0.9
  1
Metric Units
 40
0.145
 41
2.784
  0
MTEXT
  5
25E
100
AcDbEntity
  8
0
100
AcDbMText
 62
2
  6
CONTINUOUS
  7
STANDARD
 71
2
 72
1
 10
1.5275
 20
-0.4065
 30
0.0
 11
1.0
 21
0.0
 31
0.0
 44
0.9
  1
Cavity
 40
0.125
 41
1.2
  0
MTEXT
  5
25F
100
AcDbEntity
  8
0
100
AcDbMText
 62
2
  6
CONTINUOUS
  7
STANDARD
 71
2
 72
1
 10
6.055
 20
-0.4065
 30
0.0
 11
1.0
 21
0.0
 31
0.0
 44
0.9
  1
T-2A
 40
0.125
 41
0.8
  0
MTEXT
  5
260
100
AcDbEntity
  8
0
100
AcDbMText
 62
2
  6
CONTINUOUS
  7
STANDARD
 71
2
 72
1
 10
1.5275
 20
-0.6565
 30
0.0
 11
1.0
 21
0.0
 31
0.0
 44
0.9
  1
Body Features
 40
0.125
 41
2.6
  0
MTEXT
  5
261
100
AcDbEntity
  8
0
100
AcDbMText
 62
2
  6
CONTINUOUS
  7
STANDARD
 71
2
 72
1
 10
6.055
 20
-0.6565
 30
0.0
 11
1.0
 21
0.0
 31
0.0
 44
0.9
  1
Reducer on  A with reverse flow check
 40
0.125
 41
7.4
  0
MTEXT
  5
262
100
AcDbEntity
  8
0
100
AcDbMText
 62
2
  6
CONTINUOUS
  7
STANDARD
 71
2
 72
1
 10
1.5275
 20
-0.9065
 30
0.0
 11
1.0
 21
0.0
 31
0.0
 44
0.9
  1
Body Type
 40
0.125
 41
1.8
  0
MTEXT
  5
263
100
AcDbEntity
  8
0
100
AcDbMText
 62
2
  6
CONTINUOUS
  7
STANDARD
 71
2
 72
1
 10
6.055
 20
-0.9065
 30
0.0
 11
1.0
 21
0.0
 31
0.0
 44
0.9
  1
Sandwich
 40
0.125
 41
1.6
  0
MTEXT
  5
264
100
AcDbEntity
  8
0
100
AcDbMText
 62
2
  6
CONTINUOUS
  7
STANDARD
 71
2
 72
1
 10
1.5275
 20
-1.1565
 30
0.0
 11
1.0
 21
0.0
 31
0.0
 44
0.9
  1
Interface
 40
0.125
 41
1.8
  0
MTEXT
  5
265
100
AcDbEntity
  8
0
100
AcDbMText
 62
2
  6
CONTINUOUS
  7
STANDARD
 71
2
 72
1
 10
6.055
 20
-1.1565
 30
0.0
 11
1.0
 21
0.0
 31
0.0
 44
0.9
  1
ISO 05 - X&Y
 40
0.125
 41
2.4
  0
MTEXT
  5
266
100
AcDbEntity
  8
0
100
AcDbMText
 62
2
  6
CONTINUOUS
  7
STANDARD
 71
2
 72
1
 10
1.5275
 20
-1.4065
 30
0.0
 11
1.0
 21
0.0
 31
0.0
 44
0.9
  1
Open Cavity Quantity
 40
0.125
 41
4.0
  0
MTEXT
  5
267
100
AcDbEntity
  8
0
100
AcDbMText
 62
2
  6
CONTINUOUS
  7
STANDARD
 71
2
 72
1
 10
6.055
 20
-1.4065
 30
0.0
 11
1.0
 21
0.0
 31
0.0
 44
0.9
  1
1
 40
0.125
 41
0.2
  0
MTEXT
  5
268
100
AcDbEntity
  8
0
100
AcDbMText
 62
2
  6
CONTINUOUS
  7
STANDARD
 71
2
 72
1
 10
1.5275
 20
-1.6565
 30
0.0
 11
1.0
 21
0.0
 31
0.0
 44
0.9
  1
Stack Height
 40
0.125
 41
2.4
  0
MTEXT
  5
269
100
AcDbEntity
  8
0
100
AcDbMText
 62
2
  6
CONTINUOUS
  7
STANDARD
 71
2
 72
1
 10
4.555
 20
-1.6565
 30
0.0
 11
1.0
 21
0.0
 31
0.0
 44
0.9
  1
2.49 in.
 40
0.125
 41
1.6
  0
MTEXT
  5
26A
100
AcDbEntity
  8
0
100
AcDbMText
 62
2
  6
CONTINUOUS
  7
STANDARD
 71
2
 72
1
 10
7.555
 20
-1.6565
 30
0.0
 11
1.0
 21
0.0
 31
0.0
 44
0.9
  1
63 mm
 40
0.125
 41
1.0
  0
MTEXT
  5
26B
100
AcDbEntity
  8
0
100
AcDbMText
 62
2
  6
CONTINUOUS
  7
STANDARD
 71
2
 72
1
 10
1.5275
 20
-1.9065
 30
0.0
 11
1.0
 21
0.0
 31
0.0
 44
0.9
  1
Weight
 40
0.125
 41
1.2
  0
MTEXT
  5
26C
100
AcDbEntity
  8
0
100
AcDbMText
 62
2
  6
CONTINUOUS
  7
STANDARD
 71
2
 72
1
 10
4.555
 20
-1.9065
 30
0.0
 11
1.0
 21
0.0
 31
0.0
 44
0.9
  1
2.409 lb.
 40
0.125
 41
1.8
  0
MTEXT
  5
26D
100
AcDbEntity
  8
0
100
AcDbMText
 62
2
  6
CONTINUOUS
  7
STANDARD
 71
2
 72
1
 10
7.555
 20
-1.9065
 30
0.0
 11
1.0
 21
0.0
 31
0.0
 44
0.9
  1
1,093 kg.
 40
0.125
 41
1.8
  0
ENDBLK
  5
26E
100
AcDbEntity
  8
0
  6
BYBLOCK
 62
0
100
AcDbBlockEnd
  0
ENDSEC
  0
SECTION
  2
ENTITIES
  0
IMAGE
  5
26F
100
AcDbEntity
  8
0
100
AcDbRasterImage
 62
7
  6
CONTINUOUS
 10
19.2297077316
 20
0.3094318264
 30
0.0
 11
0.0066666667
 21
0.0
 31
0.0
 12
0.0
 22
0.0066666667
 32
0.0
 13
369.0
 23
92.0
340
       3D7
 70
9
280
0
281
50
282
50
283
0
360
       3D1
 71
1
 91
2
 14
-0.5
 24
-0.5
 14
368.5
 24
91.5
  0
INSERT
  5
270
100
AcDbEntity
  8
0
100
AcDbBlockReference
 62
2
  6
CONTINUOUS
  2
SUN_FIRST_THIRD_ANGLE_BL0
 10
20.4816717061
 20
1.2289683772
  0
ACAD_TABLE
  5
271
100
AcDbEntity
  8
0
 62
2
  6
CONTINUOUS
100
AcDbBlockReference
  2
*T1
 10
12.42375
 20
0.30125
 30
0.0
100
AcDbTable
342
       3D9
343
20F
 11
1.0
 21
0.0
 31
0.0
 90
6
 91
4
 92
6
 93
20
 94
0
 95
0
 96
0
 70
1
 41
0.0
141
0.525
141
0.1
141
0.525
141
0.1
142
4.1
142
1.1
142
0.7
142
0.5
142
0.4
142
2.475
171
1
172
0
173
0
174
0
175
1
176
1
 91
33
178
0
145
0.0
301
CELL_VALUE
 90
4
  1
T-2A Sandwich ISO 05 - X&Y\PReducer on  A with reverse flow check
304
ACVALUE_END
170
2
140
0.125
171
1
172
0
173
0
174
0
175
1
176
1
 91
33
178
0
145
0.0
301
CELL_VALUE
 90
4
  1
Jul-24-20
304
ACVALUE_END
170
5
140
0.125
171
1
172
0
173
0
174
0
175
1
176
1
 91
33
178
0
145
0.0
301
CELL_VALUE
 90
4
  1
1.000
304
ACVALUE_END
170
5
140
0.125
171
1
172
0
173
0
174
0
175
1
176
1
 91
33
178
0
145
0.0
301
CELL_VALUE
 90
4
  1
C
304
ACVALUE_END
170
5
140
0.125
171
1
172
0
173
0
174
0
175
1
176
1
 91
33
178
0
145
0.0
301
CELL_VALUE
 90
4
  1
2
304
ACVALUE_END
170
5
140
0.125
171
1
172
0
173
0
174
0
175
1
176
1
 91
33
178
0
145
0.0
301
CELL_VALUE
 90
4
  1
 
304
ACVALUE_END
170
1
140
0.125
171
1
172
0
173
0
174
0
175
1
176
1
 91
33
178
0
145
0.0
301
CELL_VALUE
 90
4
  1
DESCRIPTION
304
ACVALUE_END
170
1
140
0.06
171
1
172
0
173
0
174
0
175
1
176
1
 91
33
178
0
145
0.0
301
CELL_VALUE
 90
4
  1
DATE
304
ACVALUE_END
170
1
140
0.06
171
1
172
0
173
0
174
0
175
1
176
1
 91
33
178
0
145
0.0
301
CELL_VALUE
 90
4
  1
SCALE
304
ACVALUE_END
170
1
140
0.06
171
1
172
0
173
0
174
0
175
1
176
1
 91
33
178
0
145
0.0
301
CELL_VALUE
 90
4
  1
DWG SIZE
304
ACVALUE_END
170
1
140
0.06
171
1
172
0
173
0
174
0
175
1
176
1
 91
33
178
0
145
0.0
301
CELL_VALUE
 90
4
  1
SHEET
304
ACVALUE_END
170
1
140
0.06
171
1
172
0
173
0
174
0
175
1
176
1
 91
33
178
0
145
0.0
301
CELL_VALUE
 90
4
  1
 
304
ACVALUE_END
170
1
140
0.125
171
1
172
0
173
0
174
0
175
1
176
1
 91
33
178
0
145
0.0
301
CELL_VALUE
 90
4
  1
BJ2
304
ACVALUE_END
170
5
140
0.125
171
1
172
0
173
0
174
0
175
4
176
1
 91
33
178
0
145
0.0
301
CELL_VALUE
 90
4
  1
ALL DIMENSIONS IN INCH\PVIEWS ARE THIRD ANGLE
304
ACVALUE_END
170
5
140
0.12
171
1
172
0
173
1
174
0
175
1
176
1
 91
1
178
0
145
0.0
170
1
171
1
172
0
173
1
174
0
175
1
176
1
 91
1
178
0
145
0.0
170
1
171
1
172
0
173
1
174
0
175
1
176
1
 91
1
178
0
145
0.0
170
5
171
1
172
0
173
0
174
0
175
1
176
1
 91
33
178
0
145
0.0
301
CELL_VALUE
 90
4
  1
 
304
ACVALUE_END
170
1
140
0.125
171
1
172
0
173
0
174
0
175
1
176
1
 91
33
178
0
145
0.0
301
CELL_VALUE
 90
4
  1
MODEL
304
ACVALUE_END
170
1
140
0.06
171
1
172
0
173
0
174
0
175
1
176
1
 91
33
178
0
145
0.0
301
CELL_VALUE
 90
4
  1
 
304
ACVALUE_END
170
1
140
0.125
171
1
172
0
173
0
174
0
175
1
176
1
 91
33
178
0
145
0.0
301
CELL_VALUE
 90
4
  1
 
304
ACVALUE_END
170
1
140
0.125
171
1
172
0
173
0
174
0
175
1
176
1
 91
33
178
0
145
0.0
301
CELL_VALUE
 90
4
  1
 
304
ACVALUE_END
170
1
140
0.125
171
1
172
0
173
0
174
0
175
1
176
1
 91
33
178
0
145
0.0
301
CELL_VALUE
 90
4
  1
 
304
ACVALUE_END
170
1
140
0.125
171
1
172
0
173
0
174
0
175
1
176
1
 91
33
178
0
145
0.0
301
CELL_VALUE
 90
4
  1
 
304
ACVALUE_END
170
1
140
0.125
  0
ACAD_TABLE
  5
272
100
AcDbEntity
  8
0
 62
2
  6
CONTINUOUS
100
AcDbBlockReference
  2
*T2
 10
12.4237499994
 20
16.47875
 30
0.0
100
AcDbTable
342
       3D8
343
210
 11
1.0
 21
0.0
 31
0.0
 90
22
 91
8
 92
3
 93
16
 94
0
 95
0
 96
0
 41
0.028
141
0.344
141
0.25
141
0.25
141
0.25
141
0.25
141
0.25
141
0.25
141
0.25
142
3.055
142
3.0
142
3.0
171
1
172
0
173
0
174
0
175
1
176
1
 91
33
178
0
145
0.0
301
CELL_VALUE
 90
4
  1
Technical Data
304
ACVALUE_END
170
5
140
0.145
171
1
172
0
173
0
174
0
175
1
176
1
 91
33
178
0
145
0.0
301
CELL_VALUE
 90
4
  1
U.S. Units
304
ACVALUE_END
170
5
140
0.145
171
1
172
0
173
0
174
0
175
1
176
1
 91
33
178
0
145
0.0
301
CELL_VALUE
 90
4
  1
Metric Units
304
ACVALUE_END
170
5
140
0.145
171
1
172
0
173
0
174
0
175
1
176
1
 91
33
178
0
145
0.0
301
CELL_VALUE
 90
4
  1
Cavity
304
ACVALUE_END
170
5
140
0.125
171
1
172
0
173
0
174
0
175
2
176
1
 91
33
178
0
145
0.0
301
CELL_VALUE
 90
4
  1
T-2A
304
ACVALUE_END
170
5
140
0.125
171
1
172
0
173
1
174
0
175
1
176
1
 91
1
178
0
145
0.0
170
1
171
1
172
0
173
0
174
0
175
1
176
1
 91
33
178
0
145
0.0
301
CELL_VALUE
 90
4
  1
Body Features
304
ACVALUE_END
170
5
140
0.125
171
1
172
0
173
0
174
0
175
2
176
1
 91
33
178
0
145
0.0
301
CELL_VALUE
 90
4
  1
Reducer on  A with reverse flow check
304
ACVALUE_END
170
5
140
0.125
171
1
172
0
173
1
174
0
175
1
176
1
 91
1
178
0
145
0.0
170
1
171
1
172
0
173
0
174
0
175
1
176
1
 91
33
178
0
145
0.0
301
CELL_VALUE
 90
4
  1
Body Type
304
ACVALUE_END
170
5
140
0.125
171
1
172
0
173
0
174
0
175
2
176
1
 91
33
178
0
145
0.0
301
CELL_VALUE
 90
4
  1
Sandwich
304
ACVALUE_END
170
5
140
0.125
171
1
172
0
173
1
174
0
175
1
176
1
 91
1
178
0
145
0.0
170
1
171
1
172
0
173
0
174
0
175
1
176
1
 91
33
178
0
145
0.0
301
CELL_VALUE
 90
4
  1
Interface
304
ACVALUE_END
170
5
140
0.125
171
1
172
0
173
0
174
0
175
2
176
1
 91
33
178
0
145
0.0
301
CELL_VALUE
 90
4
  1
ISO 05 - X&Y
304
ACVALUE_END
170
5
140
0.125
171
1
172
0
173
1
174
0
175
1
176
1
 91
1
178
0
145
0.0
170
1
171
1
172
0
173
0
174
0
175
1
176
1
 91
33
178
0
145
0.0
301
CELL_VALUE
 90
4
  1
Open Cavity Quantity
304
ACVALUE_END
170
5
140
0.125
171
1
172
0
173
0
174
0
175
2
176
1
 91
33
178
0
145
0.0
301
CELL_VALUE
 90
4
  1
1
304
ACVALUE_END
170
5
140
0.125
171
1
172
0
173
1
174
0
175
1
176
1
 91
1
178
0
145
0.0
170
1
171
1
172
0
173
0
174
0
175
1
176
1
 91
33
178
0
145
0.0
301
CELL_VALUE
 90
4
  1
Stack Height
304
ACVALUE_END
170
5
140
0.125
171
1
172
0
173
0
174
0
175
1
176
1
 91
33
178
0
145
0.0
301
CELL_VALUE
 90
4
  1
2.49 in.
304
ACVALUE_END
170
5
140
0.125
171
1
172
0
173
0
174
0
175
1
176
1
 91
33
178
0
145
0.0
301
CELL_VALUE
 90
4
  1
63 mm
304
ACVALUE_END
170
5
140
0.125
171
1
172
0
173
0
174
0
175
1
176
1
 91
33
178
0
145
0.0
301
CELL_VALUE
 90
4
  1
Weight
304
ACVALUE_END
170
5
140
0.125
171
1
172
0
173
0
174
0
175
1
176
1
 91
33
178
0
145
0.0
301
CELL_VALUE
 90
4
  1
2.409 lb.
304
ACVALUE_END
170
5
140
0.125
171
1
172
0
173
0
174
0
175
1
176
1
 91
33
178
0
145
0.0
301
CELL_VALUE
 90
4
  1
1,093 kg.
304
ACVALUE_END
170
5
140
0.125
  0
MTEXT
  5
273
100
AcDbEntity
  8
0
100
AcDbMText
 62
2
  6
CONTINUOUS
  7
STANDARD
 71
1
 72
1
 10
0.52125
 20
5.75995
 30
0.0
 11
1.0
 21
0.0
 31
0.0
 44
0.6
  3
Notes\P \P1. Stack height value in technical\P   data table includes seal retainer\P   plate.\P2. This installation requires a\P   retainer and seal kit which are\P   purchased separately. See "Related\P   Accessories" section.\P3. Important: Careful
  3
ly consider\P   the maximum system pressure. The\P   pressure rating of the manifold is\P   dependent on the manifold material,\P   with the port type/size a secondary\P   consideration. Manifolds\P   constructed of aluminum are not\P   rated for pre
  1
ssures higher than\P   3000 psi (210 bar), regardless of\P   the port type/size specified.
 40
0.1
 41
3.04
  0
LINE
  5
274
100
AcDbEntity
  8
0
100
AcDbLine
 62
7
  6
CONTINUOUS
 10
0.30125
 20
0.30125
 11
0.30125
 21
16.69875
  0
LINE
  5
275
100
AcDbEntity
  8
0
100
AcDbLine
 62
7
  6
CONTINUOUS
 10
0.30125
 20
0.30125
 11
21.69875
 21
0.30125
  0
LINE
  5
276
100
AcDbEntity
  8
0
100
AcDbLine
 62
7
  6
CONTINUOUS
 10
0.30125
 20
16.69875
 11
21.69875
 21
16.69875
  0
LINE
  5
277
100
AcDbEntity
  8
0
100
AcDbLine
 62
7
  6
CONTINUOUS
 10
21.69875
 20
0.30125
 11
21.69875
 21
16.69875
  0
LINE
  5
278
100
AcDbEntity
  8
0
100
AcDbLine
 62
7
  6
CONTINUOUS
 10
9.4770924947
 20
10.58625281
 11
10.1080927965
 21
11.195752334
  0
LINE
  5
279
100
AcDbEntity
  8
0
100
AcDbLine
 62
7
  6
CONTINUOUS
 10
10.4891730002
 20
5.8905230414
 11
10.5083908896
 21
5.881029772
  0
LINE
  5
27A
100
AcDbEntity
  8
0
100
AcDbLine
 62
7
  6
CONTINUOUS
 10
9.6400787739
 20
6.402730131
 11
9.6699452003
 21
6.374936286
  0
LINE
  5
27B
100
AcDbEntity
  8
0
100
AcDbLine
 62
7
  6
CONTINUOUS
 10
9.9123325121
 20
6.3127928329
 11
11.4819620728
 21
6.2039386531
  0
LINE
  5
27C
100
AcDbEntity
  8
0
100
AcDbLine
 62
7
  6
CONTINUOUS
 10
10.2218432736
 20
10.6496268641
 11
10.1937505986
 21
10.6224914222
  0
LINE
  5
27D
100
AcDbEntity
  8
02___PRT_ALL_AXES
100
AcDbLine
 62
7
  6
CONTINUOUS
 10
10.1184319776
 20
10.6127871392
 11
10.148298404
 21
10.6405809843
  0
LINE
  5
27E
100
AcDbEntity
  8
0
100
AcDbLine
 62
7
  6
CONTINUOUS
 10
9.9043091283
 20
6.3349865412
 11
11.473938689
 21
6.2261323614
  0
LINE
  5
27F
100
AcDbEntity
  8
0
100
AcDbLine
 62
7
  6
CONTINUOUS
 10
10.3753446647
 20
10.609897831
 11
10.4034373397
 21
10.6370332728
  0
LINE
  5
280
100
AcDbEntity
  8
0
100
AcDbLine
 62
7
  6
CONTINUOUS
 10
10.4966087753
 20
10.6160299741
 11
10.4960969663
 21
10.6155449247
  0
LINE
  5
281
100
AcDbEntity
  8
0
100
AcDbLine
 62
7
  6
CONTINUOUS
 10
9.9123325121
 20
6.3127928329
 11
9.9043091283
 21
6.3349865412
  0
LINE
  5
282
100
AcDbEntity
  8
0
100
AcDbLine
 62
7
  6
CONTINUOUS
 10
9.4770924947
 20
10.58625281
 11
9.4770924947
 21
7.0847713671
  0
LINE
  5
283
100
AcDbEntity
  8
0
100
AcDbLine
 62
7
  6
CONTINUOUS
 10
11.8919072035
 20
6.9173033982
 11
9.4770924947
 21
7.0847713671
  0
LINE
  5
284
100
AcDbEntity
  8
0
100
AcDbLine
 62
7
  6
CONTINUOUS
 10
9.6263661901
 20
7.0744192011
 11
9.6263661901
 21
6.4287364694
  0
LINE
  5
285
100
AcDbEntity
  8
0
100
AcDbLine
 62
7
  6
CONTINUOUS
 10
9.9043091283
 20
6.3349865412
 11
9.9043091283
 21
7.0551437929
  0
LINE
  5
286
100
AcDbEntity
  8
0
100
AcDbLine
 62
7
  6
CONTINUOUS
 10
10.2218432736
 20
10.6496268641
 11
10.2218432736
 21
10.6152205121
  0
LINE
  5
287
100
AcDbEntity
  8
0
100
AcDbLine
 62
7
  6
CONTINUOUS
 10
10.3266866441
 20
10.6568977894
 11
10.3266866441
 21
10.6065233798
  0
LINE
  5
288
100
AcDbEntity
  8
0
100
AcDbLine
 62
7
  6
CONTINUOUS
 10
10.3809727232
 20
6.2802925238
 11
10.3809727232
 21
6.027202703
  0
LINE
  5
289
100
AcDbEntity
  8
0
100
AcDbLine
 62
7
  6
CONTINUOUS
 10
12.5229075053
 20
11.0282843652
 11
11.8919072035
 21
10.4187848411
  0
LINE
  5
28A
100
AcDbEntity
  8
0
100
AcDbLine
 62
7
  6
CONTINUOUS
 10
10.5323926627
 20
6.2653459643
 11
10.5323926627
 21
5.8809425229
  0
LINE
  5
28B
100
AcDbEntity
  8
0
100
AcDbLine
 62
7
  6
CONTINUOUS
 10
10.5718654406
 20
6.2551296705
 11
10.5718654406
 21
5.8707262292
  0
LINE
  5
28C
100
AcDbEntity
  8
0
100
AcDbLine
 62
7
  6
CONTINUOUS
 10
11.4819620728
 20
6.2039386531
 11
11.473938689
 21
6.2261323614
  0
LINE
  5
28D
100
AcDbEntity
  8
0
100
AcDbLine
 62
4
  6
CONTINUOUS
 10
12.4561322373
 20
8.1843327031
 11
12.4871904964
 21
8.1781104596
  0
LINE
  5
28E
100
AcDbEntity
  8
0
100
AcDbLine
 62
7
  6
CONTINUOUS
 10
11.1369719151
 20
6.2159394034
 11
11.1369719151
 21
5.8315359621
  0
LINE
  5
28F
100
AcDbEntity
  8
0
100
AcDbLine
 62
7
  6
CONTINUOUS
 10
11.1908927174
 20
6.2196788304
 11
11.1908927174
 21
5.835275389
  0
LINE
  5
290
100
AcDbEntity
  8
0
100
AcDbLine
 62
4
  6
CONTINUOUS
 10
12.2220860846
 20
9.4833894342
 11
12.2265229785
 21
9.4876751449
  0
LINE
  5
291
100
AcDbEntity
  8
0
100
AcDbLine
 62
4
  6
CONTINUOUS
 10
12.2043385077
 20
9.4082910386
 11
12.208775402
 21
9.4125767497
  0
LINE
  5
292
100
AcDbEntity
  8
0
100
AcDbLine
 62
4
  6
CONTINUOUS
 10
12.2309598724
 20
9.4008878477
 11
12.2043385077
 21
9.3751735824
  0
LINE
  5
293
100
AcDbEntity
  8
0
100
AcDbLine
 62
4
  6
CONTINUOUS
 10
12.041504492
 20
9.1820107315
 11
12.0725627511
 21
9.2120107078
  0
LINE
  5
294
100
AcDbEntity
  8
0
100
AcDbLine
 62
4
  6
CONTINUOUS
 10
12.2043385077
 20
9.3172180307
 11
12.2309598724
 21
9.342932296
  0
LINE
  5
295
100
AcDbEntity
  8
0
100
AcDbLine
 62
4
  6
CONTINUOUS
 10
12.1999016133
 20
9.2798148635
 11
12.2309598724
 21
9.3098148398
  0
LINE
  5
296
100
AcDbEntity
  8
0
100
AcDbLine
 62
4
  6
CONTINUOUS
 10
12.0681258572
 20
9.1497694523
 11
12.0459413863
 21
9.1283408977
  0
LINE
  5
297
100
AcDbEntity
  8
0
100
AcDbLine
 62
4
  6
CONTINUOUS
 10
12.1999016133
 20
9.2218593117
 11
12.2309598724
 21
9.2518592881
  0
LINE
  5
298
100
AcDbEntity
  8
0
100
AcDbLine
 62
4
  6
CONTINUOUS
 10
12.041504492
 20
8.9446689486
 11
12.0725627511
 21
8.9746689249
  0
LINE
  5
299
100
AcDbEntity
  8
0
100
AcDbLine
 62
4
  6
CONTINUOUS
 10
12.1999016133
 20
9.0976688477
 11
12.2309598724
 21
9.1276688241
  0
LINE
  5
29A
100
AcDbEntity
  8
0
100
AcDbLine
 62
4
  6
CONTINUOUS
 10
12.2198676368
 20
9.0672783554
 11
12.1999016133
 21
9.0479926566
  0
LINE
  5
29B
100
AcDbEntity
  8
0
100
AcDbLine
 62
4
  6
CONTINUOUS
 10
12.4716613668
 20
8.851332648
 11
12.4638968021
 21
8.8510770979
  0
LINE
  5
29C
100
AcDbEntity
  8
0
100
AcDbLine
 62
4
  6
CONTINUOUS
 10
12.4716613668
 20
8.9382659756
 11
12.4794259316
 21
8.9385215257
  0
LINE
  5
29D
100
AcDbEntity
  8
0
100
AcDbLine
 62
4
  6
CONTINUOUS
 10
12.4561322373
 20
8.4523771298
 11
12.4871904964
 21
8.4461548863
  0
LINE
  5
29E
100
AcDbEntity
  8
0
100
AcDbLine
 62
4
  6
CONTINUOUS
 10
12.4561322373
 20
8.5320660134
 11
12.4871904964
 21
8.5258437699
  0
LINE
  5
29F
100
AcDbEntity
  8
0
100
AcDbLine
 62
4
  6
CONTINUOUS
 10
12.2309598724
 20
8.5729514163
 11
12.2287414245
 21
8.5735683377
  0
LINE
  5
2A0
100
AcDbEntity
  8
0
100
AcDbLine
 62
7
  6
CONTINUOUS
 10
11.473938689
 20
6.2261323614
 11
11.473938689
 21
6.9462896131
  0
LINE
  5
2A1
100
AcDbEntity
  8
0
100
AcDbLine
 62
7
  6
CONTINUOUS
 10
11.6045792525
 20
6.2013781052
 11
11.6045792525
 21
5.942345302
  0
LINE
  5
2A2
100
AcDbEntity
  8
0
100
AcDbLine
 62
7
  6
CONTINUOUS
 10
11.6190272768
 20
6.2018003748
 11
11.6190272768
 21
5.9563010227
  0
LINE
  5
2A3
100
AcDbEntity
  8
0
100
AcDbLine
 62
4
  6
CONTINUOUS
 10
12.041504492
 20
8.8784340363
 11
12.0725627511
 21
8.9084340126
  0
LINE
  5
2A4
100
AcDbEntity
  8
0
100
AcDbLine
 62
4
  6
CONTINUOUS
 10
12.109832662
 20
8.9444339161
 11
12.1408909211
 21
8.9744338924
  0
LINE
  5
2A5
100
AcDbEntity
  8
0
100
AcDbLine
 62
4
  6
CONTINUOUS
 10
12.1364540272
 20
8.9204719941
 11
12.1297986854
 21
8.9140434272
  0
LINE
  5
2A6
100
AcDbEntity
  8
0
100
AcDbLine
 62
4
  6
CONTINUOUS
 10
12.1209248976
 20
8.8971926419
 11
12.1142695563
 21
8.8907640755
  0
LINE
  5
2A7
100
AcDbEntity
  8
0
100
AcDbLine
 62
4
  6
CONTINUOUS
 10
12.2021200605
 20
8.9452635469
 11
12.2198676368
 21
8.9624063902
  0
LINE
  5
2A8
100
AcDbEntity
  8
0
100
AcDbLine
 62
4
  6
CONTINUOUS
 10
12.4949550611
 20
9.1853437194
 11
12.4522499549
 21
9.144093752
  0
LINE
  5
2A9
100
AcDbEntity
  8
0
100
AcDbLine
 62
4
  6
CONTINUOUS
 10
12.1142695563
 20
8.8162497888
 11
12.1408909211
 21
8.841964054
  0
LINE
  5
2AA
100
AcDbEntity
  8
0
100
AcDbLine
 62
4
  6
CONTINUOUS
 10
12.2309598724
 20
8.9234445042
 11
12.1999016133
 21
8.8934445279
  0
LINE
  5
2AB
100
AcDbEntity
  8
0
100
AcDbLine
 62
4
  6
CONTINUOUS
 10
12.1999016133
 20
8.8603270303
 11
12.2220860846
 21
8.8817555853
  0
LINE
  5
2AC
100
AcDbEntity
  8
0
100
AcDbLine
 62
4
  6
CONTINUOUS
 10
12.0459413863
 20
8.7088530646
 11
12.0681258572
 21
8.7302816192
  0
LINE
  5
2AD
100
AcDbEntity
  8
0
100
AcDbLine
 62
4
  6
CONTINUOUS
 10
12.2198676368
 20
8.8409757315
 11
12.2154307429
 21
8.8366900208
  0
LINE
  5
2AE
100
AcDbEntity
  8
0
100
AcDbLine
 62
4
  6
CONTINUOUS
 10
12.1320171333
 20
8.7423196249
 11
12.1364540272
 21
8.7466053355
  0
LINE
  5
2AF
100
AcDbEntity
  8
0
100
AcDbLine
 62
4
  6
CONTINUOUS
 10
12.2021200605
 20
8.787955613
 11
12.208775402
 21
8.7943841796
  0
LINE
  5
2B0
100
AcDbEntity
  8
0
100
AcDbLine
 62
4
  6
CONTINUOUS
 10
12.4820141192
 20
9.0496881826
 11
12.4794259316
 21
9.0471881852
  0
LINE
  5
2B1
100
AcDbEntity
  8
0
100
AcDbLine
 62
4
  6
CONTINUOUS
 10
12.0459413863
 20
8.6122605152
 11
12.0681258572
 21
8.6336890698
  0
LINE
  5
2B2
100
AcDbEntity
  8
0
100
AcDbLine
 62
4
  6
CONTINUOUS
 10
12.0725627511
 20
9.0740213072
 11
12.041504492
 21
9.0109038609
  0
LINE
  5
2B3
100
AcDbEntity
  8
0
100
AcDbLine
 62
4
  6
CONTINUOUS
 10
12.1999016133
 20
8.7361365939
 11
12.2176491907
 21
8.7532794383
  0
LINE
  5
2B4
100
AcDbEntity
  8
0
100
AcDbLine
 62
4
  6
CONTINUOUS
 10
12.4664849906
 20
8.9767326436
 11
12.461308614
 21
8.9717326474
  0
LINE
  5
2B5
100
AcDbEntity
  8
0
100
AcDbLine
 62
4
  6
CONTINUOUS
 10
12.2220860846
 20
8.7244477066
 11
12.2021200605
 21
8.7051620071
  0
LINE
  5
2B6
100
AcDbEntity
  8
0
100
AcDbLine
 62
4
  6
CONTINUOUS
 10
12.0681258572
 20
8.5757335181
 11
12.0459413863
 21
8.5543049635
  0
LINE
  5
2B7
100
AcDbEntity
  8
0
100
AcDbLine
 62
4
  6
CONTINUOUS
 10
12.041504492
 20
8.5169018101
 11
12.0725627511
 21
8.5469017864
  0
LINE
  5
2B8
100
AcDbEntity
  8
0
100
AcDbLine
 62
4
  6
CONTINUOUS
 10
12.1999016133
 20
8.6533429328
 11
12.2220860846
 21
8.6747714879
  0
LINE
  5
2B9
100
AcDbEntity
  8
0
100
AcDbLine
 62
4
  6
CONTINUOUS
 10
12.2021200605
 20
8.622368346
 11
12.2309598724
 21
8.6502254668
  0
LINE
  5
2BA
100
AcDbEntity
  8
0
100
AcDbLine
 62
4
  6
CONTINUOUS
 10
12.0681258572
 20
8.4846605241
 11
12.0459413863
 21
8.4632319695
  0
LINE
  5
2BB
100
AcDbEntity
  8
0
100
AcDbLine
 62
4
  6
CONTINUOUS
 10
12.041504492
 20
8.4120298173
 11
12.0725627511
 21
8.4420297936
  0
LINE
  5
2BC
100
AcDbEntity
  8
0
100
AcDbLine
 62
4
  6
CONTINUOUS
 10
12.1999016133
 20
8.5457112176
 11
12.2220860846
 21
8.5671397726
  0
LINE
  5
2BD
100
AcDbEntity
  8
0
100
AcDbLine
 62
4
  6
CONTINUOUS
 10
12.2287414245
 20
8.5735683377
 11
12.2309598724
 21
8.5757111939
  0
LINE
  5
2BE
100
AcDbEntity
  8
0
100
AcDbLine
 62
4
  6
CONTINUOUS
 10
12.4871904964
 20
8.8228659724
 11
12.4561322373
 21
8.7928659961
  0
LINE
  5
2BF
100
AcDbEntity
  8
0
100
AcDbLine
 62
4
  6
CONTINUOUS
 10
12.2021200605
 20
8.5036974649
 11
12.2198676368
 21
8.5208403082
  0
LINE
  5
2C0
100
AcDbEntity
  8
0
100
AcDbLine
 62
4
  6
CONTINUOUS
 10
12.041504492
 20
9.077138787
 11
12.0725627511
 21
9.0740213072
  0
LINE
  5
2C1
100
AcDbEntity
  8
0
100
AcDbLine
 62
4
  6
CONTINUOUS
 10
12.1925067897
 20
8.9911736139
 11
12.2220860846
 21
8.9866275782
  0
LINE
  5
2C2
100
AcDbEntity
  8
0
100
AcDbLine
 62
7
  6
CONTINUOUS
 10
11.8919072035
 20
10.4187848411
 11
11.8919072035
 21
6.9173033982
  0
LINE
  5
2C3
100
AcDbEntity
  8
0
100
AcDbLine
 62
7
  6
CONTINUOUS
 10
11.9332179571
 20
6.2947620943
 11
11.9332179571
 21
6.9572065244
  0
LINE
  5
2C4
100
AcDbEntity
  8
0
100
AcDbLine
 62
4
  6
CONTINUOUS
 10
12.041504492
 20
8.8784340363
 11
12.041504492
 21
8.8287578451
  0
LINE
  5
2C5
100
AcDbEntity
  8
0
100
AcDbLine
 62
4
  6
CONTINUOUS
 10
12.041504492
 20
8.4120298173
 11
12.041504492
 21
8.3623536538
  0
LINE
  5
2C6
100
AcDbEntity
  8
0
100
AcDbLine
 62
4
  6
CONTINUOUS
 10
12.041504492
 20
8.4755049795
 11
12.041504492
 21
8.5169018101
  0
LINE
  5
2C7
100
AcDbEntity
  8
0
100
AcDbLine
 62
4
  6
CONTINUOUS
 10
12.041504492
 20
8.5665779736
 11
12.041504492
 21
8.591416083
  0
LINE
  5
2C8
100
AcDbEntity
  8
0
100
AcDbLine
 62
4
  6
CONTINUOUS
 10
12.041504492
 20
8.65489119
 11
12.041504492
 21
8.6880086323
  0
LINE
  5
2C9
100
AcDbEntity
  8
0
100
AcDbLine
 62
4
  6
CONTINUOUS
 10
12.041504492
 20
9.1406139147
 11
12.041504492
 21
9.1820107315
  0
LINE
  5
2CA
100
AcDbEntity
  8
0
100
AcDbLine
 62
4
  6
CONTINUOUS
 10
12.0503782807
 20
9.0746710571
 11
12.0503782807
 21
9.0305144489
  0
LINE
  5
2CB
100
AcDbEntity
  8
0
100
AcDbLine
 62
4
  6
CONTINUOUS
 10
12.0592520694
 20
8.3960552193
 11
12.0592520694
 21
8.4291726616
  0
LINE
  5
2CC
100
AcDbEntity
  8
0
100
AcDbLine
 62
4
  6
CONTINUOUS
 10
12.0592520694
 20
8.8624594107
 11
12.0592520694
 21
8.8955768807
  0
LINE
  5
2CD
100
AcDbEntity
  8
0
100
AcDbLine
 62
4
  6
CONTINUOUS
 10
12.0548151746
 20
9.2611027835
 11
12.0488993156
 21
9.2112318905
  0
LINE
  5
2CE
100
AcDbEntity
  8
0
100
AcDbLine
 62
4
  6
CONTINUOUS
 10
12.1401514378
 20
8.9406021468
 11
12.1364540272
 21
8.9204719941
  0
LINE
  5
2CF
100
AcDbEntity
  8
0
100
AcDbLine
 62
4
  6
CONTINUOUS
 10
12.208775402
 20
9.4125767497
 11
12.2220860846
 21
9.4833894342
  0
LINE
  5
2D0
100
AcDbEntity
  8
0
100
AcDbLine
 62
4
  6
CONTINUOUS
 10
12.0725627511
 20
9.1706138911
 11
12.0681258572
 21
9.1497694523
  0
LINE
  5
2D1
100
AcDbEntity
  8
0
100
AcDbLine
 62
4
  6
CONTINUOUS
 10
12.2021200605
 20
9.4641037347
 11
12.1999016133
 21
9.4536815143
  0
LINE
  5
2D2
100
AcDbEntity
  8
0
100
AcDbLine
 62
4
  6
CONTINUOUS
 10
12.041504492
 20
8.6880086323
 11
12.0459413863
 21
8.7088530646
  0
LINE
  5
2D3
100
AcDbEntity
  8
0
100
AcDbLine
 62
4
  6
CONTINUOUS
 10
12.2043385077
 20
9.3751735824
 11
12.1999016133
 21
9.3543291432
  0
LINE
  5
2D4
100
AcDbEntity
  8
0
100
AcDbLine
 62
4
  6
CONTINUOUS
 10
12.041504492
 20
8.591416083
 11
12.0459413863
 21
8.6122605152
  0
LINE
  5
2D5
100
AcDbEntity
  8
0
100
AcDbLine
 62
4
  6
CONTINUOUS
 10
12.2309598724
 20
9.4422846679
 11
12.2287414245
 21
9.4318624476
  0
LINE
  5
2D6
100
AcDbEntity
  8
0
100
AcDbLine
 62
4
  6
CONTINUOUS
 10
12.1253617915
 20
8.9180370806
 11
12.1209248976
 21
8.8971926419
  0
LINE
  5
2D7
100
AcDbEntity
  8
0
100
AcDbLine
 62
4
  6
CONTINUOUS
 10
12.0725627511
 20
8.5965779499
 11
12.0681258572
 21
8.5757335181
  0
LINE
  5
2D8
100
AcDbEntity
  8
0
100
AcDbLine
 62
4
  6
CONTINUOUS
 10
12.0725627511
 20
8.5055049559
 11
12.0681258572
 21
8.4846605241
  0
LINE
  5
2D9
100
AcDbEntity
  8
0
100
AcDbLine
 62
4
  6
CONTINUOUS
 10
12.2309598724
 20
9.3098148398
 11
12.1999016133
 21
9.2218593117
  0
LINE
  5
2DA
100
AcDbEntity
  8
0
100
AcDbLine
 62
4
  6
CONTINUOUS
 10
12.2220860846
 20
9.0363037417
 11
12.1999016133
 21
8.9900370772
  0
LINE
  5
2DB
100
AcDbEntity
  8
0
100
AcDbLine
 62
4
  6
CONTINUOUS
 10
12.2132122959
 20
8.4398974141
 11
12.2198676368
 21
8.4463259801
  0
LINE
  5
2DC
100
AcDbEntity
  8
0
100
AcDbLine
 62
4
  6
CONTINUOUS
 10
12.2021200605
 20
8.3795070286
 11
12.208775402
 21
8.3859355952
  0
LINE
  5
2DD
100
AcDbEntity
  8
0
100
AcDbLine
 62
4
  6
CONTINUOUS
 10
12.0459413863
 20
8.4632319695
 11
12.041504492
 21
8.4755049795
  0
LINE
  5
2DE
100
AcDbEntity
  8
0
100
AcDbLine
 62
4
  6
CONTINUOUS
 10
12.0459413863
 20
8.5543049635
 11
12.041504492
 21
8.5665779736
  0
LINE
  5
2DF
100
AcDbEntity
  8
0
100
AcDbLine
 62
4
  6
CONTINUOUS
 10
12.0681258572
 20
8.6336890698
 11
12.0725627511
 21
8.6214160593
  0
LINE
  5
2E0
100
AcDbEntity
  8
0
100
AcDbLine
 62
4
  6
CONTINUOUS
 10
12.0548151746
 20
8.2979367361
 11
12.0488993156
 21
8.336379063
  0
LINE
  5
2E1
100
AcDbEntity
  8
0
100
AcDbLine
 62
4
  6
CONTINUOUS
 10
12.0725627511
 20
9.2120107078
 11
12.0725627511
 21
9.1706138911
  0
LINE
  5
2E2
100
AcDbEntity
  8
0
100
AcDbLine
 62
4
  6
CONTINUOUS
 10
12.0725627511
 20
9.0077863949
 11
12.0725627511
 21
8.9415514826
  0
LINE
  5
2E3
100
AcDbEntity
  8
0
100
AcDbLine
 62
4
  6
CONTINUOUS
 10
12.0725627511
 20
8.9084340126
 11
12.0725627511
 21
8.8587578215
  0
LINE
  5
2E4
100
AcDbEntity
  8
0
100
AcDbLine
 62
4
  6
CONTINUOUS
 10
12.0725627511
 20
8.7180086087
 11
12.0725627511
 21
8.6848911663
  0
LINE
  5
2E5
100
AcDbEntity
  8
0
100
AcDbLine
 62
4
  6
CONTINUOUS
 10
12.0725627511
 20
8.6214160593
 11
12.0725627511
 21
8.5965779499
  0
LINE
  5
2E6
100
AcDbEntity
  8
0
100
AcDbLine
 62
4
  6
CONTINUOUS
 10
12.0725627511
 20
8.5469017864
 11
12.0725627511
 21
8.5055049559
  0
LINE
  5
2E7
100
AcDbEntity
  8
0
100
AcDbLine
 62
4
  6
CONTINUOUS
 10
12.0725627511
 20
8.4420297936
 11
12.0725627511
 21
8.3923536301
  0
LINE
  5
2E8
100
AcDbEntity
  8
0
100
AcDbLine
 62
4
  6
CONTINUOUS
 10
12.109832662
 20
8.8533609082
 11
12.109832662
 21
8.8285228127
  0
LINE
  5
2E9
100
AcDbEntity
  8
0
100
AcDbLine
 62
4
  6
CONTINUOUS
 10
12.109832662
 20
8.7208910698
 11
12.109832662
 21
8.7788466215
  0
LINE
  5
2EA
100
AcDbEntity
  8
0
100
AcDbLine
 62
4
  6
CONTINUOUS
 10
12.109832662
 20
8.9030370924
 11
12.109832662
 21
8.9444339161
  0
LINE
  5
2EB
100
AcDbEntity
  8
0
100
AcDbLine
 62
4
  6
CONTINUOUS
 10
12.1253617915
 20
8.9180370806
 11
12.1253617915
 21
8.9594339043
  0
LINE
  5
2EC
100
AcDbEntity
  8
0
100
AcDbLine
 62
4
  6
CONTINUOUS
 10
12.1408909211
 20
8.9744338924
 11
12.1408909211
 21
8.9495957986
  0
LINE
  5
2ED
100
AcDbEntity
  8
0
100
AcDbLine
 62
4
  6
CONTINUOUS
 10
12.1408909211
 20
8.7674497811
 11
12.1408909211
 21
8.7922878767
  0
LINE
  5
2EE
100
AcDbEntity
  8
0
100
AcDbLine
 62
4
  6
CONTINUOUS
 10
12.1925067897
 20
9.0077323351
 11
12.1925067897
 21
8.9911736139
  0
LINE
  5
2EF
100
AcDbEntity
  8
0
100
AcDbLine
 62
4
  6
CONTINUOUS
 10
12.1999016133
 20
9.4536815143
 11
12.1999016133
 21
9.4205640555
  0
LINE
  5
2F0
100
AcDbEntity
  8
0
100
AcDbLine
 62
4
  6
CONTINUOUS
 10
12.1999016133
 20
9.3543291432
 11
12.1999016133
 21
9.3294910408
  0
LINE
  5
2F1
100
AcDbEntity
  8
0
100
AcDbLine
 62
4
  6
CONTINUOUS
 10
12.1999016133
 20
8.6947397634
 11
12.1999016133
 21
8.6533429328
  0
LINE
  5
2F2
100
AcDbEntity
  8
0
100
AcDbLine
 62
4
  6
CONTINUOUS
 10
12.1999016133
 20
8.4187609483
 11
12.1999016133
 21
8.385643506
  0
LINE
  5
2F3
100
AcDbEntity
  8
0
100
AcDbLine
 62
4
  6
CONTINUOUS
 10
12.1999016133
 20
8.4601577236
 11
12.1999016133
 21
8.4932752765
  0
LINE
  5
2F4
100
AcDbEntity
  8
0
100
AcDbLine
 62
4
  6
CONTINUOUS
 10
12.1999016133
 20
8.5953873811
 11
12.1999016133
 21
8.6119461023
  0
LINE
  5
2F5
100
AcDbEntity
  8
0
100
AcDbLine
 62
4
  6
CONTINUOUS
 10
12.1999016133
 20
8.7361365939
 11
12.1999016133
 21
8.7692540362
  0
LINE
  5
2F6
100
AcDbEntity
  8
0
100
AcDbLine
 62
4
  6
CONTINUOUS
 10
12.1999016133
 20
8.8934445279
 11
12.1999016133
 21
8.9265619702
  0
LINE
  5
2F7
100
AcDbEntity
  8
0
100
AcDbLine
 62
4
  6
CONTINUOUS
 10
12.210993849
 20
8.7799683138
 11
12.210993849
 21
8.7468508714
  0
LINE
  5
2F8
100
AcDbEntity
  8
0
100
AcDbLine
 62
4
  6
CONTINUOUS
 10
12.2220860846
 20
9.1190974028
 11
12.2220860846
 21
9.0777005722
  0
LINE
  5
2F9
100
AcDbEntity
  8
0
100
AcDbLine
 62
4
  6
CONTINUOUS
 10
12.2220860846
 20
8.9479905253
 11
12.2220860846
 21
8.9148730829
  0
LINE
  5
2FA
100
AcDbEntity
  8
0
100
AcDbLine
 62
4
  6
CONTINUOUS
 10
12.2220860846
 20
8.8817555853
 11
12.2220860846
 21
8.848638143
  0
LINE
  5
2FB
100
AcDbEntity
  8
0
100
AcDbLine
 62
4
  6
CONTINUOUS
 10
12.2220860846
 20
8.5147038315
 11
12.2220860846
 21
8.4815862786
  0
LINE
  5
2FC
100
AcDbEntity
  8
0
100
AcDbLine
 62
4
  6
CONTINUOUS
 10
12.2220860846
 20
8.4401895033
 11
12.2220860846
 21
8.407072061
  0
LINE
  5
2FD
100
AcDbEntity
  8
0
100
AcDbLine
 62
4
  6
CONTINUOUS
 10
12.2220860846
 20
8.7658444819
 11
12.2220860846
 21
8.8072413125
  0
LINE
  5
2FE
100
AcDbEntity
  8
0
100
AcDbLine
 62
4
  6
CONTINUOUS
 10
12.2309598724
 20
9.4754021257
 11
12.2309598724
 21
9.4422846679
  0
LINE
  5
2FF
100
AcDbEntity
  8
0
100
AcDbLine
 62
4
  6
CONTINUOUS
 10
12.2309598724
 20
8.5757111939
 11
12.2309598724
 21
8.5729514163
  0
LINE
  5
300
100
AcDbEntity
  8
0
100
AcDbLine
 62
4
  6
CONTINUOUS
 10
12.2102543667
 20
8.3956434984
 11
12.2117333313
 21
8.4301895109
  0
LINE
  5
301
100
AcDbEntity
  8
0
100
AcDbLine
 62
4
  6
CONTINUOUS
 10
12.1408909211
 20
8.9495957986
 11
12.1401514378
 21
8.9406021468
  0
LINE
  5
302
100
AcDbEntity
  8
0
100
AcDbLine
 62
4
  6
CONTINUOUS
 10
12.060731034
 20
8.347807626
 11
12.0548151746
 21
8.2979367361
  0
LINE
  5
303
100
AcDbEntity
  8
0
100
AcDbLine
 62
4
  6
CONTINUOUS
 10
12.1999016133
 20
8.9265619702
 11
12.2021200605
 21
8.9452635469
  0
LINE
  5
304
100
AcDbEntity
  8
0
100
AcDbLine
 62
4
  6
CONTINUOUS
 10
12.1999016133
 20
8.7692540362
 11
12.2021200605
 21
8.787955613
  0
LINE
  5
305
100
AcDbEntity
  8
0
100
AcDbLine
 62
4
  6
CONTINUOUS
 10
12.2117333313
 20
8.4301895109
 11
12.2132122959
 21
8.4398974141
  0
LINE
  5
306
100
AcDbEntity
  8
0
100
AcDbLine
 62
4
  6
CONTINUOUS
 10
12.208775402
 20
8.3859355952
 11
12.2102543667
 21
8.3956434984
  0
LINE
  5
307
100
AcDbEntity
  8
0
100
AcDbLine
 62
4
  6
CONTINUOUS
 10
12.1364540272
 20
8.7466053355
 11
12.1408909211
 21
8.7674497811
  0
LINE
  5
308
100
AcDbEntity
  8
0
100
AcDbLine
 62
4
  6
CONTINUOUS
 10
12.2220860846
 20
9.0777005722
 11
12.2198676368
 21
9.0672783554
  0
LINE
  5
309
100
AcDbEntity
  8
0
100
AcDbLine
 62
4
  6
CONTINUOUS
 10
12.2021200605
 20
8.7051620071
 11
12.1999016133
 21
8.6947397634
  0
LINE
  5
30A
100
AcDbEntity
  8
0
100
AcDbLine
 62
4
  6
CONTINUOUS
 10
12.1999016133
 20
8.6119461023
 11
12.2021200605
 21
8.622368346
  0
LINE
  5
30B
100
AcDbEntity
  8
0
100
AcDbLine
 62
4
  6
CONTINUOUS
 10
12.1999016133
 20
8.4932752765
 11
12.2021200605
 21
8.5036974649
  0
LINE
  5
30C
100
AcDbEntity
  8
0
100
AcDbLine
 62
4
  6
CONTINUOUS
 10
12.2021200605
 20
8.4291831368
 11
12.1999016133
 21
8.4187609483
  0
LINE
  5
30D
100
AcDbEntity
  8
0
100
AcDbLine
 62
4
  6
CONTINUOUS
 10
12.2220860846
 20
8.407072061
 11
12.2198676368
 21
8.3966498718
  0
LINE
  5
30E
100
AcDbEntity
  8
0
100
AcDbLine
 62
4
  6
CONTINUOUS
 10
12.2220860846
 20
8.848638143
 11
12.2198676368
 21
8.8409757315
  0
LINE
  5
30F
100
AcDbEntity
  8
0
100
AcDbLine
 62
4
  6
CONTINUOUS
 10
12.2176491907
 20
8.7532794383
 11
12.2220860846
 21
8.7658444819
  0
LINE
  5
310
100
AcDbEntity
  8
0
100
AcDbLine
 62
4
  6
CONTINUOUS
 10
12.4949550611
 20
9.1853437194
 11
12.476095672
 21
9.1343062274
  0
LINE
  5
311
100
AcDbEntity
  8
0
100
AcDbLine
 62
4
  6
CONTINUOUS
 10
12.4638968021
 20
8.9235215376
 11
12.4716613668
 21
8.9382659756
  0
LINE
  5
312
100
AcDbEntity
  8
0
100
AcDbLine
 62
4
  6
CONTINUOUS
 10
12.4794259316
 20
8.8660770861
 11
12.4716613668
 21
8.851332648
  0
LINE
  5
313
100
AcDbEntity
  8
0
100
AcDbLine
 62
4
  6
CONTINUOUS
 10
12.4871904964
 20
8.3592215587
 11
12.4561322373
 21
8.3292215824
  0
LINE
  5
314
100
AcDbEntity
  8
02___PRT_ALL_AXES
100
AcDbLine
 62
7
  6
CONTINUOUS
 10
10.4787559607
 20
10.6127871392
 11
10.4488895343
 21
10.6405809843
  0
LINE
  5
315
100
AcDbEntity
  8
0
100
AcDbLine
 62
4
  6
CONTINUOUS
 10
12.1408909211
 20
8.7922878767
 11
12.1342355793
 21
8.802418031
  0
LINE
  5
316
100
AcDbEntity
  8
0
100
AcDbLine
 62
4
  6
CONTINUOUS
 10
12.109832662
 20
8.7788466215
 11
12.1320171333
 21
8.7423196249
  0
LINE
  5
317
100
AcDbEntity
  8
0
100
AcDbLine
 62
4
  6
CONTINUOUS
 10
12.0681258572
 20
8.7302816192
 11
12.0725627511
 21
8.7180086087
  0
LINE
  5
318
100
AcDbEntity
  8
0
100
AcDbLine
 62
4
  6
CONTINUOUS
 10
12.1999016133
 20
8.385643506
 11
12.2021200605
 21
8.3795070286
  0
LINE
  5
319
100
AcDbEntity
  8
0
100
AcDbLine
 62
4
  6
CONTINUOUS
 10
12.2198676368
 20
8.4463259801
 11
12.2220860846
 21
8.4401895033
  0
LINE
  5
31A
100
AcDbEntity
  8
0
100
AcDbLine
 62
4
  6
CONTINUOUS
 10
12.2198676368
 20
8.5208403082
 11
12.2220860846
 21
8.5147038315
  0
LINE
  5
31B
100
AcDbEntity
  8
0
100
AcDbLine
 62
4
  6
CONTINUOUS
 10
12.109832662
 20
8.8285228127
 11
12.1142695563
 21
8.8162497888
  0
LINE
  5
31C
100
AcDbEntity
  8
0
100
AcDbLine
 62
4
  6
CONTINUOUS
 10
12.1142695563
 20
8.8907640755
 11
12.109832662
 21
8.9030370924
  0
LINE
  5
31D
100
AcDbEntity
  8
0
100
AcDbLine
 62
4
  6
CONTINUOUS
 10
12.0459413863
 20
9.1283408977
 11
12.041504492
 21
9.1406139147
  0
LINE
  5
31E
100
AcDbEntity
  8
0
100
AcDbLine
 62
4
  6
CONTINUOUS
 10
12.1297986854
 20
8.9140434272
 11
12.1253617915
 21
8.9263164447
  0
LINE
  5
31F
100
AcDbEntity
  8
0
100
AcDbLine
 62
4
  6
CONTINUOUS
 10
12.060731034
 20
9.2226604536
 11
12.0548151746
 21
9.2611027835
  0
LINE
  5
320
100
AcDbEntity
  8
0
100
AcDbLine
 62
4
  6
CONTINUOUS
 10
12.208775402
 20
8.7943841796
 11
12.210993849
 21
8.7799683138
  0
LINE
  5
321
100
AcDbEntity
  8
0
100
AcDbLine
 62
7
  6
CONTINUOUS
 10
12.3618219421
 20
6.7087617772
 11
12.3618219421
 21
7.3712062073
  0
LINE
  5
322
100
AcDbEntity
  8
0
100
AcDbLine
 62
7
  6
CONTINUOUS
 10
12.3745997358
 20
7.383548609
 11
12.3745997358
 21
6.7338819725
  0
LINE
  5
323
100
AcDbEntity
  8
0
100
AcDbLine
 62
4
  6
CONTINUOUS
 10
12.4522499549
 20
9.144093752
 11
12.4522499549
 21
7.9849827176
  0
LINE
  5
324
100
AcDbEntity
  8
0
100
AcDbLine
 62
4
  6
CONTINUOUS
 10
12.4561322373
 20
8.7928659961
 11
12.4561322373
 21
8.7349104444
  0
LINE
  5
325
100
AcDbEntity
  8
0
100
AcDbLine
 62
4
  6
CONTINUOUS
 10
12.4561322373
 20
8.3292215824
 11
12.4561322373
 21
8.2712660306
  0
LINE
  5
326
100
AcDbEntity
  8
0
100
AcDbLine
 62
4
  6
CONTINUOUS
 10
12.4561322373
 20
8.0394438238
 11
12.4561322373
 21
8.0973993755
  0
LINE
  5
327
100
AcDbEntity
  8
0
100
AcDbLine
 62
4
  6
CONTINUOUS
 10
12.4561322373
 20
8.8725548797
 11
12.4561322373
 21
8.8870437676
  0
LINE
  5
328
100
AcDbEntity
  8
0
100
AcDbLine
 62
4
  6
CONTINUOUS
 10
12.4561322373
 20
8.9884659831
 11
12.4561322373
 21
9.0029548711
  0
LINE
  5
329
100
AcDbEntity
  8
0
100
AcDbLine
 62
4
  6
CONTINUOUS
 10
12.4664849906
 20
8.4478882342
 11
12.4664849906
 21
8.4044215705
  0
LINE
  5
32A
100
AcDbEntity
  8
0
100
AcDbLine
 62
4
  6
CONTINUOUS
 10
12.4716613668
 20
8.1123993637
 11
12.4716613668
 21
8.0761771438
  0
LINE
  5
32B
100
AcDbEntity
  8
0
100
AcDbLine
 62
4
  6
CONTINUOUS
 10
12.4561322373
 20
9.0029548711
 11
12.4587204256
 21
9.0199437571
  0
LINE
  5
32C
100
AcDbEntity
  8
0
100
AcDbLine
 62
4
  6
CONTINUOUS
 10
12.476837744
 20
9.0374437438
 11
12.4690731783
 21
8.986477085
  0
LINE
  5
32D
100
AcDbEntity
  8
0
100
AcDbLine
 62
4
  6
CONTINUOUS
 10
12.4561322373
 20
8.8870437676
 11
12.4587204256
 21
8.9040326537
  0
LINE
  5
32E
100
AcDbEntity
  8
0
100
AcDbLine
 62
4
  6
CONTINUOUS
 10
12.4846023087
 20
9.0014770741
 11
12.4871904964
 21
9.0184659595
  0
LINE
  5
32F
100
AcDbEntity
  8
0
100
AcDbLine
 62
4
  6
CONTINUOUS
 10
12.4871904964
 20
8.902554856
 11
12.4846023087
 21
8.8855659707
  0
LINE
  5
330
100
AcDbEntity
  8
0
100
AcDbLine
 62
4
  6
CONTINUOUS
 10
12.4587204256
 20
9.0199437571
 11
12.4638968021
 21
9.039432641
  0
LINE
  5
331
100
AcDbEntity
  8
0
100
AcDbLine
 62
4
  6
CONTINUOUS
 10
12.4794259316
 20
9.0471881852
 11
12.476837744
 21
9.0374437438
  0
LINE
  5
332
100
AcDbEntity
  8
0
100
AcDbLine
 62
4
  6
CONTINUOUS
 10
12.4690731783
 20
8.986477085
 11
12.4664849906
 21
8.9767326436
  0
LINE
  5
333
100
AcDbEntity
  8
0
100
AcDbLine
 62
4
  6
CONTINUOUS
 10
12.4820141192
 20
8.9917326309
 11
12.4846023087
 21
9.0014770741
  0
LINE
  5
334
100
AcDbEntity
  8
0
100
AcDbLine
 62
4
  6
CONTINUOUS
 10
12.4587204256
 20
8.9040326537
 11
12.4638968021
 21
8.9235215376
  0
LINE
  5
335
100
AcDbEntity
  8
0
100
AcDbLine
 62
4
  6
CONTINUOUS
 10
12.4846023087
 20
8.8855659707
 11
12.4794259316
 21
8.8660770861
  0
LINE
  5
336
100
AcDbEntity
  8
0
100
AcDbLine
 62
4
  6
CONTINUOUS
 10
12.4871904964
 20
8.5982882095
 11
12.4561322373
 21
8.5320660134
  0
LINE
  5
337
100
AcDbEntity
  8
0
100
AcDbLine
 62
4
  6
CONTINUOUS
 10
12.4871904964
 20
8.4461548863
 11
12.4561322373
 21
8.3799326901
  0
LINE
  5
338
100
AcDbEntity
  8
0
100
AcDbLine
 62
4
  6
CONTINUOUS
 10
12.4871904964
 20
8.2505548992
 11
12.4561322373
 21
8.1843327031
  0
LINE
  5
339
100
AcDbEntity
  8
0
100
AcDbLine
 62
4
  6
CONTINUOUS
 10
12.4561322373
 20
8.0973993755
 11
12.4871904964
 21
8.1273993518
  0
LINE
  5
33A
100
AcDbEntity
  8
0
100
AcDbLine
 62
4
  6
CONTINUOUS
 10
12.4949550611
 20
9.1853437194
 11
12.476095672
 21
9.1999476671
  0
LINE
  5
33B
100
AcDbEntity
  8
0
100
AcDbLine
 62
4
  6
CONTINUOUS
 10
12.4638968021
 20
8.8510770979
 11
12.4587204256
 21
8.8605659899
  0
LINE
  5
33C
100
AcDbEntity
  8
0
100
AcDbLine
 62
4
  6
CONTINUOUS
 10
12.1999016133
 20
9.3294910408
 11
12.2043385077
 21
9.3172180307
  0
LINE
  5
33D
100
AcDbEntity
  8
0
100
AcDbLine
 62
4
  6
CONTINUOUS
 10
12.1999016133
 20
9.4205640555
 11
12.2043385077
 21
9.4082910386
  0
LINE
  5
33E
100
AcDbEntity
  8
0
100
AcDbLine
 62
4
  6
CONTINUOUS
 10
12.2198676368
 20
8.9624063902
 11
12.2220860846
 21
8.9479905253
  0
LINE
  5
33F
100
AcDbEntity
  8
0
100
AcDbLine
 62
4
  6
CONTINUOUS
 10
12.4871904964
 20
8.917043744
 11
12.4871904964
 21
8.902554856
  0
LINE
  5
340
100
AcDbEntity
  8
0
100
AcDbLine
 62
4
  6
CONTINUOUS
 10
12.4871904964
 20
8.1273993518
 11
12.4871904964
 21
8.0694438001
  0
LINE
  5
341
100
AcDbEntity
  8
0
100
AcDbLine
 62
4
  6
CONTINUOUS
 10
12.4871904964
 20
9.0184659595
 11
12.4871904964
 21
9.0329548474
  0
LINE
  5
342
100
AcDbEntity
  8
0
100
AcDbLine
 62
7
  6
CONTINUOUS
 10
12.5229075053
 20
11.0282843652
 11
12.5229075053
 21
7.5268029223
  0
LINE
  5
343
100
AcDbEntity
  8
0
100
AcDbLine
 62
4
  6
CONTINUOUS
 10
12.461308614
 20
8.9717326474
 11
12.4587204256
 21
8.9764770933
  0
LINE
  5
344
100
AcDbEntity
  8
0
100
AcDbLine
 62
4
  6
CONTINUOUS
 10
12.4794259316
 20
8.9385215257
 11
12.4846023087
 21
8.9290326345
  0
LINE
  5
345
100
AcDbEntity
  8
0
100
AcDbLine
 62
4
  6
CONTINUOUS
 10
12.4846023087
 20
9.0449437379
 11
12.4820141192
 21
9.0496881826
  0
LINE
  5
346
100
AcDbEntity
  8
0
100
AcDbLine
 62
4
  6
CONTINUOUS
 10
12.2265229785
 20
9.4876751449
 11
12.2309598724
 21
9.4754021257
  0
LINE
  5
347
100
AcDbEntity
  8
0
100
AcDbLine
 62
4
  6
CONTINUOUS
 10
12.4587204256
 20
8.8605659899
 11
12.4561322373
 21
8.8725548797
  0
LINE
  5
348
100
AcDbEntity
  8
0
100
AcDbLine
 62
4
  6
CONTINUOUS
 10
12.4587204256
 20
8.9764770933
 11
12.4561322373
 21
8.9884659831
  0
LINE
  5
349
100
AcDbEntity
  8
0
100
AcDbLine
 62
4
  6
CONTINUOUS
 10
12.4846023087
 20
8.9290326345
 11
12.4871904964
 21
8.917043744
  0
LINE
  5
34A
100
AcDbEntity
  8
0
100
AcDbLine
 62
4
  6
CONTINUOUS
 10
12.4871904964
 20
9.0329548474
 11
12.4846023087
 21
9.0449437379
  0
LINE
  5
34B
100
AcDbEntity
  8
0
100
AcDbLine
 62
7
  6
CONTINUOUS
 10
12.5229075053
 20
7.5268029223
 11
11.8919072035
 21
6.9173033982
  0
LINE
  5
34C
100
AcDbEntity
  8
0
100
AcDbLine
 62
7
  6
CONTINUOUS
 10
10.1937505986
 20
10.6224914222
 11
10.2705012942
 21
10.6026269057
  0
LINE
  5
34D
100
AcDbEntity
  8
0
100
AcDbLine
 62
7
  6
CONTINUOUS
 10
11.8919072035
 20
10.4187848411
 11
9.4770924947
 21
10.58625281
  0
LINE
  5
34E
100
AcDbEntity
  8
0
100
AcDbLine
 62
7
  6
CONTINUOUS
 10
10.4034373397
 20
10.6370332728
 11
10.3266866441
 21
10.6568977894
  0
LINE
  5
34F
100
AcDbEntity
  8
0
100
AcDbLine
 62
7
  6
CONTINUOUS
 10
11.9332179571
 20
6.2947620943
 11
12.3618219421
 21
6.7087617772
  0
LINE
  5
350
100
AcDbEntity
  8
0
100
AcDbLine
 62
7
  6
CONTINUOUS
 10
11.932283167
 20
6.2938759513
 11
11.9332179571
 21
6.2947620943
  0
LINE
  5
351
100
AcDbEntity
  8
0
100
AcDbLine
 62
7
  6
CONTINUOUS
 10
11.932283167
 20
6.2938759513
 11
11.9024167406
 21
6.2660821062
  0
LINE
  5
352
100
AcDbEntity
  8
0
100
AcDbLine
 62
7
  6
CONTINUOUS
 10
10.2705012942
 20
10.6026269057
 11
10.3753446647
 21
10.609897831
  0
LINE
  5
353
100
AcDbEntity
  8
0
100
AcDbLine
 62
7
  6
CONTINUOUS
 10
10.3266866441
 20
10.6568977894
 11
10.2218432736
 21
10.6496268641
  0
LINE
  5
354
100
AcDbEntity
  8
0
100
AcDbLine
 62
7
  6
CONTINUOUS
 10
11.5222831208
 20
5.8961821458
 11
11.4916091104
 21
5.881029772
  0
LINE
  5
355
100
AcDbEntity
  8
0
100
AcDbLine
 62
7
  6
CONTINUOUS
 10
10.1080927965
 20
11.195752334
 11
12.5229075053
 21
11.0282843652
  0
ARC
  5
356
100
AcDbEntity
  8
0
100
AcDbCircle
 62
7
  6
CONTINUOUS
 10
11.0110395226
 20
8.4224522881
 40
2.210103635
100
AcDbArc
 50
273.2665005552
 51
274.6677615151
  0
ARC
  5
357
100
AcDbEntity
  8
0
100
AcDbCircle
 62
7
  6
CONTINUOUS
 10
11.0110395226
 20
8.0380488467
 40
2.210103635
100
AcDbArc
 50
273.2665005552
 51
274.6677615151
  0
ARC
  5
358
100
AcDbEntity
  8
0
100
AcDbCircle
 62
7
  6
CONTINUOUS
 10
10.6618263761
 20
4.8016082297
 40
1.4920107078
100
AcDbArc
 50
71.4301899841
 51
73.3829217194
  0
ARC
  5
359
100
AcDbEntity
  8
0
100
AcDbCircle
 62
7
  6
CONTINUOUS
 10
10.828824849
 20
4.9548854356
 40
1.3253917187
100
AcDbArc
 50
99.0504770942
 51
101.1789715723
  0
ARC
  5
35A
100
AcDbEntity
  8
0
100
AcDbCircle
 62
7
  6
CONTINUOUS
 10
11.8032487268
 20
5.2363598121
 40
1.1584024231
100
AcDbArc
 50
121.5247220346
 51
121.9123380639
  0
ARC
  5
35B
100
AcDbEntity
  8
0
100
AcDbCircle
 62
7
  6
CONTINUOUS
 10
9.6333415202
 20
5.806677663
 40
1.0092916166
100
AcDbArc
 50
27.0292794725
 51
27.3325113777
  0
ARC
  5
35C
100
AcDbEntity
  8
0
100
AcDbCircle
 62
7
  6
CONTINUOUS
 10
10.791064949
 20
7.1834164041
 40
0.9538158545
100
AcDbArc
 50
254.2644742826
 51
256.7139235525
  0
ARC
  5
35D
100
AcDbEntity
  8
0
100
AcDbCircle
 62
7
  6
CONTINUOUS
 10
10.791064949
 20
6.7990129628
 40
0.9538158545
100
AcDbArc
 50
254.2644742826
 51
256.7139235525
  0
ARC
  5
35E
100
AcDbEntity
  8
0
100
AcDbCircle
 62
7
  6
CONTINUOUS
 10
11.1834021192
 20
6.581077347
 40
0.7641475746
100
AcDbArc
 50
293.7608747297
 51
296.3085175792
  0
ARC
  5
35F
100
AcDbEntity
  8
0
100
AcDbCircle
 62
7
  6
CONTINUOUS
 10
10.4900744026
 20
9.7487442885
 40
0.2104661308
100
AcDbArc
 50
140.2915634173
 51
141.5076753458
  0
ARC
  5
360
100
AcDbEntity
  8
0
100
AcDbCircle
 62
7
  6
CONTINUOUS
 10
10.1691183702
 20
9.6498468946
 40
0.2015201816
100
AcDbArc
 50
303.0405107649
 51
327.895995978
  0
ARC
  5
361
100
AcDbEntity
  8
0
100
AcDbCircle
 62
7
  6
CONTINUOUS
 10
10.756106833
 20
8.3421687123
 40
0.1689057013
100
AcDbArc
 50
260.058747036
 51
266.0213280683
  0
ARC
  5
362
100
AcDbEntity
  8
0
100
AcDbCircle
 62
7
  6
CONTINUOUS
 10
10.7326677263
 20
8.3677835904
 40
0.1689053743
100
AcDbArc
 50
80.0587181352
 51
86.0212672578
  0
SPLINE
  5
363
100
AcDbEntity
  8
02___PRT_ALL_AXES
100
AcDbSpline
 62
7
  6
CONTINUOUS
 70
0
 71
3
 72
31
 73
27
 74
0
 42
0.0000001
 43
0.0000001
 44
0.0000000001
 40
0.0
 40
0.0
 40
0.0
 40
0.0
 40
0.01486732
 40
0.0310571289
 40
0.0486182023
 40
0.0675764778
 40
0.0879396338
 40
0.1097039615
 40
0.1328522195
 40
0.157358698
 40
0.1831909828
 40
0.2103074992
 40
0.2386627542
 40
0.268205473
 40
0.2988785978
 40
0.3306228323
 40
0.363373444
 40
0.3970626492
 40
0.4669709818
 40
0.5397532505
 40
0.6147770757
 40
0.691384739
 40
0.7688995017
 40
0.8466285275
 40
0.923899717
 40
1.0
 40
1.0
 40
1.0
 40
1.0
 10
10.1482975159
 20
10.6405801495
 30
0.0
 10
10.1490075974
 20
10.6412409822
 30
0.0
 10
10.1505589244
 20
10.6425492547
 30
0.0
 10
10.1531389291
 20
10.6443989506
 30
0.0
 10
10.1560629057
 20
10.6462134049
 30
0.0
 10
10.1593240208
 20
10.6479885427
 30
0.0
 10
10.1629149489
 20
10.6497207445
 30
0.0
 10
10.1668276084
 20
10.6514056058
 30
0.0
 10
10.1710528492
 20
10.6530394775
 30
0.0
 10
10.1755808468
 20
10.6546184613
 30
0.0
 10
10.1804010363
 20
10.6561385606
 30
0.0
 10
10.1855020002
 20
10.6575964672
 30
0.0
 10
10.1908717383
 20
10.6589884713
 30
0.0
 10
10.1964975409
 20
10.6603112321
 30
0.0
 10
10.2023660587
 20
10.6615617837
 30
0.0
 10
10.2084634
 20
10.6627368444
 30
0.0
 10
10.2147750803
 20
10.663833808
 30
0.0
 10
10.2235649862
 20
10.6652056096
 30
0.0
 10
10.2349776749
 20
10.6666980208
 30
0.0
 10
10.2491127884
 20
10.668120349
 30
0.0
 10
10.2637178104
 20
10.669181502
 30
0.0
 10
10.278654054
 20
10.6698711919
 30
0.0
 10
10.2937794478
 20
10.6701825774
 30
0.0
 10
10.3089511949
 20
10.6701129358
 30
0.0
 10
10.324024
 20
10.6696625283
 30
0.0
 10
10.3340164933
 20
10.6691058242
 30
0.0
 10
10.3389697069
 20
10.6687623176
 30
0.0
  0
SPLINE
  5
364
100
AcDbEntity
  8
02___PRT_ALL_AXES
100
AcDbSpline
 62
7
  6
CONTINUOUS
 70
0
 71
3
 72
27
 73
23
 74
0
 42
0.0000001
 43
0.0000001
 44
0.0000000001
 40
0.0
 40
0.0
 40
0.0
 40
0.0
 40
0.0165873807
 40
0.0341539798
 40
0.0527299573
 40
0.0723379475
 40
0.0929930859
 40
0.114702669
 40
0.1374694408
 40
0.1612927079
 40
0.2120802826
 40
0.2669842705
 40
0.3258794689
 40
0.3885983692
 40
0.4549487443
 40
0.5247081753
 40
0.5976357819
 40
0.6734625524
 40
0.7519099341
 40
0.8326954885
 40
0.91551621
 40
1.0
 40
1.0
 40
1.0
 40
1.0
 10
10.4488904224
 20
10.6405801495
 30
0.0
 10
10.4484252727
 20
10.6410130381
 30
0.0
 10
10.4474386588
 20
10.6418737121
 30
0.0
 10
10.4458443936
 20
10.6431154685
 30
0.0
 10
10.444095851
 20
10.6443430899
 30
0.0
 10
10.4421947846
 20
10.6455552416
 30
0.0
 10
10.4401430622
 20
10.646750683
 30
0.0
 10
10.4379428986
 20
10.6479283127
 30
0.0
 10
10.43559657
 20
10.6490869527
 30
0.0
 10
10.4322035148
 20
10.6506379584
 30
0.0
 10
10.4276068329
 20
10.6525112308
 30
0.0
 10
10.4216630589
 20
10.6546197468
 30
0.0
 10
10.4152035681
 20
10.6566248287
 30
0.0
 10
10.4082553018
 20
10.6585185335
 30
0.0
 10
10.4008469866
 20
10.660292289
 30
0.0
 10
10.3930095034
 20
10.6619390194
 30
0.0
 10
10.3847757011
 20
10.6634512118
 30
0.0
 10
10.3761802325
 20
10.6648229261
 30
0.0
 10
10.3672587649
 20
10.666047945
 30
0.0
 10
10.3580480543
 20
10.6671213983
 30
0.0
 10
10.348588162
 20
10.6680382099
 30
0.0
 10
10.3421983023
 20
10.6685384138
 30
0.0
 10
10.3389697069
 20
10.6687623176
 30
0.0
  0
SPLINE
  5
365
100
AcDbEntity
  8
02___PRT_ALL_AXES
100
AcDbSpline
 62
7
  6
CONTINUOUS
 70
0
 71
3
 72
51
 73
47
 74
0
 42
0.0000001
 43
0.0000001
 44
0.0000000001
 40
0.0
 40
0.0
 40
0.0
 40
0.0
 40
0.0452834938
 40
0.0911408758
 40
0.1373605742
 40
0.1837585359
 40
0.2301551887
 40
0.2763629395
 40
0.3221936323
 40
0.3674637212
 40
0.4119921854
 40
0.4556023791
 40
0.4981212827
 40
0.5393835091
 40
0.5792290734
 40
0.6175081145
 40
0.6540781494
 40
0.6888099381
 40
0.7215843428
 40
0.7522994562
 40
0.7808677966
 40
0.7943273114
 40
0.8072276986
 40
0.8195644933
 40
0.831336171
 40
0.8425430969
 40
0.8531877033
 40
0.8632756497
 40
0.8728171466
 40
0.8818262931
 40
0.890321771
 40
0.8983285304
 40
0.9058794787
 40
0.9197706597
 40
0.9262367659
 40
0.9324690866
 40
0.9385474987
 40
0.9445586058
 40
0.9505924158
 40
0.9567377297
 40
0.963078105
 40
0.9696891799
 40
0.9766367521
 40
0.9839756932
 40
0.9917511862
 40
1.0
 40
1.0
 40
1.0
 40
1.0
 10
10.2582182314
 20
10.5907623774
 30
0.0
 10
10.2615444991
 20
10.5905316999
 30
0.0
 10
10.2682435791
 20
10.5901286674
 30
0.0
 10
10.2783488811
 20
10.5896987433
 30
0.0
 10
10.2885421609
 20
10.5894414498
 30
0.0
 10
10.2987780347
 20
10.5893575977
 30
0.0
 10
10.3090129774
 20
10.5894477606
 30
0.0
 10
10.3192031501
 20
10.5897111918
 30
0.0
 10
10.3293043858
 20
10.5901471726
 30
0.0
 10
10.3392729806
 20
10.5907534109
 30
0.0
 10
10.3490659656
 20
10.5915276269
 30
0.0
 10
10.3586410944
 20
10.5924660597
 30
0.0
 10
10.3679570553
 20
10.5935650161
 30
0.0
 10
10.3769736583
 20
10.5948192859
 30
0.0
 10
10.3856520538
 20
10.5962238067
 30
0.0
 10
10.3939548682
 20
10.5977720001
 30
0.0
 10
10.4018463897
 20
10.5994575454
 30
0.0
 10
10.4092927403
 20
10.6012725887
 30
0.0
 10
10.4162620624
 20
10.6032096781
 30
0.0
 10
10.4227245314
 20
10.6052598377
 30
0.0
 10
10.4277603803
 20
10.607090107
 30
0.0
 10
10.4315083086
 20
10.6086110953
 30
0.0
 10
10.4341196407
 20
10.6097518629
 30
0.0
 10
10.4365847328
 20
10.6109142354
 30
0.0
 10
10.4389010528
 20
10.6120968857
 30
0.0
 10
10.4410661925
 20
10.6132985365
 30
0.0
 10
10.4430778049
 20
10.6145179757
 30
0.0
 10
10.4449337066
 20
10.6157540423
 30
0.0
 10
10.4466320708
 20
10.6170053536
 30
0.0
 10
10.448171207
 20
10.6182706999
 30
0.0
 10
10.4495493471
 20
10.6195488254
 30
0.0
 10
10.4507651614
 20
10.6208390724
 30
0.0
 10
10.4521295042
 20
10.6225257348
 30
0.0
 10
10.4532224654
 20
10.6242834915
 30
0.0
 10
10.4539770429
 20
10.6260939129
 30
0.0
 10
10.4543607373
 20
10.6274255867
 30
0.0
 10
10.4545743426
 20
10.6287611433
 30
0.0
 10
10.454616971
 20
10.6300985361
 30
0.0
 10
10.4544882775
 20
10.6314353007
 30
0.0
 10
10.4541890569
 20
10.6327691288
 30
0.0
 10
10.4537203163
 20
10.6340980551
 30
0.0
 10
10.45308313
 20
10.6354204215
 30
0.0
 10
10.4522787434
 20
10.6367348316
 30
0.0
 10
10.4513087007
 20
10.6380402811
 30
0.0
 10
10.4501743621
 20
10.639335649
 30
0.0
 10
10.4493350367
 20
10.640166372
 30
0.0
 10
10.4488904224
 20
10.6405801495
 30
0.0
  0
SPLINE
  5
366
100
AcDbEntity
  8
02___PRT_ALL_AXES
100
AcDbSpline
 62
7
  6
CONTINUOUS
 70
0
 71
3
 72
39
 73
35
 74
0
 42
0.0000001
 43
0.0000001
 44
0.0000000001
 40
0.0
 40
0.0
 40
0.0
 40
0.0
 40
0.1050225111
 40
0.2065100121
 40
0.3035267659
 40
0.3501045583
 40
0.395260271
 40
0.4388975244
 40
0.4809296158
 40
0.5212737852
 40
0.5598543628
 40
0.5966046541
 40
0.6314633415
 40
0.6643819646
 40
0.6953225748
 40
0.7242588032
 40
0.7511840292
 40
0.7761083244
 40
0.7990678025
 40
0.8201320451
 40
0.8394087402
 40
0.8570618144
 40
0.87332079
 40
0.8884931082
 40
0.895798427
 40
0.9029844035
 40
0.910109372
 40
0.917233455
 40
0.9244168036
 40
0.9317178244
 40
0.9468769456
 40
0.9631175814
 40
0.9807484158
 40
1.0
 40
1.0
 40
1.0
 40
1.0
 10
10.2582182314
 20
10.5907623774
 30
0.0
 10
10.2533263404
 20
10.5911016312
 30
0.0
 10
10.2437155398
 20
10.5918977757
 30
0.0
 10
10.2296294203
 20
10.5934736143
 30
0.0
 10
10.2182999505
 20
10.5950992965
 30
0.0
 10
10.2096116722
 20
10.5965791435
 30
0.0
 10
10.2034008717
 20
10.5977544563
 30
0.0
 10
10.1974219771
 20
10.5990076042
 30
0.0
 10
10.1916895061
 20
10.600335248
 30
0.0
 10
10.1862173446
 20
10.6017342456
 30
0.0
 10
10.1810187494
 20
10.603201259
 30
0.0
 10
10.1761062463
 20
10.6047324112
 30
0.0
 10
10.1714917534
 20
10.6063242687
 30
0.0
 10
10.1671863293
 20
10.6079727746
 30
0.0
 10
10.1632002069
 20
10.6096738208
 30
0.0
 10
10.1595429465
 20
10.6114236641
 30
0.0
 10
10.1562229632
 20
10.61321778
 30
0.0
 10
10.1532479617
 20
10.615052283
 30
0.0
 10
10.1506247683
 20
10.6169233017
 30
0.0
 10
10.1483589624
 20
10.6188267809
 30
0.0
 10
10.1464560469
 20
10.6207599192
 30
0.0
 10
10.1449207135
 20
10.6227199772
 30
0.0
 10
10.1437581704
 20
10.6247041248
 30
0.0
 10
10.1430977955
 20
10.6263981505
 30
0.0
 10
10.1427727544
 20
10.6277462474
 30
0.0
 10
10.1426274419
 20
10.6287465576
 30
0.0
 10
10.1425780184
 20
10.6297476862
 30
0.0
 10
10.1426246305
 20
10.6307488274
 30
0.0
 10
10.1427671399
 20
10.6317491742
 30
0.0
 10
10.1430883769
 20
10.6330972201
 30
0.0
 10
10.1437439459
 20
10.6347913329
 30
0.0
 10
10.1449010115
 20
10.6367758581
 30
0.0
 10
10.1464307955
 20
10.6387361573
 30
0.0
 10
10.1476395013
 20
10.6399677724
 30
0.0
 10
10.1482975159
 20
10.6405801495
 30
0.0
  0
SPLINE
  5
367
100
AcDbEntity
  8
0
100
AcDbSpline
 62
7
  6
CONTINUOUS
 70
0
 71
3
 72
9
 73
5
 74
0
 42
0.0000001
 43
0.0000001
 44
0.0000000001
 40
0.0
 40
0.0
 40
0.0
 40
0.0
 40
0.2426770998
 40
1.0
 40
1.0
 40
1.0
 40
1.0
 10
11.6123970102
 20
5.949281986
 30
0.0
 10
11.6117888197
 20
5.9486945191
 30
0.0
 10
11.6092557683
 20
5.9463016379
 30
0.0
 10
11.6066200546
 20
5.9440181684
 30
0.0
 10
11.6045792525
 20
5.942345302
 30
0.0
  0
SPLINE
  5
368
100
AcDbEntity
  8
0
100
AcDbSpline
 62
7
  6
CONTINUOUS
 70
0
 71
3
 72
9
 73
5
 74
0
 42
0.0000001
 43
0.0000001
 44
0.0000000001
 40
0.0
 40
0.0
 40
0.0
 40
0.0
 40
0.2426666479
 40
1.0
 40
1.0
 40
1.0
 40
1.0
 10
11.6190272768
 20
5.9563010227
 30
0.0
 10
11.618519649
 20
5.9557072498
 30
0.0
 10
11.6163959532
 20
5.9532876653
 30
0.0
 10
11.6141505448
 20
5.9509757705
 30
0.0
 10
11.6123970102
 20
5.949281986
 30
0.0
  0
SPLINE
  5
369
100
AcDbEntity
  8
0
100
AcDbSpline
 62
7
  6
CONTINUOUS
 70
0
 71
3
 72
9
 73
5
 74
0
 42
0.0000001
 43
0.0000001
 44
0.0000000001
 40
0.0
 40
0.0
 40
0.0
 40
0.0
 40
0.504378312
 40
1.0
 40
1.0
 40
1.0
 40
1.0
 10
11.6045792525
 20
5.942345302
 30
0.0
 10
11.5910755022
 20
5.9339364483
 30
0.0
 10
11.5639626648
 20
5.9178017923
 30
0.0
 10
11.5360898683
 20
5.9030045975
 30
0.0
 10
11.5220757304
 20
5.8960797551
 30
0.0
  0
SPLINE
  5
36A
100
AcDbEntity
  8
0
100
AcDbSpline
 62
7
  6
CONTINUOUS
 70
0
 71
3
 72
47
 73
43
 74
0
 42
0.0000001
 43
0.0000001
 44
0.0000000001
 40
0.0
 40
0.0
 40
0.0
 40
0.0
 40
0.0099874638
 40
0.0204476834
 40
0.0313771515
 40
0.0427708334
 40
0.0546218702
 40
0.0669225517
 40
0.0796641282
 40
0.0928362942
 40
0.1204271347
 40
0.1495984091
 40
0.1802407165
 40
0.2122338314
 40
0.2454489836
 40
0.2797497839
 40
0.3149929168
 40
0.3510298084
 40
0.3877071885
 40
0.4248680172
 40
0.4623527228
 40
0.4999997959
 40
0.5376468789
 40
0.575131606
 40
0.6122924455
 40
0.6489698269
 40
0.6850067267
 40
0.7202498875
 40
0.7545507276
 40
0.7877659112
 40
0.8197590481
 40
0.8504013805
 40
0.8795726993
 40
0.9071635849
 40
0.9203357726
 40
0.933077377
 40
0.9453780958
 40
0.9572291635
 40
0.968622847
 40
0.9795522717
 40
0.9900124597
 40
1.0
 40
1.0
 40
1.0
 40
1.0
 10
11.4916129958
 20
5.8810317266
 30
0.0
 10
11.4886224614
 20
5.8795544489
 30
0.0
 10
11.482448755
 20
5.8766325331
 30
0.0
 10
11.4728465566
 20
5.8724330894
 30
0.0
 10
11.4626983785
 20
5.8683202546
 30
0.0
 10
11.4520159305
 20
5.8642990448
 30
0.0
 10
11.4408115549
 20
5.8603737396
 30
0.0
 10
11.4290980542
 20
5.8565490205
 30
0.0
 10
11.4168887983
 20
5.8528294497
 30
0.0
 10
11.3997009694
 20
5.8479399179
 30
0.0
 10
11.3770706572
 20
5.8421444364
 30
0.0
 10
11.3485793788
 20
5.8357757642
 30
0.0
 10
11.3184793299
 20
5.8299202403
 30
0.0
 10
11.2869093236
 20
5.8246048986
 30
0.0
 10
11.2540146657
 20
5.8198547422
 30
0.0
 10
11.2199470146
 20
5.8156922101
 30
0.0
 10
11.184863556
 20
5.8121364821
 30
0.0
 10
11.1489262352
 20
5.8092043117
 30
0.0
 10
11.1123009742
 20
5.8069095271
 30
0.0
 10
11.0751569418
 20
5.8052625796
 30
0.0
 10
11.0376657178
 20
5.8042713436
 30
0.0
 10
11.0000004776
 20
5.803940487
 30
0.0
 10
10.96233523
 20
5.8042713269
 30
0.0
 10
10.9248439915
 20
5.8052625469
 30
0.0
 10
10.8876999471
 20
5.8069094776
 30
0.0
 10
10.8510746783
 20
5.8092042461
 30
0.0
 10
10.8151373436
 20
5.8121363996
 30
0.0
 10
10.7800538581
 20
5.815692113
 30
0.0
 10
10.7459861718
 20
5.8198546305
 30
0.0
 10
10.7130914805
 20
5.8246047735
 30
0.0
 10
10.6815214451
 20
5.8299200994
 30
0.0
 10
10.6514213622
 20
5.835775609
 30
0.0
 10
10.6229300426
 20
5.8421442716
 30
0.0
 10
10.6002996886
 20
5.8479397397
 30
0.0
 10
10.5831118242
 20
5.852829262
 30
0.0
 10
10.5709025374
 20
5.8565488313
 30
0.0
 10
10.5591890053
 20
5.8603735576
 30
0.0
 10
10.5479846059
 20
5.8642988654
 30
0.0
 10
10.5373021552
 20
5.8683200569
 30
0.0
 10
10.5271539831
 20
5.8724328407
 30
0.0
 10
10.5175517671
 20
5.876632246
 30
0.0
 10
10.5113780459
 20
5.8795541667
 30
0.0
 10
10.5083874929
 20
5.8810314643
 30
0.0
  0
SPLINE
  5
36B
100
AcDbEntity
  8
0
100
AcDbSpline
 62
7
  6
CONTINUOUS
 70
0
 71
3
 72
23
 73
19
 74
0
 42
0.0000001
 43
0.0000001
 44
0.0000000001
 40
0.0
 40
0.0
 40
0.0
 40
0.0
 40
0.0436203086
 40
0.0892268542
 40
0.137068591
 40
0.187353676
 40
0.2402538462
 40
0.2958872461
 40
0.3543311569
 40
0.4156094827
 40
0.4797102731
 40
0.5465788188
 40
0.6161346312
 40
0.6882694307
 40
0.7628606873
 40
0.8397744221
 40
0.9188692703
 40
1.0
 40
1.0
 40
1.0
 40
1.0
 10
10.4893812334
 20
5.8904202145
 30
0.0
 10
10.4870712978
 20
5.891560783
 30
0.0
 10
10.4824341741
 20
5.8940758795
 30
0.0
 10
10.4756068846
 20
5.8984369315
 30
0.0
 10
10.4687704957
 20
5.903479218
 30
0.0
 10
10.461928946
 20
5.9092101504
 30
0.0
 10
10.4550878478
 20
5.9156338012
 30
0.0
 10
10.4482503073
 20
5.9227453736
 30
0.0
 10
10.4414220482
 20
5.9305361856
 30
0.0
 10
10.4346058041
 20
5.9389895881
 30
0.0
 10
10.4278066355
 20
5.948085494
 30
0.0
 10
10.4210267853
 20
5.9577978759
 30
0.0
 10
10.4142701184
 20
5.968098424
 30
0.0
 10
10.4075382314
 20
5.9789553781
 30
0.0
 10
10.4008335144
 20
5.9903362316
 30
0.0
 10
10.3941568652
 20
6.002207314
 30
0.0
 10
10.3875093728
 20
6.0145351531
 30
0.0
 10
10.3831502547
 20
6.0229345702
 30
0.0
 10
10.3809727232
 20
6.027202703
 30
0.0
  0
SPLINE
  5
36C
100
AcDbEntity
  8
0
100
AcDbSpline
 62
7
  6
CONTINUOUS
 70
0
 71
3
 72
21
 73
17
 74
0
 42
0.0000001
 43
0.0000001
 44
0.0000000001
 40
0.0
 40
0.0
 40
0.0
 40
0.0
 40
0.1230212981
 40
0.1847065752
 40
0.2465215318
 40
0.3084771567
 40
0.3705832678
 40
0.432847904
 40
0.4952752623
 40
0.5578663069
 40
0.6206183946
 40
0.6835249868
 40
0.7465773451
 40
0.8097643485
 40
0.8730733734
 40
1.0
 40
1.0
 40
1.0
 40
1.0
 10
11.1369719151
 20
5.8315359621
 30
0.0
 10
11.1138927341
 20
5.8269886059
 30
0.0
 10
11.0790602926
 20
5.8210161996
 30
0.0
 10
11.0322890776
 20
5.8151060522
 30
0.0
 10
10.996977769
 20
5.8117788382
 30
0.0
 10
10.9614933262
 20
5.8096444306
 30
0.0
 10
10.9258686052
 20
5.8087736943
 30
0.0
 10
10.8901453937
 20
5.8092225895
 30
0.0
 10
10.854371772
 20
5.8110245882
 30
0.0
 10
10.8185992458
 20
5.8141878741
 30
0.0
 10
10.7828793058
 20
5.8186968247
 30
0.0
 10
10.7472596925
 20
5.8245110665
 30
0.0
 10
10.711781553
 20
5.8315687806
 30
0.0
 10
10.6764773622
 20
5.8397944703
 30
0.0
 10
10.6296334361
 20
5.8522140223
 30
0.0
 10
10.5948730264
 20
5.8630018167
 30
0.0
 10
10.5718654406
 20
5.8707262292
 30
0.0
  0
SPLINE
  5
36D
100
AcDbEntity
  8
0
100
AcDbSpline
 62
7
  6
CONTINUOUS
 70
0
 71
3
 72
11
 73
7
 74
0
 42
0.0000001
 43
0.0000001
 44
0.0000000001
 40
0.0
 40
0.0
 40
0.0
 40
0.0
 40
0.2465919593
 40
0.494712682
 40
0.7454424776
 40
1.0
 40
1.0
 40
1.0
 40
1.0
 10
10.5323926627
 20
5.8809425229
 30
0.0
 10
10.5304502498
 20
5.8808876883
 30
0.0
 10
10.5265489401
 20
5.8808950348
 30
0.0
 10
10.5206832488
 20
5.8812785566
 30
0.0
 10
10.5147931768
 20
5.882056839
 30
0.0
 10
10.5108867197
 20
5.8828463868
 30
0.0
 10
10.5089352746
 20
5.8833108482
 30
0.0
  0
SPLINE
  5
36E
100
AcDbEntity
  8
0
100
AcDbSpline
 62
7
  6
CONTINUOUS
 70
0
 71
3
 72
10
 73
6
 74
0
 42
0.0000001
 43
0.0000001
 44
0.0000000001
 40
0.0
 40
0.0
 40
0.0
 40
0.0
 40
0.2418255986
 40
0.4885199497
 40
1.0
 40
1.0
 40
1.0
 40
1.0
 10
10.5089352746
 20
5.8833108482
 30
0.0
 10
10.5073007572
 20
5.8836998779
 30
0.0
 10
10.5040204468
 20
5.8845807385
 30
0.0
 10
10.4974215465
 20
5.8867630438
 30
0.0
 10
10.4925676681
 20
5.8888468601
 30
0.0
 10
10.4893812334
 20
5.8904202145
 30
0.0
  0
LINE
  5
36F
100
AcDbEntity
  8
0
100
AcDbLine
 62
7
  6
CONTINUOUS
 10
11.4912927722
 20
5.8817027252
 11
11.4905636581
 21
5.8813828376
  0
SPLINE
  5
370
100
AcDbEntity
  8
0
100
AcDbSpline
 62
7
  6
CONTINUOUS
 70
0
 71
3
 72
15
 73
11
 74
0
 42
0.0000001
 43
0.0000001
 44
0.0000000001
 40
0.0
 40
0.0
 40
0.0
 40
0.0
 40
0.1321602046
 40
0.2618009952
 40
0.3890353631
 40
0.5141096583
 40
0.6373677171
 40
0.75919507
 40
0.8799649792
 40
1.0
 40
1.0
 40
1.0
 40
1.0
 10
11.4905636581
 20
5.8813828376
 30
0.0
 10
11.4781825547
 20
5.8759590954
 30
0.0
 10
11.4533417909
 20
5.8659121063
 30
0.0
 10
11.4155477278
 20
5.8533786689
 30
0.0
 10
11.3776769583
 20
5.8436613794
 30
0.0
 10
11.3398505826
 20
5.8367928752
 30
0.0
 10
11.3021831967
 20
5.8326930467
 30
0.0
 10
11.2647676148
 20
5.8311863588
 30
0.0
 10
11.2276667781
 20
5.8320332065
 30
0.0
 10
11.2031023587
 20
5.8339925565
 30
0.0
 10
11.1908927174
 20
5.835275389
 30
0.0
  0
SPLINE
  5
371
100
AcDbEntity
  8
0
100
AcDbSpline
 62
7
  6
CONTINUOUS
 70
0
 71
3
 72
88
 73
84
 74
0
 42
0.0000001
 43
0.0000001
 44
0.0000000001
 40
0.0
 40
0.0
 40
0.0
 40
0.0
 40
0.00398019
 40
0.0081241279
 40
0.012435984
 40
0.0169193403
 40
0.0215772217
 40
0.026411968
 40
0.03142524
 40
0.0366182254
 40
0.0419916187
 40
0.0475457474
 40
0.0532805245
 40
0.0591955312
 40
0.0652900466
 40
0.0715630374
 40
0.0846387255
 40
0.0984100564
 40
0.1128606485
 40
0.1279711965
 40
0.1437198106
 40
0.1600822931
 40
0.1770323702
 40
0.1945418895
 40
0.2125809905
 40
0.2311182618
 40
0.2501208831
 40
0.2695547551
 40
0.289384621
 40
0.309574183
 40
0.3300862123
 40
0.3508826567
 40
0.3719247472
 40
0.3931731028
 40
0.4145878328
 40
0.4361286373
 40
0.4577549081
 40
0.5010997345
 40
0.5442957932
 40
0.5657364549
 40
0.5870180425
 40
0.6081005829
 40
0.6289445938
 40
0.6495111877
 40
0.6697621758
 40
0.6896601722
 40
0.7091687011
 40
0.7282523074
 40
0.7468766714
 40
0.7650087296
 40
0.7826168049
 40
0.7996707468
 40
0.8161420806
 40
0.8320041762
 40
0.8472324412
 40
0.8618045456
 40
0.8757006897
 40
0.8889039322
 40
0.8952415306
 40
0.9014010782
 40
0.9073814661
 40
0.9131818436
 40
0.9188016978
 40
0.9242407986
 40
0.9294993296
 40
0.9345778344
 40
0.939477329
 40
0.9441993212
 40
0.9487458596
 40
0.953119651
 40
0.9573240595
 40
0.9613632868
 40
0.9652423839
 40
0.9689674258
 40
0.9725455946
 40
0.9759852982
 40
0.9824864684
 40
0.985575327
 40
0.9885737973
 40
0.9914977211
 40
0.9943643259
 40
0.9971920046
 40
1.0
 40
1.0
 40
1.0
 40
1.0
 10
11.6346133055
 20
10.7632580054
 30
0.0
 10
11.6333120736
 20
10.7620011118
 30
0.0
 10
11.6305969842
 20
10.7594962143
 30
0.0
 10
11.6262862572
 20
10.755837623
 30
0.0
 10
11.6216589775
 20
10.7522052751
 30
0.0
 10
11.6167176836
 20
10.7486010994
 30
0.0
 10
11.6114647845
 20
10.7450267791
 30
0.0
 10
11.6059028541
 20
10.7414840531
 30
0.0
 10
11.6000346741
 20
10.7379746201
 30
0.0
 10
11.593863156
 20
10.7345003012
 30
0.0
 10
11.5873914164
 20
10.7310627641
 30
0.0
 10
11.5806226724
 20
10.7276637776
 30
0.0
 10
11.5735603272
 20
10.7243050116
 30
0.0
 10
11.5662079251
 20
10.7209881708
 30
0.0
 10
11.5585691486
 20
10.7177149174
 30
0.0
 10
11.5478589143
 20
10.7133504626
 30
0.0
 10
11.533774056
 20
10.7080275862
 30
0.0
 10
11.5160199305
 20
10.7019248352
 30
0.0
 10
11.497222958
 20
10.6960339808
 30
0.0
 10
11.4774210393
 20
10.6903669969
 30
0.0
 10
11.4566539285
 20
10.6849354167
 30
0.0
 10
11.4349634591
 20
10.6797503025
 30
0.0
 10
11.4123933551
 20
10.6748222175
 30
0.0
 10
11.3889891617
 20
10.6701612026
 30
0.0
 10
11.3647981391
 20
10.6657767508
 30
0.0
 10
11.3398691627
 20
10.6616777897
 30
0.0
 10
11.3142526169
 20
10.6578726647
 30
0.0
 10
11.28800029
 20
10.6543691211
 30
0.0
 10
11.2611652668
 20
10.6511742895
 30
0.0
 10
11.2338018198
 20
10.6482946711
 30
0.0
 10
11.2059652986
 20
10.6457361258
 30
0.0
 10
11.1777120169
 20
10.6435038568
 30
0.0
 10
11.1490991378
 20
10.6416024028
 30
0.0
 10
11.1201845514
 20
10.6400356278
 30
0.0
 10
11.0910267756
 20
10.6388067242
 30
0.0
 10
11.0616847641
 20
10.6379181638
 30
0.0
 10
11.0223679982
 20
10.6371892357
 30
0.0
 10
10.9731974473
 20
10.6371375152
 30
0.0
 10
10.9241232463
 20
10.6382269964
 30
0.0
 10
10.8851006733
 20
10.6397869559
 30
0.0
 10
10.8561374735
 20
10.6412925318
 30
0.0
 10
10.8274654182
 20
10.6431333958
 30
0.0
 10
10.7991424775
 20
10.6453058355
 30
0.0
 10
10.7712259664
 20
10.6478054256
 30
0.0
 10
10.7437723572
 20
10.6506270825
 30
0.0
 10
10.7168371835
 20
10.6537650649
 30
0.0
 10
10.6904749221
 20
10.6572129882
 30
0.0
 10
10.6647388829
 20
10.6609638359
 30
0.0
 10
10.6396810994
 20
10.6650099735
 30
0.0
 10
10.6153522202
 20
10.6693431647
 30
0.0
 10
10.5918014018
 20
10.673954586
 30
0.0
 10
10.5690762029
 20
10.6788348428
 30
0.0
 10
10.5472224872
 20
10.683973993
 30
0.0
 10
10.5262843169
 20
10.6893615672
 30
0.0
 10
10.5063038812
 20
10.6949865925
 30
0.0
 10
10.4873213108
 20
10.7008376199
 30
0.0
 10
10.4693748894
 20
10.7069027515
 30
0.0
 10
10.4551247483
 20
10.7121948863
 30
0.0
 10
10.4442789216
 20
10.7165357383
 30
0.0
 10
10.4365369583
 20
10.7197927406
 30
0.0
 10
10.4290799818
 20
10.723093906
 30
0.0
 10
10.4219117423
 20
10.7264376334
 30
0.0
 10
10.415035826
 20
10.7298221791
 30
0.0
 10
10.4084557019
 20
10.733245907
 30
0.0
 10
10.4021746455
 20
10.7367070432
 30
0.0
 10
10.3961958131
 20
10.7402039031
 30
0.0
 10
10.3905221834
 20
10.7437347304
 30
0.0
 10
10.3851565774
 20
10.74729777
 30
0.0
 10
10.3801016867
 20
10.7508913119
 30
0.0
 10
10.3753599903
 20
10.7545135465
 30
0.0
 10
10.3709338884
 20
10.7581628033
 30
0.0
 10
10.3668255488
 20
10.7618372677
 30
0.0
 10
10.3630370431
 20
10.7655353027
 30
0.0
 10
10.3595703584
 20
10.769255046
 30
0.0
 10
10.3564269911
 20
10.7729952444
 30
0.0
 10
10.3527395243
 20
10.7779131739
 30
0.0
 10
10.3496082647
 20
10.782963662
 30
0.0
 10
10.3471221807
 20
10.7881219907
 30
0.0
 10
10.3456200999
 20
10.7919369597
 30
0.0
 10
10.3444503748
 20
10.7957612112
 30
0.0
 10
10.3436139646
 20
10.7995928876
 30
0.0
 10
10.3431117935
 20
10.8034292572
 30
0.0
 10
10.3429999998
 20
10.8059922526
 30
0.0
 10
10.343
 20
10.8072685876
 30
0.0
  0
SPLINE
  5
372
100
AcDbEntity
  8
0
100
AcDbSpline
 62
7
  6
CONTINUOUS
 70
0
 71
3
 72
41
 73
37
 74
0
 42
0.0000001
 43
0.0000001
 44
0.0000000001
 40
0.0
 40
0.0
 40
0.0
 40
0.0
 40
0.031144444
 40
0.0624425093
 40
0.0938872508
 40
0.1254695847
 40
0.1571771078
 40
0.1889951283
 40
0.2209066801
 40
0.2528929859
 40
0.2849338014
 40
0.3170078274
 40
0.3490931225
 40
0.3811675283
 40
0.4132090962
 40
0.4451965119
 40
0.4771095115
 40
0.5089292827
 40
0.5406388458
 40
0.5722234075
 40
0.6036706813
 40
0.6349711679
 40
0.6661183875
 40
0.6971090579
 40
0.7279432122
 40
0.7586242475
 40
0.7891589026
 40
0.8195571573
 40
0.8498320547
 40
0.8649308931
 40
0.8800050545
 40
0.9100832586
 40
0.9400926739
 40
0.9550812746
 40
0.9700610358
 40
1.0
 40
1.0
 40
1.0
 40
1.0
 10
11.5596286883
 20
9.8530966084
 30
0.0
 10
11.5629426399
 20
9.8528667851
 30
0.0
 10
11.5695725315
 20
9.8521634259
 30
0.0
 10
11.5794369785
 20
9.850391693
 30
0.0
 10
11.5891957868
 20
9.8479099671
 30
0.0
 10
11.5987962054
 20
9.8447316793
 30
0.0
 10
11.6081872659
 20
9.8408738077
 30
0.0
 10
11.6173188636
 20
9.8363570175
 30
0.0
 10
11.6261423546
 20
9.831205434
 30
0.0
 10
11.6346107224
 20
9.8254465683
 30
0.0
 10
11.6426788474
 20
9.8191111476
 30
0.0
 10
11.6503037395
 20
9.8122329621
 30
0.0
 10
11.6574447655
 20
9.8048486825
 30
0.0
 10
11.6640638632
 20
9.7969976676
 30
0.0
 10
11.6701257427
 20
9.7887217563
 30
0.0
 10
11.6755980723
 20
9.7800650471
 30
0.0
 10
11.6804516497
 20
9.7710736652
 30
0.0
 10
11.6846605569
 20
9.7617955203
 30
0.0
 10
11.6882022978
 20
9.7522800541
 30
0.0
 10
11.691057918
 20
9.7425779801
 30
0.0
 10
11.6932121071
 20
9.7327410172
 30
0.0
 10
11.6946532818
 20
9.7228216178
 30
0.0
 10
11.6953736497
 20
9.7128726912
 30
0.0
 10
11.6953692557
 20
9.7029473274
 30
0.0
 10
11.6946400029
 20
9.6930985066
 30
0.0
 10
11.6931896773
 20
9.6833788572
 30
0.0
 10
11.6910258631
 20
9.6738402326
 30
0.0
 10
11.6881601709
 20
9.6645339627
 30
0.0
 10
11.6851965709
 20
9.657005735
 30
0.0
 10
11.682492126
 20
9.6511513772
 30
0.0
 10
11.6795735206
 20
9.6454243075
 30
0.0
 10
11.6755211954
 20
9.6384971209
 30
0.0
 10
11.6709476692
 20
9.63191346
 30
0.0
 10
11.6669954952
 20
9.6268810554
 30
0.0
 10
11.6628547539
 20
9.6220129365
 30
0.0
 10
11.6595373149
 20
9.6185472379
 30
0.0
 10
11.6572404944
 20
9.6163286817
 30
0.0
  0
SPLINE
  5
373
100
AcDbEntity
  8
0
100
AcDbSpline
 62
7
  6
CONTINUOUS
 70
0
 71
3
 72
41
 73
37
 74
0
 42
0.0000001
 43
0.0000001
 44
0.0000000001
 40
0.0
 40
0.0
 40
0.0
 40
0.0
 40
0.031144444
 40
0.0624425093
 40
0.0938872508
 40
0.1254695847
 40
0.1571771078
 40
0.1889951283
 40
0.2209066801
 40
0.2528929859
 40
0.2849338014
 40
0.3170078274
 40
0.3490931225
 40
0.3811675283
 40
0.4132090962
 40
0.4451965119
 40
0.4771095115
 40
0.5089292827
 40
0.5406388458
 40
0.5722234075
 40
0.6036706813
 40
0.6349711679
 40
0.6661183875
 40
0.6971090579
 40
0.7279432122
 40
0.7586242475
 40
0.7891589026
 40
0.8195571573
 40
0.8498320547
 40
0.8649308931
 40
0.8800050545
 40
0.9100832586
 40
0.9400926739
 40
0.9550812746
 40
0.9700610358
 40
1.0
 40
1.0
 40
1.0
 40
1.0
 10
11.5596286883
 20
7.8005041059
 30
0.0
 10
11.5629426399
 20
7.8002742826
 30
0.0
 10
11.5695725315
 20
7.7995709234
 30
0.0
 10
11.5794369785
 20
7.7977991905
 30
0.0
 10
11.5891957868
 20
7.7953174646
 30
0.0
 10
11.5987962054
 20
7.7921391768
 30
0.0
 10
11.6081872659
 20
7.7882813052
 30
0.0
 10
11.6173188636
 20
7.783764515
 30
0.0
 10
11.6261423546
 20
7.7786129315
 30
0.0
 10
11.6346107224
 20
7.7728540658
 30
0.0
 10
11.6426788474
 20
7.7665186451
 30
0.0
 10
11.6503037395
 20
7.7596404596
 30
0.0
 10
11.6574447655
 20
7.75225618
 30
0.0
 10
11.6640638632
 20
7.7444051651
 30
0.0
 10
11.6701257427
 20
7.7361292538
 30
0.0
 10
11.6755980723
 20
7.7274725446
 30
0.0
 10
11.6804516497
 20
7.7184811627
 30
0.0
 10
11.6846605569
 20
7.7092030179
 30
0.0
 10
11.6882022978
 20
7.6996875516
 30
0.0
 10
11.691057918
 20
7.6899854776
 30
0.0
 10
11.6932121071
 20
7.6801485147
 30
0.0
 10
11.6946532818
 20
7.6702291153
 30
0.0
 10
11.6953736497
 20
7.6602801887
 30
0.0
 10
11.6953692557
 20
7.6503548249
 30
0.0
 10
11.6946400029
 20
7.6405060042
 30
0.0
 10
11.6931896773
 20
7.6307863547
 30
0.0
 10
11.6910258631
 20
7.6212477301
 30
0.0
 10
11.6881601709
 20
7.6119414602
 30
0.0
 10
11.6851965709
 20
7.6044132325
 30
0.0
 10
11.682492126
 20
7.5985588747
 30
0.0
 10
11.6795735206
 20
7.592831805
 30
0.0
 10
11.6755211954
 20
7.5859046184
 30
0.0
 10
11.6709476692
 20
7.5793209575
 30
0.0
 10
11.6669954952
 20
7.5742885529
 30
0.0
 10
11.6628547539
 20
7.569420434
 30
0.0
 10
11.6595373149
 20
7.5659547354
 30
0.0
 10
11.6572404944
 20
7.5637361792
 30
0.0
  0
SPLINE
  5
374
100
AcDbEntity
  8
0
100
AcDbSpline
 62
7
  6
CONTINUOUS
 70
0
 71
3
 72
41
 73
37
 74
0
 42
0.0000001
 43
0.0000001
 44
0.0000000001
 40
0.0
 40
0.0
 40
0.0
 40
0.0
 40
0.031144444
 40
0.0624425093
 40
0.0938872508
 40
0.1254695847
 40
0.1571771078
 40
0.1889951283
 40
0.2209066801
 40
0.2528929859
 40
0.2849338014
 40
0.3170078274
 40
0.3490931225
 40
0.3811675283
 40
0.4132090962
 40
0.4451965119
 40
0.4771095115
 40
0.5089292827
 40
0.5406388458
 40
0.5722234075
 40
0.6036706813
 40
0.6349711679
 40
0.6661183875
 40
0.6971090579
 40
0.7279432122
 40
0.7586242475
 40
0.7891589026
 40
0.8195571573
 40
0.8498320547
 40
0.8649308931
 40
0.8800050545
 40
0.9100832586
 40
0.9400926739
 40
0.9550812746
 40
0.9700610358
 40
1.0
 40
1.0
 40
1.0
 40
1.0
 10
9.8093710963
 20
7.9218848822
 30
0.0
 10
9.8126850479
 20
7.9216550589
 30
0.0
 10
9.8193149395
 20
7.9209516996
 30
0.0
 10
9.8291793865
 20
7.9191799667
 30
0.0
 10
9.8389381948
 20
7.9166982409
 30
0.0
 10
9.8485386134
 20
7.9135199531
 30
0.0
 10
9.8579296739
 20
7.9096620815
 30
0.0
 10
9.8670612715
 20
7.9051452913
 30
0.0
 10
9.8758847626
 20
7.8999937078
 30
0.0
 10
9.8843531304
 20
7.8942348421
 30
0.0
 10
9.8924212554
 20
7.8878994214
 30
0.0
 10
9.9000461475
 20
7.8810212359
 30
0.0
 10
9.9071871734
 20
7.8736369562
 30
0.0
 10
9.9138062712
 20
7.8657859414
 30
0.0
 10
9.9198681507
 20
7.8575100301
 30
0.0
 10
9.9253404803
 20
7.8488533208
 30
0.0
 10
9.9301940577
 20
7.839861939
 30
0.0
 10
9.9344029649
 20
7.8305837941
 30
0.0
 10
9.9379447057
 20
7.8210683279
 30
0.0
 10
9.940800326
 20
7.8113662539
 30
0.0
 10
9.9429545151
 20
7.801529291
 30
0.0
 10
9.9443956898
 20
7.7916098916
 30
0.0
 10
9.9451160577
 20
7.781660965
 30
0.0
 10
9.9451116637
 20
7.7717356012
 30
0.0
 10
9.9443824109
 20
7.7618867804
 30
0.0
 10
9.9429320853
 20
7.752167131
 30
0.0
 10
9.940768271
 20
7.7426285064
 30
0.0
 10
9.9379025789
 20
7.7333222365
 30
0.0
 10
9.9349389788
 20
7.7257940088
 30
0.0
 10
9.932234534
 20
7.719939651
 30
0.0
 10
9.9293159286
 20
7.7142125813
 30
0.0
 10
9.9252636034
 20
7.7072853947
 30
0.0
 10
9.9206900772
 20
7.7007017338
 30
0.0
 10
9.9167379031
 20
7.6956693292
 30
0.0
 10
9.9125971618
 20
7.6908012103
 30
0.0
 10
9.9092797229
 20
7.6873355117
 30
0.0
 10
9.9069829024
 20
7.6851169555
 30
0.0
  0
SPLINE
  5
375
100
AcDbEntity
  8
0
100
AcDbSpline
 62
7
  6
CONTINUOUS
 70
0
 71
3
 72
41
 73
37
 74
0
 42
0.0000001
 43
0.0000001
 44
0.0000000001
 40
0.0
 40
0.0
 40
0.0
 40
0.0
 40
0.031144444
 40
0.0624425093
 40
0.0938872508
 40
0.1254695847
 40
0.1571771078
 40
0.1889951283
 40
0.2209066801
 40
0.2528929859
 40
0.2849338014
 40
0.3170078274
 40
0.3490931225
 40
0.3811675283
 40
0.4132090962
 40
0.4451965119
 40
0.4771095115
 40
0.5089292827
 40
0.5406388458
 40
0.5722234075
 40
0.6036706813
 40
0.6349711679
 40
0.6661183875
 40
0.6971090579
 40
0.7279432122
 40
0.7586242475
 40
0.7891589026
 40
0.8195571573
 40
0.8498320547
 40
0.8649308931
 40
0.8800050545
 40
0.9100832586
 40
0.9400926739
 40
0.9550812746
 40
0.9700610358
 40
1.0
 40
1.0
 40
1.0
 40
1.0
 10
9.8093710963
 20
9.9744773847
 30
0.0
 10
9.8126850479
 20
9.9742475614
 30
0.0
 10
9.8193149395
 20
9.9735442021
 30
0.0
 10
9.8291793865
 20
9.9717724692
 30
0.0
 10
9.8389381948
 20
9.9692907434
 30
0.0
 10
9.8485386134
 20
9.9661124555
 30
0.0
 10
9.8579296739
 20
9.962254584
 30
0.0
 10
9.8670612715
 20
9.9577377938
 30
0.0
 10
9.8758847626
 20
9.9525862103
 30
0.0
 10
9.8843531304
 20
9.9468273446
 30
0.0
 10
9.8924212554
 20
9.9404919239
 30
0.0
 10
9.9000461475
 20
9.9336137384
 30
0.0
 10
9.9071871734
 20
9.9262294587
 30
0.0
 10
9.9138062712
 20
9.9183784438
 30
0.0
 10
9.9198681507
 20
9.9101025326
 30
0.0
 10
9.9253404803
 20
9.9014458233
 30
0.0
 10
9.9301940577
 20
9.8924544415
 30
0.0
 10
9.9344029649
 20
9.8831762966
 30
0.0
 10
9.9379447057
 20
9.8736608304
 30
0.0
 10
9.940800326
 20
9.8639587564
 30
0.0
 10
9.9429545151
 20
9.8541217935
 30
0.0
 10
9.9443956898
 20
9.8442023941
 30
0.0
 10
9.9451160577
 20
9.8342534675
 30
0.0
 10
9.9451116637
 20
9.8243281036
 30
0.0
 10
9.9443824109
 20
9.8144792829
 30
0.0
 10
9.9429320853
 20
9.8047596334
 30
0.0
 10
9.940768271
 20
9.7952210089
 30
0.0
 10
9.9379025789
 20
9.785914739
 30
0.0
 10
9.9349389788
 20
9.7783865113
 30
0.0
 10
9.932234534
 20
9.7725321535
 30
0.0
 10
9.9293159286
 20
9.7668050837
 30
0.0
 10
9.9252636034
 20
9.7598778972
 30
0.0
 10
9.9206900772
 20
9.7532942363
 30
0.0
 10
9.9167379031
 20
9.7482618316
 30
0.0
 10
9.9125971618
 20
9.7433937128
 30
0.0
 10
9.9092797229
 20
9.7399280141
 30
0.0
 10
9.9069829024
 20
9.737709458
 30
0.0
  0
SPLINE
  5
376
100
AcDbEntity
  8
0
100
AcDbSpline
 62
7
  6
CONTINUOUS
 70
0
 71
3
 72
37
 73
33
 74
0
 42
0.0000001
 43
0.0000001
 44
0.0000000001
 40
0.0
 40
0.0
 40
0.0
 40
0.0
 40
0.0311466476
 40
0.0624482391
 40
0.093895328
 40
0.1254805417
 40
0.1571907946
 40
0.1890115952
 40
0.2209259356
 40
0.2529150311
 40
0.284958639
 40
0.3170354579
 40
0.3491235488
 40
0.3812007523
 40
0.4451977724
 40
0.5088980103
 40
0.5406103272
 40
0.5721976339
 40
0.6036476391
 40
0.6349508386
 40
0.6661007532
 40
0.6970941041
 40
0.727930928
 40
0.7586146239
 40
0.7891519281
 40
0.8195528177
 40
0.8498303372
 40
0.8800003401
 40
0.9100811543
 40
0.9400931797
 40
0.9700584251
 40
1.0
 40
1.0
 40
1.0
 40
1.0
 10
9.9001679967
 20
7.433108082
 30
0.0
 10
9.902007748
 20
7.4329804948
 30
0.0
 10
9.9056884294
 20
7.4325899967
 30
0.0
 10
9.9111647992
 20
7.4316064257
 30
0.0
 10
9.9165825446
 20
7.4302286205
 30
0.0
 10
9.921912324
 20
7.4284641749
 30
0.0
 10
9.9271258909
 20
7.4263224192
 30
0.0
 10
9.9321954097
 20
7.4238148674
 30
0.0
 10
9.9370938755
 20
7.4209548885
 30
0.0
 10
9.9417951836
 20
7.4177577706
 30
0.0
 10
9.9462743012
 20
7.4142405578
 30
0.0
 10
9.9505073164
 20
7.4104220829
 30
0.0
 10
9.9544718462
 20
7.4063224303
 30
0.0
 10
9.9593663817
 20
7.4005171216
 30
0.0
 10
9.964711744
 20
7.392673844
 30
0.0
 10
9.968922312
 20
7.3841906266
 30
0.0
 10
9.9715469894
 20
7.3771385052
 30
0.0
 10
9.9731323933
 20
7.3717521028
 30
0.0
 10
9.9743282619
 20
7.3662910305
 30
0.0
 10
9.9751283151
 20
7.3607841371
 30
0.0
 10
9.975528195
 20
7.3552608705
 30
0.0
 10
9.9755257194
 20
7.3497506832
 30
0.0
 10
9.9751208339
 20
7.3442829958
 30
0.0
 10
9.9743156318
 20
7.3388870103
 30
0.0
 10
9.9731143405
 20
7.3335915654
 30
0.0
 10
9.9715233132
 20
7.3284249774
 30
0.0
 10
9.9695510059
 20
7.323414886
 30
0.0
 10
9.9672079099
 20
7.3185880995
 30
0.0
 10
9.9645065382
 20
7.3139704828
 30
0.0
 10
9.9614612242
 20
7.3095866912
 30
0.0
 10
9.9580885544
 20
7.3054605017
 30
0.0
 10
9.9556327876
 20
7.3028951246
 30
0.0
 10
9.9543576726
 20
7.3016634721
 30
0.0
  0
SPLINE
  5
377
100
AcDbEntity
  8
0
100
AcDbSpline
 62
7
  6
CONTINUOUS
 70
0
 71
3
 72
11
 73
7
 74
0
 42
0.0000001
 43
0.0000001
 44
0.0000000001
 40
0.0
 40
0.0
 40
0.0
 40
0.0
 40
0.2520037181
 40
0.5026338505
 40
0.7519330985
 40
1.0
 40
1.0
 40
1.0
 40
1.0
 10
9.9766724924
 20
10.2502378998
 30
0.0
 10
9.9766724924
 20
10.248268498
 30
0.0
 10
9.976515918
 20
10.2443385775
 30
0.0
 10
9.9758083552
 20
10.2384987112
 30
0.0
 10
9.974633624
 20
10.2327659649
 30
0.0
 10
9.9735414746
 20
10.2290302174
 30
0.0
 10
9.9729206788
 20
10.227193666
 30
0.0
  0
SPLINE
  5
378
100
AcDbEntity
  8
0
100
AcDbSpline
 62
7
  6
CONTINUOUS
 70
0
 71
3
 72
39
 73
35
 74
0
 42
0.0000001
 43
0.0000001
 44
0.0000000001
 40
0.0
 40
0.0
 40
0.0
 40
0.0
 40
0.0310484207
 40
0.0622434145
 40
0.0935752878
 40
0.1250387826
 40
0.1566225119
 40
0.1883141354
 40
0.2200992304
 40
0.2519617495
 40
0.283884392
 40
0.3158488479
 40
0.3478361551
 40
0.3798270379
 40
0.4118022283
 40
0.4437427792
 40
0.4756303755
 40
0.5074476588
 40
0.5391785122
 40
0.5708083201
 40
0.6023242086
 40
0.6337152835
 40
0.6649728399
 40
0.6960905193
 40
0.7270644376
 40
0.7578932818
 40
0.788578385
 40
0.8191237388
 40
0.8495359534
 40
0.8798241715
 40
0.9099999406
 40
0.9400770378
 40
0.9700712329
 40
1.0
 40
1.0
 40
1.0
 40
1.0
 10
11.4688316727
 20
10.2225135719
 30
0.0
 10
11.4705554897
 20
10.2223940248
 30
0.0
 10
11.4740041559
 20
10.2220354855
 30
0.0
 10
11.4791392952
 20
10.2211462128
 30
0.0
 10
11.4842256841
 20
10.2199082777
 30
0.0
 10
11.4892388683
 20
10.218327922
 30
0.0
 10
11.4941553697
 20
10.2164126855
 30
0.0
 10
11.4989520003
 20
10.2141719013
 30
0.0
 10
11.5036062848
 20
10.2116164096
 30
0.0
 10
11.5080964674
 20
10.2087585267
 30
0.0
 10
11.5124016391
 20
10.2056119742
 30
0.0
 10
11.51650182
 20
10.2021917853
 30
0.0
 10
11.5203780751
 20
10.1985142561
 30
0.0
 10
11.5240125884
 20
10.1945968373
 30
0.0
 10
11.5273887195
 20
10.1904580255
 30
0.0
 10
11.5304910696
 20
10.1861172743
 30
0.0
 10
11.5333055374
 20
10.1815948988
 30
0.0
 10
11.5358194071
 20
10.1769119987
 30
0.0
 10
11.5380213534
 20
10.1720903318
 30
0.0
 10
11.5399014797
 20
10.1671522213
 30
0.0
 10
11.5414513395
 20
10.1621204583
 30
0.0
 10
11.542663993
 20
10.1570182162
 30
0.0
 10
11.543534029
 20
10.1518689489
 30
0.0
 10
11.5440575479
 20
10.1466962882
 30
0.0
 10
11.5442321792
 20
10.1415239556
 30
0.0
 10
11.5440570865
 20
10.1363756707
 30
0.0
 10
11.5435330188
 20
10.1312750555
 30
0.0
 10
11.5426622638
 20
10.126245536
 30
0.0
 10
11.5414486467
 20
10.1213102558
 30
0.0
 10
11.5398975091
 20
10.1164919775
 30
0.0
 10
11.5380157532
 20
10.1118130128
 30
0.0
 10
11.535811736
 20
10.1072949969
 30
0.0
 10
11.5332955441
 20
10.1029592582
 30
0.0
 10
11.5314153508
 20
10.1002006766
 30
0.0
 10
11.530427782
 20
10.0988593789
 30
0.0
  0
SPLINE
  5
379
100
AcDbEntity
  8
0
100
AcDbSpline
 62
7
  6
CONTINUOUS
 70
0
 71
3
 72
40
 73
36
 74
0
 42
0.0000001
 43
0.0000001
 44
0.0000000001
 40
0.0
 40
0.0
 40
0.0
 40
0.0
 40
0.0312686989
 40
0.0627081131
 40
0.0943084863
 40
0.1260579256
 40
0.1579396659
 40
0.189934218
 40
0.2220192302
 40
0.2541703125
 40
0.2863615762
 40
0.31856629
 40
0.350757511
 40
0.3829087157
 40
0.4149944122
 40
0.446990725
 40
0.4788759471
 40
0.5106310464
 40
0.5422401222
 40
0.5736908018
 40
0.604974571
 40
0.6360870273
 40
0.6670280492
 40
0.6978018696
 40
0.7284170473
 40
0.758886327
 40
0.7892263843
 40
0.8194574521
 40
0.849602834
 40
0.8646548215
 40
0.8796952286
 40
0.9097483666
 40
0.9397977643
 40
0.9698722389
 40
1.0
 40
1.0
 40
1.0
 40
1.0
 10
11.4688319369
 20
7.3247358858
 30
0.0
 10
11.4708626041
 20
7.3245950585
 30
0.0
 10
11.4749254269
 20
7.3241475313
 30
0.0
 10
11.4809608534
 20
7.322989805
 30
0.0
 10
11.4869166669
 20
7.3213513837
 30
0.0
 10
11.4927533432
 20
7.3192434624
 30
0.0
 10
11.4984329635
 20
7.3166801743
 30
0.0
 10
11.5039185515
 20
7.3136787553
 30
0.0
 10
11.5091745915
 20
7.3102592474
 30
0.0
 10
11.5141671919
 20
7.3064444034
 30
0.0
 10
11.5188643148
 20
7.3022594729
 30
0.0
 10
11.5232359674
 20
7.2977320176
 30
0.0
 10
11.527254375
 20
7.2928916995
 30
0.0
 10
11.5308941326
 20
7.2877700682
 30
0.0
 10
11.5341323364
 20
7.2824003413
 30
0.0
 10
11.5369486956
 20
7.2768171829
 30
0.0
 10
11.5393256282
 20
7.2710564828
 30
0.0
 10
11.5412483366
 20
7.2651551349
 30
0.0
 10
11.5427048695
 20
7.2591508178
 30
0.0
 10
11.5436861701
 20
7.2530817787
 30
0.0
 10
11.5441861132
 20
7.2469866193
 30
0.0
 10
11.5442015304
 20
7.2409040836
 30
0.0
 10
11.5437322257
 20
7.2348728462
 30
0.0
 10
11.5427809831
 20
7.2289313033
 30
0.0
 10
11.5413535573
 20
7.2231173537
 30
0.0
 10
11.5394586794
 20
7.2174682107
 30
0.0
 10
11.5371079582
 20
7.2120200918
 30
0.0
 10
11.5343161104
 20
7.2068083476
 30
0.0
 10
11.5316343931
 20
7.2026873051
 30
0.0
 10
11.5292883744
 20
7.1995437984
 30
0.0
 10
11.5268135823
 20
7.1965083824
 30
0.0
 10
11.5234802278
 20
7.192919304
 30
0.0
 10
11.5191243823
 20
7.1889730724
 30
0.0
 10
11.5144411416
 20
7.1854138896
 30
0.0
 10
11.5111235841
 20
7.1833168197
 30
0.0
 10
11.5094223647
 20
7.1823408906
 30
0.0
  0
SPLINE
  5
37A
100
AcDbEntity
  8
0
100
AcDbSpline
 62
7
  6
CONTINUOUS
 70
0
 71
3
 72
23
 73
19
 74
0
 42
0.0000001
 43
0.0000001
 44
0.0000000001
 40
0.0
 40
0.0
 40
0.0
 40
0.0
 40
0.0639326169
 40
0.1275595874
 40
0.1908823889
 40
0.2539227745
 40
0.316700758
 40
0.3792442305
 40
0.4415852965
 40
0.5037598693
 40
0.5658068099
 40
0.6277668322
 40
0.6896816848
 40
0.7515932603
 40
0.8135426285
 40
0.8755692236
 40
0.9377102114
 40
1.0
 40
1.0
 40
1.0
 40
1.0
 10
11.2155190756
 20
10.0426169864
 30
0.0
 10
11.2155190756
 20
10.0409097354
 30
0.0
 10
11.215399072
 20
10.0375021356
 30
0.0
 10
11.2148571677
 20
10.0324295485
 30
0.0
 10
11.2139567919
 20
10.0274320799
 30
0.0
 10
11.2127034085
 20
10.0225347019
 30
0.0
 10
11.2111041798
 20
10.0177610034
 30
0.0
 10
11.2091683498
 20
10.0131338392
 30
0.0
 10
11.2069069054
 20
10.0086748537
 30
0.0
 10
11.2043324529
 20
10.0044044554
 30
0.0
 10
11.2014590506
 20
10.0003416962
 30
0.0
 10
11.1983020249
 20
9.9965042135
 30
0.0
 10
11.1948778384
 20
9.9929081597
 30
0.0
 10
11.191203906
 20
9.9895681743
 30
0.0
 10
11.1872984439
 20
9.9864974316
 30
0.0
 10
11.1831802149
 20
9.9837076081
 30
0.0
 10
11.178868858
 20
9.9812091123
 30
0.0
 10
11.1758824276
 20
9.9797452455
 30
0.0
 10
11.1743646079
 20
9.9790647604
 30
0.0
  0
SPLINE
  5
37B
100
AcDbEntity
  8
0
100
AcDbSpline
 62
7
  6
CONTINUOUS
 70
0
 71
3
 72
23
 73
19
 74
0
 42
0.0000001
 43
0.0000001
 44
0.0000000001
 40
0.0
 40
0.0
 40
0.0
 40
0.0
 40
0.0639326169
 40
0.1275595874
 40
0.1908823889
 40
0.2539227745
 40
0.316700758
 40
0.3792442305
 40
0.4415852965
 40
0.5037598693
 40
0.5658068099
 40
0.6277668322
 40
0.6896816848
 40
0.7515932603
 40
0.8135426285
 40
0.8755692236
 40
0.9377102114
 40
1.0
 40
1.0
 40
1.0
 40
1.0
 10
11.2155190756
 20
7.3863208355
 30
0.0
 10
11.2155190756
 20
7.3846135845
 30
0.0
 10
11.215399072
 20
7.3812059847
 30
0.0
 10
11.2148571677
 20
7.3761333976
 30
0.0
 10
11.2139567919
 20
7.371135929
 30
0.0
 10
11.2127034085
 20
7.366238551
 30
0.0
 10
11.2111041798
 20
7.3614648525
 30
0.0
 10
11.2091683498
 20
7.3568376883
 30
0.0
 10
11.2069069054
 20
7.3523787028
 30
0.0
 10
11.2043324529
 20
7.3481083045
 30
0.0
 10
11.2014590506
 20
7.3440455453
 30
0.0
 10
11.1983020249
 20
7.3402080626
 30
0.0
 10
11.1948778384
 20
7.3366120088
 30
0.0
 10
11.191203906
 20
7.3332720234
 30
0.0
 10
11.1872984439
 20
7.3302012807
 30
0.0
 10
11.1831802149
 20
7.3274114572
 30
0.0
 10
11.178868858
 20
7.3249129614
 30
0.0
 10
11.1758824276
 20
7.3234490946
 30
0.0
 10
11.1743646079
 20
7.3227686095
 30
0.0
  0
SPLINE
  5
37C
100
AcDbEntity
  8
0
100
AcDbSpline
 62
7
  6
CONTINUOUS
 70
0
 71
3
 72
41
 73
37
 74
0
 42
0.0000001
 43
0.0000001
 44
0.0000000001
 40
0.0
 40
0.0
 40
0.0
 40
0.0
 40
0.0326783315
 40
0.048996403
 40
0.0652946017
 40
0.0978181138
 40
0.1302353576
 40
0.1464017532
 40
0.1625360873
 40
0.194698348
 40
0.2267186638
 40
0.2585920543
 40
0.2903168616
 40
0.3218944728
 40
0.3533289785
 40
0.3846267946
 40
0.4157962772
 40
0.4468473524
 40
0.4777911832
 40
0.5086398683
 40
0.5394061766
 40
0.5701033246
 40
0.6007447935
 40
0.6313441823
 40
0.6619150943
 40
0.6924710566
 40
0.7230254423
 40
0.753591394
 40
0.7841817767
 40
0.8148091391
 40
0.8454856746
 40
0.8762231621
 40
0.9070328993
 40
0.9379256437
 40
0.9689115357
 40
1.0
 40
1.0
 40
1.0
 40
1.0
 10
10.1488608692
 20
9.5589923343
 30
0.0
 10
10.1461476058
 20
9.5626533186
 30
0.0
 10
10.1422720233
 20
9.568289207
 30
0.0
 10
10.1375189976
 20
9.5760567202
 30
0.0
 10
10.1330548348
 20
9.5839694314
 30
0.0
 10
10.12801613
 20
9.59412672
 30
0.0
 10
10.1237152911
 20
9.6045978282
 30
0.0
 10
10.120731924
 20
9.6131167442
 30
0.0
 10
10.118059893
 20
9.6217011063
 30
0.0
 10
10.1152938058
 20
9.6325641066
 30
0.0
 10
10.1128949289
 20
9.6457526126
 30
0.0
 10
10.1114141999
 20
9.6590141541
 30
0.0
 10
10.110840461
 20
9.6722836067
 30
0.0
 10
10.1111572174
 20
9.6855001901
 30
0.0
 10
10.1123437881
 20
9.6986071244
 30
0.0
 10
10.114376144
 20
9.7115518854
 30
0.0
 10
10.1172277304
 20
9.7242860905
 30
0.0
 10
10.1208701676
 20
9.7367653233
 30
0.0
 10
10.1252738405
 20
9.7489488592
 30
0.0
 10
10.1304083785
 20
9.7607993425
 30
0.0
 10
10.1362430296
 20
9.7722824307
 30
0.0
 10
10.1427469349
 20
9.7833664317
 30
0.0
 10
10.1498893187
 20
9.7940219465
 30
0.0
 10
10.1576396033
 20
9.8042215297
 30
0.0
 10
10.1659674635
 20
9.8139393727
 30
0.0
 10
10.1748428241
 20
9.823151015
 30
0.0
 10
10.1842358127
 20
9.831833081
 30
0.0
 10
10.1941166753
 20
9.8399630428
 30
0.0
 10
10.204455653
 20
9.8475190189
 30
0.0
 10
10.2152228354
 20
9.8544796068
 30
0.0
 10
10.2263879798
 20
9.8608237441
 30
0.0
 10
10.2379203241
 20
9.8665306117
 30
0.0
 10
10.2497882978
 20
9.8715795525
 30
0.0
 10
10.2619595243
 20
9.8759500937
 30
0.0
 10
10.274399646
 20
9.8796217751
 30
0.0
 10
10.2828354831
 20
9.8815871133
 30
0.0
 10
10.2870844669
 20
9.8824470028
 30
0.0
  0
SPLINE
  5
37D
100
AcDbEntity
  8
0
100
AcDbSpline
 62
7
  6
CONTINUOUS
 70
0
 71
3
 72
39
 73
35
 74
0
 42
0.0000001
 43
0.0000001
 44
0.0000000001
 40
0.0
 40
0.0
 40
0.0
 40
0.0
 40
0.0299152276
 40
0.0598232082
 40
0.0897580414
 40
0.1197507397
 40
0.1498295507
 40
0.1800183099
 40
0.210335989
 40
0.2407964731
 40
0.2714087065
 40
0.3021770837
 40
0.3331019838
 40
0.364180364
 40
0.3954063499
 40
0.4267717808
 40
0.4582666863
 40
0.4898796867
 40
0.5215983153
 40
0.5534092695
 40
0.5852986006
 40
0.61725185
 40
0.6492541454
 40
0.6812902654
 40
0.7133446832
 40
0.7454015989
 40
0.7774449685
 40
0.8094585417
 40
0.8414259165
 40
0.8733306249
 40
0.9051562603
 40
0.936886663
 40
0.9685061781
 40
1.0
 40
1.0
 40
1.0
 40
1.0
 10
10.1488608692
 20
8.0188573679
 30
0.0
 10
10.1519860129
 20
8.0226406399
 30
0.0
 10
10.1585930502
 20
8.0299189868
 30
0.0
 10
10.1694774931
 20
8.0398639468
 30
0.0
 10
10.1812459289
 20
8.0487677363
 30
0.0
 10
10.1938004258
 20
8.0565751721
 30
0.0
 10
10.2070391275
 20
8.0632474354
 30
0.0
 10
10.2208576991
 20
8.0687595452
 30
0.0
 10
10.2351522392
 20
8.0730998726
 30
0.0
 10
10.2498212966
 20
8.0762684221
 30
0.0
 10
10.2647674468
 20
8.0782751295
 30
0.0
 10
10.2798983196
 20
8.0791380431
 30
0.0
 10
10.2951271706
 20
8.0788816006
 30
0.0
 10
10.3103730654
 20
8.0775350746
 30
0.0
 10
10.3255607689
 20
8.0751312383
 30
0.0
 10
10.3406204226
 20
8.0717052702
 30
0.0
 10
10.3554870812
 20
8.0672938914
 30
0.0
 10
10.370100167
 20
8.0619347184
 30
0.0
 10
10.3844028844
 20
8.0556658067
 30
0.0
 10
10.3983416272
 20
8.0485253604
 30
0.0
 10
10.4118653992
 20
8.0405515838
 30
0.0
 10
10.4249252638
 20
8.0317826522
 30
0.0
 10
10.4374738312
 20
8.0222567866
 30
0.0
 10
10.4494647904
 20
8.0120124177
 30
0.0
 10
10.4608524916
 20
8.0010884281
 30
0.0
 10
10.471591582
 20
7.9895244667
 30
0.0
 10
10.4816367039
 20
7.9773613303
 30
0.0
 10
10.4909422604
 20
7.9646414053
 30
0.0
 10
10.4994622604
 20
7.9514091792
 30
0.0
 10
10.5071502662
 20
7.9377117692
 30
0.0
 10
10.5139594221
 20
7.9235996415
 30
0.0
 10
10.5198427404
 20
7.9091268353
 30
0.0
 10
10.5247531061
 20
7.8943531836
 30
0.0
 10
10.5273533368
 20
7.8843224359
 30
0.0
 10
10.5284748531
 20
7.8792795955
 30
0.0
  0
SPLINE
  5
37E
100
AcDbEntity
  8
0
100
AcDbSpline
 62
7
  6
CONTINUOUS
 70
0
 71
3
 72
29
 73
25
 74
0
 42
0.0000001
 43
0.0000001
 44
0.0000000001
 40
0.0
 40
0.0
 40
0.0
 40
0.0
 40
0.0319896515
 40
0.0638667936
 40
0.0956288807
 40
0.1272824526
 40
0.1588323674
 40
0.190284944
 40
0.2216477519
 40
0.2529290912
 40
0.2841379685
 40
0.315283475
 40
0.3463751749
 40
0.3774225668
 40
0.4394044785
 40
0.5013174375
 40
0.5632246059
 40
0.6251806686
 40
0.6872316618
 40
0.7494154587
 40
0.8117626066
 40
0.8742972978
 40
0.9370383331
 40
1.0
 40
1.0
 40
1.0
 40
1.0
 10
10.9587013234
 20
9.125411079
 30
0.0
 10
10.9587013234
 20
9.1229719001
 30
0.0
 10
10.9585741609
 20
9.1181011417
 30
0.0
 10
10.958000828
 20
9.1108288883
 30
0.0
 10
10.9570481854
 20
9.1036221818
 30
0.0
 10
10.9557214651
 20
9.0965003336
 30
0.0
 10
10.9540277079
 20
9.0894810494
 30
0.0
 10
10.9519756892
 20
9.082581206
 30
0.0
 10
10.9495755634
 20
9.0758163994
 30
0.0
 10
10.9468388691
 20
9.0692008103
 30
0.0
 10
10.9437781429
 20
9.0627471837
 30
0.0
 10
10.9404065992
 20
9.0564669248
 30
0.0
 10
10.9367380228
 20
9.0503697448
 30
0.0
 10
10.9314734581
 20
9.0425014389
 30
0.0
 10
10.9242166827
 20
9.0331554042
 30
0.0
 10
10.9145455478
 20
9.022778464
 30
0.0
 10
10.9040239467
 20
9.0132694285
 30
0.0
 10
10.8927558349
 20
9.0046436058
 30
0.0
 10
10.8808367236
 20
8.9969059892
 30
0.0
 10
10.8683540716
 20
8.9900552144
 30
0.0
 10
10.8553874578
 20
8.9840854946
 30
0.0
 10
10.8420089819
 20
8.978988382
 30
0.0
 10
10.8282851537
 20
8.9747542706
 30
0.0
 10
10.8189610915
 20
8.9725038579
 30
0.0
 10
10.8142624959
 20
8.9715187003
 30
0.0
  0
SPLINE
  5
37F
100
AcDbEntity
  8
0
100
AcDbSpline
 62
7
  6
CONTINUOUS
 70
0
 71
3
 72
15
 73
11
 74
0
 42
0.0000001
 43
0.0000001
 44
0.0000000001
 40
0.0
 40
0.0
 40
0.0
 40
0.0
 40
0.1239292876
 40
0.247984899
 40
0.3722686287
 40
0.4968724334
 40
0.6218809595
 40
0.7473671169
 40
0.873391276
 40
1.0
 40
1.0
 40
1.0
 40
1.0
 10
11.4730036404
 20
8.5427217717
 30
0.0
 10
11.469378698
 20
8.5393482199
 30
0.0
 10
11.4618490769
 20
8.5328874834
 30
0.0
 10
11.4498049225
 20
8.5241323131
 30
0.0
 10
11.4370745187
 20
8.5163554561
 30
0.0
 10
11.4237323582
 20
8.5095987759
 30
0.0
 10
11.4098552872
 20
8.5038957935
 30
0.0
 10
11.3955224834
 20
8.4992729942
 30
0.0
 10
11.38081607
 20
8.4957496483
 30
0.0
 10
11.3708385212
 20
8.4941452817
 30
0.0
 10
11.365817367
 20
8.4935281453
 30
0.0
  0
SPLINE
  5
380
100
AcDbEntity
  8
0
100
AcDbSpline
 62
7
  6
CONTINUOUS
 70
0
 71
3
 72
34
 73
30
 74
0
 42
0.0000001
 43
0.0000001
 44
0.0000000001
 40
0.0
 40
0.0
 40
0.0
 40
0.0
 40
0.029600246
 40
0.058999209
 40
0.0882493066
 40
0.1174038678
 40
0.146515856
 40
0.1756368941
 40
0.2048160912
 40
0.2340994373
 40
0.2635293111
 40
0.2931438213
 40
0.322976529
 40
0.3530559265
 40
0.4140228585
 40
0.4761721779
 40
0.5395068642
 40
0.5715983829
 40
0.6039388385
 40
0.6692331068
 40
0.7351413383
 40
0.7682459637
 40
0.8013993749
 40
0.8345713487
 40
0.8677362241
 40
0.9008735669
 40
0.9339685336
 40
0.9670119414
 40
1.0
 40
1.0
 40
1.0
 40
1.0
 10
10.8708791226
 20
8.4700499169
 30
0.0
 10
10.8684510558
 20
8.4683457267
 30
0.0
 10
10.8637151946
 20
8.4647982861
 30
0.0
 10
10.8569706046
 20
8.4590694753
 30
0.0
 10
10.8506151564
 20
8.4529759682
 30
0.0
 10
10.8446503803
 20
8.4465391327
 30
0.0
 10
10.8390761044
 20
8.4397783204
 30
0.0
 10
10.8338917114
 20
8.4327113082
 30
0.0
 10
10.8290964611
 20
8.4253544058
 30
0.0
 10
10.8246898494
 20
8.4177227995
 30
0.0
 10
10.8206720242
 20
8.4098307281
 30
0.0
 10
10.8170439884
 20
8.4016919558
 30
0.0
 10
10.8138075566
 20
8.3933197873
 30
0.0
 10
10.8100020562
 20
8.3818146568
 30
0.0
 10
10.8062522036
 20
8.3669002762
 30
0.0
 10
10.8034160993
 20
8.3484053374
 30
0.0
 10
10.8024702325
 20
8.3326176332
 30
0.0
 10
10.8025806029
 20
8.3198099557
 30
0.0
 10
10.8032892441
 20
8.3068244865
 30
0.0
 10
10.8053160475
 20
8.2905355293
 30
0.0
 10
10.8088711727
 20
8.2744306056
 30
0.0
 10
10.8126466457
 20
8.2617302981
 30
0.0
 10
10.8159478426
 20
8.2523240756
 30
0.0
 10
10.8197109944
 20
8.243086521
 30
0.0
 10
10.823931331
 20
8.2340502516
 30
0.0
 10
10.8286022382
 20
8.2252470664
 30
0.0
 10
10.8337155479
 20
8.2167072015
 30
0.0
 10
10.839261209
 20
8.2084597866
 30
0.0
 10
10.843242871
 20
8.2031695308
 30
0.0
 10
10.8453014088
 20
8.2005826849
 30
0.0
  0
SPLINE
  5
381
100
AcDbEntity
  8
0
100
AcDbSpline
 62
7
  6
CONTINUOUS
 70
0
 71
3
 72
11
 73
7
 74
0
 42
0.0000001
 43
0.0000001
 44
0.0000000001
 40
0.0
 40
0.0
 40
0.0
 40
0.0
 40
0.2486310942
 40
0.4997467994
 40
0.7509809199
 40
1.0
 40
1.0
 40
1.0
 40
1.0
 10
10.3253443421
 20
9.8797404694
 30
0.0
 10
10.3211154093
 20
9.8802704171
 30
0.0
 10
10.3125760057
 20
9.8810436642
 30
0.0
 10
10.2996972774
 20
9.8813448535
 30
0.0
 10
10.2868200298
 20
9.8808078118
 30
0.0
 10
10.278285111
 20
9.8799142883
 30
0.0
 10
10.2740549572
 20
9.8793422279
 30
0.0
  0
SPLINE
  5
382
100
AcDbEntity
  8
0
100
AcDbSpline
 62
7
  6
CONTINUOUS
 70
0
 71
3
 72
18
 73
14
 74
0
 42
0.0000001
 43
0.0000001
 44
0.0000000001
 40
0.0
 40
0.0
 40
0.0
 40
0.0
 40
0.158815694
 40
0.3110099942
 40
0.4554026435
 40
0.590545149
 40
0.7146905489
 40
0.7720174393
 40
0.8258067144
 40
0.8757745705
 40
0.9216390696
 40
0.9631265233
 40
1.0
 40
1.0
 40
1.0
 40
1.0
 10
10.4589376658
 20
9.5813004722
 30
0.0
 10
10.4593772679
 20
9.5824366951
 30
0.0
 10
10.4602076333
 20
9.5846737374
 30
0.0
 10
10.4613287246
 20
9.5879829322
 30
0.0
 10
10.4622963099
 20
9.591150877
 30
0.0
 10
10.4631045576
 20
9.594140807
 30
0.0
 10
10.4636540744
 20
9.596507342
 30
0.0
 10
10.4640049268
 20
9.5982777756
 30
0.0
 10
10.4642164651
 20
9.5994953686
 30
0.0
 10
10.4643825755
 20
9.6006312102
 30
0.0
 10
10.4645025329
 20
9.6016779709
 30
0.0
 10
10.4645757318
 20
9.6026283409
 30
0.0
 10
10.4645942259
 20
9.6032295179
 30
0.0
 10
10.464593942
 20
9.6035123798
 30
0.0
  0
SPLINE
  5
383
100
AcDbEntity
  8
0
100
AcDbSpline
 62
7
  6
CONTINUOUS
 70
0
 71
3
 72
9
 73
5
 74
0
 42
0.0000001
 43
0.0000001
 44
0.0000000001
 40
0.0
 40
0.0
 40
0.0
 40
0.0
 40
0.2450757125
 40
1.0
 40
1.0
 40
1.0
 40
1.0
 10
10.4641554175
 20
9.7597385089
 30
0.0
 10
10.4642308183
 20
9.7606549997
 30
0.0
 10
10.4644952563
 20
9.7643981424
 30
0.0
 10
10.4645946664
 20
9.7681522169
 30
0.0
 10
10.4645939518
 20
9.7709848873
 30
0.0
  0
SPLINE
  5
384
100
AcDbEntity
  8
0
100
AcDbSpline
 62
7
  6
CONTINUOUS
 70
0
 71
3
 72
25
 73
21
 74
0
 42
0.0000001
 43
0.0000001
 44
0.0000000001
 40
0.0
 40
0.0
 40
0.0
 40
0.0
 40
0.0645477476
 40
0.1289320908
 40
0.1931003277
 40
0.2570055557
 40
0.3206120137
 40
0.3838945782
 40
0.4468390707
 40
0.5094417079
 40
0.5717080392
 40
0.6336516892
 40
0.6952929567
 40
0.7260132851
 40
0.7566679547
 40
0.8177854219
 40
0.8786884703
 40
0.9090745902
 40
0.9394210765
 40
1.0
 40
1.0
 40
1.0
 40
1.0
 10
10.3384293378
 20
9.7740868748
 30
0.0
 10
10.3415921684
 20
9.7698192932
 30
0.0
 10
10.3475608358
 20
9.7610297265
 30
0.0
 10
10.3553789977
 20
9.7471752931
 30
0.0
 10
10.3620050875
 20
9.7327699243
 30
0.0
 10
10.3674019373
 20
9.7179290935
 30
0.0
 10
10.3715490812
 20
9.7027675675
 30
0.0
 10
10.3744404753
 20
9.6873982162
 30
0.0
 10
10.3760833542
 20
9.6719293397
 30
0.0
 10
10.3764962523
 20
9.656463165
 30
0.0
 10
10.3757069432
 20
9.6410945341
 30
0.0
 10
10.3737506632
 20
9.6259112274
 30
0.0
 10
10.3711782706
 20
9.6134630142
 30
0.0
 10
10.3685784218
 20
9.6036770867
 30
0.0
 10
10.3656317927
 20
9.5940349554
 30
0.0
 10
10.3613019295
 20
9.5822278687
 30
0.0
 10
10.3561409912
 20
9.5707844436
 30
0.0
 10
10.3515438316
 20
9.5618906033
 30
0.0
 10
10.3466487742
 20
9.5531882474
 30
0.0
 10
10.3426381991
 20
9.546861824
 30
0.0
 10
10.3398245359
 20
9.5427464942
 30
0.0
  0
SPLINE
  5
385
100
AcDbEntity
  8
0
100
AcDbSpline
 62
7
  6
CONTINUOUS
 70
0
 71
3
 72
37
 73
33
 74
0
 42
0.0000001
 43
0.0000001
 44
0.0000000001
 40
0.0
 40
0.0
 40
0.0
 40
0.0
 40
0.0821185298
 40
0.1230201074
 40
0.1637697479
 40
0.2446666926
 40
0.3245569464
 40
0.3640423256
 40
0.4031632057
 40
0.480117236
 40
0.5550242398
 40
0.6273628073
 40
0.6964498176
 40
0.7295088922
 40
0.7613989538
 40
0.7919689995
 40
0.8210539798
 40
0.848479057
 40
0.8740675217
 40
0.8976510397
 40
0.9190823999
 40
0.9382495222
 40
0.9469626024
 40
0.9550900482
 40
0.9626332934
 40
0.9695962056
 40
0.9759889585
 40
0.9818237875
 40
0.9871179706
 40
0.9918938631
 40
0.9961770113
 40
1.0
 40
1.0
 40
1.0
 40
1.0
 10
10.4879829483
 20
9.8043547041
 30
0.0
 10
10.4909489738
 20
9.80035267
 30
0.0
 10
10.4951543855
 20
9.7941752163
 30
0.0
 10
10.5002387896
 20
9.7856383916
 30
0.0
 10
10.5049400378
 20
9.7769683411
 30
0.0
 10
10.5101156785
 20
9.7658772979
 30
0.0
 10
10.5143593973
 20
9.7544793662
 30
0.0
 10
10.5171696674
 20
9.7452825083
 30
0.0
 10
10.5195687767
 20
9.7361540957
 30
0.0
 10
10.5218545879
 20
9.7247838008
 30
0.0
 10
10.5234973391
 20
9.7112701368
 30
0.0
 10
10.5240867926
 20
9.6981483753
 30
0.0
 10
10.5237714582
 20
9.6875581944
 30
0.0
 10
10.5230751937
 20
9.6794558815
 30
0.0
 10
10.5223681333
 20
9.6737036192
 30
0.0
 10
10.5214900327
 20
9.6682191119
 30
0.0
 10
10.5204649935
 20
9.6630360226
 30
0.0
 10
10.5193197136
 20
9.6581882215
 30
0.0
 10
10.5180828607
 20
9.6537083295
 30
0.0
 10
10.5167843377
 20
9.6496259287
 30
0.0
 10
10.515454109
 20
9.6459657814
 30
0.0
 10
10.5143095974
 20
9.6432008317
 30
0.0
 10
10.513397671
 20
9.6412158368
 30
0.0
 10
10.5127443838
 20
9.6398885849
 30
0.0
 10
10.5121024685
 20
9.6386746922
 30
0.0
 10
10.5114741922
 20
9.63757332
 30
0.0
 10
10.5108615129
 20
9.6365831717
 30
0.0
 10
10.5102660744
 20
9.6357023468
 30
0.0
 10
10.5096891225
 20
9.634928584
 30
0.0
 10
10.5091315564
 20
9.6342592044
 30
0.0
 10
10.5085940487
 20
9.6336912396
 30
0.0
 10
10.5082294948
 20
9.6333602239
 30
0.0
 10
10.508050478
 20
9.6332128059
 30
0.0
  0
SPLINE
  5
386
100
AcDbEntity
  8
0
100
AcDbSpline
 62
7
  6
CONTINUOUS
 70
0
 71
3
 72
39
 73
35
 74
0
 42
0.0000001
 43
0.0000001
 44
0.0000000001
 40
0.0
 40
0.0
 40
0.0
 40
0.0
 40
0.0761045614
 40
0.1533638414
 40
0.2310945098
 40
0.308606284
 40
0.3852117318
 40
0.4229632652
 40
0.4602356444
 40
0.4969471857
 40
0.533017899
 40
0.5683697145
 40
0.6029267318
 40
0.6366155259
 40
0.6693654831
 40
0.7011090544
 40
0.7317820724
 40
0.7613241683
 40
0.7896792262
 40
0.8167957883
 40
0.8426276049
 40
0.8671343875
 40
0.8902826946
 40
0.9120469165
 40
0.9224050883
 40
0.9324120712
 40
0.9420675339
 40
0.9513720755
 40
0.9603272196
 40
0.9689354834
 40
0.9772009228
 40
0.9851288947
 40
0.9927259654
 40
1.0
 40
1.0
 40
1.0
 40
1.0
 10
11.4819620728
 20
6.2039386531
 30
0.0
 10
11.4928852427
 20
6.2031811287
 30
0.0
 10
11.5149190396
 20
6.2019533818
 30
0.0
 10
11.5481559042
 20
6.2009604832
 30
0.0
 10
11.5816099322
 20
6.2008066568
 30
0.0
 10
11.6149630002
 20
6.2014934197
 30
0.0
 10
11.6425418107
 20
6.2027666482
 30
0.0
 10
11.6643101873
 20
6.204206541
 30
0.0
 10
11.6803355451
 20
6.2054848516
 30
0.0
 10
11.6961007755
 20
6.2069636322
 30
0.0
 10
11.7115684195
 20
6.2086393578
 30
0.0
 10
11.7267016915
 20
6.2105080084
 30
0.0
 10
11.741464612
 20
6.2125651175
 30
0.0
 10
11.7558220901
 20
6.2148057638
 30
0.0
 10
11.769740017
 20
6.2172245673
 30
0.0
 10
11.7831853399
 20
6.2198157296
 30
0.0
 10
11.7961261388
 20
6.2225730469
 30
0.0
 10
11.8085317194
 20
6.2254899133
 30
0.0
 10
11.8203726956
 20
6.2285593228
 30
0.0
 10
11.8316210611
 20
6.2317739166
 30
0.0
 10
11.8422502367
 20
6.2351260047
 30
0.0
 10
11.8522352511
 20
6.2386075767
 30
0.0
 10
11.8615525255
 20
6.2422103204
 30
0.0
 10
11.8688583796
 20
6.2453562111
 30
0.0
 10
11.8743446087
 20
6.2479341769
 30
0.0
 10
11.8782108155
 20
6.2498606263
 30
0.0
 10
11.8818944084
 20
6.2518108989
 30
0.0
 10
11.8853932279
 20
6.2537838481
 30
0.0
 10
11.8887052264
 20
6.2557782756
 30
0.0
 10
11.8918284512
 20
6.257793088
 30
0.0
 10
11.8947611325
 20
6.259827107
 30
0.0
 10
11.8975015921
 20
6.2618792405
 30
0.0
 10
11.9000480707
 20
6.2639482258
 30
0.0
 10
11.9016496054
 20
6.2653682557
 30
0.0
 10
11.9024157453
 20
6.2660811879
 30
0.0
  0
SPLINE
  5
387
100
AcDbEntity
  8
0
100
AcDbSpline
 62
7
  6
CONTINUOUS
 70
0
 71
3
 72
17
 73
13
 74
0
 42
0.0000001
 43
0.0000001
 44
0.0000000001
 40
0.0
 40
0.0
 40
0.0
 40
0.0
 40
0.1480475465
 40
0.2876832517
 40
0.4195860392
 40
0.482920882
 40
0.5446651876
 40
0.6639007805
 40
0.7785650961
 40
0.8900650781
 40
0.9451345358
 40
1.0
 40
1.0
 40
1.0
 40
1.0
 10
12.3618219421
 20
6.7087617772
 30
0.0
 10
12.3628498071
 20
6.7097546186
 30
0.0
 10
12.3647868933
 20
6.7117480228
 30
0.0
 10
12.3673913841
 20
6.7148546407
 30
0.0
 10
12.3692594955
 20
6.7174982484
 30
0.0
 10
12.370546049
 20
6.7196201579
 30
0.0
 10
12.3716696369
 20
6.7216944598
 30
0.0
 10
12.3728372854
 20
6.7243048762
 30
0.0
 10
12.3738528128
 20
6.7274880271
 30
0.0
 10
12.3743638609
 20
6.730161858
 30
0.0
 10
12.3745661075
 20
6.7322908522
 30
0.0
 10
12.3745997346
 20
6.7333523685
 30
0.0
 10
12.3745997305
 20
6.7338819725
 30
0.0
  0
SPLINE
  5
388
100
AcDbEntity
  8
0
100
AcDbSpline
 62
7
  6
CONTINUOUS
 70
0
 71
3
 72
11
 73
7
 74
0
 42
0.0000001
 43
0.0000001
 44
0.0000000001
 40
0.0
 40
0.0
 40
0.0
 40
0.0
 40
0.2375758874
 40
0.4842713216
 40
0.7388452898
 40
1.0
 40
1.0
 40
1.0
 40
1.0
 10
10.8115909397
 20
8.2653765753
 30
0.0
 10
10.8189556488
 20
8.2666192037
 30
0.0
 10
10.8340029449
 20
8.2689471451
 30
0.0
 10
10.8570399264
 20
8.2719320893
 30
0.0
 10
10.8808764738
 20
8.2744645779
 30
0.0
 10
10.8970338402
 20
8.2758266641
 30
0.0
 10
10.9052215507
 20
8.2764321326
 30
0.0
  0
SPLINE
  5
389
100
AcDbEntity
  8
0
100
AcDbSpline
 62
7
  6
CONTINUOUS
 70
0
 71
3
 72
18
 73
14
 74
0
 42
0.0000001
 43
0.0000001
 44
0.0000000001
 40
0.0
 40
0.0
 40
0.0
 40
0.0
 40
0.0548620589
 40
0.1099280789
 40
0.165399508
 40
0.2214731255
 40
0.2783387361
 40
0.3361775086
 40
0.4554063416
 40
0.5804417492
 40
0.7123343341
 40
0.8519577333
 40
1.0
 40
1.0
 40
1.0
 40
1.0
 10
11.657
 20
10.8072685876
 30
0.0
 10
11.6569999999
 20
10.8063407203
 30
0.0
 10
11.6569410977
 20
10.8044810033
 30
0.0
 10
11.6566762951
 20
10.8016944535
 30
0.0
 10
11.6562351081
 20
10.7989095095
 30
0.0
 10
11.6556176823
 20
10.7961271883
 30
0.0
 10
11.654824257
 20
10.7933481925
 30
0.0
 10
11.6535192499
 20
10.7896111882
 30
0.0
 10
11.6514286507
 20
10.7849371963
 30
0.0
 10
11.6482466283
 20
10.7794171941
 30
0.0
 10
11.6443710975
 20
10.7739329213
 30
0.0
 10
11.6398079547
 20
10.7684898825
 30
0.0
 10
11.6364141745
 20
10.7649975114
 30
0.0
 10
11.6346133055
 20
10.7632580054
 30
0.0
  0
SPLINE
  5
38A
100
AcDbEntity
  8
0
100
AcDbSpline
 62
7
  6
CONTINUOUS
 70
0
 71
3
 72
55
 73
51
 74
0
 42
0.0000001
 43
0.0000001
 44
0.0000000001
 40
0.0
 40
0.0
 40
0.0
 40
0.0
 40
0.0077405257
 40
0.0160544501
 40
0.0249606726
 40
0.0344721687
 40
0.044595521
 40
0.0553324833
 40
0.0666807747
 40
0.0786348526
 40
0.0911862043
 40
0.1043237792
 40
0.1180344224
 40
0.1323028749
 40
0.1471122616
 40
0.162444009
 40
0.1782781527
 40
0.1945934236
 40
0.2285751811
 40
0.2641976254
 40
0.3012529971
 40
0.3395210523
 40
0.3787713176
 40
0.4187652369
 40
0.4592582441
 40
0.5000017836
 40
0.5407453086
 40
0.5812382691
 40
0.6212321052
 40
0.6604822534
 40
0.6987501673
 40
0.7358053802
 40
0.7714276421
 40
0.8054091819
 40
0.8217243075
 40
0.837558339
 40
0.8528899611
 40
0.8676991902
 40
0.8819675391
 40
0.8956779981
 40
0.9088154605
 40
0.9213666419
 40
0.9333205641
 40
0.9446687312
 40
0.9554054953
 40
0.9655287052
 40
0.975040063
 40
0.98394624
 40
0.9922596592
 40
1.0
 40
1.0
 40
1.0
 40
1.0
 10
10.4960970715
 20
10.6155449171
 30
0.0
 10
10.4953259728
 20
10.6148273772
 30
0.0
 10
10.4936660099
 20
10.6134035262
 30
0.0
 10
10.4909429325
 20
10.6113699369
 30
0.0
 10
10.4879042175
 20
10.6093670252
 30
0.0
 10
10.4845548756
 20
10.6073979819
 30
0.0
 10
10.4809000878
 20
10.6054657058
 30
0.0
 10
10.4769456591
 20
10.6035733634
 30
0.0
 10
10.4726979576
 20
10.60172395
 30
0.0
 10
10.4681638326
 20
10.5999205083
 30
0.0
 10
10.4633506427
 20
10.5981659957
 30
0.0
 10
10.4582662343
 20
10.5964632832
 30
0.0
 10
10.4529189085
 20
10.5948152231
 30
0.0
 10
10.447317427
 20
10.5932244967
 30
0.0
 10
10.4414709707
 20
10.5916937784
 30
0.0
 10
10.4353891437
 20
10.5902255844
 30
0.0
 10
10.4290819303
 20
10.5888223313
 30
0.0
 10
10.4202656733
 20
10.5870165714
 30
0.0
 10
10.4087565
 20
10.5849476772
 30
0.0
 10
10.3944021273
 20
10.5827898697
 30
0.0
 10
10.3794171795
 20
10.5809390189
 30
0.0
 10
10.3639002713
 20
10.579407495
 30
0.0
 10
10.3479534258
 20
10.5782055638
 30
0.0
 10
10.3316815983
 20
10.5773412614
 30
0.0
 10
10.3151919035
 20
10.5768203668
 30
0.0
 10
10.2985929139
 20
10.576646361
 30
0.0
 10
10.2819939312
 20
10.5768204077
 30
0.0
 10
10.2655042574
 20
10.5773413459
 30
0.0
 10
10.249232466
 20
10.5782056948
 30
0.0
 10
10.2332856706
 20
10.5794076716
 30
0.0
 10
10.2177688235
 20
10.5809392375
 30
0.0
 10
10.2027839463
 20
10.5827901246
 30
0.0
 10
10.1884296562
 20
10.5849479691
 30
0.0
 10
10.1769205621
 20
10.5870168864
 30
0.0
 10
10.1681043791
 20
10.5888226848
 30
0.0
 10
10.1617972213
 20
10.5902259476
 30
0.0
 10
10.1557154527
 20
10.591694155
 30
0.0
 10
10.1498690585
 20
10.5932249025
 30
0.0
 10
10.1442676379
 20
10.5948156218
 30
0.0
 10
10.1389203812
 20
10.5964637211
 30
0.0
 10
10.1338360373
 20
10.598166426
 30
0.0
 10
10.1290229195
 20
10.5999209627
 30
0.0
 10
10.1244888662
 20
10.601724418
 30
0.0
 10
10.1202412338
 20
10.6035738284
 30
0.0
 10
10.1162868933
 20
10.6054662075
 30
0.0
 10
10.1126321645
 20
10.6073984562
 30
0.0
 10
10.1092829028
 20
10.6093675496
 30
0.0
 10
10.1062442924
 20
10.6113704482
 30
0.0
 10
10.1035213123
 20
10.6134040003
 30
0.0
 10
10.1018614464
 20
10.6148278219
 30
0.0
 10
10.1010903878
 20
10.6155453679
 30
0.0
  0
LINE
  5
38B
100
AcDbEntity
  8
0
100
AcDbLine
 62
7
  6
CONTINUOUS
 10
10.4645939764
 20
9.7549234301
 11
10.4641554175
 21
9.7597385089
  0
SPLINE
  5
38C
100
AcDbEntity
  8
0
100
AcDbSpline
 62
7
  6
CONTINUOUS
 70
0
 71
3
 72
19
 73
15
 74
0
 42
0.0000001
 43
0.0000001
 44
0.0000000001
 40
0.0
 40
0.0
 40
0.0
 40
0.0
 40
0.0616584454
 40
0.1233399317
 40
0.185067215
 40
0.2468625626
 40
0.3087474945
 40
0.3707425066
 40
0.4328668994
 40
0.4951385746
 40
0.6201443393
 40
0.7459117862
 40
0.8725152911
 40
1.0
 40
1.0
 40
1.0
 40
1.0
 10
11.4620168821
 20
9.8184393619
 30
0.0
 10
11.4635935804
 20
9.8199623342
 30
0.0
 10
11.4668301708
 20
9.8229246452
 30
0.0
 10
11.4719178418
 20
9.8271016096
 30
0.0
 10
11.4772264525
 20
9.831002465
 30
0.0
 10
11.4827424062
 20
9.8346172619
 30
0.0
 10
11.4884519014
 20
9.8379368975
 30
0.0
 10
11.4943404652
 20
9.8409530021
 30
0.0
 10
11.5003934673
 20
9.8436580851
 30
0.0
 10
11.5086717073
 20
9.8468445178
 30
0.0
 10
11.5193627147
 20
9.8500168917
 30
0.0
 10
11.5325751716
 20
9.8524814958
 30
0.0
 10
11.5460573545
 20
9.8535867094
 30
0.0
 10
11.5551071164
 20
9.8534101805
 30
0.0
 10
11.5596286883
 20
9.8530966084
 30
0.0
  0
SPLINE
  5
38D
100
AcDbEntity
  8
0
100
AcDbSpline
 62
7
  6
CONTINUOUS
 70
0
 71
3
 72
19
 73
15
 74
0
 42
0.0000001
 43
0.0000001
 44
0.0000000001
 40
0.0
 40
0.0
 40
0.0
 40
0.0
 40
0.0616584454
 40
0.1233399317
 40
0.185067215
 40
0.2468625626
 40
0.3087474945
 40
0.3707425066
 40
0.4328668994
 40
0.4951385746
 40
0.6201443393
 40
0.7459117862
 40
0.8725152911
 40
1.0
 40
1.0
 40
1.0
 40
1.0
 10
11.4620168821
 20
7.7658468594
 30
0.0
 10
11.4635935804
 20
7.7673698317
 30
0.0
 10
11.4668301708
 20
7.7703321428
 30
0.0
 10
11.4719178418
 20
7.7745091071
 30
0.0
 10
11.4772264525
 20
7.7784099625
 30
0.0
 10
11.4827424062
 20
7.7820247594
 30
0.0
 10
11.4884519014
 20
7.785344395
 30
0.0
 10
11.4943404652
 20
7.7883604996
 30
0.0
 10
11.5003934673
 20
7.7910655826
 30
0.0
 10
11.5086717073
 20
7.7942520153
 30
0.0
 10
11.5193627147
 20
7.7974243892
 30
0.0
 10
11.5325751716
 20
7.7998889934
 30
0.0
 10
11.5460573545
 20
7.8009942069
 30
0.0
 10
11.5551071164
 20
7.800817678
 30
0.0
 10
11.5596286883
 20
7.8005041059
 30
0.0
  0
SPLINE
  5
38E
100
AcDbEntity
  8
0
100
AcDbSpline
 62
7
  6
CONTINUOUS
 70
0
 71
3
 72
19
 73
15
 74
0
 42
0.0000001
 43
0.0000001
 44
0.0000000001
 40
0.0
 40
0.0
 40
0.0
 40
0.0
 40
0.0616584454
 40
0.1233399317
 40
0.185067215
 40
0.2468625626
 40
0.3087474945
 40
0.3707425066
 40
0.4328668994
 40
0.4951385746
 40
0.6201443393
 40
0.7459117862
 40
0.8725152911
 40
1.0
 40
1.0
 40
1.0
 40
1.0
 10
9.7117592901
 20
7.8872276357
 30
0.0
 10
9.7133359884
 20
7.8887506079
 30
0.0
 10
9.7165725788
 20
7.891712919
 30
0.0
 10
9.7216602498
 20
7.8958898834
 30
0.0
 10
9.7269688605
 20
7.8997907388
 30
0.0
 10
9.7324848142
 20
7.9034055356
 30
0.0
 10
9.7381943094
 20
7.9067251712
 30
0.0
 10
9.7440828732
 20
7.9097412759
 30
0.0
 10
9.7501358753
 20
7.9124463589
 30
0.0
 10
9.7584141153
 20
7.9156327916
 30
0.0
 10
9.7691051227
 20
7.9188051655
 30
0.0
 10
9.7823175796
 20
7.9212697696
 30
0.0
 10
9.7957997625
 20
7.9223749832
 30
0.0
 10
9.8048495244
 20
7.9221984543
 30
0.0
 10
9.8093710963
 20
7.9218848822
 30
0.0
  0
SPLINE
  5
38F
100
AcDbEntity
  8
0
100
AcDbSpline
 62
7
  6
CONTINUOUS
 70
0
 71
3
 72
19
 73
15
 74
0
 42
0.0000001
 43
0.0000001
 44
0.0000000001
 40
0.0
 40
0.0
 40
0.0
 40
0.0
 40
0.0616584454
 40
0.1233399317
 40
0.185067215
 40
0.2468625626
 40
0.3087474945
 40
0.3707425066
 40
0.4328668994
 40
0.4951385746
 40
0.6201443393
 40
0.7459117862
 40
0.8725152911
 40
1.0
 40
1.0
 40
1.0
 40
1.0
 10
9.7117592901
 20
9.9398201382
 30
0.0
 10
9.7133359884
 20
9.9413431104
 30
0.0
 10
9.7165725788
 20
9.9443054215
 30
0.0
 10
9.7216602498
 20
9.9484823859
 30
0.0
 10
9.7269688605
 20
9.9523832413
 30
0.0
 10
9.7324848142
 20
9.9559980381
 30
0.0
 10
9.7381943094
 20
9.9593176737
 30
0.0
 10
9.7440828732
 20
9.9623337784
 30
0.0
 10
9.7501358753
 20
9.9650388614
 30
0.0
 10
9.7584141153
 20
9.9682252941
 30
0.0
 10
9.7691051227
 20
9.971397668
 30
0.0
 10
9.7823175796
 20
9.9738622721
 30
0.0
 10
9.7957997625
 20
9.9749674857
 30
0.0
 10
9.8048495244
 20
9.9747909568
 30
0.0
 10
9.8093710963
 20
9.9744773847
 30
0.0
  0
SPLINE
  5
390
100
AcDbEntity
  8
0
100
AcDbSpline
 62
7
  6
CONTINUOUS
 70
0
 71
3
 72
15
 73
11
 74
0
 42
0.0000001
 43
0.0000001
 44
0.0000000001
 40
0.0
 40
0.0
 40
0.0
 40
0.0
 40
0.1233171148
 40
0.2468171822
 40
0.3706750007
 40
0.4950496181
 40
0.6200773069
 40
0.7458672043
 40
0.8724928123
 40
1.0
 40
1.0
 40
1.0
 40
1.0
 10
9.8459783207
 20
7.413868254
 30
0.0
 10
9.8477286433
 20
7.4155589166
 30
0.0
 10
9.8514171593
 20
7.4187567667
 30
0.0
 10
9.8574371308
 20
7.4229355129
 30
0.0
 10
9.8638877351
 20
7.4264581196
 30
0.0
 10
9.8707029227
 20
7.4292884109
 30
0.0
 10
9.8778139574
 20
7.43139829
 30
0.0
 10
9.8851492116
 20
7.4327666412
 30
0.0
 10
9.8926338085
 20
7.4333801628
 30
0.0
 10
9.8976578302
 20
7.4332821626
 30
0.0
 10
9.9001679967
 20
7.433108082
 30
0.0
  0
SPLINE
  5
391
100
AcDbEntity
  8
0
100
AcDbSpline
 62
7
  6
CONTINUOUS
 70
0
 71
3
 72
40
 73
36
 74
0
 42
0.0000001
 43
0.0000001
 44
0.0000000001
 40
0.0
 40
0.0
 40
0.0
 40
0.0
 40
0.0304627124
 40
0.0607944752
 40
0.0910240327
 40
0.1211834828
 40
0.1513070157
 40
0.1814296781
 40
0.2115861277
 40
0.2418094612
 40
0.2721301573
 40
0.3025751696
 40
0.3331671905
 40
0.3639240935
 40
0.3948585503
 40
0.4259778141
 40
0.4572836517
 40
0.4887724117
 40
0.520435211
 40
0.5522582285
 40
0.5842230957
 40
0.6163073774
 40
0.6484851384
 40
0.6807275941
 40
0.713003841
 40
0.7452816653
 40
0.7775284187
 40
0.8097119546
 40
0.8418015963
 40
0.8737691393
 40
0.905589766
 40
0.9372431202
 40
0.9530054453
 40
0.9687214111
 40
1.0
 40
1.0
 40
1.0
 40
1.0
 10
9.8274153145
 20
10.2838934188
 30
0.0
 10
9.8281151375
 20
10.2859637632
 30
0.0
 10
9.829706504
 20
10.2900327319
 30
0.0
 10
9.8326530126
 20
10.2958707852
 30
0.0
 10
9.8361287411
 20
10.3013851392
 30
0.0
 10
9.8401037962
 20
10.3065320937
 30
0.0
 10
9.844544779
 20
10.3112723631
 30
0.0
 10
9.8494148107
 20
10.3155701907
 30
0.0
 10
9.8546740834
 20
10.319393832
 30
0.0
 10
9.8602802643
 20
10.3227155892
 30
0.0
 10
9.8661889173
 20
10.3255118918
 30
0.0
 10
9.8723538867
 20
10.3277633057
 30
0.0
 10
9.8787276515
 20
10.3294545182
 30
0.0
 10
9.8852616452
 20
10.3305743009
 30
0.0
 10
9.8919065448
 20
10.3311154637
 30
0.0
 10
9.8986125341
 20
10.331074809
 30
0.0
 10
9.9053295476
 20
10.33045309
 30
0.0
 10
9.9120075037
 20
10.3292549797
 30
0.0
 10
9.918596534
 20
10.3274890494
 30
0.0
 10
9.9250472187
 20
10.3251677561
 30
0.0
 10
9.9313108345
 20
10.3223074356
 30
0.0
 10
9.9373396222
 20
10.3189282956
 30
0.0
 10
9.9430870787
 20
10.3150544008
 30
0.0
 10
9.9485082765
 20
10.310713643
 30
0.0
 10
9.9535602129
 20
10.3059376845
 30
0.0
 10
9.9582021847
 20
10.3007618659
 30
0.0
 10
9.9623961873
 20
10.2952250708
 30
0.0
 10
9.9661073269
 20
10.2893695244
 30
0.0
 10
9.9693042371
 20
10.2832405777
 30
0.0
 10
9.9719594999
 20
10.2768862481
 30
0.0
 10
9.9740499775
 20
10.2703573519
 30
0.0
 10
9.9753080013
 20
10.264805721
 30
0.0
 10
9.9760146995
 20
10.2603307066
 30
0.0
 10
9.9765192819
 20
10.255855789
 30
0.0
 10
9.9766724924
 20
10.2524818555
 30
0.0
 10
9.9766724924
 20
10.2502378998
 30
0.0
  0
SPLINE
  5
392
100
AcDbEntity
  8
0
100
AcDbSpline
 62
7
  6
CONTINUOUS
 70
0
 71
3
 72
21
 73
17
 74
0
 42
0.0000001
 43
0.0000001
 44
0.0000000001
 40
0.0
 40
0.0
 40
0.0
 40
0.0
 40
0.0618613322
 40
0.1236696743
 40
0.1854573491
 40
0.2472570953
 40
0.3091015069
 40
0.3710226096
 40
0.4330513201
 40
0.495216863
 40
0.5575464417
 40
0.6200647356
 40
0.6827933944
 40
0.7457514291
 40
0.8723494796
 40
1.0
 40
1.0
 40
1.0
 40
1.0
 10
11.4072355635
 20
10.1946533152
 30
0.0
 10
11.4080980786
 20
10.1958247674
 30
0.0
 10
11.4098973817
 20
10.1981125039
 30
0.0
 10
11.4128085809
 20
10.2013636088
 30
0.0
 10
11.4159207426
 20
10.2044210984
 30
0.0
 10
11.4192228445
 20
10.2072736301
 30
0.0
 10
11.4227032616
 20
10.2099108634
 30
0.0
 10
11.4263496564
 20
10.2123231417
 30
0.0
 10
11.4301491053
 20
10.2145015562
 30
0.0
 10
11.4340880476
 20
10.2164380758
 30
0.0
 10
11.4381523903
 20
10.2181255621
 30
0.0
 10
11.4423275157
 20
10.2195577094
 30
0.0
 10
11.4465985793
 20
10.2207291907
 30
0.0
 10
11.4524098018
 20
10.2219398503
 30
0.0
 10
11.4598416748
 20
10.222778771
 30
0.0
 10
11.4658370428
 20
10.2227212502
 30
0.0
 10
11.4688316727
 20
10.2225135719
 30
0.0
  0
SPLINE
  5
393
100
AcDbEntity
  8
0
100
AcDbSpline
 62
7
  6
CONTINUOUS
 70
0
 71
3
 72
15
 73
11
 74
0
 42
0.0000001
 43
0.0000001
 44
0.0000000001
 40
0.0
 40
0.0
 40
0.0
 40
0.0
 40
0.1233107522
 40
0.2469886937
 40
0.3711045395
 40
0.4957193567
 40
0.6208846722
 40
0.7466354223
 40
0.8730075248
 40
1.0
 40
1.0
 40
1.0
 40
1.0
 10
11.4282409808
 20
7.3156164447
 30
0.0
 10
11.4297457116
 20
7.3164796553
 30
0.0
 10
11.4328264872
 20
7.3180949929
 30
0.0
 10
11.4376240492
 20
7.3201658315
 30
0.0
 10
11.4425808701
 20
7.3218774717
 30
0.0
 10
11.4476714446
 20
7.3232207473
 30
0.0
 10
11.4528698771
 20
7.3241886035
 30
0.0
 10
11.4581497909
 20
7.3247760323
 30
0.0
 10
11.4634837551
 20
7.3249797913
 30
0.0
 10
11.4670496758
 20
7.324859486
 30
0.0
 10
11.4688319369
 20
7.3247358858
 30
0.0
  0
SPLINE
  5
394
100
AcDbEntity
  8
0
100
AcDbSpline
 62
7
  6
CONTINUOUS
 70
0
 71
3
 72
30
 73
26
 74
0
 42
0.0000001
 43
0.0000001
 44
0.0000000001
 40
0.0
 40
0.0
 40
0.0
 40
0.0
 40
0.0300365906
 40
0.0601689809
 40
0.0904077223
 40
0.1207615834
 40
0.1512374416
 40
0.1818402667
 40
0.2434080716
 40
0.3054967348
 40
0.3680784811
 40
0.4310978122
 40
0.4944736758
 40
0.5581028639
 40
0.6218639493
 40
0.6856231856
 40
0.7492414786
 40
0.7809706895
 40
0.8126150135
 40
0.8441597369
 40
0.8755917655
 40
0.9068999258
 40
0.938074026
 40
0.9691103351
 40
1.0
 40
1.0
 40
1.0
 40
1.0
 10
11.100673534
 20
10.1169878497
 30
0.0
 10
11.1021436658
 20
10.1176469548
 30
0.0
 10
11.1051333977
 20
10.1188698154
 30
0.0
 10
11.1097356048
 20
10.1204084732
 30
0.0
 10
11.1144444747
 20
10.121650001
 30
0.0
 10
11.1192411358
 20
10.1225907514
 30
0.0
 10
11.1241072759
 20
10.1232281587
 30
0.0
 10
11.130674406
 20
10.12367231
 30
0.0
 10
11.1389687701
 20
10.1234583724
 30
0.0
 10
11.1488729757
 20
10.1219842768
 30
0.0
 10
11.1586046102
 20
10.1193131757
 30
0.0
 10
11.1680139525
 20
10.1154799113
 30
0.0
 10
11.1769539017
 20
10.1105348313
 30
0.0
 10
11.1852791161
 20
10.1045443628
 30
0.0
 10
11.1928485915
 20
10.0975920782
 30
0.0
 10
11.199526958
 20
10.0897808392
 30
0.0
 10
11.2042521017
 20
10.0826454472
 30
0.0
 10
11.2074667734
 20
10.0766358549
 30
0.0
 10
11.2095819223
 20
10.0720008116
 30
0.0
 10
11.2113914434
 20
10.0672553213
 30
0.0
 10
11.212885842
 20
10.0624201126
 30
0.0
 10
11.2140569378
 20
10.0575169962
 30
0.0
 10
11.2148984519
 20
10.0525680895
 30
0.0
 10
11.2154055139
 20
10.0475965615
 30
0.0
 10
11.2155190756
 20
10.0442738639
 30
0.0
 10
11.2155190756
 20
10.0426169864
 30
0.0
  0
SPLINE
  5
395
100
AcDbEntity
  8
0
100
AcDbSpline
 62
7
  6
CONTINUOUS
 70
0
 71
3
 72
31
 73
27
 74
0
 42
0.0000001
 43
0.0000001
 44
0.0000000001
 40
0.0
 40
0.0
 40
0.0
 40
0.0
 40
0.0165871091
 40
0.0341536703
 40
0.0527302526
 40
0.0723385666
 40
0.0929932951
 40
0.1147026719
 40
0.1374699173
 40
0.1612934054
 40
0.1861678307
 40
0.2120841024
 40
0.2390303392
 40
0.2669915909
 40
0.2959507237
 40
0.3258880358
 40
0.3567820684
 40
0.3886091614
 40
0.4549583764
 40
0.5247169311
 40
0.5976414593
 40
0.6734690209
 40
0.7519196486
 40
0.8326984863
 40
0.9154981136
 40
1.0
 40
1.0
 40
1.0
 40
1.0
 10
9.6699448255
 20
6.3749366387
 30
0.0
 10
9.670970543
 20
6.3739820932
 30
0.0
 10
9.6731461224
 20
6.3720841873
 30
0.0
 10
9.6766617581
 20
6.3693459805
 30
0.0
 10
9.6805177488
 20
6.3666390841
 30
0.0
 10
9.6847099727
 20
6.3639662274
 30
0.0
 10
9.689234252
 20
6.3613300882
 30
0.0
 10
9.6940859194
 20
6.3587332784
 30
0.0
 10
9.6992600212
 20
6.3561785264
 30
0.0
 10
9.7047511964
 20
6.3536684058
 30
0.0
 10
9.7105537772
 20
6.3512055989
 30
0.0
 10
9.7166617202
 20
6.3487926117
 30
0.0
 10
9.7230686789
 20
6.3464320432
 30
0.0
 10
9.7297679572
 20
6.3441263072
 30
0.0
 10
9.7367525652
 20
6.3418778955
 30
0.0
 10
9.7440151856
 20
6.3396891179
 30
0.0
 10
9.751548229
 20
6.3375623195
 30
0.0
 10
9.7620888959
 20
6.3347734803
 30
0.0
 10
9.7758871494
 20
6.3314697684
 30
0.0
 10
9.7931694093
 20
6.3278388546
 30
0.0
 10
9.8113257785
 20
6.3245040559
 30
0.0
 10
9.8302800798
 20
6.3214795323
 30
0.0
 10
9.8499528976
 20
6.3187781652
 30
0.0
 10
9.8702617206
 20
6.3164114332
 30
0.0
 10
9.8911212141
 20
6.3143894029
 30
0.0
 10
9.9052114947
 20
6.3132866771
 30
0.0
 10
9.9123325121
 20
6.3127928329
 30
0.0
  0
SPLINE
  5
396
100
AcDbEntity
  8
0
100
AcDbSpline
 62
7
  6
CONTINUOUS
 70
0
 71
3
 72
30
 73
26
 74
0
 42
0.0000001
 43
0.0000001
 44
0.0000000001
 40
0.0
 40
0.0
 40
0.0
 40
0.0
 40
0.0300365906
 40
0.0601689809
 40
0.0904077223
 40
0.1207615834
 40
0.1512374416
 40
0.1818402667
 40
0.2434080716
 40
0.3054967348
 40
0.3680784811
 40
0.4310978122
 40
0.4944736758
 40
0.5581028639
 40
0.6218639493
 40
0.6856231856
 40
0.7492414786
 40
0.7809706895
 40
0.8126150135
 40
0.8441597369
 40
0.8755917655
 40
0.9068999258
 40
0.938074026
 40
0.9691103351
 40
1.0
 40
1.0
 40
1.0
 40
1.0
 10
11.100673534
 20
7.4606916988
 30
0.0
 10
11.1021436658
 20
7.4613508039
 30
0.0
 10
11.1051333977
 20
7.4625736645
 30
0.0
 10
11.1097356048
 20
7.4641123223
 30
0.0
 10
11.1144444747
 20
7.4653538501
 30
0.0
 10
11.1192411358
 20
7.4662946005
 30
0.0
 10
11.1241072759
 20
7.4669320078
 30
0.0
 10
11.130674406
 20
7.4673761591
 30
0.0
 10
11.1389687701
 20
7.4671622215
 30
0.0
 10
11.1488729757
 20
7.4656881259
 30
0.0
 10
11.1586046102
 20
7.4630170248
 30
0.0
 10
11.1680139525
 20
7.4591837604
 30
0.0
 10
11.1769539017
 20
7.4542386804
 30
0.0
 10
11.1852791161
 20
7.4482482119
 30
0.0
 10
11.1928485915
 20
7.4412959273
 30
0.0
 10
11.199526958
 20
7.4334846883
 30
0.0
 10
11.2042521017
 20
7.4263492963
 30
0.0
 10
11.2074667734
 20
7.420339704
 30
0.0
 10
11.2095819223
 20
7.4157046607
 30
0.0
 10
11.2113914434
 20
7.4109591704
 30
0.0
 10
11.212885842
 20
7.4061239617
 30
0.0
 10
11.2140569378
 20
7.4012208453
 30
0.0
 10
11.2148984519
 20
7.3962719386
 30
0.0
 10
11.2154055139
 20
7.3913004106
 30
0.0
 10
11.2155190756
 20
7.387977713
 30
0.0
 10
11.2155190756
 20
7.3863208355
 30
0.0
  0
SPLINE
  5
397
100
AcDbEntity
  8
0
100
AcDbSpline
 62
7
  6
CONTINUOUS
 70
0
 71
3
 72
18
 73
14
 74
0
 42
0.0000001
 43
0.0000001
 44
0.0000000001
 40
0.0
 40
0.0
 40
0.0
 40
0.0
 40
0.0544283445
 40
0.1090738848
 40
0.1641509678
 40
0.2198686475
 40
0.3339693981
 40
0.4529160294
 40
0.5146381007
 40
0.5780380279
 40
0.7103448746
 40
0.8507621281
 40
1.0
 40
1.0
 40
1.0
 40
1.0
 10
9.6263661954
 20
6.4287364694
 30
0.0
 10
9.6263661997
 20
6.4281877007
 30
0.0
 10
9.6264023088
 20
6.4270876338
 30
0.0
 10
9.6265646065
 20
6.4254394697
 30
0.0
 10
9.6268350375
 20
6.4237922952
 30
0.0
 10
9.6273434889
 20
6.4215812294
 30
0.0
 10
9.6282598872
 20
6.4188098196
 30
0.0
 10
9.6295130734
 20
6.416108185
 30
0.0
 10
9.6307183983
 20
6.4139618249
 30
0.0
 10
9.6321002873
 20
6.4117636484
 30
0.0
 10
9.6341067238
 20
6.4090263673
 30
0.0
 10
9.6369014216
 20
6.4058133123
 30
0.0
 10
9.6389772884
 20
6.403755193
 30
0.0
 10
9.6400787885
 20
6.4027301321
 30
0.0
  0
SPLINE
  5
398
100
AcDbEntity
  8
0
100
AcDbSpline
 62
7
  6
CONTINUOUS
 70
0
 71
3
 72
26
 73
22
 74
0
 42
0.0000001
 43
0.0000001
 44
0.0000000001
 40
0.0
 40
0.0
 40
0.0
 40
0.0
 40
0.0606590247
 40
0.0910863557
 40
0.1215787865
 40
0.1827577362
 40
0.2442147435
 40
0.3059565661
 40
0.3679851562
 40
0.4302969678
 40
0.4928822873
 40
0.5557246534
 40
0.6188004423
 40
0.6820787178
 40
0.7137876153
 40
0.7455324592
 40
0.8090951289
 40
0.8727281872
 40
0.9045597028
 40
0.9363888714
 40
1.0
 40
1.0
 40
1.0
 40
1.0
 10
10.3574708187
 20
9.4824607428
 30
0.0
 10
10.3528235639
 20
9.4815202531
 30
0.0
 10
10.3457973062
 20
9.4803305876
 30
0.0
 10
10.3363605559
 20
9.4791977551
 30
0.0
 10
10.326851306
 20
9.4783672354
 30
0.0
 10
10.3148813894
 20
9.477909333
 30
0.0
 10
10.3004645137
 20
9.4783082667
 30
0.0
 10
10.2860396381
 20
9.4796745643
 30
0.0
 10
10.2716740655
 20
9.4820247699
 30
0.0
 10
10.2574392349
 20
9.4853712655
 30
0.0
 10
10.2434112907
 20
9.4897211898
 30
0.0
 10
10.2296704275
 20
9.4950753565
 30
0.0
 10
10.2163009838
 20
9.5014265553
 30
0.0
 10
10.2055469768
 20
9.5075339536
 30
0.0
 10
10.1972157924
 20
9.5128969397
 30
0.0
 10
10.1890717153
 20
9.5185790246
 30
0.0
 10
10.1792883512
 20
9.5262565791
 30
0.0
 10
10.1701087602
 20
9.5346571216
 30
0.0
 10
10.1631634455
 20
9.5417852416
 30
0.0
 10
10.1564977486
 20
9.5491725055
 30
0.0
 10
10.151821474
 20
9.5549976144
 30
0.0
 10
10.1488608692
 20
9.5589923343
 30
0.0
  0
SPLINE
  5
399
100
AcDbEntity
  8
0
100
AcDbSpline
 62
7
  6
CONTINUOUS
 70
0
 71
3
 72
23
 73
19
 74
0
 42
0.0000001
 43
0.0000001
 44
0.0000000001
 40
0.0
 40
0.0
 40
0.0
 40
0.0
 40
0.0717970627
 40
0.1426841506
 40
0.2125395385
 40
0.2812712112
 40
0.3488136678
 40
0.4151229075
 40
0.4801702559
 40
0.5439355344
 40
0.6063992611
 40
0.6675338589
 40
0.78554917
 40
0.8422644214
 40
0.8971748886
 40
0.9499358981
 40
0.975353823
 40
1.0
 40
1.0
 40
1.0
 40
1.0
 10
10.3421888414
 20
9.4798824901
 30
0.0
 10
10.3458833283
 20
9.4809103974
 30
0.0
 10
10.35316711
 20
9.4831704648
 30
0.0
 10
10.3637951882
 20
9.4871781817
 30
0.0
 10
10.3740149626
 20
9.4917486306
 30
0.0
 10
10.3837837158
 20
9.4968409194
 30
0.0
 10
10.3930676396
 20
9.5024112724
 30
0.0
 10
10.4018403592
 20
9.5084140102
 30
0.0
 10
10.4100822372
 20
9.5148025289
 30
0.0
 10
10.417779051
 20
9.5215294941
 30
0.0
 10
10.4249214749
 20
9.5285477038
 30
0.0
 10
10.4335923166
 20
9.5381128536
 30
0.0
 10
10.4412525641
 20
9.5481550983
 30
0.0
 10
10.4478374164
 20
9.5585090187
 30
0.0
 10
10.4521318691
 20
9.5661727004
 30
0.0
 10
10.4552587646
 20
9.5725610741
 30
0.0
 10
10.4574606988
 20
9.5775930652
 30
0.0
 10
10.4584626659
 20
9.5800727581
 30
0.0
 10
10.4589376658
 20
9.5813004722
 30
0.0
  0
SPLINE
  5
39A
100
AcDbEntity
  8
0
100
AcDbSpline
 62
7
  6
CONTINUOUS
 70
0
 71
3
 72
19
 73
15
 74
0
 42
0.0000001
 43
0.0000001
 44
0.0000000001
 40
0.0
 40
0.0
 40
0.0
 40
0.0
 40
0.1231979666
 40
0.2470928591
 40
0.3716275145
 40
0.4967143826
 40
0.5594471296
 40
0.6222717532
 40
0.6851690613
 40
0.7481188132
 40
0.8110994927
 40
0.8740874538
 40
0.9370642587
 40
1.0
 40
1.0
 40
1.0
 40
1.0
 10
10.2110770557
 20
9.8517374204
 30
0.0
 10
10.2172546425
 20
9.8506453299
 30
0.0
 10
10.2295549495
 20
9.8479052017
 30
0.0
 10
10.2476053745
 20
9.8421401683
 30
0.0
 10
10.2651422927
 20
9.8347082661
 30
0.0
 10
10.2791660411
 20
9.8271493344
 30
0.0
 10
10.2899442715
 20
9.8203061923
 30
0.0
 10
10.2977928183
 20
9.8147777053
 30
0.0
 10
10.3053735295
 20
9.8088695781
 30
0.0
 10
10.3126637956
 20
9.8025942129
 30
0.0
 10
10.319641281
 20
9.7959660941
 30
0.0
 10
10.3262850129
 20
9.7890014195
 30
0.0
 10
10.3325744932
 20
9.7817185575
 30
0.0
 10
10.3365211319
 20
9.7766616015
 30
0.0
 10
10.3384293378
 20
9.7740868748
 30
0.0
  0
SPLINE
  5
39B
100
AcDbEntity
  8
0
100
AcDbSpline
 62
7
  6
CONTINUOUS
 70
0
 71
3
 72
21
 73
17
 74
0
 42
0.0000001
 43
0.0000001
 44
0.0000000001
 40
0.0
 40
0.0
 40
0.0
 40
0.0
 40
0.1279736829
 40
0.2550838576
 40
0.318318015
 40
0.3813189028
 40
0.4440856599
 40
0.5066205374
 40
0.5689292432
 40
0.631021129
 40
0.6929092509
 40
0.7546102802
 40
0.8161449444
 40
0.8775358601
 40
0.9388125282
 40
1.0
 40
1.0
 40
1.0
 40
1.0
 10
10.1160804324
 20
7.8634060869
 30
0.0
 10
10.1145570443
 20
7.8702559234
 30
0.0
 10
10.1121645467
 20
7.8840622276
 30
0.0
 10
10.1109052688
 20
7.9015031681
 30
0.0
 10
10.110994062
 20
7.9154002234
 30
0.0
 10
10.1116149713
 20
7.9257504054
 30
0.0
 10
10.1127979444
 20
7.9360129127
 30
0.0
 10
10.1145484666
 20
7.9461557555
 30
0.0
 10
10.1168697693
 20
7.9561456032
 30
0.0
 10
10.1197625054
 20
7.9659484577
 30
0.0
 10
10.1232245093
 20
7.9755298186
 30
0.0
 10
10.127250529
 20
7.9848551303
 30
0.0
 10
10.1318321098
 20
7.9938900024
 30
0.0
 10
10.1369575646
 20
8.0026011188
 30
0.0
 10
10.1426115759
 20
8.0109554581
 30
0.0
 10
10.1467241382
 20
8.0162706596
 30
0.0
 10
10.1488608692
 20
8.0188573679
 30
0.0
  0
SPLINE
  5
39C
100
AcDbEntity
  8
0
100
AcDbSpline
 62
7
  6
CONTINUOUS
 70
0
 71
3
 72
37
 73
33
 74
0
 42
0.0000001
 43
0.0000001
 44
0.0000000001
 40
0.0
 40
0.0
 40
0.0
 40
0.0
 40
0.0005259981
 40
0.0011501255
 40
0.0018812718
 40
0.0027262588
 40
0.004778968
 40
0.0073458699
 40
0.0104578746
 40
0.0141426961
 40
0.0184266055
 40
0.0233336648
 40
0.028885393
 40
0.0351021586
 40
0.049591183
 40
0.0668889787
 40
0.0870141264
 40
0.1099090837
 40
0.1354438407
 40
0.1634295952
 40
0.1936390267
 40
0.2258278397
 40
0.259753102
 40
0.3319097127
 40
0.4085596671
 40
0.4885184334
 40
0.5709071202
 40
0.6550628686
 40
0.7404624917
 40
0.8266698567
 40
0.9133000122
 40
1.0
 40
1.0
 40
1.0
 40
1.0
 10
10.3197062053
 20
9.8822714726
 30
0.0
 10
10.3197325748
 20
9.8822927605
 30
0.0
 10
10.3197942903
 20
9.8823342928
 30
0.0
 10
10.3199020435
 20
9.882390135
 30
0.0
 10
10.3200330418
 20
9.8824446688
 30
0.0
 10
10.3202543015
 20
9.8825205813
 30
0.0
 10
10.3205955583
 20
9.882608995
 30
0.0
 10
10.3210846533
 20
9.8827043211
 30
0.0
 10
10.3216814043
 20
9.882794039
 30
0.0
 10
10.3223905377
 20
9.8828773859
 30
0.0
 10
10.3232166866
 20
9.8829535667
 30
0.0
 10
10.3241641696
 20
9.8830215793
 30
0.0
 10
10.3252370291
 20
9.8830799709
 30
0.0
 10
10.3269275334
 20
9.8831465757
 30
0.0
 10
10.3293759842
 20
9.8831910254
 30
0.0
 10
10.3327208831
 20
9.8831727179
 30
0.0
 10
10.336605926
 20
9.8830622351
 30
0.0
 10
10.341017396
 20
9.8828337501
 30
0.0
 10
10.3459270667
 20
9.8824591282
 30
0.0
 10
10.3512943553
 20
9.8819097051
 30
0.0
 10
10.3570697821
 20
9.8811577122
 30
0.0
 10
10.3631989631
 20
9.8801774573
 30
0.0
 10
10.3719497233
 20
9.8785008955
 30
0.0
 10
10.3833990134
 20
9.875716653
 30
0.0
 10
10.3974558336
 20
9.8712420599
 30
0.0
 10
10.4117564107
 20
9.8654913452
 30
0.0
 10
10.4260004052
 20
9.8584284336
 30
0.0
 10
10.4399268382
 20
9.8500525541
 30
0.0
 10
10.4533036138
 20
9.840395293
 30
0.0
 10
10.4659232968
 20
9.8295196389
 30
0.0
 10
10.4775996807
 20
9.8175205233
 30
0.0
 10
10.4846568497
 20
9.808842582
 30
0.0
 10
10.4879829483
 20
9.8043547041
 30
0.0
  0
SPLINE
  5
39D
100
AcDbEntity
  8
0
100
AcDbSpline
 62
7
  6
CONTINUOUS
 70
0
 71
3
 72
31
 73
27
 74
0
 42
0.0000001
 43
0.0000001
 44
0.0000000001
 40
0.0
 40
0.0
 40
0.0
 40
0.0
 40
0.0606400987
 40
0.1216521758
 40
0.1830426664
 40
0.2448102268
 40
0.3069462711
 40
0.3694345582
 40
0.4322498805
 40
0.4953556608
 40
0.5587001995
 40
0.6222122916
 40
0.6540149575
 40
0.685822394
 40
0.7176182187
 40
0.7493842218
 40
0.7811005408
 40
0.8127460307
 40
0.8442988669
 40
0.8600364113
 40
0.87574291
 40
0.9070468078
 40
0.93819841
 40
0.9537154105
 40
0.9691898419
 40
1.0
 40
1.0
 40
1.0
 40
1.0
 10
10.6745120821
 20
9.3090289152
 30
0.0
 10
10.6820783483
 20
9.310615339
 30
0.0
 10
10.6974210282
 20
9.3130622424
 30
0.0
 10
10.7207370097
 20
9.3145896728
 30
0.0
 10
10.7442405712
 20
9.3140150936
 30
0.0
 10
10.7677433269
 20
9.3113559555
 30
0.0
 10
10.7910604362
 20
9.3066209746
 30
0.0
 10
10.8139982144
 20
9.2998101474
 30
0.0
 10
10.8363470759
 20
9.290917784
 30
0.0
 10
10.8578731821
 20
9.2799361949
 30
0.0
 10
10.8783068236
 20
9.2668650566
 30
0.0
 10
10.8941659644
 20
9.2542423613
 30
0.0
 10
10.9059728837
 20
9.2431302433
 30
0.0
 10
10.9143421096
 20
9.2342945769
 30
0.0
 10
10.9221660193
 20
9.2249783499
 30
0.0
 10
10.9293888865
 20
9.2152023339
 30
0.0
 10
10.9359526771
 20
9.2049940043
 30
0.0
 10
10.9417984615
 20
9.1943887471
 30
0.0
 10
10.9460274757
 20
9.185246774
 30
0.0
 10
10.9489939763
 20
9.1777817287
 30
0.0
 10
10.9516690781
 20
9.1702410441
 30
0.0
 10
10.9544636224
 20
9.1606654203
 30
0.0
 10
10.9564930091
 20
9.1509228645
 30
0.0
 10
10.9576357706
 20
9.1430812657
 30
0.0
 10
10.9584529581
 20
9.1352433577
 30
0.0
 10
10.9587013234
 20
9.1293389566
 30
0.0
 10
10.9587013234
 20
9.125411079
 30
0.0
  0
SPLINE
  5
39E
100
AcDbEntity
  8
0
100
AcDbSpline
 62
7
  6
CONTINUOUS
 70
0
 71
3
 72
15
 73
11
 74
0
 42
0.0000001
 43
0.0000001
 44
0.0000000001
 40
0.0
 40
0.0
 40
0.0
 40
0.0
 40
0.125488228
 40
0.2506993679
 40
0.3756988845
 40
0.5005556981
 40
0.625341908
 40
0.7501288338
 40
0.8749926429
 40
1.0
 40
1.0
 40
1.0
 40
1.0
 10
10.2689645623
 20
9.4827593743
 30
0.0
 10
10.2725282806
 20
9.4844157296
 30
0.0
 10
10.2795404769
 20
9.4879618013
 30
0.0
 10
10.2896700236
 20
9.493963126
 30
0.0
 10
10.2993598238
 20
9.5006174216
 30
0.0
 10
10.3085710832
 20
9.5078981882
 30
0.0
 10
10.3172675528
 20
9.5157767863
 30
0.0
 10
10.3254151134
 20
9.5242222836
 30
0.0
 10
10.3329811203
 20
9.5332008317
 30
0.0
 10
10.3376150426
 20
9.5395148372
 30
0.0
 10
10.3398245359
 20
9.5427464942
 30
0.0
  0
SPLINE
  5
39F
100
AcDbEntity
  8
0
100
AcDbSpline
 62
7
  6
CONTINUOUS
 70
0
 71
3
 72
39
 73
35
 74
0
 42
0.0000001
 43
0.0000001
 44
0.0000000001
 40
0.0
 40
0.0
 40
0.0
 40
0.0
 40
0.0316298563
 40
0.0634542043
 40
0.0954481719
 40
0.1275809816
 40
0.159817407
 40
0.1921195953
 40
0.2244486914
 40
0.2567663479
 40
0.2890360421
 40
0.3212240326
 40
0.3533001741
 40
0.3852385657
 40
0.4170179583
 40
0.448622092
 40
0.4800399749
 40
0.511266074
 40
0.5423004593
 40
0.5731489254
 40
0.6038230398
 40
0.6343401086
 40
0.6647230411
 40
0.6950000274
 40
0.7252039668
 40
0.7553716959
 40
0.7855428789
 40
0.8157585186
 40
0.8460593057
 40
0.876483703
 40
0.9070658989
 40
0.937833986
 40
0.9688079926
 40
1.0
 40
1.0
 40
1.0
 40
1.0
 10
10.7618273527
 20
8.5341528834
 30
0.0
 10
10.7674345397
 20
8.533171234
 30
0.0
 10
10.7785924675
 20
8.5306374884
 30
0.0
 10
10.7949156481
 20
8.5252045358
 30
0.0
 10
10.8107249582
 20
8.5181914669
 30
0.0
 10
10.8258655168
 20
8.5096822368
 30
0.0
 10
10.8401972683
 20
8.4997751212
 30
0.0
 10
10.8535929125
 20
8.4885808268
 30
0.0
 10
10.8659394641
 20
8.4762193405
 30
0.0
 10
10.877138167
 20
8.4628175198
 30
0.0
 10
10.887104343
 20
8.4485069364
 30
0.0
 10
10.8957666022
 20
8.4334219533
 30
0.0
 10
10.9030660243
 20
8.4176983665
 30
0.0
 10
10.9089553166
 20
8.4014724286
 30
0.0
 10
10.9133978265
 20
8.3848801457
 30
0.0
 10
10.9163667317
 20
8.3680569337
 30
0.0
 10
10.9178444407
 20
8.3511374962
 30
0.0
 10
10.9178221521
 20
8.3342558429
 30
0.0
 10
10.9162995836
 20
8.3175454026
 30
0.0
 10
10.9132849876
 20
8.301139172
 30
0.0
 10
10.9087954706
 20
8.2851697939
 30
0.0
 10
10.9028574511
 20
8.2697695186
 30
0.0
 10
10.8955073231
 20
8.2550699915
 30
0.0
 10
10.8867923444
 20
8.241201773
 30
0.0
 10
10.8767716825
 20
8.2282934682
 30
0.0
 10
10.8655173116
 20
8.2164705669
 30
0.0
 10
10.8531149142
 20
8.2058538573
 30
0.0
 10
10.8396646586
 20
8.1965572529
 30
0.0
 10
10.8252813678
 20
8.1886855088
 30
0.0
 10
10.8100942292
 20
8.1823315984
 30
0.0
 10
10.794246228
 20
8.1775737104
 30
0.0
 10
10.7778915017
 20
8.174473037
 30
0.0
 10
10.7611965128
 20
8.1730708908
 30
0.0
 10
10.7499875048
 20
8.1732817063
 30
0.0
 10
10.7443872889
 20
8.1736700826
 30
0.0
  0
SPLINE
  5
3A0
100
AcDbEntity
  8
0
100
AcDbSpline
 62
7
  6
CONTINUOUS
 70
0
 71
3
 72
41
 73
37
 74
0
 42
0.0000001
 43
0.0000001
 44
0.0000000001
 40
0.0
 40
0.0
 40
0.0
 40
0.0
 40
0.0307612732
 40
0.0616953804
 40
0.092802775
 40
0.1240794373
 40
0.1555172559
 40
0.171295896
 40
0.1871101118
 40
0.2188318225
 40
0.2506704418
 40
0.2666301242
 40
0.2826114606
 40
0.3146228824
 40
0.3466872012
 40
0.3787807953
 40
0.410879588
 40
0.4429594391
 40
0.4749965339
 40
0.5069677765
 40
0.5388511922
 40
0.5706263471
 40
0.6022747894
 40
0.6337805095
 40
0.665130413
 40
0.6963147936
 40
0.7273277878
 40
0.7581677799
 40
0.7888377386
 40
0.8193454414
 40
0.8497035413
 40
0.8799294426
 40
0.9100449431
 40
0.9400757863
 40
0.9700502916
 40
1.0
 40
1.0
 40
1.0
 40
1.0
 10
11.2704771253
 20
8.9231068415
 30
0.0
 10
11.2761510685
 20
8.9238042104
 30
0.0
 10
11.2875950521
 20
8.9247253792
 30
0.0
 10
11.3048593986
 20
8.9246937372
 30
0.0
 10
11.3221614316
 20
8.923265338
 30
0.0
 10
11.3393877974
 20
8.9204612752
 30
0.0
 10
11.3535757459
 20
8.917005948
 30
0.0
 10
11.3647823617
 20
8.9135891533
 30
0.0
 10
11.3759019312
 20
8.9097343846
 30
0.0
 10
11.3895588422
 20
8.9041214387
 30
0.0
 10
11.402788087
 20
8.8975041358
 30
0.0
 10
11.4130850927
 20
8.8916293667
 30
0.0
 10
11.4231895665
 20
8.8853681706
 30
0.0
 10
11.4354046406
 20
8.8768503019
 30
0.0
 10
11.4493063773
 20
8.8655950466
 30
0.0
 10
11.462383203
 20
8.8533668024
 30
0.0
 10
11.4745596825
 20
8.8402380256
 30
0.0
 10
11.485765227
 20
8.8262847404
 30
0.0
 10
11.4959333438
 20
8.8115869872
 30
0.0
 10
11.5050019757
 20
8.796228672
 30
0.0
 10
11.5129136431
 20
8.7802976122
 30
0.0
 10
11.5196157516
 20
8.7638855392
 30
0.0
 10
11.5250609571
 20
8.7470880849
 30
0.0
 10
11.529207639
 20
8.7300047226
 30
0.0
 10
11.5320204608
 20
8.7127386358
 30
0.0
 10
11.5334710147
 20
8.6953964871
 30
0.0
 10
11.5335385249
 20
8.6780880625
 30
0.0
 10
11.5322106261
 20
8.6609257639
 30
0.0
 10
11.5294841178
 20
8.6440239252
 30
0.0
 10
11.5253656811
 20
8.6274979474
 30
0.0
 10
11.5198725439
 20
8.6114632597
 30
0.0
 10
11.5130329444
 20
8.5960340738
 30
0.0
 10
11.5048866687
 20
8.5813221137
 30
0.0
 10
11.4954845473
 20
8.5674347255
 30
0.0
 10
11.4848904179
 20
8.554475056
 30
0.0
 10
11.4770780109
 20
8.5465135836
 30
0.0
 10
11.4730036404
 20
8.5427217717
 30
0.0
  0
SPLINE
  5
3A1
100
AcDbEntity
  8
0
100
AcDbSpline
 62
7
  6
CONTINUOUS
 70
0
 71
3
 72
18
 73
14
 74
0
 42
0.0000001
 43
0.0000001
 44
0.0000000001
 40
0.0
 40
0.0
 40
0.0
 40
0.0
 40
0.0548620589
 40
0.1099280789
 40
0.165399508
 40
0.2214731255
 40
0.2783387361
 40
0.3361775086
 40
0.4554063416
 40
0.5804417492
 40
0.7123343341
 40
0.8519577333
 40
1.0
 40
1.0
 40
1.0
 40
1.0
 10
10.343
 20
10.8072685876
 30
0.0
 10
10.3430000001
 20
10.8081964549
 30
0.0
 10
10.3430589023
 20
10.8100561719
 30
0.0
 10
10.3433237049
 20
10.8128427217
 30
0.0
 10
10.3437648919
 20
10.8156276657
 30
0.0
 10
10.3443823177
 20
10.8184099868
 30
0.0
 10
10.345175743
 20
10.8211889826
 30
0.0
 10
10.3464807501
 20
10.824925987
 30
0.0
 10
10.3485713493
 20
10.8295999789
 30
0.0
 10
10.3517533717
 20
10.8351199811
 30
0.0
 10
10.3556289025
 20
10.8406042539
 30
0.0
 10
10.3601920453
 20
10.8460472927
 30
0.0
 10
10.3635858255
 20
10.8495396638
 30
0.0
 10
10.3653866945
 20
10.8512791698
 30
0.0
  0
SPLINE
  5
3A2
100
AcDbEntity
  8
0
100
AcDbSpline
 62
7
  6
CONTINUOUS
 70
0
 71
3
 72
9
 73
5
 74
0
 42
0.0000001
 43
0.0000001
 44
0.0000000001
 40
0.0
 40
0.0
 40
0.0
 40
0.0
 40
0.4862217708
 40
1.0
 40
1.0
 40
1.0
 40
1.0
 10
10.3561250106
 20
10.7734729932
 30
0.0
 10
10.3575030054
 20
10.7752304199
 30
0.0
 10
10.3604800195
 20
10.7787342403
 30
0.0
 10
10.363689382
 20
10.7820248798
 30
0.0
 10
10.3653866945
 20
10.783664358
 30
0.0
  0
SPLINE
  5
3A3
100
AcDbEntity
  8
0
100
AcDbSpline
 62
7
  6
CONTINUOUS
 70
0
 71
3
 72
41
 73
37
 74
0
 42
0.0000001
 43
0.0000001
 44
0.0000000001
 40
0.0
 40
0.0
 40
0.0
 40
0.0
 40
0.031144444
 40
0.0624425093
 40
0.0938872508
 40
0.1254695847
 40
0.1571771078
 40
0.1889951283
 40
0.2209066801
 40
0.2528929859
 40
0.2849338014
 40
0.3170078274
 40
0.3490931225
 40
0.3811675283
 40
0.4132090962
 40
0.4451965119
 40
0.4771095115
 40
0.5089292827
 40
0.5406388458
 40
0.5722234075
 40
0.6036706813
 40
0.6349711679
 40
0.6661183875
 40
0.6971090579
 40
0.7279432122
 40
0.7586242475
 40
0.7891589026
 40
0.8195571573
 40
0.8498320547
 40
0.8649308931
 40
0.8800050545
 40
0.9100832586
 40
0.9400926739
 40
0.9550812746
 40
0.9700610358
 40
1.0
 40
1.0
 40
1.0
 40
1.0
 10
9.8093710963
 20
9.7030522114
 30
0.0
 10
9.8060571446
 20
9.7032820347
 30
0.0
 10
9.799427253
 20
9.703985394
 30
0.0
 10
9.789562806
 20
9.7057571269
 30
0.0
 10
9.7798039977
 20
9.7082388527
 30
0.0
 10
9.7702035791
 20
9.7114171406
 30
0.0
 10
9.7608125186
 20
9.7152750121
 30
0.0
 10
9.751680921
 20
9.7197918024
 30
0.0
 10
9.74285743
 20
9.7249433858
 30
0.0
 10
9.7343890621
 20
9.7307022516
 30
0.0
 10
9.7263209371
 20
9.7370376722
 30
0.0
 10
9.718696045
 20
9.7439158578
 30
0.0
 10
9.7115550191
 20
9.7513001374
 30
0.0
 10
9.7049359213
 20
9.7591511523
 30
0.0
 10
9.6988740418
 20
9.7674270635
 30
0.0
 10
9.6934017122
 20
9.7760837728
 30
0.0
 10
9.6885481348
 20
9.7850751546
 30
0.0
 10
9.6843392276
 20
9.7943532995
 30
0.0
 10
9.6807974868
 20
9.8038687657
 30
0.0
 10
9.6779418666
 20
9.8135708398
 30
0.0
 10
9.6757876774
 20
9.8234078027
 30
0.0
 10
9.6743465027
 20
9.833327202
 30
0.0
 10
9.6736261348
 20
9.8432761287
 30
0.0
 10
9.6736305288
 20
9.8532014925
 30
0.0
 10
9.6743597816
 20
9.8630503132
 30
0.0
 10
9.6758101072
 20
9.8727699627
 30
0.0
 10
9.6779739215
 20
9.8823085873
 30
0.0
 10
9.6808396137
 20
9.8916148572
 30
0.0
 10
9.6838032137
 20
9.8991430848
 30
0.0
 10
9.6865076585
 20
9.9049974427
 30
0.0
 10
9.6894262639
 20
9.9107245124
 30
0.0
 10
9.6934785892
 20
9.917651699
 30
0.0
 10
9.6980521153
 20
9.9242353598
 30
0.0
 10
9.7020042894
 20
9.9292677645
 30
0.0
 10
9.7061450307
 20
9.9341358833
 30
0.0
 10
9.7094624697
 20
9.937601582
 30
0.0
 10
9.7117592901
 20
9.9398201382
 30
0.0
  0
SPLINE
  5
3A4
100
AcDbEntity
  8
0
100
AcDbSpline
 62
7
  6
CONTINUOUS
 70
0
 71
3
 72
15
 73
11
 74
0
 42
0.0000001
 43
0.0000001
 44
0.0000000001
 40
0.0
 40
0.0
 40
0.0
 40
0.0
 40
0.1239292876
 40
0.247984899
 40
0.3722686288
 40
0.4968724334
 40
0.6218809595
 40
0.747367117
 40
0.873391276
 40
1.0
 40
1.0
 40
1.0
 40
1.0
 10
11.1632908563
 20
8.8739132194
 30
0.0
 10
11.1669157985
 20
8.877286771
 30
0.0
 10
11.1744454199
 20
8.8837475065
 30
0.0
 10
11.1864895736
 20
8.8925026763
 30
0.0
 10
11.1992199771
 20
8.9002795325
 30
0.0
 10
11.212562137
 20
8.9070362121
 30
0.0
 10
11.2264392073
 20
8.912739194
 30
0.0
 10
11.2407720104
 20
8.917361993
 30
0.0
 10
11.2554784231
 20
8.9208853386
 30
0.0
 10
11.2654559714
 20
8.9224897051
 30
0.0
 10
11.2704771253
 20
8.9231068415
 30
0.0
  0
SPLINE
  5
3A5
100
AcDbEntity
  8
0
100
AcDbSpline
 62
7
  6
CONTINUOUS
 70
0
 71
3
 72
78
 73
74
 74
0
 42
0.0000001
 43
0.0000001
 44
0.0000000001
 40
0.0
 40
0.0
 40
0.0
 40
0.0
 40
0.0069315607
 40
0.0105986818
 40
0.0144066946
 40
0.0183600745
 40
0.0224625768
 40
0.0267173439
 40
0.0311268963
 40
0.0356932785
 40
0.0404180544
 40
0.045302359
 40
0.0503469906
 40
0.0555523593
 40
0.0609186033
 40
0.0721323544
 40
0.0839846083
 40
0.0964676555
 40
0.1095707974
 40
0.1232807369
 40
0.1375818876
 40
0.152456613
 40
0.167885436
 40
0.1838472262
 40
0.2003193497
 40
0.2172777971
 40
0.2346972899
 40
0.2525513964
 40
0.2708126345
 40
0.2894525617
 40
0.3084418563
 40
0.3277503955
 40
0.3473473453
 40
0.3672012374
 40
0.3872800435
 40
0.4075512453
 40
0.448538136
 40
0.4898954658
 40
0.5313529895
 40
0.5726396204
 40
0.6134857076
 40
0.6336605735
 40
0.6536260181
 40
0.673349766
 40
0.6928000679
 40
0.7119457804
 40
0.7307564359
 40
0.7492023195
 40
0.7672545498
 40
0.7848851733
 40
0.802067251
 40
0.8187749458
 40
0.8349836232
 40
0.850669966
 40
0.8658121116
 40
0.8803897811
 40
0.8943844374
 40
0.9077794756
 40
0.9205604623
 40
0.9327154214
 40
0.9442351702
 40
0.9497550878
 40
0.955114279
 40
0.9603125826
 40
0.9653501677
 40
0.970227466
 40
0.9749452655
 40
0.9795047194
 40
0.9839073911
 40
0.9881554217
 40
0.992251433
 40
0.996198455
 40
1.0
 40
1.0
 40
1.0
 40
1.0
 10
11.6439157265
 20
10.7734209781
 30
0.0
 10
11.6420261522
 20
10.7758347254
 30
0.0
 10
11.638935867
 20
10.7793716285
 30
0.0
 10
11.6344358806
 20
10.7838831682
 30
0.0
 10
11.6307195311
 20
10.7873108326
 30
0.0
 10
11.6267274153
 20
10.7907170764
 30
0.0
 10
11.6224609989
 20
10.7941007682
 30
0.0
 10
11.6179221691
 20
10.797460369
 30
0.0
 10
11.6131129008
 20
10.8007945434
 30
0.0
 10
11.6080352504
 20
10.8041018269
 30
0.0
 10
11.6026914169
 20
10.8073808137
 30
0.0
 10
11.5970837243
 20
10.8106301258
 30
0.0
 10
11.5912145803
 20
10.8138482988
 30
0.0
 10
11.5850865458
 20
10.8170340233
 30
0.0
 10
11.5764470875
 20
10.8212991077
 30
0.0
 10
11.5650086438
 20
10.8265282131
 30
0.0
 10
11.5504890029
 20
10.8325630977
 30
0.0
 10
11.5350063112
 20
10.8384361362
 30
0.0
 10
11.5185875415
 20
10.8441370283
 30
0.0
 10
11.5012610985
 20
10.8496557763
 30
0.0
 10
11.4830571173
 20
10.8549826654
 30
0.0
 10
11.464007303
 20
10.8601083163
 30
0.0
 10
11.4441448938
 20
10.8650237033
 30
0.0
 10
11.4235045767
 20
10.8697201626
 30
0.0
 10
11.4021224214
 20
10.8741894144
 30
0.0
 10
11.3800358176
 20
10.8784235746
 30
0.0
 10
11.357283411
 20
10.8824151856
 30
0.0
 10
11.3339050285
 20
10.8861572168
 30
0.0
 10
11.3099416002
 20
10.8896430757
 30
0.0
 10
11.2854350865
 20
10.8928666188
 30
0.0
 10
11.2604284087
 20
10.8958221647
 30
0.0
 10
11.2349653747
 20
10.898504515
 30
0.0
 10
11.209090593
 20
10.9009089502
 30
0.0
 10
11.1828494068
 20
10.9030312308
 30
0.0
 10
11.1562877553
 20
10.9048676418
 30
0.0
 10
11.1203764978
 20
10.9069381256
 30
0.0
 10
11.0750295763
 20
10.9087845595
 30
0.0
 10
11.0202852793
 20
10.9098147929
 30
0.0
 10
10.9653987831
 20
10.9096600522
 30
0.0
 10
10.9107547011
 20
10.9083214593
 30
0.0
 10
10.8655551679
 20
10.9062189577
 30
0.0
 10
10.829811524
 20
10.9039450274
 30
0.0
 10
10.8034113456
 20
10.9019589676
 30
0.0
 10
10.7773557063
 20
10.8996889269
 30
0.0
 10
10.7516902215
 20
10.8971388728
 30
0.0
 10
10.7264598648
 20
10.8943133073
 30
0.0
 10
10.7017088307
 20
10.8912172043
 30
0.0
 10
10.6774804757
 20
10.8878560157
 30
0.0
 10
10.6538172345
 20
10.884235655
 30
0.0
 10
10.6307605402
 20
10.880362503
 30
0.0
 10
10.6083507502
 20
10.8762433881
 30
0.0
 10
10.5866270798
 20
10.8718855694
 30
0.0
 10
10.5656275323
 20
10.8672967255
 30
0.0
 10
10.5453888245
 20
10.8624849389
 30
0.0
 10
10.5259463103
 20
10.8574586976
 30
0.0
 10
10.507333921
 20
10.8522268616
 30
0.0
 10
10.4895840979
 20
10.8467986471
 30
0.0
 10
10.4727277533
 20
10.8411836039
 30
0.0
 10
10.4567941007
 20
10.8353915902
 30
0.0
 10
10.4418109146
 20
10.8294327807
 30
0.0
 10
10.4299756845
 20
10.8242658898
 30
0.0
 10
10.4210122324
 20
10.8200482548
 30
0.0
 10
10.4146391458
 20
10.8168949184
 30
0.0
 10
10.4085224274
 20
10.8137077579
 30
0.0
 10
10.4026647004
 20
10.8104881806
 30
0.0
 10
10.3970685275
 20
10.8072375412
 30
0.0
 10
10.391736335
 20
10.8039572662
 30
0.0
 10
10.3866704254
 20
10.8006488018
 30
0.0
 10
10.3818729969
 20
10.7973134975
 30
0.0
 10
10.3773460557
 20
10.7939527856
 30
0.0
 10
10.3730915566
 20
10.7905680021
 30
0.0
 10
10.3691115284
 20
10.7871607729
 30
0.0
 10
10.366595896
 20
10.7848323569
 30
0.0
 10
10.3653866945
 20
10.783664358
 30
0.0
  0
SPLINE
  5
3A6
100
AcDbEntity
  8
0
100
AcDbSpline
 62
7
  6
CONTINUOUS
 70
0
 71
3
 72
53
 73
49
 74
0
 42
0.0000001
 43
0.0000001
 44
0.0000000001
 40
0.0
 40
0.0
 40
0.0
 40
0.0
 40
0.0099478138
 40
0.0203710141
 40
0.0312661788
 40
0.0426283033
 40
0.0544508681
 40
0.0667261041
 40
0.0794450708
 40
0.0925977372
 40
0.1061731631
 40
0.1201594674
 40
0.1345439811
 40
0.1493132882
 40
0.1644532324
 40
0.1799490562
 40
0.2119455736
 40
0.2451738662
 40
0.2794964501
 40
0.3147691418
 40
0.3508421053
 40
0.3875608403
 40
0.4247671375
 40
0.4623000162
 40
0.4999966591
 40
0.5376933323
 40
0.5752263001
 40
0.6124327435
 40
0.6491516859
 40
0.6852249173
 40
0.7204979311
 40
0.7548208833
 40
0.7880495959
 40
0.8200465913
 40
0.8355426679
 40
0.8506828861
 40
0.8654524562
 40
0.8798372681
 40
0.8938238624
 40
0.9073995874
 40
0.9205525796
 40
0.9332718518
 40
0.9455474263
 40
0.9573703225
 40
0.9687327759
 40
0.9796283001
 40
0.9900518325
 40
1.0
 40
1.0
 40
1.0
 40
1.0
 10
11.4792854096
 20
10.6910262759
 30
0.0
 10
11.4763862793
 20
10.6924719217
 30
0.0
 10
11.4703987443
 20
10.6953313944
 30
0.0
 10
11.4610811855
 20
10.6994404083
 30
0.0
 10
11.4512275323
 20
10.7034650771
 30
0.0
 10
11.4408492484
 20
10.7074006142
 30
0.0
 10
11.4299582748
 20
10.711242508
 30
0.0
 10
11.4185672041
 20
10.7149862568
 30
0.0
 10
11.4066892152
 20
10.7186274849
 30
0.0
 10
11.3943380777
 20
10.7221619746
 30
0.0
 10
11.3815281108
 20
10.7255855558
 30
0.0
 10
11.3682741876
 20
10.7288942588
 30
0.0
 10
11.3545916988
 20
10.7320842121
 30
0.0
 10
11.3404965451
 20
10.7351516612
 30
0.0
 10
11.3260050945
 20
10.7380930847
 30
0.0
 10
11.305963073
 20
10.7418826804
 30
0.0
 10
11.2800409593
 20
10.7462663778
 30
0.0
 10
11.247955585
 20
10.7509191962
 30
0.0
 10
11.2147170068
 20
10.7549968943
 30
0.0
 10
11.1804798358
 20
10.7584803036
 30
0.0
 10
11.1454031677
 20
10.7613530117
 30
0.0
 10
11.1096501175
 20
10.7636015006
 30
0.0
 10
11.0733869672
 20
10.7652151881
 30
0.0
 10
11.0367824037
 20
10.7661864924
 30
0.0
 10
11.0000067165
 20
10.766510849
 30
0.0
 10
10.9632309982
 20
10.7661867328
 30
0.0
 10
10.9266263419
 20
10.7652156623
 30
0.0
 10
10.8903630373
 20
10.7636022021
 30
0.0
 10
10.8546097698
 20
10.7613539444
 30
0.0
 10
10.8195328223
 20
10.758481466
 30
0.0
 10
10.785295315
 20
10.7549982796
 30
0.0
 10
10.7520563469
 20
10.7509207908
 30
0.0
 10
10.719970527
 20
10.7462681728
 30
0.0
 10
10.6940480035
 20
10.7418846516
 30
0.0
 10
10.6740056254
 20
10.7380951807
 30
0.0
 10
10.6595138909
 20
10.7351538632
 30
0.0
 10
10.6454184429
 20
10.7320864869
 30
0.0
 10
10.6317356453
 20
10.7288966381
 30
0.0
 10
10.6184814046
 20
10.7255880134
 30
0.0
 10
10.6056711092
 20
10.722164508
 30
0.0
 10
10.5933196289
 20
10.7186301151
 30
0.0
 10
10.5814412925
 20
10.7149889429
 30
0.0
 10
10.5700498586
 20
10.7112452823
 30
0.0
 10
10.559158516
 20
10.7074034565
 30
0.0
 10
10.5487798573
 20
10.7034679724
 30
0.0
 10
10.5389258088
 20
10.6994433921
 30
0.0
 10
10.529607865
 20
10.6953344085
 30
0.0
 10
10.5236200514
 20
10.6924750011
 30
0.0
 10
10.5207207864
 20
10.6910293674
 30
0.0
  0
SPLINE
  5
3A7
100
AcDbEntity
  8
0
100
AcDbSpline
 62
7
  6
CONTINUOUS
 70
0
 71
3
 72
39
 73
35
 74
0
 42
0.0000001
 43
0.0000001
 44
0.0000000001
 40
0.0
 40
0.0
 40
0.0
 40
0.0
 40
0.0299152276
 40
0.0598232081
 40
0.0897580413
 40
0.1197507396
 40
0.1498295507
 40
0.1800183099
 40
0.2103359891
 40
0.2407964732
 40
0.2714087067
 40
0.302177084
 40
0.3331019841
 40
0.3641803643
 40
0.3954063503
 40
0.4267717812
 40
0.4582666867
 40
0.4898796872
 40
0.5215983157
 40
0.55340927
 40
0.5852986011
 40
0.6172518504
 40
0.6492541458
 40
0.6812902657
 40
0.7133446836
 40
0.7454015992
 40
0.7774449688
 40
0.8094585419
 40
0.8414259167
 40
0.8733306251
 40
0.9051562604
 40
0.936886663
 40
0.9685061781
 40
1.0
 40
1.0
 40
1.0
 40
1.0
 10
10.4956944098
 20
7.723828306
 30
0.0
 10
10.4925692662
 20
7.720045034
 30
0.0
 10
10.4859622276
 20
7.7127666886
 30
0.0
 10
10.4750777848
 20
7.702821729
 30
0.0
 10
10.4633093485
 20
7.6939179406
 30
0.0
 10
10.4507548515
 20
7.6861105056
 30
0.0
 10
10.4375161497
 20
7.6794382432
 30
0.0
 10
10.4236975781
 20
7.6739261343
 30
0.0
 10
10.409403038
 20
7.6695858076
 30
0.0
 10
10.3947339808
 20
7.6664172589
 30
0.0
 10
10.3797878309
 20
7.6644105522
 30
0.0
 10
10.3646569584
 20
7.6635476392
 30
0.0
 10
10.3494281077
 20
7.6638040822
 30
0.0
 10
10.3341822132
 20
7.6651506087
 30
0.0
 10
10.3189945101
 20
7.6675544454
 30
0.0
 10
10.3039348568
 20
7.6709804138
 30
0.0
 10
10.2890681986
 20
7.6753917929
 30
0.0
 10
10.2744551133
 20
7.6807509661
 30
0.0
 10
10.2601523963
 20
7.687019878
 30
0.0
 10
10.246213654
 20
7.6941603244
 30
0.0
 10
10.2326898824
 20
7.702134101
 30
0.0
 10
10.2196300182
 20
7.7109030327
 30
0.0
 10
10.2070814513
 20
7.7204288982
 30
0.0
 10
10.1950904924
 20
7.7306732671
 30
0.0
 10
10.1837027917
 20
7.7415972566
 30
0.0
 10
10.1729637016
 20
7.7531612179
 30
0.0
 10
10.1629185801
 20
7.7653243541
 30
0.0
 10
10.153613024
 20
7.7780442789
 30
0.0
 10
10.1450930242
 20
7.7912765047
 30
0.0
 10
10.1374050187
 20
7.8049739145
 30
0.0
 10
10.130595863
 20
7.8190860419
 30
0.0
 10
10.1247125449
 20
7.8335588478
 30
0.0
 10
10.1198021794
 20
7.8483324991
 30
0.0
 10
10.1172019487
 20
7.8583632466
 30
0.0
 10
10.1160804324
 20
7.8634060869
 30
0.0
  0
SPLINE
  5
3A8
100
AcDbEntity
  8
0
100
AcDbSpline
 62
7
  6
CONTINUOUS
 70
0
 71
3
 72
37
 73
33
 74
0
 42
0.0000001
 43
0.0000001
 44
0.0000000001
 40
0.0
 40
0.0
 40
0.0
 40
0.0
 40
0.0311466476
 40
0.0624482391
 40
0.093895328
 40
0.1254805417
 40
0.1571907946
 40
0.1890115952
 40
0.2209259356
 40
0.2529150311
 40
0.284958639
 40
0.3170354579
 40
0.3491235488
 40
0.3812007523
 40
0.4451977724
 40
0.5088980103
 40
0.5406103272
 40
0.5721976339
 40
0.6036476391
 40
0.6349508386
 40
0.6661007532
 40
0.6970941041
 40
0.727930928
 40
0.7586146239
 40
0.7891519281
 40
0.8195528177
 40
0.8498303372
 40
0.8800003401
 40
0.9100811543
 40
0.9400931797
 40
0.9700584251
 40
1.0
 40
1.0
 40
1.0
 40
1.0
 10
9.9001679967
 20
7.2824236441
 30
0.0
 10
9.8983282453
 20
7.2825512313
 30
0.0
 10
9.894647564
 20
7.2829417293
 30
0.0
 10
9.8891711941
 20
7.2839253004
 30
0.0
 10
9.8837534487
 20
7.2853031056
 30
0.0
 10
9.8784236693
 20
7.2870675512
 30
0.0
 10
9.8732101024
 20
7.2892093069
 30
0.0
 10
9.8681405836
 20
7.2917168587
 30
0.0
 10
9.8632421178
 20
7.2945768376
 30
0.0
 10
9.8585408097
 20
7.2977739554
 30
0.0
 10
9.8540616921
 20
7.3012911683
 30
0.0
 10
9.8498286769
 20
7.3051096432
 30
0.0
 10
9.8458641471
 20
7.3092092957
 30
0.0
 10
9.8409696116
 20
7.3150146045
 30
0.0
 10
9.8356242493
 20
7.3228578821
 30
0.0
 10
9.8314136813
 20
7.3313410995
 30
0.0
 10
9.828789004
 20
7.3383932209
 30
0.0
 10
9.8272036001
 20
7.3437796232
 30
0.0
 10
9.8260077314
 20
7.3492406956
 30
0.0
 10
9.8252076783
 20
7.3547475889
 30
0.0
 10
9.8248077983
 20
7.3602708556
 30
0.0
 10
9.8248102739
 20
7.3657810429
 30
0.0
 10
9.8252151595
 20
7.3712487303
 30
0.0
 10
9.8260203615
 20
7.3766447158
 30
0.0
 10
9.8272216528
 20
7.3819401607
 30
0.0
 10
9.8288126801
 20
7.3871067487
 30
0.0
 10
9.8307849874
 20
7.3921168401
 30
0.0
 10
9.8331280834
 20
7.3969436266
 30
0.0
 10
9.8358294551
 20
7.4015612433
 30
0.0
 10
9.8388747691
 20
7.4059450349
 30
0.0
 10
9.8422474389
 20
7.4100712244
 30
0.0
 10
9.8447032057
 20
7.4126366015
 30
0.0
 10
9.8459783207
 20
7.413868254
 30
0.0
  0
SPLINE
  5
3A9
100
AcDbEntity
  8
0
100
AcDbSpline
 62
7
  6
CONTINUOUS
 70
0
 71
3
 72
41
 73
37
 74
0
 42
0.0000001
 43
0.0000001
 44
0.0000000001
 40
0.0
 40
0.0
 40
0.0
 40
0.0
 40
0.031144444
 40
0.0624425093
 40
0.0938872508
 40
0.1254695847
 40
0.1571771078
 40
0.1889951283
 40
0.2209066801
 40
0.2528929859
 40
0.2849338014
 40
0.3170078274
 40
0.3490931225
 40
0.3811675283
 40
0.4132090962
 40
0.4451965119
 40
0.4771095115
 40
0.5089292827
 40
0.5406388458
 40
0.5722234075
 40
0.6036706813
 40
0.6349711679
 40
0.6661183875
 40
0.6971090579
 40
0.7279432122
 40
0.7586242475
 40
0.7891589026
 40
0.8195571573
 40
0.8498320547
 40
0.8649308931
 40
0.8800050545
 40
0.9100832586
 40
0.9400926739
 40
0.9550812746
 40
0.9700610358
 40
1.0
 40
1.0
 40
1.0
 40
1.0
 10
9.8093710963
 20
7.6504597089
 30
0.0
 10
9.8060571446
 20
7.6506895323
 30
0.0
 10
9.799427253
 20
7.6513928915
 30
0.0
 10
9.789562806
 20
7.6531646244
 30
0.0
 10
9.7798039977
 20
7.6556463502
 30
0.0
 10
9.7702035791
 20
7.6588246381
 30
0.0
 10
9.7608125186
 20
7.6626825096
 30
0.0
 10
9.751680921
 20
7.6671992999
 30
0.0
 10
9.74285743
 20
7.6723508833
 30
0.0
 10
9.7343890621
 20
7.6781097491
 30
0.0
 10
9.7263209371
 20
7.6844451698
 30
0.0
 10
9.718696045
 20
7.6913233553
 30
0.0
 10
9.7115550191
 20
7.6987076349
 30
0.0
 10
9.7049359213
 20
7.7065586498
 30
0.0
 10
9.6988740418
 20
7.714834561
 30
0.0
 10
9.6934017122
 20
7.7234912703
 30
0.0
 10
9.6885481348
 20
7.7324826522
 30
0.0
 10
9.6843392276
 20
7.741760797
 30
0.0
 10
9.6807974868
 20
7.7512762633
 30
0.0
 10
9.6779418666
 20
7.7609783373
 30
0.0
 10
9.6757876774
 20
7.7708153002
 30
0.0
 10
9.6743465027
 20
7.7807346995
 30
0.0
 10
9.6736261348
 20
7.7906836262
 30
0.0
 10
9.6736305288
 20
7.80060899
 30
0.0
 10
9.6743597816
 20
7.8104578107
 30
0.0
 10
9.6758101072
 20
7.8201774602
 30
0.0
 10
9.6779739215
 20
7.8297160848
 30
0.0
 10
9.6808396137
 20
7.8390223547
 30
0.0
 10
9.6838032137
 20
7.8465505823
 30
0.0
 10
9.6865076585
 20
7.8524049402
 30
0.0
 10
9.6894262639
 20
7.8581320099
 30
0.0
 10
9.6934785892
 20
7.8650591965
 30
0.0
 10
9.6980521153
 20
7.8716428573
 30
0.0
 10
9.7020042894
 20
7.876675262
 30
0.0
 10
9.7061450307
 20
7.8815433809
 30
0.0
 10
9.7094624697
 20
7.8850090795
 30
0.0
 10
9.7117592901
 20
7.8872276357
 30
0.0
  0
SPLINE
  5
3AA
100
AcDbEntity
  8
0
100
AcDbSpline
 62
7
  6
CONTINUOUS
 70
0
 71
3
 72
23
 73
19
 74
0
 42
0.0000001
 43
0.0000001
 44
0.0000000001
 40
0.0
 40
0.0
 40
0.0
 40
0.0
 40
0.0749628755
 40
0.1455692105
 40
0.2121610308
 40
0.2751643503
 40
0.3350995418
 40
0.3925846725
 40
0.4483308921
 40
0.5031250774
 40
0.5577995457
 40
0.6131926739
 40
0.670107897
 40
0.7292790073
 40
0.7913522907
 40
0.8568786303
 40
0.9263109639
 40
1.0
 40
1.0
 40
1.0
 40
1.0
 10
10.1010903878
 20
10.6155453679
 30
0.0
 10
10.1004984131
 20
10.6160962586
 30
0.0
 10
10.0993816774
 20
10.6172022456
 30
0.0
 10
10.0978748623
 20
10.6189277503
 30
0.0
 10
10.096589944
 20
10.6206669198
 30
0.0
 10
10.095528836
 20
10.6224182453
 30
0.0
 10
10.0946933192
 20
10.6241801831
 30
0.0
 10
10.0940852497
 20
10.6259509221
 30
0.0
 10
10.09370637
 20
10.6277281926
 30
0.0
 10
10.0935579786
 20
10.6295091713
 30
0.0
 10
10.0936407163
 20
10.6312906258
 30
0.0
 10
10.0939541922
 20
10.6330692676
 30
0.0
 10
10.0944973262
 20
10.6348421047
 30
0.0
 10
10.095268352
 20
10.6366067464
 30
0.0
 10
10.0962655497
 20
10.6383612441
 30
0.0
 10
10.097487077
 20
10.6401040834
 30
0.0
 10
10.098931049
 20
10.6418335659
 30
0.0
 10
10.1000074214
 20
10.6429424609
 30
0.0
 10
10.100579163
 20
10.643494721
 30
0.0
  0
SPLINE
  5
3AB
100
AcDbEntity
  8
0
100
AcDbSpline
 62
7
  6
CONTINUOUS
 70
0
 71
3
 72
11
 73
7
 74
0
 42
0.0000001
 43
0.0000001
 44
0.0000000001
 40
0.0
 40
0.0
 40
0.0
 40
0.0
 40
0.2350093774
 40
0.4802265778
 40
0.7354381532
 40
1.0
 40
1.0
 40
1.0
 40
1.0
 10
10.4645939518
 20
9.7709848873
 30
0.0
 10
10.4645931602
 20
9.7741227735
 30
0.0
 10
10.4644019418
 20
9.7805355078
 30
0.0
 10
10.4636591696
 20
9.7903293961
 30
0.0
 10
10.4625360288
 20
9.8004832236
 30
0.0
 10
10.4616080247
 20
9.8073614438
 30
0.0
 10
10.4611109571
 20
9.8108587728
 30
0.0
  0
SPLINE
  5
3AC
100
AcDbEntity
  8
0
100
AcDbSpline
 62
7
  6
CONTINUOUS
 70
0
 71
3
 72
41
 73
37
 74
0
 42
0.0000001
 43
0.0000001
 44
0.0000000001
 40
0.0
 40
0.0
 40
0.0
 40
0.0
 40
0.031144444
 40
0.0624425093
 40
0.0938872508
 40
0.1254695847
 40
0.1571771078
 40
0.1889951283
 40
0.2209066801
 40
0.2528929859
 40
0.2849338014
 40
0.3170078274
 40
0.3490931225
 40
0.3811675283
 40
0.4132090962
 40
0.4451965119
 40
0.4771095115
 40
0.5089292827
 40
0.5406388458
 40
0.5722234075
 40
0.6036706813
 40
0.6349711679
 40
0.6661183875
 40
0.6971090579
 40
0.7279432122
 40
0.7586242475
 40
0.7891589026
 40
0.8195571573
 40
0.8498320547
 40
0.8649308931
 40
0.8800050545
 40
0.9100832586
 40
0.9400926739
 40
0.9550812746
 40
0.9700610358
 40
1.0
 40
1.0
 40
1.0
 40
1.0
 10
11.5596286883
 20
7.5290789327
 30
0.0
 10
11.5563147367
 20
7.529308756
 30
0.0
 10
11.549684845
 20
7.5300121152
 30
0.0
 10
11.539820398
 20
7.5317838481
 30
0.0
 10
11.5300615897
 20
7.534265574
 30
0.0
 10
11.5204611711
 20
7.5374438618
 30
0.0
 10
11.5110701106
 20
7.5413017334
 30
0.0
 10
11.501938513
 20
7.5458185236
 30
0.0
 10
11.493115022
 20
7.5509701071
 30
0.0
 10
11.4846466541
 20
7.5567289728
 30
0.0
 10
11.4765785291
 20
7.5630643935
 30
0.0
 10
11.468953637
 20
7.569942579
 30
0.0
 10
11.4618126111
 20
7.5773268586
 30
0.0
 10
11.4551935133
 20
7.5851778735
 30
0.0
 10
11.4491316338
 20
7.5934537848
 30
0.0
 10
11.4436593042
 20
7.602110494
 30
0.0
 10
11.4388057268
 20
7.6111018759
 30
0.0
 10
11.4345968196
 20
7.6203800207
 30
0.0
 10
11.4310550788
 20
7.629895487
 30
0.0
 10
11.4281994586
 20
7.639597561
 30
0.0
 10
11.4260452694
 20
7.6494345239
 30
0.0
 10
11.4246040947
 20
7.6593539233
 30
0.0
 10
11.4238837269
 20
7.6693028499
 30
0.0
 10
11.4238881208
 20
7.6792282137
 30
0.0
 10
11.4246173737
 20
7.6890770344
 30
0.0
 10
11.4260676992
 20
7.6987966839
 30
0.0
 10
11.4282315135
 20
7.7083353085
 30
0.0
 10
11.4310972057
 20
7.7176415784
 30
0.0
 10
11.4340608057
 20
7.7251698061
 30
0.0
 10
11.4367652505
 20
7.7310241639
 30
0.0
 10
11.4396838559
 20
7.7367512336
 30
0.0
 10
11.4437361812
 20
7.7436784202
 30
0.0
 10
11.4483097073
 20
7.7502620811
 30
0.0
 10
11.4522618814
 20
7.7552944857
 30
0.0
 10
11.4564026227
 20
7.7601626046
 30
0.0
 10
11.4597200617
 20
7.7636283032
 30
0.0
 10
11.4620168821
 20
7.7658468594
 30
0.0
  0
SPLINE
  5
3AD
100
AcDbEntity
  8
0
100
AcDbSpline
 62
7
  6
CONTINUOUS
 70
0
 71
3
 72
53
 73
49
 74
0
 42
0.0000001
 43
0.0000001
 44
0.0000000001
 40
0.0
 40
0.0
 40
0.0
 40
0.0
 40
0.003125957
 40
0.0058654366
 40
0.0082210968
 40
0.0102062304
 40
0.0110697766
 40
0.0118557027
 40
0.0132317908
 40
0.0138535301
 40
0.0144540089
 40
0.0150537605
 40
0.0156727038
 40
0.017031621
 40
0.0177997893
 40
0.0186369786
 40
0.0205356255
 40
0.0227504206
 40
0.0239783347
 40
0.0252859097
 40
0.0281358701
 40
0.0312900916
 40
0.0347355973
 40
0.0384579513
 40
0.042441505
 40
0.0511322966
 40
0.0606938803
 40
0.0710213775
 40
0.0820248948
 40
0.0936247207
 40
0.105756631
 40
0.1183615758
 40
0.1448142966
 40
0.1726838312
 40
0.2017575106
 40
0.2318843958
 40
0.2629528185
 40
0.2948870059
 40
0.3276300971
 40
0.3611461365
 40
0.4304000987
 40
0.5025704479
 40
0.577681968
 40
0.6558223949
 40
0.7371024393
 40
0.8216057869
 40
0.9093156363
 40
1.0
 40
1.0
 40
1.0
 40
1.0
 10
10.464593942
 20
9.6035123798
 30
0.0
 10
10.4645937356
 20
9.6037179349
 30
0.0
 10
10.4645844323
 20
9.6041037388
 30
0.0
 10
10.4645373227
 20
9.604642765
 30
0.0
 10
10.4644582999
 20
9.6051022121
 30
0.0
 10
10.4643620779
 20
9.6054319356
 30
0.0
 10
10.4642657935
 20
9.605651148
 30
0.0
 10
10.4641678204
 20
9.6058244091
 30
0.0
 10
10.4640495351
 20
9.6059681406
 30
0.0
 10
10.463910029
 20
9.6060682705
 30
0.0
 10
10.4638008564
 20
9.6061193408
 30
0.0
 10
10.4636841982
 20
9.606148829
 30
0.0
 10
10.4635142632
 20
9.606160089
 30
0.0
 10
10.4633339709
 20
9.6061262623
 30
0.0
 10
10.4631510694
 20
9.606058635
 30
0.0
 10
10.4629433093
 20
9.6059581493
 30
0.0
 10
10.462668904
 20
9.6057810341
 30
0.0
 10
10.4623955878
 20
9.6055597576
 30
0.0
 10
10.4621642243
 20
9.6053498209
 30
0.0
 10
10.4619100999
 20
9.6051030932
 30
0.0
 10
10.4615800737
 20
9.6047531319
 30
0.0
 10
10.4611734442
 20
9.6042830907
 30
0.0
 10
10.460746602
 20
9.6037552179
 30
0.0
 10
10.4603004531
 20
9.603173189
 30
0.0
 10
10.4596622504
 20
9.6023040774
 30
0.0
 10
10.4588264544
 20
9.6011040761
 30
0.0
 10
10.4577842748
 20
9.5995400972
 30
0.0
 10
10.456680137
 20
9.597834895
 30
0.0
 10
10.4555176585
 20
9.5960079125
 30
0.0
 10
10.4542992432
 20
9.5940759161
 30
0.0
 10
10.4530273115
 20
9.5920531764
 30
0.0
 10
10.4512323656
 20
9.589205581
 30
0.0
 10
10.4488698891
 20
9.5854924066
 30
0.0
 10
10.4458761075
 20
9.5808976063
 30
0.0
 10
10.4426822411
 20
9.5761454051
 30
0.0
 10
10.4392886911
 20
9.5712748707
 30
0.0
 10
10.4356933945
 20
9.56631688
 30
0.0
 10
10.4318941169
 20
9.5612958332
 30
0.0
 10
10.4278865537
 20
9.5562323368
 30
0.0
 10
10.422198036
 20
9.5493724309
 30
0.0
 10
10.4145357077
 20
9.5407852298
 30
0.0
 10
10.4045179952
 20
9.5306571684
 30
0.0
 10
10.3935265289
 20
9.520699744
 30
0.0
 10
10.3815060118
 20
9.5110230011
 30
0.0
 10
10.3684033888
 20
9.5017522372
 30
0.0
 10
10.3541781632
 20
9.4930377672
 30
0.0
 10
10.3388229975
 20
9.4850641872
 30
0.0
 10
10.3280198723
 20
9.4804553791
 30
0.0
 10
10.3224458488
 20
9.4783364655
 30
0.0
  0
SPLINE
  5
3AE
100
AcDbEntity
  8
0
100
AcDbSpline
 62
7
  6
CONTINUOUS
 70
0
 71
3
 72
19
 73
15
 74
0
 42
0.0000001
 43
0.0000001
 44
0.0000000001
 40
0.0
 40
0.0
 40
0.0
 40
0.0
 40
0.0616584454
 40
0.1233399317
 40
0.185067215
 40
0.2468625626
 40
0.3087474945
 40
0.3707425066
 40
0.4328668994
 40
0.4951385746
 40
0.6201443393
 40
0.7459117862
 40
0.8725152911
 40
1.0
 40
1.0
 40
1.0
 40
1.0
 10
11.6572404944
 20
9.6163286817
 30
0.0
 10
11.6556637961
 20
9.6148057094
 30
0.0
 10
11.6524272057
 20
9.6118433983
 30
0.0
 10
11.6473395347
 20
9.607666434
 30
0.0
 10
11.642030924
 20
9.6037655786
 30
0.0
 10
11.6365149703
 20
9.6001507817
 30
0.0
 10
11.6308054752
 20
9.5968311461
 30
0.0
 10
11.6249169113
 20
9.5938150415
 30
0.0
 10
11.6188639092
 20
9.5911099585
 30
0.0
 10
11.6105856693
 20
9.5879235257
 30
0.0
 10
11.5998946618
 20
9.5847511519
 30
0.0
 10
11.5866822049
 20
9.5822865477
 30
0.0
 10
11.573200022
 20
9.5811813342
 30
0.0
 10
11.5641502602
 20
9.5813578631
 30
0.0
 10
11.5596286883
 20
9.5816714352
 30
0.0
  0
SPLINE
  5
3AF
100
AcDbEntity
  8
0
100
AcDbSpline
 62
7
  6
CONTINUOUS
 70
0
 71
3
 72
23
 73
19
 74
0
 42
0.0000001
 43
0.0000001
 44
0.0000000001
 40
0.0
 40
0.0
 40
0.0
 40
0.0
 40
0.0639326194
 40
0.127559591
 40
0.1908823937
 40
0.2539227798
 40
0.3167007637
 40
0.3792442365
 40
0.4415853025
 40
0.503759875
 40
0.5658068152
 40
0.6277668369
 40
0.6896816889
 40
0.7515932635
 40
0.813542631
 40
0.8755692252
 40
0.9377102121
 40
1.0
 40
1.0
 40
1.0
 40
1.0
 10
11.0595190678
 20
7.3971394385
 30
0.0
 10
11.0595190678
 20
7.3988466903
 30
0.0
 10
11.0596390677
 20
7.4022542917
 30
0.0
 10
11.0601809695
 20
7.4073268814
 30
0.0
 10
11.0610813444
 20
7.4123243525
 30
0.0
 10
11.0623347261
 20
7.4172217331
 30
0.0
 10
11.063933954
 20
7.4219954343
 30
0.0
 10
11.0658697833
 20
7.4266226011
 30
0.0
 10
11.0681312274
 20
7.4310815891
 30
0.0
 10
11.0707056799
 20
7.4353519899
 30
0.0
 10
11.0735790825
 20
7.4394147515
 30
0.0
 10
11.0767361087
 20
7.4432522365
 30
0.0
 10
11.0801602961
 20
7.4468482923
 30
0.0
 10
11.0838342295
 20
7.4501882796
 30
0.0
 10
11.087739693
 20
7.453259024
 30
0.0
 10
11.0918579235
 20
7.4560488489
 30
0.0
 10
11.0961692821
 20
7.458547346
 30
0.0
 10
11.0991557137
 20
7.4600112134
 30
0.0
 10
11.100673534
 20
7.4606916988
 30
0.0
  0
SPLINE
  5
3B0
100
AcDbEntity
  8
0
100
AcDbSpline
 62
7
  6
CONTINUOUS
 70
0
 71
3
 72
19
 73
15
 74
0
 42
0.0000001
 43
0.0000001
 44
0.0000000001
 40
0.0
 40
0.0
 40
0.0
 40
0.0
 40
0.0616584454
 40
0.1233399317
 40
0.185067215
 40
0.2468625626
 40
0.3087474945
 40
0.3707425066
 40
0.4328668994
 40
0.4951385746
 40
0.6201443393
 40
0.7459117862
 40
0.8725152911
 40
1.0
 40
1.0
 40
1.0
 40
1.0
 10
11.6572404944
 20
7.5637361792
 30
0.0
 10
11.6556637961
 20
7.5622132069
 30
0.0
 10
11.6524272057
 20
7.5592508959
 30
0.0
 10
11.6473395347
 20
7.5550739315
 30
0.0
 10
11.642030924
 20
7.5511730761
 30
0.0
 10
11.6365149703
 20
7.5475582792
 30
0.0
 10
11.6308054752
 20
7.5442386436
 30
0.0
 10
11.6249169113
 20
7.541222539
 30
0.0
 10
11.6188639092
 20
7.538517456
 30
0.0
 10
11.6105856693
 20
7.5353310233
 30
0.0
 10
11.5998946618
 20
7.5321586494
 30
0.0
 10
11.5866822049
 20
7.5296940452
 30
0.0
 10
11.573200022
 20
7.5285888317
 30
0.0
 10
11.5641502602
 20
7.5287653606
 30
0.0
 10
11.5596286883
 20
7.5290789327
 30
0.0
  0
SPLINE
  5
3B1
100
AcDbEntity
  8
0
100
AcDbSpline
 62
7
  6
CONTINUOUS
 70
0
 71
3
 72
29
 73
25
 74
0
 42
0.0000001
 43
0.0000001
 44
0.0000000001
 40
0.0
 40
0.0
 40
0.0
 40
0.0
 40
0.0319896505
 40
0.063866792
 40
0.0956288783
 40
0.1272824497
 40
0.1588323642
 40
0.1902849404
 40
0.2216477479
 40
0.2529290869
 40
0.2841379641
 40
0.3152834705
 40
0.3463751703
 40
0.3774225622
 40
0.439404474
 40
0.5013174334
 40
0.5632246023
 40
0.6251806655
 40
0.6872316592
 40
0.7494154567
 40
0.8117626051
 40
0.8742972969
 40
0.9370383327
 40
1.0
 40
1.0
 40
1.0
 40
1.0
 10
10.5300732522
 20
9.1551365924
 30
0.0
 10
10.5300732522
 20
9.1575757707
 30
0.0
 10
10.5302004187
 20
9.1624465277
 30
0.0
 10
10.5307737562
 20
9.1697187787
 30
0.0
 10
10.5317263999
 20
9.1769254831
 30
0.0
 10
10.5330531227
 20
9.184047329
 30
0.0
 10
10.534746882
 20
9.1910666107
 30
0.0
 10
10.5367989023
 20
9.1979664518
 30
0.0
 10
10.5391990297
 20
9.2047312558
 30
0.0
 10
10.5419357252
 20
9.2113468425
 30
0.0
 10
10.5449964524
 20
9.2178004667
 30
0.0
 10
10.548367997
 20
9.2240807231
 30
0.0
 10
10.552036574
 20
9.2301779007
 30
0.0
 10
10.5573011393
 20
9.2380462035
 30
0.0
 10
10.5645579148
 20
9.2473922344
 30
0.0
 10
10.5742290493
 20
9.2577691705
 30
0.0
 10
10.5847506493
 20
9.2672782021
 30
0.0
 10
10.5960187595
 20
9.2759040214
 30
0.0
 10
10.6079378688
 20
9.283641635
 30
0.0
 10
10.6204205184
 20
9.2904924072
 30
0.0
 10
10.6333871295
 20
9.2964621249
 30
0.0
 10
10.6467656025
 20
9.3015592358
 30
0.0
 10
10.6604894275
 20
9.3057933458
 30
0.0
 10
10.6698134875
 20
9.308043758
 30
0.0
 10
10.6745120821
 20
9.3090289152
 30
0.0
  0
SPLINE
  5
3B2
100
AcDbEntity
  8
0
100
AcDbSpline
 62
7
  6
CONTINUOUS
 70
0
 71
3
 72
19
 73
15
 74
0
 42
0.0000001
 43
0.0000001
 44
0.0000000001
 40
0.0
 40
0.0
 40
0.0
 40
0.0
 40
0.0616584454
 40
0.1233399317
 40
0.185067215
 40
0.2468625626
 40
0.3087474945
 40
0.3707425066
 40
0.4328668994
 40
0.4951385746
 40
0.6201443393
 40
0.7459117862
 40
0.8725152911
 40
1.0
 40
1.0
 40
1.0
 40
1.0
 10
9.9069829024
 20
7.6851169555
 30
0.0
 10
9.9054062041
 20
7.6835939832
 30
0.0
 10
9.9021696137
 20
7.6806316721
 30
0.0
 10
9.8970819427
 20
7.6764547078
 30
0.0
 10
9.891773332
 20
7.6725538524
 30
0.0
 10
9.8862573783
 20
7.6689390555
 30
0.0
 10
9.8805478831
 20
7.6656194199
 30
0.0
 10
9.8746593193
 20
7.6626033153
 30
0.0
 10
9.8686063172
 20
7.6598982323
 30
0.0
 10
9.8603280772
 20
7.6567117995
 30
0.0
 10
9.8496370698
 20
7.6535394256
 30
0.0
 10
9.8364246129
 20
7.6510748215
 30
0.0
 10
9.82294243
 20
7.649969608
 30
0.0
 10
9.8138926681
 20
7.6501461369
 30
0.0
 10
9.8093710963
 20
7.6504597089
 30
0.0
  0
SPLINE
  5
3B3
100
AcDbEntity
  8
0
100
AcDbSpline
 62
7
  6
CONTINUOUS
 70
0
 71
3
 72
39
 73
35
 74
0
 42
0.0000001
 43
0.0000001
 44
0.0000000001
 40
0.0
 40
0.0
 40
0.0
 40
0.0
 40
0.076104783
 40
0.1533644547
 40
0.2310954084
 40
0.3086074569
 40
0.3852131652
 40
0.4229648022
 40
0.4602372774
 40
0.496948921
 40
0.5330197132
 40
0.5683715705
 40
0.6029286209
 40
0.6366174601
 40
0.6693674365
 40
0.7011109735
 40
0.7317839448
 40
0.7613260091
 40
0.7896810114
 40
0.8167974608
 40
0.8426291454
 40
0.8671358095
 40
0.8902839757
 40
0.9120480183
 40
0.9224060996
 40
0.9324129635
 40
0.942068336
 40
0.9513727683
 40
0.9603278223
 40
0.9689360023
 40
0.9772013001
 40
0.9851291051
 40
0.9927260409
 40
1.0
 40
1.0
 40
1.0
 40
1.0
 10
11.473938689
 20
6.2261323614
 30
0.0
 10
11.4858462862
 20
6.2253065668
 30
0.0
 10
11.5098658583
 20
6.2239681721
 30
0.0
 10
11.5460981599
 20
6.2228858004
 30
0.0
 10
11.5825672039
 20
6.2227181211
 30
0.0
 10
11.6189261678
 20
6.2234668098
 30
0.0
 10
11.6489904717
 20
6.2248547976
 30
0.0
 10
11.6727206775
 20
6.2264244905
 30
0.0
 10
11.690190281
 20
6.2278180267
 30
0.0
 10
11.7073763112
 20
6.2294300906
 30
0.0
 10
11.724237927
 20
6.2312568578
 30
0.0
 10
11.7407350245
 20
6.2332939469
 30
0.0
 10
11.756828389
 20
6.2355364756
 30
0.0
 10
11.7724797704
 20
6.2379790717
 30
0.0
 10
11.7876519764
 20
6.240615886
 30
0.0
 10
11.8023089695
 20
6.2434406057
 30
0.0
 10
11.8164159626
 20
6.2464464514
 30
0.0
 10
11.8299395018
 20
6.249626214
 30
0.0
 10
11.8428475426
 20
6.2529722693
 30
0.0
 10
11.855109546
 20
6.2564766049
 30
0.0
 10
11.8666965464
 20
6.2601308251
 30
0.0
 10
11.8775813307
 20
6.2639261876
 30
0.0
 10
11.8877381896
 20
6.2678536403
 30
0.0
 10
11.8957023565
 20
6.2712830803
 30
0.0
 10
11.9016829272
 20
6.2740933896
 30
0.0
 10
11.9058974885
 20
6.2761934785
 30
0.0
 10
11.9099129879
 20
6.2783195116
 30
0.0
 10
11.9137270529
 20
6.280470289
 30
0.0
 10
11.9173374607
 20
6.2826444787
 30
0.0
 10
11.9207420824
 20
6.2848408784
 30
0.0
 10
11.9239389697
 20
6.2870582191
 30
0.0
 10
11.9269263116
 20
6.2892952902
 30
0.0
 10
11.929702193
 20
6.291550743
 30
0.0
 10
11.9314480003
 20
6.2930987604
 30
0.0
 10
11.9322831592
 20
6.2938759519
 30
0.0
  0
SPLINE
  5
3B4
100
AcDbEntity
  8
0
100
AcDbSpline
 62
7
  6
CONTINUOUS
 70
0
 71
3
 72
19
 73
15
 74
0
 42
0.0000001
 43
0.0000001
 44
0.0000000001
 40
0.0
 40
0.0
 40
0.0
 40
0.0
 40
0.0616584454
 40
0.1233399317
 40
0.185067215
 40
0.2468625626
 40
0.3087474945
 40
0.3707425066
 40
0.4328668994
 40
0.4951385746
 40
0.6201443393
 40
0.7459117862
 40
0.8725152911
 40
1.0
 40
1.0
 40
1.0
 40
1.0
 10
9.9069829024
 20
9.737709458
 30
0.0
 10
9.9054062041
 20
9.7361864857
 30
0.0
 10
9.9021696137
 20
9.7332241746
 30
0.0
 10
9.8970819427
 20
9.7290472103
 30
0.0
 10
9.891773332
 20
9.7251463549
 30
0.0
 10
9.8862573783
 20
9.721531558
 30
0.0
 10
9.8805478831
 20
9.7182119224
 30
0.0
 10
9.8746593193
 20
9.7151958178
 30
0.0
 10
9.8686063172
 20
9.7124907347
 30
0.0
 10
9.8603280772
 20
9.709304302
 30
0.0
 10
9.8496370698
 20
9.7061319281
 30
0.0
 10
9.8364246129
 20
9.703667324
 30
0.0
 10
9.82294243
 20
9.7025621104
 30
0.0
 10
9.8138926681
 20
9.7027386393
 30
0.0
 10
9.8093710963
 20
9.7030522114
 30
0.0
  0
SPLINE
  5
3B5
100
AcDbEntity
  8
0
100
AcDbSpline
 62
7
  6
CONTINUOUS
 70
0
 71
3
 72
69
 73
65
 74
0
 42
0.0000001
 43
0.0000001
 44
0.0000000001
 40
0.0
 40
0.0
 40
0.0
 40
0.0
 40
0.0085742228
 40
0.0179225384
 40
0.0280751009
 40
0.0390500141
 40
0.05085389
 40
0.0634848755
 40
0.0769343459
 40
0.0911879075
 40
0.1062262933
 40
0.122026148
 40
0.1385605331
 40
0.1557992554
 40
0.1737093055
 40
0.1922551752
 40
0.2113990282
 40
0.2311009461
 40
0.2513191938
 40
0.2720103613
 40
0.3146292596
 40
0.3585846191
 40
0.4034860065
 40
0.4489318686
 40
0.4945142895
 40
0.539823773
 40
0.5844539842
 40
0.6280065551
 40
0.6700958571
 40
0.6904766616
 40
0.7103554182
 40
0.7296898166
 40
0.7484393361
 40
0.7665654055
 40
0.784031696
 40
0.8008043627
 40
0.8168522451
 40
0.8321472364
 40
0.8466647556
 40
0.8603841328
 40
0.8732892276
 40
0.8853693592
 40
0.8966203101
 40
0.9070457284
 40
0.9166592138
 40
0.9254870457
 40
0.9296200642
 40
0.9335743239
 40
0.9373584369
 40
0.940982763
 40
0.9477983047
 40
0.9510242094
 40
0.9541512074
 40
0.9571996832
 40
0.9601918539
 40
0.9631513115
 40
0.9661025286
 40
0.9690702013
 40
0.9720785897
 40
0.9751508761
 40
0.9783086479
 40
0.9849529193
 40
0.9921503551
 40
1.0
 40
1.0
 40
1.0
 40
1.0
 10
10.100579163
 20
10.643494721
 30
0.0
 10
10.1014863229
 20
10.6443709702
 30
0.0
 10
10.103476463
 20
10.6461065699
 30
0.0
 10
10.1068029261
 20
10.6485598708
 30
0.0
 10
10.1105882536
 20
10.6509673166
 30
0.0
 10
10.114823469
 20
10.6533234451
 30
0.0
 10
10.1194991703
 20
10.6556231151
 30
0.0
 10
10.1246045141
 20
10.6578609603
 30
0.0
 10
10.1301275967
 20
10.6600316916
 30
0.0
 10
10.1360554122
 20
10.6621300961
 30
0.0
 10
10.1423738979
 20
10.664151135
 30
0.0
 10
10.1490680105
 20
10.6660899152
 30
0.0
 10
10.156121767
 20
10.6679417216
 30
0.0
 10
10.163518277
 20
10.6697020748
 30
0.0
 10
10.1712398047
 20
10.6713667067
 30
0.0
 10
10.179267821
 20
10.6729315638
 30
0.0
 10
10.1875830413
 20
10.6743928521
 30
0.0
 10
10.19616547
 20
10.6757470312
 30
0.0
 10
10.2049944874
 20
10.6769908347
 30
0.0
 10
10.2171871077
 20
10.6785129201
 30
0.0
 10
10.2328870221
 20
10.6801103607
 30
0.0
 10
10.2521769977
 20
10.6815292539
 30
0.0
 10
10.2719132216
 20
10.6824544224
 30
0.0
 10
10.2919058845
 20
10.6828767962
 30
0.0
 10
10.3119628522
 20
10.6827922294
 30
0.0
 10
10.3318912928
 20
10.6822015549
 30
0.0
 10
10.3514997043
 20
10.6811105689
 30
0.0
 10
10.3705995227
 20
10.6795299712
 30
0.0
 10
10.3861015421
 20
10.6777998442
 30
0.0
 10
10.3981057372
 20
10.6761740784
 30
0.0
 10
10.4067726969
 20
10.6748563247
 30
0.0
 10
10.4151792395
 20
10.6734303588
 30
0.0
 10
10.4233051733
 20
10.6718996181
 30
0.0
 10
10.4311309649
 20
10.670267811
 30
0.0
 10
10.438637826
 20
10.6685388979
 30
0.0
 10
10.4458077557
 20
10.666717087
 30
0.0
 10
10.4526235773
 20
10.6648067929
 30
0.0
 10
10.4590689932
 20
10.6628126365
 30
0.0
 10
10.4651286446
 20
10.6607394625
 30
0.0
 10
10.4707881443
 20
10.6585922768
 30
0.0
 10
10.4760341163
 20
10.6563762172
 30
0.0
 10
10.4808542859
 20
10.65409656
 30
0.0
 10
10.4852374688
 20
10.6517586602
 30
0.0
 10
10.4891737498
 20
10.6493677554
 30
0.0
 10
10.4926539958
 20
10.6469291778
 30
0.0
 10
10.4952220264
 20
10.6448169384
 30
0.0
 10
10.497028157
 20
10.6431042236
 30
0.0
 10
10.4982336013
 20
10.6418396851
 30
0.0
 10
10.4993191296
 20
10.6405673539
 30
0.0
 10
10.5005795225
 20
10.6388963212
 30
0.0
 10
10.5016344323
 20
10.6371755765
 30
0.0
 10
10.5024477585
 20
10.635415593
 30
0.0
 10
10.5029236346
 20
10.6341153181
 30
0.0
 10
10.5032758133
 20
10.632811742
 30
0.0
 10
10.5035039723
 20
10.6315057356
 30
0.0
 10
10.5036077502
 20
10.6301983042
 30
0.0
 10
10.5035869753
 20
10.6288905136
 30
0.0
 10
10.5034417412
 20
10.6275834354
 30
0.0
 10
10.5031722002
 20
10.6262781333
 30
0.0
 10
10.5027786888
 20
10.6249755424
 30
0.0
 10
10.5020777854
 20
10.6232141207
 30
0.0
 10
10.5008709797
 20
10.6210119856
 30
0.0
 10
10.4989613357
 20
10.6184459747
 30
0.0
 10
10.4974392742
 20
10.6168321745
 30
0.0
 10
10.4966087753
 20
10.6160299741
 30
0.0
  0
SPLINE
  5
3B6
100
AcDbEntity
  8
0
100
AcDbSpline
 62
7
  6
CONTINUOUS
 70
0
 71
3
 72
15
 73
11
 74
0
 42
0.0000001
 43
0.0000001
 44
0.0000000001
 40
0.0
 40
0.0
 40
0.0
 40
0.0
 40
0.1233171148
 40
0.2468171822
 40
0.3706750007
 40
0.4950496181
 40
0.6200773069
 40
0.7458672043
 40
0.8724928123
 40
1.0
 40
1.0
 40
1.0
 40
1.0
 10
9.9543576726
 20
7.3016634721
 30
0.0
 10
9.9526073501
 20
7.2999728094
 30
0.0
 10
9.9489188341
 20
7.2967749593
 30
0.0
 10
9.9428988625
 20
7.2925962132
 30
0.0
 10
9.9364482583
 20
7.2890736065
 30
0.0
 10
9.9296330707
 20
7.2862433152
 30
0.0
 10
9.9225220359
 20
7.2841334361
 30
0.0
 10
9.9151867817
 20
7.2827650848
 30
0.0
 10
9.9077021848
 20
7.2821515633
 30
0.0
 10
9.9026781632
 20
7.2822495635
 30
0.0
 10
9.9001679967
 20
7.2824236441
 30
0.0
  0
SPLINE
  5
3B7
100
AcDbEntity
  8
0
100
AcDbSpline
 62
7
  6
CONTINUOUS
 70
0
 71
3
 72
11
 73
7
 74
0
 42
0.0000001
 43
0.0000001
 44
0.0000000001
 40
0.0
 40
0.0
 40
0.0
 40
0.0
 40
0.2520037245
 40
0.5026338564
 40
0.7519331034
 40
1.0
 40
1.0
 40
1.0
 40
1.0
 10
9.8236635026
 20
10.2608491471
 30
0.0
 10
9.8236635026
 20
10.2628185521
 30
0.0
 10
9.8238200721
 20
10.2667484792
 30
0.0
 10
9.8245276348
 20
10.2725883553
 30
0.0
 10
9.825702367
 20
10.2783211109
 30
0.0
 10
9.8267945177
 20
10.2820568645
 30
0.0
 10
9.8274153145
 20
10.2838934188
 30
0.0
  0
SPLINE
  5
3B8
100
AcDbEntity
  8
0
100
AcDbSpline
 62
7
  6
CONTINUOUS
 70
0
 71
3
 72
40
 73
36
 74
0
 42
0.0000001
 43
0.0000001
 44
0.0000000001
 40
0.0
 40
0.0
 40
0.0
 40
0.0
 40
0.0304627124
 40
0.0607944752
 40
0.0910240327
 40
0.1211834829
 40
0.1513070159
 40
0.1814296783
 40
0.2115861278
 40
0.2418094612
 40
0.2721301572
 40
0.3025751692
 40
0.3331671899
 40
0.3639240925
 40
0.3948585489
 40
0.4259778123
 40
0.4572836494
 40
0.4887724089
 40
0.5204352077
 40
0.5522582248
 40
0.5842230916
 40
0.6163073729
 40
0.6484851336
 40
0.6807275891
 40
0.713003836
 40
0.7452816603
 40
0.777528414
 40
0.8097119503
 40
0.8418015924
 40
0.8737691361
 40
0.9055897636
 40
0.9372431188
 40
0.9530054444
 40
0.9687214106
 40
1.0
 40
1.0
 40
1.0
 40
1.0
 10
9.9729206788
 20
10.227193666
 30
0.0
 10
9.972220856
 20
10.225123322
 30
0.0
 10
9.9706294898
 20
10.221054354
 30
0.0
 10
9.9676829819
 20
10.2152163017
 30
0.0
 10
9.9642072542
 20
10.2097019484
 30
0.0
 10
9.9602322001
 20
10.2045549946
 30
0.0
 10
9.9557912184
 20
10.1998147257
 30
0.0
 10
9.950921188
 20
10.1955168985
 30
0.0
 10
9.9456619166
 20
10.1916932573
 30
0.0
 10
9.9400557371
 20
10.1883715
 30
0.0
 10
9.9341470856
 20
10.1855751971
 30
0.0
 10
9.9279821177
 20
10.1833237826
 30
0.0
 10
9.9216083543
 20
10.1816325694
 30
0.0
 10
9.9150743621
 20
10.1805127857
 30
0.0
 10
9.9084294638
 20
10.1799716217
 30
0.0
 10
9.9017234759
 20
10.180012275
 30
0.0
 10
9.8950064634
 20
10.1806339924
 30
0.0
 10
9.8883285083
 20
10.1818321009
 30
0.0
 10
9.8817394789
 20
10.1835980292
 30
0.0
 10
9.8752887949
 20
10.1859193204
 30
0.0
 10
9.8690251795
 20
10.1887796387
 30
0.0
 10
9.8629963919
 20
10.1921587764
 30
0.0
 10
9.8572489354
 20
10.1960326688
 30
0.0
 10
9.8518277372
 20
10.2003734241
 30
0.0
 10
9.8467758002
 20
10.2051493801
 30
0.0
 10
9.8421338273
 20
10.2103251963
 30
0.0
 10
9.8379398235
 20
10.2158619888
 30
0.0
 10
9.8342286823
 20
10.2217175329
 30
0.0
 10
9.8310317702
 20
10.2278464774
 30
0.0
 10
9.8283765052
 20
10.2342008049
 30
0.0
 10
9.826286025
 20
10.2407296991
 30
0.0
 10
9.825027999
 20
10.2462813287
 30
0.0
 10
9.8243212986
 20
10.2507563421
 30
0.0
 10
9.8238167142
 20
10.2552312587
 30
0.0
 10
9.8236635026
 20
10.2586051917
 30
0.0
 10
9.8236635026
 20
10.2608491471
 30
0.0
  0
SPLINE
  5
3B9
100
AcDbEntity
  8
0
100
AcDbSpline
 62
7
  6
CONTINUOUS
 70
0
 71
3
 72
41
 73
37
 74
0
 42
0.0000001
 43
0.0000001
 44
0.0000000001
 40
0.0
 40
0.0
 40
0.0
 40
0.0
 40
0.0326783315
 40
0.048996403
 40
0.0652946017
 40
0.0978181137
 40
0.1302353575
 40
0.1464017531
 40
0.1625360871
 40
0.1946983478
 40
0.2267186635
 40
0.258592054
 40
0.2903168613
 40
0.3218944724
 40
0.3533289781
 40
0.3846267941
 40
0.4157962767
 40
0.4468473519
 40
0.4777911827
 40
0.5086398678
 40
0.5394061761
 40
0.5701033241
 40
0.600744793
 40
0.6313441818
 40
0.6619150939
 40
0.6924710562
 40
0.7230254419
 40
0.7535913937
 40
0.7841817764
 40
0.8148091388
 40
0.8454856744
 40
0.8762231619
 40
0.9070328991
 40
0.9379256436
 40
0.9689115356
 40
1.0
 40
1.0
 40
1.0
 40
1.0
 10
10.495694423
 20
9.8059154029
 30
0.0
 10
10.4984076863
 20
9.8022544188
 30
0.0
 10
10.5022832678
 20
9.7966185298
 30
0.0
 10
10.507036293
 20
9.7888510167
 30
0.0
 10
10.5115004554
 20
9.7809383055
 30
0.0
 10
10.5165391595
 20
9.7707810168
 30
0.0
 10
10.5208399977
 20
9.7603099088
 30
0.0
 10
10.5238233644
 20
9.7517909928
 30
0.0
 10
10.5264953949
 20
9.7432066309
 30
0.0
 10
10.5292614816
 20
9.7323436307
 30
0.0
 10
10.5316603578
 20
9.7191551249
 30
0.0
 10
10.5331410862
 20
9.7058935838
 30
0.0
 10
10.5337148246
 20
9.6926241315
 30
0.0
 10
10.5333980677
 20
9.6794075485
 30
0.0
 10
10.5322114966
 20
9.6663006146
 30
0.0
 10
10.5301791403
 20
9.653355854
 30
0.0
 10
10.5273275536
 20
9.6406216492
 30
0.0
 10
10.5236851162
 20
9.628142417
 30
0.0
 10
10.5192814431
 20
9.6159588815
 30
0.0
 10
10.5141469049
 20
9.6041083986
 30
0.0
 10
10.5083122537
 20
9.5926253108
 30
0.0
 10
10.5018083483
 20
9.5815413102
 30
0.0
 10
10.4946659645
 20
9.5708857958
 30
0.0
 10
10.4869156798
 20
9.560686213
 30
0.0
 10
10.4785878197
 20
9.5509683704
 30
0.0
 10
10.4697124592
 20
9.5417567285
 30
0.0
 10
10.4603194707
 20
9.5330746627
 30
0.0
 10
10.4504386083
 20
9.5249447013
 30
0.0
 10
10.4400996307
 20
9.5173887255
 30
0.0
 10
10.4293324485
 20
9.5104281378
 30
0.0
 10
10.4181673043
 20
9.5040840008
 30
0.0
 10
10.4066349603
 20
9.4983771334
 30
0.0
 10
10.3947669869
 20
9.4933281928
 30
0.0
 10
10.3825957606
 20
9.4889576517
 30
0.0
 10
10.3701556392
 20
9.4852859704
 30
0.0
 10
10.3617198024
 20
9.4833206323
 30
0.0
 10
10.3574708187
 20
9.4824607428
 30
0.0
  0
SPLINE
  5
3BA
100
AcDbEntity
  8
0
100
AcDbSpline
 62
7
  6
CONTINUOUS
 70
0
 71
3
 72
21
 73
17
 74
0
 42
0.0000001
 43
0.0000001
 44
0.0000000001
 40
0.0
 40
0.0
 40
0.0
 40
0.0
 40
0.0618613272
 40
0.1236696641
 40
0.185457334
 40
0.2472570756
 40
0.3091014832
 40
0.3710225826
 40
0.4330512909
 40
0.4952168327
 40
0.5575464115
 40
0.6200647068
 40
0.6827933683
 40
0.7457514074
 40
0.8723494696
 40
1.0
 40
1.0
 40
1.0
 40
1.0
 10
11.530427782
 20
10.0988593789
 30
0.0
 10
11.529565264
 20
10.0976879227
 30
0.0
 10
11.5277659546
 20
10.0954001787
 30
0.0
 10
11.5248547445
 20
10.0921490637
 30
0.0
 10
11.5217425706
 20
10.0890915655
 30
0.0
 10
11.5184404554
 20
10.0862390265
 30
0.0
 10
11.5149600239
 20
10.0836017877
 30
0.0
 10
11.5113136139
 20
10.0811895055
 30
0.0
 10
11.5075141488
 20
10.0790110889
 30
0.0
 10
11.5035751899
 20
10.0770745689
 30
0.0
 10
11.49951083
 20
10.0753870841
 30
0.0
 10
11.4953356873
 20
10.0739549402
 30
0.0
 10
11.491064606
 20
10.0727834644
 30
0.0
 10
11.4852533602
 20
10.0715728141
 30
0.0
 10
11.477821458
 20
10.0707339123
 30
0.0
 10
11.4718260697
 20
10.0707914493
 30
0.0
 10
11.4688314293
 20
10.0709991283
 30
0.0
  0
SPLINE
  5
3BB
100
AcDbEntity
  8
0
100
AcDbSpline
 62
7
  6
CONTINUOUS
 70
0
 71
3
 72
15
 73
11
 74
0
 42
0.0000001
 43
0.0000001
 44
0.0000000001
 40
0.0
 40
0.0
 40
0.0
 40
0.0
 40
0.1233107633
 40
0.2469887131
 40
0.3711045636
 40
0.4957193818
 40
0.6208846932
 40
0.7466354355
 40
0.8730075258
 40
1.0
 40
1.0
 40
1.0
 40
1.0
 10
11.5094223647
 20
7.1823408906
 30
0.0
 10
11.5079176432
 20
7.1814776853
 30
0.0
 10
11.504836887
 20
7.179862357
 30
0.0
 10
11.5000393563
 20
7.1777915278
 30
0.0
 10
11.4950825682
 20
7.1760798927
 30
0.0
 10
11.4899920278
 20
7.1747366171
 30
0.0
 10
11.4847936299
 20
7.1737687569
 30
0.0
 10
11.4795137512
 20
7.1731813179
 30
0.0
 10
11.4741798212
 20
7.1729775444
 30
0.0
 10
11.4706139226
 20
7.1730978432
 30
0.0
 10
11.4688316727
 20
7.1732214427
 30
0.0
  0
SPLINE
  5
3BC
100
AcDbEntity
  8
0
100
AcDbSpline
 62
7
  6
CONTINUOUS
 70
0
 71
3
 72
39
 73
35
 74
0
 42
0.0000001
 43
0.0000001
 44
0.0000000001
 40
0.0
 40
0.0
 40
0.0
 40
0.0
 40
0.0310484295
 40
0.0622434346
 40
0.0935753097
 40
0.1250388105
 40
0.1566225437
 40
0.1883141704
 40
0.2200992682
 40
0.2519617891
 40
0.2838844328
 40
0.3158488892
 40
0.3478361962
 40
0.3798270782
 40
0.4118022674
 40
0.4437428164
 40
0.4756304106
 40
0.5074476913
 40
0.539178542
 40
0.570808347
 40
0.6023242326
 40
0.6337153045
 40
0.6649728579
 40
0.6960905346
 40
0.7270644503
 40
0.7578932921
 40
0.7885783932
 40
0.8191237451
 40
0.849535958
 40
0.8798241748
 40
0.9099999429
 40
0.9400770392
 40
0.9700712335
 40
1.0
 40
1.0
 40
1.0
 40
1.0
 10
11.4688314293
 20
10.0709991283
 30
0.0
 10
11.4671076143
 20
10.0711186753
 30
0.0
 10
11.4636589543
 20
10.0714772405
 30
0.0
 10
11.4585238254
 20
10.0723665318
 30
0.0
 10
11.4534374449
 20
10.0736044747
 30
0.0
 10
11.4484242726
 20
10.0751848449
 30
0.0
 10
11.4435077826
 20
10.0771000911
 30
0.0
 10
11.4387111642
 20
10.0793408847
 30
0.0
 10
11.4340568923
 20
10.0818963842
 30
0.0
 10
11.4295667226
 20
10.0847542736
 30
0.0
 10
11.425261564
 20
10.0879008312
 30
0.0
 10
11.4211613962
 20
10.0913210239
 30
0.0
 10
11.4172851542
 20
10.0949985555
 30
0.0
 10
11.4136506538
 20
10.0989159755
 30
0.0
 10
11.4102745354
 20
10.1030547873
 30
0.0
 10
11.4071721975
 20
10.1073955374
 30
0.0
 10
11.4043577414
 20
10.1119179106
 30
0.0
 10
11.4018438829
 20
10.1166008074
 30
0.0
 10
11.3996419471
 20
10.1214224701
 30
0.0
 10
11.3977618305
 20
10.1263605756
 30
0.0
 10
11.3962119796
 20
10.1313923328
 30
0.0
 10
11.3949993342
 20
10.1364945685
 30
0.0
 10
11.3941293053
 20
10.1416438288
 30
0.0
 10
11.3936057926
 20
10.1468164821
 30
0.0
 10
11.3934311664
 20
10.1519888069
 30
0.0
 10
11.3936062633
 20
10.1571370837
 30
0.0
 10
11.394130334
 20
10.1622376908
 30
0.0
 10
11.395001091
 20
10.1672672021
 30
0.0
 10
11.3962147091
 20
10.1722024741
 30
0.0
 10
11.3977658467
 20
10.1770207445
 30
0.0
 10
11.3996476015
 20
10.1816997015
 30
0.0
 10
11.4018516166
 20
10.1862177101
 30
0.0
 10
11.4043678055
 20
10.190553442
 30
0.0
 10
11.4062479962
 20
10.1933120194
 30
0.0
 10
11.4072355635
 20
10.1946533152
 30
0.0
  0
SPLINE
  5
3BD
100
AcDbEntity
  8
0
100
AcDbSpline
 62
7
  6
CONTINUOUS
 70
0
 71
3
 72
31
 73
27
 74
0
 42
0.0000001
 43
0.0000001
 44
0.0000000001
 40
0.0
 40
0.0
 40
0.0
 40
0.0
 40
0.0165871334
 40
0.0341538496
 40
0.0527304463
 40
0.0723389123
 40
0.0929936446
 40
0.1147031633
 40
0.1374704021
 40
0.1612940169
 40
0.1861684261
 40
0.2120848056
 40
0.2390310176
 40
0.2669923564
 40
0.2959514567
 40
0.3258888337
 40
0.3567828269
 40
0.3886099628
 40
0.4549591526
 40
0.5247176576
 40
0.5976421064
 40
0.6734695843
 40
0.751920056
 40
0.8326988668
 40
0.9154981224
 40
1.0
 40
1.0
 40
1.0
 40
1.0
 10
9.6400787885
 20
6.4027301321
 30
0.0
 10
9.6411969437
 20
6.401689572
 30
0.0
 10
9.6435685842
 20
6.3996206244
 30
0.0
 10
9.6474010898
 20
6.3966357174
 30
0.0
 10
9.6516045719
 20
6.3936848585
 30
0.0
 10
9.6561746263
 20
6.3907711923
 30
0.0
 10
9.6611066196
 20
6.3878974686
 30
0.0
 10
9.6663955317
 20
6.3850666994
 30
0.0
 10
9.6720359056
 20
6.3822817007
 30
0.0
 10
9.6780219443
 20
6.3795454288
 30
0.0
 10
9.6843474306
 20
6.3768606648
 30
0.0
 10
9.6910058081
 20
6.374230275
 30
0.0
 10
9.697990133
 20
6.3716569667
 30
0.0
 10
9.7052931259
 20
6.3691434884
 30
0.0
 10
9.7129071516
 20
6.3666924478
 30
0.0
 10
9.7208242451
 20
6.3643064627
 30
0.0
 10
9.7290361247
 20
6.3619879992
 30
0.0
 10
9.7405266599
 20
6.3589478775
 30
0.0
 10
9.7555683271
 20
6.3553464584
 30
0.0
 10
9.7744079506
 20
6.3513883672
 30
0.0
 10
9.7942004455
 20
6.3477530685
 30
0.0
 10
9.8148627677
 20
6.3444560068
 30
0.0
 10
9.8363083585
 20
6.3415112156
 30
0.0
 10
9.8584472415
 20
6.3389312213
 30
0.0
 10
9.8811864304
 20
6.3367269796
 30
0.0
 10
9.8965464082
 20
6.3355248877
 30
0.0
 10
9.9043091283
 20
6.3349865412
 30
0.0
  0
SPLINE
  5
3BE
100
AcDbEntity
  8
0
100
AcDbSpline
 62
7
  6
CONTINUOUS
 70
0
 71
3
 72
30
 73
26
 74
0
 42
0.0000001
 43
0.0000001
 44
0.0000000001
 40
0.0
 40
0.0
 40
0.0
 40
0.0
 40
0.0300365905
 40
0.0601689807
 40
0.090407722
 40
0.1207615829
 40
0.151237441
 40
0.1818402659
 40
0.2434080703
 40
0.3054967329
 40
0.3680784786
 40
0.4310978091
 40
0.4944736721
 40
0.5581028597
 40
0.6218639448
 40
0.6856231812
 40
0.7492414745
 40
0.7809706857
 40
0.8126150101
 40
0.844159734
 40
0.8755917632
 40
0.9068999241
 40
0.9380740251
 40
0.9691103349
 40
1.0
 40
1.0
 40
1.0
 40
1.0
 10
11.1743646079
 20
9.9790647604
 30
0.0
 10
11.1728944764
 20
9.9784056554
 30
0.0
 10
11.1699047451
 20
9.9771827951
 30
0.0
 10
11.165302539
 20
9.9756441374
 30
0.0
 10
11.1605936701
 20
9.9744026098
 30
0.0
 10
11.1557970099
 20
9.9734618593
 30
0.0
 10
11.1509308708
 20
9.9728244519
 30
0.0
 10
11.1443637421
 20
9.9723803003
 30
0.0
 10
11.1360693797
 20
9.9725942371
 30
0.0
 10
11.1261651759
 20
9.9740683313
 30
0.0
 10
11.1164335431
 20
9.9767394306
 30
0.0
 10
11.1070242022
 20
9.9805726928
 30
0.0
 10
11.0980842539
 20
9.9855177702
 30
0.0
 10
11.08975904
 20
9.9915082358
 30
0.0
 10
11.0821895646
 20
9.9984605174
 30
0.0
 10
11.0755111974
 20
10.0062717532
 30
0.0
 10
11.0707860526
 20
10.0134071424
 30
0.0
 10
11.0675713797
 20
10.0194167326
 30
0.0
 10
11.0654562297
 20
10.0240517745
 30
0.0
 10
11.0636467073
 20
10.0287972633
 30
0.0
 10
11.0621523072
 20
10.0336324706
 30
0.0
 10
11.06098121
 20
10.0385355857
 30
0.0
 10
11.0601396939
 20
10.0434844912
 30
0.0
 10
11.0596326301
 20
10.0484560181
 30
0.0
 10
11.0595190677
 20
10.0517787152
 30
0.0
 10
11.0595190677
 20
10.0534355924
 30
0.0
  0
SPLINE
  5
3BF
100
AcDbEntity
  8
0
100
AcDbSpline
 62
7
  6
CONTINUOUS
 70
0
 71
3
 72
26
 73
22
 74
0
 42
0.0000001
 43
0.0000001
 44
0.0000000001
 40
0.0
 40
0.0
 40
0.0
 40
0.0
 40
0.2241807406
 40
0.4218822521
 40
0.5103022079
 40
0.5914966931
 40
0.6652138975
 40
0.7312023403
 40
0.7892372032
 40
0.8391397329
 40
0.880782214
 40
0.8985070156
 40
0.9142027362
 40
0.9279478411
 40
0.9398911725
 40
0.9502967577
 40
0.9596032875
 40
0.968459615
 40
0.9776620835
 40
0.987976288
 40
1.0
 40
1.0
 40
1.0
 40
1.0
 10
10.3253443421
 20
9.8797404694
 30
0.0
 10
10.3248764765
 20
9.8798837285
 30
0.0
 10
10.3239962228
 20
9.8801540221
 30
0.0
 10
10.3229339681
 20
9.8804890783
 30
0.0
 10
10.322172624
 20
9.8807403418
 30
0.0
 10
10.3216703007
 20
9.8809128627
 30
0.0
 10
10.3212169319
 20
9.8810770349
 30
0.0
 10
10.3208145659
 20
9.881233297
 30
0.0
 10
10.3204651848
 20
9.8813820341
 30
0.0
 10
10.3201708768
 20
9.881523622
 30
0.0
 10
10.3199630453
 20
9.8816413642
 30
0.0
 10
10.31982788
 20
9.8817341419
 30
0.0
 10
10.3197473759
 20
9.8817984928
 30
0.0
 10
10.3196824135
 20
9.8818615148
 30
0.0
 10
10.3196332614
 20
9.8819234587
 30
0.0
 10
10.3196003206
 20
9.881984743
 30
0.0
 10
10.3195844807
 20
9.8820458443
 30
0.0
 10
10.3195872358
 20
9.8821064825
 30
0.0
 10
10.3196092382
 20
9.8821653264
 30
0.0
 10
10.3196497909
 20
9.882221698
 30
0.0
 10
10.3196857855
 20
9.8822549878
 30
0.0
 10
10.3197062053
 20
9.8822714726
 30
0.0
  0
SPLINE
  5
3C0
100
AcDbEntity
  8
0
100
AcDbSpline
 62
7
  6
CONTINUOUS
 70
0
 71
3
 72
41
 73
37
 74
0
 42
0.0000001
 43
0.0000001
 44
0.0000000001
 40
0.0
 40
0.0
 40
0.0
 40
0.0
 40
0.031144444
 40
0.0624425093
 40
0.0938872508
 40
0.1254695847
 40
0.1571771078
 40
0.1889951283
 40
0.2209066801
 40
0.2528929859
 40
0.2849338014
 40
0.3170078274
 40
0.3490931225
 40
0.3811675283
 40
0.4132090962
 40
0.4451965119
 40
0.4771095115
 40
0.5089292827
 40
0.5406388458
 40
0.5722234075
 40
0.6036706813
 40
0.6349711679
 40
0.6661183875
 40
0.6971090579
 40
0.7279432122
 40
0.7586242475
 40
0.7891589026
 40
0.8195571573
 40
0.8498320547
 40
0.8649308931
 40
0.8800050545
 40
0.9100832586
 40
0.9400926739
 40
0.9550812746
 40
0.9700610358
 40
1.0
 40
1.0
 40
1.0
 40
1.0
 10
11.5596286883
 20
9.5816714352
 30
0.0
 10
11.5563147367
 20
9.5819012585
 30
0.0
 10
11.549684845
 20
9.5826046177
 30
0.0
 10
11.539820398
 20
9.5843763506
 30
0.0
 10
11.5300615897
 20
9.5868580765
 30
0.0
 10
11.5204611711
 20
9.5900363643
 30
0.0
 10
11.5110701106
 20
9.5938942359
 30
0.0
 10
11.501938513
 20
9.5984110261
 30
0.0
 10
11.493115022
 20
9.6035626096
 30
0.0
 10
11.4846466541
 20
9.6093214753
 30
0.0
 10
11.4765785291
 20
9.615656896
 30
0.0
 10
11.468953637
 20
9.6225350815
 30
0.0
 10
11.4618126111
 20
9.6299193611
 30
0.0
 10
11.4551935133
 20
9.637770376
 30
0.0
 10
11.4491316338
 20
9.6460462873
 30
0.0
 10
11.4436593042
 20
9.6547029965
 30
0.0
 10
11.4388057268
 20
9.6636943784
 30
0.0
 10
11.4345968196
 20
9.6729725232
 30
0.0
 10
11.4310550788
 20
9.6824879895
 30
0.0
 10
11.4281994586
 20
9.6921900635
 30
0.0
 10
11.4260452694
 20
9.7020270264
 30
0.0
 10
11.4246040947
 20
9.7119464258
 30
0.0
 10
11.4238837269
 20
9.7218953524
 30
0.0
 10
11.4238881208
 20
9.7318207162
 30
0.0
 10
11.4246173737
 20
9.7416695369
 30
0.0
 10
11.4260676992
 20
9.7513891864
 30
0.0
 10
11.4282315135
 20
9.760927811
 30
0.0
 10
11.4310972057
 20
9.7702340809
 30
0.0
 10
11.4340608057
 20
9.7777623086
 30
0.0
 10
11.4367652505
 20
9.7836166664
 30
0.0
 10
11.4396838559
 20
9.7893437361
 30
0.0
 10
11.4437361812
 20
9.7962709227
 30
0.0
 10
11.4483097073
 20
9.8028545836
 30
0.0
 10
11.4522618814
 20
9.8078869882
 30
0.0
 10
11.4564026227
 20
9.8127551071
 30
0.0
 10
11.4597200617
 20
9.8162208057
 30
0.0
 10
11.4620168821
 20
9.8184393619
 30
0.0
  0
SPLINE
  5
3C1
100
AcDbEntity
  8
0
100
AcDbSpline
 62
7
  6
CONTINUOUS
 70
0
 71
3
 72
30
 73
26
 74
0
 42
0.0000001
 43
0.0000001
 44
0.0000000001
 40
0.0
 40
0.0
 40
0.0
 40
0.0
 40
0.0300365905
 40
0.0601689807
 40
0.0904077219
 40
0.1207615829
 40
0.1512374409
 40
0.1818402658
 40
0.2434080701
 40
0.3054967327
 40
0.3680784783
 40
0.4310978088
 40
0.4944736717
 40
0.5581028593
 40
0.6218639444
 40
0.6856231807
 40
0.7492414741
 40
0.7809706854
 40
0.8126150097
 40
0.8441597337
 40
0.8755917629
 40
0.9068999239
 40
0.938074025
 40
0.9691103349
 40
1.0
 40
1.0
 40
1.0
 40
1.0
 10
11.1743646079
 20
7.3227686095
 30
0.0
 10
11.1728944764
 20
7.3221095045
 30
0.0
 10
11.1699047451
 20
7.3208866442
 30
0.0
 10
11.1653025391
 20
7.3193479866
 30
0.0
 10
11.1605936703
 20
7.3181064589
 30
0.0
 10
11.1557970103
 20
7.3171657085
 30
0.0
 10
11.1509308713
 20
7.3165283011
 30
0.0
 10
11.1443637427
 20
7.3160841494
 30
0.0
 10
11.1360693804
 20
7.3162980862
 30
0.0
 10
11.1261651768
 20
7.3177721803
 30
0.0
 10
11.1164335442
 20
7.3204432793
 30
0.0
 10
11.1070242034
 20
7.3242765414
 30
0.0
 10
11.0980842552
 20
7.3292216185
 30
0.0
 10
11.0897590413
 20
7.3352120838
 30
0.0
 10
11.082189566
 20
7.3421643651
 30
0.0
 10
11.0755111987
 20
7.3499756006
 30
0.0
 10
11.0707860538
 20
7.3571109896
 30
0.0
 10
11.0675713808
 20
7.3631205796
 30
0.0
 10
11.0654562307
 20
7.3677556212
 30
0.0
 10
11.0636467081
 20
7.3725011099
 30
0.0
 10
11.0621523079
 20
7.3773363171
 30
0.0
 10
11.0609812105
 20
7.3822394321
 30
0.0
 10
11.0601396943
 20
7.3871883375
 30
0.0
 10
11.0596326303
 20
7.3921598643
 30
0.0
 10
11.0595190678
 20
7.3954825613
 30
0.0
 10
11.0595190678
 20
7.3971394385
 30
0.0
  0
SPLINE
  5
3C2
100
AcDbEntity
  8
0
100
AcDbSpline
 62
7
  6
CONTINUOUS
 70
0
 71
3
 72
40
 73
36
 74
0
 42
0.0000001
 43
0.0000001
 44
0.0000000001
 40
0.0
 40
0.0
 40
0.0
 40
0.0
 40
0.0312686878
 40
0.0627080934
 40
0.094308462
 40
0.1260578954
 40
0.1579396317
 40
0.1899341802
 40
0.2220191899
 40
0.2541702707
 40
0.2863615338
 40
0.318566248
 40
0.35075747
 40
0.3829086764
 40
0.4149943751
 40
0.4469906908
 40
0.478875916
 40
0.5106310187
 40
0.5422400979
 40
0.573690781
 40
0.6049745535
 40
0.636087013
 40
0.6670280378
 40
0.6978018607
 40
0.7284170407
 40
0.7588863223
 40
0.789226381
 40
0.8194574499
 40
0.8496028325
 40
0.8646548204
 40
0.8796952278
 40
0.909748366
 40
0.939797764
 40
0.9698722387
 40
1.0
 40
1.0
 40
1.0
 40
1.0
 10
11.4688316727
 20
7.1732214427
 30
0.0
 10
11.4668010034
 20
7.1733622701
 30
0.0
 10
11.4627381728
 20
7.1738097593
 30
0.0
 10
11.456702736
 20
7.1749674734
 30
0.0
 10
11.450746911
 20
7.1766058779
 30
0.0
 10
11.444910221
 20
7.1787137835
 30
0.0
 10
11.4392305866
 20
7.1812770588
 30
0.0
 10
11.4337449835
 20
7.1842784664
 30
0.0
 10
11.4284889278
 20
7.1876979649
 30
0.0
 10
11.4234963113
 20
7.1915128013
 30
0.0
 10
11.4187991722
 20
7.1956977261
 30
0.0
 10
11.4144275032
 20
7.2002251776
 30
0.0
 10
11.4104090795
 20
7.2050654936
 30
0.0
 10
11.4067693061
 20
7.2101871244
 30
0.0
 10
11.403531087
 20
7.2155568525
 30
0.0
 10
11.4007147131
 20
7.2211400136
 30
0.0
 10
11.3983377667
 20
7.2269007177
 30
0.0
 10
11.3964150454
 20
7.2328020709
 30
0.0
 10
11.3949585006
 20
7.2388063944
 30
0.0
 10
11.3939771892
 20
7.2448754409
 30
0.0
 10
11.3934772366
 20
7.2509706084
 30
0.0
 10
11.3934618112
 20
7.2570531529
 30
0.0
 10
11.3939311089
 20
7.2630843996
 30
0.0
 10
11.394882346
 20
7.2690259521
 30
0.0
 10
11.3963097676
 20
7.2748399115
 30
0.0
 10
11.3982046427
 20
7.2804890644
 30
0.0
 10
11.4005553626
 20
7.2859371929
 30
0.0
 10
11.4033472104
 20
7.2911489464
 30
0.0
 10
11.4060289288
 20
7.2952699963
 30
0.0
 10
11.4083749489
 20
7.2984135086
 30
0.0
 10
11.4108497429
 20
7.30144893
 30
0.0
 10
11.4141831005
 20
7.3050380147
 30
0.0
 10
11.4185389508
 20
7.3089842528
 30
0.0
 10
11.4232221972
 20
7.3125434413
 30
0.0
 10
11.4265397591
 20
7.3146405143
 30
0.0
 10
11.4282409808
 20
7.3156164447
 30
0.0
  0
SPLINE
  5
3C3
100
AcDbEntity
  8
0
100
AcDbSpline
 62
7
  6
CONTINUOUS
 70
0
 71
3
 72
23
 73
19
 74
0
 42
0.0000001
 43
0.0000001
 44
0.0000000001
 40
0.0
 40
0.0
 40
0.0
 40
0.0
 40
0.0639326192
 40
0.1275595907
 40
0.1908823933
 40
0.2539227793
 40
0.3167007632
 40
0.379244236
 40
0.4415853019
 40
0.5037598745
 40
0.5658068147
 40
0.6277668365
 40
0.6896816885
 40
0.7515932633
 40
0.8135426307
 40
0.875569225
 40
0.9377102121
 40
1.0
 40
1.0
 40
1.0
 40
1.0
 10
11.0595190677
 20
10.0534355924
 30
0.0
 10
11.0595190677
 20
10.0551428441
 30
0.0
 10
11.0596390679
 20
10.0585504454
 30
0.0
 10
11.0601809699
 20
10.0636230349
 30
0.0
 10
11.0610813449
 20
10.0686205057
 30
0.0
 10
11.0623347268
 20
10.0735178862
 30
0.0
 10
11.0639339547
 20
10.0782915871
 30
0.0
 10
11.0658697841
 20
10.0829187537
 30
0.0
 10
11.0681312282
 20
10.0873777415
 30
0.0
 10
11.0707056807
 20
10.0916481421
 30
0.0
 10
11.0735790833
 20
10.0957109034
 30
0.0
 10
11.0767361095
 20
10.0995483882
 30
0.0
 10
11.0801602968
 20
10.1031444438
 30
0.0
 10
11.0838342301
 20
10.106484431
 30
0.0
 10
11.0877396935
 20
10.1095551752
 30
0.0
 10
11.0918579238
 20
10.112345
 30
0.0
 10
11.0961692823
 20
10.1148434969
 30
0.0
 10
11.0991557138
 20
10.1163073643
 30
0.0
 10
11.100673534
 20
10.1169878497
 30
0.0
  0
SPLINE
  5
3C4
100
AcDbEntity
  8
0
100
AcDbSpline
 62
7
  6
CONTINUOUS
 70
0
 71
3
 72
26
 73
22
 74
0
 42
0.0000001
 43
0.0000001
 44
0.0000000001
 40
0.0
 40
0.0
 40
0.0
 40
0.0
 40
0.0606590247
 40
0.0910863556
 40
0.1215787864
 40
0.1827577361
 40
0.2442147434
 40
0.305956566
 40
0.3679851561
 40
0.4302969678
 40
0.4928822873
 40
0.5557246535
 40
0.6188004424
 40
0.682078718
 40
0.7137876154
 40
0.7455324593
 40
0.809095129
 40
0.8727281873
 40
0.9045597029
 40
0.9363888714
 40
1.0
 40
1.0
 40
1.0
 40
1.0
 10
10.2870844669
 20
9.8824470028
 30
0.0
 10
10.2917317219
 20
9.8833874925
 30
0.0
 10
10.2987579799
 20
9.8845771581
 30
0.0
 10
10.3081947306
 20
9.8857099906
 30
0.0
 10
10.317703981
 20
9.8865405103
 30
0.0
 10
10.329673898
 20
9.8869984126
 30
0.0
 10
10.3440907744
 20
9.8865994788
 30
0.0
 10
10.3585156506
 20
9.8852331809
 30
0.0
 10
10.3728812239
 20
9.8828829749
 30
0.0
 10
10.3871160551
 20
9.879536479
 30
0.0
 10
10.4011439998
 20
9.8751865541
 30
0.0
 10
10.4148848635
 20
9.8698323868
 30
0.0
 10
10.4282543076
 20
9.8634811873
 30
0.0
 10
10.439008315
 20
9.8573737883
 30
0.0
 10
10.4473394995
 20
9.8520108017
 30
0.0
 10
10.4554835767
 20
9.8463287162
 30
0.0
 10
10.4652669409
 20
9.8386511609
 30
0.0
 10
10.474446532
 20
9.8302506176
 30
0.0
 10
10.4813918466
 20
9.8231224969
 30
0.0
 10
10.4880575435
 20
9.8157352324
 30
0.0
 10
10.4927338181
 20
9.809910123
 30
0.0
 10
10.495694423
 20
9.8059154029
 30
0.0
  0
LINE
  5
3C5
100
AcDbEntity
  8
0
100
AcDbLine
 62
7
  6
CONTINUOUS
 10
10.4611109571
 20
9.8108587728
 11
10.4571578375
 21
9.8369287866
  0
SPLINE
  5
3C6
100
AcDbEntity
  8
0
100
AcDbSpline
 62
7
  6
CONTINUOUS
 70
0
 71
3
 72
23
 73
19
 74
0
 42
0.0000001
 43
0.0000001
 44
0.0000000001
 40
0.0
 40
0.0
 40
0.0
 40
0.0
 40
0.0638442343
 40
0.1285605232
 40
0.1938701293
 40
0.2594984696
 40
0.3251847216
 40
0.3906898641
 40
0.4558019941
 40
0.5203378899
 40
0.5841416156
 40
0.647080479
 40
0.7090390063
 40
0.769910625
 40
0.8295871821
 40
0.8879443374
 40
0.9448238271
 40
1.0
 40
1.0
 40
1.0
 40
1.0
 10
10.254343803
 20
9.8731031908
 30
0.0
 10
10.258596567
 20
9.8732451556
 30
0.0
 10
10.2671718865
 20
9.8732535672
 30
0.0
 10
10.2800758493
 20
9.8724424421
 30
0.0
 10
10.2930214045
 20
9.8708045051
 30
0.0
 10
10.3059031646
 20
9.8683524961
 30
0.0
 10
10.3186231154
 20
9.8651135726
 30
0.0
 10
10.331092402
 20
9.8611268768
 30
0.0
 10
10.3432335237
 20
9.8564408284
 30
0.0
 10
10.354981024
 20
9.851110404
 30
0.0
 10
10.3662813226
 20
9.8451948216
 30
0.0
 10
10.3770918376
 20
9.8387558118
 30
0.0
 10
10.3873796479
 20
9.8318565989
 30
0.0
 10
10.3971199438
 20
9.8245617028
 30
0.0
 10
10.4062942691
 20
9.8169376746
 30
0.0
 10
10.4148890054
 20
9.809054887
 30
0.0
 10
10.4228930654
 20
9.8009913296
 30
0.0
 10
10.4279153956
 20
9.79546026
 30
0.0
 10
10.4303297478
 20
9.7926863985
 30
0.0
  0
SPLINE
  5
3C7
100
AcDbEntity
  8
0
100
AcDbSpline
 62
7
  6
CONTINUOUS
 70
0
 71
3
 72
42
 73
38
 74
0
 42
0.0000001
 43
0.0000001
 44
0.0000000001
 40
0.0
 40
0.0
 40
0.0
 40
0.0
 40
0.1028987252
 40
0.2033968056
 40
0.3011290846
 40
0.3956372753
 40
0.486307464
 40
0.5723288168
 40
0.6526316456
 40
0.6902197006
 40
0.7258340897
 40
0.7592532554
 40
0.7902422014
 40
0.8185601303
 40
0.8439785779
 40
0.8662963777
 40
0.8762477181
 40
0.885377007
 40
0.893684083
 40
0.9011766866
 40
0.9078721733
 40
0.9138073785
 40
0.9190388485
 40
0.9236489327
 40
0.9277588876
 40
0.931530453
 40
0.9351590546
 40
0.938849229
 40
0.9427793487
 40
0.9470829058
 40
0.951847477
 40
0.9571231505
 40
0.9629347684
 40
0.9692904546
 40
0.9761874956
 40
0.9836158181
 40
1.0
 40
1.0
 40
1.0
 40
1.0
 10
10.4303297478
 20
9.7926863985
 30
0.0
 10
10.4316172601
 20
9.7912071691
 30
0.0
 10
10.4341295308
 20
9.7882545734
 30
0.0
 10
10.4377548968
 20
9.7838051613
 30
0.0
 10
10.4411929298
 20
9.7794108488
 30
0.0
 10
10.4444396297
 20
9.7751058549
 30
0.0
 10
10.4474894944
 20
9.7709328038
 30
0.0
 10
10.4503343493
 20
9.7669457532
 30
0.0
 10
10.452571701
 20
9.7637681825
 30
0.0
 10
10.4542589953
 20
9.7613782304
 30
0.0
 10
10.4554370915
 20
9.7597225586
 30
0.0
 10
10.4565533548
 20
9.7581772836
 30
0.0
 10
10.4576048205
 20
9.7567568579
 30
0.0
 10
10.4585884474
 20
9.7554761457
 30
0.0
 10
10.4595009457
 20
9.75434972
 30
0.0
 10
10.4602248886
 20
9.7535216678
 30
0.0
 10
10.4607694586
 20
9.7529505868
 30
0.0
 10
10.4611426806
 20
9.7525855063
 30
0.0
 10
10.461496219
 20
9.7522678616
 30
0.0
 10
10.4618299282
 20
9.751998326
 30
0.0
 10
10.4621439166
 20
9.7517774957
 30
0.0
 10
10.462438253
 20
9.7516054665
 30
0.0
 10
10.4627132666
 20
9.7514821051
 30
0.0
 10
10.4629696353
 20
9.751407616
 30
0.0
 10
10.4632078554
 20
9.7513821407
 30
0.0
 10
10.4634278775
 20
9.7514061055
 30
0.0
 10
10.4636283072
 20
9.7514796715
 30
0.0
 10
10.4638075556
 20
9.7516006803
 30
0.0
 10
10.4639657018
 20
9.751765839
 30
0.0
 10
10.4641038973
 20
9.7519726223
 30
0.0
 10
10.4642233925
 20
9.7522192339
 30
0.0
 10
10.4643251982
 20
9.7525041583
 30
0.0
 10
10.4644100016
 20
9.7528259238
 30
0.0
 10
10.4644783492
 20
9.7531830029
 30
0.0
 10
10.4645307258
 20
9.7535738267
 30
0.0
 10
10.4645814664
 20
9.7541570459
 30
0.0
 10
10.4645937691
 20
9.7546111758
 30
0.0
 10
10.4645939764
 20
9.7549234301
 30
0.0
  0
SPLINE
  5
3C8
100
AcDbEntity
  8
0
100
AcDbSpline
 62
7
  6
CONTINUOUS
 70
0
 71
3
 72
88
 73
84
 74
0
 42
0.0000001
 43
0.0000001
 44
0.0000000001
 40
0.0
 40
0.0
 40
0.0
 40
0.0
 40
0.00398019
 40
0.0081241279
 40
0.012435984
 40
0.0169193403
 40
0.0215772217
 40
0.026411968
 40
0.03142524
 40
0.0366182254
 40
0.0419916187
 40
0.0475457474
 40
0.0532805245
 40
0.0591955312
 40
0.0652900466
 40
0.0715630374
 40
0.0846387255
 40
0.0984100564
 40
0.1128606485
 40
0.1279711965
 40
0.1437198106
 40
0.1600822931
 40
0.1770323702
 40
0.1945418895
 40
0.2125809905
 40
0.2311182618
 40
0.2501208831
 40
0.2695547551
 40
0.289384621
 40
0.309574183
 40
0.3300862123
 40
0.3508826567
 40
0.3719247472
 40
0.3931731028
 40
0.4145878328
 40
0.4361286373
 40
0.4577549081
 40
0.5010997345
 40
0.5442957932
 40
0.5657364549
 40
0.5870180425
 40
0.6081005829
 40
0.6289445938
 40
0.6495111877
 40
0.6697621758
 40
0.6896601722
 40
0.7091687011
 40
0.7282523074
 40
0.7468766714
 40
0.7650087296
 40
0.7826168049
 40
0.7996707468
 40
0.8161420806
 40
0.8320041762
 40
0.8472324412
 40
0.8618045456
 40
0.8757006897
 40
0.8889039322
 40
0.8952415306
 40
0.9014010782
 40
0.9073814661
 40
0.9131818436
 40
0.9188016978
 40
0.9242407986
 40
0.9294993296
 40
0.9345778344
 40
0.939477329
 40
0.9441993212
 40
0.9487458596
 40
0.953119651
 40
0.9573240595
 40
0.9613632868
 40
0.9652423839
 40
0.9689674258
 40
0.9725455946
 40
0.9759852982
 40
0.9824864684
 40
0.985575327
 40
0.9885737973
 40
0.9914977211
 40
0.9943643259
 40
0.9971920046
 40
1.0
 40
1.0
 40
1.0
 40
1.0
 10
10.3653866945
 20
10.8512791698
 30
0.0
 10
10.3666879264
 20
10.8525360633
 30
0.0
 10
10.3694030158
 20
10.8550409608
 30
0.0
 10
10.3737137428
 20
10.8586995522
 30
0.0
 10
10.3783410225
 20
10.8623319001
 30
0.0
 10
10.3832823164
 20
10.8659360757
 30
0.0
 10
10.3885352155
 20
10.8695103961
 30
0.0
 10
10.3940971459
 20
10.873053122
 30
0.0
 10
10.3999653259
 20
10.8765625551
 30
0.0
 10
10.406136844
 20
10.8800368739
 30
0.0
 10
10.4126085836
 20
10.8834744111
 30
0.0
 10
10.4193773276
 20
10.8868733976
 30
0.0
 10
10.4264396728
 20
10.8902321636
 30
0.0
 10
10.4337920749
 20
10.8935490044
 30
0.0
 10
10.4414308514
 20
10.8968222578
 30
0.0
 10
10.4521410857
 20
10.9011867126
 30
0.0
 10
10.466225944
 20
10.9065095889
 30
0.0
 10
10.4839800695
 20
10.91261234
 30
0.0
 10
10.502777042
 20
10.9185031943
 30
0.0
 10
10.5225789607
 20
10.9241701783
 30
0.0
 10
10.5433460715
 20
10.9296017585
 30
0.0
 10
10.5650365409
 20
10.9347868727
 30
0.0
 10
10.5876066449
 20
10.9397149577
 30
0.0
 10
10.6110108383
 20
10.9443759726
 30
0.0
 10
10.6352018609
 20
10.9487604244
 30
0.0
 10
10.6601308373
 20
10.9528593854
 30
0.0
 10
10.6857473831
 20
10.9566645105
 30
0.0
 10
10.71199971
 20
10.9601680541
 30
0.0
 10
10.7388347332
 20
10.9633628857
 30
0.0
 10
10.7661981802
 20
10.966242504
 30
0.0
 10
10.7940347014
 20
10.9688010494
 30
0.0
 10
10.8222879831
 20
10.9710333184
 30
0.0
 10
10.8509008622
 20
10.9729347724
 30
0.0
 10
10.8798154486
 20
10.9745015474
 30
0.0
 10
10.9089732244
 20
10.975730451
 30
0.0
 10
10.9383152359
 20
10.9766190113
 30
0.0
 10
10.9776320018
 20
10.9773479394
 30
0.0
 10
11.0268025527
 20
10.9773996599
 30
0.0
 10
11.0758767537
 20
10.9763101788
 30
0.0
 10
11.1148993267
 20
10.9747502193
 30
0.0
 10
11.1438625265
 20
10.9732446434
 30
0.0
 10
11.1725345818
 20
10.9714037794
 30
0.0
 10
11.2008575225
 20
10.9692313396
 30
0.0
 10
11.2287740336
 20
10.9667317495
 30
0.0
 10
11.2562276428
 20
10.9639100927
 30
0.0
 10
11.2831628165
 20
10.9607721102
 30
0.0
 10
11.3095250779
 20
10.9573241869
 30
0.0
 10
11.3352611171
 20
10.9535733393
 30
0.0
 10
11.3603189006
 20
10.9495272017
 30
0.0
 10
11.3846477798
 20
10.9451940105
 30
0.0
 10
11.4081985982
 20
10.9405825892
 30
0.0
 10
11.4309237971
 20
10.9357023324
 30
0.0
 10
11.4527775128
 20
10.9305631822
 30
0.0
 10
11.4737156831
 20
10.9251756079
 30
0.0
 10
11.4936961188
 20
10.9195505826
 30
0.0
 10
11.5126786892
 20
10.9136995552
 30
0.0
 10
11.5306251106
 20
10.9076344236
 30
0.0
 10
11.5448752517
 20
10.9023422889
 30
0.0
 10
11.5557210784
 20
10.8980014369
 30
0.0
 10
11.5634630417
 20
10.8947444345
 30
0.0
 10
11.5709200182
 20
10.8914432692
 30
0.0
 10
11.5780882577
 20
10.8880995417
 30
0.0
 10
11.584964174
 20
10.8847149961
 30
0.0
 10
11.5915442981
 20
10.8812912681
 30
0.0
 10
11.5978253545
 20
10.877830132
 30
0.0
 10
11.6038041869
 20
10.874333272
 30
0.0
 10
11.6094778166
 20
10.8708024447
 30
0.0
 10
11.6148434226
 20
10.8672394051
 30
0.0
 10
11.6198983133
 20
10.8636458632
 30
0.0
 10
11.6246400097
 20
10.8600236287
 30
0.0
 10
11.6290661116
 20
10.8563743719
 30
0.0
 10
11.6331744512
 20
10.8526999075
 30
0.0
 10
11.6369629569
 20
10.8490018724
 30
0.0
 10
11.6404296416
 20
10.8452821291
 30
0.0
 10
11.6435730089
 20
10.8415419308
 30
0.0
 10
11.6472604757
 20
10.8366240013
 30
0.0
 10
11.6503917353
 20
10.8315735132
 30
0.0
 10
11.6528778193
 20
10.8264151845
 30
0.0
 10
11.6543799001
 20
10.8226002155
 30
0.0
 10
11.6555496252
 20
10.8187759639
 30
0.0
 10
11.6563860354
 20
10.8149442876
 30
0.0
 10
11.6568882065
 20
10.811107918
 30
0.0
 10
11.6570000002
 20
10.8085449225
 30
0.0
 10
11.657
 20
10.8072685876
 30
0.0
  0
SPLINE
  5
3C9
100
AcDbEntity
  8
0
100
AcDbSpline
 62
7
  6
CONTINUOUS
 70
0
 71
3
 72
21
 73
17
 74
0
 42
0.0000001
 43
0.0000001
 44
0.0000000001
 40
0.0
 40
0.0
 40
0.0
 40
0.0
 40
0.127973683
 40
0.2550838578
 40
0.3183180152
 40
0.3813189031
 40
0.4440856601
 40
0.5066205376
 40
0.5689292433
 40
0.6310211291
 40
0.692909251
 40
0.7546102802
 40
0.8161449444
 40
0.87753586
 40
0.9388125281
 40
1.0
 40
1.0
 40
1.0
 40
1.0
 10
10.5284748531
 20
7.8792795955
 30
0.0
 10
10.5299982414
 20
7.8724297586
 30
0.0
 10
10.532390739
 20
7.8586234534
 30
0.0
 10
10.5336500168
 20
7.8411825118
 30
0.0
 10
10.5335612234
 20
7.8272854556
 30
0.0
 10
10.5329403138
 20
7.8169352729
 30
0.0
 10
10.5317573404
 20
7.8066727649
 30
0.0
 10
10.5300068179
 20
7.7965299215
 30
0.0
 10
10.5276855147
 20
7.7865400732
 30
0.0
 10
10.5247927781
 20
7.7767372183
 30
0.0
 10
10.5213307735
 20
7.7671558568
 30
0.0
 10
10.517304753
 20
7.7578305447
 30
0.0
 10
10.5127231715
 20
7.7487956723
 30
0.0
 10
10.5075977159
 20
7.7400845556
 30
0.0
 10
10.5019437037
 20
7.7317302161
 30
0.0
 10
10.497831141
 20
7.7264150144
 30
0.0
 10
10.4956944098
 20
7.723828306
 30
0.0
  0
SPLINE
  5
3CA
100
AcDbEntity
  8
0
100
AcDbSpline
 62
7
  6
CONTINUOUS
 70
0
 71
3
 72
42
 73
38
 74
0
 42
0.0000001
 43
0.0000001
 44
0.0000000001
 40
0.0
 40
0.0
 40
0.0
 40
0.0
 40
0.0056733034
 40
0.0105621206
 40
0.0148396916
 40
0.0168176051
 40
0.018725225
 40
0.020593285
 40
0.0224519588
 40
0.0262446778
 40
0.0302972767
 40
0.034739374
 40
0.0396478288
 40
0.0450628578
 40
0.0510041339
 40
0.0574754992
 40
0.0644705945
 40
0.0719811778
 40
0.0799966648
 40
0.0885032001
 40
0.1069318619
 40
0.1271708625
 40
0.1491249558
 40
0.1727228699
 40
0.1979025759
 40
0.2246217526
 40
0.2528519512
 40
0.2825769348
 40
0.3137983788
 40
0.3465251979
 40
0.4166123117
 40
0.4931927119
 40
0.5768346068
 40
0.6683288898
 40
0.768673616
 40
0.8789626245
 40
1.0
 40
1.0
 40
1.0
 40
1.0
 10
10.508050478
 20
9.6332128059
 30
0.0
 10
10.5078490756
 20
9.6330469535
 30
0.0
 10
10.5074567007
 20
9.6327578325
 30
0.0
 10
10.5068505111
 20
9.6324379392
 30
0.0
 10
10.5063558695
 20
9.6322881261
 30
0.0
 10
10.5059821891
 20
9.6322443837
 30
0.0
 10
10.5057169064
 20
9.6322458696
 30
0.0
 10
10.5054593498
 20
9.6322800622
 30
0.0
 10
10.5051241847
 20
9.6323683957
 30
0.0
 10
10.5047170561
 20
9.6325614761
 30
0.0
 10
10.5042659775
 20
9.6329070771
 30
0.0
 10
10.5038439514
 20
9.6333593121
 30
0.0
 10
10.5034468705
 20
9.6339118386
 30
0.0
 10
10.5030712038
 20
9.6345596834
 30
0.0
 10
10.5027144873
 20
9.6352985323
 30
0.0
 10
10.5023743246
 20
9.6361241158
 30
0.0
 10
10.5020483819
 20
9.6370323573
 30
0.0
 10
10.5017347952
 20
9.6380196363
 30
0.0
 10
10.5014316497
 20
9.6390825886
 30
0.0
 10
10.5010279632
 20
9.640638492
 30
0.0
 10
10.5005444883
 20
9.6427537886
 30
0.0
 10
10.4999901326
 20
9.6454861089
 30
0.0
 10
10.4994334674
 20
9.64846011
 30
0.0
 10
10.4988626992
 20
9.6516624448
 30
0.0
 10
10.4982654481
 20
9.6550826128
 30
0.0
 10
10.497630223
 20
9.658712402
 30
0.0
 10
10.4969456918
 20
9.6625457564
 30
0.0
 10
10.4962002729
 20
9.6665785039
 30
0.0
 10
10.4953826704
 20
9.6708080877
 30
0.0
 10
10.4941522957
 20
9.6768481107
 30
0.0
 10
10.4923606733
 20
9.6849021724
 30
0.0
 10
10.4897624517
 20
9.6951717026
 30
0.0
 10
10.4865461468
 20
9.7062943777
 30
0.0
 10
10.4825632116
 20
9.7183243367
 30
0.0
 10
10.4776334061
 20
9.7313196896
 30
0.0
 10
10.4715455726
 20
9.7453114737
 30
0.0
 10
10.4667848383
 20
9.7548324854
 30
0.0
 10
10.4641554175
 20
9.7597385089
 30
0.0
  0
SPLINE
  5
3CB
100
AcDbEntity
  8
0
100
AcDbSpline
 62
7
  6
CONTINUOUS
 70
0
 71
3
 72
15
 73
11
 74
0
 42
0.0000001
 43
0.0000001
 44
0.0000000001
 40
0.0
 40
0.0
 40
0.0
 40
0.0
 40
0.1192759218
 40
0.2397374936
 40
0.3616372417
 40
0.4852072126
 40
0.6106567139
 40
0.7381702621
 40
0.8679069598
 40
1.0
 40
1.0
 40
1.0
 40
1.0
 10
10.2981774522
 20
9.4999256075
 30
0.0
 10
10.2963052958
 20
9.4989706571
 30
0.0
 10
10.2924770875
 20
9.4971764436
 30
0.0
 10
10.2865389544
 20
9.494853646
 30
0.0
 10
10.2803922792
 20
9.4928921455
 30
0.0
 10
10.2740503331
 20
9.491296082
 30
0.0
 10
10.2675263519
 20
9.4900686569
 30
0.0
 10
10.2608339728
 20
9.4892122451
 30
0.0
 10
10.2539874134
 20
9.4887284707
 30
0.0
 10
10.249371929
 20
9.4886556925
 30
0.0
 10
10.2470445744
 20
9.4886798425
 30
0.0
  0
SPLINE
  5
3CC
100
AcDbEntity
  8
0
100
AcDbSpline
 62
7
  6
CONTINUOUS
 70
0
 71
3
 72
31
 73
27
 74
0
 42
0.0000001
 43
0.0000001
 44
0.0000000001
 40
0.0
 40
0.0
 40
0.0
 40
0.0
 40
0.0606400989
 40
0.1216521761
 40
0.183042667
 40
0.2448102277
 40
0.3069462724
 40
0.3694345599
 40
0.4322498826
 40
0.4953556633
 40
0.5587002025
 40
0.6222122948
 40
0.6540149609
 40
0.6858223975
 40
0.7176182221
 40
0.7493842252
 40
0.781100544
 40
0.8127460337
 40
0.8442988695
 40
0.8600364138
 40
0.8757429122
 40
0.9070468094
 40
0.938198411
 40
0.9537154111
 40
0.9691898422
 40
1.0
 40
1.0
 40
1.0
 40
1.0
 10
10.8142624959
 20
8.9715187003
 30
0.0
 10
10.8066962285
 20
8.9699322763
 30
0.0
 10
10.7913535463
 20
8.9674853727
 30
0.0
 10
10.7680375612
 20
8.9659579425
 30
0.0
 10
10.7445339962
 20
8.9665325226
 30
0.0
 10
10.7210312371
 20
8.9691916621
 30
0.0
 10
10.6977141245
 20
8.9739266451
 30
0.0
 10
10.6747763433
 20
8.980737475
 30
0.0
 10
10.6524274791
 20
8.9896298417
 30
0.0
 10
10.6309013708
 20
9.0006114347
 30
0.0
 10
10.6104677277
 20
9.0136825776
 30
0.0
 10
10.5946085864
 20
9.0263052772
 30
0.0
 10
10.5828016672
 20
9.0374173989
 30
0.0
 10
10.5744324417
 20
9.0462530682
 30
0.0
 10
10.5666085327
 20
9.0555692982
 30
0.0
 10
10.5593856667
 20
9.0653453172
 30
0.0
 10
10.5528218776
 20
9.0755536498
 30
0.0
 10
10.5469760951
 20
9.08615891
 30
0.0
 10
10.5427470829
 20
9.0953008856
 30
0.0
 10
10.5397805841
 20
9.1027659328
 30
0.0
 10
10.5371054844
 20
9.1103066192
 30
0.0
 10
10.5343109428
 20
9.1198822451
 30
0.0
 10
10.5322815592
 20
9.1296248029
 30
0.0
 10
10.5311388006
 20
9.137466403
 30
0.0
 10
10.5303216159
 20
9.1453043124
 30
0.0
 10
10.5300732522
 20
9.1512087143
 30
0.0
 10
10.5300732522
 20
9.1551365924
 30
0.0
  0
SPLINE
  5
3CD
100
AcDbEntity
  8
0
100
AcDbSpline
 62
7
  6
CONTINUOUS
 70
0
 71
3
 72
39
 73
35
 74
0
 42
0.0000001
 43
0.0000001
 44
0.0000000001
 40
0.0
 40
0.0
 40
0.0
 40
0.0
 40
0.0316298566
 40
0.0634542045
 40
0.0954481721
 40
0.1275809819
 40
0.1598174073
 40
0.1921195957
 40
0.2244486917
 40
0.2567663482
 40
0.2890360422
 40
0.3212240326
 40
0.3533001737
 40
0.3852385649
 40
0.417017957
 40
0.4486220901
 40
0.4800399724
 40
0.5112660708
 40
0.5423004553
 40
0.5731489206
 40
0.6038230343
 40
0.6343401023
 40
0.6647230342
 40
0.69500002
 40
0.7252039591
 40
0.755371688
 40
0.7855428712
 40
0.8157585113
 40
0.8460592991
 40
0.8764836973
 40
0.9070658945
 40
0.9378339831
 40
0.9688079913
 40
1.0
 40
1.0
 40
1.0
 40
1.0
 10
10.7269472341
 20
8.1757990825
 30
0.0
 10
10.7213400455
 20
8.1767807323
 30
0.0
 10
10.7101821148
 20
8.1793144793
 30
0.0
 10
10.6938589294
 20
8.1847474327
 30
0.0
 10
10.6780496152
 20
8.1917605038
 30
0.0
 10
10.6629090528
 20
8.2002697367
 30
0.0
 10
10.6485772979
 20
8.210176856
 30
0.0
 10
10.635181651
 20
8.2213711547
 30
0.0
 10
10.6228350974
 20
8.2337326456
 30
0.0
 10
10.6116363933
 20
8.2471344715
 30
0.0
 10
10.6016702168
 20
8.2614450603
 30
0.0
 10
10.593007958
 20
8.2765300489
 30
0.0
 10
10.5857085371
 20
8.2922536413
 30
0.0
 10
10.5798192469
 20
8.3084795848
 30
0.0
 10
10.57537674
 20
8.325071873
 30
0.0
 10
10.5724078386
 20
8.3418950902
 30
0.0
 10
10.5709301344
 20
8.3588145324
 30
0.0
 10
10.5709524285
 20
8.3756961899
 30
0.0
 10
10.5724750033
 20
8.3924066338
 30
0.0
 10
10.5754896063
 20
8.4088128674
 30
0.0
 10
10.5799791311
 20
8.4247822475
 30
0.0
 10
10.5859171592
 20
8.440182524
 30
0.0
 10
10.5932672962
 20
8.4548820513
 30
0.0
 10
10.6019822843
 20
8.4687502688
 30
0.0
 10
10.6120029561
 20
8.4816585714
 30
0.0
 10
10.623257337
 20
8.4934814692
 30
0.0
 10
10.6356597446
 20
8.504098174
 30
0.0
 10
10.6491100102
 20
8.5133947721
 30
0.0
 10
10.6634933107
 20
8.5212665085
 30
0.0
 10
10.6786804585
 20
8.5276204099
 30
0.0
 10
10.6945284684
 20
8.5323782873
 30
0.0
 10
10.7108832023
 20
8.5354789493
 30
0.0
 10
10.7275781978
 20
8.5368810817
 30
0.0
 10
10.7387872089
 20
8.5366702579
 30
0.0
 10
10.7443874266
 20
8.5362818815
 30
0.0
  0
SPLINE
  5
3CE
100
AcDbEntity
  8
0
100
AcDbSpline
 62
7
  6
CONTINUOUS
 70
0
 71
3
 72
41
 73
37
 74
0
 42
0.0000001
 43
0.0000001
 44
0.0000000001
 40
0.0
 40
0.0
 40
0.0
 40
0.0
 40
0.0307612732
 40
0.0616953804
 40
0.0928027751
 40
0.1240794374
 40
0.155517256
 40
0.1712958962
 40
0.187110112
 40
0.2188318226
 40
0.2506704419
 40
0.2666301243
 40
0.2826114608
 40
0.3146228827
 40
0.3466872014
 40
0.3787807956
 40
0.4108795883
 40
0.4429594393
 40
0.4749965342
 40
0.5069677767
 40
0.5388511924
 40
0.5706263473
 40
0.6022747896
 40
0.6337805098
 40
0.6651304132
 40
0.6963147938
 40
0.727327788
 40
0.75816778
 40
0.7888377387
 40
0.8193454414
 40
0.8497035413
 40
0.8799294426
 40
0.910044943
 40
0.9400757863
 40
0.9700502916
 40
1.0
 40
1.0
 40
1.0
 40
1.0
 10
11.365817367
 20
8.4935281453
 30
0.0
 10
11.3601434237
 20
8.4928307763
 30
0.0
 10
11.34869944
 20
8.4919096075
 30
0.0
 10
11.3314350933
 20
8.4919412495
 30
0.0
 10
11.3141330602
 20
8.4933696489
 30
0.0
 10
11.2969066942
 20
8.4961737117
 30
0.0
 10
11.2827187455
 20
8.499629039
 30
0.0
 10
11.2715121296
 20
8.5030458338
 30
0.0
 10
11.26039256
 20
8.5069006026
 30
0.0
 10
11.2467356488
 20
8.5125135486
 30
0.0
 10
11.2335064039
 20
8.5191308517
 30
0.0
 10
11.2232093982
 20
8.5250056209
 30
0.0
 10
11.2131049243
 20
8.5312668172
 30
0.0
 10
11.2008898501
 20
8.5397846861
 30
0.0
 10
11.1869881133
 20
8.5510399417
 30
0.0
 10
11.1739112876
 20
8.5632681861
 30
0.0
 10
11.1617348081
 20
8.5763969631
 30
0.0
 10
11.1505292636
 20
8.5903502487
 30
0.0
 10
11.1403611469
 20
8.6050480021
 30
0.0
 10
11.1312925151
 20
8.6204063176
 30
0.0
 10
11.1233808478
 20
8.6363373777
 30
0.0
 10
11.1166787394
 20
8.652749451
 30
0.0
 10
11.1112335342
 20
8.6695469056
 30
0.0
 10
11.1070868526
 20
8.6866302681
 30
0.0
 10
11.104274031
 20
8.7038963551
 30
0.0
 10
11.1028234775
 20
8.721238504
 30
0.0
 10
11.1027559676
 20
8.7385469288
 30
0.0
 10
11.1040838668
 20
8.7557092276
 30
0.0
 10
11.1068103755
 20
8.7726110663
 30
0.0
 10
11.1109288127
 20
8.7891370442
 30
0.0
 10
11.1164219504
 20
8.8051717319
 30
0.0
 10
11.1232615504
 20
8.8206009178
 30
0.0
 10
11.1314078266
 20
8.8353128778
 30
0.0
 10
11.1408099485
 20
8.8492002659
 30
0.0
 10
11.1514040785
 20
8.8621599352
 30
0.0
 10
11.1592164857
 20
8.8701214074
 30
0.0
 10
11.1632908563
 20
8.8739132194
 30
0.0
  0
SPLINE
  5
3CF
100
AcDbEntity
  8
0
100
AcDbSpline
 62
4
  6
CONTINUOUS
 70
0
 71
3
 72
308
 73
304
 74
0
 42
0.0000001
 43
0.0000001
 44
0.0000000001
 40
0.0
 40
0.0
 40
0.0
 40
0.0
 40
0.015625
 40
0.0234375
 40
0.03125
 40
0.0390625
 40
0.04296875
 40
0.046875
 40
0.05078125
 40
0.0546875
 40
0.056640625
 40
0.05859375
 40
0.060546875
 40
0.0615234375
 40
0.0620117188
 40
0.0625
 40
0.0629882812
 40
0.0634765625
 40
0.064453125
 40
0.06640625
 40
0.068359375
 40
0.0703125
 40
0.07421875
 40
0.078125
 40
0.0859375
 40
0.09375
 40
0.1015625
 40
0.109375
 40
0.11328125
 40
0.1171875
 40
0.119140625
 40
0.12109375
 40
0.123046875
 40
0.1240234375
 40
0.1245117188
 40
0.125
 40
0.1254882812
 40
0.1259765625
 40
0.126953125
 40
0.12890625
 40
0.130859375
 40
0.1328125
 40
0.13671875
 40
0.140625
 40
0.1484375
 40
0.15625
 40
0.1640625
 40
0.171875
 40
0.17578125
 40
0.1796875
 40
0.181640625
 40
0.18359375
 40
0.185546875
 40
0.1865234375
 40
0.1870117188
 40
0.1875
 40
0.1879882812
 40
0.1884765625
 40
0.189453125
 40
0.19140625
 40
0.193359375
 40
0.1953125
 40
0.19921875
 40
0.203125
 40
0.2109375
 40
0.21875
 40
0.2265625
 40
0.234375
 40
0.23828125
 40
0.2421875
 40
0.244140625
 40
0.24609375
 40
0.248046875
 40
0.2490234375
 40
0.25
 40
0.2509765625
 40
0.251953125
 40
0.25390625
 40
0.255859375
 40
0.2578125
 40
0.26171875
 40
0.265625
 40
0.2734375
 40
0.28125
 40
0.2890625
 40
0.296875
 40
0.30078125
 40
0.3046875
 40
0.30859375
 40
0.310546875
 40
0.3115234375
 40
0.3125
 40
0.3134765625
 40
0.314453125
 40
0.31640625
 40
0.3203125
 40
0.32421875
 40
0.328125
 40
0.3359375
 40
0.34375
 40
0.3515625
 40
0.359375
 40
0.36328125
 40
0.3671875
 40
0.37109375
 40
0.373046875
 40
0.3740234375
 40
0.375
 40
0.3759765625
 40
0.376953125
 40
0.37890625
 40
0.3828125
 40
0.38671875
 40
0.390625
 40
0.3984375
 40
0.40625
 40
0.4140625
 40
0.421875
 40
0.42578125
 40
0.4296875
 40
0.43359375
 40
0.435546875
 40
0.4365234375
 40
0.4375
 40
0.4384765625
 40
0.439453125
 40
0.44140625
 40
0.4453125
 40
0.44921875
 40
0.453125
 40
0.4609375
 40
0.46875
 40
0.4765625
 40
0.484375
 40
0.48828125
 40
0.4921875
 40
0.49609375
 40
0.498046875
 40
0.4990234375
 40
0.5
 40
0.5009765625
 40
0.501953125
 40
0.50390625
 40
0.5078125
 40
0.51171875
 40
0.515625
 40
0.5234375
 40
0.53125
 40
0.5390625
 40
0.546875
 40
0.55078125
 40
0.5546875
 40
0.556640625
 40
0.55859375
 40
0.560546875
 40
0.5615234375
 40
0.5625
 40
0.5634765625
 40
0.564453125
 40
0.56640625
 40
0.568359375
 40
0.5703125
 40
0.57421875
 40
0.578125
 40
0.5859375
 40
0.59375
 40
0.6015625
 40
0.609375
 40
0.61328125
 40
0.6171875
 40
0.619140625
 40
0.62109375
 40
0.623046875
 40
0.6240234375
 40
0.6245117188
 40
0.625
 40
0.6254882812
 40
0.6259765625
 40
0.626953125
 40
0.62890625
 40
0.630859375
 40
0.6328125
 40
0.63671875
 40
0.640625
 40
0.6484375
 40
0.65625
 40
0.6640625
 40
0.671875
 40
0.67578125
 40
0.6796875
 40
0.681640625
 40
0.68359375
 40
0.685546875
 40
0.6865234375
 40
0.6870117188
 40
0.6875
 40
0.6879882812
 40
0.6884765625
 40
0.689453125
 40
0.69140625
 40
0.693359375
 40
0.6953125
 40
0.69921875
 40
0.703125
 40
0.7109375
 40
0.71875
 40
0.7265625
 40
0.73046875
 40
0.734375
 40
0.73828125
 40
0.7421875
 40
0.744140625
 40
0.74609375
 40
0.748046875
 40
0.7490234375
 40
0.7495117188
 40
0.75
 40
0.7504882812
 40
0.7509765625
 40
0.751953125
 40
0.75390625
 40
0.755859375
 40
0.7578125
 40
0.76171875
 40
0.765625
 40
0.76953125
 40
0.7734375
 40
0.78125
 40
0.7890625
 40
0.79296875
 40
0.796875
 40
0.80078125
 40
0.8046875
 40
0.806640625
 40
0.80859375
 40
0.810546875
 40
0.8115234375
 40
0.8120117188
 40
0.8125
 40
0.8129882812
 40
0.8134765625
 40
0.814453125
 40
0.81640625
 40
0.818359375
 40
0.8203125
 40
0.82421875
 40
0.828125
 40
0.83203125
 40
0.8359375
 40
0.84375
 40
0.8515625
 40
0.85546875
 40
0.859375
 40
0.86328125
 40
0.8671875
 40
0.869140625
 40
0.87109375
 40
0.8720703125
 40
0.873046875
 40
0.8740234375
 40
0.8745117188
 40
0.875
 40
0.8754882812
 40
0.8759765625
 40
0.876953125
 40
0.8779296875
 40
0.87890625
 40
0.880859375
 40
0.8828125
 40
0.88671875
 40
0.890625
 40
0.89453125
 40
0.8984375
 40
0.90625
 40
0.9140625
 40
0.91796875
 40
0.921875
 40
0.92578125
 40
0.9296875
 40
0.931640625
 40
0.93359375
 40
0.9345703125
 40
0.935546875
 40
0.9365234375
 40
0.9370117188
 40
0.9372558594
 40
0.9375
 40
0.9377441406
 40
0.9379882812
 40
0.9384765625
 40
0.939453125
 40
0.9404296875
 40
0.94140625
 40
0.943359375
 40
0.9453125
 40
0.94921875
 40
0.953125
 40
0.95703125
 40
0.9609375
 40
0.96875
 40
0.9765625
 40
0.984375
 40
1.0
 40
1.0
 40
1.0
 40
1.0
 10
12.2154307429
 20
9.5536277369
 30
0.0
 10
12.2145912087
 20
9.5525095975
 30
0.0
 10
12.2133319075
 20
9.5508323882
 30
0.0
 10
12.2116528391
 20
9.5485961095
 30
0.0
 10
12.2103935379
 20
9.5469188999
 30
0.0
 10
12.2093441201
 20
9.5455212271
 30
0.0
 10
12.2085045861
 20
9.5444030845
 30
0.0
 10
12.207874935
 20
9.5435644897
 30
0.0
 10
12.2072452864
 20
9.5427258485
 30
0.0
 10
12.2067205712
 20
9.542027125
 30
0.0
 10
12.2063008171
 20
9.5414678236
 30
0.0
 10
12.2059859522
 20
9.541049229
 30
0.0
 10
12.2057237216
 20
9.5406975963
 30
0.0
 10
12.2055398524
 20
9.5404569559
 30
0.0
 10
12.2054352648
 20
9.5403108554
 30
0.0
 10
12.2053554707
 20
9.5402254829
 30
0.0
 10
12.2052808501
 20
9.5400475948
 30
0.0
 10
12.2051795514
 20
9.5398426812
 30
0.0
 10
12.2050031194
 20
9.539469047
 30
0.0
 10
12.2047506341
 20
9.5389431445
 30
0.0
 10
12.20444784
 20
9.5383086969
 30
0.0
 10
12.2040440488
 20
9.5374639419
 30
0.0
 10
12.2035393322
 20
9.5364075958
 30
0.0
 10
12.2027317732
 20
9.5347176671
 30
0.0
 10
12.2017223287
 20
9.5326051784
 30
0.0
 10
12.2005109933
 20
9.5300702273
 30
0.0
 10
12.1992996593
 20
9.5275352594
 30
0.0
 10
12.1982902112
 20
9.5254228127
 30
0.0
 10
12.1974826595
 20
9.5237328001
 30
0.0
 10
12.1969779243
 20
9.522676667
 30
0.0
 10
12.1965741714
 20
9.5218314749
 30
0.0
 10
12.19627126
 20
9.521198363
 30
0.0
 10
12.1960191415
 20
9.5206682815
 30
0.0
 10
12.1958420549
 20
9.5203021075
 30
0.0
 10
12.1957418051
 20
9.5200852407
 30
0.0
 10
12.1956639624
 20
9.519944069
 30
0.0
 10
12.1955962699
 20
9.519720796
 30
0.0
 10
12.1955024726
 20
9.5194517366
 30
0.0
 10
12.195339977
 20
9.5189675398
 30
0.0
 10
12.1951069781
 20
9.5182828058
 30
0.0
 10
12.1948277484
 20
9.5174581391
 30
0.0
 10
12.1944553133
 20
9.5163596265
 30
0.0
 10
12.1939898136
 20
9.5149861286
 30
0.0
 10
12.1932449893
 20
9.5127887317
 30
0.0
 10
12.1923139675
 20
9.5100419165
 30
0.0
 10
12.1911967374
 20
9.5067457697
 30
0.0
 10
12.1900795095
 20
9.5034496077
 30
0.0
 10
12.1891484822
 20
9.5007028307
 30
0.0
 10
12.188403669
 20
9.4985053575
 30
0.0
 10
12.187938141
 20
9.4971320533
 30
0.0
 10
12.1875657639
 20
9.4960331432
 30
0.0
 10
12.1872863571
 20
9.4952096909
 30
0.0
 10
12.1870539124
 20
9.4945211574
 30
0.0
 10
12.1868904273
 20
9.4940437433
 30
0.0
 10
12.1867982155
 20
9.4937638161
 30
0.0
 10
12.1867256529
 20
9.4935739256
 30
0.0
 10
12.1866661013
 20
9.493307375
 30
0.0
 10
12.1865821607
 20
9.4929787141
 30
0.0
 10
12.1864373792
 20
9.4923910988
 30
0.0
 10
12.186229443
 20
9.491558162
 30
0.0
 10
12.1859803927
 20
9.4905558498
 30
0.0
 10
12.1856481605
 20
9.4892204073
 30
0.0
 10
12.1852329267
 20
9.4875507708
 30
0.0
 10
12.1845685211
 20
9.4848795386
 30
0.0
 10
12.1837380246
 20
9.4815404352
 30
0.0
 10
12.1827414257
 20
9.4775335351
 30
0.0
 10
12.1817448224
 20
9.4735266399
 30
0.0
 10
12.1809143369
 20
9.4701875243
 30
0.0
 10
12.1802499093
 20
9.4675163164
 30
0.0
 10
12.1798347315
 20
9.4658466182
 30
0.0
 10
12.1795023844
 20
9.4645113023
 30
0.0
 10
12.1792536849
 20
9.4635086035
 30
0.0
 10
12.1790446511
 20
9.4626768763
 30
0.0
 10
12.1788814259
 20
9.462002848
 30
0.0
 10
12.178748072
 20
9.4615209535
 30
0.0
 10
12.1786564572
 20
9.4609488755
 30
0.0
 10
12.1785197242
 20
9.460217607
 30
0.0
 10
12.1783538103
 20
9.4592927133
 30
0.0
 10
12.1781525725
 20
9.458187467
 30
0.0
 10
12.1778850032
 20
9.4567121895
 30
0.0
 10
12.1775502856
 20
9.4548686458
 30
0.0
 10
12.1770148803
 20
9.4519186669
 30
0.0
 10
12.1763455759
 20
9.4482312974
 30
0.0
 10
12.1755424256
 20
9.4438064179
 30
0.0
 10
12.1747392918
 20
9.4393815165
 30
0.0
 10
12.1740699461
 20
9.4356942016
 30
0.0
 10
12.1735346235
 20
9.4327441136
 30
0.0
 10
12.1731327099
 20
9.430532194
 30
0.0
 10
12.1727991235
 20
9.4286868716
 30
0.0
 10
12.1725629801
 20
9.4273991807
 30
0.0
 10
12.1724321521
 20
9.4266570574
 30
0.0
 10
12.1723224502
 20
9.4261182121
 30
0.0
 10
12.1722570161
 20
9.4255115279
 30
0.0
 10
12.1721543296
 20
9.4247262786
 30
0.0
 10
12.1719818224
 20
9.4233410674
 30
0.0
 10
12.1717316224
 20
9.4213679583
 30
0.0
 10
12.1714329923
 20
9.41899776
 30
0.0
 10
12.1710342563
 20
9.4158383577
 30
0.0
 10
12.1705360307
 20
9.4118888082
 30
0.0
 10
12.1699380705
 20
9.4071494795
 30
0.0
 10
12.1693401571
 20
9.4024101023
 30
0.0
 10
12.1688418143
 20
9.3984606741
 30
0.0
 10
12.1684433127
 20
9.3953010291
 30
0.0
 10
12.1681439677
 20
9.3929315709
 30
0.0
 10
12.1678960041
 20
9.3909561466
 30
0.0
 10
12.1677195045
 20
9.3895750683
 30
0.0
 10
12.1676232149
 20
9.3887831971
 30
0.0
 10
12.1675381315
 20
9.3881968535
 30
0.0
 10
12.167502229
 20
9.3875816124
 30
0.0
 10
12.1674372041
 20
9.3867713706
 30
0.0
 10
12.1673314033
 20
9.3853487512
 30
0.0
 10
12.1671760806
 20
9.3833188932
 30
0.0
 10
12.166991482
 20
9.3808820125
 30
0.0
 10
12.1667447255
 20
9.3776332054
 30
0.0
 10
12.1664364958
 20
9.3735720704
 30
0.0
 10
12.1660665212
 20
9.3686987633
 30
0.0
 10
12.1656965974
 20
9.3638254382
 30
0.0
 10
12.1653882406
 20
9.3597643483
 30
0.0
 10
12.1651417384
 20
9.3565154509
 30
0.0
 10
12.1649563641
 20
9.3540788455
 30
0.0
 10
12.164803468
 20
9.3520481263
 30
0.0
 10
12.1646933354
 20
9.3506270442
 30
0.0
 10
12.1646352512
 20
9.3498143394
 30
0.0
 10
12.164578029
 20
9.3492066639
 30
0.0
 10
12.1645730187
 20
9.348591905
 30
0.0
 10
12.1645481263
 20
9.3477746972
 30
0.0
 10
12.1645130498
 20
9.3463434323
 30
0.0
 10
12.1644585044
 20
9.3442993701
 30
0.0
 10
12.1643949488
 20
9.3418462378
 30
0.0
 10
12.1643095444
 20
9.3385754845
 30
0.0
 10
12.1642030182
 20
9.3344870141
 30
0.0
 10
12.1640750817
 20
9.3295808532
 30
0.0
 10
12.1639471986
 20
9.324674724
 30
0.0
 10
12.1638405389
 20
9.3205861744
 30
0.0
 10
12.1637554015
 20
9.3173155795
 30
0.0
 10
12.1636910316
 20
9.3148619641
 30
0.0
 10
12.1636390335
 20
9.3128194135
 30
0.0
 10
12.1635994096
 20
9.3113854501
 30
0.0
 10
12.1635818034
 20
9.3105725661
 30
0.0
 10
12.1635544122
 20
9.3099445259
 30
0.0
 10
12.1635812491
 20
9.3093867325
 30
0.0
 10
12.1635981162
 20
9.3086185052
 30
0.0
 10
12.1636364467
 20
9.3072855237
 30
0.0
 10
12.1636865971
 20
9.3053752958
 30
0.0
 10
12.1637487497
 20
9.303085577
 30
0.0
 10
12.1638309309
 20
9.3000317264
 30
0.0
 10
12.1639338935
 20
9.2962147186
 30
0.0
 10
12.1640573491
 20
9.2916341813
 30
0.0
 10
12.1641808249
 20
9.2870536671
 30
0.0
 10
12.1642837371
 20
9.2832366014
 30
0.0
 10
12.164366019
 20
9.2801828667
 30
0.0
 10
12.1644175571
 20
9.2782744732
 30
0.0
 10
12.164458531
 20
9.2767473211
 30
0.0
 10
12.1644899638
 20
9.2756031546
 30
0.0
 10
12.1645139235
 20
9.274645873
 30
0.0
 10
12.1645381025
 20
9.2738885916
 30
0.0
 10
12.1645425434
 20
9.2732972847
 30
0.0
 10
12.1645992524
 20
9.2727950894
 30
0.0
 10
12.1646566065
 20
9.2720943679
 30
0.0
 10
12.1647345634
 20
9.2712291458
 30
0.0
 10
12.1648254303
 20
9.270186308
 30
0.0
 10
12.1649475228
 20
9.2687974543
 30
0.0
 10
12.1650998177
 20
9.2670608404
 30
0.0
 10
12.1653436687
 20
9.2642825637
 30
0.0
 10
12.1656484211
 20
9.2608096133
 30
0.0
 10
12.1660141497
 20
9.2566421162
 30
0.0
 10
12.1663798736
 20
9.252474613
 30
0.0
 10
12.1666846378
 20
9.249001678
 30
0.0
 10
12.1669284653
 20
9.2462233705
 30
0.0
 10
12.1670808201
 20
9.2444868348
 30
0.0
 10
12.1672027896
 20
9.2430978207
 30
0.0
 10
12.1672940321
 20
9.2420554727
 30
0.0
 10
12.1673708139
 20
9.2411887182
 30
0.0
 10
12.1674230965
 20
9.2405783224
 30
0.0
 10
12.1674552592
 20
9.2402352516
 30
0.0
 10
12.1674729388
 20
9.2399618158
 30
0.0
 10
12.1675152445
 20
9.2397500476
 30
0.0
 10
12.1675630622
 20
9.2394461796
 30
0.0
 10
12.1676507453
 20
9.2389244326
 30
0.0
 10
12.1677739145
 20
9.2381738402
 30
0.0
 10
12.1679226132
 20
9.237275372
 30
0.0
 10
12.1681205653
 20
9.2360766311
 30
0.0
 10
12.1683681125
 20
9.2345784731
 30
0.0
 10
12.1687641282
 20
9.2321812705
 30
0.0
 10
12.1692591685
 20
9.229184819
 30
0.0
 10
12.1698532074
 20
9.2255890532
 30
0.0
 10
12.1704472509
 20
9.2219933003
 30
0.0
 10
12.1709422795
 20
9.2189968169
 30
0.0
 10
12.1713383185
 20
9.2165996782
 30
0.0
 10
12.1715858065
 20
9.2151013576
 30
0.0
 10
12.1717838801
 20
9.2139029505
 30
0.0
 10
12.1719322076
 20
9.2130034625
 30
0.0
 10
12.1720565383
 20
9.2122560607
 30
0.0
 10
12.1721421479
 20
9.2117286179
 30
0.0
 10
12.172193288
 20
9.2114338761
 30
0.0
 10
12.1722253884
 20
9.2111940751
 30
0.0
 10
12.1722813972
 20
9.2110259255
 30
0.0
 10
12.1723477362
 20
9.2107767332
 30
0.0
 10
12.1724677149
 20
9.2103522914
 30
0.0
 10
12.1726370816
 20
9.209739858
 30
0.0
 10
12.1728411913
 20
9.2090075437
 30
0.0
 10
12.1731130337
 20
9.2080302145
 30
0.0
 10
12.1734529408
 20
9.2068088647
 30
0.0
 10
12.1739967339
 20
9.2048545308
 30
0.0
 10
12.1746764953
 20
9.202411673
 30
0.0
 10
12.1754922005
 20
9.1994802187
 30
0.0
 10
12.1761719564
 20
9.1970373439
 30
0.0
 10
12.1767157616
 20
9.1950830474
 30
0.0
 10
12.1771236132
 20
9.1936173128
 30
0.0
 10
12.1775314736
 20
9.1921516255
 30
0.0
 10
12.17787133
 20
9.1909300718
 30
0.0
 10
12.1781432761
 20
9.1899531594
 30
0.0
 10
12.1783470691
 20
9.1892195722
 30
0.0
 10
12.1785174264
 20
9.1886111213
 30
0.0
 10
12.1786356368
 20
9.18817957
 30
0.0
 10
12.178704809
 20
9.1879417689
 30
0.0
 10
12.1787521152
 20
9.1877386295
 30
0.0
 10
12.1788169013
 20
9.1876302442
 30
0.0
 10
12.1788971857
 20
9.1874526792
 30
0.0
 10
12.1790405241
 20
9.1871573395
 30
0.0
 10
12.179243808
 20
9.1867273749
 30
0.0
 10
12.1794883844
 20
9.1862148634
 30
0.0
 10
12.1798142642
 20
9.185530311
 30
0.0
 10
12.1802216902
 20
9.1846750335
 30
0.0
 10
12.1807105688
 20
9.1836485235
 30
0.0
 10
12.181199456
 20
9.1826220609
 30
0.0
 10
12.1818513027
 20
9.1812534274
 30
0.0
 10
12.1826661121
 20
9.1795426418
 30
0.0
 10
12.1834809208
 20
9.177831852
 30
0.0
 10
12.1841327685
 20
9.1764632253
 30
0.0
 10
12.1846216524
 20
9.1754367425
 30
0.0
 10
12.1851105437
 20
9.1744103081
 30
0.0
 10
12.18551793
 20
9.1735547952
 30
0.0
 10
12.1858438908
 20
9.1728707229
 30
0.0
 10
12.1860882201
 20
9.1723567453
 30
0.0
 10
12.186292277
 20
9.1719313678
 30
0.0
 10
12.1864342355
 20
9.1716278393
 30
0.0
 10
12.1865167307
 20
9.1714633949
 30
0.0
 10
12.1865747258
 20
9.1713147072
 30
0.0
 10
12.1866475382
 20
9.1712629368
 30
0.0
 10
12.186739453
 20
9.1711601038
 30
0.0
 10
12.1869027119
 20
9.1709958968
 30
0.0
 10
12.1871346799
 20
9.1707530806
 30
0.0
 10
12.1874135804
 20
9.170465226
 30
0.0
 10
12.1877852595
 20
9.1700801885
 30
0.0
 10
12.188249923
 20
9.1695993142
 30
0.0
 10
12.1888074915
 20
9.1690220839
 30
0.0
 10
12.1893650674
 20
9.1684449021
 30
0.0
 10
12.1901084994
 20
9.1676753094
 30
0.0
 10
12.1910377902
 20
9.1667133242
 30
0.0
 10
12.1919670807
 20
9.1657513375
 30
0.0
 10
12.1927105131
 20
9.1649817472
 30
0.0
 10
12.1932680877
 20
9.1644045581
 30
0.0
 10
12.193825661
 20
9.1638273552
 30
0.0
 10
12.1942903097
 20
9.1633463956
 30
0.0
 10
12.194662019
 20
9.1629615322
 30
0.0
 10
12.1948943592
 20
9.1627212104
 30
0.0
 10
12.1950801812
 20
9.162528454
 30
0.0
 10
12.1952196853
 20
9.1623852531
 30
0.0
 10
12.195335501
 20
9.1622615722
 30
0.0
 10
12.1954291351
 20
9.1621723766
 30
0.0
 10
12.1954966785
 20
9.1620788407
 30
0.0
 10
12.1955744601
 20
9.1620869868
 30
0.0
 10
12.1956745926
 20
9.1620623293
 30
0.0
 10
12.1958009851
 20
9.1620436939
 30
0.0
 10
12.195952131
 20
9.1620161152
 30
0.0
 10
12.1961538423
 20
9.1619811655
 30
0.0
 10
12.1964059186
 20
9.1619368546
 30
0.0
 10
12.1968092759
 20
9.1618663057
 30
0.0
 10
12.1973134603
 20
9.161778
 30
0.0
 10
12.1979184868
 20
9.1616720845
 30
0.0
 10
12.198523512
 20
9.1615661552
 30
0.0
 10
12.1993302126
 20
9.161424921
 30
0.0
 10
12.2003385883
 20
9.1612483766
 30
0.0
 10
12.201346964
 20
9.1610718326
 30
0.0
 10
12.2021536646
 20
9.1609305978
 30
0.0
 10
12.20275869
 20
9.1608246703
 30
0.0
 10
12.2033637157
 20
9.1607187479
 30
0.0
 10
12.2038679026
 20
9.1606304636
 30
0.0
 10
12.2042712548
 20
9.1605598712
 30
0.0
 10
12.204523344
 20
9.1605156712
 30
0.0
 10
12.2047250288
 20
9.1604804937
 30
0.0
 10
12.2048762557
 20
9.160453611
 30
0.0
 10
12.2050023949
 20
9.1604327979
 30
0.0
 10
12.2050904631
 20
9.1604151101
 30
0.0
 10
12.2051411456
 20
9.1604098723
 30
0.0
 10
12.2051781496
 20
9.1603922263
 30
0.0
 10
12.2052190064
 20
9.1604270164
 30
0.0
 10
12.2052721383
 20
9.1604551128
 30
0.0
 10
12.2053657452
 20
9.1605128034
 30
0.0
 10
12.205499142
 20
9.1605907631
 30
0.0
 10
12.2056593583
 20
9.1606862219
 30
0.0
 10
12.205872931
 20
9.1608128342
 30
0.0
 10
12.2061399138
 20
9.1609713275
 30
0.0
 10
12.2065670767
 20
9.1612247895
 30
0.0
 10
12.2071010337
 20
9.1615416607
 30
0.0
 10
12.2077417806
 20
9.1619218874
 30
0.0
 10
12.2083825279
 20
9.1623021191
 30
0.0
 10
12.2092368575
 20
9.1628090929
 30
0.0
 10
12.2103047696
 20
9.1634428108
 30
0.0
 10
12.211586264
 20
9.164203272
 30
0.0
 10
12.2132949233
 20
9.1652172204
 30
0.0
 10
12.2145764178
 20
9.1659776816
 30
0.0
 10
12.2154307474
 20
9.1664846558
 30
0.0
  0
SPLINE
  5
3D0
100
AcDbEntity
  8
0
100
AcDbSpline
 62
4
  6
CONTINUOUS
 70
0
 71
3
 72
308
 73
304
 74
0
 42
0.0000001
 43
0.0000001
 44
0.0000000001
 40
0.0
 40
0.0
 40
0.0
 40
0.0
 40
0.015625
 40
0.0234375
 40
0.03125
 40
0.0390625
 40
0.04296875
 40
0.046875
 40
0.05078125
 40
0.0546875
 40
0.056640625
 40
0.05859375
 40
0.060546875
 40
0.0615234375
 40
0.0620117188
 40
0.0625
 40
0.0629882812
 40
0.0634765625
 40
0.064453125
 40
0.06640625
 40
0.068359375
 40
0.0703125
 40
0.07421875
 40
0.078125
 40
0.0859375
 40
0.09375
 40
0.1015625
 40
0.109375
 40
0.11328125
 40
0.1171875
 40
0.119140625
 40
0.12109375
 40
0.123046875
 40
0.1240234375
 40
0.1245117188
 40
0.125
 40
0.1254882812
 40
0.1259765625
 40
0.126953125
 40
0.12890625
 40
0.130859375
 40
0.1328125
 40
0.13671875
 40
0.140625
 40
0.1484375
 40
0.15625
 40
0.1640625
 40
0.171875
 40
0.17578125
 40
0.1796875
 40
0.181640625
 40
0.18359375
 40
0.185546875
 40
0.1865234375
 40
0.1870117188
 40
0.1875
 40
0.1879882812
 40
0.1884765625
 40
0.189453125
 40
0.19140625
 40
0.193359375
 40
0.1953125
 40
0.19921875
 40
0.203125
 40
0.2109375
 40
0.21875
 40
0.2265625
 40
0.234375
 40
0.23828125
 40
0.2421875
 40
0.244140625
 40
0.24609375
 40
0.248046875
 40
0.2490234375
 40
0.25
 40
0.2509765625
 40
0.251953125
 40
0.25390625
 40
0.255859375
 40
0.2578125
 40
0.26171875
 40
0.265625
 40
0.2734375
 40
0.28125
 40
0.2890625
 40
0.296875
 40
0.30078125
 40
0.3046875
 40
0.30859375
 40
0.310546875
 40
0.3115234375
 40
0.3125
 40
0.3134765625
 40
0.314453125
 40
0.31640625
 40
0.3203125
 40
0.32421875
 40
0.328125
 40
0.3359375
 40
0.34375
 40
0.3515625
 40
0.359375
 40
0.36328125
 40
0.3671875
 40
0.37109375
 40
0.373046875
 40
0.3740234375
 40
0.375
 40
0.3759765625
 40
0.376953125
 40
0.37890625
 40
0.3828125
 40
0.38671875
 40
0.390625
 40
0.3984375
 40
0.40625
 40
0.4140625
 40
0.421875
 40
0.42578125
 40
0.4296875
 40
0.43359375
 40
0.435546875
 40
0.4365234375
 40
0.4375
 40
0.4384765625
 40
0.439453125
 40
0.44140625
 40
0.4453125
 40
0.44921875
 40
0.453125
 40
0.4609375
 40
0.46875
 40
0.4765625
 40
0.484375
 40
0.48828125
 40
0.4921875
 40
0.49609375
 40
0.498046875
 40
0.4990234375
 40
0.5
 40
0.5009765625
 40
0.501953125
 40
0.50390625
 40
0.5078125
 40
0.51171875
 40
0.515625
 40
0.5234375
 40
0.53125
 40
0.5390625
 40
0.546875
 40
0.55078125
 40
0.5546875
 40
0.556640625
 40
0.55859375
 40
0.560546875
 40
0.5615234375
 40
0.5625
 40
0.5634765625
 40
0.564453125
 40
0.56640625
 40
0.568359375
 40
0.5703125
 40
0.57421875
 40
0.578125
 40
0.5859375
 40
0.59375
 40
0.6015625
 40
0.609375
 40
0.61328125
 40
0.6171875
 40
0.619140625
 40
0.62109375
 40
0.623046875
 40
0.6240234375
 40
0.6245117188
 40
0.625
 40
0.6254882812
 40
0.6259765625
 40
0.626953125
 40
0.62890625
 40
0.630859375
 40
0.6328125
 40
0.63671875
 40
0.640625
 40
0.6484375
 40
0.65625
 40
0.6640625
 40
0.671875
 40
0.67578125
 40
0.6796875
 40
0.681640625
 40
0.68359375
 40
0.685546875
 40
0.6865234375
 40
0.6870117188
 40
0.6875
 40
0.6879882812
 40
0.6884765625
 40
0.689453125
 40
0.69140625
 40
0.693359375
 40
0.6953125
 40
0.69921875
 40
0.703125
 40
0.7109375
 40
0.71875
 40
0.7265625
 40
0.73046875
 40
0.734375
 40
0.73828125
 40
0.7421875
 40
0.744140625
 40
0.74609375
 40
0.748046875
 40
0.7490234375
 40
0.7495117188
 40
0.75
 40
0.7504882812
 40
0.7509765625
 40
0.751953125
 40
0.75390625
 40
0.755859375
 40
0.7578125
 40
0.76171875
 40
0.765625
 40
0.76953125
 40
0.7734375
 40
0.78125
 40
0.7890625
 40
0.79296875
 40
0.796875
 40
0.80078125
 40
0.8046875
 40
0.806640625
 40
0.80859375
 40
0.810546875
 40
0.8115234375
 40
0.8120117188
 40
0.8125
 40
0.8129882812
 40
0.8134765625
 40
0.814453125
 40
0.81640625
 40
0.818359375
 40
0.8203125
 40
0.82421875
 40
0.828125
 40
0.83203125
 40
0.8359375
 40
0.84375
 40
0.8515625
 40
0.85546875
 40
0.859375
 40
0.86328125
 40
0.8671875
 40
0.869140625
 40
0.87109375
 40
0.8720703125
 40
0.873046875
 40
0.8740234375
 40
0.8745117188
 40
0.875
 40
0.8754882812
 40
0.8759765625
 40
0.876953125
 40
0.8779296875
 40
0.87890625
 40
0.880859375
 40
0.8828125
 40
0.88671875
 40
0.890625
 40
0.89453125
 40
0.8984375
 40
0.90625
 40
0.9140625
 40
0.91796875
 40
0.921875
 40
0.92578125
 40
0.9296875
 40
0.931640625
 40
0.93359375
 40
0.9345703125
 40
0.935546875
 40
0.9365234375
 40
0.9370117188
 40
0.9372558594
 40
0.9375
 40
0.9377441406
 40
0.9379882812
 40
0.9384765625
 40
0.939453125
 40
0.9404296875
 40
0.94140625
 40
0.943359375
 40
0.9453125
 40
0.94921875
 40
0.953125
 40
0.95703125
 40
0.9609375
 40
0.96875
 40
0.9765625
 40
0.984375
 40
1.0
 40
1.0
 40
1.0
 40
1.0
 10
12.2154307429
 20
9.1664846514
 30
0.0
 10
12.216270277
 20
9.1676027909
 30
0.0
 10
12.2175295783
 20
9.1692800001
 30
0.0
 10
12.2192086466
 20
9.1715162788
 30
0.0
 10
12.2204679478
 20
9.1731934885
 30
0.0
 10
12.2215173656
 20
9.1745911612
 30
0.0
 10
12.2223568996
 20
9.1757093038
 30
0.0
 10
12.2229865508
 20
9.1765478987
 30
0.0
 10
12.2236161993
 20
9.1773865398
 30
0.0
 10
12.2241409145
 20
9.1780852633
 30
0.0
 10
12.2245606687
 20
9.1786445648
 30
0.0
 10
12.2248755335
 20
9.1790631594
 30
0.0
 10
12.2251377642
 20
9.1794147921
 30
0.0
 10
12.2253216333
 20
9.1796554325
 30
0.0
 10
12.2254262209
 20
9.179801533
 30
0.0
 10
12.2255060151
 20
9.1798869055
 30
0.0
 10
12.2255806357
 20
9.1800647935
 30
0.0
 10
12.2256819344
 20
9.1802697071
 30
0.0
 10
12.2258583664
 20
9.1806433414
 30
0.0
 10
12.2261108516
 20
9.1811692438
 30
0.0
 10
12.2264136457
 20
9.1818036915
 30
0.0
 10
12.226817437
 20
9.1826484464
 30
0.0
 10
12.2273221535
 20
9.1837047925
 30
0.0
 10
12.2281297126
 20
9.1853947213
 30
0.0
 10
12.229139157
 20
9.1875072099
 30
0.0
 10
12.2303504925
 20
9.190042161
 30
0.0
 10
12.2315618264
 20
9.1925771289
 30
0.0
 10
12.2325712746
 20
9.1946895756
 30
0.0
 10
12.2333788262
 20
9.1963795882
 30
0.0
 10
12.2338835615
 20
9.1974357213
 30
0.0
 10
12.2342873144
 20
9.1982809135
 30
0.0
 10
12.2345902257
 20
9.1989140254
 30
0.0
 10
12.2348423442
 20
9.1994441069
 30
0.0
 10
12.2350194309
 20
9.1998102809
 30
0.0
 10
12.2351196806
 20
9.2000271477
 30
0.0
 10
12.2351975233
 20
9.2001683194
 30
0.0
 10
12.2352652159
 20
9.2003915923
 30
0.0
 10
12.2353590131
 20
9.2006606517
 30
0.0
 10
12.2355215087
 20
9.2011448486
 30
0.0
 10
12.2357545077
 20
9.2018295826
 30
0.0
 10
12.2360337373
 20
9.2026542492
 30
0.0
 10
12.2364061724
 20
9.2037527618
 30
0.0
 10
12.2368716722
 20
9.2051262597
 30
0.0
 10
12.2376164964
 20
9.2073236567
 30
0.0
 10
12.2385475182
 20
9.2100704718
 30
0.0
 10
12.2396647483
 20
9.2133666186
 30
0.0
 10
12.2407819762
 20
9.2166627807
 30
0.0
 10
12.2417130036
 20
9.2194095577
 30
0.0
 10
12.2424578167
 20
9.2216070309
 30
0.0
 10
12.2429233447
 20
9.2229803351
 30
0.0
 10
12.2432957218
 20
9.2240792452
 30
0.0
 10
12.2435751286
 20
9.2249026975
 30
0.0
 10
12.2438075733
 20
9.225591231
 30
0.0
 10
12.2439710584
 20
9.226068645
 30
0.0
 10
12.2440632702
 20
9.2263485722
 30
0.0
 10
12.2441358328
 20
9.2265384627
 30
0.0
 10
12.2441953845
 20
9.2268050133
 30
0.0
 10
12.244279325
 20
9.2271336743
 30
0.0
 10
12.2444241065
 20
9.2277212895
 30
0.0
 10
12.2446320427
 20
9.2285542264
 30
0.0
 10
12.244881093
 20
9.2295565386
 30
0.0
 10
12.2452133253
 20
9.2308919811
 30
0.0
 10
12.245628559
 20
9.2325616176
 30
0.0
 10
12.2462929647
 20
9.2352328497
 30
0.0
 10
12.2471234611
 20
9.2385719532
 30
0.0
 10
12.24812006
 20
9.2425788532
 30
0.0
 10
12.2491166633
 20
9.2465857484
 30
0.0
 10
12.2499471488
 20
9.249924864
 30
0.0
 10
12.2506115765
 20
9.2525960719
 30
0.0
 10
12.2510267543
 20
9.2542657701
 30
0.0
 10
12.2513591014
 20
9.255601086
 30
0.0
 10
12.2516078008
 20
9.2566037849
 30
0.0
 10
12.2518168347
 20
9.257435512
 30
0.0
 10
12.2519800598
 20
9.2581095403
 30
0.0
 10
12.2521134138
 20
9.2585914349
 30
0.0
 10
12.2522050285
 20
9.2591635129
 30
0.0
 10
12.2523417615
 20
9.2598947813
 30
0.0
 10
12.2525076754
 20
9.2608196751
 30
0.0
 10
12.2527089133
 20
9.2619249214
 30
0.0
 10
12.2529764825
 20
9.2634001989
 30
0.0
 10
12.2533112002
 20
9.2652437426
 30
0.0
 10
12.2538466055
 20
9.2681937214
 30
0.0
 10
12.2545159099
 20
9.2718810909
 30
0.0
 10
12.2553190602
 20
9.2763059705
 30
0.0
 10
12.2561221939
 20
9.2807308719
 30
0.0
 10
12.2567915397
 20
9.2844181868
 30
0.0
 10
12.2573268622
 20
9.2873682747
 30
0.0
 10
12.2577287758
 20
9.2895801944
 30
0.0
 10
12.2580623622
 20
9.2914255168
 30
0.0
 10
12.2582985056
 20
9.2927132076
 30
0.0
 10
12.2584293337
 20
9.293455331
 30
0.0
 10
12.2585390355
 20
9.2939941763
 30
0.0
 10
12.2586044696
 20
9.2946008604
 30
0.0
 10
12.2587071561
 20
9.2953861097
 30
0.0
 10
12.2588796633
 20
9.2967713209
 30
0.0
 10
12.2591298634
 20
9.2987444301
 30
0.0
 10
12.2594284934
 20
9.3011146283
 30
0.0
 10
12.2598272295
 20
9.3042740307
 30
0.0
 10
12.2603254551
 20
9.3082235802
 30
0.0
 10
12.2609234153
 20
9.3129629088
 30
0.0
 10
12.2615213286
 20
9.317702286
 30
0.0
 10
12.2620196714
 20
9.3216517142
 30
0.0
 10
12.2624181731
 20
9.3248113592
 30
0.0
 10
12.262717518
 20
9.3271808174
 30
0.0
 10
12.2629654816
 20
9.3291562417
 30
0.0
 10
12.2631419812
 20
9.33053732
 30
0.0
 10
12.2632382709
 20
9.3313291913
 30
0.0
 10
12.2633233542
 20
9.3319155349
 30
0.0
 10
12.2633592568
 20
9.332530776
 30
0.0
 10
12.2634242816
 20
9.3333410177
 30
0.0
 10
12.2635300825
 20
9.3347636371
 30
0.0
 10
12.2636854052
 20
9.3367934952
 30
0.0
 10
12.2638700038
 20
9.3392303759
 30
0.0
 10
12.2641167603
 20
9.3424791829
 30
0.0
 10
12.2644249899
 20
9.346540318
 30
0.0
 10
12.2647949646
 20
9.351413625
 30
0.0
 10
12.2651648884
 20
9.3562869502
 30
0.0
 10
12.2654732452
 20
9.3603480401
 30
0.0
 10
12.2657197473
 20
9.3635969374
 30
0.0
 10
12.2659051216
 20
9.3660335428
 30
0.0
 10
12.2660580177
 20
9.368064262
 30
0.0
 10
12.2661681504
 20
9.3694853442
 30
0.0
 10
12.2662262346
 20
9.3702980489
 30
0.0
 10
12.2662834568
 20
9.3709057244
 30
0.0
 10
12.266288467
 20
9.3715204834
 30
0.0
 10
12.2663133595
 20
9.3723376912
 30
0.0
 10
12.2663484359
 20
9.373768956
 30
0.0
 10
12.2664029814
 20
9.3758130183
 30
0.0
 10
12.266466537
 20
9.3782661505
 30
0.0
 10
12.2665519413
 20
9.3815369038
 30
0.0
 10
12.2666584676
 20
9.3856253742
 30
0.0
 10
12.2667864041
 20
9.3905315351
 30
0.0
 10
12.2669142872
 20
9.3954376643
 30
0.0
 10
12.2670209469
 20
9.3995262139
 30
0.0
 10
12.2671060843
 20
9.4027968088
 30
0.0
 10
12.2671704542
 20
9.4052504243
 30
0.0
 10
12.2672224522
 20
9.4072929748
 30
0.0
 10
12.2672620761
 20
9.4087269383
 30
0.0
 10
12.2672796824
 20
9.4095398223
 30
0.0
 10
12.2673070736
 20
9.4101678625
 30
0.0
 10
12.2672802367
 20
9.4107256558
 30
0.0
 10
12.2672633695
 20
9.4114938832
 30
0.0
 10
12.267225039
 20
9.4128268647
 30
0.0
 10
12.2671748887
 20
9.4147370926
 30
0.0
 10
12.2671127361
 20
9.4170268113
 30
0.0
 10
12.2670305548
 20
9.420080662
 30
0.0
 10
12.2669275923
 20
9.4238976697
 30
0.0
 10
12.2668041366
 20
9.4284782071
 30
0.0
 10
12.2666806609
 20
9.4330587212
 30
0.0
 10
12.2665777486
 20
9.4368757869
 30
0.0
 10
12.2664954667
 20
9.4399295217
 30
0.0
 10
12.2664439287
 20
9.4418379151
 30
0.0
 10
12.2664029548
 20
9.4433650672
 30
0.0
 10
12.2663715219
 20
9.4445092338
 30
0.0
 10
12.2663475623
 20
9.4454665153
 30
0.0
 10
12.2663233832
 20
9.4462237967
 30
0.0
 10
12.2663189424
 20
9.4468151037
 30
0.0
 10
12.2662622333
 20
9.4473172989
 30
0.0
 10
12.2662048792
 20
9.4480180204
 30
0.0
 10
12.2661269224
 20
9.4488832425
 30
0.0
 10
12.2660360554
 20
9.4499260803
 30
0.0
 10
12.265913963
 20
9.4513149341
 30
0.0
 10
12.2657616681
 20
9.453051548
 30
0.0
 10
12.2655178171
 20
9.4558298247
 30
0.0
 10
12.2652130646
 20
9.459302775
 30
0.0
 10
12.264847336
 20
9.4634702721
 30
0.0
 10
12.2644816121
 20
9.4676377754
 30
0.0
 10
12.2641768479
 20
9.4711107104
 30
0.0
 10
12.2639330204
 20
9.4738890178
 30
0.0
 10
12.2637806657
 20
9.4756255536
 30
0.0
 10
12.2636586961
 20
9.4770145676
 30
0.0
 10
12.2635674536
 20
9.4780569157
 30
0.0
 10
12.2634906719
 20
9.4789236701
 30
0.0
 10
12.2634383893
 20
9.479534066
 30
0.0
 10
12.2634062266
 20
9.4798771367
 30
0.0
 10
12.2633885469
 20
9.4801505725
 30
0.0
 10
12.2633462413
 20
9.4803623408
 30
0.0
 10
12.2632984236
 20
9.4806662088
 30
0.0
 10
12.2632107405
 20
9.4811879557
 30
0.0
 10
12.2630875712
 20
9.4819385482
 30
0.0
 10
12.2629388726
 20
9.4828370164
 30
0.0
 10
12.2627409205
 20
9.4840357573
 30
0.0
 10
12.2624933732
 20
9.4855339152
 30
0.0
 10
12.2620973576
 20
9.4879311179
 30
0.0
 10
12.2616023173
 20
9.4909275694
 30
0.0
 10
12.2610082784
 20
9.4945233351
 30
0.0
 10
12.2604142348
 20
9.498119088
 30
0.0
 10
12.2599192062
 20
9.5011155715
 30
0.0
 10
12.2595231672
 20
9.5035127102
 30
0.0
 10
12.2592756792
 20
9.5050110308
 30
0.0
 10
12.2590776056
 20
9.5062094379
 30
0.0
 10
12.2589292782
 20
9.5071089259
 30
0.0
 10
12.2588049474
 20
9.5078563277
 30
0.0
 10
12.2587193378
 20
9.5083837705
 30
0.0
 10
12.2586681978
 20
9.5086785123
 30
0.0
 10
12.2586360974
 20
9.5089183133
 30
0.0
 10
12.2585800885
 20
9.5090864628
 30
0.0
 10
12.2585137496
 20
9.5093356551
 30
0.0
 10
12.2583937708
 20
9.5097600969
 30
0.0
 10
12.2582244041
 20
9.5103725304
 30
0.0
 10
12.2580202945
 20
9.5111048446
 30
0.0
 10
12.257748452
 20
9.5120821738
 30
0.0
 10
12.257408545
 20
9.5133035237
 30
0.0
 10
12.2568647518
 20
9.5152578576
 30
0.0
 10
12.2561849905
 20
9.5177007154
 30
0.0
 10
12.2553692853
 20
9.5206321697
 30
0.0
 10
12.2546895293
 20
9.5230750445
 30
0.0
 10
12.2541457242
 20
9.525029341
 30
0.0
 10
12.2537378725
 20
9.5264950756
 30
0.0
 10
12.2533300122
 20
9.5279607629
 30
0.0
 10
12.2529901558
 20
9.5291823165
 30
0.0
 10
12.2527182097
 20
9.530159229
 30
0.0
 10
12.2525144167
 20
9.5308928161
 30
0.0
 10
12.2523440594
 20
9.5315012671
 30
0.0
 10
12.2522258489
 20
9.5319328183
 30
0.0
 10
12.2521566768
 20
9.5321706195
 30
0.0
 10
12.2521093706
 20
9.5323737588
 30
0.0
 10
12.2520445844
 20
9.5324821442
 30
0.0
 10
12.2519643001
 20
9.5326597092
 30
0.0
 10
12.2518209617
 20
9.5329550488
 30
0.0
 10
12.2516176778
 20
9.5333850134
 30
0.0
 10
12.2513731013
 20
9.5338975249
 30
0.0
 10
12.2510472215
 20
9.5345820774
 30
0.0
 10
12.2506397955
 20
9.5354373548
 30
0.0
 10
12.250150917
 20
9.5364638648
 30
0.0
 10
12.2496620297
 20
9.5374903275
 30
0.0
 10
12.2490101831
 20
9.5388589609
 30
0.0
 10
12.2481953737
 20
9.5405697465
 30
0.0
 10
12.247380565
 20
9.5422805363
 30
0.0
 10
12.2467287172
 20
9.5436491631
 30
0.0
 10
12.2462398333
 20
9.5446756459
 30
0.0
 10
12.245750942
 20
9.5457020802
 30
0.0
 10
12.2453435557
 20
9.5465575931
 30
0.0
 10
12.245017595
 20
9.5472416654
 30
0.0
 10
12.2447732656
 20
9.5477556431
 30
0.0
 10
12.2445692087
 20
9.5481810205
 30
0.0
 10
12.2444272502
 20
9.548484549
 30
0.0
 10
12.244344755
 20
9.5486489934
 30
0.0
 10
12.2442867599
 20
9.5487976811
 30
0.0
 10
12.2442139475
 20
9.5488494515
 30
0.0
 10
12.2441220328
 20
9.5489522845
 30
0.0
 10
12.2439587739
 20
9.5491164916
 30
0.0
 10
12.2437268058
 20
9.5493593077
 30
0.0
 10
12.2434479053
 20
9.5496471624
 30
0.0
 10
12.2430762262
 20
9.5500321998
 30
0.0
 10
12.2426115627
 20
9.5505130741
 30
0.0
 10
12.2420539942
 20
9.5510903044
 30
0.0
 10
12.2414964183
 20
9.5516674863
 30
0.0
 10
12.2407529864
 20
9.5524370789
 30
0.0
 10
12.2398236956
 20
9.5533990641
 30
0.0
 10
12.238894405
 20
9.5543610509
 30
0.0
 10
12.2381509726
 20
9.5551306411
 30
0.0
 10
12.237593398
 20
9.5557078303
 30
0.0
 10
12.2370358247
 20
9.5562850331
 30
0.0
 10
12.2365711761
 20
9.5567659928
 30
0.0
 10
12.2361994667
 20
9.5571508562
 30
0.0
 10
12.2359671265
 20
9.5573911779
 30
0.0
 10
12.2357813045
 20
9.5575839344
 30
0.0
 10
12.2356418005
 20
9.5577271353
 30
0.0
 10
12.2355259848
 20
9.5578508162
 30
0.0
 10
12.2354323506
 20
9.5579400118
 30
0.0
 10
12.2353648072
 20
9.5580335476
 30
0.0
 10
12.2352870256
 20
9.5580254016
 30
0.0
 10
12.2351868932
 20
9.558050059
 30
0.0
 10
12.2350605006
 20
9.5580686945
 30
0.0
 10
12.2349093547
 20
9.5580962732
 30
0.0
 10
12.2347076434
 20
9.5581312229
 30
0.0
 10
12.2344555671
 20
9.5581755338
 30
0.0
 10
12.2340522099
 20
9.5582460826
 30
0.0
 10
12.2335480254
 20
9.5583343883
 30
0.0
 10
12.2329429989
 20
9.5584403039
 30
0.0
 10
12.2323379738
 20
9.5585462331
 30
0.0
 10
12.2315312731
 20
9.5586874674
 30
0.0
 10
12.2305228974
 20
9.5588640117
 30
0.0
 10
12.2295145217
 20
9.5590405557
 30
0.0
 10
12.2287078211
 20
9.5591817906
 30
0.0
 10
12.2281027958
 20
9.559287718
 30
0.0
 10
12.22749777
 20
9.5593936404
 30
0.0
 10
12.2269935831
 20
9.5594819247
 30
0.0
 10
12.226590231
 20
9.5595525172
 30
0.0
 10
12.2263381417
 20
9.5595967171
 30
0.0
 10
12.2261364569
 20
9.5596318946
 30
0.0
 10
12.2259852301
 20
9.5596587773
 30
0.0
 10
12.2258590909
 20
9.5596795904
 30
0.0
 10
12.2257710226
 20
9.5596972783
 30
0.0
 10
12.2257203401
 20
9.559702516
 30
0.0
 10
12.2256833361
 20
9.559720162
 30
0.0
 10
12.2256424793
 20
9.559685372
 30
0.0
 10
12.2255893474
 20
9.5596572755
 30
0.0
 10
12.2254957405
 20
9.559599585
 30
0.0
 10
12.2253623437
 20
9.5595216252
 30
0.0
 10
12.2252021275
 20
9.5594261665
 30
0.0
 10
12.2249885547
 20
9.5592995542
 30
0.0
 10
12.224721572
 20
9.5591410608
 30
0.0
 10
12.224294409
 20
9.5588875988
 30
0.0
 10
12.2237604521
 20
9.5585707277
 30
0.0
 10
12.2231197051
 20
9.558190501
 30
0.0
 10
12.2224789578
 20
9.5578102693
 30
0.0
 10
12.2216246282
 20
9.5573032955
 30
0.0
 10
12.2205567162
 20
9.5566695776
 30
0.0
 10
12.2192752217
 20
9.5559091163
 30
0.0
 10
12.2175665624
 20
9.554895168
 30
0.0
 10
12.216285068
 20
9.5541347067
 30
0.0
 10
12.2154307383
 20
9.5536277325
 30
0.0
  0
ENDSEC
  0
SECTION
  2
OBJECTS
  0
DICTIONARY
  5
C
100
AcDbDictionary
280
0
281
1
  3
ACAD_GROUP
350
D
  3
ACAD_MLINESTYLE
350
17
  3
ACAD_LAYOUT
350
1A
  3
ACAD_PLOTSETTINGS
350
19
  3
ACAD_PLOTSTYLENAME
350
E
  3
ACAD_IMAGE_DICT
350
       3D2
  3
ACAD_IMAGE_VARS
350
       3D3
  3
ACAD_TABLESTYLE
350
       3D4
  0
IMAGEDEF_REACTOR
  5
3D1
100
AcDbRasterImageDefReactor
 90
2
330
26F
  0
DICTIONARY
  5
D
102
{ACAD_REACTORS
330
C
102
}
100
AcDbDictionary
280
0
281
1
  0
ACDBDICTIONARYWDFLT
  5
E
102
{ACAD_REACTORS
330
C
102
}
100
AcDbDictionary
281
1
  3
Normal
350
F
100
AcDbDictionaryWithDefault
340
F
  0
DICTIONARY
  5
3D2
330
C
100
AcDbDictionary
281
1
  3
BJ2_assy_2_img_1
350
       3D7
  0
RASTERVARIABLES
  5
3D3
330
C
100
AcDbRasterVariables
 90
0
 70
0
 71
1
 72
5
  0
DICTIONARY
  5
17
102
{ACAD_REACTORS
330
C
102
}
100
AcDbDictionary
280
0
281
1
  3
Standard
350
18
  0
DICTIONARY
  5
3D4
330
C
100
AcDbDictionary
281
1
  3
Standard
350
       3D8
  3
Standard1
350
       3D9
  0
DICTIONARY
  5
19
102
{ACAD_REACTORS
330
C
102
}
100
AcDbDictionary
281
1
  0
DICTIONARY
  5
1A
102
{ACAD_REACTORS
330
C
102
}
100
AcDbDictionary
281
1
  3
Model
350
3D5
  3
Layout1
350
3D6
  0
ACDBPLACEHOLDER
  5
F
102
{ACAD_REACTORS
330
E
102
}
  0
MLINESTYLE
  5
18
102
{ACAD_REACTORS
330
17
102
}
100
AcDbMlineStyle
  2
STANDARD
 70
0
  3

 62
256
 51
90.0
 52
90.0
 71
2
 49
0.5
 62
256
  6
BYLAYER
 49
-0.5
 62
256
  6
BYLAYER
  0
LAYOUT
  5
3D5
102
{ACAD_REACTORS
330
1A
102
}
100
AcDbPlotSettings
  1

  2
none_device
  4
ANSI_C_(22.00_x_17.00_Inches)
  6

 40
0.0
 41
0.0
 42
0.0
 43
0.0
 44
558.8
 45
431.8
 46
0.0
 47
0.0
 48
0.0
 49
0.0
140
0.0
141
0.0
142
1.0
143
1.0
 70
1024
 72
0
 73
0
 74
0
  7

 75
0
147
1.0
148
0.0
149
0.0
100
AcDbLayout
  1
Model
 70
0
 71
0
 10
0.0
 20
0.0
 11
22.0
 21
17.0
 12
0.0
 22
0.0
 32
0.0
 14
0.0
 24
0.0
 34
0.0
 15
0.0
 25
0.0
 35
0.0
146
0.0
 13
0.0
 23
0.0
 33
0.0
 16
1.0
 26
0.0
 36
0.0
 17
0.0
 27
1.0
 37
0.0
 76
0
330
20C
345
0
346
0
  0
LAYOUT
  5
3D6
102
{ACAD_REACTORS
330
1A
102
}
100
AcDbPlotSettings
  1

  2
none_device
  4
ANSI_C_(22.00_x_17.00_Inches)
  6

 40
0.0
 41
0.0
 42
0.0
 43
0.0
 44
558.8
 45
431.8
 46
0.0
 47
0.0
 48
0.0
 49
0.0
140
0.0
141
0.0
142
1.0
143
1.0
 70
0
 72
0
 73
0
 74
0
  7

 75
0
147
1.0
148
0.0
149
0.0
100
AcDbLayout
  1
Layout1
 70
0
 71
1
 10
0.0
 20
0.0
 11
22.0
 21
17.0
 12
0.0
 22
0.0
 32
0.0
 14
0.0
 24
0.0
 34
0.0
 15
0.0
 25
0.0
 35
0.0
146
0.0
 13
0.0
 23
0.0
 33
0.0
 16
1.0
 26
0.0
 36
0.0
 17
0.0
 27
1.0
 37
0.0
 76
0
330
20D
345
0
346
0
  0
IMAGEDEF
  5
3D7
102
{ACAD_REACTORS
330
3D2
330
3D1
102
}
100
AcDbRasterImageDef
 90
0
  1
BJ2_assy_2_img_1.png
 10
369.0
 20
92.0
 11
0.0066666667
 21
0.0066666667
280
1
281
0
  0
TABLESTYLE
  5
3D8
102
{ACAD_REACTORS
330
3D4
330
272
102
}
330
3D4
100
AcDbTableStyle
  3
Standard
 70
0
 71
0
 40
0.06
 41
0.06
280
1
281
1
  7
Standard
140
0.18
170
1
 62
0
 63
7
283
0
  7
Standard
140
0.18
170
1
 62
0
 63
7
283
0
  7
Standard
140
0.18
170
1
 62
0
 63
7
283
0
  0
TABLESTYLE
  5
3D9
102
{ACAD_REACTORS
330
3D4
330
271
102
}
330
3D4
100
AcDbTableStyle
  3
Standard1
 70
1
 71
0
 40
0.06
 41
0.06
280
1
281
1
  7
Standard
140
0.18
170
1
 62
0
 63
7
283
0
  7
Standard
140
0.18
170
1
 62
0
 63
7
283
0
  7
Standard
140
0.18
170
1
 62
0
 63
7
283
0
  0
ENDSEC
  0
EOF
