999
DXF file: BGD_assy_2.dxf
999
Pro/ENGINEER 2014200 by Parametric Technology Corporation
  0
SECTION
  2
HEADER
  9
$ACADVER
  1
AC1021
  9
$DWGCODEPAGE
  3
ANSI_1252
  9
$EXTMAX
 10
22.0
 20
17.0
 30
0.0
  9
$EXTMIN
 10
0.0
 20
0.0
 30
0.0
  9
$LIMMIN
 10
0.0
 20
0.0
  9
$LIMMAX
 10
22.0
 20
17.0
  9
$VIEWCTR
 10
11.0
 20
8.5
  9
$VIEWSIZE
 40
17.0
  9
$CLAYER
  8
0
  9
$LTSCALE
 40
1.21
  9
$CELTYPE
  6
BYLAYER
  9
$DIMSCALE
 40
1.0
  9
$DIMASZ
 40
0.1875
  9
$DIMEXO
 40
0.0625
  9
$DIMDLI
 40
0.836
  9
$DIMEXE
 40
0.125
  9
$DIMCEN
 40
0.198
  9
$DIMLFAC
 40
1.0
  9
$DIMBLK
  1
_FILLED
  9
$DIMTXT
 40
0.1
  9
$DIMTOL
 70
0
  9
$DIMLIM
 70
0
  9
$DIMTFAC
 40
1.0
  9
$DIMGAP
 40
0.09
  9
$DIMDSEP
 70
46
  9
$AUNITS
 70
0
  9
$PDMODE
 70
3
  9
$PDSIZE
 40
0.3125
  9
$HANDSEED
  5
3F1
  9
$TILEMODE
 70
1
  9
$MEASUREMENT
 70
0
  9
$INSUNITS
 70
1
  0
ENDSEC
  0
SECTION
  2
CLASSES
  0
CLASS
  1
ACDBDICTIONARYWDFLT
  2
AcDbDictionaryWithDefault
  3
AutoCAD 2000
 90
0
 91
1
280
0
281
0
  0
CLASS
  1
ACDBPLACEHOLDER
  2
AcDbPlaceHolder
  3
AutoCAD 2000
 90
0
 91
1
280
0
281
0
  0
CLASS
  1
LAYOUT
  2
AcDbLayout
  3
AutoCAD 2000
 90
0
 91
0
280
0
281
0
  0
CLASS
  1
RASTERVARIABLES
  2
AcDbRasterVariables
  3
ISM
 90
0
 91
1
280
0
281
0
  0
CLASS
  1
IMAGEDEF
  2
AcDbRasterImageDef
  3
ISM
 90
0
 91
1
280
0
281
0
  0
CLASS
  1
IMAGEDEF_REACTOR
  2
AcDbRasterImageDefReactor
  3
ISM
 90
0
 91
1
280
0
281
0
  0
CLASS
  1
IMAGE
  2
AcDbRasterImage
  3
ISM
 90
127
 91
1
280
0
281
1
  0
CLASS
  1
TABLESTYLE
  2
AcDbTableStyle
  3
ObjectDBX Classes
 90
2047
 91
1
280
0
281
0
  0
CLASS
  1
ACAD_TABLE
  2
AcDbTable
  3
ObjectDBX Classes
 90
1025
 91
3
280
0
281
1
  0
ENDSEC
  0
SECTION
  2
TABLES
  0
TABLE
  2
VPORT
  5
8
100
AcDbSymbolTable
 70
2
  0
VPORT
  5
1F4
100
AcDbSymbolTableRecord
100
AcDbViewportTableRecord
  2
*ACTIVE
 70
0
 10
0.0
 20
0.0
 11
1.0
 21
1.0
 12
11.0
 22
8.5
 13
0.0
 23
0.0
 14
1.0
 24
1.0
 15
0.0
 25
0.0
 16
0.0
 26
0.0
 36
1.0
 17
0.0
 27
0.0
 37
0.0
 40
17.0
 41
1.2941176471
 42
50.0
 43
0.0
 44
0.0
 50
0.0
 51
0.0
 71
0
 72
100
 73
1
 74
1
 75
0
 76
0
 77
0
 78
0
  0
ENDTAB
  0
TABLE
  2
LTYPE
  5
5
100
AcDbSymbolTable
 70
6
  0
LTYPE
  5
14
100
AcDbSymbolTableRecord
100
AcDbLinetypeTableRecord
  2
BYBLOCK
 70
0
  3

 72
65
 73
0
 40
0.0
  0
LTYPE
  5
15
100
AcDbSymbolTableRecord
100
AcDbLinetypeTableRecord
  2
BYLAYER
 70
0
  3

 72
65
 73
0
 40
0.0
  0
LTYPE
  5
16
100
AcDbSymbolTableRecord
100
AcDbLinetypeTableRecord
  2
CONTINUOUS
 70
64
  3
Solid line
 72
65
 73
0
 40
0.0
  0
LTYPE
  5
1F5
100
AcDbSymbolTableRecord
100
AcDbLinetypeTableRecord
  2
CENTER
 70
64
  3
____ _ ____ _ ____ _ ____ _ ____ _ ____ _ ____
 72
65
 73
4
 40
0.6
 49
0.375
 74
0
 49
-0.075
 74
0
 49
0.075
 74
0
 49
-0.075
 74
0
  0
LTYPE
  5
1F6
100
AcDbSymbolTableRecord
100
AcDbLinetypeTableRecord
  2
HIDDEN
 70
64
  3
- - - - - - - - - - - - - - - - - - - -
 72
65
 73
2
 40
0.2
 49
0.1
 74
0
 49
-0.1
 74
0
  0
LTYPE
  5
1F7
100
AcDbSymbolTableRecord
100
AcDbLinetypeTableRecord
  2
PHANTOM
 70
64
  3
_____ _ _ _____ _ _ _____ _ _ _____
 72
65
 73
6
 40
0.8
 49
0.45
 74
0
 49
-0.05
 74
0
 49
0.1
 74
0
 49
-0.05
 74
0
 49
0.1
 74
0
 49
-0.05
 74
0
  0
LTYPE
  5
1F8
100
AcDbSymbolTableRecord
100
AcDbLinetypeTableRecord
  2
DOT
 70
64
  3
. . . . . . . . . . . . . . . . . . . .
 72
65
 73
2
 40
0.2
 49
0.1
 74
0
 49
-0.1
 74
0
  0
LTYPE
  5
1F9
100
AcDbSymbolTableRecord
100
AcDbLinetypeTableRecord
  2
DASHED
 70
64
  3
- - - - - - - - - - - - - - - - - - - -
 72
65
 73
2
 40
0.2
 49
0.1
 74
0
 49
-0.1
 74
0
  0
ENDTAB
  0
TABLE
  2
LAYER
  5
2
100
AcDbSymbolTable
 70
36
  0
LAYER
  5
10
100
AcDbSymbolTableRecord
100
AcDbLayerTableRecord
  2
0
 70
0
 62
7
  6
CONTINUOUS
370
-3
390
F
  0
LAYER
  5
1FA
100
AcDbSymbolTableRecord
100
AcDbLayerTableRecord
  2
DEFAULT_1
 70
0
 62
7
  6
CENTER
370
-3
390
F
  0
LAYER
  5
1FB
100
AcDbSymbolTableRecord
100
AcDbLayerTableRecord
  2
DEFAULT_2
 70
0
 62
8
  6
HIDDEN
370
-3
390
F
  0
LAYER
  5
1FC
100
AcDbSymbolTableRecord
100
AcDbLayerTableRecord
  2
DEFAULT_3
 70
0
 62
7
  6
PHANTOM
370
-3
390
F
  0
LAYER
  5
1FD
100
AcDbSymbolTableRecord
100
AcDbLayerTableRecord
  2
01___PRT_ALL_DTM_PLN
 70
0
 62
7
  6
CONTINUOUS
370
-3
390
F
  0
LAYER
  5
1FE
100
AcDbSymbolTableRecord
100
AcDbLayerTableRecord
  2
01___PRT_DEF_DTM_PLN
 70
0
 62
7
  6
CONTINUOUS
370
-3
390
F
  0
LAYER
  5
1FF
100
AcDbSymbolTableRecord
100
AcDbLayerTableRecord
  2
02___PRT_ALL_AXES
 70
0
 62
7
  6
CONTINUOUS
370
-3
390
F
  0
LAYER
  5
200
100
AcDbSymbolTableRecord
100
AcDbLayerTableRecord
  2
03___PRT_ALL_CURVES
 70
0
 62
7
  6
CONTINUOUS
370
-3
390
F
  0
LAYER
  5
201
100
AcDbSymbolTableRecord
100
AcDbLayerTableRecord
  2
04___PRT_ALL_DTM_PNT
 70
0
 62
7
  6
CONTINUOUS
370
-3
390
F
  0
LAYER
  5
202
100
AcDbSymbolTableRecord
100
AcDbLayerTableRecord
  2
05___PRT_ALL_DTM_CSYS
 70
0
 62
7
  6
CONTINUOUS
370
-3
390
F
  0
LAYER
  5
203
100
AcDbSymbolTableRecord
100
AcDbLayerTableRecord
  2
05___PRT_DEF_DTM_CSYS
 70
0
 62
7
  6
CONTINUOUS
370
-3
390
F
  0
LAYER
  5
204
100
AcDbSymbolTableRecord
100
AcDbLayerTableRecord
  2
06___PRT_ALL_SURFS
 70
0
 62
7
  6
CONTINUOUS
370
-3
390
F
  0
LAYER
  5
205
100
AcDbSymbolTableRecord
100
AcDbLayerTableRecord
  2
DATUM_PLANES
 70
0
 62
7
  6
CONTINUOUS
370
-3
390
F
  0
LAYER
  5
206
100
AcDbSymbolTableRecord
100
AcDbLayerTableRecord
  2
DIMENSIONS
 70
0
 62
7
  6
CONTINUOUS
370
-3
390
F
  0
LAYER
  5
207
100
AcDbSymbolTableRecord
100
AcDbLayerTableRecord
  2
PARAMETERDIMENSIONS
 70
0
 62
7
  6
CONTINUOUS
370
-3
390
F
  0
LAYER
  5
208
100
AcDbSymbolTableRecord
100
AcDbLayerTableRecord
  2
PORT_AREAS
 70
0
 62
7
  6
CONTINUOUS
370
-3
390
F
  0
LAYER
  5
209
100
AcDbSymbolTableRecord
100
AcDbLayerTableRecord
  2
SUNNBOMCOSMETIC
 70
0
 62
7
  6
CONTINUOUS
370
-3
390
F
  0
LAYER
  5
20A
100
AcDbSymbolTableRecord
100
AcDbLayerTableRecord
  2
SUNNBOMSTAMPING
 70
0
 62
7
  6
CONTINUOUS
370
-3
390
F
  0
LAYER
  5
20B
100
AcDbSymbolTableRecord
100
AcDbLayerTableRecord
  2
THREADS
 70
0
 62
7
  6
CONTINUOUS
370
-3
390
F
  0
ENDTAB
  0
TABLE
  2
STYLE
  5
3
100
AcDbSymbolTable
 70
1
  0
STYLE
  5
11
100
AcDbSymbolTableRecord
100
AcDbTextStyleTableRecord
  2
STANDARD
 70
0
 40
0.0
 41
0.8
 50
0.0
 71
0
 42
0.2
  3
txt
  4

  0
STYLE
  5
20C
100
AcDbSymbolTableRecord
100
AcDbTextStyleTableRecord
  2
TEXTSTYLE_1
 70
0
 40
0.0
 41
0.8
 50
0.0
 71
0
 42
0.2
  3
gdt
  4

  0
ENDTAB
  0
TABLE
  2
VIEW
  5
6
100
AcDbSymbolTable
 70
0
  0
ENDTAB
  0
TABLE
  2
UCS
  5
7
100
AcDbSymbolTable
 70
0
  0
ENDTAB
  0
TABLE
  2
APPID
  5
9
100
AcDbSymbolTable
 70
1
  0
APPID
  5
20D
100
AcDbSymbolTableRecord
100
AcDbRegAppTableRecord
  2
ACAD
 70
0
  0
ENDTAB
  0
TABLE
  2
BLOCK_RECORD
  5
1
100
AcDbSymbolTable
 70
0
  0
BLOCK_RECORD
  5
20E
100
AcDbSymbolTableRecord
100
AcDbBlockTableRecord
  2
*Model_Space
  0
BLOCK_RECORD
  5
20F
100
AcDbSymbolTableRecord
100
AcDbBlockTableRecord
  2
*Paper_Space
  0
BLOCK_RECORD
  5
210
100
AcDbSymbolTableRecord
100
AcDbBlockTableRecord
  2
SUN_FIRST_THIRD_ANGLE_BL0
  0
BLOCK_RECORD
  5
211
100
AcDbSymbolTableRecord
100
AcDbBlockTableRecord
  2
*T1
  0
BLOCK_RECORD
  5
212
100
AcDbSymbolTableRecord
100
AcDbBlockTableRecord
  2
*T2
  0
BLOCK_RECORD
  5
213
100
AcDbSymbolTableRecord
100
AcDbBlockTableRecord
  2
*T3
  0
ENDTAB
  0
TABLE
  2
DIMSTYLE
  5
A
100
AcDbSymbolTable
 70
1
100
AcDbDimStyleTable
 71
0
  0
DIMSTYLE
105
214
100
AcDbSymbolTableRecord
100
AcDbDimStyleTableRecord
  2
STANDARD
 70
0
  3

  4

 40
1.0
 41
0.1875
 42
0.0625
 43
0.38
 44
0.125
 45
0.0
 46
0.0
 47
0.001
 48
0.001
140
0.1
141
0.09
142
0.0
143
25.4
144
1.0
145
0.0
146
1.0
147
0.09
 71
0.0
 72
0.0
 73
1
 74
1
 75
0
 76
0
 77
0
 78
4
170
0
171
2
172
0
173
0
174
0
175
0
176
0
177
0
178
0
270
2
271
3
272
3
273
2
274
2
275
0
280
0
281
0
282
0
283
1
284
4
285
0
286
0
287
3
288
0
340
11
278
46
  0
ENDTAB
  0
ENDSEC
  0
SECTION
  2
BLOCKS
  0
BLOCK
  5
20
100
AcDbEntity
  8
0
100
AcDbBlockBegin
  2
*Model_Space
 70
0
 10
0.0
 20
0.0
 30
0.0
  3
*Model_Space
  1

  0
ENDBLK
  5
21
100
AcDbEntity
  8
0
100
AcDbBlockEnd
  0
BLOCK
  5
1C
100
AcDbEntity
  8
0
100
AcDbBlockBegin
  2
*Paper_Space
 70
0
 10
0.0
 20
0.0
 30
0.0
  3
*Paper_Space
  1

  0
ENDBLK
  5
1D
100
AcDbEntity
  8
0
100
AcDbBlockEnd
  0
BLOCK
  5
215
100
AcDbEntity
  8
0
100
AcDbBlockBegin
 62
2
  6
CONTINUOUS
  2
SUN_FIRST_THIRD_ANGLE_BL0
 70
64
 10
20.4816717061
 20
1.2289683772
  3
SUN_FIRST_THIRD_ANGLE_BL0
  1

  0
TEXT
  5
216
100
AcDbEntity
  8
0
100
AcDbText
 62
2
  6
CONTINUOUS
 10
19.4750896608
 20
1.4136269581
  7
STANDARD
 40
0.08
  1
FIRST ANGLE
 41
0.8
 72
0
100
AcDbText
  0
TEXT
  5
217
100
AcDbEntity
  8
0
100
AcDbText
 62
2
  6
CONTINUOUS
 10
20.7842537513
 20
1.4047600029
  7
STANDARD
 40
0.08
  1
THIRD ANGLE
 41
0.8
 72
0
100
AcDbText
  0
LINE
  5
218
100
AcDbEntity
  8
0
100
AcDbLine
 62
7
  6
CONTINUOUS
 10
19.4767170086
 20
1.1727031207
 11
19.6334271527
 21
1.1717972817
  0
LINE
  5
219
100
AcDbEntity
  8
0
100
AcDbLine
 62
7
  6
CONTINUOUS
 10
19.6596964832
 20
1.1717972817
 11
19.6950230232
 21
1.171593082
  0
LINE
  5
21A
100
AcDbEntity
  8
0
100
AcDbLine
 62
7
  6
CONTINUOUS
 10
19.7194818561
 20
1.1708914427
 11
19.8852396156
 21
1.1699333054
  0
LINE
  5
21B
100
AcDbEntity
  8
0
100
AcDbLine
 62
7
  6
CONTINUOUS
 10
19.4758111696
 20
1.2723454088
 11
19.88525039
 21
1.3511534004
  0
LINE
  5
21C
100
AcDbEntity
  8
0
100
AcDbLine
 62
7
  6
CONTINUOUS
 10
19.88525039
 20
1.3511534004
 11
19.8831348489
 21
0.9851647912
  0
LINE
  5
21D
100
AcDbEntity
  8
0
100
AcDbLine
 62
7
  6
CONTINUOUS
 10
19.8831348489
 20
0.9851647912
 11
19.4767170086
 21
1.0658141206
  0
LINE
  5
21E
100
AcDbEntity
  8
0
100
AcDbLine
 62
7
  6
CONTINUOUS
 10
19.4767170086
 20
1.0658141206
 11
19.4779056764
 21
1.2714536432
  0
CIRCLE
  5
21F
100
AcDbEntity
  8
0
100
AcDbCircle
 62
7
  6
CONTINUOUS
 10
20.2068232291
 20
1.1717972817
 40
0.175742101
  0
CIRCLE
  5
220
100
AcDbEntity
  8
0
100
AcDbCircle
 62
7
  6
CONTINUOUS
 10
20.2068232291
 20
1.1717972817
 40
0.1005522074
  0
LINE
  5
221
100
AcDbEntity
  8
0
100
AcDbLine
 62
7
  6
CONTINUOUS
 10
20.2077290681
 20
1.3756110529
 11
20.2071171714
 21
1.2379342989
  0
LINE
  5
222
100
AcDbEntity
  8
0
100
AcDbLine
 62
7
  6
CONTINUOUS
 10
20.2077290681
 20
1.2016899681
 11
20.2074674401
 21
1.1428236749
  0
LINE
  5
223
100
AcDbEntity
  8
0
100
AcDbLine
 62
7
  6
CONTINUOUS
 10
20.208634907
 20
1.101141841
 11
20.2080230104
 21
0.963465087
  0
LINE
  5
224
100
AcDbEntity
  8
0
100
AcDbLine
 62
7
  6
CONTINUOUS
 10
20.0066328138
 20
1.1745147986
 11
20.1443095678
 21
1.1739029019
  0
LINE
  5
225
100
AcDbEntity
  8
0
100
AcDbLine
 62
7
  6
CONTINUOUS
 10
20.1832714155
 20
1.1727031207
 11
20.238153505
 21
1.172335442
  0
LINE
  5
226
100
AcDbEntity
  8
0
100
AcDbLine
 62
7
  6
CONTINUOUS
 10
20.2756669918
 20
1.1717972817
 11
20.407916871
 21
1.1712095044
  0
CIRCLE
  5
227
100
AcDbEntity
  8
0
100
AcDbCircle
 62
7
  6
CONTINUOUS
 10
20.7509457401
 20
1.1693297793
 40
0.1722024983
  0
CIRCLE
  5
228
100
AcDbEntity
  8
0
100
AcDbCircle
 62
7
  6
CONTINUOUS
 10
20.7509457401
 20
1.1693297793
 40
0.0985164967
  0
LINE
  5
229
100
AcDbEntity
  8
0
100
AcDbLine
 62
7
  6
CONTINUOUS
 10
20.7169767782
 20
1.170462078
 11
20.7825395137
 21
1.1682766535
  0
LINE
  5
22A
100
AcDbEntity
  8
0
100
AcDbLine
 62
7
  6
CONTINUOUS
 10
20.8177513651
 20
1.1693297793
 11
20.947965719
 21
1.1693297793
  0
LINE
  5
22B
100
AcDbEntity
  8
0
100
AcDbLine
 62
7
  6
CONTINUOUS
 10
20.6875370113
 20
1.170462078
 11
20.5573226574
 21
1.170462078
  0
LINE
  5
22C
100
AcDbEntity
  8
0
100
AcDbLine
 62
7
  6
CONTINUOUS
 10
20.7486811426
 20
1.1987695462
 11
20.7486811426
 21
1.1432869085
  0
LINE
  5
22D
100
AcDbEntity
  8
0
100
AcDbLine
 62
7
  6
CONTINUOUS
 10
20.7498134414
 20
1.1059210505
 11
20.7498134414
 21
0.9757066966
  0
LINE
  5
22E
100
AcDbEntity
  8
0
100
AcDbLine
 62
7
  6
CONTINUOUS
 10
20.7486811426
 20
1.2338708068
 11
20.7486811426
 21
1.3640851607
  0
LINE
  5
22F
100
AcDbEntity
  8
0
100
AcDbLine
 62
7
  6
CONTINUOUS
 10
21.0702539817
 20
1.2701043662
 11
21.4790138229
 21
1.3448360823
  0
LINE
  5
230
100
AcDbEntity
  8
0
100
AcDbLine
 62
7
  6
CONTINUOUS
 10
21.4790138229
 20
1.3448360823
 11
21.4790138229
 21
0.9779712941
  0
LINE
  5
231
100
AcDbEntity
  8
0
100
AcDbLine
 62
7
  6
CONTINUOUS
 10
21.4790138229
 20
0.9779712941
 11
21.069121683
 21
1.0617614
  0
LINE
  5
232
100
AcDbEntity
  8
0
100
AcDbLine
 62
7
  6
CONTINUOUS
 10
21.0702539817
 20
1.2701043662
 11
21.069121683
 21
1.0617614
  0
LINE
  5
233
100
AcDbEntity
  8
0
100
AcDbLine
 62
7
  6
CONTINUOUS
 10
21.4790138229
 20
1.1693297793
 11
21.3159628059
 21
1.1693297793
  0
LINE
  5
234
100
AcDbEntity
  8
0
100
AcDbLine
 62
7
  6
CONTINUOUS
 10
21.2876553377
 20
1.1693297793
 11
21.2502894796
 21
1.1693297793
  0
LINE
  5
235
100
AcDbEntity
  8
0
100
AcDbLine
 62
7
  6
CONTINUOUS
 10
21.2208497126
 20
1.1659328831
 11
21.0713862804
 21
1.1659328831
  0
LINE
  5
236
100
AcDbEntity
  8
0
100
AcDbLine
 62
7
  6
CONTINUOUS
 10
20.4796138713
 20
1.5284908897
 11
20.4766766948
 21
0.9294458646
  0
ENDBLK
  5
237
100
AcDbEntity
  8
0
  6
BYBLOCK
 62
0
100
AcDbBlockEnd
  0
BLOCK
  5
238
100
AcDbEntity
  8
0
100
AcDbBlockBegin
  2
*T1
 70
1
 10
0.0
 20
0.0
  3
*T1
  1

  0
LINE
  5
239
100
AcDbEntity
  8
0
100
AcDbLine
 62
2
  6
CONTINUOUS
 10
9.275
 20
0.0
 11
-0.0
 21
0.0
  0
LINE
  5
23A
100
AcDbEntity
  8
0
100
AcDbLine
 62
2
  6
CONTINUOUS
 10
9.275
 20
0.0
 11
9.275
 21
1.25
  0
LINE
  5
23B
100
AcDbEntity
  8
0
100
AcDbLine
 62
2
  6
CONTINUOUS
 10
9.275
 20
0.625
 11
-0.0
 21
0.625
  0
LINE
  5
23C
100
AcDbEntity
  8
0
100
AcDbLine
 62
2
  6
CONTINUOUS
 10
9.275
 20
1.25
 11
-0.0
 21
1.25
  0
LINE
  5
23D
100
AcDbEntity
  8
0
100
AcDbLine
 62
2
  6
CONTINUOUS
 10
6.8
 20
0.0
 11
6.8
 21
1.25
  0
LINE
  5
23E
100
AcDbEntity
  8
0
100
AcDbLine
 62
2
  6
CONTINUOUS
 10
6.4
 20
0.0
 11
6.4
 21
0.625
  0
LINE
  5
23F
100
AcDbEntity
  8
0
100
AcDbLine
 62
2
  6
CONTINUOUS
 10
5.9
 20
0.0
 11
5.9
 21
0.625
  0
LINE
  5
240
100
AcDbEntity
  8
0
100
AcDbLine
 62
2
  6
CONTINUOUS
 10
5.2
 20
0.0
 11
5.2
 21
0.625
  0
LINE
  5
241
100
AcDbEntity
  8
0
100
AcDbLine
 62
2
  6
CONTINUOUS
 10
4.1
 20
0.0
 11
4.1
 21
1.25
  0
LINE
  5
242
100
AcDbEntity
  8
0
100
AcDbLine
 62
2
  6
CONTINUOUS
 10
-0.0
 20
0.0
 11
-0.0
 21
1.25
  0
MTEXT
  5
243
100
AcDbEntity
  8
0
100
AcDbMText
 62
2
  6
CONTINUOUS
  7
STANDARD
 71
2
 72
1
 10
6.6
 20
0.325
 30
0.0
 11
1.0
 21
0.0
 31
0.0
 44
0.9
  1
2
 40
0.125
 41
0.2
  0
MTEXT
  5
244
100
AcDbEntity
  8
0
100
AcDbMText
 62
2
  6
CONTINUOUS
  7
STANDARD
 71
2
 72
1
 10
6.15
 20
0.325
 30
0.0
 11
1.0
 21
0.0
 31
0.0
 44
0.9
  1
C
 40
0.125
 41
0.2
  0
MTEXT
  5
245
100
AcDbEntity
  8
0
100
AcDbMText
 62
2
  6
CONTINUOUS
  7
STANDARD
 71
2
 72
1
 10
5.55
 20
0.325
 30
0.0
 11
1.0
 21
0.0
 31
0.0
 44
0.9
  1
2.000
 40
0.125
 41
1.0
  0
MTEXT
  5
246
100
AcDbEntity
  8
0
100
AcDbMText
 62
2
  6
CONTINUOUS
  7
STANDARD
 71
2
 72
1
 10
4.65
 20
0.325
 30
0.0
 11
1.0
 21
0.0
 31
0.0
 44
0.9
  1
Feb-22-23
 40
0.125
 41
1.8
  0
MTEXT
  5
247
100
AcDbEntity
  8
0
100
AcDbMText
 62
2
  6
CONTINUOUS
  7
STANDARD
 71
2
 72
1
 10
2.05
 20
0.4625
 30
0.0
 11
1.0
 21
0.0
 31
0.0
 44
0.9
  1
T-2A Line mount\PNinety degree with shuttle
 40
0.125
 41
5.2
  0
MTEXT
  5
248
100
AcDbEntity
  8
0
100
AcDbMText
 62
2
  6
CONTINUOUS
  7
STANDARD
 71
1
 72
1
 10
6.45
 20
0.5625
 30
0.0
 11
1.0
 21
0.0
 31
0.0
 44
0.9
  1
SHEET
 40
0.06
 41
0.48
  0
MTEXT
  5
249
100
AcDbEntity
  8
0
100
AcDbMText
 62
2
  6
CONTINUOUS
  7
STANDARD
 71
1
 72
1
 10
5.95
 20
0.5625
 30
0.0
 11
1.0
 21
0.0
 31
0.0
 44
0.9
  1
DWG SIZE
 40
0.06
 41
0.768
  0
MTEXT
  5
24A
100
AcDbEntity
  8
0
100
AcDbMText
 62
2
  6
CONTINUOUS
  7
STANDARD
 71
1
 72
1
 10
5.25
 20
0.5625
 30
0.0
 11
1.0
 21
0.0
 31
0.0
 44
0.9
  1
SCALE
 40
0.06
 41
0.48
  0
MTEXT
  5
24B
100
AcDbEntity
  8
0
100
AcDbMText
 62
2
  6
CONTINUOUS
  7
STANDARD
 71
1
 72
1
 10
4.15
 20
0.5625
 30
0.0
 11
1.0
 21
0.0
 31
0.0
 44
0.9
  1
DATE
 40
0.06
 41
0.384
  0
MTEXT
  5
24C
100
AcDbEntity
  8
0
100
AcDbMText
 62
2
  6
CONTINUOUS
  7
STANDARD
 71
1
 72
1
 10
0.05
 20
0.5625
 30
0.0
 11
1.0
 21
0.0
 31
0.0
 44
0.9
  1
DESCRIPTION
 40
0.06
 41
1.056
  0
MTEXT
  5
24D
100
AcDbEntity
  8
0
100
AcDbMText
 62
2
  6
CONTINUOUS
  7
STANDARD
 71
2
 72
1
 10
5.45
 20
1.0375
 30
0.0
 11
1.0
 21
0.0
 31
0.0
 44
0.9
  1
ALL DIMENSIONS IN INCH\PVIEWS ARE THIRD ANGLE
 40
0.12
 41
4.224
  0
MTEXT
  5
24E
100
AcDbEntity
  8
0
100
AcDbMText
 62
2
  6
CONTINUOUS
  7
STANDARD
 71
2
 72
1
 10
2.05
 20
0.95
 30
0.0
 11
1.0
 21
0.0
 31
0.0
 44
0.9
  1
BGD
 40
0.125
 41
0.6
  0
MTEXT
  5
24F
100
AcDbEntity
  8
0
100
AcDbMText
 62
2
  6
CONTINUOUS
  7
STANDARD
 71
1
 72
1
 10
0.05
 20
1.1875
 30
0.0
 11
1.0
 21
0.0
 31
0.0
 44
0.9
  1
MODEL
 40
0.06
 41
0.48
  0
ENDBLK
  5
250
100
AcDbEntity
  8
0
  6
BYBLOCK
 62
0
100
AcDbBlockEnd
  0
BLOCK
  5
251
100
AcDbEntity
  8
0
100
AcDbBlockBegin
  2
*T2
 70
1
 10
0.0
 20
0.0
  3
*T2
  1

  0
LINE
  5
252
100
AcDbEntity
  8
0
100
AcDbLine
 62
2
  6
CONTINUOUS
 10
0.0
 20
0.0
 11
9.055
 21
0.0
  0
LINE
  5
253
100
AcDbEntity
  8
0
100
AcDbLine
 62
2
  6
CONTINUOUS
 10
0.0
 20
0.0
 11
0.0
 21
-3.344
  0
LINE
  5
254
100
AcDbEntity
  8
0
100
AcDbLine
 62
2
  6
CONTINUOUS
 10
0.0
 20
-0.344
 11
9.055
 21
-0.344
  0
LINE
  5
255
100
AcDbEntity
  8
0
100
AcDbLine
 62
2
  6
CONTINUOUS
 10
0.0
 20
-0.594
 11
9.055
 21
-0.594
  0
LINE
  5
256
100
AcDbEntity
  8
0
100
AcDbLine
 62
2
  6
CONTINUOUS
 10
0.0
 20
-0.844
 11
9.055
 21
-0.844
  0
LINE
  5
257
100
AcDbEntity
  8
0
100
AcDbLine
 62
2
  6
CONTINUOUS
 10
0.0
 20
-1.094
 11
9.055
 21
-1.094
  0
LINE
  5
258
100
AcDbEntity
  8
0
100
AcDbLine
 62
2
  6
CONTINUOUS
 10
0.0
 20
-1.344
 11
9.055
 21
-1.344
  0
LINE
  5
259
100
AcDbEntity
  8
0
100
AcDbLine
 62
2
  6
CONTINUOUS
 10
0.0
 20
-1.594
 11
9.055
 21
-1.594
  0
LINE
  5
25A
100
AcDbEntity
  8
0
100
AcDbLine
 62
2
  6
CONTINUOUS
 10
0.0
 20
-1.844
 11
9.055
 21
-1.844
  0
LINE
  5
25B
100
AcDbEntity
  8
0
100
AcDbLine
 62
2
  6
CONTINUOUS
 10
0.0
 20
-2.094
 11
9.055
 21
-2.094
  0
LINE
  5
25C
100
AcDbEntity
  8
0
100
AcDbLine
 62
2
  6
CONTINUOUS
 10
0.0
 20
-2.344
 11
9.055
 21
-2.344
  0
LINE
  5
25D
100
AcDbEntity
  8
0
100
AcDbLine
 62
2
  6
CONTINUOUS
 10
0.0
 20
-2.594
 11
9.055
 21
-2.594
  0
LINE
  5
25E
100
AcDbEntity
  8
0
100
AcDbLine
 62
2
  6
CONTINUOUS
 10
0.0
 20
-2.844
 11
9.055
 21
-2.844
  0
LINE
  5
25F
100
AcDbEntity
  8
0
100
AcDbLine
 62
2
  6
CONTINUOUS
 10
0.0
 20
-3.094
 11
9.055
 21
-3.094
  0
LINE
  5
260
100
AcDbEntity
  8
0
100
AcDbLine
 62
2
  6
CONTINUOUS
 10
0.0
 20
-3.344
 11
9.055
 21
-3.344
  0
LINE
  5
261
100
AcDbEntity
  8
0
100
AcDbLine
 62
2
  6
CONTINUOUS
 10
3.055
 20
0.0
 11
3.055
 21
-3.344
  0
LINE
  5
262
100
AcDbEntity
  8
0
100
AcDbLine
 62
2
  6
CONTINUOUS
 10
9.055
 20
0.0
 11
9.055
 21
-3.344
  0
MTEXT
  5
263
100
AcDbEntity
  8
0
100
AcDbMText
 62
2
  6
CONTINUOUS
  7
STANDARD
 71
2
 72
1
 10
1.5275
 20
-0.0995
 30
0.0
 11
1.0
 21
0.0
 31
0.0
 44
0.9
  1
Technical Data
 40
0.145
 41
3.248
  0
MTEXT
  5
264
100
AcDbEntity
  8
0
100
AcDbMText
 62
2
  6
CONTINUOUS
  7
STANDARD
 71
2
 72
1
 10
4.555
 20
-0.0995
 30
0.0
 11
1.0
 21
0.0
 31
0.0
 44
0.9
  1
U.S. Units
 40
0.145
 41
2.32
  0
MTEXT
  5
265
100
AcDbEntity
  8
0
100
AcDbMText
 62
2
  6
CONTINUOUS
  7
STANDARD
 71
2
 72
1
 10
7.555
 20
-0.0995
 30
0.0
 11
1.0
 21
0.0
 31
0.0
 44
0.9
  1
Metric Units
 40
0.145
 41
2.784
  0
MTEXT
  5
266
100
AcDbEntity
  8
0
100
AcDbMText
 62
2
  6
CONTINUOUS
  7
STANDARD
 71
2
 72
1
 10
1.5275
 20
-0.4065
 30
0.0
 11
1.0
 21
0.0
 31
0.0
 44
0.9
  1
Cavity
 40
0.125
 41
1.2
  0
MTEXT
  5
267
100
AcDbEntity
  8
0
100
AcDbMText
 62
2
  6
CONTINUOUS
  7
STANDARD
 71
2
 72
1
 10
6.055
 20
-0.4065
 30
0.0
 11
1.0
 21
0.0
 31
0.0
 44
0.9
  1
T-2A
 40
0.125
 41
0.8
  0
MTEXT
  5
268
100
AcDbEntity
  8
0
100
AcDbMText
 62
2
  6
CONTINUOUS
  7
STANDARD
 71
2
 72
1
 10
1.5275
 20
-0.6565
 30
0.0
 11
1.0
 21
0.0
 31
0.0
 44
0.9
  1
Body Features
 40
0.125
 41
2.6
  0
MTEXT
  5
269
100
AcDbEntity
  8
0
100
AcDbMText
 62
2
  6
CONTINUOUS
  7
STANDARD
 71
2
 72
1
 10
6.055
 20
-0.6565
 30
0.0
 11
1.0
 21
0.0
 31
0.0
 44
0.9
  1
Ninety degree with shuttle
 40
0.125
 41
5.2
  0
MTEXT
  5
26A
100
AcDbEntity
  8
0
100
AcDbMText
 62
2
  6
CONTINUOUS
  7
STANDARD
 71
2
 72
1
 10
1.5275
 20
-0.9065
 30
0.0
 11
1.0
 21
0.0
 31
0.0
 44
0.9
  1
Body Type
 40
0.125
 41
1.8
  0
MTEXT
  5
26B
100
AcDbEntity
  8
0
100
AcDbMText
 62
2
  6
CONTINUOUS
  7
STANDARD
 71
2
 72
1
 10
6.055
 20
-0.9065
 30
0.0
 11
1.0
 21
0.0
 31
0.0
 44
0.9
  1
Line mount
 40
0.125
 41
2.0
  0
MTEXT
  5
26C
100
AcDbEntity
  8
0
100
AcDbMText
 62
2
  6
CONTINUOUS
  7
STANDARD
 71
2
 72
1
 10
1.5275
 20
-1.1565
 30
0.0
 11
1.0
 21
0.0
 31
0.0
 44
0.9
  1
Interface
 40
0.125
 41
1.8
  0
MTEXT
  5
26D
100
AcDbEntity
  8
0
100
AcDbMText
 62
2
  6
CONTINUOUS
  7
STANDARD
 71
2
 72
1
 10
6.055
 20
-1.1565
 30
0.0
 11
1.0
 21
0.0
 31
0.0
 44
0.9
  1
None
 40
0.125
 41
0.8
  0
MTEXT
  5
26E
100
AcDbEntity
  8
0
100
AcDbMText
 62
2
  6
CONTINUOUS
  7
STANDARD
 71
2
 72
1
 10
1.5275
 20
-1.4065
 30
0.0
 11
1.0
 21
0.0
 31
0.0
 44
0.9
  1
Open Cavity Quantity
 40
0.125
 41
4.0
  0
MTEXT
  5
26F
100
AcDbEntity
  8
0
100
AcDbMText
 62
2
  6
CONTINUOUS
  7
STANDARD
 71
2
 72
1
 10
6.055
 20
-1.4065
 30
0.0
 11
1.0
 21
0.0
 31
0.0
 44
0.9
  1
1
 40
0.125
 41
0.2
  0
MTEXT
  5
270
100
AcDbEntity
  8
0
100
AcDbMText
 62
2
  6
CONTINUOUS
  7
STANDARD
 71
2
 72
1
 10
1.5275
 20
-1.6565
 30
0.0
 11
1.0
 21
0.0
 31
0.0
 44
0.9
  1
Weight
 40
0.125
 41
1.2
  0
MTEXT
  5
271
100
AcDbEntity
  8
0
100
AcDbMText
 62
2
  6
CONTINUOUS
  7
STANDARD
 71
2
 72
1
 10
4.555
 20
-1.6565
 30
0.0
 11
1.0
 21
0.0
 31
0.0
 44
0.9
  1
1.244 lb.
 40
0.125
 41
1.8
  0
MTEXT
  5
272
100
AcDbEntity
  8
0
100
AcDbMText
 62
2
  6
CONTINUOUS
  7
STANDARD
 71
2
 72
1
 10
7.555
 20
-1.6565
 30
0.0
 11
1.0
 21
0.0
 31
0.0
 44
0.9
  1
0,564 kg.
 40
0.125
 41
1.8
  0
MTEXT
  5
273
100
AcDbEntity
  8
0
100
AcDbMText
 62
2
  6
CONTINUOUS
  7
STANDARD
 71
2
 72
1
 10
1.5275
 20
-1.9065
 30
0.0
 11
1.0
 21
0.0
 31
0.0
 44
0.9
  1
Maximum Operating Pressure - 6061-T651 Aluminum
 40
0.125
 41
9.4
  0
MTEXT
  5
274
100
AcDbEntity
  8
0
100
AcDbMText
 62
2
  6
CONTINUOUS
  7
STANDARD
 71
2
 72
1
 10
4.555
 20
-1.9065
 30
0.0
 11
1.0
 21
0.0
 31
0.0
 44
0.9
  1
3000 psi
 40
0.125
 41
1.6
  0
MTEXT
  5
275
100
AcDbEntity
  8
0
100
AcDbMText
 62
2
  6
CONTINUOUS
  7
STANDARD
 71
2
 72
1
 10
7.555
 20
-1.9065
 30
0.0
 11
1.0
 21
0.0
 31
0.0
 44
0.9
  1
210 bar
 40
0.125
 41
1.4
  0
MTEXT
  5
276
100
AcDbEntity
  8
0
100
AcDbMText
 62
2
  6
CONTINUOUS
  7
STANDARD
 71
2
 72
1
 10
1.5275
 20
-2.1565
 30
0.0
 11
1.0
 21
0.0
 31
0.0
 44
0.9
  1
Maximum Operating Pressure - 65-45-12 Ductile Iron
 40
0.125
 41
10.0
  0
MTEXT
  5
277
100
AcDbEntity
  8
0
100
AcDbMText
 62
2
  6
CONTINUOUS
  7
STANDARD
 71
2
 72
1
 10
4.555
 20
-2.1565
 30
0.0
 11
1.0
 21
0.0
 31
0.0
 44
0.9
  1
5000 psi
 40
0.125
 41
1.6
  0
MTEXT
  5
278
100
AcDbEntity
  8
0
100
AcDbMText
 62
2
  6
CONTINUOUS
  7
STANDARD
 71
2
 72
1
 10
7.555
 20
-2.1565
 30
0.0
 11
1.0
 21
0.0
 31
0.0
 44
0.9
  1
350 bar
 40
0.125
 41
1.4
  0
MTEXT
  5
279
100
AcDbEntity
  8
0
100
AcDbMText
 62
2
  6
CONTINUOUS
  7
STANDARD
 71
2
 72
1
 10
1.5275
 20
-2.4065
 30
0.0
 11
1.0
 21
0.0
 31
0.0
 44
0.9
  1
Mounting Hole Diameter
 40
0.125
 41
4.4
  0
MTEXT
  5
27A
100
AcDbEntity
  8
0
100
AcDbMText
 62
2
  6
CONTINUOUS
  7
STANDARD
 71
2
 72
1
 10
4.555
 20
-2.4065
 30
0.0
 11
1.0
 21
0.0
 31
0.0
 44
0.9
  1
.41 in.
 40
0.125
 41
1.4
  0
MTEXT
  5
27B
100
AcDbEntity
  8
0
100
AcDbMText
 62
2
  6
CONTINUOUS
  7
STANDARD
 71
2
 72
1
 10
7.555
 20
-2.4065
 30
0.0
 11
1.0
 21
0.0
 31
0.0
 44
0.9
  1
10,4 mm
 40
0.125
 41
1.4
  0
MTEXT
  5
27C
100
AcDbEntity
  8
0
100
AcDbMText
 62
2
  6
CONTINUOUS
  7
STANDARD
 71
2
 72
1
 10
1.5275
 20
-2.6565
 30
0.0
 11
1.0
 21
0.0
 31
0.0
 44
0.9
  1
Mounting Hole Depth
 40
0.125
 41
3.8
  0
MTEXT
  5
27D
100
AcDbEntity
  8
0
100
AcDbMText
 62
2
  6
CONTINUOUS
  7
STANDARD
 71
2
 72
1
 10
6.055
 20
-2.6565
 30
0.0
 11
1.0
 21
0.0
 31
0.0
 44
0.9
  1
Through
 40
0.125
 41
1.4
  0
MTEXT
  5
27E
100
AcDbEntity
  8
0
100
AcDbMText
 62
2
  6
CONTINUOUS
  7
STANDARD
 71
2
 72
1
 10
1.5275
 20
-2.9065
 30
0.0
 11
1.0
 21
0.0
 31
0.0
 44
0.9
  1
Mounting Hole Quantity
 40
0.125
 41
4.4
  0
MTEXT
  5
27F
100
AcDbEntity
  8
0
100
AcDbMText
 62
2
  6
CONTINUOUS
  7
STANDARD
 71
2
 72
1
 10
6.055
 20
-2.9065
 30
0.0
 11
1.0
 21
0.0
 31
0.0
 44
0.9
  1
2
 40
0.125
 41
0.2
  0
MTEXT
  5
280
100
AcDbEntity
  8
0
100
AcDbMText
 62
2
  6
CONTINUOUS
  7
STANDARD
 71
2
 72
1
 10
1.5275
 20
-3.1565
 30
0.0
 11
1.0
 21
0.0
 31
0.0
 44
0.9
  1
Includes integral cartridge(s)
 40
0.125
 41
6.0
  0
MTEXT
  5
281
100
AcDbEntity
  8
0
100
AcDbMText
 62
2
  6
CONTINUOUS
  7
STANDARD
 71
2
 72
1
 10
6.055
 20
-3.1565
 30
0.0
 11
1.0
 21
0.0
 31
0.0
 44
0.9
  1
Yes (see Included Components)
 40
0.125
 41
5.8
  0
ENDBLK
  5
282
100
AcDbEntity
  8
0
  6
BYBLOCK
 62
0
100
AcDbBlockEnd
  0
BLOCK
  5
283
100
AcDbEntity
  8
0
100
AcDbBlockBegin
  2
*T3
 70
1
 10
0.0
 20
0.0
  3
*T3
  1

  0
LINE
  5
284
100
AcDbEntity
  8
0
100
AcDbLine
 62
2
  6
CONTINUOUS
 10
0.0
 20
0.0
 11
4.6
 21
0.0
  0
LINE
  5
285
100
AcDbEntity
  8
0
100
AcDbLine
 62
2
  6
CONTINUOUS
 10
0.0
 20
0.0
 11
0.0
 21
-1.18775
  0
LINE
  5
286
100
AcDbEntity
  8
0
100
AcDbLine
 62
2
  6
CONTINUOUS
 10
0.0
 20
-0.34375
 11
4.6
 21
-0.34375
  0
LINE
  5
287
100
AcDbEntity
  8
0
100
AcDbLine
 62
2
  6
CONTINUOUS
 10
0.0
 20
-0.68775
 11
4.6
 21
-0.68775
  0
LINE
  5
288
100
AcDbEntity
  8
0
100
AcDbLine
 62
2
  6
CONTINUOUS
 10
0.0
 20
-0.93775
 11
4.6
 21
-0.93775
  0
LINE
  5
289
100
AcDbEntity
  8
0
100
AcDbLine
 62
2
  6
CONTINUOUS
 10
0.0
 20
-1.18775
 11
4.6
 21
-1.18775
  0
LINE
  5
28A
100
AcDbEntity
  8
0
100
AcDbLine
 62
2
  6
CONTINUOUS
 10
1.3
 20
-0.34375
 11
1.3
 21
-1.18775
  0
LINE
  5
28B
100
AcDbEntity
  8
0
100
AcDbLine
 62
2
  6
CONTINUOUS
 10
3.3
 20
-0.34375
 11
3.3
 21
-1.18775
  0
LINE
  5
28C
100
AcDbEntity
  8
0
100
AcDbLine
 62
2
  6
CONTINUOUS
 10
4.6
 20
0.0
 11
4.6
 21
-1.18775
  0
MTEXT
  5
28D
100
AcDbEntity
  8
0
100
AcDbMText
 62
2
  6
CONTINUOUS
  7
STANDARD
 71
2
 72
1
 10
2.3
 20
-0.099375
 30
0.0
 11
1.0
 21
0.0
 31
0.0
 44
0.9
  1
Port Headings
 40
0.145
 41
3.016
  0
MTEXT
  5
28E
100
AcDbEntity
  8
0
100
AcDbMText
 62
2
  6
CONTINUOUS
  7
STANDARD
 71
2
 72
1
 10
0.65
 20
-0.44325
 30
0.0
 11
1.0
 21
0.0
 31
0.0
 44
0.9
  1
Product
 40
0.145
 41
1.624
  0
MTEXT
  5
28F
100
AcDbEntity
  8
0
100
AcDbMText
 62
2
  6
CONTINUOUS
  7
STANDARD
 71
2
 72
1
 10
2.3
 20
-0.44325
 30
0.0
 11
1.0
 21
0.0
 31
0.0
 44
0.9
  1
Port
 40
0.145
 41
0.928
  0
MTEXT
  5
290
100
AcDbEntity
  8
0
100
AcDbMText
 62
2
  6
CONTINUOUS
  7
STANDARD
 71
2
 72
1
 10
3.95
 20
-0.44325
 30
0.0
 11
1.0
 21
0.0
 31
0.0
 44
0.9
  1
Size
 40
0.145
 41
0.928
  0
MTEXT
  5
291
100
AcDbEntity
  8
0
100
AcDbMText
 62
2
  6
CONTINUOUS
  7
STANDARD
 71
2
 72
1
 10
0.65
 20
-0.75025
 30
0.0
 11
1.0
 21
0.0
 31
0.0
 44
0.9
  1
BGD
 40
0.125
 41
0.6
  0
MTEXT
  5
292
100
AcDbEntity
  8
0
100
AcDbMText
 62
2
  6
CONTINUOUS
  7
STANDARD
 71
2
 72
1
 10
2.3
 20
-0.75025
 30
0.0
 11
1.0
 21
0.0
 31
0.0
 44
0.9
  1
Ports 1 &  2
 40
0.125
 41
2.4
  0
MTEXT
  5
293
100
AcDbEntity
  8
0
100
AcDbMText
 62
2
  6
CONTINUOUS
  7
STANDARD
 71
2
 72
1
 10
3.95
 20
-0.75025
 30
0.0
 11
1.0
 21
0.0
 31
0.0
 44
0.9
  1
3/4" NPTF
 40
0.125
 41
1.8
  0
MTEXT
  5
294
100
AcDbEntity
  8
0
100
AcDbMText
 62
2
  6
CONTINUOUS
  7
STANDARD
 71
2
 72
1
 10
0.65
 20
-1.00025
 30
0.0
 11
1.0
 21
0.0
 31
0.0
 44
0.9
  1
BGD
 40
0.125
 41
0.6
  0
MTEXT
  5
295
100
AcDbEntity
  8
0
100
AcDbMText
 62
2
  6
CONTINUOUS
  7
STANDARD
 71
2
 72
1
 10
2.3
 20
-1.00025
 30
0.0
 11
1.0
 21
0.0
 31
0.0
 44
0.9
  1
Ports 3 & S
 40
0.125
 41
2.2
  0
MTEXT
  5
296
100
AcDbEntity
  8
0
100
AcDbMText
 62
2
  6
CONTINUOUS
  7
STANDARD
 71
2
 72
1
 10
3.95
 20
-1.00025
 30
0.0
 11
1.0
 21
0.0
 31
0.0
 44
0.9
  1
1/4" NPTF
 40
0.125
 41
1.8
  0
ENDBLK
  5
297
100
AcDbEntity
  8
0
  6
BYBLOCK
 62
0
100
AcDbBlockEnd
  0
ENDSEC
  0
SECTION
  2
ENTITIES
  0
IMAGE
  5
298
100
AcDbEntity
  8
0
100
AcDbRasterImage
 62
7
  6
CONTINUOUS
 10
19.2297077316
 20
0.3094318264
 30
0.0
 11
0.0066666667
 21
0.0
 31
0.0
 12
0.0
 22
0.0066666667
 32
0.0
 13
369.0
 23
92.0
340
       3EE
 70
9
280
0
281
50
282
50
283
0
360
       3E8
 71
1
 91
2
 14
-0.5
 24
-0.5
 14
368.5
 24
91.5
  0
INSERT
  5
299
100
AcDbEntity
  8
0
100
AcDbBlockReference
 62
2
  6
CONTINUOUS
  2
SUN_FIRST_THIRD_ANGLE_BL0
 10
20.4816717061
 20
1.2289683772
  0
ACAD_TABLE
  5
29A
100
AcDbEntity
  8
0
 62
2
  6
CONTINUOUS
100
AcDbBlockReference
  2
*T1
 10
12.42375
 20
0.30125
 30
0.0
100
AcDbTable
342
       3F0
343
211
 11
1.0
 21
0.0
 31
0.0
 90
6
 91
4
 92
6
 93
20
 94
0
 95
0
 96
0
 70
1
 41
0.0
141
0.525
141
0.1
141
0.525
141
0.1
142
4.1
142
1.1
142
0.7
142
0.5
142
0.4
142
2.475
171
1
172
0
173
0
174
0
175
1
176
1
 91
33
178
0
145
0.0
301
CELL_VALUE
 90
4
  1
T-2A Line mount\PNinety degree with shuttle
304
ACVALUE_END
170
2
140
0.125
171
1
172
0
173
0
174
0
175
1
176
1
 91
33
178
0
145
0.0
301
CELL_VALUE
 90
4
  1
Feb-22-23
304
ACVALUE_END
170
5
140
0.125
171
1
172
0
173
0
174
0
175
1
176
1
 91
33
178
0
145
0.0
301
CELL_VALUE
 90
4
  1
2.000
304
ACVALUE_END
170
5
140
0.125
171
1
172
0
173
0
174
0
175
1
176
1
 91
33
178
0
145
0.0
301
CELL_VALUE
 90
4
  1
C
304
ACVALUE_END
170
5
140
0.125
171
1
172
0
173
0
174
0
175
1
176
1
 91
33
178
0
145
0.0
301
CELL_VALUE
 90
4
  1
2
304
ACVALUE_END
170
5
140
0.125
171
1
172
0
173
0
174
0
175
1
176
1
 91
33
178
0
145
0.0
301
CELL_VALUE
 90
4
  1
 
304
ACVALUE_END
170
1
140
0.125
171
1
172
0
173
0
174
0
175
1
176
1
 91
33
178
0
145
0.0
301
CELL_VALUE
 90
4
  1
DESCRIPTION
304
ACVALUE_END
170
1
140
0.06
171
1
172
0
173
0
174
0
175
1
176
1
 91
33
178
0
145
0.0
301
CELL_VALUE
 90
4
  1
DATE
304
ACVALUE_END
170
1
140
0.06
171
1
172
0
173
0
174
0
175
1
176
1
 91
33
178
0
145
0.0
301
CELL_VALUE
 90
4
  1
SCALE
304
ACVALUE_END
170
1
140
0.06
171
1
172
0
173
0
174
0
175
1
176
1
 91
33
178
0
145
0.0
301
CELL_VALUE
 90
4
  1
DWG SIZE
304
ACVALUE_END
170
1
140
0.06
171
1
172
0
173
0
174
0
175
1
176
1
 91
33
178
0
145
0.0
301
CELL_VALUE
 90
4
  1
SHEET
304
ACVALUE_END
170
1
140
0.06
171
1
172
0
173
0
174
0
175
1
176
1
 91
33
178
0
145
0.0
301
CELL_VALUE
 90
4
  1
 
304
ACVALUE_END
170
1
140
0.125
171
1
172
0
173
0
174
0
175
1
176
1
 91
33
178
0
145
0.0
301
CELL_VALUE
 90
4
  1
BGD
304
ACVALUE_END
170
5
140
0.125
171
1
172
0
173
0
174
0
175
4
176
1
 91
33
178
0
145
0.0
301
CELL_VALUE
 90
4
  1
ALL DIMENSIONS IN INCH\PVIEWS ARE THIRD ANGLE
304
ACVALUE_END
170
5
140
0.12
171
1
172
0
173
1
174
0
175
1
176
1
 91
1
178
0
145
0.0
170
1
171
1
172
0
173
1
174
0
175
1
176
1
 91
1
178
0
145
0.0
170
1
171
1
172
0
173
1
174
0
175
1
176
1
 91
1
178
0
145
0.0
170
5
171
1
172
0
173
0
174
0
175
1
176
1
 91
33
178
0
145
0.0
301
CELL_VALUE
 90
4
  1
 
304
ACVALUE_END
170
1
140
0.125
171
1
172
0
173
0
174
0
175
1
176
1
 91
33
178
0
145
0.0
301
CELL_VALUE
 90
4
  1
MODEL
304
ACVALUE_END
170
1
140
0.06
171
1
172
0
173
0
174
0
175
1
176
1
 91
33
178
0
145
0.0
301
CELL_VALUE
 90
4
  1
 
304
ACVALUE_END
170
1
140
0.125
171
1
172
0
173
0
174
0
175
1
176
1
 91
33
178
0
145
0.0
301
CELL_VALUE
 90
4
  1
 
304
ACVALUE_END
170
1
140
0.125
171
1
172
0
173
0
174
0
175
1
176
1
 91
33
178
0
145
0.0
301
CELL_VALUE
 90
4
  1
 
304
ACVALUE_END
170
1
140
0.125
171
1
172
0
173
0
174
0
175
1
176
1
 91
33
178
0
145
0.0
301
CELL_VALUE
 90
4
  1
 
304
ACVALUE_END
170
1
140
0.125
171
1
172
0
173
0
174
0
175
1
176
1
 91
33
178
0
145
0.0
301
CELL_VALUE
 90
4
  1
 
304
ACVALUE_END
170
1
140
0.125
  0
ACAD_TABLE
  5
29B
100
AcDbEntity
  8
0
 62
2
  6
CONTINUOUS
100
AcDbBlockReference
  2
*T2
 10
12.4237499994
 20
16.47875
 30
0.0
100
AcDbTable
342
       3EF
343
212
 11
1.0
 21
0.0
 31
0.0
 90
22
 91
13
 92
3
 93
16
 94
0
 95
0
 96
0
 41
0.028
141
0.344
141
0.25
141
0.25
141
0.25
141
0.25
141
0.25
141
0.25
141
0.25
141
0.25
141
0.25
141
0.25
141
0.25
141
0.25
142
3.055
142
3.0
142
3.0
171
1
172
0
173
0
174
0
175
1
176
1
 91
33
178
0
145
0.0
301
CELL_VALUE
 90
4
  1
Technical Data
304
ACVALUE_END
170
5
140
0.145
171
1
172
0
173
0
174
0
175
1
176
1
 91
33
178
0
145
0.0
301
CELL_VALUE
 90
4
  1
U.S. Units
304
ACVALUE_END
170
5
140
0.145
171
1
172
0
173
0
174
0
175
1
176
1
 91
33
178
0
145
0.0
301
CELL_VALUE
 90
4
  1
Metric Units
304
ACVALUE_END
170
5
140
0.145
171
1
172
0
173
0
174
0
175
1
176
1
 91
33
178
0
145
0.0
301
CELL_VALUE
 90
4
  1
Cavity
304
ACVALUE_END
170
5
140
0.125
171
1
172
0
173
0
174
0
175
2
176
1
 91
33
178
0
145
0.0
301
CELL_VALUE
 90
4
  1
T-2A
304
ACVALUE_END
170
5
140
0.125
171
1
172
0
173
1
174
0
175
1
176
1
 91
1
178
0
145
0.0
170
1
171
1
172
0
173
0
174
0
175
1
176
1
 91
33
178
0
145
0.0
301
CELL_VALUE
 90
4
  1
Body Features
304
ACVALUE_END
170
5
140
0.125
171
1
172
0
173
0
174
0
175
2
176
1
 91
33
178
0
145
0.0
301
CELL_VALUE
 90
4
  1
Ninety degree with shuttle
304
ACVALUE_END
170
5
140
0.125
171
1
172
0
173
1
174
0
175
1
176
1
 91
1
178
0
145
0.0
170
1
171
1
172
0
173
0
174
0
175
1
176
1
 91
33
178
0
145
0.0
301
CELL_VALUE
 90
4
  1
Body Type
304
ACVALUE_END
170
5
140
0.125
171
1
172
0
173
0
174
0
175
2
176
1
 91
33
178
0
145
0.0
301
CELL_VALUE
 90
4
  1
Line mount
304
ACVALUE_END
170
5
140
0.125
171
1
172
0
173
1
174
0
175
1
176
1
 91
1
178
0
145
0.0
170
1
171
1
172
0
173
0
174
0
175
1
176
1
 91
33
178
0
145
0.0
301
CELL_VALUE
 90
4
  1
Interface
304
ACVALUE_END
170
5
140
0.125
171
1
172
0
173
0
174
0
175
2
176
1
 91
33
178
0
145
0.0
301
CELL_VALUE
 90
4
  1
None
304
ACVALUE_END
170
5
140
0.125
171
1
172
0
173
1
174
0
175
1
176
1
 91
1
178
0
145
0.0
170
1
171
1
172
0
173
0
174
0
175
1
176
1
 91
33
178
0
145
0.0
301
CELL_VALUE
 90
4
  1
Open Cavity Quantity
304
ACVALUE_END
170
5
140
0.125
171
1
172
0
173
0
174
0
175
2
176
1
 91
33
178
0
145
0.0
301
CELL_VALUE
 90
4
  1
1
304
ACVALUE_END
170
5
140
0.125
171
1
172
0
173
1
174
0
175
1
176
1
 91
1
178
0
145
0.0
170
1
171
1
172
0
173
0
174
0
175
1
176
1
 91
33
178
0
145
0.0
301
CELL_VALUE
 90
4
  1
Weight
304
ACVALUE_END
170
5
140
0.125
171
1
172
0
173
0
174
0
175
1
176
1
 91
33
178
0
145
0.0
301
CELL_VALUE
 90
4
  1
1.244 lb.
304
ACVALUE_END
170
5
140
0.125
171
1
172
0
173
0
174
0
175
1
176
1
 91
33
178
0
145
0.0
301
CELL_VALUE
 90
4
  1
0,564 kg.
304
ACVALUE_END
170
5
140
0.125
171
1
172
0
173
0
174
0
175
1
176
1
 91
33
178
0
145
0.0
301
CELL_VALUE
 90
4
  1
Maximum Operating Pressure - 6061-T651 Aluminum
304
ACVALUE_END
170
5
140
0.125
171
1
172
0
173
0
174
0
175
1
176
1
 91
33
178
0
145
0.0
301
CELL_VALUE
 90
4
  1
3000 psi
304
ACVALUE_END
170
5
140
0.125
171
1
172
0
173
0
174
0
175
1
176
1
 91
33
178
0
145
0.0
301
CELL_VALUE
 90
4
  1
210 bar
304
ACVALUE_END
170
5
140
0.125
171
1
172
0
173
0
174
0
175
1
176
1
 91
33
178
0
145
0.0
301
CELL_VALUE
 90
4
  1
Maximum Operating Pressure - 65-45-12 Ductile Iron
304
ACVALUE_END
170
5
140
0.125
171
1
172
0
173
0
174
0
175
1
176
1
 91
33
178
0
145
0.0
301
CELL_VALUE
 90
4
  1
5000 psi
304
ACVALUE_END
170
5
140
0.125
171
1
172
0
173
0
174
0
175
1
176
1
 91
33
178
0
145
0.0
301
CELL_VALUE
 90
4
  1
350 bar
304
ACVALUE_END
170
5
140
0.125
171
1
172
0
173
0
174
0
175
1
176
1
 91
33
178
0
145
0.0
301
CELL_VALUE
 90
4
  1
Mounting Hole Diameter
304
ACVALUE_END
170
5
140
0.125
171
1
172
0
173
0
174
0
175
1
176
1
 91
33
178
0
145
0.0
301
CELL_VALUE
 90
4
  1
.41 in.
304
ACVALUE_END
170
5
140
0.125
171
1
172
0
173
0
174
0
175
1
176
1
 91
33
178
0
145
0.0
301
CELL_VALUE
 90
4
  1
10,4 mm
304
ACVALUE_END
170
5
140
0.125
171
1
172
0
173
0
174
0
175
1
176
1
 91
33
178
0
145
0.0
301
CELL_VALUE
 90
4
  1
Mounting Hole Depth
304
ACVALUE_END
170
5
140
0.125
171
1
172
0
173
0
174
0
175
2
176
1
 91
33
178
0
145
0.0
301
CELL_VALUE
 90
4
  1
Through
304
ACVALUE_END
170
5
140
0.125
171
1
172
0
173
1
174
0
175
1
176
1
 91
1
178
0
145
0.0
170
1
171
1
172
0
173
0
174
0
175
1
176
1
 91
33
178
0
145
0.0
301
CELL_VALUE
 90
4
  1
Mounting Hole Quantity
304
ACVALUE_END
170
5
140
0.125
171
1
172
0
173
0
174
0
175
2
176
1
 91
33
178
0
145
0.0
301
CELL_VALUE
 90
4
  1
2
304
ACVALUE_END
170
5
140
0.125
171
1
172
0
173
1
174
0
175
1
176
1
 91
1
178
0
145
0.0
170
1
171
1
172
0
173
0
174
0
175
1
176
1
 91
33
178
0
145
0.0
301
CELL_VALUE
 90
4
  1
Includes integral cartridge(s)
304
ACVALUE_END
170
5
140
0.125
171
1
172
0
173
0
174
0
175
2
176
1
 91
33
178
0
145
0.0
301
CELL_VALUE
 90
4
  1
Yes (see Included Components)
304
ACVALUE_END
170
5
140
0.125
171
1
172
0
173
1
174
0
175
1
176
1
 91
1
178
0
145
0.0
170
1
  0
ACAD_TABLE
  5
29C
100
AcDbEntity
  8
0
 62
2
  6
CONTINUOUS
100
AcDbBlockReference
  2
*T3
 10
0.52125
 20
1.709
 30
0.0
100
AcDbTable
342
       3EF
343
213
 11
1.0
 21
0.0
 31
0.0
 90
22
 91
4
 92
3
 93
16
 94
0
 95
0
 96
0
 41
0.05
141
0.34375
141
0.344
141
0.25
141
0.25
142
1.3
142
2.0
142
1.3
171
1
172
0
173
0
174
0
175
3
176
1
 91
33
178
0
145
0.0
301
CELL_VALUE
 90
4
  1
Port Headings
304
ACVALUE_END
170
5
140
0.145
171
1
172
0
173
1
174
0
175
1
176
1
 91
1
178
0
145
0.0
170
1
171
1
172
0
173
1
174
0
175
1
176
1
 91
1
178
0
145
0.0
170
1
171
1
172
0
173
0
174
0
175
1
176
1
 91
33
178
0
145
0.0
301
CELL_VALUE
 90
4
  1
Product
304
ACVALUE_END
170
5
140
0.145
171
1
172
0
173
0
174
0
175
1
176
1
 91
33
178
0
145
0.0
301
CELL_VALUE
 90
4
  1
Port
304
ACVALUE_END
170
5
140
0.145
171
1
172
0
173
0
174
0
175
1
176
1
 91
33
178
0
145
0.0
301
CELL_VALUE
 90
4
  1
Size
304
ACVALUE_END
170
5
140
0.145
171
1
172
0
173
0
174
0
175
1
176
1
 91
33
178
0
145
0.0
301
CELL_VALUE
 90
4
  1
BGD
304
ACVALUE_END
170
5
140
0.125
171
1
172
0
173
0
174
0
175
1
176
1
 91
33
178
0
145
0.0
301
CELL_VALUE
 90
4
  1
Ports 1 &  2
304
ACVALUE_END
170
5
140
0.125
171
1
172
0
173
0
174
0
175
1
176
1
 91
33
178
0
145
0.0
301
CELL_VALUE
 90
4
  1
3/4" NPTF
304
ACVALUE_END
170
5
140
0.125
171
1
172
0
173
0
174
0
175
1
176
1
 91
33
178
0
145
0.0
301
CELL_VALUE
 90
4
  1
BGD
304
ACVALUE_END
170
5
140
0.125
171
1
172
0
173
0
174
0
175
1
176
1
 91
33
178
0
145
0.0
301
CELL_VALUE
 90
4
  1
Ports 3 & S
304
ACVALUE_END
170
5
140
0.125
171
1
172
0
173
0
174
0
175
1
176
1
 91
33
178
0
145
0.0
301
CELL_VALUE
 90
4
  1
1/4" NPTF
304
ACVALUE_END
170
5
140
0.125
  0
MTEXT
  5
29D
100
AcDbEntity
  8
0
100
AcDbMText
 62
2
  6
CONTINUOUS
  7
STANDARD
 71
1
 72
1
 10
0.52125
 20
5.75995
 30
0.0
 11
1.0
 21
0.0
 31
0.0
 44
0.6
  3
Notes\P \P1. Important: Carefully consider\P   the maximum system pressure. The\P   pressure rating of the manifold is\P   dependent on the manifold material,\P   with the port type/size a secondary\P   consideration. Manifolds\P   constructed of alu
  1
minum are not\P   rated for pressures higher than\P   3000 psi (210 bar), regardless of\P   the port type/size specified.
 40
0.1
 41
3.04
  0
LINE
  5
29E
100
AcDbEntity
  8
0
100
AcDbLine
 62
7
  6
CONTINUOUS
 10
0.30125
 20
0.30125
 11
0.30125
 21
16.69875
  0
LINE
  5
29F
100
AcDbEntity
  8
0
100
AcDbLine
 62
7
  6
CONTINUOUS
 10
0.30125
 20
0.30125
 11
21.69875
 21
0.30125
  0
LINE
  5
2A0
100
AcDbEntity
  8
0
100
AcDbLine
 62
7
  6
CONTINUOUS
 10
0.30125
 20
16.69875
 11
21.69875
 21
16.69875
  0
LINE
  5
2A1
100
AcDbEntity
  8
0
100
AcDbLine
 62
7
  6
CONTINUOUS
 10
21.69875
 20
0.30125
 11
21.69875
 21
16.69875
  0
LINE
  5
2A2
100
AcDbEntity
  8
0
100
AcDbLine
 62
7
  6
CONTINUOUS
 10
7.4725126313
 20
11.4819677682
 11
8.2489691258
 21
12.2319671937
  0
LINE
  5
2A3
100
AcDbEntity
  8
0
100
AcDbLine
 62
7
  6
CONTINUOUS
 10
7.4725126313
 20
5.2034495253
 11
7.4725126313
 21
11.4819677682
  0
LINE
  5
2A4
100
AcDbEntity
  8
0
100
AcDbLine
 62
4
  6
CONTINUOUS
 10
8.4480977788
 20
11.0037922063
 11
8.4674162915
 21
11.0314302388
  0
LINE
  5
2A5
100
AcDbEntity
  8
0
100
AcDbLine
 62
4
  6
CONTINUOUS
 10
8.5446903696
 20
10.9970934874
 11
8.5640088823
 21
11.0247315199
  0
LINE
  5
2A6
100
AcDbEntity
  8
0
100
AcDbLine
 62
4
  6
CONTINUOUS
 10
8.4674162915
 20
11.0314302388
 11
8.4867348179
 21
11.0445793824
  0
LINE
  5
2A7
100
AcDbEntity
  8
0
100
AcDbLine
 62
4
  6
CONTINUOUS
 10
8.5640088823
 20
11.0247315199
 11
8.6026459144
 21
11.0510298084
  0
LINE
  5
2A8
100
AcDbEntity
  8
0
100
AcDbLine
 62
7
  6
CONTINUOUS
 10
13.7510308742
 20
4.7680328063
 11
7.4725126313
 21
5.2034495253
  0
LINE
  5
2A9
100
AcDbEntity
  8
0
100
AcDbLine
 62
4
  6
CONTINUOUS
 10
8.6799199857
 20
10.9587375058
 11
8.6606014679
 21
10.9310994737
  0
LINE
  5
2AA
100
AcDbEntity
  8
0
100
AcDbLine
 62
4
  6
CONTINUOUS
 10
8.6606014679
 20
10.9310994737
 11
8.6412829501
 21
10.9179503296
  0
LINE
  5
2AB
100
AcDbEntity
  8
0
100
AcDbLine
 62
4
  6
CONTINUOUS
 10
10.2968799936
 20
5.4866782067
 11
10.3355170189
 21
5.4839987199
  0
LINE
  5
2AC
100
AcDbEntity
  8
0
100
AcDbLine
 62
4
  6
CONTINUOUS
 10
10.4321096097
 20
5.3758777854
 11
10.4900651614
 21
5.3573696664
  0
LINE
  5
2AD
100
AcDbEntity
  8
0
100
AcDbLine
 62
7
  6
CONTINUOUS
 10
8.5267487935
 20
9.8484574249
 11
8.4922985503
 21
9.7911769859
  0
LINE
  5
2AE
100
AcDbEntity
  8
0
100
AcDbLine
 62
7
  6
CONTINUOUS
 10
8.2709964212
 20
10.0420417643
 11
8.3103368836
 21
10.0800417352
  0
LINE
  5
2AF
100
AcDbEntity
  8
0
100
AcDbLine
 62
4
  6
CONTINUOUS
 10
10.2968799936
 20
5.3707671032
 11
10.2775614672
 21
5.3865957355
  0
LINE
  5
2B0
100
AcDbEntity
  8
0
100
AcDbLine
 62
4
  6
CONTINUOUS
 10
10.3934725775
 20
5.4075350486
 11
10.4321096097
 21
5.3758777854
  0
LINE
  5
2B1
100
AcDbEntity
  8
0
100
AcDbLine
 62
4
  6
CONTINUOUS
 10
10.3355170189
 20
5.4839987199
 11
10.3548355454
 21
5.4681700876
  0
LINE
  5
2B2
100
AcDbEntity
  8
0
100
AcDbLine
 62
4
  6
CONTINUOUS
 10
8.4480977788
 20
10.9748144305
 11
8.4480977788
 21
11.0037922063
  0
LINE
  5
2B3
100
AcDbEntity
  8
0
100
AcDbLine
 62
4
  6
CONTINUOUS
 10
8.5446903696
 20
10.9681157115
 11
8.5446903696
 21
10.9970934874
  0
LINE
  5
2B4
100
AcDbEntity
  8
0
100
AcDbLine
 62
7
  6
CONTINUOUS
 10
8.4306122996
 20
9.7315926397
 11
8.4922985503
 21
9.7911769859
  0
LINE
  5
2B5
100
AcDbEntity
  8
0
100
AcDbLine
 62
7
  6
CONTINUOUS
 10
8.5003219958
 20
9.6060175204
 11
8.5620082464
 21
9.6656018666
  0
LINE
  5
2B6
100
AcDbEntity
  8
0
100
AcDbLine
 62
4
  6
CONTINUOUS
 10
8.6799199857
 20
10.9877152817
 11
8.6799199857
 21
10.9587375058
  0
LINE
  5
2B7
100
AcDbEntity
  8
0
100
AcDbLine
 62
7
  6
CONTINUOUS
 10
8.8795944533
 20
9.4119747556
 11
8.9189349157
 21
9.4499747265
  0
LINE
  5
2B8
100
AcDbEntity
  8
0
100
AcDbLine
 62
4
  6
CONTINUOUS
 10
10.6600680558
 20
10.9083470992
 11
10.6407495294
 21
10.8951979556
  0
LINE
  5
2B9
100
AcDbEntity
  8
0
100
AcDbLine
 62
4
  6
CONTINUOUS
 10
10.7566606397
 20
10.8871594928
 11
10.7759791524
 21
10.9003086374
  0
LINE
  5
2BA
100
AcDbEntity
  8
0
100
AcDbLine
 62
4
  6
CONTINUOUS
 10
10.6793865685
 20
10.7910962524
 11
10.6987050811
 21
10.8042453969
  0
LINE
  5
2BB
100
AcDbEntity
  8
0
100
AcDbLine
 62
4
  6
CONTINUOUS
 10
10.2775614672
 20
5.3865957355
 11
10.2582429546
 21
5.4169132548
  0
LINE
  5
2BC
100
AcDbEntity
  8
0
100
AcDbLine
 62
4
  6
CONTINUOUS
 10
10.3548355454
 20
5.4681700876
 11
10.3934725775
 21
5.4075350486
  0
LINE
  5
2BD
100
AcDbEntity
  8
0
100
AcDbLine
 62
4
  6
CONTINUOUS
 10
10.6407495294
 20
10.8951979556
 11
10.6214310168
 21
10.8675599232
  0
LINE
  5
2BE
100
AcDbEntity
  8
0
100
AcDbLine
 62
4
  6
CONTINUOUS
 10
10.8339347058
 20
10.7948671906
 11
10.7952976719
 21
10.7685689021
  0
LINE
  5
2BF
100
AcDbEntity
  8
0
100
AcDbLine
 62
4
  6
CONTINUOUS
 10
9.5630522219
 20
7.1131325033
 11
9.5299347658
 21
7.1485466663
  0
LINE
  5
2C0
100
AcDbEntity
  8
0
100
AcDbLine
 62
4
  6
CONTINUOUS
 10
9.7617569727
 20
7.1821459293
 11
9.728639513
 21
7.2175600891
  0
LINE
  5
2C1
100
AcDbEntity
  8
0
100
AcDbLine
 62
4
  6
CONTINUOUS
 10
9.7617569727
 20
7.3642919589
 11
9.728639513
 21
7.3997061049
  0
LINE
  5
2C2
100
AcDbEntity
  8
0
100
AcDbLine
 62
4
  6
CONTINUOUS
 10
9.5299347658
 20
7.1485466663
 11
9.5299347658
 21
7.2147815821
  0
LINE
  5
2C3
100
AcDbEntity
  8
0
100
AcDbLine
 62
4
  6
CONTINUOUS
 10
9.5299347658
 20
8.9479285299
 11
9.5299347658
 21
8.9534480852
  0
LINE
  5
2C4
100
AcDbEntity
  8
0
100
AcDbLine
 62
4
  6
CONTINUOUS
 10
9.5961696781
 20
8.5459257046
 11
9.5961696781
 21
8.4631320435
  0
LINE
  5
2C5
100
AcDbEntity
  8
0
100
AcDbLine
 62
4
  6
CONTINUOUS
 10
9.5961696781
 20
7.8394198629
 11
9.5961696781
 21
7.922213524
  0
LINE
  5
2C6
100
AcDbEntity
  8
0
100
AcDbLine
 62
4
  6
CONTINUOUS
 10
9.5961696781
 20
8.1816336179
 11
9.5961696781
 21
8.2478685025
  0
LINE
  5
2C7
100
AcDbEntity
  8
0
100
AcDbLine
 62
4
  6
CONTINUOUS
 10
9.5961696781
 20
8.3141034977
 11
9.5961696781
 21
8.3803383824
  0
LINE
  5
2C8
100
AcDbEntity
  8
0
100
AcDbLine
 62
4
  6
CONTINUOUS
 10
9.5961696781
 20
9.0482070054
 11
9.5961696781
 21
9.1144421112
  0
LINE
  5
2C9
100
AcDbEntity
  8
0
100
AcDbLine
 62
4
  6
CONTINUOUS
 10
9.5961696781
 20
9.1972356617
 11
9.5961696781
 21
9.2634705464
  0
LINE
  5
2CA
100
AcDbEntity
  8
0
100
AcDbLine
 62
4
  6
CONTINUOUS
 10
9.6844829014
 20
9.2573460035
 11
9.6734437493
 21
9.1918766867
  0
LINE
  5
2CB
100
AcDbEntity
  8
0
100
AcDbLine
 62
4
  6
CONTINUOUS
 10
10.6987050811
 20
10.8042453969
 11
10.7566606397
 21
10.8871594928
  0
LINE
  5
2CC
100
AcDbEntity
  8
0
100
AcDbLine
 62
4
  6
CONTINUOUS
 10
9.6955220534
 20
9.2731391016
 11
9.6844829014
 21
9.2573460035
  0
LINE
  5
2CD
100
AcDbEntity
  8
0
100
AcDbLine
 62
4
  6
CONTINUOUS
 10
9.6734437493
 20
9.1918766867
 11
9.6624045973
 21
9.1760835886
  0
LINE
  5
2CE
100
AcDbEntity
  8
0
100
AcDbLine
 62
4
  6
CONTINUOUS
 10
10.8532532236
 20
10.8225052227
 11
10.8339347058
 21
10.7948671906
  0
LINE
  5
2CF
100
AcDbEntity
  8
0
100
AcDbLine
 62
7
  6
CONTINUOUS
 10
10.4462613709
 20
9.8911866276
 11
10.4856018333
 21
9.9291865985
  0
LINE
  5
2D0
100
AcDbEntity
  8
0
100
AcDbLine
 62
4
  6
CONTINUOUS
 10
9.5961696781
 20
9.2634705464
 11
9.6127284131
 21
9.2788808601
  0
LINE
  5
2D1
100
AcDbEntity
  8
0
100
AcDbLine
 62
4
  6
CONTINUOUS
 10
9.7451982429
 20
9.1703418298
 11
9.7617569727
 21
9.1857521438
  0
LINE
  5
2D2
100
AcDbEntity
  8
0
100
AcDbLine
 62
4
  6
CONTINUOUS
 10
9.5961696781
 20
7.1108357999
 11
9.5630522219
 21
7.1131325033
  0
LINE
  5
2D3
100
AcDbEntity
  8
0
100
AcDbLine
 62
4
  6
CONTINUOUS
 10
9.728639513
 20
7.2175600891
 11
9.6955220534
 21
7.2198567927
  0
LINE
  5
2D4
100
AcDbEntity
  8
0
100
AcDbLine
 62
7
  6
CONTINUOUS
 10
8.4922985503
 20
9.7911769859
 11
8.5620082464
 21
9.6656018666
  0
LINE
  5
2D5
100
AcDbEntity
  8
0
100
AcDbLine
 62
4
  6
CONTINUOUS
 10
9.6127284131
 20
8.1473678234
 11
9.5961696781
 21
8.1816336179
  0
LINE
  5
2D6
100
AcDbEntity
  8
0
100
AcDbLine
 62
4
  6
CONTINUOUS
 10
9.6789633254
 20
8.4905077269
 11
9.6789633254
 21
8.5567426116
  0
LINE
  5
2D7
100
AcDbEntity
  8
0
100
AcDbLine
 62
4
  6
CONTINUOUS
 10
9.7617569727
 20
9.1029585933
 11
9.7617569727
 21
9.0367234875
  0
LINE
  5
2D8
100
AcDbEntity
  8
0
100
AcDbLine
 62
4
  6
CONTINUOUS
 10
9.7617569727
 20
8.8324992782
 11
9.7617569727
 21
8.7993818359
  0
LINE
  5
2D9
100
AcDbEntity
  8
0
100
AcDbLine
 62
4
  6
CONTINUOUS
 10
9.7617569727
 20
8.5510008526
 11
9.7617569727
 21
8.484765968
  0
LINE
  5
2DA
100
AcDbEntity
  8
0
100
AcDbLine
 62
4
  6
CONTINUOUS
 10
9.7617569727
 20
8.2363849847
 11
9.7617569727
 21
8.1701501
  0
LINE
  5
2DB
100
AcDbEntity
  8
0
100
AcDbLine
 62
4
  6
CONTINUOUS
 10
9.7617569727
 20
7.1159110119
 11
9.7617569727
 21
7.1821459293
  0
LINE
  5
2DC
100
AcDbEntity
  8
0
100
AcDbLine
 62
4
  6
CONTINUOUS
 10
9.7617569727
 20
7.3146157539
 11
9.7617569727
 21
7.3642919589
  0
LINE
  5
2DD
100
AcDbEntity
  8
0
100
AcDbLine
 62
4
  6
CONTINUOUS
 10
9.7617569727
 20
8.6337945137
 11
9.7617569727
 21
8.7165881748
  0
LINE
  5
2DE
100
AcDbEntity
  8
0
100
AcDbLine
 62
4
  6
CONTINUOUS
 10
9.7617569727
 20
9.1857521438
 11
9.7617569727
 21
9.2519870285
  0
LINE
  5
2DF
100
AcDbEntity
  8
0
100
AcDbLine
 62
4
  6
CONTINUOUS
 10
9.8169527364
 20
7.989695828
 11
9.8169527364
 21
8.0228132703
  0
LINE
  5
2E0
100
AcDbEntity
  8
0
100
AcDbLine
 62
4
  6
CONTINUOUS
 10
9.7617569727
 20
8.484765968
 11
9.7451982429
 21
8.4527968774
  0
LINE
  5
2E1
100
AcDbEntity
  8
0
100
AcDbLine
 62
7
  6
CONTINUOUS
 10
10.6058772493
 20
9.5807375031
 11
10.6675635
 21
9.6403218492
  0
LINE
  5
2E2
100
AcDbEntity
  8
0
100
AcDbLine
 62
4
  6
CONTINUOUS
 10
9.7617569727
 20
9.0367234875
 11
9.7451982429
 21
9.0213131735
  0
LINE
  5
2E3
100
AcDbEntity
  8
0
100
AcDbLine
 62
4
  6
CONTINUOUS
 10
9.7617569727
 20
8.7993818359
 11
9.7451982429
 21
8.7839714113
  0
LINE
  5
2E4
100
AcDbEntity
  8
0
100
AcDbLine
 62
4
  6
CONTINUOUS
 10
9.5299347658
 20
7.2975752224
 11
9.728639513
 21
7.2837950014
  0
LINE
  5
2E5
100
AcDbEntity
  8
0
100
AcDbLine
 62
4
  6
CONTINUOUS
 10
10.9440502277
 20
7.2712605031
 11
10.7122280208
 21
7.2873374277
  0
LINE
  5
2E6
100
AcDbEntity
  8
0
100
AcDbLine
 62
4
  6
CONTINUOUS
 10
9.728639513
 20
7.3997061049
 11
9.5299347658
 21
7.4134863259
  0
LINE
  5
2E7
100
AcDbEntity
  8
0
100
AcDbLine
 62
4
  6
CONTINUOUS
 10
9.7617569727
 20
7.4636443135
 11
9.5299347658
 21
7.4797212382
  0
LINE
  5
2E8
100
AcDbEntity
  8
0
100
AcDbLine
 62
4
  6
CONTINUOUS
 10
10.7453454769
 20
7.4009518139
 11
10.9109327681
 21
7.3894682963
  0
LINE
  5
2E9
100
AcDbEntity
  8
0
100
AcDbLine
 62
4
  6
CONTINUOUS
 10
9.7617569727
 20
7.579555417
 11
9.5299347658
 21
7.5956323416
  0
LINE
  5
2EA
100
AcDbEntity
  8
0
100
AcDbLine
 62
4
  6
CONTINUOUS
 10
9.6955220534
 20
8.4562419329
 11
9.6789633254
 21
8.4905077269
  0
LINE
  5
2EB
100
AcDbEntity
  8
0
100
AcDbLine
 62
4
  6
CONTINUOUS
 10
10.2022191657
 20
7.9133013105
 11
10.2022191657
 21
7.9629774981
  0
LINE
  5
2EC
100
AcDbEntity
  8
0
100
AcDbLine
 62
4
  6
CONTINUOUS
 10
10.2022191657
 20
8.1285647823
 11
10.2022191657
 21
8.2113584296
  0
LINE
  5
2ED
100
AcDbEntity
  8
0
100
AcDbLine
 62
4
  6
CONTINUOUS
 10
10.2022191657
 20
8.2775933419
 11
10.2022191657
 21
8.360387003
  0
LINE
  5
2EE
100
AcDbEntity
  8
0
100
AcDbLine
 62
4
  6
CONTINUOUS
 10
10.2582429546
 20
5.4169132548
 11
10.2582429546
 21
5.4458910307
  0
LINE
  5
2EF
100
AcDbEntity
  8
0
100
AcDbLine
 62
4
  6
CONTINUOUS
 10
10.3015715341
 20
8.1547921283
 11
10.3015715341
 21
8.2044683195
  0
LINE
  5
2F0
100
AcDbEntity
  8
0
100
AcDbLine
 62
4
  6
CONTINUOUS
 10
10.3181302691
 20
7.9052628481
 11
10.3181302691
 21
7.9880564954
  0
LINE
  5
2F1
100
AcDbEntity
  8
0
100
AcDbLine
 62
4
  6
CONTINUOUS
 10
9.7617569727
 20
8.1701501
 11
9.7451982429
 21
8.1381810095
  0
LINE
  5
2F2
100
AcDbEntity
  8
0
100
AcDbLine
 62
7
  6
CONTINUOUS
 10
10.7020137432
 20
9.6976022883
 11
10.6675635
 21
9.6403218492
  0
LINE
  5
2F3
100
AcDbEntity
  8
0
100
AcDbLine
 62
7
  6
CONTINUOUS
 10
10.6755869454
 20
9.4551623838
 11
10.7372731961
 21
9.51474673
  0
LINE
  5
2F4
100
AcDbEntity
  8
0
100
AcDbLine
 62
4
  6
CONTINUOUS
 10
9.7451982429
 20
8.6183840891
 11
9.7617569727
 21
8.6337945137
  0
LINE
  5
2F5
100
AcDbEntity
  8
0
100
AcDbLine
 62
4
  6
CONTINUOUS
 10
10.7122280208
 20
7.563316229
 11
10.9440502277
 21
7.6134742442
  0
LINE
  5
2F6
100
AcDbEntity
  8
0
100
AcDbLine
 62
4
  6
CONTINUOUS
 10
10.9440502277
 20
7.7459440688
 11
10.7122280208
 21
7.7620209935
  0
LINE
  5
2F7
100
AcDbEntity
  8
0
100
AcDbLine
 62
4
  6
CONTINUOUS
 10
9.7617569727
 20
7.827936345
 11
9.5299347658
 21
7.8440132696
  0
LINE
  5
2F8
100
AcDbEntity
  8
0
100
AcDbLine
 62
4
  6
CONTINUOUS
 10
9.6127284131
 20
7.937623893
 11
9.7617569727
 21
7.9272887273
  0
LINE
  5
2F9
100
AcDbEntity
  8
0
100
AcDbLine
 62
4
  6
CONTINUOUS
 10
13.1560205476
 20
7.703210787
 11
13.3878427544
 21
7.6871338624
  0
LINE
  5
2FA
100
AcDbEntity
  8
0
100
AcDbLine
 62
4
  6
CONTINUOUS
 10
10.4340413726
 20
7.8972243858
 11
10.2022191657
 21
7.9133013105
  0
LINE
  5
2FB
100
AcDbEntity
  8
0
100
AcDbLine
 62
4
  6
CONTINUOUS
 10
10.9440502277
 20
7.481004392
 11
10.7122280208
 21
7.563316229
  0
LINE
  5
2FC
100
AcDbEntity
  8
0
100
AcDbLine
 62
4
  6
CONTINUOUS
 10
9.8169527364
 20
8.0228132703
 11
9.5961696781
 21
8.1043595121
  0
LINE
  5
2FD
100
AcDbEntity
  8
0
100
AcDbLine
 62
4
  6
CONTINUOUS
 10
10.285012813
 20
8.0069119269
 11
10.3181302691
 21
7.9714977673
  0
LINE
  5
2FE
100
AcDbEntity
  8
0
100
AcDbLine
 62
4
  6
CONTINUOUS
 10
10.2353366218
 20
8.0931506228
 11
10.2022191657
 21
8.1285647823
  0
LINE
  5
2FF
100
AcDbEntity
  8
0
100
AcDbLine
 62
4
  6
CONTINUOUS
 10
10.9109327681
 20
7.3894682963
 11
10.9440502277
 21
7.3540541365
  0
LINE
  5
300
100
AcDbEntity
  8
0
100
AcDbLine
 62
4
  6
CONTINUOUS
 10
10.400923913
 20
8.0154321929
 11
10.4340413726
 21
7.9800180331
  0
LINE
  5
301
100
AcDbEntity
  8
0
100
AcDbLine
 62
4
  6
CONTINUOUS
 10
9.6127284131
 20
9.0304999874
 11
9.5961696781
 21
9.0482070054
  0
LINE
  5
302
100
AcDbEntity
  8
0
100
AcDbLine
 62
4
  6
CONTINUOUS
 10
8.4674162915
 20
10.9444969112
 11
8.4480977788
 21
10.9748144305
  0
LINE
  5
303
100
AcDbEntity
  8
0
100
AcDbLine
 62
4
  6
CONTINUOUS
 10
8.5253718432
 20
11.0274110076
 11
8.5446903696
 21
10.9970934874
  0
LINE
  5
304
100
AcDbEntity
  8
0
100
AcDbLine
 62
4
  6
CONTINUOUS
 10
10.8005412372
 20
7.2370562702
 11
10.8446978523
 21
7.1456807753
  0
LINE
  5
305
100
AcDbEntity
  8
0
100
AcDbLine
 62
4
  6
CONTINUOUS
 10
10.4340413726
 20
8.3443100784
 11
10.4340413726
 21
8.2615164173
  0
LINE
  5
306
100
AcDbEntity
  8
0
100
AcDbLine
 62
4
  6
CONTINUOUS
 10
10.4340413726
 20
8.195281505
 11
10.4340413726
 21
8.1124878577
  0
LINE
  5
307
100
AcDbEntity
  8
0
100
AcDbLine
 62
4
  6
CONTINUOUS
 10
10.4340413726
 20
7.9800180331
 11
10.4340413726
 21
7.8972243858
  0
LINE
  5
308
100
AcDbEntity
  8
0
100
AcDbLine
 62
4
  6
CONTINUOUS
 10
10.4900651614
 20
5.3573696664
 11
10.4900651614
 21
5.4732807698
  0
LINE
  5
309
100
AcDbEntity
  8
0
100
AcDbLine
 62
4
  6
CONTINUOUS
 10
10.6214310168
 20
10.8675599232
 11
10.6214310168
 21
10.8385821473
  0
LINE
  5
30A
100
AcDbEntity
  8
0
100
AcDbLine
 62
4
  6
CONTINUOUS
 10
10.2022191657
 20
7.9629774981
 11
10.2077387486
 21
7.9791534453
  0
LINE
  5
30B
100
AcDbEntity
  8
0
100
AcDbLine
 62
4
  6
CONTINUOUS
 10
10.8005412372
 20
8.9867619254
 11
10.8446978523
 21
9.0720128701
  0
LINE
  5
30C
100
AcDbEntity
  8
0
100
AcDbLine
 62
7
  6
CONTINUOUS
 10
11.0548594029
 20
9.261119619
 11
11.0941998653
 21
9.2991195899
  0
LINE
  5
30D
100
AcDbEntity
  8
0
100
AcDbLine
 62
4
  6
CONTINUOUS
 10
9.5961696781
 20
7.922213524
 11
9.6127284131
 21
7.937623893
  0
LINE
  5
30E
100
AcDbEntity
  8
0
100
AcDbLine
 62
4
  6
CONTINUOUS
 10
10.2022191657
 20
8.360387003
 11
10.2353366218
 21
8.391207742
  0
LINE
  5
30F
100
AcDbEntity
  8
0
100
AcDbLine
 62
4
  6
CONTINUOUS
 10
10.7122280208
 20
8.7003489315
 11
10.7453454769
 21
8.7311696705
  0
LINE
  5
310
100
AcDbEntity
  8
0
100
AcDbLine
 62
4
  6
CONTINUOUS
 10
9.5961696781
 20
8.3803383824
 11
9.6127284131
 21
8.3902291408
  0
LINE
  5
311
100
AcDbEntity
  8
0
100
AcDbLine
 62
4
  6
CONTINUOUS
 10
9.6292871342
 20
8.5601876671
 11
9.5961696781
 21
8.5459257046
  0
LINE
  5
312
100
AcDbEntity
  8
0
100
AcDbLine
 62
4
  6
CONTINUOUS
 10
10.9440502277
 20
7.8784138934
 11
10.7122280208
 21
7.8944908181
  0
LINE
  5
313
100
AcDbEntity
  8
0
100
AcDbLine
 62
4
  6
CONTINUOUS
 10
10.2353366218
 20
8.0103569824
 11
10.285012813
 21
8.0069119269
  0
LINE
  5
314
100
AcDbEntity
  8
0
100
AcDbLine
 62
4
  6
CONTINUOUS
 10
10.3512477253
 20
8.0188772482
 11
10.400923913
 21
8.0154321929
  0
LINE
  5
315
100
AcDbEntity
  8
0
100
AcDbLine
 62
4
  6
CONTINUOUS
 10
10.400923913
 20
8.0816671052
 11
10.2353366218
 21
8.0931506228
  0
LINE
  5
316
100
AcDbEntity
  8
0
100
AcDbLine
 62
4
  6
CONTINUOUS
 10
9.7451982429
 20
8.1381810095
 11
9.6127284131
 21
8.1473678234
  0
LINE
  5
317
100
AcDbEntity
  8
0
100
AcDbLine
 62
4
  6
CONTINUOUS
 10
9.5299347658
 20
8.2524619093
 11
9.7617569727
 21
8.2363849847
  0
LINE
  5
318
100
AcDbEntity
  8
0
100
AcDbLine
 62
4
  6
CONTINUOUS
 10
10.3015715341
 20
8.2044683195
 11
10.4340413726
 21
8.195281505
  0
LINE
  5
319
100
AcDbEntity
  8
0
100
AcDbLine
 62
4
  6
CONTINUOUS
 10
9.6127284131
 20
9.1795286437
 11
9.5961696781
 21
9.1972356617
  0
LINE
  5
31A
100
AcDbEntity
  8
0
100
AcDbLine
 62
4
  6
CONTINUOUS
 10
10.400923913
 20
8.3797242243
 11
10.4340413726
 21
8.3443100784
  0
LINE
  5
31B
100
AcDbEntity
  8
0
100
AcDbLine
 62
4
  6
CONTINUOUS
 10
9.7617569727
 20
9.2519870285
 11
9.7451982429
 21
9.2696940462
  0
LINE
  5
31C
100
AcDbEntity
  8
0
100
AcDbLine
 62
4
  6
CONTINUOUS
 10
10.7453454769
 20
8.2399274803
 11
10.7122280208
 21
8.275341626
  0
LINE
  5
31D
100
AcDbEntity
  8
0
100
AcDbLine
 62
4
  6
CONTINUOUS
 10
8.6606014679
 20
11.0180328013
 11
8.6799199857
 21
10.9877152817
  0
LINE
  5
31E
100
AcDbEntity
  8
0
100
AcDbLine
 62
4
  6
CONTINUOUS
 10
10.7122280208
 20
7.2873374277
 11
10.7122280208
 21
7.3701310612
  0
LINE
  5
31F
100
AcDbEntity
  8
0
100
AcDbLine
 62
4
  6
CONTINUOUS
 10
10.7122280208
 20
7.6957860535
 11
10.7122280208
 21
7.8282558781
  0
LINE
  5
320
100
AcDbEntity
  8
0
100
AcDbLine
 62
4
  6
CONTINUOUS
 10
10.7122280208
 20
7.8944908181
 11
10.7122280208
 21
7.9938432003
  0
LINE
  5
321
100
AcDbEntity
  8
0
100
AcDbLine
 62
4
  6
CONTINUOUS
 10
10.7122280208
 20
8.275341626
 11
10.7122280208
 21
8.3415765106
  0
LINE
  5
322
100
AcDbEntity
  8
0
100
AcDbLine
 62
4
  6
CONTINUOUS
 10
10.7122280208
 20
8.4685267247
 11
10.7122280208
 21
8.5182029434
  0
LINE
  5
323
100
AcDbEntity
  8
0
100
AcDbLine
 62
4
  6
CONTINUOUS
 10
10.7122280208
 20
8.6175552704
 11
10.7122280208
 21
8.7003489315
  0
LINE
  5
324
100
AcDbEntity
  8
0
100
AcDbLine
 62
4
  6
CONTINUOUS
 10
10.7122280208
 20
8.8272992561
 11
10.7122280208
 21
8.9266515831
  0
LINE
  5
325
100
AcDbEntity
  8
0
100
AcDbLine
 62
4
  6
CONTINUOUS
 10
10.8115803892
 20
8.8866440306
 11
10.8115803892
 21
8.820409146
  0
LINE
  5
326
100
AcDbEntity
  8
0
100
AcDbLine
 62
4
  6
CONTINUOUS
 10
10.8115803892
 20
7.9538356479
 11
10.8115803892
 21
7.8876007079
  0
LINE
  5
327
100
AcDbEntity
  8
0
100
AcDbLine
 62
4
  6
CONTINUOUS
 10
10.8532532236
 20
10.8514829985
 11
10.8532532236
 21
10.8225052227
  0
LINE
  5
328
100
AcDbEntity
  8
0
100
AcDbLine
 62
4
  6
CONTINUOUS
 10
10.8778153084
 20
7.5076761034
 11
10.8778153084
 21
7.5959893197
  0
LINE
  5
329
100
AcDbEntity
  8
0
100
AcDbLine
 62
4
  6
CONTINUOUS
 10
10.9440502277
 20
8.6842720069
 11
10.9440502277
 21
8.6014783458
  0
LINE
  5
32A
100
AcDbEntity
  8
0
100
AcDbLine
 62
4
  6
CONTINUOUS
 10
10.9440502277
 20
8.5021260188
 11
10.9440502277
 21
8.4524498
  0
LINE
  5
32B
100
AcDbEntity
  8
0
100
AcDbLine
 62
4
  6
CONTINUOUS
 10
10.9440502277
 20
8.325499586
 11
10.9440502277
 21
8.2592647013
  0
LINE
  5
32C
100
AcDbEntity
  8
0
100
AcDbLine
 62
4
  6
CONTINUOUS
 10
10.9440502277
 20
7.3540541365
 11
10.9440502277
 21
7.2712605031
  0
LINE
  5
32D
100
AcDbEntity
  8
0
100
AcDbLine
 62
4
  6
CONTINUOUS
 10
10.9440502277
 20
7.8784138934
 11
10.9440502277
 21
7.9777662757
  0
LINE
  5
32E
100
AcDbEntity
  8
0
100
AcDbLine
 62
4
  6
CONTINUOUS
 10
10.9440502277
 20
8.8112223315
 11
10.9440502277
 21
8.9105746585
  0
LINE
  5
32F
100
AcDbEntity
  8
0
100
AcDbLine
 62
4
  6
CONTINUOUS
 10
10.2077387486
 20
7.9791534453
 11
10.2353366218
 21
8.0103569824
  0
LINE
  5
330
100
AcDbEntity
  8
0
100
AcDbLine
 62
4
  6
CONTINUOUS
 10
9.6955220534
 20
7.2198567927
 11
9.5961696781
 21
7.1108357999
  0
LINE
  5
331
100
AcDbEntity
  8
0
100
AcDbLine
 62
7
  6
CONTINUOUS
 10
12.0149250758
 20
9.7823994302
 11
12.0542655382
 21
9.8203994011
  0
LINE
  5
332
100
AcDbEntity
  8
0
100
AcDbLine
 62
4
  6
CONTINUOUS
 10
10.7122280208
 20
8.5182029434
 11
10.7453454769
 21
8.5490236824
  0
LINE
  5
333
100
AcDbEntity
  8
0
100
AcDbLine
 62
4
  6
CONTINUOUS
 10
10.4340413726
 20
8.1124878577
 11
10.400923913
 21
8.0816671052
  0
LINE
  5
334
100
AcDbEntity
  8
0
100
AcDbLine
 62
4
  6
CONTINUOUS
 10
10.3181302691
 20
7.9880564954
 11
10.3512477253
 21
8.0188772482
  0
LINE
  5
335
100
AcDbEntity
  8
0
100
AcDbLine
 62
4
  6
CONTINUOUS
 10
9.5299347658
 20
7.2147815821
 11
9.5464935008
 21
7.230191958
  0
LINE
  5
336
100
AcDbEntity
  8
0
100
AcDbLine
 62
4
  6
CONTINUOUS
 10
10.9440502277
 20
8.4524498
 11
10.9109327681
 21
8.4216290613
  0
LINE
  5
337
100
AcDbEntity
  8
0
100
AcDbLine
 62
4
  6
CONTINUOUS
 10
9.728639513
 20
7.2837950014
 11
9.7617569727
 21
7.3146157539
  0
LINE
  5
338
100
AcDbEntity
  8
0
100
AcDbLine
 62
4
  6
CONTINUOUS
 10
9.5961696781
 20
8.0050071851
 11
9.7617569727
 21
8.043199886
  0
LINE
  5
339
100
AcDbEntity
  8
0
100
AcDbLine
 62
4
  6
CONTINUOUS
 10
9.7617569727
 20
8.3026199799
 11
9.5961696781
 21
8.3141034977
  0
LINE
  5
33A
100
AcDbEntity
  8
0
100
AcDbLine
 62
4
  6
CONTINUOUS
 10
10.4340413726
 20
8.2615164173
 11
10.2022191657
 21
8.2775933419
  0
LINE
  5
33B
100
AcDbEntity
  8
0
100
AcDbLine
 62
4
  6
CONTINUOUS
 10
10.9109327681
 20
8.2284439626
 11
10.7453454769
 21
8.2399274803
  0
LINE
  5
33C
100
AcDbEntity
  8
0
100
AcDbLine
 62
4
  6
CONTINUOUS
 10
9.6127284131
 20
8.3902291408
 11
9.6458458692
 21
8.3879324374
  0
LINE
  5
33D
100
AcDbEntity
  8
0
100
AcDbLine
 62
4
  6
CONTINUOUS
 10
10.2353366218
 20
8.391207742
 11
10.400923913
 21
8.3797242243
  0
LINE
  5
33E
100
AcDbEntity
  8
0
100
AcDbLine
 62
4
  6
CONTINUOUS
 10
9.7451982429
 20
8.4527968774
 11
9.6955220534
 21
8.4562419329
  0
LINE
  5
33F
100
AcDbEntity
  8
0
100
AcDbLine
 62
4
  6
CONTINUOUS
 10
10.9109327681
 20
8.4216290613
 11
10.7453454769
 21
8.433112579
  0
LINE
  5
340
100
AcDbEntity
  8
0
100
AcDbLine
 62
4
  6
CONTINUOUS
 10
9.7617569727
 20
8.5510008526
 11
9.6292871342
 21
8.5601876671
  0
LINE
  5
341
100
AcDbEntity
  8
0
100
AcDbLine
 62
4
  6
CONTINUOUS
 10
9.5961696781
 20
8.6287192552
 11
9.7451982429
 21
8.6183840891
  0
LINE
  5
342
100
AcDbEntity
  8
0
100
AcDbLine
 62
4
  6
CONTINUOUS
 10
10.7453454769
 20
8.5490236824
 11
10.9109327681
 21
8.5375401647
  0
LINE
  5
343
100
AcDbEntity
  8
0
100
AcDbLine
 62
4
  6
CONTINUOUS
 10
9.5299347658
 20
8.9534480852
 11
9.5464935008
 21
8.9467801777
  0
LINE
  5
344
100
AcDbEntity
  8
0
100
AcDbLine
 62
4
  6
CONTINUOUS
 10
10.7453454769
 20
8.433112579
 11
10.7122280208
 21
8.4685267247
  0
LINE
  5
345
100
AcDbEntity
  8
0
100
AcDbLine
 62
4
  6
CONTINUOUS
 10
10.9109327681
 20
8.5375401647
 11
10.9440502277
 21
8.5021260188
  0
LINE
  5
346
100
AcDbEntity
  8
0
100
AcDbLine
 62
7
  6
CONTINUOUS
 10
13.7510308742
 20
11.0465510492
 11
14.5274873687
 21
11.7965504747
  0
LINE
  5
347
100
AcDbEntity
  8
0
100
AcDbLine
 62
7
  6
CONTINUOUS
 10
12.1745409542
 20
9.4719503056
 11
12.2362272048
 21
9.5315346518
  0
LINE
  5
348
100
AcDbEntity
  8
0
100
AcDbLine
 62
7
  6
CONTINUOUS
 10
12.2442506503
 20
9.3463751863
 11
12.3059369009
 21
9.4059595325
  0
LINE
  5
349
100
AcDbEntity
  8
0
100
AcDbLine
 62
4
  6
CONTINUOUS
 10
10.9440502277
 20
8.2592647013
 11
10.9109327681
 21
8.2284439626
  0
LINE
  5
34A
100
AcDbEntity
  8
0
100
AcDbLine
 62
4
  6
CONTINUOUS
 10
9.7451982429
 20
7.1005006339
 11
9.7617569727
 21
7.1159110119
  0
LINE
  5
34B
100
AcDbEntity
  8
0
100
AcDbLine
 62
4
  6
CONTINUOUS
 10
9.5299347658
 20
7.4797212382
 11
9.7617569727
 21
7.579555417
  0
LINE
  5
34C
100
AcDbEntity
  8
0
100
AcDbLine
 62
4
  6
CONTINUOUS
 10
10.9440502277
 20
8.6014783458
 11
10.7122280208
 21
8.6175552704
  0
LINE
  5
34D
100
AcDbEntity
  8
0
100
AcDbLine
 62
4
  6
CONTINUOUS
 10
9.7617569727
 20
8.7165881748
 11
9.5961696781
 21
8.7280716927
  0
LINE
  5
34E
100
AcDbEntity
  8
0
100
AcDbLine
 62
4
  6
CONTINUOUS
 10
9.7451982429
 20
8.7839714113
 11
9.5299347658
 21
8.7988999841
  0
LINE
  5
34F
100
AcDbEntity
  8
0
100
AcDbLine
 62
4
  6
CONTINUOUS
 10
10.7453454769
 20
8.7311696705
 11
10.9109327681
 21
8.7196861528
  0
LINE
  5
350
100
AcDbEntity
  8
0
100
AcDbLine
 62
4
  6
CONTINUOUS
 10
10.9440502277
 20
8.8112223315
 11
10.7122280208
 21
8.8272992561
  0
LINE
  5
351
100
AcDbEntity
  8
0
100
AcDbLine
 62
4
  6
CONTINUOUS
 10
9.7617569727
 20
8.9318516052
 11
9.5961696781
 21
8.9433351231
  0
LINE
  5
352
100
AcDbEntity
  8
0
100
AcDbLine
 62
4
  6
CONTINUOUS
 10
9.5464935008
 20
8.9467801777
 11
9.5299347658
 21
8.9479285299
  0
LINE
  5
353
100
AcDbEntity
  8
0
100
AcDbLine
 62
4
  6
CONTINUOUS
 10
8.5060533306
 20
11.0432396389
 11
8.5253718432
 21
11.0274110076
  0
LINE
  5
354
100
AcDbEntity
  8
0
100
AcDbLine
 62
4
  6
CONTINUOUS
 10
10.9109327681
 20
8.7196861528
 11
10.9440502277
 21
8.6842720069
  0
LINE
  5
355
100
AcDbEntity
  8
0
100
AcDbLine
 62
7
  6
CONTINUOUS
 10
10.6675635
 20
9.6403218492
 11
10.7372731961
 21
9.51474673
  0
LINE
  5
356
100
AcDbEntity
  8
0
100
AcDbLine
 62
4
  6
CONTINUOUS
 10
10.8446978523
 20
9.0720128701
 11
10.888854464
 21
8.9806373823
  0
LINE
  5
357
100
AcDbEntity
  8
0
100
AcDbLine
 62
4
  6
CONTINUOUS
 10
10.8446978523
 20
7.1456807753
 11
10.888854464
 21
7.2309317272
  0
LINE
  5
358
100
AcDbEntity
  8
0
100
AcDbLine
 62
7
  6
CONTINUOUS
 10
12.270677448
 20
9.5888150909
 11
12.2362272048
 21
9.5315346518
  0
LINE
  5
359
100
AcDbEntity
  8
0
100
AcDbLine
 62
7
  6
CONTINUOUS
 10
12.6235231078
 20
9.1523324215
 11
12.6628635702
 21
9.1903323924
  0
LINE
  5
35A
100
AcDbEntity
  8
0
100
AcDbLine
 62
4
  6
CONTINUOUS
 10
10.7122280208
 20
7.3701310612
 11
10.7453454769
 21
7.4009518139
  0
LINE
  5
35B
100
AcDbEntity
  8
0
100
AcDbLine
 62
4
  6
CONTINUOUS
 10
9.7451982429
 20
9.0213131735
 11
9.6127284131
 21
9.0304999874
  0
LINE
  5
35C
100
AcDbEntity
  8
0
100
AcDbLine
 62
4
  6
CONTINUOUS
 10
9.6624045973
 20
9.1760835886
 11
9.6127284131
 21
9.1795286437
  0
LINE
  5
35D
100
AcDbEntity
  8
0
100
AcDbLine
 62
4
  6
CONTINUOUS
 10
9.7451982429
 20
9.2696940462
 11
9.6955220534
 21
9.2731391016
  0
LINE
  5
35E
100
AcDbEntity
  8
0
100
AcDbLine
 62
4
  6
CONTINUOUS
 10
8.621964434
 20
11.0496900646
 11
8.6606014679
 21
11.0180328013
  0
LINE
  5
35F
100
AcDbEntity
  8
0
100
AcDbLine
 62
7
  6
CONTINUOUS
 10
8.5620082464
 20
9.6656018666
 11
8.6786116621
 21
9.6575153922
  0
LINE
  5
360
100
AcDbEntity
  8
0
100
AcDbLine
 62
7
  6
CONTINUOUS
 10
10.7372731961
 20
9.51474673
 11
10.8538766118
 21
9.5066602556
  0
LINE
  5
361
100
AcDbEntity
  8
0
100
AcDbLine
 62
7
  6
CONTINUOUS
 10
12.3059369009
 20
9.4059595325
 11
12.4225403166
 21
9.3978730582
  0
LINE
  5
362
100
AcDbEntity
  8
0
100
AcDbLine
 62
4
  6
CONTINUOUS
 10
10.6214310168
 20
10.8385821473
 11
10.6407495294
 21
10.8082646281
  0
LINE
  5
363
100
AcDbEntity
  8
0
100
AcDbLine
 62
4
  6
CONTINUOUS
 10
10.2582429546
 20
5.4458910307
 11
10.2775614672
 21
5.4735290631
  0
LINE
  5
364
100
AcDbEntity
  8
0
100
AcDbLine
 62
4
  6
CONTINUOUS
 10
10.8339347058
 20
10.8818005182
 11
10.8532532236
 21
10.8514829985
  0
LINE
  5
365
100
AcDbEntity
  8
0
100
AcDbLine
 62
4
  6
CONTINUOUS
 10
10.6407495294
 20
10.8082646281
 11
10.6600680558
 21
10.7924359958
  0
LINE
  5
366
100
AcDbEntity
  8
0
100
AcDbLine
 62
4
  6
CONTINUOUS
 10
10.814616188
 20
10.8976291498
 11
10.8339347058
 21
10.8818005182
  0
LINE
  5
367
100
AcDbEntity
  8
0
100
AcDbLine
 62
7
  6
CONTINUOUS
 10
12.2362272048
 20
9.5315346518
 11
12.3059369009
 21
9.4059595325
  0
LINE
  5
368
100
AcDbEntity
  8
0
100
AcDbLine
 62
4
  6
CONTINUOUS
 10
10.2775614672
 20
5.4735290631
 11
10.2968799936
 21
5.4866782067
  0
LINE
  5
369
100
AcDbEntity
  8
0
100
AcDbLine
 62
4
  6
CONTINUOUS
 10
10.6600680558
 20
10.7924359958
 11
10.6793865685
 21
10.7910962524
  0
LINE
  5
36A
100
AcDbEntity
  8
0
100
AcDbLine
 62
4
  6
CONTINUOUS
 10
8.4867348179
 20
11.0445793824
 11
8.5060533306
 21
11.0432396389
  0
LINE
  5
36B
100
AcDbEntity
  8
0
100
AcDbLine
 62
4
  6
CONTINUOUS
 10
8.6026459144
 20
11.0510298084
 11
8.621964434
 21
11.0496900646
  0
LINE
  5
36C
100
AcDbEntity
  8
0
100
AcDbLine
 62
4
  6
CONTINUOUS
 10
10.7759791524
 20
10.9003086374
 11
10.814616188
 21
10.8976291498
  0
LINE
  5
36D
100
AcDbEntity
  8
0
100
AcDbLine
 62
7
  6
CONTINUOUS
 10
13.7510308742
 20
4.7680328063
 11
13.7510308742
 21
11.0465510492
  0
LINE
  5
36E
100
AcDbEntity
  8
0
100
AcDbLine
 62
7
  6
CONTINUOUS
 10
13.7510308742
 20
11.0465510492
 11
7.4725126313
 21
11.4819677682
  0
LINE
  5
36F
100
AcDbEntity
  8
0
100
AcDbLine
 62
7
  6
CONTINUOUS
 10
14.5274873687
 20
11.7965504747
 11
14.5274873687
 21
5.5180322318
  0
LINE
  5
370
100
AcDbEntity
  8
0
100
AcDbLine
 62
7
  6
CONTINUOUS
 10
14.5274873687
 20
11.7965504747
 11
8.2489691258
 21
12.2319671937
  0
LINE
  5
371
100
AcDbEntity
  8
0
100
AcDbLine
 62
7
  6
CONTINUOUS
 10
14.5274873687
 20
5.5180322318
 11
13.7510308742
 21
4.7680328063
  0
ARC
  5
372
100
AcDbEntity
  8
0
100
AcDbCircle
 62
7
  6
CONTINUOUS
 10
8.6144441846
 20
9.6864687949
 40
0.3816428603
100
AcDbArc
 50
314.0080408155
 51
322.1329792188
  0
ARC
  5
373
100
AcDbEntity
  8
0
100
AcDbCircle
 62
7
  6
CONTINUOUS
 10
10.7897091343
 20
9.5356136582
 40
0.3816428603
100
AcDbArc
 50
314.0080408155
 51
322.1329792188
  0
ARC
  5
374
100
AcDbEntity
  8
0
100
AcDbCircle
 62
7
  6
CONTINUOUS
 10
12.3583728391
 20
9.4268264608
 40
0.3816428603
100
AcDbArc
 50
314.0080408155
 51
322.1329792188
  0
ARC
  5
375
100
AcDbEntity
  8
0
100
AcDbCircle
 62
7
  6
CONTINUOUS
 10
8.7067935629
 20
9.8455143216
 40
0.1205781359
100
AcDbArc
 50
266.0319421329
 51
268.9279893611
  0
ARC
  5
376
100
AcDbEntity
  8
0
100
AcDbCircle
 62
7
  6
CONTINUOUS
 10
10.8820585126
 20
9.6946591849
 40
0.1205781359
100
AcDbArc
 50
266.0319421329
 51
268.9279893611
  0
ARC
  5
377
100
AcDbEntity
  8
0
100
AcDbCircle
 62
7
  6
CONTINUOUS
 10
12.4507222175
 20
9.5858719875
 40
0.1205781359
100
AcDbArc
 50
266.0319421328
 51
268.9279893612
  0
SPLINE
  5
378
100
AcDbEntity
  8
0
100
AcDbSpline
 62
7
  6
CONTINUOUS
 70
0
 71
3
 72
58
 73
54
 74
0
 42
0.0000001
 43
0.0000001
 44
0.0000000001
 40
0.0
 40
0.0
 40
0.0
 40
0.0
 40
0.0311324281
 40
0.0624366653
 40
0.0938817384
 40
0.1254589921
 40
0.1571629436
 40
0.1889787987
 40
0.2208878538
 40
0.2528712872
 40
0.2688870753
 40
0.2849139463
 40
0.3009491665
 40
0.3169899413
 40
0.3490724626
 40
0.3811441488
 40
0.397171317
 40
0.4131876006
 40
0.4291903754
 40
0.4451770211
 40
0.4611450044
 40
0.4770919711
 40
0.4930156581
 40
0.5089138385
 40
0.5247844005
 40
0.5406254566
 40
0.5564352882
 40
0.5722122425
 40
0.5879548051
 40
0.6036617167
 40
0.6349595684
 40
0.6505538126
 40
0.6661091625
 40
0.6816253923
 40
0.6971023861
 40
0.7125401869
 40
0.7279391051
 40
0.7432997564
 40
0.758622873
 40
0.7739093371
 40
0.7891602814
 40
0.8043771362
 40
0.8195614386
 40
0.834714852
 40
0.8498392573
 40
0.8649367972
 40
0.8800096923
 40
0.8950602498
 40
0.910090948
 40
0.9400978219
 40
0.9550851376
 40
0.9700635776
 40
1.0
 40
1.0
 40
1.0
 40
1.0
 10
8.5752954373
 20
9.3039327229
 30
0.0
 10
8.5649675085
 20
9.3046489672
 30
0.0
 10
8.5442996757
 20
9.3068436304
 30
0.0
 10
8.5135465469
 20
9.3123639684
 30
0.0
 10
8.4831211792
 20
9.3201021585
 30
0.0
 10
8.4531923607
 20
9.3300097012
 30
0.0
 10
8.4239178999
 20
9.3420376694
 30
0.0
 10
8.3954498129
 20
9.3561168949
 30
0.0
 10
8.3679440366
 20
9.3721774417
 30
0.0
 10
8.3459517137
 20
9.3871322834
 30
0.0
 10
8.3289808093
 20
9.3999948911
 30
0.0
 10
8.3165744617
 20
9.4100841906
 30
0.0
 10
8.3045132309
 20
9.4205962209
 30
0.0
 10
8.2889138655
 20
9.4351563789
 30
0.0
 10
8.2703604919
 20
9.4543429884
 30
0.0
 10
8.2531593457
 20
9.4747447722
 30
0.0
 10
8.2402669834
 20
9.4917303587
 30
0.0
 10
8.2310466477
 20
9.5047826072
 30
0.0
 10
8.2222856132
 20
9.5181311635
 30
0.0
 10
8.2139953884
 20
9.5317583861
 30
0.0
 10
8.2061878078
 20
9.545646486
 30
0.0
 10
8.1988736861
 20
9.5597771216
 30
0.0
 10
8.1920617305
 20
9.5741308821
 30
0.0
 10
8.185760925
 20
9.5886885933
 30
0.0
 10
8.1799803529
 20
9.6034311187
 30
0.0
 10
8.1747283848
 20
9.6183389868
 30
0.0
 10
8.1700108597
 20
9.6333919101
 30
0.0
 10
8.1658339221
 20
9.6485696807
 30
0.0
 10
8.1622036825
 20
9.6638525769
 30
0.0
 10
8.1581053543
 20
9.6843153579
 30
0.0
 10
8.1551091451
 20
9.7049367691
 30
0.0
 10
8.1532374666
 20
9.7256218685
 30
0.0
 10
8.1523997032
 20
9.7411210617
 30
0.0
 10
8.152126445
 20
9.756601212
 30
0.0
 10
8.1524176759
 20
9.7720420382
 30
0.0
 10
8.1532733999
 20
9.787422835
 30
0.0
 10
8.1546936928
 20
9.8027229814
 30
0.0
 10
8.1566755351
 20
9.8179221186
 30
0.0
 10
8.1592158526
 20
9.8330000508
 30
0.0
 10
8.1623115375
 20
9.8479366131
 30
0.0
 10
8.1659597236
 20
9.8627115568
 30
0.0
 10
8.1701545802
 20
9.8773053506
 30
0.0
 10
8.1748899698
 20
9.8916986964
 30
0.0
 10
8.1801597734
 20
9.9058723314
 30
0.0
 10
8.1859581781
 20
9.9198068258
 30
0.0
 10
8.1922767185
 20
9.933483851
 30
0.0
 10
8.1991062573
 20
9.9468853742
 30
0.0
 10
8.2064380542
 20
9.9599937898
 30
0.0
 10
8.2168640555
 20
9.9770441505
 30
0.0
 10
8.2282660081
 20
9.9934570067
 30
0.0
 10
8.240585811
 20
10.0091453141
 30
0.0
 10
8.2534944477
 20
10.0243213935
 30
0.0
 10
8.2638366956
 20
10.0351250679
 30
0.0
 10
8.2709967578
 20
10.0420414158
 30
0.0
  0
SPLINE
  5
379
100
AcDbEntity
  8
0
100
AcDbSpline
 62
7
  6
CONTINUOUS
 70
0
 71
3
 72
11
 73
7
 74
0
 42
0.0000001
 43
0.0000001
 44
0.0000000001
 40
0.0
 40
0.0
 40
0.0
 40
0.0
 40
0.2509247496
 40
0.5010653233
 40
0.7506690845
 40
1.0
 40
1.0
 40
1.0
 40
1.0
 10
9.0003027329
 20
9.5643264252
 30
0.0
 10
8.995321791
 20
9.5536282515
 30
0.0
 10
8.984402455
 20
9.5327025957
 30
0.0
 10
8.9652514334
 20
9.5029879277
 30
0.0
 10
8.9435033516
 20
9.4752126478
 30
0.0
 10
8.9273683484
 20
9.4581217756
 30
0.0
 10
8.9189345791
 20
9.4499750749
 30
0.0
  0
SPLINE
  5
37A
100
AcDbEntity
  8
0
100
AcDbSpline
 62
7
  6
CONTINUOUS
 70
0
 71
3
 72
15
 73
11
 74
0
 42
0.0000001
 43
0.0000001
 44
0.0000000001
 40
0.0
 40
0.0
 40
0.0
 40
0.0
 40
0.0990492421
 40
0.2066665217
 40
0.3238641724
 40
0.4503538711
 40
0.5840558825
 40
0.7218636876
 40
0.8610626784
 40
1.0
 40
1.0
 40
1.0
 40
1.0
 10
8.7094510841
 20
9.7122551043
 30
0.0
 10
8.707385399
 20
9.7082936626
 30
0.0
 10
8.7030190442
 20
9.7000573083
 30
0.0
 10
8.6959867142
 20
9.6872526835
 30
0.0
 10
8.688138445
 20
9.6734862099
 30
0.0
 10
8.6794709999
 20
9.6588349379
 30
0.0
 10
8.6701005536
 20
9.6435218859
 30
0.0
 10
8.6602297335
 20
9.6278449335
 30
0.0
 10
8.6500704059
 20
9.6120719494
 30
0.0
 10
8.6431929486
 20
9.601579437
 30
0.0
 10
8.639741388
 20
9.5963487527
 30
0.0
  0
SPLINE
  5
37B
100
AcDbEntity
  8
0
100
AcDbSpline
 62
7
  6
CONTINUOUS
 70
0
 71
3
 72
15
 73
11
 74
0
 42
0.0000001
 43
0.0000001
 44
0.0000000001
 40
0.0
 40
0.0
 40
0.0
 40
0.0
 40
0.1147970399
 40
0.2344642916
 40
0.3590803877
 40
0.4876512653
 40
0.618028553
 40
0.7477946295
 40
0.8753220502
 40
1.0
 40
1.0
 40
1.0
 40
1.0
 10
8.639741388
 20
9.8378302236
 30
0.0
 10
8.6432507271
 20
9.833560774
 30
0.0
 10
8.6502742256
 20
9.824720727
 30
0.0
 10
8.6604852464
 20
9.8107651047
 30
0.0
 10
8.6703999868
 20
9.7957926065
 30
0.0
 10
8.6797874957
 20
9.7798808816
 30
0.0
 10
8.6884356411
 20
9.7632758929
 30
0.0
 10
8.6962387434
 20
9.7463147057
 30
0.0
 10
8.7032189601
 20
9.729297256
 30
0.0
 10
8.7074413965
 20
9.7179109917
 30
0.0
 10
8.7094510841
 20
9.7122551043
 30
0.0
  0
SPLINE
  5
37C
100
AcDbEntity
  8
0
100
AcDbSpline
 62
7
  6
CONTINUOUS
 70
0
 71
3
 72
13
 73
9
 74
0
 42
0.0000001
 43
0.0000001
 44
0.0000000001
 40
0.0
 40
0.0
 40
0.0
 40
0.0
 40
0.2274427175
 40
0.3465037192
 40
0.4694565789
 40
0.5964239191
 40
0.7273744499
 40
1.0
 40
1.0
 40
1.0
 40
1.0
 10
8.639741388
 20
9.8378302236
 30
0.0
 10
8.6349021287
 20
9.8389408716
 30
0.0
 10
8.6275018459
 20
9.8405159027
 30
0.0
 10
8.6174243437
 20
9.8423812805
 30
0.0
 10
8.6094767023
 20
9.8436945042
 30
0.0
 10
8.6012470913
 20
9.8448834028
 30
0.0
 10
8.5897513498
 20
9.8462974659
 30
0.0
 10
8.5809731959
 20
9.8470873019
 30
0.0
 10
8.5750360398
 20
9.8474990451
 30
0.0
  0
SPLINE
  5
37D
100
AcDbEntity
  8
0
100
AcDbSpline
 62
7
  6
CONTINUOUS
 70
0
 71
3
 72
11
 73
7
 74
0
 42
0.0000001
 43
0.0000001
 44
0.0000000001
 40
0.0
 40
0.0
 40
0.0
 40
0.0
 40
0.2478710221
 40
0.4996081013
 40
0.7510614199
 40
1.0
 40
1.0
 40
1.0
 40
1.0
 10
8.5750360398
 20
9.8474990451
 30
0.0
 10
8.5688740809
 20
9.8479263784
 30
0.0
 10
8.5564346548
 20
9.8485241591
 30
0.0
 10
8.5377166104
 20
9.8487319691
 30
0.0
 10
8.5189753337
 20
9.8483690829
 30
0.0
 10
8.5065166751
 20
9.8478270828
 30
0.0
 10
8.5003219958
 20
9.8474989913
 30
0.0
  0
SPLINE
  5
37E
100
AcDbEntity
  8
0
100
AcDbSpline
 62
7
  6
CONTINUOUS
 70
0
 71
3
 72
23
 73
19
 74
0
 42
0.0000001
 43
0.0000001
 44
0.0000000001
 40
0.0
 40
0.0
 40
0.0
 40
0.0
 40
0.0616482049
 40
0.1233194645
 40
0.1850366601
 40
0.2468215803
 40
0.3086958874
 40
0.3706805387
 40
0.4327949852
 40
0.4950576208
 40
0.5574833124
 40
0.620084195
 40
0.682872566
 40
0.7458647459
 40
0.8090766705
 40
0.8725171946
 40
0.9361676357
 40
1.0
 40
1.0
 40
1.0
 40
1.0
 10
8.8795941167
 20
9.411975104
 30
0.0
 10
8.8746789472
 20
9.407227237
 30
0.0
 10
8.8645894968
 20
9.3979919336
 30
0.0
 10
8.8487284351
 20
9.3849711227
 30
0.0
 10
8.8321791376
 20
9.3728105364
 30
0.0
 10
8.8149840206
 20
9.3615408519
 30
0.0
 10
8.7971847293
 20
9.3511927425
 30
0.0
 10
8.7788274031
 20
9.3417902141
 30
0.0
 10
8.7599581321
 20
9.33335655
 30
0.0
 10
8.7406234315
 20
9.3259157168
 30
0.0
 10
8.7208734995
 20
9.3194838781
 30
0.0
 10
8.7007584703
 20
9.3140767815
 30
0.0
 10
8.6803280205
 20
9.309710497
 30
0.0
 10
8.659632657
 20
9.3063939231
 30
0.0
 10
8.6387226205
 20
9.3041355192
 30
0.0
 10
8.6176516439
 20
9.3029438444
 30
0.0
 10
8.5964792965
 20
9.3028177869
 30
0.0
 10
8.5823544237
 20
9.3034431806
 30
0.0
 10
8.5752954373
 20
9.3039327229
 30
0.0
  0
SPLINE
  5
37F
100
AcDbEntity
  8
0
100
AcDbSpline
 62
7
  6
CONTINUOUS
 70
0
 71
3
 72
14
 73
10
 74
0
 42
0.0000001
 43
0.0000001
 44
0.0000000001
 40
0.0
 40
0.0
 40
0.0
 40
0.0
 40
0.1246738683
 40
0.2493802026
 40
0.3741517831
 40
0.4990198421
 40
0.6240148907
 40
0.749167597
 40
1.0
 40
1.0
 40
1.0
 40
1.0
 10
8.3103372202
 20
10.0800413867
 30
0.0
 10
8.3144455088
 20
10.0840098374
 30
0.0
 10
8.3228426048
 20
10.0917644124
 30
0.0
 10
8.3359506226
 20
10.1028193794
 30
0.0
 10
8.3495491264
 20
10.1132803051
 30
0.0
 10
8.3636129659
 20
10.1231293202
 30
0.0
 10
8.3781186901
 20
10.1323489373
 30
0.0
 10
8.3980251779
 20
10.1437851759
 30
0.0
 10
8.4135280602
 20
10.1513629829
 30
0.0
 10
8.4240654107
 20
10.1559487802
 30
0.0
  0
SPLINE
  5
380
100
AcDbEntity
  8
0
100
AcDbSpline
 62
7
  6
CONTINUOUS
 70
0
 71
3
 72
59
 73
55
 74
0
 42
0.0000001
 43
0.0000001
 44
0.0000000001
 40
0.0
 40
0.0
 40
0.0
 40
0.0
 40
0.0311720062
 40
0.0621600995
 40
0.077578186
 40
0.092944878
 40
0.1082643124
 40
0.1235409797
 40
0.1387790157
 40
0.1539817776
 40
0.1691527733
 40
0.1842960177
 40
0.1994163674
 40
0.2145188779
 40
0.2296086888
 40
0.2446912482
 40
0.2597720508
 40
0.2748563558
 40
0.2899494159
 40
0.3050566389
 40
0.3201831683
 40
0.3353337785
 40
0.3505131308
 40
0.365725757
 40
0.3962560677
 40
0.4269620491
 40
0.4578638149
 40
0.4889737426
 40
0.5202957284
 40
0.5518260357
 40
0.5835524013
 40
0.5994879718
 40
0.6154649034
 40
0.6314796714
 40
0.6475286111
 40
0.6636078362
 40
0.6797129524
 40
0.6958393238
 40
0.7119823293
 40
0.728137205
 40
0.7442988592
 40
0.7604621391
 40
0.7766221065
 40
0.792773926
 40
0.8089126628
 40
0.8250335173
 40
0.8411318924
 40
0.8732333818
 40
0.8892358354
 40
0.9051989181
 40
0.9211211179
 40
0.9370012219
 40
0.9686161759
 40
1.0
 40
1.0
 40
1.0
 40
1.0
 10
8.5670132347
 20
9.5683238282
 30
0.0
 10
8.5719236478
 20
9.5679832899
 30
0.0
 10
8.581755115
 20
9.5677827476
 30
0.0
 10
8.5939886828
 20
9.5687426608
 30
0.0
 10
8.6036310894
 20
9.5702388762
 30
0.0
 10
8.6107627141
 20
9.5717174841
 30
0.0
 10
8.6177883843
 20
9.5735505158
 30
0.0
 10
8.6246917831
 20
9.5757344574
 30
0.0
 10
8.6314564865
 20
9.5782640574
 30
0.0
 10
8.6380665452
 20
9.5811322696
 30
0.0
 10
8.6445058351
 20
9.5843322972
 30
0.0
 10
8.6507580222
 20
9.5878576656
 30
0.0
 10
8.6568082042
 20
9.591699302
 30
0.0
 10
8.6626423012
 20
9.5958472373
 30
0.0
 10
8.6682461598
 20
9.6002917687
 30
0.0
 10
8.6736054669
 20
9.6050231518
 30
0.0
 10
8.6787080218
 20
9.6100290844
 30
0.0
 10
8.6835418777
 20
9.6152971938
 30
0.0
 10
8.6880949124
 20
9.6208152484
 30
0.0
 10
8.6923553844
 20
9.626570473
 30
0.0
 10
8.6963140962
 20
9.6325481613
 30
0.0
 10
8.6999616869
 20
9.6387337815
 30
0.0
 10
8.7032886111
 20
9.6451131685
 30
0.0
 10
8.7072898386
 20
9.6538653561
 30
0.0
 10
8.7114541577
 20
9.6652207027
 30
0.0
 10
8.7150482651
 20
9.679343958
 30
0.0
 10
8.7172185315
 20
9.6938477304
 30
0.0
 10
8.7179390006
 20
9.7085919081
 30
0.0
 10
8.7172086949
 20
9.7234347006
 30
0.0
 10
8.7150300868
 20
9.7382321343
 30
0.0
 10
8.7120332106
 20
9.7503936379
 30
0.0
 10
8.7089425897
 20
9.759958618
 30
0.0
 10
8.7062795901
 20
9.767045652
 30
0.0
 10
8.7032817086
 20
9.7740169468
 30
0.0
 10
8.6999550799
 20
9.7808554992
 30
0.0
 10
8.6963079842
 20
9.7875448565
 30
0.0
 10
8.6923500263
 20
9.7940693903
 30
0.0
 10
8.688090548
 20
9.8004133423
 30
0.0
 10
8.6835387688
 20
9.8065607215
 30
0.0
 10
8.6787063821
 20
9.8124972109
 30
0.0
 10
8.6736054888
 20
9.8182089258
 30
0.0
 10
8.6682480226
 20
9.8236818548
 30
0.0
 10
8.6626461383
 20
9.8289020503
 30
0.0
 10
8.6568140976
 20
9.8338578114
 30
0.0
 10
8.6507661124
 20
9.8385374332
 30
0.0
 10
8.6445159404
 20
9.8429291771
 30
0.0
 10
8.6359427192
 20
9.8483798141
 30
0.0
 10
8.6270168398
 20
9.8532232182
 30
0.0
 10
8.6178068356
 20
9.8574155688
 30
0.0
 10
8.6107826668
 20
9.8602235279
 30
0.0
 10
8.6036525887
 20
9.8626918511
 30
0.0
 10
8.5940422916
 20
9.865517556
 30
0.0
 10
8.5818530606
 20
9.8681725495
 30
0.0
 10
8.5719570147
 20
9.8693498516
 30
0.0
 10
8.5670132347
 20
9.8696927039
 30
0.0
  0
SPLINE
  5
381
100
AcDbEntity
  8
0
100
AcDbSpline
 62
7
  6
CONTINUOUS
 70
0
 71
3
 72
21
 73
17
 74
0
 42
0.0000001
 43
0.0000001
 44
0.0000000001
 40
0.0
 40
0.0
 40
0.0
 40
0.0
 40
0.128353577
 40
0.1923060745
 40
0.2560140315
 40
0.319467666
 40
0.3826623992
 40
0.4455905036
 40
0.5082417631
 40
0.6326320977
 40
0.6944427773
 40
0.7559901513
 40
0.8173016368
 40
0.8784076179
 40
0.9393131269
 40
1.0
 40
1.0
 40
1.0
 40
1.0
 10
8.5271533984
 20
9.7283894262
 30
0.0
 10
8.524543878
 20
9.733090219
 30
0.0
 10
8.5210608702
 20
9.7403835597
 30
0.0
 10
8.5173547251
 20
9.7504518202
 30
0.0
 10
8.5150624897
 20
9.7581280188
 30
0.0
 10
8.513263477
 20
9.7659014796
 30
0.0
 10
8.5119659614
 20
9.7737411851
 30
0.0
 10
8.5111747503
 20
9.7816147678
 30
0.0
 10
8.5107991498
 20
9.7920842287
 30
0.0
 10
8.5114437822
 20
9.8025242875
 30
0.0
 10
8.5131089138
 20
9.8127735417
 30
0.0
 10
8.5148580604
 20
9.8203150275
 30
0.0
 10
8.517101361
 20
9.8276932898
 30
0.0
 10
8.5198314884
 20
9.8348771849
 30
0.0
 10
8.5230344911
 20
9.8418338355
 30
0.0
 10
8.5254788027
 20
9.8463077358
 30
0.0
 10
8.5267742725
 20
9.8484949515
 30
0.0
  0
SPLINE
  5
382
100
AcDbEntity
  8
0
100
AcDbSpline
 62
7
  6
CONTINUOUS
 70
0
 71
3
 72
20
 73
16
 74
0
 42
0.0000001
 43
0.0000001
 44
0.0000000001
 40
0.0
 40
0.0
 40
0.0
 40
0.0
 40
0.1225930232
 40
0.1843493618
 40
0.2463344551
 40
0.3085396884
 40
0.3709551842
 40
0.4962618662
 40
0.6220710623
 40
0.6851061463
 40
0.7481652807
 40
0.811225063
 40
0.8742604283
 40
0.9372127727
 40
1.0
 40
1.0
 40
1.0
 40
1.0
 10
8.6317179425
 20
9.6607674827
 30
0.0
 10
8.6264305235
 20
9.6611341665
 30
0.0
 10
8.618503827
 20
9.6622089996
 30
0.0
 10
8.6081306158
 20
9.6646414353
 30
0.0
 10
8.6004307252
 20
9.6669722324
 30
0.0
 10
8.5928662873
 20
9.6697922439
 30
0.0
 10
8.5829922828
 20
9.6741950784
 30
0.0
 10
8.571147192
 20
9.6808609923
 30
0.0
 10
8.5601898825
 20
9.6889472912
 30
0.0
 10
8.5520502944
 20
9.6961913261
 30
0.0
 10
8.5462813414
 20
9.7019949639
 30
0.0
 10
8.5408769404
 20
9.7081391232
 30
0.0
 10
8.5358616041
 20
9.7145991722
 30
0.0
 10
8.5312574095
 20
9.7213436862
 30
0.0
 10
8.5284708963
 20
9.7260160841
 30
0.0
 10
8.5271533984
 20
9.7283894262
 30
0.0
  0
SPLINE
  5
383
100
AcDbEntity
  8
0
100
AcDbSpline
 62
7
  6
CONTINUOUS
 70
0
 71
3
 72
15
 73
11
 74
0
 42
0.0000001
 43
0.0000001
 44
0.0000000001
 40
0.0
 40
0.0
 40
0.0
 40
0.0
 40
0.1389373219
 40
0.2781363127
 40
0.4159441182
 40
0.5496461315
 40
0.6761358282
 40
0.7933334786
 40
0.9009507581
 40
1.0
 40
1.0
 40
1.0
 40
1.0
 10
8.4306122996
 20
9.7315926397
 30
0.0
 10
8.4340638603
 20
9.736823324
 30
0.0
 10
8.4409413176
 20
9.7473158364
 30
0.0
 10
8.4511006452
 20
9.7630888205
 30
0.0
 10
8.4609714653
 20
9.7787657731
 30
0.0
 10
8.4703419117
 20
9.794078825
 30
0.0
 10
8.4790093568
 20
9.808730097
 30
0.0
 10
8.4868576259
 20
9.8224965705
 30
0.0
 10
8.4938899559
 20
9.8353011953
 30
0.0
 10
8.4982563107
 20
9.8435375495
 30
0.0
 10
8.5003219958
 20
9.8474989913
 30
0.0
  0
SPLINE
  5
384
100
AcDbEntity
  8
0
100
AcDbSpline
 62
7
  6
CONTINUOUS
 70
0
 71
3
 72
15
 73
11
 74
0
 42
0.0000001
 43
0.0000001
 44
0.0000000001
 40
0.0
 40
0.0
 40
0.0
 40
0.0
 40
0.1246779501
 40
0.2522053708
 40
0.3819714477
 40
0.5123487373
 40
0.6409196129
 40
0.7655357087
 40
0.8852029604
 40
1.0
 40
1.0
 40
1.0
 40
1.0
 10
8.5003219958
 20
9.6060175204
 30
0.0
 10
8.4983123082
 20
9.6116734078
 30
0.0
 10
8.4940898718
 20
9.6230596721
 30
0.0
 10
8.487109655
 20
9.6400771218
 30
0.0
 10
8.4793065527
 20
9.6570383092
 30
0.0
 10
8.4706584073
 20
9.6736432978
 30
0.0
 10
8.4612708984
 20
9.6895550227
 30
0.0
 10
8.451356158
 20
9.7045275208
 30
0.0
 10
8.4411451373
 20
9.7184831431
 30
0.0
 10
8.4341216388
 20
9.7273231901
 30
0.0
 10
8.4306122996
 20
9.7315926397
 30
0.0
  0
SPLINE
  5
385
100
AcDbEntity
  8
0
100
AcDbSpline
 62
7
  6
CONTINUOUS
 70
0
 71
3
 72
13
 73
9
 74
0
 42
0.0000001
 43
0.0000001
 44
0.0000000001
 40
0.0
 40
0.0
 40
0.0
 40
0.0
 40
0.2726271266
 40
0.4035779531
 40
0.5305449506
 40
0.6534977878
 40
0.7725580603
 40
1.0
 40
1.0
 40
1.0
 40
1.0
 10
8.5750372152
 20
9.6060174927
 30
0.0
 10
8.5809742989
 20
9.6056057545
 30
0.0
 10
8.5897523321
 20
9.6048158871
 30
0.0
 10
8.601247897
 20
9.6034018227
 30
0.0
 10
8.6094773564
 20
9.6022129321
 30
0.0
 10
8.6174248291
 20
9.6008997224
 30
0.0
 10
8.6275021157
 20
9.5990343769
 30
0.0
 10
8.6349022323
 20
9.5974593769
 30
0.0
 10
8.639741388
 20
9.5963487527
 30
0.0
  0
SPLINE
  5
386
100
AcDbEntity
  8
0
100
AcDbSpline
 62
7
  6
CONTINUOUS
 70
0
 71
3
 72
11
 73
7
 74
0
 42
0.0000001
 43
0.0000001
 44
0.0000000001
 40
0.0
 40
0.0
 40
0.0
 40
0.0
 40
0.2489398472
 40
0.500394066
 40
0.7521309598
 40
1.0
 40
1.0
 40
1.0
 40
1.0
 10
8.5003219958
 20
9.6060175204
 30
0.0
 10
8.5065168042
 20
9.6063456187
 30
0.0
 10
8.5189757134
 20
9.6068876273
 30
0.0
 10
8.537717335
 20
9.6072505025
 30
0.0
 10
8.5564356433
 20
9.6070426712
 30
0.0
 10
8.5688752085
 20
9.6064448293
 30
0.0
 10
8.5750372152
 20
9.6060174927
 30
0.0
  0
SPLINE
  5
387
100
AcDbEntity
  8
0
100
AcDbSpline
 62
7
  6
CONTINUOUS
 70
0
 71
3
 72
59
 73
55
 74
0
 42
0.0000001
 43
0.0000001
 44
0.0000000001
 40
0.0
 40
0.0
 40
0.0
 40
0.0
 40
0.0311720062
 40
0.0621600995
 40
0.077578186
 40
0.092944878
 40
0.1082643124
 40
0.1235409797
 40
0.1387790157
 40
0.1539817776
 40
0.1691527733
 40
0.1842960177
 40
0.1994163674
 40
0.2145188779
 40
0.2296086888
 40
0.2446912482
 40
0.2597720508
 40
0.2748563558
 40
0.2899494159
 40
0.3050566389
 40
0.3201831683
 40
0.3353337785
 40
0.3505131308
 40
0.365725757
 40
0.3962560677
 40
0.4269620491
 40
0.4578638149
 40
0.4889737426
 40
0.5202957284
 40
0.5518260357
 40
0.5835524013
 40
0.5994879718
 40
0.6154649034
 40
0.6314796714
 40
0.6475286111
 40
0.6636078362
 40
0.6797129524
 40
0.6958393238
 40
0.7119823293
 40
0.728137205
 40
0.7442988592
 40
0.7604621391
 40
0.7766221065
 40
0.792773926
 40
0.8089126628
 40
0.8250335173
 40
0.8411318924
 40
0.8732333818
 40
0.8892358354
 40
0.9051989181
 40
0.9211211179
 40
0.9370012219
 40
0.9686161759
 40
1.0
 40
1.0
 40
1.0
 40
1.0
 10
8.5670132347
 20
9.8696927039
 30
0.0
 10
8.5621028215
 20
9.8700332422
 30
0.0
 10
8.5522713543
 20
9.8702337845
 30
0.0
 10
8.5400377865
 20
9.8692738713
 30
0.0
 10
8.5303953799
 20
9.8677776559
 30
0.0
 10
8.5232637552
 20
9.866299048
 30
0.0
 10
8.5162380851
 20
9.8644660163
 30
0.0
 10
8.5093346862
 20
9.8622820747
 30
0.0
 10
8.5025699828
 20
9.8597524747
 30
0.0
 10
8.4959599241
 20
9.8568842625
 30
0.0
 10
8.4895206342
 20
9.853684235
 30
0.0
 10
8.4832684471
 20
9.8501588665
 30
0.0
 10
8.4772182651
 20
9.8463172301
 30
0.0
 10
8.4713841681
 20
9.8421692948
 30
0.0
 10
8.4657803095
 20
9.8377247634
 30
0.0
 10
8.4604210024
 20
9.8329933803
 30
0.0
 10
8.4553184475
 20
9.8279874477
 30
0.0
 10
8.4504845917
 20
9.8227193383
 30
0.0
 10
8.4459315569
 20
9.8172012838
 30
0.0
 10
8.441671085
 20
9.8114460592
 30
0.0
 10
8.4377123731
 20
9.8054683708
 30
0.0
 10
8.4340647824
 20
9.7992827506
 30
0.0
 10
8.4307378582
 20
9.7929033636
 30
0.0
 10
8.4267366307
 20
9.784151176
 30
0.0
 10
8.4225723116
 20
9.7727958294
 30
0.0
 10
8.4189782042
 20
9.7586725741
 30
0.0
 10
8.4168079379
 20
9.7441688018
 30
0.0
 10
8.4160874688
 20
9.7294246241
 30
0.0
 10
8.4168177745
 20
9.7145818316
 30
0.0
 10
8.4189963825
 20
9.6997843978
 30
0.0
 10
8.4219932587
 20
9.6876228942
 30
0.0
 10
8.4250838797
 20
9.6780579141
 30
0.0
 10
8.4277468792
 20
9.6709708801
 30
0.0
 10
8.4307447607
 20
9.6639995853
 30
0.0
 10
8.4340713894
 20
9.6571610329
 30
0.0
 10
8.4377184851
 20
9.6504716756
 30
0.0
 10
8.441676443
 20
9.6439471419
 30
0.0
 10
8.4459359213
 20
9.6376031899
 30
0.0
 10
8.4504877005
 20
9.6314558106
 30
0.0
 10
8.4553200872
 20
9.6255193212
 30
0.0
 10
8.4604209805
 20
9.6198076063
 30
0.0
 10
8.4657784467
 20
9.6143346773
 30
0.0
 10
8.471380331
 20
9.6091144818
 30
0.0
 10
8.4772123717
 20
9.6041587207
 30
0.0
 10
8.4832603569
 20
9.5994790989
 30
0.0
 10
8.4895105289
 20
9.595087355
 30
0.0
 10
8.4980837502
 20
9.589636718
 30
0.0
 10
8.5070096295
 20
9.5847933139
 30
0.0
 10
8.5162196337
 20
9.5806009633
 30
0.0
 10
8.5232438025
 20
9.5777930042
 30
0.0
 10
8.5303738806
 20
9.575324681
 30
0.0
 10
8.5399841778
 20
9.5724989761
 30
0.0
 10
8.5521734088
 20
9.5698439826
 30
0.0
 10
8.5620694546
 20
9.5686666805
 30
0.0
 10
8.5670132347
 20
9.5683238282
 30
0.0
  0
SPLINE
  5
388
100
AcDbEntity
  8
0
100
AcDbSpline
 62
7
  6
CONTINUOUS
 70
0
 71
3
 72
23
 73
19
 74
0
 42
0.0000001
 43
0.0000001
 44
0.0000000001
 40
0.0
 40
0.0
 40
0.0
 40
0.0
 40
0.0616482049
 40
0.1233194645
 40
0.1850366601
 40
0.2468215803
 40
0.3086958874
 40
0.3706805387
 40
0.4327949852
 40
0.4950576208
 40
0.5574833124
 40
0.620084195
 40
0.682872566
 40
0.7458647459
 40
0.8090766705
 40
0.8725171946
 40
0.9361676357
 40
1.0
 40
1.0
 40
1.0
 40
1.0
 10
8.2709967578
 20
10.0420414158
 30
0.0
 10
8.2759119274
 20
10.0467892828
 30
0.0
 10
8.2860013777
 20
10.0560245862
 30
0.0
 10
8.3018624394
 20
10.0690453972
 30
0.0
 10
8.3184117369
 20
10.0812059835
 30
0.0
 10
8.335606854
 20
10.0924756679
 30
0.0
 10
8.3534061452
 20
10.1028237773
 30
0.0
 10
8.3717634714
 20
10.1122263058
 30
0.0
 10
8.3906327424
 20
10.1206599698
 30
0.0
 10
8.409967443
 20
10.1281008031
 30
0.0
 10
8.429717375
 20
10.1345326418
 30
0.0
 10
8.4498324042
 20
10.1399397383
 30
0.0
 10
8.470262854
 20
10.1443060229
 30
0.0
 10
8.4909582176
 20
10.1476225968
 30
0.0
 10
8.511868254
 20
10.1498810006
 30
0.0
 10
8.5329392306
 20
10.1510726754
 30
0.0
 10
8.554111578
 20
10.151198733
 30
0.0
 10
8.5682364508
 20
10.1505733393
 30
0.0
 10
8.5752954373
 20
10.1500837969
 30
0.0
  0
SPLINE
  5
389
100
AcDbEntity
  8
0
100
AcDbSpline
 62
7
  6
CONTINUOUS
 70
0
 71
3
 72
65
 73
61
 74
0
 42
0.0000001
 43
0.0000001
 44
0.0000000001
 40
0.0
 40
0.0
 40
0.0
 40
0.0
 40
0.0313882588
 40
0.0471732187
 40
0.0630053541
 40
0.0788820657
 40
0.094802588
 40
0.1107657685
 40
0.1267688676
 40
0.1428076951
 40
0.1588778299
 40
0.1749749546
 40
0.1910946491
 40
0.2072323036
 40
0.2233832599
 40
0.2395425556
 40
0.2557050661
 40
0.2718657829
 40
0.2880197405
 40
0.304161898
 40
0.3202873905
 40
0.336391601
 40
0.3524699397
 40
0.3685180409
 40
0.3845319796
 40
0.4005080131
 40
0.4164426532
 40
0.4323329685
 40
0.4481763871
 40
0.4639706168
 40
0.4797139657
 40
0.5110343807
 40
0.5421425547
 40
0.557622889
 40
0.5730523411
 40
0.5884328283
 40
0.6037665858
 40
0.6190562778
 40
0.6343052204
 40
0.6495170235
 40
0.664695599
 40
0.6798453913
 40
0.6949710698
 40
0.7100774509
 40
0.7251697194
 40
0.7553226824
 40
0.7854832896
 40
0.8005849703
 40
0.8157043408
 40
0.8308465102
 40
0.846016234
 40
0.8612180829
 40
0.8764560644
 40
0.8917333659
 40
0.9070528451
 40
0.9224179581
 40
0.9378327418
 40
0.9533009207
 40
0.9688234761
 40
1.0
 40
1.0
 40
1.0
 40
1.0
 10
8.5670132347
 20
10.1111741748
 30
0.0
 10
8.5798822653
 20
10.1102817045
 30
0.0
 10
8.5991737008
 20
10.1079874846
 30
0.0
 10
8.624606341
 20
10.103087329
 30
0.0
 10
8.6435815928
 20
10.098477629
 30
0.0
 10
8.662368286
 20
10.092954099
 30
0.0
 10
8.6809240084
 20
10.086531187
 30
0.0
 10
8.6992047888
 20
10.0792222774
 30
0.0
 10
8.7171676014
 20
10.0710455728
 30
0.0
 10
8.734769778
 20
10.0620222902
 30
0.0
 10
8.7519676504
 20
10.0521724397
 30
0.0
 10
8.7687191425
 20
10.0415192749
 30
0.0
 10
8.7849852803
 20
10.0300905508
 30
0.0
 10
8.8007264765
 20
10.0179127662
 30
0.0
 10
8.81590386
 20
10.0050140222
 30
0.0
 10
8.8304825393
 20
9.9914273359
 30
0.0
 10
8.844427224
 20
9.9771850389
 30
0.0
 10
8.8577025617
 20
9.9623198006
 30
0.0
 10
8.8702783157
 20
9.9468690488
 30
0.0
 10
8.8821246071
 20
9.9308701115
 30
0.0
 10
8.8932108198
 20
9.9143599849
 30
0.0
 10
8.9035115697
 20
9.8973794091
 30
0.0
 10
8.9130031061
 20
9.8799697617
 30
0.0
 10
8.9216604702
 20
9.8621717898
 30
0.0
 10
8.9294632703
 20
9.8440286939
 30
0.0
 10
8.9363944621
 20
9.8255848171
 30
0.0
 10
8.9424355972
 20
9.8068838426
 30
0.0
 10
8.9475714843
 20
9.7879706764
 30
0.0
 10
8.9517920528
 20
9.7688916157
 30
0.0
 10
8.9550860255
 20
9.74969165
 30
0.0
 10
8.958223752
 20
9.7240412165
 30
0.0
 10
8.9598107007
 20
9.6918992433
 30
0.0
 10
8.9582396198
 20
9.6598628943
 30
0.0
 10
8.9550952551
 20
9.6345604897
 30
0.0
 10
8.9518039035
 20
9.6158145027
 30
0.0
 10
8.947585553
 20
9.5973173102
 30
0.0
 10
8.9424514742
 20
9.5791125435
 30
0.0
 10
8.9364115901
 20
9.5612449046
 30
0.0
 10
8.9294810402
 20
9.5437573856
 30
0.0
 10
8.9216783036
 20
9.5266913526
 30
0.0
 10
8.9130203358
 20
9.5100887201
 30
0.0
 10
8.9035274575
 20
9.493989938
 30
0.0
 10
8.8932248346
 20
9.4784326507
 30
0.0
 10
8.8821357358
 20
9.46345451
 30
0.0
 10
8.8663441393
 20
9.4443155583
 30
0.0
 10
8.8447600424
 20
9.4219927127
 30
0.0
 10
8.8209428856
 20
9.4020638113
 30
0.0
 10
8.8007113101
 20
9.3876773971
 30
0.0
 10
8.7849642604
 20
9.3776804755
 30
0.0
 10
8.7686925954
 20
9.3685064152
 30
0.0
 10
8.751935435
 20
9.3601757732
 30
0.0
 10
8.7347321351
 20
9.3527110821
 30
0.0
 10
8.7171248405
 20
9.346129679
 30
0.0
 10
8.6991571415
 20
9.3404454293
 30
0.0
 10
8.680871922
 20
9.3356736397
 30
0.0
 10
8.6623123943
 20
9.3318264854
 30
0.0
 10
8.6435223458
 20
9.3289111294
 30
0.0
 10
8.6245444457
 20
9.3269361107
 30
0.0
 10
8.5990247458
 20
9.3255629468
 30
0.0
 10
8.579795455
 20
9.3259559074
 30
0.0
 10
8.5670132347
 20
9.3268423573
 30
0.0
  0
SPLINE
  5
38A
100
AcDbEntity
  8
0
100
AcDbSpline
 62
7
  6
CONTINUOUS
 70
0
 71
3
 72
49
 73
45
 74
0
 42
0.0000001
 43
0.0000001
 44
0.0000000001
 40
0.0
 40
0.0
 40
0.0
 40
0.0
 40
0.0310512685
 40
0.0466424677
 40
0.0622705817
 40
0.0779317675
 40
0.0936244438
 40
0.1093483604
 40
0.1251031387
 40
0.1566985524
 40
0.1884040431
 40
0.2042950787
 40
0.2202074413
 40
0.2520837353
 40
0.268047522
 40
0.2840240677
 40
0.3160020256
 40
0.348002293
 40
0.3800053142
 40
0.4119913939
 40
0.4439411763
 40
0.4758360053
 40
0.5076579401
 40
0.5393906551
 40
0.5552208598
 40
0.5710232645
 40
0.602534295
 40
0.618244413
 40
0.6339211986
 40
0.6651666686
 40
0.6807381928
 40
0.6962732786
 40
0.7272285437
 40
0.75803617
 40
0.7733874454
 40
0.7887028563
 40
0.8192241294
 40
0.8496121516
 40
0.8798773475
 40
0.9100322327
 40
0.9400919841
 40
0.9550938288
 40
0.9700783513
 40
1.0
 40
1.0
 40
1.0
 40
1.0
 10
8.5752954373
 20
10.1500837969
 30
0.0
 10
8.5850374278
 20
10.1494081876
 30
0.0
 10
8.5996422869
 20
10.1478879154
 30
0.0
 10
8.6189949795
 20
10.1448734119
 30
0.0
 10
8.6334809301
 20
10.1421129502
 30
0.0
 10
8.6478963322
 20
10.138858476
 30
0.0
 10
8.6622235232
 20
10.1351142675
 30
0.0
 10
8.6764460739
 20
10.1308855435
 30
0.0
 10
8.6952643643
 20
10.1246027677
 30
0.0
 10
8.7184441569
 20
10.1155585393
 30
0.0
 10
8.741018339
 20
10.1049936892
 30
0.0
 10
8.7586753173
 20
10.0956512608
 30
0.0
 10
8.7760643218
 20
10.0857110533
 30
0.0
 10
8.7929791305
 20
10.074915276
 30
0.0
 10
8.8093561124
 20
10.0633090617
 30
0.0
 10
8.8253749655
 20
10.0511598301
 30
0.0
 10
8.8446655086
 20
10.0350011385
 30
0.0
 10
8.8665266871
 20
10.01415704
 30
0.0
 10
8.8870031268
 20
9.9919468803
 30
0.0
 10
8.9060012359
 20
9.9684802551
 30
0.0
 10
8.9234263388
 20
9.9438646659
 30
0.0
 10
8.9392005299
 20
9.9182201719
 30
0.0
 10
8.9532440808
 20
9.8916662363
 30
0.0
 10
8.9634615959
 20
9.8688656708
 30
0.0
 10
8.970706532
 20
9.8502979569
 30
0.0
 10
8.9773119669
 20
9.8315675244
 30
0.0
 10
8.982976027
 20
9.8125556139
 30
0.0
 10
8.9876701207
 20
9.7933366039
 30
0.0
 10
8.9917006832
 20
9.7740529521
 30
0.0
 10
8.9947515566
 20
9.7546194274
 30
0.0
 10
8.9968042966
 20
9.7351148596
 30
0.0
 10
8.9981844582
 20
9.7156423426
 30
0.0
 10
8.9986582125
 20
9.6913170917
 30
0.0
 10
8.9974558173
 20
9.6670742885
 30
0.0
 10
8.99548644
 20
9.6478381245
 30
0.0
 10
8.9928571843
 20
9.6287720653
 30
0.0
 10
8.9883322494
 20
9.6052087628
 30
0.0
 10
8.9809298335
 20
9.5774824556
 30
0.0
 10
8.971601176
 20
9.5504641944
 30
0.0
 10
8.9603858098
 20
9.5242859256
 30
0.0
 10
8.949505825
 20
9.5032559236
 30
0.0
 10
8.9399194721
 20
9.4869815922
 30
0.0
 10
8.9297662437
 20
9.4711072734
 30
0.0
 10
8.921503912
 20
9.459633092
 30
0.0
 10
8.9157273832
 20
9.4522046126
 30
0.0
  0
SPLINE
  5
38B
100
AcDbEntity
  8
0
100
AcDbSpline
 62
7
  6
CONTINUOUS
 70
0
 71
3
 72
65
 73
61
 74
0
 42
0.0000001
 43
0.0000001
 44
0.0000000001
 40
0.0
 40
0.0
 40
0.0
 40
0.0
 40
0.0313882588
 40
0.0471732187
 40
0.0630053541
 40
0.0788820657
 40
0.094802588
 40
0.1107657685
 40
0.1267688676
 40
0.1428076951
 40
0.1588778299
 40
0.1749749546
 40
0.1910946491
 40
0.2072323036
 40
0.2233832599
 40
0.2395425556
 40
0.2557050661
 40
0.2718657829
 40
0.2880197405
 40
0.304161898
 40
0.3202873905
 40
0.336391601
 40
0.3524699397
 40
0.3685180409
 40
0.3845319796
 40
0.4005080131
 40
0.4164426532
 40
0.4323329685
 40
0.4481763871
 40
0.4639706168
 40
0.4797139657
 40
0.5110343807
 40
0.5421425547
 40
0.557622889
 40
0.5730523411
 40
0.5884328283
 40
0.6037665858
 40
0.6190562778
 40
0.6343052204
 40
0.6495170235
 40
0.664695599
 40
0.6798453913
 40
0.6949710698
 40
0.7100774509
 40
0.7251697194
 40
0.7553226824
 40
0.7854832896
 40
0.8005849703
 40
0.8157043408
 40
0.8308465102
 40
0.846016234
 40
0.8612180829
 40
0.8764560644
 40
0.8917333659
 40
0.9070528451
 40
0.9224179581
 40
0.9378327418
 40
0.9533009207
 40
0.9688234761
 40
1.0
 40
1.0
 40
1.0
 40
1.0
 10
8.5670132347
 20
9.3268423573
 30
0.0
 10
8.554144204
 20
9.3277348277
 30
0.0
 10
8.5348527685
 20
9.3300290476
 30
0.0
 10
8.5094201283
 20
9.3349292031
 30
0.0
 10
8.4904448765
 20
9.3395389032
 30
0.0
 10
8.4716581833
 20
9.3450624331
 30
0.0
 10
8.4531024609
 20
9.3514853451
 30
0.0
 10
8.4348216805
 20
9.3587942548
 30
0.0
 10
8.4168588679
 20
9.3669709593
 30
0.0
 10
8.3992566913
 20
9.375994242
 30
0.0
 10
8.3820588189
 20
9.3858440924
 30
0.0
 10
8.3653073268
 20
9.3964972572
 30
0.0
 10
8.349041189
 20
9.4079259813
 30
0.0
 10
8.3332999928
 20
9.420103766
 30
0.0
 10
8.3181226093
 20
9.43300251
 30
0.0
 10
8.30354393
 20
9.4465891962
 30
0.0
 10
8.2895992453
 20
9.4608314932
 30
0.0
 10
8.2763239076
 20
9.4756967315
 30
0.0
 10
8.2637481536
 20
9.4911474834
 30
0.0
 10
8.2519018622
 20
9.5071464206
 30
0.0
 10
8.2408156495
 20
9.5236565472
 30
0.0
 10
8.2305148996
 20
9.540637123
 30
0.0
 10
8.2210233632
 20
9.5580467704
 30
0.0
 10
8.2123659991
 20
9.5758447423
 30
0.0
 10
8.204563199
 20
9.5939878382
 30
0.0
 10
8.1976320072
 20
9.612431715
 30
0.0
 10
8.1915908721
 20
9.6311326895
 30
0.0
 10
8.186454985
 20
9.6500458557
 30
0.0
 10
8.1822344165
 20
9.6691249165
 30
0.0
 10
8.1789404438
 20
9.6883248821
 30
0.0
 10
8.1758027173
 20
9.7139753157
 30
0.0
 10
8.1742157686
 20
9.7461172888
 30
0.0
 10
8.1757868495
 20
9.7781536378
 30
0.0
 10
8.1789312142
 20
9.8034560424
 30
0.0
 10
8.1822225658
 20
9.8222020294
 30
0.0
 10
8.1864409163
 20
9.8406992219
 30
0.0
 10
8.1915749951
 20
9.8589039886
 30
0.0
 10
8.1976148792
 20
9.8767716275
 30
0.0
 10
8.2045454291
 20
9.8942591465
 30
0.0
 10
8.2123481657
 20
9.9113251795
 30
0.0
 10
8.2210061335
 20
9.927927812
 30
0.0
 10
8.2304990118
 20
9.9440265942
 30
0.0
 10
8.2408016348
 20
9.9595838814
 30
0.0
 10
8.2518907335
 20
9.9745620221
 30
0.0
 10
8.2676823301
 20
9.9937009739
 30
0.0
 10
8.289266427
 20
10.0160238194
 30
0.0
 10
8.3130835837
 20
10.0359527208
 30
0.0
 10
8.3333151592
 20
10.050339135
 30
0.0
 10
8.3490622089
 20
10.0603360566
 30
0.0
 10
8.3653338739
 20
10.0695101169
 30
0.0
 10
8.3820910343
 20
10.0778407589
 30
0.0
 10
8.3992943343
 20
10.08530545
 30
0.0
 10
8.4169016288
 20
10.0918868532
 30
0.0
 10
8.4348693278
 20
10.0975711029
 30
0.0
 10
8.4531545473
 20
10.1023428924
 30
0.0
 10
8.471714075
 20
10.1061900467
 30
0.0
 10
8.4905041235
 20
10.1091054027
 30
0.0
 10
8.5094820236
 20
10.1110804214
 30
0.0
 10
8.5350017235
 20
10.1124535853
 30
0.0
 10
8.5542310143
 20
10.1120606248
 30
0.0
 10
8.5670132347
 20
10.1111741748
 30
0.0
  0
SPLINE
  5
38C
100
AcDbEntity
  8
0
100
AcDbSpline
 62
7
  6
CONTINUOUS
 70
0
 71
3
 72
12
 73
8
 74
0
 42
0.0000001
 43
0.0000001
 44
0.0000000001
 40
0.0
 40
0.0
 40
0.0
 40
0.0
 40
0.2472754715
 40
0.4961827311
 40
0.6214231321
 40
0.7471940149
 40
1.0
 40
1.0
 40
1.0
 40
1.0
 10
8.6864825236
 20
9.6701040347
 30
0.0
 10
8.6822514264
 20
9.6682443616
 30
0.0
 10
8.6735203462
 20
9.6650375597
 30
0.0
 10
8.6621800468
 20
9.6623937297
 30
0.0
 10
8.6529206433
 20
9.6611022918
 30
0.0
 10
8.6435288415
 20
9.6603642241
 30
0.0
 10
8.6364317393
 20
9.6604405798
 30
0.0
 10
8.6317179425
 20
9.6607674827
 30
0.0
  0
SPLINE
  5
38D
100
AcDbEntity
  8
0
100
AcDbSpline
 62
7
  6
CONTINUOUS
 70
0
 71
3
 72
28
 73
24
 74
0
 42
0.0000001
 43
0.0000001
 44
0.0000000001
 40
0.0
 40
0.0
 40
0.0
 40
0.0
 40
0.030702984
 40
0.0615039681
 40
0.1233730223
 40
0.1544495732
 40
0.1856094776
 40
0.248141964
 40
0.3109340013
 40
0.3739268741
 40
0.4370534969
 40
0.5002428236
 40
0.5634238707
 40
0.594996227
 40
0.6265397992
 40
0.6894884492
 40
0.7208905464
 40
0.7522284031
 40
0.8146789709
 40
0.8768308772
 40
0.9077920705
 40
0.9386536859
 40
1.0
 40
1.0
 40
1.0
 40
1.0
 10
8.5779182241
 20
9.8472210492
 30
0.0
 10
8.5780301322
 20
9.8453121222
 30
0.0
 10
8.5783441209
 20
9.8414927287
 30
0.0
 10
8.579330861
 20
9.8338705952
 30
0.0
 10
8.580850932
 20
9.8263016812
 30
0.0
 10
8.5828875075
 20
9.8188432738
 30
0.0
 10
8.5852745408
 20
9.8114457663
 30
0.0
 10
8.588895886
 20
9.8023822169
 30
0.0
 10
8.594209686
 20
9.7919093727
 30
0.0
 10
8.6004551786
 20
9.7819200257
 30
0.0
 10
8.6075712354
 20
9.7725000578
 30
0.0
 10
8.6154990092
 20
9.7637369617
 30
0.0
 10
8.6227237644
 20
9.7570409196
 30
0.0
 10
8.6288360057
 20
9.7520863021
 30
0.0
 10
8.6351500336
 20
9.7474162559
 30
0.0
 10
8.6417592234
 20
9.7431749515
 30
0.0
 10
8.6486165988
 20
9.7393952266
 30
0.0
 10
8.6556089097
 20
9.7359403125
 30
0.0
 10
8.6645984857
 20
9.7322277862
 30
0.0
 10
8.6738653779
 20
9.7293516716
 30
0.0
 10
8.6813825274
 20
9.7275771108
 30
0.0
 10
8.6889233074
 20
9.7261592152
 30
0.0
 10
8.6946379778
 20
9.7254895686
 30
0.0
 10
8.6984495167
 20
9.7252252375
 30
0.0
  0
SPLINE
  5
38E
100
AcDbEntity
  8
0
100
AcDbSpline
 62
7
  6
CONTINUOUS
 70
0
 71
3
 72
58
 73
54
 74
0
 42
0.0000001
 43
0.0000001
 44
0.0000000001
 40
0.0
 40
0.0
 40
0.0
 40
0.0
 40
0.0311324281
 40
0.0624366653
 40
0.0938817384
 40
0.1254589921
 40
0.1571629436
 40
0.1889787987
 40
0.2208878538
 40
0.2528712872
 40
0.2688870753
 40
0.2849139463
 40
0.3009491665
 40
0.3169899413
 40
0.3490724626
 40
0.3811441488
 40
0.397171317
 40
0.4131876006
 40
0.4291903754
 40
0.4451770211
 40
0.4611450044
 40
0.4770919711
 40
0.4930156581
 40
0.5089138385
 40
0.5247844005
 40
0.5406254566
 40
0.5564352882
 40
0.5722122425
 40
0.5879548051
 40
0.6036617167
 40
0.6349595684
 40
0.6505538126
 40
0.6661091625
 40
0.6816253923
 40
0.6971023861
 40
0.7125401869
 40
0.7279391051
 40
0.7432997564
 40
0.758622873
 40
0.7739093371
 40
0.7891602814
 40
0.8043771362
 40
0.8195614386
 40
0.834714852
 40
0.8498392573
 40
0.8649367972
 40
0.8800096923
 40
0.8950602498
 40
0.910090948
 40
0.9400978219
 40
0.9550851376
 40
0.9700635776
 40
1.0
 40
1.0
 40
1.0
 40
1.0
 10
10.7505603869
 20
9.1530775863
 30
0.0
 10
10.7402324582
 20
9.1537938306
 30
0.0
 10
10.7195646253
 20
9.1559884938
 30
0.0
 10
10.6888114966
 20
9.1615088317
 30
0.0
 10
10.6583861289
 20
9.1692470219
 30
0.0
 10
10.6284573104
 20
9.1791545646
 30
0.0
 10
10.5991828496
 20
9.1911825327
 30
0.0
 10
10.5707147626
 20
9.2052617583
 30
0.0
 10
10.5432089863
 20
9.2213223051
 30
0.0
 10
10.5212166634
 20
9.2362771468
 30
0.0
 10
10.504245759
 20
9.2491397545
 30
0.0
 10
10.4918394114
 20
9.2592290539
 30
0.0
 10
10.4797781805
 20
9.2697410843
 30
0.0
 10
10.4641788152
 20
9.2843012423
 30
0.0
 10
10.4456254416
 20
9.3034878518
 30
0.0
 10
10.4284242954
 20
9.3238896355
 30
0.0
 10
10.4155319331
 20
9.3408752221
 30
0.0
 10
10.4063115974
 20
9.3539274706
 30
0.0
 10
10.3975505629
 20
9.3672760269
 30
0.0
 10
10.3892603381
 20
9.3809032494
 30
0.0
 10
10.3814527575
 20
9.3947913493
 30
0.0
 10
10.3741386358
 20
9.408921985
 30
0.0
 10
10.3673266802
 20
9.4232757454
 30
0.0
 10
10.3610258747
 20
9.4378334566
 30
0.0
 10
10.3552453026
 20
9.452575982
 30
0.0
 10
10.3499933344
 20
9.4674838501
 30
0.0
 10
10.3452758094
 20
9.4825367735
 30
0.0
 10
10.3410988718
 20
9.497714544
 30
0.0
 10
10.3374686322
 20
9.5129974403
 30
0.0
 10
10.333370304
 20
9.5334602212
 30
0.0
 10
10.3303740948
 20
9.5540816325
 30
0.0
 10
10.3285024163
 20
9.5747667319
 30
0.0
 10
10.3276646529
 20
9.5902659251
 30
0.0
 10
10.3273913946
 20
9.6057460754
 30
0.0
 10
10.3276826256
 20
9.6211869015
 30
0.0
 10
10.3285383496
 20
9.6365676984
 30
0.0
 10
10.3299586425
 20
9.6518678447
 30
0.0
 10
10.3319404847
 20
9.667066982
 30
0.0
 10
10.3344808023
 20
9.6821449141
 30
0.0
 10
10.3375764871
 20
9.6970814764
 30
0.0
 10
10.3412246732
 20
9.7118564202
 30
0.0
 10
10.3454195299
 20
9.7264502139
 30
0.0
 10
10.3501549195
 20
9.7408435597
 30
0.0
 10
10.355424723
 20
9.7550171948
 30
0.0
 10
10.3612231278
 20
9.7689516892
 30
0.0
 10
10.3675416682
 20
9.7826287144
 30
0.0
 10
10.374371207
 20
9.7960302375
 30
0.0
 10
10.3817030039
 20
9.8091386531
 30
0.0
 10
10.3921290052
 20
9.8261890139
 30
0.0
 10
10.4035309578
 20
9.8426018701
 30
0.0
 10
10.4158507607
 20
9.8582901775
 30
0.0
 10
10.4287593973
 20
9.8734662569
 30
0.0
 10
10.4391016453
 20
9.8842699313
 30
0.0
 10
10.4462617075
 20
9.8911862792
 30
0.0
  0
SPLINE
  5
38F
100
AcDbEntity
  8
0
100
AcDbSpline
 62
7
  6
CONTINUOUS
 70
0
 71
3
 72
11
 73
7
 74
0
 42
0.0000001
 43
0.0000001
 44
0.0000000001
 40
0.0
 40
0.0
 40
0.0
 40
0.0
 40
0.2509247496
 40
0.5010653233
 40
0.7506690845
 40
1.0
 40
1.0
 40
1.0
 40
1.0
 10
11.1755676826
 20
9.4134712886
 30
0.0
 10
11.1705867407
 20
9.4027731149
 30
0.0
 10
11.1596674047
 20
9.3818474591
 30
0.0
 10
11.1405163831
 20
9.3521327911
 30
0.0
 10
11.1187683012
 20
9.3243575112
 30
0.0
 10
11.1026332981
 20
9.3072666389
 30
0.0
 10
11.0941995288
 20
9.2991199383
 30
0.0
  0
SPLINE
  5
390
100
AcDbEntity
  8
0
100
AcDbSpline
 62
7
  6
CONTINUOUS
 70
0
 71
3
 72
15
 73
11
 74
0
 42
0.0000001
 43
0.0000001
 44
0.0000000001
 40
0.0
 40
0.0
 40
0.0
 40
0.0
 40
0.0990492421
 40
0.2066665217
 40
0.3238641724
 40
0.4503538711
 40
0.5840558825
 40
0.7218636876
 40
0.8610626784
 40
1.0
 40
1.0
 40
1.0
 40
1.0
 10
10.8847160337
 20
9.5613999677
 30
0.0
 10
10.8826503487
 20
9.5574385259
 30
0.0
 10
10.8782839939
 20
9.5492021717
 30
0.0
 10
10.8712516638
 20
9.5363975469
 30
0.0
 10
10.8634033947
 20
9.5226310732
 30
0.0
 10
10.8547359496
 20
9.5079798013
 30
0.0
 10
10.8453655033
 20
9.4926667493
 30
0.0
 10
10.8354946832
 20
9.4769897969
 30
0.0
 10
10.8253353555
 20
9.4612168127
 30
0.0
 10
10.8184578983
 20
9.4507243004
 30
0.0
 10
10.8150063376
 20
9.4454936161
 30
0.0
  0
SPLINE
  5
391
100
AcDbEntity
  8
0
100
AcDbSpline
 62
7
  6
CONTINUOUS
 70
0
 71
3
 72
15
 73
11
 74
0
 42
0.0000001
 43
0.0000001
 44
0.0000000001
 40
0.0
 40
0.0
 40
0.0
 40
0.0
 40
0.1147970399
 40
0.2344642916
 40
0.3590803877
 40
0.4876512653
 40
0.618028553
 40
0.7477946295
 40
0.8753220502
 40
1.0
 40
1.0
 40
1.0
 40
1.0
 10
10.8150063376
 20
9.686975087
 30
0.0
 10
10.8185156768
 20
9.6827056373
 30
0.0
 10
10.8255391753
 20
9.6738655904
 30
0.0
 10
10.835750196
 20
9.6599099681
 30
0.0
 10
10.8456649365
 20
9.6449374698
 30
0.0
 10
10.8550524454
 20
9.6290257449
 30
0.0
 10
10.8637005908
 20
9.6124207563
 30
0.0
 10
10.871503693
 20
9.5954595691
 30
0.0
 10
10.8784839098
 20
9.5784421193
 30
0.0
 10
10.8827063462
 20
9.5670558551
 30
0.0
 10
10.8847160337
 20
9.5613999677
 30
0.0
  0
SPLINE
  5
392
100
AcDbEntity
  8
0
100
AcDbSpline
 62
7
  6
CONTINUOUS
 70
0
 71
3
 72
13
 73
9
 74
0
 42
0.0000001
 43
0.0000001
 44
0.0000000001
 40
0.0
 40
0.0
 40
0.0
 40
0.0
 40
0.2274427175
 40
0.3465037192
 40
0.4694565789
 40
0.5964239191
 40
0.7273744499
 40
1.0
 40
1.0
 40
1.0
 40
1.0
 10
10.8150063376
 20
9.686975087
 30
0.0
 10
10.8101670784
 20
9.6880857349
 30
0.0
 10
10.8027667956
 20
9.689660766
 30
0.0
 10
10.7926892934
 20
9.6915261438
 30
0.0
 10
10.7847416519
 20
9.6928393676
 30
0.0
 10
10.776512041
 20
9.6940282661
 30
0.0
 10
10.7650162994
 20
9.6954423293
 30
0.0
 10
10.7562381456
 20
9.6962321653
 30
0.0
 10
10.7503009895
 20
9.6966439085
 30
0.0
  0
SPLINE
  5
393
100
AcDbEntity
  8
0
100
AcDbSpline
 62
7
  6
CONTINUOUS
 70
0
 71
3
 72
11
 73
7
 74
0
 42
0.0000001
 43
0.0000001
 44
0.0000000001
 40
0.0
 40
0.0
 40
0.0
 40
0.0
 40
0.2478710221
 40
0.4996081013
 40
0.7510614199
 40
1.0
 40
1.0
 40
1.0
 40
1.0
 10
10.7503009895
 20
9.6966439085
 30
0.0
 10
10.7441390306
 20
9.6970712418
 30
0.0
 10
10.7316996045
 20
9.6976690225
 30
0.0
 10
10.7129815601
 20
9.6978768324
 30
0.0
 10
10.6942402834
 20
9.6975139462
 30
0.0
 10
10.6817816247
 20
9.6969719461
 30
0.0
 10
10.6755869454
 20
9.6966438547
 30
0.0
  0
SPLINE
  5
394
100
AcDbEntity
  8
0
100
AcDbSpline
 62
7
  6
CONTINUOUS
 70
0
 71
3
 72
23
 73
19
 74
0
 42
0.0000001
 43
0.0000001
 44
0.0000000001
 40
0.0
 40
0.0
 40
0.0
 40
0.0
 40
0.0616482049
 40
0.1233194645
 40
0.1850366601
 40
0.2468215803
 40
0.3086958874
 40
0.3706805387
 40
0.4327949852
 40
0.4950576208
 40
0.5574833124
 40
0.620084195
 40
0.682872566
 40
0.7458647459
 40
0.8090766705
 40
0.8725171946
 40
0.9361676357
 40
1.0
 40
1.0
 40
1.0
 40
1.0
 10
11.0548590664
 20
9.2611199674
 30
0.0
 10
11.0499438968
 20
9.2563721004
 30
0.0
 10
11.0398544465
 20
9.247136797
 30
0.0
 10
11.0239933848
 20
9.234115986
 30
0.0
 10
11.0074440873
 20
9.2219553997
 30
0.0
 10
10.9902489702
 20
9.2106857153
 30
0.0
 10
10.972449679
 20
9.2003376059
 30
0.0
 10
10.9540923528
 20
9.1909350774
 30
0.0
 10
10.9352230818
 20
9.1825014134
 30
0.0
 10
10.9158883812
 20
9.1750605802
 30
0.0
 10
10.8961384492
 20
9.1686287415
 30
0.0
 10
10.87602342
 20
9.1632216449
 30
0.0
 10
10.8555929702
 20
9.1588553603
 30
0.0
 10
10.8348976066
 20
9.1555387864
 30
0.0
 10
10.8139875702
 20
9.1532803826
 30
0.0
 10
10.7929165936
 20
9.1520887078
 30
0.0
 10
10.7717442462
 20
9.1519626502
 30
0.0
 10
10.7576193734
 20
9.1525880439
 30
0.0
 10
10.7505603869
 20
9.1530775863
 30
0.0
  0
SPLINE
  5
395
100
AcDbEntity
  8
0
100
AcDbSpline
 62
7
  6
CONTINUOUS
 70
0
 71
3
 72
14
 73
10
 74
0
 42
0.0000001
 43
0.0000001
 44
0.0000000001
 40
0.0
 40
0.0
 40
0.0
 40
0.0
 40
0.1246738683
 40
0.2493802026
 40
0.3741517831
 40
0.4990198421
 40
0.6240148907
 40
0.749167597
 40
1.0
 40
1.0
 40
1.0
 40
1.0
 10
10.4856021699
 20
9.9291862501
 30
0.0
 10
10.4897104584
 20
9.9331547007
 30
0.0
 10
10.4981075545
 20
9.9409092758
 30
0.0
 10
10.5112155723
 20
9.9519642428
 30
0.0
 10
10.5248140761
 20
9.9624251685
 30
0.0
 10
10.5388779156
 20
9.9722741835
 30
0.0
 10
10.5533836398
 20
9.9814938007
 30
0.0
 10
10.5732901276
 20
9.9929300393
 30
0.0
 10
10.5887930099
 20
10.0005078462
 30
0.0
 10
10.5993303604
 20
10.0050936435
 30
0.0
  0
SPLINE
  5
396
100
AcDbEntity
  8
0
100
AcDbSpline
 62
7
  6
CONTINUOUS
 70
0
 71
3
 72
59
 73
55
 74
0
 42
0.0000001
 43
0.0000001
 44
0.0000000001
 40
0.0
 40
0.0
 40
0.0
 40
0.0
 40
0.0311720062
 40
0.0621600995
 40
0.077578186
 40
0.092944878
 40
0.1082643124
 40
0.1235409797
 40
0.1387790157
 40
0.1539817776
 40
0.1691527733
 40
0.1842960177
 40
0.1994163674
 40
0.2145188779
 40
0.2296086888
 40
0.2446912482
 40
0.2597720508
 40
0.2748563558
 40
0.2899494159
 40
0.3050566389
 40
0.3201831683
 40
0.3353337785
 40
0.3505131308
 40
0.365725757
 40
0.3962560677
 40
0.4269620491
 40
0.4578638149
 40
0.4889737426
 40
0.5202957284
 40
0.5518260357
 40
0.5835524013
 40
0.5994879718
 40
0.6154649034
 40
0.6314796714
 40
0.6475286111
 40
0.6636078362
 40
0.6797129524
 40
0.6958393238
 40
0.7119823293
 40
0.728137205
 40
0.7442988592
 40
0.7604621391
 40
0.7766221065
 40
0.792773926
 40
0.8089126628
 40
0.8250335173
 40
0.8411318924
 40
0.8732333818
 40
0.8892358354
 40
0.9051989181
 40
0.9211211179
 40
0.9370012219
 40
0.9686161759
 40
1.0
 40
1.0
 40
1.0
 40
1.0
 10
10.7422781843
 20
9.4174686916
 30
0.0
 10
10.7471885974
 20
9.4171281533
 30
0.0
 10
10.7570200647
 20
9.416927611
 30
0.0
 10
10.7692536325
 20
9.4178875241
 30
0.0
 10
10.7788960391
 20
9.4193837396
 30
0.0
 10
10.7860276638
 20
9.4208623475
 30
0.0
 10
10.7930533339
 20
9.4226953791
 30
0.0
 10
10.7999567328
 20
9.4248793207
 30
0.0
 10
10.8067214362
 20
9.4274089208
 30
0.0
 10
10.8133314949
 20
9.430277133
 30
0.0
 10
10.8197707848
 20
9.4334771605
 30
0.0
 10
10.8260229719
 20
9.437002529
 30
0.0
 10
10.8320731539
 20
9.4408441654
 30
0.0
 10
10.8379072509
 20
9.4449921007
 30
0.0
 10
10.8435111095
 20
9.4494366321
 30
0.0
 10
10.8488704166
 20
9.4541680152
 30
0.0
 10
10.8539729715
 20
9.4591739478
 30
0.0
 10
10.8588068273
 20
9.4644420572
 30
0.0
 10
10.8633598621
 20
9.4699601117
 30
0.0
 10
10.867620334
 20
9.4757153363
 30
0.0
 10
10.8715790459
 20
9.4816930247
 30
0.0
 10
10.8752266365
 20
9.4878786448
 30
0.0
 10
10.8785535608
 20
9.4942580318
 30
0.0
 10
10.8825547883
 20
9.5030102194
 30
0.0
 10
10.8867191074
 20
9.5143655661
 30
0.0
 10
10.8903132148
 20
9.5284888213
 30
0.0
 10
10.8924834811
 20
9.5429925937
 30
0.0
 10
10.8932039502
 20
9.5577367714
 30
0.0
 10
10.8924736445
 20
9.5725795639
 30
0.0
 10
10.8902950364
 20
9.5873769977
 30
0.0
 10
10.8872981603
 20
9.5995385012
 30
0.0
 10
10.8842075393
 20
9.6091034814
 30
0.0
 10
10.8815445398
 20
9.6161905153
 30
0.0
 10
10.8785466583
 20
9.6231618102
 30
0.0
 10
10.8752200296
 20
9.6300003626
 30
0.0
 10
10.8715729339
 20
9.6366897199
 30
0.0
 10
10.867614976
 20
9.6432142536
 30
0.0
 10
10.8633554977
 20
9.6495582056
 30
0.0
 10
10.8588037185
 20
9.6557055849
 30
0.0
 10
10.8539713318
 20
9.6616420743
 30
0.0
 10
10.8488704385
 20
9.6673537892
 30
0.0
 10
10.8435129723
 20
9.6728267182
 30
0.0
 10
10.8379110879
 20
9.6780469137
 30
0.0
 10
10.8320790473
 20
9.6830026748
 30
0.0
 10
10.8260310621
 20
9.6876822966
 30
0.0
 10
10.81978089
 20
9.6920740405
 30
0.0
 10
10.8112076688
 20
9.6975246774
 30
0.0
 10
10.8022817895
 20
9.7023680816
 30
0.0
 10
10.7930717853
 20
9.7065604322
 30
0.0
 10
10.7860476165
 20
9.7093683913
 30
0.0
 10
10.7789175383
 20
9.7118367145
 30
0.0
 10
10.7693072412
 20
9.7146624194
 30
0.0
 10
10.7571180102
 20
9.7173174129
 30
0.0
 10
10.7472219643
 20
9.7184947149
 30
0.0
 10
10.7422781843
 20
9.7188375673
 30
0.0
  0
SPLINE
  5
397
100
AcDbEntity
  8
0
100
AcDbSpline
 62
7
  6
CONTINUOUS
 70
0
 71
3
 72
21
 73
17
 74
0
 42
0.0000001
 43
0.0000001
 44
0.0000000001
 40
0.0
 40
0.0
 40
0.0
 40
0.0
 40
0.128353577
 40
0.1923060745
 40
0.2560140315
 40
0.319467666
 40
0.3826623992
 40
0.4455905036
 40
0.5082417631
 40
0.6326320977
 40
0.6944427773
 40
0.7559901513
 40
0.8173016368
 40
0.8784076179
 40
0.9393131269
 40
1.0
 40
1.0
 40
1.0
 40
1.0
 10
10.702418348
 20
9.5775342896
 30
0.0
 10
10.6998088277
 20
9.5822350823
 30
0.0
 10
10.6963258199
 20
9.5895284231
 30
0.0
 10
10.6926196747
 20
9.5995966835
 30
0.0
 10
10.6903274393
 20
9.6072728822
 30
0.0
 10
10.6885284267
 20
9.6150463429
 30
0.0
 10
10.687230911
 20
9.6228860484
 30
0.0
 10
10.6864396999
 20
9.6307596312
 30
0.0
 10
10.6860640995
 20
9.6412290921
 30
0.0
 10
10.6867087318
 20
9.6516691509
 30
0.0
 10
10.6883738634
 20
9.6619184051
 30
0.0
 10
10.6901230101
 20
9.6694598909
 30
0.0
 10
10.6923663107
 20
9.6768381532
 30
0.0
 10
10.6950964381
 20
9.6840220483
 30
0.0
 10
10.6982994408
 20
9.6909786989
 30
0.0
 10
10.7007437524
 20
9.6954525992
 30
0.0
 10
10.7020392222
 20
9.6976398148
 30
0.0
  0
SPLINE
  5
398
100
AcDbEntity
  8
0
100
AcDbSpline
 62
7
  6
CONTINUOUS
 70
0
 71
3
 72
20
 73
16
 74
0
 42
0.0000001
 43
0.0000001
 44
0.0000000001
 40
0.0
 40
0.0
 40
0.0
 40
0.0
 40
0.1225930232
 40
0.1843493618
 40
0.2463344551
 40
0.3085396884
 40
0.3709551842
 40
0.4962618662
 40
0.6220710623
 40
0.6851061463
 40
0.7481652807
 40
0.811225063
 40
0.8742604283
 40
0.9372127727
 40
1.0
 40
1.0
 40
1.0
 40
1.0
 10
10.8069828922
 20
9.5099123461
 30
0.0
 10
10.8016954732
 20
9.5102790299
 30
0.0
 10
10.7937687766
 20
9.5113538629
 30
0.0
 10
10.7833955655
 20
9.5137862987
 30
0.0
 10
10.7756956749
 20
9.5161170957
 30
0.0
 10
10.7681312369
 20
9.5189371073
 30
0.0
 10
10.7582572325
 20
9.5233399417
 30
0.0
 10
10.7464121417
 20
9.5300058557
 30
0.0
 10
10.7354548321
 20
9.5380921545
 30
0.0
 10
10.7273152441
 20
9.5453361895
 30
0.0
 10
10.721546291
 20
9.5511398273
 30
0.0
 10
10.71614189
 20
9.5572839865
 30
0.0
 10
10.7111265537
 20
9.5637440356
 30
0.0
 10
10.7065223592
 20
9.5704885495
 30
0.0
 10
10.703735846
 20
9.5751609474
 30
0.0
 10
10.702418348
 20
9.5775342896
 30
0.0
  0
SPLINE
  5
399
100
AcDbEntity
  8
0
100
AcDbSpline
 62
7
  6
CONTINUOUS
 70
0
 71
3
 72
15
 73
11
 74
0
 42
0.0000001
 43
0.0000001
 44
0.0000000001
 40
0.0
 40
0.0
 40
0.0
 40
0.0
 40
0.1389373219
 40
0.2781363127
 40
0.4159441182
 40
0.5496461315
 40
0.6761358282
 40
0.7933334786
 40
0.9009507581
 40
1.0
 40
1.0
 40
1.0
 40
1.0
 10
10.6058772493
 20
9.5807375031
 30
0.0
 10
10.6093288099
 20
9.5859681874
 30
0.0
 10
10.6162062672
 20
9.5964606997
 30
0.0
 10
10.6263655949
 20
9.6122336839
 30
0.0
 10
10.636236415
 20
9.6279106364
 30
0.0
 10
10.6456068614
 20
9.6432236884
 30
0.0
 10
10.6542743064
 20
9.6578749603
 30
0.0
 10
10.6621225755
 20
9.6716414339
 30
0.0
 10
10.6691549056
 20
9.6844460587
 30
0.0
 10
10.6735212603
 20
9.6926824129
 30
0.0
 10
10.6755869454
 20
9.6966438547
 30
0.0
  0
SPLINE
  5
39A
100
AcDbEntity
  8
0
100
AcDbSpline
 62
7
  6
CONTINUOUS
 70
0
 71
3
 72
15
 73
11
 74
0
 42
0.0000001
 43
0.0000001
 44
0.0000000001
 40
0.0
 40
0.0
 40
0.0
 40
0.0
 40
0.1246779501
 40
0.2522053708
 40
0.3819714477
 40
0.5123487373
 40
0.6409196129
 40
0.7655357087
 40
0.8852029604
 40
1.0
 40
1.0
 40
1.0
 40
1.0
 10
10.6755869454
 20
9.4551623838
 30
0.0
 10
10.6735772579
 20
9.4608182712
 30
0.0
 10
10.6693548215
 20
9.4722045355
 30
0.0
 10
10.6623746047
 20
9.4892219852
 30
0.0
 10
10.6545715024
 20
9.5061831725
 30
0.0
 10
10.645923357
 20
9.5227881612
 30
0.0
 10
10.6365358481
 20
9.5386998861
 30
0.0
 10
10.6266211077
 20
9.5536723842
 30
0.0
 10
10.616410087
 20
9.5676280065
 30
0.0
 10
10.6093865885
 20
9.5764680534
 30
0.0
 10
10.6058772493
 20
9.5807375031
 30
0.0
  0
SPLINE
  5
39B
100
AcDbEntity
  8
0
100
AcDbSpline
 62
7
  6
CONTINUOUS
 70
0
 71
3
 72
13
 73
9
 74
0
 42
0.0000001
 43
0.0000001
 44
0.0000000001
 40
0.0
 40
0.0
 40
0.0
 40
0.0
 40
0.2726271266
 40
0.4035779531
 40
0.5305449506
 40
0.6534977878
 40
0.7725580603
 40
1.0
 40
1.0
 40
1.0
 40
1.0
 10
10.7503021649
 20
9.4551623561
 30
0.0
 10
10.7562392486
 20
9.4547506179
 30
0.0
 10
10.7650172818
 20
9.4539607505
 30
0.0
 10
10.7765128466
 20
9.4525466861
 30
0.0
 10
10.7847423061
 20
9.4513577954
 30
0.0
 10
10.7926897787
 20
9.4500445858
 30
0.0
 10
10.8027670654
 20
9.4481792403
 30
0.0
 10
10.810167182
 20
9.4466042403
 30
0.0
 10
10.8150063376
 20
9.4454936161
 30
0.0
  0
SPLINE
  5
39C
100
AcDbEntity
  8
0
100
AcDbSpline
 62
7
  6
CONTINUOUS
 70
0
 71
3
 72
11
 73
7
 74
0
 42
0.0000001
 43
0.0000001
 44
0.0000000001
 40
0.0
 40
0.0
 40
0.0
 40
0.0
 40
0.2489398472
 40
0.500394066
 40
0.7521309598
 40
1.0
 40
1.0
 40
1.0
 40
1.0
 10
10.6755869454
 20
9.4551623838
 30
0.0
 10
10.6817817539
 20
9.4554904821
 30
0.0
 10
10.6942406631
 20
9.4560324906
 30
0.0
 10
10.7129822847
 20
9.4563953659
 30
0.0
 10
10.731700593
 20
9.4561875346
 30
0.0
 10
10.7441401582
 20
9.4555896927
 30
0.0
 10
10.7503021649
 20
9.4551623561
 30
0.0
  0
SPLINE
  5
39D
100
AcDbEntity
  8
0
100
AcDbSpline
 62
7
  6
CONTINUOUS
 70
0
 71
3
 72
59
 73
55
 74
0
 42
0.0000001
 43
0.0000001
 44
0.0000000001
 40
0.0
 40
0.0
 40
0.0
 40
0.0
 40
0.0311720062
 40
0.0621600995
 40
0.077578186
 40
0.092944878
 40
0.1082643124
 40
0.1235409797
 40
0.1387790157
 40
0.1539817776
 40
0.1691527733
 40
0.1842960177
 40
0.1994163674
 40
0.2145188779
 40
0.2296086888
 40
0.2446912482
 40
0.2597720508
 40
0.2748563558
 40
0.2899494159
 40
0.3050566389
 40
0.3201831683
 40
0.3353337785
 40
0.3505131308
 40
0.365725757
 40
0.3962560677
 40
0.4269620491
 40
0.4578638149
 40
0.4889737426
 40
0.5202957284
 40
0.5518260357
 40
0.5835524013
 40
0.5994879718
 40
0.6154649034
 40
0.6314796714
 40
0.6475286111
 40
0.6636078362
 40
0.6797129524
 40
0.6958393238
 40
0.7119823293
 40
0.728137205
 40
0.7442988592
 40
0.7604621391
 40
0.7766221065
 40
0.792773926
 40
0.8089126628
 40
0.8250335173
 40
0.8411318924
 40
0.8732333818
 40
0.8892358354
 40
0.9051989181
 40
0.9211211179
 40
0.9370012219
 40
0.9686161759
 40
1.0
 40
1.0
 40
1.0
 40
1.0
 10
10.7422781843
 20
9.7188375673
 30
0.0
 10
10.7373677712
 20
9.7191781056
 30
0.0
 10
10.7275363039
 20
9.7193786479
 30
0.0
 10
10.7153027362
 20
9.7184187347
 30
0.0
 10
10.7056603296
 20
9.7169225192
 30
0.0
 10
10.6985287049
 20
9.7154439114
 30
0.0
 10
10.6915030347
 20
9.7136108797
 30
0.0
 10
10.6845996358
 20
9.7114269381
 30
0.0
 10
10.6778349325
 20
9.7088973381
 30
0.0
 10
10.6712248738
 20
9.7060291259
 30
0.0
 10
10.6647855838
 20
9.7028290983
 30
0.0
 10
10.6585333968
 20
9.6993037298
 30
0.0
 10
10.6524832148
 20
9.6954620934
 30
0.0
 10
10.6466491178
 20
9.6913141582
 30
0.0
 10
10.6410452592
 20
9.6868696268
 30
0.0
 10
10.6356859521
 20
9.6821382437
 30
0.0
 10
10.6305833972
 20
9.677132311
 30
0.0
 10
10.6257495413
 20
9.6718642017
 30
0.0
 10
10.6211965065
 20
9.6663461471
 30
0.0
 10
10.6169360346
 20
9.6605909225
 30
0.0
 10
10.6129773228
 20
9.6546132342
 30
0.0
 10
10.6093297321
 20
9.648427614
 30
0.0
 10
10.6060028079
 20
9.642048227
 30
0.0
 10
10.6020015804
 20
9.6332960394
 30
0.0
 10
10.5978372613
 20
9.6219406928
 30
0.0
 10
10.5942431538
 20
9.6078174375
 30
0.0
 10
10.5920728875
 20
9.5933136651
 30
0.0
 10
10.5913524184
 20
9.5785694874
 30
0.0
 10
10.5920827241
 20
9.5637266949
 30
0.0
 10
10.5942613322
 20
9.5489292612
 30
0.0
 10
10.5972582084
 20
9.5367677576
 30
0.0
 10
10.6003488293
 20
9.5272027774
 30
0.0
 10
10.6030118288
 20
9.5201157435
 30
0.0
 10
10.6060097104
 20
9.5131444486
 30
0.0
 10
10.6093363391
 20
9.5063058963
 30
0.0
 10
10.6129834347
 20
9.499616539
 30
0.0
 10
10.6169413926
 20
9.4930920052
 30
0.0
 10
10.6212008709
 20
9.4867480532
 30
0.0
 10
10.6257526502
 20
9.480600674
 30
0.0
 10
10.6305850368
 20
9.4746641845
 30
0.0
 10
10.6356859302
 20
9.4689524697
 30
0.0
 10
10.6410433964
 20
9.4634795407
 30
0.0
 10
10.6466452807
 20
9.4582593451
 30
0.0
 10
10.6524773214
 20
9.4533035841
 30
0.0
 10
10.6585253066
 20
9.4486239622
 30
0.0
 10
10.6647754786
 20
9.4442322183
 30
0.0
 10
10.6733486998
 20
9.4387815814
 30
0.0
 10
10.6822745792
 20
9.4339381773
 30
0.0
 10
10.6914845834
 20
9.4297458267
 30
0.0
 10
10.6985087522
 20
9.4269378676
 30
0.0
 10
10.7056388303
 20
9.4244695444
 30
0.0
 10
10.7152491274
 20
9.4216438395
 30
0.0
 10
10.7274383584
 20
9.418988846
 30
0.0
 10
10.7373344043
 20
9.4178115439
 30
0.0
 10
10.7422781843
 20
9.4174686916
 30
0.0
  0
SPLINE
  5
39E
100
AcDbEntity
  8
0
100
AcDbSpline
 62
7
  6
CONTINUOUS
 70
0
 71
3
 72
23
 73
19
 74
0
 42
0.0000001
 43
0.0000001
 44
0.0000000001
 40
0.0
 40
0.0
 40
0.0
 40
0.0
 40
0.0616482049
 40
0.1233194645
 40
0.1850366601
 40
0.2468215803
 40
0.3086958874
 40
0.3706805387
 40
0.4327949852
 40
0.4950576208
 40
0.5574833124
 40
0.620084195
 40
0.682872566
 40
0.7458647459
 40
0.8090766705
 40
0.8725171946
 40
0.9361676357
 40
1.0
 40
1.0
 40
1.0
 40
1.0
 10
10.4462617075
 20
9.8911862792
 30
0.0
 10
10.451176877
 20
9.8959341462
 30
0.0
 10
10.4612663274
 20
9.9051694496
 30
0.0
 10
10.4771273891
 20
9.9181902605
 30
0.0
 10
10.4936766866
 20
9.9303508469
 30
0.0
 10
10.5108718036
 20
9.9416205313
 30
0.0
 10
10.5286710949
 20
9.9519686407
 30
0.0
 10
10.5470284211
 20
9.9613711692
 30
0.0
 10
10.5658976921
 20
9.9698048332
 30
0.0
 10
10.5852323927
 20
9.9772456664
 30
0.0
 10
10.6049823247
 20
9.9836775051
 30
0.0
 10
10.6250973539
 20
9.9890846017
 30
0.0
 10
10.6455278037
 20
9.9934508862
 30
0.0
 10
10.6662231672
 20
9.9967674602
 30
0.0
 10
10.6871332037
 20
9.999025864
 30
0.0
 10
10.7082041803
 20
10.0002175388
 30
0.0
 10
10.7293765277
 20
10.0003435964
 30
0.0
 10
10.7435014005
 20
9.9997182026
 30
0.0
 10
10.7505603869
 20
9.9992286603
 30
0.0
  0
SPLINE
  5
39F
100
AcDbEntity
  8
0
100
AcDbSpline
 62
7
  6
CONTINUOUS
 70
0
 71
3
 72
65
 73
61
 74
0
 42
0.0000001
 43
0.0000001
 44
0.0000000001
 40
0.0
 40
0.0
 40
0.0
 40
0.0
 40
0.0313882588
 40
0.0471732187
 40
0.0630053541
 40
0.0788820657
 40
0.094802588
 40
0.1107657685
 40
0.1267688676
 40
0.1428076951
 40
0.1588778299
 40
0.1749749546
 40
0.1910946491
 40
0.2072323036
 40
0.2233832599
 40
0.2395425556
 40
0.2557050661
 40
0.2718657829
 40
0.2880197405
 40
0.304161898
 40
0.3202873905
 40
0.336391601
 40
0.3524699397
 40
0.3685180409
 40
0.3845319796
 40
0.4005080131
 40
0.4164426532
 40
0.4323329685
 40
0.4481763871
 40
0.4639706168
 40
0.4797139657
 40
0.5110343807
 40
0.5421425547
 40
0.557622889
 40
0.5730523411
 40
0.5884328283
 40
0.6037665858
 40
0.6190562778
 40
0.6343052204
 40
0.6495170235
 40
0.664695599
 40
0.6798453913
 40
0.6949710698
 40
0.7100774509
 40
0.7251697194
 40
0.7553226824
 40
0.7854832896
 40
0.8005849703
 40
0.8157043408
 40
0.8308465102
 40
0.846016234
 40
0.8612180829
 40
0.8764560644
 40
0.8917333659
 40
0.9070528451
 40
0.9224179581
 40
0.9378327418
 40
0.9533009207
 40
0.9688234761
 40
1.0
 40
1.0
 40
1.0
 40
1.0
 10
10.7422781843
 20
9.9603190381
 30
0.0
 10
10.755147215
 20
9.9594265678
 30
0.0
 10
10.7744386505
 20
9.9571323479
 30
0.0
 10
10.7998712907
 20
9.9522321924
 30
0.0
 10
10.8188465425
 20
9.9476224923
 30
0.0
 10
10.8376332357
 20
9.9420989624
 30
0.0
 10
10.8561889581
 20
9.9356760504
 30
0.0
 10
10.8744697385
 20
9.9283671407
 30
0.0
 10
10.8924325511
 20
9.9201904362
 30
0.0
 10
10.9100347277
 20
9.9111671535
 30
0.0
 10
10.9272326001
 20
9.9013173031
 30
0.0
 10
10.9439840922
 20
9.8906641383
 30
0.0
 10
10.96025023
 20
9.8792354141
 30
0.0
 10
10.9759914261
 20
9.8670576295
 30
0.0
 10
10.9911688096
 20
9.8541588855
 30
0.0
 10
11.005747489
 20
9.8405721993
 30
0.0
 10
11.0196921736
 20
9.8263299023
 30
0.0
 10
11.0329675114
 20
9.8114646639
 30
0.0
 10
11.0455432654
 20
9.7960139121
 30
0.0
 10
11.0573895568
 20
9.7800149748
 30
0.0
 10
11.0684757695
 20
9.7635048483
 30
0.0
 10
11.0787765194
 20
9.7465242725
 30
0.0
 10
11.0882680558
 20
9.7291146251
 30
0.0
 10
11.0969254199
 20
9.7113166532
 30
0.0
 10
11.1047282199
 20
9.6931735573
 30
0.0
 10
11.1116594117
 20
9.6747296804
 30
0.0
 10
11.1177005469
 20
9.656028706
 30
0.0
 10
11.1228364339
 20
9.6371155398
 30
0.0
 10
11.1270570025
 20
9.618036479
 30
0.0
 10
11.1303509752
 20
9.5988365133
 30
0.0
 10
11.1334887017
 20
9.5731860798
 30
0.0
 10
11.1350756504
 20
9.5410441067
 30
0.0
 10
11.1335045695
 20
9.5090077577
 30
0.0
 10
11.1303602048
 20
9.4837053531
 30
0.0
 10
11.1270688531
 20
9.464959366
 30
0.0
 10
11.1228505027
 20
9.4464621736
 30
0.0
 10
11.1177164239
 20
9.4282574069
 30
0.0
 10
11.1116765398
 20
9.410389768
 30
0.0
 10
11.1047459899
 20
9.392902249
 30
0.0
 10
11.0969432533
 20
9.375836216
 30
0.0
 10
11.0882852855
 20
9.3592335835
 30
0.0
 10
11.0787924072
 20
9.3431348013
 30
0.0
 10
11.0684897842
 20
9.3275775141
 30
0.0
 10
11.0574006855
 20
9.3125993734
 30
0.0
 10
11.0416090889
 20
9.2934604216
 30
0.0
 10
11.020024992
 20
9.271137576
 30
0.0
 10
10.9962078353
 20
9.2512086747
 30
0.0
 10
10.9759762598
 20
9.2368222605
 30
0.0
 10
10.96022921
 20
9.2268253388
 30
0.0
 10
10.9439575451
 20
9.2176512786
 30
0.0
 10
10.9272003846
 20
9.2093206366
 30
0.0
 10
10.9099970847
 20
9.2018559455
 30
0.0
 10
10.8923897902
 20
9.1952745423
 30
0.0
 10
10.8744220912
 20
9.1895902926
 30
0.0
 10
10.8561368717
 20
9.1848185031
 30
0.0
 10
10.837577344
 20
9.1809713487
 30
0.0
 10
10.8187872955
 20
9.1780559928
 30
0.0
 10
10.7998093954
 20
9.1760809741
 30
0.0
 10
10.7742896955
 20
9.1747078101
 30
0.0
 10
10.7550604047
 20
9.1751007707
 30
0.0
 10
10.7422781843
 20
9.1759872207
 30
0.0
  0
SPLINE
  5
3A0
100
AcDbEntity
  8
0
100
AcDbSpline
 62
7
  6
CONTINUOUS
 70
0
 71
3
 72
49
 73
45
 74
0
 42
0.0000001
 43
0.0000001
 44
0.0000000001
 40
0.0
 40
0.0
 40
0.0
 40
0.0
 40
0.0310512685
 40
0.0466424677
 40
0.0622705817
 40
0.0779317675
 40
0.0936244438
 40
0.1093483604
 40
0.1251031387
 40
0.1566985524
 40
0.1884040431
 40
0.2042950787
 40
0.2202074413
 40
0.2520837353
 40
0.268047522
 40
0.2840240677
 40
0.3160020256
 40
0.348002293
 40
0.3800053142
 40
0.4119913939
 40
0.4439411763
 40
0.4758360053
 40
0.5076579401
 40
0.5393906551
 40
0.5552208598
 40
0.5710232645
 40
0.602534295
 40
0.618244413
 40
0.6339211986
 40
0.6651666686
 40
0.6807381928
 40
0.6962732786
 40
0.7272285437
 40
0.75803617
 40
0.7733874454
 40
0.7887028563
 40
0.8192241294
 40
0.8496121516
 40
0.8798773475
 40
0.9100322327
 40
0.9400919841
 40
0.9550938288
 40
0.9700783513
 40
1.0
 40
1.0
 40
1.0
 40
1.0
 10
10.7505603869
 20
9.9992286603
 30
0.0
 10
10.7603023775
 20
9.9985530509
 30
0.0
 10
10.7749072366
 20
9.9970327788
 30
0.0
 10
10.7942599291
 20
9.9940182753
 30
0.0
 10
10.8087458798
 20
9.9912578136
 30
0.0
 10
10.8231612819
 20
9.9880033394
 30
0.0
 10
10.8374884729
 20
9.9842591309
 30
0.0
 10
10.8517110236
 20
9.9800304068
 30
0.0
 10
10.8705293139
 20
9.973747631
 30
0.0
 10
10.8937091065
 20
9.9647034027
 30
0.0
 10
10.9162832886
 20
9.9541385525
 30
0.0
 10
10.933940267
 20
9.9447961242
 30
0.0
 10
10.9513292714
 20
9.9348559166
 30
0.0
 10
10.9682440801
 20
9.9240601393
 30
0.0
 10
10.9846210621
 20
9.9124539251
 30
0.0
 10
11.0006399151
 20
9.9003046934
 30
0.0
 10
11.0199304583
 20
9.8841460019
 30
0.0
 10
11.0417916368
 20
9.8633019034
 30
0.0
 10
11.0622680765
 20
9.8410917437
 30
0.0
 10
11.0812661855
 20
9.8176251185
 30
0.0
 10
11.0986912884
 20
9.7930095293
 30
0.0
 10
11.1144654796
 20
9.7673650353
 30
0.0
 10
11.1285090305
 20
9.7408110996
 30
0.0
 10
11.1387265456
 20
9.7180105341
 30
0.0
 10
11.1459714817
 20
9.6994428203
 30
0.0
 10
11.1525769166
 20
9.6807123878
 30
0.0
 10
11.1582409767
 20
9.6617004773
 30
0.0
 10
11.1629350704
 20
9.6424814673
 30
0.0
 10
11.1669656329
 20
9.6231978155
 30
0.0
 10
11.1700165063
 20
9.6037642907
 30
0.0
 10
11.1720692463
 20
9.5842597229
 30
0.0
 10
11.1734494079
 20
9.5647872059
 30
0.0
 10
11.1739231621
 20
9.5404619551
 30
0.0
 10
11.172720767
 20
9.5162191519
 30
0.0
 10
11.1707513896
 20
9.4969829879
 30
0.0
 10
11.168122134
 20
9.4779169286
 30
0.0
 10
11.1635971991
 20
9.4543536262
 30
0.0
 10
11.1561947832
 20
9.426627319
 30
0.0
 10
11.1468661257
 20
9.3996090578
 30
0.0
 10
11.1356507594
 20
9.3734307889
 30
0.0
 10
11.1247707746
 20
9.352400787
 30
0.0
 10
11.1151844218
 20
9.3361264556
 30
0.0
 10
11.1050311934
 20
9.3202521368
 30
0.0
 10
11.0967688617
 20
9.3087779554
 30
0.0
 10
11.0909923328
 20
9.301349476
 30
0.0
  0
SPLINE
  5
3A1
100
AcDbEntity
  8
0
100
AcDbSpline
 62
7
  6
CONTINUOUS
 70
0
 71
3
 72
65
 73
61
 74
0
 42
0.0000001
 43
0.0000001
 44
0.0000000001
 40
0.0
 40
0.0
 40
0.0
 40
0.0
 40
0.0313882588
 40
0.0471732187
 40
0.0630053541
 40
0.0788820657
 40
0.094802588
 40
0.1107657685
 40
0.1267688676
 40
0.1428076951
 40
0.1588778299
 40
0.1749749546
 40
0.1910946491
 40
0.2072323036
 40
0.2233832599
 40
0.2395425556
 40
0.2557050661
 40
0.2718657829
 40
0.2880197405
 40
0.304161898
 40
0.3202873905
 40
0.336391601
 40
0.3524699397
 40
0.3685180409
 40
0.3845319796
 40
0.4005080131
 40
0.4164426532
 40
0.4323329685
 40
0.4481763871
 40
0.4639706168
 40
0.4797139657
 40
0.5110343807
 40
0.5421425547
 40
0.557622889
 40
0.5730523411
 40
0.5884328283
 40
0.6037665858
 40
0.6190562778
 40
0.6343052204
 40
0.6495170235
 40
0.664695599
 40
0.6798453913
 40
0.6949710698
 40
0.7100774509
 40
0.7251697194
 40
0.7553226824
 40
0.7854832896
 40
0.8005849703
 40
0.8157043408
 40
0.8308465102
 40
0.846016234
 40
0.8612180829
 40
0.8764560644
 40
0.8917333659
 40
0.9070528451
 40
0.9224179581
 40
0.9378327418
 40
0.9533009207
 40
0.9688234761
 40
1.0
 40
1.0
 40
1.0
 40
1.0
 10
10.7422781843
 20
9.1759872207
 30
0.0
 10
10.7294091537
 20
9.176879691
 30
0.0
 10
10.7101177182
 20
9.1791739109
 30
0.0
 10
10.684685078
 20
9.1840740665
 30
0.0
 10
10.6657098262
 20
9.1886837665
 30
0.0
 10
10.646923133
 20
9.1942072964
 30
0.0
 10
10.6283674106
 20
9.2006302084
 30
0.0
 10
10.6100866301
 20
9.2079391181
 30
0.0
 10
10.5921238176
 20
9.2161158227
 30
0.0
 10
10.574521641
 20
9.2251391053
 30
0.0
 10
10.5573237685
 20
9.2349889558
 30
0.0
 10
10.5405722765
 20
9.2456421206
 30
0.0
 10
10.5243061387
 20
9.2570708447
 30
0.0
 10
10.5085649425
 20
9.2692486293
 30
0.0
 10
10.493387559
 20
9.2821473733
 30
0.0
 10
10.4788088797
 20
9.2957340596
 30
0.0
 10
10.464864195
 20
9.3099763565
 30
0.0
 10
10.4515888573
 20
9.3248415949
 30
0.0
 10
10.4390131033
 20
9.3402923467
 30
0.0
 10
10.4271668118
 20
9.356291284
 30
0.0
 10
10.4160805992
 20
9.3728014106
 30
0.0
 10
10.4057798492
 20
9.3897819863
 30
0.0
 10
10.3962883128
 20
9.4071916338
 30
0.0
 10
10.3876309488
 20
9.4249896057
 30
0.0
 10
10.3798281487
 20
9.4431327015
 30
0.0
 10
10.3728969569
 20
9.4615765784
 30
0.0
 10
10.3668558218
 20
9.4802775529
 30
0.0
 10
10.3617199347
 20
9.4991907191
 30
0.0
 10
10.3574993662
 20
9.5182697798
 30
0.0
 10
10.3542053935
 20
9.5374697455
 30
0.0
 10
10.351067667
 20
9.563120179
 30
0.0
 10
10.3494807183
 20
9.5952621522
 30
0.0
 10
10.3510517992
 20
9.6272985012
 30
0.0
 10
10.3541961639
 20
9.6526009058
 30
0.0
 10
10.3574875155
 20
9.6713468928
 30
0.0
 10
10.3617058659
 20
9.6898440853
 30
0.0
 10
10.3668399448
 20
9.7080488519
 30
0.0
 10
10.3728798289
 20
9.7259164909
 30
0.0
 10
10.3798103788
 20
9.7434040099
 30
0.0
 10
10.3876131154
 20
9.7604700429
 30
0.0
 10
10.3962710832
 20
9.7770726754
 30
0.0
 10
10.4057639615
 20
9.7931714575
 30
0.0
 10
10.4160665844
 20
9.8087287448
 30
0.0
 10
10.4271556832
 20
9.8237068855
 30
0.0
 10
10.4429472797
 20
9.8428458372
 30
0.0
 10
10.4645313766
 20
9.8651686828
 30
0.0
 10
10.4883485334
 20
9.8850975842
 30
0.0
 10
10.5085801089
 20
9.8994839984
 30
0.0
 10
10.5243271586
 20
9.90948092
 30
0.0
 10
10.5405988236
 20
9.9186549802
 30
0.0
 10
10.557355984
 20
9.9269856222
 30
0.0
 10
10.5745592839
 20
9.9344503134
 30
0.0
 10
10.5921665784
 20
9.9410317165
 30
0.0
 10
10.6101342775
 20
9.9467159662
 30
0.0
 10
10.628419497
 20
9.9514877558
 30
0.0
 10
10.6469790247
 20
9.9553349101
 30
0.0
 10
10.6657690732
 20
9.958250266
 30
0.0
 10
10.6847469733
 20
9.9602252847
 30
0.0
 10
10.7102666732
 20
9.9615984487
 30
0.0
 10
10.729495964
 20
9.9612054881
 30
0.0
 10
10.7422781843
 20
9.9603190381
 30
0.0
  0
SPLINE
  5
3A2
100
AcDbEntity
  8
0
100
AcDbSpline
 62
7
  6
CONTINUOUS
 70
0
 71
3
 72
12
 73
8
 74
0
 42
0.0000001
 43
0.0000001
 44
0.0000000001
 40
0.0
 40
0.0
 40
0.0
 40
0.0
 40
0.2472754715
 40
0.4961827311
 40
0.6214231321
 40
0.7471940149
 40
1.0
 40
1.0
 40
1.0
 40
1.0
 10
10.8617474733
 20
9.519248898
 30
0.0
 10
10.857516376
 20
9.5173892249
 30
0.0
 10
10.8487852959
 20
9.5141824231
 30
0.0
 10
10.8374449965
 20
9.511538593
 30
0.0
 10
10.828185593
 20
9.5102471552
 30
0.0
 10
10.8187937911
 20
9.5095090874
 30
0.0
 10
10.811696689
 20
9.5095854432
 30
0.0
 10
10.8069828922
 20
9.5099123461
 30
0.0
  0
SPLINE
  5
3A3
100
AcDbEntity
  8
0
100
AcDbSpline
 62
7
  6
CONTINUOUS
 70
0
 71
3
 72
28
 73
24
 74
0
 42
0.0000001
 43
0.0000001
 44
0.0000000001
 40
0.0
 40
0.0
 40
0.0
 40
0.0
 40
0.030702984
 40
0.0615039681
 40
0.1233730223
 40
0.1544495732
 40
0.1856094776
 40
0.248141964
 40
0.3109340013
 40
0.3739268741
 40
0.4370534969
 40
0.5002428236
 40
0.5634238707
 40
0.594996227
 40
0.6265397992
 40
0.6894884492
 40
0.7208905464
 40
0.7522284031
 40
0.8146789709
 40
0.8768308772
 40
0.9077920705
 40
0.9386536859
 40
1.0
 40
1.0
 40
1.0
 40
1.0
 10
10.7531831738
 20
9.6963659126
 30
0.0
 10
10.7532950818
 20
9.6944569856
 30
0.0
 10
10.7536090706
 20
9.6906375921
 30
0.0
 10
10.7545958107
 20
9.6830154586
 30
0.0
 10
10.7561158816
 20
9.6754465446
 30
0.0
 10
10.7581524572
 20
9.6679881371
 30
0.0
 10
10.7605394904
 20
9.6605906297
 30
0.0
 10
10.7641608357
 20
9.6515270803
 30
0.0
 10
10.7694746357
 20
9.641054236
 30
0.0
 10
10.7757201283
 20
9.631064889
 30
0.0
 10
10.7828361851
 20
9.6216449211
 30
0.0
 10
10.7907639588
 20
9.6128818251
 30
0.0
 10
10.797988714
 20
9.606185783
 30
0.0
 10
10.8041009554
 20
9.6012311654
 30
0.0
 10
10.8104149833
 20
9.5965611193
 30
0.0
 10
10.8170241731
 20
9.5923198148
 30
0.0
 10
10.8238815485
 20
9.5885400899
 30
0.0
 10
10.8308738594
 20
9.5850851758
 30
0.0
 10
10.8398634354
 20
9.5813726496
 30
0.0
 10
10.8491303276
 20
9.5784965349
 30
0.0
 10
10.8566474771
 20
9.5767219741
 30
0.0
 10
10.8641882571
 20
9.5753040786
 30
0.0
 10
10.8699029274
 20
9.5746344319
 30
0.0
 10
10.8737144663
 20
9.5743701008
 30
0.0
  0
SPLINE
  5
3A4
100
AcDbEntity
  8
0
100
AcDbSpline
 62
7
  6
CONTINUOUS
 70
0
 71
3
 72
58
 73
54
 74
0
 42
0.0000001
 43
0.0000001
 44
0.0000000001
 40
0.0
 40
0.0
 40
0.0
 40
0.0
 40
0.0311324281
 40
0.0624366653
 40
0.0938817384
 40
0.1254589921
 40
0.1571629436
 40
0.1889787987
 40
0.2208878538
 40
0.2528712872
 40
0.2688870753
 40
0.2849139463
 40
0.3009491665
 40
0.3169899413
 40
0.3490724626
 40
0.3811441488
 40
0.397171317
 40
0.4131876006
 40
0.4291903754
 40
0.4451770211
 40
0.4611450044
 40
0.4770919711
 40
0.4930156581
 40
0.5089138385
 40
0.5247844005
 40
0.5406254566
 40
0.5564352882
 40
0.5722122425
 40
0.5879548051
 40
0.6036617167
 40
0.6349595684
 40
0.6505538126
 40
0.6661091625
 40
0.6816253923
 40
0.6971023861
 40
0.7125401869
 40
0.7279391051
 40
0.7432997564
 40
0.758622873
 40
0.7739093371
 40
0.7891602814
 40
0.8043771362
 40
0.8195614386
 40
0.834714852
 40
0.8498392573
 40
0.8649367972
 40
0.8800096923
 40
0.8950602498
 40
0.910090948
 40
0.9400978219
 40
0.9550851376
 40
0.9700635776
 40
1.0
 40
1.0
 40
1.0
 40
1.0
 10
12.3192240918
 20
9.0442903889
 30
0.0
 10
12.308896163
 20
9.0450066332
 30
0.0
 10
12.2882283302
 20
9.0472012964
 30
0.0
 10
12.2574752014
 20
9.0527216343
 30
0.0
 10
12.2270498337
 20
9.0604598244
 30
0.0
 10
12.1971210152
 20
9.0703673671
 30
0.0
 10
12.1678465544
 20
9.0823953353
 30
0.0
 10
12.1393784675
 20
9.0964745609
 30
0.0
 10
12.1118726911
 20
9.1125351077
 30
0.0
 10
12.0898803682
 20
9.1274899493
 30
0.0
 10
12.0729094638
 20
9.140352557
 30
0.0
 10
12.0605031162
 20
9.1504418565
 30
0.0
 10
12.0484418854
 20
9.1609538869
 30
0.0
 10
12.0328425201
 20
9.1755140449
 30
0.0
 10
12.0142891464
 20
9.1947006544
 30
0.0
 10
11.9970880003
 20
9.2151024381
 30
0.0
 10
11.9841956379
 20
9.2320880246
 30
0.0
 10
11.9749753023
 20
9.2451402731
 30
0.0
 10
11.9662142678
 20
9.2584888295
 30
0.0
 10
11.957924043
 20
9.272116052
 30
0.0
 10
11.9501164623
 20
9.2860041519
 30
0.0
 10
11.9428023406
 20
9.3001347876
 30
0.0
 10
11.935990385
 20
9.314488548
 30
0.0
 10
11.9296895796
 20
9.3290462592
 30
0.0
 10
11.9239090074
 20
9.3437887846
 30
0.0
 10
11.9186570393
 20
9.3586966527
 30
0.0
 10
11.9139395142
 20
9.3737495761
 30
0.0
 10
11.9097625766
 20
9.3889273466
 30
0.0
 10
11.906132337
 20
9.4042102429
 30
0.0
 10
11.9020340088
 20
9.4246730238
 30
0.0
 10
11.8990377997
 20
9.4452944351
 30
0.0
 10
11.8971661212
 20
9.4659795345
 30
0.0
 10
11.8963283577
 20
9.4814787277
 30
0.0
 10
11.8960550995
 20
9.4969588779
 30
0.0
 10
11.8963463305
 20
9.5123997041
 30
0.0
 10
11.8972020544
 20
9.527780501
 30
0.0
 10
11.8986223473
 20
9.5430806473
 30
0.0
 10
11.9006041896
 20
9.5582797845
 30
0.0
 10
11.9031445072
 20
9.5733577167
 30
0.0
 10
11.906240192
 20
9.588294279
 30
0.0
 10
11.9098883781
 20
9.6030692227
 30
0.0
 10
11.9140832347
 20
9.6176630165
 30
0.0
 10
11.9188186243
 20
9.6320563623
 30
0.0
 10
11.9240884279
 20
9.6462299974
 30
0.0
 10
11.9298868326
 20
9.6601644917
 30
0.0
 10
11.9362053731
 20
9.6738415169
 30
0.0
 10
11.9430349118
 20
9.6872430401
 30
0.0
 10
11.9503667087
 20
9.7003514557
 30
0.0
 10
11.96079271
 20
9.7174018164
 30
0.0
 10
11.9721946627
 20
9.7338146727
 30
0.0
 10
11.9845144655
 20
9.7495029801
 30
0.0
 10
11.9974231022
 20
9.7646790594
 30
0.0
 10
12.0077653502
 20
9.7754827339
 30
0.0
 10
12.0149254123
 20
9.7823990818
 30
0.0
  0
SPLINE
  5
3A5
100
AcDbEntity
  8
0
100
AcDbSpline
 62
7
  6
CONTINUOUS
 70
0
 71
3
 72
11
 73
7
 74
0
 42
0.0000001
 43
0.0000001
 44
0.0000000001
 40
0.0
 40
0.0
 40
0.0
 40
0.0
 40
0.2509247496
 40
0.5010653233
 40
0.7506690845
 40
1.0
 40
1.0
 40
1.0
 40
1.0
 10
12.7442313874
 20
9.3046840911
 30
0.0
 10
12.7392504455
 20
9.2939859175
 30
0.0
 10
12.7283311096
 20
9.2730602617
 30
0.0
 10
12.709180088
 20
9.2433455936
 30
0.0
 10
12.6874320061
 20
9.2155703137
 30
0.0
 10
12.671297003
 20
9.1984794415
 30
0.0
 10
12.6628632336
 20
9.1903327408
 30
0.0
  0
SPLINE
  5
3A6
100
AcDbEntity
  8
0
100
AcDbSpline
 62
7
  6
CONTINUOUS
 70
0
 71
3
 72
15
 73
11
 74
0
 42
0.0000001
 43
0.0000001
 44
0.0000000001
 40
0.0
 40
0.0
 40
0.0
 40
0.0
 40
0.0990492421
 40
0.2066665217
 40
0.3238641724
 40
0.4503538711
 40
0.5840558825
 40
0.7218636876
 40
0.8610626784
 40
1.0
 40
1.0
 40
1.0
 40
1.0
 10
12.4533797386
 20
9.4526127703
 30
0.0
 10
12.4513140535
 20
9.4486513285
 30
0.0
 10
12.4469476987
 20
9.4404149743
 30
0.0
 10
12.4399153687
 20
9.4276103495
 30
0.0
 10
12.4320670995
 20
9.4138438758
 30
0.0
 10
12.4233996545
 20
9.3991926038
 30
0.0
 10
12.4140292081
 20
9.3838795519
 30
0.0
 10
12.404158388
 20
9.3682025994
 30
0.0
 10
12.3939990604
 20
9.3524296153
 30
0.0
 10
12.3871216031
 20
9.341937103
 30
0.0
 10
12.3836700425
 20
9.3367064187
 30
0.0
  0
SPLINE
  5
3A7
100
AcDbEntity
  8
0
100
AcDbSpline
 62
7
  6
CONTINUOUS
 70
0
 71
3
 72
15
 73
11
 74
0
 42
0.0000001
 43
0.0000001
 44
0.0000000001
 40
0.0
 40
0.0
 40
0.0
 40
0.0
 40
0.1147970399
 40
0.2344642916
 40
0.3590803877
 40
0.4876512653
 40
0.618028553
 40
0.7477946295
 40
0.8753220502
 40
1.0
 40
1.0
 40
1.0
 40
1.0
 10
12.3836700425
 20
9.5781878895
 30
0.0
 10
12.3871793817
 20
9.5739184399
 30
0.0
 10
12.3942028801
 20
9.5650783929
 30
0.0
 10
12.4044139009
 20
9.5511227706
 30
0.0
 10
12.4143286414
 20
9.5361502724
 30
0.0
 10
12.4237161502
 20
9.5202385475
 30
0.0
 10
12.4323642957
 20
9.5036335589
 30
0.0
 10
12.4401673979
 20
9.4866723716
 30
0.0
 10
12.4471476146
 20
9.4696549219
 30
0.0
 10
12.451370051
 20
9.4582686576
 30
0.0
 10
12.4533797386
 20
9.4526127703
 30
0.0
  0
SPLINE
  5
3A8
100
AcDbEntity
  8
0
100
AcDbSpline
 62
7
  6
CONTINUOUS
 70
0
 71
3
 72
13
 73
9
 74
0
 42
0.0000001
 43
0.0000001
 44
0.0000000001
 40
0.0
 40
0.0
 40
0.0
 40
0.0
 40
0.2274427175
 40
0.3465037192
 40
0.4694565789
 40
0.5964239191
 40
0.7273744499
 40
1.0
 40
1.0
 40
1.0
 40
1.0
 10
12.3836700425
 20
9.5781878895
 30
0.0
 10
12.3788307832
 20
9.5792985375
 30
0.0
 10
12.3714305004
 20
9.5808735686
 30
0.0
 10
12.3613529982
 20
9.5827389464
 30
0.0
 10
12.3534053568
 20
9.5840521702
 30
0.0
 10
12.3451757458
 20
9.5852410687
 30
0.0
 10
12.3336800043
 20
9.5866551318
 30
0.0
 10
12.3249018505
 20
9.5874449679
 30
0.0
 10
12.3189646943
 20
9.587856711
 30
0.0
  0
SPLINE
  5
3A9
100
AcDbEntity
  8
0
100
AcDbSpline
 62
7
  6
CONTINUOUS
 70
0
 71
3
 72
11
 73
7
 74
0
 42
0.0000001
 43
0.0000001
 44
0.0000000001
 40
0.0
 40
0.0
 40
0.0
 40
0.0
 40
0.2478710221
 40
0.4996081013
 40
0.7510614199
 40
1.0
 40
1.0
 40
1.0
 40
1.0
 10
12.3189646943
 20
9.587856711
 30
0.0
 10
12.3128027354
 20
9.5882840443
 30
0.0
 10
12.3003633093
 20
9.588881825
 30
0.0
 10
12.2816452649
 20
9.589089635
 30
0.0
 10
12.2629039882
 20
9.5887267488
 30
0.0
 10
12.2504453296
 20
9.5881847487
 30
0.0
 10
12.2442506503
 20
9.5878566572
 30
0.0
  0
SPLINE
  5
3AA
100
AcDbEntity
  8
0
100
AcDbSpline
 62
7
  6
CONTINUOUS
 70
0
 71
3
 72
23
 73
19
 74
0
 42
0.0000001
 43
0.0000001
 44
0.0000000001
 40
0.0
 40
0.0
 40
0.0
 40
0.0
 40
0.0616482049
 40
0.1233194645
 40
0.1850366601
 40
0.2468215803
 40
0.3086958874
 40
0.3706805387
 40
0.4327949852
 40
0.4950576208
 40
0.5574833124
 40
0.620084195
 40
0.682872566
 40
0.7458647459
 40
0.8090766705
 40
0.8725171946
 40
0.9361676357
 40
1.0
 40
1.0
 40
1.0
 40
1.0
 10
12.6235227712
 20
9.15233277
 30
0.0
 10
12.6186076017
 20
9.147584903
 30
0.0
 10
12.6085181514
 20
9.1383495996
 30
0.0
 10
12.5926570897
 20
9.1253287886
 30
0.0
 10
12.5761077921
 20
9.1131682023
 30
0.0
 10
12.5589126751
 20
9.1018985179
 30
0.0
 10
12.5411133838
 20
9.0915504085
 30
0.0
 10
12.5227560576
 20
9.08214788
 30
0.0
 10
12.5038867866
 20
9.073714216
 30
0.0
 10
12.4845520861
 20
9.0662733827
 30
0.0
 10
12.464802154
 20
9.059841544
 30
0.0
 10
12.4446871249
 20
9.0544344475
 30
0.0
 10
12.4242566751
 20
9.0500681629
 30
0.0
 10
12.4035613115
 20
9.046751589
 30
0.0
 10
12.3826512751
 20
9.0444931852
 30
0.0
 10
12.3615802984
 20
9.0433015104
 30
0.0
 10
12.340407951
 20
9.0431754528
 30
0.0
 10
12.3262830782
 20
9.0438008465
 30
0.0
 10
12.3192240918
 20
9.0442903889
 30
0.0
  0
SPLINE
  5
3AB
100
AcDbEntity
  8
0
100
AcDbSpline
 62
7
  6
CONTINUOUS
 70
0
 71
3
 72
14
 73
10
 74
0
 42
0.0000001
 43
0.0000001
 44
0.0000000001
 40
0.0
 40
0.0
 40
0.0
 40
0.0
 40
0.1246738683
 40
0.2493802026
 40
0.3741517831
 40
0.4990198421
 40
0.6240148907
 40
0.749167597
 40
1.0
 40
1.0
 40
1.0
 40
1.0
 10
12.0542658747
 20
9.8203990527
 30
0.0
 10
12.0583741633
 20
9.8243675033
 30
0.0
 10
12.0667712593
 20
9.8321220784
 30
0.0
 10
12.0798792771
 20
9.8431770454
 30
0.0
 10
12.0934777809
 20
9.853637971
 30
0.0
 10
12.1075416205
 20
9.8634869861
 30
0.0
 10
12.1220473447
 20
9.8727066033
 30
0.0
 10
12.1419538324
 20
9.8841428418
 30
0.0
 10
12.1574567147
 20
9.8917206488
 30
0.0
 10
12.1679940652
 20
9.8963064461
 30
0.0
  0
SPLINE
  5
3AC
100
AcDbEntity
  8
0
100
AcDbSpline
 62
7
  6
CONTINUOUS
 70
0
 71
3
 72
59
 73
55
 74
0
 42
0.0000001
 43
0.0000001
 44
0.0000000001
 40
0.0
 40
0.0
 40
0.0
 40
0.0
 40
0.0311720062
 40
0.0621600995
 40
0.077578186
 40
0.092944878
 40
0.1082643124
 40
0.1235409797
 40
0.1387790157
 40
0.1539817776
 40
0.1691527733
 40
0.1842960177
 40
0.1994163674
 40
0.2145188779
 40
0.2296086888
 40
0.2446912482
 40
0.2597720508
 40
0.2748563558
 40
0.2899494159
 40
0.3050566389
 40
0.3201831683
 40
0.3353337785
 40
0.3505131308
 40
0.365725757
 40
0.3962560677
 40
0.4269620491
 40
0.4578638149
 40
0.4889737426
 40
0.5202957284
 40
0.5518260357
 40
0.5835524013
 40
0.5994879718
 40
0.6154649034
 40
0.6314796714
 40
0.6475286111
 40
0.6636078362
 40
0.6797129524
 40
0.6958393238
 40
0.7119823293
 40
0.728137205
 40
0.7442988592
 40
0.7604621391
 40
0.7766221065
 40
0.792773926
 40
0.8089126628
 40
0.8250335173
 40
0.8411318924
 40
0.8732333818
 40
0.8892358354
 40
0.9051989181
 40
0.9211211179
 40
0.9370012219
 40
0.9686161759
 40
1.0
 40
1.0
 40
1.0
 40
1.0
 10
12.3109418892
 20
9.3086814942
 30
0.0
 10
12.3158523023
 20
9.3083409559
 30
0.0
 10
12.3256837696
 20
9.3081404135
 30
0.0
 10
12.3379173373
 20
9.3091003267
 30
0.0
 10
12.3475597439
 20
9.3105965422
 30
0.0
 10
12.3546913686
 20
9.31207515
 30
0.0
 10
12.3617170388
 20
9.3139081817
 30
0.0
 10
12.3686204377
 20
9.3160921233
 30
0.0
 10
12.375385141
 20
9.3186217233
 30
0.0
 10
12.3819951998
 20
9.3214899355
 30
0.0
 10
12.3884344897
 20
9.3246899631
 30
0.0
 10
12.3946866767
 20
9.3282153316
 30
0.0
 10
12.4007368587
 20
9.332056968
 30
0.0
 10
12.4065709557
 20
9.3362049032
 30
0.0
 10
12.4121748143
 20
9.3406494347
 30
0.0
 10
12.4175341214
 20
9.3453808177
 30
0.0
 10
12.4226366763
 20
9.3503867504
 30
0.0
 10
12.4274705322
 20
9.3556548597
 30
0.0
 10
12.432023567
 20
9.3611729143
 30
0.0
 10
12.4362840389
 20
9.3669281389
 30
0.0
 10
12.4402427507
 20
9.3729058273
 30
0.0
 10
12.4438903414
 20
9.3790914474
 30
0.0
 10
12.4472172656
 20
9.3854708344
 30
0.0
 10
12.4512184931
 20
9.394223022
 30
0.0
 10
12.4553828122
 20
9.4055783686
 30
0.0
 10
12.4589769197
 20
9.4197016239
 30
0.0
 10
12.461147186
 20
9.4342053963
 30
0.0
 10
12.4618676551
 20
9.448949574
 30
0.0
 10
12.4611373494
 20
9.4637923665
 30
0.0
 10
12.4589587413
 20
9.4785898002
 30
0.0
 10
12.4559618651
 20
9.4907513038
 30
0.0
 10
12.4528712442
 20
9.500316284
 30
0.0
 10
12.4502082447
 20
9.5074033179
 30
0.0
 10
12.4472103631
 20
9.5143746128
 30
0.0
 10
12.4438837344
 20
9.5212131652
 30
0.0
 10
12.4402366388
 20
9.5279025224
 30
0.0
 10
12.4362786809
 20
9.5344270562
 30
0.0
 10
12.4320192026
 20
9.5407710082
 30
0.0
 10
12.4274674233
 20
9.5469183874
 30
0.0
 10
12.4226350367
 20
9.5528548769
 30
0.0
 10
12.4175341433
 20
9.5585665918
 30
0.0
 10
12.4121766771
 20
9.5640395208
 30
0.0
 10
12.4065747928
 20
9.5692597163
 30
0.0
 10
12.4007427521
 20
9.5742154773
 30
0.0
 10
12.3946947669
 20
9.5788950992
 30
0.0
 10
12.3884445949
 20
9.5832868431
 30
0.0
 10
12.3798713737
 20
9.58873748
 30
0.0
 10
12.3709454943
 20
9.5935808841
 30
0.0
 10
12.3617354901
 20
9.5977732347
 30
0.0
 10
12.3547113214
 20
9.6005811938
 30
0.0
 10
12.3475812432
 20
9.603049517
 30
0.0
 10
12.3379709461
 20
9.6058752219
 30
0.0
 10
12.3257817151
 20
9.6085302155
 30
0.0
 10
12.3158856692
 20
9.6097075175
 30
0.0
 10
12.3109418892
 20
9.6100503698
 30
0.0
  0
SPLINE
  5
3AD
100
AcDbEntity
  8
0
100
AcDbSpline
 62
7
  6
CONTINUOUS
 70
0
 71
3
 72
21
 73
17
 74
0
 42
0.0000001
 43
0.0000001
 44
0.0000000001
 40
0.0
 40
0.0
 40
0.0
 40
0.0
 40
0.128353577
 40
0.1923060745
 40
0.2560140315
 40
0.319467666
 40
0.3826623992
 40
0.4455905036
 40
0.5082417631
 40
0.6326320977
 40
0.6944427773
 40
0.7559901513
 40
0.8173016368
 40
0.8784076179
 40
0.9393131269
 40
1.0
 40
1.0
 40
1.0
 40
1.0
 10
12.2710820529
 20
9.4687470922
 30
0.0
 10
12.2684725325
 20
9.4734478849
 30
0.0
 10
12.2649895247
 20
9.4807412256
 30
0.0
 10
12.2612833796
 20
9.4908094861
 30
0.0
 10
12.2589911442
 20
9.4984856848
 30
0.0
 10
12.2571921316
 20
9.5062591455
 30
0.0
 10
12.2558946159
 20
9.514098851
 30
0.0
 10
12.2551034048
 20
9.5219724338
 30
0.0
 10
12.2547278043
 20
9.5324418947
 30
0.0
 10
12.2553724367
 20
9.5428819535
 30
0.0
 10
12.2570375683
 20
9.5531312077
 30
0.0
 10
12.258786715
 20
9.5606726934
 30
0.0
 10
12.2610300155
 20
9.5680509558
 30
0.0
 10
12.2637601429
 20
9.5752348509
 30
0.0
 10
12.2669631457
 20
9.5821915015
 30
0.0
 10
12.2694074572
 20
9.5866654018
 30
0.0
 10
12.270702927
 20
9.5888526174
 30
0.0
  0
SPLINE
  5
3AE
100
AcDbEntity
  8
0
100
AcDbSpline
 62
7
  6
CONTINUOUS
 70
0
 71
3
 72
20
 73
16
 74
0
 42
0.0000001
 43
0.0000001
 44
0.0000000001
 40
0.0
 40
0.0
 40
0.0
 40
0.0
 40
0.1225930232
 40
0.1843493618
 40
0.2463344551
 40
0.3085396884
 40
0.3709551842
 40
0.4962618662
 40
0.6220710623
 40
0.6851061463
 40
0.7481652807
 40
0.811225063
 40
0.8742604283
 40
0.9372127727
 40
1.0
 40
1.0
 40
1.0
 40
1.0
 10
12.3756465971
 20
9.4011251487
 30
0.0
 10
12.3703591781
 20
9.4014918324
 30
0.0
 10
12.3624324815
 20
9.4025666655
 30
0.0
 10
12.3520592703
 20
9.4049991013
 30
0.0
 10
12.3443593797
 20
9.4073298983
 30
0.0
 10
12.3367949418
 20
9.4101499099
 30
0.0
 10
12.3269209374
 20
9.4145527443
 30
0.0
 10
12.3150758465
 20
9.4212186582
 30
0.0
 10
12.304118537
 20
9.4293049571
 30
0.0
 10
12.2959789489
 20
9.436548992
 30
0.0
 10
12.2902099959
 20
9.4423526299
 30
0.0
 10
12.2848055949
 20
9.4484967891
 30
0.0
 10
12.2797902586
 20
9.4549568382
 30
0.0
 10
12.275186064
 20
9.4617013521
 30
0.0
 10
12.2723995508
 20
9.46637375
 30
0.0
 10
12.2710820529
 20
9.4687470922
 30
0.0
  0
SPLINE
  5
3AF
100
AcDbEntity
  8
0
100
AcDbSpline
 62
7
  6
CONTINUOUS
 70
0
 71
3
 72
15
 73
11
 74
0
 42
0.0000001
 43
0.0000001
 44
0.0000000001
 40
0.0
 40
0.0
 40
0.0
 40
0.0
 40
0.1389373219
 40
0.2781363127
 40
0.4159441182
 40
0.5496461315
 40
0.6761358282
 40
0.7933334786
 40
0.9009507581
 40
1.0
 40
1.0
 40
1.0
 40
1.0
 10
12.1745409542
 20
9.4719503056
 30
0.0
 10
12.1779925148
 20
9.4771809899
 30
0.0
 10
12.1848699721
 20
9.4876735023
 30
0.0
 10
12.1950292997
 20
9.5034464865
 30
0.0
 10
12.2049001199
 20
9.519123439
 30
0.0
 10
12.2142705662
 20
9.534436491
 30
0.0
 10
12.2229380113
 20
9.5490877629
 30
0.0
 10
12.2307862804
 20
9.5628542365
 30
0.0
 10
12.2378186104
 20
9.5756588613
 30
0.0
 10
12.2421849652
 20
9.5838952155
 30
0.0
 10
12.2442506503
 20
9.5878566572
 30
0.0
  0
SPLINE
  5
3B0
100
AcDbEntity
  8
0
100
AcDbSpline
 62
7
  6
CONTINUOUS
 70
0
 71
3
 72
15
 73
11
 74
0
 42
0.0000001
 43
0.0000001
 44
0.0000000001
 40
0.0
 40
0.0
 40
0.0
 40
0.0
 40
0.1246779501
 40
0.2522053708
 40
0.3819714477
 40
0.5123487373
 40
0.6409196129
 40
0.7655357087
 40
0.8852029604
 40
1.0
 40
1.0
 40
1.0
 40
1.0
 10
12.2442506503
 20
9.3463751863
 30
0.0
 10
12.2422409627
 20
9.3520310737
 30
0.0
 10
12.2380185263
 20
9.363417338
 30
0.0
 10
12.2310383095
 20
9.3804347878
 30
0.0
 10
12.2232352073
 20
9.3973959751
 30
0.0
 10
12.2145870618
 20
9.4140009638
 30
0.0
 10
12.2051995529
 20
9.4299126886
 30
0.0
 10
12.1952848125
 20
9.4448851868
 30
0.0
 10
12.1850737918
 20
9.458840809
 30
0.0
 10
12.1780502933
 20
9.467680856
 30
0.0
 10
12.1745409542
 20
9.4719503056
 30
0.0
  0
SPLINE
  5
3B1
100
AcDbEntity
  8
0
100
AcDbSpline
 62
7
  6
CONTINUOUS
 70
0
 71
3
 72
13
 73
9
 74
0
 42
0.0000001
 43
0.0000001
 44
0.0000000001
 40
0.0
 40
0.0
 40
0.0
 40
0.0
 40
0.2726271266
 40
0.4035779531
 40
0.5305449506
 40
0.6534977878
 40
0.7725580603
 40
1.0
 40
1.0
 40
1.0
 40
1.0
 10
12.3189658698
 20
9.3463751586
 30
0.0
 10
12.3249029534
 20
9.3459634205
 30
0.0
 10
12.3336809867
 20
9.345173553
 30
0.0
 10
12.3451765515
 20
9.3437594887
 30
0.0
 10
12.353406011
 20
9.342570598
 30
0.0
 10
12.3613534836
 20
9.3412573884
 30
0.0
 10
12.3714307703
 20
9.3393920429
 30
0.0
 10
12.3788308868
 20
9.3378170428
 30
0.0
 10
12.3836700425
 20
9.3367064187
 30
0.0
  0
SPLINE
  5
3B2
100
AcDbEntity
  8
0
100
AcDbSpline
 62
7
  6
CONTINUOUS
 70
0
 71
3
 72
11
 73
7
 74
0
 42
0.0000001
 43
0.0000001
 44
0.0000000001
 40
0.0
 40
0.0
 40
0.0
 40
0.0
 40
0.2489398472
 40
0.500394066
 40
0.7521309598
 40
1.0
 40
1.0
 40
1.0
 40
1.0
 10
12.2442506503
 20
9.3463751863
 30
0.0
 10
12.2504454588
 20
9.3467032847
 30
0.0
 10
12.2629043679
 20
9.3472452932
 30
0.0
 10
12.2816459895
 20
9.3476081685
 30
0.0
 10
12.3003642979
 20
9.3474003372
 30
0.0
 10
12.3128038631
 20
9.3468024953
 30
0.0
 10
12.3189658698
 20
9.3463751586
 30
0.0
  0
SPLINE
  5
3B3
100
AcDbEntity
  8
0
100
AcDbSpline
 62
7
  6
CONTINUOUS
 70
0
 71
3
 72
59
 73
55
 74
0
 42
0.0000001
 43
0.0000001
 44
0.0000000001
 40
0.0
 40
0.0
 40
0.0
 40
0.0
 40
0.0311720062
 40
0.0621600995
 40
0.077578186
 40
0.092944878
 40
0.1082643124
 40
0.1235409797
 40
0.1387790157
 40
0.1539817776
 40
0.1691527733
 40
0.1842960177
 40
0.1994163674
 40
0.2145188779
 40
0.2296086888
 40
0.2446912482
 40
0.2597720508
 40
0.2748563558
 40
0.2899494159
 40
0.3050566389
 40
0.3201831683
 40
0.3353337785
 40
0.3505131308
 40
0.365725757
 40
0.3962560677
 40
0.4269620491
 40
0.4578638149
 40
0.4889737426
 40
0.5202957284
 40
0.5518260357
 40
0.5835524013
 40
0.5994879718
 40
0.6154649034
 40
0.6314796714
 40
0.6475286111
 40
0.6636078362
 40
0.6797129524
 40
0.6958393238
 40
0.7119823293
 40
0.728137205
 40
0.7442988592
 40
0.7604621391
 40
0.7766221065
 40
0.792773926
 40
0.8089126628
 40
0.8250335173
 40
0.8411318924
 40
0.8732333818
 40
0.8892358354
 40
0.9051989181
 40
0.9211211179
 40
0.9370012219
 40
0.9686161759
 40
1.0
 40
1.0
 40
1.0
 40
1.0
 10
12.3109418892
 20
9.6100503698
 30
0.0
 10
12.3060314761
 20
9.6103909081
 30
0.0
 10
12.2962000088
 20
9.6105914505
 30
0.0
 10
12.283966441
 20
9.6096315373
 30
0.0
 10
12.2743240344
 20
9.6081353218
 30
0.0
 10
12.2671924097
 20
9.606656714
 30
0.0
 10
12.2601667396
 20
9.6048236823
 30
0.0
 10
12.2532633407
 20
9.6026397407
 30
0.0
 10
12.2464986373
 20
9.6001101407
 30
0.0
 10
12.2398885786
 20
9.5972419285
 30
0.0
 10
12.2334492887
 20
9.5940419009
 30
0.0
 10
12.2271971016
 20
9.5905165324
 30
0.0
 10
12.2211469196
 20
9.586674896
 30
0.0
 10
12.2153128226
 20
9.5825269608
 30
0.0
 10
12.209708964
 20
9.5780824293
 30
0.0
 10
12.204349657
 20
9.5733510463
 30
0.0
 10
12.199247102
 20
9.5683451136
 30
0.0
 10
12.1944132462
 20
9.5630770043
 30
0.0
 10
12.1898602114
 20
9.5575589497
 30
0.0
 10
12.1855997395
 20
9.5518037251
 30
0.0
 10
12.1816410276
 20
9.5458260367
 30
0.0
 10
12.177993437
 20
9.5396404166
 30
0.0
 10
12.1746665127
 20
9.5332610296
 30
0.0
 10
12.1706652852
 20
9.524508842
 30
0.0
 10
12.1665009661
 20
9.5131534954
 30
0.0
 10
12.1629068587
 20
9.4990302401
 30
0.0
 10
12.1607365924
 20
9.4845264677
 30
0.0
 10
12.1600161233
 20
9.46978229
 30
0.0
 10
12.160746429
 20
9.4549394975
 30
0.0
 10
12.1629250371
 20
9.4401420638
 30
0.0
 10
12.1659219132
 20
9.4279805602
 30
0.0
 10
12.1690125342
 20
9.41841558
 30
0.0
 10
12.1716755337
 20
9.4113285461
 30
0.0
 10
12.1746734153
 20
9.4043572512
 30
0.0
 10
12.1780000439
 20
9.3975186988
 30
0.0
 10
12.1816471396
 20
9.3908293416
 30
0.0
 10
12.1856050975
 20
9.3843048078
 30
0.0
 10
12.1898645758
 20
9.3779608558
 30
0.0
 10
12.194416355
 20
9.3718134766
 30
0.0
 10
12.1992487417
 20
9.3658769871
 30
0.0
 10
12.204349635
 20
9.3601652722
 30
0.0
 10
12.2097071013
 20
9.3546923432
 30
0.0
 10
12.2153089856
 20
9.3494721477
 30
0.0
 10
12.2211410262
 20
9.3445163867
 30
0.0
 10
12.2271890114
 20
9.3398367648
 30
0.0
 10
12.2334391835
 20
9.3354450209
 30
0.0
 10
12.2420124047
 20
9.329994384
 30
0.0
 10
12.2509382841
 20
9.3251509799
 30
0.0
 10
12.2601482882
 20
9.3209586293
 30
0.0
 10
12.267172457
 20
9.3181506702
 30
0.0
 10
12.2743025352
 20
9.315682347
 30
0.0
 10
12.2839128323
 20
9.3128566421
 30
0.0
 10
12.2961020633
 20
9.3102016486
 30
0.0
 10
12.3059981092
 20
9.3090243465
 30
0.0
 10
12.3109418892
 20
9.3086814942
 30
0.0
  0
SPLINE
  5
3B4
100
AcDbEntity
  8
0
100
AcDbSpline
 62
7
  6
CONTINUOUS
 70
0
 71
3
 72
23
 73
19
 74
0
 42
0.0000001
 43
0.0000001
 44
0.0000000001
 40
0.0
 40
0.0
 40
0.0
 40
0.0
 40
0.0616482049
 40
0.1233194645
 40
0.1850366601
 40
0.2468215803
 40
0.3086958874
 40
0.3706805387
 40
0.4327949852
 40
0.4950576208
 40
0.5574833124
 40
0.620084195
 40
0.682872566
 40
0.7458647459
 40
0.8090766705
 40
0.8725171946
 40
0.9361676357
 40
1.0
 40
1.0
 40
1.0
 40
1.0
 10
12.0149254123
 20
9.7823990818
 30
0.0
 10
12.0198405819
 20
9.7871469488
 30
0.0
 10
12.0299300322
 20
9.7963822522
 30
0.0
 10
12.0457910939
 20
9.8094030631
 30
0.0
 10
12.0623403914
 20
9.8215636494
 30
0.0
 10
12.0795355085
 20
9.8328333339
 30
0.0
 10
12.0973347997
 20
9.8431814433
 30
0.0
 10
12.1156921259
 20
9.8525839717
 30
0.0
 10
12.1345613969
 20
9.8610176358
 30
0.0
 10
12.1538960975
 20
9.868458469
 30
0.0
 10
12.1736460296
 20
9.8748903077
 30
0.0
 10
12.1937610587
 20
9.8802974043
 30
0.0
 10
12.2141915085
 20
9.8846636888
 30
0.0
 10
12.2348868721
 20
9.8879802627
 30
0.0
 10
12.2557969085
 20
9.8902386666
 30
0.0
 10
12.2768678851
 20
9.8914303414
 30
0.0
 10
12.2980402326
 20
9.8915563989
 30
0.0
 10
12.3121651054
 20
9.8909310052
 30
0.0
 10
12.3192240918
 20
9.8904414629
 30
0.0
  0
SPLINE
  5
3B5
100
AcDbEntity
  8
0
100
AcDbSpline
 62
7
  6
CONTINUOUS
 70
0
 71
3
 72
65
 73
61
 74
0
 42
0.0000001
 43
0.0000001
 44
0.0000000001
 40
0.0
 40
0.0
 40
0.0
 40
0.0
 40
0.0313882588
 40
0.0471732187
 40
0.0630053541
 40
0.0788820657
 40
0.094802588
 40
0.1107657685
 40
0.1267688676
 40
0.1428076951
 40
0.1588778299
 40
0.1749749546
 40
0.1910946491
 40
0.2072323036
 40
0.2233832599
 40
0.2395425556
 40
0.2557050661
 40
0.2718657829
 40
0.2880197405
 40
0.304161898
 40
0.3202873905
 40
0.336391601
 40
0.3524699397
 40
0.3685180409
 40
0.3845319796
 40
0.4005080131
 40
0.4164426532
 40
0.4323329685
 40
0.4481763871
 40
0.4639706168
 40
0.4797139657
 40
0.5110343807
 40
0.5421425547
 40
0.557622889
 40
0.5730523411
 40
0.5884328283
 40
0.6037665858
 40
0.6190562778
 40
0.6343052204
 40
0.6495170235
 40
0.664695599
 40
0.6798453913
 40
0.6949710698
 40
0.7100774509
 40
0.7251697194
 40
0.7553226824
 40
0.7854832896
 40
0.8005849703
 40
0.8157043408
 40
0.8308465102
 40
0.846016234
 40
0.8612180829
 40
0.8764560644
 40
0.8917333659
 40
0.9070528451
 40
0.9224179581
 40
0.9378327418
 40
0.9533009207
 40
0.9688234761
 40
1.0
 40
1.0
 40
1.0
 40
1.0
 10
12.3109418892
 20
9.8515318407
 30
0.0
 10
12.3238109198
 20
9.8506393704
 30
0.0
 10
12.3431023553
 20
9.8483451505
 30
0.0
 10
12.3685349956
 20
9.8434449949
 30
0.0
 10
12.3875102473
 20
9.8388352949
 30
0.0
 10
12.4062969406
 20
9.833311765
 30
0.0
 10
12.4248526629
 20
9.826888853
 30
0.0
 10
12.4431334434
 20
9.8195799433
 30
0.0
 10
12.4610962559
 20
9.8114032388
 30
0.0
 10
12.4786984325
 20
9.8023799561
 30
0.0
 10
12.495896305
 20
9.7925301056
 30
0.0
 10
12.512647797
 20
9.7818769409
 30
0.0
 10
12.5289139348
 20
9.7704482167
 30
0.0
 10
12.544655131
 20
9.7582704321
 30
0.0
 10
12.5598325145
 20
9.7453716881
 30
0.0
 10
12.5744111938
 20
9.7317850019
 30
0.0
 10
12.5883558785
 20
9.7175427049
 30
0.0
 10
12.6016312162
 20
9.7026774665
 30
0.0
 10
12.6142069702
 20
9.6872267147
 30
0.0
 10
12.6260532617
 20
9.6712277774
 30
0.0
 10
12.6371394743
 20
9.6547176508
 30
0.0
 10
12.6474402243
 20
9.6377370751
 30
0.0
 10
12.6569317607
 20
9.6203274276
 30
0.0
 10
12.6655891247
 20
9.6025294557
 30
0.0
 10
12.6733919248
 20
9.5843863599
 30
0.0
 10
12.6803231166
 20
9.565942483
 30
0.0
 10
12.6863642517
 20
9.5472415085
 30
0.0
 10
12.6915001388
 20
9.5283283423
 30
0.0
 10
12.6957207073
 20
9.5092492816
 30
0.0
 10
12.69901468
 20
9.4900493159
 30
0.0
 10
12.7021524066
 20
9.4643988824
 30
0.0
 10
12.7037393552
 20
9.4322569093
 30
0.0
 10
12.7021682743
 20
9.4002205603
 30
0.0
 10
12.6990239096
 20
9.3749181556
 30
0.0
 10
12.695732558
 20
9.3561721686
 30
0.0
 10
12.6915142076
 20
9.3376749761
 30
0.0
 10
12.6863801287
 20
9.3194702095
 30
0.0
 10
12.6803402446
 20
9.3016025705
 30
0.0
 10
12.6734096947
 20
9.2841150515
 30
0.0
 10
12.6656069581
 20
9.2670490186
 30
0.0
 10
12.6569489903
 20
9.250446386
 30
0.0
 10
12.647456112
 20
9.2343476039
 30
0.0
 10
12.6371534891
 20
9.2187903167
 30
0.0
 10
12.6260643903
 20
9.203812176
 30
0.0
 10
12.6102727938
 20
9.1846732242
 30
0.0
 10
12.5886886969
 20
9.1623503786
 30
0.0
 10
12.5648715401
 20
9.1424214773
 30
0.0
 10
12.5446399646
 20
9.128035063
 30
0.0
 10
12.5288929149
 20
9.1180381414
 30
0.0
 10
12.5126212499
 20
9.1088640812
 30
0.0
 10
12.4958640895
 20
9.1005334392
 30
0.0
 10
12.4786607896
 20
9.093068748
 30
0.0
 10
12.4610534951
 20
9.0864873449
 30
0.0
 10
12.443085796
 20
9.0808030952
 30
0.0
 10
12.4248005766
 20
9.0760313057
 30
0.0
 10
12.4062410488
 20
9.0721841513
 30
0.0
 10
12.3874510003
 20
9.0692687954
 30
0.0
 10
12.3684731002
 20
9.0672937767
 30
0.0
 10
12.3429534003
 20
9.0659206127
 30
0.0
 10
12.3237241095
 20
9.0663135733
 30
0.0
 10
12.3109418892
 20
9.0672000233
 30
0.0
  0
SPLINE
  5
3B6
100
AcDbEntity
  8
0
100
AcDbSpline
 62
7
  6
CONTINUOUS
 70
0
 71
3
 72
49
 73
45
 74
0
 42
0.0000001
 43
0.0000001
 44
0.0000000001
 40
0.0
 40
0.0
 40
0.0
 40
0.0
 40
0.0310512685
 40
0.0466424677
 40
0.0622705817
 40
0.0779317675
 40
0.0936244438
 40
0.1093483604
 40
0.1251031387
 40
0.1566985524
 40
0.1884040431
 40
0.2042950787
 40
0.2202074413
 40
0.2520837353
 40
0.268047522
 40
0.2840240677
 40
0.3160020256
 40
0.348002293
 40
0.3800053142
 40
0.4119913939
 40
0.4439411763
 40
0.4758360053
 40
0.5076579401
 40
0.5393906551
 40
0.5552208598
 40
0.5710232645
 40
0.602534295
 40
0.618244413
 40
0.6339211986
 40
0.6651666686
 40
0.6807381928
 40
0.6962732786
 40
0.7272285437
 40
0.75803617
 40
0.7733874454
 40
0.7887028563
 40
0.8192241294
 40
0.8496121516
 40
0.8798773475
 40
0.9100322327
 40
0.9400919841
 40
0.9550938288
 40
0.9700783513
 40
1.0
 40
1.0
 40
1.0
 40
1.0
 10
12.3192240918
 20
9.8904414629
 30
0.0
 10
12.3289660824
 20
9.8897658535
 30
0.0
 10
12.3435709414
 20
9.8882455814
 30
0.0
 10
12.362923634
 20
9.8852310779
 30
0.0
 10
12.3774095847
 20
9.8824706162
 30
0.0
 10
12.3918249867
 20
9.879216142
 30
0.0
 10
12.4061521778
 20
9.8754719335
 30
0.0
 10
12.4203747284
 20
9.8712432094
 30
0.0
 10
12.4391930188
 20
9.8649604336
 30
0.0
 10
12.4623728114
 20
9.8559162053
 30
0.0
 10
12.4849469935
 20
9.8453513551
 30
0.0
 10
12.5026039719
 20
9.8360089268
 30
0.0
 10
12.5199929763
 20
9.8260687192
 30
0.0
 10
12.536907785
 20
9.8152729419
 30
0.0
 10
12.5532847669
 20
9.8036667276
 30
0.0
 10
12.56930362
 20
9.791517496
 30
0.0
 10
12.5885941631
 20
9.7753588045
 30
0.0
 10
12.6104553416
 20
9.754514706
 30
0.0
 10
12.6309317814
 20
9.7323045462
 30
0.0
 10
12.6499298904
 20
9.7088379211
 30
0.0
 10
12.6673549933
 20
9.6842223319
 30
0.0
 10
12.6831291844
 20
9.6585778378
 30
0.0
 10
12.6971727354
 20
9.6320239022
 30
0.0
 10
12.7073902504
 20
9.6092233367
 30
0.0
 10
12.7146351865
 20
9.5906556229
 30
0.0
 10
12.7212406214
 20
9.5719251903
 30
0.0
 10
12.7269046815
 20
9.5529132799
 30
0.0
 10
12.7315987752
 20
9.5336942699
 30
0.0
 10
12.7356293377
 20
9.5144106181
 30
0.0
 10
12.7386802112
 20
9.4949770933
 30
0.0
 10
12.7407329511
 20
9.4754725255
 30
0.0
 10
12.7421131127
 20
9.4560000085
 30
0.0
 10
12.742586867
 20
9.4316747577
 30
0.0
 10
12.7413844719
 20
9.4074319545
 30
0.0
 10
12.7394150945
 20
9.3881957904
 30
0.0
 10
12.7367858388
 20
9.3691297312
 30
0.0
 10
12.7322609039
 20
9.3455664287
 30
0.0
 10
12.7248584881
 20
9.3178401215
 30
0.0
 10
12.7155298305
 20
9.2908218604
 30
0.0
 10
12.7043144643
 20
9.2646435915
 30
0.0
 10
12.6934344795
 20
9.2436135896
 30
0.0
 10
12.6838481266
 20
9.2273392581
 30
0.0
 10
12.6736948982
 20
9.2114649394
 30
0.0
 10
12.6654325665
 20
9.199990758
 30
0.0
 10
12.6596560377
 20
9.1925622786
 30
0.0
  0
SPLINE
  5
3B7
100
AcDbEntity
  8
0
100
AcDbSpline
 62
7
  6
CONTINUOUS
 70
0
 71
3
 72
65
 73
61
 74
0
 42
0.0000001
 43
0.0000001
 44
0.0000000001
 40
0.0
 40
0.0
 40
0.0
 40
0.0
 40
0.0313882588
 40
0.0471732187
 40
0.0630053541
 40
0.0788820657
 40
0.094802588
 40
0.1107657685
 40
0.1267688676
 40
0.1428076951
 40
0.1588778299
 40
0.1749749546
 40
0.1910946491
 40
0.2072323036
 40
0.2233832599
 40
0.2395425556
 40
0.2557050661
 40
0.2718657829
 40
0.2880197405
 40
0.304161898
 40
0.3202873905
 40
0.336391601
 40
0.3524699397
 40
0.3685180409
 40
0.3845319796
 40
0.4005080131
 40
0.4164426532
 40
0.4323329685
 40
0.4481763871
 40
0.4639706168
 40
0.4797139657
 40
0.5110343807
 40
0.5421425547
 40
0.557622889
 40
0.5730523411
 40
0.5884328283
 40
0.6037665858
 40
0.6190562778
 40
0.6343052204
 40
0.6495170235
 40
0.664695599
 40
0.6798453913
 40
0.6949710698
 40
0.7100774509
 40
0.7251697194
 40
0.7553226824
 40
0.7854832896
 40
0.8005849703
 40
0.8157043408
 40
0.8308465102
 40
0.846016234
 40
0.8612180829
 40
0.8764560644
 40
0.8917333659
 40
0.9070528451
 40
0.9224179581
 40
0.9378327418
 40
0.9533009207
 40
0.9688234761
 40
1.0
 40
1.0
 40
1.0
 40
1.0
 10
12.3109418892
 20
9.0672000233
 30
0.0
 10
12.2980728585
 20
9.0680924936
 30
0.0
 10
12.278781423
 20
9.0703867135
 30
0.0
 10
12.2533487828
 20
9.0752868691
 30
0.0
 10
12.234373531
 20
9.0798965691
 30
0.0
 10
12.2155868378
 20
9.085420099
 30
0.0
 10
12.1970311154
 20
9.091843011
 30
0.0
 10
12.178750335
 20
9.0991519207
 30
0.0
 10
12.1607875224
 20
9.1073286252
 30
0.0
 10
12.1431853458
 20
9.1163519079
 30
0.0
 10
12.1259874734
 20
9.1262017584
 30
0.0
 10
12.1092359813
 20
9.1368549231
 30
0.0
 10
12.0929698435
 20
9.1482836473
 30
0.0
 10
12.0772286474
 20
9.1604614319
 30
0.0
 10
12.0620512639
 20
9.1733601759
 30
0.0
 10
12.0474725845
 20
9.1869468621
 30
0.0
 10
12.0335278999
 20
9.2011891591
 30
0.0
 10
12.0202525621
 20
9.2160543975
 30
0.0
 10
12.0076768081
 20
9.2315051493
 30
0.0
 10
11.9958305167
 20
9.2475040866
 30
0.0
 10
11.984744304
 20
9.2640142132
 30
0.0
 10
11.9744435541
 20
9.2809947889
 30
0.0
 10
11.9649520177
 20
9.2984044364
 30
0.0
 10
11.9562946536
 20
9.3162024083
 30
0.0
 10
11.9484918536
 20
9.3343455041
 30
0.0
 10
11.9415606618
 20
9.352789381
 30
0.0
 10
11.9355195266
 20
9.3714903555
 30
0.0
 10
11.9303836396
 20
9.3904035217
 30
0.0
 10
11.926163071
 20
9.4094825824
 30
0.0
 10
11.9228690983
 20
9.4286825481
 30
0.0
 10
11.9197313718
 20
9.4543329816
 30
0.0
 10
11.9181444232
 20
9.4864749547
 30
0.0
 10
11.919715504
 20
9.5185113037
 30
0.0
 10
11.9228598687
 20
9.5438137084
 30
0.0
 10
11.9261512204
 20
9.5625596954
 30
0.0
 10
11.9303695708
 20
9.5810568879
 30
0.0
 10
11.9355036496
 20
9.5992616545
 30
0.0
 10
11.9415435337
 20
9.6171292935
 30
0.0
 10
11.9484740836
 20
9.6346168125
 30
0.0
 10
11.9562768202
 20
9.6516828454
 30
0.0
 10
11.9649347881
 20
9.668285478
 30
0.0
 10
11.9744276664
 20
9.6843842601
 30
0.0
 10
11.9847302893
 20
9.6999415473
 30
0.0
 10
11.995819388
 20
9.714919688
 30
0.0
 10
12.0116109846
 20
9.7340586398
 30
0.0
 10
12.0331950815
 20
9.7563814854
 30
0.0
 10
12.0570122382
 20
9.7763103867
 30
0.0
 10
12.0772438137
 20
9.790696801
 30
0.0
 10
12.0929908635
 20
9.8006937226
 30
0.0
 10
12.1092625285
 20
9.8098677828
 30
0.0
 10
12.1260196889
 20
9.8181984248
 30
0.0
 10
12.1432229888
 20
9.825663116
 30
0.0
 10
12.1608302833
 20
9.8322445191
 30
0.0
 10
12.1787979823
 20
9.8379287688
 30
0.0
 10
12.1970832018
 20
9.8427005583
 30
0.0
 10
12.2156427295
 20
9.8465477127
 30
0.0
 10
12.234432778
 20
9.8494630686
 30
0.0
 10
12.2534106781
 20
9.8514380873
 30
0.0
 10
12.278930378
 20
9.8528112513
 30
0.0
 10
12.2981596688
 20
9.8524182907
 30
0.0
 10
12.3109418892
 20
9.8515318407
 30
0.0
  0
SPLINE
  5
3B8
100
AcDbEntity
  8
0
100
AcDbSpline
 62
7
  6
CONTINUOUS
 70
0
 71
3
 72
12
 73
8
 74
0
 42
0.0000001
 43
0.0000001
 44
0.0000000001
 40
0.0
 40
0.0
 40
0.0
 40
0.0
 40
0.2472754715
 40
0.4961827311
 40
0.6214231321
 40
0.7471940149
 40
1.0
 40
1.0
 40
1.0
 40
1.0
 10
12.4304111782
 20
9.4104617006
 30
0.0
 10
12.4261800809
 20
9.4086020275
 30
0.0
 10
12.4174490007
 20
9.4053952257
 30
0.0
 10
12.4061087013
 20
9.4027513956
 30
0.0
 10
12.3968492978
 20
9.4014599578
 30
0.0
 10
12.387457496
 20
9.40072189
 30
0.0
 10
12.3803603938
 20
9.4007982458
 30
0.0
 10
12.3756465971
 20
9.4011251487
 30
0.0
  0
SPLINE
  5
3B9
100
AcDbEntity
  8
0
100
AcDbSpline
 62
7
  6
CONTINUOUS
 70
0
 71
3
 72
28
 73
24
 74
0
 42
0.0000001
 43
0.0000001
 44
0.0000000001
 40
0.0
 40
0.0
 40
0.0
 40
0.0
 40
0.030702984
 40
0.0615039681
 40
0.1233730223
 40
0.1544495732
 40
0.1856094776
 40
0.248141964
 40
0.3109340013
 40
0.3739268741
 40
0.4370534969
 40
0.5002428236
 40
0.5634238707
 40
0.594996227
 40
0.6265397992
 40
0.6894884492
 40
0.7208905464
 40
0.7522284031
 40
0.8146789709
 40
0.8768308772
 40
0.9077920705
 40
0.9386536859
 40
1.0
 40
1.0
 40
1.0
 40
1.0
 10
12.3218468787
 20
9.5875787152
 30
0.0
 10
12.3219587867
 20
9.5856697881
 30
0.0
 10
12.3222727755
 20
9.5818503947
 30
0.0
 10
12.3232595155
 20
9.5742282611
 30
0.0
 10
12.3247795865
 20
9.5666593472
 30
0.0
 10
12.326816162
 20
9.5592009397
 30
0.0
 10
12.3292031953
 20
9.5518034322
 30
0.0
 10
12.3328245405
 20
9.5427398829
 30
0.0
 10
12.3381383405
 20
9.5322670386
 30
0.0
 10
12.3443838331
 20
9.5222776916
 30
0.0
 10
12.35149989
 20
9.5128577237
 30
0.0
 10
12.3594276637
 20
9.5040946277
 30
0.0
 10
12.3666524189
 20
9.4973985855
 30
0.0
 10
12.3727646602
 20
9.492443968
 30
0.0
 10
12.3790786881
 20
9.4877739219
 30
0.0
 10
12.3856878779
 20
9.4835326174
 30
0.0
 10
12.3925452534
 20
9.4797528925
 30
0.0
 10
12.3995375642
 20
9.4762979784
 30
0.0
 10
12.4085271403
 20
9.4725854522
 30
0.0
 10
12.4177940324
 20
9.4697093375
 30
0.0
 10
12.4253111819
 20
9.4679347767
 30
0.0
 10
12.432851962
 20
9.4665168812
 30
0.0
 10
12.4385666323
 20
9.4658472345
 30
0.0
 10
12.4423781712
 20
9.4655829034
 30
0.0
  0
SPLINE
  5
3BA
100
AcDbEntity
  8
0
100
AcDbSpline
 62
7
  6
CONTINUOUS
 70
0
 71
3
 72
51
 73
47
 74
0
 42
0.0000001
 43
0.0000001
 44
0.0000000001
 40
0.0
 40
0.0
 40
0.0
 40
0.0
 40
0.0379402143
 40
0.0762765216
 40
0.1149213651
 40
0.1537869281
 40
0.1927843647
 40
0.2318246127
 40
0.2708184237
 40
0.3096767055
 40
0.3483107521
 40
0.3866325121
 40
0.4245548468
 40
0.4619917925
 40
0.4988588253
 40
0.5350731293
 40
0.5705538698
 40
0.6052224737
 40
0.6390029196
 40
0.6718220415
 40
0.7036098508
 40
0.7342998839
 40
0.7492137249
 40
0.7638300138
 40
0.7781415965
 40
0.7921416481
 40
0.8058236472
 40
0.8191814126
 40
0.8322091338
 40
0.8449013568
 40
0.8572530762
 40
0.8692596712
 40
0.8809170577
 40
0.8922215856
 40
0.903170241
 40
0.9137605253
 40
0.923990692
 40
0.933859636
 40
0.943367146
 40
0.9525138384
 40
0.9613014092
 40
0.9697326452
 40
0.9778116709
 40
0.9855440637
 40
0.9929371011
 40
1.0
 40
1.0
 40
1.0
 40
1.0
 10
13.8623229717
 20
7.7733103745
 30
0.0
 10
13.8623229717
 20
7.7904253729
 30
0.0
 10
13.8625518242
 20
7.8248344501
 30
0.0
 10
13.8635661041
 20
7.8766674019
 30
0.0
 10
13.8652510232
 20
7.9289005984
 30
0.0
 10
13.8676024719
 20
7.9814065252
 30
0.0
 10
13.8706147594
 20
8.0340573418
 30
0.0
 10
13.8742805405
 20
8.0867246856
 30
0.0
 10
13.8785908873
 20
8.1392802205
 30
0.0
 10
13.8835352834
 20
8.1915958605
 30
0.0
 10
13.8891016625
 20
8.2435441149
 30
0.0
 10
13.8952764316
 20
8.2949983904
 30
0.0
 10
13.9020445067
 20
8.3458333044
 30
0.0
 10
13.9093893478
 20
8.3959249919
 30
0.0
 10
13.9172929994
 20
8.4451514095
 30
0.0
 10
13.9257361333
 20
8.4933926364
 30
0.0
 10
13.934698095
 20
8.5405311683
 30
0.0
 10
13.944156953
 20
8.5864522137
 30
0.0
 10
13.9540895533
 20
8.6310439594
 30
0.0
 10
13.9644715685
 20
8.6741979212
 30
0.0
 10
13.9752775798
 20
8.7158089642
 30
0.0
 10
13.9847013289
 20
8.7494274323
 30
0.0
 10
13.9924429157
 20
8.7754670262
 30
0.0
 10
13.9982831024
 20
8.7943626813
 30
0.0
 10
14.0042090611
 20
8.8127991026
 30
0.0
 10
14.0102171802
 20
8.8307650829
 30
0.0
 10
14.0163037913
 20
8.8482496848
 30
0.0
 10
14.0224651903
 20
8.8652422695
 30
0.0
 10
14.028697592
 20
8.8817325061
 30
0.0
 10
14.0349972335
 20
8.8977103613
 30
0.0
 10
14.0413602171
 20
8.9131661365
 30
0.0
 10
14.0477827319
 20
8.9280904298
 30
0.0
 10
14.0542607816
 20
8.9424742017
 30
0.0
 10
14.0607905138
 20
8.9563087057
 30
0.0
 10
14.0673678544
 20
8.9695855873
 30
0.0
 10
14.0739889128
 20
8.9822967802
 30
0.0
 10
14.0806495647
 20
8.9944346368
 30
0.0
 10
14.0873458842
 20
9.005991797
 30
0.0
 10
14.0940737313
 20
9.016961338
 30
0.0
 10
14.1008291521
 20
9.027336632
 30
0.0
 10
14.1076080295
 20
9.037111491
 30
0.0
 10
14.1144064039
 20
9.0462800467
 30
0.0
 10
14.1212202115
 20
9.0548368305
 30
0.0
 10
14.1280455773
 20
9.0627768021
 30
0.0
 10
14.1348783399
 20
9.0700949911
 30
0.0
 10
14.1395404463
 20
9.0746587283
 30
0.0
 10
14.141872728
 20
9.0768293795
 30
0.0
  0
SPLINE
  5
3BB
100
AcDbEntity
  8
0
100
AcDbSpline
 62
7
  6
CONTINUOUS
 70
0
 71
3
 72
23
 73
19
 74
0
 42
0.0000001
 43
0.0000001
 44
0.0000000001
 40
0.0
 40
0.0
 40
0.0
 40
0.0
 40
0.0637764154
 40
0.1273451281
 40
0.190701988
 40
0.253856063
 40
0.3168132283
 40
0.3795820791
 40
0.4421733864
 40
0.5045993414
 40
0.5668738629
 40
0.629012379
 40
0.6910316532
 40
0.7529496461
 40
0.8147853522
 40
0.8765586034
 40
0.9382898574
 40
1.0
 40
1.0
 40
1.0
 40
1.0
 10
12.9357894285
 20
5.7904958761
 30
0.0
 10
12.9357894285
 20
5.7842318707
 30
0.0
 10
12.9354895745
 20
5.7717221387
 30
0.0
 10
12.9341363633
 20
5.7530336701
 30
0.0
 10
12.93188318
 20
5.7344932911
 30
0.0
 10
12.9287354523
 20
5.7161446536
 30
0.0
 10
12.9247002266
 20
5.6980296192
 30
0.0
 10
12.9197868378
 20
5.6801900652
 30
0.0
 10
12.9140065883
 20
5.6626671033
 30
0.0
 10
12.9073726804
 20
5.6455011597
 30
0.0
 10
12.8999004342
 20
5.6287318113
 30
0.0
 10
12.8916070691
 20
5.6123977213
 30
0.0
 10
12.88251164
 20
5.5965365914
 30
0.0
 10
12.8726350729
 20
5.58118502
 30
0.0
 10
12.8620002148
 20
5.5663784216
 30
0.0
 10
12.8506314503
 20
5.5521508384
 30
0.0
 10
12.8385553933
 20
5.5385355802
 30
0.0
 10
12.8300501369
 20
5.5298862936
 30
0.0
 10
12.8256906925
 20
5.5256753923
 30
0.0
  0
SPLINE
  5
3BC
100
AcDbEntity
  8
0
100
AcDbSpline
 62
7
  6
CONTINUOUS
 70
0
 71
3
 72
23
 73
19
 74
0
 42
0.0000001
 43
0.0000001
 44
0.0000000001
 40
0.0
 40
0.0
 40
0.0
 40
0.0
 40
0.0637764154
 40
0.1273451281
 40
0.190701988
 40
0.253856063
 40
0.3168132283
 40
0.3795820791
 40
0.4421733864
 40
0.5045993414
 40
0.5668738629
 40
0.629012379
 40
0.6910316532
 40
0.7529496461
 40
0.8147853522
 40
0.8765586034
 40
0.9382898574
 40
1.0
 40
1.0
 40
1.0
 40
1.0
 10
9.0720858944
 20
6.0584446263
 30
0.0
 10
9.0720858944
 20
6.0521806209
 30
0.0
 10
9.0717860404
 20
6.0396708888
 30
0.0
 10
9.0704328293
 20
6.0209824203
 30
0.0
 10
9.0681796459
 20
6.0024420412
 30
0.0
 10
9.0650319182
 20
5.9840934038
 30
0.0
 10
9.0609966925
 20
5.9659783693
 30
0.0
 10
9.0560833038
 20
5.9481388154
 30
0.0
 10
9.0503030542
 20
5.9306158535
 30
0.0
 10
9.0436691463
 20
5.9134499098
 30
0.0
 10
9.0361969001
 20
5.8966805615
 30
0.0
 10
9.027903535
 20
5.8803464715
 30
0.0
 10
9.0188081059
 20
5.8644853416
 30
0.0
 10
9.0089315388
 20
5.8491337701
 30
0.0
 10
8.9982966807
 20
5.8343271718
 30
0.0
 10
8.9869279162
 20
5.8200995886
 30
0.0
 10
8.9748518593
 20
5.8064843304
 30
0.0
 10
8.9663466028
 20
5.7978350437
 30
0.0
 10
8.9619871584
 20
5.7936241425
 30
0.0
  0
SPLINE
  5
3BD
100
AcDbEntity
  8
0
100
AcDbSpline
 62
7
  6
CONTINUOUS
 70
0
 71
3
 72
24
 73
20
 74
0
 42
0.0000001
 43
0.0000001
 44
0.0000000001
 40
0.0
 40
0.0
 40
0.0
 40
0.0
 40
0.0637764416
 40
0.1273443685
 40
0.190701004
 40
0.2538548276
 40
0.3168116139
 40
0.3795801666
 40
0.4421711529
 40
0.504596791
 40
0.5668710034
 40
0.6290092011
 40
0.6910281569
 40
0.7220010165
 40
0.7529508932
 40
0.8147862903
 40
0.8765592252
 40
0.938290164
 40
1.0
 40
1.0
 40
1.0
 40
1.0
 10
12.7580590659
 20
9.419247986
 30
0.0
 10
12.7580590659
 20
9.4119656442
 30
0.0
 10
12.7577104826
 20
9.397422303
 30
0.0
 10
12.7561372639
 20
9.3756957814
 30
0.0
 10
12.7535177904
 20
9.3541414553
 30
0.0
 10
12.7498583728
 20
9.3328099906
 30
0.0
 10
12.7451671599
 20
9.3117501167
 30
0.0
 10
12.739455017
 20
9.2910105193
 30
0.0
 10
12.7327350818
 20
9.2706389737
 30
0.0
 10
12.7250227818
 20
9.2506824823
 30
0.0
 10
12.7163357771
 20
9.2311870115
 30
0.0
 10
12.7066942852
 20
9.2121978084
 30
0.0
 10
12.6978784053
 20
9.1968242309
 30
0.0
 10
12.6903727298
 20
9.1848245991
 30
0.0
 10
12.6825746059
 20
9.173038053
 30
0.0
 10
12.6722742432
 20
9.1586971929
 30
0.0
 10
12.6590574076
 20
9.1421569462
 30
0.0
 10
12.6450182072
 20
9.1263282914
 30
0.0
 10
12.6351303169
 20
9.1162729585
 30
0.0
 10
12.6300621841
 20
9.1113775222
 30
0.0
  0
SPLINE
  5
3BE
100
AcDbEntity
  8
0
100
AcDbSpline
 62
7
  6
CONTINUOUS
 70
0
 71
3
 72
24
 73
20
 74
0
 42
0.0000001
 43
0.0000001
 44
0.0000000001
 40
0.0
 40
0.0
 40
0.0
 40
0.0
 40
0.0637764416
 40
0.1273443685
 40
0.190701004
 40
0.2538548276
 40
0.3168116139
 40
0.3795801666
 40
0.4421711529
 40
0.504596791
 40
0.5668710034
 40
0.6290092011
 40
0.6910281569
 40
0.7220010165
 40
0.7529508932
 40
0.8147862903
 40
0.8765592252
 40
0.938290164
 40
1.0
 40
1.0
 40
1.0
 40
1.0
 10
11.1893953611
 20
9.5280351834
 30
0.0
 10
11.1893953611
 20
9.5207528416
 30
0.0
 10
11.1890467777
 20
9.5062095004
 30
0.0
 10
11.187473559
 20
9.4844829788
 30
0.0
 10
11.1848540856
 20
9.4629286527
 30
0.0
 10
11.1811946679
 20
9.441597188
 30
0.0
 10
11.1765034551
 20
9.4205373141
 30
0.0
 10
11.1707913121
 20
9.3997977168
 30
0.0
 10
11.1640713769
 20
9.3794261712
 30
0.0
 10
11.156359077
 20
9.3594696797
 30
0.0
 10
11.1476720722
 20
9.3399742089
 30
0.0
 10
11.1380305804
 20
9.3209850058
 30
0.0
 10
11.1292147004
 20
9.3056114283
 30
0.0
 10
11.1217090249
 20
9.2936117965
 30
0.0
 10
11.1139109011
 20
9.2818252504
 30
0.0
 10
11.1036105384
 20
9.2674843903
 30
0.0
 10
11.0903937028
 20
9.2509441436
 30
0.0
 10
11.0763545024
 20
9.2351154888
 30
0.0
 10
11.0664666121
 20
9.2250601559
 30
0.0
 10
11.0613984792
 20
9.2201647196
 30
0.0
  0
SPLINE
  5
3BF
100
AcDbEntity
  8
0
100
AcDbSpline
 62
7
  6
CONTINUOUS
 70
0
 71
3
 72
24
 73
20
 74
0
 42
0.0000001
 43
0.0000001
 44
0.0000000001
 40
0.0
 40
0.0
 40
0.0
 40
0.0
 40
0.0637764416
 40
0.1273443685
 40
0.190701004
 40
0.2538548276
 40
0.3168116139
 40
0.3795801666
 40
0.4421711529
 40
0.504596791
 40
0.5668710034
 40
0.6290092011
 40
0.6910281569
 40
0.7220010165
 40
0.7529508932
 40
0.8147862903
 40
0.8765592252
 40
0.938290164
 40
1.0
 40
1.0
 40
1.0
 40
1.0
 10
9.0141304114
 20
9.67889032
 30
0.0
 10
9.0141304114
 20
9.6716079783
 30
0.0
 10
9.013781828
 20
9.657064637
 30
0.0
 10
9.0122086093
 20
9.6353381154
 30
0.0
 10
9.0095891359
 20
9.6137837893
 30
0.0
 10
9.0059297183
 20
9.5924523247
 30
0.0
 10
9.0012385054
 20
9.5713924507
 30
0.0
 10
8.9955263624
 20
9.5506528534
 30
0.0
 10
8.9888064272
 20
9.5302813078
 30
0.0
 10
8.9810941273
 20
9.5103248164
 30
0.0
 10
8.9724071225
 20
9.4908293456
 30
0.0
 10
8.9627656307
 20
9.4718401425
 30
0.0
 10
8.9539497508
 20
9.4564665649
 30
0.0
 10
8.9464440752
 20
9.4444669332
 30
0.0
 10
8.9386459514
 20
9.4326803871
 30
0.0
 10
8.9283455887
 20
9.418339527
 30
0.0
 10
8.9151287531
 20
9.4017992803
 30
0.0
 10
8.9010895527
 20
9.3859706254
 30
0.0
 10
8.8912016624
 20
9.3759152925
 30
0.0
 10
8.8861335296
 20
9.3710198563
 30
0.0
  0
SPLINE
  5
3C0
100
AcDbEntity
  8
0
100
AcDbSpline
 62
7
  6
CONTINUOUS
 70
0
 71
3
 72
34
 73
30
 74
0
 42
0.0000001
 43
0.0000001
 44
0.0000000001
 40
0.0
 40
0.0
 40
0.0
 40
0.0
 40
0.0845016649
 40
0.167300573
 40
0.2480791434
 40
0.3265293286
 40
0.4023565282
 40
0.4391990168
 40
0.4752820541
 40
0.5105733745
 40
0.5450418261
 40
0.5786577026
 40
0.6113925303
 40
0.6432195413
 40
0.674113358
 40
0.7040506033
 40
0.7330095289
 40
0.7609707248
 40
0.7879167687
 40
0.8138329909
 40
0.8387072427
 40
0.8625306837
 40
0.8852977788
 40
0.907007108
 40
0.9276617117
 40
0.9472699754
 40
0.9658464587
 40
0.9834129663
 40
1.0
 40
1.0
 40
1.0
 40
1.0
 10
10.9767680457
 20
11.4908188479
 30
0.0
 10
10.9651756708
 20
11.4916227818
 30
0.0
 10
10.9422380299
 20
11.4934179111
 30
0.0
 10
10.9082807378
 20
11.4967095965
 30
0.0
 10
10.8752198847
 20
11.5005623982
 30
0.0
 10
10.843194465
 20
11.5049599948
 30
0.0
 10
10.8172385541
 20
11.5091016562
 30
0.0
 10
10.7970983791
 20
11.5126829299
 30
0.0
 10
10.7824793536
 20
11.5154671938
 30
0.0
 10
10.7682169064
 20
11.5183724892
 30
0.0
 10
10.7543259984
 20
11.521395813
 30
0.0
 10
10.7408212167
 20
11.5245339185
 30
0.0
 10
10.7277167357
 20
11.527783559
 30
0.0
 10
10.7150263001
 20
11.5311412326
 30
0.0
 10
10.7027632224
 20
11.5346034801
 30
0.0
 10
10.6909403463
 20
11.5381665601
 30
0.0
 10
10.6795700625
 20
11.5418268116
 30
0.0
 10
10.6686642536
 20
11.545580281
 30
0.0
 10
10.6582343298
 20
11.5494231146
 30
0.0
 10
10.6482911562
 20
11.5533511803
 30
0.0
 10
10.6388451042
 20
11.5573604452
 30
0.0
 10
10.6299059679
 20
11.5614466397
 30
0.0
 10
10.6214830214
 20
11.5656055763
 30
0.0
 10
10.6135849415
 20
11.5698329004
 30
0.0
 10
10.6062198444
 20
11.574124319
 30
0.0
 10
10.5993952764
 20
11.5784754502
 30
0.0
 10
10.5931180876
 20
11.5828820441
 30
0.0
 10
10.587394944
 20
11.5873395708
 30
0.0
 10
10.5838533021
 20
11.5904291891
 30
0.0
 10
10.5821835286
 20
11.5919830992
 30
0.0
  0
SPLINE
  5
3C1
100
AcDbEntity
  8
0
100
AcDbSpline
 62
7
  6
CONTINUOUS
 70
0
 71
3
 72
34
 73
30
 74
0
 42
0.0000001
 43
0.0000001
 44
0.0000000001
 40
0.0
 40
0.0
 40
0.0
 40
0.0
 40
0.0845016649
 40
0.167300573
 40
0.2480791434
 40
0.3265293286
 40
0.4023565282
 40
0.4391990168
 40
0.4752820541
 40
0.5105733745
 40
0.5450418261
 40
0.5786577026
 40
0.6113925303
 40
0.6432195413
 40
0.674113358
 40
0.7040506033
 40
0.7330095289
 40
0.7609707248
 40
0.7879167687
 40
0.8138329909
 40
0.8387072427
 40
0.8625306837
 40
0.8852977788
 40
0.907007108
 40
0.9276617117
 40
0.9472699754
 40
0.9658464587
 40
0.9834129663
 40
1.0
 40
1.0
 40
1.0
 40
1.0
 10
8.801503096
 20
11.6416739845
 30
0.0
 10
8.7899107211
 20
11.6424779185
 30
0.0
 10
8.7669730802
 20
11.6442730478
 30
0.0
 10
8.7330157882
 20
11.6475647332
 30
0.0
 10
8.699954935
 20
11.6514175348
 30
0.0
 10
8.6679295153
 20
11.6558151314
 30
0.0
 10
8.6419736044
 20
11.6599567928
 30
0.0
 10
8.6218334294
 20
11.6635380666
 30
0.0
 10
8.6072144039
 20
11.6663223304
 30
0.0
 10
8.5929519568
 20
11.6692276258
 30
0.0
 10
8.5790610488
 20
11.6722509497
 30
0.0
 10
8.5655562671
 20
11.6753890551
 30
0.0
 10
8.552451786
 20
11.6786386957
 30
0.0
 10
8.5397613504
 20
11.6819963692
 30
0.0
 10
8.5274982727
 20
11.6854586167
 30
0.0
 10
8.5156753967
 20
11.6890216967
 30
0.0
 10
8.5043051128
 20
11.6926819482
 30
0.0
 10
8.4933993039
 20
11.6964354177
 30
0.0
 10
8.4829693801
 20
11.7002782512
 30
0.0
 10
8.4730262065
 20
11.7042063169
 30
0.0
 10
8.4635801545
 20
11.7082155818
 30
0.0
 10
8.4546410182
 20
11.7123017764
 30
0.0
 10
8.4462180717
 20
11.716460713
 30
0.0
 10
8.4383199919
 20
11.720688037
 30
0.0
 10
8.4309548948
 20
11.7249794556
 30
0.0
 10
8.4241303267
 20
11.7293305868
 30
0.0
 10
8.4178531379
 20
11.7337371807
 30
0.0
 10
8.4121299943
 20
11.7381947075
 30
0.0
 10
8.4085883525
 20
11.7412843258
 30
0.0
 10
8.406918579
 20
11.7428382359
 30
0.0
  0
SPLINE
  5
3C2
100
AcDbEntity
  8
0
100
AcDbSpline
 62
7
  6
CONTINUOUS
 70
0
 71
3
 72
48
 73
44
 74
0
 42
0.0000001
 43
0.0000001
 44
0.0000000001
 40
0.0
 40
0.0
 40
0.0
 40
0.0
 40
0.0072739709
 40
0.0148704982
 40
0.0227980075
 40
0.0310632859
 40
0.039671503
 40
0.0486264503
 40
0.057930809
 40
0.0675860502
 40
0.0775928145
 40
0.0879508312
 40
0.0986590304
 40
0.1097157541
 40
0.1211185696
 40
0.1328645785
 40
0.1449503108
 40
0.15737176
 40
0.1701245782
 40
0.1832038596
 40
0.2103200335
 40
0.238674716
 40
0.2682164455
 40
0.2988890874
 40
0.3306322931
 40
0.3633819037
 40
0.3970703544
 40
0.4316270114
 40
0.4669784774
 40
0.5030488661
 40
0.5397600858
 40
0.5770321295
 40
0.6147833334
 40
0.6529306279
 40
0.6913897816
 40
0.7300756594
 40
0.7689024931
 40
0.8077840853
 40
0.846634092
 40
0.8853663969
 40
0.9238944839
 40
0.9621346801
 40
1.0
 40
1.0
 40
1.0
 40
1.0
 10
9.4859637598
 20
11.742837368
 30
0.0
 10
9.4847165795
 20
11.7416767419
 30
0.0
 10
9.4821095674
 20
11.7393650506
 30
0.0
 10
9.4779642645
 20
11.7359970582
 30
0.0
 10
9.4735032652
 20
11.7326564204
 30
0.0
 10
9.4687292403
 20
11.7293452055
 30
0.0
 10
9.463644958
 20
11.7260652431
 30
0.0
 10
9.4582534083
 20
11.7228183995
 30
0.0
 10
9.4525577077
 20
11.7196066341
 30
0.0
 10
9.4465612351
 20
11.7164317366
 30
0.0
 10
9.4402674867
 20
11.7132956333
 30
0.0
 10
9.4336801754
 20
11.7102001583
 30
0.0
 10
9.4268031946
 20
11.7071471038
 30
0.0
 10
9.4196405831
 20
11.7041383512
 30
0.0
 10
9.4121965972
 20
11.7011756096
 30
0.0
 10
9.4044756289
 20
11.6982606877
 30
0.0
 10
9.396482253
 20
11.6953953148
 30
0.0
 10
9.3882212165
 20
11.6925811603
 30
0.0
 10
9.379697396
 20
11.6898199481
 30
0.0
 10
9.3678459093
 20
11.6861671078
 30
0.0
 10
9.3524065103
 20
11.6817548178
 30
0.0
 10
9.3331305862
 20
11.6767580354
 30
0.0
 10
9.3129354213
 20
11.6720095965
 30
0.0
 10
9.2918689865
 20
11.6675208768
 30
0.0
 10
9.2699812081
 20
11.6633026482
 30
0.0
 10
9.2473240565
 20
11.6593650123
 30
0.0
 10
9.2239513439
 20
11.655717405
 30
0.0
 10
9.1999186027
 20
11.6523685665
 30
0.0
 10
9.1752829494
 20
11.6493265253
 30
0.0
 10
9.1501029537
 20
11.6465985668
 30
0.0
 10
9.1244384943
 20
11.644191214
 30
0.0
 10
9.098350608
 20
11.6421102277
 30
0.0
 10
9.0719013417
 20
11.640360589
 30
0.0
 10
9.0451536075
 20
11.6389464923
 30
0.0
 10
9.0181710354
 20
11.6378713184
 30
0.0
 10
8.9910178155
 20
11.6371376319
 30
0.0
 10
8.9637585475
 20
11.6367471885
 30
0.0
 10
8.9364580844
 20
11.6367009235
 30
0.0
 10
8.9091813475
 20
11.6369989518
 30
0.0
 10
8.881993346
 20
11.6376405724
 30
0.0
 10
8.8549584644
 20
11.638624207
 30
0.0
 10
8.8281414223
 20
11.6399475665
 30
0.0
 10
8.8103504864
 20
11.6410604159
 30
0.0
 10
8.801503096
 20
11.6416739845
 30
0.0
  0
SPLINE
  5
3C3
100
AcDbEntity
  8
0
100
AcDbSpline
 62
7
  6
CONTINUOUS
 70
0
 71
3
 72
42
 73
38
 74
0
 42
0.0000001
 43
0.0000001
 44
0.0000000001
 40
0.0
 40
0.0
 40
0.0
 40
0.0
 40
0.0149723971
 40
0.029947854
 40
0.0449294092
 40
0.0599200692
 40
0.0749227779
 40
0.0899404136
 40
0.1200256609
 40
0.1502025864
 40
0.1804899033
 40
0.2109037105
 40
0.2414571471
 40
0.2721601282
 40
0.3030191646
 40
0.3340372675
 40
0.3652139349
 40
0.3965452155
 40
0.4280238444
 40
0.459639443
 40
0.4913787765
 40
0.5232260611
 40
0.5551633129
 40
0.5871707307
 40
0.6192271064
 40
0.6513102549
 40
0.683397459
 40
0.7154659208
 40
0.7474932143
 40
0.7794577337
 40
0.8113391302
 40
0.8431187274
 40
0.8747799267
 40
0.906308519
 40
0.9376931951
 40
0.9689252215
 40
1.0
 40
1.0
 40
1.0
 40
1.0
 10
12.2615563471
 20
6.1097099562
 30
0.0
 10
12.2649243703
 20
6.1129632177
 30
0.0
 10
12.2717912094
 20
6.1193372508
 30
0.0
 10
12.2824644741
 20
6.1284823681
 30
0.0
 10
12.2934970731
 20
6.1372002147
 30
0.0
 10
12.3048736415
 20
6.1454784397
 30
0.0
 10
12.316578778
 20
6.1533059009
 30
0.0
 10
12.3326093116
 20
6.163131629
 30
0.0
 10
12.3533992975
 20
6.1742378246
 30
0.0
 10
12.3793738283
 20
6.1855922181
 30
0.0
 10
12.4062516325
 20
6.1949223883
 30
0.0
 10
12.433883585
 20
6.202176614
 30
0.0
 10
12.4621177246
 20
6.2073154753
 30
0.0
 10
12.4907985256
 20
6.2103110109
 30
0.0
 10
12.5197681834
 20
6.2111471307
 30
0.0
 10
12.5488673675
 20
6.2098196068
 30
0.0
 10
12.5779361236
 20
6.2063360986
 30
0.0
 10
12.6068147358
 20
6.2007160882
 30
0.0
 10
12.6353445961
 20
6.1929907613
 30
0.0
 10
12.6633690631
 20
6.1832028287
 30
0.0
 10
12.6907343137
 20
6.1714062905
 30
0.0
 10
12.7172901728
 20
6.1576661258
 30
0.0
 10
12.7428909261
 20
6.1420579353
 30
0.0
 10
12.7673961085
 20
6.1246675271
 30
0.0
 10
12.7906712651
 20
6.1055904476
 30
0.0
 10
12.812588679
 20
6.0849314612
 30
0.0
 10
12.8330280652
 20
6.0628039802
 30
0.0
 10
12.8518772222
 20
6.0393294485
 30
0.0
 10
12.8690326435
 20
6.0146366827
 30
0.0
 10
12.8844000886
 20
5.9888611787
 30
0.0
 10
12.897895086
 20
5.9621443643
 30
0.0
 10
12.9094434044
 20
5.9346328521
 30
0.0
 10
12.9189814302
 20
5.9064775824
 30
0.0
 10
12.9264565964
 20
5.8778332291
 30
0.0
 10
12.931827488
 20
5.8488565424
 30
0.0
 10
12.9350644351
 20
5.8197087026
 30
0.0
 10
12.9357894285
 20
5.8002145988
 30
0.0
 10
12.9357894285
 20
5.7904958761
 30
0.0
  0
SPLINE
  5
3C4
100
AcDbEntity
  8
0
100
AcDbSpline
 62
7
  6
CONTINUOUS
 70
0
 71
3
 72
42
 73
38
 74
0
 42
0.0000001
 43
0.0000001
 44
0.0000000001
 40
0.0
 40
0.0
 40
0.0
 40
0.0
 40
0.0149723971
 40
0.029947854
 40
0.0449294092
 40
0.0599200692
 40
0.0749227779
 40
0.0899404136
 40
0.1200256609
 40
0.1502025864
 40
0.1804899033
 40
0.2109037105
 40
0.2414571471
 40
0.2721601282
 40
0.3030191646
 40
0.3340372675
 40
0.3652139349
 40
0.3965452155
 40
0.4280238444
 40
0.459639443
 40
0.4913787765
 40
0.5232260611
 40
0.5551633129
 40
0.5871707307
 40
0.6192271064
 40
0.6513102549
 40
0.683397459
 40
0.7154659208
 40
0.7474932143
 40
0.7794577337
 40
0.8113391302
 40
0.8431187274
 40
0.8747799267
 40
0.906308519
 40
0.9376931951
 40
0.9689252215
 40
1.0
 40
1.0
 40
1.0
 40
1.0
 10
8.397852813
 20
6.3776587064
 30
0.0
 10
8.4012208362
 20
6.3809119679
 30
0.0
 10
8.4080876753
 20
6.387286001
 30
0.0
 10
8.41876094
 20
6.3964311182
 30
0.0
 10
8.429793539
 20
6.4051489649
 30
0.0
 10
8.4411701074
 20
6.4134271899
 30
0.0
 10
8.452875244
 20
6.4212546511
 30
0.0
 10
8.4689057775
 20
6.4310803792
 30
0.0
 10
8.4896957634
 20
6.4421865748
 30
0.0
 10
8.5156702942
 20
6.4535409683
 30
0.0
 10
8.5425480984
 20
6.4628711384
 30
0.0
 10
8.5701800509
 20
6.4701253642
 30
0.0
 10
8.5984141905
 20
6.4752642254
 30
0.0
 10
8.6270949915
 20
6.4782597611
 30
0.0
 10
8.6560646493
 20
6.4790958808
 30
0.0
 10
8.6851638335
 20
6.477768357
 30
0.0
 10
8.7142325895
 20
6.4742848488
 30
0.0
 10
8.7431112017
 20
6.4686648384
 30
0.0
 10
8.771641062
 20
6.4609395115
 30
0.0
 10
8.799665529
 20
6.4511515789
 30
0.0
 10
8.8270307796
 20
6.4393550407
 30
0.0
 10
8.8535866387
 20
6.4256148759
 30
0.0
 10
8.879187392
 20
6.4100066855
 30
0.0
 10
8.9036925745
 20
6.3926162772
 30
0.0
 10
8.926967731
 20
6.3735391977
 30
0.0
 10
8.9488851449
 20
6.3528802113
 30
0.0
 10
8.9693245311
 20
6.3307527303
 30
0.0
 10
8.9881736881
 20
6.3072781986
 30
0.0
 10
9.0053291094
 20
6.2825854329
 30
0.0
 10
9.0206965545
 20
6.2568099289
 30
0.0
 10
9.0341915519
 20
6.2300931145
 30
0.0
 10
9.0457398703
 20
6.2025816022
 30
0.0
 10
9.0552778961
 20
6.1744263326
 30
0.0
 10
9.0627530623
 20
6.1457819792
 30
0.0
 10
9.068123954
 20
6.1168052926
 30
0.0
 10
9.071360901
 20
6.0876574528
 30
0.0
 10
9.0720858944
 20
6.068163349
 30
0.0
 10
9.0720858944
 20
6.0584446263
 30
0.0
  0
SPLINE
  5
3C5
100
AcDbEntity
  8
0
100
AcDbSpline
 62
7
  6
CONTINUOUS
 70
0
 71
3
 72
48
 73
44
 74
0
 42
0.0000001
 43
0.0000001
 44
0.0000000001
 40
0.0
 40
0.0
 40
0.0
 40
0.0
 40
0.0072739709
 40
0.0148704982
 40
0.0227980075
 40
0.0310632859
 40
0.039671503
 40
0.0486264503
 40
0.057930809
 40
0.0675860502
 40
0.0775928145
 40
0.0879508312
 40
0.0986590304
 40
0.1097157541
 40
0.1211185696
 40
0.1328645785
 40
0.1449503108
 40
0.15737176
 40
0.1701245782
 40
0.1832038596
 40
0.2103200335
 40
0.238674716
 40
0.2682164455
 40
0.2988890874
 40
0.3306322931
 40
0.3633819037
 40
0.3970703544
 40
0.4316270114
 40
0.4669784774
 40
0.5030488661
 40
0.5397600858
 40
0.5770321295
 40
0.6147833334
 40
0.6529306279
 40
0.6913897816
 40
0.7300756594
 40
0.7689024931
 40
0.8077840853
 40
0.846634092
 40
0.8853663969
 40
0.9238944839
 40
0.9621346801
 40
1.0
 40
1.0
 40
1.0
 40
1.0
 10
11.6612287095
 20
11.5919822314
 30
0.0
 10
11.6599815292
 20
11.5908216053
 30
0.0
 10
11.6573745171
 20
11.588509914
 30
0.0
 10
11.6532292141
 20
11.5851419216
 30
0.0
 10
11.6487682149
 20
11.5818012838
 30
0.0
 10
11.6439941899
 20
11.5784900689
 30
0.0
 10
11.6389099077
 20
11.5752101064
 30
0.0
 10
11.6335183579
 20
11.5719632628
 30
0.0
 10
11.6278226574
 20
11.5687514975
 30
0.0
 10
11.6218261847
 20
11.5655765999
 30
0.0
 10
11.6155324364
 20
11.5624404966
 30
0.0
 10
11.6089451251
 20
11.5593450217
 30
0.0
 10
11.6020681443
 20
11.5562919672
 30
0.0
 10
11.5949055327
 20
11.5532832146
 30
0.0
 10
11.5874615469
 20
11.5503204729
 30
0.0
 10
11.5797405786
 20
11.5474055511
 30
0.0
 10
11.5717472027
 20
11.5445401782
 30
0.0
 10
11.5634861661
 20
11.5417260236
 30
0.0
 10
11.5549623456
 20
11.5389648115
 30
0.0
 10
11.543110859
 20
11.5353119711
 30
0.0
 10
11.5276714599
 20
11.5308996812
 30
0.0
 10
11.5083955358
 20
11.5259028988
 30
0.0
 10
11.488200371
 20
11.5211544598
 30
0.0
 10
11.4671339362
 20
11.5166657402
 30
0.0
 10
11.4452461578
 20
11.5124475116
 30
0.0
 10
11.4225890062
 20
11.5085098756
 30
0.0
 10
11.3992162936
 20
11.5048622684
 30
0.0
 10
11.3751835523
 20
11.5015134299
 30
0.0
 10
11.3505478991
 20
11.4984713886
 30
0.0
 10
11.3253679034
 20
11.4957434302
 30
0.0
 10
11.299703444
 20
11.4933360773
 30
0.0
 10
11.2736155577
 20
11.491255091
 30
0.0
 10
11.2471662914
 20
11.4895054524
 30
0.0
 10
11.2204185572
 20
11.4880913557
 30
0.0
 10
11.1934359851
 20
11.4870161818
 30
0.0
 10
11.1662827652
 20
11.4862824953
 30
0.0
 10
11.1390234972
 20
11.4858920518
 30
0.0
 10
11.1117230341
 20
11.4858457868
 30
0.0
 10
11.0844462972
 20
11.4861438152
 30
0.0
 10
11.0572582957
 20
11.4867854357
 30
0.0
 10
11.0302234141
 20
11.4877690704
 30
0.0
 10
11.003406372
 20
11.4890924299
 30
0.0
 10
10.9856154361
 20
11.4902052793
 30
0.0
 10
10.9767680457
 20
11.4908188479
 30
0.0
  0
SPLINE
  5
3C6
100
AcDbEntity
  8
0
100
AcDbSpline
 62
7
  6
CONTINUOUS
 70
0
 71
3
 72
45
 73
41
 74
0
 42
0.0000001
 43
0.0000001
 44
0.0000000001
 40
0.0
 40
0.0
 40
0.0
 40
0.0
 40
0.0149721379
 40
0.0299473343
 40
0.0449286317
 40
0.0599190303
 40
0.0749214809
 40
0.089938856
 40
0.1049739397
 40
0.1200294108
 40
0.1351078203
 40
0.1502115887
 40
0.1653429784
 40
0.1805040926
 40
0.2109173739
 40
0.2414702831
 40
0.2721727342
 40
0.3030312377
 40
0.3340488046
 40
0.365224933
 40
0.396555672
 40
0.4280337568
 40
0.4596488082
 40
0.4913875919
 40
0.5232343248
 40
0.5551710235
 40
0.5871778874
 40
0.6192337084
 40
0.6513163011
 40
0.6834029486
 40
0.7154708537
 40
0.7474975916
 40
0.7794615572
 40
0.8113424013
 40
0.8431214485
 40
0.8747820968
 40
0.9063101458
 40
0.9376942762
 40
0.9689257414
 40
1.0
 40
1.0
 40
1.0
 40
1.0
 10
11.9742219137
 20
9.7903543548
 30
0.0
 10
11.9781374485
 20
9.7941364678
 30
0.0
 10
11.9861206339
 20
9.8015465971
 30
0.0
 10
11.998528902
 20
9.8121784227
 30
0.0
 10
12.0113550145
 20
9.8223133766
 30
0.0
 10
12.0245810138
 20
9.8319373484
 30
0.0
 10
12.0381887629
 20
9.8410371673
 30
0.0
 10
12.052159566
 20
9.8496002143
 30
0.0
 10
12.0664741151
 20
9.8576148617
 30
0.0
 10
12.0811127984
 20
9.8650699108
 30
0.0
 10
12.0960554075
 20
9.8719552786
 30
0.0
 10
12.1112813487
 20
9.8782613749
 30
0.0
 10
12.1267699606
 20
9.8839796279
 30
0.0
 10
12.1477620114
 20
9.890816062
 30
0.0
 10
12.1745636054
 20
9.8978525134
 30
0.0
 10
12.2073867302
 20
9.9038264367
 30
0.0
 10
12.2407301325
 20
9.9073089749
 30
0.0
 10
12.2744090735
 20
9.9082809659
 30
0.0
 10
12.308238668
 20
9.9067376205
 30
0.0
 10
12.3420328667
 20
9.9026878076
 30
0.0
 10
12.3756060151
 20
9.8961541794
 30
0.0
 10
12.4087737123
 20
9.887172984
 30
0.0
 10
12.4413538593
 20
9.8757938923
 30
0.0
 10
12.4731676285
 20
9.8620796828
 30
0.0
 10
12.5040404334
 20
9.8461058966
 30
0.0
 10
12.5338028712
 20
9.8279604195
 30
0.0
 10
12.5622916394
 20
9.8077430026
 30
0.0
 10
12.5893504164
 20
9.7855647146
 30
0.0
 10
12.6148307274
 20
9.7615473588
 30
0.0
 10
12.6385927422
 20
9.7358227937
 30
0.0
 10
12.6605060271
 20
9.7085322098
 30
0.0
 10
12.6804502543
 20
9.6798253646
 30
0.0
 10
12.6983158563
 20
9.6498597727
 30
0.0
 10
12.7140046177
 20
9.6187998453
 30
0.0
 10
12.7274302306
 20
9.5868160276
 30
0.0
 10
12.7385187565
 20
9.554083803
 30
0.0
 10
12.7472090807
 20
9.5207829903
 30
0.0
 10
12.753453064
 20
9.4870958288
 30
0.0
 10
12.7572162174
 20
9.453209687
 30
0.0
 10
12.7580590659
 20
9.4305466013
 30
0.0
 10
12.7580590659
 20
9.419247986
 30
0.0
  0
SPLINE
  5
3C7
100
AcDbEntity
  8
0
100
AcDbSpline
 62
7
  6
CONTINUOUS
 70
0
 71
3
 72
45
 73
41
 74
0
 42
0.0000001
 43
0.0000001
 44
0.0000000001
 40
0.0
 40
0.0
 40
0.0
 40
0.0
 40
0.0149721379
 40
0.0299473343
 40
0.0449286317
 40
0.0599190303
 40
0.0749214809
 40
0.089938856
 40
0.1049739397
 40
0.1200294108
 40
0.1351078203
 40
0.1502115887
 40
0.1653429784
 40
0.1805040926
 40
0.2109173739
 40
0.2414702831
 40
0.2721727342
 40
0.3030312377
 40
0.3340488046
 40
0.365224933
 40
0.396555672
 40
0.4280337568
 40
0.4596488082
 40
0.4913875919
 40
0.5232343248
 40
0.5551710235
 40
0.5871778874
 40
0.6192337084
 40
0.6513163011
 40
0.6834029486
 40
0.7154708537
 40
0.7474975916
 40
0.7794615572
 40
0.8113424013
 40
0.8431214485
 40
0.8747820968
 40
0.9063101458
 40
0.9376942762
 40
0.9689257414
 40
1.0
 40
1.0
 40
1.0
 40
1.0
 10
10.4055582089
 20
9.8991415522
 30
0.0
 10
10.4094737437
 20
9.9029236653
 30
0.0
 10
10.4174569291
 20
9.9103337946
 30
0.0
 10
10.4298651972
 20
9.9209656201
 30
0.0
 10
10.4426913096
 20
9.931100574
 30
0.0
 10
10.4559173089
 20
9.9407245458
 30
0.0
 10
10.4695250581
 20
9.9498243647
 30
0.0
 10
10.4834958611
 20
9.9583874117
 30
0.0
 10
10.4978104102
 20
9.9664020591
 30
0.0
 10
10.5124490936
 20
9.9738571082
 30
0.0
 10
10.5273917027
 20
9.9807424761
 30
0.0
 10
10.5426176438
 20
9.9870485723
 30
0.0
 10
10.5581062558
 20
9.9927668253
 30
0.0
 10
10.5790983066
 20
9.9996032594
 30
0.0
 10
10.6058999006
 20
10.0066397108
 30
0.0
 10
10.6387230254
 20
10.0126136341
 30
0.0
 10
10.6720664277
 20
10.0160961724
 30
0.0
 10
10.7057453686
 20
10.0170681633
 30
0.0
 10
10.7395749632
 20
10.0155248179
 30
0.0
 10
10.7733691619
 20
10.011475005
 30
0.0
 10
10.8069423102
 20
10.0049413768
 30
0.0
 10
10.8401100075
 20
9.9959601814
 30
0.0
 10
10.8726901545
 20
9.9845810897
 30
0.0
 10
10.9045039237
 20
9.9708668803
 30
0.0
 10
10.9353767286
 20
9.954893094
 30
0.0
 10
10.9651391663
 20
9.9367476169
 30
0.0
 10
10.9936279346
 20
9.9165302
 30
0.0
 10
11.0206867116
 20
9.894351912
 30
0.0
 10
11.0461670226
 20
9.8703345562
 30
0.0
 10
11.0699290373
 20
9.8446099912
 30
0.0
 10
11.0918423222
 20
9.8173194073
 30
0.0
 10
11.1117865495
 20
9.7886125621
 30
0.0
 10
11.1296521515
 20
9.7586469702
 30
0.0
 10
11.1453409129
 20
9.7275870427
 30
0.0
 10
11.1587665258
 20
9.6956032251
 30
0.0
 10
11.1698550516
 20
9.6628710005
 30
0.0
 10
11.1785453758
 20
9.6295701877
 30
0.0
 10
11.1847893592
 20
9.5958830262
 30
0.0
 10
11.1885525125
 20
9.5619968844
 30
0.0
 10
11.1893953611
 20
9.5393337987
 30
0.0
 10
11.1893953611
 20
9.5280351834
 30
0.0
  0
SPLINE
  5
3C8
100
AcDbEntity
  8
0
100
AcDbSpline
 62
7
  6
CONTINUOUS
 70
0
 71
3
 72
37
 73
33
 74
0
 42
0.0000001
 43
0.0000001
 44
0.0000000001
 40
0.0
 40
0.0
 40
0.0
 40
0.0
 40
0.0162142753
 40
0.0334272373
 40
0.0516714931
 40
0.0709705151
 40
0.091339925
 40
0.1127889039
 40
0.1353210978
 40
0.1589353204
 40
0.1836263869
 40
0.2093854244
 40
0.2362003965
 40
0.2640565026
 40
0.2929362797
 40
0.3228200508
 40
0.3536860075
 40
0.385510359
 40
0.4182676307
 40
0.4519306041
 40
0.4864705666
 40
0.5218574127
 40
0.55805962
 40
0.5950445049
 40
0.6327781755
 40
0.6712256441
 40
0.7103509655
 40
0.7501171395
 40
0.7904864137
 40
0.8314202519
 40
0.9148214983
 40
1.0
 40
1.0
 40
1.0
 40
1.0
 10
13.9988402057
 20
7.0143465628
 30
0.0
 10
13.9961773773
 20
7.017620635
 30
0.0
 10
13.9909118341
 20
7.0245548577
 30
0.0
 10
13.9834025813
 20
7.0357194238
 30
0.0
 10
13.9760583696
 20
7.0479397883
 30
0.0
 10
13.9688868328
 20
7.0612030542
 30
0.0
 10
13.9618948266
 20
7.0754959205
 30
0.0
 10
13.9550894905
 20
7.0908037635
 30
0.0
 10
13.9484778195
 20
7.1071108829
 30
0.0
 10
13.9420666088
 20
7.1244004181
 30
0.0
 10
13.9358626242
 20
7.142654458
 30
0.0
 10
13.9298723457
 20
7.1618539958
 30
0.0
 10
13.9241020716
 20
7.1819789964
 30
0.0
 10
13.918557952
 20
7.2030084242
 30
0.0
 10
13.9132457901
 20
7.2249202433
 30
0.0
 10
13.9081712479
 20
7.247691478
 30
0.0
 10
13.9033397101
 20
7.2712982231
 30
0.0
 10
13.8987562566
 20
7.2957156737
 30
0.0
 10
13.8944258027
 20
7.3209181634
 30
0.0
 10
13.8903529041
 20
7.3468791815
 30
0.0
 10
13.8865418808
 20
7.3735714111
 30
0.0
 10
13.8829968106
 20
7.4009667585
 30
0.0
 10
13.8797214045
 20
7.4290363805
 30
0.0
 10
13.8767191731
 20
7.4577507173
 30
0.0
 10
13.873993295
 20
7.4870795277
 30
0.0
 10
13.8715466355
 20
7.516991919
 30
0.0
 10
13.8693818352
 20
7.547456373
 30
0.0
 10
13.8675011552
 20
7.5784407926
 30
0.0
 10
13.8659065816
 20
7.6099125793
 30
0.0
 10
13.8641534898
 20
7.6527461598
 30
0.0
 10
13.8627007759
 20
7.7072617898
 30
0.0
 10
13.8623229717
 20
7.7511403132
 30
0.0
 10
13.8623229717
 20
7.7733103745
 30
0.0
  0
SPLINE
  5
3C9
100
AcDbEntity
  8
0
100
AcDbSpline
 62
7
  6
CONTINUOUS
 70
0
 71
3
 72
45
 73
41
 74
0
 42
0.0000001
 43
0.0000001
 44
0.0000000001
 40
0.0
 40
0.0
 40
0.0
 40
0.0
 40
0.0149721379
 40
0.0299473343
 40
0.0449286317
 40
0.0599190303
 40
0.0749214809
 40
0.089938856
 40
0.1049739397
 40
0.1200294108
 40
0.1351078203
 40
0.1502115887
 40
0.1653429784
 40
0.1805040926
 40
0.2109173739
 40
0.2414702831
 40
0.2721727342
 40
0.3030312377
 40
0.3340488046
 40
0.365224933
 40
0.396555672
 40
0.4280337568
 40
0.4596488082
 40
0.4913875919
 40
0.5232343248
 40
0.5551710235
 40
0.5871778874
 40
0.6192337084
 40
0.6513163011
 40
0.6834029486
 40
0.7154708537
 40
0.7474975916
 40
0.7794615572
 40
0.8113424013
 40
0.8431214485
 40
0.8747820968
 40
0.9063101458
 40
0.9376942762
 40
0.9689257414
 40
1.0
 40
1.0
 40
1.0
 40
1.0
 10
8.2302932592
 20
10.0499966889
 30
0.0
 10
8.234208794
 20
10.0537788019
 30
0.0
 10
8.2421919794
 20
10.0611889312
 30
0.0
 10
8.2546002475
 20
10.0718207567
 30
0.0
 10
8.26742636
 20
10.0819557106
 30
0.0
 10
8.2806523593
 20
10.0915796825
 30
0.0
 10
8.2942601084
 20
10.1006795013
 30
0.0
 10
8.3082309114
 20
10.1092425483
 30
0.0
 10
8.3225454605
 20
10.1172571958
 30
0.0
 10
8.3371841439
 20
10.1247122449
 30
0.0
 10
8.352126753
 20
10.1315976127
 30
0.0
 10
8.3673526942
 20
10.1379037089
 30
0.0
 10
8.3828413061
 20
10.143621962
 30
0.0
 10
8.4038333569
 20
10.150458396
 30
0.0
 10
8.4306349509
 20
10.1574948475
 30
0.0
 10
8.4634580757
 20
10.1634687707
 30
0.0
 10
8.496801478
 20
10.166951309
 30
0.0
 10
8.530480419
 20
10.1679233
 30
0.0
 10
8.5643100135
 20
10.1663799546
 30
0.0
 10
8.5981042122
 20
10.1623301417
 30
0.0
 10
8.6316773606
 20
10.1557965135
 30
0.0
 10
8.6648450578
 20
10.146815318
 30
0.0
 10
8.6974252048
 20
10.1354362263
 30
0.0
 10
8.729238974
 20
10.1217220169
 30
0.0
 10
8.7601117789
 20
10.1057482306
 30
0.0
 10
8.7898742167
 20
10.0876027535
 30
0.0
 10
8.8183629849
 20
10.0673853366
 30
0.0
 10
8.8454217619
 20
10.0452070486
 30
0.0
 10
8.8709020729
 20
10.0211896928
 30
0.0
 10
8.8946640877
 20
9.9954651278
 30
0.0
 10
8.9165773726
 20
9.9681745439
 30
0.0
 10
8.9365215998
 20
9.9394676987
 30
0.0
 10
8.9543872018
 20
9.9095021068
 30
0.0
 10
8.9700759632
 20
9.8784421793
 30
0.0
 10
8.9835015761
 20
9.8464583617
 30
0.0
 10
8.9945901019
 20
9.8137261371
 30
0.0
 10
9.0032804262
 20
9.7804253243
 30
0.0
 10
9.0095244095
 20
9.7467381628
 30
0.0
 10
9.0132875629
 20
9.712852021
 30
0.0
 10
9.0141304114
 20
9.6901889354
 30
0.0
 10
9.0141304114
 20
9.67889032
 30
0.0
  0
SPLINE
  5
3CA
100
AcDbEntity
  8
0
100
AcDbSpline
 62
7
  6
CONTINUOUS
 70
0
 71
3
 72
45
 73
41
 74
0
 42
0.0000001
 43
0.0000001
 44
0.0000000001
 40
0.0
 40
0.0
 40
0.0
 40
0.0
 40
0.0374444051
 40
0.0752549388
 40
0.1133468104
 40
0.1516417045
 40
0.1900576451
 40
0.2285126242
 40
0.2669248811
 40
0.3052125474
 40
0.3432941579
 40
0.381088825
 40
0.4185164173
 40
0.4554978648
 40
0.4919553507
 40
0.5278125003
 40
0.562994698
 40
0.5974293218
 40
0.6310459135
 40
0.6637765003
 40
0.6955559394
 40
0.7263220905
 40
0.7560161495
 40
0.7845831568
 40
0.8119722756
 40
0.8381372176
 40
0.8630369785
 40
0.8866364812
 40
0.8979398914
 40
0.9089082717
 40
0.9195392362
 40
0.9298311161
 40
0.9397828774
 40
0.9493940553
 40
0.9586651289
 40
0.96759739
 40
0.9761929984
 40
0.9844553775
 40
0.992389082
 40
1.0
 40
1.0
 40
1.0
 40
1.0
 10
9.0556631885
 20
11.7538760246
 30
0.0
 10
9.0491335163
 20
11.7543288589
 30
0.0
 10
9.0360041378
 20
11.7551519464
 30
0.0
 10
9.0162148593
 20
11.7561365193
 30
0.0
 10
8.9962660954
 20
11.7568755241
 30
0.0
 10
8.9762038665
 20
11.757367306
 30
0.0
 10
8.956073613
 20
11.7576107293
 30
0.0
 10
8.9359213755
 20
11.7576052435
 30
0.0
 10
8.9157931654
 20
11.7573508563
 30
0.0
 10
8.8957349072
 20
11.7568481373
 30
0.0
 10
8.8757923911
 20
11.7560982635
 30
0.0
 10
8.8560111364
 20
11.7551029513
 30
0.0
 10
8.8364362923
 20
11.7538644617
 30
0.0
 10
8.8171125317
 20
11.7523856595
 30
0.0
 10
8.7980839528
 20
11.7506699446
 30
0.0
 10
8.7793939801
 20
11.7487212318
 30
0.0
 10
8.7610852548
 20
11.746544005
 30
0.0
 10
8.7431995386
 20
11.7441432813
 30
0.0
 10
8.7257776288
 20
11.7415245597
 30
0.0
 10
8.7088592507
 20
11.738693847
 30
0.0
 10
8.6924829579
 20
11.7356576755
 30
0.0
 10
8.6766860598
 20
11.7324230213
 30
0.0
 10
8.661504529
 20
11.7289972957
 30
0.0
 10
8.6469728865
 20
11.7253884035
 30
0.0
 10
8.6331241548
 20
11.7216046511
 30
0.0
 10
8.6199897146
 20
11.7176547072
 30
0.0
 10
8.6075994316
 20
11.7135476425
 30
0.0
 10
8.5977813132
 20
11.7099522816
 30
0.0
 10
8.5903268481
 20
11.7069973479
 30
0.0
 10
8.585019748
 20
11.7047796627
 30
0.0
 10
8.579918851
 20
11.7025298277
 30
0.0
 10
8.5750270325
 20
11.7002491253
 30
0.0
 10
8.5703470484
 20
11.6979388876
 30
0.0
 10
8.5658815724
 20
11.695600355
 30
0.0
 10
8.5616331048
 20
11.6932348917
 30
0.0
 10
8.5576040246
 20
11.6908438414
 30
0.0
 10
8.5537966403
 20
11.6884284773
 30
0.0
 10
8.5502130309
 20
11.6859901832
 30
0.0
 10
8.5468552761
 20
11.6835303572
 30
0.0
 10
8.5447249064
 20
11.6818423254
 30
0.0
 10
8.5436997278
 20
11.6809943974
 30
0.0
  0
SPLINE
  5
3CB
100
AcDbEntity
  8
0
100
AcDbSpline
 62
7
  6
CONTINUOUS
 70
0
 71
3
 72
23
 73
19
 74
0
 42
0.0000001
 43
0.0000001
 44
0.0000000001
 40
0.0
 40
0.0
 40
0.0
 40
0.0
 40
0.0637764154
 40
0.1273451281
 40
0.190701988
 40
0.253856063
 40
0.3168132283
 40
0.3795820791
 40
0.4421733864
 40
0.5045993414
 40
0.5668738629
 40
0.629012379
 40
0.6910316532
 40
0.7529496461
 40
0.8147853522
 40
0.8765586034
 40
0.9382898574
 40
1.0
 40
1.0
 40
1.0
 40
1.0
 10
8.287754077
 20
6.1128382226
 30
0.0
 10
8.287754077
 20
6.1191022279
 30
0.0
 10
8.288053931
 20
6.13161196
 30
0.0
 10
8.2894071421
 20
6.1503004285
 30
0.0
 10
8.2916603255
 20
6.1688408076
 30
0.0
 10
8.2948080532
 20
6.1871894451
 30
0.0
 10
8.2988432789
 20
6.2053044795
 30
0.0
 10
8.3037566676
 20
6.2231440335
 30
0.0
 10
8.3095369172
 20
6.2406669954
 30
0.0
 10
8.3161708251
 20
6.257832939
 30
0.0
 10
8.3236430713
 20
6.2746022873
 30
0.0
 10
8.3319364364
 20
6.2909363774
 30
0.0
 10
8.3410318655
 20
6.3067975073
 30
0.0
 10
8.3509084325
 20
6.3221490787
 30
0.0
 10
8.3615432907
 20
6.336955677
 30
0.0
 10
8.3729120552
 20
6.3511832603
 30
0.0
 10
8.3849881121
 20
6.3647985184
 30
0.0
 10
8.3934933686
 20
6.3734478051
 30
0.0
 10
8.397852813
 20
6.3776587064
 30
0.0
  0
SPLINE
  5
3CC
100
AcDbEntity
  8
0
100
AcDbSpline
 62
7
  6
CONTINUOUS
 70
0
 71
3
 72
23
 73
19
 74
0
 42
0.0000001
 43
0.0000001
 44
0.0000000001
 40
0.0
 40
0.0
 40
0.0
 40
0.0
 40
0.0637764154
 40
0.1273451281
 40
0.190701988
 40
0.253856063
 40
0.3168132283
 40
0.3795820791
 40
0.4421733864
 40
0.5045993414
 40
0.5668738629
 40
0.629012379
 40
0.6910316532
 40
0.7529496461
 40
0.8147853522
 40
0.8765586034
 40
0.9382898574
 40
1.0
 40
1.0
 40
1.0
 40
1.0
 10
12.1514576111
 20
5.8448894724
 30
0.0
 10
12.1514576111
 20
5.8511534778
 30
0.0
 10
12.1517574651
 20
5.8636632098
 30
0.0
 10
12.1531106762
 20
5.8823516784
 30
0.0
 10
12.1553638596
 20
5.9008920574
 30
0.0
 10
12.1585115872
 20
5.9192406949
 30
0.0
 10
12.1625468129
 20
5.9373557293
 30
0.0
 10
12.1674602017
 20
5.9551952833
 30
0.0
 10
12.1732404513
 20
5.9727182452
 30
0.0
 10
12.1798743592
 20
5.9898841888
 30
0.0
 10
12.1873466054
 20
6.0066535372
 30
0.0
 10
12.1956399705
 20
6.0229876272
 30
0.0
 10
12.2047353996
 20
6.0388487571
 30
0.0
 10
12.2146119666
 20
6.0542003285
 30
0.0
 10
12.2252468248
 20
6.0690069269
 30
0.0
 10
12.2366155892
 20
6.0832345101
 30
0.0
 10
12.2486916462
 20
6.0968497683
 30
0.0
 10
12.2571969027
 20
6.1054990549
 30
0.0
 10
12.2615563471
 20
6.1097099562
 30
0.0
  0
SPLINE
  5
3CD
100
AcDbEntity
  8
0
100
AcDbSpline
 62
7
  6
CONTINUOUS
 70
0
 71
3
 72
80
 73
76
 74
0
 42
0.0000001
 43
0.0000001
 44
0.0000000001
 40
0.0
 40
0.0
 40
0.0
 40
0.0
 40
0.0452093933
 40
0.0909994259
 40
0.1371862106
 40
0.1835828416
 40
0.2300017215
 40
0.2762550696
 40
0.3221559615
 40
0.367519287
 40
0.4121627214
 40
0.4559077181
 40
0.4773890312
 40
0.4985810007
 40
0.519462817
 40
0.5400141119
 40
0.5602149476
 40
0.5800459172
 40
0.5994881369
 40
0.6185232767
 40
0.6371336619
 40
0.6553022385
 40
0.6730126677
 40
0.6902493894
 40
0.7069976078
 40
0.7232434433
 40
0.7389739464
 40
0.7541771593
 40
0.7688422918
 40
0.7829597274
 40
0.7965212036
 40
0.809519986
 40
0.8219509603
 40
0.8338109564
 40
0.8450989633
 40
0.8505290495
 40
0.8558169338
 40
0.8609632688
 40
0.8659688921
 40
0.8708349106
 40
0.8755626848
 40
0.88015382
 40
0.8846102496
 40
0.8889342529
 40
0.8931284404
 40
0.8971958309
 40
0.9011399035
 40
0.904964582
 40
0.9086743022
 40
0.9122740872
 40
0.9157695339
 40
0.9224709481
 40
0.9256934548
 40
0.9288406186
 40
0.9319214265
 40
0.9349455249
 40
0.9379231625
 40
0.9408651363
 40
0.9437826779
 40
0.9466873229
 40
0.9495907793
 40
0.952504768
 40
0.9554408741
 40
0.9584104038
 40
0.9614242418
 40
0.9644927614
 40
0.9676257443
 40
0.9708322958
 40
0.9774970544
 40
0.9809721018
 40
0.9845502728
 40
0.9882373108
 40
0.9920383305
 40
0.9959578765
 40
1.0
 40
1.0
 40
1.0
 40
1.0
 10
14.4161952712
 20
8.3083099647
 30
0.0
 10
14.4161952712
 20
8.2854967512
 30
0.0
 10
14.4157884099
 20
8.2395764029
 30
0.0
 10
14.4139943686
 20
8.1703707082
 30
0.0
 10
14.411019515
 20
8.1006059231
 30
0.0
 10
14.4068765488
 20
8.0305829748
 30
0.0
 10
14.4015833159
 20
7.9606038776
 30
0.0
 10
14.3951626678
 20
7.8909703851
 30
0.0
 10
14.3876423617
 20
7.8219827707
 30
0.0
 10
14.3790549445
 20
7.7539384414
 30
0.0
 10
14.3694375819
 20
7.6871309306
 30
0.0
 10
14.3605468896
 20
7.632403288
 30
0.0
 10
14.3529405235
 20
7.5894634921
 30
0.0
 10
14.3470398226
 20
7.5579397727
 30
0.0
 10
14.3409152583
 20
7.5269370142
 30
0.0
 10
14.3345734539
 20
7.4964886253
 30
0.0
 10
14.3280212305
 20
7.4666274559
 30
0.0
 10
14.3212657013
 20
7.4373857011
 30
0.0
 10
14.3143141735
 20
7.4087948913
 30
0.0
 10
14.3071741314
 20
7.3808858542
 30
0.0
 10
14.2998533424
 20
7.3536886661
 30
0.0
 10
14.2923596965
 20
7.3272326407
 30
0.0
 10
14.2847012949
 20
7.3015462816
 30
0.0
 10
14.2768864593
 20
7.2766572472
 30
0.0
 10
14.2689235951
 20
7.2525923423
 30
0.0
 10
14.2608213456
 20
7.2293774546
 30
0.0
 10
14.2525884827
 20
7.2070375457
 30
0.0
 10
14.2442338615
 20
7.185596632
 30
0.0
 10
14.2357665635
 20
7.1650777128
 30
0.0
 10
14.2271957011
 20
7.1455027928
 30
0.0
 10
14.2185304993
 20
7.1268928232
 30
0.0
 10
14.2097803381
 20
7.1092676772
 30
0.0
 10
14.2009545285
 20
7.0926460931
 30
0.0
 10
14.1920625896
 20
7.0770459016
 30
0.0
 10
14.1845109406
 20
7.0647566053
 30
0.0
 10
14.1784368798
 20
7.055459932
 30
0.0
 10
14.17392967
 20
7.048843374
 30
0.0
 10
14.1694131242
 20
7.0424942532
 30
0.0
 10
14.1648883759
 20
7.036414291
 30
0.0
 10
14.1603566557
 20
7.0306050995
 30
0.0
 10
14.155819184
 20
7.0250682084
 30
0.0
 10
14.1512771223
 20
7.0198051289
 30
0.0
 10
14.1467316687
 20
7.0148172653
 30
0.0
 10
14.1421840441
 20
7.0101059169
 30
0.0
 10
14.1376354043
 20
7.0056723739
 30
0.0
 10
14.1330869107
 20
7.001517845
 30
0.0
 10
14.1285397784
 20
6.9976434102
 30
0.0
 10
14.1239951307
 20
6.9940501319
 30
0.0
 10
14.1194541736
 20
6.9907390859
 30
0.0
 10
14.1149178177
 20
6.9877109972
 30
0.0
 10
14.1089618369
 20
6.9841032852
 30
0.0
 10
14.1029302931
 20
6.9809962601
 30
0.0
 10
14.0968442965
 20
6.9784467116
 30
0.0
 10
14.0923493376
 20
6.9768461881
 30
0.0
 10
14.0878663149
 20
6.9755332328
 30
0.0
 10
14.0833963491
 20
6.9745082685
 30
0.0
 10
14.0789407544
 20
6.9737718411
 30
0.0
 10
14.0745008716
 20
6.9733242794
 30
0.0
 10
14.0700780824
 20
6.9731657642
 30
0.0
 10
14.0656737849
 20
6.9732964821
 30
0.0
 10
14.0612894043
 20
6.9737164319
 30
0.0
 10
14.0569263403
 20
6.9744253796
 30
0.0
 10
14.0525859755
 20
6.9754230882
 30
0.0
 10
14.048269671
 20
6.9767091935
 30
0.0
 10
14.0439786833
 20
6.9782830997
 30
0.0
 10
14.0397142794
 20
6.9801442015
 30
0.0
 10
14.035477543
 20
6.9822919678
 30
0.0
 10
14.0297946604
 20
6.9855784889
 30
0.0
 10
14.0242409236
 20
6.989411704
 30
0.0
 10
14.0188306253
 20
6.9937322458
 30
0.0
 10
14.0147488295
 20
6.9973004543
 30
0.0
 10
14.0107013827
 20
7.0011498071
 30
0.0
 10
14.0066889966
 20
7.0052794065
 30
0.0
 10
14.0027127776
 20
7.0096879815
 30
0.0
 10
14.0001271984
 20
7.012764145
 30
0.0
 10
13.9988402057
 20
7.0143465628
 30
0.0
  0
SPLINE
  5
3CE
100
AcDbEntity
  8
0
100
AcDbSpline
 62
7
  6
CONTINUOUS
 70
0
 71
3
 72
55
 73
51
 74
0
 42
0.0000001
 43
0.0000001
 44
0.0000000001
 40
0.0
 40
0.0
 40
0.0
 40
0.0
 40
0.0407351545
 40
0.0819341456
 40
0.1234789205
 40
0.1652503072
 40
0.207128215
 40
0.2489922024
 40
0.2907218648
 40
0.3321972925
 40
0.3732995051
 40
0.413910896
 40
0.4539156772
 40
0.4932003302
 40
0.5316540643
 40
0.5691692852
 40
0.6056420799
 40
0.640972724
 40
0.6581800758
 40
0.6750666868
 40
0.6916215059
 40
0.7078338785
 40
0.7236935232
 40
0.7391905955
 40
0.7543156803
 40
0.7690598475
 40
0.7834146637
 40
0.7973722392
 40
0.8109252639
 40
0.8240670473
 40
0.836791583
 40
0.8490935854
 40
0.8609685896
 40
0.8724129915
 40
0.8834241914
 40
0.8940006483
 40
0.9041420807
 40
0.9138495511
 40
0.9231257429
 40
0.9319751003
 40
0.940404206
 40
0.9484220089
 40
0.9560403319
 40
0.9632742182
 40
0.9701425782
 40
0.9766686484
 40
0.982880704
 40
0.9888124873
 40
0.9945037021
 40
1.0
 40
1.0
 40
1.0
 40
1.0
 10
14.2153371379
 20
8.2782958949
 30
0.0
 10
14.2153371379
 20
8.2620272901
 30
0.0
 10
14.2150928634
 20
8.2293043603
 30
0.0
 10
14.2140122594
 20
8.1800002088
 30
0.0
 10
14.212218289
 20
8.1303026675
 30
0.0
 10
14.2097164258
 20
8.0803643036
 30
0.0
 10
14.206514316
 20
8.0303382037
 30
0.0
 10
14.2026217765
 20
7.9803778006
 30
0.0
 10
14.1980507523
 20
7.9306362996
 30
0.0
 10
14.1928152858
 20
7.8812662383
 30
0.0
 10
14.1869314712
 20
7.832419006
 30
0.0
 10
14.1804174069
 20
7.7842443785
 30
0.0
 10
14.1732931402
 20
7.7368900554
 30
0.0
 10
14.1655806076
 20
7.6905011983
 30
0.0
 10
14.1573035663
 20
7.6452199975
 30
0.0
 10
14.148487531
 20
7.6011851631
 30
0.0
 10
14.139159668
 20
7.5585317273
 30
0.0
 10
14.1309132389
 20
7.5239501967
 30
0.0
 10
14.1240719901
 20
7.4970805683
 30
0.0
 10
14.1188764045
 20
7.4775309339
 30
0.0
 10
14.1135751216
 20
7.4584217557
 30
0.0
 10
14.1081722106
 20
7.439767663
 30
0.0
 10
14.1026718144
 20
7.4215829537
 30
0.0
 10
14.0970781711
 20
7.4038815575
 30
0.0
 10
14.0913955709
 20
7.3866770321
 30
0.0
 10
14.0856283865
 20
7.3699825503
 30
0.0
 10
14.0797810476
 20
7.353810889
 30
0.0
 10
14.0738580447
 20
7.338174421
 30
0.0
 10
14.0678639331
 20
7.3230851002
 30
0.0
 10
14.061803305
 20
7.3085544588
 30
0.0
 10
14.0556808253
 20
7.2945935866
 30
0.0
 10
14.0495011691
 20
7.2812131366
 30
0.0
 10
14.0432690929
 20
7.2684232943
 30
0.0
 10
14.0369893324
 20
7.2562337966
 30
0.0
 10
14.0306667128
 20
7.2446538859
 30
0.0
 10
14.0243060023
 20
7.2336923485
 30
0.0
 10
14.017912064
 20
7.223357447
 30
0.0
 10
14.0114896601
 20
7.2136569878
 30
0.0
 10
14.0050436466
 20
7.204598223
 30
0.0
 10
13.9985787242
 20
7.1961879628
 30
0.0
 10
13.9920996759
 20
7.1884324368
 30
0.0
 10
13.9856110618
 20
7.1813374751
 30
0.0
 10
13.9791175016
 20
7.1749083214
 30
0.0
 10
13.9726233209
 20
7.1691499189
 30
0.0
 10
13.9661328963
 20
7.164066671
 30
0.0
 10
13.9596502681
 20
7.15966287
 30
0.0
 10
13.9531796957
 20
7.1559424013
 30
0.0
 10
13.946724956
 20
7.1529092457
 30
0.0
 10
13.9402915132
 20
7.1505672404
 30
0.0
 10
13.9359554151
 20
7.1494528427
 30
0.0
 10
13.933803648
 20
7.1490189148
 30
0.0
  0
SPLINE
  5
3CF
100
AcDbEntity
  8
0
100
AcDbSpline
 62
7
  6
CONTINUOUS
 70
0
 71
3
 72
51
 73
47
 74
0
 42
0.0000001
 43
0.0000001
 44
0.0000000001
 40
0.0
 40
0.0
 40
0.0
 40
0.0
 40
0.0469440457
 40
0.0933564536
 40
0.1391696942
 40
0.1843237118
 40
0.2287571558
 40
0.2724101105
 40
0.3152244762
 40
0.3571436262
 40
0.3981127388
 40
0.4380788702
 40
0.4769911613
 40
0.5148010513
 40
0.551462354
 40
0.5869315249
 40
0.6211679745
 40
0.6541342003
 40
0.6857961276
 40
0.7161236032
 40
0.7450906944
 40
0.7726762203
 40
0.7859462465
 40
0.7988654932
 40
0.8114330686
 40
0.8236484483
 40
0.8355115966
 40
0.8470231254
 40
0.8581841416
 40
0.8689964167
 40
0.8794625307
 40
0.8895857547
 40
0.8993702721
 40
0.9088213136
 40
0.9179450931
 40
0.9267490816
 40
0.9352421401
 40
0.9434345221
 40
0.9513381876
 40
0.9589669282
 40
0.9663364213
 40
0.9734645297
 40
0.9803713658
 40
0.9870793118
 40
0.9936131637
 40
1.0
 40
1.0
 40
1.0
 40
1.0
 10
14.2153371379
 20
8.2782958949
 30
0.0
 10
14.2153371379
 20
8.2894557776
 30
0.0
 10
14.2152234172
 20
8.3116493395
 30
0.0
 10
14.2147059211
 20
8.3447303283
 30
0.0
 10
14.2138430802
 20
8.3773784871
 30
0.0
 10
14.2126362516
 20
8.40954498
 30
0.0
 10
14.2110872267
 20
8.4411826824
 30
0.0
 10
14.2091983247
 20
8.4722447426
 30
0.0
 10
14.2069723536
 20
8.502685232
 30
0.0
 10
14.2044126367
 20
8.5324592004
 30
0.0
 10
14.2015230135
 20
8.5615226582
 30
0.0
 10
14.1983077731
 20
8.5898326733
 30
0.0
 10
14.1947717061
 20
8.6173474438
 30
0.0
 10
14.1909201148
 20
8.6440263593
 30
0.0
 10
14.1867587278
 20
8.6698300511
 30
0.0
 10
14.1822937336
 20
8.6947204633
 30
0.0
 10
14.1775318241
 20
8.7186609238
 30
0.0
 10
14.1724800908
 20
8.7416161882
 30
0.0
 10
14.1671460299
 20
8.7635524796
 30
0.0
 10
14.161537613
 20
8.7844376575
 30
0.0
 10
14.1556631837
 20
8.804240953
 30
0.0
 10
14.1504887304
 20
8.8200155043
 30
0.0
 10
14.1462131561
 20
8.8320635818
 30
0.0
 10
14.1429868288
 20
8.8406942895
 30
0.0
 10
14.1397006643
 20
8.8490335003
 30
0.0
 10
14.136355826
 20
8.8570781579
 30
0.0
 10
14.132953512
 20
8.8648252915
 30
0.0
 10
14.1294950291
 20
8.8722720877
 30
0.0
 10
14.1259816115
 20
8.8794158091
 30
0.0
 10
14.1224145097
 20
8.8862538285
 30
0.0
 10
14.1187950814
 20
8.8927836813
 30
0.0
 10
14.1151245909
 20
8.8990029673
 30
0.0
 10
14.1114043365
 20
8.9049094084
 30
0.0
 10
14.1076357059
 20
8.9105008947
 30
0.0
 10
14.1038199766
 20
8.9157753602
 30
0.0
 10
14.0999584766
 20
8.9207308749
 30
0.0
 10
14.0960525998
 20
8.9253656742
 30
0.0
 10
14.0921036174
 20
8.929678004
 30
0.0
 10
14.0881128713
 20
8.933666259
 30
0.0
 10
14.0840817437
 20
8.9373289807
 30
0.0
 10
14.0800115048
 20
8.9406646692
 30
0.0
 10
14.0759035197
 20
8.9436719912
 30
0.0
 10
14.0717592201
 20
8.946349713
 30
0.0
 10
14.0675798715
 20
8.9486965479
 30
0.0
 10
14.0633672914
 20
8.9507112855
 30
0.0
 10
14.0605088519
 20
8.9518437965
 30
0.0
 10
14.0590779392
 20
8.9523515379
 30
0.0
  0
SPLINE
  5
3D0
100
AcDbEntity
  8
0
100
AcDbSpline
 62
7
  6
CONTINUOUS
 70
0
 71
3
 72
24
 73
20
 74
0
 42
0.0000001
 43
0.0000001
 44
0.0000000001
 40
0.0
 40
0.0
 40
0.0
 40
0.0
 40
0.0637764416
 40
0.1273443685
 40
0.190701004
 40
0.2538548276
 40
0.3168116139
 40
0.3795801666
 40
0.4421711529
 40
0.504596791
 40
0.5668710034
 40
0.6290092011
 40
0.6910281569
 40
0.7220010165
 40
0.7529508932
 40
0.8147862903
 40
0.8765592252
 40
0.938290164
 40
1.0
 40
1.0
 40
1.0
 40
1.0
 10
11.8462250319
 20
9.482483891
 30
0.0
 10
11.8462250319
 20
9.4897662328
 30
0.0
 10
11.8465736153
 20
9.5043095741
 30
0.0
 10
11.848146834
 20
9.5260360956
 30
0.0
 10
11.8507663074
 20
9.5475904218
 30
0.0
 10
11.854425725
 20
9.5689218864
 30
0.0
 10
11.8591169379
 20
9.5899817603
 30
0.0
 10
11.8648290809
 20
9.6107213577
 30
0.0
 10
11.8715490161
 20
9.6310929033
 30
0.0
 10
11.879261316
 20
9.6510493947
 30
0.0
 10
11.8879483207
 20
9.6705448655
 30
0.0
 10
11.8975898126
 20
9.6895340686
 30
0.0
 10
11.9064056925
 20
9.7049076461
 30
0.0
 10
11.9139113681
 20
9.7169072779
 30
0.0
 10
11.9217094919
 20
9.728693824
 30
0.0
 10
11.9320098546
 20
9.7430346841
 30
0.0
 10
11.9452266902
 20
9.7595749308
 30
0.0
 10
11.9592658906
 20
9.7754035857
 30
0.0
 10
11.9691537809
 20
9.7854589186
 30
0.0
 10
11.9742219137
 20
9.7903543548
 30
0.0
  0
SPLINE
  5
3D1
100
AcDbEntity
  8
0
100
AcDbSpline
 62
7
  6
CONTINUOUS
 70
0
 71
3
 72
32
 73
28
 74
0
 42
0.0000001
 43
0.0000001
 44
0.0000000001
 40
0.0
 40
0.0
 40
0.0
 40
0.0
 40
0.0832767704
 40
0.1649388972
 40
0.2446893213
 40
0.3222441731
 40
0.3973286663
 40
0.4696819854
 40
0.5390579384
 40
0.5725579329
 40
0.6052291569
 40
0.6370462063
 40
0.6679848256
 40
0.6980224437
 40
0.7271380196
 40
0.7553122679
 40
0.7825279212
 40
0.8087696039
 40
0.8340245389
 40
0.8582821383
 40
0.8815350904
 40
0.9037788567
 40
0.9250129894
 40
0.9452408289
 40
0.9644708872
 40
0.9827170604
 40
1.0
 40
1.0
 40
1.0
 40
1.0
 10
11.2309281382
 20
11.6030208879
 30
0.0
 10
11.2393957109
 20
11.6024336598
 30
0.0
 10
11.2561570894
 20
11.601126459
 30
0.0
 10
11.2809838749
 20
11.5987415492
 30
0.0
 10
11.3051824453
 20
11.5959587682
 30
0.0
 10
11.3286571772
 20
11.592789277
 30
0.0
 10
11.3513157456
 20
11.5892456802
 30
0.0
 10
11.3730687435
 20
11.5853421287
 30
0.0
 10
11.3905684626
 20
11.5817617966
 30
0.0
 10
11.4040454748
 20
11.5787205503
 30
0.0
 10
11.4137565558
 20
11.5763861518
 30
0.0
 10
11.4231794044
 20
11.5739741031
 30
0.0
 10
11.4323047486
 20
11.5714867233
 30
0.0
 10
11.4411236015
 20
11.5689265102
 30
0.0
 10
11.4496272874
 20
11.5662959911
 30
0.0
 10
11.4578074407
 20
11.5635977498
 30
0.0
 10
11.465656034
 20
11.5608345002
 30
0.0
 10
11.4731653537
 20
11.5580089014
 30
0.0
 10
11.480328062
 20
11.5551238337
 30
0.0
 10
11.4871371296
 20
11.5521820259
 30
0.0
 10
11.4935859456
 20
11.5491864874
 30
0.0
 10
11.4996681998
 20
11.5461400192
 30
0.0
 10
11.5053780402
 20
11.5430456981
 30
0.0
 10
11.5107099025
 20
11.5399064065
 30
0.0
 10
11.5156587491
 20
11.5367251746
 30
0.0
 10
11.5202196463
 20
11.5335050676
 30
0.0
 10
11.5230750149
 20
11.5312747714
 30
0.0
 10
11.5244326742
 20
11.5301523573
 30
0.0
  0
SPLINE
  5
3D2
100
AcDbEntity
  8
0
100
AcDbSpline
 62
7
  6
CONTINUOUS
 70
0
 71
3
 72
24
 73
20
 74
0
 42
0.0000001
 43
0.0000001
 44
0.0000000001
 40
0.0
 40
0.0
 40
0.0
 40
0.0
 40
0.0637764416
 40
0.1273443685
 40
0.190701004
 40
0.2538548276
 40
0.3168116139
 40
0.3795801666
 40
0.4421711529
 40
0.504596791
 40
0.5668710034
 40
0.6290092011
 40
0.6910281569
 40
0.7220010165
 40
0.7529508932
 40
0.8147862903
 40
0.8765592252
 40
0.938290164
 40
1.0
 40
1.0
 40
1.0
 40
1.0
 10
10.277561327
 20
9.5912710885
 30
0.0
 10
10.277561327
 20
9.5985534302
 30
0.0
 10
10.2779099104
 20
9.6130967715
 30
0.0
 10
10.2794831291
 20
9.6348232931
 30
0.0
 10
10.2821026025
 20
9.6563776192
 30
0.0
 10
10.2857620202
 20
9.6777090839
 30
0.0
 10
10.2904532331
 20
9.6987689578
 30
0.0
 10
10.296165376
 20
9.7195085551
 30
0.0
 10
10.3028853112
 20
9.7398801007
 30
0.0
 10
10.3105976111
 20
9.7598365921
 30
0.0
 10
10.3192846159
 20
9.7793320629
 30
0.0
 10
10.3289261077
 20
9.798321266
 30
0.0
 10
10.3377419877
 20
9.8136948436
 30
0.0
 10
10.3452476632
 20
9.8256944753
 30
0.0
 10
10.353045787
 20
9.8374810214
 30
0.0
 10
10.3633461497
 20
9.8518218815
 30
0.0
 10
10.3765629853
 20
9.8683621282
 30
0.0
 10
10.3906021857
 20
9.8841907831
 30
0.0
 10
10.400490076
 20
9.894246116
 30
0.0
 10
10.4055582089
 20
9.8991415522
 30
0.0
  0
SPLINE
  5
3D3
100
AcDbEntity
  8
0
100
AcDbSpline
 62
7
  6
CONTINUOUS
 70
0
 71
3
 72
24
 73
20
 74
0
 42
0.0000001
 43
0.0000001
 44
0.0000000001
 40
0.0
 40
0.0
 40
0.0
 40
0.0
 40
0.0637764416
 40
0.1273443685
 40
0.190701004
 40
0.2538548276
 40
0.3168116139
 40
0.3795801666
 40
0.4421711529
 40
0.504596791
 40
0.5668710034
 40
0.6290092011
 40
0.6910281569
 40
0.7220010165
 40
0.7529508932
 40
0.8147862903
 40
0.8765592252
 40
0.938290164
 40
1.0
 40
1.0
 40
1.0
 40
1.0
 10
8.1022963774
 20
9.7421262251
 30
0.0
 10
8.1022963774
 20
9.7494085669
 30
0.0
 10
8.1026449607
 20
9.7639519081
 30
0.0
 10
8.1042181794
 20
9.7856784297
 30
0.0
 10
8.1068376529
 20
9.8072327558
 30
0.0
 10
8.1104970705
 20
9.8285642205
 30
0.0
 10
8.1151882834
 20
9.8496240944
 30
0.0
 10
8.1209004263
 20
9.8703636917
 30
0.0
 10
8.1276203615
 20
9.8907352373
 30
0.0
 10
8.1353326615
 20
9.9106917288
 30
0.0
 10
8.1440196662
 20
9.9301871996
 30
0.0
 10
8.1536611581
 20
9.9491764027
 30
0.0
 10
8.162477038
 20
9.9645499802
 30
0.0
 10
8.1699827135
 20
9.976549612
 30
0.0
 10
8.1777808374
 20
9.9883361581
 30
0.0
 10
8.1880812001
 20
10.0026770182
 30
0.0
 10
8.2012980357
 20
10.0192172649
 30
0.0
 10
8.2153372361
 20
10.0350459197
 30
0.0
 10
8.2252251264
 20
10.0451012526
 30
0.0
 10
8.2302932592
 20
10.0499966889
 30
0.0
  0
SPLINE
  5
3D4
100
AcDbEntity
  8
0
100
AcDbSpline
 62
7
  6
CONTINUOUS
 70
0
 71
3
 72
65
 73
61
 74
0
 42
0.0000001
 43
0.0000001
 44
0.0000000001
 40
0.0
 40
0.0
 40
0.0
 40
0.0
 40
0.008248869
 40
0.0160245288
 40
0.0233633373
 40
0.0303106786
 40
0.0369217262
 40
0.0401225018
 40
0.0432646688
 40
0.0463579553
 40
0.0494126275
 40
0.0524393748
 40
0.0554492101
 40
0.0584533582
 40
0.0614631114
 40
0.0644896909
 40
0.0675441223
 40
0.070637098
 40
0.0737788677
 40
0.0802447481
 40
0.0870151672
 40
0.0941505523
 40
0.1017011042
 40
0.1097076156
 40
0.1182024459
 40
0.1272108509
 40
0.1367518651
 40
0.1468395191
 40
0.1574833692
 40
0.1686894644
 40
0.1804605992
 40
0.1927970323
 40
0.2056966022
 40
0.2191552193
 40
0.2331669555
 40
0.2477243319
 40
0.2628184494
 40
0.2784390979
 40
0.2945749544
 40
0.3112135474
 40
0.3283415203
 40
0.3459444935
 40
0.3640073656
 40
0.3825141272
 40
0.4014481577
 40
0.4207920452
 40
0.4405278378
 40
0.4606369117
 40
0.5018972816
 40
0.5444147096
 40
0.5880229991
 40
0.6325499546
 40
0.677818424
 40
0.7236473137
 40
0.7698525774
 40
0.8162482172
 40
0.862647195
 40
0.908862614
 40
0.9547080971
 40
1.0
 40
1.0
 40
1.0
 40
1.0
 10
8.406918579
 20
11.7428382359
 30
0.0
 10
8.4053224183
 20
11.744323641
 30
0.0
 10
8.402309123
 20
11.7473057422
 30
0.0
 10
8.3982365052
 20
11.7519556036
 30
0.0
 10
8.3947540144
 20
11.7566420121
 30
0.0
 10
8.3918665711
 20
11.7613602768
 30
0.0
 10
8.3899395079
 20
11.7653591225
 30
0.0
 10
8.3887138971
 20
11.7685580353
 30
0.0
 10
8.3879553444
 20
11.7709356641
 30
0.0
 10
8.3873480751
 20
11.7733165355
 30
0.0
 10
8.3868922405
 20
11.7756999958
 30
0.0
 10
8.3865880311
 20
11.7780853154
 30
0.0
 10
8.3864356227
 20
11.7804717674
 30
0.0
 10
8.3864350939
 20
11.7828585977
 30
0.0
 10
8.3865863898
 20
11.7852450519
 30
0.0
 10
8.3868894494
 20
11.7876303914
 30
0.0
 10
8.3873441871
 20
11.7900138547
 30
0.0
 10
8.3879504286
 20
11.7923947876
 30
0.0
 10
8.3889698387
 20
11.7955951239
 30
0.0
 10
8.3906390849
 20
11.7995999982
 30
0.0
 10
8.3932250739
 20
11.8043330692
 30
0.0
 10
8.3964085052
 20
11.8090361881
 30
0.0
 10
8.4001845245
 20
11.813704945
 30
0.0
 10
8.4045485131
 20
11.8183355837
 30
0.0
 10
8.4094954663
 20
11.8229241896
 30
0.0
 10
8.4150201819
 20
11.8274665435
 30
0.0
 10
8.4211168031
 20
11.831958482
 30
0.0
 10
8.4277790677
 20
11.8363954747
 30
0.0
 10
8.4349999695
 20
11.8407731742
 30
0.0
 10
8.4427720059
 20
11.8450869425
 30
0.0
 10
8.4510869538
 20
11.8493323744
 30
0.0
 10
8.4599360525
 20
11.8535048801
 30
0.0
 10
8.4693098803
 20
11.8576000842
 30
0.0
 10
8.4791984616
 20
11.8616135406
 30
0.0
 10
8.4895912206
 20
11.865540961
 30
0.0
 10
8.5004770282
 20
11.8693780971
 30
0.0
 10
8.5118442061
 20
11.8731207899
 30
0.0
 10
8.5236805376
 20
11.8767650191
 30
0.0
 10
8.5359732973
 20
11.8803067905
 30
0.0
 10
8.5487092468
 20
11.8837423274
 30
0.0
 10
8.5618746722
 20
11.8870678339
 30
0.0
 10
8.5754553794
 20
11.890279784
 30
0.0
 10
8.5894367289
 20
11.8933746129
 30
0.0
 10
8.6038036372
 20
11.8963490469
 30
0.0
 10
8.6185406058
 20
11.8991997851
 30
0.0
 10
8.6336317265
 20
11.9019238017
 30
0.0
 10
8.6490607264
 20
11.904518105
 30
0.0
 10
8.6702422979
 20
11.9078287799
 30
0.0
 10
8.6974428493
 20
11.9116128378
 30
0.0
 10
8.7308848639
 20
11.9155575464
 30
0.0
 10
8.7652573837
 20
11.9189267173
 30
0.0
 10
8.8004119835
 20
11.9217056746
 30
0.0
 10
8.836196993
 20
11.9238822848
 30
0.0
 10
8.8724579431
 20
11.9254470565
 30
0.0
 10
8.9090383048
 20
11.9263931675
 30
0.0
 10
8.9457801474
 20
11.9267164899
 30
0.0
 10
8.9825248557
 20
11.9264156222
 30
0.0
 10
9.0191137699
 20
11.9254918597
 30
0.0
 10
9.0553888457
 20
11.9239492587
 30
0.0
 10
9.0794369774
 20
11.9225020345
 30
0.0
 10
9.0913801873
 20
11.9216737701
 30
0.0
  0
SPLINE
  5
3D5
100
AcDbEntity
  8
0
100
AcDbSpline
 62
7
  6
CONTINUOUS
 70
0
 71
3
 72
42
 73
38
 74
0
 42
0.0000001
 43
0.0000001
 44
0.0000000001
 40
0.0
 40
0.0
 40
0.0
 40
0.0
 40
0.0149723971
 40
0.029947854
 40
0.0449294092
 40
0.0599200692
 40
0.0749227779
 40
0.0899404136
 40
0.1200256609
 40
0.1502025864
 40
0.1804899033
 40
0.2109037105
 40
0.2414571471
 40
0.2721601282
 40
0.3030191646
 40
0.3340372675
 40
0.3652139349
 40
0.3965452155
 40
0.4280238444
 40
0.459639443
 40
0.4913787765
 40
0.5232260611
 40
0.5551633129
 40
0.5871707307
 40
0.6192271064
 40
0.6513102549
 40
0.683397459
 40
0.7154659208
 40
0.7474932143
 40
0.7794577337
 40
0.8113391302
 40
0.8431187274
 40
0.8747799267
 40
0.906308519
 40
0.9376931951
 40
0.9689252215
 40
1.0
 40
1.0
 40
1.0
 40
1.0
 10
12.8256906925
 20
5.5256753923
 30
0.0
 10
12.8223226693
 20
5.5224221308
 30
0.0
 10
12.8154558301
 20
5.5160480977
 30
0.0
 10
12.8047825655
 20
5.5069029804
 30
0.0
 10
12.7937499665
 20
5.4981851338
 30
0.0
 10
12.7823733981
 20
5.4899069088
 30
0.0
 10
12.7706682615
 20
5.4820794476
 30
0.0
 10
12.754637728
 20
5.4722537195
 30
0.0
 10
12.733847742
 20
5.4611475239
 30
0.0
 10
12.7078732113
 20
5.4497931304
 30
0.0
 10
12.6809954071
 20
5.4404629602
 30
0.0
 10
12.6533634546
 20
5.4332087345
 30
0.0
 10
12.625129315
 20
5.4280698733
 30
0.0
 10
12.596448514
 20
5.4250743376
 30
0.0
 10
12.5674788561
 20
5.4242382178
 30
0.0
 10
12.538379672
 20
5.4255657417
 30
0.0
 10
12.509310916
 20
5.4290492499
 30
0.0
 10
12.4804323038
 20
5.4346692603
 30
0.0
 10
12.4519024435
 20
5.4423945872
 30
0.0
 10
12.4238779765
 20
5.4521825198
 30
0.0
 10
12.3965127259
 20
5.463979058
 30
0.0
 10
12.3699568668
 20
5.4777192227
 30
0.0
 10
12.3443561135
 20
5.4933274132
 30
0.0
 10
12.319850931
 20
5.5107178214
 30
0.0
 10
12.2965757745
 20
5.5297949009
 30
0.0
 10
12.2746583605
 20
5.5504538873
 30
0.0
 10
12.2542189744
 20
5.5725813683
 30
0.0
 10
12.2353698173
 20
5.5960559
 30
0.0
 10
12.2182143961
 20
5.6207486658
 30
0.0
 10
12.202846951
 20
5.6465241698
 30
0.0
 10
12.1893519536
 20
5.6732409842
 30
0.0
 10
12.1778036352
 20
5.7007524964
 30
0.0
 10
12.1682656094
 20
5.7289077661
 30
0.0
 10
12.1607904432
 20
5.7575521194
 30
0.0
 10
12.1554195515
 20
5.7865288061
 30
0.0
 10
12.1521826045
 20
5.8156766459
 30
0.0
 10
12.1514576111
 20
5.8351707497
 30
0.0
 10
12.1514576111
 20
5.8448894724
 30
0.0
  0
SPLINE
  5
3D6
100
AcDbEntity
  8
0
100
AcDbSpline
 62
7
  6
CONTINUOUS
 70
0
 71
3
 72
42
 73
38
 74
0
 42
0.0000001
 43
0.0000001
 44
0.0000000001
 40
0.0
 40
0.0
 40
0.0
 40
0.0
 40
0.0149723971
 40
0.029947854
 40
0.0449294092
 40
0.0599200692
 40
0.0749227779
 40
0.0899404136
 40
0.1200256609
 40
0.1502025864
 40
0.1804899033
 40
0.2109037105
 40
0.2414571471
 40
0.2721601282
 40
0.3030191646
 40
0.3340372675
 40
0.3652139349
 40
0.3965452155
 40
0.4280238444
 40
0.459639443
 40
0.4913787765
 40
0.5232260611
 40
0.5551633129
 40
0.5871707307
 40
0.6192271064
 40
0.6513102549
 40
0.683397459
 40
0.7154659208
 40
0.7474932143
 40
0.7794577337
 40
0.8113391302
 40
0.8431187274
 40
0.8747799267
 40
0.906308519
 40
0.9376931951
 40
0.9689252215
 40
1.0
 40
1.0
 40
1.0
 40
1.0
 10
8.9619871584
 20
5.7936241425
 30
0.0
 10
8.9586191352
 20
5.7903708809
 30
0.0
 10
8.9517522961
 20
5.7839968479
 30
0.0
 10
8.9410790314
 20
5.7748517306
 30
0.0
 10
8.9300464324
 20
5.7661338839
 30
0.0
 10
8.918669864
 20
5.757855659
 30
0.0
 10
8.9069647274
 20
5.7500281977
 30
0.0
 10
8.8909341939
 20
5.7402024696
 30
0.0
 10
8.870144208
 20
5.729096274
 30
0.0
 10
8.8441696772
 20
5.7177418805
 30
0.0
 10
8.817291873
 20
5.7084117104
 30
0.0
 10
8.7896599205
 20
5.7011574847
 30
0.0
 10
8.7614257809
 20
5.6960186234
 30
0.0
 10
8.7327449799
 20
5.6930230878
 30
0.0
 10
8.7037753221
 20
5.692186968
 30
0.0
 10
8.6746761379
 20
5.6935144918
 30
0.0
 10
8.6456073819
 20
5.696998
 30
0.0
 10
8.6167287697
 20
5.7026180104
 30
0.0
 10
8.5881989094
 20
5.7103433373
 30
0.0
 10
8.5601744424
 20
5.72013127
 30
0.0
 10
8.5328091918
 20
5.7319278082
 30
0.0
 10
8.5062533327
 20
5.7456679729
 30
0.0
 10
8.4806525794
 20
5.7612761634
 30
0.0
 10
8.4561473969
 20
5.7786665716
 30
0.0
 10
8.4328722404
 20
5.7977436511
 30
0.0
 10
8.4109548264
 20
5.8184026375
 30
0.0
 10
8.3905154403
 20
5.8405301185
 30
0.0
 10
8.3716662833
 20
5.8640046502
 30
0.0
 10
8.354510862
 20
5.8886974159
 30
0.0
 10
8.3391434169
 20
5.9144729199
 30
0.0
 10
8.3256484195
 20
5.9411897343
 30
0.0
 10
8.3141001011
 20
5.9687012466
 30
0.0
 10
8.3045620753
 20
5.9968565162
 30
0.0
 10
8.2970869091
 20
6.0255008696
 30
0.0
 10
8.2917160174
 20
6.0544775563
 30
0.0
 10
8.2884790704
 20
6.083625396
 30
0.0
 10
8.287754077
 20
6.1031194999
 30
0.0
 10
8.287754077
 20
6.1128382226
 30
0.0
  0
SPLINE
  5
3D7
100
AcDbEntity
  8
0
100
AcDbSpline
 62
7
  6
CONTINUOUS
 70
0
 71
3
 72
45
 73
41
 74
0
 42
0.0000001
 43
0.0000001
 44
0.0000000001
 40
0.0
 40
0.0
 40
0.0
 40
0.0
 40
0.0374444051
 40
0.0752549388
 40
0.1133468104
 40
0.1516417045
 40
0.1900576451
 40
0.2285126242
 40
0.2669248811
 40
0.3052125474
 40
0.3432941579
 40
0.381088825
 40
0.4185164173
 40
0.4554978648
 40
0.4919553507
 40
0.5278125003
 40
0.562994698
 40
0.5974293218
 40
0.6310459135
 40
0.6637765003
 40
0.6955559394
 40
0.7263220905
 40
0.7560161495
 40
0.7845831568
 40
0.8119722756
 40
0.8381372176
 40
0.8630369785
 40
0.8866364812
 40
0.8979398914
 40
0.9089082717
 40
0.9195392362
 40
0.9298311161
 40
0.9397828774
 40
0.9493940553
 40
0.9586651289
 40
0.96759739
 40
0.9761929984
 40
0.9844553775
 40
0.992389082
 40
1.0
 40
1.0
 40
1.0
 40
1.0
 10
11.2309281382
 20
11.6030208879
 30
0.0
 10
11.224398466
 20
11.6034737222
 30
0.0
 10
11.2112690874
 20
11.6042968098
 30
0.0
 10
11.191479809
 20
11.6052813826
 30
0.0
 10
11.1715310451
 20
11.6060203875
 30
0.0
 10
11.1514688162
 20
11.6065121694
 30
0.0
 10
11.1313385626
 20
11.6067555927
 30
0.0
 10
11.1111863252
 20
11.6067501068
 30
0.0
 10
11.091058115
 20
11.6064957197
 30
0.0
 10
11.0709998569
 20
11.6059930007
 30
0.0
 10
11.0510573408
 20
11.6052431269
 30
0.0
 10
11.0312760861
 20
11.6042478146
 30
0.0
 10
11.0117012419
 20
11.6030093251
 30
0.0
 10
10.9923774814
 20
11.6015305229
 30
0.0
 10
10.9733489024
 20
11.5998148079
 30
0.0
 10
10.9546589298
 20
11.5978660952
 30
0.0
 10
10.9363502044
 20
11.5956888683
 30
0.0
 10
10.9184644883
 20
11.5932881447
 30
0.0
 10
10.9010425785
 20
11.590669423
 30
0.0
 10
10.8841242004
 20
11.5878387104
 30
0.0
 10
10.8677479076
 20
11.5848025388
 30
0.0
 10
10.8519510094
 20
11.5815678846
 30
0.0
 10
10.8367694787
 20
11.5781421591
 30
0.0
 10
10.8222378362
 20
11.5745332669
 30
0.0
 10
10.8083891045
 20
11.5707495145
 30
0.0
 10
10.7952546643
 20
11.5667995706
 30
0.0
 10
10.7828643813
 20
11.5626925059
 30
0.0
 10
10.7730462629
 20
11.5590971449
 30
0.0
 10
10.7655917978
 20
11.5561422113
 30
0.0
 10
10.7602846977
 20
11.5539245261
 30
0.0
 10
10.7551838006
 20
11.5516746911
 30
0.0
 10
10.7502919822
 20
11.5493939887
 30
0.0
 10
10.7456119981
 20
11.5470837509
 30
0.0
 10
10.7411465221
 20
11.5447452184
 30
0.0
 10
10.7368980544
 20
11.5423797551
 30
0.0
 10
10.7328689743
 20
11.5399887048
 30
0.0
 10
10.72906159
 20
11.5375733407
 30
0.0
 10
10.7254779806
 20
11.5351350466
 30
0.0
 10
10.7221202257
 20
11.5326752206
 30
0.0
 10
10.7199898561
 20
11.5309871888
 30
0.0
 10
10.7189646775
 20
11.5301392608
 30
0.0
  0
SPLINE
  5
3D8
100
AcDbEntity
  8
0
100
AcDbSpline
 62
7
  6
CONTINUOUS
 70
0
 71
3
 72
56
 73
52
 74
0
 42
0.0000001
 43
0.0000001
 44
0.0000000001
 40
0.0
 40
0.0
 40
0.0
 40
0.0
 40
0.0528982897
 40
0.1050253704
 40
0.1562613861
 40
0.2064947536
 40
0.2556139344
 40
0.3035119723
 40
0.350085679
 40
0.3952362979
 40
0.4388700056
 40
0.4808984038
 40
0.5212391516
 40
0.5598167002
 40
0.5965630842
 40
0.6142312003
 40
0.6314199975
 40
0.648123614
 40
0.6643369231
 40
0.6800554301
 40
0.6952756727
 40
0.7099949249
 40
0.7242115616
 40
0.7379250919
 40
0.751136125
 40
0.7638468495
 40
0.7760608228
 40
0.7877834515
 40
0.7990221396
 40
0.809786418
 40
0.8200885668
 40
0.8299436149
 40
0.8393700009
 40
0.8483899132
 40
0.8570296276
 40
0.8732865752
 40
0.8809916853
 40
0.8884709628
 40
0.8957755484
 40
0.9029608185
 40
0.9100851782
 40
0.9172087046
 40
0.9243914841
 40
0.9316920242
 40
0.9391657414
 40
0.9468639657
 40
0.9631035808
 40
0.9717332385
 40
0.9807422217
 40
0.9901570613
 40
1.0
 40
1.0
 40
1.0
 40
1.0
 10
11.266645137
 20
11.7708186334
 30
0.0
 10
11.2754910215
 20
11.7702051693
 30
0.0
 10
11.2930458374
 20
11.7688683033
 30
0.0
 10
11.3191341522
 20
11.7665141201
 30
0.0
 10
11.3447415638
 20
11.7638299464
 30
0.0
 10
11.3698053183
 20
11.7608224854
 30
0.0
 10
11.3942646464
 20
11.7574990311
 30
0.0
 10
11.4180598791
 20
11.7538677669
 30
0.0
 10
11.4411331287
 20
11.7499376029
 30
0.0
 10
11.4634282569
 20
11.7457181932
 30
0.0
 10
11.4848910528
 20
11.7412199026
 30
0.0
 10
11.5054693491
 20
11.7364537777
 30
0.0
 10
11.5251132356
 20
11.7314315218
 30
0.0
 10
11.5437749475
 20
11.7261654684
 30
0.0
 10
11.5586589021
 20
11.7215260727
 30
0.0
 10
11.5700335762
 20
11.7176934797
 30
0.0
 10
11.5781795064
 20
11.7148038161
 30
0.0
 10
11.5860473259
 20
11.7118630681
 30
0.0
 10
11.5936322809
 20
11.7088730432
 30
0.0
 10
11.6009297516
 20
11.7058354958
 30
0.0
 10
11.6079353404
 20
11.7027523499
 30
0.0
 10
11.6146447958
 20
11.6996254217
 30
0.0
 10
11.6210540665
 20
11.6964566156
 30
0.0
 10
11.6271593045
 20
11.6932478859
 30
0.0
 10
11.6329568027
 20
11.690001083
 30
0.0
 10
11.6384431172
 20
11.6867182398
 30
0.0
 10
11.6436149344
 20
11.6834012451
 30
0.0
 10
11.6484691656
 20
11.68005207
 30
0.0
 10
11.6530029414
 20
11.6766727148
 30
0.0
 10
11.6572135017
 20
11.6732650367
 30
0.0
 10
11.661098388
 20
11.6698310821
 30
0.0
 10
11.6646552398
 20
11.6663726471
 30
0.0
 10
11.6678818003
 20
11.6628918022
 30
0.0
 10
11.6707764154
 20
11.6593898942
 30
0.0
 10
11.6741217115
 20
11.6547902803
 30
0.0
 10
11.6768946998
 20
11.6500539771
 30
0.0
 10
11.6789948404
 20
11.6452145654
 30
0.0
 10
11.6802015161
 20
11.6416380608
 30
0.0
 10
11.6810658008
 20
11.6380531534
 30
0.0
 10
11.6815868566
 20
11.6344623267
 30
0.0
 10
11.6817637767
 20
11.6308684594
 30
0.0
 10
11.6815963526
 20
11.6272745575
 30
0.0
 10
11.6810848846
 20
11.6236835919
 30
0.0
 10
11.6802299901
 20
11.6200985095
 30
0.0
 10
11.6790328413
 20
11.6165217095
 30
0.0
 10
11.6769455466
 20
11.6116821641
 30
0.0
 10
11.6741850838
 20
11.60694511
 30
0.0
 10
11.6708517213
 20
11.6023447649
 30
0.0
 10
11.6679663579
 20
11.5988422521
 30
0.0
 10
11.6647490059
 20
11.5953608918
 30
0.0
 10
11.662436547
 20
11.5931062451
 30
0.0
 10
11.6612287095
 20
11.5919822314
 30
0.0
  0
SPLINE
  5
3D9
100
AcDbEntity
  8
0
100
AcDbSpline
 62
7
  6
CONTINUOUS
 70
0
 71
3
 72
45
 73
41
 74
0
 42
0.0000001
 43
0.0000001
 44
0.0000000001
 40
0.0
 40
0.0
 40
0.0
 40
0.0
 40
0.0149721379
 40
0.0299473343
 40
0.0449286317
 40
0.0599190303
 40
0.0749214809
 40
0.089938856
 40
0.1049739397
 40
0.1200294108
 40
0.1351078203
 40
0.1502115887
 40
0.1653429784
 40
0.1805040926
 40
0.2109173739
 40
0.2414702831
 40
0.2721727342
 40
0.3030312377
 40
0.3340488046
 40
0.365224933
 40
0.396555672
 40
0.4280337568
 40
0.4596488082
 40
0.4913875919
 40
0.5232343248
 40
0.5551710235
 40
0.5871778874
 40
0.6192337084
 40
0.6513163011
 40
0.6834029486
 40
0.7154708537
 40
0.7474975916
 40
0.7794615572
 40
0.8113424013
 40
0.8431214485
 40
0.8747820968
 40
0.9063101458
 40
0.9376942762
 40
0.9689257414
 40
1.0
 40
1.0
 40
1.0
 40
1.0
 10
12.6300621841
 20
9.1113775222
 30
0.0
 10
12.6261466493
 20
9.1075954092
 30
0.0
 10
12.6181634639
 20
9.1001852799
 30
0.0
 10
12.6057551958
 20
9.0895534544
 30
0.0
 10
12.5929290833
 20
9.0794185005
 30
0.0
 10
12.579703084
 20
9.0697945286
 30
0.0
 10
12.5660953349
 20
9.0606947097
 30
0.0
 10
12.5521245318
 20
9.0521316627
 30
0.0
 10
12.5378099827
 20
9.0441170153
 30
0.0
 10
12.5231712994
 20
9.0366619662
 30
0.0
 10
12.5082286903
 20
9.0297765984
 30
0.0
 10
12.4930027491
 20
9.0234705022
 30
0.0
 10
12.4775141372
 20
9.0177522491
 30
0.0
 10
12.4565220864
 20
9.010915815
 30
0.0
 10
12.4297204924
 20
9.0038793636
 30
0.0
 10
12.3968973676
 20
8.9979054404
 30
0.0
 10
12.3635539653
 20
8.9944229021
 30
0.0
 10
12.3298750243
 20
8.9934509111
 30
0.0
 10
12.2960454298
 20
8.9949942565
 30
0.0
 10
12.2622512311
 20
8.9990440694
 30
0.0
 10
12.2286780827
 20
9.0055776976
 30
0.0
 10
12.1955103855
 20
9.0145588931
 30
0.0
 10
12.1629302385
 20
9.0259379847
 30
0.0
 10
12.1311164693
 20
9.0396521942
 30
0.0
 10
12.1002436644
 20
9.0556259804
 30
0.0
 10
12.0704812266
 20
9.0737714575
 30
0.0
 10
12.0419924584
 20
9.0939888744
 30
0.0
 10
12.0149336814
 20
9.1161671624
 30
0.0
 10
11.9894533704
 20
9.1401845182
 30
0.0
 10
11.9656913556
 20
9.1659090833
 30
0.0
 10
11.9437780707
 20
9.1931996672
 30
0.0
 10
11.9238338435
 20
9.2219065124
 30
0.0
 10
11.9059682415
 20
9.2518721043
 30
0.0
 10
11.8902794801
 20
9.2829320318
 30
0.0
 10
11.8768538672
 20
9.3149158494
 30
0.0
 10
11.8657653413
 20
9.347648074
 30
0.0
 10
11.8570750171
 20
9.3809488867
 30
0.0
 10
11.8508310338
 20
9.4146360483
 30
0.0
 10
11.8470678804
 20
9.44852219
 30
0.0
 10
11.8462250319
 20
9.4711852757
 30
0.0
 10
11.8462250319
 20
9.482483891
 30
0.0
  0
SPLINE
  5
3DA
100
AcDbEntity
  8
0
100
AcDbSpline
 62
7
  6
CONTINUOUS
 70
0
 71
3
 72
16
 73
12
 74
0
 42
0.0000001
 43
0.0000001
 44
0.0000000001
 40
0.0
 40
0.0
 40
0.0
 40
0.0
 40
0.1242288165
 40
0.1864000416
 40
0.2486124812
 40
0.3731705265
 40
0.4979521922
 40
0.6229938473
 40
0.7483291673
 40
0.8739887846
 40
1.0
 40
1.0
 40
1.0
 40
1.0
 10
12.6647469042
 20
9.1491703851
 30
0.0
 10
12.6590089853
 20
9.1448487587
 30
0.0
 10
12.6502276169
 20
9.1385879337
 30
0.0
 10
12.6382039236
 20
9.1307061777
 30
0.0
 10
12.6259626095
 20
9.1231300155
 30
0.0
 10
12.6102779826
 20
9.1142503232
 30
0.0
 10
12.5909033941
 20
9.104571983
 30
0.0
 10
12.5710134771
 20
9.0958890916
 30
0.0
 10
12.5506558826
 20
9.0882225182
 30
0.0
 10
12.5298798903
 20
9.0815907057
 30
0.0
 10
12.5158022072
 20
9.0778748347
 30
0.0
 10
12.5087123715
 20
9.0761938499
 30
0.0
  0
SPLINE
  5
3DB
100
AcDbEntity
  8
0
100
AcDbSpline
 62
7
  6
CONTINUOUS
 70
0
 71
3
 72
65
 73
61
 74
0
 42
0.0000001
 43
0.0000001
 44
0.0000000001
 40
0.0
 40
0.0
 40
0.0
 40
0.0
 40
0.008248869
 40
0.0160245288
 40
0.0233633373
 40
0.0303106786
 40
0.0369217262
 40
0.0401225018
 40
0.0432646688
 40
0.0463579553
 40
0.0494126275
 40
0.0524393748
 40
0.0554492101
 40
0.0584533582
 40
0.0614631114
 40
0.0644896909
 40
0.0675441223
 40
0.070637098
 40
0.0737788677
 40
0.0802447481
 40
0.0870151672
 40
0.0941505523
 40
0.1017011042
 40
0.1097076156
 40
0.1182024459
 40
0.1272108509
 40
0.1367518651
 40
0.1468395191
 40
0.1574833692
 40
0.1686894644
 40
0.1804605992
 40
0.1927970323
 40
0.2056966022
 40
0.2191552193
 40
0.2331669555
 40
0.2477243319
 40
0.2628184494
 40
0.2784390979
 40
0.2945749544
 40
0.3112135474
 40
0.3283415203
 40
0.3459444935
 40
0.3640073656
 40
0.3825141272
 40
0.4014481577
 40
0.4207920452
 40
0.4405278378
 40
0.4606369117
 40
0.5018972816
 40
0.5444147096
 40
0.5880229991
 40
0.6325499546
 40
0.677818424
 40
0.7236473137
 40
0.7698525774
 40
0.8162482172
 40
0.862647195
 40
0.908862614
 40
0.9547080971
 40
1.0
 40
1.0
 40
1.0
 40
1.0
 10
10.5821835286
 20
11.5919830992
 30
0.0
 10
10.580587368
 20
11.5934685043
 30
0.0
 10
10.5775740727
 20
11.5964506056
 30
0.0
 10
10.5735014549
 20
11.601100467
 30
0.0
 10
10.5700189641
 20
11.6057868754
 30
0.0
 10
10.5671315208
 20
11.6105051402
 30
0.0
 10
10.5652044576
 20
11.6145039858
 30
0.0
 10
10.5639788468
 20
11.6177028986
 30
0.0
 10
10.563220294
 20
11.6200805275
 30
0.0
 10
10.5626130248
 20
11.6224613988
 30
0.0
 10
10.5621571902
 20
11.6248448592
 30
0.0
 10
10.5618529808
 20
11.6272301788
 30
0.0
 10
10.5617005724
 20
11.6296166308
 30
0.0
 10
10.5617000436
 20
11.632003461
 30
0.0
 10
10.5618513394
 20
11.6343899152
 30
0.0
 10
10.5621543991
 20
11.6367752548
 30
0.0
 10
10.5626091367
 20
11.6391587181
 30
0.0
 10
10.5632153783
 20
11.6415396509
 30
0.0
 10
10.5642347883
 20
11.6447399872
 30
0.0
 10
10.5659040346
 20
11.6487448615
 30
0.0
 10
10.5684900235
 20
11.6534779326
 30
0.0
 10
10.5716734549
 20
11.6581810515
 30
0.0
 10
10.5754494741
 20
11.6628498084
 30
0.0
 10
10.5798134628
 20
11.667480447
 30
0.0
 10
10.584760416
 20
11.6720690529
 30
0.0
 10
10.5902851316
 20
11.6766114068
 30
0.0
 10
10.5963817528
 20
11.6811033454
 30
0.0
 10
10.6030440174
 20
11.6855403381
 30
0.0
 10
10.6102649192
 20
11.6899180376
 30
0.0
 10
10.6180369556
 20
11.6942318059
 30
0.0
 10
10.6263519035
 20
11.6984772378
 30
0.0
 10
10.6352010022
 20
11.7026497435
 30
0.0
 10
10.64457483
 20
11.7067449476
 30
0.0
 10
10.6544634113
 20
11.710758404
 30
0.0
 10
10.6648561702
 20
11.7146858243
 30
0.0
 10
10.6757419778
 20
11.7185229604
 30
0.0
 10
10.6871091558
 20
11.7222656533
 30
0.0
 10
10.6989454873
 20
11.7259098825
 30
0.0
 10
10.711238247
 20
11.7294516539
 30
0.0
 10
10.7239741964
 20
11.7328871908
 30
0.0
 10
10.7371396218
 20
11.7362126973
 30
0.0
 10
10.7507203291
 20
11.7394246474
 30
0.0
 10
10.7647016786
 20
11.7425194763
 30
0.0
 10
10.7790685869
 20
11.7454939102
 30
0.0
 10
10.7938055555
 20
11.7483446485
 30
0.0
 10
10.8088966762
 20
11.7510686651
 30
0.0
 10
10.824325676
 20
11.7536629684
 30
0.0
 10
10.8455072476
 20
11.7569736433
 30
0.0
 10
10.872707799
 20
11.7607577012
 30
0.0
 10
10.9061498135
 20
11.7647024098
 30
0.0
 10
10.9405223333
 20
11.7680715807
 30
0.0
 10
10.9756769331
 20
11.770850538
 30
0.0
 10
11.0114619427
 20
11.7730271482
 30
0.0
 10
11.0477228928
 20
11.7745919198
 30
0.0
 10
11.0843032545
 20
11.7755380309
 30
0.0
 10
11.1210450971
 20
11.7758613533
 30
0.0
 10
11.1577898053
 20
11.7755604856
 30
0.0
 10
11.1943787196
 20
11.774636723
 30
0.0
 10
11.2306537954
 20
11.7730941221
 30
0.0
 10
11.254701927
 20
11.7716468979
 30
0.0
 10
11.266645137
 20
11.7708186334
 30
0.0
  0
SPLINE
  5
3DC
100
AcDbEntity
  8
0
100
AcDbSpline
 62
7
  6
CONTINUOUS
 70
0
 71
3
 72
16
 73
12
 74
0
 42
0.0000001
 43
0.0000001
 44
0.0000000001
 40
0.0
 40
0.0
 40
0.0
 40
0.0
 40
0.1242029183
 40
0.2485553174
 40
0.3730991344
 40
0.4978742378
 40
0.5603656906
 40
0.6229287282
 40
0.7482755772
 40
0.8739567978
 40
1.0
 40
1.0
 40
1.0
 40
1.0
 10
12.0125633277
 20
9.8229271327
 30
0.0
 10
12.0079796754
 20
9.8172328015
 30
0.0
 10
11.9991083402
 20
9.8055908115
 30
0.0
 10
11.9867393785
 20
9.7874352187
 30
0.0
 10
11.9753308205
 20
9.7686215166
 30
0.0
 10
11.9666518466
 20
9.7524415325
 30
0.0
 10
11.9602166418
 20
9.7392192304
 30
0.0
 10
11.9541161619
 20
9.725802238
 30
0.0
 10
11.9471388391
 20
9.708705603
 30
0.0
 10
11.9398304855
 20
9.687741251
 30
0.0
 10
11.9356816726
 20
9.6735106654
 30
0.0
 10
11.9337889901
 20
9.6663379229
 30
0.0
  0
SPLINE
  5
3DD
100
AcDbEntity
  8
0
100
AcDbSpline
 62
7
  6
CONTINUOUS
 70
0
 71
3
 72
45
 73
41
 74
0
 42
0.0000001
 43
0.0000001
 44
0.0000000001
 40
0.0
 40
0.0
 40
0.0
 40
0.0
 40
0.0149721379
 40
0.0299473343
 40
0.0449286317
 40
0.0599190303
 40
0.0749214809
 40
0.089938856
 40
0.1049739397
 40
0.1200294108
 40
0.1351078203
 40
0.1502115887
 40
0.1653429784
 40
0.1805040926
 40
0.2109173739
 40
0.2414702831
 40
0.2721727342
 40
0.3030312377
 40
0.3340488046
 40
0.365224933
 40
0.396555672
 40
0.4280337568
 40
0.4596488082
 40
0.4913875919
 40
0.5232343248
 40
0.5551710235
 40
0.5871778874
 40
0.6192337084
 40
0.6513163011
 40
0.6834029486
 40
0.7154708537
 40
0.7474975916
 40
0.7794615572
 40
0.8113424013
 40
0.8431214485
 40
0.8747820968
 40
0.9063101458
 40
0.9376942762
 40
0.9689257414
 40
1.0
 40
1.0
 40
1.0
 40
1.0
 10
11.0613984792
 20
9.2201647196
 30
0.0
 10
11.0574829445
 20
9.2163826066
 30
0.0
 10
11.049499759
 20
9.2089724773
 30
0.0
 10
11.0370914909
 20
9.1983406518
 30
0.0
 10
11.0242653785
 20
9.1882056979
 30
0.0
 10
11.0110393792
 20
9.178581726
 30
0.0
 10
10.99743163
 20
9.1694819072
 30
0.0
 10
10.983460827
 20
9.1609188602
 30
0.0
 10
10.9691462779
 20
9.1529042127
 30
0.0
 10
10.9545075945
 20
9.1454491636
 30
0.0
 10
10.9395649854
 20
9.1385637958
 30
0.0
 10
10.9243390443
 20
9.1322576996
 30
0.0
 10
10.9088504323
 20
9.1265394466
 30
0.0
 10
10.8878583815
 20
9.1197030125
 30
0.0
 10
10.8610567875
 20
9.112666561
 30
0.0
 10
10.8282336627
 20
9.1066926378
 30
0.0
 10
10.7948902605
 20
9.1032100995
 30
0.0
 10
10.7612113195
 20
9.1022381085
 30
0.0
 10
10.727381725
 20
9.1037814539
 30
0.0
 10
10.6935875262
 20
9.1078312668
 30
0.0
 10
10.6600143779
 20
9.114364895
 30
0.0
 10
10.6268466807
 20
9.1233460905
 30
0.0
 10
10.5942665336
 20
9.1347251822
 30
0.0
 10
10.5624527645
 20
9.1484393916
 30
0.0
 10
10.5315799596
 20
9.1644131779
 30
0.0
 10
10.5018175218
 20
9.182558655
 30
0.0
 10
10.4733287535
 20
9.2027760719
 30
0.0
 10
10.4462699765
 20
9.2249543599
 30
0.0
 10
10.4207896655
 20
9.2489717157
 30
0.0
 10
10.3970276508
 20
9.2746962807
 30
0.0
 10
10.3751143659
 20
9.3019868646
 30
0.0
 10
10.3551701387
 20
9.3306937098
 30
0.0
 10
10.3373045366
 20
9.3606593017
 30
0.0
 10
10.3216157752
 20
9.3917192292
 30
0.0
 10
10.3081901624
 20
9.4237030468
 30
0.0
 10
10.2971016365
 20
9.4564352714
 30
0.0
 10
10.2884113123
 20
9.4897360842
 30
0.0
 10
10.2821673289
 20
9.5234232457
 30
0.0
 10
10.2784041756
 20
9.5573093875
 30
0.0
 10
10.277561327
 20
9.5799724731
 30
0.0
 10
10.277561327
 20
9.5912710885
 30
0.0
  0
SPLINE
  5
3DE
100
AcDbEntity
  8
0
100
AcDbSpline
 62
7
  6
CONTINUOUS
 70
0
 71
3
 72
16
 73
12
 74
0
 42
0.0000001
 43
0.0000001
 44
0.0000000001
 40
0.0
 40
0.0
 40
0.0
 40
0.0
 40
0.1242288165
 40
0.1864000416
 40
0.2486124812
 40
0.3731705265
 40
0.4979521922
 40
0.6229938473
 40
0.7483291673
 40
0.8739887846
 40
1.0
 40
1.0
 40
1.0
 40
1.0
 10
11.0960831994
 20
9.2579575825
 30
0.0
 10
11.0903452804
 20
9.2536359561
 30
0.0
 10
11.0815639121
 20
9.2473751312
 30
0.0
 10
11.0695402187
 20
9.2394933752
 30
0.0
 10
11.0572989047
 20
9.231917213
 30
0.0
 10
11.0416142778
 20
9.2230375206
 30
0.0
 10
11.0222396893
 20
9.2133591804
 30
0.0
 10
11.0023497723
 20
9.204676289
 30
0.0
 10
10.9819921778
 20
9.1970097157
 30
0.0
 10
10.9612161855
 20
9.1903779031
 30
0.0
 10
10.9471385023
 20
9.1866620321
 30
0.0
 10
10.9400486667
 20
9.1849810473
 30
0.0
  0
SPLINE
  5
3DF
100
AcDbEntity
  8
0
100
AcDbSpline
 62
7
  6
CONTINUOUS
 70
0
 71
3
 72
56
 73
52
 74
0
 42
0.0000001
 43
0.0000001
 44
0.0000000001
 40
0.0
 40
0.0
 40
0.0
 40
0.0
 40
0.0528982897
 40
0.1050253704
 40
0.1562613861
 40
0.2064947536
 40
0.2556139344
 40
0.3035119723
 40
0.350085679
 40
0.3952362979
 40
0.4388700056
 40
0.4808984038
 40
0.5212391516
 40
0.5598167002
 40
0.5965630842
 40
0.6142312003
 40
0.6314199975
 40
0.648123614
 40
0.6643369231
 40
0.6800554301
 40
0.6952756727
 40
0.7099949249
 40
0.7242115616
 40
0.7379250919
 40
0.751136125
 40
0.7638468495
 40
0.7760608228
 40
0.7877834515
 40
0.7990221396
 40
0.809786418
 40
0.8200885668
 40
0.8299436149
 40
0.8393700009
 40
0.8483899132
 40
0.8570296276
 40
0.8732865752
 40
0.8809916853
 40
0.8884709628
 40
0.8957755484
 40
0.9029608185
 40
0.9100851782
 40
0.9172087046
 40
0.9243914841
 40
0.9316920242
 40
0.9391657414
 40
0.9468639657
 40
0.9631035808
 40
0.9717332385
 40
0.9807422217
 40
0.9901570613
 40
1.0
 40
1.0
 40
1.0
 40
1.0
 10
9.0913801873
 20
11.9216737701
 30
0.0
 10
9.1002260718
 20
11.9210603059
 30
0.0
 10
9.1177808877
 20
11.9197234399
 30
0.0
 10
9.1438692025
 20
11.9173692568
 30
0.0
 10
9.1694766142
 20
11.914685083
 30
0.0
 10
9.1945403687
 20
11.9116776221
 30
0.0
 10
9.2189996968
 20
11.9083541677
 30
0.0
 10
9.2427949294
 20
11.9047229035
 30
0.0
 10
9.265868179
 20
11.9007927395
 30
0.0
 10
9.2881633072
 20
11.8965733298
 30
0.0
 10
9.3096261032
 20
11.8920750392
 30
0.0
 10
9.3302043994
 20
11.8873089144
 30
0.0
 10
9.3498482859
 20
11.8822866584
 30
0.0
 10
9.3685099978
 20
11.8770206051
 30
0.0
 10
9.3833939524
 20
11.8723812094
 30
0.0
 10
9.3947686265
 20
11.8685486163
 30
0.0
 10
9.4029145567
 20
11.8656589527
 30
0.0
 10
9.4107823763
 20
11.8627182047
 30
0.0
 10
9.4183673312
 20
11.8597281798
 30
0.0
 10
9.4256648019
 20
11.8566906325
 30
0.0
 10
9.4326703908
 20
11.8536074865
 30
0.0
 10
9.4393798462
 20
11.8504805584
 30
0.0
 10
9.4457891168
 20
11.8473117522
 30
0.0
 10
9.4518943548
 20
11.8441030225
 30
0.0
 10
9.457691853
 20
11.8408562196
 30
0.0
 10
9.4631781675
 20
11.8375733765
 30
0.0
 10
9.4683499848
 20
11.8342563817
 30
0.0
 10
9.473204216
 20
11.8309072066
 30
0.0
 10
9.4777379917
 20
11.8275278514
 30
0.0
 10
9.481948552
 20
11.8241201734
 30
0.0
 10
9.4858334384
 20
11.8206862187
 30
0.0
 10
9.4893902901
 20
11.8172277837
 30
0.0
 10
9.4926168507
 20
11.8137469388
 30
0.0
 10
9.4955114657
 20
11.8102450308
 30
0.0
 10
9.4988567618
 20
11.805645417
 30
0.0
 10
9.5016297501
 20
11.8009091138
 30
0.0
 10
9.5037298907
 20
11.7960697021
 30
0.0
 10
9.5049365665
 20
11.7924931974
 30
0.0
 10
9.5058008512
 20
11.78890829
 30
0.0
 10
9.5063219069
 20
11.7853174633
 30
0.0
 10
9.5064988271
 20
11.7817235961
 30
0.0
 10
9.5063314029
 20
11.7781296941
 30
0.0
 10
9.505819935
 20
11.7745387286
 30
0.0
 10
9.5049650405
 20
11.7709536461
 30
0.0
 10
9.5037678916
 20
11.7673768461
 30
0.0
 10
9.5016805969
 20
11.7625373007
 30
0.0
 10
9.4989201341
 20
11.7578002466
 30
0.0
 10
9.4955867716
 20
11.7531999015
 30
0.0
 10
9.4927014082
 20
11.7496973887
 30
0.0
 10
9.4894840563
 20
11.7462160284
 30
0.0
 10
9.4871715974
 20
11.7439613818
 30
0.0
 10
9.4859637598
 20
11.742837368
 30
0.0
  0
SPLINE
  5
3E0
100
AcDbEntity
  8
0
100
AcDbSpline
 62
7
  6
CONTINUOUS
 70
0
 71
3
 72
16
 73
12
 74
0
 42
0.0000001
 43
0.0000001
 44
0.0000000001
 40
0.0
 40
0.0
 40
0.0
 40
0.0
 40
0.1242029183
 40
0.2485553174
 40
0.3730991344
 40
0.4978742378
 40
0.5603656906
 40
0.6229287282
 40
0.7482755772
 40
0.8739567978
 40
1.0
 40
1.0
 40
1.0
 40
1.0
 10
10.4438996229
 20
9.9317143302
 30
0.0
 10
10.4393159706
 20
9.9260199989
 30
0.0
 10
10.4304446354
 20
9.9143780089
 30
0.0
 10
10.4180756737
 20
9.8962224161
 30
0.0
 10
10.4066671157
 20
9.877408714
 30
0.0
 10
10.3979881418
 20
9.86122873
 30
0.0
 10
10.391552937
 20
9.8480064278
 30
0.0
 10
10.385452457
 20
9.8345894354
 30
0.0
 10
10.3784751342
 20
9.8174928004
 30
0.0
 10
10.3711667807
 20
9.7965284484
 30
0.0
 10
10.3670179677
 20
9.7822978628
 30
0.0
 10
10.3651252852
 20
9.7751251203
 30
0.0
  0
SPLINE
  5
3E1
100
AcDbEntity
  8
0
100
AcDbSpline
 62
7
  6
CONTINUOUS
 70
0
 71
3
 72
32
 73
28
 74
0
 42
0.0000001
 43
0.0000001
 44
0.0000000001
 40
0.0
 40
0.0
 40
0.0
 40
0.0
 40
0.0832767704
 40
0.1649388972
 40
0.2446893213
 40
0.3222441731
 40
0.3973286663
 40
0.4696819854
 40
0.5390579384
 40
0.5725579329
 40
0.6052291569
 40
0.6370462063
 40
0.6679848256
 40
0.6980224437
 40
0.7271380196
 40
0.7553122679
 40
0.7825279212
 40
0.8087696039
 40
0.8340245389
 40
0.8582821383
 40
0.8815350904
 40
0.9037788567
 40
0.9250129894
 40
0.9452408289
 40
0.9644708872
 40
0.9827170604
 40
1.0
 40
1.0
 40
1.0
 40
1.0
 10
9.0556631885
 20
11.7538760246
 30
0.0
 10
9.0641307613
 20
11.7532887964
 30
0.0
 10
9.0808921397
 20
11.7519815957
 30
0.0
 10
9.1057189252
 20
11.7495966858
 30
0.0
 10
9.1299174956
 20
11.7468139049
 30
0.0
 10
9.1533922276
 20
11.7436444136
 30
0.0
 10
9.1760507959
 20
11.7401008168
 30
0.0
 10
9.1978037938
 20
11.7361972653
 30
0.0
 10
9.2153035129
 20
11.7326169332
 30
0.0
 10
9.2287805252
 20
11.7295756869
 30
0.0
 10
9.2384916062
 20
11.7272412884
 30
0.0
 10
9.2479144547
 20
11.7248292398
 30
0.0
 10
9.2570397989
 20
11.72234186
 30
0.0
 10
9.2658586518
 20
11.7197816468
 30
0.0
 10
9.2743623377
 20
11.7171511277
 30
0.0
 10
9.282542491
 20
11.7144528865
 30
0.0
 10
9.2903910843
 20
11.7116896369
 30
0.0
 10
9.297900404
 20
11.708864038
 30
0.0
 10
9.3050631123
 20
11.7059789703
 30
0.0
 10
9.3118721799
 20
11.7030371625
 30
0.0
 10
9.3183209959
 20
11.700041624
 30
0.0
 10
9.3244032501
 20
11.6969951558
 30
0.0
 10
9.3301130906
 20
11.6939008347
 30
0.0
 10
9.3354449528
 20
11.6907615432
 30
0.0
 10
9.3403937995
 20
11.6875803112
 30
0.0
 10
9.3449546966
 20
11.6843602043
 30
0.0
 10
9.3478100652
 20
11.682129908
 30
0.0
 10
9.3491677245
 20
11.681007494
 30
0.0
  0
SPLINE
  5
3E2
100
AcDbEntity
  8
0
100
AcDbSpline
 62
7
  6
CONTINUOUS
 70
0
 71
3
 72
61
 73
57
 74
0
 42
0.0000001
 43
0.0000001
 44
0.0000000001
 40
0.0
 40
0.0
 40
0.0
 40
0.0
 40
0.0095825013
 40
0.0187370291
 40
0.027486808
 40
0.0358595423
 40
0.0438877103
 40
0.0516090998
 40
0.0590668522
 40
0.0663095504
 40
0.073390682
 40
0.0803678835
 40
0.0873016133
 40
0.0942535765
 40
0.1012849535
 40
0.1084547086
 40
0.1158181592
 40
0.123425975
 40
0.1313235418
 40
0.1395508498
 40
0.1481424852
 40
0.1571280975
 40
0.1665326418
 40
0.1763770572
 40
0.186678521
 40
0.1974511046
 40
0.2087059762
 40
0.2204519231
 40
0.2326955264
 40
0.2454415104
 40
0.2586929302
 40
0.2724513472
 40
0.286717059
 40
0.3014891193
 40
0.3167656187
 40
0.3325435831
 40
0.3488192903
 40
0.3655880963
 40
0.3828447514
 40
0.4005832124
 40
0.4187969145
 40
0.4374786218
 40
0.4566206192
 40
0.4762146362
 40
0.4962519409
 40
0.5167233514
 40
0.5589289973
 40
0.6027505278
 40
0.6481003873
 40
0.6948857391
 40
0.7430089902
 40
0.7923682089
 40
0.8428577019
 40
0.894368024
 40
0.9467873405
 40
1.0
 40
1.0
 40
1.0
 40
1.0
 10
14.141872728
 20
9.0768293795
 30
0.0
 10
14.1440737703
 20
9.0788778863
 30
0.0
 10
14.1484738485
 20
9.0827818696
 30
0.0
 10
14.1552249542
 20
9.0881563899
 30
0.0
 10
14.1619690763
 20
9.0929089371
 30
0.0
 10
14.1687024659
 20
9.0970362981
 30
0.0
 10
14.1754218093
 20
9.1005353638
 30
0.0
 10
14.1821234393
 20
9.103403421
 30
0.0
 10
14.1888036896
 20
9.1056375247
 30
0.0
 10
14.195458379
 20
9.1072353152
 30
0.0
 10
14.2020830021
 20
9.1081943946
 30
0.0
 10
14.2086724874
 20
9.1085133074
 30
0.0
 10
14.2152214361
 20
9.108191105
 30
0.0
 10
14.2217242944
 20
9.1072280641
 30
0.0
 10
14.2281756679
 20
9.1056253017
 30
0.0
 10
14.2345705698
 20
9.103384853
 30
0.0
 10
14.2409045822
 20
9.1005093882
 30
0.0
 10
14.2471737594
 20
9.0970018425
 30
0.0
 10
14.2533746898
 20
9.0928655122
 30
0.0
 10
14.2595040849
 20
9.0881035842
 30
0.0
 10
14.2655590102
 20
9.0827195873
 30
0.0
 10
14.2715363388
 20
9.0767169285
 30
0.0
 10
14.2774332091
 20
9.0700994491
 30
0.0
 10
14.2832464465
 20
9.0628710007
 30
0.0
 10
14.2889731168
 20
9.0550359166
 30
0.0
 10
14.2946100009
 20
9.0465986803
 30
0.0
 10
14.3001540848
 20
9.0375642394
 30
0.0
 10
14.3056021737
 20
9.0279377965
 30
0.0
 10
14.3109512115
 20
9.0177249715
 30
0.0
 10
14.3161980899
 20
9.0069317066
 30
0.0
 10
14.3213397549
 20
8.9955643126
 30
0.0
 10
14.3263732242
 20
8.9836294584
 30
0.0
 10
14.3312954857
 20
8.9711341454
 30
0.0
 10
14.3361037023
 20
8.958085744
 30
0.0
 10
14.3407949401
 20
8.9444919348
 30
0.0
 10
14.3453665111
 20
8.9303607619
 30
0.0
 10
14.349815594
 20
8.9157005684
 30
0.0
 10
14.3541396438
 20
8.9005200448
 30
0.0
 10
14.3583359843
 20
8.8848281756
 30
0.0
 10
14.3624022042
 20
8.8686342718
 30
0.0
 10
14.3663357992
 20
8.8519479353
 30
0.0
 10
14.3701344846
 20
8.8347790735
 30
0.0
 10
14.3737959483
 20
8.8171378775
 30
0.0
 10
14.3773180262
 20
8.7990348316
 30
0.0
 10
14.3806986289
 20
8.7804806726
 30
0.0
 10
14.3850590065
 20
8.7548947842
 30
0.0
 10
14.3901267396
 20
8.7218611294
 30
0.0
 10
14.3955534441
 20
8.6809935444
 30
0.0
 10
14.400372464
 20
8.6386033726
 30
0.0
 10
14.4045722041
 20
8.5947914304
 30
0.0
 10
14.4081425147
 20
8.5496617629
 30
0.0
 10
14.4110747856
 20
8.5033216187
 30
0.0
 10
14.4133619135
 20
8.4558812154
 30
0.0
 10
14.4149983904
 20
8.4074532261
 30
0.0
 10
14.4159802064
 20
8.3581530572
 30
0.0
 10
14.4161952712
 20
8.32500716
 30
0.0
 10
14.4161952712
 20
8.3083099647
 30
0.0
  0
SPLINE
  5
3E3
100
AcDbEntity
  8
0
100
AcDbSpline
 62
7
  6
CONTINUOUS
 70
0
 71
3
 72
45
 73
41
 74
0
 42
0.0000001
 43
0.0000001
 44
0.0000000001
 40
0.0
 40
0.0
 40
0.0
 40
0.0
 40
0.0149721379
 40
0.0299473343
 40
0.0449286317
 40
0.0599190303
 40
0.0749214809
 40
0.089938856
 40
0.1049739397
 40
0.1200294108
 40
0.1351078203
 40
0.1502115887
 40
0.1653429784
 40
0.1805040926
 40
0.2109173739
 40
0.2414702831
 40
0.2721727342
 40
0.3030312377
 40
0.3340488046
 40
0.365224933
 40
0.396555672
 40
0.4280337568
 40
0.4596488082
 40
0.4913875919
 40
0.5232343248
 40
0.5551710235
 40
0.5871778874
 40
0.6192337084
 40
0.6513163011
 40
0.6834029486
 40
0.7154708537
 40
0.7474975916
 40
0.7794615572
 40
0.8113424013
 40
0.8431214485
 40
0.8747820968
 40
0.9063101458
 40
0.9376942762
 40
0.9689257414
 40
1.0
 40
1.0
 40
1.0
 40
1.0
 10
8.8861335296
 20
9.3710198563
 30
0.0
 10
8.8822179948
 20
9.3672377433
 30
0.0
 10
8.8742348094
 20
9.359827614
 30
0.0
 10
8.8618265412
 20
9.3491957884
 30
0.0
 10
8.8490004288
 20
9.3390608345
 30
0.0
 10
8.8357744295
 20
9.3294368627
 30
0.0
 10
8.8221666804
 20
9.3203370438
 30
0.0
 10
8.8081958773
 20
9.3117739968
 30
0.0
 10
8.7938813282
 20
9.3037593494
 30
0.0
 10
8.7792426449
 20
9.2963043003
 30
0.0
 10
8.7643000358
 20
9.2894189324
 30
0.0
 10
8.7490740946
 20
9.2831128362
 30
0.0
 10
8.7335854827
 20
9.2773945832
 30
0.0
 10
8.7125934319
 20
9.2705581491
 30
0.0
 10
8.6857918379
 20
9.2635216977
 30
0.0
 10
8.652968713
 20
9.2575477744
 30
0.0
 10
8.6196253108
 20
9.2540652362
 30
0.0
 10
8.5859463698
 20
9.2530932452
 30
0.0
 10
8.5521167753
 20
9.2546365906
 30
0.0
 10
8.5183225766
 20
9.2586864035
 30
0.0
 10
8.4847494282
 20
9.2652200317
 30
0.0
 10
8.451581731
 20
9.2742012271
 30
0.0
 10
8.419001584
 20
9.2855803188
 30
0.0
 10
8.3871878148
 20
9.2992945282
 30
0.0
 10
8.3563150099
 20
9.3152683145
 30
0.0
 10
8.3265525721
 20
9.3334137916
 30
0.0
 10
8.2980638039
 20
9.3536312085
 30
0.0
 10
8.2710050269
 20
9.3758094965
 30
0.0
 10
8.2455247159
 20
9.3998268523
 30
0.0
 10
8.2217627011
 20
9.4255514173
 30
0.0
 10
8.1998494162
 20
9.4528420012
 30
0.0
 10
8.179905189
 20
9.4815488465
 30
0.0
 10
8.162039587
 20
9.5115144384
 30
0.0
 10
8.1463508256
 20
9.5425743658
 30
0.0
 10
8.1329252127
 20
9.5745581834
 30
0.0
 10
8.1218366868
 20
9.607290408
 30
0.0
 10
8.1131463626
 20
9.6405912208
 30
0.0
 10
8.1069023793
 20
9.6742783823
 30
0.0
 10
8.1031392259
 20
9.7081645241
 30
0.0
 10
8.1022963774
 20
9.7308276098
 30
0.0
 10
8.1022963774
 20
9.7421262251
 30
0.0
  0
SPLINE
  5
3E4
100
AcDbEntity
  8
0
100
AcDbSpline
 62
7
  6
CONTINUOUS
 70
0
 71
3
 72
16
 73
12
 74
0
 42
0.0000001
 43
0.0000001
 44
0.0000000001
 40
0.0
 40
0.0
 40
0.0
 40
0.0
 40
0.1242288165
 40
0.1864000416
 40
0.2486124812
 40
0.3731705265
 40
0.4979521922
 40
0.6229938473
 40
0.7483291673
 40
0.8739887846
 40
1.0
 40
1.0
 40
1.0
 40
1.0
 10
8.9208182497
 20
9.4088127192
 30
0.0
 10
8.9150803307
 20
9.4044910927
 30
0.0
 10
8.9062989624
 20
9.3982302678
 30
0.0
 10
8.894275269
 20
9.3903485118
 30
0.0
 10
8.882033955
 20
9.3827723496
 30
0.0
 10
8.8663493281
 20
9.3738926572
 30
0.0
 10
8.8469747396
 20
9.364214317
 30
0.0
 10
8.8270848226
 20
9.3555314256
 30
0.0
 10
8.8067272281
 20
9.3478648523
 30
0.0
 10
8.7859512358
 20
9.3412330397
 30
0.0
 10
8.7718735527
 20
9.3375171688
 30
0.0
 10
8.764783717
 20
9.3358361839
 30
0.0
  0
SPLINE
  5
3E5
100
AcDbEntity
  8
0
100
AcDbSpline
 62
7
  6
CONTINUOUS
 70
0
 71
3
 72
16
 73
12
 74
0
 42
0.0000001
 43
0.0000001
 44
0.0000000001
 40
0.0
 40
0.0
 40
0.0
 40
0.0
 40
0.1242029183
 40
0.2485553174
 40
0.3730991344
 40
0.4978742378
 40
0.5603656906
 40
0.6229287282
 40
0.7482755772
 40
0.8739567978
 40
1.0
 40
1.0
 40
1.0
 40
1.0
 10
8.2686346732
 20
10.0825694668
 30
0.0
 10
8.2640510209
 20
10.0768751355
 30
0.0
 10
8.2551796857
 20
10.0652331456
 30
0.0
 10
8.242810724
 20
10.0470775528
 30
0.0
 10
8.231402166
 20
10.0282638506
 30
0.0
 10
8.2227231921
 20
10.0120838666
 30
0.0
 10
8.2162879873
 20
9.9988615644
 30
0.0
 10
8.2101875073
 20
9.985444572
 30
0.0
 10
8.2032101845
 20
9.9683479371
 30
0.0
 10
8.195901831
 20
9.9473835851
 30
0.0
 10
8.1917530181
 20
9.9331529994
 30
0.0
 10
8.1898603355
 20
9.9259802569
 30
0.0
  0
SPLINE
  5
3E6
100
AcDbEntity
  8
0
100
AcDbSpline
 62
4
  6
CONTINUOUS
 70
0
 71
3
 72
455
 73
451
 74
0
 42
0.0000001
 43
0.0000001
 44
0.0000000001
 40
0.0
 40
0.0
 40
0.0
 40
0.0
 40
0.015625
 40
0.0234375
 40
0.03125
 40
0.0390625
 40
0.04296875
 40
0.046875
 40
0.05078125
 40
0.052734375
 40
0.0546875
 40
0.056640625
 40
0.05859375
 40
0.0595703125
 40
0.060546875
 40
0.0610351562
 40
0.0615234375
 40
0.0620117188
 40
0.0622558594
 40
0.0625
 40
0.0627441406
 40
0.0629882812
 40
0.0634765625
 40
0.0639648438
 40
0.064453125
 40
0.0654296875
 40
0.06640625
 40
0.068359375
 40
0.0703125
 40
0.072265625
 40
0.07421875
 40
0.078125
 40
0.08203125
 40
0.0859375
 40
0.09375
 40
0.1015625
 40
0.10546875
 40
0.109375
 40
0.11328125
 40
0.115234375
 40
0.1171875
 40
0.119140625
 40
0.12109375
 40
0.1220703125
 40
0.123046875
 40
0.1235351562
 40
0.1240234375
 40
0.1245117188
 40
0.1247558594
 40
0.125
 40
0.1252441406
 40
0.1254882812
 40
0.1259765625
 40
0.1264648438
 40
0.126953125
 40
0.1279296875
 40
0.12890625
 40
0.130859375
 40
0.1328125
 40
0.134765625
 40
0.13671875
 40
0.140625
 40
0.14453125
 40
0.1484375
 40
0.15625
 40
0.1640625
 40
0.16796875
 40
0.171875
 40
0.17578125
 40
0.177734375
 40
0.1796875
 40
0.181640625
 40
0.18359375
 40
0.1845703125
 40
0.185546875
 40
0.1860351562
 40
0.1865234375
 40
0.1870117188
 40
0.1872558594
 40
0.1875
 40
0.1877441406
 40
0.1879882812
 40
0.1884765625
 40
0.1889648438
 40
0.189453125
 40
0.1904296875
 40
0.19140625
 40
0.193359375
 40
0.1953125
 40
0.197265625
 40
0.19921875
 40
0.203125
 40
0.20703125
 40
0.2109375
 40
0.21875
 40
0.2265625
 40
0.23046875
 40
0.234375
 40
0.23828125
 40
0.240234375
 40
0.2421875
 40
0.244140625
 40
0.24609375
 40
0.2470703125
 40
0.248046875
 40
0.2485351562
 40
0.2490234375
 40
0.2495117188
 40
0.2497558594
 40
0.2498779297
 40
0.25
 40
0.2501220703
 40
0.2502441406
 40
0.2504882812
 40
0.2509765625
 40
0.2514648438
 40
0.251953125
 40
0.2529296875
 40
0.25390625
 40
0.255859375
 40
0.2578125
 40
0.259765625
 40
0.26171875
 40
0.265625
 40
0.26953125
 40
0.2734375
 40
0.28125
 40
0.2890625
 40
0.29296875
 40
0.296875
 40
0.30078125
 40
0.302734375
 40
0.3046875
 40
0.306640625
 40
0.30859375
 40
0.3095703125
 40
0.310546875
 40
0.3110351562
 40
0.3115234375
 40
0.3120117188
 40
0.3122558594
 40
0.3125
 40
0.3127441406
 40
0.3129882812
 40
0.3134765625
 40
0.3139648438
 40
0.314453125
 40
0.3154296875
 40
0.31640625
 40
0.318359375
 40
0.3203125
 40
0.322265625
 40
0.32421875
 40
0.328125
 40
0.33203125
 40
0.3359375
 40
0.34375
 40
0.3515625
 40
0.35546875
 40
0.359375
 40
0.36328125
 40
0.365234375
 40
0.3671875
 40
0.369140625
 40
0.37109375
 40
0.3720703125
 40
0.373046875
 40
0.3735351562
 40
0.3740234375
 40
0.3745117188
 40
0.3747558594
 40
0.375
 40
0.3752441406
 40
0.3754882812
 40
0.3759765625
 40
0.3764648438
 40
0.376953125
 40
0.3779296875
 40
0.37890625
 40
0.380859375
 40
0.3828125
 40
0.384765625
 40
0.38671875
 40
0.390625
 40
0.39453125
 40
0.3984375
 40
0.40625
 40
0.4140625
 40
0.41796875
 40
0.421875
 40
0.42578125
 40
0.427734375
 40
0.4296875
 40
0.431640625
 40
0.43359375
 40
0.4345703125
 40
0.435546875
 40
0.4360351562
 40
0.4365234375
 40
0.4370117188
 40
0.4372558594
 40
0.4375
 40
0.4377441406
 40
0.4379882812
 40
0.4384765625
 40
0.4389648438
 40
0.439453125
 40
0.4404296875
 40
0.44140625
 40
0.443359375
 40
0.4453125
 40
0.447265625
 40
0.44921875
 40
0.453125
 40
0.45703125
 40
0.4609375
 40
0.46875
 40
0.4765625
 40
0.48046875
 40
0.484375
 40
0.48828125
 40
0.490234375
 40
0.4921875
 40
0.494140625
 40
0.49609375
 40
0.4970703125
 40
0.498046875
 40
0.4985351562
 40
0.4990234375
 40
0.4995117188
 40
0.4997558594
 40
0.5
 40
0.5002441406
 40
0.5004882812
 40
0.5009765625
 40
0.5014648438
 40
0.501953125
 40
0.5029296875
 40
0.50390625
 40
0.505859375
 40
0.5078125
 40
0.509765625
 40
0.51171875
 40
0.515625
 40
0.51953125
 40
0.5234375
 40
0.53125
 40
0.5390625
 40
0.54296875
 40
0.546875
 40
0.55078125
 40
0.552734375
 40
0.5546875
 40
0.556640625
 40
0.55859375
 40
0.5595703125
 40
0.560546875
 40
0.5615234375
 40
0.5620117188
 40
0.5622558594
 40
0.5625
 40
0.5627441406
 40
0.5629882812
 40
0.5634765625
 40
0.564453125
 40
0.5654296875
 40
0.56640625
 40
0.568359375
 40
0.5703125
 40
0.572265625
 40
0.57421875
 40
0.578125
 40
0.58203125
 40
0.5859375
 40
0.59375
 40
0.6015625
 40
0.60546875
 40
0.609375
 40
0.61328125
 40
0.615234375
 40
0.6171875
 40
0.619140625
 40
0.62109375
 40
0.6220703125
 40
0.623046875
 40
0.6240234375
 40
0.6245117188
 40
0.6247558594
 40
0.625
 40
0.6252441406
 40
0.6254882812
 40
0.6259765625
 40
0.626953125
 40
0.6279296875
 40
0.62890625
 40
0.630859375
 40
0.6328125
 40
0.634765625
 40
0.63671875
 40
0.640625
 40
0.64453125
 40
0.6484375
 40
0.65625
 40
0.6640625
 40
0.66796875
 40
0.671875
 40
0.67578125
 40
0.677734375
 40
0.6796875
 40
0.681640625
 40
0.68359375
 40
0.6845703125
 40
0.685546875
 40
0.6860351562
 40
0.6865234375
 40
0.6870117188
 40
0.6872558594
 40
0.6875
 40
0.6877441406
 40
0.6879882812
 40
0.6884765625
 40
0.6889648438
 40
0.689453125
 40
0.6904296875
 40
0.69140625
 40
0.693359375
 40
0.6953125
 40
0.697265625
 40
0.69921875
 40
0.703125
 40
0.70703125
 40
0.7109375
 40
0.71875
 40
0.7265625
 40
0.73046875
 40
0.734375
 40
0.73828125
 40
0.740234375
 40
0.7421875
 40
0.744140625
 40
0.74609375
 40
0.7470703125
 40
0.748046875
 40
0.7490234375
 40
0.7495117188
 40
0.7497558594
 40
0.75
 40
0.7502441406
 40
0.7504882812
 40
0.7509765625
 40
0.751953125
 40
0.7529296875
 40
0.75390625
 40
0.755859375
 40
0.7578125
 40
0.759765625
 40
0.76171875
 40
0.765625
 40
0.76953125
 40
0.7734375
 40
0.78125
 40
0.7890625
 40
0.79296875
 40
0.796875
 40
0.80078125
 40
0.802734375
 40
0.8046875
 40
0.806640625
 40
0.80859375
 40
0.8095703125
 40
0.810546875
 40
0.8115234375
 40
0.8120117188
 40
0.8122558594
 40
0.8125
 40
0.8127441406
 40
0.8129882812
 40
0.8134765625
 40
0.814453125
 40
0.8154296875
 40
0.81640625
 40
0.818359375
 40
0.8203125
 40
0.822265625
 40
0.82421875
 40
0.828125
 40
0.83203125
 40
0.8359375
 40
0.84375
 40
0.8515625
 40
0.85546875
 40
0.859375
 40
0.86328125
 40
0.865234375
 40
0.8671875
 40
0.869140625
 40
0.87109375
 40
0.8720703125
 40
0.873046875
 40
0.8740234375
 40
0.8745117188
 40
0.8747558594
 40
0.875
 40
0.8752441406
 40
0.8754882812
 40
0.8759765625
 40
0.876953125
 40
0.8779296875
 40
0.87890625
 40
0.880859375
 40
0.8828125
 40
0.884765625
 40
0.88671875
 40
0.890625
 40
0.89453125
 40
0.8984375
 40
0.90625
 40
0.9140625
 40
0.91796875
 40
0.921875
 40
0.92578125
 40
0.927734375
 40
0.9296875
 40
0.931640625
 40
0.93359375
 40
0.9345703125
 40
0.935546875
 40
0.9360351562
 40
0.9365234375
 40
0.9370117188
 40
0.9372558594
 40
0.9375
 40
0.9377441406
 40
0.9379882812
 40
0.9384765625
 40
0.9389648438
 40
0.939453125
 40
0.9404296875
 40
0.94140625
 40
0.943359375
 40
0.9453125
 40
0.947265625
 40
0.94921875
 40
0.953125
 40
0.95703125
 40
0.9609375
 40
0.96875
 40
0.9765625
 40
0.984375
 40
1.0
 40
1.0
 40
1.0
 40
1.0
 10
9.6458458692
 20
6.9540568901
 30
0.0
 10
9.6521122431
 20
6.954236739
 30
0.0
 10
9.6615118038
 20
6.9545065122
 30
0.0
 10
9.6740445515
 20
6.9548662099
 30
0.0
 10
9.6834441122
 20
6.9551359831
 30
0.0
 10
9.6912770795
 20
6.9553607941
 30
0.0
 10
9.6975434534
 20
6.955540643
 30
0.0
 10
9.7022432338
 20
6.9556755295
 30
0.0
 10
9.7061597173
 20
6.9557879354
 30
0.0
 10
9.7092929044
 20
6.9558778589
 30
0.0
 10
9.7116427941
 20
6.955945305
 30
0.0
 10
9.7139926863
 20
6.9560127378
 30
0.0
 10
9.7159509217
 20
6.9560689733
 30
0.0
 10
9.7175175282
 20
6.9561138687
 30
0.0
 10
9.7184966159
 20
6.9561421402
 30
0.0
 10
9.7192799809
 20
6.9561642721
 30
0.0
 10
9.719867245
 20
6.9561821997
 30
0.0
 10
9.7203574574
 20
6.9561929127
 30
0.0
 10
9.7207477757
 20
6.9562109629
 30
0.0
 10
9.721045574
 20
6.9561985972
 30
0.0
 10
9.72132406
 20
6.9562851048
 30
0.0
 10
9.7217021206
 20
6.9563659105
 30
0.0
 10
9.7221723819
 20
6.9564787673
 30
0.0
 10
9.7227376862
 20
6.9566091235
 30
0.0
 10
9.7234910792
 20
6.9567847034
 30
0.0
 10
9.7244329389
 20
6.9570035715
 30
0.0
 10
9.7259398483
 20
6.9573540997
 30
0.0
 10
9.7278235077
 20
6.9577921435
 30
0.0
 10
9.7300838892
 20
6.9583178459
 30
0.0
 10
9.7323442734
 20
6.958843535
 30
0.0
 10
9.735358118
 20
6.9595444585
 30
0.0
 10
9.7391254241
 20
6.9604206112
 30
0.0
 10
9.7436461913
 20
6.9614719952
 30
0.0
 10
9.7496738809
 20
6.9628738402
 30
0.0
 10
9.7572084929
 20
6.9646261466
 30
0.0
 10
9.7647431049
 20
6.966378453
 30
0.0
 10
9.7707707945
 20
6.9677802981
 30
0.0
 10
9.7752915617
 20
6.9688316818
 30
0.0
 10
9.7790588676
 20
6.9697078354
 30
0.0
 10
9.7820727127
 20
6.9704087571
 30
0.0
 10
9.7843330952
 20
6.9709344516
 30
0.0
 10
9.7865934829
 20
6.9714601335
 30
0.0
 10
9.7884771233
 20
6.9718982414
 30
0.0
 10
9.7899840713
 20
6.9722486388
 30
0.0
 10
9.7909258326
 20
6.9724678397
 30
0.0
 10
9.7916794277
 20
6.9726427365
 30
0.0
 10
9.7922441148
 20
6.9727751796
 30
0.0
 10
9.792716307
 20
6.9728815069
 30
0.0
 10
9.7930904282
 20
6.9729756342
 30
0.0
 10
9.7933809453
 20
6.9730214583
 30
0.0
 10
9.7936335736
 20
6.9731618354
 30
0.0
 10
9.7939836463
 20
6.9733159762
 30
0.0
 10
9.7944166964
 20
6.9735199841
 30
0.0
 10
9.7949383001
 20
6.9737599432
 30
0.0
 10
9.7956330929
 20
6.9740815828
 30
0.0
 10
9.7965018163
 20
6.9744830522
 30
0.0
 10
9.7978916438
 20
6.9751257275
 30
0.0
 10
9.7996289728
 20
6.9759289604
 30
0.0
 10
9.8017137485
 20
6.9768928876
 30
0.0
 10
9.8037985292
 20
6.9778568019
 30
0.0
 10
9.8065782352
 20
6.9791420256
 30
0.0
 10
9.8100528682
 20
6.9807485536
 30
0.0
 10
9.8142224275
 20
6.9826763879
 30
0.0
 10
9.8197818401
 20
6.9852468333
 30
0.0
 10
9.8267311058
 20
6.9884598903
 30
0.0
 10
9.8336803715
 20
6.9916729471
 30
0.0
 10
9.839239784
 20
6.9942433927
 30
0.0
 10
9.8434093435
 20
6.9961712267
 30
0.0
 10
9.8468839761
 20
6.9977777556
 30
0.0
 10
9.8496636828
 20
6.9990629775
 30
0.0
 10
9.8517484612
 20
7.0000268972
 30
0.0
 10
9.853833246
 20
7.0009908044
 30
0.0
 10
9.8555705464
 20
7.0017940993
 30
0.0
 10
9.8569604323
 20
7.0024366481
 30
0.0
 10
9.857829007
 20
7.0028384395
 30
0.0
 10
9.8585241051
 20
7.0031594181
 30
0.0
 10
9.859044776
 20
7.0034013967
 30
0.0
 10
9.8594807446
 20
7.0035990862
 30
0.0
 10
9.8598248629
 20
7.0037661177
 30
0.0
 10
9.8600956757
 20
7.0038671275
 30
0.0
 10
9.8603179205
 20
7.0040607526
 30
0.0
 10
9.8606312123
 20
7.0042865676
 30
0.0
 10
9.8610170063
 20
7.0045799361
 30
0.0
 10
9.8614824505
 20
7.0049272273
 30
0.0
 10
9.8621021726
 20
7.0053919417
 30
0.0
 10
9.8628771232
 20
7.0059722665
 30
0.0
 10
9.8641168777
 20
7.0069011037
 30
0.0
 10
9.8656666279
 20
7.0080620412
 30
0.0
 10
9.8675263036
 20
7.009455213
 30
0.0
 10
9.8693859859
 20
7.0108483722
 30
0.0
 10
9.87186556
 20
7.0127059222
 30
0.0
 10
9.8749650284
 20
7.0150278583
 30
0.0
 10
9.8786843902
 20
7.0178141822
 30
0.0
 10
9.8836435393
 20
7.0215292805
 30
0.0
 10
9.8898424757
 20
7.0261731534
 30
0.0
 10
9.896041412
 20
7.0308170264
 30
0.0
 10
9.9010005611
 20
7.0345321247
 30
0.0
 10
9.9047199229
 20
7.0373184485
 30
0.0
 10
9.9078193912
 20
7.0396403849
 30
0.0
 10
9.9102989655
 20
7.0414979343
 30
0.0
 10
9.9121586472
 20
7.0428910954
 30
0.0
 10
9.9140183252
 20
7.04428426
 30
0.0
 10
9.9155680684
 20
7.0454452199
 30
0.0
 10
9.916807837
 20
7.0463740114
 30
0.0
 10
9.9175827516
 20
7.0469544525
 30
0.0
 10
9.9182025477
 20
7.0474189282
 30
0.0
 10
9.9186677658
 20
7.0477669485
 30
0.0
 10
9.9190542675
 20
7.0480580358
 30
0.0
 10
9.9193271344
 20
7.0482596963
 30
0.0
 10
9.9194794426
 20
7.0483782108
 30
0.0
 10
9.9196038594
 20
7.0484578572
 30
0.0
 10
9.9196893414
 20
7.0485728217
 30
0.0
 10
9.9198168982
 20
7.0487137883
 30
0.0
 10
9.9200337952
 20
7.0489662198
 30
0.0
 10
9.9203469561
 20
7.0493238353
 30
0.0
 10
9.9207213332
 20
7.0497542584
 30
0.0
 10
9.9212209972
 20
7.0503277072
 30
0.0
 10
9.921845408
 20
7.0510446718
 30
0.0
 10
9.9228445598
 20
7.0521917293
 30
0.0
 10
9.924093467
 20
7.0536255807
 30
0.0
 10
9.9255921697
 20
7.0553461897
 30
0.0
 10
9.9270908686
 20
7.0570668022
 30
0.0
 10
9.9290891351
 20
7.0593609509
 30
0.0
 10
9.9315869678
 20
7.0622286371
 30
0.0
 10
9.9345843672
 20
7.0656698605
 30
0.0
 10
9.9385808998
 20
7.0702581584
 30
0.0
 10
9.9435765654
 20
7.0759935307
 30
0.0
 10
9.9485722311
 20
7.081728903
 30
0.0
 10
9.9525687636
 20
7.0863172009
 30
0.0
 10
9.9555661631
 20
7.0897584242
 30
0.0
 10
9.9580639956
 20
7.0926261106
 30
0.0
 10
9.9600622626
 20
7.094920259
 30
0.0
 10
9.96156096
 20
7.0966408724
 30
0.0
 10
9.9630596685
 20
7.0983614776
 30
0.0
 10
9.9643085575
 20
7.0997953409
 30
0.0
 10
9.9653077465
 20
7.1009423741
 30
0.0
 10
9.9659320625
 20
7.1016594007
 30
0.0
 10
9.9664319209
 20
7.1022327224
 30
0.0
 10
9.9668057044
 20
7.1026635339
 30
0.0
 10
9.9671207226
 20
7.1030199341
 30
0.0
 10
9.9673648155
 20
7.1033109067
 30
0.0
 10
9.9675695311
 20
7.1035131444
 30
0.0
 10
9.9676916239
 20
7.103776423
 30
0.0
 10
9.9678832756
 20
7.1041061388
 30
0.0
 10
9.968112938
 20
7.1045255992
 30
0.0
 10
9.9683927713
 20
7.1050258203
 30
0.0
 10
9.968764402
 20
7.1056938755
 30
0.0
 10
9.9692294473
 20
7.10652857
 30
0.0
 10
9.9699732365
 20
7.1078642905
 30
0.0
 10
9.9709030701
 20
7.1095338694
 30
0.0
 10
9.9720188288
 20
7.1115373948
 30
0.0
 10
9.9731345987
 20
7.1135409119
 30
0.0
 10
9.974622288
 20
7.116212271
 30
0.0
 10
9.9764819009
 20
7.1195514689
 30
0.0
 10
9.9787134358
 20
7.1235585067
 30
0.0
 10
9.9816888159
 20
7.1289012237
 30
0.0
 10
9.9854080409
 20
7.13557962
 30
0.0
 10
9.989127266
 20
7.1422580163
 30
0.0
 10
9.992102646
 20
7.1476007334
 30
0.0
 10
9.9943341812
 20
7.1516077711
 30
0.0
 10
9.9961937933
 20
7.1549469694
 30
0.0
 10
9.9976814842
 20
7.1576183275
 30
0.0
 10
9.9987972491
 20
7.1596218477
 30
0.0
 10
9.9999130264
 20
7.1616253618
 30
0.0
 10
10.0008428022
 20
7.1632949757
 30
0.0
 10
10.0015867093
 20
7.1646306248
 30
0.0
 10
10.0020514545
 20
7.165465501
 30
0.0
 10
10.0024237012
 20
7.1661331832
 30
0.0
 10
10.0027016526
 20
7.1666345439
 30
0.0
 10
10.0029372029
 20
7.1670504389
 30
0.0
 10
10.0031168422
 20
7.1673874287
 30
0.0
 10
10.00327562
 20
7.167628493
 30
0.0
 10
10.0033426052
 20
7.1679141327
 30
0.0
 10
10.0034639831
 20
7.1682794148
 30
0.0
 10
10.0036047044
 20
7.1687413597
 30
0.0
 10
10.0037782789
 20
7.1692934069
 30
0.0
 10
10.0040080667
 20
7.1700302685
 30
0.0
 10
10.0042958647
 20
7.1709510721
 30
0.0
 10
10.0047560267
 20
7.1724245107
 30
0.0
 10
10.0053313372
 20
7.1742662565
 30
0.0
 10
10.0060216635
 20
7.1764763739
 30
0.0
 10
10.0067120022
 20
7.1786864853
 30
0.0
 10
10.0076324495
 20
7.1816333026
 30
0.0
 10
10.0087830101
 20
7.1853168235
 30
0.0
 10
10.0101636822
 20
7.1897370489
 30
0.0
 10
10.0120045785
 20
7.1956306826
 30
0.0
 10
10.0143056988
 20
7.2029977249
 30
0.0
 10
10.0166068191
 20
7.2103647671
 30
0.0
 10
10.0184477153
 20
7.2162584009
 30
0.0
 10
10.0198283877
 20
7.2206786261
 30
0.0
 10
10.0209789474
 20
7.2243621474
 30
0.0
 10
10.0218993964
 20
7.227308964
 30
0.0
 10
10.0225897298
 20
7.2295190776
 30
0.0
 10
10.0232800762
 20
7.2317291865
 30
0.0
 10
10.023855324
 20
7.2335709588
 30
0.0
 10
10.024315614
 20
7.2350443433
 30
0.0
 10
10.0246030864
 20
7.2359652847
 30
0.0
 10
10.0248335425
 20
7.2367018634
 30
0.0
 10
10.0250050751
 20
7.2372547749
 30
0.0
 10
10.0251521848
 20
7.2377140158
 30
0.0
 10
10.0252605293
 20
7.2380848145
 30
0.0
 10
10.025367318
 20
7.2383536071
 30
0.0
 10
10.0253766567
 20
7.2386579222
 30
0.0
 10
10.0254231489
 20
7.2390512673
 30
0.0
 10
10.025469585
 20
7.2395472059
 30
0.0
 10
10.0255303074
 20
7.2401405101
 30
0.0
 10
10.0256095245
 20
7.2409322187
 30
0.0
 10
10.0257091437
 20
7.2419216365
 30
0.0
 10
10.0258682003
 20
7.2435048269
 30
0.0
 10
10.0260671356
 20
7.245483773
 30
0.0
 10
10.026305809
 20
7.2478585263
 30
0.0
 10
10.0265444954
 20
7.2502332748
 30
0.0
 10
10.0268627394
 20
7.2533996078
 30
0.0
 10
10.027260546
 20
7.2573575234
 30
0.0
 10
10.0277379133
 20
7.2621070225
 30
0.0
 10
10.0283744032
 20
7.2684396878
 30
0.0
 10
10.0291700155
 20
7.2763555195
 30
0.0
 10
10.0299656279
 20
7.2842713511
 30
0.0
 10
10.0306021177
 20
7.2906040165
 30
0.0
 10
10.0310794852
 20
7.2953535155
 30
0.0
 10
10.0314772909
 20
7.2993114313
 30
0.0
 10
10.0317955368
 20
7.302477764
 30
0.0
 10
10.0320342176
 20
7.3048525134
 30
0.0
 10
10.0322729121
 20
7.3072272631
 30
0.0
 10
10.0324717816
 20
7.3092062204
 30
0.0
 10
10.0326309725
 20
7.310789388
 30
0.0
 10
10.0327302499
 20
7.3117788637
 30
0.0
 10
10.0328101686
 20
7.3125704536
 30
0.0
 10
10.0328687475
 20
7.3131641203
 30
0.0
 10
10.03292189
 20
7.3136589245
 30
0.0
 10
10.0329546998
 20
7.3140545841
 30
0.0
 10
10.0330058235
 20
7.3143518308
 30
0.0
 10
10.0329557342
 20
7.3146471614
 30
0.0
 10
10.0329243035
 20
7.3150416049
 30
0.0
 10
10.032872885
 20
7.3155344296
 30
0.0
 10
10.0328163748
 20
7.3161259176
 30
0.0
 10
10.0327392144
 20
7.3169145338
 30
0.0
 10
10.0326433849
 20
7.3179003159
 30
0.0
 10
10.0324897107
 20
7.3194775607
 30
0.0
 10
10.0322977369
 20
7.3214491189
 30
0.0
 10
10.0320673174
 20
7.3238149878
 30
0.0
 10
10.0318369115
 20
7.3261808569
 30
0.0
 10
10.0315296989
 20
7.329335349
 30
0.0
 10
10.0311456848
 20
7.3332784642
 30
0.0
 10
10.0306848672
 20
7.3380102023
 30
0.0
 10
10.0300704439
 20
7.3443191866
 30
0.0
 10
10.0293024147
 20
7.3522054169
 30
0.0
 10
10.0285343855
 20
7.3600916472
 30
0.0
 10
10.0279199623
 20
7.3664006314
 30
0.0
 10
10.0274591443
 20
7.3711323695
 30
0.0
 10
10.0270751314
 20
7.3750754849
 30
0.0
 10
10.0267679164
 20
7.3782299766
 30
0.0
 10
10.0265375179
 20
7.380595847
 30
0.0
 10
10.0263070706
 20
7.3829617111
 30
0.0
 10
10.0261151831
 20
7.3849332841
 30
0.0
 10
10.025961333
 20
7.3865104988
 30
0.0
 10
10.0258468746
 20
7.3876935293
 30
0.0
 10
10.0257485372
 20
7.3886790078
 30
0.0
 10
10.0256855007
 20
7.3893695889
 30
0.0
 10
10.0256404242
 20
7.3897630417
 30
0.0
 10
10.0256321269
 20
7.3900614132
 30
0.0
 10
10.0255263168
 20
7.3903472393
 30
0.0
 10
10.0254192503
 20
7.3907327167
 30
0.0
 10
10.0252160362
 20
7.3914052632
 30
0.0
 10
10.0249340158
 20
7.39236711
 30
0.0
 10
10.0245920448
 20
7.3935208699
 30
0.0
 10
10.0241373224
 20
7.3950593758
 30
0.0
 10
10.0235684943
 20
7.3969824534
 30
0.0
 10
10.0228860827
 20
7.39929017
 30
0.0
 10
10.0222036224
 20
7.4015978804
 30
0.0
 10
10.0212936924
 20
7.4046748297
 30
0.0
 10
10.020156274
 20
7.4085210156
 30
0.0
 10
10.0187913744
 20
7.413136439
 30
0.0
 10
10.0169715075
 20
7.4192903368
 30
0.0
 10
10.0146966741
 20
7.4269827091
 30
0.0
 10
10.0124218405
 20
7.4346750813
 30
0.0
 10
10.0106019739
 20
7.4408289791
 30
0.0
 10
10.0092370733
 20
7.4454444023
 30
0.0
 10
10.0080996581
 20
7.449290589
 30
0.0
 10
10.0071897215
 20
7.4523675368
 30
0.0
 10
10.0065072812
 20
7.4546752518
 30
0.0
 10
10.0058247948
 20
7.456982951
 30
0.0
 10
10.0052561994
 20
7.4589060828
 30
0.0
 10
10.0048010024
 20
7.4604444783
 30
0.0
 10
10.0044604804
 20
7.4615985751
 30
0.0
 10
10.0041739267
 20
7.4625593676
 30
0.0
 10
10.0039788053
 20
7.4632337963
 30
0.0
 10
10.0038587724
 20
7.4636162581
 30
0.0
 10
10.0037927909
 20
7.463911347
 30
0.0
 10
10.003634904
 20
7.4641749289
 30
0.0
 10
10.0034564458
 20
7.4645373613
 30
0.0
 10
10.0031292076
 20
7.4651664977
 30
0.0
 10
10.0026695334
 20
7.466067941
 30
0.0
 10
10.0021145818
 20
7.4671485272
 30
0.0
 10
10.001375814
 20
7.4685897089
 30
0.0
 10
10.0004519536
 20
7.4703910487
 30
0.0
 10
9.9993434929
 20
7.4725527154
 30
0.0
 10
9.9982349862
 20
7.4747143663
 30
0.0
 10
9.9967569933
 20
7.4775965731
 30
0.0
 10
9.9949094967
 20
7.4811993296
 30
0.0
 10
9.9926925031
 20
7.4855226382
 30
0.0
 10
9.9897365109
 20
7.4912870495
 30
0.0
 10
9.9860415208
 20
7.4984925636
 30
0.0
 10
9.9823465307
 20
7.5056980777
 30
0.0
 10
9.9793905386
 20
7.511462489
 30
0.0
 10
9.9771735447
 20
7.5157857975
 30
0.0
 10
9.9753260492
 20
7.5193885544
 30
0.0
 10
9.973848054
 20
7.5222707604
 30
0.0
 10
9.9727395544
 20
7.5244324135
 30
0.0
 10
9.9716310669
 20
7.5265940722
 30
0.0
 10
9.9707072898
 20
7.5283954367
 30
0.0
 10
9.9699683521
 20
7.5298365682
 30
0.0
 10
9.9695063248
 20
7.5307371845
 30
0.0
 10
9.969137141
 20
7.5314578856
 30
0.0
 10
9.9688590538
 20
7.5319978419
 30
0.0
 10
9.9686311297
 20
7.5324496172
 30
0.0
 10
9.9684402335
 20
7.5328069742
 30
0.0
 10
9.9683204428
 20
7.5330860945
 30
0.0
 10
9.968111405
 20
7.5333228361
 30
0.0
 10
9.9678638631
 20
7.533653295
 30
0.0
 10
9.9675437397
 20
7.5340612896
 30
0.0
 10
9.9671641698
 20
7.5345530571
 30
0.0
 10
9.9666564775
 20
7.5352079878
 30
0.0
 10
9.9660224098
 20
7.5360269111
 30
0.0
 10
9.9650075953
 20
7.5373370432
 30
0.0
 10
9.9637391822
 20
7.5389747581
 30
0.0
 10
9.9622170415
 20
7.5409399947
 30
0.0
 10
9.9606949129
 20
7.542905237
 30
0.0
 10
9.9586654038
 20
7.545525558
 30
0.0
 10
9.9561285189
 20
7.54880096
 30
0.0
 10
9.9530842564
 20
7.552731442
 30
0.0
 10
9.9490252399
 20
7.5579720849
 30
0.0
 10
9.9439514693
 20
7.5645228885
 30
0.0
 10
9.9388776986
 20
7.571073692
 30
0.0
 10
9.9348186822
 20
7.576314335
 30
0.0
 10
9.9317744195
 20
7.5802448167
 30
0.0
 10
9.9292375353
 20
7.5835202197
 30
0.0
 10
9.9272080248
 20
7.5861405386
 30
0.0
 10
9.9256859004
 20
7.5881057874
 30
0.0
 10
9.9241637435
 20
7.5900709995
 30
0.0
 10
9.922895381
 20
7.5917087905
 30
0.0
 10
9.9218804634
 20
7.5930187675
 30
0.0
 10
9.9211198969
 20
7.5940019491
 30
0.0
 10
9.9204841143
 20
7.5948190442
 30
0.0
 10
9.9200429464
 20
7.5953953731
 30
0.0
 10
9.9197847923
 20
7.5957178925
 30
0.0
 10
9.9196082429
 20
7.5959789698
 30
0.0
 10
9.9193664575
 20
7.5961667016
 30
0.0
 10
9.919066832
 20
7.5964425945
 30
0.0
 10
9.9185318854
 20
7.5969134871
 30
0.0
 10
9.9177732188
 20
7.5975924226
 30
0.0
 10
9.9168604463
 20
7.5984044778
 30
0.0
 10
9.9156442452
 20
7.5994881498
 30
0.0
 10
9.9141237093
 20
7.6008424201
 30
0.0
 10
9.9122991882
 20
7.6024676815
 30
0.0
 10
9.9104746344
 20
7.6040929062
 30
0.0
 10
9.9080419075
 20
7.6062598854
 30
0.0
 10
9.905000995
 20
7.6089686049
 30
0.0
 10
9.9013519016
 20
7.6122190702
 30
0.0
 10
9.8964864431
 20
7.6165530233
 30
0.0
 10
9.8904046203
 20
7.6219704649
 30
0.0
 10
9.8843227973
 20
7.6273879063
 30
0.0
 10
9.879457339
 20
7.6317218597
 30
0.0
 10
9.875808245
 20
7.6349723241
 30
0.0
 10
9.8727673345
 20
7.6376810462
 30
0.0
 10
9.8703346034
 20
7.6398480201
 30
0.0
 10
9.8685100623
 20
7.6414732609
 30
0.0
 10
9.8666854936
 20
7.6430984622
 30
0.0
 10
9.8651651058
 20
7.6444529194
 30
0.0
 10
9.8639486027
 20
7.6455362103
 30
0.0
 10
9.8630367523
 20
7.6463494291
 30
0.0
 10
9.862275201
 20
7.6470247241
 30
0.0
 10
9.8617454041
 20
7.6475021156
 30
0.0
 10
9.8614375275
 20
7.6477675956
 30
0.0
 10
9.8612210868
 20
7.6479873124
 30
0.0
 10
9.8609493469
 20
7.6481282594
 30
0.0
 10
9.8606063161
 20
7.6483436646
 30
0.0
 10
9.859997025
 20
7.6487078221
 30
0.0
 10
9.8591313078
 20
7.6492347398
 30
0.0
 10
9.858090436
 20
7.6498641764
 30
0.0
 10
9.8567033094
 20
7.6507044259
 30
0.0
 10
9.8549691601
 20
7.6517543944
 30
0.0
 10
9.8528882843
 20
7.6530145037
 30
0.0
 10
9.8508073809
 20
7.6542745737
 30
0.0
 10
9.8480328526
 20
7.6559546807
 30
0.0
 10
9.844564689
 20
7.6580548099
 30
0.0
 10
9.840402894
 20
7.6605749668
 30
0.0
 10
9.8348538336
 20
7.6639351753
 30
0.0
 10
9.8279175082
 20
7.6681354363
 30
0.0
 10
9.8209811827
 20
7.6723356971
 30
0.0
 10
9.8154321225
 20
7.6756959059
 30
0.0
 10
9.811270327
 20
7.6782160619
 30
0.0
 10
9.807802165
 20
7.6803161939
 30
0.0
 10
9.8050276335
 20
7.6819962952
 30
0.0
 10
9.8029467399
 20
7.6832563828
 30
0.0
 10
9.8008658271
 20
7.6845164259
 30
0.0
 10
9.7991317927
 20
7.6855666005
 30
0.0
 10
9.7977444319
 20
7.6864064295
 30
0.0
 10
9.7967042753
 20
7.6870371503
 30
0.0
 10
9.7958363204
 20
7.68756005
 30
0.0
 10
9.795231024
 20
7.6879313805
 30
0.0
 10
9.7948815927
 20
7.6881352927
 30
0.0
 10
9.794629513
 20
7.6883115423
 30
0.0
 10
9.7943392321
 20
7.6883986685
 30
0.0
 10
9.7939655158
 20
7.688545924
 30
0.0
 10
9.793305304
 20
7.688789137
 30
0.0
 10
9.7923653901
 20
7.6891441567
 30
0.0
 10
9.791236104
 20
7.689566939
 30
0.0
 10
9.7897308746
 20
7.6901317809
 30
0.0
 10
9.7878491714
 20
7.6908374449
 30
0.0
 10
9.7855911988
 20
7.6916844081
 30
0.0
 10
9.7833332072
 20
7.6925313268
 30
0.0
 10
9.7803225583
 20
7.6936605673
 30
0.0
 10
9.7765592449
 20
7.6950721126
 30
0.0
 10
9.7720432699
 20
7.6967659692
 30
0.0
 10
9.7660219694
 20
7.6990244439
 30
0.0
 10
9.758495344
 20
7.7018475376
 30
0.0
 10
9.7509687186
 20
7.7046706311
 30
0.0
 10
9.7449474182
 20
7.706929106
 30
0.0
 10
9.740431443
 20
7.7086229623
 30
0.0
 10
9.7366681301
 20
7.7100345086
 30
0.0
 10
9.7336574802
 20
7.7111637469
 30
0.0
 10
9.7313994917
 20
7.7120106723
 30
0.0
 10
9.7291415072
 20
7.7128576105
 30
0.0
 10
9.7272598413
 20
7.7135633523
 30
0.0
 10
9.7257545356
 20
7.7141280355
 30
0.0
 10
9.7248136579
 20
7.714480758
 30
0.0
 10
9.724061097
 20
7.7147634045
 30
0.0
 10
9.7234962897
 20
7.7149741066
 30
0.0
 10
9.7230268467
 20
7.7151537723
 30
0.0
 10
9.7226485343
 20
7.7152883527
 30
0.0
 10
9.7223723359
 20
7.7154142959
 30
0.0
 10
9.7220673729
 20
7.7154447839
 30
0.0
 10
9.7216708035
 20
7.7155187783
 30
0.0
 10
9.7211716442
 20
7.7155998312
 30
0.0
 10
9.7205741288
 20
7.7157019914
 30
0.0
 10
9.7197769261
 20
7.7158364946
 30
0.0
 10
9.7187805992
 20
7.7160052094
 30
0.0
 10
9.7171863775
 20
7.7162748256
 30
0.0
 10
9.7151936343
 20
7.7166119582
 30
0.0
 10
9.7128023279
 20
7.7170164692
 30
0.0
 10
9.7104110254
 20
7.717420993
 30
0.0
 10
9.7072226207
 20
7.7179603537
 30
0.0
 10
9.7032371153
 20
7.718634556
 30
0.0
 10
9.6984545086
 20
7.7194435982
 30
0.0
 10
9.6920776997
 20
7.7205223213
 30
0.0
 10
9.6841066886
 20
7.7218707251
 30
0.0
 10
9.6745414753
 20
7.7234888097
 30
0.0
 10
9.6617878576
 20
7.7256462558
 30
0.0
 10
9.6522226442
 20
7.7272643404
 30
0.0
 10
9.6458458354
 20
7.7283430634
 30
0.0
  0
SPLINE
  5
3E7
100
AcDbEntity
  8
0
100
AcDbSpline
 62
4
  6
CONTINUOUS
 70
0
 71
3
 72
455
 73
451
 74
0
 42
0.0000001
 43
0.0000001
 44
0.0000000001
 40
0.0
 40
0.0
 40
0.0
 40
0.0
 40
0.015625
 40
0.0234375
 40
0.03125
 40
0.0390625
 40
0.04296875
 40
0.046875
 40
0.05078125
 40
0.052734375
 40
0.0546875
 40
0.056640625
 40
0.05859375
 40
0.0595703125
 40
0.060546875
 40
0.0610351562
 40
0.0615234375
 40
0.0620117188
 40
0.0622558594
 40
0.0625
 40
0.0627441406
 40
0.0629882812
 40
0.0634765625
 40
0.0639648438
 40
0.064453125
 40
0.0654296875
 40
0.06640625
 40
0.068359375
 40
0.0703125
 40
0.072265625
 40
0.07421875
 40
0.078125
 40
0.08203125
 40
0.0859375
 40
0.09375
 40
0.1015625
 40
0.10546875
 40
0.109375
 40
0.11328125
 40
0.115234375
 40
0.1171875
 40
0.119140625
 40
0.12109375
 40
0.1220703125
 40
0.123046875
 40
0.1235351562
 40
0.1240234375
 40
0.1245117188
 40
0.1247558594
 40
0.125
 40
0.1252441406
 40
0.1254882812
 40
0.1259765625
 40
0.1264648438
 40
0.126953125
 40
0.1279296875
 40
0.12890625
 40
0.130859375
 40
0.1328125
 40
0.134765625
 40
0.13671875
 40
0.140625
 40
0.14453125
 40
0.1484375
 40
0.15625
 40
0.1640625
 40
0.16796875
 40
0.171875
 40
0.17578125
 40
0.177734375
 40
0.1796875
 40
0.181640625
 40
0.18359375
 40
0.1845703125
 40
0.185546875
 40
0.1860351562
 40
0.1865234375
 40
0.1870117188
 40
0.1872558594
 40
0.1875
 40
0.1877441406
 40
0.1879882812
 40
0.1884765625
 40
0.1889648438
 40
0.189453125
 40
0.1904296875
 40
0.19140625
 40
0.193359375
 40
0.1953125
 40
0.197265625
 40
0.19921875
 40
0.203125
 40
0.20703125
 40
0.2109375
 40
0.21875
 40
0.2265625
 40
0.23046875
 40
0.234375
 40
0.23828125
 40
0.240234375
 40
0.2421875
 40
0.244140625
 40
0.24609375
 40
0.2470703125
 40
0.248046875
 40
0.2485351562
 40
0.2490234375
 40
0.2495117188
 40
0.2497558594
 40
0.2498779297
 40
0.25
 40
0.2501220703
 40
0.2502441406
 40
0.2504882812
 40
0.2509765625
 40
0.2514648438
 40
0.251953125
 40
0.2529296875
 40
0.25390625
 40
0.255859375
 40
0.2578125
 40
0.259765625
 40
0.26171875
 40
0.265625
 40
0.26953125
 40
0.2734375
 40
0.28125
 40
0.2890625
 40
0.29296875
 40
0.296875
 40
0.30078125
 40
0.302734375
 40
0.3046875
 40
0.306640625
 40
0.30859375
 40
0.3095703125
 40
0.310546875
 40
0.3110351562
 40
0.3115234375
 40
0.3120117188
 40
0.3122558594
 40
0.3125
 40
0.3127441406
 40
0.3129882812
 40
0.3134765625
 40
0.3139648438
 40
0.314453125
 40
0.3154296875
 40
0.31640625
 40
0.318359375
 40
0.3203125
 40
0.322265625
 40
0.32421875
 40
0.328125
 40
0.33203125
 40
0.3359375
 40
0.34375
 40
0.3515625
 40
0.35546875
 40
0.359375
 40
0.36328125
 40
0.365234375
 40
0.3671875
 40
0.369140625
 40
0.37109375
 40
0.3720703125
 40
0.373046875
 40
0.3735351562
 40
0.3740234375
 40
0.3745117188
 40
0.3747558594
 40
0.375
 40
0.3752441406
 40
0.3754882812
 40
0.3759765625
 40
0.3764648438
 40
0.376953125
 40
0.3779296875
 40
0.37890625
 40
0.380859375
 40
0.3828125
 40
0.384765625
 40
0.38671875
 40
0.390625
 40
0.39453125
 40
0.3984375
 40
0.40625
 40
0.4140625
 40
0.41796875
 40
0.421875
 40
0.42578125
 40
0.427734375
 40
0.4296875
 40
0.431640625
 40
0.43359375
 40
0.4345703125
 40
0.435546875
 40
0.4360351562
 40
0.4365234375
 40
0.4370117188
 40
0.4372558594
 40
0.4375
 40
0.4377441406
 40
0.4379882812
 40
0.4384765625
 40
0.4389648438
 40
0.439453125
 40
0.4404296875
 40
0.44140625
 40
0.443359375
 40
0.4453125
 40
0.447265625
 40
0.44921875
 40
0.453125
 40
0.45703125
 40
0.4609375
 40
0.46875
 40
0.4765625
 40
0.48046875
 40
0.484375
 40
0.48828125
 40
0.490234375
 40
0.4921875
 40
0.494140625
 40
0.49609375
 40
0.4970703125
 40
0.498046875
 40
0.4985351562
 40
0.4990234375
 40
0.4995117188
 40
0.4997558594
 40
0.5
 40
0.5002441406
 40
0.5004882812
 40
0.5009765625
 40
0.5014648438
 40
0.501953125
 40
0.5029296875
 40
0.50390625
 40
0.505859375
 40
0.5078125
 40
0.509765625
 40
0.51171875
 40
0.515625
 40
0.51953125
 40
0.5234375
 40
0.53125
 40
0.5390625
 40
0.54296875
 40
0.546875
 40
0.55078125
 40
0.552734375
 40
0.5546875
 40
0.556640625
 40
0.55859375
 40
0.5595703125
 40
0.560546875
 40
0.5615234375
 40
0.5620117188
 40
0.5622558594
 40
0.5625
 40
0.5627441406
 40
0.5629882812
 40
0.5634765625
 40
0.564453125
 40
0.5654296875
 40
0.56640625
 40
0.568359375
 40
0.5703125
 40
0.572265625
 40
0.57421875
 40
0.578125
 40
0.58203125
 40
0.5859375
 40
0.59375
 40
0.6015625
 40
0.60546875
 40
0.609375
 40
0.61328125
 40
0.615234375
 40
0.6171875
 40
0.619140625
 40
0.62109375
 40
0.6220703125
 40
0.623046875
 40
0.6240234375
 40
0.6245117188
 40
0.6247558594
 40
0.625
 40
0.6252441406
 40
0.6254882812
 40
0.6259765625
 40
0.626953125
 40
0.6279296875
 40
0.62890625
 40
0.630859375
 40
0.6328125
 40
0.634765625
 40
0.63671875
 40
0.640625
 40
0.64453125
 40
0.6484375
 40
0.65625
 40
0.6640625
 40
0.66796875
 40
0.671875
 40
0.67578125
 40
0.677734375
 40
0.6796875
 40
0.681640625
 40
0.68359375
 40
0.6845703125
 40
0.685546875
 40
0.6860351562
 40
0.6865234375
 40
0.6870117188
 40
0.6872558594
 40
0.6875
 40
0.6877441406
 40
0.6879882812
 40
0.6884765625
 40
0.6889648438
 40
0.689453125
 40
0.6904296875
 40
0.69140625
 40
0.693359375
 40
0.6953125
 40
0.697265625
 40
0.69921875
 40
0.703125
 40
0.70703125
 40
0.7109375
 40
0.71875
 40
0.7265625
 40
0.73046875
 40
0.734375
 40
0.73828125
 40
0.740234375
 40
0.7421875
 40
0.744140625
 40
0.74609375
 40
0.7470703125
 40
0.748046875
 40
0.7490234375
 40
0.7495117188
 40
0.7497558594
 40
0.75
 40
0.7502441406
 40
0.7504882812
 40
0.7509765625
 40
0.751953125
 40
0.7529296875
 40
0.75390625
 40
0.755859375
 40
0.7578125
 40
0.759765625
 40
0.76171875
 40
0.765625
 40
0.76953125
 40
0.7734375
 40
0.78125
 40
0.7890625
 40
0.79296875
 40
0.796875
 40
0.80078125
 40
0.802734375
 40
0.8046875
 40
0.806640625
 40
0.80859375
 40
0.8095703125
 40
0.810546875
 40
0.8115234375
 40
0.8120117188
 40
0.8122558594
 40
0.8125
 40
0.8127441406
 40
0.8129882812
 40
0.8134765625
 40
0.814453125
 40
0.8154296875
 40
0.81640625
 40
0.818359375
 40
0.8203125
 40
0.822265625
 40
0.82421875
 40
0.828125
 40
0.83203125
 40
0.8359375
 40
0.84375
 40
0.8515625
 40
0.85546875
 40
0.859375
 40
0.86328125
 40
0.865234375
 40
0.8671875
 40
0.869140625
 40
0.87109375
 40
0.8720703125
 40
0.873046875
 40
0.8740234375
 40
0.8745117188
 40
0.8747558594
 40
0.875
 40
0.8752441406
 40
0.8754882812
 40
0.8759765625
 40
0.876953125
 40
0.8779296875
 40
0.87890625
 40
0.880859375
 40
0.8828125
 40
0.884765625
 40
0.88671875
 40
0.890625
 40
0.89453125
 40
0.8984375
 40
0.90625
 40
0.9140625
 40
0.91796875
 40
0.921875
 40
0.92578125
 40
0.927734375
 40
0.9296875
 40
0.931640625
 40
0.93359375
 40
0.9345703125
 40
0.935546875
 40
0.9360351562
 40
0.9365234375
 40
0.9370117188
 40
0.9372558594
 40
0.9375
 40
0.9377441406
 40
0.9379882812
 40
0.9384765625
 40
0.9389648438
 40
0.939453125
 40
0.9404296875
 40
0.94140625
 40
0.943359375
 40
0.9453125
 40
0.947265625
 40
0.94921875
 40
0.953125
 40
0.95703125
 40
0.9609375
 40
0.96875
 40
0.9765625
 40
0.984375
 40
1.0
 40
1.0
 40
1.0
 40
1.0
 10
9.6458458692
 20
7.7283430611
 30
0.0
 10
9.6395794954
 20
7.7281632122
 30
0.0
 10
9.6301799346
 20
7.727893439
 30
0.0
 10
9.617647187
 20
7.7275337414
 30
0.0
 10
9.6082476262
 20
7.7272639681
 30
0.0
 10
9.6004146589
 20
7.7270391571
 30
0.0
 10
9.5941482851
 20
7.7268593082
 30
0.0
 10
9.5894485047
 20
7.7267244218
 30
0.0
 10
9.5855320211
 20
7.7266120158
 30
0.0
 10
9.582398834
 20
7.7265220923
 30
0.0
 10
9.5800489444
 20
7.7264546462
 30
0.0
 10
9.5776990521
 20
7.7263872134
 30
0.0
 10
9.5757408167
 20
7.7263309779
 30
0.0
 10
9.5741742102
 20
7.7262860825
 30
0.0
 10
9.5731951225
 20
7.726257811
 30
0.0
 10
9.5724117576
 20
7.7262356791
 30
0.0
 10
9.5718244934
 20
7.7262177515
 30
0.0
 10
9.571334281
 20
7.7262070385
 30
0.0
 10
9.5709439627
 20
7.7261889884
 30
0.0
 10
9.5706461645
 20
7.726201354
 30
0.0
 10
9.5703676785
 20
7.7261148465
 30
0.0
 10
9.5699896178
 20
7.7260340407
 30
0.0
 10
9.5695193565
 20
7.7259211839
 30
0.0
 10
9.5689540522
 20
7.7257908277
 30
0.0
 10
9.5682006592
 20
7.7256152479
 30
0.0
 10
9.5672587995
 20
7.7253963797
 30
0.0
 10
9.5657518902
 20
7.7250458516
 30
0.0
 10
9.5638682308
 20
7.7246078078
 30
0.0
 10
9.5616078492
 20
7.7240821053
 30
0.0
 10
9.5593474651
 20
7.7235564162
 30
0.0
 10
9.5563336204
 20
7.7228554927
 30
0.0
 10
9.5525663144
 20
7.72197934
 30
0.0
 10
9.5480455472
 20
7.720927956
 30
0.0
 10
9.5420178576
 20
7.719526111
 30
0.0
 10
9.5344832456
 20
7.7177738046
 30
0.0
 10
9.5269486336
 20
7.7160214983
 30
0.0
 10
9.520920944
 20
7.7146196531
 30
0.0
 10
9.5164001767
 20
7.7135682694
 30
0.0
 10
9.5126328709
 20
7.7126921158
 30
0.0
 10
9.5096190257
 20
7.7119911942
 30
0.0
 10
9.5073586432
 20
7.7114654996
 30
0.0
 10
9.5050982556
 20
7.7109398177
 30
0.0
 10
9.5032146151
 20
7.7105017098
 30
0.0
 10
9.5017076671
 20
7.7101513125
 30
0.0
 10
9.5007659058
 20
7.7099321115
 30
0.0
 10
9.5000123108
 20
7.7097572148
 30
0.0
 10
9.4994476237
 20
7.7096247716
 30
0.0
 10
9.4989754314
 20
7.7095184443
 30
0.0
 10
9.4986013103
 20
7.709424317
 30
0.0
 10
9.4983107931
 20
7.7093784929
 30
0.0
 10
9.4980581649
 20
7.7092381159
 30
0.0
 10
9.4977080921
 20
7.7090839751
 30
0.0
 10
9.497275042
 20
7.7088799671
 30
0.0
 10
9.4967534383
 20
7.708640008
 30
0.0
 10
9.4960586455
 20
7.7083183684
 30
0.0
 10
9.4951899221
 20
7.707916899
 30
0.0
 10
9.4938000946
 20
7.7072742237
 30
0.0
 10
9.4920627656
 20
7.7064709908
 30
0.0
 10
9.48997799
 20
7.7055070637
 30
0.0
 10
9.4878932092
 20
7.7045431493
 30
0.0
 10
9.4851135033
 20
7.7032579256
 30
0.0
 10
9.4816388703
 20
7.7016513976
 30
0.0
 10
9.4774693109
 20
7.6997235633
 30
0.0
 10
9.4719098983
 20
7.6971531179
 30
0.0
 10
9.4649606327
 20
7.693940061
 30
0.0
 10
9.458011367
 20
7.6907270041
 30
0.0
 10
9.4524519544
 20
7.6881565585
 30
0.0
 10
9.448282395
 20
7.6862287245
 30
0.0
 10
9.4448077623
 20
7.6846221957
 30
0.0
 10
9.4420280556
 20
7.6833369738
 30
0.0
 10
9.4399432773
 20
7.6823730541
 30
0.0
 10
9.4378584924
 20
7.6814091469
 30
0.0
 10
9.4361211921
 20
7.6806058519
 30
0.0
 10
9.4347313061
 20
7.6799633032
 30
0.0
 10
9.4338627315
 20
7.6795615117
 30
0.0
 10
9.4331676334
 20
7.6792405331
 30
0.0
 10
9.4326469625
 20
7.6789985546
 30
0.0
 10
9.4322109938
 20
7.678800865
 30
0.0
 10
9.4318668755
 20
7.6786338335
 30
0.0
 10
9.4315960627
 20
7.6785328238
 30
0.0
 10
9.4313738179
 20
7.6783391987
 30
0.0
 10
9.4310605261
 20
7.6781133836
 30
0.0
 10
9.4306747322
 20
7.6778200151
 30
0.0
 10
9.4302092879
 20
7.6774727239
 30
0.0
 10
9.4295895658
 20
7.6770080095
 30
0.0
 10
9.4288146152
 20
7.6764276847
 30
0.0
 10
9.4275748608
 20
7.6754988475
 30
0.0
 10
9.4260251106
 20
7.67433791
 30
0.0
 10
9.4241654348
 20
7.6729447383
 30
0.0
 10
9.4223057525
 20
7.671551579
 30
0.0
 10
9.4198261784
 20
7.669694029
 30
0.0
 10
9.41672671
 20
7.6673720929
 30
0.0
 10
9.4130073483
 20
7.664585769
 30
0.0
 10
9.4080481992
 20
7.6608706707
 30
0.0
 10
9.4018492628
 20
7.6562267978
 30
0.0
 10
9.3956503264
 20
7.6515829249
 30
0.0
 10
9.3906911773
 20
7.6478678265
 30
0.0
 10
9.3869718155
 20
7.6450815027
 30
0.0
 10
9.3838723472
 20
7.6427595664
 30
0.0
 10
9.3813927729
 20
7.640902017
 30
0.0
 10
9.3795330912
 20
7.6395088558
 30
0.0
 10
9.3776734133
 20
7.6381156912
 30
0.0
 10
9.37612367
 20
7.6369547313
 30
0.0
 10
9.3748839014
 20
7.6360259398
 30
0.0
 10
9.3741089869
 20
7.6354454988
 30
0.0
 10
9.3734891907
 20
7.634981023
 30
0.0
 10
9.3730239727
 20
7.6346330027
 30
0.0
 10
9.3726374709
 20
7.6343419154
 30
0.0
 10
9.372364604
 20
7.6341402549
 30
0.0
 10
9.3722122959
 20
7.6340217404
 30
0.0
 10
9.3720878791
 20
7.6339420941
 30
0.0
 10
9.3720023971
 20
7.6338271296
 30
0.0
 10
9.3718748402
 20
7.6336861629
 30
0.0
 10
9.3716579433
 20
7.6334337315
 30
0.0
 10
9.3713447824
 20
7.6330761159
 30
0.0
 10
9.3709704052
 20
7.6326456929
 30
0.0
 10
9.3704707412
 20
7.632072244
 30
0.0
 10
9.3698463305
 20
7.6313552794
 30
0.0
 10
9.3688471787
 20
7.6302082219
 30
0.0
 10
9.3675982714
 20
7.6287743705
 30
0.0
 10
9.3660995688
 20
7.6270537615
 30
0.0
 10
9.3646008699
 20
7.6253331491
 30
0.0
 10
9.3626026033
 20
7.6230390004
 30
0.0
 10
9.3601047706
 20
7.6201713141
 30
0.0
 10
9.3571073712
 20
7.6167300907
 30
0.0
 10
9.3531108387
 20
7.6121417929
 30
0.0
 10
9.348115173
 20
7.6064064205
 30
0.0
 10
9.3431195073
 20
7.6006710482
 30
0.0
 10
9.3391229748
 20
7.5960827503
 30
0.0
 10
9.3361255753
 20
7.592641527
 30
0.0
 10
9.3336277429
 20
7.5897738406
 30
0.0
 10
9.3316294758
 20
7.5874796922
 30
0.0
 10
9.3301307785
 20
7.5857590788
 30
0.0
 10
9.32863207
 20
7.5840384736
 30
0.0
 10
9.3273831809
 20
7.5826046103
 30
0.0
 10
9.326383992
 20
7.5814575771
 30
0.0
 10
9.3257596759
 20
7.5807405505
 30
0.0
 10
9.3252598175
 20
7.5801672289
 30
0.0
 10
9.3248860341
 20
7.5797364173
 30
0.0
 10
9.3245710158
 20
7.5793800172
 30
0.0
 10
9.3243269229
 20
7.5790890445
 30
0.0
 10
9.3241222074
 20
7.5788868069
 30
0.0
 10
9.3240001145
 20
7.5786235282
 30
0.0
 10
9.3238084629
 20
7.5782938124
 30
0.0
 10
9.3235788005
 20
7.577874352
 30
0.0
 10
9.3232989671
 20
7.5773741309
 30
0.0
 10
9.3229273364
 20
7.5767060757
 30
0.0
 10
9.3224622911
 20
7.5758713812
 30
0.0
 10
9.321718502
 20
7.5745356607
 30
0.0
 10
9.3207886683
 20
7.5728660818
 30
0.0
 10
9.3196729096
 20
7.5708625565
 30
0.0
 10
9.3185571397
 20
7.5688590393
 30
0.0
 10
9.3170694505
 20
7.5661876802
 30
0.0
 10
9.3152098376
 20
7.5628484823
 30
0.0
 10
9.3129783027
 20
7.5588414445
 30
0.0
 10
9.3100029226
 20
7.5534987275
 30
0.0
 10
9.3062836975
 20
7.5468203312
 30
0.0
 10
9.3025644724
 20
7.5401419349
 30
0.0
 10
9.2995890924
 20
7.5347992178
 30
0.0
 10
9.2973575573
 20
7.5307921801
 30
0.0
 10
9.2954979452
 20
7.5274529818
 30
0.0
 10
9.2940102543
 20
7.5247816237
 30
0.0
 10
9.2928944894
 20
7.5227781035
 30
0.0
 10
9.2917787121
 20
7.5207745894
 30
0.0
 10
9.2908489362
 20
7.5191049755
 30
0.0
 10
9.2901050292
 20
7.5177693264
 30
0.0
 10
9.289640284
 20
7.5169344502
 30
0.0
 10
9.2892680373
 20
7.516266768
 30
0.0
 10
9.2889900858
 20
7.5157654073
 30
0.0
 10
9.2887545355
 20
7.5153495123
 30
0.0
 10
9.2885748962
 20
7.5150125225
 30
0.0
 10
9.2884161185
 20
7.5147714582
 30
0.0
 10
9.2883491333
 20
7.5144858186
 30
0.0
 10
9.2882277553
 20
7.5141205364
 30
0.0
 10
9.288087034
 20
7.5136585915
 30
0.0
 10
9.2879134596
 20
7.5131065443
 30
0.0
 10
9.2876836717
 20
7.5123696827
 30
0.0
 10
9.2873958737
 20
7.5114488791
 30
0.0
 10
9.2869357117
 20
7.5099754405
 30
0.0
 10
9.2863604012
 20
7.5081336947
 30
0.0
 10
9.2856700749
 20
7.5059235773
 30
0.0
 10
9.2849797362
 20
7.5037134659
 30
0.0
 10
9.2840592889
 20
7.5007666486
 30
0.0
 10
9.2829087283
 20
7.4970831277
 30
0.0
 10
9.2815280563
 20
7.4926629023
 30
0.0
 10
9.27968716
 20
7.4867692686
 30
0.0
 10
9.2773860397
 20
7.4794022264
 30
0.0
 10
9.2750849193
 20
7.4720351842
 30
0.0
 10
9.2732440231
 20
7.4661415504
 30
0.0
 10
9.2718633508
 20
7.4617213251
 30
0.0
 10
9.270712791
 20
7.4580378038
 30
0.0
 10
9.269792342
 20
7.4550909873
 30
0.0
 10
9.2691020087
 20
7.4528808736
 30
0.0
 10
9.2684116622
 20
7.4506707647
 30
0.0
 10
9.2678364144
 20
7.4488289924
 30
0.0
 10
9.2673761245
 20
7.447355608
 30
0.0
 10
9.2670886521
 20
7.4464346666
 30
0.0
 10
9.2668581959
 20
7.4456980878
 30
0.0
 10
9.2666866633
 20
7.4451451764
 30
0.0
 10
9.2665395536
 20
7.4446859354
 30
0.0
 10
9.2664312092
 20
7.4443151368
 30
0.0
 10
9.2663244204
 20
7.4440463442
 30
0.0
 10
9.2663150817
 20
7.443742029
 30
0.0
 10
9.2662685895
 20
7.4433486839
 30
0.0
 10
9.2662221534
 20
7.4428527453
 30
0.0
 10
9.2661614311
 20
7.4422594412
 30
0.0
 10
9.266082214
 20
7.4414677326
 30
0.0
 10
9.2659825948
 20
7.4404783147
 30
0.0
 10
9.2658235382
 20
7.4388951244
 30
0.0
 10
9.2656246028
 20
7.4369161782
 30
0.0
 10
9.2653859295
 20
7.4345414249
 30
0.0
 10
9.265147243
 20
7.4321666765
 30
0.0
 10
9.264828999
 20
7.4290003435
 30
0.0
 10
9.2644311924
 20
7.4250424278
 30
0.0
 10
9.2639538251
 20
7.4202929287
 30
0.0
 10
9.2633173352
 20
7.4139602634
 30
0.0
 10
9.2625217229
 20
7.4060444318
 30
0.0
 10
9.2617261106
 20
7.3981286001
 30
0.0
 10
9.2610896208
 20
7.3917959348
 30
0.0
 10
9.2606122532
 20
7.3870464358
 30
0.0
 10
9.2602144475
 20
7.3830885199
 30
0.0
 10
9.2598962017
 20
7.3799221873
 30
0.0
 10
9.2596575208
 20
7.3775474378
 30
0.0
 10
9.2594188263
 20
7.3751726881
 30
0.0
 10
9.2592199568
 20
7.3731937308
 30
0.0
 10
9.2590607659
 20
7.3716105632
 30
0.0
 10
9.2589614885
 20
7.3706210875
 30
0.0
 10
9.2588815698
 20
7.3698294976
 30
0.0
 10
9.258822991
 20
7.3692358309
 30
0.0
 10
9.2587698485
 20
7.3687410267
 30
0.0
 10
9.2587370386
 20
7.3683453671
 30
0.0
 10
9.2586859149
 20
7.3680481204
 30
0.0
 10
9.2587360042
 20
7.3677527898
 30
0.0
 10
9.258767435
 20
7.3673583463
 30
0.0
 10
9.2588188535
 20
7.3668655216
 30
0.0
 10
9.2588753636
 20
7.3662740337
 30
0.0
 10
9.258952524
 20
7.3654854174
 30
0.0
 10
9.2590483535
 20
7.3644996353
 30
0.0
 10
9.2592020278
 20
7.3629223906
 30
0.0
 10
9.2593940015
 20
7.3609508323
 30
0.0
 10
9.259624421
 20
7.3585849635
 30
0.0
 10
9.2598548269
 20
7.3562190943
 30
0.0
 10
9.2601620395
 20
7.3530646022
 30
0.0
 10
9.2605460536
 20
7.3491214871
 30
0.0
 10
9.2610068713
 20
7.3443897489
 30
0.0
 10
9.2616212945
 20
7.3380807646
 30
0.0
 10
9.2623893237
 20
7.3301945343
 30
0.0
 10
9.2631573529
 20
7.3223083041
 30
0.0
 10
9.2637717761
 20
7.3159993198
 30
0.0
 10
9.2642325941
 20
7.3112675817
 30
0.0
 10
9.264616607
 20
7.3073244663
 30
0.0
 10
9.2649238221
 20
7.3041699746
 30
0.0
 10
9.2651542206
 20
7.3018041042
 30
0.0
 10
9.2653846678
 20
7.2994382401
 30
0.0
 10
9.2655765553
 20
7.2974666671
 30
0.0
 10
9.2657304054
 20
7.2958894525
 30
0.0
 10
9.2658448639
 20
7.294706422
 30
0.0
 10
9.2659432012
 20
7.2937209434
 30
0.0
 10
9.2660062377
 20
7.2930303623
 30
0.0
 10
9.2660513143
 20
7.2926369096
 30
0.0
 10
9.2660596115
 20
7.292338538
 30
0.0
 10
9.2661654216
 20
7.292052712
 30
0.0
 10
9.2662724882
 20
7.2916672346
 30
0.0
 10
9.2664757022
 20
7.290994688
 30
0.0
 10
9.2667577227
 20
7.2900328412
 30
0.0
 10
9.2670996936
 20
7.2888790813
 30
0.0
 10
9.267554416
 20
7.2873405755
 30
0.0
 10
9.2681232442
 20
7.2854174978
 30
0.0
 10
9.2688056557
 20
7.2831097812
 30
0.0
 10
9.269488116
 20
7.2808020708
 30
0.0
 10
9.2703980461
 20
7.2777251215
 30
0.0
 10
9.2715354645
 20
7.2738789356
 30
0.0
 10
9.272900364
 20
7.2692635122
 30
0.0
 10
9.274720231
 20
7.2631096144
 30
0.0
 10
9.2769950644
 20
7.2554172421
 30
0.0
 10
9.2792698979
 20
7.2477248699
 30
0.0
 10
9.2810897646
 20
7.2415709721
 30
0.0
 10
9.2824546651
 20
7.2369555489
 30
0.0
 10
9.2835920803
 20
7.2331093623
 30
0.0
 10
9.2845020169
 20
7.2300324144
 30
0.0
 10
9.2851844573
 20
7.2277246995
 30
0.0
 10
9.2858669436
 20
7.2254170002
 30
0.0
 10
9.2864355391
 20
7.2234938685
 30
0.0
 10
9.286890736
 20
7.2219554729
 30
0.0
 10
9.287231258
 20
7.2208013761
 30
0.0
 10
9.2875178117
 20
7.2198405836
 30
0.0
 10
9.2877129331
 20
7.2191661549
 30
0.0
 10
9.2878329661
 20
7.2187836931
 30
0.0
 10
9.2878989475
 20
7.2184886042
 30
0.0
 10
9.2880568344
 20
7.2182250224
 30
0.0
 10
9.2882352927
 20
7.2178625899
 30
0.0
 10
9.2885625308
 20
7.2172334535
 30
0.0
 10
9.2890222051
 20
7.2163320102
 30
0.0
 10
9.2895771566
 20
7.2152514241
 30
0.0
 10
9.2903159244
 20
7.2138102423
 30
0.0
 10
9.2912397848
 20
7.2120089025
 30
0.0
 10
9.2923482456
 20
7.2098472358
 30
0.0
 10
9.2934567523
 20
7.2076855849
 30
0.0
 10
9.2949347452
 20
7.2048033782
 30
0.0
 10
9.2967822418
 20
7.2012006216
 30
0.0
 10
9.2989992353
 20
7.196877313
 30
0.0
 10
9.3019552276
 20
7.1911129018
 30
0.0
 10
9.3056502176
 20
7.1839073876
 30
0.0
 10
9.3093452077
 20
7.1767018735
 30
0.0
 10
9.3123011998
 20
7.1709374622
 30
0.0
 10
9.3145181938
 20
7.1666141537
 30
0.0
 10
9.3163656892
 20
7.1630113968
 30
0.0
 10
9.3178436845
 20
7.1601291908
 30
0.0
 10
9.318952184
 20
7.1579675377
 30
0.0
 10
9.3200606715
 20
7.155805879
 30
0.0
 10
9.3209844487
 20
7.1540045145
 30
0.0
 10
9.3217233863
 20
7.152563383
 30
0.0
 10
9.3221854137
 20
7.1516627667
 30
0.0
 10
9.3225545975
 20
7.1509420656
 30
0.0
 10
9.3228326847
 20
7.1504021093
 30
0.0
 10
9.3230606088
 20
7.1499503341
 30
0.0
 10
9.3232515049
 20
7.1495929771
 30
0.0
 10
9.3233712956
 20
7.1493138567
 30
0.0
 10
9.3235803334
 20
7.1490771152
 30
0.0
 10
9.3238278754
 20
7.1487466563
 30
0.0
 10
9.3241479988
 20
7.1483386616
 30
0.0
 10
9.3245275687
 20
7.1478468941
 30
0.0
 10
9.3250352609
 20
7.1471919634
 30
0.0
 10
9.3256693287
 20
7.1463730401
 30
0.0
 10
9.3266841431
 20
7.145062908
 30
0.0
 10
9.3279525562
 20
7.1434251931
 30
0.0
 10
9.3294746969
 20
7.1414599565
 30
0.0
 10
9.3309968256
 20
7.1394947143
 30
0.0
 10
9.3330263346
 20
7.1368743932
 30
0.0
 10
9.3355632196
 20
7.1335989913
 30
0.0
 10
9.3386074821
 20
7.1296685092
 30
0.0
 10
9.3426664985
 20
7.1244278663
 30
0.0
 10
9.3477402692
 20
7.1178770627
 30
0.0
 10
9.3528140398
 20
7.1113262592
 30
0.0
 10
9.3568730562
 20
7.1060856163
 30
0.0
 10
9.359917319
 20
7.1021551345
 30
0.0
 10
9.3624542032
 20
7.0988797315
 30
0.0
 10
9.3644837137
 20
7.0962594126
 30
0.0
 10
9.366005838
 20
7.0942941638
 30
0.0
 10
9.367527995
 20
7.0923289517
 30
0.0
 10
9.3687963575
 20
7.0906911607
 30
0.0
 10
9.369811275
 20
7.0893811837
 30
0.0
 10
9.3705718416
 20
7.0883980022
 30
0.0
 10
9.3712076242
 20
7.0875809071
 30
0.0
 10
9.371648792
 20
7.0870045782
 30
0.0
 10
9.3719069462
 20
7.0866820588
 30
0.0
 10
9.3720834955
 20
7.0864209814
 30
0.0
 10
9.3723252809
 20
7.0862332496
 30
0.0
 10
9.3726249064
 20
7.0859573567
 30
0.0
 10
9.3731598531
 20
7.0854864642
 30
0.0
 10
9.3739185197
 20
7.0848075286
 30
0.0
 10
9.3748312921
 20
7.0839954735
 30
0.0
 10
9.3760474933
 20
7.0829118014
 30
0.0
 10
9.3775680291
 20
7.0815575311
 30
0.0
 10
9.3793925503
 20
7.0799322697
 30
0.0
 10
9.381217104
 20
7.078307045
 30
0.0
 10
9.3836498309
 20
7.0761400659
 30
0.0
 10
9.3866907435
 20
7.0734313463
 30
0.0
 10
9.3903398369
 20
7.070180881
 30
0.0
 10
9.3952052953
 20
7.065846928
 30
0.0
 10
9.4012871182
 20
7.0604294864
 30
0.0
 10
9.4073689412
 20
7.0550120449
 30
0.0
 10
9.4122343994
 20
7.0506780916
 30
0.0
 10
9.4158834934
 20
7.0474276271
 30
0.0
 10
9.418924404
 20
7.044718905
 30
0.0
 10
9.421357135
 20
7.0425519311
 30
0.0
 10
9.4231816761
 20
7.0409266904
 30
0.0
 10
9.4250062448
 20
7.039301489
 30
0.0
 10
9.4265266326
 20
7.0379470319
 30
0.0
 10
9.4277431357
 20
7.0368637409
 30
0.0
 10
9.4286549861
 20
7.0360505221
 30
0.0
 10
9.4294165375
 20
7.0353752271
 30
0.0
 10
9.4299463344
 20
7.0348978356
 30
0.0
 10
9.430254211
 20
7.0346323556
 30
0.0
 10
9.4304706517
 20
7.0344126388
 30
0.0
 10
9.4307423915
 20
7.0342716918
 30
0.0
 10
9.4310854224
 20
7.0340562867
 30
0.0
 10
9.4316947134
 20
7.0336921292
 30
0.0
 10
9.4325604306
 20
7.0331652114
 30
0.0
 10
9.4336013025
 20
7.0325357748
 30
0.0
 10
9.434988429
 20
7.0316955253
 30
0.0
 10
9.4367225783
 20
7.0306455569
 30
0.0
 10
9.4388034541
 20
7.0293854475
 30
0.0
 10
9.4408843575
 20
7.0281253775
 30
0.0
 10
9.4436588858
 20
7.0264452705
 30
0.0
 10
9.4471270495
 20
7.0243451414
 30
0.0
 10
9.4512888444
 20
7.0218249844
 30
0.0
 10
9.4568379049
 20
7.0184647759
 30
0.0
 10
9.4637742302
 20
7.0142645149
 30
0.0
 10
9.4707105557
 20
7.0100642542
 30
0.0
 10
9.476259616
 20
7.0067040453
 30
0.0
 10
9.4804214114
 20
7.0041838893
 30
0.0
 10
9.4838895735
 20
7.0020837573
 30
0.0
 10
9.486664105
 20
7.0004036561
 30
0.0
 10
9.4887449986
 20
6.9991435684
 30
0.0
 10
9.4908259113
 20
6.9978835254
 30
0.0
 10
9.4925599457
 20
6.9968333507
 30
0.0
 10
9.4939473065
 20
6.9959935217
 30
0.0
 10
9.4949874631
 20
6.9953628009
 30
0.0
 10
9.495855418
 20
6.9948399012
 30
0.0
 10
9.4964607144
 20
6.9944685707
 30
0.0
 10
9.4968101457
 20
6.9942646585
 30
0.0
 10
9.4970622254
 20
6.9940884089
 30
0.0
 10
9.4973525064
 20
6.9940012827
 30
0.0
 10
9.4977262226
 20
6.9938540272
 30
0.0
 10
9.4983864344
 20
6.9936108142
 30
0.0
 10
9.4993263484
 20
6.9932557945
 30
0.0
 10
9.5004556344
 20
6.9928330122
 30
0.0
 10
9.5019608638
 20
6.9922681703
 30
0.0
 10
9.5038425671
 20
6.9915625064
 30
0.0
 10
9.5061005396
 20
6.9907155431
 30
0.0
 10
9.5083585313
 20
6.9898686244
 30
0.0
 10
9.5113691802
 20
6.9887393839
 30
0.0
 10
9.5151324935
 20
6.9873278386
 30
0.0
 10
9.5196484686
 20
6.985633982
 30
0.0
 10
9.525669769
 20
6.9833755073
 30
0.0
 10
9.5331963944
 20
6.9805524136
 30
0.0
 10
9.5407230199
 20
6.9777293201
 30
0.0
 10
9.5467443203
 20
6.9754708453
 30
0.0
 10
9.5512602955
 20
6.973776989
 30
0.0
 10
9.5550236083
 20
6.9723654426
 30
0.0
 10
9.5580342583
 20
6.9712362043
 30
0.0
 10
9.5602922467
 20
6.9703892789
 30
0.0
 10
9.5625502313
 20
6.9695423407
 30
0.0
 10
9.5644318972
 20
6.9688365989
 30
0.0
 10
9.5659372028
 20
6.9682719157
 30
0.0
 10
9.5668780805
 20
6.9679191932
 30
0.0
 10
9.5676306415
 20
6.9676365468
 30
0.0
 10
9.5681954487
 20
6.9674258447
 30
0.0
 10
9.5686648918
 20
6.967246179
 30
0.0
 10
9.5690432041
 20
6.9671115985
 30
0.0
 10
9.5693194025
 20
6.9669856553
 30
0.0
 10
9.5696243655
 20
6.9669551673
 30
0.0
 10
9.570020935
 20
6.9668811729
 30
0.0
 10
9.5705200942
 20
6.96680012
 30
0.0
 10
9.5711176097
 20
6.9666979598
 30
0.0
 10
9.5719148124
 20
6.9665634566
 30
0.0
 10
9.5729111393
 20
6.9663947419
 30
0.0
 10
9.5745053609
 20
6.9661251256
 30
0.0
 10
9.5764981042
 20
6.965787993
 30
0.0
 10
9.5788894106
 20
6.9653834821
 30
0.0
 10
9.5812807131
 20
6.9649789582
 30
0.0
 10
9.5844691178
 20
6.9644395976
 30
0.0
 10
9.5884546232
 20
6.9637653952
 30
0.0
 10
9.5932372299
 20
6.9629563531
 30
0.0
 10
9.5996140387
 20
6.96187763
 30
0.0
 10
9.6075850498
 20
6.9605292262
 30
0.0
 10
9.6171502631
 20
6.9589111416
 30
0.0
 10
9.6299038809
 20
6.9567536954
 30
0.0
 10
9.6394690942
 20
6.9551356109
 30
0.0
 10
9.6458459031
 20
6.9540568878
 30
0.0
  0
ENDSEC
  0
SECTION
  2
OBJECTS
  0
DICTIONARY
  5
C
100
AcDbDictionary
280
0
281
1
  3
ACAD_GROUP
350
D
  3
ACAD_MLINESTYLE
350
17
  3
ACAD_LAYOUT
350
1A
  3
ACAD_PLOTSETTINGS
350
19
  3
ACAD_PLOTSTYLENAME
350
E
  3
ACAD_IMAGE_DICT
350
       3E9
  3
ACAD_IMAGE_VARS
350
       3EA
  3
ACAD_TABLESTYLE
350
       3EB
  0
IMAGEDEF_REACTOR
  5
3E8
100
AcDbRasterImageDefReactor
 90
2
330
298
  0
DICTIONARY
  5
D
102
{ACAD_REACTORS
330
C
102
}
100
AcDbDictionary
280
0
281
1
  0
ACDBDICTIONARYWDFLT
  5
E
102
{ACAD_REACTORS
330
C
102
}
100
AcDbDictionary
281
1
  3
Normal
350
F
100
AcDbDictionaryWithDefault
340
F
  0
DICTIONARY
  5
3E9
330
C
100
AcDbDictionary
281
1
  3
BGD_assy_2_img_1
350
       3EE
  0
RASTERVARIABLES
  5
3EA
330
C
100
AcDbRasterVariables
 90
0
 70
0
 71
1
 72
5
  0
DICTIONARY
  5
17
102
{ACAD_REACTORS
330
C
102
}
100
AcDbDictionary
280
0
281
1
  3
Standard
350
18
  0
DICTIONARY
  5
3EB
330
C
100
AcDbDictionary
281
1
  3
Standard
350
       3EF
  3
Standard1
350
       3F0
  0
DICTIONARY
  5
19
102
{ACAD_REACTORS
330
C
102
}
100
AcDbDictionary
281
1
  0
DICTIONARY
  5
1A
102
{ACAD_REACTORS
330
C
102
}
100
AcDbDictionary
281
1
  3
Model
350
3EC
  3
Layout1
350
3ED
  0
ACDBPLACEHOLDER
  5
F
102
{ACAD_REACTORS
330
E
102
}
  0
MLINESTYLE
  5
18
102
{ACAD_REACTORS
330
17
102
}
100
AcDbMlineStyle
  2
STANDARD
 70
0
  3

 62
256
 51
90.0
 52
90.0
 71
2
 49
0.5
 62
256
  6
BYLAYER
 49
-0.5
 62
256
  6
BYLAYER
  0
LAYOUT
  5
3EC
102
{ACAD_REACTORS
330
1A
102
}
100
AcDbPlotSettings
  1

  2
none_device
  4
ANSI_C_(22.00_x_17.00_Inches)
  6

 40
0.0
 41
0.0
 42
0.0
 43
0.0
 44
558.8
 45
431.8
 46
0.0
 47
0.0
 48
0.0
 49
0.0
140
0.0
141
0.0
142
1.0
143
1.0
 70
1024
 72
0
 73
0
 74
0
  7

 75
0
147
1.0
148
0.0
149
0.0
100
AcDbLayout
  1
Model
 70
0
 71
0
 10
0.0
 20
0.0
 11
22.0
 21
17.0
 12
0.0
 22
0.0
 32
0.0
 14
0.0
 24
0.0
 34
0.0
 15
0.0
 25
0.0
 35
0.0
146
0.0
 13
0.0
 23
0.0
 33
0.0
 16
1.0
 26
0.0
 36
0.0
 17
0.0
 27
1.0
 37
0.0
 76
0
330
20E
345
0
346
0
  0
LAYOUT
  5
3ED
102
{ACAD_REACTORS
330
1A
102
}
100
AcDbPlotSettings
  1

  2
none_device
  4
ANSI_C_(22.00_x_17.00_Inches)
  6

 40
0.0
 41
0.0
 42
0.0
 43
0.0
 44
558.8
 45
431.8
 46
0.0
 47
0.0
 48
0.0
 49
0.0
140
0.0
141
0.0
142
1.0
143
1.0
 70
0
 72
0
 73
0
 74
0
  7

 75
0
147
1.0
148
0.0
149
0.0
100
AcDbLayout
  1
Layout1
 70
0
 71
1
 10
0.0
 20
0.0
 11
22.0
 21
17.0
 12
0.0
 22
0.0
 32
0.0
 14
0.0
 24
0.0
 34
0.0
 15
0.0
 25
0.0
 35
0.0
146
0.0
 13
0.0
 23
0.0
 33
0.0
 16
1.0
 26
0.0
 36
0.0
 17
0.0
 27
1.0
 37
0.0
 76
0
330
20F
345
0
346
0
  0
IMAGEDEF
  5
3EE
102
{ACAD_REACTORS
330
3E9
330
3E8
102
}
100
AcDbRasterImageDef
 90
0
  1
BGD_assy_2_img_1.png
 10
369.0
 20
92.0
 11
0.0066666667
 21
0.0066666667
280
1
281
0
  0
TABLESTYLE
  5
3EF
102
{ACAD_REACTORS
330
3EB
330
29B
330
29C
102
}
330
3EB
100
AcDbTableStyle
  3
Standard
 70
0
 71
0
 40
0.06
 41
0.06
280
1
281
1
  7
Standard
140
0.18
170
1
 62
0
 63
7
283
0
  7
Standard
140
0.18
170
1
 62
0
 63
7
283
0
  7
Standard
140
0.18
170
1
 62
0
 63
7
283
0
  0
TABLESTYLE
  5
3F0
102
{ACAD_REACTORS
330
3EB
330
29A
102
}
330
3EB
100
AcDbTableStyle
  3
Standard1
 70
1
 71
0
 40
0.06
 41
0.06
280
1
281
1
  7
Standard
140
0.18
170
1
 62
0
 63
7
283
0
  7
Standard
140
0.18
170
1
 62
0
 63
7
283
0
  7
Standard
140
0.18
170
1
 62
0
 63
7
283
0
  0
ENDSEC
  0
EOF
