999
DXF file: BBW_assy_2.dxf
999
Pro/ENGINEER 2014200 by Parametric Technology Corporation
  0
SECTION
  2
HEADER
  9
$ACADVER
  1
AC1021
  9
$DWGCODEPAGE
  3
ANSI_1252
  9
$EXTMAX
 10
22.0
 20
17.0
 30
0.0
  9
$EXTMIN
 10
0.0
 20
0.0
 30
0.0
  9
$LIMMIN
 10
0.0
 20
0.0
  9
$LIMMAX
 10
22.0
 20
17.0
  9
$VIEWCTR
 10
11.0
 20
8.5
  9
$VIEWSIZE
 40
17.0
  9
$CLAYER
  8
0
  9
$LTSCALE
 40
1.21
  9
$CELTYPE
  6
BYLAYER
  9
$DIMSCALE
 40
1.0
  9
$DIMASZ
 40
0.1875
  9
$DIMEXO
 40
0.0625
  9
$DIMDLI
 40
0.836
  9
$DIMEXE
 40
0.125
  9
$DIMCEN
 40
0.198
  9
$DIMLFAC
 40
1.0
  9
$DIMBLK
  1
_FILLED
  9
$DIMTXT
 40
0.1
  9
$DIMTOL
 70
0
  9
$DIMLIM
 70
0
  9
$DIMTFAC
 40
1.0
  9
$DIMGAP
 40
0.09
  9
$DIMDSEP
 70
46
  9
$AUNITS
 70
0
  9
$PDMODE
 70
3
  9
$PDSIZE
 40
0.3125
  9
$HANDSEED
  5
379
  9
$TILEMODE
 70
1
  9
$MEASUREMENT
 70
0
  9
$INSUNITS
 70
1
  0
ENDSEC
  0
SECTION
  2
CLASSES
  0
CLASS
  1
ACDBDICTIONARYWDFLT
  2
AcDbDictionaryWithDefault
  3
AutoCAD 2000
 90
0
 91
1
280
0
281
0
  0
CLASS
  1
ACDBPLACEHOLDER
  2
AcDbPlaceHolder
  3
AutoCAD 2000
 90
0
 91
1
280
0
281
0
  0
CLASS
  1
LAYOUT
  2
AcDbLayout
  3
AutoCAD 2000
 90
0
 91
0
280
0
281
0
  0
CLASS
  1
RASTERVARIABLES
  2
AcDbRasterVariables
  3
ISM
 90
0
 91
1
280
0
281
0
  0
CLASS
  1
IMAGEDEF
  2
AcDbRasterImageDef
  3
ISM
 90
0
 91
1
280
0
281
0
  0
CLASS
  1
IMAGEDEF_REACTOR
  2
AcDbRasterImageDefReactor
  3
ISM
 90
0
 91
1
280
0
281
0
  0
CLASS
  1
IMAGE
  2
AcDbRasterImage
  3
ISM
 90
127
 91
1
280
0
281
1
  0
CLASS
  1
TABLESTYLE
  2
AcDbTableStyle
  3
ObjectDBX Classes
 90
2047
 91
1
280
0
281
0
  0
CLASS
  1
ACAD_TABLE
  2
AcDbTable
  3
ObjectDBX Classes
 90
1025
 91
3
280
0
281
1
  0
ENDSEC
  0
SECTION
  2
TABLES
  0
TABLE
  2
VPORT
  5
8
100
AcDbSymbolTable
 70
2
  0
VPORT
  5
1F4
100
AcDbSymbolTableRecord
100
AcDbViewportTableRecord
  2
*ACTIVE
 70
0
 10
0.0
 20
0.0
 11
1.0
 21
1.0
 12
11.0
 22
8.5
 13
0.0
 23
0.0
 14
1.0
 24
1.0
 15
0.0
 25
0.0
 16
0.0
 26
0.0
 36
1.0
 17
0.0
 27
0.0
 37
0.0
 40
17.0
 41
1.2941176471
 42
50.0
 43
0.0
 44
0.0
 50
0.0
 51
0.0
 71
0
 72
100
 73
1
 74
1
 75
0
 76
0
 77
0
 78
0
  0
ENDTAB
  0
TABLE
  2
LTYPE
  5
5
100
AcDbSymbolTable
 70
6
  0
LTYPE
  5
14
100
AcDbSymbolTableRecord
100
AcDbLinetypeTableRecord
  2
BYBLOCK
 70
0
  3

 72
65
 73
0
 40
0.0
  0
LTYPE
  5
15
100
AcDbSymbolTableRecord
100
AcDbLinetypeTableRecord
  2
BYLAYER
 70
0
  3

 72
65
 73
0
 40
0.0
  0
LTYPE
  5
16
100
AcDbSymbolTableRecord
100
AcDbLinetypeTableRecord
  2
CONTINUOUS
 70
64
  3
Solid line
 72
65
 73
0
 40
0.0
  0
LTYPE
  5
1F5
100
AcDbSymbolTableRecord
100
AcDbLinetypeTableRecord
  2
CENTER
 70
64
  3
____ _ ____ _ ____ _ ____ _ ____ _ ____ _ ____
 72
65
 73
4
 40
0.6
 49
0.375
 74
0
 49
-0.075
 74
0
 49
0.075
 74
0
 49
-0.075
 74
0
  0
LTYPE
  5
1F6
100
AcDbSymbolTableRecord
100
AcDbLinetypeTableRecord
  2
HIDDEN
 70
64
  3
- - - - - - - - - - - - - - - - - - - -
 72
65
 73
2
 40
0.2
 49
0.1
 74
0
 49
-0.1
 74
0
  0
LTYPE
  5
1F7
100
AcDbSymbolTableRecord
100
AcDbLinetypeTableRecord
  2
PHANTOM
 70
64
  3
_____ _ _ _____ _ _ _____ _ _ _____
 72
65
 73
6
 40
0.8
 49
0.45
 74
0
 49
-0.05
 74
0
 49
0.1
 74
0
 49
-0.05
 74
0
 49
0.1
 74
0
 49
-0.05
 74
0
  0
LTYPE
  5
1F8
100
AcDbSymbolTableRecord
100
AcDbLinetypeTableRecord
  2
DOT
 70
64
  3
. . . . . . . . . . . . . . . . . . . .
 72
65
 73
2
 40
0.2
 49
0.1
 74
0
 49
-0.1
 74
0
  0
LTYPE
  5
1F9
100
AcDbSymbolTableRecord
100
AcDbLinetypeTableRecord
  2
DASHED
 70
64
  3
- - - - - - - - - - - - - - - - - - - -
 72
65
 73
2
 40
0.2
 49
0.1
 74
0
 49
-0.1
 74
0
  0
ENDTAB
  0
TABLE
  2
LAYER
  5
2
100
AcDbSymbolTable
 70
36
  0
LAYER
  5
10
100
AcDbSymbolTableRecord
100
AcDbLayerTableRecord
  2
0
 70
0
 62
7
  6
CONTINUOUS
370
-3
390
F
  0
LAYER
  5
1FA
100
AcDbSymbolTableRecord
100
AcDbLayerTableRecord
  2
DEFAULT_1
 70
0
 62
7
  6
CENTER
370
-3
390
F
  0
LAYER
  5
1FB
100
AcDbSymbolTableRecord
100
AcDbLayerTableRecord
  2
DEFAULT_2
 70
0
 62
8
  6
HIDDEN
370
-3
390
F
  0
LAYER
  5
1FC
100
AcDbSymbolTableRecord
100
AcDbLayerTableRecord
  2
DEFAULT_3
 70
0
 62
7
  6
PHANTOM
370
-3
390
F
  0
LAYER
  5
1FD
100
AcDbSymbolTableRecord
100
AcDbLayerTableRecord
  2
01___PRT_ALL_DTM_PLN
 70
0
 62
7
  6
CONTINUOUS
370
-3
390
F
  0
LAYER
  5
1FE
100
AcDbSymbolTableRecord
100
AcDbLayerTableRecord
  2
01___PRT_DEF_DTM_PLN
 70
0
 62
7
  6
CONTINUOUS
370
-3
390
F
  0
LAYER
  5
1FF
100
AcDbSymbolTableRecord
100
AcDbLayerTableRecord
  2
02___PRT_ALL_AXES
 70
0
 62
7
  6
CONTINUOUS
370
-3
390
F
  0
LAYER
  5
200
100
AcDbSymbolTableRecord
100
AcDbLayerTableRecord
  2
03___PRT_ALL_CURVES
 70
0
 62
7
  6
CONTINUOUS
370
-3
390
F
  0
LAYER
  5
201
100
AcDbSymbolTableRecord
100
AcDbLayerTableRecord
  2
04___PRT_ALL_DTM_PNT
 70
0
 62
7
  6
CONTINUOUS
370
-3
390
F
  0
LAYER
  5
202
100
AcDbSymbolTableRecord
100
AcDbLayerTableRecord
  2
05___PRT_ALL_DTM_CSYS
 70
0
 62
7
  6
CONTINUOUS
370
-3
390
F
  0
LAYER
  5
203
100
AcDbSymbolTableRecord
100
AcDbLayerTableRecord
  2
05___PRT_DEF_DTM_CSYS
 70
0
 62
7
  6
CONTINUOUS
370
-3
390
F
  0
LAYER
  5
204
100
AcDbSymbolTableRecord
100
AcDbLayerTableRecord
  2
06___PRT_ALL_SURFS
 70
0
 62
7
  6
CONTINUOUS
370
-3
390
F
  0
LAYER
  5
205
100
AcDbSymbolTableRecord
100
AcDbLayerTableRecord
  2
DATUM_PLANES
 70
0
 62
7
  6
CONTINUOUS
370
-3
390
F
  0
LAYER
  5
206
100
AcDbSymbolTableRecord
100
AcDbLayerTableRecord
  2
DIMENSIONS
 70
0
 62
7
  6
CONTINUOUS
370
-3
390
F
  0
LAYER
  5
207
100
AcDbSymbolTableRecord
100
AcDbLayerTableRecord
  2
DTM_500001
 70
0
 62
7
  6
CONTINUOUS
370
-3
390
F
  0
LAYER
  5
208
100
AcDbSymbolTableRecord
100
AcDbLayerTableRecord
  2
PARAMETERDIMENSIONS
 70
0
 62
7
  6
CONTINUOUS
370
-3
390
F
  0
LAYER
  5
209
100
AcDbSymbolTableRecord
100
AcDbLayerTableRecord
  2
PORT_AREAS
 70
0
 62
7
  6
CONTINUOUS
370
-3
390
F
  0
LAYER
  5
20A
100
AcDbSymbolTableRecord
100
AcDbLayerTableRecord
  2
SUNNBOMCOSMETIC
 70
0
 62
7
  6
CONTINUOUS
370
-3
390
F
  0
LAYER
  5
20B
100
AcDbSymbolTableRecord
100
AcDbLayerTableRecord
  2
SUNNBOMSTAMPING
 70
0
 62
7
  6
CONTINUOUS
370
-3
390
F
  0
LAYER
  5
20C
100
AcDbSymbolTableRecord
100
AcDbLayerTableRecord
  2
THREADS
 70
0
 62
7
  6
CONTINUOUS
370
-3
390
F
  0
ENDTAB
  0
TABLE
  2
STYLE
  5
3
100
AcDbSymbolTable
 70
1
  0
STYLE
  5
11
100
AcDbSymbolTableRecord
100
AcDbTextStyleTableRecord
  2
STANDARD
 70
0
 40
0.0
 41
0.8
 50
0.0
 71
0
 42
0.2
  3
txt
  4

  0
STYLE
  5
20D
100
AcDbSymbolTableRecord
100
AcDbTextStyleTableRecord
  2
TEXTSTYLE_1
 70
0
 40
0.0
 41
0.8
 50
0.0
 71
0
 42
0.2
  3
gdt
  4

  0
ENDTAB
  0
TABLE
  2
VIEW
  5
6
100
AcDbSymbolTable
 70
0
  0
ENDTAB
  0
TABLE
  2
UCS
  5
7
100
AcDbSymbolTable
 70
0
  0
ENDTAB
  0
TABLE
  2
APPID
  5
9
100
AcDbSymbolTable
 70
1
  0
APPID
  5
20E
100
AcDbSymbolTableRecord
100
AcDbRegAppTableRecord
  2
ACAD
 70
0
  0
ENDTAB
  0
TABLE
  2
BLOCK_RECORD
  5
1
100
AcDbSymbolTable
 70
0
  0
BLOCK_RECORD
  5
20F
100
AcDbSymbolTableRecord
100
AcDbBlockTableRecord
  2
*Model_Space
  0
BLOCK_RECORD
  5
210
100
AcDbSymbolTableRecord
100
AcDbBlockTableRecord
  2
*Paper_Space
  0
BLOCK_RECORD
  5
211
100
AcDbSymbolTableRecord
100
AcDbBlockTableRecord
  2
SUN_FIRST_THIRD_ANGLE_BL0
  0
BLOCK_RECORD
  5
212
100
AcDbSymbolTableRecord
100
AcDbBlockTableRecord
  2
*T1
  0
BLOCK_RECORD
  5
213
100
AcDbSymbolTableRecord
100
AcDbBlockTableRecord
  2
*T2
  0
BLOCK_RECORD
  5
214
100
AcDbSymbolTableRecord
100
AcDbBlockTableRecord
  2
*T3
  0
ENDTAB
  0
TABLE
  2
DIMSTYLE
  5
A
100
AcDbSymbolTable
 70
1
100
AcDbDimStyleTable
 71
0
  0
DIMSTYLE
105
215
100
AcDbSymbolTableRecord
100
AcDbDimStyleTableRecord
  2
STANDARD
 70
0
  3

  4

 40
1.0
 41
0.1875
 42
0.0625
 43
0.38
 44
0.125
 45
0.0
 46
0.0
 47
0.001
 48
0.001
140
0.1
141
0.09
142
0.0
143
25.4
144
1.0
145
0.0
146
1.0
147
0.09
 71
0.0
 72
0.0
 73
1
 74
1
 75
0
 76
0
 77
0
 78
4
170
0
171
2
172
0
173
0
174
0
175
0
176
0
177
0
178
0
270
2
271
3
272
3
273
2
274
2
275
0
280
0
281
0
282
0
283
1
284
4
285
0
286
0
287
3
288
0
340
11
278
46
  0
ENDTAB
  0
ENDSEC
  0
SECTION
  2
BLOCKS
  0
BLOCK
  5
20
100
AcDbEntity
  8
0
100
AcDbBlockBegin
  2
*Model_Space
 70
0
 10
0.0
 20
0.0
 30
0.0
  3
*Model_Space
  1

  0
ENDBLK
  5
21
100
AcDbEntity
  8
0
100
AcDbBlockEnd
  0
BLOCK
  5
1C
100
AcDbEntity
  8
0
100
AcDbBlockBegin
  2
*Paper_Space
 70
0
 10
0.0
 20
0.0
 30
0.0
  3
*Paper_Space
  1

  0
ENDBLK
  5
1D
100
AcDbEntity
  8
0
100
AcDbBlockEnd
  0
BLOCK
  5
216
100
AcDbEntity
  8
0
100
AcDbBlockBegin
 62
2
  6
CONTINUOUS
  2
SUN_FIRST_THIRD_ANGLE_BL0
 70
64
 10
20.4816717061
 20
1.2289683772
  3
SUN_FIRST_THIRD_ANGLE_BL0
  1

  0
TEXT
  5
217
100
AcDbEntity
  8
0
100
AcDbText
 62
2
  6
CONTINUOUS
 10
19.4750896608
 20
1.4136269581
  7
STANDARD
 40
0.08
  1
FIRST ANGLE
 41
0.8
 72
0
100
AcDbText
  0
TEXT
  5
218
100
AcDbEntity
  8
0
100
AcDbText
 62
2
  6
CONTINUOUS
 10
20.7842537513
 20
1.4047600029
  7
STANDARD
 40
0.08
  1
THIRD ANGLE
 41
0.8
 72
0
100
AcDbText
  0
LINE
  5
219
100
AcDbEntity
  8
0
100
AcDbLine
 62
7
  6
CONTINUOUS
 10
19.4767170086
 20
1.1727031207
 11
19.6334271527
 21
1.1717972817
  0
LINE
  5
21A
100
AcDbEntity
  8
0
100
AcDbLine
 62
7
  6
CONTINUOUS
 10
19.6596964832
 20
1.1717972817
 11
19.6950230232
 21
1.171593082
  0
LINE
  5
21B
100
AcDbEntity
  8
0
100
AcDbLine
 62
7
  6
CONTINUOUS
 10
19.7194818561
 20
1.1708914427
 11
19.8852396156
 21
1.1699333054
  0
LINE
  5
21C
100
AcDbEntity
  8
0
100
AcDbLine
 62
7
  6
CONTINUOUS
 10
19.4758111696
 20
1.2723454088
 11
19.88525039
 21
1.3511534004
  0
LINE
  5
21D
100
AcDbEntity
  8
0
100
AcDbLine
 62
7
  6
CONTINUOUS
 10
19.88525039
 20
1.3511534004
 11
19.8831348489
 21
0.9851647912
  0
LINE
  5
21E
100
AcDbEntity
  8
0
100
AcDbLine
 62
7
  6
CONTINUOUS
 10
19.8831348489
 20
0.9851647912
 11
19.4767170086
 21
1.0658141206
  0
LINE
  5
21F
100
AcDbEntity
  8
0
100
AcDbLine
 62
7
  6
CONTINUOUS
 10
19.4767170086
 20
1.0658141206
 11
19.4779056764
 21
1.2714536432
  0
CIRCLE
  5
220
100
AcDbEntity
  8
0
100
AcDbCircle
 62
7
  6
CONTINUOUS
 10
20.2068232291
 20
1.1717972817
 40
0.175742101
  0
CIRCLE
  5
221
100
AcDbEntity
  8
0
100
AcDbCircle
 62
7
  6
CONTINUOUS
 10
20.2068232291
 20
1.1717972817
 40
0.1005522074
  0
LINE
  5
222
100
AcDbEntity
  8
0
100
AcDbLine
 62
7
  6
CONTINUOUS
 10
20.2077290681
 20
1.3756110529
 11
20.2071171714
 21
1.2379342989
  0
LINE
  5
223
100
AcDbEntity
  8
0
100
AcDbLine
 62
7
  6
CONTINUOUS
 10
20.2077290681
 20
1.2016899681
 11
20.2074674401
 21
1.1428236749
  0
LINE
  5
224
100
AcDbEntity
  8
0
100
AcDbLine
 62
7
  6
CONTINUOUS
 10
20.208634907
 20
1.101141841
 11
20.2080230104
 21
0.963465087
  0
LINE
  5
225
100
AcDbEntity
  8
0
100
AcDbLine
 62
7
  6
CONTINUOUS
 10
20.0066328138
 20
1.1745147986
 11
20.1443095678
 21
1.1739029019
  0
LINE
  5
226
100
AcDbEntity
  8
0
100
AcDbLine
 62
7
  6
CONTINUOUS
 10
20.1832714155
 20
1.1727031207
 11
20.238153505
 21
1.172335442
  0
LINE
  5
227
100
AcDbEntity
  8
0
100
AcDbLine
 62
7
  6
CONTINUOUS
 10
20.2756669918
 20
1.1717972817
 11
20.407916871
 21
1.1712095044
  0
CIRCLE
  5
228
100
AcDbEntity
  8
0
100
AcDbCircle
 62
7
  6
CONTINUOUS
 10
20.7509457401
 20
1.1693297793
 40
0.1722024983
  0
CIRCLE
  5
229
100
AcDbEntity
  8
0
100
AcDbCircle
 62
7
  6
CONTINUOUS
 10
20.7509457401
 20
1.1693297793
 40
0.0985164967
  0
LINE
  5
22A
100
AcDbEntity
  8
0
100
AcDbLine
 62
7
  6
CONTINUOUS
 10
20.7169767782
 20
1.170462078
 11
20.7825395137
 21
1.1682766535
  0
LINE
  5
22B
100
AcDbEntity
  8
0
100
AcDbLine
 62
7
  6
CONTINUOUS
 10
20.8177513651
 20
1.1693297793
 11
20.947965719
 21
1.1693297793
  0
LINE
  5
22C
100
AcDbEntity
  8
0
100
AcDbLine
 62
7
  6
CONTINUOUS
 10
20.6875370113
 20
1.170462078
 11
20.5573226574
 21
1.170462078
  0
LINE
  5
22D
100
AcDbEntity
  8
0
100
AcDbLine
 62
7
  6
CONTINUOUS
 10
20.7486811426
 20
1.1987695462
 11
20.7486811426
 21
1.1432869085
  0
LINE
  5
22E
100
AcDbEntity
  8
0
100
AcDbLine
 62
7
  6
CONTINUOUS
 10
20.7498134414
 20
1.1059210505
 11
20.7498134414
 21
0.9757066966
  0
LINE
  5
22F
100
AcDbEntity
  8
0
100
AcDbLine
 62
7
  6
CONTINUOUS
 10
20.7486811426
 20
1.2338708068
 11
20.7486811426
 21
1.3640851607
  0
LINE
  5
230
100
AcDbEntity
  8
0
100
AcDbLine
 62
7
  6
CONTINUOUS
 10
21.0702539817
 20
1.2701043662
 11
21.4790138229
 21
1.3448360823
  0
LINE
  5
231
100
AcDbEntity
  8
0
100
AcDbLine
 62
7
  6
CONTINUOUS
 10
21.4790138229
 20
1.3448360823
 11
21.4790138229
 21
0.9779712941
  0
LINE
  5
232
100
AcDbEntity
  8
0
100
AcDbLine
 62
7
  6
CONTINUOUS
 10
21.4790138229
 20
0.9779712941
 11
21.069121683
 21
1.0617614
  0
LINE
  5
233
100
AcDbEntity
  8
0
100
AcDbLine
 62
7
  6
CONTINUOUS
 10
21.0702539817
 20
1.2701043662
 11
21.069121683
 21
1.0617614
  0
LINE
  5
234
100
AcDbEntity
  8
0
100
AcDbLine
 62
7
  6
CONTINUOUS
 10
21.4790138229
 20
1.1693297793
 11
21.3159628059
 21
1.1693297793
  0
LINE
  5
235
100
AcDbEntity
  8
0
100
AcDbLine
 62
7
  6
CONTINUOUS
 10
21.2876553377
 20
1.1693297793
 11
21.2502894796
 21
1.1693297793
  0
LINE
  5
236
100
AcDbEntity
  8
0
100
AcDbLine
 62
7
  6
CONTINUOUS
 10
21.2208497126
 20
1.1659328831
 11
21.0713862804
 21
1.1659328831
  0
LINE
  5
237
100
AcDbEntity
  8
0
100
AcDbLine
 62
7
  6
CONTINUOUS
 10
20.4796138713
 20
1.5284908897
 11
20.4766766948
 21
0.9294458646
  0
ENDBLK
  5
238
100
AcDbEntity
  8
0
  6
BYBLOCK
 62
0
100
AcDbBlockEnd
  0
BLOCK
  5
239
100
AcDbEntity
  8
0
100
AcDbBlockBegin
  2
*T1
 70
1
 10
0.0
 20
0.0
  3
*T1
  1

  0
LINE
  5
23A
100
AcDbEntity
  8
0
100
AcDbLine
 62
2
  6
CONTINUOUS
 10
9.275
 20
0.0
 11
-0.0
 21
0.0
  0
LINE
  5
23B
100
AcDbEntity
  8
0
100
AcDbLine
 62
2
  6
CONTINUOUS
 10
9.275
 20
0.0
 11
9.275
 21
1.25
  0
LINE
  5
23C
100
AcDbEntity
  8
0
100
AcDbLine
 62
2
  6
CONTINUOUS
 10
9.275
 20
0.625
 11
-0.0
 21
0.625
  0
LINE
  5
23D
100
AcDbEntity
  8
0
100
AcDbLine
 62
2
  6
CONTINUOUS
 10
9.275
 20
1.25
 11
-0.0
 21
1.25
  0
LINE
  5
23E
100
AcDbEntity
  8
0
100
AcDbLine
 62
2
  6
CONTINUOUS
 10
6.8
 20
0.0
 11
6.8
 21
1.25
  0
LINE
  5
23F
100
AcDbEntity
  8
0
100
AcDbLine
 62
2
  6
CONTINUOUS
 10
6.4
 20
0.0
 11
6.4
 21
0.625
  0
LINE
  5
240
100
AcDbEntity
  8
0
100
AcDbLine
 62
2
  6
CONTINUOUS
 10
5.9
 20
0.0
 11
5.9
 21
0.625
  0
LINE
  5
241
100
AcDbEntity
  8
0
100
AcDbLine
 62
2
  6
CONTINUOUS
 10
5.2
 20
0.0
 11
5.2
 21
0.625
  0
LINE
  5
242
100
AcDbEntity
  8
0
100
AcDbLine
 62
2
  6
CONTINUOUS
 10
4.1
 20
0.0
 11
4.1
 21
1.25
  0
LINE
  5
243
100
AcDbEntity
  8
0
100
AcDbLine
 62
2
  6
CONTINUOUS
 10
-0.0
 20
0.0
 11
-0.0
 21
1.25
  0
MTEXT
  5
244
100
AcDbEntity
  8
0
100
AcDbMText
 62
2
  6
CONTINUOUS
  7
STANDARD
 71
2
 72
1
 10
6.6
 20
0.325
 30
0.0
 11
1.0
 21
0.0
 31
0.0
 44
0.9
  1
2
 40
0.125
 41
0.2
  0
MTEXT
  5
245
100
AcDbEntity
  8
0
100
AcDbMText
 62
2
  6
CONTINUOUS
  7
STANDARD
 71
2
 72
1
 10
6.15
 20
0.325
 30
0.0
 11
1.0
 21
0.0
 31
0.0
 44
0.9
  1
C
 40
0.125
 41
0.2
  0
MTEXT
  5
246
100
AcDbEntity
  8
0
100
AcDbMText
 62
2
  6
CONTINUOUS
  7
STANDARD
 71
2
 72
1
 10
5.55
 20
0.325
 30
0.0
 11
1.0
 21
0.0
 31
0.0
 44
0.9
  1
1.000
 40
0.125
 41
1.0
  0
MTEXT
  5
247
100
AcDbEntity
  8
0
100
AcDbMText
 62
2
  6
CONTINUOUS
  7
STANDARD
 71
2
 72
1
 10
4.65
 20
0.325
 30
0.0
 11
1.0
 21
0.0
 31
0.0
 44
0.9
  1
Aug-01-19
 40
0.125
 41
1.8
  0
MTEXT
  5
248
100
AcDbEntity
  8
0
100
AcDbMText
 62
2
  6
CONTINUOUS
  7
STANDARD
 71
2
 72
1
 10
2.05
 20
0.4625
 30
0.0
 11
1.0
 21
0.0
 31
0.0
 44
0.9
  1
T-2A Sandwich ISO 05\POn P, port 3 to T
 40
0.125
 41
4.0
  0
MTEXT
  5
249
100
AcDbEntity
  8
0
100
AcDbMText
 62
2
  6
CONTINUOUS
  7
STANDARD
 71
1
 72
1
 10
6.45
 20
0.5625
 30
0.0
 11
1.0
 21
0.0
 31
0.0
 44
0.9
  1
SHEET
 40
0.06
 41
0.48
  0
MTEXT
  5
24A
100
AcDbEntity
  8
0
100
AcDbMText
 62
2
  6
CONTINUOUS
  7
STANDARD
 71
1
 72
1
 10
5.95
 20
0.5625
 30
0.0
 11
1.0
 21
0.0
 31
0.0
 44
0.9
  1
DWG SIZE
 40
0.06
 41
0.768
  0
MTEXT
  5
24B
100
AcDbEntity
  8
0
100
AcDbMText
 62
2
  6
CONTINUOUS
  7
STANDARD
 71
1
 72
1
 10
5.25
 20
0.5625
 30
0.0
 11
1.0
 21
0.0
 31
0.0
 44
0.9
  1
SCALE
 40
0.06
 41
0.48
  0
MTEXT
  5
24C
100
AcDbEntity
  8
0
100
AcDbMText
 62
2
  6
CONTINUOUS
  7
STANDARD
 71
1
 72
1
 10
4.15
 20
0.5625
 30
0.0
 11
1.0
 21
0.0
 31
0.0
 44
0.9
  1
DATE
 40
0.06
 41
0.384
  0
MTEXT
  5
24D
100
AcDbEntity
  8
0
100
AcDbMText
 62
2
  6
CONTINUOUS
  7
STANDARD
 71
1
 72
1
 10
0.05
 20
0.5625
 30
0.0
 11
1.0
 21
0.0
 31
0.0
 44
0.9
  1
DESCRIPTION
 40
0.06
 41
1.056
  0
MTEXT
  5
24E
100
AcDbEntity
  8
0
100
AcDbMText
 62
2
  6
CONTINUOUS
  7
STANDARD
 71
2
 72
1
 10
5.45
 20
1.0375
 30
0.0
 11
1.0
 21
0.0
 31
0.0
 44
0.9
  1
ALL DIMENSIONS IN INCH\PVIEWS ARE THIRD ANGLE
 40
0.12
 41
4.224
  0
MTEXT
  5
24F
100
AcDbEntity
  8
0
100
AcDbMText
 62
2
  6
CONTINUOUS
  7
STANDARD
 71
2
 72
1
 10
2.05
 20
0.95
 30
0.0
 11
1.0
 21
0.0
 31
0.0
 44
0.9
  1
BBW
 40
0.125
 41
0.6
  0
MTEXT
  5
250
100
AcDbEntity
  8
0
100
AcDbMText
 62
2
  6
CONTINUOUS
  7
STANDARD
 71
1
 72
1
 10
0.05
 20
1.1875
 30
0.0
 11
1.0
 21
0.0
 31
0.0
 44
0.9
  1
MODEL
 40
0.06
 41
0.48
  0
ENDBLK
  5
251
100
AcDbEntity
  8
0
  6
BYBLOCK
 62
0
100
AcDbBlockEnd
  0
BLOCK
  5
252
100
AcDbEntity
  8
0
100
AcDbBlockBegin
  2
*T2
 70
1
 10
0.0
 20
0.0
  3
*T2
  1

  0
LINE
  5
253
100
AcDbEntity
  8
0
100
AcDbLine
 62
2
  6
CONTINUOUS
 10
0.0
 20
0.0
 11
9.055
 21
0.0
  0
LINE
  5
254
100
AcDbEntity
  8
0
100
AcDbLine
 62
2
  6
CONTINUOUS
 10
0.0
 20
0.0
 11
0.0
 21
-2.094
  0
LINE
  5
255
100
AcDbEntity
  8
0
100
AcDbLine
 62
2
  6
CONTINUOUS
 10
0.0
 20
-0.344
 11
9.055
 21
-0.344
  0
LINE
  5
256
100
AcDbEntity
  8
0
100
AcDbLine
 62
2
  6
CONTINUOUS
 10
0.0
 20
-0.594
 11
9.055
 21
-0.594
  0
LINE
  5
257
100
AcDbEntity
  8
0
100
AcDbLine
 62
2
  6
CONTINUOUS
 10
0.0
 20
-0.844
 11
9.055
 21
-0.844
  0
LINE
  5
258
100
AcDbEntity
  8
0
100
AcDbLine
 62
2
  6
CONTINUOUS
 10
0.0
 20
-1.094
 11
9.055
 21
-1.094
  0
LINE
  5
259
100
AcDbEntity
  8
0
100
AcDbLine
 62
2
  6
CONTINUOUS
 10
0.0
 20
-1.344
 11
9.055
 21
-1.344
  0
LINE
  5
25A
100
AcDbEntity
  8
0
100
AcDbLine
 62
2
  6
CONTINUOUS
 10
0.0
 20
-1.594
 11
9.055
 21
-1.594
  0
LINE
  5
25B
100
AcDbEntity
  8
0
100
AcDbLine
 62
2
  6
CONTINUOUS
 10
0.0
 20
-1.844
 11
9.055
 21
-1.844
  0
LINE
  5
25C
100
AcDbEntity
  8
0
100
AcDbLine
 62
2
  6
CONTINUOUS
 10
0.0
 20
-2.094
 11
9.055
 21
-2.094
  0
LINE
  5
25D
100
AcDbEntity
  8
0
100
AcDbLine
 62
2
  6
CONTINUOUS
 10
3.055
 20
0.0
 11
3.055
 21
-2.094
  0
LINE
  5
25E
100
AcDbEntity
  8
0
100
AcDbLine
 62
2
  6
CONTINUOUS
 10
9.055
 20
0.0
 11
9.055
 21
-2.094
  0
MTEXT
  5
25F
100
AcDbEntity
  8
0
100
AcDbMText
 62
2
  6
CONTINUOUS
  7
STANDARD
 71
2
 72
1
 10
1.5275
 20
-0.0995
 30
0.0
 11
1.0
 21
0.0
 31
0.0
 44
0.9
  1
Technical Data
 40
0.145
 41
3.248
  0
MTEXT
  5
260
100
AcDbEntity
  8
0
100
AcDbMText
 62
2
  6
CONTINUOUS
  7
STANDARD
 71
2
 72
1
 10
4.555
 20
-0.0995
 30
0.0
 11
1.0
 21
0.0
 31
0.0
 44
0.9
  1
U.S. Units
 40
0.145
 41
2.32
  0
MTEXT
  5
261
100
AcDbEntity
  8
0
100
AcDbMText
 62
2
  6
CONTINUOUS
  7
STANDARD
 71
2
 72
1
 10
7.555
 20
-0.0995
 30
0.0
 11
1.0
 21
0.0
 31
0.0
 44
0.9
  1
Metric Units
 40
0.145
 41
2.784
  0
MTEXT
  5
262
100
AcDbEntity
  8
0
100
AcDbMText
 62
2
  6
CONTINUOUS
  7
STANDARD
 71
2
 72
1
 10
1.5275
 20
-0.4065
 30
0.0
 11
1.0
 21
0.0
 31
0.0
 44
0.9
  1
Cavity
 40
0.125
 41
1.2
  0
MTEXT
  5
263
100
AcDbEntity
  8
0
100
AcDbMText
 62
2
  6
CONTINUOUS
  7
STANDARD
 71
2
 72
1
 10
6.055
 20
-0.4065
 30
0.0
 11
1.0
 21
0.0
 31
0.0
 44
0.9
  1
T-2A
 40
0.125
 41
0.8
  0
MTEXT
  5
264
100
AcDbEntity
  8
0
100
AcDbMText
 62
2
  6
CONTINUOUS
  7
STANDARD
 71
2
 72
1
 10
1.5275
 20
-0.6565
 30
0.0
 11
1.0
 21
0.0
 31
0.0
 44
0.9
  1
Body Features
 40
0.125
 41
2.6
  0
MTEXT
  5
265
100
AcDbEntity
  8
0
100
AcDbMText
 62
2
  6
CONTINUOUS
  7
STANDARD
 71
2
 72
1
 10
6.055
 20
-0.6565
 30
0.0
 11
1.0
 21
0.0
 31
0.0
 44
0.9
  1
On P, port 3 to T
 40
0.125
 41
3.4
  0
MTEXT
  5
266
100
AcDbEntity
  8
0
100
AcDbMText
 62
2
  6
CONTINUOUS
  7
STANDARD
 71
2
 72
1
 10
1.5275
 20
-0.9065
 30
0.0
 11
1.0
 21
0.0
 31
0.0
 44
0.9
  1
Body Type
 40
0.125
 41
1.8
  0
MTEXT
  5
267
100
AcDbEntity
  8
0
100
AcDbMText
 62
2
  6
CONTINUOUS
  7
STANDARD
 71
2
 72
1
 10
6.055
 20
-0.9065
 30
0.0
 11
1.0
 21
0.0
 31
0.0
 44
0.9
  1
Sandwich
 40
0.125
 41
1.6
  0
MTEXT
  5
268
100
AcDbEntity
  8
0
100
AcDbMText
 62
2
  6
CONTINUOUS
  7
STANDARD
 71
2
 72
1
 10
1.5275
 20
-1.1565
 30
0.0
 11
1.0
 21
0.0
 31
0.0
 44
0.9
  1
Interface
 40
0.125
 41
1.8
  0
MTEXT
  5
269
100
AcDbEntity
  8
0
100
AcDbMText
 62
2
  6
CONTINUOUS
  7
STANDARD
 71
2
 72
1
 10
6.055
 20
-1.1565
 30
0.0
 11
1.0
 21
0.0
 31
0.0
 44
0.9
  1
ISO 05
 40
0.125
 41
1.2
  0
MTEXT
  5
26A
100
AcDbEntity
  8
0
100
AcDbMText
 62
2
  6
CONTINUOUS
  7
STANDARD
 71
2
 72
1
 10
1.5275
 20
-1.4065
 30
0.0
 11
1.0
 21
0.0
 31
0.0
 44
0.9
  1
Open Cavity Quantity
 40
0.125
 41
4.0
  0
MTEXT
  5
26B
100
AcDbEntity
  8
0
100
AcDbMText
 62
2
  6
CONTINUOUS
  7
STANDARD
 71
2
 72
1
 10
6.055
 20
-1.4065
 30
0.0
 11
1.0
 21
0.0
 31
0.0
 44
0.9
  1
1
 40
0.125
 41
0.2
  0
MTEXT
  5
26C
100
AcDbEntity
  8
0
100
AcDbMText
 62
2
  6
CONTINUOUS
  7
STANDARD
 71
2
 72
1
 10
1.5275
 20
-1.6565
 30
0.0
 11
1.0
 21
0.0
 31
0.0
 44
0.9
  1
Stack Height
 40
0.125
 41
2.4
  0
MTEXT
  5
26D
100
AcDbEntity
  8
0
100
AcDbMText
 62
2
  6
CONTINUOUS
  7
STANDARD
 71
2
 72
1
 10
4.555
 20
-1.6565
 30
0.0
 11
1.0
 21
0.0
 31
0.0
 44
0.9
  1
2.44 in.
 40
0.125
 41
1.6
  0
MTEXT
  5
26E
100
AcDbEntity
  8
0
100
AcDbMText
 62
2
  6
CONTINUOUS
  7
STANDARD
 71
2
 72
1
 10
7.555
 20
-1.6565
 30
0.0
 11
1.0
 21
0.0
 31
0.0
 44
0.9
  1
62 mm
 40
0.125
 41
1.0
  0
MTEXT
  5
26F
100
AcDbEntity
  8
0
100
AcDbMText
 62
2
  6
CONTINUOUS
  7
STANDARD
 71
2
 72
1
 10
1.5275
 20
-1.9065
 30
0.0
 11
1.0
 21
0.0
 31
0.0
 44
0.9
  1
Weight
 40
0.125
 41
1.2
  0
MTEXT
  5
270
100
AcDbEntity
  8
0
100
AcDbMText
 62
2
  6
CONTINUOUS
  7
STANDARD
 71
2
 72
1
 10
4.555
 20
-1.9065
 30
0.0
 11
1.0
 21
0.0
 31
0.0
 44
0.9
  1
1.587 lb.
 40
0.125
 41
1.8
  0
MTEXT
  5
271
100
AcDbEntity
  8
0
100
AcDbMText
 62
2
  6
CONTINUOUS
  7
STANDARD
 71
2
 72
1
 10
7.555
 20
-1.9065
 30
0.0
 11
1.0
 21
0.0
 31
0.0
 44
0.9
  1
0,720 kg.
 40
0.125
 41
1.8
  0
ENDBLK
  5
272
100
AcDbEntity
  8
0
  6
BYBLOCK
 62
0
100
AcDbBlockEnd
  0
BLOCK
  5
273
100
AcDbEntity
  8
0
100
AcDbBlockBegin
  2
*T3
 70
1
 10
0.0
 20
0.0
  3
*T3
  1

  0
LINE
  5
274
100
AcDbEntity
  8
0
100
AcDbLine
 62
2
  6
CONTINUOUS
 10
0.0
 20
0.0
 11
4.6
 21
0.0
  0
LINE
  5
275
100
AcDbEntity
  8
0
100
AcDbLine
 62
2
  6
CONTINUOUS
 10
0.0
 20
0.0
 11
0.0
 21
-0.93775
  0
LINE
  5
276
100
AcDbEntity
  8
0
100
AcDbLine
 62
2
  6
CONTINUOUS
 10
0.0
 20
-0.34375
 11
4.6
 21
-0.34375
  0
LINE
  5
277
100
AcDbEntity
  8
0
100
AcDbLine
 62
2
  6
CONTINUOUS
 10
0.0
 20
-0.68775
 11
4.6
 21
-0.68775
  0
LINE
  5
278
100
AcDbEntity
  8
0
100
AcDbLine
 62
2
  6
CONTINUOUS
 10
0.0
 20
-0.93775
 11
4.6
 21
-0.93775
  0
LINE
  5
279
100
AcDbEntity
  8
0
100
AcDbLine
 62
2
  6
CONTINUOUS
 10
1.3
 20
-0.34375
 11
1.3
 21
-0.93775
  0
LINE
  5
27A
100
AcDbEntity
  8
0
100
AcDbLine
 62
2
  6
CONTINUOUS
 10
3.3
 20
-0.34375
 11
3.3
 21
-0.93775
  0
LINE
  5
27B
100
AcDbEntity
  8
0
100
AcDbLine
 62
2
  6
CONTINUOUS
 10
4.6
 20
0.0
 11
4.6
 21
-0.93775
  0
MTEXT
  5
27C
100
AcDbEntity
  8
0
100
AcDbMText
 62
2
  6
CONTINUOUS
  7
STANDARD
 71
2
 72
1
 10
2.3
 20
-0.099375
 30
0.0
 11
1.0
 21
0.0
 31
0.0
 44
0.9
  1
Port Headings
 40
0.145
 41
3.016
  0
MTEXT
  5
27D
100
AcDbEntity
  8
0
100
AcDbMText
 62
2
  6
CONTINUOUS
  7
STANDARD
 71
2
 72
1
 10
0.65
 20
-0.44325
 30
0.0
 11
1.0
 21
0.0
 31
0.0
 44
0.9
  1
Product
 40
0.145
 41
1.624
  0
MTEXT
  5
27E
100
AcDbEntity
  8
0
100
AcDbMText
 62
2
  6
CONTINUOUS
  7
STANDARD
 71
2
 72
1
 10
2.3
 20
-0.44325
 30
0.0
 11
1.0
 21
0.0
 31
0.0
 44
0.9
  1
Port
 40
0.145
 41
0.928
  0
MTEXT
  5
27F
100
AcDbEntity
  8
0
100
AcDbMText
 62
2
  6
CONTINUOUS
  7
STANDARD
 71
2
 72
1
 10
3.95
 20
-0.44325
 30
0.0
 11
1.0
 21
0.0
 31
0.0
 44
0.9
  1
Size
 40
0.145
 41
0.928
  0
MTEXT
  5
280
100
AcDbEntity
  8
0
100
AcDbMText
 62
2
  6
CONTINUOUS
  7
STANDARD
 71
2
 72
1
 10
0.65
 20
-0.75025
 30
0.0
 11
1.0
 21
0.0
 31
0.0
 44
0.9
  1
BBW
 40
0.125
 41
0.6
  0
MTEXT
  5
281
100
AcDbEntity
  8
0
100
AcDbMText
 62
2
  6
CONTINUOUS
  7
STANDARD
 71
2
 72
1
 10
2.3
 20
-0.75025
 30
0.0
 11
1.0
 21
0.0
 31
0.0
 44
0.9
  1
Gage Port (Plugged)
 40
0.125
 41
3.8
  0
MTEXT
  5
282
100
AcDbEntity
  8
0
100
AcDbMText
 62
2
  6
CONTINUOUS
  7
STANDARD
 71
2
 72
1
 10
3.95
 20
-0.75025
 30
0.0
 11
1.0
 21
0.0
 31
0.0
 44
0.9
  1
1/4" NPTF
 40
0.125
 41
1.8
  0
ENDBLK
  5
283
100
AcDbEntity
  8
0
  6
BYBLOCK
 62
0
100
AcDbBlockEnd
  0
ENDSEC
  0
SECTION
  2
ENTITIES
  0
IMAGE
  5
284
100
AcDbEntity
  8
0
100
AcDbRasterImage
 62
7
  6
CONTINUOUS
 10
19.2297077316
 20
0.3094318264
 30
0.0
 11
0.0066666667
 21
0.0
 31
0.0
 12
0.0
 22
0.0066666667
 32
0.0
 13
369.0
 23
92.0
340
       376
 70
9
280
0
281
50
282
50
283
0
360
       370
 71
1
 91
2
 14
-0.5
 24
-0.5
 14
368.5
 24
91.5
  0
INSERT
  5
285
100
AcDbEntity
  8
0
100
AcDbBlockReference
 62
2
  6
CONTINUOUS
  2
SUN_FIRST_THIRD_ANGLE_BL0
 10
20.4816717061
 20
1.2289683772
  0
ACAD_TABLE
  5
286
100
AcDbEntity
  8
0
 62
2
  6
CONTINUOUS
100
AcDbBlockReference
  2
*T1
 10
12.42375
 20
0.30125
 30
0.0
100
AcDbTable
342
       378
343
212
 11
1.0
 21
0.0
 31
0.0
 90
6
 91
4
 92
6
 93
20
 94
0
 95
0
 96
0
 70
1
 41
0.0
141
0.525
141
0.1
141
0.525
141
0.1
142
4.1
142
1.1
142
0.7
142
0.5
142
0.4
142
2.475
171
1
172
0
173
0
174
0
175
1
176
1
 91
33
178
0
145
0.0
301
CELL_VALUE
 90
4
  1
T-2A Sandwich ISO 05\POn P, port 3 to T
304
ACVALUE_END
170
2
140
0.125
171
1
172
0
173
0
174
0
175
1
176
1
 91
33
178
0
145
0.0
301
CELL_VALUE
 90
4
  1
Aug-01-19
304
ACVALUE_END
170
5
140
0.125
171
1
172
0
173
0
174
0
175
1
176
1
 91
33
178
0
145
0.0
301
CELL_VALUE
 90
4
  1
1.000
304
ACVALUE_END
170
5
140
0.125
171
1
172
0
173
0
174
0
175
1
176
1
 91
33
178
0
145
0.0
301
CELL_VALUE
 90
4
  1
C
304
ACVALUE_END
170
5
140
0.125
171
1
172
0
173
0
174
0
175
1
176
1
 91
33
178
0
145
0.0
301
CELL_VALUE
 90
4
  1
2
304
ACVALUE_END
170
5
140
0.125
171
1
172
0
173
0
174
0
175
1
176
1
 91
33
178
0
145
0.0
301
CELL_VALUE
 90
4
  1
 
304
ACVALUE_END
170
1
140
0.125
171
1
172
0
173
0
174
0
175
1
176
1
 91
33
178
0
145
0.0
301
CELL_VALUE
 90
4
  1
DESCRIPTION
304
ACVALUE_END
170
1
140
0.06
171
1
172
0
173
0
174
0
175
1
176
1
 91
33
178
0
145
0.0
301
CELL_VALUE
 90
4
  1
DATE
304
ACVALUE_END
170
1
140
0.06
171
1
172
0
173
0
174
0
175
1
176
1
 91
33
178
0
145
0.0
301
CELL_VALUE
 90
4
  1
SCALE
304
ACVALUE_END
170
1
140
0.06
171
1
172
0
173
0
174
0
175
1
176
1
 91
33
178
0
145
0.0
301
CELL_VALUE
 90
4
  1
DWG SIZE
304
ACVALUE_END
170
1
140
0.06
171
1
172
0
173
0
174
0
175
1
176
1
 91
33
178
0
145
0.0
301
CELL_VALUE
 90
4
  1
SHEET
304
ACVALUE_END
170
1
140
0.06
171
1
172
0
173
0
174
0
175
1
176
1
 91
33
178
0
145
0.0
301
CELL_VALUE
 90
4
  1
 
304
ACVALUE_END
170
1
140
0.125
171
1
172
0
173
0
174
0
175
1
176
1
 91
33
178
0
145
0.0
301
CELL_VALUE
 90
4
  1
BBW
304
ACVALUE_END
170
5
140
0.125
171
1
172
0
173
0
174
0
175
4
176
1
 91
33
178
0
145
0.0
301
CELL_VALUE
 90
4
  1
ALL DIMENSIONS IN INCH\PVIEWS ARE THIRD ANGLE
304
ACVALUE_END
170
5
140
0.12
171
1
172
0
173
1
174
0
175
1
176
1
 91
1
178
0
145
0.0
170
1
171
1
172
0
173
1
174
0
175
1
176
1
 91
1
178
0
145
0.0
170
1
171
1
172
0
173
1
174
0
175
1
176
1
 91
1
178
0
145
0.0
170
5
171
1
172
0
173
0
174
0
175
1
176
1
 91
33
178
0
145
0.0
301
CELL_VALUE
 90
4
  1
 
304
ACVALUE_END
170
1
140
0.125
171
1
172
0
173
0
174
0
175
1
176
1
 91
33
178
0
145
0.0
301
CELL_VALUE
 90
4
  1
MODEL
304
ACVALUE_END
170
1
140
0.06
171
1
172
0
173
0
174
0
175
1
176
1
 91
33
178
0
145
0.0
301
CELL_VALUE
 90
4
  1
 
304
ACVALUE_END
170
1
140
0.125
171
1
172
0
173
0
174
0
175
1
176
1
 91
33
178
0
145
0.0
301
CELL_VALUE
 90
4
  1
 
304
ACVALUE_END
170
1
140
0.125
171
1
172
0
173
0
174
0
175
1
176
1
 91
33
178
0
145
0.0
301
CELL_VALUE
 90
4
  1
 
304
ACVALUE_END
170
1
140
0.125
171
1
172
0
173
0
174
0
175
1
176
1
 91
33
178
0
145
0.0
301
CELL_VALUE
 90
4
  1
 
304
ACVALUE_END
170
1
140
0.125
171
1
172
0
173
0
174
0
175
1
176
1
 91
33
178
0
145
0.0
301
CELL_VALUE
 90
4
  1
 
304
ACVALUE_END
170
1
140
0.125
  0
ACAD_TABLE
  5
287
100
AcDbEntity
  8
0
 62
2
  6
CONTINUOUS
100
AcDbBlockReference
  2
*T2
 10
12.4237499994
 20
16.47875
 30
0.0
100
AcDbTable
342
       377
343
213
 11
1.0
 21
0.0
 31
0.0
 90
22
 91
8
 92
3
 93
16
 94
0
 95
0
 96
0
 41
0.028
141
0.344
141
0.25
141
0.25
141
0.25
141
0.25
141
0.25
141
0.25
141
0.25
142
3.055
142
3.0
142
3.0
171
1
172
0
173
0
174
0
175
1
176
1
 91
33
178
0
145
0.0
301
CELL_VALUE
 90
4
  1
Technical Data
304
ACVALUE_END
170
5
140
0.145
171
1
172
0
173
0
174
0
175
1
176
1
 91
33
178
0
145
0.0
301
CELL_VALUE
 90
4
  1
U.S. Units
304
ACVALUE_END
170
5
140
0.145
171
1
172
0
173
0
174
0
175
1
176
1
 91
33
178
0
145
0.0
301
CELL_VALUE
 90
4
  1
Metric Units
304
ACVALUE_END
170
5
140
0.145
171
1
172
0
173
0
174
0
175
1
176
1
 91
33
178
0
145
0.0
301
CELL_VALUE
 90
4
  1
Cavity
304
ACVALUE_END
170
5
140
0.125
171
1
172
0
173
0
174
0
175
2
176
1
 91
33
178
0
145
0.0
301
CELL_VALUE
 90
4
  1
T-2A
304
ACVALUE_END
170
5
140
0.125
171
1
172
0
173
1
174
0
175
1
176
1
 91
1
178
0
145
0.0
170
1
171
1
172
0
173
0
174
0
175
1
176
1
 91
33
178
0
145
0.0
301
CELL_VALUE
 90
4
  1
Body Features
304
ACVALUE_END
170
5
140
0.125
171
1
172
0
173
0
174
0
175
2
176
1
 91
33
178
0
145
0.0
301
CELL_VALUE
 90
4
  1
On P, port 3 to T
304
ACVALUE_END
170
5
140
0.125
171
1
172
0
173
1
174
0
175
1
176
1
 91
1
178
0
145
0.0
170
1
171
1
172
0
173
0
174
0
175
1
176
1
 91
33
178
0
145
0.0
301
CELL_VALUE
 90
4
  1
Body Type
304
ACVALUE_END
170
5
140
0.125
171
1
172
0
173
0
174
0
175
2
176
1
 91
33
178
0
145
0.0
301
CELL_VALUE
 90
4
  1
Sandwich
304
ACVALUE_END
170
5
140
0.125
171
1
172
0
173
1
174
0
175
1
176
1
 91
1
178
0
145
0.0
170
1
171
1
172
0
173
0
174
0
175
1
176
1
 91
33
178
0
145
0.0
301
CELL_VALUE
 90
4
  1
Interface
304
ACVALUE_END
170
5
140
0.125
171
1
172
0
173
0
174
0
175
2
176
1
 91
33
178
0
145
0.0
301
CELL_VALUE
 90
4
  1
ISO 05
304
ACVALUE_END
170
5
140
0.125
171
1
172
0
173
1
174
0
175
1
176
1
 91
1
178
0
145
0.0
170
1
171
1
172
0
173
0
174
0
175
1
176
1
 91
33
178
0
145
0.0
301
CELL_VALUE
 90
4
  1
Open Cavity Quantity
304
ACVALUE_END
170
5
140
0.125
171
1
172
0
173
0
174
0
175
2
176
1
 91
33
178
0
145
0.0
301
CELL_VALUE
 90
4
  1
1
304
ACVALUE_END
170
5
140
0.125
171
1
172
0
173
1
174
0
175
1
176
1
 91
1
178
0
145
0.0
170
1
171
1
172
0
173
0
174
0
175
1
176
1
 91
33
178
0
145
0.0
301
CELL_VALUE
 90
4
  1
Stack Height
304
ACVALUE_END
170
5
140
0.125
171
1
172
0
173
0
174
0
175
1
176
1
 91
33
178
0
145
0.0
301
CELL_VALUE
 90
4
  1
2.44 in.
304
ACVALUE_END
170
5
140
0.125
171
1
172
0
173
0
174
0
175
1
176
1
 91
33
178
0
145
0.0
301
CELL_VALUE
 90
4
  1
62 mm
304
ACVALUE_END
170
5
140
0.125
171
1
172
0
173
0
174
0
175
1
176
1
 91
33
178
0
145
0.0
301
CELL_VALUE
 90
4
  1
Weight
304
ACVALUE_END
170
5
140
0.125
171
1
172
0
173
0
174
0
175
1
176
1
 91
33
178
0
145
0.0
301
CELL_VALUE
 90
4
  1
1.587 lb.
304
ACVALUE_END
170
5
140
0.125
171
1
172
0
173
0
174
0
175
1
176
1
 91
33
178
0
145
0.0
301
CELL_VALUE
 90
4
  1
0,720 kg.
304
ACVALUE_END
170
5
140
0.125
  0
ACAD_TABLE
  5
288
100
AcDbEntity
  8
0
 62
2
  6
CONTINUOUS
100
AcDbBlockReference
  2
*T3
 10
0.52125
 20
1.459
 30
0.0
100
AcDbTable
342
       377
343
214
 11
1.0
 21
0.0
 31
0.0
 90
22
 91
3
 92
3
 93
16
 94
0
 95
0
 96
0
 41
0.05
141
0.34375
141
0.344
141
0.25
142
1.3
142
2.0
142
1.3
171
1
172
0
173
0
174
0
175
3
176
1
 91
33
178
0
145
0.0
301
CELL_VALUE
 90
4
  1
Port Headings
304
ACVALUE_END
170
5
140
0.145
171
1
172
0
173
1
174
0
175
1
176
1
 91
1
178
0
145
0.0
170
1
171
1
172
0
173
1
174
0
175
1
176
1
 91
1
178
0
145
0.0
170
1
171
1
172
0
173
0
174
0
175
1
176
1
 91
33
178
0
145
0.0
301
CELL_VALUE
 90
4
  1
Product
304
ACVALUE_END
170
5
140
0.145
171
1
172
0
173
0
174
0
175
1
176
1
 91
33
178
0
145
0.0
301
CELL_VALUE
 90
4
  1
Port
304
ACVALUE_END
170
5
140
0.145
171
1
172
0
173
0
174
0
175
1
176
1
 91
33
178
0
145
0.0
301
CELL_VALUE
 90
4
  1
Size
304
ACVALUE_END
170
5
140
0.145
171
1
172
0
173
0
174
0
175
1
176
1
 91
33
178
0
145
0.0
301
CELL_VALUE
 90
4
  1
BBW
304
ACVALUE_END
170
5
140
0.125
171
1
172
0
173
0
174
0
175
1
176
1
 91
33
178
0
145
0.0
301
CELL_VALUE
 90
4
  1
Gage Port (Plugged)
304
ACVALUE_END
170
5
140
0.125
171
1
172
0
173
0
174
0
175
1
176
1
 91
33
178
0
145
0.0
301
CELL_VALUE
 90
4
  1
1/4" NPTF
304
ACVALUE_END
170
5
140
0.125
  0
MTEXT
  5
289
100
AcDbEntity
  8
0
100
AcDbMText
 62
2
  6
CONTINUOUS
  7
STANDARD
 71
1
 72
1
 10
0.52125
 20
5.75995
 30
0.0
 11
1.0
 21
0.0
 31
0.0
 44
0.6
  3
Notes\P \P1. Important: Carefully consider\P   the maximum system pressure. The\P   pressure rating of the manifold is\P   dependent on the manifold material,\P   with the port type/size a secondary\P   consideration. Manifolds\P   constructed of alu
  1
minum are not\P   rated for pressures higher than\P   3000 psi (210 bar), regardless of\P   the port type/size specified.
 40
0.1
 41
3.04
  0
LINE
  5
28A
100
AcDbEntity
  8
0
100
AcDbLine
 62
7
  6
CONTINUOUS
 10
0.30125
 20
0.30125
 11
0.30125
 21
16.69875
  0
LINE
  5
28B
100
AcDbEntity
  8
0
100
AcDbLine
 62
7
  6
CONTINUOUS
 10
0.30125
 20
0.30125
 11
21.69875
 21
0.30125
  0
LINE
  5
28C
100
AcDbEntity
  8
0
100
AcDbLine
 62
7
  6
CONTINUOUS
 10
0.30125
 20
16.69875
 11
21.69875
 21
16.69875
  0
LINE
  5
28D
100
AcDbEntity
  8
0
100
AcDbLine
 62
7
  6
CONTINUOUS
 10
21.69875
 20
0.30125
 11
21.69875
 21
16.69875
  0
LINE
  5
28E
100
AcDbEntity
  8
0
100
AcDbLine
 62
7
  6
CONTINUOUS
 10
9.6275714521
 20
9.9674601776
 11
10.0481520533
 21
10.3737098664
  0
LINE
  5
28F
100
AcDbEntity
  8
0
100
AcDbLine
 62
7
  6
CONTINUOUS
 10
9.6575151545
 20
9.9953272772
 11
10.0780957557
 21
10.401576966
  0
LINE
  5
290
100
AcDbEntity
  8
0
100
AcDbLine
 62
7
  6
CONTINUOUS
 10
10.0481520533
 20
10.3737098664
 11
10.0490868434
 21
10.3745960094
  0
LINE
  5
291
100
AcDbEntity
  8
0
100
AcDbLine
 62
7
  6
CONTINUOUS
 10
10.0780957557
 20
10.401576966
 11
10.0789543002
 21
10.4023906834
  0
LINE
  5
292
100
AcDbEntity
  8
0
100
AcDbLine
 62
7
  6
CONTINUOUS
 10
10.0780883341
 20
10.401584941
 11
10.0481520533
 21
10.3737098664
  0
LINE
  5
293
100
AcDbEntity
  8
0
100
AcDbLine
 62
7
  6
CONTINUOUS
 10
9.6575151545
 20
9.9953272772
 11
9.6275714521
 21
9.9674601776
  0
LINE
  5
294
100
AcDbEntity
  8
0
100
AcDbLine
 62
7
  6
CONTINUOUS
 10
9.6147936584
 20
9.7306925965
 11
9.4770924947
 21
9.5976834782
  0
LINE
  5
295
100
AcDbEntity
  8
0
100
AcDbLine
 62
7
  6
CONTINUOUS
 10
9.4770924947
 20
6.6999057989
 11
11.8919072035
 21
6.53243783
  0
LINE
  5
296
100
AcDbEntity
  8
0
100
AcDbLine
 62
7
  6
CONTINUOUS
 10
9.4770924947
 20
6.6999057989
 11
9.4770924947
 21
9.5976834782
  0
LINE
  5
297
100
AcDbEntity
  8
0
100
AcDbLine
 62
7
  6
CONTINUOUS
 10
9.6147936584
 20
9.6709148028
 11
9.6147936584
 21
9.9423399823
  0
LINE
  5
298
100
AcDbEntity
  8
0
100
AcDbLine
 62
7
  6
CONTINUOUS
 10
9.9007599804
 20
9.8862837506
 11
9.8927365966
 21
9.8485900541
  0
LINE
  5
299
100
AcDbEntity
  8
0
100
AcDbLine
 62
7
  6
CONTINUOUS
 10
9.8927365966
 20
9.8485900541
 11
9.8927365966
 21
9.5771648746
  0
LINE
  5
29A
100
AcDbEntity
  8
0
100
AcDbLine
 62
7
  6
CONTINUOUS
 10
11.7346534821
 20
10.0626889897
 11
11.7331517192
 21
10.0612655125
  0
LINE
  5
29B
100
AcDbEntity
  8
0
100
AcDbLine
 62
7
  6
CONTINUOUS
 10
12.3422260267
 20
10.2445589984
 11
11.9216454255
 21
9.8383093096
  0
LINE
  5
29C
100
AcDbEntity
  8
0
100
AcDbLine
 62
7
  6
CONTINUOUS
 10
12.3721697291
 20
10.2125386932
 11
11.9515891279
 21
9.8062890044
  0
LINE
  5
29D
100
AcDbEntity
  8
0
100
AcDbLine
 62
4
  6
CONTINUOUS
 10
12.2563241159
 20
8.4492374745
 11
12.2252658568
 21
8.4440756075
  0
LINE
  5
29E
100
AcDbEntity
  8
0
100
AcDbLine
 62
4
  6
CONTINUOUS
 10
12.3246522859
 20
8.088850179
 11
12.2935940268
 21
8.0919676588
  0
LINE
  5
29F
100
AcDbEntity
  8
0
100
AcDbLine
 62
7
  6
CONTINUOUS
 10
12.3721697291
 20
9.9411135137
 11
11.9515891279
 21
9.5348638249
  0
LINE
  5
2A0
100
AcDbEntity
  8
0
100
AcDbLine
 62
7
  6
CONTINUOUS
 10
11.8919072035
 20
9.4302155094
 11
12.5229075053
 21
10.0397150334
  0
LINE
  5
2A1
100
AcDbEntity
  8
0
100
AcDbLine
 62
4
  6
CONTINUOUS
 10
12.1736499882
 20
8.174815352
 11
12.1440706932
 21
8.1793613878
  0
LINE
  5
2A2
100
AcDbEntity
  8
0
100
AcDbLine
 62
4
  6
CONTINUOUS
 10
12.2563241159
 20
8.3995612972
 11
12.2341396446
 21
8.4029708377
  0
LINE
  5
2A3
100
AcDbEntity
  8
0
100
AcDbLine
 62
7
  6
CONTINUOUS
 10
11.5003332435
 20
9.775352968
 11
11.4923098597
 21
9.7376592716
  0
LINE
  5
2A4
100
AcDbEntity
  8
0
100
AcDbLine
 62
7
  6
CONTINUOUS
 10
11.4923098597
 20
9.7376592716
 11
11.4923098597
 21
9.4662340921
  0
LINE
  5
2A5
100
AcDbEntity
  8
0
100
AcDbLine
 62
4
  6
CONTINUOUS
 10
12.1351969054
 20
8.5930375497
 11
12.1374153533
 21
8.5924206282
  0
LINE
  5
2A6
100
AcDbEntity
  8
0
100
AcDbLine
 62
4
  6
CONTINUOUS
 10
12.1640367174
 20
8.7864819374
 11
12.1573813758
 21
8.7800533707
  0
LINE
  5
2A7
100
AcDbEntity
  8
0
100
AcDbLine
 62
4
  6
CONTINUOUS
 10
12.1529444819
 20
8.7260915519
 11
12.1462891411
 21
8.7196629859
  0
LINE
  5
2A8
100
AcDbEntity
  8
0
100
AcDbLine
 62
4
  6
CONTINUOUS
 10
12.1640367174
 20
8.662291501
 11
12.1462891411
 21
8.6451486577
  0
LINE
  5
2A9
100
AcDbEntity
  8
0
100
AcDbLine
 62
4
  6
CONTINUOUS
 10
12.1662551645
 20
8.6202777484
 11
12.1440706932
 21
8.5988491933
  0
LINE
  5
2AA
100
AcDbEntity
  8
0
100
AcDbLine
 62
4
  6
CONTINUOUS
 10
12.1374153533
 20
8.5924206282
 11
12.1351969054
 21
8.590277772
  0
LINE
  5
2AB
100
AcDbEntity
  8
0
100
AcDbLine
 62
4
  6
CONTINUOUS
 10
12.3246522859
 20
8.7539591487
 11
12.2935940268
 21
8.7239591724
  0
LINE
  5
2AC
100
AcDbEntity
  8
0
100
AcDbLine
 62
4
  6
CONTINUOUS
 10
12.2980309207
 20
8.6813284419
 11
12.3202153915
 21
8.7027569965
  0
LINE
  5
2AD
100
AcDbEntity
  8
0
100
AcDbLine
 62
4
  6
CONTINUOUS
 10
12.1640367174
 20
8.5436206199
 11
12.1351969054
 21
8.5157634991
  0
LINE
  5
2AE
100
AcDbEntity
  8
0
100
AcDbLine
 62
4
  6
CONTINUOUS
 10
12.1662551645
 20
8.5126460332
 11
12.1440706932
 21
8.4912174781
  0
LINE
  5
2AF
100
AcDbEntity
  8
0
100
AcDbLine
 62
4
  6
CONTINUOUS
 10
12.3246522859
 20
8.6490871559
 11
12.2935940268
 21
8.6190871795
  0
LINE
  5
2B0
100
AcDbEntity
  8
0
100
AcDbLine
 62
4
  6
CONTINUOUS
 10
12.1440706932
 20
8.4415412593
 11
12.1640367174
 21
8.4608269588
  0
LINE
  5
2B1
100
AcDbEntity
  8
0
100
AcDbLine
 62
4
  6
CONTINUOUS
 10
12.2980309207
 20
8.5902554478
 11
12.3202153915
 21
8.6116840024
  0
LINE
  5
2B2
100
AcDbEntity
  8
0
100
AcDbLine
 62
4
  6
CONTINUOUS
 10
12.1396337993
 20
7.6783138211
 11
12.1351969054
 21
7.6905868402
  0
LINE
  5
2B3
100
AcDbEntity
  8
0
100
AcDbLine
 62
4
  6
CONTINUOUS
 10
12.1662551645
 20
7.7454249104
 11
12.1618182702
 21
7.7576979274
  0
LINE
  5
2B4
100
AcDbEntity
  8
0
100
AcDbLine
 62
7
  6
CONTINUOUS
 10
11.8919072035
 20
6.53243783
 11
11.8919072035
 21
9.4302155094
  0
LINE
  5
2B5
100
AcDbEntity
  8
0
100
AcDbLine
 62
7
  6
CONTINUOUS
 10
11.9515891279
 20
9.8062890044
 11
11.9515891279
 21
9.5348638249
  0
LINE
  5
2B6
100
AcDbEntity
  8
0
100
AcDbLine
 62
4
  6
CONTINUOUS
 10
12.1662551645
 20
8.4298523721
 11
12.1485075871
 21
8.4127095277
  0
LINE
  5
2B7
100
AcDbEntity
  8
0
100
AcDbLine
 62
4
  6
CONTINUOUS
 10
12.3202153915
 20
8.5537284507
 11
12.2980309207
 21
8.5322998961
  0
LINE
  5
2B8
100
AcDbEntity
  8
0
100
AcDbLine
 62
4
  6
CONTINUOUS
 10
12.1640367174
 20
8.378033353
 11
12.1573813758
 21
8.3716047864
  0
LINE
  5
2B9
100
AcDbEntity
  8
0
100
AcDbLine
 62
4
  6
CONTINUOUS
 10
12.1462891411
 20
8.3250132345
 11
12.150726035
 21
8.3292989451
  0
LINE
  5
2BA
100
AcDbEntity
  8
0
100
AcDbLine
 62
4
  6
CONTINUOUS
 10
12.3202153915
 20
8.4571359014
 11
12.2980309207
 21
8.4357073468
  0
LINE
  5
2BB
100
AcDbEntity
  8
0
100
AcDbLine
 62
4
  6
CONTINUOUS
 10
12.1662551645
 20
8.3056619357
 11
12.1440706932
 21
8.2842333806
  0
LINE
  5
2BC
100
AcDbEntity
  8
0
100
AcDbLine
 62
4
  6
CONTINUOUS
 10
12.1351969054
 20
8.2425444617
 11
12.1662551645
 21
8.2725444381
  0
LINE
  5
2BD
100
AcDbEntity
  8
0
100
AcDbLine
 62
4
  6
CONTINUOUS
 10
12.2452318802
 20
8.3308914679
 11
12.2518872215
 21
8.3373200343
  0
LINE
  5
2BE
100
AcDbEntity
  8
0
100
AcDbLine
 62
4
  6
CONTINUOUS
 10
12.2297027507
 20
8.3076121192
 11
12.2363580925
 21
8.314040686
  0
LINE
  5
2BF
100
AcDbEntity
  8
0
100
AcDbLine
 62
4
  6
CONTINUOUS
 10
12.1640367174
 20
8.220725419
 11
12.1462891411
 21
8.2035825757
  0
LINE
  5
2C0
100
AcDbEntity
  8
0
100
AcDbLine
 62
7
  6
CONTINUOUS
 10
9.4770924947
 20
9.5976834782
 11
11.8919072035
 21
9.4302155094
  0
LINE
  5
2C1
100
AcDbEntity
  8
0
100
AcDbLine
 62
7
  6
CONTINUOUS
 10
11.4923098597
 20
9.4662340921
 11
9.8927365966
 21
9.5771648746
  0
LINE
  5
2C2
100
AcDbEntity
  8
0
100
AcDbLine
 62
4
  6
CONTINUOUS
 10
12.1662551645
 20
7.8364979252
 11
12.1618182702
 21
7.8487709353
  0
LINE
  5
2C3
100
AcDbEntity
  8
0
100
AcDbLine
 62
4
  6
CONTINUOUS
 10
12.1351969054
 20
7.6905868402
 11
12.1351969054
 21
7.7237042981
  0
LINE
  5
2C4
100
AcDbEntity
  8
0
100
AcDbLine
 62
4
  6
CONTINUOUS
 10
12.1351969054
 20
8.590277772
 11
12.1351969054
 21
8.5930375497
  0
LINE
  5
2C5
100
AcDbEntity
  8
0
100
AcDbLine
 62
4
  6
CONTINUOUS
 10
12.1440706932
 20
8.4001444841
 11
12.1440706932
 21
8.3587476535
  0
LINE
  5
2C6
100
AcDbEntity
  8
0
100
AcDbLine
 62
4
  6
CONTINUOUS
 10
12.1440706932
 20
8.0468915632
 11
12.1440706932
 21
8.0882883937
  0
LINE
  5
2C7
100
AcDbEntity
  8
0
100
AcDbLine
 62
4
  6
CONTINUOUS
 10
12.1440706932
 20
8.2179984407
 11
12.1440706932
 21
8.251115883
  0
LINE
  5
2C8
100
AcDbEntity
  8
0
100
AcDbLine
 62
4
  6
CONTINUOUS
 10
12.1440706932
 20
8.2842333806
 11
12.1440706932
 21
8.317350823
  0
LINE
  5
2C9
100
AcDbEntity
  8
0
100
AcDbLine
 62
4
  6
CONTINUOUS
 10
12.1440706932
 20
8.6512851345
 11
12.1440706932
 21
8.6844026873
  0
LINE
  5
2CA
100
AcDbEntity
  8
0
100
AcDbLine
 62
4
  6
CONTINUOUS
 10
12.1440706932
 20
8.7257994626
 11
12.1440706932
 21
8.758916905
  0
LINE
  5
2CB
100
AcDbEntity
  8
0
100
AcDbLine
 62
4
  6
CONTINUOUS
 10
12.1551629289
 20
8.3860206522
 11
12.1551629289
 21
8.4191380945
  0
LINE
  5
2CC
100
AcDbEntity
  8
0
100
AcDbLine
 62
4
  6
CONTINUOUS
 10
12.1662551645
 20
8.7058312424
 11
12.1662551645
 21
8.6727136895
  0
LINE
  5
2CD
100
AcDbEntity
  8
0
100
AcDbLine
 62
4
  6
CONTINUOUS
 10
12.1662551645
 20
8.5706015849
 11
12.1662551645
 21
8.5540428637
  0
LINE
  5
2CE
100
AcDbEntity
  8
0
100
AcDbLine
 62
4
  6
CONTINUOUS
 10
12.1662551645
 20
8.4298523721
 11
12.1662551645
 21
8.3967349297
  0
LINE
  5
2CF
100
AcDbEntity
  8
0
100
AcDbLine
 62
4
  6
CONTINUOUS
 10
12.1662551645
 20
8.2725444381
 11
12.1662551645
 21
8.2394269957
  0
LINE
  5
2D0
100
AcDbEntity
  8
0
100
AcDbLine
 62
4
  6
CONTINUOUS
 10
12.1662551645
 20
7.7123074517
 11
12.1662551645
 21
7.7454249104
  0
LINE
  5
2D1
100
AcDbEntity
  8
0
100
AcDbLine
 62
4
  6
CONTINUOUS
 10
12.1662551645
 20
7.8116598227
 11
12.1662551645
 21
7.8364979252
  0
LINE
  5
2D2
100
AcDbEntity
  8
0
100
AcDbLine
 62
4
  6
CONTINUOUS
 10
12.1662551645
 20
8.4712492026
 11
12.1662551645
 21
8.5126460332
  0
LINE
  5
2D3
100
AcDbEntity
  8
0
100
AcDbLine
 62
4
  6
CONTINUOUS
 10
12.1662551645
 20
8.7472280177
 11
12.1662551645
 21
8.78034546
  0
LINE
  5
2D4
100
AcDbEntity
  8
0
100
AcDbLine
 62
4
  6
CONTINUOUS
 10
12.1736499882
 20
8.1582566309
 11
12.1736499882
 21
8.174815352
  0
LINE
  5
2D5
100
AcDbEntity
  8
0
100
AcDbLine
 62
4
  6
CONTINUOUS
 10
12.1559024112
 20
8.7703454676
 11
12.1544234466
 21
8.735799455
  0
LINE
  5
2D6
100
AcDbEntity
  8
0
100
AcDbLine
 62
4
  6
CONTINUOUS
 10
12.1662551645
 20
8.3967349297
 11
12.1640367174
 21
8.378033353
  0
LINE
  5
2D7
100
AcDbEntity
  8
0
100
AcDbLine
 62
4
  6
CONTINUOUS
 10
12.1573813758
 20
8.7800533707
 11
12.1559024112
 21
8.7703454676
  0
LINE
  5
2D8
100
AcDbEntity
  8
0
100
AcDbLine
 62
4
  6
CONTINUOUS
 10
12.1544234466
 20
8.735799455
 11
12.1529444819
 21
8.7260915519
  0
LINE
  5
2D9
100
AcDbEntity
  8
0
100
AcDbLine
 62
4
  6
CONTINUOUS
 10
12.1440706932
 20
8.758916905
 11
12.1462891411
 21
8.7693390941
  0
LINE
  5
2DA
100
AcDbEntity
  8
0
100
AcDbLine
 62
4
  6
CONTINUOUS
 10
12.1640367174
 20
8.7368058292
 11
12.1662551645
 21
8.7472280177
  0
LINE
  5
2DB
100
AcDbEntity
  8
0
100
AcDbLine
 62
4
  6
CONTINUOUS
 10
12.1662551645
 20
8.6727136895
 11
12.1640367174
 21
8.662291501
  0
LINE
  5
2DC
100
AcDbEntity
  8
0
100
AcDbLine
 62
4
  6
CONTINUOUS
 10
12.1662551645
 20
8.5540428637
 11
12.1640367174
 21
8.5436206199
  0
LINE
  5
2DD
100
AcDbEntity
  8
0
100
AcDbLine
 62
4
  6
CONTINUOUS
 10
12.1640367174
 20
8.4608269588
 11
12.1662551645
 21
8.4712492026
  0
LINE
  5
2DE
100
AcDbEntity
  8
0
100
AcDbLine
 62
4
  6
CONTINUOUS
 10
12.1440706932
 20
8.317350823
 11
12.1462891411
 21
8.3250132345
  0
LINE
  5
2DF
100
AcDbEntity
  8
0
100
AcDbLine
 62
4
  6
CONTINUOUS
 10
12.1485075871
 20
8.4127095277
 11
12.1440706932
 21
8.4001444841
  0
LINE
  5
2E0
100
AcDbEntity
  8
0
100
AcDbLine
 62
4
  6
CONTINUOUS
 10
12.2341396446
 20
8.4029708377
 11
12.2563241159
 21
8.4492374745
  0
LINE
  5
2E1
100
AcDbEntity
  8
0
100
AcDbLine
 62
4
  6
CONTINUOUS
 10
12.2252658568
 20
8.3447232252
 11
12.2563241159
 21
8.3995612972
  0
LINE
  5
2E2
100
AcDbEntity
  8
0
100
AcDbLine
 62
4
  6
CONTINUOUS
 10
12.2563241159
 20
8.2836501937
 11
12.2252658568
 21
8.2536502174
  0
LINE
  5
2E3
100
AcDbEntity
  8
0
100
AcDbLine
 62
4
  6
CONTINUOUS
 10
12.2452318802
 20
8.2398184601
 11
12.2518872215
 21
8.2462470265
  0
LINE
  5
2E4
100
AcDbEntity
  8
0
100
AcDbLine
 62
4
  6
CONTINUOUS
 10
12.2297027507
 20
8.2165391078
 11
12.2363580925
 21
8.2229676747
  0
LINE
  5
2E5
100
AcDbEntity
  8
0
100
AcDbLine
 62
4
  6
CONTINUOUS
 10
12.3246522859
 20
8.2875549297
 11
12.2935940268
 21
8.2575549534
  0
LINE
  5
2E6
100
AcDbEntity
  8
0
100
AcDbLine
 62
4
  6
CONTINUOUS
 10
12.1462891411
 20
8.0987106105
 11
12.1662551645
 21
8.1179963094
  0
LINE
  5
2E7
100
AcDbEntity
  8
0
100
AcDbLine
 62
4
  6
CONTINUOUS
 10
12.2563241159
 20
8.1925771859
 11
12.2252658568
 21
8.1625772095
  0
LINE
  5
2E8
100
AcDbEntity
  8
0
100
AcDbLine
 62
4
  6
CONTINUOUS
 10
12.3246522859
 20
8.2213200174
 11
12.2935940268
 21
8.1913200411
  0
LINE
  5
2E9
100
AcDbEntity
  8
0
100
AcDbLine
 62
4
  6
CONTINUOUS
 10
12.1662551645
 20
8.0683201182
 11
12.1351969054
 21
8.0383201419
  0
LINE
  5
2EA
100
AcDbEntity
  8
0
100
AcDbLine
 62
4
  6
CONTINUOUS
 10
12.2363580925
 20
8.2229676747
 11
12.2407949863
 21
8.2106946573
  0
LINE
  5
2EB
100
AcDbEntity
  8
0
100
AcDbLine
 62
4
  6
CONTINUOUS
 10
12.3202153915
 20
8.0376480682
 11
12.3246522859
 21
8.0253750512
  0
LINE
  5
2EC
100
AcDbEntity
  8
0
100
AcDbLine
 62
4
  6
CONTINUOUS
 10
12.2518872215
 20
8.2462470265
 11
12.2563241159
 21
8.2339740095
  0
LINE
  5
2ED
100
AcDbEntity
  8
0
100
AcDbLine
 62
4
  6
CONTINUOUS
 10
12.2363580925
 20
8.314040686
 11
12.2407949863
 21
8.3017676617
  0
LINE
  5
2EE
100
AcDbEntity
  8
0
100
AcDbLine
 62
4
  6
CONTINUOUS
 10
12.2518872215
 20
8.3373200343
 11
12.2563241159
 21
8.3250470243
  0
LINE
  5
2EF
100
AcDbEntity
  8
0
100
AcDbLine
 62
4
  6
CONTINUOUS
 10
12.1462891411
 20
8.6451486577
 11
12.1440706932
 21
8.6512851345
  0
LINE
  5
2F0
100
AcDbEntity
  8
0
100
AcDbLine
 62
4
  6
CONTINUOUS
 10
12.1462891411
 20
8.7196629859
 11
12.1440706932
 21
8.7257994626
  0
LINE
  5
2F1
100
AcDbEntity
  8
0
100
AcDbLine
 62
4
  6
CONTINUOUS
 10
12.1462891411
 20
8.2035825757
 11
12.1440706932
 21
8.2179984407
  0
LINE
  5
2F2
100
AcDbEntity
  8
0
100
AcDbLine
 62
4
  6
CONTINUOUS
 10
12.1573813758
 20
8.3716047864
 11
12.1551629289
 21
8.3860206522
  0
LINE
  5
2F3
100
AcDbEntity
  8
0
100
AcDbLine
 62
4
  6
CONTINUOUS
 10
12.2252658568
 20
8.1625772095
 11
12.2252658568
 21
8.1874153033
  0
LINE
  5
2F4
100
AcDbEntity
  8
0
100
AcDbLine
 62
4
  6
CONTINUOUS
 10
12.2252658568
 20
8.2536502174
 11
12.2252658568
 21
8.2784883129
  0
LINE
  5
2F5
100
AcDbEntity
  8
0
100
AcDbLine
 62
4
  6
CONTINUOUS
 10
12.2407949863
 20
8.1775771977
 11
12.2407949863
 21
8.2189740213
  0
LINE
  5
2F6
100
AcDbEntity
  8
0
100
AcDbLine
 62
4
  6
CONTINUOUS
 10
12.2407949863
 20
8.2686502055
 11
12.2407949863
 21
8.3100470361
  0
LINE
  5
2F7
100
AcDbEntity
  8
0
100
AcDbLine
 62
4
  6
CONTINUOUS
 10
12.2563241159
 20
8.3250470243
 11
12.2563241159
 21
8.2836501937
  0
LINE
  5
2F8
100
AcDbEntity
  8
0
100
AcDbLine
 62
4
  6
CONTINUOUS
 10
12.2563241159
 20
8.2339740095
 11
12.2563241159
 21
8.1925771859
  0
LINE
  5
2F9
100
AcDbEntity
  8
0
100
AcDbLine
 62
4
  6
CONTINUOUS
 10
12.2935940268
 20
7.9539782582
 11
12.2935940268
 21
7.9953750749
  0
LINE
  5
2FA
100
AcDbEntity
  8
0
100
AcDbLine
 62
4
  6
CONTINUOUS
 10
12.2935940268
 20
8.1582025711
 11
12.2935940268
 21
8.2244374834
  0
LINE
  5
2FB
100
AcDbEntity
  8
0
100
AcDbLine
 62
4
  6
CONTINUOUS
 10
12.2935940268
 20
8.2575549534
 11
12.2935940268
 21
8.3072311445
  0
LINE
  5
2FC
100
AcDbEntity
  8
0
100
AcDbLine
 62
4
  6
CONTINUOUS
 10
12.2935940268
 20
8.4479803573
 11
12.2935940268
 21
8.4810977996
  0
LINE
  5
2FD
100
AcDbEntity
  8
0
100
AcDbLine
 62
4
  6
CONTINUOUS
 10
12.2935940268
 20
8.5445729066
 11
12.2935940268
 21
8.569411016
  0
LINE
  5
2FE
100
AcDbEntity
  8
0
100
AcDbLine
 62
4
  6
CONTINUOUS
 10
12.2935940268
 20
8.6190871795
 11
12.2935940268
 21
8.6604840101
  0
LINE
  5
2FF
100
AcDbEntity
  8
0
100
AcDbLine
 62
4
  6
CONTINUOUS
 10
12.2935940268
 20
8.7239591724
 11
12.2935940268
 21
8.7736353359
  0
LINE
  5
300
100
AcDbEntity
  8
0
100
AcDbLine
 62
4
  6
CONTINUOUS
 10
12.3069047085
 20
8.7699337466
 11
12.3069047085
 21
8.7368163043
  0
LINE
  5
301
100
AcDbEntity
  8
0
100
AcDbLine
 62
4
  6
CONTINUOUS
 10
12.3069047085
 20
8.3035295553
 11
12.3069047085
 21
8.2704120853
  0
LINE
  5
302
100
AcDbEntity
  8
0
100
AcDbLine
 62
4
  6
CONTINUOUS
 10
12.3157784972
 20
8.0913179088
 11
12.3157784972
 21
8.135474517
  0
LINE
  5
303
100
AcDbEntity
  8
0
100
AcDbLine
 62
4
  6
CONTINUOUS
 10
12.3246522859
 20
8.6904839864
 11
12.3246522859
 21
8.6490871559
  0
LINE
  5
304
100
AcDbEntity
  8
0
100
AcDbLine
 62
4
  6
CONTINUOUS
 10
12.3246522859
 20
8.5994109924
 11
12.3246522859
 21
8.574572883
  0
LINE
  5
305
100
AcDbEntity
  8
0
100
AcDbLine
 62
4
  6
CONTINUOUS
 10
12.3246522859
 20
8.511097776
 11
12.3246522859
 21
8.4779803336
  0
LINE
  5
306
100
AcDbEntity
  8
0
100
AcDbLine
 62
4
  6
CONTINUOUS
 10
12.3246522859
 20
8.0253750512
 11
12.3246522859
 21
7.9839782345
  0
LINE
  5
307
100
AcDbEntity
  8
0
100
AcDbLine
 62
4
  6
CONTINUOUS
 10
12.3246522859
 20
8.2875549297
 11
12.3246522859
 21
8.3372311208
  0
LINE
  5
308
100
AcDbEntity
  8
0
100
AcDbLine
 62
4
  6
CONTINUOUS
 10
12.3246522859
 20
8.7539591487
 11
12.3246522859
 21
8.8036353122
  0
LINE
  5
309
100
AcDbEntity
  8
0
100
AcDbLine
 62
4
  6
CONTINUOUS
 10
12.2252658568
 20
8.2784883129
 11
12.22600534
 21
8.2874819595
  0
LINE
  5
30A
100
AcDbEntity
  8
0
100
AcDbLine
 62
4
  6
CONTINUOUS
 10
12.2252658568
 20
8.1874153033
 11
12.22600534
 21
8.1964089551
  0
LINE
  5
30B
100
AcDbEntity
  8
0
100
AcDbLine
 62
4
  6
CONTINUOUS
 10
12.1662551645
 20
8.2394269957
 11
12.1640367174
 21
8.220725419
  0
LINE
  5
30C
100
AcDbEntity
  8
0
100
AcDbLine
 62
4
  6
CONTINUOUS
 10
12.3054257438
 20
8.8181813399
 11
12.3113416033
 21
8.8680522299
  0
LINE
  5
30D
100
AcDbEntity
  8
0
100
AcDbLine
 62
4
  6
CONTINUOUS
 10
12.22600534
 20
8.2874819595
 11
12.2297027507
 21
8.3076121192
  0
LINE
  5
30E
100
AcDbEntity
  8
0
100
AcDbLine
 62
4
  6
CONTINUOUS
 10
12.22600534
 20
8.1964089551
 11
12.2297027507
 21
8.2165391078
  0
LINE
  5
30F
100
AcDbEntity
  8
0
100
AcDbLine
 62
4
  6
CONTINUOUS
 10
12.1573813758
 20
7.7534122163
 11
12.1440706932
 21
7.6825995317
  0
LINE
  5
310
100
AcDbEntity
  8
0
100
AcDbLine
 62
4
  6
CONTINUOUS
 10
12.1440706932
 20
8.0882883937
 11
12.1462891411
 21
8.0987106105
  0
LINE
  5
311
100
AcDbEntity
  8
0
100
AcDbLine
 62
4
  6
CONTINUOUS
 10
12.2935940268
 20
8.6604840101
 11
12.2980309207
 21
8.6813284419
  0
LINE
  5
312
100
AcDbEntity
  8
0
100
AcDbLine
 62
4
  6
CONTINUOUS
 10
12.2935940268
 20
8.569411016
 11
12.2980309207
 21
8.5902554478
  0
LINE
  5
313
100
AcDbEntity
  8
0
100
AcDbLine
 62
4
  6
CONTINUOUS
 10
12.2407949863
 20
8.3100470361
 11
12.2452318802
 21
8.3308914679
  0
LINE
  5
314
100
AcDbEntity
  8
0
100
AcDbLine
 62
4
  6
CONTINUOUS
 10
12.1351969054
 20
7.7237042981
 11
12.1374153533
 21
7.7341265184
  0
LINE
  5
315
100
AcDbEntity
  8
0
100
AcDbLine
 62
4
  6
CONTINUOUS
 10
12.2407949863
 20
8.2189740213
 11
12.2452318802
 21
8.2398184601
  0
LINE
  5
316
100
AcDbEntity
  8
0
100
AcDbLine
 62
4
  6
CONTINUOUS
 10
12.3246522859
 20
8.574572883
 11
12.3202153915
 21
8.5537284507
  0
LINE
  5
317
100
AcDbEntity
  8
0
100
AcDbLine
 62
4
  6
CONTINUOUS
 10
12.1618182702
 20
7.7908153835
 11
12.1662551645
 21
7.8116598227
  0
LINE
  5
318
100
AcDbEntity
  8
0
100
AcDbLine
 62
4
  6
CONTINUOUS
 10
12.3246522859
 20
8.4779803336
 11
12.3202153915
 21
8.4571359014
  0
LINE
  5
319
100
AcDbEntity
  8
0
100
AcDbLine
 62
4
  6
CONTINUOUS
 10
12.1640367174
 20
7.7018852312
 11
12.1662551645
 21
7.7123074517
  0
LINE
  5
31A
100
AcDbEntity
  8
0
100
AcDbLine
 62
4
  6
CONTINUOUS
 10
12.1351969054
 20
7.8561741262
 11
12.1662551645
 21
7.9441296542
  0
LINE
  5
31B
100
AcDbEntity
  8
0
100
AcDbLine
 62
4
  6
CONTINUOUS
 10
12.1440706932
 20
8.1296852243
 11
12.1662551645
 21
8.1759518887
  0
LINE
  5
31C
100
AcDbEntity
  8
0
100
AcDbLine
 62
4
  6
CONTINUOUS
 10
12.2935940268
 20
8.0919676588
 11
12.3246522859
 21
8.1550851051
  0
LINE
  5
31D
100
AcDbEntity
  8
0
100
AcDbLine
 62
4
  6
CONTINUOUS
 10
12.1662551645
 20
7.9441296542
 11
12.1351969054
 21
7.9141296779
  0
LINE
  5
31E
100
AcDbEntity
  8
0
100
AcDbLine
 62
4
  6
CONTINUOUS
 10
12.2980309207
 20
8.0162195136
 11
12.3202153915
 21
8.0376480682
  0
LINE
  5
31F
100
AcDbEntity
  8
0
100
AcDbLine
 62
4
  6
CONTINUOUS
 10
12.1662551645
 20
7.8861741025
 11
12.1351969054
 21
7.8561741262
  0
LINE
  5
320
100
AcDbEntity
  8
0
100
AcDbLine
 62
4
  6
CONTINUOUS
 10
12.1618182702
 20
7.8487709353
 11
12.1351969054
 21
7.82305667
  0
LINE
  5
321
100
AcDbEntity
  8
0
100
AcDbLine
 62
4
  6
CONTINUOUS
 10
12.3246522859
 20
7.9839782345
 11
12.2935940268
 21
7.9539782582
  0
LINE
  5
322
100
AcDbEntity
  8
0
100
AcDbLine
 62
4
  6
CONTINUOUS
 10
12.1351969054
 20
7.7651011183
 11
12.1618182702
 21
7.7908153835
  0
LINE
  5
323
100
AcDbEntity
  8
0
100
AcDbLine
 62
4
  6
CONTINUOUS
 10
12.1618182702
 20
7.7576979274
 11
12.1573813758
 21
7.7534122163
  0
LINE
  5
324
100
AcDbEntity
  8
0
100
AcDbLine
 62
7
  6
CONTINUOUS
 10
11.4923098597
 20
9.7376592716
 11
9.8927365966
 21
9.8485900541
  0
LINE
  5
325
100
AcDbEntity
  8
0
100
AcDbLine
 62
7
  6
CONTINUOUS
 10
11.5003332435
 20
9.775352968
 11
9.9007599804
 21
9.8862837506
  0
LINE
  5
326
100
AcDbEntity
  8
0
100
AcDbLine
 62
4
  6
CONTINUOUS
 10
12.1662551645
 20
8.78034546
 11
12.1640367174
 21
8.7864819374
  0
LINE
  5
327
100
AcDbEntity
  8
0
100
AcDbLine
 62
4
  6
CONTINUOUS
 10
12.2980309207
 20
8.4357073468
 11
12.2935940268
 21
8.4479803573
  0
LINE
  5
328
100
AcDbEntity
  8
0
100
AcDbLine
 62
4
  6
CONTINUOUS
 10
12.2980309207
 20
8.5322998961
 11
12.2935940268
 21
8.5445729066
  0
LINE
  5
329
100
AcDbEntity
  8
0
100
AcDbLine
 62
4
  6
CONTINUOUS
 10
12.3202153915
 20
8.6116840024
 11
12.3246522859
 21
8.5994109924
  0
LINE
  5
32A
100
AcDbEntity
  8
0
100
AcDbLine
 62
4
  6
CONTINUOUS
 10
12.3202153915
 20
8.7027569965
 11
12.3246522859
 21
8.6904839864
  0
LINE
  5
32B
100
AcDbEntity
  8
0
100
AcDbLine
 62
4
  6
CONTINUOUS
 10
12.3054257438
 20
7.9433285123
 11
12.3113416033
 21
7.9048861825
  0
LINE
  5
32C
100
AcDbEntity
  8
0
100
AcDbLine
 62
7
  6
CONTINUOUS
 10
12.3721697291
 20
10.2125386932
 11
12.3721697291
 21
9.9411135137
  0
LINE
  5
32D
100
AcDbEntity
  8
0
100
AcDbLine
 62
7
  6
CONTINUOUS
 10
12.3849475227
 20
9.9662337091
 11
12.3849475227
 21
10.2376588885
  0
LINE
  5
32E
100
AcDbEntity
  8
0
100
AcDbLine
 62
4
  6
CONTINUOUS
 10
12.3113416033
 20
7.9048861825
 11
12.3172574623
 21
7.9547570754
  0
LINE
  5
32F
100
AcDbEntity
  8
0
100
AcDbLine
 62
4
  6
CONTINUOUS
 10
12.2935940268
 20
7.9953750749
 11
12.2980309207
 21
8.0162195136
  0
LINE
  5
330
100
AcDbEntity
  8
0
100
AcDbLine
 62
4
  6
CONTINUOUS
 10
12.1440706932
 20
7.6825995317
 11
12.1396337993
 21
7.6783138211
  0
LINE
  5
331
100
AcDbEntity
  8
0
100
AcDbLine
 62
4
  6
CONTINUOUS
 10
12.3113416033
 20
8.8680522299
 11
12.3172574623
 21
8.829609903
  0
LINE
  5
332
100
AcDbEntity
  8
0
100
AcDbLine
 62
7
  6
CONTINUOUS
 10
12.5229075053
 20
7.1419373541
 11
12.5229075053
 21
10.0397150334
  0
LINE
  5
333
100
AcDbEntity
  8
0
100
AcDbLine
 62
7
  6
CONTINUOUS
 10
12.5229075053
 20
10.0397150334
 11
12.3849475227
 21
10.0492825907
  0
LINE
  5
334
100
AcDbEntity
  8
0
100
AcDbLine
 62
7
  6
CONTINUOUS
 10
11.9216454255
 20
9.8383093096
 11
11.9515891279
 21
9.8062890044
  0
LINE
  5
335
100
AcDbEntity
  8
0
100
AcDbLine
 62
7
  6
CONTINUOUS
 10
10.4994079377
 20
10.4645333076
 11
12.0989812008
 21
10.353602525
  0
LINE
  5
336
100
AcDbEntity
  8
0
100
AcDbLine
 62
7
  6
CONTINUOUS
 10
11.8919072035
 20
6.53243783
 11
12.5229075053
 21
7.1419373541
  0
LINE
  5
337
100
AcDbEntity
  8
0
100
AcDbLine
 62
7
  6
CONTINUOUS
 10
12.3422260267
 20
10.2445589984
 11
12.3721697291
 21
10.2125386932
  0
LINE
  5
338
100
AcDbEntity
  8
0
100
AcDbLine
 62
7
  6
CONTINUOUS
 10
12.371234939
 20
10.2636652269
 11
12.3413685126
 21
10.291459072
  0
SPLINE
  5
339
100
AcDbEntity
  8
0
100
AcDbSpline
 62
7
  6
CONTINUOUS
 70
0
 71
3
 72
19
 73
15
 74
0
 42
0.0000001
 43
0.0000001
 44
0.0000000001
 40
0.0
 40
0.0
 40
0.0
 40
0.0
 40
0.12732766
 40
0.2538196711
 40
0.3795264658
 40
0.5045235362
 40
0.5668075958
 40
0.6289556124
 40
0.6909843715
 40
0.7529118454
 40
0.8147570127
 40
0.8765397119
 40
0.9382804145
 40
1.0
 40
1.0
 40
1.0
 40
1.0
 10
9.9450836829
 20
9.1421526483
 30
0.0
 10
9.9450836829
 20
9.137825528
 30
0.0
 10
9.9446705382
 20
9.1291937339
 30
0.0
 10
9.9428020403
 20
9.1164118904
 30
0.0
 10
9.9397040869
 20
9.103951811
 30
0.0
 10
9.9361153601
 20
9.0939182123
 30
0.0
 10
9.9326639872
 20
9.0861727663
 30
0.0
 10
9.9297939309
 20
9.0805200923
 30
0.0
 10
9.9266463856
 20
9.0750312303
 30
0.0
 10
9.9232285151
 20
9.0697186585
 30
0.0
 10
9.9195482051
 20
9.064594711
 30
0.0
 10
9.9156139369
 20
9.0596711224
 30
0.0
 10
9.9114349083
 20
9.0549594303
 30
0.0
 10
9.908491576
 20
9.0519662713
 30
0.0
 10
9.9069829488
 20
9.0505090499
 30
0.0
  0
SPLINE
  5
33A
100
AcDbEntity
  8
0
100
AcDbSpline
 62
7
  6
CONTINUOUS
 70
0
 71
3
 72
19
 73
15
 74
0
 42
0.0000001
 43
0.0000001
 44
0.0000000001
 40
0.0
 40
0.0
 40
0.0
 40
0.0
 40
0.12732766
 40
0.2538196711
 40
0.3795264658
 40
0.5045235362
 40
0.5668075958
 40
0.6289556124
 40
0.6909843715
 40
0.7529118454
 40
0.8147570127
 40
0.8765397119
 40
0.9382804145
 40
1.0
 40
1.0
 40
1.0
 40
1.0
 10
11.6953412749
 20
9.0207718721
 30
0.0
 10
11.6953412749
 20
9.0164447517
 30
0.0
 10
11.6949281302
 20
9.0078129576
 30
0.0
 10
11.6930596323
 20
8.9950311141
 30
0.0
 10
11.6899616789
 20
8.9825710348
 30
0.0
 10
11.6863729521
 20
8.9725374361
 30
0.0
 10
11.6829215792
 20
8.96479199
 30
0.0
 10
11.6800515229
 20
8.9591393161
 30
0.0
 10
11.6769039776
 20
8.953650454
 30
0.0
 10
11.6734861071
 20
8.9483378822
 30
0.0
 10
11.6698057971
 20
8.9432139347
 30
0.0
 10
11.6658715289
 20
8.9382903461
 30
0.0
 10
11.6616925003
 20
8.933578654
 30
0.0
 10
11.658749168
 20
8.9305854951
 30
0.0
 10
11.6572405408
 20
8.9291282736
 30
0.0
  0
SPLINE
  5
33B
100
AcDbEntity
  8
0
100
AcDbSpline
 62
7
  6
CONTINUOUS
 70
0
 71
3
 72
19
 73
15
 74
0
 42
0.0000001
 43
0.0000001
 44
0.0000000001
 40
0.0
 40
0.0
 40
0.0
 40
0.0
 40
0.12732766
 40
0.2538196711
 40
0.3795264658
 40
0.5045235362
 40
0.5668075958
 40
0.6289556124
 40
0.6909843715
 40
0.7529118454
 40
0.8147570127
 40
0.8765397119
 40
0.9382804145
 40
1.0
 40
1.0
 40
1.0
 40
1.0
 10
11.6953412749
 20
6.9681793408
 30
0.0
 10
11.6953412749
 20
6.9638522205
 30
0.0
 10
11.6949281302
 20
6.9552204263
 30
0.0
 10
11.6930596323
 20
6.9424385828
 30
0.0
 10
11.6899616789
 20
6.9299785035
 30
0.0
 10
11.6863729521
 20
6.9199449048
 30
0.0
 10
11.6829215792
 20
6.9121994587
 30
0.0
 10
11.6800515229
 20
6.9065467848
 30
0.0
 10
11.6769039776
 20
6.9010579227
 30
0.0
 10
11.6734861071
 20
6.895745351
 30
0.0
 10
11.6698057971
 20
6.8906214035
 30
0.0
 10
11.6658715289
 20
6.8856978148
 30
0.0
 10
11.6616925003
 20
6.8809861227
 30
0.0
 10
11.658749168
 20
6.8779929638
 30
0.0
 10
11.6572405408
 20
6.8765357424
 30
0.0
  0
SPLINE
  5
33C
100
AcDbEntity
  8
0
100
AcDbSpline
 62
7
  6
CONTINUOUS
 70
0
 71
3
 72
19
 73
15
 74
0
 42
0.0000001
 43
0.0000001
 44
0.0000000001
 40
0.0
 40
0.0
 40
0.0
 40
0.0
 40
0.12732766
 40
0.2538196711
 40
0.3795264658
 40
0.5045235362
 40
0.5668075958
 40
0.6289556124
 40
0.6909843715
 40
0.7529118454
 40
0.8147570127
 40
0.8765397119
 40
0.9382804145
 40
1.0
 40
1.0
 40
1.0
 40
1.0
 10
9.9450836829
 20
7.0895601171
 30
0.0
 10
9.9450836829
 20
7.0852329967
 30
0.0
 10
9.9446705382
 20
7.0766012026
 30
0.0
 10
9.9428020403
 20
7.0638193591
 30
0.0
 10
9.9397040869
 20
7.0513592798
 30
0.0
 10
9.9361153601
 20
7.0413256811
 30
0.0
 10
9.9326639872
 20
7.033580235
 30
0.0
 10
9.9297939309
 20
7.0279275611
 30
0.0
 10
9.9266463856
 20
7.022438699
 30
0.0
 10
9.9232285151
 20
7.0171261272
 30
0.0
 10
9.9195482051
 20
7.0120021797
 30
0.0
 10
9.9156139369
 20
7.0070785911
 30
0.0
 10
9.9114349083
 20
7.002366899
 30
0.0
 10
9.908491576
 20
6.9993737401
 30
0.0
 10
9.9069829488
 20
6.9979165186
 30
0.0
  0
SPLINE
  5
33D
100
AcDbEntity
  8
0
100
AcDbSpline
 62
7
  6
CONTINUOUS
 70
0
 71
3
 72
21
 73
17
 74
0
 42
0.0000001
 43
0.0000001
 44
0.0000000001
 40
0.0
 40
0.0
 40
0.0
 40
0.0
 40
0.1273175725
 40
0.2538000026
 40
0.3167619332
 40
0.3795354925
 40
0.4421314982
 40
0.5045621433
 40
0.5668413429
 40
0.6289845306
 40
0.6910084612
 40
0.7529311022
 40
0.8147714553
 40
0.8765493457
 40
0.9382852283
 40
1.0
 40
1.0
 40
1.0
 40
1.0
 10
10.5033887459
 20
7.1715822361
 30
0.0
 10
10.5033887459
 20
7.165807657
 30
0.0
 10
10.5028375249
 20
7.1542889451
 30
0.0
 10
10.5007557603
 20
7.1400493271
 30
0.0
 10
10.4982675733
 20
7.1288795883
 30
0.0
 10
10.4959984791
 20
7.120640788
 30
0.0
 10
10.4933290604
 20
7.1125483686
 30
0.0
 10
10.4902654033
 20
7.1046207805
 30
0.0
 10
10.4868145996
 20
7.0968763529
 30
0.0
 10
10.4829845857
 20
7.0893329314
 30
0.0
 10
10.4787841469
 20
7.082007941
 30
0.0
 10
10.4742229839
 20
7.074918261
 30
0.0
 10
10.4693116322
 20
7.0680802535
 30
0.0
 10
10.4640613297
 20
7.0615096583
 30
0.0
 10
10.4584843892
 20
7.0552218444
 30
0.0
 10
10.4545565307
 20
7.0512273957
 30
0.0
 10
10.4525432579
 20
7.049282713
 30
0.0
  0
SPLINE
  5
33E
100
AcDbEntity
  8
0
100
AcDbSpline
 62
7
  6
CONTINUOUS
 70
0
 71
3
 72
41
 73
37
 74
0
 42
0.0000001
 43
0.0000001
 44
0.0000000001
 40
0.0
 40
0.0
 40
0.0
 40
0.0
 40
0.0303934691
 40
0.04564821
 40
0.0609404187
 40
0.0916357074
 40
0.1224858427
 40
0.1379709777
 40
0.1534937948
 40
0.1846444778
 40
0.2159345203
 40
0.2473530214
 40
0.2788868551
 40
0.3105210889
 40
0.3422394063
 40
0.3740245113
 40
0.405858506
 40
0.4377232315
 40
0.469600571
 40
0.5014727136
 40
0.5333223815
 40
0.5651330243
 40
0.5968889855
 40
0.6285756461
 40
0.6601795513
 40
0.691688525
 40
0.7230917752
 40
0.7543799969
 40
0.7855454735
 40
0.8165821789
 40
0.8474858823
 40
0.8782542531
 40
0.9088869659
 40
0.9393858001
 40
0.9697547306
 40
1.0
 40
1.0
 40
1.0
 40
1.0
 10
10.2750932727
 20
9.1746201367
 30
0.0
 10
10.2789825992
 20
9.1753925529
 30
0.0
 10
10.2848709252
 20
9.1763323255
 30
0.0
 10
10.2927811737
 20
9.1771448656
 30
0.0
 10
10.3007558027
 20
9.1776662938
 30
0.0
 10
10.3107894546
 20
9.1777660884
 30
0.0
 10
10.320828679
 20
9.1771351239
 30
0.0
 10
10.3288458589
 20
9.1761976916
 30
0.0
 10
10.3368634609
 20
9.1749703164
 30
0.0
 10
10.346831224
 20
9.1728997482
 30
0.0
 10
10.3586284544
 20
9.1695825004
 30
0.0
 10
10.3702196414
 20
9.1654531733
 30
0.0
 10
10.3815493297
 20
9.1605395788
 30
0.0
 10
10.3925655436
 20
9.1548730166
 30
0.0
 10
10.4032193471
 20
9.1484878453
 30
0.0
 10
10.4134651093
 20
9.1414209656
 30
0.0
 10
10.423260482
 20
9.1337113709
 30
0.0
 10
10.4325663711
 20
9.1253997383
 30
0.0
 10
10.4413468455
 20
9.1165280757
 30
0.0
 10
10.4495690136
 20
9.1071394243
 30
0.0
 10
10.457202877
 20
9.0972776182
 30
0.0
 10
10.464221173
 20
9.0869870978
 30
0.0
 10
10.4705992159
 20
9.0763127727
 30
0.0
 10
10.4763147446
 20
9.0652999307
 30
0.0
 10
10.4813477848
 20
9.053994185
 30
0.0
 10
10.4856805313
 20
9.0424414554
 30
0.0
 10
10.4892972533
 20
9.0306879773
 30
0.0
 10
10.4921842277
 20
9.0187803295
 30
0.0
 10
10.4943297045
 20
9.0067654796
 30
0.0
 10
10.4957239033
 20
8.9946908332
 30
0.0
 10
10.4963590481
 20
8.9826042941
 30
0.0
 10
10.496229428
 20
8.9705542903
 30
0.0
 10
10.4953315276
 20
8.9585898924
 30
0.0
 10
10.4936640718
 20
8.9467605262
 30
0.0
 10
10.491228553
 20
8.9351170913
 30
0.0
 10
10.4890907767
 20
8.9274960191
 30
0.0
 10
10.4878955031
 20
8.9237354545
 30
0.0
  0
SPLINE
  5
33F
100
AcDbEntity
  8
0
100
AcDbSpline
 62
7
  6
CONTINUOUS
 70
0
 71
3
 72
36
 73
32
 74
0
 42
0.0000001
 43
0.0000001
 44
0.0000000001
 40
0.0
 40
0.0
 40
0.0
 40
0.0
 40
0.0314026142
 40
0.0625984404
 40
0.0936027846
 40
0.1244374951
 40
0.1551305762
 40
0.1857132207
 40
0.2162175188
 40
0.2466746294
 40
0.277113485
 40
0.3075600188
 40
0.3380368149
 40
0.3685630807
 40
0.3991548347
 40
0.4298252049
 40
0.4605847728
 40
0.4914419234
 40
0.5224031657
 40
0.5534734086
 40
0.6159299999
 40
0.6473439084
 40
0.6788744499
 40
0.7422607613
 40
0.7741352197
 40
0.8061194726
 40
0.8703770245
 40
0.9026624095
 40
0.9350346059
 40
0.9674842384
 40
1.0
 40
1.0
 40
1.0
 40
1.0
 10
10.5327248786
 20
8.4677521959
 30
0.0
 10
10.5327248786
 20
8.4723253972
 30
0.0
 10
10.5331662173
 20
8.4814481069
 30
0.0
 10
10.5351559678
 20
8.494954633
 30
0.0
 10
10.5384354289
 20
8.5081229394
 30
0.0
 10
10.542948162
 20
8.520842362
 30
0.0
 10
10.5486211332
 20
8.5330196644
 30
0.0
 10
10.5553701576
 20
8.544578046
 30
0.0
 10
10.5631048471
 20
8.5554576673
 30
0.0
 10
10.5717328726
 20
8.5656141523
 30
0.0
 10
10.5811632724
 20
8.5750165758
 30
0.0
 10
10.5913087415
 20
8.5836450807
 30
0.0
 10
10.6020870189
 20
8.5914885285
 30
0.0
 10
10.6134215543
 20
8.5985423662
 30
0.0
 10
10.625241661
 20
8.6048068067
 30
0.0
 10
10.637482294
 20
8.6102853323
 30
0.0
 10
10.6500837091
 20
8.6149835178
 30
0.0
 10
10.6629906258
 20
8.618908082
 30
0.0
 10
10.6761527243
 20
8.6220662976
 30
0.0
 10
10.6940046398
 20
8.6252698706
 30
0.0
 10
10.7121658261
 20
8.626959329
 30
0.0
 10
10.7304337309
 20
8.6271702314
 30
0.0
 10
10.7488224818
 20
8.6263981942
 30
0.0
 10
10.767191298
 20
8.6241536145
 30
0.0
 10
10.7853579793
 20
8.6204626857
 30
0.0
 10
10.8034271342
 20
8.6157855985
 30
0.0
 10
10.8211557852
 20
8.6096480071
 30
0.0
 10
10.8383405427
 20
8.6020700581
 30
0.0
 10
10.8509480695
 20
8.5956457584
 30
0.0
 10
10.8631948613
 20
8.5884925104
 30
0.0
 10
10.8710740903
 20
8.583243083
 30
0.0
 10
10.8749330114
 20
8.5804986538
 30
0.0
  0
SPLINE
  5
340
100
AcDbEntity
  8
0
100
AcDbSpline
 62
7
  6
CONTINUOUS
 70
0
 71
3
 72
36
 73
32
 74
0
 42
0.0000001
 43
0.0000001
 44
0.0000000001
 40
0.0
 40
0.0
 40
0.0
 40
0.0
 40
0.0314026142
 40
0.0625984404
 40
0.0936027846
 40
0.1244374951
 40
0.1551305762
 40
0.1857132207
 40
0.2162175188
 40
0.2466746294
 40
0.277113485
 40
0.3075600188
 40
0.3380368149
 40
0.3685630807
 40
0.3991548347
 40
0.4298252049
 40
0.4605847728
 40
0.4914419234
 40
0.5224031657
 40
0.5534734086
 40
0.6159299999
 40
0.6473439084
 40
0.6788744499
 40
0.7422607613
 40
0.7741352197
 40
0.8061194726
 40
0.8703770245
 40
0.9026624095
 40
0.9350346059
 40
0.9674842384
 40
1.0
 40
1.0
 40
1.0
 40
1.0
 10
10.5327248786
 20
7.6824544876
 30
0.0
 10
10.5327248786
 20
7.6870276889
 30
0.0
 10
10.5331662173
 20
7.6961503986
 30
0.0
 10
10.5351559678
 20
7.7096569247
 30
0.0
 10
10.5384354289
 20
7.7228252311
 30
0.0
 10
10.542948162
 20
7.7355446537
 30
0.0
 10
10.5486211332
 20
7.7477219561
 30
0.0
 10
10.5553701576
 20
7.7592803377
 30
0.0
 10
10.5631048471
 20
7.770159959
 30
0.0
 10
10.5717328726
 20
7.780316444
 30
0.0
 10
10.5811632724
 20
7.7897188675
 30
0.0
 10
10.5913087415
 20
7.7983473724
 30
0.0
 10
10.6020870189
 20
7.8061908202
 30
0.0
 10
10.6134215543
 20
7.8132446579
 30
0.0
 10
10.625241661
 20
7.8195090984
 30
0.0
 10
10.637482294
 20
7.824987624
 30
0.0
 10
10.6500837091
 20
7.8296858095
 30
0.0
 10
10.6629906258
 20
7.8336103737
 30
0.0
 10
10.6761527243
 20
7.8367685893
 30
0.0
 10
10.6940046398
 20
7.8399721623
 30
0.0
 10
10.7121658261
 20
7.8416616207
 30
0.0
 10
10.7304337309
 20
7.8418725231
 30
0.0
 10
10.7488224818
 20
7.8411004859
 30
0.0
 10
10.767191298
 20
7.8388559062
 30
0.0
 10
10.7853579793
 20
7.8351649774
 30
0.0
 10
10.8034271342
 20
7.8304878902
 30
0.0
 10
10.8211557852
 20
7.8243502988
 30
0.0
 10
10.8383405427
 20
7.8167723498
 30
0.0
 10
10.8509480695
 20
7.8103480501
 30
0.0
 10
10.8631948613
 20
7.8031948021
 30
0.0
 10
10.8710740903
 20
7.7979453747
 30
0.0
 10
10.8749330114
 20
7.7952009455
 30
0.0
  0
SPLINE
  5
341
100
AcDbEntity
  8
0
100
AcDbSpline
 62
7
  6
CONTINUOUS
 70
0
 71
3
 72
32
 73
28
 74
0
 42
0.0000001
 43
0.0000001
 44
0.0000000001
 40
0.0
 40
0.0
 40
0.0
 40
0.0
 40
0.0845017374
 40
0.167300855
 40
0.2480795303
 40
0.3265298693
 40
0.4023572177
 40
0.4752815404
 40
0.545039923
 40
0.5786558619
 40
0.6113908052
 40
0.6432178835
 40
0.6741118203
 40
0.704049142
 40
0.7330081882
 40
0.760969474
 40
0.7879156344
 40
0.8138319636
 40
0.8387063238
 40
0.8625298908
 40
0.8852970833
 40
0.9070065571
 40
0.9276612459
 40
0.94726967
 40
0.9658462264
 40
0.9834129037
 40
1.0
 40
1.0
 40
1.0
 40
1.0
 10
12.0989812008
 20
10.353602525
 30
0.0
 10
12.1061022049
 20
10.3531086817
 30
0.0
 10
12.1201924291
 20
10.3520059623
 30
0.0
 10
12.1410518508
 20
10.349983937
 30
0.0
 10
12.1613605945
 20
10.3476172217
 30
0.0
 10
12.1810333468
 20
10.3449158636
 30
0.0
 10
12.1999876186
 20
10.341891364
 30
0.0
 10
12.2181438329
 20
10.3385565594
 30
0.0
 10
12.2327200689
 20
10.3354943101
 30
0.0
 10
12.2439195861
 20
10.3328919336
 30
0.0
 10
12.2519694756
 20
10.3308957329
 30
0.0
 10
12.2597650156
 20
10.3288331639
 30
0.0
 10
12.2672980416
 20
10.3267063745
 30
0.0
 10
12.2745606576
 20
10.3245176258
 30
0.0
 10
12.2815452572
 20
10.3222692045
 30
0.0
 10
12.2882445364
 20
10.3199635057
 30
0.0
 10
12.2946514904
 20
10.3176029232
 30
0.0
 10
12.3007594418
 20
10.3151899778
 30
0.0
 10
12.3065620208
 20
10.3127271531
 30
0.0
 10
12.3120532129
 20
10.3102170785
 30
0.0
 10
12.317227315
 20
10.3076623052
 30
0.0
 10
12.3220790092
 20
10.3050655452
 30
0.0
 10
12.3266032896
 20
10.3024293814
 30
0.0
 10
12.3307955511
 20
10.2997565771
 30
0.0
 10
12.3346515433
 20
10.2970496547
 30
0.0
 10
12.3381672263
 20
10.2943114989
 30
0.0
 10
12.3403428095
 20
10.2924135835
 30
0.0
 10
12.3413685297
 20
10.2914590426
 30
0.0
  0
SPLINE
  5
342
100
AcDbEntity
  8
0
100
AcDbSpline
 62
7
  6
CONTINUOUS
 70
0
 71
3
 72
11
 73
7
 74
0
 42
0.0000001
 43
0.0000001
 44
0.0000000001
 40
0.0
 40
0.0
 40
0.0
 40
0.0
 40
0.253594094
 40
0.5041212698
 40
0.7525810402
 40
1.0
 40
1.0
 40
1.0
 40
1.0
 10
11.6918572883
 20
10.0334030504
 30
0.0
 10
11.6920737146
 20
10.0342061266
 30
0.0
 10
11.6924541001
 20
10.0358165343
 30
0.0
 10
11.6928647606
 20
10.0382521615
 30
0.0
 10
11.6931112603
 20
10.0406895103
 30
0.0
 10
11.6931660964
 20
10.0423163966
 30
0.0
 10
11.6931660991
 20
10.0431278718
 30
0.0
  0
SPLINE
  5
343
100
AcDbEntity
  8
0
100
AcDbSpline
 62
7
  6
CONTINUOUS
 70
0
 71
3
 72
18
 73
14
 74
0
 42
0.0000001
 43
0.0000001
 44
0.0000000001
 40
0.0
 40
0.0
 40
0.0
 40
0.0
 40
0.0548626221
 40
0.1099291996
 40
0.1654012684
 40
0.2214754896
 40
0.3361336267
 40
0.4553633642
 40
0.5171046005
 40
0.5804361693
 40
0.7123314363
 40
0.8519591016
 40
1.0
 40
1.0
 40
1.0
 40
1.0
 10
9.6147936695
 20
9.9423399823
 30
0.0
 10
9.6147936666
 20
9.9428695865
 30
0.0
 10
9.6148272692
 20
9.9439310702
 30
0.0
 10
9.6149784128
 20
9.9455215587
 30
0.0
 10
9.6152302703
 20
9.947111163
 30
0.0
 10
9.6157035026
 20
9.9492440667
 30
0.0
 10
9.6165561068
 20
9.9519173118
 30
0.0
 10
9.6177237641
 20
9.9545274638
 30
0.0
 10
9.6188473481
 20
9.9566018101
 30
0.0
 10
9.6201339012
 20
9.9587237053
 30
0.0
 10
9.6220020046
 20
9.9613673068
 30
0.0
 10
9.6246064869
 20
9.9644739263
 30
0.0
 10
9.6265435797
 20
9.966467329
 30
0.0
 10
9.6275714521
 20
9.9674601776
 30
0.0
  0
SPLINE
  5
344
100
AcDbEntity
  8
0
100
AcDbSpline
 62
7
  6
CONTINUOUS
 70
0
 71
3
 72
41
 73
37
 74
0
 42
0.0000001
 43
0.0000001
 44
0.0000000001
 40
0.0
 40
0.0
 40
0.0
 40
0.0
 40
0.007274041
 40
0.0148710582
 40
0.0227989434
 40
0.0310643193
 40
0.0396725751
 40
0.0486277016
 40
0.0579322029
 40
0.0675876404
 40
0.0775945651
 40
0.0879527025
 40
0.0986610992
 40
0.1097179479
 40
0.1328661912
 40
0.1573729109
 40
0.1832046291
 40
0.2103210901
 40
0.2386760817
 40
0.2682181136
 40
0.2988910312
 40
0.3306344938
 40
0.363384376
 40
0.397073102
 40
0.4316300211
 40
0.4669817303
 40
0.5030523587
 40
0.5397638242
 40
0.5770361082
 40
0.6147875425
 40
0.6529350598
 40
0.6913944367
 40
0.7689060225
 40
0.8466364977
 40
0.9238956881
 40
1.0
 40
1.0
 40
1.0
 40
1.0
 10
10.0789541777
 20
10.4023906922
 30
0.0
 10
10.0797203188
 20
10.4031036293
 30
0.0
 10
10.0813218487
 20
10.404523664
 30
0.0
 10
10.0838683175
 20
10.4065926468
 30
0.0
 10
10.0866087629
 20
10.4086447671
 30
0.0
 10
10.0895414283
 20
10.4106787879
 30
0.0
 10
10.0926646524
 20
10.4126935985
 30
0.0
 10
10.0959766478
 20
10.4146880353
 30
0.0
 10
10.0994754616
 20
10.4166609938
 30
0.0
 10
10.1031590556
 20
10.4186112583
 30
0.0
 10
10.1070252493
 20
10.4205377038
 30
0.0
 10
10.111071763
 20
10.422439206
 30
0.0
 10
10.115296233
 20
10.4243146219
 30
0.0
 10
10.1212541814
 20
10.4268172752
 30
0.0
 10
10.129134687
 20
10.4298643235
 30
0.0
 10
10.1391195837
 20
10.4333458959
 30
0.0
 10
10.1497487857
 20
10.4366979932
 30
0.0
 10
10.1609971354
 20
10.4399125971
 30
0.0
 10
10.1728381182
 20
10.442982006
 30
0.0
 10
10.1852437037
 20
10.4458988701
 30
0.0
 10
10.1981845015
 20
10.4486561955
 30
0.0
 10
10.2116298224
 20
10.4512473693
 30
0.0
 10
10.2255477556
 20
10.4536661726
 30
0.0
 10
10.2399052434
 20
10.4559068148
 30
0.0
 10
10.2546681685
 20
10.4579639302
 30
0.0
 10
10.2698014437
 20
10.4598325913
 30
0.0
 10
10.2852690946
 20
10.4615083178
 30
0.0
 10
10.3010343411
 20
10.4629870968
 30
0.0
 10
10.3170596899
 20
10.4642653968
 30
0.0
 10
10.3333070167
 20
10.4653401535
 30
0.0
 10
10.3497377084
 20
10.4662088152
 30
0.0
 10
10.3718942232
 20
10.4670916074
 30
0.0
 10
10.3997601064
 20
10.4676652802
 30
0.0
 10
10.4332140422
 20
10.4675114846
 30
0.0
 10
10.4664509638
 20
10.4665185779
 30
0.0
 10
10.4884847708
 20
10.4652908318
 30
0.0
 10
10.4994079377
 20
10.4645333076
 30
0.0
  0
SPLINE
  5
345
100
AcDbEntity
  8
0
100
AcDbSpline
 62
7
  6
CONTINUOUS
 70
0
 71
3
 72
18
 73
14
 74
0
 42
0.0000001
 43
0.0000001
 44
0.0000000001
 40
0.0
 40
0.0
 40
0.0
 40
0.0
 40
0.1492375281
 40
0.289655037
 40
0.421961834
 40
0.4853619434
 40
0.5470838486
 40
0.6660306073
 40
0.780131264
 40
0.8358489547
 40
0.8909261061
 40
0.94557164
 40
1.0
 40
1.0
 40
1.0
 40
1.0
 10
12.3712349347
 20
10.2636652266
 30
0.0
 10
12.3723364284
 20
10.2626401642
 30
0.0
 10
12.3744122817
 20
10.2605820348
 30
0.0
 10
12.3772069995
 20
10.2573689989
 30
0.0
 10
12.3792134182
 20
10.2546317016
 30
0.0
 10
12.3805953297
 20
10.25243354
 30
0.0
 10
12.3818006305
 20
10.2502871652
 30
0.0
 10
12.3830538399
 20
10.2475855443
 30
0.0
 10
12.38397022
 20
10.2448141269
 30
0.0
 10
12.384478667
 20
10.2426030617
 30
0.0
 10
12.3847491208
 20
10.2409558903
 30
0.0
 10
12.3849114074
 20
10.2393077241
 30
0.0
 10
12.3849475087
 20
10.2382076573
 30
0.0
 10
12.3849475117
 20
10.2376588885
 30
0.0
  0
SPLINE
  5
346
100
AcDbEntity
  8
0
100
AcDbSpline
 62
7
  6
CONTINUOUS
 70
0
 71
3
 72
75
 73
71
 74
0
 42
0.0000001
 43
0.0000001
 44
0.0000000001
 40
0.0
 40
0.0
 40
0.0
 40
0.0
 40
0.0038007379
 40
0.007741699
 40
0.0118259331
 40
0.0160561268
 40
0.0204345643
 40
0.0249630406
 40
0.0296428723
 40
0.034475051
 40
0.0394602141
 40
0.0445987276
 40
0.0553354255
 40
0.0666834942
 40
0.0786373216
 40
0.0911884062
 40
0.1043257371
 40
0.1180360992
 40
0.1323043071
 40
0.1471134139
 40
0.1624448894
 40
0.1782787634
 40
0.1945937478
 40
0.2113673381
 40
0.2285759229
 40
0.2461948781
 40
0.264198649
 40
0.2825608248
 40
0.3012542093
 40
0.3202509022
 40
0.3395223676
 40
0.3590395
 40
0.3787726854
 40
0.4187660246
 40
0.4592584549
 40
0.5000014192
 40
0.5407443709
 40
0.5812367611
 40
0.6212300368
 40
0.6409631795
 40
0.660480262
 40
0.6797516734
 40
0.6987483076
 40
0.7174416268
 40
0.7358037281
 40
0.7538074197
 40
0.7714262932
 40
0.7886347921
 40
0.8054082893
 40
0.8217231717
 40
0.8375569421
 40
0.852888313
 40
0.8676973113
 40
0.881965403
 40
0.8956756426
 40
0.9088128529
 40
0.9213638169
 40
0.933317521
 40
0.9446654589
 40
0.9554020248
 40
0.960540483
 40
0.9655255788
 40
0.97035769
 40
0.9750374515
 40
0.9795658617
 40
0.9839442735
 40
0.9881744261
 40
0.9922585448
 40
0.996199314
 40
1.0
 40
1.0
 40
1.0
 40
1.0
 10
11.7331518247
 20
10.0612655049
 30
0.0
 10
11.7320399619
 20
10.0602308338
 30
0.0
 10
11.7297329763
 20
10.0581683212
 30
0.0
 10
11.7260968614
 20
10.055148387
 30
0.0
 10
11.7222248214
 20
10.052148351
 30
0.0
 10
11.7181185802
 20
10.0491694646
 30
0.0
 10
11.7137797454
 20
10.0462128776
 30
0.0
 10
11.7092100581
 20
10.0432797637
 30
0.0
 10
11.704411389
 20
10.0403712705
 30
0.0
 10
11.699385682
 20
10.0374886423
 30
0.0
 10
11.694135001
 20
10.0346329891
 30
0.0
 10
11.6867283008
 20
10.0308069685
 30
0.0
 10
11.6769127133
 20
10.0261098411
 30
0.0
 10
11.6644391453
 20
10.0206788778
 30
0.0
 10
11.6511243134
 20
10.0153828674
 30
0.0
 10
11.6369900258
 20
10.0102305324
 30
0.0
 10
11.6220592513
 20
10.0052303565
 30
0.0
 10
11.606356397
 20
10.0003906096
 30
0.0
 10
11.5899071714
 20
9.9957192975
 30
0.0
 10
11.5727385557
 20
9.9912241541
 30
0.0
 10
11.5548787393
 20
9.9869126283
 30
0.0
 10
11.5363570685
 20
9.9827918676
 30
0.0
 10
11.5172039996
 20
9.9788687069
 30
0.0
 10
11.4974510486
 20
9.9751496437
 30
0.0
 10
11.4771307325
 20
9.9716408391
 30
0.0
 10
11.4562765089
 20
9.9683481069
 30
0.0
 10
11.4349227211
 20
9.9652769048
 30
0.0
 10
11.413104544
 20
9.9624323224
 30
0.0
 10
11.3908579269
 20
9.9598190659
 30
0.0
 10
11.3682195262
 20
9.95744146
 30
0.0
 10
11.3452266553
 20
9.9553034474
 30
0.0
 10
11.321917174
 20
9.9534085484
 30
0.0
 10
11.2903271841
 20
9.9512006863
 30
0.0
 10
11.2503316515
 20
9.949076334
 30
0.0
 10
11.2019081457
 20
9.9475466294
 30
0.0
 10
11.1531635503
 20
9.9470356483
 30
0.0
 10
11.104418972
 20
9.9475467342
 30
0.0
 10
11.0559955162
 20
9.9490765497
 30
0.0
 10
11.0160000465
 20
9.9512009845
 30
0.0
 10
10.9844101241
 20
9.9534089184
 30
0.0
 10
10.9611007059
 20
9.955303871
 30
0.0
 10
10.9381079048
 20
9.9574419328
 30
0.0
 10
10.9154695808
 20
9.9598195868
 30
0.0
 10
10.8932230491
 20
9.9624328908
 30
0.0
 10
10.8714049669
 20
9.9652775239
 30
0.0
 10
10.8500512809
 20
9.968348774
 30
0.0
 10
10.8291971642
 20
9.9716415504
 30
0.0
 10
10.8088769613
 20
9.975150398
 30
0.0
 10
10.7891241326
 20
9.9788695039
 30
0.0
 10
10.7699711949
 20
9.9827927102
 30
0.0
 10
10.7514496601
 20
9.9869135113
 30
0.0
 10
10.7335899829
 20
9.9912250746
 30
0.0
 10
10.7164215126
 20
9.9957202539
 30
0.0
 10
10.6999724415
 20
10.0003916024
 30
0.0
 10
10.6842697492
 20
10.0052313874
 30
0.0
 10
10.6693391385
 20
10.0102315949
 30
0.0
 10
10.6552050164
 20
10.0153839589
 30
0.0
 10
10.6418903567
 20
10.0206799973
 30
0.0
 10
10.6294169686
 20
10.0261109878
 30
0.0
 10
10.6196015372
 20
10.0308081465
 30
0.0
 10
10.6121949543
 20
10.0346341728
 30
0.0
 10
10.6069443707
 20
10.0374898463
 30
0.0
 10
10.6019187619
 20
10.0403724808
 30
0.0
 10
10.5971201871
 20
10.0432809727
 30
0.0
 10
10.592550594
 20
10.0462141136
 30
0.0
 10
10.5882118342
 20
10.0491707163
 30
0.0
 10
10.5841056988
 20
10.0521496247
 30
0.0
 10
10.580233806
 20
10.0551496228
 30
0.0
 10
10.5765978278
 20
10.0581694974
 30
0.0
 10
10.5742909559
 20
10.0602319913
 30
0.0
 10
10.5731791268
 20
10.0612666682
 30
0.0
  0
SPLINE
  5
347
100
AcDbEntity
  8
0
100
AcDbSpline
 62
7
  6
CONTINUOUS
 70
0
 71
3
 72
11
 73
7
 74
0
 42
0.0000001
 43
0.0000001
 44
0.0000000001
 40
0.0
 40
0.0
 40
0.0
 40
0.0
 40
0.2535767103
 40
0.504101281
 40
0.7525685457
 40
1.0
 40
1.0
 40
1.0
 40
1.0
 10
10.6144683918
 20
10.0334272637
 30
0.0
 10
10.6142530332
 20
10.0342283744
 30
0.0
 10
10.6138745421
 20
10.0358348254
 30
0.0
 10
10.6134659389
 20
10.0382643685
 30
0.0
 10
10.6132206572
 20
10.0406956171
 30
0.0
 10
10.6131660987
 20
10.0423184227
 30
0.0
 10
10.6131661014
 20
10.0431278718
 30
0.0
  0
SPLINE
  5
348
100
AcDbEntity
  8
0
100
AcDbSpline
 62
7
  6
CONTINUOUS
 70
0
 71
3
 72
41
 73
37
 74
0
 42
0.0000001
 43
0.0000001
 44
0.0000000001
 40
0.0
 40
0.0
 40
0.0
 40
0.0
 40
0.0299421204
 40
0.0449237657
 40
0.0599145156
 40
0.0899291707
 40
0.1200145979
 40
0.1350933581
 40
0.1501974797
 40
0.1804849775
 40
0.2108989666
 40
0.2414525863
 40
0.2721557519
 40
0.303014974
 40
0.3340332638
 40
0.3652101189
 40
0.3965415878
 40
0.4280204054
 40
0.4596361932
 40
0.4913757168
 40
0.5232231926
 40
0.5551606365
 40
0.5871682471
 40
0.6192248157
 40
0.6513081571
 40
0.6833955538
 40
0.7154642079
 40
0.7474916937
 40
0.7794564054
 40
0.8113379941
 40
0.8431177837
 40
0.8747791713
 40
0.906307967
 40
0.9376927819
 40
0.9689251328
 40
1.0
 40
1.0
 40
1.0
 40
1.0
 10
9.7117592437
 20
9.2526196465
 30
0.0
 10
9.7140900919
 20
9.2548710721
 30
0.0
 10
9.7177237513
 20
9.2581117916
 30
0.0
 10
9.7228125906
 20
9.2621328523
 30
0.0
 10
9.7280635287
 20
9.2659537651
 30
0.0
 10
9.7349151019
 20
9.2703414677
 30
0.0
 10
9.7420998328
 20
9.2741794005
 30
0.0
 10
9.7480253474
 20
9.276909772
 30
0.0
 10
9.7540733043
 20
9.2794146694
 30
0.0
 10
9.76183253
 20
9.2821082125
 30
0.0
 10
9.7713946167
 20
9.2846185103
 30
0.0
 10
9.7811653497
 20
9.2863968812
 30
0.0
 10
9.7910905854
 20
9.2874335033
 30
0.0
 10
9.801115801
 20
9.2877228471
 30
0.0
 10
9.811185835
 20
9.2872634394
 30
0.0
 10
9.8212453399
 20
9.2860579339
 30
0.0
 10
9.8312390429
 20
9.2841130729
 30
0.0
 10
9.8411120572
 20
9.28143965
 30
0.0
 10
9.8508101761
 20
9.2780524465
 30
0.0
 10
9.8602801676
 20
9.2739701477
 30
0.0
 10
9.8694700619
 20
9.2692152393
 30
0.0
 10
9.8783294328
 20
9.263813883
 30
0.0
 10
9.886809671
 20
9.2577957733
 30
0.0
 10
9.8948642467
 20
9.2511939751
 30
0.0
 10
9.9024489627
 20
9.2440447435
 30
0.0
 10
9.9095221937
 20
9.2363873265
 30
0.0
 10
9.9160451125
 20
9.2282637516
 30
0.0
 10
9.9219819009
 20
9.2197185975
 30
0.0
 10
9.927299945
 20
9.2107987524
 30
0.0
 10
9.9319700119
 20
9.2015531581
 30
0.0
 10
9.9359664116
 20
9.1920325512
 30
0.0
 10
9.9392671327
 20
9.1822891649
 30
0.0
 10
9.9418539748
 20
9.1723765307
 30
0.0
 10
9.9437126274
 20
9.1623488769
 30
0.0
 10
9.9448327886
 20
9.1522620036
 30
0.0
 10
9.9450836829
 20
9.1455158894
 30
0.0
 10
9.9450836829
 20
9.1421526483
 30
0.0
  0
SPLINE
  5
349
100
AcDbEntity
  8
0
100
AcDbSpline
 62
7
  6
CONTINUOUS
 70
0
 71
3
 72
41
 73
37
 74
0
 42
0.0000001
 43
0.0000001
 44
0.0000000001
 40
0.0
 40
0.0
 40
0.0
 40
0.0
 40
0.0299421204
 40
0.0449237657
 40
0.0599145156
 40
0.0899291707
 40
0.1200145979
 40
0.1350933581
 40
0.1501974797
 40
0.1804849775
 40
0.2108989666
 40
0.2414525863
 40
0.2721557519
 40
0.303014974
 40
0.3340332638
 40
0.3652101189
 40
0.3965415878
 40
0.4280204054
 40
0.4596361932
 40
0.4913757168
 40
0.5232231926
 40
0.5551606365
 40
0.5871682471
 40
0.6192248157
 40
0.6513081571
 40
0.6833955538
 40
0.7154642079
 40
0.7474916937
 40
0.7794564054
 40
0.8113379941
 40
0.8431177837
 40
0.8747791713
 40
0.906307967
 40
0.9376927819
 40
0.9689251328
 40
1.0
 40
1.0
 40
1.0
 40
1.0
 10
11.4620168357
 20
9.1312388702
 30
0.0
 10
11.4643476839
 20
9.1334902958
 30
0.0
 10
11.4679813433
 20
9.1367310153
 30
0.0
 10
11.4730701826
 20
9.140752076
 30
0.0
 10
11.4783211207
 20
9.1445729888
 30
0.0
 10
11.4851726939
 20
9.1489606915
 30
0.0
 10
11.4923574248
 20
9.1527986242
 30
0.0
 10
11.4982829394
 20
9.1555289958
 30
0.0
 10
11.5043308963
 20
9.1580338931
 30
0.0
 10
11.512090122
 20
9.1607274362
 30
0.0
 10
11.5216522087
 20
9.163237734
 30
0.0
 10
11.5314229417
 20
9.1650161049
 30
0.0
 10
11.5413481774
 20
9.166052727
 30
0.0
 10
11.551373393
 20
9.1663420709
 30
0.0
 10
11.561443427
 20
9.1658826631
 30
0.0
 10
11.5715029319
 20
9.1646771576
 30
0.0
 10
11.5814966349
 20
9.1627322966
 30
0.0
 10
11.5913696492
 20
9.1600588737
 30
0.0
 10
11.6010677681
 20
9.1566716702
 30
0.0
 10
11.6105377596
 20
9.1525893714
 30
0.0
 10
11.6197276539
 20
9.147834463
 30
0.0
 10
11.6285870249
 20
9.1424331068
 30
0.0
 10
11.637067263
 20
9.136414997
 30
0.0
 10
11.6451218387
 20
9.1298131988
 30
0.0
 10
11.6527065547
 20
9.1226639672
 30
0.0
 10
11.6597797857
 20
9.1150065502
 30
0.0
 10
11.6663027045
 20
9.1068829753
 30
0.0
 10
11.6722394929
 20
9.0983378212
 30
0.0
 10
11.677557537
 20
9.0894179761
 30
0.0
 10
11.6822276039
 20
9.0801723819
 30
0.0
 10
11.6862240036
 20
9.0706517749
 30
0.0
 10
11.6895247248
 20
9.0609083886
 30
0.0
 10
11.6921115668
 20
9.0509957544
 30
0.0
 10
11.6939702194
 20
9.0409681007
 30
0.0
 10
11.6950903806
 20
9.0308812274
 30
0.0
 10
11.6953412749
 20
9.0241351131
 30
0.0
 10
11.6953412749
 20
9.0207718721
 30
0.0
  0
SPLINE
  5
34A
100
AcDbEntity
  8
0
100
AcDbSpline
 62
7
  6
CONTINUOUS
 70
0
 71
3
 72
41
 73
37
 74
0
 42
0.0000001
 43
0.0000001
 44
0.0000000001
 40
0.0
 40
0.0
 40
0.0
 40
0.0
 40
0.0299421204
 40
0.0449237657
 40
0.0599145156
 40
0.0899291707
 40
0.1200145979
 40
0.1350933581
 40
0.1501974797
 40
0.1804849775
 40
0.2108989666
 40
0.2414525863
 40
0.2721557519
 40
0.303014974
 40
0.3340332638
 40
0.3652101189
 40
0.3965415878
 40
0.4280204054
 40
0.4596361932
 40
0.4913757168
 40
0.5232231926
 40
0.5551606365
 40
0.5871682471
 40
0.6192248157
 40
0.6513081571
 40
0.6833955538
 40
0.7154642079
 40
0.7474916937
 40
0.7794564054
 40
0.8113379941
 40
0.8431177837
 40
0.8747791713
 40
0.906307967
 40
0.9376927819
 40
0.9689251328
 40
1.0
 40
1.0
 40
1.0
 40
1.0
 10
11.4620168357
 20
7.0786463389
 30
0.0
 10
11.4643476839
 20
7.0808977646
 30
0.0
 10
11.4679813433
 20
7.0841384841
 30
0.0
 10
11.4730701826
 20
7.0881595448
 30
0.0
 10
11.4783211207
 20
7.0919804576
 30
0.0
 10
11.4851726939
 20
7.0963681602
 30
0.0
 10
11.4923574248
 20
7.1002060929
 30
0.0
 10
11.4982829394
 20
7.1029364645
 30
0.0
 10
11.5043308963
 20
7.1054413618
 30
0.0
 10
11.512090122
 20
7.108134905
 30
0.0
 10
11.5216522087
 20
7.1106452028
 30
0.0
 10
11.5314229417
 20
7.1124235737
 30
0.0
 10
11.5413481774
 20
7.1134601957
 30
0.0
 10
11.551373393
 20
7.1137495396
 30
0.0
 10
11.561443427
 20
7.1132901318
 30
0.0
 10
11.5715029319
 20
7.1120846264
 30
0.0
 10
11.5814966349
 20
7.1101397653
 30
0.0
 10
11.5913696492
 20
7.1074663425
 30
0.0
 10
11.6010677681
 20
7.1040791389
 30
0.0
 10
11.6105377596
 20
7.0999968402
 30
0.0
 10
11.6197276539
 20
7.0952419318
 30
0.0
 10
11.6285870249
 20
7.0898405755
 30
0.0
 10
11.637067263
 20
7.0838224658
 30
0.0
 10
11.6451218387
 20
7.0772206675
 30
0.0
 10
11.6527065547
 20
7.0700714359
 30
0.0
 10
11.6597797857
 20
7.0624140189
 30
0.0
 10
11.6663027045
 20
7.054290444
 30
0.0
 10
11.6722394929
 20
7.0457452899
 30
0.0
 10
11.677557537
 20
7.0368254448
 30
0.0
 10
11.6822276039
 20
7.0275798506
 30
0.0
 10
11.6862240036
 20
7.0180592436
 30
0.0
 10
11.6895247248
 20
7.0083158573
 30
0.0
 10
11.6921115668
 20
6.9984032231
 30
0.0
 10
11.6939702194
 20
6.9883755694
 30
0.0
 10
11.6950903806
 20
6.9782886961
 30
0.0
 10
11.6953412749
 20
6.9715425818
 30
0.0
 10
11.6953412749
 20
6.9681793408
 30
0.0
  0
SPLINE
  5
34B
100
AcDbEntity
  8
0
100
AcDbSpline
 62
7
  6
CONTINUOUS
 70
0
 71
3
 72
41
 73
37
 74
0
 42
0.0000001
 43
0.0000001
 44
0.0000000001
 40
0.0
 40
0.0
 40
0.0
 40
0.0
 40
0.0299421204
 40
0.0449237657
 40
0.0599145156
 40
0.0899291707
 40
0.1200145979
 40
0.1350933581
 40
0.1501974797
 40
0.1804849775
 40
0.2108989666
 40
0.2414525863
 40
0.2721557519
 40
0.303014974
 40
0.3340332638
 40
0.3652101189
 40
0.3965415878
 40
0.4280204054
 40
0.4596361932
 40
0.4913757168
 40
0.5232231926
 40
0.5551606365
 40
0.5871682471
 40
0.6192248157
 40
0.6513081571
 40
0.6833955538
 40
0.7154642079
 40
0.7474916937
 40
0.7794564054
 40
0.8113379941
 40
0.8431177837
 40
0.8747791713
 40
0.906307967
 40
0.9376927819
 40
0.9689251328
 40
1.0
 40
1.0
 40
1.0
 40
1.0
 10
9.7117592437
 20
7.2000271152
 30
0.0
 10
9.7140900919
 20
7.2022785408
 30
0.0
 10
9.7177237513
 20
7.2055192603
 30
0.0
 10
9.7228125906
 20
7.209540321
 30
0.0
 10
9.7280635287
 20
7.2133612338
 30
0.0
 10
9.7349151019
 20
7.2177489365
 30
0.0
 10
9.7420998328
 20
7.2215868692
 30
0.0
 10
9.7480253474
 20
7.2243172408
 30
0.0
 10
9.7540733043
 20
7.2268221381
 30
0.0
 10
9.76183253
 20
7.2295156812
 30
0.0
 10
9.7713946167
 20
7.232025979
 30
0.0
 10
9.7811653497
 20
7.2338043499
 30
0.0
 10
9.7910905854
 20
7.234840972
 30
0.0
 10
9.801115801
 20
7.2351303159
 30
0.0
 10
9.811185835
 20
7.2346709081
 30
0.0
 10
9.8212453399
 20
7.2334654026
 30
0.0
 10
9.8312390429
 20
7.2315205416
 30
0.0
 10
9.8411120572
 20
7.2288471187
 30
0.0
 10
9.8508101761
 20
7.2254599152
 30
0.0
 10
9.8602801676
 20
7.2213776164
 30
0.0
 10
9.8694700619
 20
7.216622708
 30
0.0
 10
9.8783294328
 20
7.2112213518
 30
0.0
 10
9.886809671
 20
7.205203242
 30
0.0
 10
9.8948642467
 20
7.1986014438
 30
0.0
 10
9.9024489627
 20
7.1914522122
 30
0.0
 10
9.9095221937
 20
7.1837947952
 30
0.0
 10
9.9160451125
 20
7.1756712203
 30
0.0
 10
9.9219819009
 20
7.1671260662
 30
0.0
 10
9.927299945
 20
7.1582062211
 30
0.0
 10
9.9319700119
 20
7.1489606269
 30
0.0
 10
9.9359664116
 20
7.1394400199
 30
0.0
 10
9.9392671327
 20
7.1296966336
 30
0.0
 10
9.9418539748
 20
7.1197839994
 30
0.0
 10
9.9437126274
 20
7.1097563457
 30
0.0
 10
9.9448327886
 20
7.0996694724
 30
0.0
 10
9.9450836829
 20
7.0929233581
 30
0.0
 10
9.9450836829
 20
7.0895601171
 30
0.0
  0
SPLINE
  5
34C
100
AcDbEntity
  8
0
100
AcDbSpline
 62
7
  6
CONTINUOUS
 70
0
 71
3
 72
44
 73
40
 74
0
 42
0.0000001
 43
0.0000001
 44
0.0000000001
 40
0.0
 40
0.0
 40
0.0
 40
0.0
 40
0.0149722504
 40
0.0299475576
 40
0.0449289656
 40
0.0599194752
 40
0.0899336509
 40
0.1200185962
 40
0.1350971147
 40
0.150200993
 40
0.1804880038
 40
0.2109015036
 40
0.2414546317
 40
0.2721573035
 40
0.3030160297
 40
0.3340338212
 40
0.3652101756
 40
0.3965411416
 40
0.4280194541
 40
0.4596347352
 40
0.4913737507
 40
0.5232207176
 40
0.5551576521
 40
0.5871647534
 40
0.6192208128
 40
0.6513036453
 40
0.6833905334
 40
0.7154586792
 40
0.7314811024
 40
0.747490488
 40
0.7794546928
 40
0.811335776
 40
0.8431150609
 40
0.8747759499
 40
0.9063042323
 40
0.9376885956
 40
0.9533263523
 40
0.9689255432
 40
1.0
 40
1.0
 40
1.0
 40
1.0
 10
10.1920120276
 20
7.3190019546
 30
0.0
 10
10.1935674564
 20
7.3205043915
 30
0.0
 10
10.1967387172
 20
7.3234480839
 30
0.0
 10
10.2016678384
 20
7.3276715376
 30
0.0
 10
10.206762994
 20
7.331697703
 30
0.0
 10
10.2137703124
 20
7.3367967098
 30
0.0
 10
10.2229139342
 20
7.3426523057
 30
0.0
 10
10.2325020683
 20
7.3477741504
 30
0.0
 10
10.2404097899
 20
7.3514179228
 30
0.0
 10
10.248480901
 20
7.3547608161
 30
0.0
 10
10.2588357462
 20
7.3583554543
 30
0.0
 10
10.2715965479
 20
7.3617055643
 30
0.0
 10
10.2846357991
 20
7.364078897
 30
0.0
 10
10.2978812422
 20
7.3654623463
 30
0.0
 10
10.311260115
 20
7.3658485315
 30
0.0
 10
10.3246988026
 20
7.3652354873
 30
0.0
 10
10.3381234419
 20
7.3636267561
 30
0.0
 10
10.35146027
 20
7.3610313359
 30
0.0
 10
10.3646360389
 20
7.3574636315
 30
0.0
 10
10.3775784086
 20
7.3529433687
 30
0.0
 10
10.3902163393
 20
7.3474954836
 30
0.0
 10
10.4024804764
 20
7.341149983
 30
0.0
 10
10.4143035233
 20
7.3339417816
 30
0.0
 10
10.4256206136
 20
7.3259105003
 30
0.0
 10
10.4363696342
 20
7.3171002889
 30
0.0
 10
10.4464916664
 20
7.307559438
 30
0.0
 10
10.4559309178
 20
7.2973406692
 30
0.0
 10
10.4631878826
 20
7.2883028631
 30
0.0
 10
10.4686022564
 20
7.2807906315
 30
0.0
 10
10.473744206
 20
7.2731074391
 30
0.0
 10
10.479656002
 20
7.2631918294
 30
0.0
 10
10.485888178
 20
7.2508535893
 30
0.0
 10
10.4912215126
 20
7.2381480881
 30
0.0
 10
10.4956264058
 20
7.225145277
 30
0.0
 10
10.4990785922
 20
7.211916864
 30
0.0
 10
10.5011482468
 20
7.2007506443
 30
0.0
 10
10.5023092692
 20
7.1917787351
 30
0.0
 10
10.5031378579
 20
7.1828154069
 30
0.0
 10
10.5033887459
 20
7.1760705692
 30
0.0
 10
10.5033887459
 20
7.1715822361
 30
0.0
  0
SPLINE
  5
34D
100
AcDbEntity
  8
0
100
AcDbSpline
 62
7
  6
CONTINUOUS
 70
0
 71
3
 72
25
 73
21
 74
0
 42
0.0000001
 43
0.0000001
 44
0.0000000001
 40
0.0
 40
0.0
 40
0.0
 40
0.0
 40
0.0629491572
 40
0.1257006516
 40
0.1882760642
 40
0.2507003199
 40
0.3130014785
 40
0.3752104454
 40
0.4373605748
 40
0.4994871641
 40
0.5616268493
 40
0.623816898
 40
0.6860944646
 40
0.7172820503
 40
0.7485049302
 40
0.8110643288
 40
0.873813315
 40
0.90527225
 40
0.9367902694
 40
1.0
 40
1.0
 40
1.0
 40
1.0
 10
10.1566597824
 20
9.0667713913
 30
0.0
 10
10.1577286258
 20
9.0701341816
 30
0.0
 10
10.1600694103
 20
9.0767856755
 30
0.0
 10
10.1641886898
 20
9.0865094156
 30
0.0
 10
10.1689013943
 20
9.0959275866
 30
0.0
 10
10.174195598
 20
9.1050024688
 30
0.0
 10
10.1800570392
 20
9.1136972241
 30
0.0
 10
10.1864687361
 20
9.1219753163
 30
0.0
 10
10.1934109421
 20
9.1298009852
 30
0.0
 10
10.2008610052
 20
9.1371394648
 30
0.0
 10
10.2087934372
 20
9.1439573801
 30
0.0
 10
10.2171794635
 20
9.1502228541
 30
0.0
 10
10.2245172606
 20
9.1549573267
 30
0.0
 10
10.2305788345
 20
9.1584392963
 30
0.0
 10
10.2367706363
 20
9.1617180061
 30
0.0
 10
10.2447333151
 20
9.1654210548
 30
0.0
 10
10.2529440007
 20
9.1685726895
 30
0.0
 10
10.2596455826
 20
9.1707574785
 30
0.0
 10
10.2664424397
 20
9.1727191694
 30
0.0
 10
10.2716179723
 20
9.1739299457
 30
0.0
 10
10.2750932727
 20
9.1746201367
 30
0.0
  0
SPLINE
  5
34E
100
AcDbEntity
  8
0
100
AcDbSpline
 62
7
  6
CONTINUOUS
 70
0
 71
3
 72
24
 73
20
 74
0
 42
0.0000001
 43
0.0000001
 44
0.0000000001
 40
0.0
 40
0.0
 40
0.0
 40
0.0
 40
0.1259231918
 40
0.1889724628
 40
0.2520404985
 40
0.3151032411
 40
0.3781340869
 40
0.4411042245
 40
0.503982909
 40
0.5667379275
 40
0.6293363068
 40
0.691745301
 40
0.7228731929
 40
0.7539421596
 40
0.8158812144
 40
0.8775467514
 40
0.908275224
 40
0.9389301354
 40
1.0
 40
1.0
 40
1.0
 40
1.0
 10
10.6138415661
 20
8.3256480621
 30
0.0
 10
10.6080285816
 20
8.3297822033
 30
0.0
 10
10.5995824426
 20
8.3363931872
 30
0.0
 10
10.5890063404
 20
8.3459903189
 30
0.0
 10
10.5814371524
 20
8.3535834903
 30
0.0
 10
10.5742715531
 20
8.3615570928
 30
0.0
 10
10.5675457548
 20
8.3698984781
 30
0.0
 10
10.5612977944
 20
8.3785911308
 30
0.0
 10
10.5555663998
 20
8.3876146801
 30
0.0
 10
10.5503905198
 20
8.3969444232
 30
0.0
 10
10.5458086394
 20
8.4065505428
 30
0.0
 10
10.5425128655
 20
8.4147653588
 30
0.0
 10
10.5402096447
 20
8.4214387382
 30
0.0
 10
10.5381373075
 20
8.4281595342
 30
0.0
 10
10.5359801548
 20
8.4366590523
 30
0.0
 10
10.5344194894
 20
8.4452688456
 30
0.0
 10
10.5335420726
 20
8.4521851149
 30
0.0
 10
10.5329150109
 20
8.4590943421
 30
0.0
 10
10.5327248786
 20
8.4642927787
 30
0.0
 10
10.5327248786
 20
8.4677521959
 30
0.0
  0
SPLINE
  5
34F
100
AcDbEntity
  8
0
100
AcDbSpline
 62
7
  6
CONTINUOUS
 70
0
 71
3
 72
24
 73
20
 74
0
 42
0.0000001
 43
0.0000001
 44
0.0000000001
 40
0.0
 40
0.0
 40
0.0
 40
0.0
 40
0.1259231918
 40
0.1889724628
 40
0.2520404985
 40
0.3151032411
 40
0.3781340869
 40
0.4411042245
 40
0.503982909
 40
0.5667379275
 40
0.6293363068
 40
0.691745301
 40
0.7228731929
 40
0.7539421596
 40
0.8158812144
 40
0.8775467514
 40
0.908275224
 40
0.9389301354
 40
1.0
 40
1.0
 40
1.0
 40
1.0
 10
10.6138415661
 20
7.5403503539
 30
0.0
 10
10.6080285815
 20
7.544484495
 30
0.0
 10
10.5995824425
 20
7.551095479
 30
0.0
 10
10.5890063404
 20
7.5606926106
 30
0.0
 10
10.5814371523
 20
7.5682857821
 30
0.0
 10
10.5742715531
 20
7.5762593846
 30
0.0
 10
10.5675457548
 20
7.5846007698
 30
0.0
 10
10.5612977944
 20
7.5932934225
 30
0.0
 10
10.5555663998
 20
7.6023169718
 30
0.0
 10
10.5503905198
 20
7.6116467149
 30
0.0
 10
10.5458086394
 20
7.6212528345
 30
0.0
 10
10.5425128655
 20
7.6294676505
 30
0.0
 10
10.5402096447
 20
7.63614103
 30
0.0
 10
10.5381373075
 20
7.6428618259
 30
0.0
 10
10.5359801548
 20
7.651361344
 30
0.0
 10
10.5344194894
 20
7.6599711373
 30
0.0
 10
10.5335420726
 20
7.6668874066
 30
0.0
 10
10.5329150109
 20
7.6737966338
 30
0.0
 10
10.5327248786
 20
7.6789950704
 30
0.0
 10
10.5327248786
 20
7.6824544876
 30
0.0
  0
SPLINE
  5
350
100
AcDbEntity
  8
0
100
AcDbSpline
 62
7
  6
CONTINUOUS
 70
0
 71
3
 72
36
 73
32
 74
0
 42
0.0000001
 43
0.0000001
 44
0.0000000001
 40
0.0
 40
0.0
 40
0.0
 40
0.0
 40
0.031402613
 40
0.0625984383
 40
0.0936027819
 40
0.1244374917
 40
0.1551305724
 40
0.1857132167
 40
0.2162175146
 40
0.2466746251
 40
0.2771134807
 40
0.3075600146
 40
0.3380368109
 40
0.3685630769
 40
0.3991548311
 40
0.4298252016
 40
0.4605847698
 40
0.4914419206
 40
0.5224031632
 40
0.5534734064
 40
0.6159299983
 40
0.647343907
 40
0.6788744487
 40
0.7422607604
 40
0.7741352191
 40
0.8061194721
 40
0.8703770242
 40
0.9026624093
 40
0.9350346058
 40
0.9674842384
 40
1.0
 40
1.0
 40
1.0
 40
1.0
 10
10.9560497014
 20
7.6530967497
 30
0.0
 10
10.9560497014
 20
7.6485235492
 30
0.0
 10
10.9556083516
 20
7.6394008414
 30
0.0
 10
10.9536185997
 20
7.6258943183
 30
0.0
 10
10.9503391327
 20
7.6127260155
 30
0.0
 10
10.9458263957
 20
7.6000065966
 30
0.0
 10
10.9401534209
 20
7.5878292981
 30
0.0
 10
10.9334043936
 20
7.5762709206
 30
0.0
 10
10.9256697019
 20
7.5653913034
 30
0.0
 10
10.9170416746
 20
7.5552348223
 30
0.0
 10
10.9076112736
 20
7.5458324026
 30
0.0
 10
10.8974658039
 20
7.5372039014
 30
0.0
 10
10.8866875261
 20
7.5293604571
 30
0.0
 10
10.8753529908
 20
7.5223066226
 30
0.0
 10
10.8635328846
 20
7.5160421852
 30
0.0
 10
10.8512922523
 20
7.5105636623
 30
0.0
 10
10.8386908381
 20
7.5058654794
 30
0.0
 10
10.8257839225
 20
7.5019409176
 30
0.0
 10
10.8126218254
 20
7.4987827041
 30
0.0
 10
10.7947699118
 20
7.4955791336
 30
0.0
 10
10.7766087278
 20
7.4938896772
 30
0.0
 10
10.7583408254
 20
7.4936787765
 30
0.0
 10
10.7399520771
 20
7.4944508151
 30
0.0
 10
10.7215832635
 20
7.4966953957
 30
0.0
 10
10.7034165849
 20
7.500386325
 30
0.0
 10
10.6853474327
 20
7.5050634124
 30
0.0
 10
10.6676187843
 20
7.5112010036
 30
0.0
 10
10.6504340294
 20
7.5187789521
 30
0.0
 10
10.6378265045
 20
7.5252032512
 30
0.0
 10
10.6255797146
 20
7.5323564984
 30
0.0
 10
10.6177004866
 20
7.537605925
 30
0.0
 10
10.6138415661
 20
7.5403503539
 30
0.0
  0
SPLINE
  5
351
100
AcDbEntity
  8
0
100
AcDbSpline
 62
7
  6
CONTINUOUS
 70
0
 71
3
 72
18
 73
14
 74
0
 42
0.0000001
 43
0.0000001
 44
0.0000000001
 40
0.0
 40
0.0
 40
0.0
 40
0.0
 40
0.0548620617
 40
0.1099280712
 40
0.165399495
 40
0.2214731228
 40
0.2783387257
 40
0.3361775116
 40
0.4554063743
 40
0.5804416611
 40
0.7123343194
 40
0.8519580206
 40
1.0
 40
1.0
 40
1.0
 40
1.0
 10
10.6131661014
 20
10.0431278718
 30
0.0
 10
10.6131661039
 20
10.0438905025
 30
0.0
 10
10.6132145166
 20
10.0454190367
 30
0.0
 10
10.6134321567
 20
10.047709352
 30
0.0
 10
10.613794777
 20
10.049998347
 30
0.0
 10
10.6143022552
 20
10.0522851851
 30
0.0
 10
10.614954381
 20
10.0545692927
 30
0.0
 10
10.6160269901
 20
10.0576408036
 30
0.0
 10
10.6177452929
 20
10.0614824385
 30
0.0
 10
10.6203606515
 20
10.0660194274
 30
0.0
 10
10.6235460207
 20
10.0705270524
 30
0.0
 10
10.6272965531
 20
10.075000781
 30
0.0
 10
10.6300859597
 20
10.0778712249
 30
0.0
 10
10.6315661231
 20
10.0793009531
 30
0.0
  0
SPLINE
  5
352
100
AcDbEntity
  8
0
100
AcDbSpline
 62
7
  6
CONTINUOUS
 70
0
 71
3
 72
98
 73
94
 74
0
 42
0.0000001
 43
0.0000001
 44
0.0000000001
 40
0.0
 40
0.0
 40
0.0
 40
0.0
 40
0.0041939553
 40
0.0085762448
 40
0.0131519833
 40
0.0179255157
 40
0.0229003708
 40
0.0280790893
 40
0.0334634539
 40
0.0390545758
 40
0.044853011
 40
0.050858763
 40
0.0570713666
 40
0.0634899249
 40
0.0701131495
 40
0.0769394067
 40
0.0839667195
 40
0.091192834
 40
0.1062306023
 40
0.1220298185
 40
0.1385635086
 40
0.1558015131
 40
0.1737108355
 40
0.1922559366
 40
0.2113989882
 40
0.2311000984
 40
0.2513175161
 40
0.2720078189
 40
0.2931260908
 40
0.3146260906
 40
0.3364604144
 40
0.3585806542
 40
0.3809375523
 40
0.4034811538
 40
0.426160958
 40
0.4489260676
 40
0.4717253378
 40
0.4945075251
 40
0.5172214354
 40
0.5398160724
 40
0.5622407867
 40
0.5844454248
 40
0.6063804801
 40
0.6279972441
 40
0.649247961
 40
0.6700859842
 40
0.6904659376
 40
0.7103438814
 40
0.7296774872
 40
0.7484262213
 40
0.7665515437
 40
0.7840171253
 40
0.8007890915
 40
0.8168363012
 40
0.8321306757
 40
0.8394879179
 40
0.8466480404
 40
0.8536085741
 40
0.8603673616
 40
0.8669225327
 40
0.8732725674
 40
0.8794163035
 40
0.8853529823
 40
0.8910822945
 40
0.8966044104
 40
0.9019200692
 40
0.9070305995
 40
0.9119380552
 40
0.9166452379
 40
0.9211558794
 40
0.925474681
 40
0.9296075392
 40
0.9335616146
 40
0.9373455889
 40
0.940969761
 40
0.9444462997
 40
0.9477893305
 40
0.9510151011
 40
0.9541419633
 40
0.9571903194
 40
0.9601823634
 40
0.963141701
 40
0.9660927997
 40
0.969060351
 40
0.9720685997
 40
0.9751407383
 40
0.9782984034
 40
0.981561333
 40
0.9849471444
 40
0.9884713895
 40
0.9921476219
 40
0.9959873773
 40
1.0
 40
1.0
 40
1.0
 40
1.0
 10
10.5716787184
 20
10.1433415635
 30
0.0
 10
10.5729818055
 20
10.144600249
 30
0.0
 10
10.5757112891
 20
10.147107733
 30
0.0
 10
10.5800644938
 20
10.1507610637
 30
0.0
 10
10.5847623113
 20
10.1543853379
 30
0.0
 10
10.5898017026
 20
10.1579783532
 30
0.0
 10
10.5951797904
 20
10.1615380759
 30
0.0
 10
10.600893392
 20
10.1650625059
 30
0.0
 10
10.6069391496
 20
10.168549519
 30
0.0
 10
10.6133134525
 20
10.1719970875
 30
0.0
 10
10.6200125247
 20
10.1754031418
 30
0.0
 10
10.6270323736
 20
10.1787656747
 30
0.0
 10
10.634368817
 20
10.1820826646
 30
0.0
 10
10.6420174706
 20
10.1853521248
 30
0.0
 10
10.6499737597
 20
10.188572101
 30
0.0
 10
10.6582329205
 20
10.1917406372
 30
0.0
 10
10.6667900106
 20
10.1948558731
 30
0.0
 10
10.6787491018
 20
10.19899086
 30
0.0
 10
10.694412597
 20
10.2040008897
 30
0.0
 10
10.7140703333
 20
10.209694271
 30
0.0
 10
10.7347843165
 20
10.2151322716
 30
0.0
 10
10.7565047877
 20
10.2203017057
 30
0.0
 10
10.7791797207
 20
10.2251900243
 30
0.0
 10
10.8027546753
 20
10.2297853636
 30
0.0
 10
10.827173023
 20
10.234076572
 30
0.0
 10
10.8523760678
 20
10.2380532387
 30
0.0
 10
10.878303202
 20
10.241705719
 30
0.0
 10
10.9048920547
 20
10.2450251568
 30
0.0
 10
10.9320786465
 20
10.248003506
 30
0.0
 10
10.959797547
 20
10.2506335489
 30
0.0
 10
10.9879820344
 20
10.2529089136
 30
0.0
 10
11.0165642584
 20
10.2548240884
 30
0.0
 10
11.0454754051
 20
10.2563744348
 30
0.0
 10
11.0746458639
 20
10.2575561988
 30
0.0
 10
11.1040053966
 20
10.258366519
 30
0.0
 10
11.1334833075
 20
10.2588034334
 30
0.0
 10
11.1630086143
 20
10.2588658845
 30
0.0
 10
11.1925102202
 20
10.2585537209
 30
0.0
 10
11.2219170857
 20
10.2578676986
 30
0.0
 10
11.2511584005
 20
10.2568094784
 30
0.0
 10
11.2801637552
 20
10.2553816225
 30
0.0
 10
11.3088633113
 20
10.2535875884
 30
0.0
 10
11.3371879708
 20
10.2514317209
 30
0.0
 10
11.3650695438
 20
10.2489192419
 30
0.0
 10
11.3924409143
 20
10.246056238
 30
0.0
 10
11.4192362034
 20
10.2428496466
 30
0.0
 10
11.4453909304
 20
10.2393072398
 30
0.0
 10
11.470842171
 20
10.2354376057
 30
0.0
 10
11.4955287125
 20
10.2312501286
 30
0.0
 10
11.5193912048
 20
10.2267549664
 30
0.0
 10
11.5423723149
 20
10.2219630271
 30
0.0
 10
11.5644168519
 20
10.2168859394
 30
0.0
 10
11.5854719874
 20
10.2115360299
 30
0.0
 10
11.6054871258
 20
10.2059262679
 30
0.0
 10
11.6214598721
 20
10.2009845678
 30
0.0
 10
11.6336743203
 20
10.1969021714
 30
0.0
 10
11.6424271924
 20
10.1938235508
 30
0.0
 10
11.6508855332
 20
10.190690349
 30
0.0
 10
11.6590442849
 20
10.1875044526
 30
0.0
 10
11.6668985538
 20
10.1842677659
 30
0.0
 10
11.6744436416
 20
10.1809822436
 30
0.0
 10
11.6816750371
 20
10.1776498537
 30
0.0
 10
11.6885884211
 20
10.1742725864
 30
0.0
 10
11.6951796779
 20
10.1708524722
 30
0.0
 10
11.7014448776
 20
10.167391523
 30
0.0
 10
11.7073803131
 20
10.1638918208
 30
0.0
 10
11.7129824505
 20
10.1603553853
 30
0.0
 10
11.7182480018
 20
10.1567843326
 30
0.0
 10
11.72317383
 20
10.1531806724
 30
0.0
 10
11.7277570677
 20
10.1495465293
 30
0.0
 10
11.7319949651
 20
10.145883883
 30
0.0
 10
11.7358850581
 20
10.1421948347
 30
0.0
 10
11.7394249523
 20
10.1384813164
 30
0.0
 10
11.7426125366
 20
10.13474538
 30
0.0
 10
11.7454457063
 20
10.1309889177
 30
0.0
 10
11.7479226117
 20
10.1272139504
 30
0.0
 10
11.7500413501
 20
10.1234224127
 30
0.0
 10
11.7518002416
 20
10.1196164211
 30
0.0
 10
11.7531975648
 20
10.11579816
 30
0.0
 10
11.754231865
 20
10.1119700884
 30
0.0
 10
11.7549018242
 20
10.1081348837
 30
0.0
 10
11.7552065576
 20
10.104295499
 30
0.0
 10
11.7551456055
 20
10.1004550534
 30
0.0
 10
11.7547190566
 20
10.0966167233
 30
0.0
 10
11.7539275448
 20
10.092783579
 30
0.0
 10
11.7527720801
 20
10.0889584937
 30
0.0
 10
11.7512540692
 20
10.0851440544
 30
0.0
 10
11.7493750296
 20
10.0813426552
 30
0.0
 10
11.7471367389
 20
10.0775564183
 30
0.0
 10
11.7445408811
 20
10.073787406
 30
0.0
 10
11.7415892993
 20
10.0700374937
 30
0.0
 10
11.7382840842
 20
10.0663088919
 30
0.0
 10
11.7359002281
 20
10.0638932539
 30
0.0
 10
11.7346534821
 20
10.0626889897
 30
0.0
  0
SPLINE
  5
353
100
AcDbEntity
  8
0
100
AcDbSpline
 62
7
  6
CONTINUOUS
 70
0
 71
3
 72
19
 73
15
 74
0
 42
0.0000001
 43
0.0000001
 44
0.0000000001
 40
0.0
 40
0.0
 40
0.0
 40
0.0
 40
0.12732766
 40
0.2538196711
 40
0.3795264658
 40
0.5045235362
 40
0.5668075958
 40
0.6289556124
 40
0.6909843715
 40
0.7529118454
 40
0.8147570127
 40
0.8765397119
 40
0.9382804145
 40
1.0
 40
1.0
 40
1.0
 40
1.0
 10
11.4239161016
 20
6.9870027405
 30
0.0
 10
11.4239161016
 20
6.9913298608
 30
0.0
 10
11.4243292464
 20
6.999961655
 30
0.0
 10
11.4261977442
 20
7.0127434985
 30
0.0
 10
11.4292956976
 20
7.0252035778
 30
0.0
 10
11.4328844245
 20
7.0352371765
 30
0.0
 10
11.4363357973
 20
7.0429826226
 30
0.0
 10
11.4392058537
 20
7.0486352965
 30
0.0
 10
11.442353399
 20
7.0541241586
 30
0.0
 10
11.4457712694
 20
7.0594367303
 30
0.0
 10
11.4494515795
 20
7.0645606778
 30
0.0
 10
11.4533858476
 20
7.0694842664
 30
0.0
 10
11.4575648762
 20
7.0741959586
 30
0.0
 10
11.4605082085
 20
7.0771891175
 30
0.0
 10
11.4620168357
 20
7.0786463389
 30
0.0
  0
SPLINE
  5
354
100
AcDbEntity
  8
0
100
AcDbSpline
 62
7
  6
CONTINUOUS
 70
0
 71
3
 72
41
 73
37
 74
0
 42
0.0000001
 43
0.0000001
 44
0.0000000001
 40
0.0
 40
0.0
 40
0.0
 40
0.0
 40
0.0071757878
 40
0.0146740945
 40
0.0225035609
 40
0.0306713549
 40
0.0391834197
 40
0.0480443679
 40
0.0572572149
 40
0.0668238567
 40
0.076745221
 40
0.0870212626
 40
0.0976512706
 40
0.1086336674
 40
0.131645286
 40
0.1560326206
 40
0.1817627982
 40
0.2087958624
 40
0.2370856423
 40
0.2665805176
 40
0.2972240341
 40
0.3289554007
 40
0.3617098966
 40
0.3954192459
 40
0.4300120062
 40
0.4654138894
 40
0.5015480547
 40
0.5383353725
 40
0.5756947244
 40
0.6135432851
 40
0.6517967806
 40
0.6903697378
 40
0.7681261148
 40
0.8461161177
 40
0.9236388544
 40
1.0
 40
1.0
 40
1.0
 40
1.0
 10
11.9216454255
 20
9.8383093096
 30
0.0
 10
11.9209008279
 20
9.8375900836
 30
0.0
 10
11.919341136
 20
9.8361572606
 30
0.0
 10
11.9168535875
 20
9.8340696429
 30
0.0
 10
11.9141690973
 20
9.8319985763
 30
0.0
 10
11.9112894111
 20
9.8299454216
 30
0.0
 10
11.908216233
 20
9.827911281
 30
0.0
 10
11.9049513192
 20
9.8258973567
 30
0.0
 10
11.9014966094
 20
9.8239047684
 30
0.0
 10
11.8978541486
 20
9.821934721
 30
0.0
 10
11.8940261003
 20
9.8199884116
 30
0.0
 10
11.8900147637
 20
9.8180669565
 30
0.0
 10
11.8858225046
 20
9.8161715311
 30
0.0
 10
11.879902462
 20
9.8136410342
 30
0.0
 10
11.8720616391
 20
9.8105594746
 30
0.0
 10
11.8621145744
 20
9.8070382359
 30
0.0
 10
11.8515118233
 20
9.8036468322
 30
0.0
 10
11.8402787768
 20
9.800393477
 30
0.0
 10
11.8284422268
 20
9.7972860499
 30
0.0
 10
11.816030525
 20
9.7943320875
 30
0.0
 10
11.8030734246
 20
9.7915387595
 30
0.0
 10
11.789602022
 20
9.7889128502
 30
0.0
 10
11.7756486779
 20
9.7864607349
 30
0.0
 10
11.7612469362
 20
9.7841883554
 30
0.0
 10
11.7464314322
 20
9.7821012226
 30
0.0
 10
11.7312378037
 20
9.7802043979
 30
0.0
 10
11.7157026077
 20
9.7785024857
 30
0.0
 10
11.6998632349
 20
9.7769996073
 30
0.0
 10
11.6837578123
 20
9.7756993982
 30
0.0
 10
11.6674251197
 20
9.7746050138
 30
0.0
 10
11.650904445
 20
9.7737190853
 30
0.0
 10
11.6286208769
 20
9.7728163963
 30
0.0
 10
11.6005897864
 20
9.772224287
 30
0.0
 10
11.5669333098
 20
9.7723661633
 30
0.0
 10
11.5334925798
 20
9.7733573491
 30
0.0
 10
11.5113233006
 20
9.774590805
 30
0.0
 10
11.5003332435
 20
9.775352968
 30
0.0
  0
SPLINE
  5
355
100
AcDbEntity
  8
0
100
AcDbSpline
 62
7
  6
CONTINUOUS
 70
0
 71
3
 72
90
 73
86
 74
0
 42
0.0000001
 43
0.0000001
 44
0.0000000001
 40
0.0
 40
0.0
 40
0.0
 40
0.0
 40
0.0028079913
 40
0.0056356663
 40
0.0085022657
 40
0.0114261867
 40
0.0144246508
 40
0.0175135061
 40
0.0240146653
 40
0.0274543675
 40
0.0310325258
 40
0.0347575671
 40
0.0386366545
 40
0.0426758777
 40
0.0468802819
 40
0.0512540621
 40
0.0558006006
 40
0.0605225775
 40
0.065422072
 40
0.0705005645
 40
0.0757590893
 40
0.0811981855
 40
0.0868180245
 40
0.0926184023
 40
0.0985987713
 40
0.1047583178
 40
0.1110959024
 40
0.1242991307
 40
0.1381952556
 40
0.1527673358
 40
0.167995574
 40
0.1838576429
 40
0.2003289529
 40
0.2173828741
 40
0.2349909274
 40
0.253122959
 40
0.2717472924
 40
0.290830867
 40
0.3103393655
 40
0.3302373342
 40
0.3504882954
 40
0.3710548606
 40
0.39189884
 40
0.4129813472
 40
0.434262902
 40
0.4557035323
 40
0.4772628737
 40
0.4989002714
 40
0.520574881
 40
0.5422457679
 40
0.563872007
 40
0.5854127808
 40
0.6068274797
 40
0.6280758032
 40
0.6491178609
 40
0.6699142732
 40
0.6904262726
 40
0.7106158073
 40
0.7304456461
 40
0.7498794889
 40
0.76888208
 40
0.7874193215
 40
0.8054583947
 40
0.8229678896
 40
0.8399179453
 40
0.8562804048
 40
0.8720289943
 40
0.8871395178
 40
0.9015900867
 40
0.9153613971
 40
0.9284370676
 40
0.9347100491
 40
0.9408045578
 40
0.9467195527
 40
0.9524543241
 40
0.9580084414
 40
0.9633818287
 40
0.9685748073
 40
0.9735880717
 40
0.9784228096
 40
0.9830806797
 40
0.9875640336
 40
0.9918758917
 40
0.9960198252
 40
1.0
 40
1.0
 40
1.0
 40
1.0
 10
11.6931660991
 20
10.0431278718
 30
0.0
 10
11.6931661025
 20
10.0441769142
 30
0.0
 10
11.6930742183
 20
10.0462834865
 30
0.0
 10
11.692661464
 20
10.0494366648
 30
0.0
 10
11.6919740196
 20
10.0525859919
 30
0.0
 10
11.6910125854
 20
10.0557292069
 30
0.0
 10
11.6897780125
 20
10.0588648035
 30
0.0
 10
11.6877346439
 20
10.0631045195
 30
0.0
 10
11.6851610191
 20
10.0672556153
 30
0.0
 10
11.6821302097
 20
10.0712977365
 30
0.0
 10
11.6795466345
 20
10.0743718859
 30
0.0
 10
11.6766972918
 20
10.0774291954
 30
0.0
 10
11.673583461
 20
10.080468687
 30
0.0
 10
11.6702067389
 20
10.08348879
 30
0.0
 10
11.6665688448
 20
10.0864881757
 30
0.0
 10
11.6626715662
 20
10.0894653655
 30
0.0
 10
11.6585168533
 20
10.0924189458
 30
0.0
 10
11.6541067756
 20
10.0953474894
 30
0.0
 10
11.6494435109
 20
10.0982495233
 30
0.0
 10
11.6445294069
 20
10.1011236655
 30
0.0
 10
11.6393668927
 20
10.1039684318
 30
0.0
 10
11.6339585695
 20
10.106782449
 30
0.0
 10
11.6283071355
 20
10.1095642803
 30
0.0
 10
11.6224154271
 20
10.1123125322
 30
0.0
 10
11.6162864107
 20
10.1150258372
 30
0.0
 10
11.6099231493
 20
10.1177028101
 30
0.0
 10
11.6010087728
 20
10.1212706462
 30
0.0
 10
11.5892963232
 20
10.125620336
 30
0.0
 10
11.5745458392
 20
10.1306053777
 30
0.0
 10
11.5589437288
 20
10.1354144417
 30
0.0
 10
11.5425214575
 20
10.1400377522
 30
0.0
 10
11.5253120056
 20
10.144465897
 30
0.0
 10
11.5073500467
 20
10.1486898563
 30
0.0
 10
11.4886717971
 20
10.1527010238
 30
0.0
 10
11.4693149562
 20
10.1564912306
 30
0.0
 10
11.4493186168
 20
10.1600527573
 30
0.0
 10
11.4287231811
 20
10.1633783516
 30
0.0
 10
11.4075702756
 20
10.1664612424
 30
0.0
 10
11.3859026649
 20
10.1692951538
 30
0.0
 10
11.3637641646
 20
10.1718743163
 30
0.0
 10
11.3411995518
 20
10.1741934836
 30
0.0
 10
11.318254472
 20
10.1762479392
 30
0.0
 10
11.2949753447
 20
10.1780335052
 30
0.0
 10
11.2714092675
 20
10.1795465504
 30
0.0
 10
11.2476039216
 20
10.1807839977
 30
0.0
 10
11.2236074749
 20
10.1817433297
 30
0.0
 10
11.1994684843
 20
10.1824225951
 30
0.0
 10
11.1752357969
 20
10.182820415
 30
0.0
 10
11.1509584496
 20
10.1829359817
 30
0.0
 10
11.1266855697
 20
10.1827690604
 30
0.0
 10
11.1024662754
 20
10.1823199901
 30
0.0
 10
11.0783495764
 20
10.1815896829
 30
0.0
 10
11.0543842746
 20
10.1805796212
 30
0.0
 10
11.0306188635
 20
10.17929186
 30
0.0
 10
11.0071014298
 20
10.1777290188
 30
0.0
 10
10.9838795557
 20
10.175894276
 30
0.0
 10
10.9610002225
 20
10.1737913628
 30
0.0
 10
10.9385097159
 20
10.171424556
 30
0.0
 10
10.9164535307
 20
10.1687986685
 30
0.0
 10
10.8948762759
 20
10.1659190428
 30
0.0
 10
10.8738215829
 20
10.1627915412
 30
0.0
 10
10.8533320156
 20
10.1594225308
 30
0.0
 10
10.8334489843
 20
10.1558188712
 30
0.0
 10
10.8142126593
 20
10.1519879009
 30
0.0
 10
10.795661886
 20
10.1479374224
 30
0.0
 10
10.7778341014
 20
10.1436756849
 30
0.0
 10
10.7607652443
 20
10.1392113716
 30
0.0
 10
10.7444896971
 20
10.1345535756
 30
0.0
 10
10.7290401324
 20
10.129711777
 30
0.0
 10
10.7144477009
 20
10.1246958166
 30
0.0
 10
10.7028711034
 20
10.1203208522
 30
0.0
 10
10.6940681706
 20
10.1167336266
 30
0.0
 10
10.6877897227
 20
10.1140432855
 30
0.0
 10
10.6817466544
 20
10.111317109
 30
0.0
 10
10.6759419855
 20
10.1085564857
 30
0.0
 10
10.6703786361
 20
10.1057627932
 30
0.0
 10
10.6650593966
 20
10.1029374233
 30
0.0
 10
10.6599869158
 20
10.100081817
 30
0.0
 10
10.6551637551
 20
10.0971973504
 30
0.0
 10
10.6505923054
 20
10.0942855251
 30
0.0
 10
10.646274856
 20
10.0913477258
 30
0.0
 10
10.6422135148
 20
10.0883853895
 30
0.0
 10
10.6384102688
 20
10.0853998925
 30
0.0
 10
10.6348672052
 20
10.0823928311
 30
0.0
 10
10.6326356263
 20
10.0803340138
 30
0.0
 10
10.6315661231
 20
10.0793009531
 30
0.0
  0
SPLINE
  5
356
100
AcDbEntity
  8
0
100
AcDbSpline
 62
7
  6
CONTINUOUS
 70
0
 71
3
 72
41
 73
37
 74
0
 42
0.0000001
 43
0.0000001
 44
0.0000000001
 40
0.0
 40
0.0
 40
0.0
 40
0.0
 40
0.0071758425
 40
0.0146741453
 40
0.0225035656
 40
0.0306713257
 40
0.0391834036
 40
0.0480443729
 40
0.0572572157
 40
0.0668238661
 40
0.0767452117
 40
0.087021259
 40
0.0976512753
 40
0.1086336553
 40
0.1316452786
 40
0.1560326285
 40
0.1817628121
 40
0.2087958578
 40
0.2370856249
 40
0.2665805114
 40
0.2972240455
 40
0.3289554128
 40
0.3617098907
 40
0.3954192316
 40
0.4300120033
 40
0.4654138991
 40
0.5015480605
 40
0.5383353682
 40
0.5756947176
 40
0.6135432851
 40
0.6517967846
 40
0.6903697386
 40
0.7681261117
 40
0.8461161118
 40
0.923638923
 40
1.0
 40
1.0
 40
1.0
 40
1.0
 10
11.9515891279
 20
9.8062890044
 30
0.0
 10
11.9507774238
 20
9.8055049584
 30
0.0
 10
11.9490771738
 20
9.8039430078
 30
0.0
 10
11.9463654573
 20
9.8016672597
 30
0.0
 10
11.9434390559
 20
9.7994095713
 30
0.0
 10
11.9402998741
 20
9.7971713966
 30
0.0
 10
11.9369497508
 20
9.7949539494
 30
0.0
 10
11.9333906121
 20
9.7927585341
 30
0.0
 10
11.9296245775
 20
9.7905863715
 30
0.0
 10
11.9256538668
 20
9.7884388043
 30
0.0
 10
11.9214808547
 20
9.7863170916
 30
0.0
 10
11.9171080298
 20
9.7842224867
 30
0.0
 10
11.9125379793
 20
9.7821562551
 30
0.0
 10
11.9060844496
 20
9.7793977089
 30
0.0
 10
11.8975370375
 20
9.7760384572
 30
0.0
 10
11.8866935757
 20
9.7721998989
 30
0.0
 10
11.8751353425
 20
9.768502878
 30
0.0
 10
11.8628900215
 20
9.7649563369
 30
0.0
 10
11.8499868097
 20
9.7615688765
 30
0.0
 10
11.8364566082
 20
9.7583487169
 30
0.0
 10
11.8223318564
 20
9.7553036694
 30
0.0
 10
11.807646461
 20
9.752441124
 30
0.0
 10
11.7924356985
 20
9.7497680272
 30
0.0
 10
11.7767361283
 20
9.7472908661
 30
0.0
 10
11.7605855031
 20
9.7450156521
 30
0.0
 10
11.7440226775
 20
9.7429478983
 30
0.0
 10
11.7270875078
 20
9.7410926148
 30
0.0
 10
11.7098207527
 20
9.7394542979
 30
0.0
 10
11.6922639704
 20
9.7380369163
 30
0.0
 10
11.6744594348
 20
9.7368439135
 30
0.0
 10
11.6564499769
 20
9.735878153
 30
0.0
 10
11.6321582972
 20
9.7348941139
 30
0.0
 10
11.6016011506
 20
9.7342486409
 30
0.0
 10
11.5649116669
 20
9.73440331
 30
0.0
 10
11.5284573822
 20
9.7354838144
 30
0.0
 10
11.5042902891
 20
9.736828426
 30
0.0
 10
11.4923098597
 20
9.7376592716
 30
0.0
  0
SPLINE
  5
357
100
AcDbEntity
  8
0
100
AcDbSpline
 62
7
  6
CONTINUOUS
 70
0
 71
3
 72
19
 73
15
 74
0
 42
0.0000001
 43
0.0000001
 44
0.0000000001
 40
0.0
 40
0.0
 40
0.0
 40
0.0
 40
0.12732766
 40
0.2538196711
 40
0.3795264658
 40
0.5045235362
 40
0.5668075958
 40
0.6289556124
 40
0.6909843715
 40
0.7529118454
 40
0.8147570127
 40
0.8765397119
 40
0.9382804145
 40
1.0
 40
1.0
 40
1.0
 40
1.0
 10
9.6736585096
 20
7.1083835168
 30
0.0
 10
9.6736585096
 20
7.1127106371
 30
0.0
 10
9.6740716544
 20
7.1213424312
 30
0.0
 10
9.6759401522
 20
7.1341242747
 30
0.0
 10
9.6790381056
 20
7.1465843541
 30
0.0
 10
9.6826268325
 20
7.1566179528
 30
0.0
 10
9.6860782053
 20
7.1643633989
 30
0.0
 10
9.6889482616
 20
7.1700160728
 30
0.0
 10
9.692095807
 20
7.1755049348
 30
0.0
 10
9.6955136774
 20
7.1808175066
 30
0.0
 10
9.6991939875
 20
7.1859414541
 30
0.0
 10
9.7031282556
 20
7.1908650427
 30
0.0
 10
9.7073072842
 20
7.1955767348
 30
0.0
 10
9.7102506165
 20
7.1985698938
 30
0.0
 10
9.7117592437
 20
7.2000271152
 30
0.0
  0
SPLINE
  5
358
100
AcDbEntity
  8
0
100
AcDbSpline
 62
7
  6
CONTINUOUS
 70
0
 71
3
 72
41
 73
37
 74
0
 42
0.0000001
 43
0.0000001
 44
0.0000000001
 40
0.0
 40
0.0
 40
0.0
 40
0.0
 40
0.0299421204
 40
0.0449237657
 40
0.0599145156
 40
0.0899291707
 40
0.1200145979
 40
0.1350933581
 40
0.1501974797
 40
0.1804849775
 40
0.2108989666
 40
0.2414525863
 40
0.2721557519
 40
0.303014974
 40
0.3340332638
 40
0.3652101189
 40
0.3965415878
 40
0.4280204054
 40
0.4596361932
 40
0.4913757168
 40
0.5232231926
 40
0.5551606365
 40
0.5871682471
 40
0.6192248157
 40
0.6513081571
 40
0.6833955538
 40
0.7154642079
 40
0.7474916937
 40
0.7794564054
 40
0.8113379941
 40
0.8431177837
 40
0.8747791713
 40
0.906307967
 40
0.9376927819
 40
0.9689251328
 40
1.0
 40
1.0
 40
1.0
 40
1.0
 10
9.9069829488
 20
9.0505090499
 30
0.0
 10
9.9046521006
 20
9.0482576243
 30
0.0
 10
9.9010184412
 20
9.0450169048
 30
0.0
 10
9.8959296019
 20
9.0409958441
 30
0.0
 10
9.8906786638
 20
9.0371749313
 30
0.0
 10
9.8838270907
 20
9.0327872286
 30
0.0
 10
9.8766423597
 20
9.0289492959
 30
0.0
 10
9.8707168451
 20
9.0262189244
 30
0.0
 10
9.8646688882
 20
9.023714027
 30
0.0
 10
9.8569096625
 20
9.0210204839
 30
0.0
 10
9.8473475758
 20
9.0185101861
 30
0.0
 10
9.8375768428
 20
9.0167318152
 30
0.0
 10
9.8276516071
 20
9.0156951931
 30
0.0
 10
9.8176263915
 20
9.0154058493
 30
0.0
 10
9.8075563575
 20
9.015865257
 30
0.0
 10
9.7974968526
 20
9.0170707625
 30
0.0
 10
9.7875031496
 20
9.0190156235
 30
0.0
 10
9.7776301353
 20
9.0216890464
 30
0.0
 10
9.7679320164
 20
9.0250762499
 30
0.0
 10
9.7584620249
 20
9.0291585487
 30
0.0
 10
9.7492721306
 20
9.0339134571
 30
0.0
 10
9.7404127597
 20
9.0393148134
 30
0.0
 10
9.7319325216
 20
9.0453329231
 30
0.0
 10
9.7238779458
 20
9.0519347213
 30
0.0
 10
9.7162932298
 20
9.0590839529
 30
0.0
 10
9.7092199988
 20
9.0667413699
 30
0.0
 10
9.7026970801
 20
9.0748649448
 30
0.0
 10
9.6967602916
 20
9.0834100989
 30
0.0
 10
9.6914422475
 20
9.092329944
 30
0.0
 10
9.6867721806
 20
9.1015755383
 30
0.0
 10
9.6827757809
 20
9.1110961452
 30
0.0
 10
9.6794750598
 20
9.1208395315
 30
0.0
 10
9.6768882177
 20
9.1307521657
 30
0.0
 10
9.6750295651
 20
9.1407798194
 30
0.0
 10
9.6739094039
 20
9.1508666927
 30
0.0
 10
9.6736585096
 20
9.157612807
 30
0.0
 10
9.6736585096
 20
9.160976048
 30
0.0
  0
SPLINE
  5
359
100
AcDbEntity
  8
0
100
AcDbSpline
 62
7
  6
CONTINUOUS
 70
0
 71
3
 72
41
 73
37
 74
0
 42
0.0000001
 43
0.0000001
 44
0.0000000001
 40
0.0
 40
0.0
 40
0.0
 40
0.0
 40
0.0299421204
 40
0.0449237657
 40
0.0599145156
 40
0.0899291707
 40
0.1200145979
 40
0.1350933581
 40
0.1501974797
 40
0.1804849775
 40
0.2108989666
 40
0.2414525863
 40
0.2721557519
 40
0.303014974
 40
0.3340332638
 40
0.3652101189
 40
0.3965415878
 40
0.4280204054
 40
0.4596361932
 40
0.4913757168
 40
0.5232231926
 40
0.5551606365
 40
0.5871682471
 40
0.6192248157
 40
0.6513081571
 40
0.6833955538
 40
0.7154642079
 40
0.7474916937
 40
0.7794564054
 40
0.8113379941
 40
0.8431177837
 40
0.8747791713
 40
0.906307967
 40
0.9376927819
 40
0.9689251328
 40
1.0
 40
1.0
 40
1.0
 40
1.0
 10
11.6572405408
 20
8.9291282736
 30
0.0
 10
11.6549096926
 20
8.926876848
 30
0.0
 10
11.6512760332
 20
8.9236361285
 30
0.0
 10
11.6461871939
 20
8.9196150678
 30
0.0
 10
11.6409362558
 20
8.915794155
 30
0.0
 10
11.6340846827
 20
8.9114064524
 30
0.0
 10
11.6268999517
 20
8.9075685196
 30
0.0
 10
11.6209744371
 20
8.9048381481
 30
0.0
 10
11.6149264802
 20
8.9023332507
 30
0.0
 10
11.6071672545
 20
8.8996397076
 30
0.0
 10
11.5976051678
 20
8.8971294098
 30
0.0
 10
11.5878344348
 20
8.8953510389
 30
0.0
 10
11.5779091991
 20
8.8943144169
 30
0.0
 10
11.5678839835
 20
8.894025073
 30
0.0
 10
11.5578139495
 20
8.8944844807
 30
0.0
 10
11.5477544447
 20
8.8956899862
 30
0.0
 10
11.5377607416
 20
8.8976348472
 30
0.0
 10
11.5278877273
 20
8.9003082701
 30
0.0
 10
11.5181896084
 20
8.9036954736
 30
0.0
 10
11.5087196169
 20
8.9077777724
 30
0.0
 10
11.4995297226
 20
8.9125326808
 30
0.0
 10
11.4906703517
 20
8.9179340371
 30
0.0
 10
11.4821901136
 20
8.9239521468
 30
0.0
 10
11.4741355379
 20
8.930553945
 30
0.0
 10
11.4665508219
 20
8.9377031766
 30
0.0
 10
11.4594775909
 20
8.9453605937
 30
0.0
 10
11.4529546721
 20
8.9534841685
 30
0.0
 10
11.4470178836
 20
8.9620293227
 30
0.0
 10
11.4416998396
 20
8.9709491677
 30
0.0
 10
11.4370297726
 20
8.980194762
 30
0.0
 10
11.433033373
 20
8.989715369
 30
0.0
 10
11.4297326518
 20
8.9994587552
 30
0.0
 10
11.4271458098
 20
9.0093713894
 30
0.0
 10
11.4252871571
 20
9.0193990432
 30
0.0
 10
11.4241669959
 20
9.0294859165
 30
0.0
 10
11.4239161016
 20
9.0362320307
 30
0.0
 10
11.4239161016
 20
9.0395952718
 30
0.0
  0
SPLINE
  5
35A
100
AcDbEntity
  8
0
100
AcDbSpline
 62
7
  6
CONTINUOUS
 70
0
 71
3
 72
54
 73
50
 74
0
 42
0.0000001
 43
0.0000001
 44
0.0000000001
 40
0.0
 40
0.0
 40
0.0
 40
0.0
 40
0.052784991
 40
0.1048060923
 40
0.1559445044
 40
0.2060905216
 40
0.2551340321
 40
0.3029694639
 40
0.3494949945
 40
0.3946130603
 40
0.438230921
 40
0.4802611185
 40
0.5206221511
 40
0.559239105
 40
0.5960444107
 40
0.6309787921
 40
0.663992489
 40
0.6950468015
 40
0.709831479
 40
0.7241178387
 40
0.7379051855
 40
0.751193962
 40
0.7639858374
 40
0.7762841535
 40
0.7880937245
 40
0.7994213683
 40
0.8102760565
 40
0.8206690605
 40
0.830614617
 40
0.8401299511
 40
0.8492359035
 40
0.8579573592
 40
0.8663234793
 40
0.8743683592
 40
0.8821310443
 40
0.8896557027
 40
0.8969914552
 40
0.9041916844
 40
0.9113132101
 40
0.9184149027
 40
0.9255561887
 40
0.9327954181
 40
0.9401884307
 40
0.9477872381
 40
0.9637758035
 40
0.972256837
 40
0.9811038595
 40
0.9903441354
 40
1.0
 40
1.0
 40
1.0
 40
1.0
 10
9.9007599804
 20
9.8862837506
 30
0.0
 10
9.8953584219
 20
9.8866583499
 30
0.0
 10
9.8846383251
 20
9.8874742941
 30
0.0
 10
9.8687060352
 20
9.8889099777
 30
0.0
 10
9.8530651616
 20
9.8905460038
 30
0.0
 10
9.8377536106
 20
9.8923783259
 30
0.0
 10
9.8228080392
 20
9.8944025619
 30
0.0
 10
9.808264478
 20
9.8966137848
 30
0.0
 10
9.7941578855
 20
9.8990066295
 30
0.0
 10
9.7805221734
 20
9.9015752924
 30
0.0
 10
9.7673901102
 20
9.90431354
 30
0.0
 10
9.7547932291
 20
9.9072147349
 30
0.0
 10
9.7427617438
 20
9.9102718301
 30
0.0
 10
9.7313244624
 20
9.9134774038
 30
0.0
 10
9.7205087402
 20
9.9168236813
 30
0.0
 10
9.7103403174
 20
9.920302568
 30
0.0
 10
9.7008435139
 20
9.923905659
 30
0.0
 10
9.6933903393
 20
9.9270539989
 30
0.0
 10
9.6877885564
 20
9.9296353385
 30
0.0
 10
9.6838380493
 20
9.9315652255
 30
0.0
 10
9.6800716205
 20
9.9335195788
 30
0.0
 10
9.6764914987
 20
9.9354972481
 30
0.0
 10
9.6730998314
 20
9.9374970996
 30
0.0
 10
9.669898601
 20
9.9395179003
 30
0.0
 10
9.6668897203
 20
9.9415585135
 30
0.0
 10
9.6640749613
 20
9.9436177465
 30
0.0
 10
9.6614559632
 20
9.9456943933
 30
0.0
 10
9.6590343129
 20
9.9477873407
 30
0.0
 10
9.656811404
 20
9.949895369
 30
0.0
 10
9.6547885957
 20
9.9520173679
 30
0.0
 10
9.6529671416
 20
9.9541522098
 30
0.0
 10
9.6513481568
 20
9.9562987342
 30
0.0
 10
9.6499328112
 20
9.9584558801
 30
0.0
 10
9.6487220875
 20
9.9606224613
 30
0.0
 10
9.6477170053
 20
9.9627973149
 30
0.0
 10
9.6469185504
 20
9.9649791832
 30
0.0
 10
9.6463274994
 20
9.9671666466
 30
0.0
 10
9.6459446825
 20
9.9693581966
 30
0.0
 10
9.6457705511
 20
9.9715521291
 30
0.0
 10
9.6458053593
 20
9.9737466683
 30
0.0
 10
9.6460491287
 20
9.9759400015
 30
0.0
 10
9.6465013882
 20
9.9781303565
 30
0.0
 10
9.64716172
 20
9.9803161998
 30
0.0
 10
9.6483378734
 20
9.9832718138
 30
0.0
 10
9.649925736
 20
9.9861695322
 30
0.0
 10
9.6518651247
 20
9.9889851746
 30
0.0
 10
9.6535519097
 20
9.9911282141
 30
0.0
 10
9.6554405699
 20
9.993258786
 30
0.0
 10
9.6568027539
 20
9.994639151
 30
0.0
 10
9.6575151545
 20
9.9953272772
 30
0.0
  0
SPLINE
  5
35B
100
AcDbEntity
  8
0
100
AcDbSpline
 62
7
  6
CONTINUOUS
 70
0
 71
3
 72
41
 73
37
 74
0
 42
0.0000001
 43
0.0000001
 44
0.0000000001
 40
0.0
 40
0.0
 40
0.0
 40
0.0
 40
0.0299421204
 40
0.0449237657
 40
0.0599145156
 40
0.0899291707
 40
0.1200145979
 40
0.1350933581
 40
0.1501974797
 40
0.1804849775
 40
0.2108989666
 40
0.2414525863
 40
0.2721557519
 40
0.303014974
 40
0.3340332638
 40
0.3652101189
 40
0.3965415878
 40
0.4280204054
 40
0.4596361932
 40
0.4913757168
 40
0.5232231926
 40
0.5551606365
 40
0.5871682471
 40
0.6192248157
 40
0.6513081571
 40
0.6833955538
 40
0.7154642079
 40
0.7474916937
 40
0.7794564054
 40
0.8113379941
 40
0.8431177837
 40
0.8747791713
 40
0.906307967
 40
0.9376927819
 40
0.9689251328
 40
1.0
 40
1.0
 40
1.0
 40
1.0
 10
11.6572405408
 20
6.8765357424
 30
0.0
 10
11.6549096926
 20
6.8742843167
 30
0.0
 10
11.6512760332
 20
6.8710435972
 30
0.0
 10
11.6461871939
 20
6.8670225365
 30
0.0
 10
11.6409362558
 20
6.8632016237
 30
0.0
 10
11.6340846827
 20
6.8588139211
 30
0.0
 10
11.6268999517
 20
6.8549759884
 30
0.0
 10
11.6209744371
 20
6.8522456168
 30
0.0
 10
11.6149264802
 20
6.8497407195
 30
0.0
 10
11.6071672545
 20
6.8470471763
 30
0.0
 10
11.5976051678
 20
6.8445368785
 30
0.0
 10
11.5878344348
 20
6.8427585076
 30
0.0
 10
11.5779091991
 20
6.8417218856
 30
0.0
 10
11.5678839835
 20
6.8414325417
 30
0.0
 10
11.5578139495
 20
6.8418919495
 30
0.0
 10
11.5477544447
 20
6.8430974549
 30
0.0
 10
11.5377607416
 20
6.845042316
 30
0.0
 10
11.5278877273
 20
6.8477157388
 30
0.0
 10
11.5181896084
 20
6.8511029424
 30
0.0
 10
11.5087196169
 20
6.8551852411
 30
0.0
 10
11.4995297226
 20
6.8599401495
 30
0.0
 10
11.4906703517
 20
6.8653415058
 30
0.0
 10
11.4821901136
 20
6.8713596155
 30
0.0
 10
11.4741355379
 20
6.8779614137
 30
0.0
 10
11.4665508219
 20
6.8851106454
 30
0.0
 10
11.4594775909
 20
6.8927680624
 30
0.0
 10
11.4529546721
 20
6.9008916373
 30
0.0
 10
11.4470178836
 20
6.9094367914
 30
0.0
 10
11.4416998396
 20
6.9183566365
 30
0.0
 10
11.4370297726
 20
6.9276022307
 30
0.0
 10
11.433033373
 20
6.9371228377
 30
0.0
 10
11.4297326518
 20
6.9468662239
 30
0.0
 10
11.4271458098
 20
6.9567788582
 30
0.0
 10
11.4252871571
 20
6.9668065119
 30
0.0
 10
11.4241669959
 20
6.9768933852
 30
0.0
 10
11.4239161016
 20
6.9836394995
 30
0.0
 10
11.4239161016
 20
6.9870027405
 30
0.0
  0
SPLINE
  5
35C
100
AcDbEntity
  8
0
100
AcDbSpline
 62
7
  6
CONTINUOUS
 70
0
 71
3
 72
40
 73
36
 74
0
 42
0.0000001
 43
0.0000001
 44
0.0000000001
 40
0.0
 40
0.0
 40
0.0
 40
0.0
 40
0.0958312793
 40
0.1891000446
 40
0.2345965891
 40
0.279241512
 40
0.3229681675
 40
0.3657118109
 40
0.4074099461
 40
0.4480024746
 40
0.4874320226
 40
0.5256441407
 40
0.5625874576
 40
0.5982141394
 40
0.6324802032
 40
0.6653457683
 40
0.6967756912
 40
0.7267401448
 40
0.7552151418
 40
0.7821835616
 40
0.8076363113
 40
0.8315735468
 40
0.8540066404
 40
0.8749606632
 40
0.8944772684
 40
0.9126187468
 40
0.9294730511
 40
0.9451593172
 40
0.9598338268
 40
0.9668558706
 40
0.9737029056
 40
0.980406309
 40
0.9869997194
 40
0.9935186515
 40
1.0
 40
1.0
 40
1.0
 40
1.0
 10
9.8927365966
 20
9.8485900541
 30
0.0
 10
9.8829693259
 20
9.8492674166
 30
0.0
 10
9.8637101178
 20
9.850818873
 30
0.0
 10
9.8398691929
 20
9.8533068042
 30
0.0
 10
9.8212718838
 20
9.8556052435
 30
0.0
 10
9.807720956
 20
9.8574596837
 30
0.0
 10
9.7944745221
 20
9.8594557897
 30
0.0
 10
9.7815546879
 20
9.8615902221
 30
0.0
 10
9.7689830461
 20
9.8638593789
 30
0.0
 10
9.7567805989
 20
9.8662594635
 30
0.0
 10
9.7449677187
 20
9.8687864321
 30
0.0
 10
9.7335641173
 20
9.8714360234
 30
0.0
 10
9.7225888197
 20
9.8742037993
 30
0.0
 10
9.7120601155
 20
9.8770851016
 30
0.0
 10
9.7019955275
 20
9.8800750711
 30
0.0
 10
9.6924117931
 20
9.8831687025
 30
0.0
 10
9.6833248148
 20
9.886360806
 30
0.0
 10
9.6747496242
 20
9.8896460175
 30
0.0
 10
9.6667003714
 20
9.8930188715
 30
0.0
 10
9.6591902759
 20
9.8964737785
 30
0.0
 10
9.6522315801
 20
9.9000050322
 30
0.0
 10
9.6458355561
 20
9.9036069191
 30
0.0
 10
9.640012467
 20
9.9072737392
 30
0.0
 10
9.6347715348
 20
9.9109998345
 30
0.0
 10
9.6301210146
 20
9.9147798053
 30
0.0
 10
9.626068326
 20
9.9186085058
 30
0.0
 10
9.6226201026
 20
9.9224814293
 30
0.0
 10
9.6197830501
 20
9.926393668
 30
0.0
 10
9.6179065222
 20
9.9297325416
 30
0.0
 10
9.6167367274
 20
9.932405977
 30
0.0
 10
9.6160284929
 20
9.9343867851
 30
0.0
 10
9.6154771104
 20
9.9363714933
 30
0.0
 10
9.6150829264
 20
9.9383592881
 30
0.0
 10
9.6148463215
 20
9.9403490237
 30
0.0
 10
9.614793673
 20
9.9416778067
 30
0.0
 10
9.6147936695
 20
9.9423399823
 30
0.0
  0
SPLINE
  5
35D
100
AcDbEntity
  8
0
100
AcDbSpline
 62
7
  6
CONTINUOUS
 70
0
 71
3
 72
41
 73
37
 74
0
 42
0.0000001
 43
0.0000001
 44
0.0000000001
 40
0.0
 40
0.0
 40
0.0
 40
0.0
 40
0.0299421204
 40
0.0449237657
 40
0.0599145156
 40
0.0899291707
 40
0.1200145979
 40
0.1350933581
 40
0.1501974797
 40
0.1804849775
 40
0.2108989666
 40
0.2414525863
 40
0.2721557519
 40
0.303014974
 40
0.3340332638
 40
0.3652101189
 40
0.3965415878
 40
0.4280204054
 40
0.4596361932
 40
0.4913757168
 40
0.5232231926
 40
0.5551606365
 40
0.5871682471
 40
0.6192248157
 40
0.6513081571
 40
0.6833955538
 40
0.7154642079
 40
0.7474916937
 40
0.7794564054
 40
0.8113379941
 40
0.8431177837
 40
0.8747791713
 40
0.906307967
 40
0.9376927819
 40
0.9689251328
 40
1.0
 40
1.0
 40
1.0
 40
1.0
 10
9.9069829488
 20
6.9979165186
 30
0.0
 10
9.9046521006
 20
6.995665093
 30
0.0
 10
9.9010184412
 20
6.9924243735
 30
0.0
 10
9.8959296019
 20
6.9884033128
 30
0.0
 10
9.8906786638
 20
6.9845824
 30
0.0
 10
9.8838270907
 20
6.9801946974
 30
0.0
 10
9.8766423597
 20
6.9763567646
 30
0.0
 10
9.8707168451
 20
6.9736263931
 30
0.0
 10
9.8646688882
 20
6.9711214957
 30
0.0
 10
9.8569096625
 20
6.9684279526
 30
0.0
 10
9.8473475758
 20
6.9659176548
 30
0.0
 10
9.8375768428
 20
6.9641392839
 30
0.0
 10
9.8276516071
 20
6.9631026619
 30
0.0
 10
9.8176263915
 20
6.962813318
 30
0.0
 10
9.8075563575
 20
6.9632727257
 30
0.0
 10
9.7974968526
 20
6.9644782312
 30
0.0
 10
9.7875031496
 20
6.9664230922
 30
0.0
 10
9.7776301353
 20
6.9690965151
 30
0.0
 10
9.7679320164
 20
6.9724837186
 30
0.0
 10
9.7584620249
 20
6.9765660174
 30
0.0
 10
9.7492721306
 20
6.9813209258
 30
0.0
 10
9.7404127597
 20
6.9867222821
 30
0.0
 10
9.7319325216
 20
6.9927403918
 30
0.0
 10
9.7238779458
 20
6.99934219
 30
0.0
 10
9.7162932298
 20
7.0064914216
 30
0.0
 10
9.7092199988
 20
7.0141488387
 30
0.0
 10
9.7026970801
 20
7.0222724135
 30
0.0
 10
9.6967602916
 20
7.0308175676
 30
0.0
 10
9.6914422475
 20
7.0397374127
 30
0.0
 10
9.6867721806
 20
7.048983007
 30
0.0
 10
9.6827757809
 20
7.058503614
 30
0.0
 10
9.6794750598
 20
7.0682470002
 30
0.0
 10
9.6768882177
 20
7.0781596344
 30
0.0
 10
9.6750295651
 20
7.0881872882
 30
0.0
 10
9.6739094039
 20
7.0982741615
 30
0.0
 10
9.6736585096
 20
7.1050202757
 30
0.0
 10
9.6736585096
 20
7.1083835168
 30
0.0
  0
SPLINE
  5
35E
100
AcDbEntity
  8
0
100
AcDbSpline
 62
7
  6
CONTINUOUS
 70
0
 71
3
 72
40
 73
36
 74
0
 42
0.0000001
 43
0.0000001
 44
0.0000000001
 40
0.0
 40
0.0
 40
0.0
 40
0.0
 40
0.0958312272
 40
0.1891000849
 40
0.2345965837
 40
0.2792415009
 40
0.3229681813
 40
0.3657118147
 40
0.4074099328
 40
0.4480024856
 40
0.4874320345
 40
0.5256441238
 40
0.5625874617
 40
0.5982141609
 40
0.632480187
 40
0.6653457617
 40
0.6967757204
 40
0.726740135
 40
0.7552151246
 40
0.7821835904
 40
0.8076363126
 40
0.8315735236
 40
0.8540066602
 40
0.8749606757
 40
0.8944772468
 40
0.912618755
 40
0.9294730678
 40
0.945159305
 40
0.9598338272
 40
0.9668558624
 40
0.9737029125
 40
0.9804063087
 40
0.9869997163
 40
0.9935186521
 40
1.0
 40
1.0
 40
1.0
 40
1.0
 10
9.8927365966
 20
9.5771648746
 30
0.0
 10
9.8829693311
 20
9.5778422368
 30
0.0
 10
9.8637101191
 20
9.579393695
 30
0.0
 10
9.8398691942
 20
9.5818816214
 30
0.0
 10
9.8212718812
 20
9.5841800641
 30
0.0
 10
9.8077209565
 20
9.5860345072
 30
0.0
 10
9.7944745207
 20
9.5880306068
 30
0.0
 10
9.781554687
 20
9.5901650414
 30
0.0
 10
9.7689830465
 20
9.592434204
 30
0.0
 10
9.7567805971
 20
9.594834281
 30
0.0
 10
9.7449677171
 20
9.5973612493
 30
0.0
 10
9.7335641184
 20
9.6000108492
 30
0.0
 10
9.7225888183
 20
9.6027786191
 30
0.0
 10
9.7120601124
 20
9.6056599161
 30
0.0
 10
9.7019955288
 20
9.6086498966
 30
0.0
 10
9.692411793
 20
9.6117435258
 30
0.0
 10
9.68332481
 20
9.6149356182
 30
0.0
 10
9.6747496248
 20
9.6182208414
 30
0.0
 10
9.6667003736
 20
9.6215936984
 30
0.0
 10
9.6591902698
 20
9.6250485903
 30
0.0
 10
9.6522315788
 20
9.6285798528
 30
0.0
 10
9.6458355612
 20
9.6321817484
 30
0.0
 10
9.6400124613
 20
9.6358485532
 30
0.0
 10
9.6347715297
 20
9.6395746508
 30
0.0
 10
9.6301210228
 20
9.6433546355
 30
0.0
 10
9.626068323
 20
9.6471833235
 30
0.0
 10
9.6226200902
 20
9.6510562427
 30
0.0
 10
9.6197830655
 20
9.6549684982
 30
0.0
 10
9.617906512
 20
9.6583073559
 30
0.0
 10
9.6167367405
 20
9.6609808031
 30
0.0
 10
9.6160284779
 20
9.662961601
 30
0.0
 10
9.6154771117
 20
9.6649463152
 30
0.0
 10
9.6150829363
 20
9.6669341099
 30
0.0
 10
9.6148463069
 20
9.6689238429
 30
0.0
 10
9.6147936702
 20
9.6702526273
 30
0.0
 10
9.6147936703
 20
9.6709148028
 30
0.0
  0
SPLINE
  5
35F
100
AcDbEntity
  8
0
100
AcDbSpline
 62
7
  6
CONTINUOUS
 70
0
 71
3
 72
44
 73
40
 74
0
 42
0.0000001
 43
0.0000001
 44
0.0000000001
 40
0.0
 40
0.0
 40
0.0
 40
0.0
 40
0.0149722504
 40
0.0299475576
 40
0.0449289656
 40
0.0599194752
 40
0.0899336509
 40
0.1200185962
 40
0.1350971147
 40
0.150200993
 40
0.1804880038
 40
0.2109015036
 40
0.2414546317
 40
0.2721573035
 40
0.3030160297
 40
0.3340338212
 40
0.3652101756
 40
0.3965411416
 40
0.4280194541
 40
0.4596347352
 40
0.4913737507
 40
0.5232207176
 40
0.5551576521
 40
0.5871647534
 40
0.6192208128
 40
0.6513036453
 40
0.6833905334
 40
0.7154586792
 40
0.7314811024
 40
0.747490488
 40
0.7794546928
 40
0.811335776
 40
0.8431150609
 40
0.8747759499
 40
0.9063042323
 40
0.9376885956
 40
0.9533263523
 40
0.9689255432
 40
1.0
 40
1.0
 40
1.0
 40
1.0
 10
10.4525432579
 20
7.049282713
 30
0.0
 10
10.4509878291
 20
7.047780276
 30
0.0
 10
10.4478165683
 20
7.0448365836
 30
0.0
 10
10.4428874471
 20
7.0406131299
 30
0.0
 10
10.4377922915
 20
7.0365869645
 30
0.0
 10
10.4307849731
 20
7.0314879577
 30
0.0
 10
10.4216413513
 20
7.0256323618
 30
0.0
 10
10.4120532172
 20
7.0205105171
 30
0.0
 10
10.4041454956
 20
7.0168667447
 30
0.0
 10
10.3960743845
 20
7.0135238514
 30
0.0
 10
10.3857195393
 20
7.0099292132
 30
0.0
 10
10.3729587376
 20
7.0065791033
 30
0.0
 10
10.3599194865
 20
7.0042057705
 30
0.0
 10
10.3466740434
 20
7.0028223212
 30
0.0
 10
10.3332951705
 20
7.0024361361
 30
0.0
 10
10.319856483
 20
7.0030491802
 30
0.0
 10
10.3064318436
 20
7.0046579114
 30
0.0
 10
10.2930950155
 20
7.0072533316
 30
0.0
 10
10.2799192466
 20
7.010821036
 30
0.0
 10
10.2669768769
 20
7.0153412988
 30
0.0
 10
10.2543389462
 20
7.0207891839
 30
0.0
 10
10.2420748092
 20
7.0271346845
 30
0.0
 10
10.2302517622
 20
7.0343428859
 30
0.0
 10
10.218934672
 20
7.0423741672
 30
0.0
 10
10.2081856513
 20
7.0511843786
 30
0.0
 10
10.1980636191
 20
7.0607252295
 30
0.0
 10
10.1886243677
 20
7.0709439983
 30
0.0
 10
10.1813674029
 20
7.0799818044
 30
0.0
 10
10.1759530292
 20
7.087494036
 30
0.0
 10
10.1708110795
 20
7.0951772284
 30
0.0
 10
10.1648992835
 20
7.1050928381
 30
0.0
 10
10.1586671075
 20
7.1174310782
 30
0.0
 10
10.1533337729
 20
7.1301365794
 30
0.0
 10
10.1489288797
 20
7.1431393905
 30
0.0
 10
10.1454766934
 20
7.1563678035
 30
0.0
 10
10.1434070388
 20
7.1675340232
 30
0.0
 10
10.1422460163
 20
7.1765059324
 30
0.0
 10
10.1414174277
 20
7.1854692606
 30
0.0
 10
10.1411665396
 20
7.1922140983
 30
0.0
 10
10.1411665396
 20
7.1967024314
 30
0.0
  0
SPLINE
  5
360
100
AcDbEntity
  8
0
100
AcDbSpline
 62
7
  6
CONTINUOUS
 70
0
 71
3
 72
25
 73
21
 74
0
 42
0.0000001
 43
0.0000001
 44
0.0000000001
 40
0.0
 40
0.0
 40
0.0
 40
0.0
 40
0.0629491572
 40
0.1257006515
 40
0.1882760641
 40
0.2507003197
 40
0.3130014783
 40
0.3752104451
 40
0.4373605745
 40
0.4994871638
 40
0.5616268489
 40
0.6238168977
 40
0.6860944645
 40
0.7172820502
 40
0.7485049302
 40
0.811064329
 40
0.8738133154
 40
0.9052722505
 40
0.9367902701
 40
1.0
 40
1.0
 40
1.0
 40
1.0
 10
10.4878955031
 20
8.9237354545
 30
0.0
 10
10.4868266596
 20
8.9203726639
 30
0.0
 10
10.4844858749
 20
8.9137211693
 30
0.0
 10
10.4803665949
 20
8.9039974284
 30
0.0
 10
10.4756538898
 20
8.8945792565
 30
0.0
 10
10.4703596854
 20
8.8855043736
 30
0.0
 10
10.4644982433
 20
8.8768096176
 30
0.0
 10
10.4580865455
 20
8.8685315249
 30
0.0
 10
10.4511443385
 20
8.8607058555
 30
0.0
 10
10.4436942744
 20
8.8533673756
 30
0.0
 10
10.4357618412
 20
8.8465494601
 30
0.0
 10
10.4273758137
 20
8.840283986
 30
0.0
 10
10.4200380156
 20
8.8355495134
 30
0.0
 10
10.4139764408
 20
8.8320675439
 30
0.0
 10
10.4077846381
 20
8.8287888343
 30
0.0
 10
10.3998219582
 20
8.8250857858
 30
0.0
 10
10.3916112715
 20
8.8219341514
 30
0.0
 10
10.3849096886
 20
8.8197493635
 30
0.0
 10
10.3781128309
 20
8.8177876725
 30
0.0
 10
10.3729372983
 20
8.8165768936
 30
0.0
 10
10.3694619977
 20
8.8158867025
 30
0.0
  0
SPLINE
  5
361
100
AcDbEntity
  8
0
100
AcDbSpline
 62
7
  6
CONTINUOUS
 70
0
 71
3
 72
41
 73
37
 74
0
 42
0.0000001
 43
0.0000001
 44
0.0000000001
 40
0.0
 40
0.0
 40
0.0
 40
0.0
 40
0.0071758902
 40
0.0146741867
 40
0.0225035649
 40
0.0306712991
 40
0.0391833969
 40
0.0480443768
 40
0.0572572179
 40
0.0668238706
 40
0.0767452001
 40
0.0870212655
 40
0.0976512713
 40
0.1086336532
 40
0.1316452661
 40
0.1560326197
 40
0.1817628146
 40
0.2087958703
 40
0.2370856338
 40
0.2665805046
 40
0.2972240311
 40
0.3289554059
 40
0.3617098967
 40
0.3954192431
 40
0.4300120068
 40
0.465413893
 40
0.5015480521
 40
0.5383353662
 40
0.5756947223
 40
0.613543289
 40
0.6517967845
 40
0.6903697365
 40
0.7681261105
 40
0.8461161116
 40
0.9236389843
 40
1.0
 40
1.0
 40
1.0
 40
1.0
 10
11.9515891279
 20
9.5348638249
 30
0.0
 10
11.9507774184
 20
9.5340797737
 30
0.0
 10
11.9490771651
 20
9.5325178172
 30
0.0
 10
11.9463654492
 20
9.5302420682
 30
0.0
 10
11.9434390527
 20
9.5279843927
 30
0.0
 10
11.9402998797
 20
9.5257462188
 30
0.0
 10
11.9369497529
 20
9.5235287755
 30
0.0
 10
11.9333906135
 20
9.5213333529
 30
0.0
 10
11.9296245783
 20
9.5191611874
 30
0.0
 10
11.9256538655
 20
9.5170136295
 30
0.0
 10
11.9214808578
 20
9.5148919064
 30
0.0
 10
11.9171080287
 20
9.5127973135
 30
0.0
 10
11.9125379812
 20
9.5107310718
 30
0.0
 10
11.9060844519
 20
9.5079725318
 30
0.0
 10
11.8975370432
 20
9.5046132741
 30
0.0
 10
11.8866935797
 20
9.5007747179
 30
0.0
 10
11.8751353419
 20
9.4970776986
 30
0.0
 10
11.8628900172
 20
9.4935311601
 30
0.0
 10
11.849986807
 20
9.4901436994
 30
0.0
 10
11.8364566109
 20
9.4869235357
 30
0.0
 10
11.8223318619
 20
9.4838784861
 30
0.0
 10
11.8076464641
 20
9.4810159424
 30
0.0
 10
11.792435697
 20
9.478342849
 30
0.0
 10
11.7767361246
 20
9.4758656903
 30
0.0
 10
11.7605855018
 20
9.4735904739
 30
0.0
 10
11.7440226798
 20
9.4715227166
 30
0.0
 10
11.7270875111
 20
9.4696674315
 30
0.0
 10
11.709820754
 20
9.4680291169
 30
0.0
 10
11.6922639694
 20
9.4666117392
 30
0.0
 10
11.6744594334
 20
9.4654187367
 30
0.0
 10
11.6564499768
 20
9.4644529737
 30
0.0
 10
11.6321582979
 20
9.4634689314
 30
0.0
 10
11.6016011513
 20
9.4628234612
 30
0.0
 10
11.5649116576
 20
9.4629781317
 30
0.0
 10
11.5284573726
 20
9.4640586349
 30
0.0
 10
11.5042902795
 20
9.4654032471
 30
0.0
 10
11.4923098597
 20
9.4662340921
 30
0.0
  0
SPLINE
  5
362
100
AcDbEntity
  8
0
100
AcDbSpline
 62
7
  6
CONTINUOUS
 70
0
 71
3
 72
21
 73
17
 74
0
 42
0.0000001
 43
0.0000001
 44
0.0000000001
 40
0.0
 40
0.0
 40
0.0
 40
0.0
 40
0.1273175725
 40
0.2538000026
 40
0.3167619332
 40
0.3795354925
 40
0.4421314982
 40
0.5045621433
 40
0.5668413429
 40
0.6289845306
 40
0.6910084612
 40
0.7529311022
 40
0.8147714553
 40
0.8765493457
 40
0.9382852283
 40
1.0
 40
1.0
 40
1.0
 40
1.0
 10
10.1411665396
 20
7.1967024314
 30
0.0
 10
10.1411665396
 20
7.2024770105
 30
0.0
 10
10.1417177607
 20
7.2139957224
 30
0.0
 10
10.1437995253
 20
7.2282353404
 30
0.0
 10
10.1462877122
 20
7.2394050792
 30
0.0
 10
10.1485568064
 20
7.2476438795
 30
0.0
 10
10.1512262252
 20
7.2557362989
 30
0.0
 10
10.1542898822
 20
7.263663887
 30
0.0
 10
10.1577406859
 20
7.2714083146
 30
0.0
 10
10.1615706998
 20
7.2789517361
 30
0.0
 10
10.1657711386
 20
7.2862767266
 30
0.0
 10
10.1703323017
 20
7.2933664066
 30
0.0
 10
10.1752436534
 20
7.300204414
 30
0.0
 10
10.1804939558
 20
7.3067750092
 30
0.0
 10
10.1860708963
 20
7.3130628232
 30
0.0
 10
10.1899987549
 20
7.3170572719
 30
0.0
 10
10.1920120276
 20
7.3190019546
 30
0.0
  0
SPLINE
  5
363
100
AcDbEntity
  8
0
100
AcDbSpline
 62
7
  6
CONTINUOUS
 70
0
 71
3
 72
24
 73
20
 74
0
 42
0.0000001
 43
0.0000001
 44
0.0000000001
 40
0.0
 40
0.0
 40
0.0
 40
0.0
 40
0.1259231926
 40
0.1889724641
 40
0.2520405003
 40
0.3151032433
 40
0.3781340895
 40
0.4411042273
 40
0.503982912
 40
0.5667379306
 40
0.6293363099
 40
0.6917453038
 40
0.7228731955
 40
0.753942162
 40
0.8158812162
 40
0.8775467525
 40
0.9082752246
 40
0.9389301356
 40
1.0
 40
1.0
 40
1.0
 40
1.0
 10
10.8749330114
 20
8.5804986538
 30
0.0
 10
10.8807459977
 20
8.5763645114
 30
0.0
 10
10.8891921393
 20
8.5697535253
 30
0.0
 10
10.8997682444
 20
8.5601563903
 30
0.0
 10
10.9073374343
 20
8.5525632161
 30
0.0
 10
10.9145030352
 20
8.5445896106
 30
0.0
 10
10.9212288349
 20
8.5362482222
 30
0.0
 10
10.9274767962
 20
8.5275555661
 30
0.0
 10
10.9332081914
 20
8.5185320132
 30
0.0
 10
10.9383840715
 20
8.5092022665
 30
0.0
 10
10.9429659515
 20
8.4995961432
 30
0.0
 10
10.9462617247
 20
8.4913813241
 30
0.0
 10
10.9485649446
 20
8.4847079421
 30
0.0
 10
10.9506372808
 20
8.4779871437
 30
0.0
 10
10.9527944319
 20
8.4694876225
 30
0.0
 10
10.9543550953
 20
8.4608778262
 30
0.0
 10
10.9552325101
 20
8.4539615547
 30
0.0
 10
10.9558595698
 20
8.4470523252
 30
0.0
 10
10.956049701
 20
8.4418538871
 30
0.0
 10
10.956049701
 20
8.4383944689
 30
0.0
  0
SPLINE
  5
364
100
AcDbEntity
  8
0
100
AcDbSpline
 62
7
  6
CONTINUOUS
 70
0
 71
3
 72
41
 73
37
 74
0
 42
0.0000001
 43
0.0000001
 44
0.0000000001
 40
0.0
 40
0.0
 40
0.0
 40
0.0
 40
0.03039347
 40
0.0456482111
 40
0.0609404196
 40
0.0916357084
 40
0.1224858438
 40
0.1379709789
 40
0.1534937961
 40
0.1846444792
 40
0.2159345218
 40
0.2473530229
 40
0.2788868567
 40
0.3105210906
 40
0.3422394079
 40
0.374024513
 40
0.4058585076
 40
0.4377232331
 40
0.4696005725
 40
0.5014727151
 40
0.5333223829
 40
0.5651330256
 40
0.5968889866
 40
0.6285756471
 40
0.6601795523
 40
0.6916885258
 40
0.7230917759
 40
0.7543799976
 40
0.785545474
 40
0.8165821794
 40
0.8474858827
 40
0.8782542534
 40
0.9088869661
 40
0.9393858003
 40
0.9697547306
 40
1.0
 40
1.0
 40
1.0
 40
1.0
 10
10.3694619977
 20
8.8158867025
 30
0.0
 10
10.3655726712
 20
8.8151142864
 30
0.0
 10
10.3596843445
 20
8.814174519
 30
0.0
 10
10.3517740961
 20
8.8133619795
 30
0.0
 10
10.3437994674
 20
8.8128405511
 30
0.0
 10
10.3337658159
 20
8.812740758
 30
0.0
 10
10.323726592
 20
8.8133717232
 30
0.0
 10
10.3157094124
 20
8.8143091562
 30
0.0
 10
10.3076918108
 20
8.8155365321
 30
0.0
 10
10.2977240483
 20
8.8176071009
 30
0.0
 10
10.2859268186
 20
8.8209243495
 30
0.0
 10
10.2743356323
 20
8.8250536773
 30
0.0
 10
10.2630059448
 20
8.8299672723
 30
0.0
 10
10.2519897317
 20
8.835633835
 30
0.0
 10
10.241335929
 20
8.8420190066
 30
0.0
 10
10.2310901676
 20
8.8490858866
 30
0.0
 10
10.2212947958
 20
8.8567954815
 30
0.0
 10
10.2119889074
 20
8.8651071142
 30
0.0
 10
10.2032084338
 20
8.8739787768
 30
0.0
 10
10.1949862665
 20
8.8833674282
 30
0.0
 10
10.1873524039
 20
8.8932292341
 30
0.0
 10
10.1803341085
 20
8.9035197544
 30
0.0
 10
10.1739560663
 20
8.9141940792
 30
0.0
 10
10.1682405382
 20
8.9252069208
 30
0.0
 10
10.1632074985
 20
8.9365126663
 30
0.0
 10
10.1588747525
 20
8.9480653954
 30
0.0
 10
10.155258031
 20
8.9598188732
 30
0.0
 10
10.152371057
 20
8.9717265204
 30
0.0
 10
10.1502255805
 20
8.9837413699
 30
0.0
 10
10.1488313819
 20
8.9958160157
 30
0.0
 10
10.1481962374
 20
9.0079025543
 30
0.0
 10
10.1483258576
 20
9.0199525576
 30
0.0
 10
10.1492237581
 20
9.031916955
 30
0.0
 10
10.1508912139
 20
9.0437463206
 30
0.0
 10
10.1533267326
 20
9.055389755
 30
0.0
 10
10.1554645088
 20
9.0630108269
 30
0.0
 10
10.1566597824
 20
9.0667713913
 30
0.0
  0
SPLINE
  5
365
100
AcDbEntity
  8
0
100
AcDbSpline
 62
7
  6
CONTINUOUS
 70
0
 71
3
 72
24
 73
20
 74
0
 42
0.0000001
 43
0.0000001
 44
0.0000000001
 40
0.0
 40
0.0
 40
0.0
 40
0.0
 40
0.1259231928
 40
0.1889724644
 40
0.2520405007
 40
0.3151032437
 40
0.37813409
 40
0.4411042279
 40
0.5039829127
 40
0.5667379313
 40
0.6293363105
 40
0.6917453044
 40
0.7228731961
 40
0.7539421625
 40
0.8158812166
 40
0.8775467527
 40
0.9082752247
 40
0.9389301356
 40
1.0
 40
1.0
 40
1.0
 40
1.0
 10
10.8749330114
 20
7.7952009455
 30
0.0
 10
10.8807459981
 20
7.7910668029
 30
0.0
 10
10.8891921402
 20
7.7844558162
 30
0.0
 10
10.8997682459
 20
7.7748586805
 30
0.0
 10
10.9073374363
 20
7.7672655057
 30
0.0
 10
10.9145030375
 20
7.7592918996
 30
0.0
 10
10.9212288374
 20
7.7509505105
 30
0.0
 10
10.927476799
 20
7.7422578538
 30
0.0
 10
10.9332081942
 20
7.7332343001
 30
0.0
 10
10.9383840744
 20
7.7239045526
 30
0.0
 10
10.9429659543
 20
7.7142984285
 30
0.0
 10
10.9462617274
 20
7.7060836087
 30
0.0
 10
10.9485649471
 20
7.6994102262
 30
0.0
 10
10.950637283
 20
7.6926894272
 30
0.0
 10
10.9527944338
 20
7.6841899054
 30
0.0
 10
10.9543550968
 20
7.6755801085
 30
0.0
 10
10.9552325111
 20
7.6686638365
 30
0.0
 10
10.9558595704
 20
7.6617546066
 30
0.0
 10
10.9560497014
 20
7.6565561681
 30
0.0
 10
10.9560497014
 20
7.6530967497
 30
0.0
  0
SPLINE
  5
366
100
AcDbEntity
  8
0
100
AcDbSpline
 62
7
  6
CONTINUOUS
 70
0
 71
3
 72
18
 73
14
 74
0
 42
0.0000001
 43
0.0000001
 44
0.0000000001
 40
0.0
 40
0.0
 40
0.0
 40
0.0
 40
0.0548626421
 40
0.1099292106
 40
0.1654012798
 40
0.2214755109
 40
0.3361334555
 40
0.4553634493
 40
0.5171048472
 40
0.5804364723
 40
0.7123312612
 40
0.8519581829
 40
1.0
 40
1.0
 40
1.0
 40
1.0
 10
12.3849475109
 20
9.966233709
 30
0.0
 10
12.3849475108
 20
9.9657041046
 30
0.0
 10
12.3849139032
 20
9.9646426213
 30
0.0
 10
12.3847627759
 20
9.9630521312
 30
0.0
 10
12.3845109146
 20
9.9614625269
 30
0.0
 10
12.3840376711
 20
9.9593296279
 30
0.0
 10
12.3831850885
 20
9.956656375
 30
0.0
 10
12.3820174114
 20
9.9540462287
 30
0.0
 10
12.3808938299
 20
9.9519718761
 30
0.0
 10
12.3796072783
 20
9.9498499827
 30
0.0
 10
12.3777391796
 20
9.9472063919
 30
0.0
 10
12.375134706
 20
9.9440997687
 30
0.0
 10
12.3731976079
 20
9.9421063685
 30
0.0
 10
12.3721697291
 20
9.9411135137
 30
0.0
  0
SPLINE
  5
367
100
AcDbEntity
  8
0
100
AcDbSpline
 62
7
  6
CONTINUOUS
 70
0
 71
3
 72
18
 73
14
 74
0
 42
0.0000001
 43
0.0000001
 44
0.0000000001
 40
0.0
 40
0.0
 40
0.0
 40
0.0
 40
0.0548626221
 40
0.1099291996
 40
0.1654012684
 40
0.2214754896
 40
0.3361336267
 40
0.4553633642
 40
0.5171046005
 40
0.5804361693
 40
0.7123314363
 40
0.8519591016
 40
1.0
 40
1.0
 40
1.0
 40
1.0
 10
12.3849475117
 20
10.2376588885
 30
0.0
 10
12.3849475145
 20
10.2371292843
 30
0.0
 10
12.384913912
 20
10.2360678006
 30
0.0
 10
12.3847627684
 20
10.2344773121
 30
0.0
 10
12.3845109109
 20
10.2328877078
 30
0.0
 10
12.3840376786
 20
10.2307548041
 30
0.0
 10
12.3831850744
 20
10.228081559
 30
0.0
 10
12.382017417
 20
10.225471407
 30
0.0
 10
12.380893833
 20
10.2233970607
 30
0.0
 10
12.3796072799
 20
10.2212751656
 30
0.0
 10
12.3777391765
 20
10.218631564
 30
0.0
 10
12.3751346942
 20
10.2155249445
 30
0.0
 10
12.3731976015
 20
10.2135315418
 30
0.0
 10
12.3721697291
 20
10.2125386932
 30
0.0
  0
SPLINE
  5
368
100
AcDbEntity
  8
0
100
AcDbSpline
 62
7
  6
CONTINUOUS
 70
0
 71
3
 72
36
 73
32
 74
0
 42
0.0000001
 43
0.0000001
 44
0.0000000001
 40
0.0
 40
0.0
 40
0.0
 40
0.0
 40
0.0314026132
 40
0.0625984387
 40
0.0936027824
 40
0.1244374923
 40
0.1551305731
 40
0.1857132174
 40
0.2162175153
 40
0.2466746258
 40
0.2771134815
 40
0.3075600154
 40
0.3380368116
 40
0.3685630775
 40
0.3991548317
 40
0.4298252022
 40
0.4605847704
 40
0.4914419211
 40
0.5224031636
 40
0.5534734068
 40
0.6159299986
 40
0.6473439072
 40
0.6788744489
 40
0.7422607606
 40
0.7741352192
 40
0.8061194722
 40
0.8703770243
 40
0.9026624093
 40
0.9350346058
 40
0.9674842384
 40
1.0
 40
1.0
 40
1.0
 40
1.0
 10
10.956049701
 20
8.4383944689
 30
0.0
 10
10.956049701
 20
8.4338212682
 30
0.0
 10
10.9556083532
 20
8.4246985602
 30
0.0
 10
10.9536186015
 20
8.4111920365
 30
0.0
 10
10.9503391355
 20
8.398023733
 30
0.0
 10
10.9458263993
 20
8.3853043135
 30
0.0
 10
10.9401534251
 20
8.3731270143
 30
0.0
 10
10.9334043983
 20
8.3615686362
 30
0.0
 10
10.9256697069
 20
8.3506890182
 30
0.0
 10
10.91704168
 20
8.3405325364
 30
0.0
 10
10.9076112792
 20
8.331130116
 30
0.0
 10
10.8974658096
 20
8.3225016141
 30
0.0
 10
10.8866875319
 20
8.3146581693
 30
0.0
 10
10.8753529966
 20
8.3076043342
 30
0.0
 10
10.8635328903
 20
8.3013398962
 30
0.0
 10
10.8512922578
 20
8.2958613729
 30
0.0
 10
10.8386908435
 20
8.2911631895
 30
0.0
 10
10.8257839277
 20
8.2872386273
 30
0.0
 10
10.8126218303
 20
8.2840804134
 30
0.0
 10
10.7947699164
 20
8.2808768425
 30
0.0
 10
10.776608732
 20
8.2791873858
 30
0.0
 10
10.7583408292
 20
8.2789764847
 30
0.0
 10
10.7399520804
 20
8.2797485231
 30
0.0
 10
10.7215832664
 20
8.2819931035
 30
0.0
 10
10.7034165873
 20
8.2856840327
 30
0.0
 10
10.6853474346
 20
8.2903611201
 30
0.0
 10
10.6676187858
 20
8.2964987114
 30
0.0
 10
10.6504340304
 20
8.3040766599
 30
0.0
 10
10.6378265051
 20
8.3105009591
 30
0.0
 10
10.6255797149
 20
8.3176542064
 30
0.0
 10
10.6177004868
 20
8.3229036332
 30
0.0
 10
10.6138415661
 20
8.3256480621
 30
0.0
  0
SPLINE
  5
369
100
AcDbEntity
  8
0
100
AcDbSpline
 62
7
  6
CONTINUOUS
 70
0
 71
3
 72
23
 73
19
 74
0
 42
0.0000001
 43
0.0000001
 44
0.0000000001
 40
0.0
 40
0.0
 40
0.0
 40
0.0
 40
0.0749625009
 40
0.1455684839
 40
0.2121600745
 40
0.2751631548
 40
0.3350982506
 40
0.3925832742
 40
0.4483295117
 40
0.5031237972
 40
0.5577983643
 40
0.613191491
 40
0.670106811
 40
0.729278715
 40
0.7913522906
 40
0.8568775564
 40
0.9263090861
 40
1.0
 40
1.0
 40
1.0
 40
1.0
 10
12.3413685297
 20
10.2914590426
 30
0.0
 10
12.3423618747
 20
10.2905346301
 30
0.0
 10
12.3442357684
 20
10.2886787381
 30
0.0
 10
12.3467642162
 20
10.2857832729
 30
0.0
 10
12.3489203273
 20
10.2828648867
 30
0.0
 10
12.3507008582
 20
10.2799260894
 30
0.0
 10
12.3521028686
 20
10.2769694996
 30
0.0
 10
12.3531231849
 20
10.2739981284
 30
0.0
 10
12.3537589534
 20
10.2710158069
 30
0.0
 10
12.3540079089
 20
10.2680272566
 30
0.0
 10
12.3538690719
 20
10.2650379129
 30
0.0
 10
12.3533430183
 20
10.262053294
 30
0.0
 10
12.3524316256
 20
10.2590783948
 30
0.0
 10
12.3511377622
 20
10.256117267
 30
0.0
 10
12.3494644389
 20
10.2531731576
 30
0.0
 10
12.3474146892
 20
10.2502486392
 30
0.0
 10
12.3449916686
 20
10.2473464982
 30
0.0
 10
12.3431854529
 20
10.245485733
 30
0.0
 10
12.3422260267
 20
10.2445589984
 30
0.0
  0
SPLINE
  5
36A
100
AcDbEntity
  8
0
100
AcDbSpline
 62
7
  6
CONTINUOUS
 70
0
 71
3
 72
19
 73
15
 74
0
 42
0.0000001
 43
0.0000001
 44
0.0000000001
 40
0.0
 40
0.0
 40
0.0
 40
0.0
 40
0.12732766
 40
0.2538196711
 40
0.3795264658
 40
0.5045235362
 40
0.5668075958
 40
0.6289556124
 40
0.6909843715
 40
0.7529118454
 40
0.8147570127
 40
0.8765397119
 40
0.9382804145
 40
1.0
 40
1.0
 40
1.0
 40
1.0
 10
9.6736585096
 20
9.160976048
 30
0.0
 10
9.6736585096
 20
9.1653031684
 30
0.0
 10
9.6740716544
 20
9.1739349625
 30
0.0
 10
9.6759401522
 20
9.186716806
 30
0.0
 10
9.6790381056
 20
9.1991768854
 30
0.0
 10
9.6826268325
 20
9.209210484
 30
0.0
 10
9.6860782053
 20
9.2169559301
 30
0.0
 10
9.6889482616
 20
9.222608604
 30
0.0
 10
9.692095807
 20
9.2280974661
 30
0.0
 10
9.6955136774
 20
9.2334100379
 30
0.0
 10
9.6991939875
 20
9.2385339854
 30
0.0
 10
9.7031282556
 20
9.243457574
 30
0.0
 10
9.7073072842
 20
9.2481692661
 30
0.0
 10
9.7102506165
 20
9.251162425
 30
0.0
 10
9.7117592437
 20
9.2526196465
 30
0.0
  0
SPLINE
  5
36B
100
AcDbEntity
  8
0
100
AcDbSpline
 62
7
  6
CONTINUOUS
 70
0
 71
3
 72
19
 73
15
 74
0
 42
0.0000001
 43
0.0000001
 44
0.0000000001
 40
0.0
 40
0.0
 40
0.0
 40
0.0
 40
0.12732766
 40
0.2538196711
 40
0.3795264658
 40
0.5045235362
 40
0.5668075958
 40
0.6289556124
 40
0.6909843715
 40
0.7529118454
 40
0.8147570127
 40
0.8765397119
 40
0.9382804145
 40
1.0
 40
1.0
 40
1.0
 40
1.0
 10
11.4239161016
 20
9.0395952718
 30
0.0
 10
11.4239161016
 20
9.0439223921
 30
0.0
 10
11.4243292464
 20
9.0525541862
 30
0.0
 10
11.4261977442
 20
9.0653360297
 30
0.0
 10
11.4292956976
 20
9.0777961091
 30
0.0
 10
11.4328844245
 20
9.0878297078
 30
0.0
 10
11.4363357973
 20
9.0955751539
 30
0.0
 10
11.4392058537
 20
9.1012278278
 30
0.0
 10
11.442353399
 20
9.1067166898
 30
0.0
 10
11.4457712694
 20
9.1120292616
 30
0.0
 10
11.4494515795
 20
9.1171532091
 30
0.0
 10
11.4533858476
 20
9.1220767977
 30
0.0
 10
11.4575648762
 20
9.1267884898
 30
0.0
 10
11.4605082085
 20
9.1297816488
 30
0.0
 10
11.4620168357
 20
9.1312388702
 30
0.0
  0
SPLINE
  5
36C
100
AcDbEntity
  8
0
100
AcDbSpline
 62
7
  6
CONTINUOUS
 70
0
 71
3
 72
29
 73
25
 74
0
 42
0.0000001
 43
0.0000001
 44
0.0000000001
 40
0.0
 40
0.0
 40
0.0
 40
0.0
 40
0.0749503018
 40
0.1455451337
 40
0.2121258776
 40
0.2751189758
 40
0.3350444582
 40
0.3640579848
 40
0.3925445726
 40
0.4205959445
 40
0.4483085348
 40
0.4757828051
 40
0.5031221121
 40
0.5304314619
 40
0.5578162633
 40
0.5853809369
 40
0.6132277198
 40
0.6414555022
 40
0.6701587554
 40
0.7293215645
 40
0.7913859933
 40
0.8569000361
 40
0.9263186416
 40
1.0
 40
1.0
 40
1.0
 40
1.0
 10
10.5731791268
 20
10.0612666682
 30
0.0
 10
10.571440786
 20
10.0628843816
 30
0.0
 10
10.568161521
 20
10.0661322227
 30
0.0
 10
10.5637367291
 20
10.0711992004
 30
0.0
 10
10.5599635859
 20
10.076306508
 30
0.0
 10
10.5568477376
 20
10.0814490182
 30
0.0
 10
10.5547810891
 20
10.0858077104
 30
0.0
 10
10.5534770568
 20
10.0892939222
 30
0.0
 10
10.5526760944
 20
10.0918850758
 30
0.0
 10
10.552042169
 20
10.09447968
 30
0.0
 10
10.5515755489
 20
10.0970770273
 30
0.0
 10
10.5512764455
 20
10.0996762847
 30
0.0
 10
10.5511449518
 20
10.1022766242
 30
0.0
 10
10.5511811701
 20
10.1048772064
 30
0.0
 10
10.5513850872
 20
10.1074771797
 30
0.0
 10
10.551756567
 20
10.1100757148
 30
0.0
 10
10.5522954649
 20
10.1126719687
 30
0.0
 10
10.5530016088
 20
10.1152652051
 30
0.0
 10
10.5541772122
 20
10.1187523513
 30
0.0
 10
10.5560832943
 20
10.1231149182
 30
0.0
 10
10.5590114995
 20
10.1282667579
 30
0.0
 10
10.5625985672
 20
10.1333846845
 30
0.0
 10
10.5668387678
 20
10.1384634207
 30
0.0
 10
10.5699996777
 20
10.1417197347
 30
0.0
 10
10.5716787184
 20
10.1433415635
 30
0.0
  0
SPLINE
  5
36D
100
AcDbEntity
  8
0
100
AcDbSpline
 62
4
  6
CONTINUOUS
 70
0
 71
3
 72
338
 73
334
 74
0
 42
0.0000001
 43
0.0000001
 44
0.0000000001
 40
0.0
 40
0.0
 40
0.0
 40
0.0
 40
0.015625
 40
0.0234375
 40
0.03125
 40
0.0390625
 40
0.046875
 40
0.05078125
 40
0.0546875
 40
0.056640625
 40
0.05859375
 40
0.060546875
 40
0.0615234375
 40
0.0620117188
 40
0.0625
 40
0.0629882812
 40
0.0634765625
 40
0.064453125
 40
0.06640625
 40
0.068359375
 40
0.0703125
 40
0.07421875
 40
0.078125
 40
0.0859375
 40
0.09375
 40
0.1015625
 40
0.109375
 40
0.11328125
 40
0.1171875
 40
0.119140625
 40
0.12109375
 40
0.123046875
 40
0.1240234375
 40
0.1245117188
 40
0.125
 40
0.1254882812
 40
0.1259765625
 40
0.126953125
 40
0.12890625
 40
0.130859375
 40
0.1328125
 40
0.13671875
 40
0.140625
 40
0.1484375
 40
0.15625
 40
0.1640625
 40
0.171875
 40
0.17578125
 40
0.1796875
 40
0.181640625
 40
0.18359375
 40
0.185546875
 40
0.1865234375
 40
0.1870117188
 40
0.1875
 40
0.1879882812
 40
0.1884765625
 40
0.189453125
 40
0.19140625
 40
0.193359375
 40
0.1953125
 40
0.19921875
 40
0.203125
 40
0.2109375
 40
0.21875
 40
0.2265625
 40
0.23046875
 40
0.234375
 40
0.23828125
 40
0.2421875
 40
0.244140625
 40
0.24609375
 40
0.2470703125
 40
0.248046875
 40
0.2490234375
 40
0.2495117188
 40
0.2497558594
 40
0.25
 40
0.2502441406
 40
0.2504882812
 40
0.2509765625
 40
0.251953125
 40
0.2529296875
 40
0.25390625
 40
0.255859375
 40
0.2578125
 40
0.26171875
 40
0.265625
 40
0.26953125
 40
0.2734375
 40
0.28125
 40
0.2890625
 40
0.29296875
 40
0.296875
 40
0.30078125
 40
0.3046875
 40
0.306640625
 40
0.30859375
 40
0.3095703125
 40
0.310546875
 40
0.3115234375
 40
0.3120117188
 40
0.3122558594
 40
0.3125
 40
0.3127441406
 40
0.3129882812
 40
0.3134765625
 40
0.314453125
 40
0.3154296875
 40
0.31640625
 40
0.318359375
 40
0.3203125
 40
0.32421875
 40
0.328125
 40
0.33203125
 40
0.3359375
 40
0.34375
 40
0.3515625
 40
0.35546875
 40
0.359375
 40
0.36328125
 40
0.3671875
 40
0.369140625
 40
0.37109375
 40
0.3720703125
 40
0.373046875
 40
0.3740234375
 40
0.3745117188
 40
0.3747558594
 40
0.375
 40
0.3752441406
 40
0.3754882812
 40
0.3759765625
 40
0.376953125
 40
0.3779296875
 40
0.37890625
 40
0.380859375
 40
0.3828125
 40
0.38671875
 40
0.390625
 40
0.39453125
 40
0.3984375
 40
0.40625
 40
0.4140625
 40
0.41796875
 40
0.421875
 40
0.42578125
 40
0.4296875
 40
0.431640625
 40
0.43359375
 40
0.4345703125
 40
0.435546875
 40
0.4365234375
 40
0.4370117188
 40
0.4372558594
 40
0.4375
 40
0.4377441406
 40
0.4379882812
 40
0.4384765625
 40
0.439453125
 40
0.4404296875
 40
0.44140625
 40
0.443359375
 40
0.4453125
 40
0.44921875
 40
0.453125
 40
0.45703125
 40
0.4609375
 40
0.46875
 40
0.4765625
 40
0.48046875
 40
0.484375
 40
0.48828125
 40
0.4921875
 40
0.494140625
 40
0.49609375
 40
0.4970703125
 40
0.498046875
 40
0.4990234375
 40
0.4995117188
 40
0.4997558594
 40
0.5
 40
0.5002441406
 40
0.5004882812
 40
0.5009765625
 40
0.501953125
 40
0.5029296875
 40
0.50390625
 40
0.505859375
 40
0.5078125
 40
0.51171875
 40
0.515625
 40
0.51953125
 40
0.5234375
 40
0.53125
 40
0.5390625
 40
0.54296875
 40
0.546875
 40
0.55078125
 40
0.5546875
 40
0.556640625
 40
0.55859375
 40
0.5595703125
 40
0.560546875
 40
0.5615234375
 40
0.5620117188
 40
0.5622558594
 40
0.5625
 40
0.5627441406
 40
0.5629882812
 40
0.5634765625
 40
0.564453125
 40
0.5654296875
 40
0.56640625
 40
0.568359375
 40
0.5703125
 40
0.57421875
 40
0.578125
 40
0.58203125
 40
0.5859375
 40
0.59375
 40
0.6015625
 40
0.60546875
 40
0.609375
 40
0.61328125
 40
0.6171875
 40
0.619140625
 40
0.62109375
 40
0.623046875
 40
0.6240234375
 40
0.6245117188
 40
0.625
 40
0.6254882812
 40
0.6259765625
 40
0.626953125
 40
0.62890625
 40
0.630859375
 40
0.6328125
 40
0.63671875
 40
0.640625
 40
0.64453125
 40
0.6484375
 40
0.65625
 40
0.6640625
 40
0.671875
 40
0.67578125
 40
0.6796875
 40
0.681640625
 40
0.68359375
 40
0.685546875
 40
0.6865234375
 40
0.6870117188
 40
0.6875
 40
0.6879882812
 40
0.6884765625
 40
0.689453125
 40
0.69140625
 40
0.693359375
 40
0.6953125
 40
0.69921875
 40
0.703125
 40
0.7109375
 40
0.71875
 40
0.7265625
 40
0.734375
 40
0.73828125
 40
0.7421875
 40
0.744140625
 40
0.74609375
 40
0.748046875
 40
0.7490234375
 40
0.7495117188
 40
0.75
 40
0.7504882812
 40
0.7509765625
 40
0.751953125
 40
0.75390625
 40
0.755859375
 40
0.7578125
 40
0.76171875
 40
0.765625
 40
0.7734375
 40
0.78125
 40
0.7890625
 40
0.796875
 40
0.80078125
 40
0.8046875
 40
0.80859375
 40
0.810546875
 40
0.8115234375
 40
0.8125
 40
0.8134765625
 40
0.814453125
 40
0.81640625
 40
0.8203125
 40
0.82421875
 40
0.828125
 40
0.8359375
 40
0.84375
 40
0.8515625
 40
0.859375
 40
0.86328125
 40
0.8671875
 40
0.87109375
 40
0.873046875
 40
0.8740234375
 40
0.875
 40
0.8759765625
 40
0.876953125
 40
0.87890625
 40
0.8828125
 40
0.88671875
 40
0.890625
 40
0.8984375
 40
0.90625
 40
0.9140625
 40
0.921875
 40
0.92578125
 40
0.9296875
 40
0.93359375
 40
0.935546875
 40
0.9365234375
 40
0.9375
 40
0.9384765625
 40
0.939453125
 40
0.94140625
 40
0.9453125
 40
0.94921875
 40
0.953125
 40
0.9609375
 40
0.96875
 40
0.984375
 40
1.0
 40
1.0
 40
1.0
 40
1.0
 10
12.0988587423
 20
7.7558327537
 30
0.0
 10
12.0989410594
 20
7.752779079
 30
0.0
 10
12.0990645349
 20
7.7481985667
 30
0.0
 10
12.0992291691
 20
7.7420912175
 30
0.0
 10
12.0993526442
 20
7.7375107045
 30
0.0
 10
12.0994761217
 20
7.7329301957
 30
0.0
 10
12.0995790119
 20
7.7291130918
 30
0.0
 10
12.0996613414
 20
7.7260594384
 30
0.0
 10
12.0997127577
 20
7.7241508373
 30
0.0
 10
12.0997539817
 20
7.7226241115
 30
0.0
 10
12.0997846507
 20
7.7214786427
 30
0.0
 10
12.0998110001
 20
7.7205254355
 30
0.0
 10
12.0998278906
 20
7.7198555409
 30
0.0
 10
12.0998399689
 20
7.7194768809
 30
0.0
 10
12.0998421921
 20
7.7191812323
 30
0.0
 10
12.0998705438
 20
7.7189301299
 30
0.0
 10
12.0998992322
 20
7.7185797884
 30
0.0
 10
12.0999536832
 20
7.7179739304
 30
0.0
 10
12.1000292503
 20
7.717104634
 30
0.0
 10
12.100120881
 20
7.7160630984
 30
0.0
 10
12.1002427234
 20
7.7146738184
 30
0.0
 10
12.1003951401
 20
7.7129374122
 30
0.0
 10
12.1006389433
 20
7.7101590539
 30
0.0
 10
12.1009437192
 20
7.7066861435
 30
0.0
 10
12.1013094403
 20
7.7025186335
 30
0.0
 10
12.1016751662
 20
7.6983511338
 30
0.0
 10
12.1019799299
 20
7.6948781979
 30
0.0
 10
12.1022237574
 20
7.6920998906
 30
0.0
 10
12.1023761122
 20
7.6903633548
 30
0.0
 10
12.1024980817
 20
7.6889743407
 30
0.0
 10
12.1025893242
 20
7.6879319927
 30
0.0
 10
12.102666106
 20
7.6870652383
 30
0.0
 10
12.1027183886
 20
7.6864548424
 30
0.0
 10
12.1027505513
 20
7.6861117717
 30
0.0
 10
12.1027682309
 20
7.6858383359
 30
0.0
 10
12.1028105366
 20
7.6856265676
 30
0.0
 10
12.1028583543
 20
7.6853226996
 30
0.0
 10
12.1029460374
 20
7.6848009527
 30
0.0
 10
12.1030692066
 20
7.6840503602
 30
0.0
 10
12.1032179053
 20
7.683151892
 30
0.0
 10
12.1034158574
 20
7.6819531511
 30
0.0
 10
12.1036634046
 20
7.6804549932
 30
0.0
 10
12.1040594203
 20
7.6780577905
 30
0.0
 10
12.1045544606
 20
7.675061339
 30
0.0
 10
12.1051484995
 20
7.6714655733
 30
0.0
 10
12.105742543
 20
7.6678698204
 30
0.0
 10
12.1062375717
 20
7.6648733369
 30
0.0
 10
12.1066336106
 20
7.6624761982
 30
0.0
 10
12.1068810986
 20
7.6609778776
 30
0.0
 10
12.1070791723
 20
7.6597794705
 30
0.0
 10
12.1072274997
 20
7.6588799825
 30
0.0
 10
12.1073518305
 20
7.6581325807
 30
0.0
 10
12.10743744
 20
7.6576051379
 30
0.0
 10
12.1074885801
 20
7.6573103961
 30
0.0
 10
12.1075206805
 20
7.6570705951
 30
0.0
 10
12.1075766894
 20
7.6569024455
 30
0.0
 10
12.1076430283
 20
7.6566532533
 30
0.0
 10
12.107763007
 20
7.6562288115
 30
0.0
 10
12.1079323738
 20
7.655616378
 30
0.0
 10
12.1081364834
 20
7.6548840638
 30
0.0
 10
12.1084083258
 20
7.6539067346
 30
0.0
 10
12.1087482329
 20
7.6526853847
 30
0.0
 10
12.109292026
 20
7.6507310508
 30
0.0
 10
12.1099717874
 20
7.6482881931
 30
0.0
 10
12.1107874925
 20
7.6453567383
 30
0.0
 10
12.1114672487
 20
7.642913865
 30
0.0
 10
12.1120110533
 20
7.6409595655
 30
0.0
 10
12.1124189066
 20
7.6394938399
 30
0.0
 10
12.1128267608
 20
7.6380281188
 30
0.0
 10
12.1131666366
 20
7.6368066704
 30
0.0
 10
12.1134385431
 20
7.6358295433
 30
0.0
 10
12.1136084714
 20
7.6352187669
 30
0.0
 10
12.1137444444
 20
7.6347303106
 30
0.0
 10
12.1138463409
 20
7.6343635171
 30
0.0
 10
12.1139315196
 20
7.6340592916
 30
0.0
 10
12.1139906248
 20
7.633843516
 30
0.0
 10
12.1140252109
 20
7.6337246154
 30
0.0
 10
12.114048864
 20
7.6336230457
 30
0.0
 10
12.114081257
 20
7.6335688531
 30
0.0
 10
12.1141213992
 20
7.6334800705
 30
0.0
 10
12.1141930684
 20
7.6333324007
 30
0.0
 10
12.1142947104
 20
7.6331174184
 30
0.0
 10
12.1144169986
 20
7.6328611627
 30
0.0
 10
12.1145799385
 20
7.6325188865
 30
0.0
 10
12.1147836514
 20
7.6320912474
 30
0.0
 10
12.1151095709
 20
7.6314069096
 30
0.0
 10
12.1155169774
 20
7.6305515269
 30
0.0
 10
12.1160058622
 20
7.6295250507
 30
0.0
 10
12.1164947478
 20
7.628498579
 30
0.0
 10
12.117146595
 20
7.6271299486
 30
0.0
 10
12.1179614041
 20
7.6254191611
 30
0.0
 10
12.1187762131
 20
7.6237083732
 30
0.0
 10
12.1194280604
 20
7.6223397434
 30
0.0
 10
12.1199169457
 20
7.6213132698
 30
0.0
 10
12.1204058316
 20
7.6202868009
 30
0.0
 10
12.1208132344
 20
7.6194313956
 30
0.0
 10
12.1211391616
 20
7.6187471038
 30
0.0
 10
12.1213428548
 20
7.6183193478
 30
0.0
 10
12.1215058352
 20
7.6179773115
 30
0.0
 10
12.1216279999
 20
7.6177203227
 30
0.0
 10
12.1217300283
 20
7.617507634
 30
0.0
 10
12.1218010076
 20
7.6173558698
 30
0.0
 10
12.1218422552
 20
7.6172736476
 30
0.0
 10
12.1218712527
 20
7.6171993037
 30
0.0
 10
12.1219076589
 20
7.6171734185
 30
0.0
 10
12.1219536163
 20
7.617122002
 30
0.0
 10
12.1220352457
 20
7.6170398985
 30
0.0
 10
12.1221512298
 20
7.6169184904
 30
0.0
 10
12.12229068
 20
7.6167745631
 30
0.0
 10
12.1224765196
 20
7.6165820444
 30
0.0
 10
12.1227088513
 20
7.6163416068
 30
0.0
 10
12.1230805639
 20
7.6159567889
 30
0.0
 10
12.123545211
 20
7.615475807
 30
0.0
 10
12.1241027848
 20
7.6148986113
 30
0.0
 10
12.1246603592
 20
7.6143214202
 30
0.0
 10
12.1254037917
 20
7.6135518305
 30
0.0
 10
12.1263330823
 20
7.612589844
 30
0.0
 10
12.1272623728
 20
7.6116278571
 30
0.0
 10
12.1280058053
 20
7.6108582681
 30
0.0
 10
12.1285633796
 20
7.610281075
 30
0.0
 10
12.1291209543
 20
7.6097038868
 30
0.0
 10
12.1295855984
 20
7.6092228815
 30
0.0
 10
12.1299573171
 20
7.6088381112
 30
0.0
 10
12.1301896335
 20
7.6085975525
 30
0.0
 10
12.1303755044
 20
7.6084052825
 30
0.0
 10
12.1305148588
 20
7.6082605957
 30
0.0
 10
12.1306311426
 20
7.6081415638
 30
0.0
 10
12.1307122369
 20
7.6080552183
 30
0.0
 10
12.1307590518
 20
7.6080105985
 30
0.0
 10
12.130792824
 20
7.6079638361
 30
0.0
 10
12.1308317143
 20
7.6079679036
 30
0.0
 10
12.1308817827
 20
7.6079555969
 30
0.0
 10
12.1309702342
 20
7.6079423209
 30
0.0
 10
12.1310961587
 20
7.6079190365
 30
0.0
 10
12.1312474542
 20
7.6078929437
 30
0.0
 10
12.1314491165
 20
7.6078575076
 30
0.0
 10
12.1317012167
 20
7.6078134336
 30
0.0
 10
12.1321045645
 20
7.6077427917
 30
0.0
 10
12.1326087536
 20
7.6076545316
 30
0.0
 10
12.1332137787
 20
7.6075486014
 30
0.0
 10
12.1338188042
 20
7.6074426761
 30
0.0
 10
12.1346255047
 20
7.6073014406
 30
0.0
 10
12.1356338805
 20
7.6071248968
 30
0.0
 10
12.1366422561
 20
7.6069483526
 30
0.0
 10
12.1374489567
 20
7.6068071178
 30
0.0
 10
12.1380539821
 20
7.6067011904
 30
0.0
 10
12.1386590078
 20
7.606595268
 30
0.0
 10
12.1391631948
 20
7.6065069837
 30
0.0
 10
12.1395665469
 20
7.6064363912
 30
0.0
 10
12.1398186361
 20
7.6063921913
 30
0.0
 10
12.1400203209
 20
7.6063570137
 30
0.0
 10
12.1401715478
 20
7.6063301311
 30
0.0
 10
12.140297687
 20
7.606309318
 30
0.0
 10
12.1403857552
 20
7.6062916301
 30
0.0
 10
12.1404364378
 20
7.6062863924
 30
0.0
 10
12.1404734417
 20
7.6062687464
 30
0.0
 10
12.1405142985
 20
7.6063035364
 30
0.0
 10
12.1405674304
 20
7.6063316328
 30
0.0
 10
12.1406610373
 20
7.6063893233
 30
0.0
 10
12.140794434
 20
7.606467283
 30
0.0
 10
12.1409546502
 20
7.6065627417
 30
0.0
 10
12.1411682229
 20
7.6066893539
 30
0.0
 10
12.1414352055
 20
7.6068478472
 30
0.0
 10
12.1418623682
 20
7.607101309
 30
0.0
 10
12.1423963249
 20
7.6074181799
 30
0.0
 10
12.1430370716
 20
7.6077984063
 30
0.0
 10
12.1436778186
 20
7.6081786377
 30
0.0
 10
12.1445321478
 20
7.6086856112
 30
0.0
 10
12.1456000594
 20
7.6093193287
 30
0.0
 10
12.146667971
 20
7.6099530457
 30
0.0
 10
12.1475223003
 20
7.6104600199
 30
0.0
 10
12.1481630472
 20
7.6108402493
 30
0.0
 10
12.1488037941
 20
7.6112204833
 30
0.0
 10
12.1493377502
 20
7.6115373304
 30
0.0
 10
12.1497649142
 20
7.611790841
 30
0.0
 10
12.1500318936
 20
7.61194921
 30
0.0
 10
12.1502454729
 20
7.6120760772
 30
0.0
 10
12.1504056688
 20
7.6121707566
 30
0.0
 10
12.1505391291
 20
7.6122511545
 30
0.0
 10
12.1506326225
 20
7.6123044925
 30
0.0
 10
12.1506859361
 20
7.6123395627
 30
0.0
 10
12.1507262345
 20
7.6123529316
 30
0.0
 10
12.150765336
 20
7.6124157399
 30
0.0
 10
12.1508178888
 20
7.6124822393
 30
0.0
 10
12.1509096617
 20
7.612606648
 30
0.0
 10
12.1510408676
 20
7.6127801741
 30
0.0
 10
12.1511982711
 20
7.6129902034
 30
0.0
 10
12.1514081576
 20
7.6132696145
 30
0.0
 10
12.1516705106
 20
7.6136190934
 30
0.0
 10
12.1520902782
 20
7.6141781394
 30
0.0
 10
12.1526149868
 20
7.6148769882
 30
0.0
 10
12.1532446375
 20
7.615715589
 30
0.0
 10
12.1538742881
 20
7.6165541946
 30
0.0
 10
12.1547138223
 20
7.6176723337
 30
0.0
 10
12.15576324
 20
7.6190700082
 30
0.0
 10
12.1568126577
 20
7.6204676823
 30
0.0
 10
12.1576521918
 20
7.6215858221
 30
0.0
 10
12.1582818425
 20
7.6224244257
 30
0.0
 10
12.1589114929
 20
7.6232630338
 30
0.0
 10
12.1594362024
 20
7.6239618601
 30
0.0
 10
12.1598559682
 20
7.624520952
 30
0.0
 10
12.1601183258
 20
7.6248703141
 30
0.0
 10
12.1603282029
 20
7.6251499648
 30
0.0
 10
12.1604856353
 20
7.6253592621
 30
0.0
 10
12.1606167506
 20
7.6255350784
 30
0.0
 10
12.1607086852
 20
7.6256553987
 30
0.0
 10
12.160760979
 20
7.6257284489
 30
0.0
 10
12.1608008761
 20
7.6257711351
 30
0.0
 10
12.1608381864
 20
7.6258600792
 30
0.0
 10
12.1608888357
 20
7.625962536
 30
0.0
 10
12.1609770517
 20
7.6261493531
 30
0.0
 10
12.1611032943
 20
7.6264123043
 30
0.0
 10
12.1612546914
 20
7.6267295281
 30
0.0
 10
12.161456587
 20
7.6271519056
 30
0.0
 10
12.1617089453
 20
7.6276800787
 30
0.0
 10
12.1621127248
 20
7.6285250431
 30
0.0
 10
12.1626174471
 20
7.6295812872
 30
0.0
 10
12.1632231147
 20
7.6308487636
 30
0.0
 10
12.163828782
 20
7.6321162444
 30
0.0
 10
12.1646363386
 20
7.6338062172
 30
0.0
 10
12.1656457843
 20
7.6359186843
 30
0.0
 10
12.1666552302
 20
7.6380311493
 30
0.0
 10
12.1674627864
 20
7.6397211253
 30
0.0
 10
12.1680684549
 20
7.6409885966
 30
0.0
 10
12.1686741183
 20
7.6422561089
 30
0.0
 10
12.1691788536
 20
7.6433122413
 30
0.0
 10
12.1695826065
 20
7.6441574335
 30
0.0
 10
12.1698855178
 20
7.6447905454
 30
0.0
 10
12.1701376363
 20
7.6453206269
 30
0.0
 10
12.170314723
 20
7.6456868009
 30
0.0
 10
12.1704149727
 20
7.6459036677
 30
0.0
 10
12.1704928154
 20
7.6460448394
 30
0.0
 10
12.170560508
 20
7.6462681124
 30
0.0
 10
12.1706543052
 20
7.6465371718
 30
0.0
 10
12.1708168008
 20
7.6470213686
 30
0.0
 10
12.1710497998
 20
7.6477061026
 30
0.0
 10
12.1713290294
 20
7.6485307693
 30
0.0
 10
12.1717014646
 20
7.6496292818
 30
0.0
 10
12.1721669642
 20
7.6510027804
 30
0.0
 10
12.1727255828
 20
7.6526508253
 30
0.0
 10
12.1732841962
 20
7.6542989111
 30
0.0
 10
12.1740290159
 20
7.6564963449
 30
0.0
 10
12.1749600403
 20
7.6592431403
 30
0.0
 10
12.1760772684
 20
7.6625393002
 30
0.0
 10
12.1770082957
 20
7.6652860778
 30
0.0
 10
12.1777531089
 20
7.6674835509
 30
0.0
 10
12.1782186368
 20
7.6688568551
 30
0.0
 10
12.178591014
 20
7.6699557652
 30
0.0
 10
12.1788704208
 20
7.6707792175
 30
0.0
 10
12.1791028654
 20
7.671467751
 30
0.0
 10
12.1792663506
 20
7.671945165
 30
0.0
 10
12.1793585623
 20
7.6722250923
 30
0.0
 10
12.1794311249
 20
7.6724149827
 30
0.0
 10
12.1794906766
 20
7.6726815334
 30
0.0
 10
12.1795746172
 20
7.6730101943
 30
0.0
 10
12.1797193987
 20
7.6735978096
 30
0.0
 10
12.1799273349
 20
7.6744307464
 30
0.0
 10
12.1801763851
 20
7.6754330586
 30
0.0
 10
12.1805086174
 20
7.6767685011
 30
0.0
 10
12.1809238512
 20
7.6784381376
 30
0.0
 10
12.1815882568
 20
7.6811093697
 30
0.0
 10
12.1824187529
 20
7.684448474
 30
0.0
 10
12.1834153534
 20
7.6884553705
 30
0.0
 10
12.1844119507
 20
7.6924622788
 30
0.0
 10
12.1852424549
 20
7.6958013538
 30
0.0
 10
12.1859068444
 20
7.6984726443
 30
0.0
 10
12.1863221194
 20
7.7001421324
 30
0.0
 10
12.1866542669
 20
7.7014778797
 30
0.0
 10
12.1869035763
 20
7.7024792606
 30
0.0
 10
12.1871107017
 20
7.7033151111
 30
0.0
 10
12.1872569305
 20
7.7038975251
 30
0.0
 10
12.1873385522
 20
7.7042345197
 30
0.0
 10
12.1874052269
 20
7.7044754719
 30
0.0
 10
12.1874510365
 20
7.704761506
 30
0.0
 10
12.187519394
 20
7.7051271597
 30
0.0
 10
12.1876356286
 20
7.7057743804
 30
0.0
 10
12.1878034509
 20
7.7066951508
 30
0.0
 10
12.1880040788
 20
7.707801715
 30
0.0
 10
12.1882718477
 20
7.7092765611
 30
0.0
 10
12.1886064681
 20
7.711120315
 30
0.0
 10
12.1891419116
 20
7.7140702113
 30
0.0
 10
12.1898111972
 20
7.7177576212
 30
0.0
 10
12.1906143536
 20
7.7221824878
 30
0.0
 10
12.1914174857
 20
7.7266073926
 30
0.0
 10
12.1920868319
 20
7.7302947067
 30
0.0
 10
12.1926221543
 20
7.7332447948
 30
0.0
 10
12.193024068
 20
7.7354567144
 30
0.0
 10
12.1933576544
 20
7.7373020368
 30
0.0
 10
12.1935937977
 20
7.7385897277
 30
0.0
 10
12.1937246258
 20
7.739331851
 30
0.0
 10
12.1938343276
 20
7.7398706963
 30
0.0
 10
12.1938997617
 20
7.7404773805
 30
0.0
 10
12.1940024483
 20
7.7412626297
 30
0.0
 10
12.1941749554
 20
7.742647841
 30
0.0
 10
12.1944251555
 20
7.7446209501
 30
0.0
 10
12.1947237856
 20
7.7469911484
 30
0.0
 10
12.1951225216
 20
7.7501505507
 30
0.0
 10
12.1956207472
 20
7.7541001002
 30
0.0
 10
12.1962187074
 20
7.7588394289
 30
0.0
 10
12.1968166207
 20
7.7635788061
 30
0.0
 10
12.1973149635
 20
7.7675282343
 30
0.0
 10
12.1977134652
 20
7.7706878793
 30
0.0
 10
12.1980128102
 20
7.7730573374
 30
0.0
 10
12.1982607737
 20
7.7750327618
 30
0.0
 10
12.1984372734
 20
7.7764138401
 30
0.0
 10
12.198533563
 20
7.7772057113
 30
0.0
 10
12.1986186463
 20
7.7777920549
 30
0.0
 10
12.1986545489
 20
7.778407296
 30
0.0
 10
12.1987195738
 20
7.7792175378
 30
0.0
 10
12.1988253746
 20
7.7806401571
 30
0.0
 10
12.1989806973
 20
7.7826700152
 30
0.0
 10
12.1991652959
 20
7.7851068959
 30
0.0
 10
12.1994120524
 20
7.788355703
 30
0.0
 10
12.199720282
 20
7.792416838
 30
0.0
 10
12.2000902567
 20
7.7972901451
 30
0.0
 10
12.2004601805
 20
7.8021634702
 30
0.0
 10
12.2007685373
 20
7.8062245601
 30
0.0
 10
12.2010150395
 20
7.8094734574
 30
0.0
 10
12.2012004137
 20
7.8119100629
 30
0.0
 10
12.2013533098
 20
7.8139407821
 30
0.0
 10
12.2014634425
 20
7.8153618642
 30
0.0
 10
12.2015215267
 20
7.816174569
 30
0.0
 10
12.2015787489
 20
7.8167822444
 30
0.0
 10
12.2015837592
 20
7.8173970037
 30
0.0
 10
12.2016086516
 20
7.8182142118
 30
0.0
 10
12.201643728
 20
7.8196454773
 30
0.0
 10
12.2016982735
 20
7.8216895404
 30
0.0
 10
12.2017618291
 20
7.8241426738
 30
0.0
 10
12.2018472333
 20
7.8274134283
 30
0.0
 10
12.2019537613
 20
7.8315019022
 30
0.0
 10
12.2021243332
 20
7.8380434432
 30
0.0
 10
12.2023375041
 20
7.8462203754
 30
0.0
 10
12.2025080543
 20
7.8527619194
 30
0.0
 10
12.2025933277
 20
7.8560326916
 30
0.0
  0
SPLINE
  5
36E
100
AcDbEntity
  8
0
100
AcDbSpline
 62
4
  6
CONTINUOUS
 70
0
 71
3
 72
338
 73
334
 74
0
 42
0.0000001
 43
0.0000001
 44
0.0000000001
 40
0.0
 40
0.0
 40
0.0
 40
0.0
 40
0.015625
 40
0.0234375
 40
0.03125
 40
0.0390625
 40
0.046875
 40
0.05078125
 40
0.0546875
 40
0.056640625
 40
0.05859375
 40
0.060546875
 40
0.0615234375
 40
0.0620117188
 40
0.0625
 40
0.0629882812
 40
0.0634765625
 40
0.064453125
 40
0.06640625
 40
0.068359375
 40
0.0703125
 40
0.07421875
 40
0.078125
 40
0.0859375
 40
0.09375
 40
0.1015625
 40
0.109375
 40
0.11328125
 40
0.1171875
 40
0.119140625
 40
0.12109375
 40
0.123046875
 40
0.1240234375
 40
0.1245117188
 40
0.125
 40
0.1254882812
 40
0.1259765625
 40
0.126953125
 40
0.12890625
 40
0.130859375
 40
0.1328125
 40
0.13671875
 40
0.140625
 40
0.1484375
 40
0.15625
 40
0.1640625
 40
0.171875
 40
0.17578125
 40
0.1796875
 40
0.181640625
 40
0.18359375
 40
0.185546875
 40
0.1865234375
 40
0.1870117188
 40
0.1875
 40
0.1879882812
 40
0.1884765625
 40
0.189453125
 40
0.19140625
 40
0.193359375
 40
0.1953125
 40
0.19921875
 40
0.203125
 40
0.2109375
 40
0.21875
 40
0.2265625
 40
0.23046875
 40
0.234375
 40
0.23828125
 40
0.2421875
 40
0.244140625
 40
0.24609375
 40
0.2470703125
 40
0.248046875
 40
0.2490234375
 40
0.2495117188
 40
0.2497558594
 40
0.25
 40
0.2502441406
 40
0.2504882812
 40
0.2509765625
 40
0.251953125
 40
0.2529296875
 40
0.25390625
 40
0.255859375
 40
0.2578125
 40
0.26171875
 40
0.265625
 40
0.26953125
 40
0.2734375
 40
0.28125
 40
0.2890625
 40
0.29296875
 40
0.296875
 40
0.30078125
 40
0.3046875
 40
0.306640625
 40
0.30859375
 40
0.3095703125
 40
0.310546875
 40
0.3115234375
 40
0.3120117188
 40
0.3122558594
 40
0.3125
 40
0.3127441406
 40
0.3129882812
 40
0.3134765625
 40
0.314453125
 40
0.3154296875
 40
0.31640625
 40
0.318359375
 40
0.3203125
 40
0.32421875
 40
0.328125
 40
0.33203125
 40
0.3359375
 40
0.34375
 40
0.3515625
 40
0.35546875
 40
0.359375
 40
0.36328125
 40
0.3671875
 40
0.369140625
 40
0.37109375
 40
0.3720703125
 40
0.373046875
 40
0.3740234375
 40
0.3745117188
 40
0.3747558594
 40
0.375
 40
0.3752441406
 40
0.3754882812
 40
0.3759765625
 40
0.376953125
 40
0.3779296875
 40
0.37890625
 40
0.380859375
 40
0.3828125
 40
0.38671875
 40
0.390625
 40
0.39453125
 40
0.3984375
 40
0.40625
 40
0.4140625
 40
0.41796875
 40
0.421875
 40
0.42578125
 40
0.4296875
 40
0.431640625
 40
0.43359375
 40
0.4345703125
 40
0.435546875
 40
0.4365234375
 40
0.4370117188
 40
0.4372558594
 40
0.4375
 40
0.4377441406
 40
0.4379882812
 40
0.4384765625
 40
0.439453125
 40
0.4404296875
 40
0.44140625
 40
0.443359375
 40
0.4453125
 40
0.44921875
 40
0.453125
 40
0.45703125
 40
0.4609375
 40
0.46875
 40
0.4765625
 40
0.48046875
 40
0.484375
 40
0.48828125
 40
0.4921875
 40
0.494140625
 40
0.49609375
 40
0.4970703125
 40
0.498046875
 40
0.4990234375
 40
0.4995117188
 40
0.4997558594
 40
0.5
 40
0.5002441406
 40
0.5004882812
 40
0.5009765625
 40
0.501953125
 40
0.5029296875
 40
0.50390625
 40
0.505859375
 40
0.5078125
 40
0.51171875
 40
0.515625
 40
0.51953125
 40
0.5234375
 40
0.53125
 40
0.5390625
 40
0.54296875
 40
0.546875
 40
0.55078125
 40
0.5546875
 40
0.556640625
 40
0.55859375
 40
0.5595703125
 40
0.560546875
 40
0.5615234375
 40
0.5620117188
 40
0.5622558594
 40
0.5625
 40
0.5627441406
 40
0.5629882812
 40
0.5634765625
 40
0.564453125
 40
0.5654296875
 40
0.56640625
 40
0.568359375
 40
0.5703125
 40
0.57421875
 40
0.578125
 40
0.58203125
 40
0.5859375
 40
0.59375
 40
0.6015625
 40
0.60546875
 40
0.609375
 40
0.61328125
 40
0.6171875
 40
0.619140625
 40
0.62109375
 40
0.623046875
 40
0.6240234375
 40
0.6245117188
 40
0.625
 40
0.6254882812
 40
0.6259765625
 40
0.626953125
 40
0.62890625
 40
0.630859375
 40
0.6328125
 40
0.63671875
 40
0.640625
 40
0.64453125
 40
0.6484375
 40
0.65625
 40
0.6640625
 40
0.671875
 40
0.67578125
 40
0.6796875
 40
0.681640625
 40
0.68359375
 40
0.685546875
 40
0.6865234375
 40
0.6870117188
 40
0.6875
 40
0.6879882812
 40
0.6884765625
 40
0.689453125
 40
0.69140625
 40
0.693359375
 40
0.6953125
 40
0.69921875
 40
0.703125
 40
0.7109375
 40
0.71875
 40
0.7265625
 40
0.734375
 40
0.73828125
 40
0.7421875
 40
0.744140625
 40
0.74609375
 40
0.748046875
 40
0.7490234375
 40
0.7495117188
 40
0.75
 40
0.7504882812
 40
0.7509765625
 40
0.751953125
 40
0.75390625
 40
0.755859375
 40
0.7578125
 40
0.76171875
 40
0.765625
 40
0.7734375
 40
0.78125
 40
0.7890625
 40
0.796875
 40
0.80078125
 40
0.8046875
 40
0.80859375
 40
0.810546875
 40
0.8115234375
 40
0.8125
 40
0.8134765625
 40
0.814453125
 40
0.81640625
 40
0.8203125
 40
0.82421875
 40
0.828125
 40
0.8359375
 40
0.84375
 40
0.8515625
 40
0.859375
 40
0.86328125
 40
0.8671875
 40
0.87109375
 40
0.873046875
 40
0.8740234375
 40
0.875
 40
0.8759765625
 40
0.876953125
 40
0.87890625
 40
0.8828125
 40
0.88671875
 40
0.890625
 40
0.8984375
 40
0.90625
 40
0.9140625
 40
0.921875
 40
0.92578125
 40
0.9296875
 40
0.93359375
 40
0.935546875
 40
0.9365234375
 40
0.9375
 40
0.9384765625
 40
0.939453125
 40
0.94140625
 40
0.9453125
 40
0.94921875
 40
0.953125
 40
0.9609375
 40
0.96875
 40
0.984375
 40
1.0
 40
1.0
 40
1.0
 40
1.0
 10
12.2025933277
 20
7.8560326747
 30
0.0
 10
12.2025110106
 20
7.8590863495
 30
0.0
 10
12.2023875351
 20
7.8636668617
 30
0.0
 10
12.2022229009
 20
7.8697742109
 30
0.0
 10
12.2020994258
 20
7.874354724
 30
0.0
 10
12.2019759483
 20
7.8789352327
 30
0.0
 10
12.2018730581
 20
7.8827523366
 30
0.0
 10
12.2017907285
 20
7.88580599
 30
0.0
 10
12.2017393123
 20
7.8877145911
 30
0.0
 10
12.2016980883
 20
7.8892413169
 30
0.0
 10
12.2016674193
 20
7.8903867857
 30
0.0
 10
12.2016410699
 20
7.891339993
 30
0.0
 10
12.2016241793
 20
7.8920098875
 30
0.0
 10
12.2016121011
 20
7.8923885475
 30
0.0
 10
12.2016098779
 20
7.8926841961
 30
0.0
 10
12.2015815262
 20
7.8929352986
 30
0.0
 10
12.2015528378
 20
7.89328564
 30
0.0
 10
12.2014983868
 20
7.8938914981
 30
0.0
 10
12.2014228197
 20
7.8947607945
 30
0.0
 10
12.201331189
 20
7.8958023301
 30
0.0
 10
12.2012093466
 20
7.89719161
 30
0.0
 10
12.2010569299
 20
7.8989280163
 30
0.0
 10
12.2008131267
 20
7.9017063746
 30
0.0
 10
12.2005083508
 20
7.9051792849
 30
0.0
 10
12.2001426297
 20
7.9093467949
 30
0.0
 10
12.1997769038
 20
7.9135142947
 30
0.0
 10
12.1994721401
 20
7.9169872305
 30
0.0
 10
12.1992283126
 20
7.9197655378
 30
0.0
 10
12.1990759578
 20
7.9215020736
 30
0.0
 10
12.1989539883
 20
7.9228910877
 30
0.0
 10
12.1988627458
 20
7.9239334357
 30
0.0
 10
12.198785964
 20
7.9248001902
 30
0.0
 10
12.1987336814
 20
7.925410586
 30
0.0
 10
12.1987015187
 20
7.9257536567
 30
0.0
 10
12.198683839
 20
7.9260270925
 30
0.0
 10
12.1986415334
 20
7.9262388608
 30
0.0
 10
12.1985937157
 20
7.9265427288
 30
0.0
 10
12.1985060326
 20
7.9270644758
 30
0.0
 10
12.1983828634
 20
7.9278150682
 30
0.0
 10
12.1982341647
 20
7.9287135364
 30
0.0
 10
12.1980362126
 20
7.9299122773
 30
0.0
 10
12.1977886654
 20
7.9314104353
 30
0.0
 10
12.1973926497
 20
7.9338076379
 30
0.0
 10
12.1968976094
 20
7.9368040894
 30
0.0
 10
12.1963035705
 20
7.9403998551
 30
0.0
 10
12.195709527
 20
7.9439956081
 30
0.0
 10
12.1952144983
 20
7.9469920915
 30
0.0
 10
12.1948184594
 20
7.9493892302
 30
0.0
 10
12.1945709713
 20
7.9508875508
 30
0.0
 10
12.1943728977
 20
7.9520859579
 30
0.0
 10
12.1942245703
 20
7.9529854459
 30
0.0
 10
12.1941002395
 20
7.9537328477
 30
0.0
 10
12.19401463
 20
7.9542602905
 30
0.0
 10
12.1939634899
 20
7.9545550323
 30
0.0
 10
12.1939313895
 20
7.9547948333
 30
0.0
 10
12.1938753806
 20
7.9549629829
 30
0.0
 10
12.1938090417
 20
7.9552121751
 30
0.0
 10
12.193689063
 20
7.955636617
 30
0.0
 10
12.1935196962
 20
7.9562490504
 30
0.0
 10
12.1933155866
 20
7.9569813647
 30
0.0
 10
12.1930437442
 20
7.9579586939
 30
0.0
 10
12.1927038371
 20
7.9591800437
 30
0.0
 10
12.192160044
 20
7.9611343777
 30
0.0
 10
12.1914802826
 20
7.9635772353
 30
0.0
 10
12.1906645774
 20
7.9665086901
 30
0.0
 10
12.1899848213
 20
7.9689515634
 30
0.0
 10
12.1894410166
 20
7.9709058629
 30
0.0
 10
12.1890331634
 20
7.9723715885
 30
0.0
 10
12.1886253092
 20
7.9738373096
 30
0.0
 10
12.1882854334
 20
7.975058758
 30
0.0
 10
12.1880135269
 20
7.9760358851
 30
0.0
 10
12.1878435986
 20
7.9766466615
 30
0.0
 10
12.1877076256
 20
7.9771351178
 30
0.0
 10
12.1876057291
 20
7.9775019114
 30
0.0
 10
12.1875205504
 20
7.9778061368
 30
0.0
 10
12.1874614452
 20
7.9780219124
 30
0.0
 10
12.1874268591
 20
7.978140813
 30
0.0
 10
12.187403206
 20
7.9782423827
 30
0.0
 10
12.187370813
 20
7.9782965754
 30
0.0
 10
12.1873306708
 20
7.9783853579
 30
0.0
 10
12.1872590016
 20
7.9785330277
 30
0.0
 10
12.1871573596
 20
7.97874801
 30
0.0
 10
12.1870350714
 20
7.9790042658
 30
0.0
 10
12.1868721315
 20
7.9793465419
 30
0.0
 10
12.1866684186
 20
7.9797741811
 30
0.0
 10
12.1863424991
 20
7.9804585188
 30
0.0
 10
12.1859350926
 20
7.9813139015
 30
0.0
 10
12.1854462078
 20
7.9823403777
 30
0.0
 10
12.1849573222
 20
7.9833668494
 30
0.0
 10
12.184305475
 20
7.9847354798
 30
0.0
 10
12.1834906659
 20
7.9864462673
 30
0.0
 10
12.1826758569
 20
7.9881570552
 30
0.0
 10
12.1820240096
 20
7.989525685
 30
0.0
 10
12.1815351243
 20
7.9905521586
 30
0.0
 10
12.1810462383
 20
7.9915786276
 30
0.0
 10
12.1806388356
 20
7.9924340328
 30
0.0
 10
12.1803129084
 20
7.9931183246
 30
0.0
 10
12.1801092152
 20
7.9935460807
 30
0.0
 10
12.1799462348
 20
7.9938881169
 30
0.0
 10
12.1798240701
 20
7.9941451057
 30
0.0
 10
12.1797220417
 20
7.9943577944
 30
0.0
 10
12.1796510624
 20
7.9945095587
 30
0.0
 10
12.1796098148
 20
7.9945917809
 30
0.0
 10
12.1795808173
 20
7.9946661247
 30
0.0
 10
12.1795444111
 20
7.9946920099
 30
0.0
 10
12.1794984537
 20
7.9947434264
 30
0.0
 10
12.1794168242
 20
7.9948255299
 30
0.0
 10
12.1793008402
 20
7.994946938
 30
0.0
 10
12.17916139
 20
7.9950908654
 30
0.0
 10
12.1789755504
 20
7.995283384
 30
0.0
 10
12.1787432187
 20
7.9955238216
 30
0.0
 10
12.178371506
 20
7.9959086395
 30
0.0
 10
12.177906859
 20
7.9963896215
 30
0.0
 10
12.1773492852
 20
7.9969668172
 30
0.0
 10
12.1767917107
 20
7.9975440082
 30
0.0
 10
12.1760482783
 20
7.9983135979
 30
0.0
 10
12.1751189877
 20
7.9992755844
 30
0.0
 10
12.1741896972
 20
8.0002375713
 30
0.0
 10
12.1734462647
 20
8.0010071604
 30
0.0
 10
12.1728886904
 20
8.0015843534
 30
0.0
 10
12.1723311157
 20
8.0021615416
 30
0.0
 10
12.1718664716
 20
8.0026425469
 30
0.0
 10
12.1714947529
 20
8.0030273172
 30
0.0
 10
12.1712624365
 20
8.0032678759
 30
0.0
 10
12.1710765656
 20
8.003460146
 30
0.0
 10
12.1709372112
 20
8.0036048328
 30
0.0
 10
12.1708209274
 20
8.0037238646
 30
0.0
 10
12.1707398331
 20
8.0038102101
 30
0.0
 10
12.1706930182
 20
8.0038548299
 30
0.0
 10
12.170659246
 20
8.0039015923
 30
0.0
 10
12.1706203557
 20
8.0038975248
 30
0.0
 10
12.1705702873
 20
8.0039098315
 30
0.0
 10
12.1704818358
 20
8.0039231075
 30
0.0
 10
12.1703559113
 20
8.003946392
 30
0.0
 10
12.1702046158
 20
8.0039724848
 30
0.0
 10
12.1700029534
 20
8.0040079208
 30
0.0
 10
12.1697508533
 20
8.0040519948
 30
0.0
 10
12.1693475054
 20
8.0041226368
 30
0.0
 10
12.1688433164
 20
8.0042108968
 30
0.0
 10
12.1682382913
 20
8.004316827
 30
0.0
 10
12.1676332658
 20
8.0044227524
 30
0.0
 10
12.1668265653
 20
8.0045639879
 30
0.0
 10
12.1658181895
 20
8.0047405316
 30
0.0
 10
12.1648098138
 20
8.0049170758
 30
0.0
 10
12.1640031132
 20
8.0050583106
 30
0.0
 10
12.1633980879
 20
8.0051642381
 30
0.0
 10
12.1627930622
 20
8.0052701605
 30
0.0
 10
12.1622888752
 20
8.0053584448
 30
0.0
 10
12.1618855231
 20
8.0054290372
 30
0.0
 10
12.1616334339
 20
8.0054732372
 30
0.0
 10
12.1614317491
 20
8.0055084147
 30
0.0
 10
12.1612805222
 20
8.0055352974
 30
0.0
 10
12.161154383
 20
8.0055561104
 30
0.0
 10
12.1610663147
 20
8.0055737983
 30
0.0
 10
12.1610156322
 20
8.005579036
 30
0.0
 10
12.1609786283
 20
8.0055966821
 30
0.0
 10
12.1609377714
 20
8.005561892
 30
0.0
 10
12.1608846396
 20
8.0055337956
 30
0.0
 10
12.1607910327
 20
8.0054761051
 30
0.0
 10
12.160657636
 20
8.0053981454
 30
0.0
 10
12.1604974198
 20
8.0053026867
 30
0.0
 10
12.1602838471
 20
8.0051760745
 30
0.0
 10
12.1600168645
 20
8.0050175813
 30
0.0
 10
12.1595897017
 20
8.0047641195
 30
0.0
 10
12.1590557451
 20
8.0044472485
 30
0.0
 10
12.1584149984
 20
8.0040670221
 30
0.0
 10
12.1577742514
 20
8.0036867907
 30
0.0
 10
12.1569199221
 20
8.0031798172
 30
0.0
 10
12.1558520106
 20
8.0025460998
 30
0.0
 10
12.154784099
 20
8.0019123827
 30
0.0
 10
12.1539297697
 20
8.0014054085
 30
0.0
 10
12.1532890228
 20
8.0010251792
 30
0.0
 10
12.1526482759
 20
8.0006449451
 30
0.0
 10
12.1521143198
 20
8.0003280981
 30
0.0
 10
12.1516871558
 20
8.0000745875
 30
0.0
 10
12.1514201764
 20
7.9999162185
 30
0.0
 10
12.1512065971
 20
7.9997893512
 30
0.0
 10
12.1510464012
 20
7.9996946718
 30
0.0
 10
12.1509129409
 20
7.9996142739
 30
0.0
 10
12.1508194475
 20
7.9995609359
 30
0.0
 10
12.1507661339
 20
7.9995258657
 30
0.0
 10
12.1507258355
 20
7.9995124969
 30
0.0
 10
12.150686734
 20
7.9994496885
 30
0.0
 10
12.1506341812
 20
7.9993831891
 30
0.0
 10
12.1505424083
 20
7.9992587804
 30
0.0
 10
12.1504112024
 20
7.9990852543
 30
0.0
 10
12.1502537989
 20
7.998875225
 30
0.0
 10
12.1500439124
 20
7.9985958139
 30
0.0
 10
12.1497815594
 20
7.9982463351
 30
0.0
 10
12.1493617918
 20
7.997687289
 30
0.0
 10
12.1488370832
 20
7.9969884403
 30
0.0
 10
12.1482074325
 20
7.9961498394
 30
0.0
 10
12.1475777819
 20
7.9953112338
 30
0.0
 10
12.1467382477
 20
7.9941930947
 30
0.0
 10
12.14568883
 20
7.9927954202
 30
0.0
 10
12.1446394123
 20
7.9913977461
 30
0.0
 10
12.1437998782
 20
7.9902796064
 30
0.0
 10
12.1431702275
 20
7.9894410027
 30
0.0
 10
12.1425405771
 20
7.9886023946
 30
0.0
 10
12.1420158676
 20
7.9879035684
 30
0.0
 10
12.1415961018
 20
7.9873444765
 30
0.0
 10
12.1413337442
 20
7.9869951143
 30
0.0
 10
12.1411238671
 20
7.9867154636
 30
0.0
 10
12.1409664347
 20
7.9865061663
 30
0.0
 10
12.1408353194
 20
7.98633035
 30
0.0
 10
12.1407433848
 20
7.9862100298
 30
0.0
 10
12.140691091
 20
7.9861369795
 30
0.0
 10
12.1406511939
 20
7.9860942933
 30
0.0
 10
12.1406138836
 20
7.9860053493
 30
0.0
 10
12.1405632343
 20
7.9859028925
 30
0.0
 10
12.1404750183
 20
7.9857160754
 30
0.0
 10
12.1403487757
 20
7.9854531241
 30
0.0
 10
12.1401973786
 20
7.9851359003
 30
0.0
 10
12.139995483
 20
7.9847135228
 30
0.0
 10
12.1397431247
 20
7.9841853498
 30
0.0
 10
12.1393393452
 20
7.9833403854
 30
0.0
 10
12.1388346229
 20
7.9822841412
 30
0.0
 10
12.1382289553
 20
7.9810166649
 30
0.0
 10
12.1376232879
 20
7.979749184
 30
0.0
 10
12.1368157313
 20
7.9780592112
 30
0.0
 10
12.1358062857
 20
7.9759467442
 30
0.0
 10
12.1347968398
 20
7.9738342791
 30
0.0
 10
12.1339892836
 20
7.9721443031
 30
0.0
 10
12.1333836151
 20
7.9708768319
 30
0.0
 10
12.1327779517
 20
7.9696093196
 30
0.0
 10
12.1322732164
 20
7.9685531872
 30
0.0
 10
12.1318694635
 20
7.9677079949
 30
0.0
 10
12.1315665522
 20
7.967074883
 30
0.0
 10
12.1313144336
 20
7.9665448015
 30
0.0
 10
12.131137347
 20
7.9661786275
 30
0.0
 10
12.1310370972
 20
7.9659617607
 30
0.0
 10
12.1309592546
 20
7.965820589
 30
0.0
 10
12.130891562
 20
7.9655973161
 30
0.0
 10
12.1307977648
 20
7.9653282567
 30
0.0
 10
12.1306352692
 20
7.9648440598
 30
0.0
 10
12.1304022702
 20
7.9641593258
 30
0.0
 10
12.1301230406
 20
7.9633346592
 30
0.0
 10
12.1297506054
 20
7.9622361466
 30
0.0
 10
12.1292851058
 20
7.9608626481
 30
0.0
 10
12.1287264872
 20
7.9592146032
 30
0.0
 10
12.1281678737
 20
7.9575665173
 30
0.0
 10
12.127423054
 20
7.9553690836
 30
0.0
 10
12.1264920297
 20
7.9526222881
 30
0.0
 10
12.1253748016
 20
7.9493261282
 30
0.0
 10
12.1244437743
 20
7.9465793506
 30
0.0
 10
12.1236989611
 20
7.9443818775
 30
0.0
 10
12.1232334331
 20
7.9430085733
 30
0.0
 10
12.122861056
 20
7.9419096632
 30
0.0
 10
12.1225816492
 20
7.9410862109
 30
0.0
 10
12.1223492045
 20
7.9403976774
 30
0.0
 10
12.1221857194
 20
7.9399202634
 30
0.0
 10
12.1220935077
 20
7.9396403362
 30
0.0
 10
12.1220209451
 20
7.9394504457
 30
0.0
 10
12.1219613934
 20
7.939183895
 30
0.0
 10
12.1218774528
 20
7.9388552341
 30
0.0
 10
12.1217326713
 20
7.9382676189
 30
0.0
 10
12.1215247351
 20
7.937434682
 30
0.0
 10
12.1212756849
 20
7.9364323698
 30
0.0
 10
12.1209434526
 20
7.9350969273
 30
0.0
 10
12.1205282188
 20
7.9334272908
 30
0.0
 10
12.1198638132
 20
7.9307560587
 30
0.0
 10
12.1190333171
 20
7.9274169544
 30
0.0
 10
12.1180367165
 20
7.9234100579
 30
0.0
 10
12.1170401193
 20
7.9194031497
 30
0.0
 10
12.116209615
 20
7.9160640746
 30
0.0
 10
12.1155452256
 20
7.9133927841
 30
0.0
 10
12.1151299506
 20
7.9117232961
 30
0.0
 10
12.1147978031
 20
7.9103875488
 30
0.0
 10
12.1145484937
 20
7.9093861678
 30
0.0
 10
12.1143413682
 20
7.9085503174
 30
0.0
 10
12.1141951394
 20
7.9079679034
 30
0.0
 10
12.1141135178
 20
7.9076309087
 30
0.0
 10
12.1140468431
 20
7.9073899566
 30
0.0
 10
12.1140010335
 20
7.9071039225
 30
0.0
 10
12.113932676
 20
7.9067382687
 30
0.0
 10
12.1138164414
 20
7.9060910481
 30
0.0
 10
12.1136486191
 20
7.9051702776
 30
0.0
 10
12.1134479912
 20
7.9040637135
 30
0.0
 10
12.1131802223
 20
7.9025888673
 30
0.0
 10
12.1128456019
 20
7.9007451134
 30
0.0
 10
12.1123101584
 20
7.8977952172
 30
0.0
 10
12.1116408728
 20
7.8941078072
 30
0.0
 10
12.1108377164
 20
7.8896829407
 30
0.0
 10
12.1100345843
 20
7.8852580358
 30
0.0
 10
12.1093652381
 20
7.8815707217
 30
0.0
 10
12.1088299157
 20
7.8786206336
 30
0.0
 10
12.108428002
 20
7.876408714
 30
0.0
 10
12.1080944156
 20
7.8745633916
 30
0.0
 10
12.1078582723
 20
7.8732757008
 30
0.0
 10
12.1077274442
 20
7.8725335774
 30
0.0
 10
12.1076177424
 20
7.8719947321
 30
0.0
 10
12.1075523083
 20
7.8713880479
 30
0.0
 10
12.1074496217
 20
7.8706027987
 30
0.0
 10
12.1072771146
 20
7.8692175875
 30
0.0
 10
12.1070269145
 20
7.8672444783
 30
0.0
 10
12.1067282844
 20
7.8648742801
 30
0.0
 10
12.1063295484
 20
7.8617148777
 30
0.0
 10
12.1058313228
 20
7.8577653282
 30
0.0
 10
12.1052333626
 20
7.8530259995
 30
0.0
 10
12.1046354492
 20
7.8482866224
 30
0.0
 10
12.1041371065
 20
7.8443371941
 30
0.0
 10
12.1037386048
 20
7.8411775492
 30
0.0
 10
12.1034392598
 20
7.838808091
 30
0.0
 10
12.1031912962
 20
7.8368326667
 30
0.0
 10
12.1030147966
 20
7.8354515884
 30
0.0
 10
12.102918507
 20
7.8346597171
 30
0.0
 10
12.1028334237
 20
7.8340733735
 30
0.0
 10
12.1027975211
 20
7.8334581324
 30
0.0
 10
12.1027324962
 20
7.8326478907
 30
0.0
 10
12.1026266954
 20
7.8312252713
 30
0.0
 10
12.1024713727
 20
7.8291954132
 30
0.0
 10
12.1022867741
 20
7.8267585325
 30
0.0
 10
12.1020400176
 20
7.8235097254
 30
0.0
 10
12.101731788
 20
7.8194485904
 30
0.0
 10
12.1013618133
 20
7.8145752833
 30
0.0
 10
12.1009918895
 20
7.8097019582
 30
0.0
 10
12.1006835327
 20
7.8056408683
 30
0.0
 10
12.1004370305
 20
7.802391971
 30
0.0
 10
12.1002516563
 20
7.7999553656
 30
0.0
 10
12.1000987601
 20
7.7979246463
 30
0.0
 10
12.0999886275
 20
7.7965035642
 30
0.0
 10
12.0999305433
 20
7.7956908594
 30
0.0
 10
12.0998733211
 20
7.7950831841
 30
0.0
 10
12.0998683108
 20
7.7944684247
 30
0.0
 10
12.0998434184
 20
7.7936512166
 30
0.0
 10
12.0998083419
 20
7.7922199511
 30
0.0
 10
12.0997537965
 20
7.790175888
 30
0.0
 10
12.0996902408
 20
7.7877227547
 30
0.0
 10
12.0996048367
 20
7.7844520002
 30
0.0
 10
12.0994983087
 20
7.7803635263
 30
0.0
 10
12.0993277368
 20
7.7738219852
 30
0.0
 10
12.0991145659
 20
7.765645053
 30
0.0
 10
12.0989440157
 20
7.759103509
 30
0.0
 10
12.0988587423
 20
7.7558327368
 30
0.0
  0
ELLIPSE
  5
36F
100
AcDbEntity
  8
0
100
AcDbEllipse
 62
7
  6
CONTINUOUS
 10
11.3181472462
 20
8.0211170435
 30
0.0
 11
-0.1361465482
 21
0.1438383595
 31
0.0
 40
0.8456173891
 41
0.0
 42
6.2831853072
  0
ENDSEC
  0
SECTION
  2
OBJECTS
  0
DICTIONARY
  5
C
100
AcDbDictionary
280
0
281
1
  3
ACAD_GROUP
350
D
  3
ACAD_MLINESTYLE
350
17
  3
ACAD_LAYOUT
350
1A
  3
ACAD_PLOTSETTINGS
350
19
  3
ACAD_PLOTSTYLENAME
350
E
  3
ACAD_IMAGE_DICT
350
       371
  3
ACAD_IMAGE_VARS
350
       372
  3
ACAD_TABLESTYLE
350
       373
  0
IMAGEDEF_REACTOR
  5
370
100
AcDbRasterImageDefReactor
 90
2
330
284
  0
DICTIONARY
  5
D
102
{ACAD_REACTORS
330
C
102
}
100
AcDbDictionary
280
0
281
1
  0
ACDBDICTIONARYWDFLT
  5
E
102
{ACAD_REACTORS
330
C
102
}
100
AcDbDictionary
281
1
  3
Normal
350
F
100
AcDbDictionaryWithDefault
340
F
  0
DICTIONARY
  5
371
330
C
100
AcDbDictionary
281
1
  3
BBW_assy_2_img_1
350
       376
  0
RASTERVARIABLES
  5
372
330
C
100
AcDbRasterVariables
 90
0
 70
0
 71
1
 72
5
  0
DICTIONARY
  5
17
102
{ACAD_REACTORS
330
C
102
}
100
AcDbDictionary
280
0
281
1
  3
Standard
350
18
  0
DICTIONARY
  5
373
330
C
100
AcDbDictionary
281
1
  3
Standard
350
       377
  3
Standard1
350
       378
  0
DICTIONARY
  5
19
102
{ACAD_REACTORS
330
C
102
}
100
AcDbDictionary
281
1
  0
DICTIONARY
  5
1A
102
{ACAD_REACTORS
330
C
102
}
100
AcDbDictionary
281
1
  3
Model
350
374
  3
Layout1
350
375
  0
ACDBPLACEHOLDER
  5
F
102
{ACAD_REACTORS
330
E
102
}
  0
MLINESTYLE
  5
18
102
{ACAD_REACTORS
330
17
102
}
100
AcDbMlineStyle
  2
STANDARD
 70
0
  3

 62
256
 51
90.0
 52
90.0
 71
2
 49
0.5
 62
256
  6
BYLAYER
 49
-0.5
 62
256
  6
BYLAYER
  0
LAYOUT
  5
374
102
{ACAD_REACTORS
330
1A
102
}
100
AcDbPlotSettings
  1

  2
none_device
  4
ANSI_C_(22.00_x_17.00_Inches)
  6

 40
0.0
 41
0.0
 42
0.0
 43
0.0
 44
558.8
 45
431.8
 46
0.0
 47
0.0
 48
0.0
 49
0.0
140
0.0
141
0.0
142
1.0
143
1.0
 70
1024
 72
0
 73
0
 74
0
  7

 75
0
147
1.0
148
0.0
149
0.0
100
AcDbLayout
  1
Model
 70
0
 71
0
 10
0.0
 20
0.0
 11
22.0
 21
17.0
 12
0.0
 22
0.0
 32
0.0
 14
0.0
 24
0.0
 34
0.0
 15
0.0
 25
0.0
 35
0.0
146
0.0
 13
0.0
 23
0.0
 33
0.0
 16
1.0
 26
0.0
 36
0.0
 17
0.0
 27
1.0
 37
0.0
 76
0
330
20F
345
0
346
0
  0
LAYOUT
  5
375
102
{ACAD_REACTORS
330
1A
102
}
100
AcDbPlotSettings
  1

  2
none_device
  4
ANSI_C_(22.00_x_17.00_Inches)
  6

 40
0.0
 41
0.0
 42
0.0
 43
0.0
 44
558.8
 45
431.8
 46
0.0
 47
0.0
 48
0.0
 49
0.0
140
0.0
141
0.0
142
1.0
143
1.0
 70
0
 72
0
 73
0
 74
0
  7

 75
0
147
1.0
148
0.0
149
0.0
100
AcDbLayout
  1
Layout1
 70
0
 71
1
 10
0.0
 20
0.0
 11
22.0
 21
17.0
 12
0.0
 22
0.0
 32
0.0
 14
0.0
 24
0.0
 34
0.0
 15
0.0
 25
0.0
 35
0.0
146
0.0
 13
0.0
 23
0.0
 33
0.0
 16
1.0
 26
0.0
 36
0.0
 17
0.0
 27
1.0
 37
0.0
 76
0
330
210
345
0
346
0
  0
IMAGEDEF
  5
376
102
{ACAD_REACTORS
330
371
330
370
102
}
100
AcDbRasterImageDef
 90
0
  1
BBW_assy_2_img_1.png
 10
369.0
 20
92.0
 11
0.0066666667
 21
0.0066666667
280
1
281
0
  0
TABLESTYLE
  5
377
102
{ACAD_REACTORS
330
373
330
287
330
288
102
}
330
373
100
AcDbTableStyle
  3
Standard
 70
0
 71
0
 40
0.06
 41
0.06
280
1
281
1
  7
Standard
140
0.18
170
1
 62
0
 63
7
283
0
  7
Standard
140
0.18
170
1
 62
0
 63
7
283
0
  7
Standard
140
0.18
170
1
 62
0
 63
7
283
0
  0
TABLESTYLE
  5
378
102
{ACAD_REACTORS
330
373
330
286
102
}
330
373
100
AcDbTableStyle
  3
Standard1
 70
1
 71
0
 40
0.06
 41
0.06
280
1
281
1
  7
Standard
140
0.18
170
1
 62
0
 63
7
283
0
  7
Standard
140
0.18
170
1
 62
0
 63
7
283
0
  7
Standard
140
0.18
170
1
 62
0
 63
7
283
0
  0
ENDSEC
  0
EOF
