999
DXF file: BB9_assy_2.dxf
999
Pro/ENGINEER 2014200 by Parametric Technology Corporation
  0
SECTION
  2
HEADER
  9
$ACADVER
  1
AC1021
  9
$DWGCODEPAGE
  3
ANSI_1252
  9
$EXTMAX
 10
22.0
 20
17.0
 30
0.0
  9
$EXTMIN
 10
0.0
 20
0.0
 30
0.0
  9
$LIMMIN
 10
0.0
 20
0.0
  9
$LIMMAX
 10
22.0
 20
17.0
  9
$VIEWCTR
 10
11.0
 20
8.5
  9
$VIEWSIZE
 40
17.0
  9
$CLAYER
  8
0
  9
$LTSCALE
 40
1.21
  9
$CELTYPE
  6
BYLAYER
  9
$DIMSCALE
 40
1.0
  9
$DIMASZ
 40
0.1875
  9
$DIMEXO
 40
0.0625
  9
$DIMDLI
 40
0.836
  9
$DIMEXE
 40
0.125
  9
$DIMCEN
 40
0.198
  9
$DIMLFAC
 40
1.0
  9
$DIMBLK
  1
_FILLED
  9
$DIMTXT
 40
0.1
  9
$DIMTOL
 70
0
  9
$DIMLIM
 70
0
  9
$DIMTFAC
 40
1.0
  9
$DIMGAP
 40
0.09
  9
$DIMDSEP
 70
46
  9
$AUNITS
 70
0
  9
$PDMODE
 70
3
  9
$PDSIZE
 40
0.3125
  9
$HANDSEED
  5
40C
  9
$TILEMODE
 70
1
  9
$MEASUREMENT
 70
0
  9
$INSUNITS
 70
1
  0
ENDSEC
  0
SECTION
  2
CLASSES
  0
CLASS
  1
ACDBDICTIONARYWDFLT
  2
AcDbDictionaryWithDefault
  3
AutoCAD 2000
 90
0
 91
1
280
0
281
0
  0
CLASS
  1
ACDBPLACEHOLDER
  2
AcDbPlaceHolder
  3
AutoCAD 2000
 90
0
 91
1
280
0
281
0
  0
CLASS
  1
LAYOUT
  2
AcDbLayout
  3
AutoCAD 2000
 90
0
 91
0
280
0
281
0
  0
CLASS
  1
RASTERVARIABLES
  2
AcDbRasterVariables
  3
ISM
 90
0
 91
1
280
0
281
0
  0
CLASS
  1
IMAGEDEF
  2
AcDbRasterImageDef
  3
ISM
 90
0
 91
1
280
0
281
0
  0
CLASS
  1
IMAGEDEF_REACTOR
  2
AcDbRasterImageDefReactor
  3
ISM
 90
0
 91
1
280
0
281
0
  0
CLASS
  1
IMAGE
  2
AcDbRasterImage
  3
ISM
 90
127
 91
1
280
0
281
1
  0
CLASS
  1
TABLESTYLE
  2
AcDbTableStyle
  3
ObjectDBX Classes
 90
2047
 91
1
280
0
281
0
  0
CLASS
  1
ACAD_TABLE
  2
AcDbTable
  3
ObjectDBX Classes
 90
1025
 91
2
280
0
281
1
  0
ENDSEC
  0
SECTION
  2
TABLES
  0
TABLE
  2
VPORT
  5
8
100
AcDbSymbolTable
 70
2
  0
VPORT
  5
1F4
100
AcDbSymbolTableRecord
100
AcDbViewportTableRecord
  2
*ACTIVE
 70
0
 10
0.0
 20
0.0
 11
1.0
 21
1.0
 12
11.0
 22
8.5
 13
0.0
 23
0.0
 14
1.0
 24
1.0
 15
0.0
 25
0.0
 16
0.0
 26
0.0
 36
1.0
 17
0.0
 27
0.0
 37
0.0
 40
17.0
 41
1.2941176471
 42
50.0
 43
0.0
 44
0.0
 50
0.0
 51
0.0
 71
0
 72
100
 73
1
 74
1
 75
0
 76
0
 77
0
 78
0
  0
ENDTAB
  0
TABLE
  2
LTYPE
  5
5
100
AcDbSymbolTable
 70
6
  0
LTYPE
  5
14
100
AcDbSymbolTableRecord
100
AcDbLinetypeTableRecord
  2
BYBLOCK
 70
0
  3

 72
65
 73
0
 40
0.0
  0
LTYPE
  5
15
100
AcDbSymbolTableRecord
100
AcDbLinetypeTableRecord
  2
BYLAYER
 70
0
  3

 72
65
 73
0
 40
0.0
  0
LTYPE
  5
16
100
AcDbSymbolTableRecord
100
AcDbLinetypeTableRecord
  2
CONTINUOUS
 70
64
  3
Solid line
 72
65
 73
0
 40
0.0
  0
LTYPE
  5
1F5
100
AcDbSymbolTableRecord
100
AcDbLinetypeTableRecord
  2
CENTER
 70
64
  3
____ _ ____ _ ____ _ ____ _ ____ _ ____ _ ____
 72
65
 73
4
 40
0.6
 49
0.375
 74
0
 49
-0.075
 74
0
 49
0.075
 74
0
 49
-0.075
 74
0
  0
LTYPE
  5
1F6
100
AcDbSymbolTableRecord
100
AcDbLinetypeTableRecord
  2
HIDDEN
 70
64
  3
- - - - - - - - - - - - - - - - - - - -
 72
65
 73
2
 40
0.2
 49
0.1
 74
0
 49
-0.1
 74
0
  0
LTYPE
  5
1F7
100
AcDbSymbolTableRecord
100
AcDbLinetypeTableRecord
  2
PHANTOM
 70
64
  3
_____ _ _ _____ _ _ _____ _ _ _____
 72
65
 73
6
 40
0.8
 49
0.45
 74
0
 49
-0.05
 74
0
 49
0.1
 74
0
 49
-0.05
 74
0
 49
0.1
 74
0
 49
-0.05
 74
0
  0
LTYPE
  5
1F8
100
AcDbSymbolTableRecord
100
AcDbLinetypeTableRecord
  2
DOT
 70
64
  3
. . . . . . . . . . . . . . . . . . . .
 72
65
 73
2
 40
0.2
 49
0.1
 74
0
 49
-0.1
 74
0
  0
LTYPE
  5
1F9
100
AcDbSymbolTableRecord
100
AcDbLinetypeTableRecord
  2
DASHED
 70
64
  3
- - - - - - - - - - - - - - - - - - - -
 72
65
 73
2
 40
0.2
 49
0.1
 74
0
 49
-0.1
 74
0
  0
ENDTAB
  0
TABLE
  2
LAYER
  5
2
100
AcDbSymbolTable
 70
36
  0
LAYER
  5
10
100
AcDbSymbolTableRecord
100
AcDbLayerTableRecord
  2
0
 70
0
 62
7
  6
CONTINUOUS
370
-3
390
F
  0
LAYER
  5
1FA
100
AcDbSymbolTableRecord
100
AcDbLayerTableRecord
  2
DEFAULT_1
 70
0
 62
7
  6
CENTER
370
-3
390
F
  0
LAYER
  5
1FB
100
AcDbSymbolTableRecord
100
AcDbLayerTableRecord
  2
DEFAULT_2
 70
0
 62
8
  6
HIDDEN
370
-3
390
F
  0
LAYER
  5
1FC
100
AcDbSymbolTableRecord
100
AcDbLayerTableRecord
  2
DEFAULT_3
 70
0
 62
7
  6
PHANTOM
370
-3
390
F
  0
LAYER
  5
1FD
100
AcDbSymbolTableRecord
100
AcDbLayerTableRecord
  2
01___PRT_ALL_DTM_PLN
 70
0
 62
7
  6
CONTINUOUS
370
-3
390
F
  0
LAYER
  5
1FE
100
AcDbSymbolTableRecord
100
AcDbLayerTableRecord
  2
01___PRT_DEF_DTM_PLN
 70
0
 62
7
  6
CONTINUOUS
370
-3
390
F
  0
LAYER
  5
1FF
100
AcDbSymbolTableRecord
100
AcDbLayerTableRecord
  2
02___PRT_ALL_AXES
 70
0
 62
7
  6
CONTINUOUS
370
-3
390
F
  0
LAYER
  5
200
100
AcDbSymbolTableRecord
100
AcDbLayerTableRecord
  2
03___PRT_ALL_CURVES
 70
0
 62
7
  6
CONTINUOUS
370
-3
390
F
  0
LAYER
  5
201
100
AcDbSymbolTableRecord
100
AcDbLayerTableRecord
  2
04___PRT_ALL_DTM_PNT
 70
0
 62
7
  6
CONTINUOUS
370
-3
390
F
  0
LAYER
  5
202
100
AcDbSymbolTableRecord
100
AcDbLayerTableRecord
  2
05___PRT_ALL_DTM_CSYS
 70
0
 62
7
  6
CONTINUOUS
370
-3
390
F
  0
LAYER
  5
203
100
AcDbSymbolTableRecord
100
AcDbLayerTableRecord
  2
05___PRT_DEF_DTM_CSYS
 70
0
 62
7
  6
CONTINUOUS
370
-3
390
F
  0
LAYER
  5
204
100
AcDbSymbolTableRecord
100
AcDbLayerTableRecord
  2
06___PRT_ALL_SURFS
 70
0
 62
7
  6
CONTINUOUS
370
-3
390
F
  0
LAYER
  5
205
100
AcDbSymbolTableRecord
100
AcDbLayerTableRecord
  2
DATUM_PLANES
 70
0
 62
7
  6
CONTINUOUS
370
-3
390
F
  0
LAYER
  5
206
100
AcDbSymbolTableRecord
100
AcDbLayerTableRecord
  2
DIMENSIONS
 70
0
 62
7
  6
CONTINUOUS
370
-3
390
F
  0
LAYER
  5
207
100
AcDbSymbolTableRecord
100
AcDbLayerTableRecord
  2
DTM_500001
 70
0
 62
7
  6
CONTINUOUS
370
-3
390
F
  0
LAYER
  5
208
100
AcDbSymbolTableRecord
100
AcDbLayerTableRecord
  2
PARAMETERDIMENSIONS
 70
0
 62
7
  6
CONTINUOUS
370
-3
390
F
  0
LAYER
  5
209
100
AcDbSymbolTableRecord
100
AcDbLayerTableRecord
  2
PORT_AREAS
 70
0
 62
7
  6
CONTINUOUS
370
-3
390
F
  0
LAYER
  5
20A
100
AcDbSymbolTableRecord
100
AcDbLayerTableRecord
  2
SUNNBOMCOSMETIC
 70
0
 62
7
  6
CONTINUOUS
370
-3
390
F
  0
LAYER
  5
20B
100
AcDbSymbolTableRecord
100
AcDbLayerTableRecord
  2
SUNNBOMSTAMPING
 70
0
 62
7
  6
CONTINUOUS
370
-3
390
F
  0
LAYER
  5
20C
100
AcDbSymbolTableRecord
100
AcDbLayerTableRecord
  2
THREADS
 70
0
 62
7
  6
CONTINUOUS
370
-3
390
F
  0
ENDTAB
  0
TABLE
  2
STYLE
  5
3
100
AcDbSymbolTable
 70
1
  0
STYLE
  5
11
100
AcDbSymbolTableRecord
100
AcDbTextStyleTableRecord
  2
STANDARD
 70
0
 40
0.0
 41
0.8
 50
0.0
 71
0
 42
0.2
  3
txt
  4

  0
STYLE
  5
20D
100
AcDbSymbolTableRecord
100
AcDbTextStyleTableRecord
  2
TEXTSTYLE_1
 70
0
 40
0.0
 41
0.8
 50
0.0
 71
0
 42
0.2
  3
gdt
  4

  0
ENDTAB
  0
TABLE
  2
VIEW
  5
6
100
AcDbSymbolTable
 70
0
  0
ENDTAB
  0
TABLE
  2
UCS
  5
7
100
AcDbSymbolTable
 70
0
  0
ENDTAB
  0
TABLE
  2
APPID
  5
9
100
AcDbSymbolTable
 70
1
  0
APPID
  5
20E
100
AcDbSymbolTableRecord
100
AcDbRegAppTableRecord
  2
ACAD
 70
0
  0
ENDTAB
  0
TABLE
  2
BLOCK_RECORD
  5
1
100
AcDbSymbolTable
 70
0
  0
BLOCK_RECORD
  5
20F
100
AcDbSymbolTableRecord
100
AcDbBlockTableRecord
  2
*Model_Space
  0
BLOCK_RECORD
  5
210
100
AcDbSymbolTableRecord
100
AcDbBlockTableRecord
  2
*Paper_Space
  0
BLOCK_RECORD
  5
211
100
AcDbSymbolTableRecord
100
AcDbBlockTableRecord
  2
SUN_FIRST_THIRD_ANGLE_BL0
  0
BLOCK_RECORD
  5
212
100
AcDbSymbolTableRecord
100
AcDbBlockTableRecord
  2
*T1
  0
BLOCK_RECORD
  5
213
100
AcDbSymbolTableRecord
100
AcDbBlockTableRecord
  2
*T2
  0
ENDTAB
  0
TABLE
  2
DIMSTYLE
  5
A
100
AcDbSymbolTable
 70
1
100
AcDbDimStyleTable
 71
0
  0
DIMSTYLE
105
214
100
AcDbSymbolTableRecord
100
AcDbDimStyleTableRecord
  2
STANDARD
 70
0
  3

  4

 40
1.0
 41
0.1875
 42
0.0625
 43
0.38
 44
0.125
 45
0.0
 46
0.0
 47
0.001
 48
0.001
140
0.1
141
0.09
142
0.0
143
25.4
144
1.0
145
0.0
146
1.0
147
0.09
 71
0.0
 72
0.0
 73
1
 74
1
 75
0
 76
0
 77
0
 78
4
170
0
171
2
172
0
173
0
174
0
175
0
176
0
177
0
178
0
270
2
271
3
272
3
273
2
274
2
275
0
280
0
281
0
282
0
283
1
284
4
285
0
286
0
287
3
288
0
340
11
278
46
  0
ENDTAB
  0
ENDSEC
  0
SECTION
  2
BLOCKS
  0
BLOCK
  5
20
100
AcDbEntity
  8
0
100
AcDbBlockBegin
  2
*Model_Space
 70
0
 10
0.0
 20
0.0
 30
0.0
  3
*Model_Space
  1

  0
ENDBLK
  5
21
100
AcDbEntity
  8
0
100
AcDbBlockEnd
  0
BLOCK
  5
1C
100
AcDbEntity
  8
0
100
AcDbBlockBegin
  2
*Paper_Space
 70
0
 10
0.0
 20
0.0
 30
0.0
  3
*Paper_Space
  1

  0
ENDBLK
  5
1D
100
AcDbEntity
  8
0
100
AcDbBlockEnd
  0
BLOCK
  5
215
100
AcDbEntity
  8
0
100
AcDbBlockBegin
 62
2
  6
CONTINUOUS
  2
SUN_FIRST_THIRD_ANGLE_BL0
 70
64
 10
20.4816717061
 20
1.2289683772
  3
SUN_FIRST_THIRD_ANGLE_BL0
  1

  0
TEXT
  5
216
100
AcDbEntity
  8
0
100
AcDbText
 62
2
  6
CONTINUOUS
 10
19.4750896608
 20
1.4136269581
  7
STANDARD
 40
0.08
  1
FIRST ANGLE
 41
0.8
 72
0
100
AcDbText
  0
TEXT
  5
217
100
AcDbEntity
  8
0
100
AcDbText
 62
2
  6
CONTINUOUS
 10
20.7842537513
 20
1.4047600029
  7
STANDARD
 40
0.08
  1
THIRD ANGLE
 41
0.8
 72
0
100
AcDbText
  0
LINE
  5
218
100
AcDbEntity
  8
0
100
AcDbLine
 62
7
  6
CONTINUOUS
 10
19.4767170086
 20
1.1727031207
 11
19.6334271527
 21
1.1717972817
  0
LINE
  5
219
100
AcDbEntity
  8
0
100
AcDbLine
 62
7
  6
CONTINUOUS
 10
19.6596964832
 20
1.1717972817
 11
19.6950230232
 21
1.171593082
  0
LINE
  5
21A
100
AcDbEntity
  8
0
100
AcDbLine
 62
7
  6
CONTINUOUS
 10
19.7194818561
 20
1.1708914427
 11
19.8852396156
 21
1.1699333054
  0
LINE
  5
21B
100
AcDbEntity
  8
0
100
AcDbLine
 62
7
  6
CONTINUOUS
 10
19.4758111696
 20
1.2723454088
 11
19.88525039
 21
1.3511534004
  0
LINE
  5
21C
100
AcDbEntity
  8
0
100
AcDbLine
 62
7
  6
CONTINUOUS
 10
19.88525039
 20
1.3511534004
 11
19.8831348489
 21
0.9851647912
  0
LINE
  5
21D
100
AcDbEntity
  8
0
100
AcDbLine
 62
7
  6
CONTINUOUS
 10
19.8831348489
 20
0.9851647912
 11
19.4767170086
 21
1.0658141206
  0
LINE
  5
21E
100
AcDbEntity
  8
0
100
AcDbLine
 62
7
  6
CONTINUOUS
 10
19.4767170086
 20
1.0658141206
 11
19.4779056764
 21
1.2714536432
  0
CIRCLE
  5
21F
100
AcDbEntity
  8
0
100
AcDbCircle
 62
7
  6
CONTINUOUS
 10
20.2068232291
 20
1.1717972817
 40
0.175742101
  0
CIRCLE
  5
220
100
AcDbEntity
  8
0
100
AcDbCircle
 62
7
  6
CONTINUOUS
 10
20.2068232291
 20
1.1717972817
 40
0.1005522074
  0
LINE
  5
221
100
AcDbEntity
  8
0
100
AcDbLine
 62
7
  6
CONTINUOUS
 10
20.2077290681
 20
1.3756110529
 11
20.2071171714
 21
1.2379342989
  0
LINE
  5
222
100
AcDbEntity
  8
0
100
AcDbLine
 62
7
  6
CONTINUOUS
 10
20.2077290681
 20
1.2016899681
 11
20.2074674401
 21
1.1428236749
  0
LINE
  5
223
100
AcDbEntity
  8
0
100
AcDbLine
 62
7
  6
CONTINUOUS
 10
20.208634907
 20
1.101141841
 11
20.2080230104
 21
0.963465087
  0
LINE
  5
224
100
AcDbEntity
  8
0
100
AcDbLine
 62
7
  6
CONTINUOUS
 10
20.0066328138
 20
1.1745147986
 11
20.1443095678
 21
1.1739029019
  0
LINE
  5
225
100
AcDbEntity
  8
0
100
AcDbLine
 62
7
  6
CONTINUOUS
 10
20.1832714155
 20
1.1727031207
 11
20.238153505
 21
1.172335442
  0
LINE
  5
226
100
AcDbEntity
  8
0
100
AcDbLine
 62
7
  6
CONTINUOUS
 10
20.2756669918
 20
1.1717972817
 11
20.407916871
 21
1.1712095044
  0
CIRCLE
  5
227
100
AcDbEntity
  8
0
100
AcDbCircle
 62
7
  6
CONTINUOUS
 10
20.7509457401
 20
1.1693297793
 40
0.1722024983
  0
CIRCLE
  5
228
100
AcDbEntity
  8
0
100
AcDbCircle
 62
7
  6
CONTINUOUS
 10
20.7509457401
 20
1.1693297793
 40
0.0985164967
  0
LINE
  5
229
100
AcDbEntity
  8
0
100
AcDbLine
 62
7
  6
CONTINUOUS
 10
20.7169767782
 20
1.170462078
 11
20.7825395137
 21
1.1682766535
  0
LINE
  5
22A
100
AcDbEntity
  8
0
100
AcDbLine
 62
7
  6
CONTINUOUS
 10
20.8177513651
 20
1.1693297793
 11
20.947965719
 21
1.1693297793
  0
LINE
  5
22B
100
AcDbEntity
  8
0
100
AcDbLine
 62
7
  6
CONTINUOUS
 10
20.6875370113
 20
1.170462078
 11
20.5573226574
 21
1.170462078
  0
LINE
  5
22C
100
AcDbEntity
  8
0
100
AcDbLine
 62
7
  6
CONTINUOUS
 10
20.7486811426
 20
1.1987695462
 11
20.7486811426
 21
1.1432869085
  0
LINE
  5
22D
100
AcDbEntity
  8
0
100
AcDbLine
 62
7
  6
CONTINUOUS
 10
20.7498134414
 20
1.1059210505
 11
20.7498134414
 21
0.9757066966
  0
LINE
  5
22E
100
AcDbEntity
  8
0
100
AcDbLine
 62
7
  6
CONTINUOUS
 10
20.7486811426
 20
1.2338708068
 11
20.7486811426
 21
1.3640851607
  0
LINE
  5
22F
100
AcDbEntity
  8
0
100
AcDbLine
 62
7
  6
CONTINUOUS
 10
21.0702539817
 20
1.2701043662
 11
21.4790138229
 21
1.3448360823
  0
LINE
  5
230
100
AcDbEntity
  8
0
100
AcDbLine
 62
7
  6
CONTINUOUS
 10
21.4790138229
 20
1.3448360823
 11
21.4790138229
 21
0.9779712941
  0
LINE
  5
231
100
AcDbEntity
  8
0
100
AcDbLine
 62
7
  6
CONTINUOUS
 10
21.4790138229
 20
0.9779712941
 11
21.069121683
 21
1.0617614
  0
LINE
  5
232
100
AcDbEntity
  8
0
100
AcDbLine
 62
7
  6
CONTINUOUS
 10
21.0702539817
 20
1.2701043662
 11
21.069121683
 21
1.0617614
  0
LINE
  5
233
100
AcDbEntity
  8
0
100
AcDbLine
 62
7
  6
CONTINUOUS
 10
21.4790138229
 20
1.1693297793
 11
21.3159628059
 21
1.1693297793
  0
LINE
  5
234
100
AcDbEntity
  8
0
100
AcDbLine
 62
7
  6
CONTINUOUS
 10
21.2876553377
 20
1.1693297793
 11
21.2502894796
 21
1.1693297793
  0
LINE
  5
235
100
AcDbEntity
  8
0
100
AcDbLine
 62
7
  6
CONTINUOUS
 10
21.2208497126
 20
1.1659328831
 11
21.0713862804
 21
1.1659328831
  0
LINE
  5
236
100
AcDbEntity
  8
0
100
AcDbLine
 62
7
  6
CONTINUOUS
 10
20.4796138713
 20
1.5284908897
 11
20.4766766948
 21
0.9294458646
  0
ENDBLK
  5
237
100
AcDbEntity
  8
0
  6
BYBLOCK
 62
0
100
AcDbBlockEnd
  0
BLOCK
  5
238
100
AcDbEntity
  8
0
100
AcDbBlockBegin
  2
*T1
 70
1
 10
0.0
 20
0.0
  3
*T1
  1

  0
LINE
  5
239
100
AcDbEntity
  8
0
100
AcDbLine
 62
2
  6
CONTINUOUS
 10
9.275
 20
0.0
 11
-0.0
 21
0.0
  0
LINE
  5
23A
100
AcDbEntity
  8
0
100
AcDbLine
 62
2
  6
CONTINUOUS
 10
9.275
 20
0.0
 11
9.275
 21
1.25
  0
LINE
  5
23B
100
AcDbEntity
  8
0
100
AcDbLine
 62
2
  6
CONTINUOUS
 10
9.275
 20
0.625
 11
-0.0
 21
0.625
  0
LINE
  5
23C
100
AcDbEntity
  8
0
100
AcDbLine
 62
2
  6
CONTINUOUS
 10
9.275
 20
1.25
 11
-0.0
 21
1.25
  0
LINE
  5
23D
100
AcDbEntity
  8
0
100
AcDbLine
 62
2
  6
CONTINUOUS
 10
6.8
 20
0.0
 11
6.8
 21
1.25
  0
LINE
  5
23E
100
AcDbEntity
  8
0
100
AcDbLine
 62
2
  6
CONTINUOUS
 10
6.4
 20
0.0
 11
6.4
 21
0.625
  0
LINE
  5
23F
100
AcDbEntity
  8
0
100
AcDbLine
 62
2
  6
CONTINUOUS
 10
5.9
 20
0.0
 11
5.9
 21
0.625
  0
LINE
  5
240
100
AcDbEntity
  8
0
100
AcDbLine
 62
2
  6
CONTINUOUS
 10
5.2
 20
0.0
 11
5.2
 21
0.625
  0
LINE
  5
241
100
AcDbEntity
  8
0
100
AcDbLine
 62
2
  6
CONTINUOUS
 10
4.1
 20
0.0
 11
4.1
 21
1.25
  0
LINE
  5
242
100
AcDbEntity
  8
0
100
AcDbLine
 62
2
  6
CONTINUOUS
 10
-0.0
 20
0.0
 11
-0.0
 21
1.25
  0
MTEXT
  5
243
100
AcDbEntity
  8
0
100
AcDbMText
 62
2
  6
CONTINUOUS
  7
STANDARD
 71
2
 72
1
 10
6.6
 20
0.325
 30
0.0
 11
1.0
 21
0.0
 31
0.0
 44
0.9
  1
2
 40
0.125
 41
0.2
  0
MTEXT
  5
244
100
AcDbEntity
  8
0
100
AcDbMText
 62
2
  6
CONTINUOUS
  7
STANDARD
 71
2
 72
1
 10
6.15
 20
0.325
 30
0.0
 11
1.0
 21
0.0
 31
0.0
 44
0.9
  1
C
 40
0.125
 41
0.2
  0
MTEXT
  5
245
100
AcDbEntity
  8
0
100
AcDbMText
 62
2
  6
CONTINUOUS
  7
STANDARD
 71
2
 72
1
 10
5.55
 20
0.325
 30
0.0
 11
1.0
 21
0.0
 31
0.0
 44
0.9
  1
1.000
 40
0.125
 41
1.0
  0
MTEXT
  5
246
100
AcDbEntity
  8
0
100
AcDbMText
 62
2
  6
CONTINUOUS
  7
STANDARD
 71
2
 72
1
 10
4.65
 20
0.325
 30
0.0
 11
1.0
 21
0.0
 31
0.0
 44
0.9
  1
Sep-26-19
 40
0.125
 41
1.8
  0
MTEXT
  5
247
100
AcDbEntity
  8
0
100
AcDbMText
 62
2
  6
CONTINUOUS
  7
STANDARD
 71
2
 72
1
 10
2.05
 20
0.4625
 30
0.0
 11
1.0
 21
0.0
 31
0.0
 44
0.9
  1
T-2A Sandwich ISO 05\P(See Technical Data for Body Features)
 40
0.125
 41
7.6
  0
MTEXT
  5
248
100
AcDbEntity
  8
0
100
AcDbMText
 62
2
  6
CONTINUOUS
  7
STANDARD
 71
1
 72
1
 10
6.45
 20
0.5625
 30
0.0
 11
1.0
 21
0.0
 31
0.0
 44
0.9
  1
SHEET
 40
0.06
 41
0.48
  0
MTEXT
  5
249
100
AcDbEntity
  8
0
100
AcDbMText
 62
2
  6
CONTINUOUS
  7
STANDARD
 71
1
 72
1
 10
5.95
 20
0.5625
 30
0.0
 11
1.0
 21
0.0
 31
0.0
 44
0.9
  1
DWG SIZE
 40
0.06
 41
0.768
  0
MTEXT
  5
24A
100
AcDbEntity
  8
0
100
AcDbMText
 62
2
  6
CONTINUOUS
  7
STANDARD
 71
1
 72
1
 10
5.25
 20
0.5625
 30
0.0
 11
1.0
 21
0.0
 31
0.0
 44
0.9
  1
SCALE
 40
0.06
 41
0.48
  0
MTEXT
  5
24B
100
AcDbEntity
  8
0
100
AcDbMText
 62
2
  6
CONTINUOUS
  7
STANDARD
 71
1
 72
1
 10
4.15
 20
0.5625
 30
0.0
 11
1.0
 21
0.0
 31
0.0
 44
0.9
  1
DATE
 40
0.06
 41
0.384
  0
MTEXT
  5
24C
100
AcDbEntity
  8
0
100
AcDbMText
 62
2
  6
CONTINUOUS
  7
STANDARD
 71
1
 72
1
 10
0.05
 20
0.5625
 30
0.0
 11
1.0
 21
0.0
 31
0.0
 44
0.9
  1
DESCRIPTION
 40
0.06
 41
1.056
  0
MTEXT
  5
24D
100
AcDbEntity
  8
0
100
AcDbMText
 62
2
  6
CONTINUOUS
  7
STANDARD
 71
2
 72
1
 10
5.45
 20
1.0375
 30
0.0
 11
1.0
 21
0.0
 31
0.0
 44
0.9
  1
ALL DIMENSIONS IN INCH\PVIEWS ARE THIRD ANGLE
 40
0.12
 41
4.224
  0
MTEXT
  5
24E
100
AcDbEntity
  8
0
100
AcDbMText
 62
2
  6
CONTINUOUS
  7
STANDARD
 71
2
 72
1
 10
2.05
 20
0.95
 30
0.0
 11
1.0
 21
0.0
 31
0.0
 44
0.9
  1
BB9
 40
0.125
 41
0.6
  0
MTEXT
  5
24F
100
AcDbEntity
  8
0
100
AcDbMText
 62
2
  6
CONTINUOUS
  7
STANDARD
 71
1
 72
1
 10
0.05
 20
1.1875
 30
0.0
 11
1.0
 21
0.0
 31
0.0
 44
0.9
  1
MODEL
 40
0.06
 41
0.48
  0
ENDBLK
  5
250
100
AcDbEntity
  8
0
  6
BYBLOCK
 62
0
100
AcDbBlockEnd
  0
BLOCK
  5
251
100
AcDbEntity
  8
0
100
AcDbBlockBegin
  2
*T2
 70
1
 10
0.0
 20
0.0
  3
*T2
  1

  0
LINE
  5
252
100
AcDbEntity
  8
0
100
AcDbLine
 62
2
  6
CONTINUOUS
 10
0.0
 20
0.0
 11
9.055
 21
0.0
  0
LINE
  5
253
100
AcDbEntity
  8
0
100
AcDbLine
 62
2
  6
CONTINUOUS
 10
0.0
 20
0.0
 11
0.0
 21
-2.094
  0
LINE
  5
254
100
AcDbEntity
  8
0
100
AcDbLine
 62
2
  6
CONTINUOUS
 10
0.0
 20
-0.344
 11
9.055
 21
-0.344
  0
LINE
  5
255
100
AcDbEntity
  8
0
100
AcDbLine
 62
2
  6
CONTINUOUS
 10
0.0
 20
-0.594
 11
9.055
 21
-0.594
  0
LINE
  5
256
100
AcDbEntity
  8
0
100
AcDbLine
 62
2
  6
CONTINUOUS
 10
0.0
 20
-0.844
 11
9.055
 21
-0.844
  0
LINE
  5
257
100
AcDbEntity
  8
0
100
AcDbLine
 62
2
  6
CONTINUOUS
 10
0.0
 20
-1.094
 11
9.055
 21
-1.094
  0
LINE
  5
258
100
AcDbEntity
  8
0
100
AcDbLine
 62
2
  6
CONTINUOUS
 10
0.0
 20
-1.344
 11
9.055
 21
-1.344
  0
LINE
  5
259
100
AcDbEntity
  8
0
100
AcDbLine
 62
2
  6
CONTINUOUS
 10
0.0
 20
-1.594
 11
9.055
 21
-1.594
  0
LINE
  5
25A
100
AcDbEntity
  8
0
100
AcDbLine
 62
2
  6
CONTINUOUS
 10
0.0
 20
-1.844
 11
9.055
 21
-1.844
  0
LINE
  5
25B
100
AcDbEntity
  8
0
100
AcDbLine
 62
2
  6
CONTINUOUS
 10
0.0
 20
-2.094
 11
9.055
 21
-2.094
  0
LINE
  5
25C
100
AcDbEntity
  8
0
100
AcDbLine
 62
2
  6
CONTINUOUS
 10
3.055
 20
0.0
 11
3.055
 21
-2.094
  0
LINE
  5
25D
100
AcDbEntity
  8
0
100
AcDbLine
 62
2
  6
CONTINUOUS
 10
9.055
 20
0.0
 11
9.055
 21
-2.094
  0
MTEXT
  5
25E
100
AcDbEntity
  8
0
100
AcDbMText
 62
2
  6
CONTINUOUS
  7
STANDARD
 71
2
 72
1
 10
1.5275
 20
-0.0995
 30
0.0
 11
1.0
 21
0.0
 31
0.0
 44
0.9
  1
Technical Data
 40
0.145
 41
3.248
  0
MTEXT
  5
25F
100
AcDbEntity
  8
0
100
AcDbMText
 62
2
  6
CONTINUOUS
  7
STANDARD
 71
2
 72
1
 10
4.555
 20
-0.0995
 30
0.0
 11
1.0
 21
0.0
 31
0.0
 44
0.9
  1
U.S. Units
 40
0.145
 41
2.32
  0
MTEXT
  5
260
100
AcDbEntity
  8
0
100
AcDbMText
 62
2
  6
CONTINUOUS
  7
STANDARD
 71
2
 72
1
 10
7.555
 20
-0.0995
 30
0.0
 11
1.0
 21
0.0
 31
0.0
 44
0.9
  1
Metric Units
 40
0.145
 41
2.784
  0
MTEXT
  5
261
100
AcDbEntity
  8
0
100
AcDbMText
 62
2
  6
CONTINUOUS
  7
STANDARD
 71
2
 72
1
 10
1.5275
 20
-0.4065
 30
0.0
 11
1.0
 21
0.0
 31
0.0
 44
0.9
  1
Cavity
 40
0.125
 41
1.2
  0
MTEXT
  5
262
100
AcDbEntity
  8
0
100
AcDbMText
 62
2
  6
CONTINUOUS
  7
STANDARD
 71
2
 72
1
 10
6.055
 20
-0.4065
 30
0.0
 11
1.0
 21
0.0
 31
0.0
 44
0.9
  1
T-2A
 40
0.125
 41
0.8
  0
MTEXT
  5
263
100
AcDbEntity
  8
0
100
AcDbMText
 62
2
  6
CONTINUOUS
  7
STANDARD
 71
2
 72
1
 10
1.5275
 20
-0.6565
 30
0.0
 11
1.0
 21
0.0
 31
0.0
 44
0.9
  1
Body Features
 40
0.125
 41
2.6
  0
MTEXT
  5
264
100
AcDbEntity
  8
0
100
AcDbMText
 62
2
  6
CONTINUOUS
  7
STANDARD
 71
2
 72
1
 10
6.055
 20
-0.6565
 30
0.0
 11
1.0
 21
0.0
 31
0.0
 44
0.9
  1
Reducer on A and B with reverse flow check
 40
0.125
 41
8.4
  0
MTEXT
  5
265
100
AcDbEntity
  8
0
100
AcDbMText
 62
2
  6
CONTINUOUS
  7
STANDARD
 71
2
 72
1
 10
1.5275
 20
-0.9065
 30
0.0
 11
1.0
 21
0.0
 31
0.0
 44
0.9
  1
Body Type
 40
0.125
 41
1.8
  0
MTEXT
  5
266
100
AcDbEntity
  8
0
100
AcDbMText
 62
2
  6
CONTINUOUS
  7
STANDARD
 71
2
 72
1
 10
6.055
 20
-0.9065
 30
0.0
 11
1.0
 21
0.0
 31
0.0
 44
0.9
  1
Sandwich
 40
0.125
 41
1.6
  0
MTEXT
  5
267
100
AcDbEntity
  8
0
100
AcDbMText
 62
2
  6
CONTINUOUS
  7
STANDARD
 71
2
 72
1
 10
1.5275
 20
-1.1565
 30
0.0
 11
1.0
 21
0.0
 31
0.0
 44
0.9
  1
Interface
 40
0.125
 41
1.8
  0
MTEXT
  5
268
100
AcDbEntity
  8
0
100
AcDbMText
 62
2
  6
CONTINUOUS
  7
STANDARD
 71
2
 72
1
 10
6.055
 20
-1.1565
 30
0.0
 11
1.0
 21
0.0
 31
0.0
 44
0.9
  1
ISO 05
 40
0.125
 41
1.2
  0
MTEXT
  5
269
100
AcDbEntity
  8
0
100
AcDbMText
 62
2
  6
CONTINUOUS
  7
STANDARD
 71
2
 72
1
 10
1.5275
 20
-1.4065
 30
0.0
 11
1.0
 21
0.0
 31
0.0
 44
0.9
  1
Open Cavity Quantity
 40
0.125
 41
4.0
  0
MTEXT
  5
26A
100
AcDbEntity
  8
0
100
AcDbMText
 62
2
  6
CONTINUOUS
  7
STANDARD
 71
2
 72
1
 10
6.055
 20
-1.4065
 30
0.0
 11
1.0
 21
0.0
 31
0.0
 44
0.9
  1
2
 40
0.125
 41
0.2
  0
MTEXT
  5
26B
100
AcDbEntity
  8
0
100
AcDbMText
 62
2
  6
CONTINUOUS
  7
STANDARD
 71
2
 72
1
 10
1.5275
 20
-1.6565
 30
0.0
 11
1.0
 21
0.0
 31
0.0
 44
0.9
  1
Stack Height
 40
0.125
 41
2.4
  0
MTEXT
  5
26C
100
AcDbEntity
  8
0
100
AcDbMText
 62
2
  6
CONTINUOUS
  7
STANDARD
 71
2
 72
1
 10
4.555
 20
-1.6565
 30
0.0
 11
1.0
 21
0.0
 31
0.0
 44
0.9
  1
2.99 in.
 40
0.125
 41
1.6
  0
MTEXT
  5
26D
100
AcDbEntity
  8
0
100
AcDbMText
 62
2
  6
CONTINUOUS
  7
STANDARD
 71
2
 72
1
 10
7.555
 20
-1.6565
 30
0.0
 11
1.0
 21
0.0
 31
0.0
 44
0.9
  1
76 mm
 40
0.125
 41
1.0
  0
MTEXT
  5
26E
100
AcDbEntity
  8
0
100
AcDbMText
 62
2
  6
CONTINUOUS
  7
STANDARD
 71
2
 72
1
 10
1.5275
 20
-1.9065
 30
0.0
 11
1.0
 21
0.0
 31
0.0
 44
0.9
  1
Weight
 40
0.125
 41
1.2
  0
MTEXT
  5
26F
100
AcDbEntity
  8
0
100
AcDbMText
 62
2
  6
CONTINUOUS
  7
STANDARD
 71
2
 72
1
 10
4.555
 20
-1.9065
 30
0.0
 11
1.0
 21
0.0
 31
0.0
 44
0.9
  1
3.806 lb.
 40
0.125
 41
1.8
  0
MTEXT
  5
270
100
AcDbEntity
  8
0
100
AcDbMText
 62
2
  6
CONTINUOUS
  7
STANDARD
 71
2
 72
1
 10
7.555
 20
-1.9065
 30
0.0
 11
1.0
 21
0.0
 31
0.0
 44
0.9
  1
1,726 kg.
 40
0.125
 41
1.8
  0
ENDBLK
  5
271
100
AcDbEntity
  8
0
  6
BYBLOCK
 62
0
100
AcDbBlockEnd
  0
ENDSEC
  0
SECTION
  2
ENTITIES
  0
IMAGE
  5
272
100
AcDbEntity
  8
0
100
AcDbRasterImage
 62
7
  6
CONTINUOUS
 10
19.2297077316
 20
0.3094318264
 30
0.0
 11
0.0066666667
 21
0.0
 31
0.0
 12
0.0
 22
0.0066666667
 32
0.0
 13
369.0
 23
92.0
340
       409
 70
9
280
0
281
50
282
50
283
0
360
       403
 71
1
 91
2
 14
-0.5
 24
-0.5
 14
368.5
 24
91.5
  0
INSERT
  5
273
100
AcDbEntity
  8
0
100
AcDbBlockReference
 62
2
  6
CONTINUOUS
  2
SUN_FIRST_THIRD_ANGLE_BL0
 10
20.4816717061
 20
1.2289683772
  0
ACAD_TABLE
  5
274
100
AcDbEntity
  8
0
 62
2
  6
CONTINUOUS
100
AcDbBlockReference
  2
*T1
 10
12.42375
 20
0.30125
 30
0.0
100
AcDbTable
342
       40B
343
212
 11
1.0
 21
0.0
 31
0.0
 90
6
 91
4
 92
6
 93
20
 94
0
 95
0
 96
0
 70
1
 41
0.0
141
0.525
141
0.1
141
0.525
141
0.1
142
4.1
142
1.1
142
0.7
142
0.5
142
0.4
142
2.475
171
1
172
0
173
0
174
0
175
1
176
1
 91
33
178
0
145
0.0
301
CELL_VALUE
 90
4
  1
T-2A Sandwich ISO 05\P(See Technical Data for Body Features)
304
ACVALUE_END
170
2
140
0.125
171
1
172
0
173
0
174
0
175
1
176
1
 91
33
178
0
145
0.0
301
CELL_VALUE
 90
4
  1
Sep-26-19
304
ACVALUE_END
170
5
140
0.125
171
1
172
0
173
0
174
0
175
1
176
1
 91
33
178
0
145
0.0
301
CELL_VALUE
 90
4
  1
1.000
304
ACVALUE_END
170
5
140
0.125
171
1
172
0
173
0
174
0
175
1
176
1
 91
33
178
0
145
0.0
301
CELL_VALUE
 90
4
  1
C
304
ACVALUE_END
170
5
140
0.125
171
1
172
0
173
0
174
0
175
1
176
1
 91
33
178
0
145
0.0
301
CELL_VALUE
 90
4
  1
2
304
ACVALUE_END
170
5
140
0.125
171
1
172
0
173
0
174
0
175
1
176
1
 91
33
178
0
145
0.0
301
CELL_VALUE
 90
4
  1
 
304
ACVALUE_END
170
1
140
0.125
171
1
172
0
173
0
174
0
175
1
176
1
 91
33
178
0
145
0.0
301
CELL_VALUE
 90
4
  1
DESCRIPTION
304
ACVALUE_END
170
1
140
0.06
171
1
172
0
173
0
174
0
175
1
176
1
 91
33
178
0
145
0.0
301
CELL_VALUE
 90
4
  1
DATE
304
ACVALUE_END
170
1
140
0.06
171
1
172
0
173
0
174
0
175
1
176
1
 91
33
178
0
145
0.0
301
CELL_VALUE
 90
4
  1
SCALE
304
ACVALUE_END
170
1
140
0.06
171
1
172
0
173
0
174
0
175
1
176
1
 91
33
178
0
145
0.0
301
CELL_VALUE
 90
4
  1
DWG SIZE
304
ACVALUE_END
170
1
140
0.06
171
1
172
0
173
0
174
0
175
1
176
1
 91
33
178
0
145
0.0
301
CELL_VALUE
 90
4
  1
SHEET
304
ACVALUE_END
170
1
140
0.06
171
1
172
0
173
0
174
0
175
1
176
1
 91
33
178
0
145
0.0
301
CELL_VALUE
 90
4
  1
 
304
ACVALUE_END
170
1
140
0.125
171
1
172
0
173
0
174
0
175
1
176
1
 91
33
178
0
145
0.0
301
CELL_VALUE
 90
4
  1
BB9
304
ACVALUE_END
170
5
140
0.125
171
1
172
0
173
0
174
0
175
4
176
1
 91
33
178
0
145
0.0
301
CELL_VALUE
 90
4
  1
ALL DIMENSIONS IN INCH\PVIEWS ARE THIRD ANGLE
304
ACVALUE_END
170
5
140
0.12
171
1
172
0
173
1
174
0
175
1
176
1
 91
1
178
0
145
0.0
170
1
171
1
172
0
173
1
174
0
175
1
176
1
 91
1
178
0
145
0.0
170
1
171
1
172
0
173
1
174
0
175
1
176
1
 91
1
178
0
145
0.0
170
5
171
1
172
0
173
0
174
0
175
1
176
1
 91
33
178
0
145
0.0
301
CELL_VALUE
 90
4
  1
 
304
ACVALUE_END
170
1
140
0.125
171
1
172
0
173
0
174
0
175
1
176
1
 91
33
178
0
145
0.0
301
CELL_VALUE
 90
4
  1
MODEL
304
ACVALUE_END
170
1
140
0.06
171
1
172
0
173
0
174
0
175
1
176
1
 91
33
178
0
145
0.0
301
CELL_VALUE
 90
4
  1
 
304
ACVALUE_END
170
1
140
0.125
171
1
172
0
173
0
174
0
175
1
176
1
 91
33
178
0
145
0.0
301
CELL_VALUE
 90
4
  1
 
304
ACVALUE_END
170
1
140
0.125
171
1
172
0
173
0
174
0
175
1
176
1
 91
33
178
0
145
0.0
301
CELL_VALUE
 90
4
  1
 
304
ACVALUE_END
170
1
140
0.125
171
1
172
0
173
0
174
0
175
1
176
1
 91
33
178
0
145
0.0
301
CELL_VALUE
 90
4
  1
 
304
ACVALUE_END
170
1
140
0.125
171
1
172
0
173
0
174
0
175
1
176
1
 91
33
178
0
145
0.0
301
CELL_VALUE
 90
4
  1
 
304
ACVALUE_END
170
1
140
0.125
  0
ACAD_TABLE
  5
275
100
AcDbEntity
  8
0
 62
2
  6
CONTINUOUS
100
AcDbBlockReference
  2
*T2
 10
12.4237499994
 20
16.47875
 30
0.0
100
AcDbTable
342
       40A
343
213
 11
1.0
 21
0.0
 31
0.0
 90
22
 91
8
 92
3
 93
16
 94
0
 95
0
 96
0
 41
0.028
141
0.344
141
0.25
141
0.25
141
0.25
141
0.25
141
0.25
141
0.25
141
0.25
142
3.055
142
3.0
142
3.0
171
1
172
0
173
0
174
0
175
1
176
1
 91
33
178
0
145
0.0
301
CELL_VALUE
 90
4
  1
Technical Data
304
ACVALUE_END
170
5
140
0.145
171
1
172
0
173
0
174
0
175
1
176
1
 91
33
178
0
145
0.0
301
CELL_VALUE
 90
4
  1
U.S. Units
304
ACVALUE_END
170
5
140
0.145
171
1
172
0
173
0
174
0
175
1
176
1
 91
33
178
0
145
0.0
301
CELL_VALUE
 90
4
  1
Metric Units
304
ACVALUE_END
170
5
140
0.145
171
1
172
0
173
0
174
0
175
1
176
1
 91
33
178
0
145
0.0
301
CELL_VALUE
 90
4
  1
Cavity
304
ACVALUE_END
170
5
140
0.125
171
1
172
0
173
0
174
0
175
2
176
1
 91
33
178
0
145
0.0
301
CELL_VALUE
 90
4
  1
T-2A
304
ACVALUE_END
170
5
140
0.125
171
1
172
0
173
1
174
0
175
1
176
1
 91
1
178
0
145
0.0
170
1
171
1
172
0
173
0
174
0
175
1
176
1
 91
33
178
0
145
0.0
301
CELL_VALUE
 90
4
  1
Body Features
304
ACVALUE_END
170
5
140
0.125
171
1
172
0
173
0
174
0
175
2
176
1
 91
33
178
0
145
0.0
301
CELL_VALUE
 90
4
  1
Reducer on A and B with reverse flow check
304
ACVALUE_END
170
5
140
0.125
171
1
172
0
173
1
174
0
175
1
176
1
 91
1
178
0
145
0.0
170
1
171
1
172
0
173
0
174
0
175
1
176
1
 91
33
178
0
145
0.0
301
CELL_VALUE
 90
4
  1
Body Type
304
ACVALUE_END
170
5
140
0.125
171
1
172
0
173
0
174
0
175
2
176
1
 91
33
178
0
145
0.0
301
CELL_VALUE
 90
4
  1
Sandwich
304
ACVALUE_END
170
5
140
0.125
171
1
172
0
173
1
174
0
175
1
176
1
 91
1
178
0
145
0.0
170
1
171
1
172
0
173
0
174
0
175
1
176
1
 91
33
178
0
145
0.0
301
CELL_VALUE
 90
4
  1
Interface
304
ACVALUE_END
170
5
140
0.125
171
1
172
0
173
0
174
0
175
2
176
1
 91
33
178
0
145
0.0
301
CELL_VALUE
 90
4
  1
ISO 05
304
ACVALUE_END
170
5
140
0.125
171
1
172
0
173
1
174
0
175
1
176
1
 91
1
178
0
145
0.0
170
1
171
1
172
0
173
0
174
0
175
1
176
1
 91
33
178
0
145
0.0
301
CELL_VALUE
 90
4
  1
Open Cavity Quantity
304
ACVALUE_END
170
5
140
0.125
171
1
172
0
173
0
174
0
175
2
176
1
 91
33
178
0
145
0.0
301
CELL_VALUE
 90
4
  1
2
304
ACVALUE_END
170
5
140
0.125
171
1
172
0
173
1
174
0
175
1
176
1
 91
1
178
0
145
0.0
170
1
171
1
172
0
173
0
174
0
175
1
176
1
 91
33
178
0
145
0.0
301
CELL_VALUE
 90
4
  1
Stack Height
304
ACVALUE_END
170
5
140
0.125
171
1
172
0
173
0
174
0
175
1
176
1
 91
33
178
0
145
0.0
301
CELL_VALUE
 90
4
  1
2.99 in.
304
ACVALUE_END
170
5
140
0.125
171
1
172
0
173
0
174
0
175
1
176
1
 91
33
178
0
145
0.0
301
CELL_VALUE
 90
4
  1
76 mm
304
ACVALUE_END
170
5
140
0.125
171
1
172
0
173
0
174
0
175
1
176
1
 91
33
178
0
145
0.0
301
CELL_VALUE
 90
4
  1
Weight
304
ACVALUE_END
170
5
140
0.125
171
1
172
0
173
0
174
0
175
1
176
1
 91
33
178
0
145
0.0
301
CELL_VALUE
 90
4
  1
3.806 lb.
304
ACVALUE_END
170
5
140
0.125
171
1
172
0
173
0
174
0
175
1
176
1
 91
33
178
0
145
0.0
301
CELL_VALUE
 90
4
  1
1,726 kg.
304
ACVALUE_END
170
5
140
0.125
  0
MTEXT
  5
276
100
AcDbEntity
  8
0
100
AcDbMText
 62
2
  6
CONTINUOUS
  7
STANDARD
 71
1
 72
1
 10
0.52125
 20
5.75995
 30
0.0
 11
1.0
 21
0.0
 31
0.0
 44
0.6
  3
Notes\P \P1. Important: Carefully consider\P   the maximum system pressure. The\P   pressure rating of the manifold is\P   dependent on the manifold material,\P   with the port type/size a secondary\P   consideration. Manifolds\P   constructed of alu
  1
minum are not\P   rated for pressures higher than\P   3000 psi (210 bar), regardless of\P   the port type/size specified.\P2. Items without balloons are\P   shipped loose.
 40
0.1
 41
3.04
  0
LINE
  5
277
100
AcDbEntity
  8
0
100
AcDbLine
 62
7
  6
CONTINUOUS
 10
0.30125
 20
0.30125
 11
0.30125
 21
16.69875
  0
LINE
  5
278
100
AcDbEntity
  8
0
100
AcDbLine
 62
7
  6
CONTINUOUS
 10
0.30125
 20
0.30125
 11
21.69875
 21
0.30125
  0
LINE
  5
279
100
AcDbEntity
  8
0
100
AcDbLine
 62
7
  6
CONTINUOUS
 10
0.30125
 20
16.69875
 11
21.69875
 21
16.69875
  0
LINE
  5
27A
100
AcDbEntity
  8
0
100
AcDbLine
 62
7
  6
CONTINUOUS
 10
21.69875
 20
0.30125
 11
21.69875
 21
16.69875
  0
LINE
  5
27B
100
AcDbEntity
  8
0
100
AcDbLine
 62
7
  6
CONTINUOUS
 10
7.7679113214
 20
9.1151234515
 11
7.7679113214
 21
7.5454938908
  0
LINE
  5
27C
100
AcDbEntity
  8
0
100
AcDbLine
 62
7
  6
CONTINUOUS
 10
7.78983164
 20
9.1052968546
 11
7.78983164
 21
7.5356672939
  0
LINE
  5
27D
100
AcDbEntity
  8
0
100
AcDbLine
 62
7
  6
CONTINUOUS
 10
7.6620698603
 20
9.2968884174
 11
7.6525541951
 21
9.2807547519
  0
LINE
  5
27E
100
AcDbEntity
  8
0
100
AcDbLine
 62
7
  6
CONTINUOUS
 10
7.8376762835
 20
7.2696755247
 11
7.8118008077
 21
7.3014907745
  0
LINE
  5
27F
100
AcDbEntity
  8
0
100
AcDbLine
 62
7
  6
CONTINUOUS
 10
7.5978139526
 20
8.2568110509
 11
7.5838672589
 21
8.2903192379
  0
LINE
  5
280
100
AcDbEntity
  8
0
100
AcDbLine
 62
7
  6
CONTINUOUS
 10
8.4149584002
 20
10.0724014767
 11
7.8569449994
 21
9.5334018896
  0
LINE
  5
281
100
AcDbEntity
  8
0
100
AcDbLine
 62
7
  6
CONTINUOUS
 10
8.4449021026
 20
10.1002685763
 11
7.8868887018
 21
9.5612689892
  0
LINE
  5
282
100
AcDbEntity
  8
0
100
AcDbLine
 62
7
  6
CONTINUOUS
 10
8.4458183056
 20
10.1011374212
 11
8.4449021026
 21
10.1002685763
  0
LINE
  5
283
100
AcDbEntity
  8
0
100
AcDbLine
 62
7
  6
CONTINUOUS
 10
8.4157999102
 20
10.0731992985
 11
8.4149584002
 21
10.0724014767
  0
LINE
  5
284
100
AcDbEntity
  8
0
100
AcDbLine
 62
7
  6
CONTINUOUS
 10
8.4149584002
 20
10.0724014767
 11
8.4448940533
 21
10.1002772249
  0
LINE
  5
285
100
AcDbEntity
  8
0
100
AcDbLine
 62
7
  6
CONTINUOUS
 10
7.8569449994
 20
9.5334018896
 11
7.8868887018
 21
9.5612689892
  0
LINE
  5
286
100
AcDbEntity
  8
0
100
AcDbLine
 62
7
  6
CONTINUOUS
 10
8.9930979153
 20
9.4406384136
 11
9.7535076329
 21
10.1751378419
  0
LINE
  5
287
100
AcDbEntity
  8
0
100
AcDbLine
 62
7
  6
CONTINUOUS
 10
7.7679113214
 20
7.5454938908
 11
7.78983164
 21
7.5356672939
  0
LINE
  5
288
100
AcDbEntity
  8
0
100
AcDbLine
 62
7
  6
CONTINUOUS
 10
8.9930979153
 20
9.4406384136
 11
8.9930979153
 21
7.0258237048
  0
LINE
  5
289
100
AcDbEntity
  8
0
100
AcDbLine
 62
4
  6
CONTINUOUS
 10
10.4775680487
 20
10.1115266465
 11
10.4348629424
 21
10.070276679
  0
LINE
  5
28A
100
AcDbEntity
  8
0
100
AcDbLine
 62
4
  6
CONTINUOUS
 10
10.6788521159
 20
10.0734521436
 11
10.6938611247
 21
10.0804497338
  0
LINE
  5
28B
100
AcDbEntity
  8
0
100
AcDbLine
 62
4
  6
CONTINUOUS
 10
10.7657854435
 20
10.0674232968
 11
10.7507764348
 21
10.0604257066
  0
LINE
  5
28C
100
AcDbEntity
  8
0
100
AcDbLine
 62
4
  6
CONTINUOUS
 10
10.4775680487
 20
10.1115266465
 11
10.4258879396
 21
10.095585999
  0
LINE
  5
28D
100
AcDbEntity
  8
0
100
AcDbLine
 62
7
  6
CONTINUOUS
 10
13.1403908903
 20
7.1738770931
 11
13.1024238041
 21
7.1682037019
  0
LINE
  5
28E
100
AcDbEntity
  8
0
100
AcDbLine
 62
7
  6
CONTINUOUS
 10
11.8908753356
 20
6.8248621581
 11
8.9930979153
 21
7.0258237048
  0
LINE
  5
28F
100
AcDbEntity
  8
0
100
AcDbLine
 62
4
  6
CONTINUOUS
 10
10.5877826528
 20
10.0904857896
 11
10.5851944652
 21
10.0879857922
  0
LINE
  5
290
100
AcDbEntity
  8
0
100
AcDbLine
 62
4
  6
CONTINUOUS
 10
10.2905101338
 20
9.7862710221
 11
10.2949470277
 21
9.7905567327
  0
LINE
  5
291
100
AcDbEntity
  8
0
100
AcDbLine
 62
4
  6
CONTINUOUS
 10
10.6302090759
 20
10.0714665712
 11
10.6250326993
 21
10.066466575
  0
LINE
  5
292
100
AcDbEntity
  8
0
100
AcDbLine
 62
4
  6
CONTINUOUS
 10
10.3307181086
 20
9.765108947
 11
10.3351550029
 21
9.7693946581
  0
LINE
  5
293
100
AcDbEntity
  8
0
100
AcDbLine
 62
4
  6
CONTINUOUS
 10
10.3904569295
 20
9.7885265088
 11
10.3638355647
 21
9.7628122436
  0
LINE
  5
294
100
AcDbEntity
  8
0
100
AcDbLine
 62
4
  6
CONTINUOUS
 10
10.2368788095
 20
9.6030385566
 11
10.2679370686
 21
9.633038533
  0
LINE
  5
295
100
AcDbEntity
  8
0
100
AcDbLine
 62
4
  6
CONTINUOUS
 10
10.4217911165
 20
9.7587930124
 11
10.4484124812
 21
9.7845072777
  0
LINE
  5
296
100
AcDbEntity
  8
0
100
AcDbLine
 62
4
  6
CONTINUOUS
 10
10.4504716783
 20
9.7522105979
 11
10.4815299373
 21
9.7822105743
  0
LINE
  5
297
100
AcDbEntity
  8
0
100
AcDbLine
 62
4
  6
CONTINUOUS
 10
10.3214557195
 20
9.6247335917
 11
10.2992712487
 21
9.6033050371
  0
LINE
  5
298
100
AcDbEntity
  8
0
100
AcDbLine
 62
4
  6
CONTINUOUS
 10
10.8247812368
 20
10.0794088616
 11
10.7937229777
 21
10.0494088853
  0
LINE
  5
299
100
AcDbEntity
  8
0
100
AcDbLine
 62
4
  6
CONTINUOUS
 10
10.341750754
 20
9.5957656626
 11
10.4059264692
 21
9.6234689356
  0
LINE
  5
29A
100
AcDbEntity
  8
0
100
AcDbLine
 62
4
  6
CONTINUOUS
 10
11.0545229605
 20
10.0313223451
 11
11.1218034394
 21
10.0588103019
  0
LINE
  5
29B
100
AcDbEntity
  8
0
100
AcDbLine
 62
4
  6
CONTINUOUS
 10
11.1342118441
 20
10.0257959022
 11
11.201492323
 21
10.0532838591
  0
LINE
  5
29C
100
AcDbEntity
  8
0
100
AcDbLine
 62
7
  6
CONTINUOUS
 10
8.9930979153
 20
7.1768006614
 11
7.860944677
 21
7.2553157552
  0
LINE
  5
29D
100
AcDbEntity
  8
0
100
AcDbLine
 62
7
  6
CONTINUOUS
 10
11.9661294692
 20
6.9715861487
 11
13.1735368411
 21
6.8878521631
  0
LINE
  5
29E
100
AcDbEntity
  8
0
100
AcDbLine
 62
4
  6
CONTINUOUS
 10
10.50842723
 20
9.7481913668
 11
10.5394854891
 21
9.7781913431
  0
LINE
  5
29F
100
AcDbEntity
  8
0
100
AcDbLine
 62
4
  6
CONTINUOUS
 10
10.4742205924
 20
9.5865788481
 11
10.5052788515
 21
9.6165788244
  0
LINE
  5
2A0
100
AcDbEntity
  8
0
100
AcDbLine
 62
4
  6
CONTINUOUS
 10
10.632617694
 20
9.7395787288
 11
10.6636759531
 21
9.7695787052
  0
LINE
  5
2A1
100
AcDbEntity
  8
0
100
AcDbLine
 62
4
  6
CONTINUOUS
 10
10.7022599086
 20
9.7554193721
 11
10.6822938851
 21
9.7361336733
  0
LINE
  5
2A2
100
AcDbEntity
  8
0
100
AcDbLine
 62
4
  6
CONTINUOUS
 10
10.6005043038
 20
9.6485595656
 11
10.6315625629
 21
9.678559542
  0
LINE
  5
2A3
100
AcDbEntity
  8
0
100
AcDbLine
 62
4
  6
CONTINUOUS
 10
10.5404555047
 20
9.5819854413
 11
10.5715137638
 21
9.6119854177
  0
LINE
  5
2A4
100
AcDbEntity
  8
0
100
AcDbLine
 62
4
  6
CONTINUOUS
 10
10.6768018567
 20
9.670828776
 11
10.6701465149
 21
9.6644002091
  0
LINE
  5
2A5
100
AcDbEntity
  8
0
100
AcDbLine
 62
4
  6
CONTINUOUS
 10
10.6695520912
 20
9.655254612
 11
10.6628967499
 21
9.6488260456
  0
LINE
  5
2A6
100
AcDbEntity
  8
0
100
AcDbLine
 62
4
  6
CONTINUOUS
 10
10.6915773117
 20
9.6422436311
 11
10.7226355707
 21
9.6722436074
  0
LINE
  5
2A7
100
AcDbEntity
  8
0
100
AcDbLine
 62
4
  6
CONTINUOUS
 10
10.7893842975
 20
9.7310036334
 11
10.8071318738
 21
9.7481464766
  0
LINE
  5
2A8
100
AcDbEntity
  8
0
100
AcDbLine
 62
4
  6
CONTINUOUS
 10
10.767874868
 20
9.6645128412
 11
10.7612195262
 21
9.6580842743
  0
LINE
  5
2A9
100
AcDbEntity
  8
0
100
AcDbLine
 62
4
  6
CONTINUOUS
 10
10.8679002729
 20
9.7554157005
 11
10.8368420138
 21
9.7254157242
  0
LINE
  5
2AA
100
AcDbEntity
  8
0
100
AcDbLine
 62
4
  6
CONTINUOUS
 10
10.760625099
 20
9.6489386774
 11
10.7539697577
 21
9.642510111
  0
LINE
  5
2AB
100
AcDbEntity
  8
0
100
AcDbLine
 62
4
  6
CONTINUOUS
 10
10.8412002994
 20
9.6410540632
 11
10.8583534487
 21
9.6490513098
  0
LINE
  5
2AC
100
AcDbEntity
  8
0
100
AcDbLine
 62
4
  6
CONTINUOUS
 10
10.7245752526
 20
9.7255457662
 11
10.7872719899
 21
9.7518204704
  0
LINE
  5
2AD
100
AcDbEntity
  8
0
100
AcDbLine
 62
4
  6
CONTINUOUS
 10
11.4022562708
 20
10.0072069581
 11
11.4695367497
 21
10.0346949149
  0
LINE
  5
2AE
100
AcDbEntity
  8
0
100
AcDbLine
 62
4
  6
CONTINUOUS
 10
11.2183933608
 20
9.7311089223
 11
11.2134151353
 21
9.7291574573
  0
LINE
  5
2AF
100
AcDbEntity
  8
0
100
AcDbLine
 62
7
  6
CONTINUOUS
 10
7.78983164
 20
7.5356672939
 11
8.9930979153
 21
7.4522204943
  0
LINE
  5
2B0
100
AcDbEntity
  8
0
100
AcDbLine
 62
7
  6
CONTINUOUS
 10
13.1024238041
 20
7.1682037019
 11
11.8950164322
 21
7.2519376875
  0
LINE
  5
2B1
100
AcDbEntity
  8
0
100
AcDbLine
 62
4
  6
CONTINUOUS
 10
10.8699595114
 20
9.7231190179
 11
10.8921439827
 21
9.7445475729
  0
LINE
  5
2B2
100
AcDbEntity
  8
0
100
AcDbLine
 62
4
  6
CONTINUOUS
 10
10.8092716847
 20
9.6616419622
 11
10.8003978969
 21
9.6530705409
  0
LINE
  5
2B3
100
AcDbEntity
  8
0
100
AcDbLine
 62
4
  6
CONTINUOUS
 10
10.7187590819
 20
9.574213457
 11
10.7409435527
 21
9.5956420116
  0
LINE
  5
2B4
100
AcDbEntity
  8
0
100
AcDbLine
 62
4
  6
CONTINUOUS
 10
10.9285625325
 20
9.7397252318
 11
10.9241256386
 21
9.7354395212
  0
LINE
  5
2B5
100
AcDbEntity
  8
0
100
AcDbLine
 62
4
  6
CONTINUOUS
 10
10.8583534487
 20
9.6490513098
 11
10.8672272364
 21
9.6576227311
  0
LINE
  5
2B6
100
AcDbEntity
  8
0
100
AcDbLine
 62
4
  6
CONTINUOUS
 10
10.9466922315
 20
9.7200942911
 11
10.953347573
 21
9.7265228577
  0
LINE
  5
2B7
100
AcDbEntity
  8
0
100
AcDbLine
 62
4
  6
CONTINUOUS
 10
11.2884256506
 20
10.0472550123
 11
11.2573673915
 21
10.017255036
  0
LINE
  5
2B8
100
AcDbEntity
  8
0
100
AcDbLine
 62
4
  6
CONTINUOUS
 10
10.8153516312
 20
9.567514741
 11
10.8375361021
 21
9.5889432956
  0
LINE
  5
2B9
100
AcDbEntity
  8
0
100
AcDbLine
 62
4
  6
CONTINUOUS
 10
10.9941499478
 20
9.7145063819
 11
11.0118975252
 21
9.7316492263
  0
LINE
  5
2BA
100
AcDbEntity
  8
0
100
AcDbLine
 62
4
  6
CONTINUOUS
 10
11.0494518614
 20
9.7336382345
 11
11.0294858373
 21
9.714352535
  0
LINE
  5
2BB
100
AcDbEntity
  8
0
100
AcDbLine
 62
4
  6
CONTINUOUS
 10
10.8954916538
 20
9.5849240644
 11
10.8733071829
 21
9.5634955098
  0
LINE
  5
2BC
100
AcDbEntity
  8
0
100
AcDbLine
 62
4
  6
CONTINUOUS
 10
10.9019877309
 20
9.5569130963
 11
10.93304599
 21
9.5869130726
  0
LINE
  5
2BD
100
AcDbEntity
  8
0
100
AcDbLine
 62
4
  6
CONTINUOUS
 10
11.0769436089
 20
9.708764622
 11
11.0991280802
 21
9.730193177
  0
LINE
  5
2BE
100
AcDbEntity
  8
0
100
AcDbLine
 62
4
  6
CONTINUOUS
 10
11.1122794984
 20
9.7086107751
 11
11.1411193103
 21
9.7364678959
  0
LINE
  5
2BF
100
AcDbEntity
  8
0
100
AcDbLine
 62
4
  6
CONTINUOUS
 10
10.9865646478
 20
9.5786081308
 11
10.964380177
 21
9.5571795762
  0
LINE
  5
2C0
100
AcDbEntity
  8
0
100
AcDbLine
 62
4
  6
CONTINUOUS
 10
11.0068597237
 20
9.5496401989
 11
11.0379179828
 21
9.5796401752
  0
LINE
  5
2C1
100
AcDbEntity
  8
0
100
AcDbLine
 62
4
  6
CONTINUOUS
 10
11.4891895983
 20
10.0011781113
 11
11.5202478574
 21
10.0311780877
  0
LINE
  5
2C2
100
AcDbEntity
  8
0
100
AcDbLine
 62
4
  6
CONTINUOUS
 10
11.2134151353
 20
9.7291574573
 11
11.2156335832
 21
9.7313003135
  0
LINE
  5
2C3
100
AcDbEntity
  8
0
100
AcDbLine
 62
4
  6
CONTINUOUS
 10
11.1845753241
 20
9.7013003372
 11
11.2067597954
 21
9.7227288922
  0
LINE
  5
2C4
100
AcDbEntity
  8
0
100
AcDbLine
 62
7
  6
CONTINUOUS
 10
7.7679113214
 20
9.1151234515
 11
7.78983164
 21
9.1052968546
  0
LINE
  5
2C5
100
AcDbEntity
  8
0
100
AcDbLine
 62
4
  6
CONTINUOUS
 10
10.4059264692
 20
9.6234689356
 11
10.4079856801
 21
9.5911722549
  0
LINE
  5
2C6
100
AcDbEntity
  8
0
100
AcDbLine
 62
4
  6
CONTINUOUS
 10
11.2309503795
 20
9.7003809216
 11
11.2486979557
 21
9.7175237648
  0
LINE
  5
2C7
100
AcDbEntity
  8
0
100
AcDbLine
 62
4
  6
CONTINUOUS
 10
11.3165569431
 20
9.7059276126
 11
11.3232122839
 21
9.7123561786
  0
LINE
  5
2C8
100
AcDbEntity
  8
0
100
AcDbLine
 62
4
  6
CONTINUOUS
 10
11.3551408159
 20
9.6917682855
 11
11.3617961574
 21
9.6981968522
  0
LINE
  5
2C9
100
AcDbEntity
  8
0
100
AcDbLine
 62
7
  6
CONTINUOUS
 10
7.7679113214
 20
8.1534572577
 11
7.6484595191
 21
8.1617412683
  0
LINE
  5
2CA
100
AcDbEntity
  8
0
100
AcDbLine
 62
7
  6
CONTINUOUS
 10
13.8842031826
 20
7.7317068302
 11
14.2686066239
 21
7.705048361
  0
LINE
  5
2CB
100
AcDbEntity
  8
0
100
AcDbLine
 62
7
  6
CONTINUOUS
 10
7.7679113214
 20
8.1674639185
 11
7.635947163
 21
8.176615664
  0
LINE
  5
2CC
100
AcDbEntity
  8
0
100
AcDbLine
 62
7
  6
CONTINUOUS
 10
13.6380181754
 20
7.8287697388
 11
13.7732067963
 21
7.8193943761
  0
LINE
  5
2CD
100
AcDbEntity
  8
0
100
AcDbLine
 62
4
  6
CONTINUOUS
 10
10.6783319951
 20
10.0654497456
 11
10.6788521159
 21
10.0734521436
  0
LINE
  5
2CE
100
AcDbEntity
  8
0
100
AcDbLine
 62
4
  6
CONTINUOUS
 10
10.7663055643
 20
10.0754256948
 11
10.7657854435
 21
10.0674232968
  0
LINE
  5
2CF
100
AcDbEntity
  8
0
100
AcDbLine
 62
7
  6
CONTINUOUS
 10
13.7530698848
 20
7.887595021
 11
14.1374733261
 21
7.8609365518
  0
LINE
  5
2D0
100
AcDbEntity
  8
0
100
AcDbLine
 62
7
  6
CONTINUOUS
 10
13.7458458726
 20
7.9273139507
 11
14.1302493139
 21
7.9006554815
  0
LINE
  5
2D1
100
AcDbEntity
  8
0
100
AcDbLine
 62
7
  6
CONTINUOUS
 10
13.1403908903
 20
8.7435066538
 11
13.1024238041
 21
8.7378332626
  0
LINE
  5
2D2
100
AcDbEntity
  8
0
100
AcDbLine
 62
7
  6
CONTINUOUS
 10
7.7679113214
 20
8.578479887
 11
7.5602373182
 21
8.5928821281
  0
LINE
  5
2D3
100
AcDbEntity
  8
0
100
AcDbLine
 62
7
  6
CONTINUOUS
 10
7.7679113214
 20
8.6324006957
 11
7.5602373182
 21
8.6468029367
  0
LINE
  5
2D4
100
AcDbEntity
  8
0
100
AcDbLine
 62
4
  6
CONTINUOUS
 10
10.7375958264
 20
9.755265524
 11
10.7402494645
 21
9.7321144402
  0
LINE
  5
2D5
100
AcDbEntity
  8
0
100
AcDbLine
 62
7
  6
CONTINUOUS
 10
11.8908753356
 20
9.2396768669
 11
12.6512850532
 21
9.9741762952
  0
LINE
  5
2D6
100
AcDbEntity
  8
0
100
AcDbLine
 62
7
  6
CONTINUOUS
 10
11.992073494
 20
9.2775393827
 11
12.5500868947
 21
9.8165389699
  0
LINE
  5
2D7
100
AcDbEntity
  8
0
100
AcDbLine
 62
7
  6
CONTINUOUS
 10
13.7458458726
 20
8.4924204253
 11
14.1302493139
 21
8.4657619561
  0
LINE
  5
2D8
100
AcDbEntity
  8
0
100
AcDbLine
 62
7
  6
CONTINUOUS
 10
13.7530698848
 20
8.5460950757
 11
14.1374733261
 21
8.5194366065
  0
LINE
  5
2D9
100
AcDbEntity
  8
0
100
AcDbLine
 62
7
  6
CONTINUOUS
 10
7.78983164
 20
9.1052968546
 11
8.9930979153
 21
9.021850055
  0
LINE
  5
2DA
100
AcDbEntity
  8
0
100
AcDbLine
 62
7
  6
CONTINUOUS
 10
13.1024238041
 20
8.7378332626
 11
11.8950164322
 21
8.8215672482
  0
LINE
  5
2DB
100
AcDbEntity
  8
0
100
AcDbLine
 62
7
  6
CONTINUOUS
 10
7.770722936
 20
9.1999828667
 11
7.635947163
 21
9.2093295983
  0
LINE
  5
2DC
100
AcDbEntity
  8
0
100
AcDbLine
 62
7
  6
CONTINUOUS
 10
7.7738495573
 20
9.2396801825
 11
7.6484595191
 21
9.2483760112
  0
LINE
  5
2DD
100
AcDbEntity
  8
0
100
AcDbLine
 62
4
  6
CONTINUOUS
 10
10.4815299373
 20
9.7822105743
 11
10.50842723
 21
9.7481913668
  0
LINE
  5
2DE
100
AcDbEntity
  8
0
100
AcDbLine
 62
4
  6
CONTINUOUS
 10
10.4775680487
 20
10.1115266465
 11
10.4915293794
 21
10.0910337497
  0
LINE
  5
2DF
100
AcDbEntity
  8
0
100
AcDbLine
 62
4
  6
CONTINUOUS
 10
11.0493589997
 20
10.0638343409
 11
11.0545229605
 21
10.0313223451
  0
LINE
  5
2E0
100
AcDbEntity
  8
0
100
AcDbLine
 62
4
  6
CONTINUOUS
 10
11.201492323
 20
10.0532838591
 11
11.2066562837
 21
10.0207718633
  0
LINE
  5
2E1
100
AcDbEntity
  8
0
100
AcDbLine
 62
7
  6
CONTINUOUS
 10
13.7123173638
 20
8.9022014558
 11
13.8435882929
 21
8.893097786
  0
LINE
  5
2E2
100
AcDbEntity
  8
0
100
AcDbLine
 62
7
  6
CONTINUOUS
 10
13.8842031826
 20
8.9553133595
 11
14.2686066239
 21
8.9286548903
  0
LINE
  5
2E3
100
AcDbEntity
  8
0
100
AcDbLine
 62
7
  6
CONTINUOUS
 10
13.8986512069
 20
8.9692690802
 11
14.2830546483
 21
8.942610611
  0
LINE
  5
2E4
100
AcDbEntity
  8
0
100
AcDbLine
 62
7
  6
CONTINUOUS
 10
8.9930979153
 20
9.4406384136
 11
11.8908753356
 21
9.2396768669
  0
LINE
  5
2E5
100
AcDbEntity
  8
0
100
AcDbLine
 62
4
  6
CONTINUOUS
 10
10.3093338854
 20
9.630167654
 11
10.3214557195
 21
9.6247335917
  0
LINE
  5
2E6
100
AcDbEntity
  8
0
100
AcDbLine
 62
4
  6
CONTINUOUS
 10
11.0118975252
 20
9.7316492263
 11
11.0080550862
 21
9.7365091106
  0
LINE
  5
2E7
100
AcDbEntity
  8
0
100
AcDbLine
 62
4
  6
CONTINUOUS
 10
11.39709231
 20
10.0397189539
 11
11.4022562708
 21
10.0072069581
  0
LINE
  5
2E8
100
AcDbEntity
  8
0
100
AcDbLine
 62
7
  6
CONTINUOUS
 10
11.8908753356
 20
9.2396768669
 11
11.8908753356
 21
6.8248621581
  0
LINE
  5
2E9
100
AcDbEntity
  8
0
100
AcDbLine
 62
7
  6
CONTINUOUS
 10
11.8950164322
 20
7.2519376875
 11
11.8950164322
 21
8.8215672482
  0
LINE
  5
2EA
100
AcDbEntity
  8
0
100
AcDbLine
 62
7
  6
CONTINUOUS
 10
13.1994808659
 20
9.1938053971
 11
13.7574942666
 21
9.7328049842
  0
LINE
  5
2EB
100
AcDbEntity
  8
0
100
AcDbLine
 62
4
  6
CONTINUOUS
 10
10.964380177
 20
9.5571795762
 11
10.9433845615
 21
9.5540422163
  0
LINE
  5
2EC
100
AcDbEntity
  8
0
100
AcDbLine
 62
4
  6
CONTINUOUS
 10
11.1471206204
 20
9.5536933045
 11
11.0970481532
 21
9.5510412943
  0
LINE
  5
2ED
100
AcDbEntity
  8
0
100
AcDbLine
 62
7
  6
CONTINUOUS
 10
7.8868887018
 20
9.5612689892
 11
9.0355162665
 21
9.481611397
  0
LINE
  5
2EE
100
AcDbEntity
  8
0
100
AcDbLine
 62
7
  6
CONTINUOUS
 10
13.1994808659
 20
9.1938053971
 11
11.992073494
 21
9.2775393827
  0
LINE
  5
2EF
100
AcDbEntity
  8
0
100
AcDbLine
 62
4
  6
CONTINUOUS
 10
10.9433845615
 20
9.5540422163
 11
10.9019877309
 21
9.5569130963
  0
LINE
  5
2F0
100
AcDbEntity
  8
0
100
AcDbLine
 62
4
  6
CONTINUOUS
 10
10.8523115674
 20
9.5603581499
 11
10.827473458
 21
9.5620806787
  0
LINE
  5
2F1
100
AcDbEntity
  8
0
100
AcDbLine
 62
4
  6
CONTINUOUS
 10
10.763998351
 20
9.5664826923
 11
10.7308809087
 21
9.5687793947
  0
LINE
  5
2F2
100
AcDbEntity
  8
0
100
AcDbLine
 62
4
  6
CONTINUOUS
 10
10.2782756263
 20
9.6001676777
 11
10.2368788095
 21
9.6030385566
  0
LINE
  5
2F3
100
AcDbEntity
  8
0
100
AcDbLine
 62
4
  6
CONTINUOUS
 10
10.5404555047
 20
9.5819854413
 11
10.5901316959
 21
9.5785403858
  0
LINE
  5
2F4
100
AcDbEntity
  8
0
100
AcDbLine
 62
4
  6
CONTINUOUS
 10
11.0068597237
 20
9.5496401989
 11
11.0565358872
 21
9.5461951452
  0
LINE
  5
2F5
100
AcDbEntity
  8
0
100
AcDbLine
 62
4
  6
CONTINUOUS
 10
10.3616636948
 20
9.603571517
 11
10.405820303
 21
9.6005092458
  0
LINE
  5
2F6
100
AcDbEntity
  8
0
100
AcDbLine
 62
4
  6
CONTINUOUS
 10
10.1839545729
 20
9.6204890967
 11
10.2221953256
 21
9.611712544
  0
LINE
  5
2F7
100
AcDbEntity
  8
0
100
AcDbLine
 62
4
  6
CONTINUOUS
 10
11.1088798716
 20
9.5624698574
 11
11.1471206204
 21
9.5536933045
  0
LINE
  5
2F8
100
AcDbEntity
  8
0
100
AcDbLine
 62
4
  6
CONTINUOUS
 10
10.6639405392
 20
9.6755485523
 11
10.6768018567
 21
9.670828776
  0
LINE
  5
2F9
100
AcDbEntity
  8
0
100
AcDbLine
 62
4
  6
CONTINUOUS
 10
10.7550135437
 20
9.669232618
 11
10.767874868
 21
9.6645128412
  0
LINE
  5
2FA
100
AcDbEntity
  8
0
100
AcDbLine
 62
4
  6
CONTINUOUS
 10
10.3351550029
 20
9.7693946581
 11
10.2905101338
 21
9.7862710221
  0
LINE
  5
2FB
100
AcDbEntity
  8
0
100
AcDbLine
 62
4
  6
CONTINUOUS
 10
10.2705441097
 20
9.7669853226
 11
10.2766050274
 21
9.7642682911
  0
LINE
  5
2FC
100
AcDbEntity
  8
0
100
AcDbLine
 62
4
  6
CONTINUOUS
 10
10.7308809087
 20
9.5687793947
 11
10.7187590819
 21
9.574213457
  0
LINE
  5
2FD
100
AcDbEntity
  8
0
100
AcDbLine
 62
4
  6
CONTINUOUS
 10
10.3638355647
 20
9.7628122436
 11
10.3759573985
 21
9.7573781808
  0
LINE
  5
2FE
100
AcDbEntity
  8
0
100
AcDbLine
 62
4
  6
CONTINUOUS
 10
10.827473458
 20
9.5620806787
 11
10.8153516312
 21
9.567514741
  0
LINE
  5
2FF
100
AcDbEntity
  8
0
100
AcDbLine
 62
4
  6
CONTINUOUS
 10
10.3490601093
 20
9.7913973881
 11
10.3551210255
 21
9.788680356
  0
LINE
  5
300
100
AcDbEntity
  8
0
100
AcDbLine
 62
4
  6
CONTINUOUS
 10
10.657430257
 20
9.6606886743
 11
10.6695520912
 21
9.655254612
  0
LINE
  5
301
100
AcDbEntity
  8
0
100
AcDbLine
 62
4
  6
CONTINUOUS
 10
10.8833698265
 20
9.5903581263
 11
10.8954916538
 21
9.5849240644
  0
LINE
  5
302
100
AcDbEntity
  8
0
100
AcDbLine
 62
4
  6
CONTINUOUS
 10
10.7485032717
 20
9.6543727393
 11
10.760625099
 21
9.6489386774
  0
LINE
  5
303
100
AcDbEntity
  8
0
100
AcDbLine
 62
4
  6
CONTINUOUS
 10
10.8003978969
 20
9.6530705409
 11
10.8125197371
 21
9.6476364772
  0
LINE
  5
304
100
AcDbEntity
  8
0
100
AcDbLine
 62
4
  6
CONTINUOUS
 10
10.9744428205
 20
9.5840421927
 11
10.9865646478
 21
9.5786081308
  0
LINE
  5
305
100
AcDbEntity
  8
0
100
AcDbLine
 62
4
  6
CONTINUOUS
 10
10.8672272364
 20
9.6576227311
 11
10.8551054092
 21
9.6630567929
  0
LINE
  5
306
100
AcDbEntity
  8
0
100
AcDbLine
 62
4
  6
CONTINUOUS
 10
10.6961989958
 20
9.7581364039
 11
10.7022599086
 21
9.7554193721
  0
LINE
  5
307
100
AcDbEntity
  8
0
100
AcDbLine
 62
4
  6
CONTINUOUS
 10
10.9252614251
 20
9.7422508705
 11
10.9285625325
 21
9.7397252318
  0
LINE
  5
308
100
AcDbEntity
  8
0
100
AcDbLine
 62
7
  6
CONTINUOUS
 10
13.2294245683
 20
9.1617850919
 11
13.787437969
 21
9.700784679
  0
LINE
  5
309
100
AcDbEntity
  8
0
100
AcDbLine
 62
4
  6
CONTINUOUS
 10
10.8733071829
 20
9.5634955098
 11
10.8523115674
 21
9.5603581499
  0
LINE
  5
30A
100
AcDbEntity
  8
0
100
AcDbLine
 62
4
  6
CONTINUOUS
 10
10.8375361021
 20
9.5889432956
 11
10.8585317171
 21
9.592080655
  0
LINE
  5
30B
100
AcDbEntity
  8
0
100
AcDbLine
 62
4
  6
CONTINUOUS
 10
10.7409435527
 20
9.5956420116
 11
10.7619391678
 21
9.5987793711
  0
LINE
  5
30C
100
AcDbEntity
  8
0
100
AcDbLine
 62
4
  6
CONTINUOUS
 10
11.3446430357
 20
9.6901996037
 11
11.3551408159
 21
9.6917682855
  0
LINE
  5
30D
100
AcDbEntity
  8
0
100
AcDbLine
 62
4
  6
CONTINUOUS
 10
11.3232122839
 20
9.7123561786
 11
11.3337100647
 21
9.7139248612
  0
LINE
  5
30E
100
AcDbEntity
  8
0
100
AcDbLine
 62
4
  6
CONTINUOUS
 10
10.7992090545
 20
9.6347793444
 11
10.8412002994
 21
9.6410540632
  0
LINE
  5
30F
100
AcDbEntity
  8
0
100
AcDbLine
 62
4
  6
CONTINUOUS
 10
10.7539697577
 20
9.642510111
 11
10.7329741422
 21
9.6393727511
  0
LINE
  5
310
100
AcDbEntity
  8
0
100
AcDbLine
 62
4
  6
CONTINUOUS
 10
11.2486979557
 20
9.7175237648
 11
11.2591957366
 21
9.7190924474
  0
LINE
  5
311
100
AcDbEntity
  8
0
100
AcDbLine
 62
4
  6
CONTINUOUS
 10
10.8302673136
 20
9.6647793207
 11
10.8092716847
 21
9.6616419622
  0
LINE
  5
312
100
AcDbEntity
  8
0
100
AcDbLine
 62
4
  6
CONTINUOUS
 10
10.7612195262
 20
9.6580842743
 11
10.7402238973
 21
9.6549469159
  0
LINE
  5
313
100
AcDbEntity
  8
0
100
AcDbLine
 62
4
  6
CONTINUOUS
 10
10.6628967499
 20
9.6488260456
 11
10.6419011274
 21
9.6456886861
  0
LINE
  5
314
100
AcDbEntity
  8
0
100
AcDbLine
 62
4
  6
CONTINUOUS
 10
10.2992712487
 20
9.6033050371
 11
10.2782756263
 21
9.6001676777
  0
LINE
  5
315
100
AcDbEntity
  8
0
100
AcDbLine
 62
4
  6
CONTINUOUS
 10
10.6701465149
 20
9.6644002091
 11
10.6491508929
 21
9.6612628502
  0
LINE
  5
316
100
AcDbEntity
  8
0
100
AcDbLine
 62
4
  6
CONTINUOUS
 10
10.234027044
 20
9.6231411071
 11
10.1839545729
 21
9.6204890967
  0
LINE
  5
317
100
AcDbEntity
  8
0
100
AcDbLine
 62
4
  6
CONTINUOUS
 10
10.953347573
 20
9.7265228577
 11
10.9721247411
 21
9.7275173618
  0
LINE
  5
318
100
AcDbEntity
  8
0
100
AcDbLine
 62
4
  6
CONTINUOUS
 10
10.8071318738
 20
9.7481464766
 11
10.8259090428
 21
9.7491409816
  0
LINE
  5
319
100
AcDbEntity
  8
0
100
AcDbLine
 62
4
  6
CONTINUOUS
 10
11.0577247435
 20
9.5644863408
 11
11.0246073012
 21
9.5667830433
  0
LINE
  5
31A
100
AcDbEntity
  8
0
100
AcDbLine
 62
4
  6
CONTINUOUS
 10
10.5913205521
 20
9.5968315814
 11
10.5582030821
 21
9.5991282857
  0
LINE
  5
31B
100
AcDbEntity
  8
0
100
AcDbLine
 62
4
  6
CONTINUOUS
 10
10.2679370686
 20
9.633038533
 11
10.3093338854
 21
9.630167654
  0
LINE
  5
31C
100
AcDbEntity
  8
0
100
AcDbLine
 62
4
  6
CONTINUOUS
 10
10.4721613815
 20
9.6188755288
 11
10.5383962938
 21
9.614282122
  0
LINE
  5
31D
100
AcDbEntity
  8
0
100
AcDbLine
 62
4
  6
CONTINUOUS
 10
10.5715137638
 20
9.6119854177
 11
10.6211899549
 21
9.6085403621
  0
LINE
  5
31E
100
AcDbEntity
  8
0
100
AcDbLine
 62
4
  6
CONTINUOUS
 10
10.7619391678
 20
9.5987793711
 11
10.7950566101
 21
9.5964826686
  0
LINE
  5
31F
100
AcDbEntity
  8
0
100
AcDbLine
 62
4
  6
CONTINUOUS
 10
10.8585317171
 20
9.592080655
 11
10.8833698265
 21
9.5903581263
  0
LINE
  5
320
100
AcDbEntity
  8
0
100
AcDbLine
 62
4
  6
CONTINUOUS
 10
10.93304599
 20
9.5869130726
 11
10.9744428205
 21
9.5840421927
  0
LINE
  5
321
100
AcDbEntity
  8
0
100
AcDbLine
 62
4
  6
CONTINUOUS
 10
11.0379179828
 20
9.5796401752
 11
11.0875941463
 21
9.5761951216
  0
LINE
  5
322
100
AcDbEntity
  8
0
100
AcDbLine
 62
4
  6
CONTINUOUS
 10
10.7329741422
 20
9.6393727511
 11
10.6915773117
 21
9.6422436311
  0
LINE
  5
323
100
AcDbEntity
  8
0
100
AcDbLine
 62
4
  6
CONTINUOUS
 10
10.6419011274
 20
9.6456886861
 11
10.6005043038
 21
9.6485595656
  0
LINE
  5
324
100
AcDbEntity
  8
0
100
AcDbLine
 62
4
  6
CONTINUOUS
 10
10.8125197371
 20
9.6476364772
 11
10.8483969709
 21
9.6451483826
  0
LINE
  5
325
100
AcDbEntity
  8
0
100
AcDbLine
 62
4
  6
CONTINUOUS
 10
10.6160334333
 20
9.6635595538
 11
10.657430257
 21
9.6606886743
  0
LINE
  5
326
100
AcDbEntity
  8
0
100
AcDbLine
 62
4
  6
CONTINUOUS
 10
10.7071064412
 20
9.6572436192
 11
10.7485032717
 21
9.6543727393
  0
LINE
  5
327
100
AcDbEntity
  8
0
100
AcDbLine
 62
4
  6
CONTINUOUS
 10
10.8551054092
 20
9.6630567929
 11
10.8302673136
 21
9.6647793207
  0
LINE
  5
328
100
AcDbEntity
  8
0
100
AcDbLine
 62
4
  6
CONTINUOUS
 10
10.6315625629
 20
9.678559542
 11
10.6564006567
 21
9.6768370143
  0
LINE
  5
329
100
AcDbEntity
  8
0
100
AcDbLine
 62
4
  6
CONTINUOUS
 10
10.7226355707
 20
9.6722436074
 11
10.7474736663
 21
9.6705210796
  0
LINE
  5
32A
100
AcDbEntity
  8
0
100
AcDbLine
 62
4
  6
CONTINUOUS
 10
10.7080165315
 20
9.7266941174
 11
10.7245752526
 21
9.7255457662
  0
LINE
  5
32B
100
AcDbEntity
  8
0
100
AcDbLine
 62
4
  6
CONTINUOUS
 10
11.2701288181
 20
9.6953671822
 11
11.2370112653
 21
9.6976638923
  0
LINE
  5
32C
100
AcDbEntity
  8
0
100
AcDbLine
 62
4
  6
CONTINUOUS
 10
11.1348991606
 20
9.7047453908
 11
11.1183404394
 21
9.705893742
  0
LINE
  5
32D
100
AcDbEntity
  8
0
100
AcDbLine
 62
4
  6
CONTINUOUS
 10
10.9941499478
 20
9.7145063819
 11
10.9610325055
 21
9.7168030843
  0
LINE
  5
32E
100
AcDbEntity
  8
0
100
AcDbLine
 62
4
  6
CONTINUOUS
 10
10.8368420138
 20
9.7254157242
 11
10.8037245715
 21
9.7277124266
  0
LINE
  5
32F
100
AcDbEntity
  8
0
100
AcDbLine
 62
4
  6
CONTINUOUS
 10
10.2766050274
 20
9.7642682911
 11
10.3097224862
 21
9.7619715876
  0
LINE
  5
330
100
AcDbEntity
  8
0
100
AcDbLine
 62
4
  6
CONTINUOUS
 10
10.3759573985
 20
9.7573781808
 11
10.4007955009
 21
9.7556556525
  0
LINE
  5
331
100
AcDbEntity
  8
0
100
AcDbLine
 62
4
  6
CONTINUOUS
 10
11.0355467783
 20
9.7116355019
 11
11.0769436089
 21
9.708764622
  0
LINE
  5
332
100
AcDbEntity
  8
0
100
AcDbLine
 62
4
  6
CONTINUOUS
 10
11.3115255934
 20
9.6924963061
 11
11.3446430357
 21
9.6901996037
  0
LINE
  5
333
100
AcDbEntity
  8
0
100
AcDbLine
 62
4
  6
CONTINUOUS
 10
10.9721247411
 20
9.7275173618
 11
11.0052421835
 21
9.7252206594
  0
LINE
  5
334
100
AcDbEntity
  8
0
100
AcDbLine
 62
4
  6
CONTINUOUS
 10
11.0080550862
 20
9.7365091106
 11
10.9666582556
 21
9.7393799906
  0
LINE
  5
335
100
AcDbEntity
  8
0
100
AcDbLine
 62
4
  6
CONTINUOUS
 10
10.6548021653
 20
9.7610072839
 11
10.6961989958
 21
9.7581364039
  0
LINE
  5
336
100
AcDbEntity
  8
0
100
AcDbLine
 62
4
  6
CONTINUOUS
 10
10.8259090428
 20
9.7491409816
 11
10.8590264851
 21
9.7468442792
  0
LINE
  5
337
100
AcDbEntity
  8
0
100
AcDbLine
 62
4
  6
CONTINUOUS
 10
10.8921439827
 20
9.7445475729
 11
10.9252614251
 21
9.7422508705
  0
LINE
  5
338
100
AcDbEntity
  8
0
100
AcDbLine
 62
4
  6
CONTINUOUS
 10
11.2591957366
 20
9.7190924474
 11
11.2923132894
 21
9.7167957373
  0
LINE
  5
339
100
AcDbEntity
  8
0
100
AcDbLine
 62
4
  6
CONTINUOUS
 10
11.3337100647
 20
9.7139248612
 11
11.366827507
 21
9.7116281587
  0
LINE
  5
33A
100
AcDbEntity
  8
0
100
AcDbLine
 62
4
  6
CONTINUOUS
 10
10.3159426514
 20
9.7936940916
 11
10.3490601093
 21
9.7913973881
  0
LINE
  5
33B
100
AcDbEntity
  8
0
100
AcDbLine
 62
4
  6
CONTINUOUS
 10
11.2156335832
 20
9.7313003135
 11
11.2183933608
 21
9.7311089223
  0
LINE
  5
33C
100
AcDbEntity
  8
0
100
AcDbLine
 62
4
  6
CONTINUOUS
 10
11.3549957891
 20
9.7001995961
 11
11.3233573114
 21
9.7039248687
  0
LINE
  5
33D
100
AcDbEntity
  8
0
100
AcDbLine
 62
4
  6
CONTINUOUS
 10
10.6564006567
 20
9.6768370143
 11
10.6639405392
 21
9.6755485523
  0
LINE
  5
33E
100
AcDbEntity
  8
0
100
AcDbLine
 62
4
  6
CONTINUOUS
 10
10.7474736663
 20
9.6705210796
 11
10.7550135437
 21
9.669232618
  0
LINE
  5
33F
100
AcDbEntity
  8
0
100
AcDbLine
 62
4
  6
CONTINUOUS
 10
10.8037245715
 20
9.7277124266
 11
10.7893842975
 21
9.7310036334
  0
LINE
  5
340
100
AcDbEntity
  8
0
100
AcDbLine
 62
4
  6
CONTINUOUS
 10
10.9610325055
 20
9.7168030843
 11
10.9466922315
 21
9.7200942911
  0
LINE
  5
341
100
AcDbEntity
  8
0
100
AcDbLine
 62
4
  6
CONTINUOUS
 10
11.3233573114
 20
9.7039248687
 11
11.3165569431
 21
9.7059276126
  0
LINE
  5
342
100
AcDbEntity
  8
0
100
AcDbLine
 62
4
  6
CONTINUOUS
 10
11.3617961574
 20
9.6981968522
 11
11.3549957891
 21
9.7001995961
  0
LINE
  5
343
100
AcDbEntity
  8
0
100
AcDbLine
 62
4
  6
CONTINUOUS
 10
11.0294858373
 20
9.714352535
 11
11.0355467783
 21
9.7116355019
  0
LINE
  5
344
100
AcDbEntity
  8
0
100
AcDbLine
 62
4
  6
CONTINUOUS
 10
11.1183404394
 20
9.705893742
 11
11.1122794984
 21
9.7086107751
  0
LINE
  5
345
100
AcDbEntity
  8
0
100
AcDbLine
 62
4
  6
CONTINUOUS
 10
11.2370112653
 20
9.6976638923
 11
11.2309503795
 21
9.7003809216
  0
LINE
  5
346
100
AcDbEntity
  8
0
100
AcDbLine
 62
4
  6
CONTINUOUS
 10
11.3054647076
 20
9.6952133353
 11
11.3115255934
 21
9.6924963061
  0
LINE
  5
347
100
AcDbEntity
  8
0
100
AcDbLine
 62
4
  6
CONTINUOUS
 10
11.366827507
 20
9.7116281587
 11
11.3728883921
 21
9.7089111288
  0
LINE
  5
348
100
AcDbEntity
  8
0
100
AcDbLine
 62
4
  6
CONTINUOUS
 10
10.5717334032
 20
10.0674834041
 11
10.5624208917
 21
10.0734882079
  0
LINE
  5
349
100
AcDbEntity
  8
0
100
AcDbLine
 62
4
  6
CONTINUOUS
 10
10.5851944652
 20
10.0879857922
 11
10.5898507215
 21
10.0849833909
  0
LINE
  5
34A
100
AcDbEntity
  8
0
100
AcDbLine
 62
4
  6
CONTINUOUS
 10
10.6255528196
 20
10.0744689725
 11
10.6302090759
 21
10.0714665712
  0
LINE
  5
34B
100
AcDbEntity
  8
0
100
AcDbLine
 62
4
  6
CONTINUOUS
 10
10.6457382045
 20
10.0864665585
 11
10.6410819501
 21
10.0894689616
  0
LINE
  5
34C
100
AcDbEntity
  8
0
100
AcDbLine
 62
4
  6
CONTINUOUS
 10
10.6876445066
 20
10.0594449418
 11
10.6783319951
 21
10.0654497456
  0
LINE
  5
34D
100
AcDbEntity
  8
0
100
AcDbLine
 62
4
  6
CONTINUOUS
 10
10.7569930535
 20
10.0814304993
 11
10.7663055643
 21
10.0754256948
  0
LINE
  5
34E
100
AcDbEntity
  8
0
100
AcDbLine
 62
4
  6
CONTINUOUS
 10
10.4007955009
 20
9.7556556525
 11
10.4217911165
 21
9.7587930124
  0
LINE
  5
34F
100
AcDbEntity
  8
0
100
AcDbLine
 62
4
  6
CONTINUOUS
 10
10.3097224862
 20
9.7619715876
 11
10.3307181086
 21
9.765108947
  0
LINE
  5
350
100
AcDbEntity
  8
0
100
AcDbLine
 62
4
  6
CONTINUOUS
 10
10.2949470277
 20
9.7905567327
 11
10.3159426514
 21
9.7936940916
  0
LINE
  5
351
100
AcDbEntity
  8
0
100
AcDbLine
 62
7
  6
CONTINUOUS
 10
8.4449021026
 20
10.1002685763
 11
9.5935296673
 21
10.0206109841
  0
LINE
  5
352
100
AcDbEntity
  8
0
100
AcDbLine
 62
7
  6
CONTINUOUS
 10
13.7574942666
 20
9.7328049842
 11
12.5500868947
 21
9.8165389699
  0
LINE
  5
353
100
AcDbEntity
  8
0
100
AcDbLine
 62
7
  6
CONTINUOUS
 10
9.6067420698
 20
10.0333731857
 11
8.4708461274
 21
10.1121478369
  0
LINE
  5
354
100
AcDbEntity
  8
0
100
AcDbLine
 62
7
  6
CONTINUOUS
 10
12.5760309196
 20
9.8284182305
 11
13.7834382915
 21
9.7446842448
  0
LINE
  5
355
100
AcDbEntity
  8
0
100
AcDbLine
 62
4
  6
CONTINUOUS
 10
10.4348629424
 20
10.070276679
 11
11.5939739768
 21
9.9898920558
  0
LINE
  5
356
100
AcDbEntity
  8
0
100
AcDbLine
 62
4
  6
CONTINUOUS
 10
11.54714515
 20
9.9971588802
 11
11.4891895983
 21
10.0011781113
  0
LINE
  5
357
100
AcDbEntity
  8
0
100
AcDbLine
 62
4
  6
CONTINUOUS
 10
10.7140340941
 20
10.0549353281
 11
10.6995452062
 21
10.0559401359
  0
LINE
  5
358
100
AcDbEntity
  8
0
100
AcDbLine
 62
4
  6
CONTINUOUS
 10
10.5981229907
 20
10.0629737905
 11
10.5836341028
 21
10.0639785982
  0
LINE
  5
359
100
AcDbEntity
  8
0
100
AcDbLine
 62
4
  6
CONTINUOUS
 10
10.7937229777
 20
10.0494088853
 11
10.8516785295
 21
10.0453896541
  0
LINE
  5
35A
100
AcDbEntity
  8
0
100
AcDbLine
 62
4
  6
CONTINUOUS
 10
11.2573673915
 20
10.017255036
 11
11.3153229432
 21
10.0132358048
  0
LINE
  5
35B
100
AcDbEntity
  8
0
100
AcDbLine
 62
4
  6
CONTINUOUS
 10
11.1590534853
 20
10.0347910868
 11
11.2025201491
 21
10.0317766635
  0
LINE
  5
35C
100
AcDbEntity
  8
0
100
AcDbLine
 62
4
  6
CONTINUOUS
 10
11.5047187279
 20
10.0161780995
 11
11.5409409477
 21
10.01366608
  0
LINE
  5
35D
100
AcDbEntity
  8
0
100
AcDbLine
 62
4
  6
CONTINUOUS
 10
10.6291812498
 20
10.0929737668
 11
10.6146923619
 21
10.0939785746
  0
LINE
  5
35E
100
AcDbEntity
  8
0
100
AcDbLine
 62
4
  6
CONTINUOUS
 10
10.7306034653
 20
10.0859401123
 11
10.7450923532
 21
10.0849353045
  0
LINE
  5
35F
100
AcDbEntity
  8
0
100
AcDbLine
 62
4
  6
CONTINUOUS
 10
11.5202478574
 20
10.0311780877
 11
11.5782034091
 21
10.0271588565
  0
LINE
  5
360
100
AcDbEntity
  8
0
100
AcDbLine
 62
4
  6
CONTINUOUS
 10
10.5836341028
 20
10.0639785982
 11
10.5717334032
 21
10.0674834041
  0
LINE
  5
361
100
AcDbEntity
  8
0
100
AcDbLine
 62
4
  6
CONTINUOUS
 10
10.5898507215
 20
10.0849833909
 11
10.6255528196
 21
10.0744689725
  0
LINE
  5
362
100
AcDbEntity
  8
0
100
AcDbLine
 62
4
  6
CONTINUOUS
 10
10.6995452062
 20
10.0559401359
 11
10.6876445066
 21
10.0594449418
  0
LINE
  5
363
100
AcDbEntity
  8
0
100
AcDbLine
 62
4
  6
CONTINUOUS
 10
10.6410819501
 20
10.0894689616
 11
10.6291812498
 21
10.0929737668
  0
LINE
  5
364
100
AcDbEntity
  8
0
100
AcDbLine
 62
4
  6
CONTINUOUS
 10
10.7450923532
 20
10.0849353045
 11
10.7569930535
 21
10.0814304993
  0
LINE
  5
365
100
AcDbEntity
  8
0
100
AcDbLine
 62
7
  6
CONTINUOUS
 10
12.6512850532
 20
9.9741762952
 11
12.6512850532
 21
9.8231993386
  0
LINE
  5
366
100
AcDbEntity
  8
0
100
AcDbLine
 62
7
  6
CONTINUOUS
 10
11.8908753356
 20
6.8248621581
 11
12.0376408986
 21
6.9666268143
  0
LINE
  5
367
100
AcDbEntity
  8
0
100
AcDbLine
 62
4
  6
CONTINUOUS
 10
10.7507764348
 20
10.0604257066
 11
10.7311111704
 21
10.0564305184
  0
LINE
  5
368
100
AcDbEntity
  8
0
100
AcDbLine
 62
4
  6
CONTINUOUS
 10
10.6250326993
 20
10.066466575
 11
10.615200067
 21
10.0644689808
  0
LINE
  5
369
100
AcDbEntity
  8
0
100
AcDbLine
 62
4
  6
CONTINUOUS
 10
10.6938611247
 20
10.0804497338
 11
10.7135263897
 21
10.0844449226
  0
LINE
  5
36A
100
AcDbEntity
  8
0
100
AcDbLine
 62
4
  6
CONTINUOUS
 10
10.5976152863
 20
10.092483385
 11
10.5877826528
 21
10.0904857896
  0
LINE
  5
36B
100
AcDbEntity
  8
0
100
AcDbLine
 62
4
  6
CONTINUOUS
 10
10.7311111704
 20
10.0564305184
 11
10.7140340941
 21
10.0549353281
  0
LINE
  5
36C
100
AcDbEntity
  8
0
100
AcDbLine
 62
4
  6
CONTINUOUS
 10
10.615200067
 20
10.0644689808
 11
10.5981229907
 21
10.0629737905
  0
LINE
  5
36D
100
AcDbEntity
  8
0
100
AcDbLine
 62
4
  6
CONTINUOUS
 10
10.7135263897
 20
10.0844449226
 11
10.7306034653
 21
10.0859401123
  0
LINE
  5
36E
100
AcDbEntity
  8
0
100
AcDbLine
 62
4
  6
CONTINUOUS
 10
10.6146923619
 20
10.0939785746
 11
10.5976152863
 21
10.092483385
  0
LINE
  5
36F
100
AcDbEntity
  8
0
100
AcDbLine
 62
7
  6
CONTINUOUS
 10
9.7535076329
 20
10.1751378419
 11
12.6512850532
 21
9.9741762952
  0
LINE
  5
370
100
AcDbEntity
  8
0
100
AcDbLine
 62
4
  6
CONTINUOUS
 10
13.6206292427
 20
7.4561576819
 11
13.6167469603
 21
7.4620669437
  0
LINE
  5
371
100
AcDbEntity
  8
0
100
AcDbLine
 62
4
  6
CONTINUOUS
 10
13.6245115251
 20
7.5758187824
 11
13.6283938074
 21
7.5699095231
  0
LINE
  5
372
100
AcDbEntity
  8
0
100
AcDbLine
 62
7
  6
CONTINUOUS
 10
13.2294245683
 20
9.1617850919
 11
13.1994808659
 21
9.1938053971
  0
LINE
  5
373
100
AcDbEntity
  8
0
100
AcDbLine
 62
7
  6
CONTINUOUS
 10
13.1024238041
 20
7.1682037019
 11
13.1024238041
 21
8.7378332626
  0
LINE
  5
374
100
AcDbEntity
  8
0
100
AcDbLine
 62
7
  6
CONTINUOUS
 10
13.1403908903
 20
7.1738770931
 11
13.1403908903
 21
8.7435066538
  0
LINE
  5
375
100
AcDbEntity
  8
0
100
AcDbLine
 62
7
  6
CONTINUOUS
 10
13.8111756458
 20
8.8384111177
 11
13.8401586563
 21
8.8875513707
  0
LINE
  5
376
100
AcDbEntity
  8
0
100
AcDbLine
 62
7
  6
CONTINUOUS
 10
13.7445926338
 20
7.878313268
 11
13.7590445681
 21
7.8435911951
  0
LINE
  5
377
100
AcDbEntity
  8
0
100
AcDbLine
 62
4
  6
CONTINUOUS
 10
13.6167469603
 20
7.4620669437
 11
13.6128646779
 21
7.4776354636
  0
LINE
  5
378
100
AcDbEntity
  8
0
100
AcDbLine
 62
4
  6
CONTINUOUS
 10
13.6283938074
 20
7.5699095231
 11
13.6303349486
 21
7.5621252584
  0
LINE
  5
379
100
AcDbEntity
  8
0
100
AcDbLine
 62
4
  6
CONTINUOUS
 10
13.6128646779
 20
7.4776354636
 11
13.6109235367
 21
7.504738241
  0
LINE
  5
37A
100
AcDbEntity
  8
0
100
AcDbLine
 62
4
  6
CONTINUOUS
 10
13.6206292427
 20
7.5720687853
 11
13.6245115251
 21
7.5758187824
  0
LINE
  5
37B
100
AcDbEntity
  8
0
100
AcDbLine
 62
4
  6
CONTINUOUS
 10
13.6769223373
 20
7.6264437424
 11
13.6924514668
 21
7.6414437306
  0
LINE
  5
37C
100
AcDbEntity
  8
0
100
AcDbLine
 62
4
  6
CONTINUOUS
 10
13.6769223373
 20
7.5684881907
 11
13.6866280432
 21
7.5778631833
  0
LINE
  5
37D
100
AcDbEntity
  8
0
100
AcDbLine
 62
4
  6
CONTINUOUS
 10
13.7099217375
 20
7.5810446495
 11
13.7215685847
 21
7.5922946406
  0
LINE
  5
37E
100
AcDbEntity
  8
0
100
AcDbLine
 62
4
  6
CONTINUOUS
 10
13.6245115251
 20
7.4599076789
 11
13.6206292427
 21
7.4561576819
  0
LINE
  5
37F
100
AcDbEntity
  8
0
100
AcDbLine
 62
4
  6
CONTINUOUS
 10
13.6458640782
 20
7.5964437661
 11
13.6613932077
 21
7.4955326508
  0
LINE
  5
380
100
AcDbEntity
  8
0
100
AcDbLine
 62
4
  6
CONTINUOUS
 10
13.7157451611
 20
7.6639437129
 11
13.7254508671
 21
7.5574076021
  0
LINE
  5
381
100
AcDbEntity
  8
0
100
AcDbLine
 62
4
  6
CONTINUOUS
 10
13.6769223373
 20
7.510532639
 11
13.6769223373
 21
7.6264437424
  0
LINE
  5
382
100
AcDbEntity
  8
0
100
AcDbLine
 62
4
  6
CONTINUOUS
 10
13.6109235367
 20
7.504738241
 11
13.6128646779
 21
7.5355910154
  0
LINE
  5
383
100
AcDbEntity
  8
0
100
AcDbLine
 62
4
  6
CONTINUOUS
 10
13.7060394552
 20
7.5386576168
 11
13.7157451611
 21
7.6639437129
  0
LINE
  5
384
100
AcDbEntity
  8
0
100
AcDbLine
 62
4
  6
CONTINUOUS
 10
13.6458640782
 20
7.4805326627
 11
13.6613932077
 21
7.6114437543
  0
LINE
  5
385
100
AcDbEntity
  8
0
100
AcDbLine
 62
4
  6
CONTINUOUS
 10
13.6128646779
 20
7.5355910154
 11
13.6167469603
 21
7.5586595319
  0
LINE
  5
386
100
AcDbEntity
  8
0
100
AcDbLine
 62
4
  6
CONTINUOUS
 10
13.6303349486
 20
7.4848511923
 11
13.6283938074
 21
7.4733169349
  0
LINE
  5
387
100
AcDbEntity
  8
0
100
AcDbLine
 62
4
  6
CONTINUOUS
 10
13.6167469603
 20
7.5586595319
 11
13.6206292427
 21
7.5720687853
  0
LINE
  5
388
100
AcDbEntity
  8
0
100
AcDbLine
 62
4
  6
CONTINUOUS
 10
13.6283938074
 20
7.4733169349
 11
13.6245115251
 21
7.4599076789
  0
LINE
  5
389
100
AcDbEntity
  8
0
100
AcDbLine
 62
7
  6
CONTINUOUS
 10
13.787437969
 20
7.4665981104
 11
13.2294245683
 21
6.9275985233
  0
LINE
  5
38A
100
AcDbEntity
  8
0
100
AcDbLine
 62
7
  6
CONTINUOUS
 10
13.2294245683
 20
6.9275985233
 11
13.2285830582
 21
6.9268007015
  0
LINE
  5
38B
100
AcDbEntity
  8
0
100
AcDbLine
 62
7
  6
CONTINUOUS
 10
13.1985646628
 20
6.8988625788
 11
13.2285841047
 21
6.9268015028
  0
LINE
  5
38C
100
AcDbEntity
  8
0
100
AcDbLine
 62
7
  6
CONTINUOUS
 10
13.8764716471
 20
9.4545061092
 11
13.8764716471
 21
8.9438757353
  0
LINE
  5
38D
100
AcDbEntity
  8
0
100
AcDbLine
 62
7
  6
CONTINUOUS
 10
13.787437969
 20
9.700784679
 11
13.7574942666
 21
9.7328049842
  0
LINE
  5
38E
100
AcDbEntity
  8
0
100
AcDbLine
 62
7
  6
CONTINUOUS
 10
13.806706685
 20
9.7303244753
 11
13.8325821608
 21
9.6985092255
  0
LINE
  5
38F
100
AcDbEntity
  8
0
100
AcDbLine
 62
7
  6
CONTINUOUS
 10
14.3270991746
 20
7.7867660706
 11
14.3474458049
 21
7.8212634726
  0
LINE
  5
390
100
AcDbEntity
  8
0
100
AcDbLine
 62
7
  6
CONTINUOUS
 10
14.4082132627
 20
8.8307262462
 11
14.4161327411
 21
8.8116989866
  0
ARC
  5
391
100
AcDbEntity
  8
0
100
AcDbCircle
 62
7
  6
CONTINUOUS
 10
9.8769132698
 20
8.6196521953
 40
2.3168350453
100
AcDbArc
 50
179.328541535
 51
179.9990932774
  0
ARC
  5
392
100
AcDbEntity
  8
0
100
AcDbCircle
 62
7
  6
CONTINUOUS
 10
16.0309493767
 20
8.2121943187
 40
2.3022216869
100
AcDbArc
 50
171.6607434676
 51
173.0086288778
  0
ARC
  5
393
100
AcDbEntity
  8
0
100
AcDbCircle
 62
7
  6
CONTINUOUS
 10
16.4153528181
 20
8.1855358495
 40
2.3022216869
100
AcDbArc
 50
171.6607434676
 51
173.0086288778
  0
ARC
  5
394
100
AcDbEntity
  8
0
100
AcDbCircle
 62
7
  6
CONTINUOUS
 10
9.7979329042
 20
8.6195663165
 40
2.2378546828
100
AcDbArc
 50
179.9968625215
 51
180.6832112997
  0
ARC
  5
395
100
AcDbEntity
  8
0
100
AcDbCircle
 62
7
  6
CONTINUOUS
 10
8.5982780577
 20
8.9224803002
 40
1.0041729287
100
AcDbArc
 50
161.0622054474
 51
163.401859189
  0
ARC
  5
396
100
AcDbEntity
  8
0
100
AcDbCircle
 62
7
  6
CONTINUOUS
 10
14.6922359413
 20
8.0789253751
 40
0.9584571905
100
AcDbArc
 50
189.1014340788
 51
191.5149294916
  0
ARC
  5
397
100
AcDbEntity
  8
0
100
AcDbCircle
 62
7
  6
CONTINUOUS
 10
15.0766393826
 20
8.0522669059
 40
0.9584571905
100
AcDbArc
 50
189.1014340788
 51
191.5149294916
  0
ARC
  5
398
100
AcDbEntity
  8
0
100
AcDbCircle
 62
7
  6
CONTINUOUS
 10
8.2971786412
 20
8.5482134037
 40
0.7576452018
100
AcDbArc
 50
199.8738264202
 51
202.6148349527
  0
ARC
  5
399
100
AcDbEntity
  8
0
100
AcDbCircle
 62
7
  6
CONTINUOUS
 10
10.9988948162
 20
7.7056031673
 40
0.4537960428
100
AcDbArc
 50
8.5489015576
 51
10.8143851365
  0
SPLINE
  5
39A
100
AcDbEntity
  8
0
100
AcDbSpline
 62
7
  6
CONTINUOUS
 70
0
 71
3
 72
29
 73
25
 74
0
 42
0.0000001
 43
0.0000001
 44
0.0000000001
 40
0.0
 40
0.0
 40
0.0
 40
0.0
 40
0.0712694795
 40
0.1436247345
 40
0.2165533993
 40
0.2895567269
 40
0.3621246814
 40
0.433754896
 40
0.503952326
 40
0.5722350301
 40
0.638138593
 40
0.7012208551
 40
0.7315740076
 40
0.7610689842
 40
0.7896587401
 40
0.8172996717
 40
0.8439498268
 40
0.8695710206
 40
0.8941280784
 40
0.9175890721
 40
0.9399271287
 40
0.9611187394
 40
0.9811468825
 40
1.0
 40
1.0
 40
1.0
 40
1.0
 10
7.5364683845
 20
8.6424941753
 30
0.0
 10
7.5364683845
 20
8.6580342244
 30
0.0
 10
7.5368325759
 20
8.6893521181
 30
0.0
 10
7.538427438
 20
8.7365474106
 30
0.0
 10
7.5410653324
 20
8.7840747318
 30
0.0
 10
7.5447261382
 20
8.8315806543
 30
0.0
 10
7.5493831868
 20
8.8787148726
 30
0.0
 10
7.5550016528
 20
8.9251281003
 30
0.0
 10
7.5615397508
 20
8.9704771091
 30
0.0
 10
7.5689485573
 20
9.0144266551
 30
0.0
 10
7.5771727558
 20
9.0566516262
 30
0.0
 10
7.5847480909
 20
9.090564485
 30
0.0
 10
7.5911909215
 20
9.1165841554
 30
0.0
 10
7.5961249918
 20
9.1352267183
 30
0.0
 10
7.601214231
 20
9.1532137214
 30
0.0
 10
7.606448719
 20
9.1705120077
 30
0.0
 10
7.6118191308
 20
9.1870895774
 30
0.0
 10
7.6173152617
 20
9.2029158717
 30
0.0
 10
7.6229267975
 20
9.2179617623
 30
0.0
 10
7.6286436996
 20
9.2321994957
 30
0.0
 10
7.6344547611
 20
9.2456030709
 30
0.0
 10
7.6403498838
 20
9.2581479251
 30
0.0
 10
7.646317607
 20
9.2698110408
 30
0.0
 10
7.6504632213
 20
9.2772094107
 30
0.0
 10
7.6525515916
 20
9.2807502896
 30
0.0
  0
SPLINE
  5
39B
100
AcDbEntity
  8
0
100
AcDbSpline
 62
7
  6
CONTINUOUS
 70
0
 71
3
 72
9
 73
5
 74
0
 42
0.0000001
 43
0.0000001
 44
0.0000000001
 40
0.0
 40
0.0
 40
0.0
 40
0.0
 40
0.4794076852
 40
1.0
 40
1.0
 40
1.0
 40
1.0
 10
7.6484595191
 20
8.1617412683
 30
0.0
 10
7.6462331679
 20
8.1639118182
 30
0.0
 10
7.6418388217
 20
8.1686987639
 30
0.0
 10
7.6378969497
 20
8.17385909
 30
0.0
 10
7.635947163
 20
8.176615664
 30
0.0
  0
SPLINE
  5
39C
100
AcDbEntity
  8
0
100
AcDbSpline
 62
7
  6
CONTINUOUS
 70
0
 71
3
 72
9
 73
5
 74
0
 42
0.0000001
 43
0.0000001
 44
0.0000000001
 40
0.0
 40
0.0
 40
0.0
 40
0.0
 40
0.5041850575
 40
1.0
 40
1.0
 40
1.0
 40
1.0
 10
7.635947163
 20
8.176615664
 30
0.0
 10
7.6289490769
 20
8.1898143237
 30
0.0
 10
7.615573028
 20
8.2162640994
 30
0.0
 10
7.6034339137
 20
8.2433097685
 30
0.0
 10
7.5977882601
 20
8.2568728014
 30
0.0
  0
SPLINE
  5
39D
100
AcDbEntity
  8
0
100
AcDbSpline
 62
7
  6
CONTINUOUS
 70
0
 71
3
 72
22
 73
18
 74
0
 42
0.0000001
 43
0.0000001
 44
0.0000000001
 40
0.0
 40
0.0
 40
0.0
 40
0.0
 40
0.0448660164
 40
0.0916357014
 40
0.1916578542
 40
0.2452761456
 40
0.3014348278
 40
0.360194033
 40
0.421574515
 40
0.4855624249
 40
0.5521103397
 40
0.6211475981
 40
0.6925801132
 40
0.7663015548
 40
0.8421951416
 40
0.9201371251
 40
1.0
 40
1.0
 40
1.0
 40
1.0
 10
7.6617353185
 20
9.2963208462
 30
0.0
 10
7.6630262214
 20
9.2985122333
 30
0.0
 10
7.6658243163
 20
9.3028948006
 30
0.0
 10
7.6722765478
 20
9.3116438661
 30
0.0
 10
7.6798884974
 20
9.3201193991
 30
0.0
 10
7.6885050526
 20
9.3283207707
 30
0.0
 10
7.695740565
 20
9.3345657697
 30
0.0
 10
7.7035880735
 20
9.3407584989
 30
0.0
 10
7.7120330093
 20
9.3468970169
 30
0.0
 10
7.721055936
 20
9.352978892
 30
0.0
 10
7.7306338541
 20
9.3590032367
 30
0.0
 10
7.7407414528
 20
9.364968722
 30
0.0
 10
7.751351
 20
9.3708757444
 30
0.0
 10
7.7624341487
 20
9.3767242007
 30
0.0
 10
7.7739616704
 20
9.3825153374
 30
0.0
 10
7.7859045226
 20
9.3882501882
 30
0.0
 10
7.7940297292
 20
9.3919933709
 30
0.0
 10
7.798154877
 20
9.3938585769
 30
0.0
  0
SPLINE
  5
39E
100
AcDbEntity
  8
0
100
AcDbSpline
 62
7
  6
CONTINUOUS
 70
0
 71
3
 72
23
 73
19
 74
0
 42
0.0000001
 43
0.0000001
 44
0.0000000001
 40
0.0
 40
0.0
 40
0.0
 40
0.0
 40
0.0422049582
 40
0.0875770255
 40
0.1360736519
 40
0.1876263295
 40
0.2421500124
 40
0.2995404153
 40
0.3596814437
 40
0.4224416151
 40
0.4876806874
 40
0.5552466654
 40
0.624980201
 40
0.6967094848
 40
0.7702589702
 40
0.8454538736
 40
0.9221090702
 40
1.0
 40
1.0
 40
1.0
 40
1.0
 10
7.5838674963
 20
8.290318668
 30
0.0
 10
7.5819364421
 20
8.2949581842
 30
0.0
 10
7.5781888952
 20
8.3046945523
 30
0.0
 10
7.5730479091
 20
8.3200640902
 30
0.0
 10
7.5681973489
 20
8.3366902386
 30
0.0
 10
7.5636498432
 20
8.3545278508
 30
0.0
 10
7.5594187311
 20
8.3735291649
 30
0.0
 10
7.5555149496
 20
8.3936427451
 30
0.0
 10
7.5519500904
 20
8.414814052
 30
0.0
 10
7.5487333127
 20
8.4369855479
 30
0.0
 10
7.5458742324
 20
8.4600969051
 30
0.0
 10
7.543380147
 20
8.4840852913
 30
0.0
 10
7.5412586537
 20
8.5088850704
 30
0.0
 10
7.5395149503
 20
8.5344283292
 30
0.0
 10
7.5381544306
 20
8.5606459549
 30
0.0
 10
7.5371804841
 20
8.5874676533
 30
0.0
 10
7.5365964227
 20
8.6148176152
 30
0.0
 10
7.5364683845
 20
8.6332197032
 30
0.0
 10
7.5364683845
 20
8.6424941753
 30
0.0
  0
SPLINE
  5
39F
100
AcDbEntity
  8
0
100
AcDbSpline
 62
7
  6
CONTINUOUS
 70
0
 71
3
 72
21
 73
17
 74
0
 42
0.0000001
 43
0.0000001
 44
0.0000000001
 40
0.0
 40
0.0
 40
0.0
 40
0.0
 40
0.1231553579
 40
0.1848958394
 40
0.2467570542
 40
0.3087492493
 40
0.3708816145
 40
0.4331617231
 40
0.495593527
 40
0.5581779949
 40
0.6209127295
 40
0.6837916681
 40
0.7468067323
 40
0.8099475791
 40
0.8732024288
 40
1.0
 40
1.0
 40
1.0
 40
1.0
 10
7.5602373182
 20
8.6468029367
 30
0.0
 10
7.5571817925
 20
8.6702003908
 30
0.0
 10
7.553460445
 20
8.7054529018
 30
0.0
 10
7.5505725768
 20
8.7526481642
 30
0.0
 10
7.5495272477
 20
8.7881986269
 30
0.0
 10
7.5496858929
 20
8.8238395841
 30
0.0
 10
7.5511172606
 20
8.8595332692
 30
0.0
 10
7.553874618
 20
8.8952340224
 30
0.0
 10
7.5579883408
 20
8.9308914373
 30
0.0
 10
7.5634632937
 20
8.9664534234
 30
0.0
 10
7.5702805356
 20
9.0018695552
 30
0.0
 10
7.5783966133
 20
9.0370948653
 30
0.0
 10
7.5877470479
 20
9.0720924603
 30
0.0
 10
7.5982542445
 20
9.1068350799
 30
0.0
 10
7.6137002355
 20
9.1528270032
 30
0.0
 10
7.6267350409
 20
9.1868499791
 30
0.0
 10
7.635947163
 20
9.2093295983
 30
0.0
  0
SPLINE
  5
3A0
100
AcDbEntity
  8
0
100
AcDbSpline
 62
7
  6
CONTINUOUS
 70
0
 71
3
 72
11
 73
7
 74
0
 42
0.0000001
 43
0.0000001
 44
0.0000000001
 40
0.0
 40
0.0
 40
0.0
 40
0.0
 40
0.2456411742
 40
0.4929215352
 40
0.7436662094
 40
1.0
 40
1.0
 40
1.0
 40
1.0
 10
7.6484595191
 20
9.2483760112
 30
0.0
 10
7.6484744605
 20
9.251021867
 30
0.0
 10
7.6487082893
 20
9.2563327084
 30
0.0
 10
7.6497205154
 20
9.2642883008
 30
0.0
 10
7.6514457849
 20
9.2722390345
 30
0.0
 10
7.6530825151
 20
9.2774592508
 30
0.0
 10
7.6540258121
 20
9.2800541904
 30
0.0
  0
SPLINE
  5
3A1
100
AcDbEntity
  8
0
100
AcDbSpline
 62
7
  6
CONTINUOUS
 70
0
 71
3
 72
9
 73
5
 74
0
 42
0.0000001
 43
0.0000001
 44
0.0000000001
 40
0.0
 40
0.0
 40
0.0
 40
0.0
 40
0.4899846731
 40
1.0
 40
1.0
 40
1.0
 40
1.0
 10
7.6540258121
 20
9.2800541904
 30
0.0
 10
7.6550313356
 20
9.2828203102
 30
0.0
 10
7.65735414
 20
9.2883705082
 30
0.0
 10
7.6601803901
 20
9.2936812593
 30
0.0
 10
7.6617353185
 20
9.2963208462
 30
0.0
  0
SPLINE
  5
3A2
100
AcDbEntity
  8
0
100
AcDbSpline
 62
7
  6
CONTINUOUS
 70
0
 71
3
 72
15
 73
11
 74
0
 42
0.0000001
 43
0.0000001
 44
0.0000000001
 40
0.0
 40
0.0
 40
0.0
 40
0.0
 40
0.1321990855
 40
0.2618403048
 40
0.3890452197
 40
0.5140751808
 40
0.6372930342
 40
0.7591033803
 40
0.8798948361
 40
1.0
 40
1.0
 40
1.0
 40
1.0
 10
7.5846561212
 20
8.2906519349
 30
0.0
 10
7.5800673318
 20
8.303378858
 30
0.0
 10
7.5717052769
 20
8.3288577585
 30
0.0
 10
7.5617736714
 20
8.3674436937
 30
0.0
 10
7.554713054
 20
8.4059156486
 30
0.0
 10
7.5505537322
 20
8.4441474727
 30
0.0
 10
7.5492090632
 20
8.4820268584
 30
0.0
 10
7.5504938004
 20
8.5194704099
 30
0.0
 10
7.5541574163
 20
8.5564302337
 30
0.0
 10
7.558008664
 20
8.5807946121
 30
0.0
 10
7.5602373182
 20
8.5928821281
 30
0.0
  0
SPLINE
  5
3A3
100
AcDbEntity
  8
0
100
AcDbSpline
 62
7
  6
CONTINUOUS
 70
0
 71
3
 72
9
 73
5
 74
0
 42
0.0000001
 43
0.0000001
 44
0.0000000001
 40
0.0
 40
0.0
 40
0.0
 40
0.0
 40
0.2424516602
 40
1.0
 40
1.0
 40
1.0
 40
1.0
 10
13.8914271948
 20
8.9628849654
 30
0.0
 10
13.8908187961
 20
8.9622972973
 30
0.0
 10
13.8883355057
 20
8.9598465116
 30
0.0
 10
13.8859543815
 20
8.9572928916
 30
0.0
 10
13.8842031826
 20
8.9553133595
 30
0.0
  0
SPLINE
  5
3A4
100
AcDbEntity
  8
0
100
AcDbSpline
 62
7
  6
CONTINUOUS
 70
0
 71
3
 72
9
 73
5
 74
0
 42
0.0000001
 43
0.0000001
 44
0.0000000001
 40
0.0
 40
0.0
 40
0.0
 40
0.0
 40
0.2578199612
 40
1.0
 40
1.0
 40
1.0
 40
1.0
 10
13.8914271948
 20
8.9628849654
 30
0.0
 10
13.89202323
 20
8.9634606912
 30
0.0
 10
13.8943584328
 20
8.9656692976
 30
0.0
 10
13.8967897643
 20
8.967777199
 30
0.0
 10
13.8986512069
 20
8.9692690802
 30
0.0
  0
SPLINE
  5
3A5
100
AcDbEntity
  8
0
100
AcDbSpline
 62
7
  6
CONTINUOUS
 70
0
 71
3
 72
9
 73
5
 74
0
 42
0.0000001
 43
0.0000001
 44
0.0000000001
 40
0.0
 40
0.0
 40
0.0
 40
0.0
 40
0.2423492772
 40
1.0
 40
1.0
 40
1.0
 40
1.0
 10
14.2686066239
 20
7.705048361
 30
0.0
 10
14.2692144589
 20
7.7055355195
 30
0.0
 10
14.2716970473
 20
7.7075774106
 30
0.0
 10
14.274079064
 20
7.7097405871
 30
0.0
 10
14.2758306361
 20
7.7114324759
 30
0.0
  0
SPLINE
  5
3A6
100
AcDbEntity
  8
0
100
AcDbSpline
 62
7
  6
CONTINUOUS
 70
0
 71
3
 72
9
 73
5
 74
0
 42
0.0000001
 43
0.0000001
 44
0.0000000001
 40
0.0
 40
0.0
 40
0.0
 40
0.0
 40
0.2424516602
 40
1.0
 40
1.0
 40
1.0
 40
1.0
 10
14.2758306361
 20
7.7114324759
 30
0.0
 10
14.2764390348
 20
7.7120201439
 30
0.0
 10
14.2789223251
 20
7.7144709296
 30
0.0
 10
14.2813034493
 20
7.7170245496
 30
0.0
 10
14.2830546483
 20
7.7190040817
 30
0.0
  0
SPLINE
  5
3A7
100
AcDbEntity
  8
0
100
AcDbSpline
 62
7
  6
CONTINUOUS
 70
0
 71
3
 72
9
 73
5
 74
0
 42
0.0000001
 43
0.0000001
 44
0.0000000001
 40
0.0
 40
0.0
 40
0.0
 40
0.0
 40
0.5035395631
 40
1.0
 40
1.0
 40
1.0
 40
1.0
 10
13.8842031826
 20
8.9553133595
 30
0.0
 10
13.8763523375
 20
8.9441983286
 30
0.0
 10
13.8611423725
 20
8.9218517973
 30
0.0
 10
13.8468549079
 20
8.8989004941
 30
0.0
 10
13.8400370329
 20
8.8873451456
 30
0.0
  0
SPLINE
  5
3A8
100
AcDbEntity
  8
0
100
AcDbSpline
 62
7
  6
CONTINUOUS
 70
0
 71
3
 72
9
 73
5
 74
0
 42
0.0000001
 43
0.0000001
 44
0.0000000001
 40
0.0
 40
0.0
 40
0.0
 40
0.0
 40
0.5035395631
 40
1.0
 40
1.0
 40
1.0
 40
1.0
 10
14.2830546483
 20
7.7190040817
 30
0.0
 10
14.2909054934
 20
7.7301191126
 30
0.0
 10
14.3061154583
 20
7.752465644
 30
0.0
 10
14.320402923
 20
7.7754169472
 30
0.0
 10
14.327220798
 20
7.7869722957
 30
0.0
  0
SPLINE
  5
3A9
100
AcDbEntity
  8
0
100
AcDbSpline
 62
7
  6
CONTINUOUS
 70
0
 71
3
 72
23
 73
19
 74
0
 42
0.0000001
 43
0.0000001
 44
0.0000000001
 40
0.0
 40
0.0
 40
0.0
 40
0.0
 40
0.0432903358
 40
0.0886111095
 40
0.1362135929
 40
0.1863092711
 40
0.2390678977
 40
0.2946076476
 40
0.3530023406
 40
0.4142746704
 40
0.4784099503
 40
0.5453523313
 40
0.6150199742
 40
0.6873039377
 40
0.76208146
 40
0.8392182661
 40
0.9185728956
 40
1.0
 40
1.0
 40
1.0
 40
1.0
 10
13.7588718405
 20
7.844006439
 30
0.0
 10
13.759818263
 20
7.8417302318
 30
0.0
 10
13.7619391667
 20
7.8371455385
 30
0.0
 10
13.7657032272
 20
7.8303565848
 30
0.0
 10
13.7701302273
 20
7.8235138242
 30
0.0
 10
13.7752273984
 20
7.816621113
 30
0.0
 10
13.7809972766
 20
7.8096827502
 30
0.0
 10
13.7874352778
 20
7.802702477
 30
0.0
 10
13.79453222
 20
7.7956856438
 30
0.0
 10
13.8022721587
 20
7.7886362421
 30
0.0
 10
13.8106354791
 20
7.781559948
 30
0.0
 10
13.8195973031
 20
7.7744607218
 30
0.0
 10
13.8291304792
 20
7.7673438569
 30
0.0
 10
13.8392046841
 20
7.7602129568
 30
0.0
 10
13.8497888938
 20
7.753072344
 30
0.0
 10
13.8608509445
 20
7.7459250535
 30
0.0
 10
13.8723588687
 20
7.7387743186
 30
0.0
 10
13.8802105555
 20
7.7340645164
 30
0.0
 10
13.8842031826
 20
7.7317068302
 30
0.0
  0
SPLINE
  5
3AA
100
AcDbEntity
  8
0
100
AcDbSpline
 62
7
  6
CONTINUOUS
 70
0
 71
3
 72
23
 73
19
 74
0
 42
0.0000001
 43
0.0000001
 44
0.0000000001
 40
0.0
 40
0.0
 40
0.0
 40
0.0
 40
0.0432903358
 40
0.0886111095
 40
0.1362135929
 40
0.1863092711
 40
0.2390678977
 40
0.2946076476
 40
0.3530023406
 40
0.4142746704
 40
0.4784099503
 40
0.5453523313
 40
0.6150199742
 40
0.6873039377
 40
0.76208146
 40
0.8392182661
 40
0.9185728956
 40
1.0
 40
1.0
 40
1.0
 40
1.0
 10
14.4083859904
 20
8.8303110023
 30
0.0
 10
14.4074395679
 20
8.8325872095
 30
0.0
 10
14.4053186641
 20
8.8371719027
 30
0.0
 10
14.4015546036
 20
8.8439608564
 30
0.0
 10
14.3971276036
 20
8.850803617
 30
0.0
 10
14.3920304325
 20
8.8576963283
 30
0.0
 10
14.3862605542
 20
8.8646346911
 30
0.0
 10
14.3798225531
 20
8.8716149643
 30
0.0
 10
14.3727256109
 20
8.8786317975
 30
0.0
 10
14.3649856721
 20
8.8856811992
 30
0.0
 10
14.3566223517
 20
8.8927574933
 30
0.0
 10
14.3476605278
 20
8.8998567195
 30
0.0
 10
14.3381273516
 20
8.9069735844
 30
0.0
 10
14.3280531467
 20
8.9141044845
 30
0.0
 10
14.317468937
 20
8.9212450973
 30
0.0
 10
14.3064068863
 20
8.9283923877
 30
0.0
 10
14.2948989622
 20
8.9355431226
 30
0.0
 10
14.2870472754
 20
8.9402529249
 30
0.0
 10
14.2830546483
 20
8.942610611
 30
0.0
  0
SPLINE
  5
3AB
100
AcDbEntity
  8
0
100
AcDbSpline
 62
7
  6
CONTINUOUS
 70
0
 71
3
 72
47
 73
43
 74
0
 42
0.0000001
 43
0.0000001
 44
0.0000000001
 40
0.0
 40
0.0
 40
0.0
 40
0.0
 40
0.0097390474
 40
0.0199698054
 40
0.0306887706
 40
0.0418911797
 40
0.0535705278
 40
0.0657187093
 40
0.0783268726
 40
0.0913848251
 40
0.1188026063
 40
0.1478725169
 40
0.1784807562
 40
0.2105024129
 40
0.2438034215
 40
0.2782411642
 40
0.3136659887
 40
0.3499225137
 40
0.3868501632
 40
0.4242845303
 40
0.4620583808
 40
0.5000024026
 40
0.537946423
 40
0.5757202051
 40
0.6131544659
 40
0.6500819745
 40
0.6863382449
 40
0.7217628641
 40
0.7562003755
 40
0.7895009924
 40
0.8215223322
 40
0.8521302096
 40
0.8811996138
 40
0.9086170193
 40
0.9216746676
 40
0.9342827067
 40
0.9464306368
 40
0.9581096421
 40
0.9693118429
 40
0.9800304705
 40
0.9902609046
 40
1.0
 40
1.0
 40
1.0
 40
1.0
 10
14.3474481777
 20
7.8212674756
 30
0.0
 10
14.3491160727
 20
7.8240954691
 30
0.0
 10
14.3524336164
 20
7.8299551245
 30
0.0
 10
14.357248378
 20
7.8391137916
 30
0.0
 10
14.3620190615
 20
7.8488479959
 30
0.0
 10
14.3667395495
 20
7.8591461907
 30
0.0
 10
14.3714042268
 20
7.869996181
 30
0.0
 10
14.3760077589
 20
7.8813849646
 30
0.0
 10
14.3805444499
 20
7.8932991427
 30
0.0
 10
14.3865956034
 20
7.9101414853
 30
0.0
 10
14.3939298796
 20
7.9324148723
 30
0.0
 10
14.4022444427
 20
7.9605787575
 30
0.0
 10
14.410169477
 20
7.9904630598
 30
0.0
 10
14.4176668991
 20
8.0219251998
 30
0.0
 10
14.4247002226
 20
8.0548153861
 30
0.0
 10
14.4312356033
 20
8.0889766481
 30
0.0
 10
14.4372416799
 20
8.1242458475
 30
0.0
 10
14.4426892859
 20
8.1604545185
 30
0.0
 10
14.4475523085
 20
8.1974296031
 30
0.0
 10
14.4518074922
 20
8.2349943111
 30
0.0
 10
14.4554341689
 20
8.2729690564
 30
0.0
 10
14.4584150632
 20
8.3111722534
 30
0.0
 10
14.4607360103
 20
8.3494211944
 30
0.0
 10
14.4623856944
 20
8.3875329782
 30
0.0
 10
14.4633564168
 20
8.4253253515
 30
0.0
 10
14.4636437195
 20
8.4626175862
 30
0.0
 10
14.4632461186
 20
8.4992313998
 30
0.0
 10
14.4621658506
 20
8.5349917924
 30
0.0
 10
14.4604083949
 20
8.5697278691
 30
0.0
 10
14.4579821831
 20
8.6032737209
 30
0.0
 10
14.4548993498
 20
8.6354692222
 30
0.0
 10
14.4511751827
 20
8.6661609755
 30
0.0
 10
14.4468275676
 20
8.6952024953
 30
0.0
 10
14.4426380672
 20
8.71827466
 30
0.0
 10
14.438969459
 20
8.7357907262
 30
0.0
 10
14.4361208097
 20
8.7482168496
 30
0.0
 10
14.4331333225
 20
8.7601317943
 30
0.0
 10
14.4300108335
 20
8.7715214893
 30
0.0
 10
14.4267571376
 20
8.7823724098
 30
0.0
 10
14.4233757686
 20
8.7926716422
 30
0.0
 10
14.4198711436
 20
8.8024069609
 30
0.0
 10
14.4173941512
 20
8.808668343
 30
0.0
 10
14.416132532
 20
8.8116994887
 30
0.0
  0
SPLINE
  5
3AC
100
AcDbEntity
  8
0
100
AcDbSpline
 62
7
  6
CONTINUOUS
 70
0
 71
3
 72
71
 73
67
 74
0
 42
0.0000001
 43
0.0000001
 44
0.0000000001
 40
0.0
 40
0.0
 40
0.0
 40
0.0
 40
0.0086181769
 40
0.0180358616
 40
0.0282774586
 40
0.0393565278
 40
0.0512781193
 40
0.0640379079
 40
0.0776250778
 40
0.0920232712
 40
0.1072117669
 40
0.1231658877
 40
0.1398572575
 40
0.1572547554
 40
0.1753241015
 40
0.1940290556
 40
0.2133305876
 40
0.2331882383
 40
0.2743982911
 40
0.3173016118
 40
0.3615185692
 40
0.4066539401
 40
0.4523018244
 40
0.498050443
 40
0.543486841
 40
0.5882016236
 40
0.6317937783
 40
0.6530475103
 40
0.6738765743
 40
0.6942351706
 40
0.7140793344
 40
0.7333664045
 40
0.7520557961
 40
0.7701087697
 40
0.7874888656
 40
0.8041621724
 40
0.8200973098
 40
0.8352663455
 40
0.8496443226
 40
0.8632109019
 40
0.875949623
 40
0.8878502973
 40
0.8989084674
 40
0.9091286382
 40
0.9185247606
 40
0.9229228386
 40
0.9271266988
 40
0.9311424085
 40
0.9349775089
 40
0.9386412763
 40
0.9421446752
 40
0.9487194012
 40
0.9518277284
 40
0.9548406465
 40
0.9577799033
 40
0.9606691014
 40
0.9635332525
 40
0.9663980381
 40
0.9692890983
 40
0.9722313645
 40
0.9752484317
 40
0.9783620293
 40
0.9849505497
 40
0.9884623794
 40
0.9921350537
 40
1.0
 40
1.0
 40
1.0
 40
1.0
 10
14.319887164
 20
8.8568630208
 30
0.0
 10
14.3174279951
 20
8.8544876459
 30
0.0
 10
14.312525019
 20
8.8492614687
 30
0.0
 10
14.3055082809
 20
8.8404971693
 30
0.0
 10
14.2985277888
 20
8.830488552
 30
0.0
 10
14.2915994182
 20
8.8192601831
 30
0.0
 10
14.2847387928
 20
8.8068367811
 30
0.0
 10
14.2779612363
 20
8.7932471142
 30
0.0
 10
14.2712834014
 20
8.7785227553
 30
0.0
 10
14.2647211131
 20
8.7626986043
 30
0.0
 10
14.2582902364
 20
8.7458121737
 30
0.0
 10
14.252006348
 20
8.7279036833
 30
0.0
 10
14.2458844764
 20
8.709015931
 30
0.0
 10
14.2399397651
 20
8.6891941247
 30
0.0
 10
14.234186194
 20
8.6684858244
 30
0.0
 10
14.2286381997
 20
8.6469407216
 30
0.0
 10
14.223308602
 20
8.6246105714
 30
0.0
 10
14.216426733
 20
8.5934763061
 30
0.0
 10
14.2084920606
 20
8.5529915881
 30
0.0
 10
14.2001428027
 20
8.5027625625
 30
0.0
 10
14.1929336499
 20
8.4507848468
 30
0.0
 10
14.186934601
 20
8.39755818
 30
0.0
 10
14.1822038489
 20
8.3435939768
 30
0.0
 10
14.178787087
 20
8.2894110707
 30
0.0
 10
14.1767170516
 20
8.2355302929
 30
0.0
 10
14.1760134529
 20
8.1824699456
 30
0.0
 10
14.1765750191
 20
8.1390021964
 30
0.0
 10
14.1777301042
 20
8.105031393
 30
0.0
 10
14.1789306246
 20
8.0802874596
 30
0.0
 10
14.1804698779
 20
8.0561225824
 30
0.0
 10
14.1823438161
 20
8.0325949028
 30
0.0
 10
14.1845481033
 20
8.0097609887
 30
0.0
 10
14.1870771971
 20
7.9876757629
 30
0.0
 10
14.1899249669
 20
7.9663922812
 30
0.0
 10
14.1930845306
 20
7.9459616618
 30
0.0
 10
14.1965479653
 20
7.9264329127
 30
0.0
 10
14.2003071537
 20
7.9078528261
 30
0.0
 10
14.2043524441
 20
7.8902658084
 30
0.0
 10
14.2086745902
 20
7.8737138221
 30
0.0
 10
14.2132623595
 20
7.8582361053
 30
0.0
 10
14.2181055189
 20
7.8438692706
 30
0.0
 10
14.2231915611
 20
7.8306468392
 30
0.0
 10
14.2285096022
 20
7.8185993391
 30
0.0
 10
14.2340464219
 20
7.8077545898
 30
0.0
 10
14.2389362742
 20
7.7995670361
 30
0.0
 10
14.2429627566
 20
7.7936680516
 30
0.0
 10
14.2459625193
 20
7.7896585243
 30
0.0
 10
14.2490073665
 20
7.7859680899
 30
0.0
 10
14.2520956802
 20
7.7825991424
 30
0.0
 10
14.2552262178
 20
7.7795531694
 30
0.0
 10
14.259364964
 20
7.7760013631
 30
0.0
 10
14.2636754434
 20
7.7729961887
 30
0.0
 10
14.2681334332
 20
7.7706409455
 30
0.0
 10
14.2714486331
 20
7.7692391819
 30
0.0
 10
14.2747950244
 20
7.7681712766
 30
0.0
 10
14.2781704222
 20
7.7674387938
 30
0.0
 10
14.2815719542
 20
7.7670424823
 30
0.0
 10
14.2849967014
 20
7.7669825484
 30
0.0
 10
14.288441758
 20
7.7672589186
 30
0.0
 10
14.2919042458
 20
7.7678712763
 30
0.0
 10
14.2953817747
 20
7.7688187379
 30
0.0
 10
14.3001235853
 20
7.7705590952
 30
0.0
 10
14.3048082744
 20
7.7729627826
 30
0.0
 10
14.3093983513
 20
7.7759313087
 30
0.0
 10
14.3142031496
 20
7.779481076
 30
0.0
 10
14.317642927
 20
7.7825175235
 30
0.0
 10
14.319887164
 20
7.7846852901
 30
0.0
  0
SPLINE
  5
3AD
100
AcDbEntity
  8
0
100
AcDbSpline
 62
7
  6
CONTINUOUS
 70
0
 71
3
 72
11
 73
7
 74
0
 42
0.0000001
 43
0.0000001
 44
0.0000000001
 40
0.0
 40
0.0
 40
0.0
 40
0.0
 40
0.2194295797
 40
0.4588777944
 40
0.7189534041
 40
1.0
 40
1.0
 40
1.0
 40
1.0
 10
14.319887164
 20
7.7846852901
 30
0.0
 10
14.3223033852
 20
7.7870191807
 30
0.0
 10
14.327121302
 20
7.7921459931
 30
0.0
 10
14.3340219579
 20
7.8007317101
 30
0.0
 10
14.3408880464
 20
7.8105211965
 30
0.0
 10
14.3452623889
 20
7.817561369
 30
0.0
 10
14.3474481777
 20
7.8212674756
 30
0.0
  0
SPLINE
  5
3AE
100
AcDbEntity
  8
0
100
AcDbSpline
 62
7
  6
CONTINUOUS
 70
0
 71
3
 72
9
 73
5
 74
0
 42
0.0000001
 43
0.0000001
 44
0.0000000001
 40
0.0
 40
0.0
 40
0.0
 40
0.0
 40
0.2424516602
 40
1.0
 40
1.0
 40
1.0
 40
1.0
 10
14.2758306361
 20
8.9362264962
 30
0.0
 10
14.2752222374
 20
8.9356388281
 30
0.0
 10
14.272738947
 20
8.9331880424
 30
0.0
 10
14.2703578229
 20
8.9306344224
 30
0.0
 10
14.2686066239
 20
8.9286548903
 30
0.0
  0
SPLINE
  5
3AF
100
AcDbEntity
  8
0
100
AcDbSpline
 62
7
  6
CONTINUOUS
 70
0
 71
3
 72
9
 73
5
 74
0
 42
0.0000001
 43
0.0000001
 44
0.0000000001
 40
0.0
 40
0.0
 40
0.0
 40
0.0
 40
0.2423492772
 40
1.0
 40
1.0
 40
1.0
 40
1.0
 10
14.2830546483
 20
8.942610611
 30
0.0
 10
14.2824468133
 20
8.9421234525
 30
0.0
 10
14.2799642249
 20
8.9400815615
 30
0.0
 10
14.2775822081
 20
8.937918385
 30
0.0
 10
14.2758306361
 20
8.9362264962
 30
0.0
  0
SPLINE
  5
3B0
100
AcDbEntity
  8
0
100
AcDbSpline
 62
7
  6
CONTINUOUS
 70
0
 71
3
 72
23
 73
19
 74
0
 42
0.0000001
 43
0.0000001
 44
0.0000000001
 40
0.0
 40
0.0
 40
0.0
 40
0.0
 40
0.0586500584
 40
0.1174971748
 40
0.1766041375
 40
0.2360481059
 40
0.2959121929
 40
0.3562840494
 40
0.417251051
 40
0.4788922537
 40
0.5412731263
 40
0.604440809
 40
0.668420163
 40
0.7332144894
 40
0.7988073735
 40
0.8651659572
 40
0.9322480423
 40
1.0
 40
1.0
 40
1.0
 40
1.0
 10
14.2686066239
 20
8.9286548903
 30
0.0
 10
14.2690027102
 20
8.9200874687
 30
0.0
 10
14.2695010934
 20
8.9029084155
 30
0.0
 10
14.2692796108
 20
8.8770776736
 30
0.0
 10
14.2680014763
 20
8.8511599575
 30
0.0
 10
14.2655796147
 20
8.8251736261
 30
0.0
 10
14.2619350307
 20
8.7991426263
 30
0.0
 10
14.2570021629
 20
8.7730972833
 30
0.0
 10
14.2507322148
 20
8.747073281
 30
0.0
 10
14.24310022
 20
8.7211093038
 30
0.0
 10
14.2341072018
 20
8.6952442478
 30
0.0
 10
14.2237780975
 20
8.669515133
 30
0.0
 10
14.2121618255
 20
8.6439538808
 30
0.0
 10
14.1993271714
 20
8.6185853335
 30
0.0
 10
14.1853552587
 20
8.593427541
 30
0.0
 10
14.1703356352
 20
8.5684907198
 30
0.0
 10
14.1543616935
 20
8.5437787894
 30
0.0
 10
14.1431892562
 20
8.527529078
 30
0.0
 10
14.1374733261
 20
8.5194366065
 30
0.0
  0
SPLINE
  5
3B1
100
AcDbEntity
  8
0
100
AcDbSpline
 62
7
  6
CONTINUOUS
 70
0
 71
3
 72
21
 73
17
 74
0
 42
0.0000001
 43
0.0000001
 44
0.0000000001
 40
0.0
 40
0.0
 40
0.0
 40
0.0
 40
0.1269527041
 40
0.1902689165
 40
0.2534593491
 40
0.3165116873
 40
0.37941528
 40
0.4421620112
 40
0.5047460954
 40
0.5671657261
 40
0.6294227274
 40
0.6915221182
 40
0.7534726662
 40
0.8152847883
 40
0.8769699244
 40
1.0
 40
1.0
 40
1.0
 40
1.0
 10
14.1302493139
 20
8.4657619561
 30
0.0
 10
14.1363777619
 20
8.4423307989
 30
0.0
 10
14.1447547776
 20
8.4069905095
 30
0.0
 10
14.1539260234
 20
8.3595090964
 30
0.0
 10
14.1597034057
 20
8.3238041639
 30
0.0
 10
14.1643007505
 20
8.288007074
 30
0.0
 10
14.1676448078
 20
8.2521553791
 30
0.0
 10
14.1696766058
 20
8.2162943227
 30
0.0
 10
14.1703590764
 20
8.1804742291
 30
0.0
 10
14.1696801652
 20
8.144747443
 30
0.0
 10
14.1676516284
 20
8.1091646736
 30
0.0
 10
14.1643102759
 20
8.0737714655
 30
0.0
 10
14.1597149719
 20
8.0386055366
 30
0.0
 10
14.1539388651
 20
8.0036946714
 30
0.0
 10
14.1447848481
 20
7.9575570594
 30
0.0
 10
14.1363968899
 20
7.9233070997
 30
0.0
 10
14.1302493139
 20
7.9006554815
 30
0.0
  0
SPLINE
  5
3B2
100
AcDbEntity
  8
0
100
AcDbSpline
 62
7
  6
CONTINUOUS
 70
0
 71
3
 72
21
 73
17
 74
0
 42
0.0000001
 43
0.0000001
 44
0.0000000001
 40
0.0
 40
0.0
 40
0.0
 40
0.0
 40
0.1230300756
 40
0.1847152118
 40
0.2465273339
 40
0.3084778819
 40
0.3705772727
 40
0.432834274
 40
0.4952539046
 40
0.5578379889
 40
0.6205847201
 40
0.6834883127
 40
0.746540651
 40
0.8097310835
 40
0.8730472959
 40
1.0
 40
1.0
 40
1.0
 40
1.0
 10
13.7458458726
 20
8.4924204253
 30
0.0
 10
13.7396982967
 20
8.4697688072
 30
0.0
 10
13.7313103385
 20
8.4355188474
 30
0.0
 10
13.7221563214
 20
8.3893812354
 30
0.0
 10
13.7163802146
 20
8.3544703702
 30
0.0
 10
13.7117849106
 20
8.3193044413
 30
0.0
 10
13.7084435581
 20
8.2839112332
 30
0.0
 10
13.7064150213
 20
8.2483284638
 30
0.0
 10
13.7057361102
 20
8.2126016777
 30
0.0
 10
13.7064185808
 20
8.1767815841
 30
0.0
 10
13.7084503788
 20
8.1409205277
 30
0.0
 10
13.711794436
 20
8.1050688328
 30
0.0
 10
13.7163917808
 20
8.0692717429
 30
0.0
 10
13.7221691631
 20
8.0335668104
 30
0.0
 10
13.7313404089
 20
7.9860853973
 30
0.0
 10
13.7397174246
 20
7.9507451079
 30
0.0
 10
13.7458458726
 20
7.9273139507
 30
0.0
  0
SPLINE
  5
3B3
100
AcDbEntity
  8
0
100
AcDbSpline
 62
7
  6
CONTINUOUS
 70
0
 71
3
 72
24
 73
20
 74
0
 42
0.0000001
 43
0.0000001
 44
0.0000000001
 40
0.0
 40
0.0
 40
0.0
 40
0.0
 40
0.0913270067
 40
0.1792345887
 40
0.2633975065
 40
0.3435123174
 40
0.419314425
 40
0.4906094671
 40
0.5245345675
 40
0.5573078303
 40
0.6194264789
 40
0.67715515
 40
0.7308292085
 40
0.7809307172
 40
0.8280591397
 40
0.8728796032
 40
0.9160685661
 40
0.9582602556
 40
1.0
 40
1.0
 40
1.0
 40
1.0
 10
14.1374733261
 20
7.8609365518
 30
0.0
 10
14.1431170962
 20
7.8576038493
 30
0.0
 10
14.1541301982
 20
7.8509552699
 30
0.0
 10
14.1700823601
 20
7.8408092843
 30
0.0
 10
14.1850819075
 20
7.8306763983
 30
0.0
 10
14.1990381136
 20
7.8205658222
 30
0.0
 10
14.2118636636
 20
7.8104883074
 30
0.0
 10
14.2217010706
 20
7.8019931825
 30
0.0
 10
14.2289187614
 20
7.7952100887
 30
0.0
 10
14.235463534
 20
7.7886791294
 30
0.0
 10
14.2428439404
 20
7.7805729183
 30
0.0
 10
14.2505161828
 20
7.7707466194
 30
0.0
 10
14.2568360921
 20
7.7610105551
 30
0.0
 10
14.2618221084
 20
7.7513749423
 30
0.0
 10
14.265515079
 20
7.7418501176
 30
0.0
 10
14.267973905
 20
7.7324460744
 30
0.0
 10
14.2692740116
 20
7.723171427
 30
0.0
 10
14.2695033119
 20
7.7140329757
 30
0.0
 10
14.2690026956
 20
7.7080176204
 30
0.0
 10
14.2686066239
 20
7.705048361
 30
0.0
  0
SPLINE
  5
3B4
100
AcDbEntity
  8
0
100
AcDbSpline
 62
7
  6
CONTINUOUS
 70
0
 71
3
 72
15
 73
11
 74
0
 42
0.0000001
 43
0.0000001
 44
0.0000000001
 40
0.0
 40
0.0
 40
0.0
 40
0.0
 40
0.1195882985
 40
0.2396126262
 40
0.360556304
 40
0.482967703
 40
0.6074530981
 40
0.7346676949
 40
0.8652861107
 40
1.0
 40
1.0
 40
1.0
 40
1.0
 10
13.7530698848
 20
7.887595021
 30
0.0
 10
13.7528353616
 20
7.8858368543
 30
0.0
 10
13.7524686224
 20
7.8822993459
 30
0.0
 10
13.7522470019
 20
7.8769527234
 30
0.0
 10
13.7523722257
 20
7.8715605873
 30
0.0
 10
13.7528629746
 20
7.8661227165
 30
0.0
 10
13.7537376158
 20
7.8606388475
 30
0.0
 10
13.7550144251
 20
7.8551092807
 30
0.0
 10
13.7567092248
 20
7.8495346892
 30
0.0
 10
13.7581047266
 20
7.8458513974
 30
0.0
 10
13.7588718405
 20
7.844006439
 30
0.0
  0
SPLINE
  5
3B5
100
AcDbEntity
  8
0
100
AcDbSpline
 62
7
  6
CONTINUOUS
 70
0
 71
3
 72
47
 73
43
 74
0
 42
0.0000001
 43
0.0000001
 44
0.0000000001
 40
0.0
 40
0.0
 40
0.0
 40
0.0
 40
0.0097388016
 40
0.0199693228
 40
0.0306880581
 40
0.0418902423
 40
0.0535693719
 40
0.0657173433
 40
0.0783253065
 40
0.0913830708
 40
0.1188005198
 40
0.147870153
 40
0.1784781397
 40
0.2104995798
 40
0.2438004302
 40
0.2782380752
 40
0.3136628374
 40
0.3499193177
 40
0.3868469682
 40
0.4242813864
 40
0.4620553222
 40
0.4999994461
 40
0.5379435913
 40
0.5757175327
 40
0.6131519718
 40
0.6500796699
 40
0.6863361429
 40
0.7217609787
 40
0.7561987107
 40
0.7894995403
 40
0.8215210976
 40
0.8521291969
 40
0.8811988106
 40
0.9086164033
 40
0.9216741378
 40
0.9342822619
 40
0.9464302782
 40
0.9581093687
 40
0.9693116501
 40
0.9800303501
 40
0.9902608481
 40
1.0
 40
1.0
 40
1.0
 40
1.0
 10
13.8111760408
 20
8.8384118072
 30
0.0
 10
13.8095592134
 20
8.8356705244
 30
0.0
 10
13.8063432451
 20
8.8299905227
 30
0.0
 10
13.8016759015
 20
8.8211126308
 30
0.0
 10
13.7970512836
 20
8.8116768165
 30
0.0
 10
13.792475322
 20
8.8016942745
 30
0.0
 10
13.7879534611
 20
8.7911768257
 30
0.0
 10
13.7834908714
 20
8.7801370732
 30
0.0
 10
13.7790930733
 20
8.7685880045
 30
0.0
 10
13.7732271692
 20
8.7522617495
 30
0.0
 10
13.766117417
 20
8.7306708098
 30
0.0
 10
13.7580573828
 20
8.7033697949
 30
0.0
 10
13.750374943
 20
8.6744010086
 30
0.0
 10
13.7431070193
 20
8.6439026627
 30
0.0
 10
13.7362889746
 20
8.6120199512
 30
0.0
 10
13.7299536216
 20
8.5789050373
 30
0.0
 10
13.7241313615
 20
8.5447160771
 30
0.0
 10
13.7188504711
 20
8.5096163817
 30
0.0
 10
13.7141362626
 20
8.4737737048
 30
0.0
 10
13.7100112784
 20
8.4373594171
 30
0.0
 10
13.7064955571
 20
8.4005476144
 30
0.0
 10
13.7036058445
 20
8.36351433
 30
0.0
 10
13.701355874
 20
8.3264366762
 30
0.0
 10
13.6997566137
 20
8.289491952
 30
0.0
 10
13.6988155275
 20
8.2528568334
 30
0.0
 10
13.6985369383
 20
8.2167065202
 30
0.0
 10
13.6989222839
 20
8.181213837
 30
0.0
 10
13.6999693976
 20
8.1465484265
 30
0.0
 10
13.7016729671
 20
8.1128759567
 30
0.0
 10
13.7040248194
 20
8.0803572588
 30
0.0
 10
13.7070131929
 20
8.0491475545
 30
0.0
 10
13.7106232664
 20
8.0193955448
 30
0.0
 10
13.7148377034
 20
7.9912432383
 30
0.0
 10
13.7188988774
 20
7.9688775149
 30
0.0
 10
13.7224551196
 20
7.9518977714
 30
0.0
 10
13.7252165205
 20
7.9398521213
 30
0.0
 10
13.7281125101
 20
7.9283019951
 30
0.0
 10
13.731139369
 20
7.9172610338
 30
0.0
 10
13.7342934181
 20
7.906742351
 30
0.0
 10
13.7375712319
 20
7.8967584677
 30
0.0
 10
13.7409685279
 20
7.8873212358
 30
0.0
 10
13.7433696633
 20
7.8812515729
 30
0.0
 10
13.7445926459
 20
7.8783132394
 30
0.0
  0
SPLINE
  5
3B6
100
AcDbEntity
  8
0
100
AcDbSpline
 62
7
  6
CONTINUOUS
 70
0
 71
3
 72
20
 73
16
 74
0
 42
0.0000001
 43
0.0000001
 44
0.0000000001
 40
0.0
 40
0.0
 40
0.0
 40
0.0
 40
0.1331037673
 40
0.2634964055
 40
0.327677312
 40
0.3911929477
 40
0.4540734952
 40
0.5163596019
 40
0.5781028428
 40
0.6393597248
 40
0.700191946
 40
0.7606604287
 40
0.8208241912
 40
0.8807392578
 40
1.0
 40
1.0
 40
1.0
 40
1.0
 10
13.8400370329
 20
8.8873451456
 30
0.0
 10
13.8319742747
 20
8.8736798934
 30
0.0
 10
13.8167686955
 20
8.8461707884
 30
0.0
 10
13.800159941
 20
8.8107785008
 30
0.0
 10
13.7886711722
 20
8.7822316228
 30
0.0
 10
13.7810117667
 20
8.7608377356
 30
0.0
 10
13.7742819709
 20
8.7393700081
 30
0.0
 10
13.768488339
 20
8.7178495383
 30
0.0
 10
13.7636220304
 20
8.6962990754
 30
0.0
 10
13.7596669979
 20
8.6747393128
 30
0.0
 10
13.7565926306
 20
8.6531902858
 30
0.0
 10
13.7543632765
 20
8.631669043
 30
0.0
 10
13.7529346753
 20
8.6101896046
 30
0.0
 10
13.7520357804
 20
8.5816692866
 30
0.0
 10
13.7524133382
 20
8.5602963019
 30
0.0
 10
13.7530698848
 20
8.5460950757
 30
0.0
  0
SPLINE
  5
3B7
100
AcDbEntity
  8
0
100
AcDbSpline
 62
7
  6
CONTINUOUS
 70
0
 71
3
 72
9
 73
5
 74
0
 42
0.0000001
 43
0.0000001
 44
0.0000000001
 40
0.0
 40
0.0
 40
0.0
 40
0.0
 40
0.5156474505
 40
1.0
 40
1.0
 40
1.0
 40
1.0
 10
14.416132532
 20
8.8116994887
 30
0.0
 10
14.414773036
 20
8.8149657914
 30
0.0
 10
14.4120154961
 20
8.821250734
 30
0.0
 10
14.4089819773
 20
8.8274081748
 30
0.0
 10
14.4074362708
 20
8.8303500342
 30
0.0
  0
SPLINE
  5
3B8
100
AcDbEntity
  8
0
100
AcDbSpline
 62
7
  6
CONTINUOUS
 70
0
 71
3
 72
27
 73
23
 74
0
 42
0.0000001
 43
0.0000001
 44
0.0000000001
 40
0.0
 40
0.0
 40
0.0
 40
0.0
 40
0.0862376397
 40
0.166476999
 40
0.2409287868
 40
0.3098931797
 40
0.3737956139
 40
0.4332053045
 40
0.4888618794
 40
0.5155840016
 40
0.5417313436
 40
0.5674464209
 40
0.5928800766
 40
0.6181886775
 40
0.6435307976
 40
0.669064262
 40
0.6949432855
 40
0.7482846378
 40
0.8046652017
 40
0.8649789148
 40
0.929919677
 40
1.0
 40
1.0
 40
1.0
 40
1.0
 10
14.4074362708
 20
8.8303500342
 30
0.0
 10
14.4059345734
 20
8.8332081334
 30
0.0
 10
14.4028953314
 20
8.8386538797
 30
0.0
 10
14.3980297954
 20
8.8462562425
 30
0.0
 10
14.393030984
 20
8.8529835548
 30
0.0
 10
14.3879044903
 20
8.8588244146
 30
0.0
 10
14.3826558379
 20
8.8637694046
 30
0.0
 10
14.3772908901
 20
8.8678083511
 30
0.0
 10
14.3726627468
 20
8.8704449704
 30
0.0
 10
14.3689314755
 20
8.8720612644
 30
0.0
 10
14.3661487552
 20
8.8730255028
 30
0.0
 10
14.3633457397
 20
8.8737569187
 30
0.0
 10
14.3605237571
 20
8.8742549565
 30
0.0
 10
14.3576843753
 20
8.874519456
 30
0.0
 10
14.3548291718
 20
8.8745503532
 30
0.0
 10
14.3519595571
 20
8.8743475974
 30
0.0
 10
14.3480783587
 20
8.8737604821
 30
0.0
 10
14.3431621216
 20
8.8724143376
 30
0.0
 10
14.3373021312
 20
8.8698822086
 30
0.0
 10
14.3314271984
 20
8.866427593
 30
0.0
 10
14.3255457227
 20
8.8620622633
 30
0.0
 10
14.3217742664
 20
8.8586858218
 30
0.0
 10
14.319887164
 20
8.8568630208
 30
0.0
  0
SPLINE
  5
3B9
100
AcDbEntity
  8
0
100
AcDbSpline
 62
7
  6
CONTINUOUS
 70
0
 71
3
 72
15
 73
11
 74
0
 42
0.0000001
 43
0.0000001
 44
0.0000000001
 40
0.0
 40
0.0
 40
0.0
 40
0.0
 40
0.1273483281
 40
0.2538605602
 40
0.3795878981
 40
0.5046051042
 40
0.6290174419
 40
0.7529533761
 40
0.876560577
 40
1.0
 40
1.0
 40
1.0
 40
1.0
 10
9.5518860039
 20
9.0696078128
 30
0.0
 10
9.5518860039
 20
9.0652806838
 30
0.0
 10
9.5514728502
 20
9.0566488528
 30
0.0
 10
9.5496043969
 20
9.0438671237
 30
0.0
 10
9.546506191
 20
9.031406554
 30
0.0
 10
9.5422062157
 20
9.0193836732
 30
0.0
 10
9.5367439326
 20
9.0079093559
 30
0.0
 10
9.5301691086
 20
8.9970895684
 30
0.0
 10
9.5225435801
 20
8.9870256833
 30
0.0
 10
9.5168019418
 20
8.9808780979
 30
0.0
 10
9.5137851631
 20
8.977964118
 30
0.0
  0
SPLINE
  5
3BA
100
AcDbEntity
  8
0
100
AcDbSpline
 62
7
  6
CONTINUOUS
 70
0
 71
3
 72
15
 73
11
 74
0
 42
0.0000001
 43
0.0000001
 44
0.0000000001
 40
0.0
 40
0.0
 40
0.0
 40
0.0
 40
0.1273483281
 40
0.2538605602
 40
0.3795878981
 40
0.5046051042
 40
0.6290174419
 40
0.7529533761
 40
0.876560577
 40
1.0
 40
1.0
 40
1.0
 40
1.0
 10
11.6044786215
 20
8.9272600313
 30
0.0
 10
11.6044786215
 20
8.9229329023
 30
0.0
 10
11.6040654679
 20
8.9143010713
 30
0.0
 10
11.6021970145
 20
8.9015193422
 30
0.0
 10
11.5990988086
 20
8.8890587725
 30
0.0
 10
11.5947988334
 20
8.8770358917
 30
0.0
 10
11.5893365503
 20
8.8655615744
 30
0.0
 10
11.5827617262
 20
8.8547417869
 30
0.0
 10
11.5751361978
 20
8.8446779017
 30
0.0
 10
11.5693945594
 20
8.8385303164
 30
0.0
 10
11.5663777807
 20
8.8356163365
 30
0.0
  0
SPLINE
  5
3BB
100
AcDbEntity
  8
0
100
AcDbSpline
 62
7
  6
CONTINUOUS
 70
0
 71
3
 72
15
 73
11
 74
0
 42
0.0000001
 43
0.0000001
 44
0.0000000001
 40
0.0
 40
0.0
 40
0.0
 40
0.0
 40
0.1273483281
 40
0.2538605602
 40
0.3795878981
 40
0.5046051042
 40
0.6290174419
 40
0.7529533761
 40
0.876560577
 40
1.0
 40
1.0
 40
1.0
 40
1.0
 10
9.5518860039
 20
7.3193502208
 30
0.0
 10
9.5518860039
 20
7.3150230918
 30
0.0
 10
9.5514728502
 20
7.3063912608
 30
0.0
 10
9.5496043969
 20
7.2936095317
 30
0.0
 10
9.546506191
 20
7.281148962
 30
0.0
 10
9.5422062157
 20
7.2691260812
 30
0.0
 10
9.5367439326
 20
7.2576517639
 30
0.0
 10
9.5301691086
 20
7.2468319764
 30
0.0
 10
9.5225435801
 20
7.2367680912
 30
0.0
 10
9.5168019418
 20
7.2306205059
 30
0.0
 10
9.5137851631
 20
7.227706526
 30
0.0
  0
SPLINE
  5
3BC
100
AcDbEntity
  8
0
100
AcDbSpline
 62
7
  6
CONTINUOUS
 70
0
 71
3
 72
15
 73
11
 74
0
 42
0.0000001
 43
0.0000001
 44
0.0000000001
 40
0.0
 40
0.0
 40
0.0
 40
0.0
 40
0.1273483281
 40
0.2538605602
 40
0.3795878981
 40
0.5046051042
 40
0.6290174419
 40
0.7529533761
 40
0.876560577
 40
1.0
 40
1.0
 40
1.0
 40
1.0
 10
11.6044786215
 20
7.1770024393
 30
0.0
 10
11.6044786215
 20
7.1726753103
 30
0.0
 10
11.6040654679
 20
7.1640434793
 30
0.0
 10
11.6021970145
 20
7.1512617502
 30
0.0
 10
11.5990988086
 20
7.1388011805
 30
0.0
 10
11.5947988334
 20
7.1267782997
 30
0.0
 10
11.5893365503
 20
7.1153039824
 30
0.0
 10
11.5827617262
 20
7.1044841949
 30
0.0
 10
11.5751361978
 20
7.0944203097
 30
0.0
 10
11.5693945594
 20
7.0882727244
 30
0.0
 10
11.5663777807
 20
7.0853587445
 30
0.0
  0
SPLINE
  5
3BD
100
AcDbEntity
  8
0
100
AcDbSpline
 62
7
  6
CONTINUOUS
 70
0
 71
3
 72
21
 73
17
 74
0
 42
0.0000001
 43
0.0000001
 44
0.0000000001
 40
0.0
 40
0.0
 40
0.0
 40
0.0
 40
0.1273176984
 40
0.2537999461
 40
0.3167619614
 40
0.3795355204
 40
0.4421314992
 40
0.5045621453
 40
0.5668413456
 40
0.6289845231
 40
0.6910084433
 40
0.7529310869
 40
0.8147714401
 40
0.8765493236
 40
0.9382852134
 40
1.0
 40
1.0
 40
1.0
 40
1.0
 10
10.6535243939
 20
8.7517274889
 30
0.0
 10
10.6535243939
 20
8.7449826808
 30
0.0
 10
10.6528805569
 20
8.7315286414
 30
0.0
 10
10.6504489657
 20
8.7148965443
 30
0.0
 10
10.6475426986
 20
8.7018501206
 30
0.0
 10
10.6448923347
 20
8.6922270722
 30
0.0
 10
10.64177434
 20
8.6827750204
 30
0.0
 10
10.6381959032
 20
8.6735154859
 30
0.0
 10
10.6341652746
 20
8.6644698845
 30
0.0
 10
10.6296916667
 20
8.6556590929
 30
0.0
 10
10.6247854286
 20
8.6471034214
 30
0.0
 10
10.6194578749
 20
8.6388225875
 30
0.0
 10
10.6137212405
 20
8.6308357529
 30
0.0
 10
10.6075887193
 20
8.6231612604
 30
0.0
 10
10.6010747258
 20
8.6158170222
 30
0.0
 10
10.5964868331
 20
8.6111515296
 30
0.0
 10
10.5941352844
 20
8.6088801218
 30
0.0
  0
SPLINE
  5
3BE
100
AcDbEntity
  8
0
100
AcDbSpline
 62
7
  6
CONTINUOUS
 70
0
 71
3
 72
43
 73
39
 74
0
 42
0.0000001
 43
0.0000001
 44
0.0000000001
 40
0.0
 40
0.0
 40
0.0
 40
0.0
 40
0.0379403561
 40
0.0762772703
 40
0.1149222977
 40
0.1537882401
 40
0.2318250805
 40
0.3096763248
 40
0.3483106895
 40
0.3866327606
 40
0.4245553993
 40
0.461992642
 40
0.4988599643
 40
0.5350745482
 40
0.5705555554
 40
0.6052244092
 40
0.6390050899
 40
0.6718244337
 40
0.7036124533
 40
0.7343026852
 40
0.7638325704
 40
0.792143884
 40
0.819183232
 40
0.8449026469
 40
0.8692602986
 40
0.8922213868
 40
0.9031700835
 40
0.9137604011
 40
0.923990592
 40
0.9338595721
 40
0.9433670879
 40
0.9525138178
 40
0.9613013814
 40
0.969732647
 40
0.9778116645
 40
0.9855440694
 40
0.9929371083
 40
1.0
 40
1.0
 40
1.0
 40
1.0
 10
13.1825783739
 20
8.180552924
 30
0.0
 10
13.1825783739
 20
8.1896862382
 30
0.0
 10
13.1827005039
 20
8.2080485452
 30
0.0
 10
13.1832417693
 20
8.2357089957
 30
0.0
 10
13.1841409146
 20
8.26358313
 30
0.0
 10
13.1858163133
 20
8.3009911869
 30
0.0
 10
13.1887845747
 20
8.347784989
 30
0.0
 10
13.192898273
 20
8.394436128
 30
0.0
 10
13.1968687451
 20
8.4314914278
 30
0.0
 10
13.2001639225
 20
8.4589498339
 30
0.0
 10
13.2037756852
 20
8.4860776823
 30
0.0
 10
13.2076952446
 20
8.5128089173
 30
0.0
 10
13.2119130087
 20
8.5390783994
 30
0.0
 10
13.2164186664
 20
8.5648221349
 30
0.0
 10
13.2212011957
 20
8.5899774158
 30
0.0
 10
13.2262488943
 20
8.6144829814
 30
0.0
 10
13.2315494034
 20
8.6382791702
 30
0.0
 10
13.237089742
 20
8.6613080688
 30
0.0
 10
13.2428563375
 20
8.6835136559
 30
0.0
 10
13.2488350591
 20
8.7048419458
 30
0.0
 10
13.2550112528
 20
8.7252411248
 30
0.0
 10
13.2613697797
 20
8.7446616982
 30
0.0
 10
13.2678950566
 20
8.7630565947
 30
0.0
 10
13.2745711048
 20
8.7803814188
 30
0.0
 10
13.2813815823
 20
8.7965941872
 30
0.0
 10
13.2872444525
 20
8.809340402
 30
0.0
 10
13.292000037
 20
8.8189400736
 30
0.0
 10
13.2955333646
 20
8.8257233136
 30
0.0
 10
13.2990878028
 20
8.8322005842
 30
0.0
 10
13.3026612587
 20
8.8383679776
 30
0.0
 10
13.3062515737
 20
8.8442217729
 30
0.0
 10
13.309856555
 20
8.8497584713
 30
0.0
 10
13.313474109
 20
8.8549747208
 30
0.0
 10
13.3171020119
 20
8.8598674463
 30
0.0
 10
13.3207381971
 20
8.8644336738
 30
0.0
 10
13.3243805198
 20
8.8686707578
 30
0.0
 10
13.3280267961
 20
8.8725760271
 30
0.0
 10
13.3305147245
 20
8.8750113922
 30
0.0
 10
13.3317593317
 20
8.8761697357
 30
0.0
  0
SPLINE
  5
3BF
100
AcDbEntity
  8
0
100
AcDbSpline
 62
7
  6
CONTINUOUS
 70
0
 71
3
 72
51
 73
47
 74
0
 42
0.0000001
 43
0.0000001
 44
0.0000000001
 40
0.0
 40
0.0
 40
0.0
 40
0.0
 40
0.0417744683
 40
0.0840379783
 40
0.1266600061
 40
0.1695085183
 40
0.2124506398
 40
0.2553531056
 40
0.2980828147
 40
0.340507344
 40
0.3824954781
 40
0.4239177372
 40
0.4646469112
 40
0.5045585996
 40
0.5435317641
 40
0.5814492947
 40
0.618198601
 40
0.6536722357
 40
0.687768567
 40
0.7203925213
 40
0.7514564269
 40
0.7663786334
 40
0.7808818693
 40
0.7949577079
 40
0.8085984786
 40
0.8217971992
 40
0.8345477656
 40
0.8468449089
 40
0.8586844038
 40
0.8700630626
 40
0.8809789739
 40
0.8914315506
 40
0.9014218177
 40
0.9109525401
 40
0.9200285868
 40
0.9286571749
 40
0.9368483468
 40
0.9446153723
 40
0.951975373
 40
0.9589498998
 40
0.9655656818
 40
0.9778458874
 40
0.9836071498
 40
0.9891799107
 40
0.9946230128
 40
1.0
 40
1.0
 40
1.0
 40
1.0
 10
13.5464776154
 20
8.2297178539
 30
0.0
 10
13.5464776154
 20
8.2397920018
 30
0.0
 10
13.5466347838
 20
8.2600585494
 30
0.0
 10
13.5473295896
 20
8.290596479
 30
0.0
 10
13.5484828033
 20
8.3213797785
 30
0.0
 10
13.5500906358
 20
8.3523065185
 30
0.0
 10
13.5521477798
 20
8.3832744014
 30
0.0
 10
13.5546474326
 20
8.4141809684
 30
0.0
 10
13.5575813151
 20
8.4449239703
 30
0.0
 10
13.5609397011
 20
8.4754017013
 30
0.0
 10
13.5647114482
 20
8.5055133398
 30
0.0
 10
13.5688840349
 20
8.5351592835
 30
0.0
 10
13.5734436011
 20
8.564241483
 30
0.0
 10
13.5783749931
 20
8.5926637694
 30
0.0
 10
13.5836618125
 20
8.6203321781
 30
0.0
 10
13.5892864699
 20
8.6471552639
 30
0.0
 10
13.5952302411
 20
8.6730444185
 30
0.0
 10
13.6014733308
 20
8.6979141509
 30
0.0
 10
13.6079949278
 20
8.7216824706
 30
0.0
 10
13.6147733127
 20
8.7442708774
 30
0.0
 10
13.6206936006
 20
8.7622827803
 30
0.0
 10
13.6255519177
 20
8.776037826
 30
0.0
 10
13.6291968559
 20
8.785875306
 30
0.0
 10
13.6328888357
 20
8.7953643993
 30
0.0
 10
13.6366247905
 20
8.8044972996
 30
0.0
 10
13.640401657
 20
8.8132664741
 30
0.0
 10
13.6442162739
 20
8.8216647169
 30
0.0
 10
13.6480655259
 20
8.829685117
 30
0.0
 10
13.6519461996
 20
8.8373211048
 30
0.0
 10
13.6558551374
 20
8.8445664164
 30
0.0
 10
13.6597890953
 20
8.8514151462
 30
0.0
 10
13.6637448956
 20
8.8578617023
 30
0.0
 10
13.6677192916
 20
8.8639008672
 30
0.0
 10
13.6717091191
 20
8.8695277416
 30
0.0
 10
13.6757111684
 20
8.8747378101
 30
0.0
 10
13.679722344
 20
8.8795268747
 30
0.0
 10
13.6837395135
 20
8.8838911025
 30
0.0
 10
13.6877597888
 20
8.8878269982
 30
0.0
 10
13.6917799448
 20
8.8913312191
 30
0.0
 10
13.6957981969
 20
8.8944012683
 30
0.0
 10
13.7010167831
 20
8.897825603
 30
0.0
 10
13.7063672269
 20
8.9005036272
 30
0.0
 10
13.7117866828
 20
8.9022799634
 30
0.0
 10
13.7157490597
 20
8.9031366868
 30
0.0
 10
13.7196892208
 20
8.903543406
 30
0.0
 10
13.7223051976
 20
8.9035135853
 30
0.0
 10
13.7235987818
 20
8.9034238826
 30
0.0
  0
SPLINE
  5
3C0
100
AcDbEntity
  8
0
100
AcDbSpline
 62
7
  6
CONTINUOUS
 70
0
 71
3
 72
30
 73
26
 74
0
 42
0.0000001
 43
0.0000001
 44
0.0000000001
 40
0.0
 40
0.0
 40
0.0
 40
0.0
 40
0.0851784903
 40
0.1685810969
 40
0.2498834953
 40
0.3287745917
 40
0.4049551108
 40
0.4781414856
 40
0.5480673724
 40
0.6144864538
 40
0.6771752938
 40
0.7070594378
 40
0.735939494
 40
0.7637959642
 40
0.790611226
 40
0.8163706451
 40
0.8410619855
 40
0.8646766072
 40
0.8872090812
 40
0.9086584391
 40
0.9290281656
 40
0.9483275241
 40
0.96657212
 40
0.9837854028
 40
1.0
 40
1.0
 40
1.0
 40
1.0
 10
7.7679113214
 20
7.5454938908
 30
0.0
 10
7.7679113214
 20
7.5383664163
 30
0.0
 10
7.7680327789
 20
7.5242597241
 30
0.0
 10
7.7685898195
 20
7.5033565291
 30
0.0
 10
7.7695176062
 20
7.4829929891
 30
0.0
 10
7.770812085
 20
7.4632549472
 30
0.0
 10
7.7724676703
 20
7.4442253493
 30
0.0
 10
7.7744772005
 20
7.4259842232
 30
0.0
 10
7.7768319873
 20
7.4086080871
 30
0.0
 10
7.7795219086
 20
7.3921699666
 30
0.0
 10
7.7820720102
 20
7.379109991
 30
0.0
 10
7.7842825239
 20
7.3691899906
 30
0.0
 10
7.7859903751
 20
7.3621454481
 30
0.0
 10
7.7877727381
 20
7.3553845926
 30
0.0
 10
7.7896278504
 20
7.348914501
 30
0.0
 10
7.79155365
 20
7.3427419327
 30
0.0
 10
7.7935482031
 20
7.3368733393
 30
0.0
 10
7.7956093243
 20
7.3313148146
 30
0.0
 10
7.7977349446
 20
7.3260721378
 30
0.0
 10
7.7999227829
 20
7.3211507076
 30
0.0
 10
7.8021706631
 20
7.3165555895
 30
0.0
 10
7.80447625
 20
7.3122914759
 30
0.0
 10
7.8068373474
 20
7.3083626404
 30
0.0
 10
7.8092515179
 20
7.3047732433
 30
0.0
 10
7.810944332
 20
7.302543877
 30
0.0
 10
7.8118004168
 20
7.3014912651
 30
0.0
  0
SPLINE
  5
3C1
100
AcDbEntity
  8
0
100
AcDbSpline
 62
7
  6
CONTINUOUS
 70
0
 71
3
 72
37
 73
33
 74
0
 42
0.0000001
 43
0.0000001
 44
0.0000000001
 40
0.0
 40
0.0
 40
0.0
 40
0.0
 40
0.0071625163
 40
0.0146566855
 40
0.0224900841
 40
0.0306688224
 40
0.0391978881
 40
0.0480811142
 40
0.0573209621
 40
0.0669185876
 40
0.0871864145
 40
0.1088789618
 40
0.1319780012
 40
0.1564560409
 40
0.1822776811
 40
0.2094008015
 40
0.2377774489
 40
0.267354417
 40
0.2980737688
 40
0.3298734368
 40
0.3626876084
 40
0.3964469841
 40
0.4310791962
 40
0.4665091598
 40
0.5026593021
 40
0.5394498154
 40
0.6146219384
 40
0.6913554392
 40
0.7689602702
 40
0.8467363389
 40
0.9239810822
 40
1.0
 40
1.0
 40
1.0
 40
1.0
 10
7.8569449994
 20
9.5334018896
 30
0.0
 10
7.8561998624
 20
9.5326821424
 30
0.0
 10
7.854710565
 20
9.5311722376
 30
0.0
 10
7.8525277135
 20
9.528759249
 30
0.0
 10
7.85034758
 20
9.526149215
 30
0.0
 10
7.8481716537
 20
9.5233438172
 30
0.0
 10
7.8460011154
 20
9.5203447543
 30
0.0
 10
7.8438372372
 20
9.5171537357
 30
0.0
 10
7.8416812373
 20
9.5137726223
 30
0.0
 10
7.8387656268
 20
9.5089251772
 30
0.0
 10
7.835159256
 20
9.5023945953
 30
0.0
 10
7.8309584899
 20
9.4939715278
 30
0.0
 10
7.8268194098
 20
9.4848450776
 30
0.0
 10
7.8227519913
 20
9.4750369656
 30
0.0
 10
7.8187660095
 20
9.4645704112
 30
0.0
 10
7.8148710946
 20
9.4534703751
 30
0.0
 10
7.8110766857
 20
9.4417633655
 30
0.0
 10
7.8073919777
 20
9.4294774145
 30
0.0
 10
7.8038258766
 20
9.4166419938
 30
0.0
 10
7.8003870206
 20
9.4032879153
 30
0.0
 10
7.7970837528
 20
9.3894472546
 30
0.0
 10
7.793924057
 20
9.3751532881
 30
0.0
 10
7.7909155678
 20
9.3604403954
 30
0.0
 10
7.7880655792
 20
9.3453439737
 30
0.0
 10
7.7853809598
 20
9.3299003219
 30
0.0
 10
7.7820066097
 20
9.3087441531
 30
0.0
 10
7.7782566987
 20
9.2817065219
 30
0.0
 10
7.7745383472
 20
9.2487156694
 30
0.0
 10
7.7716061491
 20
9.2152675631
 30
0.0
 10
7.7694883692
 20
9.1816839352
 30
0.0
 10
7.7682053466
 20
9.14828779
 30
0.0
 10
7.7679113214
 20
9.1261188144
 30
0.0
 10
7.7679113214
 20
9.1151234515
 30
0.0
  0
SPLINE
  5
3C2
100
AcDbEntity
  8
0
100
AcDbSpline
 62
7
  6
CONTINUOUS
 70
0
 71
3
 72
18
 73
14
 74
0
 42
0.0000001
 43
0.0000001
 44
0.0000000001
 40
0.0
 40
0.0
 40
0.0
 40
0.0
 40
0.1294076276
 40
0.2597856545
 40
0.3901258577
 40
0.51931019
 40
0.6461363633
 40
0.7082893742
 40
0.7693796743
 40
0.8292506184
 40
0.8877432942
 40
0.9447077174
 40
1.0
 40
1.0
 40
1.0
 40
1.0
 10
10.7960288064
 20
8.3766670102
 30
0.0
 10
10.7954345694
 20
8.374647175
 30
0.0
 10
10.7943833697
 20
8.3705490912
 30
0.0
 10
10.7932446001
 20
8.364299546
 30
0.0
 10
10.7925643734
 20
8.3579864907
 30
0.0
 10
10.7923664507
 20
8.3516976639
 30
0.0
 10
10.7926176396
 20
8.3465207408
 30
0.0
 10
10.7930776079
 20
8.3424771239
 30
0.0
 10
10.7935465102
 20
8.3395339333
 30
0.0
 10
10.7941410044
 20
8.3366742874
 30
0.0
 10
10.7948590722
 20
8.3339122996
 30
0.0
 10
10.7956986098
 20
8.331262798
 30
0.0
 10
10.7963475114
 20
8.329554247
 30
0.0
 10
10.7966925794
 20
8.3287234665
 30
0.0
  0
SPLINE
  5
3C3
100
AcDbEntity
  8
0
100
AcDbSpline
 62
7
  6
CONTINUOUS
 70
0
 71
3
 72
31
 73
27
 74
0
 42
0.0000001
 43
0.0000001
 44
0.0000000001
 40
0.0
 40
0.0
 40
0.0
 40
0.0
 40
0.0837555642
 40
0.1662446768
 40
0.2470724977
 40
0.3258546537
 40
0.4022198895
 40
0.4758128164
 40
0.5462968199
 40
0.6133572196
 40
0.6455131161
 40
0.6767069117
 40
0.706907253
 40
0.7360847605
 40
0.7642125779
 40
0.7912663376
 40
0.8172245934
 40
0.8420690725
 40
0.8657850072
 40
0.8883618409
 40
0.9097934986
 40
0.9300793285
 40
0.9492247108
 40
0.9672436127
 40
0.9841584699
 40
1.0
 40
1.0
 40
1.0
 40
1.0
 10
13.8686601955
 20
7.7412291598
 30
0.0
 10
13.8677925828
 20
7.7331795561
 30
0.0
 10
13.8659249897
 20
7.7172173251
 30
0.0
 10
13.8627045955
 20
7.6935507962
 30
0.0
 10
13.8590986717
 20
7.6704262043
 30
0.0
 10
13.8551259191
 20
7.6479626097
 30
0.0
 10
13.850806951
 20
7.626275506
 30
0.0
 10
13.8461642153
 20
7.6054762882
 30
0.0
 10
13.8412218233
 20
7.5856719018
 30
0.0
 10
13.8368155204
 20
7.5698680563
 30
0.0
 10
13.8331494508
 20
7.5578063476
 30
0.0
 10
13.8303797175
 20
7.5491974939
 30
0.0
 10
13.8275549387
 20
7.5409101256
 30
0.0
 10
13.8246786912
 20
7.5329548769
 30
0.0
 10
13.821754731
 20
7.5253419465
 30
0.0
 10
13.8187868085
 20
7.5180810881
 30
0.0
 10
13.8157787591
 20
7.5111815853
 30
0.0
 10
13.8127344617
 20
7.504652242
 30
0.0
 10
13.8096578068
 20
7.498501371
 30
0.0
 10
13.8065527592
 20
7.4927367557
 30
0.0
 10
13.8034232109
 20
7.4873657026
 30
0.0
 10
13.8002731911
 20
7.4823949315
 30
0.0
 10
13.7971065505
 20
7.4778306575
 30
0.0
 10
13.7939270758
 20
7.4736783655
 30
0.0
 10
13.7907387423
 20
7.4699435932
 30
0.0
 10
13.7885393782
 20
7.4676619901
 30
0.0
 10
13.787437969
 20
7.4665981104
 30
0.0
  0
SPLINE
  5
3C4
100
AcDbEntity
  8
0
100
AcDbSpline
 62
7
  6
CONTINUOUS
 70
0
 71
3
 72
18
 73
14
 74
0
 42
0.0000001
 43
0.0000001
 44
0.0000000001
 40
0.0
 40
0.0
 40
0.0
 40
0.0
 40
0.1307731787
 40
0.2614359568
 40
0.3917761875
 40
0.5213066442
 40
0.6490370567
 40
0.7117239479
 40
0.7732171839
 40
0.8331548817
 40
0.8911549446
 40
0.9468619014
 40
1.0
 40
1.0
 40
1.0
 40
1.0
 10
9.3997190497
 20
7.9460382684
 30
0.0
 10
9.4035216073
 20
7.9495701627
 30
0.0
 10
9.4114636071
 20
7.9562742542
 30
0.0
 10
9.4242418075
 20
7.9651680631
 30
0.0
 10
9.4377384867
 20
7.9728312091
 30
0.0
 10
9.4517696684
 20
7.9791850528
 30
0.0
 10
9.4637865544
 20
7.9833473516
 30
0.0
 10
9.4734444777
 20
7.9859416882
 30
0.0
 10
9.4805868877
 20
7.9874968857
 30
0.0
 10
9.487613488
 20
7.9886688665
 30
0.0
 10
9.4944622816
 20
7.9894588606
 30
0.0
 10
9.5010733571
 20
7.9898755257
 30
0.0
 10
9.5053952325
 20
7.9899164877
 30
0.0
 10
9.507503661
 20
7.9898768757
 30
0.0
  0
SPLINE
  5
3C5
100
AcDbEntity
  8
0
100
AcDbSpline
 62
7
  6
CONTINUOUS
 70
0
 71
3
 72
25
 73
21
 74
0
 42
0.0000001
 43
0.0000001
 44
0.0000000001
 40
0.0
 40
0.0
 40
0.0
 40
0.0
 40
0.0624523583
 40
0.1248950251
 40
0.1873382325
 40
0.2497895197
 40
0.3122542422
 40
0.3747348808
 40
0.4372313274
 40
0.4997413933
 40
0.5622616768
 40
0.624788427
 40
0.6873184201
 40
0.7185903445
 40
0.7498623121
 40
0.8123934748
 40
0.8749250113
 40
0.9061961998
 40
0.9374686684
 40
1.0
 40
1.0
 40
1.0
 40
1.0
 10
9.3671629842
 20
7.7671727324
 30
0.0
 10
9.3653117709
 20
7.7707973591
 30
0.0
 10
9.3618867484
 20
7.7781916729
 30
0.0
 10
9.357635878
 20
7.7896495382
 30
0.0
 10
9.3543143792
 20
7.801411698
 30
0.0
 10
9.3519604228
 20
7.8134067177
 30
0.0
 10
9.350603845
 20
7.8255578823
 30
0.0
 10
9.3502652063
 20
7.8377830277
 30
0.0
 10
9.350954187
 20
7.8499965446
 30
0.0
 10
9.352668792
 20
7.8621113118
 30
0.0
 10
9.3553952109
 20
7.8740411942
 30
0.0
 10
9.3591079832
 20
7.8857025552
 30
0.0
 10
9.3629951964
 20
7.8951331744
 30
0.0
 10
9.3665574895
 20
7.9024666863
 30
0.0
 10
9.3704136041
 20
7.9096501982
 30
0.0
 10
9.3757699456
 20
7.9183303558
 30
0.0
 10
9.3817933248
 20
7.9265608907
 30
0.0
 10
9.3869816764
 20
7.9328498689
 30
0.0
 10
9.3924067742
 20
7.9389352735
 30
0.0
 10
9.3967331792
 20
7.94326493
 30
0.0
 10
9.3997190497
 20
7.9460382684
 30
0.0
  0
SPLINE
  5
3C6
100
AcDbEntity
  8
0
100
AcDbSpline
 62
7
  6
CONTINUOUS
 70
0
 71
3
 72
28
 73
24
 74
0
 42
0.0000001
 43
0.0000001
 44
0.0000000001
 40
0.0
 40
0.0
 40
0.0
 40
0.0
 40
0.0832001317
 40
0.1656711519
 40
0.3276709004
 40
0.4841808807
 40
0.5594504933
 40
0.5960902357
 40
0.6319409819
 40
0.7008223461
 40
0.7650669195
 40
0.7950809223
 40
0.8234797811
 40
0.8501141233
 40
0.8748513417
 40
0.8975834701
 40
0.9182416632
 40
0.9367951199
 40
0.9532594661
 40
0.9676947787
 40
0.9801985046
 40
0.9909099126
 40
1.0
 40
1.0
 40
1.0
 40
1.0
 10
11.5222113361
 20
7.6177196216
 30
0.0
 10
11.5203000362
 20
7.6147679484
 30
0.0
 10
11.5163158713
 20
7.6090035998
 30
0.0
 10
11.5077807405
 20
7.5980894282
 30
0.0
 10
11.4962141765
 20
7.5856507345
 30
0.0
 10
11.4836105979
 20
7.5747326506
 30
0.0
 10
11.4744857172
 20
7.5679846214
 30
0.0
 10
11.4693285949
 20
7.5644614296
 30
0.0
 10
11.4643136989
 20
7.5612120766
 30
0.0
 10
11.45818297
 20
7.5575432357
 30
0.0
 10
11.4521034132
 20
7.5542844343
 30
0.0
 10
11.4474477792
 20
7.5520030737
 30
0.0
 10
11.4441822566
 20
7.5504998756
 30
0.0
 10
11.4410852376
 20
7.5491665048
 30
0.0
 10
11.4381769415
 20
7.5480030882
 30
0.0
 10
11.4354744918
 20
7.5470080651
 30
0.0
 10
11.4329909463
 20
7.5461782769
 30
0.0
 10
11.4307344612
 20
7.5455089459
 30
0.0
 10
11.4287081388
 20
7.5449938044
 30
0.0
 10
11.4269102125
 20
7.5446256513
 30
0.0
 10
11.4253343439
 20
7.5443964507
 30
0.0
 10
11.4239712019
 20
7.5442982117
 30
0.0
 10
11.4231324828
 20
7.544316202
 30
0.0
 10
11.4227497766
 20
7.5443499631
 30
0.0
  0
SPLINE
  5
3C7
100
AcDbEntity
  8
0
100
AcDbSpline
 62
7
  6
CONTINUOUS
 70
0
 71
3
 72
26
 73
22
 74
0
 42
0.0000001
 43
0.0000001
 44
0.0000000001
 40
0.0
 40
0.0
 40
0.0
 40
0.0
 40
0.0600429721
 40
0.0903415939
 40
0.1208013319
 40
0.1821500927
 40
0.2440114291
 40
0.2751156918
 40
0.3063200296
 40
0.3689829485
 40
0.4319425733
 40
0.4951300744
 40
0.5584751646
 40
0.6219056999
 40
0.6853476758
 40
0.7487254178
 40
0.8119613636
 40
0.8749753212
 40
0.9063771179
 40
0.9376921131
 40
1.0
 40
1.0
 40
1.0
 40
1.0
 10
11.519418255
 20
7.7990366293
 30
0.0
 10
11.5216373369
 20
7.7958825982
 30
0.0
 10
11.5248132197
 20
7.7910190437
 30
0.0
 10
11.5287084474
 20
7.7843074697
 30
0.0
 10
11.5324023248
 20
7.7773874022
 30
0.0
 10
11.5365768394
 20
7.7684336292
 30
0.0
 10
11.5400987191
 20
7.7591587821
 30
0.0
 10
11.5425092812
 20
7.7515548617
 30
0.0
 10
11.5446458829
 20
7.7438160638
 30
0.0
 10
11.5467718591
 20
7.7339594075
 30
0.0
 10
11.5484145521
 20
7.7219324041
 30
0.0
 10
11.5491267211
 20
7.7097702429
 30
0.0
 10
11.5488945238
 20
7.6975592496
 30
0.0
 10
11.5477173754
 20
7.6853865349
 30
0.0
 10
11.5456079
 20
7.6733384401
 30
0.0
 10
11.5425913882
 20
7.6614980065
 30
0.0
 10
11.5387050665
 20
7.6499436313
 30
0.0
 10
11.5347759343
 20
7.6406008446
 30
0.0
 10
11.531246865
 20
7.6333356276
 30
0.0
 10
11.5274831434
 20
7.6262407773
 30
0.0
 10
11.5243865051
 20
7.621078795
 30
0.0
 10
11.5222113361
 20
7.6177196216
 30
0.0
  0
SPLINE
  5
3C8
100
AcDbEntity
  8
0
100
AcDbSpline
 62
7
  6
CONTINUOUS
 70
0
 71
3
 72
40
 73
36
 74
0
 42
0.0000001
 43
0.0000001
 44
0.0000000001
 40
0.0
 40
0.0
 40
0.0
 40
0.0
 40
0.0299422956
 40
0.059908968
 40
0.0899238
 40
0.1200094056
 40
0.1350882594
 40
0.1501924656
 40
0.1804801452
 40
0.2108943177
 40
0.241448122
 40
0.2721514726
 40
0.3030108797
 40
0.334029354
 40
0.3652063934
 40
0.3965380465
 40
0.4280170486
 40
0.4596330217
 40
0.4913727316
 40
0.5232203951
 40
0.5551580282
 40
0.5871658292
 40
0.6192225887
 40
0.6513061205
 40
0.6833937063
 40
0.715462548
 40
0.7474902197
 40
0.779455117
 40
0.8113368874
 40
0.8431168691
 40
0.8747784143
 40
0.9063074703
 40
0.9376922765
 40
0.9689251917
 40
1.0
 40
1.0
 40
1.0
 40
1.0
 10
9.3185616715
 20
7.4298173153
 30
0.0
 10
9.3208925198
 20
7.4320687384
 30
0.0
 10
9.3257374897
 20
7.4363898725
 30
0.0
 10
9.3334999551
 20
7.4422766915
 30
0.0
 10
9.3417174177
 20
7.4475390074
 30
0.0
 10
9.3489022755
 20
7.4513770566
 30
0.0
 10
9.3548277879
 20
7.4541073732
 30
0.0
 10
9.3608757328
 20
7.4566123057
 30
0.0
 10
9.3686349625
 20
7.4593058227
 30
0.0
 10
9.3781970464
 20
7.4618161179
 30
0.0
 10
9.3879677787
 20
7.4635944757
 30
0.0
 10
9.3978930121
 20
7.464631086
 30
0.0
 10
9.4079182243
 20
7.4649204178
 30
0.0
 10
9.4179882536
 20
7.4644609992
 30
0.0
 10
9.4280477528
 20
7.4632554847
 30
0.0
 10
9.4380414495
 20
7.4613106169
 30
0.0
 10
9.4479144573
 20
7.4586371895
 30
0.0
 10
9.4576125699
 20
7.4552499836
 30
0.0
 10
9.4670825556
 20
7.4511676842
 30
0.0
 10
9.4762724447
 20
7.4464127763
 30
0.0
 10
9.4851318108
 20
7.4410114207
 30
0.0
 10
9.4936120438
 20
7.4349933113
 30
0.0
 10
9.5016666131
 20
7.428391512
 30
0.0
 10
9.5092513211
 20
7.4212422784
 30
0.0
 10
9.5163245433
 20
7.41358486
 30
0.0
 10
9.5228474531
 20
7.4054612847
 30
0.0
 10
9.5287842336
 20
7.3969161319
 30
0.0
 10
9.5341022699
 20
7.3879962895
 30
0.0
 10
9.5387723337
 20
7.3787506995
 30
0.0
 10
9.5427687249
 20
7.3692300982
 30
0.0
 10
9.5460694566
 20
7.3594867144
 30
0.0
 10
9.5486562768
 20
7.3495740965
 30
0.0
 10
9.5505149653
 20
7.3395464254
 30
0.0
 10
9.5516350957
 20
7.329459559
 30
0.0
 10
9.5518860039
 20
7.3227134341
 30
0.0
 10
9.5518860039
 20
7.3193502208
 30
0.0
  0
SPLINE
  5
3C9
100
AcDbEntity
  8
0
100
AcDbSpline
 62
7
  6
CONTINUOUS
 70
0
 71
3
 72
40
 73
36
 74
0
 42
0.0000001
 43
0.0000001
 44
0.0000000001
 40
0.0
 40
0.0
 40
0.0
 40
0.0
 40
0.0299422956
 40
0.059908968
 40
0.0899238
 40
0.1200094056
 40
0.1350882594
 40
0.1501924656
 40
0.1804801452
 40
0.2108943177
 40
0.241448122
 40
0.2721514726
 40
0.3030108797
 40
0.334029354
 40
0.3652063934
 40
0.3965380465
 40
0.4280170486
 40
0.4596330217
 40
0.4913727316
 40
0.5232203951
 40
0.5551580282
 40
0.5871658292
 40
0.6192225887
 40
0.6513061205
 40
0.6833937063
 40
0.715462548
 40
0.7474902197
 40
0.779455117
 40
0.8113368874
 40
0.8431168691
 40
0.8747784143
 40
0.9063074703
 40
0.9376922765
 40
0.9689251917
 40
1.0
 40
1.0
 40
1.0
 40
1.0
 10
11.3711542891
 20
7.2874695338
 30
0.0
 10
11.3734851374
 20
7.2897209569
 30
0.0
 10
11.3783301074
 20
7.294042091
 30
0.0
 10
11.3860925727
 20
7.29992891
 30
0.0
 10
11.3943100354
 20
7.3051912259
 30
0.0
 10
11.4014948931
 20
7.3090292751
 30
0.0
 10
11.4074204055
 20
7.3117595917
 30
0.0
 10
11.4134683504
 20
7.3142645242
 30
0.0
 10
11.4212275801
 20
7.3169580412
 30
0.0
 10
11.430789664
 20
7.3194683364
 30
0.0
 10
11.4405603963
 20
7.3212466942
 30
0.0
 10
11.4504856297
 20
7.3222833045
 30
0.0
 10
11.460510842
 20
7.3225726363
 30
0.0
 10
11.4705808712
 20
7.3221132177
 30
0.0
 10
11.4806403704
 20
7.3209077032
 30
0.0
 10
11.4906340671
 20
7.3189628354
 30
0.0
 10
11.5005070749
 20
7.316289408
 30
0.0
 10
11.5102051876
 20
7.3129022021
 30
0.0
 10
11.5196751733
 20
7.3088199027
 30
0.0
 10
11.5288650624
 20
7.3040649948
 30
0.0
 10
11.5377244284
 20
7.2986636392
 30
0.0
 10
11.5462046615
 20
7.2926455298
 30
0.0
 10
11.5542592307
 20
7.2860437304
 30
0.0
 10
11.5618439387
 20
7.2788944969
 30
0.0
 10
11.568917161
 20
7.2712370784
 30
0.0
 10
11.5754400708
 20
7.2631135032
 30
0.0
 10
11.5813768512
 20
7.2545683504
 30
0.0
 10
11.5866948875
 20
7.245648508
 30
0.0
 10
11.5913649513
 20
7.236402918
 30
0.0
 10
11.5953613426
 20
7.2268823167
 30
0.0
 10
11.5986620743
 20
7.2171389329
 30
0.0
 10
11.6012488944
 20
7.207226315
 30
0.0
 10
11.6031075829
 20
7.1971986439
 30
0.0
 10
11.6042277133
 20
7.1871117774
 30
0.0
 10
11.6044786215
 20
7.1803656525
 30
0.0
 10
11.6044786215
 20
7.1770024393
 30
0.0
  0
SPLINE
  5
3CA
100
AcDbEntity
  8
0
100
AcDbSpline
 62
7
  6
CONTINUOUS
 70
0
 71
3
 72
40
 73
36
 74
0
 42
0.0000001
 43
0.0000001
 44
0.0000000001
 40
0.0
 40
0.0
 40
0.0
 40
0.0
 40
0.0299422956
 40
0.059908968
 40
0.0899238
 40
0.1200094056
 40
0.1350882594
 40
0.1501924656
 40
0.1804801452
 40
0.2108943177
 40
0.241448122
 40
0.2721514726
 40
0.3030108797
 40
0.334029354
 40
0.3652063934
 40
0.3965380465
 40
0.4280170486
 40
0.4596330217
 40
0.4913727316
 40
0.5232203951
 40
0.5551580282
 40
0.5871658292
 40
0.6192225887
 40
0.6513061205
 40
0.6833937063
 40
0.715462548
 40
0.7474902197
 40
0.779455117
 40
0.8113368874
 40
0.8431168691
 40
0.8747784143
 40
0.9063074703
 40
0.9376922765
 40
0.9689251917
 40
1.0
 40
1.0
 40
1.0
 40
1.0
 10
9.3185616715
 20
9.1800749073
 30
0.0
 10
9.3208925198
 20
9.1823263304
 30
0.0
 10
9.3257374897
 20
9.1866474645
 30
0.0
 10
9.3334999551
 20
9.1925342836
 30
0.0
 10
9.3417174177
 20
9.1977965994
 30
0.0
 10
9.3489022755
 20
9.2016346487
 30
0.0
 10
9.3548277879
 20
9.2043649652
 30
0.0
 10
9.3608757328
 20
9.2068698977
 30
0.0
 10
9.3686349625
 20
9.2095634147
 30
0.0
 10
9.3781970464
 20
9.2120737099
 30
0.0
 10
9.3879677787
 20
9.2138520678
 30
0.0
 10
9.3978930121
 20
9.2148886781
 30
0.0
 10
9.4079182243
 20
9.2151780098
 30
0.0
 10
9.4179882536
 20
9.2147185912
 30
0.0
 10
9.4280477528
 20
9.2135130767
 30
0.0
 10
9.4380414495
 20
9.2115682089
 30
0.0
 10
9.4479144573
 20
9.2088947815
 30
0.0
 10
9.4576125699
 20
9.2055075756
 30
0.0
 10
9.4670825556
 20
9.2014252762
 30
0.0
 10
9.4762724447
 20
9.1966703683
 30
0.0
 10
9.4851318108
 20
9.1912690127
 30
0.0
 10
9.4936120438
 20
9.1852509033
 30
0.0
 10
9.5016666131
 20
9.178649104
 30
0.0
 10
9.5092513211
 20
9.1714998704
 30
0.0
 10
9.5163245433
 20
9.163842452
 30
0.0
 10
9.5228474531
 20
9.1557188768
 30
0.0
 10
9.5287842336
 20
9.1471737239
 30
0.0
 10
9.5341022699
 20
9.1382538815
 30
0.0
 10
9.5387723337
 20
9.1290082915
 30
0.0
 10
9.5427687249
 20
9.1194876902
 30
0.0
 10
9.5460694566
 20
9.1097443064
 30
0.0
 10
9.5486562768
 20
9.0998316885
 30
0.0
 10
9.5505149653
 20
9.0898040174
 30
0.0
 10
9.5516350957
 20
9.079717151
 30
0.0
 10
9.5518860039
 20
9.0729710261
 30
0.0
 10
9.5518860039
 20
9.0696078128
 30
0.0
  0
SPLINE
  5
3CB
100
AcDbEntity
  8
0
100
AcDbSpline
 62
7
  6
CONTINUOUS
 70
0
 71
3
 72
40
 73
36
 74
0
 42
0.0000001
 43
0.0000001
 44
0.0000000001
 40
0.0
 40
0.0
 40
0.0
 40
0.0
 40
0.0299422956
 40
0.059908968
 40
0.0899238
 40
0.1200094056
 40
0.1350882594
 40
0.1501924656
 40
0.1804801452
 40
0.2108943177
 40
0.241448122
 40
0.2721514726
 40
0.3030108797
 40
0.334029354
 40
0.3652063934
 40
0.3965380465
 40
0.4280170486
 40
0.4596330217
 40
0.4913727316
 40
0.5232203951
 40
0.5551580282
 40
0.5871658292
 40
0.6192225887
 40
0.6513061205
 40
0.6833937063
 40
0.715462548
 40
0.7474902197
 40
0.779455117
 40
0.8113368874
 40
0.8431168691
 40
0.8747784143
 40
0.9063074703
 40
0.9376922765
 40
0.9689251917
 40
1.0
 40
1.0
 40
1.0
 40
1.0
 10
11.3711542891
 20
9.0377271258
 30
0.0
 10
11.3734851374
 20
9.0399785489
 30
0.0
 10
11.3783301074
 20
9.044299683
 30
0.0
 10
11.3860925727
 20
9.050186502
 30
0.0
 10
11.3943100354
 20
9.0554488179
 30
0.0
 10
11.4014948931
 20
9.0592868671
 30
0.0
 10
11.4074204055
 20
9.0620171837
 30
0.0
 10
11.4134683504
 20
9.0645221162
 30
0.0
 10
11.4212275801
 20
9.0672156332
 30
0.0
 10
11.430789664
 20
9.0697259284
 30
0.0
 10
11.4405603963
 20
9.0715042862
 30
0.0
 10
11.4504856297
 20
9.0725408965
 30
0.0
 10
11.460510842
 20
9.0728302283
 30
0.0
 10
11.4705808712
 20
9.0723708097
 30
0.0
 10
11.4806403704
 20
9.0711652952
 30
0.0
 10
11.4906340671
 20
9.0692204274
 30
0.0
 10
11.5005070749
 20
9.066547
 30
0.0
 10
11.5102051876
 20
9.0631597941
 30
0.0
 10
11.5196751733
 20
9.0590774947
 30
0.0
 10
11.5288650624
 20
9.0543225868
 30
0.0
 10
11.5377244284
 20
9.0489212312
 30
0.0
 10
11.5462046615
 20
9.0429031218
 30
0.0
 10
11.5542592307
 20
9.0363013225
 30
0.0
 10
11.5618439387
 20
9.0291520889
 30
0.0
 10
11.568917161
 20
9.0214946705
 30
0.0
 10
11.5754400708
 20
9.0133710953
 30
0.0
 10
11.5813768512
 20
9.0048259424
 30
0.0
 10
11.5866948875
 20
8.9959061
 30
0.0
 10
11.5913649513
 20
8.98666051
 30
0.0
 10
11.5953613426
 20
8.9771399087
 30
0.0
 10
11.5986620743
 20
8.9673965249
 30
0.0
 10
11.6012488944
 20
8.957483907
 30
0.0
 10
11.6031075829
 20
8.9474562359
 30
0.0
 10
11.6042277133
 20
8.9373693695
 30
0.0
 10
11.6044786215
 20
8.9306232446
 30
0.0
 10
11.6044786215
 20
8.9272600313
 30
0.0
  0
SPLINE
  5
3CC
100
AcDbEntity
  8
0
100
AcDbSpline
 62
7
  6
CONTINUOUS
 70
0
 71
3
 72
42
 73
38
 74
0
 42
0.0000001
 43
0.0000001
 44
0.0000000001
 40
0.0
 40
0.0
 40
0.0
 40
0.0
 40
0.0299419634
 40
0.0449235299
 40
0.0599142017
 40
0.0899287029
 40
0.1200139772
 40
0.1350926626
 40
0.1501967046
 40
0.1804840506
 40
0.2108978877
 40
0.2414513551
 40
0.2721543675
 40
0.3030134354
 40
0.3340315696
 40
0.3652082675
 40
0.3965395775
 40
0.4280182343
 40
0.4596338596
 40
0.4913732188
 40
0.5232205284
 40
0.5551578047
 40
0.5871652463
 40
0.6192216448
 40
0.6513048151
 40
0.6833920402
 40
0.7154605222
 40
0.747487836
 40
0.7794523759
 40
0.8113337934
 40
0.8431134117
 40
0.8747746318
 40
0.9063032512
 40
0.9376879208
 40
0.9533258
 40
0.9689252634
 40
1.0
 40
1.0
 40
1.0
 40
1.0
 10
10.2898379665
 20
8.9239152441
 30
0.0
 10
10.2934711057
 20
8.9274245657
 30
0.0
 10
10.2991349731
 20
8.9324758988
 30
0.0
 10
10.3070670919
 20
8.9387435032
 30
0.0
 10
10.3152518089
 20
8.944699222
 30
0.0
 10
10.3259315186
 20
8.9515383166
 30
0.0
 10
10.3371304824
 20
8.9575205452
 30
0.0
 10
10.3463667252
 20
8.9617763085
 30
0.0
 10
10.3557937616
 20
8.9656807521
 30
0.0
 10
10.3678882219
 20
8.9698791323
 30
0.0
 10
10.3827928109
 20
8.9737919174
 30
0.0
 10
10.3980226204
 20
8.9765638245
 30
0.0
 10
10.413493249
 20
8.9781795612
 30
0.0
 10
10.4291197131
 20
8.9786305049
 30
0.0
 10
10.4448160316
 20
8.9779143606
 30
0.0
 10
10.4604959339
 20
8.9760352651
 30
0.0
 10
10.476073266
 20
8.973003728
 30
0.0
 10
10.4914624751
 20
8.9688365739
 30
0.0
 10
10.5065790691
 20
8.9635568426
 30
0.0
 10
10.5213400748
 20
8.9571936598
 30
0.0
 10
10.5356644868
 20
8.949782074
 30
0.0
 10
10.5494737054
 20
8.9413628641
 30
0.0
 10
10.562691963
 20
8.9319823153
 30
0.0
 10
10.5752467335
 20
8.9216919661
 30
0.0
 10
10.5870691266
 20
8.9105483279
 30
0.0
 10
10.5980942606
 20
8.898612577
 30
0.0
 10
10.6082616154
 20
8.8859502221
 30
0.0
 10
10.6175153611
 20
8.8726307477
 30
0.0
 10
10.6258046619
 20
8.8587272412
 30
0.0
 10
10.6330839532
 20
8.8443159802
 30
0.0
 10
10.6393131886
 20
8.829476079
 30
0.0
 10
10.6444580717
 20
8.8142888397
 30
0.0
 10
10.6484901806
 20
8.7988381262
 30
0.0
 10
10.6509075195
 20
8.785796049
 30
0.0
 10
10.6522635749
 20
8.7753168981
 30
0.0
 10
10.6532313584
 20
8.7648477749
 30
0.0
 10
10.6535243939
 20
8.7569698302
 30
0.0
 10
10.6535243939
 20
8.7517274889
 30
0.0
  0
SPLINE
  5
3CD
100
AcDbEntity
  8
0
100
AcDbSpline
 62
7
  6
CONTINUOUS
 70
0
 71
3
 72
25
 73
21
 74
0
 42
0.0000001
 43
0.0000001
 44
0.0000000001
 40
0.0
 40
0.0
 40
0.0
 40
0.0
 40
0.0154129368
 40
0.0322309391
 40
0.0504978684
 40
0.0702284749
 40
0.0914221151
 40
0.1140525738
 40
0.1380806102
 40
0.1634484121
 40
0.1900892978
 40
0.2179272457
 40
0.2768667473
 40
0.3396217563
 40
0.4055796595
 40
0.474201906
 40
0.5450348948
 40
0.6918897687
 40
0.844006093
 40
1.0
 40
1.0
 40
1.0
 40
1.0
 10
11.4431508237
 20
7.8557739364
 30
0.0
 10
11.4436480359
 20
7.8557292399
 30
0.0
 10
11.4446849103
 20
7.8556020065
 30
0.0
 10
11.4462958013
 20
7.8553150734
 30
0.0
 10
11.4480274628
 20
7.854920435
 30
0.0
 10
11.4498774584
 20
7.8544154435
 30
0.0
 10
11.4518415969
 20
7.8537978151
 30
0.0
 10
11.453914402
 20
7.8530663038
 30
0.0
 10
11.4560888187
 20
7.8522201282
 30
0.0
 10
11.4583569062
 20
7.8512595286
 30
0.0
 10
11.4607097199
 20
7.8501851347
 30
0.0
 10
11.4640104789
 20
7.8485718672
 30
0.0
 10
11.4682792032
 20
7.8462793477
 30
0.0
 10
11.4734956704
 20
7.8431560751
 30
0.0
 10
11.4788287456
 20
7.8396294303
 30
0.0
 10
11.4842144888
 20
7.8357194153
 30
0.0
 10
11.4914782937
 20
7.8299507427
 30
0.0
 10
11.500364467
 20
7.8218947139
 30
0.0
 10
11.510394296
 20
7.8110748042
 30
0.0
 10
11.516510908
 20
7.8031689071
 30
0.0
 10
11.519418255
 20
7.7990366293
 30
0.0
  0
SPLINE
  5
3CE
100
AcDbEntity
  8
0
100
AcDbSpline
 62
7
  6
CONTINUOUS
 70
0
 71
3
 72
23
 73
19
 74
0
 42
0.0000001
 43
0.0000001
 44
0.0000000001
 40
0.0
 40
0.0
 40
0.0
 40
0.0
 40
0.0799654369
 40
0.1583392093
 40
0.2349374393
 40
0.3095821449
 40
0.3821019704
 40
0.452332894
 40
0.5201190403
 40
0.5853136408
 40
0.6477801528
 40
0.7073933357
 40
0.7640406178
 40
0.8176238174
 40
0.8680614424
 40
0.9152913628
 40
0.9592745981
 40
1.0
 40
1.0
 40
1.0
 40
1.0
 10
10.0648802838
 20
8.4305350792
 30
0.0
 10
10.0640086335
 20
8.4251714887
 30
0.0
 10
10.0622075337
 20
8.4145630999
 30
0.0
 10
10.0593022822
 20
8.3988641852
 30
0.0
 10
10.0562259136
 20
8.3835664597
 30
0.0
 10
10.0529863927
 20
8.368709305
 30
0.0
 10
10.0495921038
 20
8.3543308995
 30
0.0
 10
10.0460518322
 20
8.3404681912
 30
0.0
 10
10.0423747393
 20
8.3271567842
 30
0.0
 10
10.0385703415
 20
8.314430837
 30
0.0
 10
10.0346485006
 20
8.3023229589
 30
0.0
 10
10.0306193734
 20
8.2908641241
 30
0.0
 10
10.0264933889
 20
8.2800835911
 30
0.0
 10
10.0222811923
 20
8.2700087858
 30
0.0
 10
10.0179936568
 20
8.2606652569
 30
0.0
 10
10.0136416905
 20
8.2520763574
 30
0.0
 10
10.0092365566
 20
8.244263891
 30
0.0
 10
10.0061530498
 20
8.2393988649
 30
0.0
 10
10.0045987845
 20
8.2371091012
 30
0.0
  0
SPLINE
  5
3CF
100
AcDbEntity
  8
0
100
AcDbSpline
 62
7
  6
CONTINUOUS
 70
0
 71
3
 72
37
 73
33
 74
0
 42
0.0000001
 43
0.0000001
 44
0.0000000001
 40
0.0
 40
0.0
 40
0.0
 40
0.0
 40
0.0418983892
 40
0.0832114181
 40
0.1238850166
 40
0.1638714083
 40
0.2031315207
 40
0.2416368133
 40
0.2793703203
 40
0.3163265932
 40
0.3525109843
 40
0.3879381465
 40
0.4226298663
 40
0.4566126264
 40
0.4899151972
 40
0.522566696
 40
0.5545945566
 40
0.5860224108
 40
0.616868958
 40
0.6471475843
 40
0.7059926465
 40
0.7625435693
 40
0.7899192283
 40
0.8166429352
 40
0.8426701293
 40
0.8679461804
 40
0.8924088561
 40
0.9159875485
 40
0.9386076361
 40
0.9601934835
 40
0.9806754352
 40
1.0
 40
1.0
 40
1.0
 40
1.0
 10
9.9914258482
 20
8.4280172324
 30
0.0
 10
9.9890813531
 20
8.4248242756
 30
0.0
 10
9.9846420013
 20
8.4183201241
 30
0.0
 10
9.9787318375
 20
8.4081970579
 30
0.0
 10
9.9736396601
 20
8.3978391023
 30
0.0
 10
9.9693839725
 20
8.3873194889
 30
0.0
 10
9.9659728644
 20
8.3767115706
 30
0.0
 10
9.9634042645
 20
8.366087883
 30
0.0
 10
9.9616658981
 20
8.3555180462
 30
0.0
 10
9.9607360074
 20
8.3450671622
 30
0.0
 10
9.9605844883
 20
8.3347944675
 30
0.0
 10
9.9611743662
 20
8.3247524392
 30
0.0
 10
9.9624633974
 20
8.3149863795
 30
0.0
 10
9.9644056712
 20
8.3055344398
 30
0.0
 10
9.966953057
 20
8.2964279594
 30
0.0
 10
9.9700563605
 20
8.2876920408
 30
0.0
 10
9.9736664043
 20
8.2793463168
 30
0.0
 10
9.9777346244
 20
8.2714059633
 30
0.0
 10
9.9822138257
 20
8.263881987
 30
0.0
 10
9.9886099901
 20
8.2545077269
 30
0.0
 10
9.9973786544
 20
8.2438430666
 30
0.0
 10
10.0071104393
 20
8.2344454993
 30
0.0
 10
10.0152233275
 20
8.2278337431
 30
0.0
 10
10.0213538192
 20
8.2233765744
 30
0.0
 10
10.0275537557
 20
8.2193720373
 30
0.0
 10
10.0337814404
 20
8.2158248543
 30
0.0
 10
10.0399936999
 20
8.2127408919
 30
0.0
 10
10.046146312
 20
8.2101272385
 30
0.0
 10
10.0521934766
 20
8.2079920355
 30
0.0
 10
10.0580885712
 20
8.2063445319
 30
0.0
 10
10.0637833344
 20
8.2051948935
 30
0.0
 10
10.0675268204
 20
8.2047544117
 30
0.0
 10
10.0693495234
 20
8.2046286976
 30
0.0
  0
SPLINE
  5
3D0
100
AcDbEntity
  8
0
100
AcDbSpline
 62
7
  6
CONTINUOUS
 70
0
 71
3
 72
23
 73
19
 74
0
 42
0.0000001
 43
0.0000001
 44
0.0000000001
 40
0.0
 40
0.0
 40
0.0
 40
0.0
 40
0.0438833269
 40
0.0916593891
 40
0.143675502
 40
0.199918904
 40
0.259954663
 40
0.3230261285
 40
0.3882738139
 40
0.4549368387
 40
0.5224442875
 40
0.5904140279
 40
0.6586103313
 40
0.7268976277
 40
0.7952042472
 40
0.8634953491
 40
0.9317614414
 40
1.0
 40
1.0
 40
1.0
 40
1.0
 10
9.4968742178
 20
7.6780217709
 30
0.0
 10
9.4944707679
 20
7.6780681444
 30
0.0
 10
9.4894528815
 20
7.6783694292
 30
0.0
 10
9.4816481029
 20
7.6794358685
 30
0.0
 10
9.4732788327
 20
7.6812084537
 30
0.0
 10
9.4644087953
 20
7.6837477413
 30
0.0
 10
9.4551608852
 20
7.6870860167
 30
0.0
 10
9.4456999186
 20
7.6912212314
 30
0.0
 10
9.436201399
 20
7.6961219195
 30
0.0
 10
9.4268242298
 20
7.7017398835
 30
0.0
 10
9.4176973251
 20
7.7080228985
 30
0.0
 10
9.4089196545
 20
7.714922195
 30
0.0
 10
9.4005670624
 20
7.7223949109
 30
0.0
 10
9.3926999812
 20
7.7304033736
 30
0.0
 10
9.3853697292
 20
7.7389131008
 30
0.0
 10
9.3786221123
 20
7.7478909534
 30
0.0
 10
9.3725007219
 20
7.7573022016
 30
0.0
 10
9.368863216
 20
7.7638437236
 30
0.0
 10
9.3671629842
 20
7.7671727324
 30
0.0
  0
SPLINE
  5
3D1
100
AcDbEntity
  8
0
100
AcDbSpline
 62
7
  6
CONTINUOUS
 70
0
 71
3
 72
16
 73
12
 74
0
 42
0.0000001
 43
0.0000001
 44
0.0000000001
 40
0.0
 40
0.0
 40
0.0
 40
0.0
 40
0.1492584419
 40
0.2896950245
 40
0.4220074249
 40
0.4854090867
 40
0.5471333479
 40
0.6660891595
 40
0.780204822
 40
0.890962882
 40
1.0
 40
1.0
 40
1.0
 40
1.0
 10
13.1985646629
 20
6.8988625874
 30
0.0
 10
13.1975404371
 20
6.8979093626
 30
0.0
 10
13.1954932403
 20
6.8961211744
 30
0.0
 10
13.1923276905
 20
6.8937424544
 30
0.0
 10
13.1896561714
 20
6.8920627471
 30
0.0
 10
13.1875263313
 20
6.8909261237
 30
0.0
 10
13.1854563107
 20
6.88994956
 30
0.0
 10
13.1828681115
 20
6.8889645338
 30
0.0
 10
13.1797371198
 20
6.8881679653
 30
0.0
 10
13.1766238146
 20
6.8877741474
 30
0.0
 10
13.174556521
 20
6.8877814438
 30
0.0
 10
13.1735368414
 20
6.8878521676
 30
0.0
  0
SPLINE
  5
3D2
100
AcDbEntity
  8
0
100
AcDbSpline
 62
7
  6
CONTINUOUS
 70
0
 71
3
 72
30
 73
26
 74
0
 42
0.0000001
 43
0.0000001
 44
0.0000000001
 40
0.0
 40
0.0
 40
0.0
 40
0.0
 40
0.0162145972
 40
0.03342788
 40
0.0516724759
 40
0.0709718344
 40
0.0913415609
 40
0.1127909188
 40
0.1353233928
 40
0.1589380145
 40
0.1836293549
 40
0.209388774
 40
0.2362040358
 40
0.264060506
 40
0.2929405622
 40
0.3228247062
 40
0.3855135462
 40
0.4519326276
 40
0.5218585144
 40
0.5950448892
 40
0.6712254083
 40
0.7501165047
 40
0.8314189031
 40
0.9148215097
 40
1.0
 40
1.0
 40
1.0
 40
1.0
 10
13.8325825517
 20
9.6985087349
 30
0.0
 10
13.8334386364
 20
9.697456123
 30
0.0
 10
13.8351314506
 20
9.6952267567
 30
0.0
 10
13.837545621
 20
9.6916373596
 30
0.0
 10
13.8399067184
 20
9.6877085241
 30
0.0
 10
13.8422123054
 20
9.6834444105
 30
0.0
 10
13.8444601855
 20
9.6788492924
 30
0.0
 10
13.8466480239
 20
9.6739278622
 30
0.0
 10
13.8487736442
 20
9.6686851854
 30
0.0
 10
13.8508347653
 20
9.6631266607
 30
0.0
 10
13.8528293184
 20
9.6572580673
 30
0.0
 10
13.854755118
 20
9.651085499
 30
0.0
 10
13.8566102303
 20
9.6446154074
 30
0.0
 10
13.8583925934
 20
9.6378545519
 30
0.0
 10
13.8601004445
 20
9.6308100094
 30
0.0
 10
13.8623109583
 20
9.620890009
 30
0.0
 10
13.8648610598
 20
9.6078300334
 30
0.0
 10
13.8675509812
 20
9.5913919129
 30
0.0
 10
13.8699057679
 20
9.5740157768
 30
0.0
 10
13.8719152981
 20
9.5557746507
 30
0.0
 10
13.8735708834
 20
9.5367450528
 30
0.0
 10
13.8748653622
 20
9.5170070109
 30
0.0
 10
13.8757931489
 20
9.4966434709
 30
0.0
 10
13.8763501895
 20
9.4757402759
 30
0.0
 10
13.8764716471
 20
9.4616335837
 30
0.0
 10
13.8764716471
 20
9.4545061092
 30
0.0
  0
SPLINE
  5
3D3
100
AcDbEntity
  8
0
100
AcDbSpline
 62
7
  6
CONTINUOUS
 70
0
 71
3
 72
16
 73
12
 74
0
 42
0.0000001
 43
0.0000001
 44
0.0000000001
 40
0.0
 40
0.0
 40
0.0
 40
0.0
 40
0.1090377933
 40
0.2197964262
 40
0.3339122029
 40
0.4528687424
 40
0.5145945014
 40
0.5779976197
 40
0.7103106686
 40
0.8507398971
 40
1.0
 40
1.0
 40
1.0
 40
1.0
 10
13.7834382912
 20
9.7446842403
 30
0.0
 10
13.7844579769
 20
9.7446135161
 30
0.0
 10
13.7865065001
 20
9.7443353986
 30
0.0
 10
13.7895356519
 20
9.743515587
 30
0.0
 10
13.7925267274
 20
9.7422944529
 30
0.0
 10
13.794954206
 20
9.7409615871
 30
0.0
 10
13.7968696114
 20
9.7397085747
 30
0.0
 10
13.7988221985
 20
9.7382888231
 30
0.0
 10
13.8012362331
 20
9.7362564463
 30
0.0
 10
13.8040431186
 20
9.7334635951
 30
0.0
 10
13.8058238472
 20
9.7314099751
 30
0.0
 10
13.8067066845
 20
9.730324472
 30
0.0
  0
SPLINE
  5
3D4
100
AcDbEntity
  8
0
100
AcDbSpline
 62
7
  6
CONTINUOUS
 70
0
 71
3
 72
41
 73
37
 74
0
 42
0.0000001
 43
0.0000001
 44
0.0000000001
 40
0.0
 40
0.0
 40
0.0
 40
0.0
 40
0.0063160079
 40
0.012670914
 40
0.0191028693
 40
0.0256485311
 40
0.0323425104
 40
0.0392169797
 40
0.0536150169
 40
0.0611958751
 40
0.0690577399
 40
0.0856909608
 40
0.1036391145
 40
0.1229890565
 40
0.143801821
 40
0.1661176928
 40
0.1899604125
 40
0.2153403247
 40
0.2422566544
 40
0.2706994287
 40
0.3006509523
 40
0.3320868137
 40
0.3649767025
 40
0.3992852168
 40
0.4349723983
 40
0.4719940776
 40
0.5103023547
 40
0.5498459695
 40
0.5905705077
 40
0.6324186414
 40
0.6753304665
 40
0.7192436716
 40
0.7640936164
 40
0.8098138291
 40
0.9035871702
 40
1.0
 40
1.0
 40
1.0
 40
1.0
 10
13.648880787
 20
7.8260116183
 30
0.0
 10
13.6479680838
 20
7.8260749091
 30
0.0
 10
13.6461413699
 20
7.8262765881
 30
0.0
 10
13.6434217592
 20
7.8268022352
 30
0.0
 10
13.6407203358
 20
7.827551086
 30
0.0
 10
13.6380386735
 20
7.8285224914
 30
0.0
 10
13.635377804
 20
7.8297158633
 30
0.0
 10
13.6318050047
 20
7.8316310738
 30
0.0
 10
13.6283292073
 20
7.8339755104
 30
0.0
 10
13.6249654972
 20
7.8366924471
 30
0.0
 10
13.6215130742
 20
7.8398051916
 30
0.0
 10
13.6172698387
 20
7.8442679067
 30
0.0
 10
13.6123898634
 20
7.8503784342
 30
0.0
 10
13.607634624
 20
7.8573322815
 30
0.0
 10
13.60301073
 20
7.8651182752
 30
0.0
 10
13.5985246017
 20
7.8737245689
 30
0.0
 10
13.5941830485
 20
7.8831377207
 30
0.0
 10
13.5899928849
 20
7.8933429032
 30
0.0
 10
13.5859608225
 20
7.9043238187
 30
0.0
 10
13.5820934197
 20
7.9160627878
 30
0.0
 10
13.5783970493
 20
7.9285408008
 30
0.0
 10
13.57487783
 20
7.9417375486
 30
0.0
 10
13.5715415826
 20
7.9556314666
 30
0.0
 10
13.568393858
 20
7.9701998046
 30
0.0
 10
13.5654399135
 20
7.985418667
 30
0.0
 10
13.5626846556
 20
8.0012630462
 30
0.0
 10
13.5601326694
 20
8.0177068808
 30
0.0
 10
13.5577882198
 20
8.034723111
 30
0.0
 10
13.5556552172
 20
8.0522837139
 30
0.0
 10
13.5537372019
 20
8.0703597519
 30
0.0
 10
13.5520373724
 20
8.0889214362
 30
0.0
 10
13.5505585853
 20
8.107938157
 30
0.0
 10
13.5493032584
 20
8.1273785891
 30
0.0
 10
13.5479187138
 20
8.154046051
 30
0.0
 10
13.5467734964
 20
8.1882020396
 30
0.0
 10
13.5464776154
 20
8.2157521306
 30
0.0
 10
13.5464776154
 20
8.2297178539
 30
0.0
  0
SPLINE
  5
3D5
100
AcDbEntity
  8
0
100
AcDbSpline
 62
7
  6
CONTINUOUS
 70
0
 71
3
 72
16
 73
12
 74
0
 42
0.0000001
 43
0.0000001
 44
0.0000000001
 40
0.0
 40
0.0
 40
0.0
 40
0.0
 40
0.109037118
 40
0.219795178
 40
0.3339108405
 40
0.4528666521
 40
0.5145909133
 40
0.5779925751
 40
0.7103049755
 40
0.8507415581
 40
1.0
 40
1.0
 40
1.0
 40
1.0
 10
8.4708461271
 20
10.1121478324
 30
0.0
 10
8.4698264475
 20
10.1122185562
 30
0.0
 10
8.4677591539
 20
10.1122258526
 30
0.0
 10
8.4646458486
 20
10.1118320347
 30
0.0
 10
8.461514857
 20
10.1110354662
 30
0.0
 10
8.4589266577
 20
10.11005044
 30
0.0
 10
8.4568566371
 20
10.1090738763
 30
0.0
 10
8.4547267971
 20
10.1079372529
 30
0.0
 10
8.4520552779
 20
10.1062575456
 30
0.0
 10
8.4488897282
 20
10.1038788256
 30
0.0
 10
8.4468425313
 20
10.1020906374
 30
0.0
 10
8.4458183056
 20
10.1011374126
 30
0.0
  0
SPLINE
  5
3D6
100
AcDbEntity
  8
0
100
AcDbSpline
 62
7
  6
CONTINUOUS
 70
0
 71
3
 72
16
 73
12
 74
0
 42
0.0000001
 43
0.0000001
 44
0.0000000001
 40
0.0
 40
0.0
 40
0.0
 40
0.0
 40
0.1492601029
 40
0.2896893314
 40
0.4220023803
 40
0.4854054986
 40
0.5471312576
 40
0.6660877971
 40
0.7802035738
 40
0.8909622067
 40
1.0
 40
1.0
 40
1.0
 40
1.0
 10
7.837676284
 20
7.269675528
 30
0.0
 10
7.8385591213
 20
7.2685900249
 30
0.0
 10
7.8403398499
 20
7.2665364049
 30
0.0
 10
7.8431467354
 20
7.2637435537
 30
0.0
 10
7.84556077
 20
7.2617111769
 30
0.0
 10
7.847513357
 20
7.2602914253
 30
0.0
 10
7.8494287624
 20
7.2590384129
 30
0.0
 10
7.8518562411
 20
7.2577055471
 30
0.0
 10
7.8548473166
 20
7.256484413
 30
0.0
 10
7.8578764684
 20
7.2556646014
 30
0.0
 10
7.8599249915
 20
7.2553864839
 30
0.0
 10
7.8609446773
 20
7.2553157597
 30
0.0
  0
SPLINE
  5
3D7
100
AcDbEntity
  8
0
100
AcDbSpline
 62
7
  6
CONTINUOUS
 70
0
 71
3
 72
14
 73
10
 74
0
 42
0.0000001
 43
0.0000001
 44
0.0000000001
 40
0.0
 40
0.0
 40
0.0
 40
0.0
 40
0.2669150707
 40
0.3948356745
 40
0.5196877196
 40
0.6420243468
 40
0.7624365391
 40
0.8815466447
 40
1.0
 40
1.0
 40
1.0
 40
1.0
 10
13.3166574525
 20
8.859131306
 30
0.0
 10
13.3183855094
 20
8.8600461206
 30
0.0
 10
13.321021083
 20
8.8612603983
 30
0.0
 10
13.3246197535
 20
8.8625088489
 30
0.0
 10
13.3272730542
 20
8.8632322897
 30
0.0
 10
13.3299169535
 20
8.8637553137
 30
0.0
 10
13.3325505765
 20
8.8640776281
 30
0.0
 10
13.3351725151
 20
8.8641988765
 30
0.0
 10
13.3369139897
 20
8.8641455394
 30
0.0
 10
13.3377796319
 20
8.8640855109
 30
0.0
  0
SPLINE
  5
3D8
100
AcDbEntity
  8
0
100
AcDbSpline
 62
7
  6
CONTINUOUS
 70
0
 71
3
 72
33
 73
29
 74
0
 42
0.0000001
 43
0.0000001
 44
0.0000000001
 40
0.0
 40
0.0
 40
0.0
 40
0.0
 40
0.0162144692
 40
0.0334275894
 40
0.0516720786
 40
0.0709712473
 40
0.091340872
 40
0.1127900333
 40
0.1353223936
 40
0.1589368226
 40
0.183628034
 40
0.2093872636
 40
0.2362023918
 40
0.2640586644
 40
0.2929385944
 40
0.3228225234
 40
0.3536886216
 40
0.3855131152
 40
0.4182705339
 40
0.4519336172
 40
0.486473739
 40
0.521860682
 40
0.5950467061
 40
0.6712269155
 40
0.7501175304
 40
0.8314199122
 40
0.9148213441
 40
1.0
 40
1.0
 40
1.0
 40
1.0
 10
13.2554294384
 20
7.7755366065
 30
0.0
 10
13.2540084357
 20
7.7772838142
 30
0.0
 10
13.2511985538
 20
7.7809842835
 30
0.0
 10
13.2471912788
 20
7.786942233
 30
0.0
 10
13.2432721488
 20
7.7934636355
 30
0.0
 10
13.2394450925
 20
7.8005415367
 30
0.0
 10
13.2357138981
 20
7.8081688961
 30
0.0
 10
13.2320822919
 20
7.8163378759
 30
0.0
 10
13.2285540286
 20
7.8250401072
 30
0.0
 10
13.2251327673
 20
7.8342665995
 30
0.0
 10
13.2218220525
 20
7.8440077808
 30
0.0
 10
13.2186254151
 20
7.854253522
 30
0.0
 10
13.215546157
 20
7.8649931232
 30
0.0
 10
13.2125875979
 20
7.8762153617
 30
0.0
 10
13.2097528128
 20
7.8879084781
 30
0.0
 10
13.2070448379
 20
7.9000602116
 30
0.0
 10
13.2044665345
 20
7.9126578047
 30
0.0
 10
13.2020206198
 20
7.9256880218
 30
0.0
 10
13.1997097236
 20
7.9391371656
 30
0.0
 10
13.1975362531
 20
7.9529910865
 30
0.0
 10
13.1955025403
 20
7.9672352234
 30
0.0
 10
13.1929515733
 20
7.9869490085
 30
0.0
 10
13.1901414384
 20
8.0124586913
 30
0.0
 10
13.187393321
 20
8.0440455481
 30
0.0
 10
13.1852446265
 20
8.0768085294
 30
0.0
 10
13.1837046199
 20
8.1106096142
 30
0.0
 10
13.182779972
 20
8.1453065685
 30
0.0
 10
13.1825783739
 20
8.1687220464
 30
0.0
 10
13.1825783739
 20
8.180552924
 30
0.0
  0
SPLINE
  5
3D9
100
AcDbEntity
  8
0
100
AcDbSpline
 62
7
  6
CONTINUOUS
 70
0
 71
3
 72
14
 73
10
 74
0
 42
0.0000001
 43
0.0000001
 44
0.0000000001
 40
0.0
 40
0.0
 40
0.0
 40
0.0
 40
0.2670393992
 40
0.3949824327
 40
0.5198347465
 40
0.6421520886
 40
0.7625301657
 40
0.8815961347
 40
1.0
 40
1.0
 40
1.0
 40
1.0
 10
13.2427425677
 20
7.7945551766
 30
0.0
 10
13.2443336569
 20
7.7934017321
 30
0.0
 10
13.2467857437
 20
7.7918229883
 30
0.0
 10
13.250191602
 20
7.7900760805
 30
0.0
 10
13.2527298861
 20
7.7889849265
 30
0.0
 10
13.255286731
 20
7.7880953053
 30
0.0
 10
13.2578612635
 20
7.787407573
 30
0.0
 10
13.260452115
 20
7.7869222123
 30
0.0
 10
13.2621915718
 20
7.7867335928
 30
0.0
 10
13.2630608422
 20
7.7866733126
 30
0.0
  0
SPLINE
  5
3DA
100
AcDbEntity
  8
0
100
AcDbSpline
 62
7
  6
CONTINUOUS
 70
0
 71
3
 72
17
 73
13
 74
0
 42
0.0000001
 43
0.0000001
 44
0.0000000001
 40
0.0
 40
0.0
 40
0.0
 40
0.0
 40
0.1504727749
 40
0.2917301711
 40
0.4244679502
 40
0.487938881
 40
0.5496414896
 40
0.6683008156
 40
0.7818340527
 40
0.8918017756
 40
0.9460163312
 40
1.0
 40
1.0
 40
1.0
 40
1.0
 10
12.5500868947
 20
9.8165389699
 30
0.0
 10
12.5511470077
 20
9.8175629604
 30
0.0
 10
12.5532658563
 20
9.8194842927
 30
0.0
 10
12.5565466405
 20
9.8220447754
 30
0.0
 10
12.5593178696
 20
9.8238556849
 30
0.0
 10
12.561527667
 20
9.8250819804
 30
0.0
 10
12.5636723748
 20
9.8261347993
 30
0.0
 10
12.5663543312
 20
9.8271985691
 30
0.0
 10
12.5696008773
 20
9.8280625467
 30
0.0
 10
12.5723057308
 20
9.8284236615
 30
0.0
 10
12.574442883
 20
9.8284922962
 30
0.0
 10
12.5755030355
 20
9.8284548309
 30
0.0
 10
12.5760305475
 20
9.8284182518
 30
0.0
  0
SPLINE
  5
3DB
100
AcDbEntity
  8
0
100
AcDbSpline
 62
7
  6
CONTINUOUS
 70
0
 71
3
 72
37
 73
33
 74
0
 42
0.0000001
 43
0.0000001
 44
0.0000000001
 40
0.0
 40
0.0
 40
0.0
 40
0.0
 40
0.0760188415
 40
0.1532636881
 40
0.2310397316
 40
0.3086445611
 40
0.3853780575
 40
0.4605501949
 40
0.4973407038
 40
0.5334908265
 40
0.5689208013
 40
0.6035530356
 40
0.6373123921
 40
0.6701265432
 40
0.7019262376
 40
0.7326456062
 40
0.762222541
 40
0.7905991829
 40
0.8177223328
 40
0.843543977
 40
0.8680219827
 40
0.8911210325
 40
0.9128136039
 40
0.9330814081
 40
0.9426790343
 40
0.9519188834
 40
0.9608021526
 40
0.9693312087
 40
0.977509893
 40
0.9853432393
 40
0.9928374113
 40
1.0
 40
1.0
 40
1.0
 40
1.0
 10
11.8950164322
 20
8.8215672482
 30
0.0
 10
11.8950164322
 20
8.8335534602
 30
0.0
 10
11.895336955
 20
8.8577202257
 30
0.0
 10
11.8967355934
 20
8.8941259079
 30
0.0
 10
11.8990442281
 20
8.930735979
 30
0.0
 10
11.9022406535
 20
8.9671983003
 30
0.0
 10
11.9062941048
 20
9.0031621654
 30
0.0
 10
11.9103819286
 20
9.0326363303
 30
0.0
 10
11.9140603663
 20
9.0556990122
 30
0.0
 10
11.9169869239
 20
9.0725343847
 30
0.0
 10
11.9200937365
 20
9.088991243
 30
0.0
 10
11.9233733303
 20
9.1050300111
 30
0.0
 10
11.9268177748
 20
9.1206120921
 30
0.0
 10
11.9304187282
 20
9.1357000177
 30
0.0
 10
11.9341674712
 20
9.1502575222
 30
0.0
 10
11.9380549301
 20
9.1642496267
 30
0.0
 10
11.942071703
 20
9.1776427346
 30
0.0
 10
11.9462080503
 20
9.1904047345
 30
0.0
 10
11.9504539515
 20
9.2025050724
 30
0.0
 10
11.9547991334
 20
9.2139148346
 30
0.0
 10
11.959233105
 20
9.2246068086
 30
0.0
 10
11.963745178
 20
9.2345557029
 30
0.0
 10
11.9683244958
 20
9.2437378311
 30
0.0
 10
11.9722558644
 20
9.2508569222
 30
0.0
 10
11.9754342114
 20
9.2561412018
 30
0.0
 10
11.9777845174
 20
9.2598270071
 30
0.0
 10
11.9801433927
 20
9.2633055973
 30
0.0
 10
11.9825095326
 20
9.2665749203
 30
0.0
 10
11.9848815349
 20
9.2696331148
 30
0.0
 10
11.9872581151
 20
9.2724783498
 30
0.0
 10
11.9896376823
 20
9.2751087883
 30
0.0
 10
11.9912611998
 20
9.2767547667
 30
0.0
 10
11.992073494
 20
9.2775393827
 30
0.0
  0
SPLINE
  5
3DC
100
AcDbEntity
  8
0
100
AcDbSpline
 62
7
  6
CONTINUOUS
 70
0
 71
3
 72
37
 73
33
 74
0
 42
0.0000001
 43
0.0000001
 44
0.0000000001
 40
0.0
 40
0.0
 40
0.0
 40
0.0
 40
0.0760189178
 40
0.1532636611
 40
0.2310397298
 40
0.3086445608
 40
0.3853780616
 40
0.4605501846
 40
0.4973406979
 40
0.5334908402
 40
0.5689208038
 40
0.6035530159
 40
0.6373123916
 40
0.6701265632
 40
0.7019262312
 40
0.732645583
 40
0.7622225511
 40
0.7905991985
 40
0.8177223189
 40
0.8435439591
 40
0.8680219988
 40
0.8911210382
 40
0.9128135855
 40
0.9330814124
 40
0.9426790379
 40
0.9519188858
 40
0.9608021119
 40
0.9693311776
 40
0.9775099159
 40
0.9853433145
 40
0.9928374837
 40
1.0
 40
1.0
 40
1.0
 40
1.0
 10
13.1403908903
 20
8.7435066538
 30
0.0
 10
13.1403908903
 20
8.7545020167
 30
0.0
 10
13.1406849154
 20
8.7766709923
 30
0.0
 10
13.1419679381
 20
8.8100671375
 30
0.0
 10
13.144085718
 20
8.8436507655
 30
0.0
 10
13.1470179161
 20
8.8770988717
 30
0.0
 10
13.1507362676
 20
8.9100897242
 30
0.0
 10
13.1544861786
 20
8.9371273555
 30
0.0
 10
13.1578605286
 20
8.9582835242
 30
0.0
 10
13.1605451481
 20
8.9737271761
 30
0.0
 10
13.1633951367
 20
8.9888235977
 30
0.0
 10
13.1664036258
 20
9.0035364904
 30
0.0
 10
13.1695633217
 20
9.0178304569
 30
0.0
 10
13.1728665895
 20
9.0316711176
 30
0.0
 10
13.1763054454
 20
9.0450251961
 30
0.0
 10
13.1798715466
 20
9.0578606168
 30
0.0
 10
13.1835562546
 20
9.0701465678
 30
0.0
 10
13.1873506634
 20
9.0818535774
 30
0.0
 10
13.1912455784
 20
9.0929536135
 30
0.0
 10
13.1952315602
 20
9.103420168
 30
0.0
 10
13.1992989787
 20
9.1132282799
 30
0.0
 10
13.2034380587
 20
9.1223547301
 30
0.0
 10
13.2076388248
 20
9.1307777977
 30
0.0
 10
13.2112451957
 20
9.1373083795
 30
0.0
 10
13.2141608061
 20
9.1421558247
 30
0.0
 10
13.216316806
 20
9.145536938
 30
0.0
 10
13.2184806842
 20
9.1487279566
 30
0.0
 10
13.2206512226
 20
9.1517270195
 30
0.0
 10
13.2228271489
 20
9.1545324173
 30
0.0
 10
13.2250072823
 20
9.1571424513
 30
0.0
 10
13.2271901339
 20
9.1595554399
 30
0.0
 10
13.2286794313
 20
9.1610653448
 30
0.0
 10
13.2294245683
 20
9.1617850919
 30
0.0
  0
SPLINE
  5
3DD
100
AcDbEntity
  8
0
100
AcDbSpline
 62
7
  6
CONTINUOUS
 70
0
 71
3
 72
37
 73
33
 74
0
 42
0.0000001
 43
0.0000001
 44
0.0000000001
 40
0.0
 40
0.0
 40
0.0
 40
0.0
 40
0.0760188415
 40
0.1532636881
 40
0.2310397316
 40
0.3086445611
 40
0.3853780575
 40
0.4605501949
 40
0.4973407038
 40
0.5334908265
 40
0.5689208013
 40
0.6035530356
 40
0.6373123921
 40
0.6701265432
 40
0.7019262376
 40
0.7326456062
 40
0.762222541
 40
0.7905991829
 40
0.8177223328
 40
0.843543977
 40
0.8680219827
 40
0.8911210325
 40
0.9128136039
 40
0.9330814081
 40
0.9426790343
 40
0.9519188834
 40
0.9608021526
 40
0.9693312087
 40
0.977509893
 40
0.9853432393
 40
0.9928374113
 40
1.0
 40
1.0
 40
1.0
 40
1.0
 10
13.1024238041
 20
8.7378332626
 30
0.0
 10
13.1024238041
 20
8.7498194746
 30
0.0
 10
13.1027443269
 20
8.7739862401
 30
0.0
 10
13.1041429653
 20
8.8103919222
 30
0.0
 10
13.1064516
 20
8.8470019934
 30
0.0
 10
13.1096480254
 20
8.8834643147
 30
0.0
 10
13.1137014767
 20
8.9194281797
 30
0.0
 10
13.1177893005
 20
8.9489023447
 30
0.0
 10
13.1214677382
 20
8.9719650266
 30
0.0
 10
13.1243942958
 20
8.988800399
 30
0.0
 10
13.1275011084
 20
9.0052572574
 30
0.0
 10
13.1307807022
 20
9.0212960255
 30
0.0
 10
13.1342251467
 20
9.0368781064
 30
0.0
 10
13.1378261002
 20
9.051966032
 30
0.0
 10
13.1415748431
 20
9.0665235366
 30
0.0
 10
13.145462302
 20
9.0805156411
 30
0.0
 10
13.1494790749
 20
9.0939087489
 30
0.0
 10
13.1536154222
 20
9.1066707488
 30
0.0
 10
13.1578613234
 20
9.1187710868
 30
0.0
 10
13.1622065053
 20
9.1301808489
 30
0.0
 10
13.1666404769
 20
9.1408728229
 30
0.0
 10
13.1711525499
 20
9.1508217172
 30
0.0
 10
13.1757318677
 20
9.1600038455
 30
0.0
 10
13.1796632363
 20
9.1671229365
 30
0.0
 10
13.1828415833
 20
9.1724072161
 30
0.0
 10
13.1851918893
 20
9.1760930214
 30
0.0
 10
13.1875507646
 20
9.1795716117
 30
0.0
 10
13.1899169045
 20
9.1828409346
 30
0.0
 10
13.1922889068
 20
9.1858991291
 30
0.0
 10
13.194665487
 20
9.1887443641
 30
0.0
 10
13.1970450542
 20
9.1913748026
 30
0.0
 10
13.1986685717
 20
9.1930207811
 30
0.0
 10
13.1994808659
 20
9.1938053971
 30
0.0
  0
SPLINE
  5
3DE
100
AcDbEntity
  8
0
100
AcDbSpline
 62
7
  6
CONTINUOUS
 70
0
 71
3
 72
23
 73
19
 74
0
 42
0.0000001
 43
0.0000001
 44
0.0000000001
 40
0.0
 40
0.0
 40
0.0
 40
0.0
 40
0.0755943795
 40
0.1466381136
 40
0.2134648076
 40
0.276513129
 40
0.3363244122
 40
0.3935446119
 40
0.4489206108
 40
0.5032854618
 40
0.5575232172
 40
0.6125244805
 40
0.6691407076
 40
0.7281464197
 40
0.7902174387
 40
0.855922056
 40
0.9257257604
 40
1.0
 40
1.0
 40
1.0
 40
1.0
 10
13.787437969
 20
9.700784679
 30
0.0
 10
13.7883940246
 20
9.7017081578
 30
0.0
 10
13.7903049161
 20
9.7034427544
 30
0.0
 10
13.7932621992
 20
9.7057601193
 30
0.0
 10
13.7962160579
 20
9.7077063708
 30
0.0
 10
13.7991636952
 20
9.7092785889
 30
0.0
 10
13.8021026971
 20
9.7104738554
 30
0.0
 10
13.8050300036
 20
9.7112893869
 30
0.0
 10
13.8079418245
 20
9.7117221523
 30
0.0
 10
13.8108332704
 20
9.7117702436
 30
0.0
 10
13.8136987903
 20
9.7114327969
 30
0.0
 10
13.8165328477
 20
9.7107109804
 30
0.0
 10
13.8193305982
 20
9.7096070817
 30
0.0
 10
13.8220883733
 20
9.7081244417
 30
0.0
 10
13.8248033327
 20
9.7062663558
 30
0.0
 10
13.8274733387
 20
9.7040361284
 30
0.0
 10
13.8300961841
 20
9.7014369924
 30
0.0
 10
13.8317585008
 20
9.6995219592
 30
0.0
 10
13.8325825517
 20
9.6985087349
 30
0.0
  0
SPLINE
  5
3DF
100
AcDbEntity
  8
0
100
AcDbSpline
 62
7
  6
CONTINUOUS
 70
0
 71
3
 72
17
 73
13
 74
0
 42
0.0000001
 43
0.0000001
 44
0.0000000001
 40
0.0
 40
0.0
 40
0.0
 40
0.0
 40
0.1504730098
 40
0.2917304958
 40
0.4244682464
 40
0.4879391303
 40
0.549641677
 40
0.6683008574
 40
0.7818339705
 40
0.8918016563
 40
0.9460162481
 40
1.0
 40
1.0
 40
1.0
 40
1.0
 10
13.7574942666
 20
9.7328049842
 30
0.0
 10
13.7585543947
 20
9.7338289893
 30
0.0
 10
13.7606732734
 20
9.7357503472
 30
0.0
 10
13.7639541058
 20
9.7383108587
 30
0.0
 10
13.766725376
 20
9.7401217825
 30
0.0
 10
13.768935206
 20
9.7413480826
 30
0.0
 10
13.7710799447
 20
9.7424009016
 30
0.0
 10
13.7737619401
 20
9.7434646641
 30
0.0
 10
13.7770085333
 20
9.74432862
 30
0.0
 10
13.7797134247
 20
9.7446897055
 30
0.0
 10
13.7818506057
 20
9.7447583106
 30
0.0
 10
13.7829107723
 20
9.7447208284
 30
0.0
 10
13.7834382912
 20
9.7446842403
 30
0.0
  0
SPLINE
  5
3E0
100
AcDbEntity
  8
0
100
AcDbSpline
 62
7
  6
CONTINUOUS
 70
0
 71
3
 72
43
 73
39
 74
0
 42
0.0000001
 43
0.0000001
 44
0.0000000001
 40
0.0
 40
0.0
 40
0.0
 40
0.0
 40
0.0333088316
 40
0.0684993706
 40
0.105657447
 40
0.1447993316
 40
0.1858240646
 40
0.2284627697
 40
0.2722433241
 40
0.3165034004
 40
0.3604780912
 40
0.4034350792
 40
0.4447972227
 40
0.4841980886
 40
0.5214697561
 40
0.5565942072
 40
0.5896498799
 40
0.6207693124
 40
0.6501110418
 40
0.6778431712
 40
0.7041352801
 40
0.7291552347
 40
0.7530688213
 40
0.7760422165
 40
0.7982447029
 40
0.8198534927
 40
0.8410580793
 40
0.8620679489
 40
0.8725736439
 40
0.8831215199
 40
0.8937460638
 40
0.9044839256
 40
0.9264612235
 40
0.937795489
 40
0.9494248703
 40
0.961402708
 40
0.9737857461
 40
1.0
 40
1.0
 40
1.0
 40
1.0
 10
9.5954323945
 20
7.9015131764
 30
0.0
 10
9.5960534192
 20
7.8985374707
 30
0.0
 10
9.5971993425
 20
7.8923898928
 30
0.0
 10
9.5985786267
 20
7.8828440705
 30
0.0
 10
9.5996287267
 20
7.8727208393
 30
0.0
 10
9.6003090206
 20
7.8620324151
 30
0.0
 10
9.6005760626
 20
7.8508252157
 30
0.0
 10
9.6003891768
 20
7.8391928559
 30
0.0
 10
9.5997185309
 20
7.8272824631
 30
0.0
 10
9.5985542652
 20
7.8152875616
 30
0.0
 10
9.5969115449
 20
7.8034246189
 30
0.0
 10
9.5948297482
 20
7.7918994945
 30
0.0
 10
9.5923642697
 20
7.7808777427
 30
0.0
 10
9.5895760225
 20
7.7704695535
 30
0.0
 10
9.5865222992
 20
7.7607312838
 30
0.0
 10
9.5832515273
 20
7.7516772577
 30
0.0
 10
9.5798016598
 20
7.7432941576
 30
0.0
 10
9.5762006765
 20
7.7355532653
 30
0.0
 10
9.5724679629
 20
7.7284190751
 30
0.0
 10
9.5686157417
 20
7.7218546605
 30
0.0
 10
9.5646504403
 20
7.7158246272
 30
0.0
 10
9.5605735308
 20
7.710296697
 30
0.0
 10
9.5563815569
 20
7.7052428765
 30
0.0
 10
9.5520673827
 20
7.7006390655
 30
0.0
 10
9.5476193343
 20
7.6964657116
 30
0.0
 10
9.5430204513
 20
7.6927087393
 30
0.0
 10
9.538250232
 20
7.6893572364
 30
0.0
 10
9.5341074256
 20
7.686899882
 30
0.0
 10
9.5306930681
 20
7.685143398
 30
0.0
 10
9.5280691596
 20
7.6839276991
 30
0.0
 10
9.5253769438
 20
7.6828150103
 30
0.0
 10
9.5216600545
 20
7.6814600113
 30
0.0
 10
9.5177952825
 20
7.6803317416
 30
0.0
 10
9.5137909745
 20
7.6794401748
 30
0.0
 10
9.5106498239
 20
7.6788846525
 30
0.0
 10
9.5073924658
 20
7.6784545388
 30
0.0
 10
9.5027935298
 20
7.6780507909
 30
0.0
 10
9.4992661283
 20
7.6779756201
 30
0.0
 10
9.4968742178
 20
7.6780217709
 30
0.0
  0
SPLINE
  5
3E1
100
AcDbEntity
  8
0
100
AcDbSpline
 62
7
  6
CONTINUOUS
 70
0
 71
3
 72
9
 73
5
 74
0
 42
0.0000001
 43
0.0000001
 44
0.0000000001
 40
0.0
 40
0.0
 40
0.0
 40
0.0
 40
0.4856535952
 40
1.0
 40
1.0
 40
1.0
 40
1.0
 10
9.590854026
 20
7.9193078851
 30
0.0
 10
9.5917361684
 20
7.9164663143
 30
0.0
 10
9.5934034433
 20
7.910568213
 30
0.0
 10
9.5947886282
 20
7.9045978507
 30
0.0
 10
9.5954323945
 20
7.9015131764
 30
0.0
  0
SPLINE
  5
3E2
100
AcDbEntity
  8
0
100
AcDbSpline
 62
7
  6
CONTINUOUS
 70
0
 71
3
 72
35
 73
31
 74
0
 42
0.0000001
 43
0.0000001
 44
0.0000000001
 40
0.0
 40
0.0
 40
0.0
 40
0.0
 40
0.1037672178
 40
0.20092955
 40
0.2917672777
 40
0.3765221099
 40
0.4553559215
 40
0.5283569509
 40
0.5955453223
 40
0.6269430731
 40
0.6568629741
 40
0.6852840085
 40
0.712189597
 40
0.7375657493
 40
0.7613950294
 40
0.7836810967
 40
0.8044506648
 40
0.8237682683
 40
0.8329285065
 40
0.8417880755
 40
0.8587421747
 40
0.8750535704
 40
0.8831590017
 40
0.891344171
 40
0.8997107333
 40
0.9083649974
 40
0.9269471278
 40
0.9479500971
 40
0.9721044774
 40
1.0
 40
1.0
 40
1.0
 40
1.0
 10
11.4446315203
 20
7.7907479793
 30
0.0
 10
11.4441569445
 20
7.7932356937
 30
0.0
 10
11.4431992654
 20
7.7980454701
 30
0.0
 10
11.4417077707
 20
7.8050086851
 30
0.0
 10
11.4402362326
 20
7.8115010748
 30
0.0
 10
11.4388113443
 20
7.8175450396
 30
0.0
 10
11.4374609597
 20
7.8231592095
 30
0.0
 10
11.4362166708
 20
7.8283579137
 30
0.0
 10
11.4352766174
 20
7.8324390312
 30
0.0
 10
11.4346193521
 20
7.8355058225
 30
0.0
 10
11.4341895803
 20
7.8376535259
 30
0.0
 10
11.4338189409
 20
7.8397009566
 30
0.0
 10
11.4335147068
 20
7.8416472163
 30
0.0
 10
11.4332844422
 20
7.8434908657
 30
0.0
 10
11.4331383114
 20
7.8452301787
 30
0.0
 10
11.4330861969
 20
7.8468627137
 30
0.0
 10
11.4331392471
 20
7.8483854426
 30
0.0
 10
11.4332857685
 20
7.8495806728
 30
0.0
 10
11.4334733712
 20
7.8504729902
 30
0.0
 10
11.4337016771
 20
7.8512959422
 30
0.0
 10
11.43408091
 20
7.8522562679
 30
0.0
 10
11.434614139
 20
7.8531215578
 30
0.0
 10
11.4351304228
 20
7.8537286848
 30
0.0
 10
11.4355669143
 20
7.85414463
 30
0.0
 10
11.4360557134
 20
7.8545200784
 30
0.0
 10
11.4367975954
 20
7.8549752008
 30
0.0
 10
11.4378920732
 20
7.8554303807
 30
0.0
 10
11.4394176652
 20
7.8557660506
 30
0.0
 10
11.4412010441
 20
7.8558932695
 30
0.0
 10
11.4424727307
 20
7.8558348931
 30
0.0
 10
11.4431508237
 20
7.8557739364
 30
0.0
  0
SPLINE
  5
3E3
100
AcDbEntity
  8
0
100
AcDbSpline
 62
7
  6
CONTINUOUS
 70
0
 71
3
 72
40
 73
36
 74
0
 42
0.0000001
 43
0.0000001
 44
0.0000000001
 40
0.0
 40
0.0
 40
0.0
 40
0.0
 40
0.0299422956
 40
0.059908968
 40
0.0899238
 40
0.1200094056
 40
0.1350882594
 40
0.1501924656
 40
0.1804801452
 40
0.2108943177
 40
0.241448122
 40
0.2721514726
 40
0.3030108797
 40
0.334029354
 40
0.3652063934
 40
0.3965380465
 40
0.4280170486
 40
0.4596330217
 40
0.4913727316
 40
0.5232203951
 40
0.5551580282
 40
0.5871658292
 40
0.6192225887
 40
0.6513061205
 40
0.6833937063
 40
0.715462548
 40
0.7474902197
 40
0.779455117
 40
0.8113368874
 40
0.8431168691
 40
0.8747784143
 40
0.9063074703
 40
0.9376922765
 40
0.9689251917
 40
1.0
 40
1.0
 40
1.0
 40
1.0
 10
9.5137851631
 20
7.227706526
 30
0.0
 10
9.5114543148
 20
7.2254551029
 30
0.0
 10
9.5066093448
 20
7.2211339688
 30
0.0
 10
9.4988468795
 20
7.2152471497
 30
0.0
 10
9.4906294168
 20
7.2099848339
 30
0.0
 10
9.4834445591
 20
7.2061467846
 30
0.0
 10
9.4775190467
 20
7.2034164681
 30
0.0
 10
9.4714711018
 20
7.2009115356
 30
0.0
 10
9.4637118721
 20
7.1982180185
 30
0.0
 10
9.4541497882
 20
7.1957077233
 30
0.0
 10
9.4443790559
 20
7.1939293655
 30
0.0
 10
9.4344538225
 20
7.1928927552
 30
0.0
 10
9.4244286102
 20
7.1926034235
 30
0.0
 10
9.414358581
 20
7.1930628421
 30
0.0
 10
9.4042990818
 20
7.1942683566
 30
0.0
 10
9.3943053851
 20
7.1962132244
 30
0.0
 10
9.3844323773
 20
7.1988866518
 30
0.0
 10
9.3747342646
 20
7.2022738577
 30
0.0
 10
9.3652642789
 20
7.206356157
 30
0.0
 10
9.3560743898
 20
7.211111065
 30
0.0
 10
9.3472150238
 20
7.2165124205
 30
0.0
 10
9.3387347907
 20
7.22253053
 30
0.0
 10
9.3306802215
 20
7.2291323293
 30
0.0
 10
9.3230955135
 20
7.2362815629
 30
0.0
 10
9.3160222912
 20
7.2439389813
 30
0.0
 10
9.3094993814
 20
7.2520625565
 30
0.0
 10
9.303562601
 20
7.2606077093
 30
0.0
 10
9.2982445647
 20
7.2695275518
 30
0.0
 10
9.2935745009
 20
7.2787731418
 30
0.0
 10
9.2895781096
 20
7.2882937431
 30
0.0
 10
9.2862773779
 20
7.2980371269
 30
0.0
 10
9.2836905578
 20
7.3079497448
 30
0.0
 10
9.2818318693
 20
7.3179774159
 30
0.0
 10
9.2807117389
 20
7.3280642823
 30
0.0
 10
9.2804608306
 20
7.3348104072
 30
0.0
 10
9.2804608306
 20
7.3381736205
 30
0.0
  0
SPLINE
  5
3E4
100
AcDbEntity
  8
0
100
AcDbSpline
 62
7
  6
CONTINUOUS
 70
0
 71
3
 72
40
 73
36
 74
0
 42
0.0000001
 43
0.0000001
 44
0.0000000001
 40
0.0
 40
0.0
 40
0.0
 40
0.0
 40
0.0299422956
 40
0.059908968
 40
0.0899238
 40
0.1200094056
 40
0.1350882594
 40
0.1501924656
 40
0.1804801452
 40
0.2108943177
 40
0.241448122
 40
0.2721514726
 40
0.3030108797
 40
0.334029354
 40
0.3652063934
 40
0.3965380465
 40
0.4280170486
 40
0.4596330217
 40
0.4913727316
 40
0.5232203951
 40
0.5551580282
 40
0.5871658292
 40
0.6192225887
 40
0.6513061205
 40
0.6833937063
 40
0.715462548
 40
0.7474902197
 40
0.779455117
 40
0.8113368874
 40
0.8431168691
 40
0.8747784143
 40
0.9063074703
 40
0.9376922765
 40
0.9689251917
 40
1.0
 40
1.0
 40
1.0
 40
1.0
 10
11.5663777807
 20
7.0853587445
 30
0.0
 10
11.5640469324
 20
7.0831073214
 30
0.0
 10
11.5592019624
 20
7.0787861873
 30
0.0
 10
11.5514394971
 20
7.0728993682
 30
0.0
 10
11.5432220345
 20
7.0676370524
 30
0.0
 10
11.5360371767
 20
7.0637990031
 30
0.0
 10
11.5301116643
 20
7.0610686866
 30
0.0
 10
11.5240637194
 20
7.0585637541
 30
0.0
 10
11.5163044897
 20
7.055870237
 30
0.0
 10
11.5067424058
 20
7.0533599418
 30
0.0
 10
11.4969716735
 20
7.051581584
 30
0.0
 10
11.4870464401
 20
7.0505449737
 30
0.0
 10
11.4770212279
 20
7.050255642
 30
0.0
 10
11.4669511986
 20
7.0507150606
 30
0.0
 10
11.4568916994
 20
7.0519205751
 30
0.0
 10
11.4468980027
 20
7.0538654429
 30
0.0
 10
11.4370249949
 20
7.0565388703
 30
0.0
 10
11.4273268823
 20
7.0599260761
 30
0.0
 10
11.4178568966
 20
7.0640083755
 30
0.0
 10
11.4086670075
 20
7.0687632835
 30
0.0
 10
11.3998076414
 20
7.074164639
 30
0.0
 10
11.3913274084
 20
7.0801827484
 30
0.0
 10
11.3832728391
 20
7.0867845478
 30
0.0
 10
11.3756881311
 20
7.0939337814
 30
0.0
 10
11.3686149089
 20
7.1015911998
 30
0.0
 10
11.3620919991
 20
7.109714775
 30
0.0
 10
11.3561552186
 20
7.1182599278
 30
0.0
 10
11.3508371823
 20
7.1271797703
 30
0.0
 10
11.3461671185
 20
7.1364253603
 30
0.0
 10
11.3421707273
 20
7.1459459616
 30
0.0
 10
11.3388699956
 20
7.1556893454
 30
0.0
 10
11.3362831754
 20
7.1656019633
 30
0.0
 10
11.3344244869
 20
7.1756296344
 30
0.0
 10
11.3333043565
 20
7.1857165008
 30
0.0
 10
11.3330534483
 20
7.1924626257
 30
0.0
 10
11.3330534483
 20
7.195825839
 30
0.0
  0
SPLINE
  5
3E5
100
AcDbEntity
  8
0
100
AcDbSpline
 62
7
  6
CONTINUOUS
 70
0
 71
3
 72
40
 73
36
 74
0
 42
0.0000001
 43
0.0000001
 44
0.0000000001
 40
0.0
 40
0.0
 40
0.0
 40
0.0
 40
0.0299422956
 40
0.059908968
 40
0.0899238
 40
0.1200094056
 40
0.1350882594
 40
0.1501924656
 40
0.1804801452
 40
0.2108943177
 40
0.241448122
 40
0.2721514726
 40
0.3030108797
 40
0.334029354
 40
0.3652063934
 40
0.3965380465
 40
0.4280170486
 40
0.4596330217
 40
0.4913727316
 40
0.5232203951
 40
0.5551580282
 40
0.5871658292
 40
0.6192225887
 40
0.6513061205
 40
0.6833937063
 40
0.715462548
 40
0.7474902197
 40
0.779455117
 40
0.8113368874
 40
0.8431168691
 40
0.8747784143
 40
0.9063074703
 40
0.9376922765
 40
0.9689251917
 40
1.0
 40
1.0
 40
1.0
 40
1.0
 10
9.5137851631
 20
8.977964118
 30
0.0
 10
9.5114543148
 20
8.9757126949
 30
0.0
 10
9.5066093448
 20
8.9713915608
 30
0.0
 10
9.4988468795
 20
8.9655047417
 30
0.0
 10
9.4906294168
 20
8.9602424259
 30
0.0
 10
9.4834445591
 20
8.9564043766
 30
0.0
 10
9.4775190467
 20
8.9536740601
 30
0.0
 10
9.4714711018
 20
8.9511691276
 30
0.0
 10
9.4637118721
 20
8.9484756106
 30
0.0
 10
9.4541497882
 20
8.9459653154
 30
0.0
 10
9.4443790559
 20
8.9441869575
 30
0.0
 10
9.4344538225
 20
8.9431503472
 30
0.0
 10
9.4244286102
 20
8.9428610155
 30
0.0
 10
9.414358581
 20
8.9433204341
 30
0.0
 10
9.4042990818
 20
8.9445259486
 30
0.0
 10
9.3943053851
 20
8.9464708164
 30
0.0
 10
9.3844323773
 20
8.9491442438
 30
0.0
 10
9.3747342646
 20
8.9525314497
 30
0.0
 10
9.3652642789
 20
8.9566137491
 30
0.0
 10
9.3560743898
 20
8.961368657
 30
0.0
 10
9.3472150238
 20
8.9667700126
 30
0.0
 10
9.3387347907
 20
8.972788122
 30
0.0
 10
9.3306802215
 20
8.9793899213
 30
0.0
 10
9.3230955135
 20
8.9865391549
 30
0.0
 10
9.3160222912
 20
8.9941965733
 30
0.0
 10
9.3094993814
 20
9.0023201485
 30
0.0
 10
9.303562601
 20
9.0108653014
 30
0.0
 10
9.2982445647
 20
9.0197851438
 30
0.0
 10
9.2935745009
 20
9.0290307338
 30
0.0
 10
9.2895781096
 20
9.0385513351
 30
0.0
 10
9.2862773779
 20
9.0482947189
 30
0.0
 10
9.2836905578
 20
9.0582073368
 30
0.0
 10
9.2818318693
 20
9.0682350079
 30
0.0
 10
9.2807117389
 20
9.0783218743
 30
0.0
 10
9.2804608306
 20
9.0850679992
 30
0.0
 10
9.2804608306
 20
9.0884312125
 30
0.0
  0
SPLINE
  5
3E6
100
AcDbEntity
  8
0
100
AcDbSpline
 62
7
  6
CONTINUOUS
 70
0
 71
3
 72
15
 73
11
 74
0
 42
0.0000001
 43
0.0000001
 44
0.0000000001
 40
0.0
 40
0.0
 40
0.0
 40
0.0
 40
0.1273483281
 40
0.2538605602
 40
0.3795878981
 40
0.5046051042
 40
0.6290174419
 40
0.7529533761
 40
0.876560577
 40
1.0
 40
1.0
 40
1.0
 40
1.0
 10
11.3330534483
 20
8.946083431
 30
0.0
 10
11.3330534483
 20
8.95041056
 30
0.0
 10
11.333466602
 20
8.959042391
 30
0.0
 10
11.3353350553
 20
8.9718241201
 30
0.0
 10
11.3384332612
 20
8.9842846898
 30
0.0
 10
11.3427332365
 20
8.9963075706
 30
0.0
 10
11.3481955195
 20
9.0077818879
 30
0.0
 10
11.3547703436
 20
9.0186016754
 30
0.0
 10
11.3623958721
 20
9.0286655605
 30
0.0
 10
11.3681375104
 20
9.0348131459
 30
0.0
 10
11.3711542891
 20
9.0377271258
 30
0.0
  0
SPLINE
  5
3E7
100
AcDbEntity
  8
0
100
AcDbSpline
 62
7
  6
CONTINUOUS
 70
0
 71
3
 72
40
 73
36
 74
0
 42
0.0000001
 43
0.0000001
 44
0.0000000001
 40
0.0
 40
0.0
 40
0.0
 40
0.0
 40
0.0299422956
 40
0.059908968
 40
0.0899238
 40
0.1200094056
 40
0.1350882594
 40
0.1501924656
 40
0.1804801452
 40
0.2108943177
 40
0.241448122
 40
0.2721514726
 40
0.3030108797
 40
0.334029354
 40
0.3652063934
 40
0.3965380465
 40
0.4280170486
 40
0.4596330217
 40
0.4913727316
 40
0.5232203951
 40
0.5551580282
 40
0.5871658292
 40
0.6192225887
 40
0.6513061205
 40
0.6833937063
 40
0.715462548
 40
0.7474902197
 40
0.779455117
 40
0.8113368874
 40
0.8431168691
 40
0.8747784143
 40
0.9063074703
 40
0.9376922765
 40
0.9689251917
 40
1.0
 40
1.0
 40
1.0
 40
1.0
 10
11.5663777807
 20
8.8356163365
 30
0.0
 10
11.5640469324
 20
8.8333649134
 30
0.0
 10
11.5592019624
 20
8.8290437793
 30
0.0
 10
11.5514394971
 20
8.8231569602
 30
0.0
 10
11.5432220345
 20
8.8178946444
 30
0.0
 10
11.5360371767
 20
8.8140565951
 30
0.0
 10
11.5301116643
 20
8.8113262786
 30
0.0
 10
11.5240637194
 20
8.8088213461
 30
0.0
 10
11.5163044897
 20
8.806127829
 30
0.0
 10
11.5067424058
 20
8.8036175338
 30
0.0
 10
11.4969716735
 20
8.801839176
 30
0.0
 10
11.4870464401
 20
8.8008025657
 30
0.0
 10
11.4770212279
 20
8.800513234
 30
0.0
 10
11.4669511986
 20
8.8009726526
 30
0.0
 10
11.4568916994
 20
8.8021781671
 30
0.0
 10
11.4468980027
 20
8.8041230349
 30
0.0
 10
11.4370249949
 20
8.8067964623
 30
0.0
 10
11.4273268823
 20
8.8101836682
 30
0.0
 10
11.4178568966
 20
8.8142659675
 30
0.0
 10
11.4086670075
 20
8.8190208755
 30
0.0
 10
11.3998076414
 20
8.824422231
 30
0.0
 10
11.3913274084
 20
8.8304403405
 30
0.0
 10
11.3832728391
 20
8.8370421398
 30
0.0
 10
11.3756881311
 20
8.8441913734
 30
0.0
 10
11.3686149089
 20
8.8518487918
 30
0.0
 10
11.3620919991
 20
8.859972367
 30
0.0
 10
11.3561552186
 20
8.8685175198
 30
0.0
 10
11.3508371823
 20
8.8774373623
 30
0.0
 10
11.3461671185
 20
8.8866829523
 30
0.0
 10
11.3421707273
 20
8.8962035536
 30
0.0
 10
11.3388699956
 20
8.9059469374
 30
0.0
 10
11.3362831754
 20
8.9158595553
 30
0.0
 10
11.3344244869
 20
8.9258872264
 30
0.0
 10
11.3333043565
 20
8.9359740928
 30
0.0
 10
11.3330534483
 20
8.9427202177
 30
0.0
 10
11.3330534483
 20
8.946083431
 30
0.0
  0
SPLINE
  5
3E8
100
AcDbEntity
  8
0
100
AcDbSpline
 62
7
  6
CONTINUOUS
 70
0
 71
3
 72
42
 73
38
 74
0
 42
0.0000001
 43
0.0000001
 44
0.0000000001
 40
0.0
 40
0.0
 40
0.0
 40
0.0
 40
0.0299419634
 40
0.0449235299
 40
0.0599142017
 40
0.0899287029
 40
0.1200139772
 40
0.1350926626
 40
0.1501967046
 40
0.1804840506
 40
0.2108978877
 40
0.2414513551
 40
0.2721543675
 40
0.3030134354
 40
0.3340315696
 40
0.3652082675
 40
0.3965395775
 40
0.4280182343
 40
0.4596338596
 40
0.4913732188
 40
0.5232205284
 40
0.5551578047
 40
0.5871652463
 40
0.6192216448
 40
0.6513048151
 40
0.6833920402
 40
0.7154605222
 40
0.747487836
 40
0.7794523759
 40
0.8113337934
 40
0.8431134117
 40
0.8747746318
 40
0.9063032512
 40
0.9376879208
 40
0.9533258
 40
0.9689252634
 40
1.0
 40
1.0
 40
1.0
 40
1.0
 10
10.5941352844
 20
8.6088801218
 30
0.0
 10
10.5905021452
 20
8.6053708002
 30
0.0
 10
10.5848382778
 20
8.6003194671
 30
0.0
 10
10.576906159
 20
8.5940518627
 30
0.0
 10
10.568721442
 20
8.5880961439
 30
0.0
 10
10.5580417322
 20
8.5812570493
 30
0.0
 10
10.5468427685
 20
8.5752748207
 30
0.0
 10
10.5376065257
 20
8.5710190574
 30
0.0
 10
10.5281794893
 20
8.5671146138
 30
0.0
 10
10.516085029
 20
8.5629162336
 30
0.0
 10
10.5011804399
 20
8.5590034485
 30
0.0
 10
10.4859506304
 20
8.5562315414
 30
0.0
 10
10.4704800019
 20
8.5546158047
 30
0.0
 10
10.4548535377
 20
8.554164861
 30
0.0
 10
10.4391572193
 20
8.5548810053
 30
0.0
 10
10.4234773169
 20
8.5567601008
 30
0.0
 10
10.4078999849
 20
8.5597916379
 30
0.0
 10
10.3925107758
 20
8.563958792
 30
0.0
 10
10.3773941818
 20
8.5692385233
 30
0.0
 10
10.362633176
 20
8.5756017061
 30
0.0
 10
10.3483087641
 20
8.5830132919
 30
0.0
 10
10.3344995454
 20
8.5914325018
 30
0.0
 10
10.3212812879
 20
8.6008130506
 30
0.0
 10
10.3087265173
 20
8.6111033998
 30
0.0
 10
10.2969041243
 20
8.6222470379
 30
0.0
 10
10.2858789903
 20
8.6341827889
 30
0.0
 10
10.2757116355
 20
8.6468451438
 30
0.0
 10
10.2664578898
 20
8.6601646182
 30
0.0
 10
10.258168589
 20
8.6740681247
 30
0.0
 10
10.2508892977
 20
8.6884793857
 30
0.0
 10
10.2446600623
 20
8.7033192869
 30
0.0
 10
10.2395151792
 20
8.7185065262
 30
0.0
 10
10.2354830702
 20
8.7339572397
 30
0.0
 10
10.2330657313
 20
8.7469993169
 30
0.0
 10
10.2317096759
 20
8.7574784678
 30
0.0
 10
10.2307418924
 20
8.767947591
 30
0.0
 10
10.2304488569
 20
8.7758255357
 30
0.0
 10
10.2304488569
 20
8.781067877
 30
0.0
  0
SPLINE
  5
3E9
100
AcDbEntity
  8
0
100
AcDbSpline
 62
7
  6
CONTINUOUS
 70
0
 71
3
 72
57
 73
53
 74
0
 42
0.0000001
 43
0.0000001
 44
0.0000000001
 40
0.0
 40
0.0
 40
0.0
 40
0.0
 40
0.0452111151
 40
0.0910028922
 40
0.1371914731
 40
0.183589865
 40
0.2300105241
 40
0.2762656379
 40
0.3221682775
 40
0.3675333237
 40
0.4121784488
 40
0.4559250957
 40
0.4985994741
 40
0.5400335829
 40
0.5800662712
 40
0.6185443608
 40
0.637155417
 40
0.6553246567
 40
0.6730357378
 40
0.6902730659
 40
0.7070219026
 40
0.7232683064
 40
0.7389993698
 40
0.7542031206
 40
0.7688687611
 40
0.7829866902
 40
0.7965486293
 40
0.8095478594
 40
0.8219792442
 40
0.8338396478
 40
0.8451280137
 40
0.8558458432
 40
0.8659975471
 40
0.8755909364
 40
0.8846379793
 40
0.8931554241
 40
0.9011659533
 40
0.9086991512
 40
0.9157928765
 40
0.9224945133
 40
0.9288620062
 40
0.9349644242
 40
0.9408812842
 40
0.946700577
 40
0.9525151341
 40
0.9584180353
 40
0.9644979297
 40
0.9708353444
 40
0.9775004039
 40
0.9845522178
 40
0.9920391601
 40
1.0
 40
1.0
 40
1.0
 40
1.0
 10
13.4781494701
 20
8.4660526963
 30
0.0
 10
13.4781494701
 20
8.4538785148
 30
0.0
 10
13.4779323507
 20
8.4293733018
 30
0.0
 10
13.4769749636
 20
8.3924419455
 30
0.0
 10
13.4753874397
 20
8.3552122346
 30
0.0
 10
13.4731765523
 20
8.3178447534
 30
0.0
 10
13.4703518379
 20
8.2805006813
 30
0.0
 10
13.4669254786
 20
8.2433410401
 30
0.0
 10
13.4629122863
 20
8.2065260691
 30
0.0
 10
13.458329628
 20
8.1702145039
 30
0.0
 10
13.4531973575
 20
8.1345628895
 30
0.0
 10
13.4475377274
 20
8.0997248906
 30
0.0
 10
13.4413752925
 20
8.0658506419
 30
0.0
 10
13.4347368209
 20
8.033086006
 30
0.0
 10
13.42765113
 20
8.0015722148
 30
0.0
 10
13.4213313764
 20
7.976192045
 30
0.0
 10
13.4160639315
 20
7.9566229597
 30
0.0
 10
13.4120649519
 20
7.942504824
 30
0.0
 10
13.4079780838
 20
7.9287974295
 30
0.0
 10
13.4038077022
 20
7.9155155275
 30
0.0
 10
13.3995583633
 20
7.9026734161
 30
0.0
 10
13.3952346098
 20
7.8902849206
 30
0.0
 10
13.3908411737
 20
7.8783633543
 30
0.0
 10
13.3863827583
 20
7.8669215346
 30
0.0
 10
13.3818642078
 20
7.8559717383
 30
0.0
 10
13.3772904005
 20
7.8455257025
 30
0.0
 10
13.3726662391
 20
7.8355946154
 30
0.0
 10
13.367996752
 20
7.8261890678
 30
0.0
 10
13.363286882
 20
7.8173190996
 30
0.0
 10
13.3585417265
 20
7.8089941034
 30
0.0
 10
13.3537662724
 20
7.8012228976
 30
0.0
 10
13.3489655642
 20
7.7940136482
 30
0.0
 10
13.3441445979
 20
7.7873738844
 30
0.0
 10
13.3393082373
 20
7.781310539
 30
0.0
 10
13.3344613516
 20
7.7758298435
 30
0.0
 10
13.3296084965
 20
7.7709375456
 30
0.0
 10
13.3247541758
 20
7.7666387499
 30
0.0
 10
13.3199025373
 20
7.762938248
 30
0.0
 10
13.3150575864
 20
7.7598405465
 30
0.0
 10
13.3102232719
 20
7.7573500858
 30
0.0
 10
13.3054037522
 20
7.7554715726
 30
0.0
 10
13.3006040641
 20
7.7542095933
 30
0.0
 10
13.295830493
 20
7.7535686391
 30
0.0
 10
13.291090926
 20
7.7535516812
 30
0.0
 10
13.2863942329
 20
7.7541596375
 30
0.0
 10
13.2817491888
 20
7.7553906913
 30
0.0
 10
13.277163291
 20
7.757240805
 30
0.0
 10
13.2726424176
 20
7.759704958
 30
0.0
 10
13.2681909128
 20
7.7627776523
 30
0.0
 10
13.2638123754
 20
7.7664538829
 30
0.0
 10
13.2595102295
 20
7.7707283197
 30
0.0
 10
13.2567820075
 20
7.7738735421
 30
0.0
 10
13.2554294384
 20
7.7755366065
 30
0.0
  0
SPLINE
  5
3EA
100
AcDbEntity
  8
0
100
AcDbSpline
 62
7
  6
CONTINUOUS
 70
0
 71
3
 72
31
 73
27
 74
0
 42
0.0000001
 43
0.0000001
 44
0.0000000001
 40
0.0
 40
0.0
 40
0.0
 40
0.0
 40
0.0851787309
 40
0.1685810121
 40
0.2498835895
 40
0.328774602
 40
0.404955116
 40
0.4781414295
 40
0.5480672418
 40
0.6144862178
 40
0.6463107921
 40
0.6771770202
 40
0.7070609923
 40
0.7359410551
 40
0.7637973337
 40
0.7906125905
 40
0.8163718057
 40
0.8410631226
 40
0.8646775355
 40
0.8872099623
 40
0.9086591137
 40
0.9290287662
 40
0.9483279273
 40
0.966572423
 40
0.9837855238
 40
1.0
 40
1.0
 40
1.0
 40
1.0
 10
7.78983164
 20
7.5356672939
 30
0.0
 10
7.78983164
 20
7.5278974603
 30
0.0
 10
7.7899640415
 20
7.5125194627
 30
0.0
 10
7.7905712921
 20
7.4897324363
 30
0.0
 10
7.7915826904
 20
7.4675337298
 30
0.0
 10
7.7929938392
 20
7.4460168596
 30
0.0
 10
7.7947986374
 20
7.4252723153
 30
0.0
 10
7.7969892681
 20
7.4053872503
 30
0.0
 10
7.7995563261
 20
7.3864453155
 30
0.0
 10
7.8020338338
 20
7.371304181
 30
0.0
 10
7.8042065991
 20
7.3597287632
 30
0.0
 10
7.8058998935
 20
7.3514553711
 30
0.0
 10
7.8076783603
 20
7.3434748055
 30
0.0
 10
7.8095400711
 20
7.3357954319
 30
0.0
 10
7.8114831212
 20
7.3284253097
 30
0.0
 10
7.8135053809
 20
7.321372153
 30
0.0
 10
7.8156047909
 20
7.3146433442
 30
0.0
 10
7.8177790597
 20
7.3082458953
 30
0.0
 10
7.8200259848
 20
7.3021864762
 30
0.0
 10
7.8223431363
 20
7.2964713549
 30
0.0
 10
7.824728194
 20
7.2911064534
 30
0.0
 10
7.8271786297
 20
7.286097253
 30
0.0
 10
7.8296920398
 20
7.2814489124
 30
0.0
 10
7.8322659064
 20
7.277166047
 30
0.0
 10
7.8348976702
 20
7.2732532289
 30
0.0
 10
7.8367430533
 20
7.2708229929
 30
0.0
 10
7.837676284
 20
7.269675528
 30
0.0
  0
SPLINE
  5
3EB
100
AcDbEntity
  8
0
100
AcDbSpline
 62
7
  6
CONTINUOUS
 70
0
 71
3
 72
18
 73
14
 74
0
 42
0.0000001
 43
0.0000001
 44
0.0000000001
 40
0.0
 40
0.0
 40
0.0
 40
0.0
 40
0.1460889576
 40
0.2839828072
 40
0.4141622564
 40
0.5375746669
 40
0.6556897801
 40
0.7133984875
 40
0.7705641772
 40
0.8274938277
 40
0.8845004615
 40
0.9419013321
 40
1.0
 40
1.0
 40
1.0
 40
1.0
 10
10.0693495234
 20
8.2046286976
 30
0.0
 10
10.0708584226
 20
8.204524627
 30
0.0
 10
10.0738017119
 20
8.2044397007
 30
0.0
 10
10.0780874747
 20
8.204717166
 30
0.0
 10
10.0820899034
 20
8.2054106279
 30
0.0
 10
10.0857837927
 20
8.2065262594
 30
0.0
 10
10.0886103463
 20
8.2078227822
 30
0.0
 10
10.0906781239
 20
8.2090687448
 30
0.0
 10
10.0921292612
 20
8.2101004365
 30
0.0
 10
10.0934913585
 20
8.2112357155
 30
0.0
 10
10.0947639702
 20
8.2124739879
 30
0.0
 10
10.0959474891
 20
8.2138136393
 30
0.0
 10
10.0966721739
 20
8.2147663395
 30
0.0
 10
10.0970193903
 20
8.2152575111
 30
0.0
  0
SPLINE
  5
3EC
100
AcDbEntity
  8
0
100
AcDbSpline
 62
7
  6
CONTINUOUS
 70
0
 71
3
 72
46
 73
42
 74
0
 42
0.0000001
 43
0.0000001
 44
0.0000000001
 40
0.0
 40
0.0
 40
0.0
 40
0.0
 40
0.0024390875
 40
0.0046567146
 40
0.0066801683
 40
0.0085400768
 40
0.0102702248
 40
0.011906833
 40
0.0134872176
 40
0.0150480956
 40
0.0166232639
 40
0.0182416704
 40
0.0216931282
 40
0.025537895
 40
0.0298410191
 40
0.0346325329
 40
0.0399216924
 40
0.0427521222
 40
0.0457056963
 40
0.0519798053
 40
0.0587370953
 40
0.0659681903
 40
0.0736673517
 40
0.0818303211
 40
0.0904523986
 40
0.0995313164
 40
0.1190638674
 40
0.1404455572
 40
0.1637233329
 40
0.1889675313
 40
0.216272998
 40
0.2457574795
 40
0.2775575024
 40
0.3487030115
 40
0.4308181918
 40
0.5240587334
 40
0.6258702173
 40
0.7300184351
 40
0.8293535904
 40
0.9196744956
 40
1.0
 40
1.0
 40
1.0
 40
1.0
 10
11.4227497766
 20
7.5443499631
 30
0.0
 10
11.4225589154
 20
7.5443668003
 30
0.0
 10
11.4221954002
 20
7.5444112334
 30
0.0
 10
11.421680872
 20
7.5445176947
 30
0.0
 10
11.4212221996
 20
7.5446595751
 30
0.0
 10
11.4208169581
 20
7.5448360189
 30
0.0
 10
11.4204628539
 20
7.5450461408
 30
0.0
 10
11.4201577202
 20
7.5452888776
 30
0.0
 10
11.4198996855
 20
7.5455632557
 30
0.0
 10
11.4196868286
 20
7.5458680418
 30
0.0
 10
11.4195169198
 20
7.5462018919
 30
0.0
 10
11.419340497
 20
7.5466944476
 30
0.0
 10
11.4192201841
 20
7.5473895442
 30
0.0
 10
11.4192161983
 20
7.5483033585
 30
0.0
 10
11.4193308246
 20
7.5493150339
 30
0.0
 10
11.4195525714
 20
7.5504239165
 30
0.0
 10
11.4198113996
 20
7.5514050368
 30
0.0
 10
11.4200598188
 20
7.5522386939
 30
0.0
 10
11.420347366
 20
7.5531412744
 30
0.0
 10
11.4207575101
 20
7.5543282872
 30
0.0
 10
11.4213112213
 20
7.5558206787
 30
0.0
 10
11.4219284822
 20
7.5574086403
 30
0.0
 10
11.4226034626
 20
7.5590925012
 30
0.0
 10
11.4233308379
 20
7.5608730209
 30
0.0
 10
11.4241052279
 20
7.5627513985
 30
0.0
 10
11.4252216854
 20
7.5654548098
 30
0.0
 10
11.4267125682
 20
7.5690880506
 30
0.0
 10
11.4285826225
 20
7.5737712005
 30
0.0
 10
11.4305490133
 20
7.5788985629
 30
0.0
 10
11.4325874468
 20
7.5844958907
 30
0.0
 10
11.4346753904
 20
7.5905929139
 30
0.0
 10
11.4367901359
 20
7.5972236187
 30
0.0
 10
11.4397255982
 20
7.6072047304
 30
0.0
 10
11.4433052513
 20
7.6213013923
 30
0.0
 10
11.447087266
 20
7.6403017612
 30
0.0
 10
11.4501487393
 20
7.66187031
 30
0.0
 10
11.4521056616
 20
7.6853059003
 30
0.0
 10
11.4527155262
 20
7.709293855
 30
0.0
 10
11.4520190313
 20
7.7323744201
 30
0.0
 10
11.4502921447
 20
7.7535205727
 30
0.0
 10
11.4485857387
 20
7.7668214946
 30
0.0
 10
11.4476488894
 20
7.7730615262
 30
0.0
  0
SPLINE
  5
3ED
100
AcDbEntity
  8
0
100
AcDbSpline
 62
7
  6
CONTINUOUS
 70
0
 71
3
 72
21
 73
17
 74
0
 42
0.0000001
 43
0.0000001
 44
0.0000000001
 40
0.0
 40
0.0
 40
0.0
 40
0.0
 40
0.1273176984
 40
0.2537999461
 40
0.3167619614
 40
0.3795355204
 40
0.4421314992
 40
0.5045621453
 40
0.5668413456
 40
0.6289845231
 40
0.6910084433
 40
0.7529310869
 40
0.8147714401
 40
0.8765493236
 40
0.9382852134
 40
1.0
 40
1.0
 40
1.0
 40
1.0
 10
10.2304488569
 20
8.781067877
 30
0.0
 10
10.2304488569
 20
8.7878126851
 30
0.0
 10
10.231092694
 20
8.8012667245
 30
0.0
 10
10.2335242852
 20
8.8178988216
 30
0.0
 10
10.2364305523
 20
8.8309452452
 30
0.0
 10
10.2390809162
 20
8.8405682937
 30
0.0
 10
10.2421989109
 20
8.8500203454
 30
0.0
 10
10.2457773476
 20
8.85927988
 30
0.0
 10
10.2498079763
 20
8.8683254814
 30
0.0
 10
10.2542815842
 20
8.877136273
 30
0.0
 10
10.2591878223
 20
8.8856919445
 30
0.0
 10
10.2645153759
 20
8.8939727784
 30
0.0
 10
10.2702520104
 20
8.901959613
 30
0.0
 10
10.2763845316
 20
8.9096341055
 30
0.0
 10
10.2828985251
 20
8.9169783437
 30
0.0
 10
10.2874864178
 20
8.9216438363
 30
0.0
 10
10.2898379665
 20
8.9239152441
 30
0.0
  0
SPLINE
  5
3EE
100
AcDbEntity
  8
0
100
AcDbSpline
 62
7
  6
CONTINUOUS
 70
0
 71
3
 72
28
 73
24
 74
0
 42
0.0000001
 43
0.0000001
 44
0.0000000001
 40
0.0
 40
0.0
 40
0.0
 40
0.0
 40
0.0823350074
 40
0.1573666772
 40
0.2259841318
 40
0.289458783
 40
0.3196937033
 40
0.3491326841
 40
0.3779213865
 40
0.4061950046
 40
0.4340788199
 40
0.4616847218
 40
0.4891174095
 40
0.5164722592
 40
0.571276444
 40
0.5988917446
 40
0.6267387254
 40
0.6833756679
 40
0.7416743686
 40
0.802073601
 40
0.8649887336
 40
0.9308318396
 40
1.0
 40
1.0
 40
1.0
 40
1.0
 10
9.507503661
 20
7.9898768757
 30
0.0
 10
9.5107414064
 20
7.9898160468
 30
0.0
 10
9.5169293098
 20
7.9894314159
 30
0.0
 10
9.5257216261
 20
7.9880418316
 30
0.0
 10
9.5336183405
 20
7.9859881896
 30
0.0
 10
9.5396184818
 20
7.9837734767
 30
0.0
 10
9.5440253726
 20
7.9817597521
 30
0.0
 10
9.5471172483
 20
7.9801610791
 30
0.0
 10
9.5500621668
 20
7.9784549298
 30
0.0
 10
9.5528718097
 20
7.9766448593
 30
0.0
 10
9.5555575611
 20
7.9747349082
 30
0.0
 10
9.5581284326
 20
7.9727263271
 30
0.0
 10
9.5605933589
 20
7.9706209847
 30
0.0
 10
9.5637506695
 20
7.9676851486
 30
0.0
 10
9.5667288034
 20
7.9645517134
 30
0.0
 10
9.5695330015
 20
7.9612424255
 30
0.0
 10
9.5722577385
 20
7.9577750248
 30
0.0
 10
9.5754896034
 20
7.9531765538
 30
0.0
 10
9.5790766063
 20
7.9472815204
 30
0.0
 10
9.5824114881
 20
7.9409600579
 30
0.0
 10
9.5855033058
 20
7.9341890066
 30
0.0
 10
9.5883543806
 20
7.9269416513
 30
0.0
 10
9.5900474563
 20
7.9219060197
 30
0.0
 10
9.590854026
 20
7.9193078851
 30
0.0
  0
SPLINE
  5
3EF
100
AcDbEntity
  8
0
100
AcDbSpline
 62
7
  6
CONTINUOUS
 70
0
 71
3
 72
11
 73
7
 74
0
 42
0.0000001
 43
0.0000001
 44
0.0000000001
 40
0.0
 40
0.0
 40
0.0
 40
0.0
 40
0.2554047722
 40
0.5062080734
 40
0.7538921454
 40
1.0
 40
1.0
 40
1.0
 40
1.0
 10
13.6601550652
 20
7.8270868853
 30
0.0
 10
13.6592174087
 20
7.8268459672
 30
0.0
 10
13.6573403572
 20
7.8264374255
 30
0.0
 10
13.6545061198
 20
7.8260501342
 30
0.0
 10
13.6516849514
 20
7.8258951745
 30
0.0
 10
13.6498114245
 20
7.8259470839
 30
0.0
 10
13.648880787
 20
7.8260116183
 30
0.0
  0
SPLINE
  5
3F0
100
AcDbEntity
  8
0
100
AcDbSpline
 62
7
  6
CONTINUOUS
 70
0
 71
3
 72
52
 73
48
 74
0
 42
0.0000001
 43
0.0000001
 44
0.0000000001
 40
0.0
 40
0.0
 40
0.0
 40
0.0
 40
0.0095820836
 40
0.0187371377
 40
0.0274872859
 40
0.035859924
 40
0.0515978647
 40
0.059055626
 40
0.0662983938
 40
0.0733795814
 40
0.0803568578
 40
0.0872906927
 40
0.0942428037
 40
0.1012743544
 40
0.1084443122
 40
0.1158080167
 40
0.1234160681
 40
0.1313139295
 40
0.1395415473
 40
0.1481334816
 40
0.1571194366
 40
0.1665243504
 40
0.1763690736
 40
0.1866709548
 40
0.1974438974
 40
0.2086991325
 40
0.2204455065
 40
0.2326894857
 40
0.2454358603
 40
0.2586877194
 40
0.2724465183
 40
0.3014833613
 40
0.3325371839
 40
0.3655812995
 40
0.4005762791
 40
0.4374716875
 40
0.4762077832
 40
0.5167167149
 40
0.5589232708
 40
0.6027456718
 40
0.6480964027
 40
0.6948826884
 40
0.7430067899
 40
0.7923669955
 40
0.842857424
 40
0.8943680125
 40
1.0
 40
1.0
 40
1.0
 40
1.0
 10
13.2285830578
 20
6.9268005373
 30
0.0
 10
13.2278754598
 20
6.9261420235
 30
0.0
 10
13.2264608167
 20
6.9248869915
 30
0.0
 10
13.2242904165
 20
6.9231592038
 30
0.0
 10
13.2221219451
 20
6.9216312251
 30
0.0
 10
13.2192945824
 20
6.9198981842
 30
0.0
 10
13.2164101674
 20
6.9185144001
 30
0.0
 10
13.2134950816
 20
6.9175397167
 30
0.0
 10
13.2113555766
 20
6.9170260835
 30
0.0
 10
13.2092258299
 20
6.916717886
 30
0.0
 10
13.2071073655
 20
6.9166154735
 30
0.0
 10
13.2050019373
 20
6.9167191382
 30
0.0
 10
13.2029113341
 20
6.9170288973
 30
0.0
 10
13.2008372741
 20
6.9175442541
 30
0.0
 10
13.1987813657
 20
6.9182646323
 30
0.0
 10
13.1967450576
 20
6.9191892044
 30
0.0
 10
13.1947295572
 20
6.9203169155
 30
0.0
 10
13.1927360285
 20
6.9216468261
 30
0.0
 10
13.19076549
 20
6.9231778429
 30
0.0
 10
13.1888188799
 20
6.9249088335
 30
0.0
 10
13.1868972295
 20
6.9268387332
 30
0.0
 10
13.1850014591
 20
6.928966296
 30
0.0
 10
13.1831325297
 20
6.9312902458
 30
0.0
 10
13.1812914917
 20
6.9338092635
 30
0.0
 10
13.1794792763
 20
6.9365218374
 30
0.0
 10
13.1776969019
 20
6.9394264101
 30
0.0
 10
13.1759454122
 20
6.9425213161
 30
0.0
 10
13.1742257394
 20
6.9458047239
 30
0.0
 10
13.1725389222
 20
6.9492747385
 30
0.0
 10
13.1708859247
 20
6.9529293399
 30
0.0
 10
13.168688728
 20
6.9581393995
 30
0.0
 10
13.1660440403
 20
6.9651068004
 30
0.0
 10
13.1630745705
 20
6.97402266
 30
0.0
 10
13.1602618598
 20
6.983617022
 30
0.0
 10
13.1576126384
 20
6.9938672915
 30
0.0
 10
13.1551332429
 20
7.0047494626
 30
0.0
 10
13.1528296387
 20
7.0162378726
 30
0.0
 10
13.1507073981
 20
7.0283053913
 30
0.0
 10
13.1487716391
 20
7.0409234492
 30
0.0
 10
13.1470270156
 20
7.0540621298
 30
0.0
 10
13.1454777442
 20
7.0676902628
 30
0.0
 10
13.1441275833
 20
7.0817754861
 30
0.0
 10
13.1429797647
 20
7.096284351
 30
0.0
 10
13.1420370734
 20
7.1111823565
 30
0.0
 10
13.1413017737
 20
7.1264340697
 30
0.0
 10
13.1405944644
 20
7.1473679874
 30
0.0
 10
13.1403908903
 20
7.1632212727
 30
0.0
 10
13.1403908903
 20
7.1738770931
 30
0.0
  0
SPLINE
  5
3F1
100
AcDbEntity
  8
0
100
AcDbSpline
 62
7
  6
CONTINUOUS
 70
0
 71
3
 72
15
 73
11
 74
0
 42
0.0000001
 43
0.0000001
 44
0.0000000001
 40
0.0
 40
0.0
 40
0.0
 40
0.0
 40
0.1273483281
 40
0.2538605602
 40
0.3795878981
 40
0.5046051042
 40
0.6290174419
 40
0.7529533761
 40
0.876560577
 40
1.0
 40
1.0
 40
1.0
 40
1.0
 10
9.2804608306
 20
7.3381736205
 30
0.0
 10
9.2804608306
 20
7.3425007495
 30
0.0
 10
9.2808739843
 20
7.3511325805
 30
0.0
 10
9.2827424377
 20
7.3639143096
 30
0.0
 10
9.2858406435
 20
7.3763748793
 30
0.0
 10
9.2901406188
 20
7.38839776
 30
0.0
 10
9.2956029019
 20
7.3998720774
 30
0.0
 10
9.302177726
 20
7.4106918649
 30
0.0
 10
9.3098032544
 20
7.42075575
 30
0.0
 10
9.3155448928
 20
7.4269033354
 30
0.0
 10
9.3185616715
 20
7.4298173153
 30
0.0
  0
SPLINE
  5
3F2
100
AcDbEntity
  8
0
100
AcDbSpline
 62
7
  6
CONTINUOUS
 70
0
 71
3
 72
39
 73
35
 74
0
 42
0.0000001
 43
0.0000001
 44
0.0000000001
 40
0.0
 40
0.0
 40
0.0
 40
0.0
 40
0.0063160496
 40
0.0126710053
 40
0.0191030048
 40
0.0256487367
 40
0.0323427861
 40
0.039217295
 40
0.0536155191
 40
0.0690526933
 40
0.0856860708
 40
0.1036344562
 40
0.1229845698
 40
0.1437975453
 40
0.1661136391
 40
0.1899565658
 40
0.2153367352
 40
0.2422532615
 40
0.2706962878
 40
0.3006480884
 40
0.3320841399
 40
0.3649743143
 40
0.3992831008
 40
0.4349705058
 40
0.4719924753
 40
0.5103010104
 40
0.5498449059
 40
0.5905697156
 40
0.6324181087
 40
0.6753302621
 40
0.7192436886
 40
0.809812795
 40
0.903586429
 40
1.0
 40
1.0
 40
1.0
 40
1.0
 10
13.1735368414
 20
6.8878521676
 30
0.0
 10
13.1729030215
 20
6.8878961286
 30
0.0
 10
13.1716344742
 20
6.8880362078
 30
0.0
 10
13.1697458643
 20
6.8884012671
 30
0.0
 10
13.1678698737
 20
6.8889212918
 30
0.0
 10
13.1660076171
 20
6.8895959255
 30
0.0
 10
13.1641598192
 20
6.8904246744
 30
0.0
 10
13.1616786108
 20
6.891754712
 30
0.0
 10
13.1586083652
 20
6.8938257766
 30
0.0
 10
13.1550571051
 20
6.8968785959
 30
0.0
 10
13.1515849651
 20
6.9005302093
 30
0.0
 10
13.148195989
 20
6.9047738632
 30
0.0
 10
13.144893776
 20
6.9096028774
 30
0.0
 10
13.1416827441
 20
6.9150098551
 30
0.0
 10
13.1385673961
 20
6.9209864588
 30
0.0
 10
13.1355524302
 20
6.9275233818
 30
0.0
 10
13.132642621
 20
6.9346103265
 30
0.0
 10
13.1298425743
 20
6.9422359637
 30
0.0
 10
13.1271568927
 20
6.9503880313
 30
0.0
 10
13.1245899922
 20
6.9590533208
 30
0.0
 10
13.1221460795
 20
6.9682177218
 30
0.0
 10
13.1198292632
 20
6.9778662729
 30
0.0
 10
13.1176433563
 20
6.9879831679
 30
0.0
 10
13.1155920022
 20
6.9985518099
 30
0.0
 10
13.1136786481
 20
7.0095548376
 30
0.0
 10
13.1119064368
 20
7.0209741531
 30
0.0
 10
13.1102783573
 20
7.0327909617
 30
0.0
 10
13.1087971132
 20
7.0449858045
 30
0.0
 10
13.1074651574
 20
7.057538585
 30
0.0
 10
13.1062847255
 20
7.0704286298
 30
0.0
 10
13.1049013031
 20
7.0882198306
 30
0.0
 10
13.1035758816
 20
7.1111449637
 30
0.0
 10
13.1026292365
 20
7.1393732495
 30
0.0
 10
13.1024238041
 20
7.1585052902
 30
0.0
 10
13.1024238041
 20
7.1682037019
 30
0.0
  0
SPLINE
  5
3F3
100
AcDbEntity
  8
0
100
AcDbSpline
 62
7
  6
CONTINUOUS
 70
0
 71
3
 72
39
 73
35
 74
0
 42
0.0000001
 43
0.0000001
 44
0.0000000001
 40
0.0
 40
0.0
 40
0.0
 40
0.0
 40
0.0063160573
 40
0.0126710135
 40
0.0191030068
 40
0.0256487263
 40
0.0323427579
 40
0.0392172443
 40
0.0536154123
 40
0.0690525201
 40
0.0856858257
 40
0.1036341375
 40
0.1229841789
 40
0.1437970855
 40
0.1661131156
 40
0.189955985
 40
0.2153361042
 40
0.2422525882
 40
0.2706955804
 40
0.3006473555
 40
0.3320833901
 40
0.3649735564
 40
0.3992823435
 40
0.4349697575
 40
0.4719917444
 40
0.510300305
 40
0.5498442339
 40
0.5905690843
 40
0.6324175253
 40
0.6753297333
 40
0.7192432205
 40
0.8098124654
 40
0.9035862569
 40
1.0
 40
1.0
 40
1.0
 40
1.0
 10
11.9661298413
 20
6.9715861275
 30
0.0
 10
11.9654960191
 20
6.9716300785
 30
0.0
 10
11.9642274673
 20
6.9717701379
 30
0.0
 10
11.9623388492
 20
6.9721351687
 30
0.0
 10
11.9604628503
 20
6.9726551659
 30
0.0
 10
11.9586005854
 20
6.9733297731
 30
0.0
 10
11.9567527792
 20
6.9741584966
 30
0.0
 10
11.9542715599
 20
6.9754885009
 30
0.0
 10
11.9512012999
 20
6.9775595267
 30
0.0
 10
11.9476500223
 20
6.9806123049
 30
0.0
 10
11.9441778651
 20
6.9842638813
 30
0.0
 10
11.940788872
 20
6.9885075024
 30
0.0
 10
11.9374866423
 20
6.9933364879
 30
0.0
 10
11.934275594
 20
6.998743441
 30
0.0
 10
11.9311602297
 20
7.0047200241
 30
0.0
 10
11.9281452479
 20
7.0112569307
 30
0.0
 10
11.9252354231
 20
7.0183438629
 30
0.0
 10
11.9224353612
 20
7.0259694917
 30
0.0
 10
11.9197496648
 20
7.0341215548
 30
0.0
 10
11.91718275
 20
7.0427868437
 30
0.0
 10
11.9147388237
 20
7.051951248
 30
0.0
 10
11.9124219941
 20
7.0615998059
 30
0.0
 10
11.9102360748
 20
7.0717167115
 30
0.0
 10
11.9081847087
 20
7.0822853674
 30
0.0
 10
11.9062713435
 20
7.0932884125
 30
0.0
 10
11.9044991218
 20
7.1047077486
 30
0.0
 10
11.9028710326
 20
7.1165245809
 30
0.0
 10
11.9013897797
 20
7.1287194502
 30
0.0
 10
11.9000578159
 20
7.14127226
 30
0.0
 10
11.898877377
 20
7.1541623367
 30
0.0
 10
11.8974939462
 20
7.1719535845
 30
0.0
 10
11.8961685167
 20
7.1948787816
 30
0.0
 10
11.8952218658
 20
7.2231071491
 30
0.0
 10
11.8950164322
 20
7.2422392465
 30
0.0
 10
11.8950164322
 20
7.2519376875
 30
0.0
  0
SPLINE
  5
3F4
100
AcDbEntity
  8
0
100
AcDbSpline
 62
7
  6
CONTINUOUS
 70
0
 71
3
 72
15
 73
11
 74
0
 42
0.0000001
 43
0.0000001
 44
0.0000000001
 40
0.0
 40
0.0
 40
0.0
 40
0.0
 40
0.1273483281
 40
0.2538605602
 40
0.3795878981
 40
0.5046051042
 40
0.6290174419
 40
0.7529533761
 40
0.876560577
 40
1.0
 40
1.0
 40
1.0
 40
1.0
 10
9.2804608306
 20
9.0884312125
 30
0.0
 10
9.2804608306
 20
9.0927583415
 30
0.0
 10
9.2808739843
 20
9.1013901725
 30
0.0
 10
9.2827424377
 20
9.1141719016
 30
0.0
 10
9.2858406435
 20
9.1266324713
 30
0.0
 10
9.2901406188
 20
9.1386553521
 30
0.0
 10
9.2956029019
 20
9.1501296694
 30
0.0
 10
9.302177726
 20
9.1609494569
 30
0.0
 10
9.3098032544
 20
9.171013342
 30
0.0
 10
9.3155448928
 20
9.1771609274
 30
0.0
 10
9.3185616715
 20
9.1800749073
 30
0.0
  0
SPLINE
  5
3F5
100
AcDbEntity
  8
0
100
AcDbSpline
 62
7
  6
CONTINUOUS
 70
0
 71
3
 72
32
 73
28
 74
0
 42
0.0000001
 43
0.0000001
 44
0.0000000001
 40
0.0
 40
0.0
 40
0.0
 40
0.0
 40
0.0155786385
 40
0.0318149814
 40
0.0488724151
 40
0.0668780921
 40
0.0859220515
 40
0.1060630867
 40
0.1273356366
 40
0.1497562854
 40
0.1733281834
 40
0.1980460562
 40
0.223897967
 40
0.2508696008
 40
0.2789437337
 40
0.3081034437
 40
0.338331339
 40
0.3696107333
 40
0.4019258265
 40
0.435261304
 40
0.5049354318
 40
0.5785205921
 40
0.6559001577
 40
0.7369388949
 40
0.8214653394
 40
0.9092525098
 40
1.0
 40
1.0
 40
1.0
 40
1.0
 10
10.0970193903
 20
8.2152575111
 30
0.0
 10
10.0976346681
 20
8.2161278819
 30
0.0
 10
10.0987818416
 20
8.2179847058
 30
0.0
 10
10.100219442
 20
8.2210098276
 30
0.0
 10
10.1014165407
 20
8.2243142801
 30
0.0
 10
10.1023897889
 20
8.2278895884
 30
0.0
 10
10.1031567155
 20
8.2317292471
 30
0.0
 10
10.1037363627
 20
8.2358267276
 30
0.0
 10
10.1041475519
 20
8.2401761009
 30
0.0
 10
10.1044098194
 20
8.2447717195
 30
0.0
 10
10.1045422933
 20
8.2496084392
 30
0.0
 10
10.1045639854
 20
8.2546814831
 30
0.0
 10
10.1044937183
 20
8.2599865746
 30
0.0
 10
10.1043494981
 20
8.2655197916
 30
0.0
 10
10.104149462
 20
8.2712776735
 30
0.0
 10
10.1039106889
 20
8.2772570243
 30
0.0
 10
10.1036503446
 20
8.2834549664
 30
0.0
 10
10.1033849032
 20
8.2898687759
 30
0.0
 10
10.1031306593
 20
8.2964958424
 30
0.0
 10
10.1028233398
 20
8.3057496433
 30
0.0
 10
10.1025533032
 20
8.3178298274
 30
0.0
 10
10.1025333825
 20
8.332927291
 30
0.0
 10
10.1029378486
 20
8.3487980407
 30
0.0
 10
10.1038934651
 20
8.3653960277
 30
0.0
 10
10.1055286502
 20
8.3826576005
 30
0.0
 10
10.1079723812
 20
8.4004949821
 30
0.0
 10
10.1101919201
 20
8.4125128839
 30
0.0
 10
10.1114736847
 20
8.4185880555
 30
0.0
  0
SPLINE
  5
3F6
100
AcDbEntity
  8
0
100
AcDbSpline
 62
7
  6
CONTINUOUS
 70
0
 71
3
 72
37
 73
33
 74
0
 42
0.0000001
 43
0.0000001
 44
0.0000000001
 40
0.0
 40
0.0
 40
0.0
 40
0.0
 40
0.0071625887
 40
0.0146567607
 40
0.022490107
 40
0.0306687913
 40
0.0391978474
 40
0.0480811166
 40
0.0573209657
 40
0.0669185919
 40
0.0871863961
 40
0.1088789675
 40
0.1319780173
 40
0.156456023
 40
0.1822776672
 40
0.2094008171
 40
0.237777459
 40
0.2673543938
 40
0.2980737624
 40
0.3298734568
 40
0.3626876079
 40
0.3964469644
 40
0.4310791987
 40
0.4665091735
 40
0.5026592962
 40
0.5394498051
 40
0.6146219425
 40
0.6913554389
 40
0.7689602684
 40
0.8467363119
 40
0.9239811585
 40
1.0
 40
1.0
 40
1.0
 40
1.0
 10
7.8868887018
 20
9.5612689892
 30
0.0
 10
7.8860764076
 20
9.5604843731
 30
0.0
 10
7.8844528901
 20
9.5588383947
 30
0.0
 10
7.882073323
 20
9.5562079562
 30
0.0
 10
7.8796967427
 20
9.5533627212
 30
0.0
 10
7.8773247405
 20
9.5503045267
 30
0.0
 10
7.8749586005
 20
9.5470352037
 30
0.0
 10
7.8725997252
 20
9.5435566135
 30
0.0
 10
7.8702494192
 20
9.5398708082
 30
0.0
 10
7.8670710722
 20
9.5345865286
 30
0.0
 10
7.8631397036
 20
9.5274674375
 30
0.0
 10
7.8585603858
 20
9.5182853093
 30
0.0
 10
7.8540483128
 20
9.508336415
 30
0.0
 10
7.8496143412
 20
9.497644441
 30
0.0
 10
7.8452691593
 20
9.4862346788
 30
0.0
 10
7.8410232581
 20
9.4741343409
 30
0.0
 10
7.8368869109
 20
9.461372341
 30
0.0
 10
7.8328701379
 20
9.4479792331
 30
0.0
 10
7.828982679
 20
9.4339871286
 30
0.0
 10
7.8252339361
 20
9.4194296241
 30
0.0
 10
7.8216329826
 20
9.4043416985
 30
0.0
 10
7.8181885381
 20
9.3887596175
 30
0.0
 10
7.8149089443
 20
9.3727208494
 30
0.0
 10
7.8118021317
 20
9.3562639911
 30
0.0
 10
7.8088755741
 20
9.3394286186
 30
0.0
 10
7.8051971364
 20
9.3163659367
 30
0.0
 10
7.8011093127
 20
9.2868917718
 30
0.0
 10
7.7970558613
 20
9.2509279068
 30
0.0
 10
7.7938594359
 20
9.2144655854
 30
0.0
 10
7.7915508012
 20
9.1778555143
 30
0.0
 10
7.7901521628
 20
9.1414498321
 30
0.0
 10
7.78983164
 20
9.1172830667
 30
0.0
 10
7.78983164
 20
9.1052968546
 30
0.0
  0
SPLINE
  5
3F7
100
AcDbEntity
  8
0
100
AcDbSpline
 62
7
  6
CONTINUOUS
 70
0
 71
3
 72
11
 73
7
 74
0
 42
0.0000001
 43
0.0000001
 44
0.0000000001
 40
0.0
 40
0.0
 40
0.0
 40
0.0
 40
0.246203594
 40
0.4939436925
 40
0.7447268815
 40
1.0
 40
1.0
 40
1.0
 40
1.0
 10
13.7235987818
 20
8.9034238826
 30
0.0
 10
13.7245175884
 20
8.9033601686
 30
0.0
 10
13.7263565623
 20
8.9031566296
 30
0.0
 10
13.7290942933
 20
8.9026251724
 30
0.0
 10
13.731813412
 20
8.9018675739
 30
0.0
 10
13.7335941716
 20
8.9012189141
 30
0.0
 10
13.7344788053
 20
8.900859282
 30
0.0
  0
SPLINE
  5
3F8
100
AcDbEntity
  8
0
100
AcDbSpline
 62
7
  6
CONTINUOUS
 70
0
 71
3
 72
55
 73
51
 74
0
 42
0.0000001
 43
0.0000001
 44
0.0000000001
 40
0.0
 40
0.0
 40
0.0
 40
0.0
 40
0.0095825819
 40
0.0187371424
 40
0.0274870077
 40
0.0358597765
 40
0.0515981845
 40
0.0590560109
 40
0.0662987855
 40
0.0733799977
 40
0.0803572919
 40
0.0872911216
 40
0.0942431942
 40
0.1012746911
 40
0.1084445784
 40
0.115808164
 40
0.1234161365
 40
0.1313138569
 40
0.1395413357
 40
0.1481331538
 40
0.1571189369
 40
0.166523697
 40
0.176368282
 40
0.1866699867
 40
0.1974427542
 40
0.2086978719
 40
0.2204440349
 40
0.2326878727
 40
0.2454341107
 40
0.2586857537
 40
0.2724444547
 40
0.2867103953
 40
0.3014827497
 40
0.3167595002
 40
0.332537753
 40
0.3655816089
 40
0.4005762908
 40
0.4374714424
 40
0.4762073351
 40
0.5167160364
 40
0.5589223426
 40
0.6027445495
 40
0.6480951047
 40
0.6948811777
 40
0.7430051698
 40
0.792365118
 40
0.8428554393
 40
0.8943663173
 40
0.946786822
 40
1.0
 40
1.0
 40
1.0
 40
1.0
 10
13.3317593317
 20
8.8761697357
 30
0.0
 10
13.3329339007
 20
8.8772628954
 30
0.0
 10
13.3352819874
 20
8.8793462143
 30
0.0
 10
13.3388845908
 20
8.8822141476
 30
0.0
 10
13.3424838825
 20
8.8847504646
 30
0.0
 10
13.3471769859
 20
8.8876272943
 30
0.0
 10
13.3519648307
 20
8.8899244773
 30
0.0
 10
13.3568036109
 20
8.8915425525
 30
0.0
 10
13.3603549702
 20
8.8923952169
 30
0.0
 10
13.3638901205
 20
8.892906936
 30
0.0
 10
13.3674065598
 20
8.8930770929
 30
0.0
 10
13.3709013558
 20
8.8929050775
 30
0.0
 10
13.3743715598
 20
8.8923911166
 30
0.0
 10
13.3778142883
 20
8.8915357612
 30
0.0
 10
13.3812268756
 20
8.8903401017
 30
0.0
 10
13.3846069824
 20
8.8888055972
 30
0.0
 10
13.3879524714
 20
8.886933754
 30
0.0
 10
13.3912615594
 20
8.8847263955
 30
0.0
 10
13.3945324625
 20
8.8821851747
 30
0.0
 10
13.3977636193
 20
8.8793119907
 30
0.0
 10
13.4009533946
 20
8.8761086849
 30
0.0
 10
13.4041001842
 20
8.8725772486
 30
0.0
 10
13.4072024115
 20
8.8687198206
 30
0.0
 10
13.410258365
 20
8.8645386181
 30
0.0
 10
13.4132664811
 20
8.8600361255
 30
0.0
 10
13.4162250107
 20
8.8552149063
 30
0.0
 10
13.4191323562
 20
8.8500777916
 30
0.0
 10
13.4219868268
 20
8.8446277508
 30
0.0
 10
13.4247867713
 20
8.8388679619
 30
0.0
 10
13.427530602
 20
8.832801803
 30
0.0
 10
13.4302166456
 20
8.8264328111
 30
0.0
 10
13.4328434011
 20
8.8197647479
 30
0.0
 10
13.4354092372
 20
8.8128015246
 30
0.0
 10
13.437912719
 20
8.8055472494
 30
0.0
 10
13.4412164404
 20
8.7953347037
 30
0.0
 10
13.4451655155
 20
8.7818638051
 30
0.0
 10
13.4495629977
 20
8.7648496509
 30
0.0
 10
13.4536785573
 20
8.7467864419
 30
0.0
 10
13.4575023091
 20
8.727716964
 30
0.0
 10
13.4610250288
 20
8.7076862128
 30
0.0
 10
13.46423822
 20
8.6867416247
 30
0.0
 10
13.4671341279
 20
8.6649328417
 30
0.0
 10
13.4697057632
 20
8.6423116103
 30
0.0
 10
13.4719469181
 20
8.6189316411
 30
0.0
 10
13.4738521819
 20
8.5948484864
 30
0.0
 10
13.475416965
 20
8.570119359
 30
0.0
 10
13.4766374648
 20
8.5448031253
 30
0.0
 10
13.4775107683
 20
8.5189598043
 30
0.0
 10
13.4780346977
 20
8.4926511087
 30
0.0
 10
13.4781494701
 20
8.474962998
 30
0.0
 10
13.4781494701
 20
8.4660526963
 30
0.0
  0
SPLINE
  5
3F9
100
AcDbEntity
  8
0
100
AcDbSpline
 62
7
  6
CONTINUOUS
 70
0
 71
3
 72
40
 73
36
 74
0
 42
0.0000001
 43
0.0000001
 44
0.0000000001
 40
0.0
 40
0.0
 40
0.0
 40
0.0
 40
0.0063160361
 40
0.012670985
 40
0.0191029768
 40
0.0256486774
 40
0.0323427276
 40
0.0392172367
 40
0.0536154166
 40
0.0690525603
 40
0.0856859191
 40
0.1036342594
 40
0.1229843618
 40
0.1437972644
 40
0.1661133339
 40
0.1899562493
 40
0.2153363101
 40
0.2422528294
 40
0.2706958154
 40
0.300647514
 40
0.3320835523
 40
0.3649736548
 40
0.3992823678
 40
0.4349697243
 40
0.471991612
 40
0.5103000984
 40
0.5498439005
 40
0.5905686402
 40
0.6324169852
 40
0.6753290134
 40
0.7192424156
 40
0.7640925682
 40
0.8098130079
 40
0.9035867219
 40
1.0
 40
1.0
 40
1.0
 40
1.0
 10
13.3377796319
 20
8.8640855109
 30
0.0
 10
13.3386923331
 20
8.864022219
 30
0.0
 10
13.340519047
 20
8.8638205439
 30
0.0
 10
13.343238639
 20
8.8632948111
 30
0.0
 10
13.3459400562
 20
8.8625459578
 30
0.0
 10
13.3486217265
 20
8.861574542
 30
0.0
 10
13.3512825419
 20
8.8603811077
 30
0.0
 10
13.3548554752
 20
8.858465842
 30
0.0
 10
13.3592766433
 20
8.8554835328
 30
0.0
 10
13.3643904557
 20
8.8510874701
 30
0.0
 10
13.3693903274
 20
8.8458291394
 30
0.0
 10
13.3742704696
 20
8.8397182863
 30
0.0
 10
13.3790256329
 20
8.832764494
 30
0.0
 10
13.3836495437
 20
8.8249784607
 30
0.0
 10
13.3881356367
 20
8.8163721438
 30
0.0
 10
13.3924771673
 20
8.8069589684
 30
0.0
 10
13.3966673293
 20
8.7967537814
 30
0.0
 10
13.4006993716
 20
8.7857728555
 30
0.0
 10
13.4045667497
 20
8.7740338767
 30
0.0
 10
13.4082631109
 20
8.7615558656
 30
0.0
 10
13.4117823208
 20
8.7483591239
 30
0.0
 10
13.4151185463
 20
8.73446521
 30
0.0
 10
13.418266256
 20
8.7198968828
 30
0.0
 10
13.4212201966
 20
8.7046780381
 30
0.0
 10
13.4239754378
 20
8.6888336768
 30
0.0
 10
13.4265274093
 20
8.6723898627
 30
0.0
 10
13.428871854
 20
8.655373659
 30
0.0
 10
13.4310048469
 20
8.6378130852
 30
0.0
 10
13.4329228503
 20
8.6197370771
 30
0.0
 10
13.4346226731
 20
8.6011754271
 30
0.0
 10
13.4361014564
 20
8.5821587442
 30
0.0
 10
13.4373567753
 20
8.5627183489
 30
0.0
 10
13.4387413125
 20
8.5360509463
 30
0.0
 10
13.4398865272
 20
8.5018950319
 30
0.0
 10
13.4401824061
 20
8.4743450041
 30
0.0
 10
13.4401824061
 20
8.4603793083
 30
0.0
  0
SPLINE
  5
3FA
100
AcDbEntity
  8
0
100
AcDbSpline
 62
7
  6
CONTINUOUS
 70
0
 71
3
 72
39
 73
35
 74
0
 42
0.0000001
 43
0.0000001
 44
0.0000000001
 40
0.0
 40
0.0
 40
0.0
 40
0.0
 40
0.0253492201
 40
0.0497970281
 40
0.0733025449
 40
0.0958450942
 40
0.117428168
 40
0.1380884233
 40
0.1579078638
 40
0.177022645
 40
0.1956326669
 40
0.2140060845
 40
0.2324690461
 40
0.2513892938
 40
0.2711440444
 40
0.2920913707
 40
0.3145453953
 40
0.3387618275
 40
0.3649355103
 40
0.3932003433
 40
0.423638243
 40
0.4562837911
 40
0.4911351362
 40
0.5281586193
 40
0.5672984282
 40
0.6084801044
 40
0.6516172802
 40
0.6966154087
 40
0.7433740823
 40
0.7917914677
 40
0.8417641195
 40
0.8931897147
 40
0.9459679357
 40
1.0
 40
1.0
 40
1.0
 40
1.0
 10
10.7966925794
 20
8.3287234665
 30
0.0
 10
10.7970246392
 20
8.3279240046
 30
0.0
 10
10.7977236176
 20
8.326372284
 30
0.0
 10
10.7988997099
 20
8.3241603454
 30
0.0
 10
10.8001803319
 20
8.322119062
 30
0.0
 10
10.8015606132
 20
8.3202639172
 30
0.0
 10
10.8030349545
 20
8.3186099845
 30
0.0
 10
10.8045977679
 20
8.3171725492
 30
0.0
 10
10.8062433259
 20
8.3159670812
 30
0.0
 10
10.8079654231
 20
8.31500877
 30
0.0
 10
10.8097576477
 20
8.3143135786
 30
0.0
 10
10.8116120612
 20
8.3138959014
 30
0.0
 10
10.8135197632
 20
8.3137698752
 30
0.0
 10
10.8154708375
 20
8.3139449211
 30
0.0
 10
10.8174559115
 20
8.3144285002
 30
0.0
 10
10.8194676942
 20
8.3152225975
 30
0.0
 10
10.8215005426
 20
8.3163283964
 30
0.0
 10
10.8235515078
 20
8.3177431567
 30
0.0
 10
10.8256182328
 20
8.3194636694
 30
0.0
 10
10.8277004757
 20
8.3214833924
 30
0.0
 10
10.8297981296
 20
8.3237947468
 30
0.0
 10
10.8319129513
 20
8.3263873654
 30
0.0
 10
10.8340467873
 20
8.32924986
 30
0.0
 10
10.8362032175
 20
8.3323687874
 30
0.0
 10
10.8383857011
 20
8.335730221
 30
0.0
 10
10.8405992276
 20
8.3393188974
 30
0.0
 10
10.8428485042
 20
8.3431195854
 30
0.0
 10
10.8451391856
 20
8.3471164652
 30
0.0
 10
10.8474768849
 20
8.3512938849
 30
0.0
 10
10.8498672923
 20
8.3556363042
 30
0.0
 10
10.8523162913
 20
8.3601283294
 30
0.0
 10
10.8548294518
 20
8.3647549786
 30
0.0
 10
10.8574121265
 20
8.36950163
 30
0.0
 10
10.8591643183
 20
8.3727008208
 30
0.0
 10
10.8600542955
 20
8.3743172127
 30
0.0
  0
SPLINE
  5
3FB
100
AcDbEntity
  8
0
100
AcDbSpline
 62
7
  6
CONTINUOUS
 70
0
 71
3
 72
15
 73
11
 74
0
 42
0.0000001
 43
0.0000001
 44
0.0000000001
 40
0.0
 40
0.0
 40
0.0
 40
0.0
 40
0.1273483281
 40
0.2538605602
 40
0.3795878981
 40
0.5046051042
 40
0.6290174419
 40
0.7529533761
 40
0.876560577
 40
1.0
 40
1.0
 40
1.0
 40
1.0
 10
11.3330534483
 20
7.195825839
 30
0.0
 10
11.3330534483
 20
7.200152968
 30
0.0
 10
11.333466602
 20
7.208784799
 30
0.0
 10
11.3353350553
 20
7.221566528
 30
0.0
 10
11.3384332612
 20
7.2340270978
 30
0.0
 10
11.3427332365
 20
7.2460499785
 30
0.0
 10
11.3481955195
 20
7.2575242959
 30
0.0
 10
11.3547703436
 20
7.2683440833
 30
0.0
 10
11.3623958721
 20
7.2784079685
 30
0.0
 10
11.3681375104
 20
7.2845555539
 30
0.0
 10
11.3711542891
 20
7.2874695338
 30
0.0
  0
SPLINE
  5
3FC
100
AcDbEntity
  8
0
100
AcDbSpline
 62
7
  6
CONTINUOUS
 70
0
 71
3
 72
51
 73
47
 74
0
 42
0.0000001
 43
0.0000001
 44
0.0000000001
 40
0.0
 40
0.0
 40
0.0
 40
0.0
 40
0.0053769891
 40
0.0108200889
 40
0.0163928368
 40
0.0221540886
 40
0.0344342525
 40
0.0410500032
 40
0.0480245107
 40
0.0553844764
 40
0.0631514814
 40
0.0713426172
 40
0.0799711848
 40
0.0890471962
 40
0.0985778991
 40
0.1085681328
 40
0.1190206916
 40
0.1299365723
 40
0.1413152152
 40
0.1531546828
 40
0.1654518125
 40
0.1782023553
 40
0.1914010647
 40
0.2050418156
 40
0.2191176457
 40
0.2336208658
 40
0.2485430663
 40
0.2796069568
 40
0.3122309025
 40
0.3463272317
 40
0.3818008704
 40
0.4185501867
 40
0.4564677329
 40
0.4954409182
 40
0.5353526324
 40
0.5760818364
 40
0.6175041295
 40
0.6594923009
 40
0.7019168705
 40
0.7446466218
 40
0.787549133
 40
0.8304912969
 40
0.8733398638
 40
0.9159619161
 40
0.9582255157
 40
1.0
 40
1.0
 40
1.0
 40
1.0
 10
13.2630608422
 20
7.7866733126
 30
0.0
 10
13.2643544275
 20
7.786583608
 30
0.0
 10
13.2669704044
 20
7.786553717
 30
0.0
 10
13.2709105668
 20
7.7869604283
 30
0.0
 10
13.2748729537
 20
7.787817081
 30
0.0
 10
13.2802924082
 20
7.7895933871
 30
0.0
 10
13.2856428588
 20
7.7922713534
 30
0.0
 10
13.2908614639
 20
7.7956956271
 30
0.0
 10
13.2948797093
 20
7.7987656554
 30
0.0
 10
13.2988998854
 20
7.8022698302
 30
0.0
 10
13.3029201534
 20
7.8062057065
 30
0.0
 10
13.3069373433
 20
7.8105698945
 30
0.0
 10
13.3109485128
 20
7.8153589401
 30
0.0
 10
13.314950582
 20
7.8205689747
 30
0.0
 10
13.3189404049
 20
7.8261958311
 30
0.0
 10
13.3229148201
 20
7.8322349676
 30
0.0
 10
13.3268706175
 20
7.8386815074
 30
0.0
 10
13.3308045937
 20
7.8455302137
 30
0.0
 10
13.3347135301
 20
7.852775511
 30
0.0
 10
13.3385942212
 20
7.8604114798
 30
0.0
 10
13.3424434733
 20
7.8684318681
 30
0.0
 10
13.3462581067
 20
7.876830096
 30
0.0
 10
13.3500349745
 20
7.8855992615
 30
0.0
 10
13.353770945
 20
7.8947321509
 30
0.0
 10
13.3574629273
 20
7.9042212378
 30
0.0
 10
13.3611078801
 20
7.9140587107
 30
0.0
 10
13.3659662042
 20
7.9278137531
 30
0.0
 10
13.3718865105
 20
7.9458256532
 30
0.0
 10
13.3786649122
 20
7.968414062
 30
0.0
 10
13.385186527
 20
7.9921823892
 30
0.0
 10
13.3914296338
 20
8.0170521348
 30
0.0
 10
13.3973734216
 20
8.0429413079
 30
0.0
 10
13.4029980952
 20
8.0697644171
 30
0.0
 10
13.40828493
 20
8.0974328538
 30
0.0
 10
13.4132163366
 20
8.1258551725
 30
0.0
 10
13.4177759165
 20
8.1549374081
 30
0.0
 10
13.421948516
 20
8.1845833914
 30
0.0
 10
13.4257202747
 20
8.2146950722
 30
0.0
 10
13.4290786711
 20
8.2451728481
 30
0.0
 10
13.4320125629
 20
8.2759158971
 30
0.0
 10
13.4345122234
 20
8.306822512
 30
0.0
 10
13.4365693745
 20
8.3377904459
 30
0.0
 10
13.438177211
 20
8.3687172321
 30
0.0
 10
13.4393304302
 20
8.3995005891
 30
0.0
 10
13.4400252365
 20
8.4300385669
 30
0.0
 10
13.4401824061
 20
8.450305151
 30
0.0
 10
13.4401824061
 20
8.4603793083
 30
0.0
  0
SPLINE
  5
3FD
100
AcDbEntity
  8
0
100
AcDbSpline
 62
4
  6
CONTINUOUS
 70
0
 71
3
 72
289
 73
285
 74
0
 42
0.0000001
 43
0.0000001
 44
0.0000000001
 40
0.0
 40
0.0
 40
0.0
 40
0.0
 40
0.015625
 40
0.0234375
 40
0.03125
 40
0.0390625
 40
0.046875
 40
0.05078125
 40
0.0546875
 40
0.056640625
 40
0.05859375
 40
0.060546875
 40
0.0615234375
 40
0.0620117188
 40
0.0625
 40
0.0629882812
 40
0.0634765625
 40
0.064453125
 40
0.06640625
 40
0.068359375
 40
0.0703125
 40
0.07421875
 40
0.078125
 40
0.0859375
 40
0.09375
 40
0.1015625
 40
0.109375
 40
0.11328125
 40
0.1171875
 40
0.119140625
 40
0.12109375
 40
0.123046875
 40
0.1240234375
 40
0.1245117188
 40
0.125
 40
0.1254882812
 40
0.1259765625
 40
0.126953125
 40
0.12890625
 40
0.130859375
 40
0.1328125
 40
0.13671875
 40
0.140625
 40
0.1484375
 40
0.15625
 40
0.1640625
 40
0.171875
 40
0.17578125
 40
0.1796875
 40
0.181640625
 40
0.18359375
 40
0.185546875
 40
0.1865234375
 40
0.1870117188
 40
0.1875
 40
0.1879882812
 40
0.1884765625
 40
0.189453125
 40
0.19140625
 40
0.193359375
 40
0.1953125
 40
0.19921875
 40
0.203125
 40
0.2109375
 40
0.21875
 40
0.2265625
 40
0.234375
 40
0.23828125
 40
0.2421875
 40
0.244140625
 40
0.24609375
 40
0.248046875
 40
0.2490234375
 40
0.2495117188
 40
0.25
 40
0.2504882812
 40
0.2509765625
 40
0.251953125
 40
0.25390625
 40
0.255859375
 40
0.2578125
 40
0.26171875
 40
0.265625
 40
0.2734375
 40
0.28125
 40
0.2890625
 40
0.296875
 40
0.30078125
 40
0.3046875
 40
0.306640625
 40
0.30859375
 40
0.310546875
 40
0.3115234375
 40
0.3120117188
 40
0.3125
 40
0.3129882812
 40
0.3134765625
 40
0.314453125
 40
0.31640625
 40
0.318359375
 40
0.3203125
 40
0.32421875
 40
0.328125
 40
0.3359375
 40
0.34375
 40
0.3515625
 40
0.359375
 40
0.36328125
 40
0.3671875
 40
0.369140625
 40
0.37109375
 40
0.373046875
 40
0.3740234375
 40
0.3745117188
 40
0.375
 40
0.3754882812
 40
0.3759765625
 40
0.376953125
 40
0.37890625
 40
0.380859375
 40
0.3828125
 40
0.38671875
 40
0.390625
 40
0.3984375
 40
0.40625
 40
0.4140625
 40
0.421875
 40
0.42578125
 40
0.4296875
 40
0.431640625
 40
0.43359375
 40
0.435546875
 40
0.4365234375
 40
0.4375
 40
0.4384765625
 40
0.439453125
 40
0.44140625
 40
0.443359375
 40
0.4453125
 40
0.44921875
 40
0.453125
 40
0.4609375
 40
0.46875
 40
0.4765625
 40
0.484375
 40
0.48828125
 40
0.4921875
 40
0.49609375
 40
0.498046875
 40
0.4990234375
 40
0.5
 40
0.5009765625
 40
0.501953125
 40
0.50390625
 40
0.5078125
 40
0.51171875
 40
0.515625
 40
0.5234375
 40
0.53125
 40
0.5390625
 40
0.546875
 40
0.5546875
 40
0.55859375
 40
0.560546875
 40
0.5625
 40
0.564453125
 40
0.56640625
 40
0.5703125
 40
0.578125
 40
0.5859375
 40
0.59375
 40
0.6015625
 40
0.609375
 40
0.61328125
 40
0.6171875
 40
0.62109375
 40
0.623046875
 40
0.625
 40
0.626953125
 40
0.62890625
 40
0.6328125
 40
0.63671875
 40
0.640625
 40
0.6484375
 40
0.65625
 40
0.6640625
 40
0.671875
 40
0.67578125
 40
0.6796875
 40
0.68359375
 40
0.685546875
 40
0.6865234375
 40
0.6875
 40
0.6884765625
 40
0.689453125
 40
0.69140625
 40
0.6953125
 40
0.69921875
 40
0.703125
 40
0.7109375
 40
0.71875
 40
0.7265625
 40
0.734375
 40
0.73828125
 40
0.7421875
 40
0.744140625
 40
0.74609375
 40
0.748046875
 40
0.7490234375
 40
0.7495117188
 40
0.75
 40
0.7504882812
 40
0.7509765625
 40
0.751953125
 40
0.75390625
 40
0.755859375
 40
0.7578125
 40
0.76171875
 40
0.765625
 40
0.7734375
 40
0.78125
 40
0.7890625
 40
0.796875
 40
0.80078125
 40
0.8046875
 40
0.806640625
 40
0.80859375
 40
0.810546875
 40
0.8115234375
 40
0.8120117188
 40
0.8125
 40
0.8129882812
 40
0.8134765625
 40
0.814453125
 40
0.81640625
 40
0.818359375
 40
0.8203125
 40
0.82421875
 40
0.828125
 40
0.8359375
 40
0.84375
 40
0.8515625
 40
0.859375
 40
0.86328125
 40
0.8671875
 40
0.869140625
 40
0.87109375
 40
0.873046875
 40
0.8740234375
 40
0.8745117188
 40
0.875
 40
0.8754882812
 40
0.8759765625
 40
0.876953125
 40
0.87890625
 40
0.880859375
 40
0.8828125
 40
0.88671875
 40
0.890625
 40
0.8984375
 40
0.90625
 40
0.9140625
 40
0.921875
 40
0.92578125
 40
0.9296875
 40
0.931640625
 40
0.93359375
 40
0.935546875
 40
0.9365234375
 40
0.9370117188
 40
0.9375
 40
0.9379882812
 40
0.9384765625
 40
0.939453125
 40
0.94140625
 40
0.943359375
 40
0.9453125
 40
0.94921875
 40
0.953125
 40
0.9609375
 40
0.96875
 40
0.9765625
 40
0.984375
 40
1.0
 40
1.0
 40
1.0
 40
1.0
 10
10.2071878649
 20
9.7851593247
 30
0.0
 10
10.2066555424
 20
9.7843270917
 30
0.0
 10
10.2058570584
 20
9.7830787422
 30
0.0
 10
10.2047924141
 20
9.7814142763
 30
0.0
 10
10.2039939283
 20
9.7801659268
 30
0.0
 10
10.2031954523
 20
9.7789175772
 30
0.0
 10
10.2025300251
 20
9.7778772864
 30
0.0
 10
10.2019977518
 20
9.7770450526
 30
0.0
 10
10.201664925
 20
9.7765249091
 30
0.0
 10
10.2013990208
 20
9.7761087882
 30
0.0
 10
10.2011986144
 20
9.7757967144
 30
0.0
 10
10.2010347212
 20
9.7755365993
 30
0.0
 10
10.2009138885
 20
9.7753546238
 30
0.0
 10
10.2008543775
 20
9.7752504738
 30
0.0
 10
10.2007828806
 20
9.7751728231
 30
0.0
 10
10.2008140701
 20
9.7750934072
 30
0.0
 10
10.2008198379
 20
9.7749881351
 30
0.0
 10
10.2008466199
 20
9.7748036219
 30
0.0
 10
10.2008761552
 20
9.7745401817
 30
0.0
 10
10.2009153319
 20
9.7742239893
 30
0.0
 10
10.2009662633
 20
9.7738024217
 30
0.0
 10
10.201030374
 20
9.7732754546
 30
0.0
 10
10.2011327016
 20
9.7724323116
 30
0.0
 10
10.2012606973
 20
9.7713783814
 30
0.0
 10
10.2014142527
 20
9.7701136656
 30
0.0
 10
10.2015678277
 20
9.76884895
 30
0.0
 10
10.2016957742
 20
9.7677950193
 30
0.0
 10
10.2017982
 20
9.7669518771
 30
0.0
 10
10.2018620611
 20
9.766424908
 30
0.0
 10
10.201913505
 20
9.7660033446
 30
0.0
 10
10.2019511157
 20
9.7656871394
 30
0.0
 10
10.2019855509
 20
9.7654237391
 30
0.0
 10
10.2020035856
 20
9.7652391548
 30
0.0
 10
10.2020233688
 20
9.7651339966
 30
0.0
 10
10.2020115076
 20
9.7650542305
 30
0.0
 10
10.202101702
 20
9.764977895
 30
0.0
 10
10.202186363
 20
9.7648749177
 30
0.0
 10
10.2023511055
 20
9.764695265
 30
0.0
 10
10.2025777808
 20
9.7644383267
 30
0.0
 10
10.2028535027
 20
9.7641301256
 30
0.0
 10
10.2032198355
 20
9.7637191471
 30
0.0
 10
10.2036781954
 20
9.763205439
 30
0.0
 10
10.204411323
 20
9.7623834977
 30
0.0
 10
10.2053278183
 20
9.7613560739
 30
0.0
 10
10.2064275735
 20
9.7601231639
 30
0.0
 10
10.2075273483
 20
9.7588902549
 30
0.0
 10
10.2084437946
 20
9.7578628288
 30
0.0
 10
10.2091770203
 20
9.7570408921
 30
0.0
 10
10.209635131
 20
9.756527172
 30
0.0
 10
10.2100019753
 20
9.7561162182
 30
0.0
 10
10.2102761345
 20
9.755807942
 30
0.0
 10
10.210507699
 20
9.7555512385
 30
0.0
 10
10.2106637134
 20
9.7553711666
 30
0.0
 10
10.2107623591
 20
9.7552688609
 30
0.0
 10
10.2108095969
 20
9.7551904626
 30
0.0
 10
10.2109590734
 20
9.755118444
 30
0.0
 10
10.2111227134
 20
9.7550201938
 30
0.0
 10
10.2114256989
 20
9.7548492929
 30
0.0
 10
10.2118498486
 20
9.7546046066
 30
0.0
 10
10.2123625465
 20
9.7543112151
 30
0.0
 10
10.2130448449
 20
9.7539199454
 30
0.0
 10
10.2138981627
 20
9.753430886
 30
0.0
 10
10.2152632224
 20
9.7526483755
 30
0.0
 10
10.216969633
 20
9.7516702427
 30
0.0
 10
10.2190172867
 20
9.7504964807
 30
0.0
 10
10.2210649586
 20
9.7493227209
 30
0.0
 10
10.2227713239
 20
9.7483445828
 30
0.0
 10
10.2241364741
 20
9.7475620829
 30
0.0
 10
10.2249895621
 20
9.7470729966
 30
0.0
 10
10.2256723321
 20
9.746681782
 30
0.0
 10
10.2261835893
 20
9.7463882222
 30
0.0
 10
10.2266122464
 20
9.7461440627
 30
0.0
 10
10.2269071854
 20
9.7459722214
 30
0.0
 10
10.227083718
 20
9.7458754779
 30
0.0
 10
10.2271935926
 20
9.7457988313
 30
0.0
 10
10.2273895684
 20
9.7457378147
 30
0.0
 10
10.2276208364
 20
9.7456510074
 30
0.0
 10
10.2280395484
 20
9.7455016347
 30
0.0
 10
10.2286303928
 20
9.7452869171
 30
0.0
 10
10.2293425373
 20
9.7450298244
 30
0.0
 10
10.2302909696
 20
9.7446868357
 30
0.0
 10
10.2314768845
 20
9.7442581677
 30
0.0
 10
10.233374139
 20
9.7435722609
 30
0.0
 10
10.2357457794
 20
9.7427148906
 30
0.0
 10
10.238591715
 20
9.7416860401
 30
0.0
 10
10.2414376664
 20
9.7406571928
 30
0.0
 10
10.2438092675
 20
9.7397998145
 30
0.0
 10
10.2457066005
 20
9.7391139237
 30
0.0
 10
10.2468923159
 20
9.7386852152
 30
0.0
 10
10.2478411577
 20
9.7383423095
 30
0.0
 10
10.2485520513
 20
9.7380849631
 30
0.0
 10
10.2491468094
 20
9.7378710394
 30
0.0
 10
10.2495585346
 20
9.7377202494
 30
0.0
 10
10.2498009972
 20
9.737635713
 30
0.0
 10
10.249962587
 20
9.7375677208
 30
0.0
 10
10.2502016098
 20
9.7375172734
 30
0.0
 10
10.2504932974
 20
9.7374438903
 30
0.0
 10
10.2510163348
 20
9.7373183213
 30
0.0
 10
10.251756952
 20
9.7371374462
 30
0.0
 10
10.2526485088
 20
9.7369210342
 30
0.0
 10
10.2538362675
 20
9.736632262
 30
0.0
 10
10.2553213027
 20
9.7362713731
 30
0.0
 10
10.2576971707
 20
9.7356939082
 30
0.0
 10
10.2606670707
 20
9.7349720918
 30
0.0
 10
10.2642309213
 20
9.7341059052
 30
0.0
 10
10.2677947854
 20
9.7332397224
 30
0.0
 10
10.2707646518
 20
9.7325178967
 30
0.0
 10
10.2731405871
 20
9.7319404503
 30
0.0
 10
10.2746254512
 20
9.7315795143
 30
0.0
 10
10.275813561
 20
9.7312908389
 30
0.0
 10
10.2767040452
 20
9.7310741312
 30
0.0
 10
10.2774480183
 20
9.7308941811
 30
0.0
 10
10.2779650649
 20
9.7307669609
 30
0.0
 10
10.2782663514
 20
9.7306962234
 30
0.0
 10
10.2784758894
 20
9.7306376496
 30
0.0
 10
10.2787482191
 20
9.7306001789
 30
0.0
 10
10.2790894229
 20
9.730542857
 30
0.0
 10
10.2796967343
 20
9.7304459733
 30
0.0
 10
10.2805589869
 20
9.7303057749
 30
0.0
 10
10.2815959736
 20
9.7301383043
 30
0.0
 10
10.2829778249
 20
9.7299147422
 30
0.0
 10
10.2847054121
 20
9.7296353813
 30
0.0
 10
10.2874693992
 20
9.7291883526
 30
0.0
 10
10.2909244345
 20
9.728629584
 30
0.0
 10
10.2950704585
 20
9.7279590558
 30
0.0
 10
10.2992164737
 20
9.7272885234
 30
0.0
 10
10.3026715311
 20
9.7267297654
 30
0.0
 10
10.305435474
 20
9.7262827154
 30
0.0
 10
10.3071631735
 20
9.7260034087
 30
0.0
 10
10.3085447944
 20
9.7257797354
 30
0.0
 10
10.309582485
 20
9.7256126046
 30
0.0
 10
10.3104425354
 20
9.7254713431
 30
0.0
 10
10.3111410985
 20
9.7253627878
 30
0.0
 10
10.3116362674
 20
9.7252692011
 30
0.0
 10
10.3122411885
 20
9.7252220685
 30
0.0
 10
10.3130094121
 20
9.7251429981
 30
0.0
 10
10.313982845
 20
9.7250497274
 30
0.0
 10
10.3151453345
 20
9.7249354196
 30
0.0
 10
10.3166972869
 20
9.7247838415
 30
0.0
 10
10.3186365541
 20
9.7245940839
 30
0.0
 10
10.3217397578
 20
9.7242906309
 30
0.0
 10
10.3256186344
 20
9.7239112615
 30
0.0
 10
10.3302733367
 20
9.7234560343
 30
0.0
 10
10.3349280423
 20
9.7230008278
 30
0.0
 10
10.3388069105
 20
9.7226214069
 30
0.0
 10
10.3419101311
 20
9.7223180569
 30
0.0
 10
10.3442372002
 20
9.7220900335
 30
0.0
 10
10.3461775264
 20
9.7219016391
 30
0.0
 10
10.3475335921
 20
9.7217665739
 30
0.0
 10
10.3483118636
 20
9.7216943733
 30
0.0
 10
10.3488860548
 20
9.7216261955
 30
0.0
 10
10.3494966074
 20
9.7216116371
 30
0.0
 10
10.3502979943
 20
9.7215735229
 30
0.0
 10
10.3517063308
 20
9.7215155371
 30
0.0
 10
10.3537151505
 20
9.7214281444
 30
0.0
 10
10.3561270567
 20
9.7213252236
 30
0.0
 10
10.3593424691
 20
9.7211873123
 30
0.0
 10
10.3633618974
 20
9.7210151736
 30
0.0
 10
10.3681851238
 20
9.7208084307
 30
0.0
 10
10.3730084399
 20
9.7206019931
 30
0.0
 10
10.3778314848
 20
9.7203945104
 30
0.0
 10
10.3818515182
 20
9.7202248375
 30
0.0
 10
10.3846639186
 20
9.7200997422
 30
0.0
 10
10.3862735381
 20
9.7200381319
 30
0.0
 10
10.3874736156
 20
9.7199641129
 30
0.0
 10
10.3887009748
 20
9.7199964026
 30
0.0
 10
10.3903279375
 20
9.7200023739
 30
0.0
 10
10.3931795561
 20
9.7200301008
 30
0.0
 10
10.3972509779
 20
9.7200606776
 30
0.0
 10
10.4021376809
 20
9.7201012374
 30
0.0
 10
10.4070241074
 20
9.7201407794
 30
0.0
 10
10.4119106429
 20
9.7201805252
 30
0.0
 10
10.415982623
 20
9.7202138153
 30
0.0
 10
10.4192404713
 20
9.7202399409
 30
0.0
 10
10.4216831444
 20
9.7202609535
 30
0.0
 10
10.4237209724
 20
9.7202739468
 30
0.0
 10
10.4253461504
 20
9.7202944736
 30
0.0
 10
10.426578927
 20
9.7202821826
 30
0.0
 10
10.4277586732
 20
9.72037557
 30
0.0
 10
10.4293501924
 20
9.7204631717
 30
0.0
 10
10.4313332359
 20
9.7205853391
 30
0.0
 10
10.4337156083
 20
9.7207265188
 30
0.0
 10
10.4368911549
 20
9.7209166519
 30
0.0
 10
10.4408609127
 20
9.7211536701
 30
0.0
 10
10.4456244891
 20
9.7214383632
 30
0.0
 10
10.4503880782
 20
9.7217230081
 30
0.0
 10
10.4543578041
 20
9.7219601469
 30
0.0
 10
10.4575334146
 20
9.7221500389
 30
0.0
 10
10.459915592
 20
9.7222919541
 30
0.0
 10
10.4618992458
 20
9.7224118206
 30
0.0
 10
10.4632907355
 20
9.7224925795
 30
0.0
 10
10.4640812943
 20
9.7225436422
 30
0.0
 10
10.4646871102
 20
9.7225680943
 30
0.0
 10
10.465243628
 20
9.722645469
 30
0.0
 10
10.4660028474
 20
9.7227301752
 30
0.0
 10
10.4673234696
 20
9.7228870119
 30
0.0
 10
10.4692142614
 20
9.7231065678
 30
0.0
 10
10.4714814187
 20
9.7233719595
 30
0.0
 10
10.4745049214
 20
9.7237251428
 30
0.0
 10
10.4782840845
 20
9.7241668528
 30
0.0
 10
10.4828191739
 20
9.7246968052
 30
0.0
 10
10.4873542328
 20
9.7252267863
 30
0.0
 10
10.4911334723
 20
9.7256684246
 30
0.0
 10
10.4941568223
 20
9.7260217513
 30
0.0
 10
10.496046508
 20
9.7262425465
 30
0.0
 10
10.4975580464
 20
9.7264192603
 30
0.0
 10
10.4986922755
 20
9.7265515833
 30
0.0
 10
10.4996356362
 20
9.7266625278
 30
0.0
 10
10.5002995805
 20
9.7267388636
 30
0.0
 10
10.5006733689
 20
9.7267845535
 30
0.0
 10
10.5009695088
 20
9.7268129911
 30
0.0
 10
10.5012052589
 20
9.7268637134
 30
0.0
 10
10.501540657
 20
9.7269235699
 30
0.0
 10
10.5021177892
 20
9.7270319404
 30
0.0
 10
10.502947395
 20
9.7271848621
 30
0.0
 10
10.5039407256
 20
9.7273691785
 30
0.0
 10
10.5052659336
 20
9.7276146506
 30
0.0
 10
10.5069221808
 20
9.7279215877
 30
0.0
 10
10.5095723233
 20
9.7284126329
 30
0.0
 10
10.5128849507
 20
9.7290264581
 30
0.0
 10
10.5168601269
 20
9.7297630399
 30
0.0
 10
10.5208352908
 20
9.7304996257
 30
0.0
 10
10.5241479489
 20
9.7311134407
 30
0.0
 10
10.5267980299
 20
9.7316045062
 30
0.0
 10
10.5284544335
 20
9.7319113917
 30
0.0
 10
10.5297793206
 20
9.7321569698
 30
0.0
 10
10.5307736316
 20
9.7323409625
 30
0.0
 10
10.5316001698
 20
9.7324948971
 30
0.0
 10
10.5321827782
 20
9.7326014593
 30
0.0
 10
10.5325094021
 20
9.7326642132
 30
0.0
 10
10.5327721038
 20
9.7327060357
 30
0.0
 10
10.532967018
 20
9.7327678993
 30
0.0
 10
10.5332505486
 20
9.7328433935
 30
0.0
 10
10.5337357105
 20
9.7329787654
 30
0.0
 10
10.5344345586
 20
9.7331704511
 30
0.0
 10
10.535270711
 20
9.7334012028
 30
0.0
 10
10.536386442
 20
9.7337086171
 30
0.0
 10
10.5377808109
 20
9.7340929722
 30
0.0
 10
10.5400119659
 20
9.7347078916
 30
0.0
 10
10.5428008527
 20
9.7354765576
 30
0.0
 10
10.5461475432
 20
9.7363989493
 30
0.0
 10
10.5494942194
 20
9.7373213444
 30
0.0
 10
10.552283142
 20
9.7380900018
 30
0.0
 10
10.5545142253
 20
9.7387049386
 30
0.0
 10
10.5559087763
 20
9.7390892494
 30
0.0
 10
10.5570241334
 20
9.7393967546
 30
0.0
 10
10.5578614281
 20
9.7396272286
 30
0.0
 10
10.5585567025
 20
9.7398197829
 30
0.0
 10
10.559048244
 20
9.7399536043
 30
0.0
 10
10.5593215529
 20
9.7400315829
 30
0.0
 10
10.5595478651
 20
9.7400858153
 30
0.0
 10
10.5596926408
 20
9.7401562993
 30
0.0
 10
10.5599141159
 20
9.7402446093
 30
0.0
 10
10.5602884461
 20
9.7404017929
 30
0.0
 10
10.5608301314
 20
9.7406249601
 30
0.0
 10
10.5614771885
 20
9.7408933518
 30
0.0
 10
10.562340967
 20
9.741251001
 30
0.0
 10
10.5634203355
 20
9.7416981331
 30
0.0
 10
10.5651475233
 20
9.7424135049
 30
0.0
 10
10.5673064396
 20
9.7433077334
 30
0.0
 10
10.5698971706
 20
9.7443808014
 30
0.0
 10
10.5724878853
 20
9.7454538723
 30
0.0
 10
10.5746468426
 20
9.7463480935
 30
0.0
 10
10.5763739483
 20
9.7470634799
 30
0.0
 10
10.5774535257
 20
9.7475105749
 30
0.0
 10
10.5783168754
 20
9.7478683003
 30
0.0
 10
10.5789652424
 20
9.7481364591
 30
0.0
 10
10.5795028291
 20
9.748360355
 30
0.0
 10
10.5798844762
 20
9.7485162377
 30
0.0
 10
10.5800942279
 20
9.7486066322
 30
0.0
 10
10.580275014
 20
9.7486707132
 30
0.0
 10
10.5803660769
 20
9.7487489942
 30
0.0
 10
10.5805187906
 20
9.7488484158
 30
0.0
 10
10.580771458
 20
9.7490247112
 30
0.0
 10
10.5811400349
 20
9.7492753554
 30
0.0
 10
10.581579064
 20
9.7495766448
 30
0.0
 10
10.582165576
 20
9.7499781836
 30
0.0
 10
10.5828983256
 20
9.7504801689
 30
0.0
 10
10.5840709432
 20
9.7512833108
 30
0.0
 10
10.5855366403
 20
9.7522872501
 30
0.0
 10
10.587295509
 20
9.7534919722
 30
0.0
 10
10.589054369
 20
9.7546966956
 30
0.0
 10
10.5913995187
 20
9.756302993
 30
0.0
 10
10.5931583804
 20
9.7575077161
 30
0.0
 10
10.5943309549
 20
9.7583108649
 30
0.0
  0
SPLINE
  5
3FE
100
AcDbEntity
  8
0
100
AcDbSpline
 62
4
  6
CONTINUOUS
 70
0
 71
3
 72
289
 73
285
 74
0
 42
0.0000001
 43
0.0000001
 44
0.0000000001
 40
0.0
 40
0.0
 40
0.0
 40
0.0
 40
0.015625
 40
0.0234375
 40
0.03125
 40
0.0390625
 40
0.046875
 40
0.05078125
 40
0.0546875
 40
0.056640625
 40
0.05859375
 40
0.060546875
 40
0.0615234375
 40
0.0620117188
 40
0.0625
 40
0.0629882812
 40
0.0634765625
 40
0.064453125
 40
0.06640625
 40
0.068359375
 40
0.0703125
 40
0.07421875
 40
0.078125
 40
0.0859375
 40
0.09375
 40
0.1015625
 40
0.109375
 40
0.11328125
 40
0.1171875
 40
0.119140625
 40
0.12109375
 40
0.123046875
 40
0.1240234375
 40
0.1245117188
 40
0.125
 40
0.1254882812
 40
0.1259765625
 40
0.126953125
 40
0.12890625
 40
0.130859375
 40
0.1328125
 40
0.13671875
 40
0.140625
 40
0.1484375
 40
0.15625
 40
0.1640625
 40
0.171875
 40
0.17578125
 40
0.1796875
 40
0.181640625
 40
0.18359375
 40
0.185546875
 40
0.1865234375
 40
0.1870117188
 40
0.1875
 40
0.1879882812
 40
0.1884765625
 40
0.189453125
 40
0.19140625
 40
0.193359375
 40
0.1953125
 40
0.19921875
 40
0.203125
 40
0.2109375
 40
0.21875
 40
0.2265625
 40
0.234375
 40
0.23828125
 40
0.2421875
 40
0.244140625
 40
0.24609375
 40
0.248046875
 40
0.2490234375
 40
0.2495117188
 40
0.25
 40
0.2504882812
 40
0.2509765625
 40
0.251953125
 40
0.25390625
 40
0.255859375
 40
0.2578125
 40
0.26171875
 40
0.265625
 40
0.2734375
 40
0.28125
 40
0.2890625
 40
0.296875
 40
0.30078125
 40
0.3046875
 40
0.306640625
 40
0.30859375
 40
0.310546875
 40
0.3115234375
 40
0.3120117188
 40
0.3125
 40
0.3129882812
 40
0.3134765625
 40
0.314453125
 40
0.31640625
 40
0.318359375
 40
0.3203125
 40
0.32421875
 40
0.328125
 40
0.3359375
 40
0.34375
 40
0.3515625
 40
0.359375
 40
0.36328125
 40
0.3671875
 40
0.369140625
 40
0.37109375
 40
0.373046875
 40
0.3740234375
 40
0.3745117188
 40
0.375
 40
0.3754882812
 40
0.3759765625
 40
0.376953125
 40
0.37890625
 40
0.380859375
 40
0.3828125
 40
0.38671875
 40
0.390625
 40
0.3984375
 40
0.40625
 40
0.4140625
 40
0.421875
 40
0.42578125
 40
0.4296875
 40
0.431640625
 40
0.43359375
 40
0.435546875
 40
0.4365234375
 40
0.4375
 40
0.4384765625
 40
0.439453125
 40
0.44140625
 40
0.443359375
 40
0.4453125
 40
0.44921875
 40
0.453125
 40
0.4609375
 40
0.46875
 40
0.4765625
 40
0.484375
 40
0.48828125
 40
0.4921875
 40
0.49609375
 40
0.498046875
 40
0.4990234375
 40
0.5
 40
0.5009765625
 40
0.501953125
 40
0.50390625
 40
0.5078125
 40
0.51171875
 40
0.515625
 40
0.5234375
 40
0.53125
 40
0.5390625
 40
0.546875
 40
0.5546875
 40
0.55859375
 40
0.560546875
 40
0.5625
 40
0.564453125
 40
0.56640625
 40
0.5703125
 40
0.578125
 40
0.5859375
 40
0.59375
 40
0.6015625
 40
0.609375
 40
0.61328125
 40
0.6171875
 40
0.62109375
 40
0.623046875
 40
0.625
 40
0.626953125
 40
0.62890625
 40
0.6328125
 40
0.63671875
 40
0.640625
 40
0.6484375
 40
0.65625
 40
0.6640625
 40
0.671875
 40
0.67578125
 40
0.6796875
 40
0.68359375
 40
0.685546875
 40
0.6865234375
 40
0.6875
 40
0.6884765625
 40
0.689453125
 40
0.69140625
 40
0.6953125
 40
0.69921875
 40
0.703125
 40
0.7109375
 40
0.71875
 40
0.7265625
 40
0.734375
 40
0.73828125
 40
0.7421875
 40
0.744140625
 40
0.74609375
 40
0.748046875
 40
0.7490234375
 40
0.7495117188
 40
0.75
 40
0.7504882812
 40
0.7509765625
 40
0.751953125
 40
0.75390625
 40
0.755859375
 40
0.7578125
 40
0.76171875
 40
0.765625
 40
0.7734375
 40
0.78125
 40
0.7890625
 40
0.796875
 40
0.80078125
 40
0.8046875
 40
0.806640625
 40
0.80859375
 40
0.810546875
 40
0.8115234375
 40
0.8120117188
 40
0.8125
 40
0.8129882812
 40
0.8134765625
 40
0.814453125
 40
0.81640625
 40
0.818359375
 40
0.8203125
 40
0.82421875
 40
0.828125
 40
0.8359375
 40
0.84375
 40
0.8515625
 40
0.859375
 40
0.86328125
 40
0.8671875
 40
0.869140625
 40
0.87109375
 40
0.873046875
 40
0.8740234375
 40
0.8745117188
 40
0.875
 40
0.8754882812
 40
0.8759765625
 40
0.876953125
 40
0.87890625
 40
0.880859375
 40
0.8828125
 40
0.88671875
 40
0.890625
 40
0.8984375
 40
0.90625
 40
0.9140625
 40
0.921875
 40
0.92578125
 40
0.9296875
 40
0.931640625
 40
0.93359375
 40
0.935546875
 40
0.9365234375
 40
0.9370117188
 40
0.9375
 40
0.9379882812
 40
0.9384765625
 40
0.939453125
 40
0.94140625
 40
0.943359375
 40
0.9453125
 40
0.94921875
 40
0.953125
 40
0.9609375
 40
0.96875
 40
0.9765625
 40
0.984375
 40
1.0
 40
1.0
 40
1.0
 40
1.0
 10
10.5943309504
 20
9.7583108605
 30
0.0
 10
10.5948632729
 20
9.7591430935
 30
0.0
 10
10.5956617569
 20
9.7603914429
 30
0.0
 10
10.5967264012
 20
9.7620559089
 30
0.0
 10
10.597524887
 20
9.7633042583
 30
0.0
 10
10.598323363
 20
9.7645526079
 30
0.0
 10
10.5989887903
 20
9.7655928987
 30
0.0
 10
10.5995210636
 20
9.7664251326
 30
0.0
 10
10.5998538904
 20
9.766945276
 30
0.0
 10
10.6001197945
 20
9.7673613969
 30
0.0
 10
10.6003202009
 20
9.7676734708
 30
0.0
 10
10.6004840942
 20
9.7679335859
 30
0.0
 10
10.6006049268
 20
9.7681155614
 30
0.0
 10
10.6006644379
 20
9.7682197114
 30
0.0
 10
10.6007359348
 20
9.768297362
 30
0.0
 10
10.6007047453
 20
9.7683767779
 30
0.0
 10
10.6006989775
 20
9.7684820501
 30
0.0
 10
10.6006721954
 20
9.7686665632
 30
0.0
 10
10.6006426602
 20
9.7689300035
 30
0.0
 10
10.6006034834
 20
9.7692461959
 30
0.0
 10
10.6005525521
 20
9.7696677634
 30
0.0
 10
10.6004884413
 20
9.7701947305
 30
0.0
 10
10.6003861138
 20
9.7710378736
 30
0.0
 10
10.6002581181
 20
9.7720918038
 30
0.0
 10
10.6001045627
 20
9.7733565196
 30
0.0
 10
10.5999509877
 20
9.7746212352
 30
0.0
 10
10.5998230411
 20
9.7756751658
 30
0.0
 10
10.5997206153
 20
9.7765183081
 30
0.0
 10
10.5996567543
 20
9.7770452772
 30
0.0
 10
10.5996053104
 20
9.7774668405
 30
0.0
 10
10.5995676997
 20
9.7777830457
 30
0.0
 10
10.5995332645
 20
9.7780464461
 30
0.0
 10
10.5995152297
 20
9.7782310304
 30
0.0
 10
10.5994954465
 20
9.7783361885
 30
0.0
 10
10.5995073077
 20
9.7784159546
 30
0.0
 10
10.5994171134
 20
9.7784922901
 30
0.0
 10
10.5993324524
 20
9.7785952674
 30
0.0
 10
10.5991677098
 20
9.7787749202
 30
0.0
 10
10.5989410346
 20
9.7790318584
 30
0.0
 10
10.5986653127
 20
9.7793400596
 30
0.0
 10
10.5982989799
 20
9.779751038
 30
0.0
 10
10.59784062
 20
9.7802647461
 30
0.0
 10
10.5971074923
 20
9.7810866875
 30
0.0
 10
10.596190997
 20
9.7821141113
 30
0.0
 10
10.5950912418
 20
9.7833470212
 30
0.0
 10
10.5939914671
 20
9.7845799302
 30
0.0
 10
10.5930750208
 20
9.7856073564
 30
0.0
 10
10.5923417951
 20
9.786429293
 30
0.0
 10
10.5918836844
 20
9.7869430131
 30
0.0
 10
10.5915168401
 20
9.787353967
 30
0.0
 10
10.5912426809
 20
9.7876622432
 30
0.0
 10
10.5910111163
 20
9.7879189467
 30
0.0
 10
10.5908551019
 20
9.7880990185
 30
0.0
 10
10.5907564562
 20
9.7882013243
 30
0.0
 10
10.5907092185
 20
9.7882797226
 30
0.0
 10
10.590559742
 20
9.7883517412
 30
0.0
 10
10.590396102
 20
9.7884499914
 30
0.0
 10
10.5900931164
 20
9.7886208923
 30
0.0
 10
10.5896689667
 20
9.7888655786
 30
0.0
 10
10.5891562689
 20
9.7891589701
 30
0.0
 10
10.5884739704
 20
9.7895502398
 30
0.0
 10
10.5876206527
 20
9.7900392992
 30
0.0
 10
10.5862555929
 20
9.7908218097
 30
0.0
 10
10.5845491824
 20
9.7917999424
 30
0.0
 10
10.5825015286
 20
9.7929737044
 30
0.0
 10
10.5804538568
 20
9.7941474643
 30
0.0
 10
10.5787474915
 20
9.7951256023
 30
0.0
 10
10.5773823413
 20
9.7959081023
 30
0.0
 10
10.5765292533
 20
9.7963971885
 30
0.0
 10
10.5758464833
 20
9.7967884031
 30
0.0
 10
10.5753352261
 20
9.797081963
 30
0.0
 10
10.574906569
 20
9.7973261225
 30
0.0
 10
10.5746116299
 20
9.7974979638
 30
0.0
 10
10.5744350974
 20
9.7975947073
 30
0.0
 10
10.5743252228
 20
9.7976713539
 30
0.0
 10
10.5741292469
 20
9.7977323704
 30
0.0
 10
10.5738979789
 20
9.7978191778
 30
0.0
 10
10.5734792669
 20
9.7979685505
 30
0.0
 10
10.5728884226
 20
9.7981832681
 30
0.0
 10
10.5721762781
 20
9.7984403607
 30
0.0
 10
10.5712278457
 20
9.7987833495
 30
0.0
 10
10.5700419308
 20
9.7992120175
 30
0.0
 10
10.5681446763
 20
9.7998979243
 30
0.0
 10
10.565773036
 20
9.8007552946
 30
0.0
 10
10.5629271003
 20
9.8017841451
 30
0.0
 10
10.560081149
 20
9.8028129923
 30
0.0
 10
10.5577095479
 20
9.8036703706
 30
0.0
 10
10.5558122149
 20
9.8043562615
 30
0.0
 10
10.5546264995
 20
9.80478497
 30
0.0
 10
10.5536776577
 20
9.8051278757
 30
0.0
 10
10.5529667641
 20
9.8053852221
 30
0.0
 10
10.552372006
 20
9.8055991457
 30
0.0
 10
10.5519602807
 20
9.8057499358
 30
0.0
 10
10.5517178182
 20
9.8058344722
 30
0.0
 10
10.5515562284
 20
9.8059024643
 30
0.0
 10
10.5513172056
 20
9.8059529118
 30
0.0
 10
10.551025518
 20
9.8060262949
 30
0.0
 10
10.5505024805
 20
9.8061518639
 30
0.0
 10
10.5497618633
 20
9.806332739
 30
0.0
 10
10.5488703066
 20
9.8065491509
 30
0.0
 10
10.5476825479
 20
9.8068379231
 30
0.0
 10
10.5461975127
 20
9.807198812
 30
0.0
 10
10.5438216446
 20
9.807776277
 30
0.0
 10
10.5408517447
 20
9.8084980934
 30
0.0
 10
10.537287894
 20
9.8093642799
 30
0.0
 10
10.5337240299
 20
9.8102304627
 30
0.0
 10
10.5307541636
 20
9.8109522884
 30
0.0
 10
10.5283782283
 20
9.8115297348
 30
0.0
 10
10.5268933641
 20
9.8118906709
 30
0.0
 10
10.5257052543
 20
9.8121793463
 30
0.0
 10
10.5248147702
 20
9.8123960539
 30
0.0
 10
10.524070797
 20
9.812576004
 30
0.0
 10
10.5235537505
 20
9.8127032242
 30
0.0
 10
10.523252464
 20
9.8127739617
 30
0.0
 10
10.523042926
 20
9.8128325356
 30
0.0
 10
10.5227705963
 20
9.8128700063
 30
0.0
 10
10.5224293925
 20
9.8129273282
 30
0.0
 10
10.5218220811
 20
9.8130242119
 30
0.0
 10
10.5209598285
 20
9.8131644103
 30
0.0
 10
10.5199228418
 20
9.8133318808
 30
0.0
 10
10.5185409905
 20
9.813555443
 30
0.0
 10
10.5168134032
 20
9.8138348039
 30
0.0
 10
10.5140494162
 20
9.8142818325
 30
0.0
 10
10.5105943808
 20
9.8148406012
 30
0.0
 10
10.5064483568
 20
9.8155111293
 30
0.0
 10
10.5023023416
 20
9.8161816618
 30
0.0
 10
10.4988472842
 20
9.8167404197
 30
0.0
 10
10.4960833413
 20
9.8171874697
 30
0.0
 10
10.4943556418
 20
9.8174667764
 30
0.0
 10
10.4929740209
 20
9.8176904498
 30
0.0
 10
10.4919363303
 20
9.8178575806
 30
0.0
 10
10.49107628
 20
9.8179988421
 30
0.0
 10
10.4903777169
 20
9.8181073973
 30
0.0
 10
10.4898825479
 20
9.8182009841
 30
0.0
 10
10.4892776269
 20
9.8182481166
 30
0.0
 10
10.4885094033
 20
9.8183271871
 30
0.0
 10
10.4875359703
 20
9.8184204577
 30
0.0
 10
10.4863734809
 20
9.8185347656
 30
0.0
 10
10.4848215285
 20
9.8186863436
 30
0.0
 10
10.4828822613
 20
9.8188761012
 30
0.0
 10
10.4797790576
 20
9.8191795543
 30
0.0
 10
10.475900181
 20
9.8195589236
 30
0.0
 10
10.4712454787
 20
9.8200141508
 30
0.0
 10
10.466590773
 20
9.8204693574
 30
0.0
 10
10.4627119049
 20
9.8208487783
 30
0.0
 10
10.4596086843
 20
9.8211521283
 30
0.0
 10
10.4572816152
 20
9.8213801517
 30
0.0
 10
10.455341289
 20
9.8215685461
 30
0.0
 10
10.4539852232
 20
9.8217036113
 30
0.0
 10
10.4532069517
 20
9.8217758119
 30
0.0
 10
10.4526327606
 20
9.8218439896
 30
0.0
 10
10.4520222079
 20
9.821858548
 30
0.0
 10
10.451220821
 20
9.8218966623
 30
0.0
 10
10.4498124846
 20
9.821954648
 30
0.0
 10
10.4478036648
 20
9.8220420408
 30
0.0
 10
10.4453917586
 20
9.8221449616
 30
0.0
 10
10.4421763462
 20
9.8222828729
 30
0.0
 10
10.4381569179
 20
9.8224550116
 30
0.0
 10
10.4333336915
 20
9.8226617545
 30
0.0
 10
10.4285103754
 20
9.822868192
 30
0.0
 10
10.4236873306
 20
9.8230756747
 30
0.0
 10
10.4196672971
 20
9.8232453477
 30
0.0
 10
10.4168548968
 20
9.823370443
 30
0.0
 10
10.4152452773
 20
9.8234320533
 30
0.0
 10
10.4140451997
 20
9.8235060722
 30
0.0
 10
10.4128178406
 20
9.8234737825
 30
0.0
 10
10.4111908779
 20
9.8234678112
 30
0.0
 10
10.4083392593
 20
9.8234400844
 30
0.0
 10
10.4042678374
 20
9.8234095076
 30
0.0
 10
10.3993811345
 20
9.8233689478
 30
0.0
 10
10.3944947079
 20
9.8233294058
 30
0.0
 10
10.3896081725
 20
9.82328966
 30
0.0
 10
10.3855361924
 20
9.8232563698
 30
0.0
 10
10.382278344
 20
9.8232302443
 30
0.0
 10
10.3798356709
 20
9.8232092316
 30
0.0
 10
10.3777978429
 20
9.8231962384
 30
0.0
 10
10.376172665
 20
9.8231757116
 30
0.0
 10
10.3749398884
 20
9.8231880026
 30
0.0
 10
10.3737601421
 20
9.8230946152
 30
0.0
 10
10.3721686229
 20
9.8230070135
 30
0.0
 10
10.3701855795
 20
9.8228848461
 30
0.0
 10
10.367803207
 20
9.8227436664
 30
0.0
 10
10.3646276604
 20
9.8225535333
 30
0.0
 10
10.3606579026
 20
9.8223165151
 30
0.0
 10
10.3558943263
 20
9.8220318219
 30
0.0
 10
10.3511307371
 20
9.821747177
 30
0.0
 10
10.3471610113
 20
9.8215100383
 30
0.0
 10
10.3439854008
 20
9.8213201463
 30
0.0
 10
10.3416032234
 20
9.8211782311
 30
0.0
 10
10.3396195696
 20
9.8210583646
 30
0.0
 10
10.3382280799
 20
9.8209776057
 30
0.0
 10
10.3374375211
 20
9.8209265429
 30
0.0
 10
10.3368317052
 20
9.8209020909
 30
0.0
 10
10.3362751874
 20
9.8208247162
 30
0.0
 10
10.335515968
 20
9.82074001
 30
0.0
 10
10.3341953458
 20
9.8205831733
 30
0.0
 10
10.332304554
 20
9.8203636174
 30
0.0
 10
10.3300373967
 20
9.8200982257
 30
0.0
 10
10.327013894
 20
9.8197450424
 30
0.0
 10
10.3232347309
 20
9.8193033324
 30
0.0
 10
10.3186996414
 20
9.81877338
 30
0.0
 10
10.3141645825
 20
9.8182433988
 30
0.0
 10
10.3103853431
 20
9.8178017606
 30
0.0
 10
10.307361993
 20
9.8174484338
 30
0.0
 10
10.3054723074
 20
9.8172276386
 30
0.0
 10
10.303960769
 20
9.8170509249
 30
0.0
 10
10.3028265399
 20
9.8169186019
 30
0.0
 10
10.3018831792
 20
9.8168076574
 30
0.0
 10
10.3012192349
 20
9.8167313216
 30
0.0
 10
10.3008454464
 20
9.8166856317
 30
0.0
 10
10.3005493066
 20
9.816657194
 30
0.0
 10
10.3003135565
 20
9.8166064718
 30
0.0
 10
10.2999781584
 20
9.8165466153
 30
0.0
 10
10.2994010261
 20
9.8164382447
 30
0.0
 10
10.2985714204
 20
9.8162853231
 30
0.0
 10
10.2975780897
 20
9.8161010067
 30
0.0
 10
10.2962528818
 20
9.8158555345
 30
0.0
 10
10.2945966345
 20
9.8155485974
 30
0.0
 10
10.291946492
 20
9.8150575522
 30
0.0
 10
10.2886338647
 20
9.814443727
 30
0.0
 10
10.2846586885
 20
9.8137071453
 30
0.0
 10
10.2806835246
 20
9.8129705595
 30
0.0
 10
10.2773708664
 20
9.8123567445
 30
0.0
 10
10.2747207855
 20
9.811865679
 30
0.0
 10
10.2730643818
 20
9.8115587935
 30
0.0
 10
10.2717394948
 20
9.8113132154
 30
0.0
 10
10.2707451837
 20
9.8111292227
 30
0.0
 10
10.2699186456
 20
9.8109752881
 30
0.0
 10
10.2693360371
 20
9.8108687259
 30
0.0
 10
10.2690094132
 20
9.810805972
 30
0.0
 10
10.2687467116
 20
9.8107641495
 30
0.0
 10
10.2685517974
 20
9.8107022859
 30
0.0
 10
10.2682682668
 20
9.8106267917
 30
0.0
 10
10.2677831048
 20
9.8104914197
 30
0.0
 10
10.2670842567
 20
9.810299734
 30
0.0
 10
10.2662481043
 20
9.8100689824
 30
0.0
 10
10.2651323734
 20
9.809761568
 30
0.0
 10
10.2637380045
 20
9.809377213
 30
0.0
 10
10.2615068495
 20
9.8087622936
 30
0.0
 10
10.2587179627
 20
9.8079936275
 30
0.0
 10
10.2553712722
 20
9.8070712359
 30
0.0
 10
10.252024596
 20
9.8061488407
 30
0.0
 10
10.2492356734
 20
9.8053801834
 30
0.0
 10
10.24700459
 20
9.8047652466
 30
0.0
 10
10.245610039
 20
9.8043809358
 30
0.0
 10
10.2444946819
 20
9.8040734306
 30
0.0
 10
10.2436573873
 20
9.8038429565
 30
0.0
 10
10.2429621129
 20
9.8036504023
 30
0.0
 10
10.2424705713
 20
9.8035165809
 30
0.0
 10
10.2421972625
 20
9.8034386023
 30
0.0
 10
10.2419709502
 20
9.8033843699
 30
0.0
 10
10.2418261746
 20
9.8033138858
 30
0.0
 10
10.2416046995
 20
9.8032255759
 30
0.0
 10
10.2412303693
 20
9.8030683922
 30
0.0
 10
10.2406886839
 20
9.802845225
 30
0.0
 10
10.2400416268
 20
9.8025768334
 30
0.0
 10
10.2391778483
 20
9.8022191842
 30
0.0
 10
10.2380984799
 20
9.8017720521
 30
0.0
 10
10.236371292
 20
9.8010566802
 30
0.0
 10
10.2342123758
 20
9.8001624518
 30
0.0
 10
10.2316216447
 20
9.7990893838
 30
0.0
 10
10.2290309301
 20
9.7980163129
 30
0.0
 10
10.2268719727
 20
9.7971220917
 30
0.0
 10
10.2251448671
 20
9.7964067052
 30
0.0
 10
10.2240652897
 20
9.7959596102
 30
0.0
 10
10.22320194
 20
9.7956018849
 30
0.0
 10
10.2225535729
 20
9.7953337261
 30
0.0
 10
10.2220159862
 20
9.7951098301
 30
0.0
 10
10.2216343392
 20
9.7949539475
 30
0.0
 10
10.2214245875
 20
9.794863553
 30
0.0
 10
10.2212438014
 20
9.7947994719
 30
0.0
 10
10.2211527384
 20
9.7947211909
 30
0.0
 10
10.2210000247
 20
9.7946217694
 30
0.0
 10
10.2207473573
 20
9.7944454739
 30
0.0
 10
10.2203787805
 20
9.7941948298
 30
0.0
 10
10.2199397513
 20
9.7938935404
 30
0.0
 10
10.2193532394
 20
9.7934920016
 30
0.0
 10
10.2186204897
 20
9.7929900163
 30
0.0
 10
10.2174478721
 20
9.7921868743
 30
0.0
 10
10.215982175
 20
9.7911829351
 30
0.0
 10
10.2142233064
 20
9.789978213
 30
0.0
 10
10.2124644463
 20
9.7887734896
 30
0.0
 10
10.2101192966
 20
9.7871671922
 30
0.0
 10
10.208360435
 20
9.785962469
 30
0.0
 10
10.2071878604
 20
9.7851593203
 30
0.0
  0
ELLIPSE
  5
3FF
100
AcDbEntity
  8
0
100
AcDbEllipse
 62
7
  6
CONTINUOUS
 10
10.0498208144
 20
8.219834517
 30
0.0
 11
-0.1480440879
 21
0.1619439554
 31
0.0
 40
0.9330381344
 41
0.0
 42
6.2831853072
  0
ELLIPSE
  5
400
100
AcDbEntity
  8
0
100
AcDbEllipse
 62
7
  6
CONTINUOUS
 10
9.5369141527
 20
7.8332950687
 30
0.0
 11
0.187191529
 21
-0.130341692
 31
0.0
 40
0.7696175009
 41
0.0
 42
6.2831853072
  0
ELLIPSE
  5
401
100
AcDbEntity
  8
0
100
AcDbEllipse
 62
7
  6
CONTINUOUS
 10
10.8351185227
 20
8.165373936
 30
0.0
 11
-0.1480440879
 21
0.1619439554
 31
0.0
 40
0.9330381344
 41
0.0
 42
6.2831853072
  0
ELLIPSE
  5
402
100
AcDbEntity
  8
0
100
AcDbEllipse
 62
7
  6
CONTINUOUS
 10
11.3480252995
 20
7.7076940841
 30
0.0
 11
0.2032975498
 21
0.071174745
 31
0.0
 40
0.8630730277
 41
0.0
 42
6.2831853072
  0
ENDSEC
  0
SECTION
  2
OBJECTS
  0
DICTIONARY
  5
C
100
AcDbDictionary
280
0
281
1
  3
ACAD_GROUP
350
D
  3
ACAD_MLINESTYLE
350
17
  3
ACAD_LAYOUT
350
1A
  3
ACAD_PLOTSETTINGS
350
19
  3
ACAD_PLOTSTYLENAME
350
E
  3
ACAD_IMAGE_DICT
350
       404
  3
ACAD_IMAGE_VARS
350
       405
  3
ACAD_TABLESTYLE
350
       406
  0
IMAGEDEF_REACTOR
  5
403
100
AcDbRasterImageDefReactor
 90
2
330
272
  0
DICTIONARY
  5
D
102
{ACAD_REACTORS
330
C
102
}
100
AcDbDictionary
280
0
281
1
  0
ACDBDICTIONARYWDFLT
  5
E
102
{ACAD_REACTORS
330
C
102
}
100
AcDbDictionary
281
1
  3
Normal
350
F
100
AcDbDictionaryWithDefault
340
F
  0
DICTIONARY
  5
404
330
C
100
AcDbDictionary
281
1
  3
BB9_assy_2_img_1
350
       409
  0
RASTERVARIABLES
  5
405
330
C
100
AcDbRasterVariables
 90
0
 70
0
 71
1
 72
5
  0
DICTIONARY
  5
17
102
{ACAD_REACTORS
330
C
102
}
100
AcDbDictionary
280
0
281
1
  3
Standard
350
18
  0
DICTIONARY
  5
406
330
C
100
AcDbDictionary
281
1
  3
Standard
350
       40A
  3
Standard1
350
       40B
  0
DICTIONARY
  5
19
102
{ACAD_REACTORS
330
C
102
}
100
AcDbDictionary
281
1
  0
DICTIONARY
  5
1A
102
{ACAD_REACTORS
330
C
102
}
100
AcDbDictionary
281
1
  3
Model
350
407
  3
Layout1
350
408
  0
ACDBPLACEHOLDER
  5
F
102
{ACAD_REACTORS
330
E
102
}
  0
MLINESTYLE
  5
18
102
{ACAD_REACTORS
330
17
102
}
100
AcDbMlineStyle
  2
STANDARD
 70
0
  3

 62
256
 51
90.0
 52
90.0
 71
2
 49
0.5
 62
256
  6
BYLAYER
 49
-0.5
 62
256
  6
BYLAYER
  0
LAYOUT
  5
407
102
{ACAD_REACTORS
330
1A
102
}
100
AcDbPlotSettings
  1

  2
none_device
  4
ANSI_C_(22.00_x_17.00_Inches)
  6

 40
0.0
 41
0.0
 42
0.0
 43
0.0
 44
558.8
 45
431.8
 46
0.0
 47
0.0
 48
0.0
 49
0.0
140
0.0
141
0.0
142
1.0
143
1.0
 70
1024
 72
0
 73
0
 74
0
  7

 75
0
147
1.0
148
0.0
149
0.0
100
AcDbLayout
  1
Model
 70
0
 71
0
 10
0.0
 20
0.0
 11
22.0
 21
17.0
 12
0.0
 22
0.0
 32
0.0
 14
0.0
 24
0.0
 34
0.0
 15
0.0
 25
0.0
 35
0.0
146
0.0
 13
0.0
 23
0.0
 33
0.0
 16
1.0
 26
0.0
 36
0.0
 17
0.0
 27
1.0
 37
0.0
 76
0
330
20F
345
0
346
0
  0
LAYOUT
  5
408
102
{ACAD_REACTORS
330
1A
102
}
100
AcDbPlotSettings
  1

  2
none_device
  4
ANSI_C_(22.00_x_17.00_Inches)
  6

 40
0.0
 41
0.0
 42
0.0
 43
0.0
 44
558.8
 45
431.8
 46
0.0
 47
0.0
 48
0.0
 49
0.0
140
0.0
141
0.0
142
1.0
143
1.0
 70
0
 72
0
 73
0
 74
0
  7

 75
0
147
1.0
148
0.0
149
0.0
100
AcDbLayout
  1
Layout1
 70
0
 71
1
 10
0.0
 20
0.0
 11
22.0
 21
17.0
 12
0.0
 22
0.0
 32
0.0
 14
0.0
 24
0.0
 34
0.0
 15
0.0
 25
0.0
 35
0.0
146
0.0
 13
0.0
 23
0.0
 33
0.0
 16
1.0
 26
0.0
 36
0.0
 17
0.0
 27
1.0
 37
0.0
 76
0
330
210
345
0
346
0
  0
IMAGEDEF
  5
409
102
{ACAD_REACTORS
330
404
330
403
102
}
100
AcDbRasterImageDef
 90
0
  1
BB9_assy_2_img_1.png
 10
369.0
 20
92.0
 11
0.0066666667
 21
0.0066666667
280
1
281
0
  0
TABLESTYLE
  5
40A
102
{ACAD_REACTORS
330
406
330
275
102
}
330
406
100
AcDbTableStyle
  3
Standard
 70
0
 71
0
 40
0.06
 41
0.06
280
1
281
1
  7
Standard
140
0.18
170
1
 62
0
 63
7
283
0
  7
Standard
140
0.18
170
1
 62
0
 63
7
283
0
  7
Standard
140
0.18
170
1
 62
0
 63
7
283
0
  0
TABLESTYLE
  5
40B
102
{ACAD_REACTORS
330
406
330
274
102
}
330
406
100
AcDbTableStyle
  3
Standard1
 70
1
 71
0
 40
0.06
 41
0.06
280
1
281
1
  7
Standard
140
0.18
170
1
 62
0
 63
7
283
0
  7
Standard
140
0.18
170
1
 62
0
 63
7
283
0
  7
Standard
140
0.18
170
1
 62
0
 63
7
283
0
  0
ENDSEC
  0
EOF
