999
DXF file: BB8_assy_2.dxf
999
Pro/ENGINEER 2014200 by Parametric Technology Corporation
  0
SECTION
  2
HEADER
  9
$ACADVER
  1
AC1021
  9
$DWGCODEPAGE
  3
ANSI_1252
  9
$EXTMAX
 10
22.0
 20
17.0
 30
0.0
  9
$EXTMIN
 10
0.0
 20
0.0
 30
0.0
  9
$LIMMIN
 10
0.0
 20
0.0
  9
$LIMMAX
 10
22.0
 20
17.0
  9
$VIEWCTR
 10
11.0
 20
8.5
  9
$VIEWSIZE
 40
17.0
  9
$CLAYER
  8
0
  9
$LTSCALE
 40
1.21
  9
$CELTYPE
  6
BYLAYER
  9
$DIMSCALE
 40
1.0
  9
$DIMASZ
 40
0.1875
  9
$DIMEXO
 40
0.0625
  9
$DIMDLI
 40
0.836
  9
$DIMEXE
 40
0.125
  9
$DIMCEN
 40
0.198
  9
$DIMLFAC
 40
1.0
  9
$DIMBLK
  1
_FILLED
  9
$DIMTXT
 40
0.1
  9
$DIMTOL
 70
0
  9
$DIMLIM
 70
0
  9
$DIMTFAC
 40
1.0
  9
$DIMGAP
 40
0.09
  9
$DIMDSEP
 70
46
  9
$AUNITS
 70
0
  9
$PDMODE
 70
3
  9
$PDSIZE
 40
0.3125
  9
$HANDSEED
  5
421
  9
$TILEMODE
 70
1
  9
$MEASUREMENT
 70
0
  9
$INSUNITS
 70
1
  0
ENDSEC
  0
SECTION
  2
CLASSES
  0
CLASS
  1
ACDBDICTIONARYWDFLT
  2
AcDbDictionaryWithDefault
  3
AutoCAD 2000
 90
0
 91
1
280
0
281
0
  0
CLASS
  1
ACDBPLACEHOLDER
  2
AcDbPlaceHolder
  3
AutoCAD 2000
 90
0
 91
1
280
0
281
0
  0
CLASS
  1
LAYOUT
  2
AcDbLayout
  3
AutoCAD 2000
 90
0
 91
0
280
0
281
0
  0
CLASS
  1
RASTERVARIABLES
  2
AcDbRasterVariables
  3
ISM
 90
0
 91
1
280
0
281
0
  0
CLASS
  1
IMAGEDEF
  2
AcDbRasterImageDef
  3
ISM
 90
0
 91
1
280
0
281
0
  0
CLASS
  1
IMAGEDEF_REACTOR
  2
AcDbRasterImageDefReactor
  3
ISM
 90
0
 91
1
280
0
281
0
  0
CLASS
  1
IMAGE
  2
AcDbRasterImage
  3
ISM
 90
127
 91
1
280
0
281
1
  0
CLASS
  1
TABLESTYLE
  2
AcDbTableStyle
  3
ObjectDBX Classes
 90
2047
 91
1
280
0
281
0
  0
CLASS
  1
ACAD_TABLE
  2
AcDbTable
  3
ObjectDBX Classes
 90
1025
 91
2
280
0
281
1
  0
ENDSEC
  0
SECTION
  2
TABLES
  0
TABLE
  2
VPORT
  5
8
100
AcDbSymbolTable
 70
2
  0
VPORT
  5
1F4
100
AcDbSymbolTableRecord
100
AcDbViewportTableRecord
  2
*ACTIVE
 70
0
 10
0.0
 20
0.0
 11
1.0
 21
1.0
 12
11.0
 22
8.5
 13
0.0
 23
0.0
 14
1.0
 24
1.0
 15
0.0
 25
0.0
 16
0.0
 26
0.0
 36
1.0
 17
0.0
 27
0.0
 37
0.0
 40
17.0
 41
1.2941176471
 42
50.0
 43
0.0
 44
0.0
 50
0.0
 51
0.0
 71
0
 72
100
 73
1
 74
1
 75
0
 76
0
 77
0
 78
0
  0
ENDTAB
  0
TABLE
  2
LTYPE
  5
5
100
AcDbSymbolTable
 70
6
  0
LTYPE
  5
14
100
AcDbSymbolTableRecord
100
AcDbLinetypeTableRecord
  2
BYBLOCK
 70
0
  3

 72
65
 73
0
 40
0.0
  0
LTYPE
  5
15
100
AcDbSymbolTableRecord
100
AcDbLinetypeTableRecord
  2
BYLAYER
 70
0
  3

 72
65
 73
0
 40
0.0
  0
LTYPE
  5
16
100
AcDbSymbolTableRecord
100
AcDbLinetypeTableRecord
  2
CONTINUOUS
 70
64
  3
Solid line
 72
65
 73
0
 40
0.0
  0
LTYPE
  5
1F5
100
AcDbSymbolTableRecord
100
AcDbLinetypeTableRecord
  2
CENTER
 70
64
  3
____ _ ____ _ ____ _ ____ _ ____ _ ____ _ ____
 72
65
 73
4
 40
0.6
 49
0.375
 74
0
 49
-0.075
 74
0
 49
0.075
 74
0
 49
-0.075
 74
0
  0
LTYPE
  5
1F6
100
AcDbSymbolTableRecord
100
AcDbLinetypeTableRecord
  2
HIDDEN
 70
64
  3
- - - - - - - - - - - - - - - - - - - -
 72
65
 73
2
 40
0.2
 49
0.1
 74
0
 49
-0.1
 74
0
  0
LTYPE
  5
1F7
100
AcDbSymbolTableRecord
100
AcDbLinetypeTableRecord
  2
PHANTOM
 70
64
  3
_____ _ _ _____ _ _ _____ _ _ _____
 72
65
 73
6
 40
0.8
 49
0.45
 74
0
 49
-0.05
 74
0
 49
0.1
 74
0
 49
-0.05
 74
0
 49
0.1
 74
0
 49
-0.05
 74
0
  0
LTYPE
  5
1F8
100
AcDbSymbolTableRecord
100
AcDbLinetypeTableRecord
  2
DOT
 70
64
  3
. . . . . . . . . . . . . . . . . . . .
 72
65
 73
2
 40
0.2
 49
0.1
 74
0
 49
-0.1
 74
0
  0
LTYPE
  5
1F9
100
AcDbSymbolTableRecord
100
AcDbLinetypeTableRecord
  2
DASHED
 70
64
  3
- - - - - - - - - - - - - - - - - - - -
 72
65
 73
2
 40
0.2
 49
0.1
 74
0
 49
-0.1
 74
0
  0
ENDTAB
  0
TABLE
  2
LAYER
  5
2
100
AcDbSymbolTable
 70
36
  0
LAYER
  5
10
100
AcDbSymbolTableRecord
100
AcDbLayerTableRecord
  2
0
 70
0
 62
7
  6
CONTINUOUS
370
-3
390
F
  0
LAYER
  5
1FA
100
AcDbSymbolTableRecord
100
AcDbLayerTableRecord
  2
DEFAULT_1
 70
0
 62
7
  6
CENTER
370
-3
390
F
  0
LAYER
  5
1FB
100
AcDbSymbolTableRecord
100
AcDbLayerTableRecord
  2
DEFAULT_2
 70
0
 62
8
  6
HIDDEN
370
-3
390
F
  0
LAYER
  5
1FC
100
AcDbSymbolTableRecord
100
AcDbLayerTableRecord
  2
DEFAULT_3
 70
0
 62
7
  6
PHANTOM
370
-3
390
F
  0
LAYER
  5
1FD
100
AcDbSymbolTableRecord
100
AcDbLayerTableRecord
  2
01___PRT_ALL_DTM_PLN
 70
0
 62
7
  6
CONTINUOUS
370
-3
390
F
  0
LAYER
  5
1FE
100
AcDbSymbolTableRecord
100
AcDbLayerTableRecord
  2
01___PRT_DEF_DTM_PLN
 70
0
 62
7
  6
CONTINUOUS
370
-3
390
F
  0
LAYER
  5
1FF
100
AcDbSymbolTableRecord
100
AcDbLayerTableRecord
  2
02___PRT_ALL_AXES
 70
0
 62
7
  6
CONTINUOUS
370
-3
390
F
  0
LAYER
  5
200
100
AcDbSymbolTableRecord
100
AcDbLayerTableRecord
  2
03___PRT_ALL_CURVES
 70
0
 62
7
  6
CONTINUOUS
370
-3
390
F
  0
LAYER
  5
201
100
AcDbSymbolTableRecord
100
AcDbLayerTableRecord
  2
04___PRT_ALL_DTM_PNT
 70
0
 62
7
  6
CONTINUOUS
370
-3
390
F
  0
LAYER
  5
202
100
AcDbSymbolTableRecord
100
AcDbLayerTableRecord
  2
05___PRT_ALL_DTM_CSYS
 70
0
 62
7
  6
CONTINUOUS
370
-3
390
F
  0
LAYER
  5
203
100
AcDbSymbolTableRecord
100
AcDbLayerTableRecord
  2
05___PRT_DEF_DTM_CSYS
 70
0
 62
7
  6
CONTINUOUS
370
-3
390
F
  0
LAYER
  5
204
100
AcDbSymbolTableRecord
100
AcDbLayerTableRecord
  2
06___PRT_ALL_SURFS
 70
0
 62
7
  6
CONTINUOUS
370
-3
390
F
  0
LAYER
  5
205
100
AcDbSymbolTableRecord
100
AcDbLayerTableRecord
  2
DATUM_PLANES
 70
0
 62
7
  6
CONTINUOUS
370
-3
390
F
  0
LAYER
  5
206
100
AcDbSymbolTableRecord
100
AcDbLayerTableRecord
  2
DIMENSIONS
 70
0
 62
7
  6
CONTINUOUS
370
-3
390
F
  0
LAYER
  5
207
100
AcDbSymbolTableRecord
100
AcDbLayerTableRecord
  2
PARAMETERDIMENSIONS
 70
0
 62
7
  6
CONTINUOUS
370
-3
390
F
  0
LAYER
  5
208
100
AcDbSymbolTableRecord
100
AcDbLayerTableRecord
  2
PORT_AREAS
 70
0
 62
7
  6
CONTINUOUS
370
-3
390
F
  0
LAYER
  5
209
100
AcDbSymbolTableRecord
100
AcDbLayerTableRecord
  2
SUNNBOMCOSMETIC
 70
0
 62
7
  6
CONTINUOUS
370
-3
390
F
  0
LAYER
  5
20A
100
AcDbSymbolTableRecord
100
AcDbLayerTableRecord
  2
SUNNBOMSTAMPING
 70
0
 62
7
  6
CONTINUOUS
370
-3
390
F
  0
LAYER
  5
20B
100
AcDbSymbolTableRecord
100
AcDbLayerTableRecord
  2
THREADS
 70
0
 62
7
  6
CONTINUOUS
370
-3
390
F
  0
ENDTAB
  0
TABLE
  2
STYLE
  5
3
100
AcDbSymbolTable
 70
1
  0
STYLE
  5
11
100
AcDbSymbolTableRecord
100
AcDbTextStyleTableRecord
  2
STANDARD
 70
0
 40
0.0
 41
0.8
 50
0.0
 71
0
 42
0.2
  3
txt
  4

  0
STYLE
  5
20C
100
AcDbSymbolTableRecord
100
AcDbTextStyleTableRecord
  2
TEXTSTYLE_1
 70
0
 40
0.0
 41
0.8
 50
0.0
 71
0
 42
0.2
  3
gdt
  4

  0
ENDTAB
  0
TABLE
  2
VIEW
  5
6
100
AcDbSymbolTable
 70
0
  0
ENDTAB
  0
TABLE
  2
UCS
  5
7
100
AcDbSymbolTable
 70
0
  0
ENDTAB
  0
TABLE
  2
APPID
  5
9
100
AcDbSymbolTable
 70
1
  0
APPID
  5
20D
100
AcDbSymbolTableRecord
100
AcDbRegAppTableRecord
  2
ACAD
 70
0
  0
ENDTAB
  0
TABLE
  2
BLOCK_RECORD
  5
1
100
AcDbSymbolTable
 70
0
  0
BLOCK_RECORD
  5
20E
100
AcDbSymbolTableRecord
100
AcDbBlockTableRecord
  2
*Model_Space
  0
BLOCK_RECORD
  5
20F
100
AcDbSymbolTableRecord
100
AcDbBlockTableRecord
  2
*Paper_Space
  0
BLOCK_RECORD
  5
210
100
AcDbSymbolTableRecord
100
AcDbBlockTableRecord
  2
SUN_FIRST_THIRD_ANGLE_BL0
  0
BLOCK_RECORD
  5
211
100
AcDbSymbolTableRecord
100
AcDbBlockTableRecord
  2
*T1
  0
BLOCK_RECORD
  5
212
100
AcDbSymbolTableRecord
100
AcDbBlockTableRecord
  2
*T2
  0
ENDTAB
  0
TABLE
  2
DIMSTYLE
  5
A
100
AcDbSymbolTable
 70
1
100
AcDbDimStyleTable
 71
0
  0
DIMSTYLE
105
213
100
AcDbSymbolTableRecord
100
AcDbDimStyleTableRecord
  2
STANDARD
 70
0
  3

  4

 40
1.0
 41
0.1875
 42
0.0625
 43
0.38
 44
0.125
 45
0.0
 46
0.0
 47
0.001
 48
0.001
140
0.1
141
0.09
142
0.0
143
25.4
144
1.0
145
0.0
146
1.0
147
0.09
 71
0.0
 72
0.0
 73
1
 74
1
 75
0
 76
0
 77
0
 78
4
170
0
171
2
172
0
173
0
174
0
175
0
176
0
177
0
178
0
270
2
271
3
272
3
273
2
274
2
275
0
280
0
281
0
282
0
283
1
284
4
285
0
286
0
287
3
288
0
340
11
278
46
  0
ENDTAB
  0
ENDSEC
  0
SECTION
  2
BLOCKS
  0
BLOCK
  5
20
100
AcDbEntity
  8
0
100
AcDbBlockBegin
  2
*Model_Space
 70
0
 10
0.0
 20
0.0
 30
0.0
  3
*Model_Space
  1

  0
ENDBLK
  5
21
100
AcDbEntity
  8
0
100
AcDbBlockEnd
  0
BLOCK
  5
1C
100
AcDbEntity
  8
0
100
AcDbBlockBegin
  2
*Paper_Space
 70
0
 10
0.0
 20
0.0
 30
0.0
  3
*Paper_Space
  1

  0
ENDBLK
  5
1D
100
AcDbEntity
  8
0
100
AcDbBlockEnd
  0
BLOCK
  5
214
100
AcDbEntity
  8
0
100
AcDbBlockBegin
 62
2
  6
CONTINUOUS
  2
SUN_FIRST_THIRD_ANGLE_BL0
 70
64
 10
20.4816717061
 20
1.2289683772
  3
SUN_FIRST_THIRD_ANGLE_BL0
  1

  0
TEXT
  5
215
100
AcDbEntity
  8
0
100
AcDbText
 62
2
  6
CONTINUOUS
 10
19.4750896608
 20
1.4136269581
  7
STANDARD
 40
0.08
  1
FIRST ANGLE
 41
0.8
 72
0
100
AcDbText
  0
TEXT
  5
216
100
AcDbEntity
  8
0
100
AcDbText
 62
2
  6
CONTINUOUS
 10
20.7842537513
 20
1.4047600029
  7
STANDARD
 40
0.08
  1
THIRD ANGLE
 41
0.8
 72
0
100
AcDbText
  0
LINE
  5
217
100
AcDbEntity
  8
0
100
AcDbLine
 62
7
  6
CONTINUOUS
 10
19.4767170086
 20
1.1727031207
 11
19.6334271527
 21
1.1717972817
  0
LINE
  5
218
100
AcDbEntity
  8
0
100
AcDbLine
 62
7
  6
CONTINUOUS
 10
19.6596964832
 20
1.1717972817
 11
19.6950230232
 21
1.171593082
  0
LINE
  5
219
100
AcDbEntity
  8
0
100
AcDbLine
 62
7
  6
CONTINUOUS
 10
19.7194818561
 20
1.1708914427
 11
19.8852396156
 21
1.1699333054
  0
LINE
  5
21A
100
AcDbEntity
  8
0
100
AcDbLine
 62
7
  6
CONTINUOUS
 10
19.4758111696
 20
1.2723454088
 11
19.88525039
 21
1.3511534004
  0
LINE
  5
21B
100
AcDbEntity
  8
0
100
AcDbLine
 62
7
  6
CONTINUOUS
 10
19.88525039
 20
1.3511534004
 11
19.8831348489
 21
0.9851647912
  0
LINE
  5
21C
100
AcDbEntity
  8
0
100
AcDbLine
 62
7
  6
CONTINUOUS
 10
19.8831348489
 20
0.9851647912
 11
19.4767170086
 21
1.0658141206
  0
LINE
  5
21D
100
AcDbEntity
  8
0
100
AcDbLine
 62
7
  6
CONTINUOUS
 10
19.4767170086
 20
1.0658141206
 11
19.4779056764
 21
1.2714536432
  0
CIRCLE
  5
21E
100
AcDbEntity
  8
0
100
AcDbCircle
 62
7
  6
CONTINUOUS
 10
20.2068232291
 20
1.1717972817
 40
0.175742101
  0
CIRCLE
  5
21F
100
AcDbEntity
  8
0
100
AcDbCircle
 62
7
  6
CONTINUOUS
 10
20.2068232291
 20
1.1717972817
 40
0.1005522074
  0
LINE
  5
220
100
AcDbEntity
  8
0
100
AcDbLine
 62
7
  6
CONTINUOUS
 10
20.2077290681
 20
1.3756110529
 11
20.2071171714
 21
1.2379342989
  0
LINE
  5
221
100
AcDbEntity
  8
0
100
AcDbLine
 62
7
  6
CONTINUOUS
 10
20.2077290681
 20
1.2016899681
 11
20.2074674401
 21
1.1428236749
  0
LINE
  5
222
100
AcDbEntity
  8
0
100
AcDbLine
 62
7
  6
CONTINUOUS
 10
20.208634907
 20
1.101141841
 11
20.2080230104
 21
0.963465087
  0
LINE
  5
223
100
AcDbEntity
  8
0
100
AcDbLine
 62
7
  6
CONTINUOUS
 10
20.0066328138
 20
1.1745147986
 11
20.1443095678
 21
1.1739029019
  0
LINE
  5
224
100
AcDbEntity
  8
0
100
AcDbLine
 62
7
  6
CONTINUOUS
 10
20.1832714155
 20
1.1727031207
 11
20.238153505
 21
1.172335442
  0
LINE
  5
225
100
AcDbEntity
  8
0
100
AcDbLine
 62
7
  6
CONTINUOUS
 10
20.2756669918
 20
1.1717972817
 11
20.407916871
 21
1.1712095044
  0
CIRCLE
  5
226
100
AcDbEntity
  8
0
100
AcDbCircle
 62
7
  6
CONTINUOUS
 10
20.7509457401
 20
1.1693297793
 40
0.1722024983
  0
CIRCLE
  5
227
100
AcDbEntity
  8
0
100
AcDbCircle
 62
7
  6
CONTINUOUS
 10
20.7509457401
 20
1.1693297793
 40
0.0985164967
  0
LINE
  5
228
100
AcDbEntity
  8
0
100
AcDbLine
 62
7
  6
CONTINUOUS
 10
20.7169767782
 20
1.170462078
 11
20.7825395137
 21
1.1682766535
  0
LINE
  5
229
100
AcDbEntity
  8
0
100
AcDbLine
 62
7
  6
CONTINUOUS
 10
20.8177513651
 20
1.1693297793
 11
20.947965719
 21
1.1693297793
  0
LINE
  5
22A
100
AcDbEntity
  8
0
100
AcDbLine
 62
7
  6
CONTINUOUS
 10
20.6875370113
 20
1.170462078
 11
20.5573226574
 21
1.170462078
  0
LINE
  5
22B
100
AcDbEntity
  8
0
100
AcDbLine
 62
7
  6
CONTINUOUS
 10
20.7486811426
 20
1.1987695462
 11
20.7486811426
 21
1.1432869085
  0
LINE
  5
22C
100
AcDbEntity
  8
0
100
AcDbLine
 62
7
  6
CONTINUOUS
 10
20.7498134414
 20
1.1059210505
 11
20.7498134414
 21
0.9757066966
  0
LINE
  5
22D
100
AcDbEntity
  8
0
100
AcDbLine
 62
7
  6
CONTINUOUS
 10
20.7486811426
 20
1.2338708068
 11
20.7486811426
 21
1.3640851607
  0
LINE
  5
22E
100
AcDbEntity
  8
0
100
AcDbLine
 62
7
  6
CONTINUOUS
 10
21.0702539817
 20
1.2701043662
 11
21.4790138229
 21
1.3448360823
  0
LINE
  5
22F
100
AcDbEntity
  8
0
100
AcDbLine
 62
7
  6
CONTINUOUS
 10
21.4790138229
 20
1.3448360823
 11
21.4790138229
 21
0.9779712941
  0
LINE
  5
230
100
AcDbEntity
  8
0
100
AcDbLine
 62
7
  6
CONTINUOUS
 10
21.4790138229
 20
0.9779712941
 11
21.069121683
 21
1.0617614
  0
LINE
  5
231
100
AcDbEntity
  8
0
100
AcDbLine
 62
7
  6
CONTINUOUS
 10
21.0702539817
 20
1.2701043662
 11
21.069121683
 21
1.0617614
  0
LINE
  5
232
100
AcDbEntity
  8
0
100
AcDbLine
 62
7
  6
CONTINUOUS
 10
21.4790138229
 20
1.1693297793
 11
21.3159628059
 21
1.1693297793
  0
LINE
  5
233
100
AcDbEntity
  8
0
100
AcDbLine
 62
7
  6
CONTINUOUS
 10
21.2876553377
 20
1.1693297793
 11
21.2502894796
 21
1.1693297793
  0
LINE
  5
234
100
AcDbEntity
  8
0
100
AcDbLine
 62
7
  6
CONTINUOUS
 10
21.2208497126
 20
1.1659328831
 11
21.0713862804
 21
1.1659328831
  0
LINE
  5
235
100
AcDbEntity
  8
0
100
AcDbLine
 62
7
  6
CONTINUOUS
 10
20.4796138713
 20
1.5284908897
 11
20.4766766948
 21
0.9294458646
  0
ENDBLK
  5
236
100
AcDbEntity
  8
0
  6
BYBLOCK
 62
0
100
AcDbBlockEnd
  0
BLOCK
  5
237
100
AcDbEntity
  8
0
100
AcDbBlockBegin
  2
*T1
 70
1
 10
0.0
 20
0.0
  3
*T1
  1

  0
LINE
  5
238
100
AcDbEntity
  8
0
100
AcDbLine
 62
2
  6
CONTINUOUS
 10
9.275
 20
0.0
 11
-0.0
 21
0.0
  0
LINE
  5
239
100
AcDbEntity
  8
0
100
AcDbLine
 62
2
  6
CONTINUOUS
 10
9.275
 20
0.0
 11
9.275
 21
1.25
  0
LINE
  5
23A
100
AcDbEntity
  8
0
100
AcDbLine
 62
2
  6
CONTINUOUS
 10
9.275
 20
0.625
 11
-0.0
 21
0.625
  0
LINE
  5
23B
100
AcDbEntity
  8
0
100
AcDbLine
 62
2
  6
CONTINUOUS
 10
9.275
 20
1.25
 11
-0.0
 21
1.25
  0
LINE
  5
23C
100
AcDbEntity
  8
0
100
AcDbLine
 62
2
  6
CONTINUOUS
 10
6.8
 20
0.0
 11
6.8
 21
1.25
  0
LINE
  5
23D
100
AcDbEntity
  8
0
100
AcDbLine
 62
2
  6
CONTINUOUS
 10
6.4
 20
0.0
 11
6.4
 21
0.625
  0
LINE
  5
23E
100
AcDbEntity
  8
0
100
AcDbLine
 62
2
  6
CONTINUOUS
 10
5.9
 20
0.0
 11
5.9
 21
0.625
  0
LINE
  5
23F
100
AcDbEntity
  8
0
100
AcDbLine
 62
2
  6
CONTINUOUS
 10
5.2
 20
0.0
 11
5.2
 21
0.625
  0
LINE
  5
240
100
AcDbEntity
  8
0
100
AcDbLine
 62
2
  6
CONTINUOUS
 10
4.1
 20
0.0
 11
4.1
 21
1.25
  0
LINE
  5
241
100
AcDbEntity
  8
0
100
AcDbLine
 62
2
  6
CONTINUOUS
 10
-0.0
 20
0.0
 11
-0.0
 21
1.25
  0
MTEXT
  5
242
100
AcDbEntity
  8
0
100
AcDbMText
 62
2
  6
CONTINUOUS
  7
STANDARD
 71
2
 72
1
 10
6.6
 20
0.325
 30
0.0
 11
1.0
 21
0.0
 31
0.0
 44
0.9
  1
2
 40
0.125
 41
0.2
  0
MTEXT
  5
243
100
AcDbEntity
  8
0
100
AcDbMText
 62
2
  6
CONTINUOUS
  7
STANDARD
 71
2
 72
1
 10
6.15
 20
0.325
 30
0.0
 11
1.0
 21
0.0
 31
0.0
 44
0.9
  1
C
 40
0.125
 41
0.2
  0
MTEXT
  5
244
100
AcDbEntity
  8
0
100
AcDbMText
 62
2
  6
CONTINUOUS
  7
STANDARD
 71
2
 72
1
 10
5.55
 20
0.325
 30
0.0
 11
1.0
 21
0.0
 31
0.0
 44
0.9
  1
1.000
 40
0.125
 41
1.0
  0
MTEXT
  5
245
100
AcDbEntity
  8
0
100
AcDbMText
 62
2
  6
CONTINUOUS
  7
STANDARD
 71
2
 72
1
 10
4.65
 20
0.325
 30
0.0
 11
1.0
 21
0.0
 31
0.0
 44
0.9
  1
Jul-22-19
 40
0.125
 41
1.8
  0
MTEXT
  5
246
100
AcDbEntity
  8
0
100
AcDbMText
 62
2
  6
CONTINUOUS
  7
STANDARD
 71
2
 72
1
 10
2.05
 20
0.4625
 30
0.0
 11
1.0
 21
0.0
 31
0.0
 44
0.9
  1
T-2A Sandwich ISO 05\PCushion lock
 40
0.125
 41
4.0
  0
MTEXT
  5
247
100
AcDbEntity
  8
0
100
AcDbMText
 62
2
  6
CONTINUOUS
  7
STANDARD
 71
1
 72
1
 10
6.45
 20
0.5625
 30
0.0
 11
1.0
 21
0.0
 31
0.0
 44
0.9
  1
SHEET
 40
0.06
 41
0.48
  0
MTEXT
  5
248
100
AcDbEntity
  8
0
100
AcDbMText
 62
2
  6
CONTINUOUS
  7
STANDARD
 71
1
 72
1
 10
5.95
 20
0.5625
 30
0.0
 11
1.0
 21
0.0
 31
0.0
 44
0.9
  1
DWG SIZE
 40
0.06
 41
0.768
  0
MTEXT
  5
249
100
AcDbEntity
  8
0
100
AcDbMText
 62
2
  6
CONTINUOUS
  7
STANDARD
 71
1
 72
1
 10
5.25
 20
0.5625
 30
0.0
 11
1.0
 21
0.0
 31
0.0
 44
0.9
  1
SCALE
 40
0.06
 41
0.48
  0
MTEXT
  5
24A
100
AcDbEntity
  8
0
100
AcDbMText
 62
2
  6
CONTINUOUS
  7
STANDARD
 71
1
 72
1
 10
4.15
 20
0.5625
 30
0.0
 11
1.0
 21
0.0
 31
0.0
 44
0.9
  1
DATE
 40
0.06
 41
0.384
  0
MTEXT
  5
24B
100
AcDbEntity
  8
0
100
AcDbMText
 62
2
  6
CONTINUOUS
  7
STANDARD
 71
1
 72
1
 10
0.05
 20
0.5625
 30
0.0
 11
1.0
 21
0.0
 31
0.0
 44
0.9
  1
DESCRIPTION
 40
0.06
 41
1.056
  0
MTEXT
  5
24C
100
AcDbEntity
  8
0
100
AcDbMText
 62
2
  6
CONTINUOUS
  7
STANDARD
 71
2
 72
1
 10
5.45
 20
1.0375
 30
0.0
 11
1.0
 21
0.0
 31
0.0
 44
0.9
  1
ALL DIMENSIONS IN INCH\PVIEWS ARE THIRD ANGLE
 40
0.12
 41
4.224
  0
MTEXT
  5
24D
100
AcDbEntity
  8
0
100
AcDbMText
 62
2
  6
CONTINUOUS
  7
STANDARD
 71
2
 72
1
 10
2.05
 20
0.95
 30
0.0
 11
1.0
 21
0.0
 31
0.0
 44
0.9
  1
BB8
 40
0.125
 41
0.6
  0
MTEXT
  5
24E
100
AcDbEntity
  8
0
100
AcDbMText
 62
2
  6
CONTINUOUS
  7
STANDARD
 71
1
 72
1
 10
0.05
 20
1.1875
 30
0.0
 11
1.0
 21
0.0
 31
0.0
 44
0.9
  1
MODEL
 40
0.06
 41
0.48
  0
ENDBLK
  5
24F
100
AcDbEntity
  8
0
  6
BYBLOCK
 62
0
100
AcDbBlockEnd
  0
BLOCK
  5
250
100
AcDbEntity
  8
0
100
AcDbBlockBegin
  2
*T2
 70
1
 10
0.0
 20
0.0
  3
*T2
  1

  0
LINE
  5
251
100
AcDbEntity
  8
0
100
AcDbLine
 62
2
  6
CONTINUOUS
 10
0.0
 20
0.0
 11
9.055
 21
0.0
  0
LINE
  5
252
100
AcDbEntity
  8
0
100
AcDbLine
 62
2
  6
CONTINUOUS
 10
0.0
 20
0.0
 11
0.0
 21
-2.094
  0
LINE
  5
253
100
AcDbEntity
  8
0
100
AcDbLine
 62
2
  6
CONTINUOUS
 10
0.0
 20
-0.344
 11
9.055
 21
-0.344
  0
LINE
  5
254
100
AcDbEntity
  8
0
100
AcDbLine
 62
2
  6
CONTINUOUS
 10
0.0
 20
-0.594
 11
9.055
 21
-0.594
  0
LINE
  5
255
100
AcDbEntity
  8
0
100
AcDbLine
 62
2
  6
CONTINUOUS
 10
0.0
 20
-0.844
 11
9.055
 21
-0.844
  0
LINE
  5
256
100
AcDbEntity
  8
0
100
AcDbLine
 62
2
  6
CONTINUOUS
 10
0.0
 20
-1.094
 11
9.055
 21
-1.094
  0
LINE
  5
257
100
AcDbEntity
  8
0
100
AcDbLine
 62
2
  6
CONTINUOUS
 10
0.0
 20
-1.344
 11
9.055
 21
-1.344
  0
LINE
  5
258
100
AcDbEntity
  8
0
100
AcDbLine
 62
2
  6
CONTINUOUS
 10
0.0
 20
-1.594
 11
9.055
 21
-1.594
  0
LINE
  5
259
100
AcDbEntity
  8
0
100
AcDbLine
 62
2
  6
CONTINUOUS
 10
0.0
 20
-1.844
 11
9.055
 21
-1.844
  0
LINE
  5
25A
100
AcDbEntity
  8
0
100
AcDbLine
 62
2
  6
CONTINUOUS
 10
0.0
 20
-2.094
 11
9.055
 21
-2.094
  0
LINE
  5
25B
100
AcDbEntity
  8
0
100
AcDbLine
 62
2
  6
CONTINUOUS
 10
3.055
 20
0.0
 11
3.055
 21
-2.094
  0
LINE
  5
25C
100
AcDbEntity
  8
0
100
AcDbLine
 62
2
  6
CONTINUOUS
 10
9.055
 20
0.0
 11
9.055
 21
-2.094
  0
MTEXT
  5
25D
100
AcDbEntity
  8
0
100
AcDbMText
 62
2
  6
CONTINUOUS
  7
STANDARD
 71
2
 72
1
 10
1.5275
 20
-0.0995
 30
0.0
 11
1.0
 21
0.0
 31
0.0
 44
0.9
  1
Technical Data
 40
0.145
 41
3.248
  0
MTEXT
  5
25E
100
AcDbEntity
  8
0
100
AcDbMText
 62
2
  6
CONTINUOUS
  7
STANDARD
 71
2
 72
1
 10
4.555
 20
-0.0995
 30
0.0
 11
1.0
 21
0.0
 31
0.0
 44
0.9
  1
U.S. Units
 40
0.145
 41
2.32
  0
MTEXT
  5
25F
100
AcDbEntity
  8
0
100
AcDbMText
 62
2
  6
CONTINUOUS
  7
STANDARD
 71
2
 72
1
 10
7.555
 20
-0.0995
 30
0.0
 11
1.0
 21
0.0
 31
0.0
 44
0.9
  1
Metric Units
 40
0.145
 41
2.784
  0
MTEXT
  5
260
100
AcDbEntity
  8
0
100
AcDbMText
 62
2
  6
CONTINUOUS
  7
STANDARD
 71
2
 72
1
 10
1.5275
 20
-0.4065
 30
0.0
 11
1.0
 21
0.0
 31
0.0
 44
0.9
  1
Cavity
 40
0.125
 41
1.2
  0
MTEXT
  5
261
100
AcDbEntity
  8
0
100
AcDbMText
 62
2
  6
CONTINUOUS
  7
STANDARD
 71
2
 72
1
 10
6.055
 20
-0.4065
 30
0.0
 11
1.0
 21
0.0
 31
0.0
 44
0.9
  1
T-2A
 40
0.125
 41
0.8
  0
MTEXT
  5
262
100
AcDbEntity
  8
0
100
AcDbMText
 62
2
  6
CONTINUOUS
  7
STANDARD
 71
2
 72
1
 10
1.5275
 20
-0.6565
 30
0.0
 11
1.0
 21
0.0
 31
0.0
 44
0.9
  1
Body Features
 40
0.125
 41
2.6
  0
MTEXT
  5
263
100
AcDbEntity
  8
0
100
AcDbMText
 62
2
  6
CONTINUOUS
  7
STANDARD
 71
2
 72
1
 10
6.055
 20
-0.6565
 30
0.0
 11
1.0
 21
0.0
 31
0.0
 44
0.9
  1
Cushion lock
 40
0.125
 41
2.4
  0
MTEXT
  5
264
100
AcDbEntity
  8
0
100
AcDbMText
 62
2
  6
CONTINUOUS
  7
STANDARD
 71
2
 72
1
 10
1.5275
 20
-0.9065
 30
0.0
 11
1.0
 21
0.0
 31
0.0
 44
0.9
  1
Body Type
 40
0.125
 41
1.8
  0
MTEXT
  5
265
100
AcDbEntity
  8
0
100
AcDbMText
 62
2
  6
CONTINUOUS
  7
STANDARD
 71
2
 72
1
 10
6.055
 20
-0.9065
 30
0.0
 11
1.0
 21
0.0
 31
0.0
 44
0.9
  1
Sandwich
 40
0.125
 41
1.6
  0
MTEXT
  5
266
100
AcDbEntity
  8
0
100
AcDbMText
 62
2
  6
CONTINUOUS
  7
STANDARD
 71
2
 72
1
 10
1.5275
 20
-1.1565
 30
0.0
 11
1.0
 21
0.0
 31
0.0
 44
0.9
  1
Interface
 40
0.125
 41
1.8
  0
MTEXT
  5
267
100
AcDbEntity
  8
0
100
AcDbMText
 62
2
  6
CONTINUOUS
  7
STANDARD
 71
2
 72
1
 10
6.055
 20
-1.1565
 30
0.0
 11
1.0
 21
0.0
 31
0.0
 44
0.9
  1
ISO 05
 40
0.125
 41
1.2
  0
MTEXT
  5
268
100
AcDbEntity
  8
0
100
AcDbMText
 62
2
  6
CONTINUOUS
  7
STANDARD
 71
2
 72
1
 10
1.5275
 20
-1.4065
 30
0.0
 11
1.0
 21
0.0
 31
0.0
 44
0.9
  1
Open Cavity Quantity
 40
0.125
 41
4.0
  0
MTEXT
  5
269
100
AcDbEntity
  8
0
100
AcDbMText
 62
2
  6
CONTINUOUS
  7
STANDARD
 71
2
 72
1
 10
6.055
 20
-1.4065
 30
0.0
 11
1.0
 21
0.0
 31
0.0
 44
0.9
  1
2
 40
0.125
 41
0.2
  0
MTEXT
  5
26A
100
AcDbEntity
  8
0
100
AcDbMText
 62
2
  6
CONTINUOUS
  7
STANDARD
 71
2
 72
1
 10
1.5275
 20
-1.6565
 30
0.0
 11
1.0
 21
0.0
 31
0.0
 44
0.9
  1
Stack Height
 40
0.125
 41
2.4
  0
MTEXT
  5
26B
100
AcDbEntity
  8
0
100
AcDbMText
 62
2
  6
CONTINUOUS
  7
STANDARD
 71
2
 72
1
 10
4.555
 20
-1.6565
 30
0.0
 11
1.0
 21
0.0
 31
0.0
 44
0.9
  1
2.99 in.
 40
0.125
 41
1.6
  0
MTEXT
  5
26C
100
AcDbEntity
  8
0
100
AcDbMText
 62
2
  6
CONTINUOUS
  7
STANDARD
 71
2
 72
1
 10
7.555
 20
-1.6565
 30
0.0
 11
1.0
 21
0.0
 31
0.0
 44
0.9
  1
76 mm
 40
0.125
 41
1.0
  0
MTEXT
  5
26D
100
AcDbEntity
  8
0
100
AcDbMText
 62
2
  6
CONTINUOUS
  7
STANDARD
 71
2
 72
1
 10
1.5275
 20
-1.9065
 30
0.0
 11
1.0
 21
0.0
 31
0.0
 44
0.9
  1
Weight
 40
0.125
 41
1.2
  0
MTEXT
  5
26E
100
AcDbEntity
  8
0
100
AcDbMText
 62
2
  6
CONTINUOUS
  7
STANDARD
 71
2
 72
1
 10
4.555
 20
-1.9065
 30
0.0
 11
1.0
 21
0.0
 31
0.0
 44
0.9
  1
3.984 lb.
 40
0.125
 41
1.8
  0
MTEXT
  5
26F
100
AcDbEntity
  8
0
100
AcDbMText
 62
2
  6
CONTINUOUS
  7
STANDARD
 71
2
 72
1
 10
7.555
 20
-1.9065
 30
0.0
 11
1.0
 21
0.0
 31
0.0
 44
0.9
  1
1,807 kg.
 40
0.125
 41
1.8
  0
ENDBLK
  5
270
100
AcDbEntity
  8
0
  6
BYBLOCK
 62
0
100
AcDbBlockEnd
  0
ENDSEC
  0
SECTION
  2
ENTITIES
  0
IMAGE
  5
271
100
AcDbEntity
  8
0
100
AcDbRasterImage
 62
7
  6
CONTINUOUS
 10
19.2297077316
 20
0.3094318264
 30
0.0
 11
0.0066666667
 21
0.0
 31
0.0
 12
0.0
 22
0.0066666667
 32
0.0
 13
369.0
 23
92.0
340
       41E
 70
9
280
0
281
50
282
50
283
0
360
       418
 71
1
 91
2
 14
-0.5
 24
-0.5
 14
368.5
 24
91.5
  0
INSERT
  5
272
100
AcDbEntity
  8
0
100
AcDbBlockReference
 62
2
  6
CONTINUOUS
  2
SUN_FIRST_THIRD_ANGLE_BL0
 10
20.4816717061
 20
1.2289683772
  0
ACAD_TABLE
  5
273
100
AcDbEntity
  8
0
 62
2
  6
CONTINUOUS
100
AcDbBlockReference
  2
*T1
 10
12.42375
 20
0.30125
 30
0.0
100
AcDbTable
342
       420
343
211
 11
1.0
 21
0.0
 31
0.0
 90
6
 91
4
 92
6
 93
20
 94
0
 95
0
 96
0
 70
1
 41
0.0
141
0.525
141
0.1
141
0.525
141
0.1
142
4.1
142
1.1
142
0.7
142
0.5
142
0.4
142
2.475
171
1
172
0
173
0
174
0
175
1
176
1
 91
33
178
0
145
0.0
301
CELL_VALUE
 90
4
  1
T-2A Sandwich ISO 05\PCushion lock
304
ACVALUE_END
170
2
140
0.125
171
1
172
0
173
0
174
0
175
1
176
1
 91
33
178
0
145
0.0
301
CELL_VALUE
 90
4
  1
Jul-22-19
304
ACVALUE_END
170
5
140
0.125
171
1
172
0
173
0
174
0
175
1
176
1
 91
33
178
0
145
0.0
301
CELL_VALUE
 90
4
  1
1.000
304
ACVALUE_END
170
5
140
0.125
171
1
172
0
173
0
174
0
175
1
176
1
 91
33
178
0
145
0.0
301
CELL_VALUE
 90
4
  1
C
304
ACVALUE_END
170
5
140
0.125
171
1
172
0
173
0
174
0
175
1
176
1
 91
33
178
0
145
0.0
301
CELL_VALUE
 90
4
  1
2
304
ACVALUE_END
170
5
140
0.125
171
1
172
0
173
0
174
0
175
1
176
1
 91
33
178
0
145
0.0
301
CELL_VALUE
 90
4
  1
 
304
ACVALUE_END
170
1
140
0.125
171
1
172
0
173
0
174
0
175
1
176
1
 91
33
178
0
145
0.0
301
CELL_VALUE
 90
4
  1
DESCRIPTION
304
ACVALUE_END
170
1
140
0.06
171
1
172
0
173
0
174
0
175
1
176
1
 91
33
178
0
145
0.0
301
CELL_VALUE
 90
4
  1
DATE
304
ACVALUE_END
170
1
140
0.06
171
1
172
0
173
0
174
0
175
1
176
1
 91
33
178
0
145
0.0
301
CELL_VALUE
 90
4
  1
SCALE
304
ACVALUE_END
170
1
140
0.06
171
1
172
0
173
0
174
0
175
1
176
1
 91
33
178
0
145
0.0
301
CELL_VALUE
 90
4
  1
DWG SIZE
304
ACVALUE_END
170
1
140
0.06
171
1
172
0
173
0
174
0
175
1
176
1
 91
33
178
0
145
0.0
301
CELL_VALUE
 90
4
  1
SHEET
304
ACVALUE_END
170
1
140
0.06
171
1
172
0
173
0
174
0
175
1
176
1
 91
33
178
0
145
0.0
301
CELL_VALUE
 90
4
  1
 
304
ACVALUE_END
170
1
140
0.125
171
1
172
0
173
0
174
0
175
1
176
1
 91
33
178
0
145
0.0
301
CELL_VALUE
 90
4
  1
BB8
304
ACVALUE_END
170
5
140
0.125
171
1
172
0
173
0
174
0
175
4
176
1
 91
33
178
0
145
0.0
301
CELL_VALUE
 90
4
  1
ALL DIMENSIONS IN INCH\PVIEWS ARE THIRD ANGLE
304
ACVALUE_END
170
5
140
0.12
171
1
172
0
173
1
174
0
175
1
176
1
 91
1
178
0
145
0.0
170
1
171
1
172
0
173
1
174
0
175
1
176
1
 91
1
178
0
145
0.0
170
1
171
1
172
0
173
1
174
0
175
1
176
1
 91
1
178
0
145
0.0
170
5
171
1
172
0
173
0
174
0
175
1
176
1
 91
33
178
0
145
0.0
301
CELL_VALUE
 90
4
  1
 
304
ACVALUE_END
170
1
140
0.125
171
1
172
0
173
0
174
0
175
1
176
1
 91
33
178
0
145
0.0
301
CELL_VALUE
 90
4
  1
MODEL
304
ACVALUE_END
170
1
140
0.06
171
1
172
0
173
0
174
0
175
1
176
1
 91
33
178
0
145
0.0
301
CELL_VALUE
 90
4
  1
 
304
ACVALUE_END
170
1
140
0.125
171
1
172
0
173
0
174
0
175
1
176
1
 91
33
178
0
145
0.0
301
CELL_VALUE
 90
4
  1
 
304
ACVALUE_END
170
1
140
0.125
171
1
172
0
173
0
174
0
175
1
176
1
 91
33
178
0
145
0.0
301
CELL_VALUE
 90
4
  1
 
304
ACVALUE_END
170
1
140
0.125
171
1
172
0
173
0
174
0
175
1
176
1
 91
33
178
0
145
0.0
301
CELL_VALUE
 90
4
  1
 
304
ACVALUE_END
170
1
140
0.125
171
1
172
0
173
0
174
0
175
1
176
1
 91
33
178
0
145
0.0
301
CELL_VALUE
 90
4
  1
 
304
ACVALUE_END
170
1
140
0.125
  0
ACAD_TABLE
  5
274
100
AcDbEntity
  8
0
 62
2
  6
CONTINUOUS
100
AcDbBlockReference
  2
*T2
 10
12.4237499994
 20
16.47875
 30
0.0
100
AcDbTable
342
       41F
343
212
 11
1.0
 21
0.0
 31
0.0
 90
22
 91
8
 92
3
 93
16
 94
0
 95
0
 96
0
 41
0.028
141
0.344
141
0.25
141
0.25
141
0.25
141
0.25
141
0.25
141
0.25
141
0.25
142
3.055
142
3.0
142
3.0
171
1
172
0
173
0
174
0
175
1
176
1
 91
33
178
0
145
0.0
301
CELL_VALUE
 90
4
  1
Technical Data
304
ACVALUE_END
170
5
140
0.145
171
1
172
0
173
0
174
0
175
1
176
1
 91
33
178
0
145
0.0
301
CELL_VALUE
 90
4
  1
U.S. Units
304
ACVALUE_END
170
5
140
0.145
171
1
172
0
173
0
174
0
175
1
176
1
 91
33
178
0
145
0.0
301
CELL_VALUE
 90
4
  1
Metric Units
304
ACVALUE_END
170
5
140
0.145
171
1
172
0
173
0
174
0
175
1
176
1
 91
33
178
0
145
0.0
301
CELL_VALUE
 90
4
  1
Cavity
304
ACVALUE_END
170
5
140
0.125
171
1
172
0
173
0
174
0
175
2
176
1
 91
33
178
0
145
0.0
301
CELL_VALUE
 90
4
  1
T-2A
304
ACVALUE_END
170
5
140
0.125
171
1
172
0
173
1
174
0
175
1
176
1
 91
1
178
0
145
0.0
170
1
171
1
172
0
173
0
174
0
175
1
176
1
 91
33
178
0
145
0.0
301
CELL_VALUE
 90
4
  1
Body Features
304
ACVALUE_END
170
5
140
0.125
171
1
172
0
173
0
174
0
175
2
176
1
 91
33
178
0
145
0.0
301
CELL_VALUE
 90
4
  1
Cushion lock
304
ACVALUE_END
170
5
140
0.125
171
1
172
0
173
1
174
0
175
1
176
1
 91
1
178
0
145
0.0
170
1
171
1
172
0
173
0
174
0
175
1
176
1
 91
33
178
0
145
0.0
301
CELL_VALUE
 90
4
  1
Body Type
304
ACVALUE_END
170
5
140
0.125
171
1
172
0
173
0
174
0
175
2
176
1
 91
33
178
0
145
0.0
301
CELL_VALUE
 90
4
  1
Sandwich
304
ACVALUE_END
170
5
140
0.125
171
1
172
0
173
1
174
0
175
1
176
1
 91
1
178
0
145
0.0
170
1
171
1
172
0
173
0
174
0
175
1
176
1
 91
33
178
0
145
0.0
301
CELL_VALUE
 90
4
  1
Interface
304
ACVALUE_END
170
5
140
0.125
171
1
172
0
173
0
174
0
175
2
176
1
 91
33
178
0
145
0.0
301
CELL_VALUE
 90
4
  1
ISO 05
304
ACVALUE_END
170
5
140
0.125
171
1
172
0
173
1
174
0
175
1
176
1
 91
1
178
0
145
0.0
170
1
171
1
172
0
173
0
174
0
175
1
176
1
 91
33
178
0
145
0.0
301
CELL_VALUE
 90
4
  1
Open Cavity Quantity
304
ACVALUE_END
170
5
140
0.125
171
1
172
0
173
0
174
0
175
2
176
1
 91
33
178
0
145
0.0
301
CELL_VALUE
 90
4
  1
2
304
ACVALUE_END
170
5
140
0.125
171
1
172
0
173
1
174
0
175
1
176
1
 91
1
178
0
145
0.0
170
1
171
1
172
0
173
0
174
0
175
1
176
1
 91
33
178
0
145
0.0
301
CELL_VALUE
 90
4
  1
Stack Height
304
ACVALUE_END
170
5
140
0.125
171
1
172
0
173
0
174
0
175
1
176
1
 91
33
178
0
145
0.0
301
CELL_VALUE
 90
4
  1
2.99 in.
304
ACVALUE_END
170
5
140
0.125
171
1
172
0
173
0
174
0
175
1
176
1
 91
33
178
0
145
0.0
301
CELL_VALUE
 90
4
  1
76 mm
304
ACVALUE_END
170
5
140
0.125
171
1
172
0
173
0
174
0
175
1
176
1
 91
33
178
0
145
0.0
301
CELL_VALUE
 90
4
  1
Weight
304
ACVALUE_END
170
5
140
0.125
171
1
172
0
173
0
174
0
175
1
176
1
 91
33
178
0
145
0.0
301
CELL_VALUE
 90
4
  1
3.984 lb.
304
ACVALUE_END
170
5
140
0.125
171
1
172
0
173
0
174
0
175
1
176
1
 91
33
178
0
145
0.0
301
CELL_VALUE
 90
4
  1
1,807 kg.
304
ACVALUE_END
170
5
140
0.125
  0
MTEXT
  5
275
100
AcDbEntity
  8
0
100
AcDbMText
 62
2
  6
CONTINUOUS
  7
STANDARD
 71
1
 72
1
 10
0.52125
 20
5.75995
 30
0.0
 11
1.0
 21
0.0
 31
0.0
 44
0.6
  3
Notes\P \P1. Important: Carefully consider\P   the maximum system pressure. The\P   pressure rating of the manifold is\P   dependent on the manifold material,\P   with the port type/size a secondary\P   consideration. Manifolds\P   constructed of alu
  1
minum are not\P   rated for pressures higher than\P   3000 psi (210 bar), regardless of\P   the port type/size specified.\P2. Items without balloons are\P   shipped loose.
 40
0.1
 41
3.04
  0
LINE
  5
276
100
AcDbEntity
  8
0
100
AcDbLine
 62
7
  6
CONTINUOUS
 10
0.30125
 20
0.30125
 11
0.30125
 21
16.69875
  0
LINE
  5
277
100
AcDbEntity
  8
0
100
AcDbLine
 62
7
  6
CONTINUOUS
 10
0.30125
 20
0.30125
 11
21.69875
 21
0.30125
  0
LINE
  5
278
100
AcDbEntity
  8
0
100
AcDbLine
 62
7
  6
CONTINUOUS
 10
0.30125
 20
16.69875
 11
21.69875
 21
16.69875
  0
LINE
  5
279
100
AcDbEntity
  8
0
100
AcDbLine
 62
7
  6
CONTINUOUS
 10
21.69875
 20
0.30125
 11
21.69875
 21
16.69875
  0
LINE
  5
27A
100
AcDbEntity
  8
0
100
AcDbLine
 62
7
  6
CONTINUOUS
 10
9.1666602565
 20
6.844861586
 11
9.1447399379
 21
6.8546881829
  0
LINE
  5
27B
100
AcDbEntity
  8
0
100
AcDbLine
 62
7
  6
CONTINUOUS
 10
11.0765917049
 20
6.3584916015
 11
10.394942676
 21
6.4057641222
  0
LINE
  5
27C
100
AcDbEntity
  8
0
100
AcDbLine
 62
7
  6
CONTINUOUS
 10
10.1640338891
 20
6.4217777009
 11
9.5069621442
 21
6.4673457812
  0
LINE
  5
27D
100
AcDbEntity
  8
0
100
AcDbLine
 62
7
  6
CONTINUOUS
 10
11.0685683211
 20
6.3806853098
 11
10.4340281616
 21
6.4246908193
  0
LINE
  5
27E
100
AcDbEntity
  8
0
100
AcDbLine
 62
7
  6
CONTINUOUS
 10
10.1208921547
 20
6.4464068752
 11
9.4989387604
 21
6.4895394895
  0
LINE
  5
27F
100
AcDbEntity
  8
0
100
AcDbLine
 62
4
  6
CONTINUOUS
 10
9.4921771877
 20
6.8841061807
 11
9.4825179244
 21
6.8920204968
  0
LINE
  5
280
100
AcDbEntity
  8
0
100
AcDbLine
 62
4
  6
CONTINUOUS
 10
9.4631994084
 20
6.9223380163
 11
9.4438808923
 21
6.9381666479
  0
LINE
  5
281
100
AcDbEntity
  8
0
100
AcDbLine
 62
4
  6
CONTINUOUS
 10
9.5114957003
 20
6.940721989
 11
9.5211549635
 21
6.9328076728
  0
LINE
  5
282
100
AcDbEntity
  8
0
100
AcDbLine
 62
4
  6
CONTINUOUS
 10
9.4342216342
 20
7.1199476188
 11
9.4245623753
 21
7.1278619347
  0
LINE
  5
283
100
AcDbEntity
  8
0
100
AcDbLine
 62
4
  6
CONTINUOUS
 10
9.4825179244
 20
6.8920204968
 11
9.4631994084
 21
6.9223380163
  0
LINE
  5
284
100
AcDbEntity
  8
0
100
AcDbLine
 62
4
  6
CONTINUOUS
 10
9.5211549635
 20
6.9328076728
 11
9.5308142198
 21
6.9176489132
  0
LINE
  5
285
100
AcDbEntity
  8
0
100
AcDbLine
 62
4
  6
CONTINUOUS
 10
9.4245623753
 20
7.1278619347
 11
9.4149031164
 21
7.1430206945
  0
LINE
  5
286
100
AcDbEntity
  8
0
100
AcDbLine
 62
7
  6
CONTINUOUS
 10
9.4989387604
 20
6.4895394895
 11
9.5069621442
 21
6.4673457812
  0
LINE
  5
287
100
AcDbEntity
  8
0
100
AcDbLine
 62
7
  6
CONTINUOUS
 10
10.1809503237
 20
10.3778038232
 11
9.4042349674
 21
9.6275543564
  0
LINE
  5
288
100
AcDbEntity
  8
0
100
AcDbLine
 62
4
  6
CONTINUOUS
 10
9.4438808923
 20
6.9381666479
 11
9.4149031164
 21
6.9474207074
  0
LINE
  5
289
100
AcDbEntity
  8
0
100
AcDbLine
 62
4
  6
CONTINUOUS
 10
9.501836444
 20
7.1804585115
 11
9.5211549635
 21
7.1646298797
  0
LINE
  5
28A
100
AcDbEntity
  8
0
100
AcDbLine
 62
4
  6
CONTINUOUS
 10
9.5211549635
 20
7.1646298797
 11
9.5308142198
 21
7.1494711201
  0
LINE
  5
28B
100
AcDbEntity
  8
0
100
AcDbLine
 62
4
  6
CONTINUOUS
 10
9.4245623753
 20
7.4755952449
 11
9.4149031164
 21
7.4907540048
  0
LINE
  5
28C
100
AcDbEntity
  8
0
100
AcDbLine
 62
7
  6
CONTINUOUS
 10
9.1447399379
 20
6.8546881829
 11
9.1447399379
 21
8.9372243877
  0
LINE
  5
28D
100
AcDbEntity
  8
0
100
AcDbLine
 62
7
  6
CONTINUOUS
 10
9.1666602565
 20
6.844861586
 11
9.1666602565
 21
8.9273977909
  0
LINE
  5
28E
100
AcDbEntity
  8
0
100
AcDbLine
 62
7
  6
CONTINUOUS
 10
9.5658145991
 20
9.4903244186
 11
9.2464321647
 21
9.1818246585
  0
LINE
  5
28F
100
AcDbEntity
  8
0
100
AcDbLine
 62
7
  6
CONTINUOUS
 10
10.4652260652
 20
10.3580892336
 11
10.6628783156
 21
10.5490066583
  0
LINE
  5
290
100
AcDbEntity
  8
0
100
AcDbLine
 62
7
  6
CONTINUOUS
 10
11.4008468251
 20
6.6899202212
 11
11.4388139112
 21
6.6955936125
  0
LINE
  5
291
100
AcDbEntity
  8
0
100
AcDbLine
 62
7
  6
CONTINUOUS
 10
11.8190496763
 20
6.6221961768
 11
11.5347739348
 21
6.6419107664
  0
LINE
  5
292
100
AcDbEntity
  8
0
100
AcDbLine
 62
4
  6
CONTINUOUS
 10
9.5114957003
 20
6.8827664373
 11
9.4921771877
 21
6.8841061807
  0
LINE
  5
293
100
AcDbEntity
  8
0
100
AcDbLine
 62
4
  6
CONTINUOUS
 10
9.4728586681
 20
7.1897125711
 11
9.501836444
 21
7.1804585115
  0
LINE
  5
294
100
AcDbEntity
  8
0
100
AcDbLine
 62
4
  6
CONTINUOUS
 10
9.4149031164
 20
7.4110651211
 11
9.5308142198
 21
7.3450711071
  0
LINE
  5
295
100
AcDbEntity
  8
0
100
AcDbLine
 62
4
  6
CONTINUOUS
 10
9.4342216342
 20
7.4676809291
 11
9.4245623753
 21
7.4755952449
  0
LINE
  5
296
100
AcDbEntity
  8
0
100
AcDbLine
 62
4
  6
CONTINUOUS
 10
9.501836444
 20
7.5281918218
 11
9.5211549635
 21
7.51236319
  0
LINE
  5
297
100
AcDbEntity
  8
0
100
AcDbLine
 62
4
  6
CONTINUOUS
 10
9.5211549635
 20
7.51236319
 11
9.5308142198
 21
7.4972044304
  0
LINE
  5
298
100
AcDbEntity
  8
0
100
AcDbLine
 62
7
  6
CONTINUOUS
 10
9.4042349674
 20
9.3342504701
 11
9.4042349674
 21
9.6275543564
  0
LINE
  5
299
100
AcDbEntity
  8
0
100
AcDbLine
 62
4
  6
CONTINUOUS
 10
9.4149031164
 20
6.9474207074
 11
9.4149031164
 21
6.8894651557
  0
LINE
  5
29A
100
AcDbEntity
  8
0
100
AcDbLine
 62
4
  6
CONTINUOUS
 10
9.4149031164
 20
7.1430206945
 11
9.4149031164
 21
7.1575095824
  0
LINE
  5
29B
100
AcDbEntity
  8
0
100
AcDbLine
 62
4
  6
CONTINUOUS
 10
9.4149031164
 20
7.4907540048
 11
9.4149031164
 21
7.5052428927
  0
LINE
  5
29C
100
AcDbEntity
  8
0
100
AcDbLine
 62
4
  6
CONTINUOUS
 10
9.4728586681
 20
7.2911347866
 11
9.4728586681
 21
7.2549125667
  0
LINE
  5
29D
100
AcDbEntity
  8
0
100
AcDbLine
 62
4
  6
CONTINUOUS
 10
9.4728586681
 20
7.0520681357
 11
9.4728586681
 21
7.0086014719
  0
LINE
  5
29E
100
AcDbEntity
  8
0
100
AcDbLine
 62
7
  6
CONTINUOUS
 10
9.4989387604
 20
9.2366327023
 11
9.5069621442
 21
9.2743263987
  0
LINE
  5
29F
100
AcDbEntity
  8
0
100
AcDbLine
 62
7
  6
CONTINUOUS
 10
9.5069621442
 20
9.2743263987
 11
9.8263445785
 21
9.5828261588
  0
LINE
  5
2A0
100
AcDbEntity
  8
0
100
AcDbLine
 62
7
  6
CONTINUOUS
 10
10.9234082951
 20
10.6415083985
 11
10.6189540488
 21
10.3474281617
  0
LINE
  5
2A1
100
AcDbEntity
  8
0
100
AcDbLine
 62
4
  6
CONTINUOUS
 10
9.5308142198
 20
7.4972044304
 11
9.5308142198
 21
7.4827155424
  0
LINE
  5
2A2
100
AcDbEntity
  8
0
100
AcDbLine
 62
4
  6
CONTINUOUS
 10
9.5308142198
 20
7.2871155554
 11
9.5308142198
 21
7.2291600037
  0
LINE
  5
2A3
100
AcDbEntity
  8
0
100
AcDbLine
 62
4
  6
CONTINUOUS
 10
9.5308142198
 20
7.1494711201
 11
9.5308142198
 21
7.1349822321
  0
LINE
  5
2A4
100
AcDbEntity
  8
0
100
AcDbLine
 62
4
  6
CONTINUOUS
 10
9.5308142198
 20
6.9176489132
 11
9.5308142198
 21
6.9031600253
  0
LINE
  5
2A5
100
AcDbEntity
  8
0
100
AcDbLine
 62
4
  6
CONTINUOUS
 10
9.4149031164
 20
7.2951540177
 11
9.5308142198
 21
7.2871155554
  0
LINE
  5
2A6
100
AcDbEntity
  8
0
100
AcDbLine
 62
4
  6
CONTINUOUS
 10
9.4728586681
 20
7.5374458813
 11
9.501836444
 21
7.5281918218
  0
LINE
  5
2A7
100
AcDbEntity
  8
0
100
AcDbLine
 62
4
  6
CONTINUOUS
 10
9.4438808923
 20
7.1844777427
 11
9.4728586681
 21
7.1897125711
  0
LINE
  5
2A8
100
AcDbEntity
  8
0
100
AcDbLine
 62
4
  6
CONTINUOUS
 10
9.4149031164
 20
7.5052428927
 11
9.4245623753
 21
7.5190619087
  0
LINE
  5
2A9
100
AcDbEntity
  8
0
100
AcDbLine
 62
4
  6
CONTINUOUS
 10
9.5308142198
 20
7.4827155424
 11
9.5211549635
 21
7.4688965262
  0
LINE
  5
2AA
100
AcDbEntity
  8
0
100
AcDbLine
 62
4
  6
CONTINUOUS
 10
9.4438808923
 20
7.532211053
 11
9.4728586681
 21
7.5374458813
  0
LINE
  5
2AB
100
AcDbEntity
  8
0
100
AcDbLine
 62
7
  6
CONTINUOUS
 10
11.0685683211
 20
6.3806853098
 11
11.0765917049
 21
6.3584916015
  0
LINE
  5
2AC
100
AcDbEntity
  8
0
100
AcDbLine
 62
7
  6
CONTINUOUS
 10
10.3362655623
 20
8.5462262612
 11
10.3360829434
 21
8.547259748
  0
LINE
  5
2AD
100
AcDbEntity
  8
0
100
AcDbLine
 62
4
  6
CONTINUOUS
 10
9.4149031164
 20
7.1575095824
 11
9.4245623753
 21
7.1713285984
  0
LINE
  5
2AE
100
AcDbEntity
  8
0
100
AcDbLine
 62
4
  6
CONTINUOUS
 10
9.5308142198
 20
7.1349822321
 11
9.5211549635
 21
7.1211632159
  0
LINE
  5
2AF
100
AcDbEntity
  8
0
100
AcDbLine
 62
7
  6
CONTINUOUS
 10
11.0765917049
 20
9.165472219
 11
11.3959741393
 21
9.4739719791
  0
LINE
  5
2B0
100
AcDbEntity
  8
0
100
AcDbLine
 62
7
  6
CONTINUOUS
 10
12.4930378558
 20
10.5326542188
 11
12.1885836095
 21
10.2385739819
  0
LINE
  5
2B1
100
AcDbEntity
  8
0
100
AcDbLine
 62
7
  6
CONTINUOUS
 10
9.1666602565
 20
8.9273977909
 11
9.1447399379
 21
8.9372243877
  0
LINE
  5
2B2
100
AcDbEntity
  8
0
100
AcDbLine
 62
4
  6
CONTINUOUS
 10
9.5308142198
 20
6.9031600253
 11
9.5211549635
 21
6.889341009
  0
LINE
  5
2B3
100
AcDbEntity
  8
0
100
AcDbLine
 62
7
  6
CONTINUOUS
 10
10.0939412056
 20
7.880185744
 11
10.0981909369
 21
7.8846101093
  0
LINE
  5
2B4
100
AcDbEntity
  8
0
100
AcDbLine
 62
7
  6
CONTINUOUS
 10
11.0685683211
 20
9.1277785225
 11
11.0765917049
 21
9.165472219
  0
LINE
  5
2B5
100
AcDbEntity
  8
0
100
AcDbLine
 62
7
  6
CONTINUOUS
 10
10.2330503309
 20
7.7538120777
 11
10.2288005996
 21
7.7493877125
  0
LINE
  5
2B6
100
AcDbEntity
  8
0
100
AcDbLine
 62
7
  6
CONTINUOUS
 10
11.8190496763
 20
9.4600863876
 11
12.5957650326
 21
10.2103358544
  0
LINE
  5
2B7
100
AcDbEntity
  8
0
100
AcDbLine
 62
7
  6
CONTINUOUS
 10
9.8888419234
 20
7.4609687828
 11
9.7692770177
 21
7.3454779456
  0
LINE
  5
2B8
100
AcDbEntity
  8
0
100
AcDbLine
 62
4
  6
CONTINUOUS
 10
9.4245623753
 20
7.5190619087
 11
9.4438808923
 21
7.532211053
  0
LINE
  5
2B9
100
AcDbEntity
  8
0
100
AcDbLine
 62
4
  6
CONTINUOUS
 10
9.5211549635
 20
7.4688965262
 11
9.5114957003
 21
7.4623219544
  0
LINE
  5
2BA
100
AcDbEntity
  8
0
100
AcDbLine
 62
7
  6
CONTINUOUS
 10
11.4388139112
 20
8.7781298173
 11
11.7581963456
 21
9.0866295774
  0
LINE
  5
2BB
100
AcDbEntity
  8
0
100
AcDbLine
 62
7
  6
CONTINUOUS
 10
12.8552600621
 20
10.1453118171
 11
12.5957650326
 21
9.8946588514
  0
LINE
  5
2BC
100
AcDbEntity
  8
0
100
AcDbLine
 62
7
  6
CONTINUOUS
 10
10.3782384863
 20
7.7095822532
 11
10.2586735805
 21
7.594091416
  0
LINE
  5
2BD
100
AcDbEntity
  8
0
100
AcDbLine
 62
7
  6
CONTINUOUS
 10
10.4321592949
 20
7.7058428324
 11
10.3125943891
 21
7.5903519952
  0
LINE
  5
2BE
100
AcDbEntity
  8
0
100
AcDbLine
 62
4
  6
CONTINUOUS
 10
9.4245623753
 20
7.1713285984
 11
9.4438808923
 21
7.1844777427
  0
LINE
  5
2BF
100
AcDbEntity
  8
0
100
AcDbLine
 62
7
  6
CONTINUOUS
 10
11.4008468251
 20
8.7724564261
 11
11.4388139112
 21
8.7781298173
  0
LINE
  5
2C0
100
AcDbEntity
  8
0
100
AcDbLine
 62
7
  6
CONTINUOUS
 10
11.4008468251
 20
8.7724564261
 11
11.4008468251
 21
6.6899202212
  0
LINE
  5
2C1
100
AcDbEntity
  8
0
100
AcDbLine
 62
4
  6
CONTINUOUS
 10
9.5211549635
 20
7.1211632159
 11
9.5114957003
 21
7.1145886441
  0
LINE
  5
2C2
100
AcDbEntity
  8
0
100
AcDbLine
 62
4
  6
CONTINUOUS
 10
12.2083871744
 20
8.4838613463
 11
12.2061687284
 21
8.4844782833
  0
LINE
  5
2C3
100
AcDbEntity
  8
0
100
AcDbLine
 62
4
  6
CONTINUOUS
 10
12.2327900922
 20
8.5074327562
 11
12.2305716448
 21
8.5080496919
  0
LINE
  5
2C4
100
AcDbEntity
  8
0
100
AcDbLine
 62
4
  6
CONTINUOUS
 10
12.2388538089
 20
7.1049699253
 11
12.2349715265
 21
7.1108791845
  0
LINE
  5
2C5
100
AcDbEntity
  8
0
100
AcDbLine
 62
4
  6
CONTINUOUS
 10
12.2660297856
 20
7.1408791609
 11
12.269912068
 21
7.1349699016
  0
LINE
  5
2C6
100
AcDbEntity
  8
0
100
AcDbLine
 62
4
  6
CONTINUOUS
 10
12.2427360913
 20
7.2246310258
 11
12.2466183737
 21
7.2187217639
  0
LINE
  5
2C7
100
AcDbEntity
  8
0
100
AcDbLine
 62
4
  6
CONTINUOUS
 10
12.2776766328
 20
7.1811069279
 11
12.2660297856
 21
7.1988347161
  0
LINE
  5
2C8
100
AcDbEntity
  8
0
100
AcDbLine
 62
4
  6
CONTINUOUS
 10
12.2737943504
 20
7.2546310021
 11
12.2776766328
 21
7.2487217402
  0
LINE
  5
2C9
100
AcDbEntity
  8
0
100
AcDbLine
 62
7
  6
CONTINUOUS
 10
11.4388139112
 20
8.7781298173
 11
11.4388139112
 21
6.6955936125
  0
LINE
  5
2CA
100
AcDbEntity
  8
0
100
AcDbLine
 62
4
  6
CONTINUOUS
 10
12.2372269847
 20
8.8826339965
 11
12.2239163012
 21
8.8697768628
  0
LINE
  5
2CB
100
AcDbEntity
  8
0
100
AcDbLine
 62
4
  6
CONTINUOUS
 10
12.1122544614
 20
8.7619198016
 11
12.0989437853
 21
8.749062675
  0
LINE
  5
2CC
100
AcDbEntity
  8
0
100
AcDbLine
 62
4
  6
CONTINUOUS
 10
12.1292625648
 20
8.7783483689
 11
12.1403548023
 21
8.7890626482
  0
LINE
  5
2CD
100
AcDbEntity
  8
0
100
AcDbLine
 62
4
  6
CONTINUOUS
 10
12.1536654785
 20
8.8019197748
 11
12.1603208239
 21
8.8083483452
  0
LINE
  5
2CE
100
AcDbEntity
  8
0
100
AcDbLine
 62
4
  6
CONTINUOUS
 10
12.1773289125
 20
8.8247768983
 11
12.1862026966
 21
8.833348316
  0
LINE
  5
2CF
100
AcDbEntity
  8
0
100
AcDbLine
 62
4
  6
CONTINUOUS
 10
12.3074778093
 20
8.9504910863
 11
12.3185700431
 21
8.9612053621
  0
LINE
  5
2D0
100
AcDbEntity
  8
0
100
AcDbLine
 62
4
  6
CONTINUOUS
 10
9.5211549635
 20
6.889341009
 11
9.5114957003
 21
6.8827664373
  0
LINE
  5
2D1
100
AcDbEntity
  8
0
100
AcDbLine
 62
4
  6
CONTINUOUS
 10
9.5308142198
 20
7.4030266588
 11
9.4149031164
 21
7.3531095694
  0
LINE
  5
2D2
100
AcDbEntity
  8
0
100
AcDbLine
 62
4
  6
CONTINUOUS
 10
12.1669761599
 20
8.223630279
 11
12.1714130519
 21
8.219636623
  0
LINE
  5
2D3
100
AcDbEntity
  8
0
100
AcDbLine
 62
7
  6
CONTINUOUS
 10
11.7581963456
 20
9.0866295774
 11
11.7581963456
 21
7.0040933726
  0
LINE
  5
2D4
100
AcDbEntity
  8
0
100
AcDbLine
 62
4
  6
CONTINUOUS
 10
12.2875117858
 20
8.8980879279
 11
12.2756800688
 21
8.8866593662
  0
LINE
  5
2D5
100
AcDbEntity
  8
0
100
AcDbLine
 62
4
  6
CONTINUOUS
 10
12.1033806773
 20
8.6871134646
 11
12.1122544614
 21
8.6956848824
  0
LINE
  5
2D6
100
AcDbEntity
  8
0
100
AcDbLine
 62
4
  6
CONTINUOUS
 10
12.2283531932
 20
8.8078276524
 11
12.2372269847
 21
8.8163990773
  0
LINE
  5
2D7
100
AcDbEntity
  8
0
100
AcDbLine
 62
4
  6
CONTINUOUS
 10
12.3185700431
 20
8.8452942586
 11
12.3074778093
 21
8.8345799829
  0
LINE
  5
2D8
100
AcDbEntity
  8
0
100
AcDbLine
 62
4
  6
CONTINUOUS
 10
12.2638483517
 20
8.7924371606
 11
12.2461007762
 21
8.775294318
  0
LINE
  5
2D9
100
AcDbEntity
  8
0
100
AcDbLine
 62
4
  6
CONTINUOUS
 10
12.2372269847
 20
8.7667228931
 11
12.2239163012
 21
8.7538657594
  0
LINE
  5
2DA
100
AcDbEntity
  8
0
100
AcDbLine
 62
4
  6
CONTINUOUS
 10
12.1862026966
 20
8.7174372126
 11
12.1773289125
 21
8.7088657948
  0
LINE
  5
2DB
100
AcDbEntity
  8
0
100
AcDbLine
 62
4
  6
CONTINUOUS
 10
12.1603208239
 20
8.6924372418
 11
12.1536654785
 21
8.6860086714
  0
LINE
  5
2DC
100
AcDbEntity
  8
0
100
AcDbLine
 62
4
  6
CONTINUOUS
 10
12.1403548023
 20
8.6731515448
 11
12.1292625648
 21
8.6624372655
  0
LINE
  5
2DD
100
AcDbEntity
  8
0
100
AcDbLine
 62
4
  6
CONTINUOUS
 10
12.1122544614
 20
8.6460086981
 11
12.0989437853
 21
8.6331515715
  0
LINE
  5
2DE
100
AcDbEntity
  8
0
100
AcDbLine
 62
7
  6
CONTINUOUS
 10
10.9215558577
 20
7.3893498282
 11
10.801990952
 21
7.273858991
  0
LINE
  5
2DF
100
AcDbEntity
  8
0
100
AcDbLine
 62
4
  6
CONTINUOUS
 10
12.1795473613
 20
8.5719153278
 11
12.1862027031
 21
8.5783438947
  0
LINE
  5
2E0
100
AcDbEntity
  8
0
100
AcDbLine
 62
4
  6
CONTINUOUS
 10
12.2039502787
 20
8.5954867373
 11
12.2150425162
 21
8.6062010166
  0
LINE
  5
2E1
100
AcDbEntity
  8
0
100
AcDbLine
 62
4
  6
CONTINUOUS
 10
12.2283531978
 20
8.6190581486
 11
12.2394454335
 21
8.6297724261
  0
LINE
  5
2E2
100
AcDbEntity
  8
0
100
AcDbLine
 62
4
  6
CONTINUOUS
 10
12.064188119
 20
8.0857076142
 11
12.0730619031
 21
8.0887594559
  0
LINE
  5
2E3
100
AcDbEntity
  8
0
100
AcDbLine
 62
7
  6
CONTINUOUS
 10
9.4989387604
 20
9.2366327023
 11
11.0685683211
 21
9.1277785225
  0
LINE
  5
2E4
100
AcDbEntity
  8
0
100
AcDbLine
 62
7
  6
CONTINUOUS
 10
9.5069621442
 20
9.2743263987
 11
11.0765917049
 21
9.165472219
  0
LINE
  5
2E5
100
AcDbEntity
  8
0
100
AcDbLine
 62
4
  6
CONTINUOUS
 10
12.2091266565
 20
8.2643445347
 11
12.2135635485
 21
8.2603508786
  0
LINE
  5
2E6
100
AcDbEntity
  8
0
100
AcDbLine
 62
4
  6
CONTINUOUS
 10
12.0619696804
 20
8.0890843429
 11
12.064188119
 21
8.0857076142
  0
LINE
  5
2E7
100
AcDbEntity
  8
0
100
AcDbLine
 62
4
  6
CONTINUOUS
 10
12.0730619031
 20
8.0887594559
 11
12.0752803417
 21
8.0853827271
  0
LINE
  5
2E8
100
AcDbEntity
  8
0
100
AcDbLine
 62
4
  6
CONTINUOUS
 10
12.0641511015
 20
6.9362200583
 11
12.0544453956
 21
7.0427561691
  0
LINE
  5
2E9
100
AcDbEntity
  8
0
100
AcDbLine
 62
7
  6
CONTINUOUS
 10
11.8190496763
 20
6.6221961768
 11
11.8190496763
 21
9.4600863876
  0
LINE
  5
2EA
100
AcDbEntity
  8
0
100
AcDbLine
 62
4
  6
CONTINUOUS
 10
12.0782382842
 20
8.6793865078
 11
12.0900700012
 21
8.7128933754
  0
LINE
  5
2EB
100
AcDbEntity
  8
0
100
AcDbLine
 62
7
  6
CONTINUOUS
 10
10.9485162621
 20
7.3407833278
 11
10.8289513563
 21
7.2252924905
  0
LINE
  5
2EC
100
AcDbEntity
  8
0
100
AcDbLine
 62
4
  6
CONTINUOUS
 10
12.2039502787
 20
8.5375311856
 11
12.2150425162
 21
8.5482454649
  0
LINE
  5
2ED
100
AcDbEntity
  8
0
100
AcDbLine
 62
4
  6
CONTINUOUS
 10
12.2283531978
 20
8.5611025969
 11
12.2394454335
 21
8.5718168744
  0
LINE
  5
2EE
100
AcDbEntity
  8
0
100
AcDbLine
 62
4
  6
CONTINUOUS
 10
12.1862027031
 20
8.5121089755
 11
12.1795473613
 21
8.5056804086
  0
LINE
  5
2EF
100
AcDbEntity
  8
0
100
AcDbLine
 62
4
  6
CONTINUOUS
 10
12.2394454335
 20
8.5138613227
 11
12.2327900922
 21
8.5074327562
  0
LINE
  5
2F0
100
AcDbEntity
  8
0
100
AcDbLine
 62
4
  6
CONTINUOUS
 10
12.2150425162
 20
8.4902899132
 11
12.2083871744
 21
8.4838613463
  0
LINE
  5
2F1
100
AcDbEntity
  8
0
100
AcDbLine
 62
4
  6
CONTINUOUS
 10
12.1862027031
 20
8.4624327913
 11
12.1795473613
 21
8.4560042244
  0
LINE
  5
2F2
100
AcDbEntity
  8
0
100
AcDbLine
 62
4
  6
CONTINUOUS
 10
12.0900700012
 20
8.668736762
 11
12.0782382842
 21
8.6793865078
  0
LINE
  5
2F3
100
AcDbEntity
  8
0
100
AcDbLine
 62
4
  6
CONTINUOUS
 10
12.064188119
 20
8.0415510025
 11
12.0619696804
 21
8.0476875227
  0
LINE
  5
2F4
100
AcDbEntity
  8
0
100
AcDbLine
 62
4
  6
CONTINUOUS
 10
12.0752803417
 20
8.1267795499
 11
12.0730619031
 21
8.1329160675
  0
LINE
  5
2F5
100
AcDbEntity
  8
0
100
AcDbLine
 62
4
  6
CONTINUOUS
 10
12.0930279395
 20
8.1522017789
 11
12.0952463781
 21
8.1460652612
  0
LINE
  5
2F6
100
AcDbEntity
  8
0
100
AcDbLine
 62
4
  6
CONTINUOUS
 10
12.1248256633
 20
8.1829160233
 11
12.1270441167
 21
8.17677952
  0
LINE
  5
2F7
100
AcDbEntity
  8
0
100
AcDbLine
 62
4
  6
CONTINUOUS
 10
12.2349715265
 20
7.1108791845
 11
12.2310892441
 21
7.126447707
  0
LINE
  5
2F8
100
AcDbEntity
  8
0
100
AcDbLine
 62
4
  6
CONTINUOUS
 10
12.2466183737
 20
7.2187217639
 11
12.2505006561
 21
7.203153244
  0
LINE
  5
2F9
100
AcDbEntity
  8
0
100
AcDbLine
 62
4
  6
CONTINUOUS
 10
12.2640886444
 20
7.1486634256
 11
12.2660297856
 21
7.1408791609
  0
LINE
  5
2FA
100
AcDbEntity
  8
0
100
AcDbLine
 62
4
  6
CONTINUOUS
 10
12.2660297856
 20
7.1988347161
 11
12.2640886444
 21
7.2066189739
  0
LINE
  5
2FB
100
AcDbEntity
  8
0
100
AcDbLine
 62
4
  6
CONTINUOUS
 10
12.2796177739
 20
7.1733226701
 11
12.2776766328
 21
7.1811069279
  0
LINE
  5
2FC
100
AcDbEntity
  8
0
100
AcDbLine
 62
4
  6
CONTINUOUS
 10
12.2776766328
 20
7.2487217402
 11
12.2815589151
 21
7.2331532203
  0
LINE
  5
2FD
100
AcDbEntity
  8
0
100
AcDbLine
 62
4
  6
CONTINUOUS
 10
12.1165619137
 20
6.9868450184
 11
12.1068562078
 21
7.0933811292
  0
LINE
  5
2FE
100
AcDbEntity
  8
0
100
AcDbLine
 62
4
  6
CONTINUOUS
 10
12.1573258788
 20
7.0262199874
 11
12.1476201728
 21
7.1327560982
  0
LINE
  5
2FF
100
AcDbEntity
  8
0
100
AcDbLine
 62
4
  6
CONTINUOUS
 10
12.2310892441
 20
7.126447707
 11
12.2291481029
 21
7.1535504844
  0
LINE
  5
300
100
AcDbEntity
  8
0
100
AcDbLine
 62
4
  6
CONTINUOUS
 10
12.2505006561
 20
7.203153244
 11
12.2524417972
 21
7.1760504666
  0
LINE
  5
301
100
AcDbEntity
  8
0
100
AcDbLine
 62
4
  6
CONTINUOUS
 10
12.0311517013
 20
7.0202561869
 11
12.0311517013
 21
6.9043450834
  0
LINE
  5
302
100
AcDbEntity
  8
0
100
AcDbLine
 62
4
  6
CONTINUOUS
 10
12.0619696804
 20
8.1139224376
 11
12.0619696804
 21
8.0890843429
  0
LINE
  5
303
100
AcDbEntity
  8
0
100
AcDbLine
 62
4
  6
CONTINUOUS
 10
12.0752803417
 20
8.0853827271
 11
12.0752803417
 21
8.060544635
  0
LINE
  5
304
100
AcDbEntity
  8
0
100
AcDbLine
 62
4
  6
CONTINUOUS
 10
12.0932682194
 20
6.9643450361
 11
12.0932682194
 21
7.0802561396
  0
LINE
  5
305
100
AcDbEntity
  8
0
100
AcDbLine
 62
4
  6
CONTINUOUS
 10
12.0952463781
 20
8.1460652612
 11
12.0952463781
 21
8.0798303464
  0
LINE
  5
306
100
AcDbEntity
  8
0
100
AcDbLine
 62
4
  6
CONTINUOUS
 10
12.1070780951
 20
8.1657731879
 11
12.1070780951
 21
8.0829795406
  0
LINE
  5
307
100
AcDbEntity
  8
0
100
AcDbLine
 62
4
  6
CONTINUOUS
 10
12.1070780951
 20
8.0581414519
 11
12.1070780951
 21
8.0498620845
  0
LINE
  5
308
100
AcDbEntity
  8
0
100
AcDbLine
 62
4
  6
CONTINUOUS
 10
12.1122544614
 20
8.7619198016
 11
12.1122544614
 21
8.6460086981
  0
LINE
  5
309
100
AcDbEntity
  8
0
100
AcDbLine
 62
4
  6
CONTINUOUS
 10
12.1248256728
 20
8.6747102847
 11
12.1248256728
 21
8.7575039302
  0
LINE
  5
30A
100
AcDbEntity
  8
0
100
AcDbLine
 62
4
  6
CONTINUOUS
 10
12.1270441167
 20
8.17677952
 11
12.1270441167
 21
8.0691477815
  0
LINE
  5
30B
100
AcDbEntity
  8
0
100
AcDbLine
 62
4
  6
CONTINUOUS
 10
12.1359179008
 20
8.1936303027
 11
12.1359179008
 21
8.1108366554
  0
LINE
  5
30C
100
AcDbEntity
  8
0
100
AcDbLine
 62
4
  6
CONTINUOUS
 10
12.1403548023
 20
8.7890626482
 11
12.1403548023
 21
8.6731515448
  0
LINE
  5
30D
100
AcDbEntity
  8
0
100
AcDbLine
 62
4
  6
CONTINUOUS
 10
12.1492285917
 20
8.1236937963
 11
12.1492285917
 21
8.1982080786
  0
LINE
  5
30E
100
AcDbEntity
  8
0
100
AcDbLine
 62
4
  6
CONTINUOUS
 10
12.1492285864
 20
8.6982816906
 11
12.1492285864
 21
8.7810753361
  0
LINE
  5
30F
100
AcDbEntity
  8
0
100
AcDbLine
 62
4
  6
CONTINUOUS
 10
12.1581023758
 20
8.2150588613
 11
12.1581023758
 21
8.1488239421
  0
LINE
  5
310
100
AcDbEntity
  8
0
100
AcDbLine
 62
4
  6
CONTINUOUS
 10
12.1063386156
 20
8.049147802
 11
12.1070780951
 21
8.0581414519
  0
LINE
  5
311
100
AcDbEntity
  8
0
100
AcDbLine
 62
4
  6
CONTINUOUS
 10
12.1248256728
 20
8.7575039302
 11
12.1292625648
 21
8.7783483689
  0
LINE
  5
312
100
AcDbEntity
  8
0
100
AcDbLine
 62
4
  6
CONTINUOUS
 10
12.1492285864
 20
8.7810753361
 11
12.1536654785
 21
8.8019197748
  0
LINE
  5
313
100
AcDbEntity
  8
0
100
AcDbLine
 62
4
  6
CONTINUOUS
 10
12.164757716
 20
8.7132816787
 11
12.1603208239
 21
8.6924372418
  0
LINE
  5
314
100
AcDbEntity
  8
0
100
AcDbLine
 62
4
  6
CONTINUOUS
 10
12.1906395887
 20
8.7382816495
 11
12.1862026966
 21
8.7174372126
  0
LINE
  5
315
100
AcDbEntity
  8
0
100
AcDbLine
 62
4
  6
CONTINUOUS
 10
12.064188119
 20
8.1243446498
 11
12.0619696804
 21
8.1139224376
  0
LINE
  5
316
100
AcDbEntity
  8
0
100
AcDbLine
 62
4
  6
CONTINUOUS
 10
12.1751104693
 20
8.5510708892
 11
12.1795473613
 21
8.5719153278
  0
LINE
  5
317
100
AcDbEntity
  8
0
100
AcDbLine
 62
4
  6
CONTINUOUS
 10
12.0752803417
 20
8.060544635
 11
12.0730619031
 21
8.0501224202
  0
LINE
  5
318
100
AcDbEntity
  8
0
100
AcDbLine
 62
4
  6
CONTINUOUS
 10
12.1906395988
 20
8.5329534195
 11
12.1862027031
 21
8.5121089755
  0
LINE
  5
319
100
AcDbEntity
  8
0
100
AcDbLine
 62
4
  6
CONTINUOUS
 10
12.1995133866
 20
8.5746422986
 11
12.2039502787
 21
8.5954867373
  0
LINE
  5
31A
100
AcDbEntity
  8
0
100
AcDbLine
 62
4
  6
CONTINUOUS
 10
12.0952463781
 20
8.0798303464
 11
12.0930279395
 21
8.0694081316
  0
LINE
  5
31B
100
AcDbEntity
  8
0
100
AcDbLine
 62
4
  6
CONTINUOUS
 10
12.1765894358
 20
8.4945439112
 11
12.1795473613
 21
8.5056804086
  0
LINE
  5
31C
100
AcDbEntity
  8
0
100
AcDbLine
 62
4
  6
CONTINUOUS
 10
12.3244859025
 20
8.8951651486
 11
12.3363176205
 21
8.9286720188
  0
LINE
  5
31D
100
AcDbEntity
  8
0
100
AcDbLine
 62
4
  6
CONTINUOUS
 10
12.2327900905
 20
8.31479954
 11
12.2283531985
 21
8.3105138311
  0
LINE
  5
31E
100
AcDbEntity
  8
0
100
AcDbLine
 62
4
  6
CONTINUOUS
 10
12.3503677877
 20
8.4007729991
 11
12.3414939992
 21
8.3922015771
  0
LINE
  5
31F
100
AcDbEntity
  8
0
100
AcDbLine
 62
4
  6
CONTINUOUS
 10
12.3237464236
 20
8.3750587345
 11
12.31709108
 21
8.3686301659
  0
LINE
  5
320
100
AcDbEntity
  8
0
100
AcDbLine
 62
4
  6
CONTINUOUS
 10
12.1470101383
 20
8.204344582
 11
12.1359179008
 21
8.1936303027
  0
LINE
  5
321
100
AcDbEntity
  8
0
100
AcDbLine
 62
4
  6
CONTINUOUS
 10
12.0730619031
 20
8.1329160675
 11
12.064188119
 21
8.1243446498
  0
LINE
  5
322
100
AcDbEntity
  8
0
100
AcDbLine
 62
4
  6
CONTINUOUS
 10
12.0841541258
 20
8.1436303325
 11
12.0930279395
 21
8.1522017789
  0
LINE
  5
323
100
AcDbEntity
  8
0
100
AcDbLine
 62
4
  6
CONTINUOUS
 10
12.1203887712
 20
8.1786303145
 11
12.1248256633
 21
8.1829160233
  0
LINE
  5
324
100
AcDbEntity
  8
0
100
AcDbLine
 62
4
  6
CONTINUOUS
 10
12.1581023758
 20
8.2150588613
 11
12.1669761599
 21
8.223630279
  0
LINE
  5
325
100
AcDbEntity
  8
0
100
AcDbLine
 62
4
  6
CONTINUOUS
 10
12.2002528724
 20
8.2557731169
 11
12.2091266565
 21
8.2643445347
  0
LINE
  5
326
100
AcDbEntity
  8
0
100
AcDbLine
 62
4
  6
CONTINUOUS
 10
12.1669761599
 20
8.1822334554
 11
12.1581023758
 21
8.1736620376
  0
LINE
  5
327
100
AcDbEntity
  8
0
100
AcDbLine
 62
4
  6
CONTINUOUS
 10
12.2549745656
 20
8.2258365695
 11
12.243882328
 21
8.2151222902
  0
LINE
  5
328
100
AcDbEntity
  8
0
100
AcDbLine
 62
4
  6
CONTINUOUS
 10
12.2091266565
 20
8.1815508874
 11
12.2002528724
 21
8.1729794696
  0
LINE
  5
329
100
AcDbEntity
  8
0
100
AcDbLine
 62
4
  6
CONTINUOUS
 10
12.1913790735
 20
8.1644080376
 11
12.1825052894
 21
8.1558366199
  0
LINE
  5
32A
100
AcDbEntity
  8
0
100
AcDbLine
 62
4
  6
CONTINUOUS
 10
12.0930279395
 20
8.0694081316
 11
12.0841541258
 21
8.0608366853
  0
LINE
  5
32B
100
AcDbEntity
  8
0
100
AcDbLine
 62
4
  6
CONTINUOUS
 10
12.0730619031
 20
8.0501224202
 11
12.064188119
 21
8.0415510025
  0
LINE
  5
32C
100
AcDbEntity
  8
0
100
AcDbLine
 62
4
  6
CONTINUOUS
 10
12.1603208144
 20
8.1344080613
 11
12.1714130519
 21
8.1451223406
  0
LINE
  5
32D
100
AcDbEntity
  8
0
100
AcDbLine
 62
4
  6
CONTINUOUS
 10
12.3481493405
 20
8.2827190401
 11
12.3392755523
 21
8.2741476184
  0
LINE
  5
32E
100
AcDbEntity
  8
0
100
AcDbLine
 62
4
  6
CONTINUOUS
 10
12.1070780951
 20
8.0498620845
 11
12.1063386156
 21
8.049147802
  0
LINE
  5
32F
100
AcDbEntity
  8
0
100
AcDbLine
 62
7
  6
CONTINUOUS
 10
9.8263445785
 20
9.5828261588
 11
11.3959741393
 21
9.4739719791
  0
LINE
  5
330
100
AcDbEntity
  8
0
100
AcDbLine
 62
7
  6
CONTINUOUS
 10
11.8190496763
 20
9.4600863876
 11
9.4042349674
 21
9.6275543564
  0
LINE
  5
331
100
AcDbEntity
  8
0
100
AcDbLine
 62
4
  6
CONTINUOUS
 10
12.1862027031
 20
8.5121089755
 11
12.1891606323
 21
8.5066867553
  0
LINE
  5
332
100
AcDbEntity
  8
0
100
AcDbLine
 62
4
  6
CONTINUOUS
 10
12.2061687284
 20
8.4844782833
 11
12.2017318326
 21
8.4939915075
  0
LINE
  5
333
100
AcDbEntity
  8
0
100
AcDbLine
 62
4
  6
CONTINUOUS
 10
12.2305716448
 20
8.5080496919
 11
12.2261347509
 21
8.5175629179
  0
LINE
  5
334
100
AcDbEntity
  8
0
100
AcDbLine
 62
4
  6
CONTINUOUS
 10
12.1492285917
 20
8.1982080786
 11
12.1470101383
 21
8.204344582
  0
LINE
  5
335
100
AcDbEntity
  8
0
100
AcDbLine
 62
4
  6
CONTINUOUS
 10
12.243882328
 20
8.2151222902
 11
12.241663882
 21
8.2212588032
  0
LINE
  5
336
100
AcDbEntity
  8
0
100
AcDbLine
 62
4
  6
CONTINUOUS
 10
12.1795473613
 20
8.5056804086
 11
12.1751104693
 21
8.5179534313
  0
LINE
  5
337
100
AcDbEntity
  8
0
100
AcDbLine
 62
4
  6
CONTINUOUS
 10
12.1292625648
 20
8.6624372655
 11
12.1248256728
 21
8.6747102847
  0
LINE
  5
338
100
AcDbEntity
  8
0
100
AcDbLine
 62
4
  6
CONTINUOUS
 10
12.1862027031
 20
8.5783438947
 11
12.1906395988
 21
8.5660708773
  0
LINE
  5
339
100
AcDbEntity
  8
0
100
AcDbLine
 62
4
  6
CONTINUOUS
 10
12.2039502787
 20
8.5375311856
 11
12.1995133866
 21
8.5498042048
  0
LINE
  5
33A
100
AcDbEntity
  8
0
100
AcDbLine
 62
4
  6
CONTINUOUS
 10
12.1536654785
 20
8.6860086714
 11
12.1492285864
 21
8.6982816906
  0
LINE
  5
33B
100
AcDbEntity
  8
0
100
AcDbLine
 62
4
  6
CONTINUOUS
 10
12.1825052894
 20
8.1558366199
 11
12.1810263303
 21
8.1626874225
  0
LINE
  5
33C
100
AcDbEntity
  8
0
100
AcDbLine
 62
4
  6
CONTINUOUS
 10
12.1795473613
 20
8.4560042244
 11
12.1765894358
 21
8.4697058156
  0
LINE
  5
33D
100
AcDbEntity
  8
0
100
AcDbLine
 62
4
  6
CONTINUOUS
 10
12.1581023758
 20
8.1488239421
 11
12.1603208144
 21
8.1344080613
  0
LINE
  5
33E
100
AcDbEntity
  8
0
100
AcDbLine
 62
4
  6
CONTINUOUS
 10
12.3126171739
 20
7.1472420929
 11
12.3038228963
 21
7.2091317334
  0
LINE
  5
33F
100
AcDbEntity
  8
0
100
AcDbLine
 62
4
  6
CONTINUOUS
 10
12.2327900905
 20
8.2044080109
 11
12.2261347451
 21
8.2807730877
  0
LINE
  5
340
100
AcDbEntity
  8
0
100
AcDbLine
 62
4
  6
CONTINUOUS
 10
12.2815959273
 20
8.8095800032
 11
12.2727221358
 21
8.9169196817
  0
LINE
  5
341
100
AcDbEntity
  8
0
100
AcDbLine
 62
4
  6
CONTINUOUS
 10
12.164757716
 20
8.7960753243
 11
12.164757716
 21
8.7132816787
  0
LINE
  5
342
100
AcDbEntity
  8
0
100
AcDbLine
 62
4
  6
CONTINUOUS
 10
12.1714130519
 20
8.219636623
 11
12.1714130519
 21
8.1947985283
  0
LINE
  5
343
100
AcDbEntity
  8
0
100
AcDbLine
 62
4
  6
CONTINUOUS
 10
12.1751104693
 20
8.5179534313
 11
12.1751104693
 21
8.5510708892
  0
LINE
  5
344
100
AcDbEntity
  8
0
100
AcDbLine
 62
4
  6
CONTINUOUS
 10
12.1765894358
 20
8.4697058156
 11
12.1765894358
 21
8.4945439112
  0
LINE
  5
345
100
AcDbEntity
  8
0
100
AcDbLine
 62
4
  6
CONTINUOUS
 10
12.1810263303
 20
8.1626874225
 11
12.1810263303
 21
8.1792461506
  0
LINE
  5
346
100
AcDbEntity
  8
0
100
AcDbLine
 62
4
  6
CONTINUOUS
 10
12.1891606323
 20
8.5066867553
 11
12.1891606323
 21
8.4818486598
  0
LINE
  5
347
100
AcDbEntity
  8
0
100
AcDbLine
 62
4
  6
CONTINUOUS
 10
12.1906395887
 20
8.8210752951
 11
12.1906395887
 21
8.7382816495
  0
LINE
  5
348
100
AcDbEntity
  8
0
100
AcDbLine
 62
4
  6
CONTINUOUS
 10
12.1906395988
 20
8.5660708773
 11
12.1906395988
 21
8.5329534195
  0
LINE
  5
349
100
AcDbEntity
  8
0
100
AcDbLine
 62
4
  6
CONTINUOUS
 10
12.1913790735
 20
8.2472016849
 11
12.1913790735
 21
8.1644080376
  0
LINE
  5
34A
100
AcDbEntity
  8
0
100
AcDbLine
 62
4
  6
CONTINUOUS
 10
12.1995133866
 20
8.5498042048
 11
12.1995133866
 21
8.5746422986
  0
LINE
  5
34B
100
AcDbEntity
  8
0
100
AcDbLine
 62
4
  6
CONTINUOUS
 10
12.2002528724
 20
8.1398620135
 11
12.2002528724
 21
8.2557731169
  0
LINE
  5
34C
100
AcDbEntity
  8
0
100
AcDbLine
 62
4
  6
CONTINUOUS
 10
12.2017318326
 20
8.4939915075
 11
12.2017318326
 21
8.5188296031
  0
LINE
  5
34D
100
AcDbEntity
  8
0
100
AcDbLine
 62
4
  6
CONTINUOUS
 10
12.2135635485
 20
8.2603508786
 11
12.2135635485
 21
8.1941159637
  0
LINE
  5
34E
100
AcDbEntity
  8
0
100
AcDbLine
 62
4
  6
CONTINUOUS
 10
12.2150425162
 20
8.6062010166
 11
12.2150425162
 21
8.4902899132
  0
LINE
  5
34F
100
AcDbEntity
  8
0
100
AcDbLine
 62
4
  6
CONTINUOUS
 10
12.2175012558
 20
7.0843449415
 11
12.2175012558
 21
7.200256045
  0
LINE
  5
350
100
AcDbEntity
  8
0
100
AcDbLine
 62
4
  6
CONTINUOUS
 10
12.2239163039
 20
8.5733756143
 11
12.2239163039
 21
8.5982137081
  0
LINE
  5
351
100
AcDbEntity
  8
0
100
AcDbLine
 62
4
  6
CONTINUOUS
 10
12.2261347509
 20
8.5175629179
 11
12.2261347509
 21
8.5424010135
  0
LINE
  5
352
100
AcDbEntity
  8
0
100
AcDbLine
 62
4
  6
CONTINUOUS
 10
12.2372269847
 20
8.8826339965
 11
12.2372269847
 21
8.7667228931
  0
LINE
  5
353
100
AcDbEntity
  8
0
100
AcDbLine
 62
4
  6
CONTINUOUS
 10
12.2394454335
 20
8.6297724261
 11
12.2394454335
 21
8.5138613227
  0
LINE
  5
354
100
AcDbEntity
  8
0
100
AcDbLine
 62
4
  6
CONTINUOUS
 10
12.241663882
 20
8.2212588032
 11
12.241663882
 21
8.295773083
  0
LINE
  5
355
100
AcDbEntity
  8
0
100
AcDbLine
 62
4
  6
CONTINUOUS
 10
12.2549745603
 20
8.8997768391
 11
12.2549745603
 21
8.7838657357
  0
LINE
  5
356
100
AcDbEntity
  8
0
100
AcDbLine
 62
4
  6
CONTINUOUS
 10
12.2549745656
 20
8.3086302168
 11
12.2549745656
 21
8.1927191133
  0
LINE
  5
357
100
AcDbEntity
  8
0
100
AcDbLine
 62
4
  6
CONTINUOUS
 10
12.2640886444
 20
7.2066189739
 11
12.2640886444
 21
7.2259374917
  0
LINE
  5
358
100
AcDbEntity
  8
0
100
AcDbLine
 62
4
  6
CONTINUOUS
 10
12.2796177739
 20
7.1636634138
 11
12.2796177739
 21
7.1733226701
  0
LINE
  5
359
100
AcDbEntity
  8
0
100
AcDbLine
 62
4
  6
CONTINUOUS
 10
12.2882512707
 20
8.3407730475
 11
12.2882512707
 21
8.2248619441
  0
LINE
  5
35A
100
AcDbEntity
  8
0
100
AcDbLine
 62
4
  6
CONTINUOUS
 10
12.3030409154
 20
8.8468530003
 11
12.3030409154
 21
8.9296466459
  0
LINE
  5
35B
100
AcDbEntity
  8
0
100
AcDbLine
 62
4
  6
CONTINUOUS
 10
12.3037804002
 20
8.3557730357
 11
12.3037804002
 21
8.2398619323
  0
LINE
  5
35C
100
AcDbEntity
  8
0
100
AcDbLine
 62
4
  6
CONTINUOUS
 10
12.3126171739
 20
7.1472420929
 11
12.3126171739
 21
7.3066198601
  0
LINE
  5
35D
100
AcDbEntity
  8
0
100
AcDbLine
 62
4
  6
CONTINUOUS
 10
12.312654188
 20
8.3477857272
 11
12.312654188
 21
8.2484333536
  0
LINE
  5
35E
100
AcDbEntity
  8
0
100
AcDbLine
 62
4
  6
CONTINUOUS
 10
12.3185700431
 20
8.9612053621
 11
12.3185700431
 21
8.8452942586
  0
LINE
  5
35F
100
AcDbEntity
  8
0
100
AcDbLine
 62
4
  6
CONTINUOUS
 10
12.3281833175
 20
8.2634333418
 11
12.3281833175
 21
8.3627857154
  0
LINE
  5
360
100
AcDbEntity
  8
0
100
AcDbLine
 62
4
  6
CONTINUOUS
 10
12.3370571053
 20
8.3713571367
 11
12.3370571053
 21
8.3547984069
  0
LINE
  5
361
100
AcDbEntity
  8
0
100
AcDbLine
 62
4
  6
CONTINUOUS
 10
12.2291481029
 20
7.1535504844
 11
12.2310892441
 21
7.1844032588
  0
LINE
  5
362
100
AcDbEntity
  8
0
100
AcDbLine
 62
4
  6
CONTINUOUS
 10
12.2524417972
 20
7.1760504666
 11
12.2505006561
 21
7.1451976923
  0
LINE
  5
363
100
AcDbEntity
  8
0
100
AcDbLine
 62
4
  6
CONTINUOUS
 10
12.2904697151
 20
8.9340625279
 11
12.2815959273
 21
8.8095800032
  0
LINE
  5
364
100
AcDbEntity
  8
0
100
AcDbLine
 62
4
  6
CONTINUOUS
 10
12.2283531985
 20
8.3105138311
 11
12.2194794144
 21
8.1915508843
  0
LINE
  5
365
100
AcDbEntity
  8
0
100
AcDbLine
 62
4
  6
CONTINUOUS
 10
12.0544453956
 20
7.0427561691
 11
12.0447396896
 21
6.9174700731
  0
LINE
  5
366
100
AcDbEntity
  8
0
100
AcDbLine
 62
4
  6
CONTINUOUS
 10
12.1262676197
 20
7.1121311144
 11
12.1165619137
 21
6.9868450184
  0
LINE
  5
367
100
AcDbEntity
  8
0
100
AcDbLine
 62
4
  6
CONTINUOUS
 10
12.1476201728
 20
7.1327560982
 11
12.1379144669
 21
7.0074700021
  0
LINE
  5
368
100
AcDbEntity
  8
0
100
AcDbLine
 62
4
  6
CONTINUOUS
 10
12.1891606323
 20
8.4818486598
 11
12.1862027031
 21
8.4624327913
  0
LINE
  5
369
100
AcDbEntity
  8
0
100
AcDbLine
 62
4
  6
CONTINUOUS
 10
12.2017318326
 20
8.5188296031
 11
12.2061687284
 21
8.5396740436
  0
LINE
  5
36A
100
AcDbEntity
  8
0
100
AcDbLine
 62
4
  6
CONTINUOUS
 10
12.2239163039
 20
8.5982137081
 11
12.2283531978
 21
8.6190581486
  0
LINE
  5
36B
100
AcDbEntity
  8
0
100
AcDbLine
 62
4
  6
CONTINUOUS
 10
12.3030409154
 20
8.9296466459
 11
12.3074778093
 21
8.9504910863
  0
LINE
  5
36C
100
AcDbEntity
  8
0
100
AcDbLine
 62
4
  6
CONTINUOUS
 10
12.2261347509
 20
8.5424010135
 11
12.2305716448
 21
8.5632454522
  0
LINE
  5
36D
100
AcDbEntity
  8
0
100
AcDbLine
 62
4
  6
CONTINUOUS
 10
12.31709108
 20
8.3686301659
 11
12.312654188
 21
8.3477857272
  0
LINE
  5
36E
100
AcDbEntity
  8
0
100
AcDbLine
 62
4
  6
CONTINUOUS
 10
12.3414939992
 20
8.3922015771
 11
12.3370571053
 21
8.3713571367
  0
LINE
  5
36F
100
AcDbEntity
  8
0
100
AcDbLine
 62
4
  6
CONTINUOUS
 10
12.1714130519
 20
8.1947985283
 11
12.1669761599
 21
8.1822334554
  0
LINE
  5
370
100
AcDbEntity
  8
0
100
AcDbLine
 62
4
  6
CONTINUOUS
 10
12.2135635485
 20
8.1941159637
 11
12.2091266565
 21
8.1815508874
  0
LINE
  5
371
100
AcDbEntity
  8
0
100
AcDbLine
 62
7
  6
CONTINUOUS
 10
10.9485162621
 20
6.7756768532
 11
10.8289513563
 21
6.6601860159
  0
LINE
  5
372
100
AcDbEntity
  8
0
100
AcDbLine
 62
7
  6
CONTINUOUS
 10
10.9215558577
 20
6.7308497735
 11
10.801990952
 21
6.6153589362
  0
LINE
  5
373
100
AcDbEntity
  8
0
100
AcDbLine
 62
4
  6
CONTINUOUS
 10
12.3363176205
 20
8.9286720188
 11
12.3244859025
 21
8.939321762
  0
LINE
  5
374
100
AcDbEntity
  8
0
100
AcDbLine
 62
4
  6
CONTINUOUS
 10
12.3370571053
 20
8.3547984069
 11
12.3525862349
 21
8.3201222074
  0
LINE
  5
375
100
AcDbEntity
  8
0
100
AcDbLine
 62
4
  6
CONTINUOUS
 10
12.2283531978
 20
8.5611025969
 11
12.2239163039
 21
8.5733756143
  0
LINE
  5
376
100
AcDbEntity
  8
0
100
AcDbLine
 62
4
  6
CONTINUOUS
 10
12.3392755523
 20
8.2741476184
 11
12.3370571053
 21
8.2802841306
  0
LINE
  5
377
100
AcDbEntity
  8
0
100
AcDbLine
 62
4
  6
CONTINUOUS
 10
12.1603208239
 20
8.8083483452
 11
12.164757716
 21
8.7960753243
  0
LINE
  5
378
100
AcDbEntity
  8
0
100
AcDbLine
 62
4
  6
CONTINUOUS
 10
12.3281833175
 20
8.3627857154
 11
12.3237464236
 21
8.3750587345
  0
LINE
  5
379
100
AcDbEntity
  8
0
100
AcDbLine
 62
4
  6
CONTINUOUS
 10
12.1862026966
 20
8.833348316
 11
12.1906395887
 21
8.8210752951
  0
LINE
  5
37A
100
AcDbEntity
  8
0
100
AcDbLine
 62
4
  6
CONTINUOUS
 10
12.3525862349
 20
8.3946364898
 11
12.3503677877
 21
8.4007729991
  0
LINE
  5
37B
100
AcDbEntity
  8
0
100
AcDbLine
 62
4
  6
CONTINUOUS
 10
12.3074778093
 20
8.8345799829
 11
12.3030409154
 21
8.8468530003
  0
LINE
  5
37C
100
AcDbEntity
  8
0
100
AcDbLine
 62
4
  6
CONTINUOUS
 10
12.3037804002
 20
8.2398619323
 11
12.2882512707
 21
8.3407730475
  0
LINE
  5
37D
100
AcDbEntity
  8
0
100
AcDbLine
 62
4
  6
CONTINUOUS
 10
12.3525862349
 20
8.3201222074
 11
12.3525862349
 21
8.3035634793
  0
LINE
  5
37E
100
AcDbEntity
  8
0
100
AcDbLine
 62
4
  6
CONTINUOUS
 10
12.3126171739
 20
7.1472420929
 11
12.3214114515
 21
7.2261209741
  0
LINE
  5
37F
100
AcDbEntity
  8
0
100
AcDbLine
 62
4
  6
CONTINUOUS
 10
12.2310892441
 20
7.1844032588
 11
12.2349715265
 21
7.2074717728
  0
LINE
  5
380
100
AcDbEntity
  8
0
100
AcDbLine
 62
4
  6
CONTINUOUS
 10
12.2505006561
 20
7.1451976923
 11
12.2466183737
 21
7.1221291757
  0
LINE
  5
381
100
AcDbEntity
  8
0
100
AcDbLine
 62
4
  6
CONTINUOUS
 10
12.2640886444
 20
7.2259374917
 11
12.2660297856
 21
7.2374717491
  0
LINE
  5
382
100
AcDbEntity
  8
0
100
AcDbLine
 62
4
  6
CONTINUOUS
 10
12.2776766328
 20
7.152129152
 11
12.2796177739
 21
7.1636634138
  0
LINE
  5
383
100
AcDbEntity
  8
0
100
AcDbLine
 62
4
  6
CONTINUOUS
 10
12.3525862349
 20
8.3035634793
 11
12.3481493405
 21
8.2827190401
  0
LINE
  5
384
100
AcDbEntity
  8
0
100
AcDbLine
 62
7
  6
CONTINUOUS
 10
12.5957650326
 20
7.3724456436
 11
12.5957650326
 21
10.2103358544
  0
LINE
  5
385
100
AcDbEntity
  8
0
100
AcDbLine
 62
4
  6
CONTINUOUS
 10
12.2349715265
 20
7.2074717728
 11
12.2388538089
 21
7.2208810287
  0
LINE
  5
386
100
AcDbEntity
  8
0
100
AcDbLine
 62
4
  6
CONTINUOUS
 10
12.2660297856
 20
7.2374717491
 11
12.269912068
 21
7.2508810051
  0
LINE
  5
387
100
AcDbEntity
  8
0
100
AcDbLine
 62
4
  6
CONTINUOUS
 10
12.2466183737
 20
7.1221291757
 11
12.2427360913
 21
7.1087199223
  0
LINE
  5
388
100
AcDbEntity
  8
0
100
AcDbLine
 62
4
  6
CONTINUOUS
 10
12.2737943504
 20
7.1387198987
 11
12.2776766328
 21
7.152129152
  0
LINE
  5
389
100
AcDbEntity
  8
0
100
AcDbLine
 62
7
  6
CONTINUOUS
 10
11.4388139112
 20
6.6955936125
 11
11.7581963456
 21
7.0040933726
  0
LINE
  5
38A
100
AcDbEntity
  8
0
100
AcDbLine
 62
7
  6
CONTINUOUS
 10
12.8552600621
 20
8.0627756123
 11
12.5957650326
 21
7.8121226465
  0
LINE
  5
38B
100
AcDbEntity
  8
0
100
AcDbLine
 62
7
  6
CONTINUOUS
 10
11.6565041187
 20
6.7594931019
 11
11.3371216844
 21
6.4509933417
  0
LINE
  5
38C
100
AcDbEntity
  8
0
100
AcDbLine
 62
7
  6
CONTINUOUS
 10
12.5957650326
 20
7.6657495299
 11
12.7535678353
 21
7.8181753415
  0
LINE
  5
38D
100
AcDbEntity
  8
0
100
AcDbLine
 62
7
  6
CONTINUOUS
 10
12.8552600621
 20
8.0627756123
 11
12.8552600621
 21
10.1453118171
  0
LINE
  5
38E
100
AcDbEntity
  8
0
100
AcDbLine
 62
4
  6
CONTINUOUS
 10
12.3126171739
 20
7.3066198601
 11
12.002034583
 21
7.0066200966
  0
LINE
  5
38F
100
AcDbEntity
  8
0
100
AcDbLine
 62
4
  6
CONTINUOUS
 10
12.2175012558
 20
7.200256045
 11
12.2019721262
 21
7.1852560568
  0
LINE
  5
390
100
AcDbEntity
  8
0
100
AcDbLine
 62
4
  6
CONTINUOUS
 10
12.0932682194
 20
7.0802561396
 11
12.0777390899
 21
7.0652561514
  0
LINE
  5
391
100
AcDbEntity
  8
0
100
AcDbLine
 62
4
  6
CONTINUOUS
 10
12.0156225717
 20
7.0052561987
 11
12.0311517013
 21
7.0202561869
  0
LINE
  5
392
100
AcDbEntity
  8
0
100
AcDbLine
 62
4
  6
CONTINUOUS
 10
12.2388538089
 20
7.2208810287
 11
12.2427360913
 21
7.2246310258
  0
LINE
  5
393
100
AcDbEntity
  8
0
100
AcDbLine
 62
4
  6
CONTINUOUS
 10
12.269912068
 20
7.2508810051
 11
12.2737943504
 21
7.2546310021
  0
LINE
  5
394
100
AcDbEntity
  8
0
100
AcDbLine
 62
4
  6
CONTINUOUS
 10
12.1223853373
 20
7.0697440818
 11
12.1107384902
 21
7.0584940906
  0
LINE
  5
395
100
AcDbEntity
  8
0
100
AcDbLine
 62
4
  6
CONTINUOUS
 10
12.0311517013
 20
6.9623006352
 11
12.0214459953
 21
6.9529256426
  0
LINE
  5
396
100
AcDbEntity
  8
0
100
AcDbLine
 62
4
  6
CONTINUOUS
 10
12.2427360913
 20
7.1087199223
 11
12.2388538089
 21
7.1049699253
  0
LINE
  5
397
100
AcDbEntity
  8
0
100
AcDbLine
 62
4
  6
CONTINUOUS
 10
12.0311517013
 20
6.9043450834
 11
12.0156225717
 21
6.8893450953
  0
LINE
  5
398
100
AcDbEntity
  8
0
100
AcDbLine
 62
4
  6
CONTINUOUS
 10
12.269912068
 20
7.1349699016
 11
12.2737943504
 21
7.1387198987
  0
LINE
  5
399
100
AcDbEntity
  8
0
100
AcDbLine
 62
7
  6
CONTINUOUS
 10
12.5957650326
 20
10.2103358544
 11
10.1809503237
 21
10.3778038232
  0
LINE
  5
39A
100
AcDbEntity
  8
0
100
AcDbLine
 62
7
  6
CONTINUOUS
 10
11.8190496763
 20
6.6221961768
 11
12.5957650326
 21
7.3724456436
  0
LINE
  5
39B
100
AcDbEntity
  8
0
100
AcDbLine
 62
7
  6
CONTINUOUS
 10
12.4930378558
 20
10.5326542188
 11
10.9234082951
 21
10.6415083985
  0
ARC
  5
39C
100
AcDbEntity
  8
0
100
AcDbCircle
 62
7
  6
CONTINUOUS
 10
10.3506461598
 20
7.0406580281
 40
0.6689722376
100
AcDbArc
 50
26.6562307081
 51
31.4151349724
  0
ARC
  5
39D
100
AcDbEntity
  8
0
100
AcDbCircle
 62
7
  6
CONTINUOUS
 10
10.3401867156
 20
7.0356696909
 40
0.6689722376
100
AcDbArc
 50
206.6562307081
 51
211.4151349724
  0
ARC
  5
39E
100
AcDbEntity
  8
0
100
AcDbCircle
 62
7
  6
CONTINUOUS
 10
10.231081254
 20
6.9251671909
 40
0.6689722376
100
AcDbArc
 50
26.6562307081
 51
31.4151349724
  0
ARC
  5
39F
100
AcDbEntity
  8
0
100
AcDbCircle
 62
7
  6
CONTINUOUS
 10
10.3622672499
 20
7.0896954962
 40
0.6200987324
100
AcDbArc
 50
83.5283744339
 51
86.0300335618
  0
ARC
  5
3A0
100
AcDbEntity
  8
0
100
AcDbCircle
 62
7
  6
CONTINUOUS
 10
10.3285656255
 20
6.9866322229
 40
0.6200987324
100
AcDbArc
 50
263.5283744339
 51
266.0300335618
  0
ARC
  5
3A1
100
AcDbEntity
  8
0
100
AcDbCircle
 62
7
  6
CONTINUOUS
 10
10.2427023442
 20
6.9742046589
 40
0.6200987324
100
AcDbArc
 50
83.5283744339
 51
86.0300335618
  0
ARC
  5
3A2
100
AcDbEntity
  8
0
100
AcDbCircle
 62
7
  6
CONTINUOUS
 10
10.3281562552
 20
6.9810256472
 40
0.614477268
100
AcDbArc
 50
266.031919382
 51
268.5488078505
  0
ARC
  5
3A3
100
AcDbEntity
  8
0
100
AcDbCircle
 62
7
  6
CONTINUOUS
 10
10.2431117144
 20
6.9798112346
 40
0.614477268
100
AcDbArc
 50
86.031919382
 51
88.5488078505
  0
ARC
  5
3A4
100
AcDbEntity
  8
0
100
AcDbCircle
 62
7
  6
CONTINUOUS
 10
10.3627208918
 20
7.0962375053
 40
0.6135410137
100
AcDbArc
 50
86.0299987056
 51
88.5507285268
  0
ARC
  5
3A5
100
AcDbEntity
  8
0
100
AcDbCircle
 62
7
  6
CONTINUOUS
 10
10.4563802972
 20
7.041141823
 40
0.5591685417
100
AcDbArc
 50
326.2950117378
 51
331.6569605865
  0
ARC
  5
3A6
100
AcDbEntity
  8
0
100
AcDbCircle
 62
7
  6
CONTINUOUS
 10
10.2344525782
 20
7.0351858961
 40
0.5591685417
100
AcDbArc
 50
146.2950117378
 51
151.6569605865
  0
ARC
  5
3A7
100
AcDbEntity
  8
0
100
AcDbCircle
 62
7
  6
CONTINUOUS
 10
10.3368153915
 20
6.9256509857
 40
0.5591685417
100
AcDbArc
 50
326.2950117378
 51
331.6569605865
  0
ARC
  5
3A8
100
AcDbEntity
  8
0
100
AcDbCircle
 62
7
  6
CONTINUOUS
 10
10.4045801574
 20
7.1822042091
 40
0.4867884183
100
AcDbArc
 50
114.6368435983
 51
118.4497926004
  0
ARC
  5
3A9
100
AcDbEntity
  8
0
100
AcDbCircle
 62
7
  6
CONTINUOUS
 10
10.894593632
 20
8.9351454158
 40
0.4464416387
100
AcDbArc
 50
172.4732167664
 51
180.0170105525
  0
ARC
  5
3AA
100
AcDbEntity
  8
0
100
AcDbCircle
 62
7
  6
CONTINUOUS
 10
10.9006552172
 20
8.938952306
 40
0.4268811793
100
AcDbArc
 50
172.9614581819
 51
180.0148652856
  0
ARC
  5
3AB
100
AcDbEntity
  8
0
100
AcDbCircle
 62
7
  6
CONTINUOUS
 10
10.9070080645
 20
8.9437998012
 40
0.4187903247
100
AcDbArc
 50
173.714084175
 51
180.0118203599
  0
ARC
  5
3AC
100
AcDbEntity
  8
0
100
AcDbCircle
 62
7
  6
CONTINUOUS
 10
10.0314916292
 20
8.5062277997
 40
0.3073426255
100
AcDbArc
 50
7.4742352423
 51
7.6722123345
  0
ARC
  5
3AD
100
AcDbEntity
  8
0
100
AcDbCircle
 62
7
  6
CONTINUOUS
 10
10.0423602628
 20
8.5076523599
 40
0.2963810305
100
AcDbArc
 50
7.0570959107
 51
7.4744941432
  0
ARC
  5
3AE
100
AcDbEntity
  8
0
100
AcDbCircle
 62
7
  6
CONTINUOUS
 10
10.318427548
 20
8.5435587532
 40
0.0180363628
100
AcDbArc
 50
352.5866374253
 51
8.5074929777
  0
SPLINE
  5
3AF
100
AcDbEntity
  8
0
100
AcDbSpline
 62
7
  6
CONTINUOUS
 70
0
 71
3
 72
15
 73
11
 74
0
 42
0.0000001
 43
0.0000001
 44
0.0000000001
 40
0.0
 40
0.0
 40
0.0
 40
0.0
 40
0.1308537488
 40
0.2612484863
 40
0.3906118221
 40
0.5182256991
 40
0.6433659131
 40
0.7654873328
 40
0.8843458508
 40
1.0
 40
1.0
 40
1.0
 40
1.0
 10
9.7423166133
 20
7.3006508659
 30
0.0
 10
9.7406728779
 20
7.2760342364
 30
0.0
 10
9.7376846807
 20
7.2268669742
 30
0.0
 10
9.7342760168
 20
7.1532961839
 30
0.0
 10
9.7321298493
 20
7.0802877801
 30
0.0
 10
9.7313864796
 20
7.0082416064
 30
0.0
 10
9.7321018492
 20
6.9375603227
 30
0.0
 10
9.7342263757
 20
6.8685591244
 30
0.0
 10
9.7376227562
 20
6.8014005028
 30
0.0
 10
9.7406498248
 20
6.7572862769
 30
0.0
 10
9.7423166133
 20
6.7355443913
 30
0.0
  0
SPLINE
  5
3B0
100
AcDbEntity
  8
0
100
AcDbSpline
 62
7
  6
CONTINUOUS
 70
0
 71
3
 72
19
 73
15
 74
0
 42
0.0000001
 43
0.0000001
 44
0.0000000001
 40
0.0
 40
0.0
 40
0.0
 40
0.0
 40
0.120953556
 40
0.2437779128
 40
0.3058580643
 40
0.3683344807
 40
0.431152153
 40
0.4942432529
 40
0.5575308052
 40
0.6209340224
 40
0.6843741804
 40
0.7477793373
 40
0.8742479802
 40
1.0
 40
1.0
 40
1.0
 40
1.0
 10
9.7692770177
 20
6.6869778908
 30
0.0
 10
9.7877308749
 20
6.6723707373
 30
0.0
 10
9.8252025526
 20
6.6432799957
 30
0.0
 10
9.8730016754
 20
6.6078131268
 30
0.0
 10
9.9121782517
 20
6.5798423719
 30
0.0
 10
9.9421201676
 20
6.5590369947
 30
0.0
 10
9.97249631
 20
6.5385173341
 30
0.0
 10
10.0032760513
 20
6.5183189962
 30
0.0
 10
10.0344195497
 20
6.4984733612
 30
0.0
 10
10.0658800671
 20
6.4790049292
 30
0.0
 10
10.0976074876
 20
6.4599301895
 30
0.0
 10
10.1401614732
 20
6.4350545482
 30
0.0
 10
10.1937208621
 20
6.4049903522
 30
0.0
 10
10.2369990004
 20
6.3818404064
 30
0.0
 10
10.2586735805
 20
6.3704848866
 30
0.0
  0
SPLINE
  5
3B1
100
AcDbEntity
  8
0
100
AcDbSpline
 62
7
  6
CONTINUOUS
 70
0
 71
3
 72
15
 73
11
 74
0
 42
0.0000001
 43
0.0000001
 44
0.0000000001
 40
0.0
 40
0.0
 40
0.0
 40
0.0
 40
0.1123473152
 40
0.228765499
 40
0.3494221518
 40
0.4741361587
 40
0.6023568587
 40
0.7332830648
 40
0.8660699745
 40
1.0
 40
1.0
 40
1.0
 40
1.0
 10
10.3125943891
 20
6.3667454659
 30
0.0
 10
10.3312241387
 20
6.3754431021
 30
0.0
 10
10.3690948463
 20
6.3932907031
 30
0.0
 10
10.4267206227
 20
6.421011303
 30
0.0
 10
10.4861371221
 20
6.4502247498
 30
0.0
 10
10.5472231775
 20
6.4809317983
 30
0.0
 10
10.6097151549
 20
6.5130205582
 30
0.0
 10
10.6732609494
 20
6.5462861335
 30
0.0
 10
10.7374979342
 20
6.5804800617
 30
0.0
 10
10.7804505261
 20
6.6036653264
 30
0.0
 10
10.801990952
 20
6.6153589362
 30
0.0
  0
SPLINE
  5
3B2
100
AcDbEntity
  8
0
100
AcDbSpline
 62
7
  6
CONTINUOUS
 70
0
 71
3
 72
15
 73
11
 74
0
 42
0.0000001
 43
0.0000001
 44
0.0000000001
 40
0.0
 40
0.0
 40
0.0
 40
0.0
 40
0.1308537488
 40
0.2612484863
 40
0.3906118221
 40
0.5182256991
 40
0.6433659131
 40
0.7654873328
 40
0.8843458508
 40
1.0
 40
1.0
 40
1.0
 40
1.0
 10
10.9485162621
 20
6.7756768532
 30
0.0
 10
10.9501599975
 20
6.8002934827
 30
0.0
 10
10.9531481947
 20
6.8494607449
 30
0.0
 10
10.9565568586
 20
6.9230315351
 30
0.0
 10
10.958703026
 20
6.9960399389
 30
0.0
 10
10.9594463958
 20
7.0680861127
 30
0.0
 10
10.9587310262
 20
7.1387673964
 30
0.0
 10
10.9566064997
 20
7.2077685946
 30
0.0
 10
10.9532101192
 20
7.2749272163
 30
0.0
 10
10.9501830506
 20
7.3190414422
 30
0.0
 10
10.9485162621
 20
7.3407833278
 30
0.0
  0
SPLINE
  5
3B3
100
AcDbEntity
  8
0
100
AcDbSpline
 62
7
  6
CONTINUOUS
 70
0
 71
3
 72
19
 73
15
 74
0
 42
0.0000001
 43
0.0000001
 44
0.0000000001
 40
0.0
 40
0.0
 40
0.0
 40
0.0
 40
0.120953556
 40
0.2437779128
 40
0.3058580643
 40
0.3683344807
 40
0.431152153
 40
0.4942432529
 40
0.5575308052
 40
0.6209340224
 40
0.6843741804
 40
0.7477793373
 40
0.8742479802
 40
1.0
 40
1.0
 40
1.0
 40
1.0
 10
10.9215558577
 20
7.3893498282
 30
0.0
 10
10.9031020005
 20
7.4039569818
 30
0.0
 10
10.8656303228
 20
7.4330477233
 30
0.0
 10
10.8178312
 20
7.4685145923
 30
0.0
 10
10.7786546237
 20
7.4964853472
 30
0.0
 10
10.7487127078
 20
7.5172907243
 30
0.0
 10
10.7183365654
 20
7.537810385
 30
0.0
 10
10.6875568241
 20
7.5580087228
 30
0.0
 10
10.6564133257
 20
7.5778543578
 30
0.0
 10
10.6249528083
 20
7.5973227899
 30
0.0
 10
10.5932253878
 20
7.6163975295
 30
0.0
 10
10.5506714022
 20
7.6412731708
 30
0.0
 10
10.4971120133
 20
7.6713373669
 30
0.0
 10
10.453833875
 20
7.6944873127
 30
0.0
 10
10.4321592949
 20
7.7058428324
 30
0.0
  0
SPLINE
  5
3B4
100
AcDbEntity
  8
0
100
AcDbSpline
 62
7
  6
CONTINUOUS
 70
0
 71
3
 72
15
 73
11
 74
0
 42
0.0000001
 43
0.0000001
 44
0.0000000001
 40
0.0
 40
0.0
 40
0.0
 40
0.0
 40
0.1123473152
 40
0.228765499
 40
0.3494221518
 40
0.4741361587
 40
0.6023568587
 40
0.7332830648
 40
0.8660699745
 40
1.0
 40
1.0
 40
1.0
 40
1.0
 10
10.3782384863
 20
7.7095822532
 30
0.0
 10
10.3596087367
 20
7.7008846169
 30
0.0
 10
10.3217380291
 20
7.683037016
 30
0.0
 10
10.2641122527
 20
7.6553164161
 30
0.0
 10
10.2046957533
 20
7.6261029692
 30
0.0
 10
10.1436096978
 20
7.5953959207
 30
0.0
 10
10.0811177205
 20
7.5633071608
 30
0.0
 10
10.017571926
 20
7.5300415855
 30
0.0
 10
9.9533349412
 20
7.4958476574
 30
0.0
 10
9.9103823493
 20
7.4726623926
 30
0.0
 10
9.8888419234
 20
7.4609687828
 30
0.0
  0
SPLINE
  5
3B5
100
AcDbEntity
  8
0
100
AcDbSpline
 62
7
  6
CONTINUOUS
 70
0
 71
3
 72
15
 73
11
 74
0
 42
0.0000001
 43
0.0000001
 44
0.0000000001
 40
0.0
 40
0.0
 40
0.0
 40
0.0
 40
0.1156541492
 40
0.2345126673
 40
0.3566340869
 40
0.481774301
 40
0.609388178
 40
0.7387515137
 40
0.8691462512
 40
1.0
 40
1.0
 40
1.0
 40
1.0
 10
10.8289513563
 20
6.6601860159
 30
0.0
 10
10.8272845677
 20
6.6819279015
 30
0.0
 10
10.8242574991
 20
6.7260421274
 30
0.0
 10
10.8208611186
 20
6.7932007491
 30
0.0
 10
10.8187365921
 20
6.8622019473
 30
0.0
 10
10.8180212226
 20
6.9328832311
 30
0.0
 10
10.8187645923
 20
7.0049294048
 30
0.0
 10
10.8209107597
 20
7.0779378086
 30
0.0
 10
10.8243194237
 20
7.1515085988
 30
0.0
 10
10.8273076209
 20
7.200675861
 30
0.0
 10
10.8289513563
 20
7.2252924905
 30
0.0
  0
SPLINE
  5
3B6
100
AcDbEntity
  8
0
100
AcDbSpline
 62
7
  6
CONTINUOUS
 70
0
 71
3
 72
19
 73
15
 74
0
 42
0.0000001
 43
0.0000001
 44
0.0000000001
 40
0.0
 40
0.0
 40
0.0
 40
0.0
 40
0.1257520198
 40
0.2522206628
 40
0.3156258197
 40
0.3790659776
 40
0.4424691949
 40
0.5057567472
 40
0.5688478471
 40
0.6316655194
 40
0.6941419357
 40
0.7562220872
 40
0.879046444
 40
1.0
 40
1.0
 40
1.0
 40
1.0
 10
10.801990952
 20
7.273858991
 30
0.0
 10
10.7803163719
 20
7.2852145107
 30
0.0
 10
10.7370382335
 20
7.3083644565
 30
0.0
 10
10.6834788446
 20
7.3384286526
 30
0.0
 10
10.640924859
 20
7.3633042939
 30
0.0
 10
10.6091974386
 20
7.3823790335
 30
0.0
 10
10.5777369211
 20
7.4018474656
 30
0.0
 10
10.5465934228
 20
7.4216931006
 30
0.0
 10
10.5158136814
 20
7.4418914385
 30
0.0
 10
10.4854375391
 20
7.4624110991
 30
0.0
 10
10.4554956232
 20
7.4832164762
 30
0.0
 10
10.4163190469
 20
7.5111872312
 30
0.0
 10
10.3685199241
 20
7.5466541001
 30
0.0
 10
10.3310482464
 20
7.5757448416
 30
0.0
 10
10.3125943891
 20
7.5903519952
 30
0.0
  0
SPLINE
  5
3B7
100
AcDbEntity
  8
0
100
AcDbSpline
 62
7
  6
CONTINUOUS
 70
0
 71
3
 72
15
 73
11
 74
0
 42
0.0000001
 43
0.0000001
 44
0.0000000001
 40
0.0
 40
0.0
 40
0.0
 40
0.0
 40
0.1339300255
 40
0.2667169353
 40
0.3976431413
 40
0.5258638413
 40
0.6505778483
 40
0.771234501
 40
0.8876526848
 40
1.0
 40
1.0
 40
1.0
 40
1.0
 10
10.2586735805
 20
7.594091416
 30
0.0
 10
10.2371331547
 20
7.5823978061
 30
0.0
 10
10.1941805627
 20
7.5592125414
 30
0.0
 10
10.1299435779
 20
7.5250186132
 30
0.0
 10
10.0663977834
 20
7.4917530379
 30
0.0
 10
10.0039058061
 20
7.459664278
 30
0.0
 10
9.9428197506
 20
7.4289572295
 30
0.0
 10
9.8834032512
 20
7.3997437827
 30
0.0
 10
9.8257774748
 20
7.3720231828
 30
0.0
 10
9.7879067672
 20
7.3541755818
 30
0.0
 10
9.7692770177
 20
7.3454779456
 30
0.0
  0
SPLINE
  5
3B8
100
AcDbEntity
  8
0
100
AcDbSpline
 62
7
  6
CONTINUOUS
 70
0
 71
3
 72
57
 73
53
 74
0
 42
0.0000001
 43
0.0000001
 44
0.0000000001
 40
0.0
 40
0.0
 40
0.0
 40
0.0
 40
0.0311850448
 40
0.0621599172
 40
0.0929334583
 40
0.1235234582
 40
0.1387620806
 40
0.1539647113
 40
0.1691354125
 40
0.1842786496
 40
0.1993991385
 40
0.2145018813
 40
0.2295920239
 40
0.2446748911
 40
0.259755845
 40
0.2748403051
 40
0.289933607
 40
0.3050410383
 40
0.3201676978
 40
0.3353185245
 40
0.3504981531
 40
0.3657109626
 40
0.3809609292
 40
0.3962517001
 40
0.4115864533
 40
0.4269679734
 40
0.4423985107
 40
0.4578798801
 40
0.4734133336
 40
0.4889996673
 40
0.5046391174
 40
0.5203314564
 40
0.536075903
 40
0.5518712205
 40
0.567715667
 40
0.5836070709
 40
0.5995428173
 40
0.6155198968
 40
0.6315349201
 40
0.6475841466
 40
0.6636635509
 40
0.6797688206
 40
0.7120301734
 40
0.7443385394
 40
0.776654002
 40
0.8089364351
 40
0.8411468534
 40
0.8732487379
 40
0.9052095245
 40
0.9370014096
 40
0.9686032672
 40
1.0
 40
1.0
 40
1.0
 40
1.0
 10
10.2738290842
 20
6.4329269165
 30
0.0
 10
10.2913059216
 20
6.4317148937
 30
0.0
 10
10.3262844683
 20
6.4309952539
 30
0.0
 10
10.3784138145
 20
6.4350958329
 30
0.0
 10
10.4295449447
 20
6.4443400741
 30
0.0
 10
10.4709738019
 20
6.4562782263
 30
0.0
 10
10.5031000038
 20
6.468289252
 30
0.0
 10
10.5266168437
 20
6.4784937213
 30
0.0
 10
10.5495239716
 20
6.4898806555
 30
0.0
 10
10.5717673097
 20
6.5024220206
 30
0.0
 10
10.5932926384
 20
6.5160881991
 30
0.0
 10
10.6140483799
 20
6.5308457666
 30
0.0
 10
10.6339842225
 20
6.5466595042
 30
0.0
 10
10.6530522157
 20
6.5634910712
 30
0.0
 10
10.6712063241
 20
6.5812999573
 30
0.0
 10
10.6884026833
 20
6.6000432454
 30
0.0
 10
10.7046000235
 20
6.6196755627
 30
0.0
 10
10.7197589464
 20
6.6401497943
 30
0.0
 10
10.7338433998
 20
6.6614162172
 30
0.0
 10
10.746818815
 20
6.6834239171
 30
0.0
 10
10.7586547168
 20
6.7061193722
 30
0.0
 10
10.7693216745
 20
6.729448291
 30
0.0
 10
10.7787950915
 20
6.7533539341
 30
0.0
 10
10.7870509664
 20
6.7777791033
 30
0.0
 10
10.7940707942
 20
6.8026644756
 30
0.0
 10
10.7998362664
 20
6.8279504439
 30
0.0
 10
10.8043351002
 20
6.8535757236
 30
0.0
 10
10.8075548852
 20
6.8794788175
 30
0.0
 10
10.809489624
 20
6.9055971079
 30
0.0
 10
10.8101329869
 20
6.9318677782
 30
0.0
 10
10.8094852362
 20
6.9582275159
 30
0.0
 10
10.8075462528
 20
6.9846127795
 30
0.0
 10
10.804322482
 20
7.0109601575
 30
0.0
 10
10.7998200786
 20
7.0372059914
 30
0.0
 10
10.794051534
 20
7.0632873597
 30
0.0
 10
10.7870292845
 20
7.089141139
 30
0.0
 10
10.7787716817
 20
7.1147054741
 30
0.0
 10
10.7692973681
 20
7.1399184105
 30
0.0
 10
10.7586303229
 20
7.1647197274
 30
0.0
 10
10.7467953535
 20
7.1890491404
 30
0.0
 10
10.7338214052
 20
7.2128490889
 30
0.0
 10
10.7150381436
 20
7.2438114822
 30
0.0
 10
10.6888718754
 20
7.2809008505
 30
0.0
 10
10.653506109
 20
7.3223697844
 30
0.0
 10
10.6144873359
 20
7.3604419308
 30
0.0
 10
10.5721915399
 20
7.3947490943
 30
0.0
 10
10.5270241402
 20
7.4249623154
 30
0.0
 10
10.4794184047
 20
7.4507908494
 30
0.0
 10
10.4298315153
 20
7.4719856778
 30
0.0
 10
10.378737455
 20
7.4883424854
 30
0.0
 10
10.3266335493
 20
7.4997018144
 30
0.0
 10
10.2914245565
 20
7.503884397
 30
0.0
 10
10.2738290842
 20
7.5051046472
 30
0.0
  0
SPLINE
  5
3B9
100
AcDbEntity
  8
0
100
AcDbSpline
 62
7
  6
CONTINUOUS
 70
0
 71
3
 72
57
 73
53
 74
0
 42
0.0000001
 43
0.0000001
 44
0.0000000001
 40
0.0
 40
0.0
 40
0.0
 40
0.0
 40
0.0311850448
 40
0.0621599172
 40
0.0929334583
 40
0.1235234582
 40
0.1387620806
 40
0.1539647113
 40
0.1691354125
 40
0.1842786496
 40
0.1993991385
 40
0.2145018813
 40
0.2295920239
 40
0.2446748911
 40
0.259755845
 40
0.2748403051
 40
0.289933607
 40
0.3050410383
 40
0.3201676978
 40
0.3353185245
 40
0.3504981531
 40
0.3657109626
 40
0.3809609292
 40
0.3962517001
 40
0.4115864533
 40
0.4269679734
 40
0.4423985107
 40
0.4578798801
 40
0.4734133336
 40
0.4889996673
 40
0.5046391174
 40
0.5203314564
 40
0.536075903
 40
0.5518712205
 40
0.567715667
 40
0.5836070709
 40
0.5995428173
 40
0.6155198968
 40
0.6315349201
 40
0.6475841466
 40
0.6636635509
 40
0.6797688206
 40
0.7120301734
 40
0.7443385394
 40
0.776654002
 40
0.8089364351
 40
0.8411468534
 40
0.8732487379
 40
0.9052095245
 40
0.9370014096
 40
0.9686032672
 40
1.0
 40
1.0
 40
1.0
 40
1.0
 10
10.2738290842
 20
7.5051046472
 30
0.0
 10
10.2563522468
 20
7.50631667
 30
0.0
 10
10.2213737001
 20
7.5070363098
 30
0.0
 10
10.1692443538
 20
7.5029357307
 30
0.0
 10
10.1181132237
 20
7.4936914895
 30
0.0
 10
10.0766843664
 20
7.4817533373
 30
0.0
 10
10.0445581645
 20
7.4697423117
 30
0.0
 10
10.0210413247
 20
7.4595378423
 30
0.0
 10
9.9981341967
 20
7.4481509082
 30
0.0
 10
9.9758908587
 20
7.435609543
 30
0.0
 10
9.9543655299
 20
7.4219433646
 30
0.0
 10
9.9336097885
 20
7.407185797
 30
0.0
 10
9.9136739459
 20
7.3913720594
 30
0.0
 10
9.8946059527
 20
7.3745404925
 30
0.0
 10
9.8764518442
 20
7.3567316063
 30
0.0
 10
9.859255485
 20
7.3379883182
 30
0.0
 10
9.8430581449
 20
7.318356001
 30
0.0
 10
9.8278992219
 20
7.2978817693
 30
0.0
 10
9.8138147685
 20
7.2766153465
 30
0.0
 10
9.8008393533
 20
7.2546076466
 30
0.0
 10
9.7890034515
 20
7.2319121914
 30
0.0
 10
9.7783364938
 20
7.2085832726
 30
0.0
 10
9.7688630768
 20
7.1846776295
 30
0.0
 10
9.7606072019
 20
7.1602524603
 30
0.0
 10
9.7535873741
 20
7.135367088
 30
0.0
 10
9.7478219019
 20
7.1100811197
 30
0.0
 10
9.7433230682
 20
7.0844558401
 30
0.0
 10
9.7401032831
 20
7.0585527462
 30
0.0
 10
9.7381685444
 20
7.0324344558
 30
0.0
 10
9.7375251815
 20
7.0061637854
 30
0.0
 10
9.7381729321
 20
6.9798040477
 30
0.0
 10
9.7401119155
 20
6.9534187842
 30
0.0
 10
9.7433356863
 20
6.9270714062
 30
0.0
 10
9.7478380898
 20
6.9008255723
 30
0.0
 10
9.7536066344
 20
6.874744204
 30
0.0
 10
9.7606288838
 20
6.8488904246
 30
0.0
 10
9.7688864866
 20
6.8233260896
 30
0.0
 10
9.7783608002
 20
6.7981131532
 30
0.0
 10
9.7890278454
 20
6.7733118362
 30
0.0
 10
9.8008628148
 20
6.7489824233
 30
0.0
 10
9.8138367631
 20
6.7251824748
 30
0.0
 10
9.8326200247
 20
6.6942200814
 30
0.0
 10
9.8587862929
 20
6.6571307131
 30
0.0
 10
9.8941520593
 20
6.6156617793
 30
0.0
 10
9.9331708325
 20
6.5775896328
 30
0.0
 10
9.9754666284
 20
6.5432824693
 30
0.0
 10
10.0206340281
 20
6.5130692482
 30
0.0
 10
10.0682397636
 20
6.4872407142
 30
0.0
 10
10.1178266531
 20
6.4660458859
 30
0.0
 10
10.1689207133
 20
6.4496890783
 30
0.0
 10
10.221024619
 20
6.4383297493
 30
0.0
 10
10.2562336118
 20
6.4341471666
 30
0.0
 10
10.2738290842
 20
6.4329269165
 30
0.0
  0
SPLINE
  5
3BA
100
AcDbEntity
  8
0
100
AcDbSpline
 62
7
  6
CONTINUOUS
 70
0
 71
3
 72
59
 73
55
 74
0
 42
0.0000001
 43
0.0000001
 44
0.0000000001
 40
0.0
 40
0.0
 40
0.0
 40
0.0
 40
0.0079559779
 40
0.0165889452
 40
0.0259240598
 40
0.0359771157
 40
0.046754329
 40
0.0582546911
 40
0.0704713781
 40
0.083392742
 40
0.0970031698
 40
0.1112835087
 40
0.1262118274
 40
0.1417636823
 40
0.1579124575
 40
0.1746298124
 40
0.1918857536
 40
0.2096490101
 40
0.2465658587
 40
0.2851119254
 40
0.3250072147
 40
0.3659653563
 40
0.4076967068
 40
0.449910785
 40
0.492318174
 40
0.5346320027
 40
0.5765691215
 40
0.6178511074
 40
0.6582052193
 40
0.6973654351
 40
0.7164172819
 40
0.7350746322
 40
0.7533067573
 40
0.7710836387
 40
0.7883761369
 40
0.805155967
 40
0.8213959589
 40
0.8370701028
 40
0.8521537442
 40
0.8666238733
 40
0.8804592194
 40
0.8936407663
 40
0.9061519863
 40
0.9179793856
 40
0.9291132359
 40
0.9395481896
 40
0.9492846158
 40
0.9583298638
 40
0.9667001993
 40
0.9744234914
 40
0.9815422186
 40
0.9881176117
 40
0.9942336528
 40
1.0
 40
1.0
 40
1.0
 40
1.0
 10
11.8356037623
 20
9.8608618229
 30
0.0
 10
11.8347841965
 20
9.8600701831
 30
0.0
 10
11.8329956681
 20
9.8585009702
 30
0.0
 10
11.8300204469
 20
9.856274989
 30
0.0
 10
11.82665266
 20
9.8540875823
 30
0.0
 10
11.8228998363
 20
9.8519431459
 30
0.0
 10
11.8187698744
 20
9.8498456631
 30
0.0
 10
11.8142717845
 20
9.84779944
 30
0.0
 10
11.809415523
 20
9.8458085668
 30
0.0
 10
11.8042118934
 20
9.8438770543
 30
0.0
 10
11.7986724868
 20
9.842008835
 30
0.0
 10
11.7928096616
 20
9.8402075782
 30
0.0
 10
11.786636431
 20
9.83847685
 30
0.0
 10
11.7801664227
 20
9.8368200063
 30
0.0
 10
11.773413819
 20
9.8352401603
 30
0.0
 10
11.7663932821
 20
9.833740307
 30
0.0
 10
11.7591198983
 20
9.8323231257
 30
0.0
 10
11.7489749871
 20
9.8305241437
 30
0.0
 10
11.7357733883
 20
9.828510818
 30
0.0
 10
11.7193739095
 20
9.8264882711
 30
0.0
 10
11.7023508693
 20
9.8248424665
 30
0.0
 10
11.684837653
 20
9.823583337
 30
0.0
 10
11.6669681782
 20
9.8227178929
 30
0.0
 10
11.6488763087
 20
9.8222502859
 30
0.0
 10
11.6306951358
 20
9.822181978
 30
0.0
 10
11.6125565
 20
9.8225118666
 30
0.0
 10
11.5945906236
 20
9.8232364035
 30
0.0
 10
11.5769257716
 20
9.8243496584
 30
0.0
 10
11.5596881556
 20
9.8258434203
 30
0.0
 10
11.5456568913
 20
9.827410428
 30
0.0
 10
11.5347421059
 20
9.8288524467
 30
0.0
 10
11.5268142107
 20
9.8300121449
 30
0.0
 10
11.5190842788
 20
9.8312579165
 30
0.0
 10
11.5115667632
 20
9.8325877104
 30
0.0
 10
11.5042758926
 20
9.8339992507
 30
0.0
 10
11.4972256423
 20
9.8354901885
 30
0.0
 10
11.4904297035
 20
9.8370579583
 30
0.0
 10
11.4839014669
 20
9.8386998773
 30
0.0
 10
11.4776539913
 20
9.840413119
 30
0.0
 10
11.4716999609
 20
9.8421946495
 30
0.0
 10
11.4660516725
 20
9.8440413659
 30
0.0
 10
11.4607209639
 20
9.8459499331
 30
0.0
 10
11.4557191963
 20
9.8479169211
 30
0.0
 10
11.4510572016
 20
9.8499387768
 30
0.0
 10
11.4467452018
 20
9.8520117613
 30
0.0
 10
11.4427928153
 20
9.8541321545
 30
0.0
 10
11.4392089295
 20
9.8562960943
 30
0.0
 10
11.4360017063
 20
9.8584997924
 30
0.0
 10
11.433178594
 20
9.860739621
 30
0.0
 10
11.430746267
 20
9.8630121509
 30
0.0
 10
11.428711026
 20
9.8653143747
 30
0.0
 10
11.4270789783
 20
9.8676440151
 30
0.0
 10
11.4258569844
 20
9.8699975584
 30
0.0
 10
11.4253085268
 20
9.8716178257
 30
0.0
 10
11.4251119798
 20
9.8724199605
 30
0.0
  0
SPLINE
  5
3BB
100
AcDbEntity
  8
0
100
AcDbSpline
 62
7
  6
CONTINUOUS
 70
0
 71
3
 72
56
 73
52
 74
0
 42
0.0000001
 43
0.0000001
 44
0.0000000001
 40
0.0
 40
0.0
 40
0.0
 40
0.0
 40
0.0081222938
 40
0.0169170801
 40
0.0264091382
 40
0.0366148289
 40
0.0475421808
 40
0.0591919764
 40
0.0715595473
 40
0.0846358918
 40
0.0984078501
 40
0.1128591724
 40
0.1279704231
 40
0.1437198166
 40
0.1600830866
 40
0.177033978
 40
0.2125829701
 40
0.2501235391
 40
0.2893881851
 40
0.3300908459
 40
0.3719305622
 40
0.4145949051
 40
0.4577632762
 40
0.5011101389
 40
0.544308216
 40
0.5870316771
 40
0.628959336
 40
0.6697778856
 40
0.7091851907
 40
0.7468936997
 40
0.7826340729
 40
0.7996887672
 40
0.8161607846
 40
0.8320235453
 40
0.8472524452
 40
0.8618251195
 40
0.8757218495
 40
0.8889255774
 40
0.9014227661
 40
0.9132033723
 40
0.9242620665
 40
0.9345986136
 40
0.9442193836
 40
0.9531387147
 40
0.961380935
 40
0.9689832297
 40
0.9759985973
 40
0.9825000153
 40
0.9885833932
 40
0.9943693215
 40
1.0
 40
1.0
 40
1.0
 40
1.0
 10
11.7358463865
 20
9.5832181881
 30
0.0
 10
11.7352785525
 20
9.5826697026
 30
0.0
 10
11.7340422962
 20
9.5815820859
 30
0.0
 10
11.7319902373
 20
9.5800367508
 30
0.0
 10
11.7296727846
 20
9.5785172909
 30
0.0
 10
11.7270946803
 20
9.5770266044
 30
0.0
 10
11.7242607456
 20
9.5755673959
 30
0.0
 10
11.7211764819
 20
9.574142538
 30
0.0
 10
11.7178479582
 20
9.5727548292
 30
0.0
 10
11.714281756
 20
9.5714070967
 30
0.0
 10
11.7104849841
 20
9.5701019972
 30
0.0
 10
11.7064652239
 20
9.5688422468
 30
0.0
 10
11.7022305475
 20
9.5676303425
 30
0.0
 10
11.6977894651
 20
9.5664688048
 30
0.0
 10
11.6931509145
 20
9.5653599443
 30
0.0
 10
11.6866112099
 20
9.563932111
 30
0.0
 10
11.6780101104
 20
9.5623044323
 30
0.0
 10
11.6672179735
 20
9.5606230907
 30
0.0
 10
11.6558840803
 20
9.5591979442
 30
0.0
 10
11.6440999348
 20
9.5580407135
 30
0.0
 10
11.631960593
 20
9.5571609573
 30
0.0
 10
11.6195640963
 20
9.5565659196
 30
0.0
 10
11.6070105889
 20
9.5562604998
 30
0.0
 10
11.5944015095
 20
9.5562472107
 30
0.0
 10
11.5818387527
 20
9.5565261623
 30
0.0
 10
11.5694238342
 20
9.5570950603
 30
0.0
 10
11.5572570511
 20
9.5579492218
 30
0.0
 10
11.5454366709
 20
9.559081613
 30
0.0
 10
11.5340580491
 20
9.5604828805
 30
0.0
 10
11.5232130555
 20
9.5621414972
 30
0.0
 10
11.5145627262
 20
9.5637507236
 30
0.0
 10
11.5079797803
 20
9.5651643467
 30
0.0
 10
11.5033063515
 20
9.5662633898
 30
0.0
 10
11.4988287222
 20
9.5674155317
 30
0.0
 10
11.4945559035
 20
9.5686184555
 30
0.0
 10
11.4904964924
 20
9.569869722
 30
0.0
 10
11.4866586299
 20
9.5711667516
 30
0.0
 10
11.4830500051
 20
9.5725069682
 30
0.0
 10
11.4796777959
 20
9.573887595
 30
0.0
 10
11.4765487019
 20
9.5753059316
 30
0.0
 10
11.4736688582
 20
9.5767590948
 30
0.0
 10
11.4710438837
 20
9.5782442981
 30
0.0
 10
11.468678814
 20
9.5797587035
 30
0.0
 10
11.4665781222
 20
9.5812995698
 30
0.0
 10
11.4647457874
 20
9.5828643574
 30
0.0
 10
11.4631852768
 20
9.5844506666
 30
0.0
 10
11.4618999675
 20
9.5860565719
 30
0.0
 10
11.4608931869
 20
9.5876801226
 30
0.0
 10
11.4601689921
 20
9.5893195455
 30
0.0
 10
11.4597317309
 20
9.590970918
 30
0.0
 10
11.4596337967
 20
9.592082891
 30
0.0
 10
11.4596338062
 20
9.5926301851
 30
0.0
  0
SPLINE
  5
3BC
100
AcDbEntity
  8
0
100
AcDbSpline
 62
7
  6
CONTINUOUS
 70
0
 71
3
 72
56
 73
52
 74
0
 42
0.0000001
 43
0.0000001
 44
0.0000000001
 40
0.0
 40
0.0
 40
0.0
 40
0.0
 40
0.0081222938
 40
0.0169170801
 40
0.0264091382
 40
0.0366148289
 40
0.0475421808
 40
0.0591919764
 40
0.0715595473
 40
0.0846358918
 40
0.0984078501
 40
0.1128591724
 40
0.1279704231
 40
0.1437198166
 40
0.1600830866
 40
0.177033978
 40
0.2125829701
 40
0.2501235391
 40
0.2893881851
 40
0.3300908459
 40
0.3719305622
 40
0.4145949051
 40
0.4577632762
 40
0.5011101389
 40
0.544308216
 40
0.5870316771
 40
0.628959336
 40
0.6697778856
 40
0.7091851907
 40
0.7468936997
 40
0.7826340729
 40
0.7996887672
 40
0.8161607846
 40
0.8320235453
 40
0.8472524452
 40
0.8618251195
 40
0.8757218495
 40
0.8889255774
 40
0.9014227661
 40
0.9132033723
 40
0.9242620665
 40
0.9345986136
 40
0.9442193836
 40
0.9531387147
 40
0.961380935
 40
0.9689832297
 40
0.9759985973
 40
0.9825000153
 40
0.9885833932
 40
0.9943693215
 40
1.0
 40
1.0
 40
1.0
 40
1.0
 10
9.9855887945
 20
9.7045989644
 30
0.0
 10
9.9850209605
 20
9.7040504788
 30
0.0
 10
9.9837847042
 20
9.7029628622
 30
0.0
 10
9.9817326453
 20
9.7014175271
 30
0.0
 10
9.9794151926
 20
9.6998980672
 30
0.0
 10
9.9768370883
 20
9.6984073807
 30
0.0
 10
9.9740031536
 20
9.6969481721
 30
0.0
 10
9.9709188898
 20
9.6955233143
 30
0.0
 10
9.9675903662
 20
9.6941356055
 30
0.0
 10
9.964024164
 20
9.692787873
 30
0.0
 10
9.9602273921
 20
9.6914827735
 30
0.0
 10
9.9562076319
 20
9.690223023
 30
0.0
 10
9.9519729555
 20
9.6890111188
 30
0.0
 10
9.9475318731
 20
9.687849581
 30
0.0
 10
9.9428933225
 20
9.6867407206
 30
0.0
 10
9.9363536179
 20
9.6853128872
 30
0.0
 10
9.9277525184
 20
9.6836852086
 30
0.0
 10
9.9169603815
 20
9.682003867
 30
0.0
 10
9.9056264883
 20
9.6805787205
 30
0.0
 10
9.8938423428
 20
9.6794214897
 30
0.0
 10
9.881703001
 20
9.6785417336
 30
0.0
 10
9.8693065043
 20
9.6779466959
 30
0.0
 10
9.8567529969
 20
9.6776412761
 30
0.0
 10
9.8441439175
 20
9.677627987
 30
0.0
 10
9.8315811606
 20
9.6779069386
 30
0.0
 10
9.8191662422
 20
9.6784758366
 30
0.0
 10
9.8069994591
 20
9.6793299981
 30
0.0
 10
9.7951790788
 20
9.6804623892
 30
0.0
 10
9.7838004571
 20
9.6818636568
 30
0.0
 10
9.7729554635
 20
9.6835222735
 30
0.0
 10
9.7643051342
 20
9.6851314999
 30
0.0
 10
9.7577221883
 20
9.686545123
 30
0.0
 10
9.7530487595
 20
9.687644166
 30
0.0
 10
9.7485711302
 20
9.688796308
 30
0.0
 10
9.7442983115
 20
9.6899992318
 30
0.0
 10
9.7402389004
 20
9.6912504983
 30
0.0
 10
9.7364010379
 20
9.6925475278
 30
0.0
 10
9.7327924131
 20
9.6938877445
 30
0.0
 10
9.7294202039
 20
9.6952683713
 30
0.0
 10
9.7262911099
 20
9.6966867078
 30
0.0
 10
9.7234112661
 20
9.6981398711
 30
0.0
 10
9.7207862917
 20
9.6996250744
 30
0.0
 10
9.718421222
 20
9.7011394798
 30
0.0
 10
9.7163205302
 20
9.702680346
 30
0.0
 10
9.7144881954
 20
9.7042451337
 30
0.0
 10
9.7129276848
 20
9.7058314429
 30
0.0
 10
9.7116423755
 20
9.7074373481
 30
0.0
 10
9.7106355949
 20
9.7090608989
 30
0.0
 10
9.7099114001
 20
9.7107003217
 30
0.0
 10
9.7094741389
 20
9.7123516942
 30
0.0
 10
9.7093762047
 20
9.7134636672
 30
0.0
 10
9.7093762142
 20
9.7140109613
 30
0.0
  0
SPLINE
  5
3BD
100
AcDbEntity
  8
0
100
AcDbSpline
 62
7
  6
CONTINUOUS
 70
0
 71
3
 72
56
 73
52
 74
0
 42
0.0000001
 43
0.0000001
 44
0.0000000001
 40
0.0
 40
0.0
 40
0.0
 40
0.0
 40
0.0081222938
 40
0.0169170801
 40
0.0264091382
 40
0.0366148289
 40
0.0475421808
 40
0.0591919764
 40
0.0715595473
 40
0.0846358918
 40
0.0984078501
 40
0.1128591724
 40
0.1279704231
 40
0.1437198166
 40
0.1600830866
 40
0.177033978
 40
0.2125829701
 40
0.2501235391
 40
0.2893881851
 40
0.3300908459
 40
0.3719305622
 40
0.4145949051
 40
0.4577632762
 40
0.5011101389
 40
0.544308216
 40
0.5870316771
 40
0.628959336
 40
0.6697778856
 40
0.7091851907
 40
0.7468936997
 40
0.7826340729
 40
0.7996887672
 40
0.8161607846
 40
0.8320235453
 40
0.8472524452
 40
0.8618251195
 40
0.8757218495
 40
0.8889255774
 40
0.9014227661
 40
0.9132033723
 40
0.9242620665
 40
0.9345986136
 40
0.9442193836
 40
0.9531387147
 40
0.961380935
 40
0.9689832297
 40
0.9759985973
 40
0.9825000153
 40
0.9885833932
 40
0.9943693215
 40
1.0
 40
1.0
 40
1.0
 40
1.0
 10
10.5355788423
 20
10.2358485872
 30
0.0
 10
10.5350110083
 20
10.2353001017
 30
0.0
 10
10.533774752
 20
10.234212485
 30
0.0
 10
10.5317226931
 20
10.23266715
 30
0.0
 10
10.5294052404
 20
10.23114769
 30
0.0
 10
10.5268271361
 20
10.2296570035
 30
0.0
 10
10.5239932014
 20
10.228197795
 30
0.0
 10
10.5209089376
 20
10.2267729371
 30
0.0
 10
10.517580414
 20
10.2253852283
 30
0.0
 10
10.5140142118
 20
10.2240374959
 30
0.0
 10
10.5102174399
 20
10.2227323963
 30
0.0
 10
10.5061976797
 20
10.2214726459
 30
0.0
 10
10.5019630033
 20
10.2202607416
 30
0.0
 10
10.4975219209
 20
10.2190992039
 30
0.0
 10
10.4928833703
 20
10.2179903435
 30
0.0
 10
10.4863436657
 20
10.2165625101
 30
0.0
 10
10.4777425662
 20
10.2149348314
 30
0.0
 10
10.4669504293
 20
10.2132534899
 30
0.0
 10
10.4556165361
 20
10.2118283434
 30
0.0
 10
10.4438323906
 20
10.2106711126
 30
0.0
 10
10.4316930488
 20
10.2097913565
 30
0.0
 10
10.4192965521
 20
10.2091963187
 30
0.0
 10
10.4067430447
 20
10.2088908989
 30
0.0
 10
10.3941339653
 20
10.2088776099
 30
0.0
 10
10.3815712085
 20
10.2091565615
 30
0.0
 10
10.36915629
 20
10.2097254594
 30
0.0
 10
10.3569895069
 20
10.210579621
 30
0.0
 10
10.3451691266
 20
10.2117120121
 30
0.0
 10
10.3337905049
 20
10.2131132796
 30
0.0
 10
10.3229455113
 20
10.2147718964
 30
0.0
 10
10.314295182
 20
10.2163811227
 30
0.0
 10
10.3077122361
 20
10.2177947458
 30
0.0
 10
10.3030388073
 20
10.2188937889
 30
0.0
 10
10.298561178
 20
10.2200459308
 30
0.0
 10
10.2942883593
 20
10.2212488546
 30
0.0
 10
10.2902289482
 20
10.2225001211
 30
0.0
 10
10.2863910857
 20
10.2237971507
 30
0.0
 10
10.2827824609
 20
10.2251373673
 30
0.0
 10
10.2794102517
 20
10.2265179941
 30
0.0
 10
10.2762811577
 20
10.2279363307
 30
0.0
 10
10.2734013139
 20
10.2293894939
 30
0.0
 10
10.2707763395
 20
10.2308746972
 30
0.0
 10
10.2684112698
 20
10.2323891026
 30
0.0
 10
10.266310578
 20
10.2339299689
 30
0.0
 10
10.2644782432
 20
10.2354947565
 30
0.0
 10
10.2629177326
 20
10.2370810657
 30
0.0
 10
10.2616324233
 20
10.238686971
 30
0.0
 10
10.2606256427
 20
10.2403105217
 30
0.0
 10
10.2599014479
 20
10.2419499446
 30
0.0
 10
10.2594641867
 20
10.2436013171
 30
0.0
 10
10.2593662525
 20
10.2447132901
 30
0.0
 10
10.259366262
 20
10.2452605842
 30
0.0
  0
SPLINE
  5
3BE
100
AcDbEntity
  8
0
100
AcDbSpline
 62
7
  6
CONTINUOUS
 70
0
 71
3
 72
56
 73
52
 74
0
 42
0.0000001
 43
0.0000001
 44
0.0000000001
 40
0.0
 40
0.0
 40
0.0
 40
0.0
 40
0.0081222938
 40
0.0169170801
 40
0.0264091382
 40
0.0366148289
 40
0.0475421808
 40
0.0591919764
 40
0.0715595473
 40
0.0846358918
 40
0.0984078501
 40
0.1128591724
 40
0.1279704231
 40
0.1437198166
 40
0.1600830866
 40
0.177033978
 40
0.2125829701
 40
0.2501235391
 40
0.2893881851
 40
0.3300908459
 40
0.3719305622
 40
0.4145949051
 40
0.4577632762
 40
0.5011101389
 40
0.544308216
 40
0.5870316771
 40
0.628959336
 40
0.6697778856
 40
0.7091851907
 40
0.7468936997
 40
0.7826340729
 40
0.7996887672
 40
0.8161607846
 40
0.8320235453
 40
0.8472524452
 40
0.8618251195
 40
0.8757218495
 40
0.8889255774
 40
0.9014227661
 40
0.9132033723
 40
0.9242620665
 40
0.9345986136
 40
0.9442193836
 40
0.9531387147
 40
0.961380935
 40
0.9689832297
 40
0.9759985973
 40
0.9825000153
 40
0.9885833932
 40
0.9943693215
 40
1.0
 40
1.0
 40
1.0
 40
1.0
 10
12.2858364343
 20
10.1144678109
 30
0.0
 10
12.2852686003
 20
10.1139193254
 30
0.0
 10
12.284032344
 20
10.1128317087
 30
0.0
 10
12.2819802851
 20
10.1112863737
 30
0.0
 10
12.2796628324
 20
10.1097669138
 30
0.0
 10
12.2770847281
 20
10.1082762273
 30
0.0
 10
12.2742507934
 20
10.1068170187
 30
0.0
 10
12.2711665297
 20
10.1053921609
 30
0.0
 10
12.267838006
 20
10.1040044521
 30
0.0
 10
12.2642718039
 20
10.1026567196
 30
0.0
 10
12.2604750319
 20
10.1013516201
 30
0.0
 10
12.2564552717
 20
10.1000918696
 30
0.0
 10
12.2522205953
 20
10.0988799653
 30
0.0
 10
12.2477795129
 20
10.0977184276
 30
0.0
 10
12.2431409623
 20
10.0966095672
 30
0.0
 10
12.2366012577
 20
10.0951817338
 30
0.0
 10
12.2280001582
 20
10.0935540552
 30
0.0
 10
12.2172080213
 20
10.0918727136
 30
0.0
 10
12.2058741281
 20
10.0904475671
 30
0.0
 10
12.1940899826
 20
10.0892903363
 30
0.0
 10
12.1819506408
 20
10.0884105802
 30
0.0
 10
12.1695541441
 20
10.0878155425
 30
0.0
 10
12.1570006367
 20
10.0875101226
 30
0.0
 10
12.1443915573
 20
10.0874968336
 30
0.0
 10
12.1318288005
 20
10.0877757852
 30
0.0
 10
12.119413882
 20
10.0883446832
 30
0.0
 10
12.1072470989
 20
10.0891988447
 30
0.0
 10
12.0954267187
 20
10.0903312358
 30
0.0
 10
12.0840480969
 20
10.0917325034
 30
0.0
 10
12.0732031034
 20
10.0933911201
 30
0.0
 10
12.064552774
 20
10.0950003465
 30
0.0
 10
12.0579698281
 20
10.0964139696
 30
0.0
 10
12.0532963993
 20
10.0975130126
 30
0.0
 10
12.04881877
 20
10.0986651546
 30
0.0
 10
12.0445459513
 20
10.0998680784
 30
0.0
 10
12.0404865402
 20
10.1011193449
 30
0.0
 10
12.0366486777
 20
10.1024163744
 30
0.0
 10
12.0330400529
 20
10.1037565911
 30
0.0
 10
12.0296678437
 20
10.1051372179
 30
0.0
 10
12.0265387497
 20
10.1065555544
 30
0.0
 10
12.023658906
 20
10.1080087177
 30
0.0
 10
12.0210339315
 20
10.1094939209
 30
0.0
 10
12.0186688619
 20
10.1110083264
 30
0.0
 10
12.01656817
 20
10.1125491926
 30
0.0
 10
12.0147358352
 20
10.1141139803
 30
0.0
 10
12.0131753246
 20
10.1157002895
 30
0.0
 10
12.0118900153
 20
10.1173061947
 30
0.0
 10
12.0108832347
 20
10.1189297454
 30
0.0
 10
12.0101590399
 20
10.1205691683
 30
0.0
 10
12.0097217787
 20
10.1222205408
 30
0.0
 10
12.0096238445
 20
10.1233325138
 30
0.0
 10
12.009623854
 20
10.1238798079
 30
0.0
  0
SPLINE
  5
3BF
100
AcDbEntity
  8
0
100
AcDbSpline
 62
7
  6
CONTINUOUS
 70
0
 71
3
 72
11
 73
7
 74
0
 42
0.0000001
 43
0.0000001
 44
0.0000000001
 40
0.0
 40
0.0
 40
0.0
 40
0.0
 40
0.2601642105
 40
0.5129131276
 40
0.7591451948
 40
1.0
 40
1.0
 40
1.0
 40
1.0
 10
10.3381923759
 20
8.5225971405
 30
0.0
 10
10.3382841365
 20
8.5192549088
 30
0.0
 10
10.3382848688
 20
8.5126587037
 30
0.0
 10
10.3376606076
 20
8.5029150962
 30
0.0
 10
10.3363690984
 20
8.4934865288
 30
0.0
 10
10.3350273311
 20
8.4873635095
 30
0.0
 10
10.3342345628
 20
8.4843714151
 30
0.0
  0
SPLINE
  5
3C0
100
AcDbEntity
  8
0
100
AcDbSpline
 62
7
  6
CONTINUOUS
 70
0
 71
3
 72
23
 73
19
 74
0
 42
0.0000001
 43
0.0000001
 44
0.0000000001
 40
0.0
 40
0.0
 40
0.0
 40
0.0
 40
0.0913408413
 40
0.1804902318
 40
0.266604914
 40
0.3489832647
 40
0.4271009052
 40
0.5006125945
 40
0.5693418294
 40
0.6332603874
 40
0.6924638233
 40
0.7471483587
 40
0.7975913299
 40
0.8441360423
 40
0.8871812377
 40
0.9271742776
 40
0.964605441
 40
1.0
 40
1.0
 40
1.0
 40
1.0
 10
10.351021101
 20
8.1035511087
 30
0.0
 10
10.3489475256
 20
8.1045750922
 30
0.0
 10
10.3449010123
 20
8.1067037155
 30
0.0
 10
10.3390991338
 20
8.1101597093
 30
0.0
 10
10.3336826868
 20
8.1138008881
 30
0.0
 10
10.3287033619
 20
8.1175738507
 30
0.0
 10
10.3241969829
 20
8.1214258361
 30
0.0
 10
10.3201843279
 20
8.1253074936
 30
0.0
 10
10.3166729096
 20
8.1291747153
 30
0.0
 10
10.3136595359
 20
8.132989638
 30
0.0
 10
10.3111330075
 20
8.1367208696
 30
0.0
 10
10.3090766703
 20
8.1403431924
 30
0.0
 10
10.3074705842
 20
8.1438369144
 30
0.0
 10
10.3062932813
 20
8.1471870882
 30
0.0
 10
10.305523038
 20
8.1503825228
 30
0.0
 10
10.3051388387
 20
8.1534152538
 30
0.0
 10
10.3051207489
 20
8.1562785398
 30
0.0
 10
10.3053460704
 20
8.1581149518
 30
0.0
 10
10.305516185
 20
8.1589948009
 30
0.0
  0
SPLINE
  5
3C1
100
AcDbEntity
  8
0
100
AcDbSpline
 62
7
  6
CONTINUOUS
 70
0
 71
3
 72
37
 73
33
 74
0
 42
0.0000001
 43
0.0000001
 44
0.0000000001
 40
0.0
 40
0.0
 40
0.0
 40
0.0
 40
0.0550695641
 40
0.109964386
 40
0.1640856621
 40
0.2168996743
 40
0.2679696788
 40
0.3169709078
 40
0.3636914736
 40
0.4080221939
 40
0.4499382428
 40
0.4894794931
 40
0.5267316134
 40
0.5618100097
 40
0.5948471367
 40
0.6259833048
 40
0.6553603012
 40
0.6831173937
 40
0.7342857968
 40
0.7805078811
 40
0.8020574239
 40
0.8227008315
 40
0.8425376318
 40
0.8616638175
 40
0.8801723625
 40
0.8981542221
 40
0.9156989825
 40
0.9328956839
 40
0.9498333802
 40
0.9666020733
 40
0.9832930958
 40
1.0
 40
1.0
 40
1.0
 40
1.0
 10
10.3308986086
 20
8.489231847
 30
0.0
 10
10.3277966585
 20
8.4940491895
 30
0.0
 10
10.3219847458
 20
8.5039206079
 30
0.0
 10
10.3144907503
 20
8.5192779503
 30
0.0
 10
10.3082738935
 20
8.5349429469
 30
0.0
 10
10.3033502193
 20
8.5506429148
 30
0.0
 10
10.2996816094
 20
8.5661342632
 30
0.0
 10
10.297188787
 20
8.5812139576
 30
0.0
 10
10.2957652432
 20
8.5957261002
 30
0.0
 10
10.2952907196
 20
8.6095613479
 30
0.0
 10
10.2956423796
 20
8.622651963
 30
0.0
 10
10.296702636
 20
8.6349643287
 30
0.0
 10
10.2983639987
 20
8.646490969
 30
0.0
 10
10.3005313996
 20
8.6572430961
 30
0.0
 10
10.3031228185
 20
8.6672444163
 30
0.0
 10
10.3060686943
 20
8.676526041
 30
0.0
 10
10.3093110891
 20
8.6851235005
 30
0.0
 10
10.3138428422
 20
8.6954448291
 30
0.0
 10
10.3199982573
 20
8.7069483231
 30
0.0
 10
10.3269981824
 20
8.7171861158
 30
0.0
 10
10.3328262562
 20
8.7243090446
 30
0.0
 10
10.3371953867
 20
8.7290640793
 30
0.0
 10
10.3416542349
 20
8.7333796814
 30
0.0
 10
10.3461962592
 20
8.7372744663
 30
0.0
 10
10.3508153274
 20
8.7407661783
 30
0.0
 10
10.3555089315
 20
8.7438678363
 30
0.0
 10
10.3602742751
 20
8.7465928077
 30
0.0
 10
10.365111882
 20
8.7489489664
 30
0.0
 10
10.3700217814
 20
8.7509451669
 30
0.0
 10
10.3750066974
 20
8.7525850338
 30
0.0
 10
10.3800691737
 20
8.7538718925
 30
0.0
 10
10.3834913633
 20
8.7544932988
 30
0.0
 10
10.3852113864
 20
8.7547443677
 30
0.0
  0
SPLINE
  5
3C2
100
AcDbEntity
  8
0
100
AcDbSpline
 62
7
  6
CONTINUOUS
 70
0
 71
3
 72
15
 73
11
 74
0
 42
0.0000001
 43
0.0000001
 44
0.0000000001
 40
0.0
 40
0.0
 40
0.0
 40
0.0
 40
0.1148417261
 40
0.2305388176
 40
0.3478149214
 40
0.4674684048
 40
0.5905051001
 40
0.7183689013
 40
0.8534161326
 40
1.0
 40
1.0
 40
1.0
 40
1.0
 10
10.3465112703
 20
8.6438186521
 30
0.0
 10
10.3470136901
 20
8.6406484731
 30
0.0
 10
10.3477934861
 20
8.6342463455
 30
0.0
 10
10.3483363829
 20
8.6245344769
 30
0.0
 10
10.3483025114
 20
8.6146735548
 30
0.0
 10
10.3477294632
 20
8.6046248175
 30
0.0
 10
10.3466461004
 20
8.5943214379
 30
0.0
 10
10.3450719013
 20
8.5836473124
 30
0.0
 10
10.3430127545
 20
8.5723872725
 30
0.0
 10
10.3414038311
 20
8.5646815738
 30
0.0
 10
10.3405444851
 20
8.5606757984
 30
0.0
  0
SPLINE
  5
3C3
100
AcDbEntity
  8
0
100
AcDbSpline
 62
7
  6
CONTINUOUS
 70
0
 71
3
 72
16
 73
12
 74
0
 42
0.0000001
 43
0.0000001
 44
0.0000000001
 40
0.0
 40
0.0
 40
0.0
 40
0.0
 40
0.1411357639
 40
0.2743934428
 40
0.4019622355
 40
0.525469043
 40
0.6461510102
 40
0.7649722652
 40
0.8239406975
 40
0.8827210897
 40
1.0
 40
1.0
 40
1.0
 40
1.0
 10
10.3178247721
 20
8.70222809
 30
0.0
 10
10.3200543699
 20
8.7000531655
 30
0.0
 10
10.3241748883
 20
8.6955983244
 30
0.0
 10
10.3295294932
 20
8.6885098356
 30
0.0
 10
10.3340023877
 20
8.6812899926
 30
0.0
 10
10.3377155291
 20
8.6739637235
 30
0.0
 10
10.3407633483
 20
8.666546699
 30
0.0
 10
10.3428165937
 20
8.6602818195
 30
0.0
 10
10.3441876042
 20
8.6552433785
 30
0.0
 10
10.3453865659
 20
8.6501963463
 30
0.0
 10
10.3461061385
 20
8.6463749616
 30
0.0
 10
10.3465112703
 20
8.6438186521
 30
0.0
  0
SPLINE
  5
3C4
100
AcDbEntity
  8
0
100
AcDbSpline
 62
7
  6
CONTINUOUS
 70
0
 71
3
 72
35
 73
31
 74
0
 42
0.0000001
 43
0.0000001
 44
0.0000000001
 40
0.0
 40
0.0
 40
0.0
 40
0.0
 40
0.0306749424
 40
0.0614539339
 40
0.0923319594
 40
0.1233076894
 40
0.15437658
 40
0.1855337963
 40
0.216773717
 40
0.248089889
 40
0.2794752131
 40
0.3109219592
 40
0.3424218573
 40
0.3739661715
 40
0.4371345757
 40
0.50036762
 40
0.5635867548
 40
0.6267139148
 40
0.6582277934
 40
0.6896910398
 40
0.7210952413
 40
0.7524325048
 40
0.7836955284
 40
0.81487769
 40
0.8459730589
 40
0.876976577
 40
0.9078840101
 40
0.9386914492
 40
0.969398221
 40
1.0
 40
1.0
 40
1.0
 40
1.0
 10
9.5069621442
 20
6.4673457812
 30
0.0
 10
9.5010259933
 20
6.4677574547
 30
0.0
 10
9.4891517432
 20
6.4688734412
 30
0.0
 10
9.471415219
 20
6.4714131906
 30
0.0
 10
9.4537640319
 20
6.4748158285
 30
0.0
 10
9.436241506
 20
6.4790727909
 30
0.0
 10
9.4188894681
 20
6.4841740185
 30
0.0
 10
9.401749801
 20
6.4901071038
 30
0.0
 10
9.3848637288
 20
6.4968577203
 30
0.0
 10
9.368271908
 20
6.5044096095
 30
0.0
 10
9.3520142647
 20
6.5127446174
 30
0.0
 10
9.3361300128
 20
6.5218425389
 30
0.0
 10
9.320656997
 20
6.5316817738
 30
0.0
 10
9.3006186156
 20
6.545761256
 30
0.0
 10
9.2767868071
 20
6.5650914132
 30
0.0
 10
9.2504237858
 20
6.5908150793
 30
0.0
 10
9.2265277553
 20
6.6188348626
 30
0.0
 10
9.2088478156
 20
6.6438951439
 30
0.0
 10
9.1961565339
 20
6.6648157644
 30
0.0
 10
9.1873902414
 20
6.6808967546
 30
0.0
 10
9.1793937808
 20
6.6973356138
 30
0.0
 10
9.1721861301
 20
6.7140931807
 30
0.0
 10
9.1657847775
 20
6.7311290289
 30
0.0
 10
9.1602051106
 20
6.7484021644
 30
0.0
 10
9.1554605709
 20
6.7658709975
 30
0.0
 10
9.1515626282
 20
6.7834935078
 30
0.0
 10
9.1485207878
 20
6.8012271512
 30
0.0
 10
9.1463422104
 20
6.8190296035
 30
0.0
 10
9.1450324572
 20
6.8368571474
 30
0.0
 10
9.1447399379
 20
6.8487519667
 30
0.0
 10
9.1447399379
 20
6.8546881829
 30
0.0
  0
SPLINE
  5
3C5
100
AcDbEntity
  8
0
100
AcDbSpline
 62
7
  6
CONTINUOUS
 70
0
 71
3
 72
23
 73
19
 74
0
 42
0.0000001
 43
0.0000001
 44
0.0000000001
 40
0.0
 40
0.0
 40
0.0
 40
0.0
 40
0.0637765977
 40
0.1273450691
 40
0.1907019728
 40
0.2538560883
 40
0.3168132203
 40
0.3795820796
 40
0.4421733855
 40
0.5045993402
 40
0.566873864
 40
0.6290123768
 40
0.6910316495
 40
0.7529496457
 40
0.8147853522
 40
0.8765585995
 40
0.9382898533
 40
1.0
 40
1.0
 40
1.0
 40
1.0
 10
9.1447399379
 20
8.9372243877
 30
0.0
 10
9.1447399379
 20
8.9430101253
 30
0.0
 10
9.14501689
 20
8.9545646791
 30
0.0
 10
9.1462667874
 20
8.9718261989
 30
0.0
 10
9.1483479324
 20
8.9889509235
 30
0.0
 10
9.1512553076
 20
9.005898568
 30
0.0
 10
9.1549824298
 20
9.0226304407
 30
0.0
 10
9.1595206668
 20
9.0391078618
 30
0.0
 10
9.1648595753
 20
9.0552928666
 30
0.0
 10
9.170986939
 20
9.0711481211
 30
0.0
 10
9.1778886551
 20
9.0866370524
 30
0.0
 10
9.1855488021
 20
9.1017239536
 30
0.0
 10
9.1939497455
 20
9.1163740214
 30
0.0
 10
9.2030721841
 20
9.1305534392
 30
0.0
 10
9.212895041
 20
9.1442294771
 30
0.0
 10
9.223395767
 20
9.1573707065
 30
0.0
 10
9.2345497329
 20
9.169946408
 30
0.0
 10
9.2424055988
 20
9.1779352612
 30
0.0
 10
9.2464321723
 20
9.1818246506
 30
0.0
  0
SPLINE
  5
3C6
100
AcDbEntity
  8
0
100
AcDbSpline
 62
7
  6
CONTINUOUS
 70
0
 71
3
 72
11
 73
7
 74
0
 42
0.0000001
 43
0.0000001
 44
0.0000000001
 40
0.0
 40
0.0
 40
0.0
 40
0.0
 40
0.2513657261
 40
0.5018713986
 40
0.751429106
 40
1.0
 40
1.0
 40
1.0
 40
1.0
 10
10.3292212408
 20
8.6545950506
 30
0.0
 10
10.3281987126
 20
8.6578637256
 30
0.0
 10
10.3259744223
 20
8.6643345484
 30
0.0
 10
10.3220768712
 20
8.6738086169
 30
0.0
 10
10.3176110835
 20
8.6829867131
 30
0.0
 10
10.314242993
 20
8.688886143
 30
0.0
 10
10.3124629067
 20
8.691767411
 30
0.0
  0
SPLINE
  5
3C7
100
AcDbEntity
  8
0
100
AcDbSpline
 62
7
  6
CONTINUOUS
 70
0
 71
3
 72
14
 73
10
 74
0
 42
0.0000001
 43
0.0000001
 44
0.0000000001
 40
0.0
 40
0.0
 40
0.0
 40
0.0
 40
0.1245986002
 40
0.249727529
 40
0.5004576796
 40
0.6257835518
 40
0.7508850671
 40
0.8756545249
 40
1.0
 40
1.0
 40
1.0
 40
1.0
 10
10.3360829434
 20
8.547259748
 30
0.0
 10
10.33665107
 20
8.55172439
 30
0.0
 10
10.3376285393
 20
8.5606946684
 30
0.0
 10
10.3388589264
 20
8.5787328132
 30
0.0
 10
10.3388777617
 20
8.5968710818
 30
0.0
 10
10.3374532798
 20
8.6149251745
 30
0.0
 10
10.3356085618
 20
8.6283602384
 30
0.0
 10
10.3329351481
 20
8.6416193861
 30
0.0
 10
10.3305622181
 20
8.6503084016
 30
0.0
 10
10.3292212408
 20
8.6545950506
 30
0.0
  0
SPLINE
  5
3C8
100
AcDbEntity
  8
0
100
AcDbSpline
 62
7
  6
CONTINUOUS
 70
0
 71
3
 72
35
 73
31
 74
0
 42
0.0000001
 43
0.0000001
 44
0.0000000001
 40
0.0
 40
0.0
 40
0.0
 40
0.0
 40
0.030601779
 40
0.0613085508
 40
0.0921159899
 40
0.123023423
 40
0.1540269411
 40
0.18512231
 40
0.2163044716
 40
0.2475674952
 40
0.2789047587
 40
0.3103089602
 40
0.3417722066
 40
0.3732860852
 40
0.4364132452
 40
0.49963238
 40
0.5628654243
 40
0.6260338285
 40
0.6575781427
 40
0.6890780408
 40
0.7205247869
 40
0.751910111
 40
0.783226283
 40
0.8144662037
 40
0.84562342
 40
0.8766923106
 40
0.9076680406
 40
0.9385460661
 40
0.9693250576
 40
1.0
 40
1.0
 40
1.0
 40
1.0
 10
12.8552600621
 20
10.1453118171
 30
0.0
 10
12.8552600621
 20
10.1512480333
 30
0.0
 10
12.8549675428
 20
10.1631428526
 30
0.0
 10
12.8536577896
 20
10.1809703965
 30
0.0
 10
12.8514792122
 20
10.1987728488
 30
0.0
 10
12.8484373718
 20
10.2165064922
 30
0.0
 10
12.8445394291
 20
10.2341290025
 30
0.0
 10
12.8397948894
 20
10.2515978356
 30
0.0
 10
12.8342152225
 20
10.2688709711
 30
0.0
 10
12.8278138699
 20
10.2859068193
 30
0.0
 10
12.8206062192
 20
10.3026643862
 30
0.0
 10
12.8126097586
 20
10.3191032454
 30
0.0
 10
12.8038434661
 20
10.3351842356
 30
0.0
 10
12.7911521844
 20
10.3561048561
 30
0.0
 10
12.7734722447
 20
10.3811651374
 30
0.0
 10
12.7495762142
 20
10.4091849207
 30
0.0
 10
12.7232131929
 20
10.4349085868
 30
0.0
 10
12.6993813844
 20
10.454238744
 30
0.0
 10
12.679343003
 20
10.4683182262
 30
0.0
 10
12.6638699872
 20
10.4781574611
 30
0.0
 10
12.6479857353
 20
10.4872553826
 30
0.0
 10
12.631728092
 20
10.4955903905
 30
0.0
 10
12.6151362712
 20
10.5031422797
 30
0.0
 10
12.598250199
 20
10.5098928962
 30
0.0
 10
12.5811105319
 20
10.5158259815
 30
0.0
 10
12.563758494
 20
10.5209272091
 30
0.0
 10
12.5462359681
 20
10.5251841715
 30
0.0
 10
12.528584781
 20
10.5285868094
 30
0.0
 10
12.5108482568
 20
10.5311265588
 30
0.0
 10
12.4989740067
 20
10.5322425453
 30
0.0
 10
12.4930378558
 20
10.5326542188
 30
0.0
  0
SPLINE
  5
3C9
100
AcDbEntity
  8
0
100
AcDbSpline
 62
7
  6
CONTINUOUS
 70
0
 71
3
 72
23
 73
19
 74
0
 42
0.0000001
 43
0.0000001
 44
0.0000000001
 40
0.0
 40
0.0
 40
0.0
 40
0.0
 40
0.0638611429
 40
0.1275033697
 40
0.1909230193
 40
0.2541276602
 40
0.3171224166
 40
0.3799159195
 40
0.4425188183
 40
0.5049436681
 40
0.5672049987
 40
0.6293190785
 40
0.6913037901
 40
0.7531784362
 40
0.8149635271
 40
0.8766805602
 40
0.9383517934
 40
1.0
 40
1.0
 40
1.0
 40
1.0
 10
10.9234082951
 20
10.6415083985
 30
0.0
 10
10.9173619128
 20
10.6419277166
 30
0.0
 10
10.9052667836
 20
10.6424640777
 30
0.0
 10
10.8871397469
 20
10.6423560867
 30
0.0
 10
10.8691030716
 20
10.6413342553
 30
0.0
 10
10.8512030286
 20
10.6394013346
 30
0.0
 10
10.8334842973
 20
10.636561956
 30
0.0
 10
10.8159916169
 20
10.6328232884
 30
0.0
 10
10.7987690028
 20
10.6281947178
 30
0.0
 10
10.7818598339
 20
10.6226878433
 30
0.0
 10
10.7653067164
 20
10.6163164704
 30
0.0
 10
10.7491513589
 20
10.6090966004
 30
0.0
 10
10.7334344586
 20
10.601046419
 30
0.0
 10
10.7181956095
 20
10.5921861691
 30
0.0
 10
10.7034732603
 20
10.5825381646
 30
0.0
 10
10.6893044013
 20
10.5721265539
 30
0.0
 10
10.6757252131
 20
10.5609780395
 30
0.0
 10
10.6670865863
 20
10.5530715394
 30
0.0
 10
10.6628783232
 20
10.5490066504
 30
0.0
  0
SPLINE
  5
3CA
100
AcDbEntity
  8
0
100
AcDbSpline
 62
7
  6
CONTINUOUS
 70
0
 71
3
 72
15
 73
11
 74
0
 42
0.0000001
 43
0.0000001
 44
0.0000000001
 40
0.0
 40
0.0
 40
0.0
 40
0.0
 40
0.1098908068
 40
0.2214019772
 40
0.3360751714
 40
0.4553193726
 40
0.5803743547
 40
0.7122980908
 40
0.8519495858
 40
1.0
 40
1.0
 40
1.0
 40
1.0
 10
11.7406337935
 20
9.5926295908
 30
0.0
 10
11.7406337866
 20
9.59223221
 30
0.0
 10
11.7405827261
 20
9.5914306902
 30
0.0
 10
11.7403538559
 20
9.5902341794
 30
0.0
 10
11.7399734018
 20
9.5890414243
 30
0.0
 10
11.7394423119
 20
9.5878542359
 30
0.0
 10
11.738761815
 20
9.5866737079
 30
0.0
 10
11.7379329886
 20
9.5855009182
 30
0.0
 10
11.7369571594
 20
9.5843369543
 30
0.0
 10
11.7362314548
 20
9.5835901355
 30
0.0
 10
11.7358463865
 20
9.5832181881
 30
0.0
  0
SPLINE
  5
3CB
100
AcDbEntity
  8
0
100
AcDbSpline
 62
7
  6
CONTINUOUS
 70
0
 71
3
 72
15
 73
11
 74
0
 42
0.0000001
 43
0.0000001
 44
0.0000000001
 40
0.0
 40
0.0
 40
0.0
 40
0.0
 40
0.1098908068
 40
0.2214019772
 40
0.3360751714
 40
0.4553193726
 40
0.5803743547
 40
0.7122980908
 40
0.8519495858
 40
1.0
 40
1.0
 40
1.0
 40
1.0
 10
9.9903762015
 20
9.7140103671
 30
0.0
 10
9.9903761946
 20
9.7136129863
 30
0.0
 10
9.9903251341
 20
9.7128114665
 30
0.0
 10
9.9900962639
 20
9.7116149557
 30
0.0
 10
9.9897158098
 20
9.7104222006
 30
0.0
 10
9.9891847199
 20
9.7092350121
 30
0.0
 10
9.988504223
 20
9.7080544841
 30
0.0
 10
9.9876753966
 20
9.7068816945
 30
0.0
 10
9.9866995674
 20
9.7057177306
 30
0.0
 10
9.9859738628
 20
9.7049709118
 30
0.0
 10
9.9855887945
 20
9.7045989644
 30
0.0
  0
SPLINE
  5
3CC
100
AcDbEntity
  8
0
100
AcDbSpline
 62
7
  6
CONTINUOUS
 70
0
 71
3
 72
15
 73
11
 74
0
 42
0.0000001
 43
0.0000001
 44
0.0000000001
 40
0.0
 40
0.0
 40
0.0
 40
0.0
 40
0.1098908068
 40
0.2214019772
 40
0.3360751714
 40
0.4553193726
 40
0.5803743547
 40
0.7122980908
 40
0.8519495858
 40
1.0
 40
1.0
 40
1.0
 40
1.0
 10
10.5403662493
 20
10.2452599899
 30
0.0
 10
10.5403662424
 20
10.2448626091
 30
0.0
 10
10.5403151819
 20
10.2440610893
 30
0.0
 10
10.5400863117
 20
10.2428645786
 30
0.0
 10
10.5397058576
 20
10.2416718234
 30
0.0
 10
10.5391747677
 20
10.240484635
 30
0.0
 10
10.5384942708
 20
10.239304107
 30
0.0
 10
10.5376654444
 20
10.2381313173
 30
0.0
 10
10.5366896152
 20
10.2369673534
 30
0.0
 10
10.5359639106
 20
10.2362205346
 30
0.0
 10
10.5355788423
 20
10.2358485872
 30
0.0
  0
SPLINE
  5
3CD
100
AcDbEntity
  8
0
100
AcDbSpline
 62
7
  6
CONTINUOUS
 70
0
 71
3
 72
15
 73
11
 74
0
 42
0.0000001
 43
0.0000001
 44
0.0000000001
 40
0.0
 40
0.0
 40
0.0
 40
0.0
 40
0.1098908068
 40
0.2214019772
 40
0.3360751714
 40
0.4553193726
 40
0.5803743547
 40
0.7122980908
 40
0.8519495858
 40
1.0
 40
1.0
 40
1.0
 40
1.0
 10
12.2906238413
 20
10.1238792137
 30
0.0
 10
12.2906238344
 20
10.1234818329
 30
0.0
 10
12.2905727739
 20
10.122680313
 30
0.0
 10
12.2903439037
 20
10.1214838023
 30
0.0
 10
12.2899634496
 20
10.1202910471
 30
0.0
 10
12.2894323597
 20
10.1191038587
 30
0.0
 10
12.2887518628
 20
10.1179233307
 30
0.0
 10
12.2879230364
 20
10.116750541
 30
0.0
 10
12.2869472072
 20
10.1155865771
 30
0.0
 10
12.2862215026
 20
10.1148397584
 30
0.0
 10
12.2858364343
 20
10.1144678109
 30
0.0
  0
SPLINE
  5
3CE
100
AcDbEntity
  8
0
100
AcDbSpline
 62
7
  6
CONTINUOUS
 70
0
 71
3
 72
11
 73
7
 74
0
 42
0.0000001
 43
0.0000001
 44
0.0000000001
 40
0.0
 40
0.0
 40
0.0
 40
0.0
 40
0.2518711972
 40
0.5024695247
 40
0.7518292065
 40
1.0
 40
1.0
 40
1.0
 40
1.0
 10
10.9755046906
 20
7.1057261143
 30
0.0
 10
10.9755046906
 20
7.0944998084
 30
0.0
 10
10.9747797298
 20
7.0720969938
 30
0.0
 10
10.971504123
 20
7.0387237582
 30
0.0
 10
10.9660593063
 20
7.0058020901
 30
0.0
 10
10.9609866581
 20
6.9841942376
 30
0.0
 10
10.958097391
 20
6.9735168734
 30
0.0
  0
SPLINE
  5
3CF
100
AcDbEntity
  8
0
100
AcDbSpline
 62
7
  6
CONTINUOUS
 70
0
 71
3
 72
21
 73
17
 74
0
 42
0.0000001
 43
0.0000001
 44
0.0000000001
 40
0.0
 40
0.0
 40
0.0
 40
0.0
 40
0.0614954003
 40
0.1231943731
 40
0.1850864273
 40
0.2471594267
 40
0.3093996982
 40
0.3717921678
 40
0.4343205027
 40
0.4969672499
 40
0.6225096055
 40
0.748295101
 40
0.8112437331
 40
0.874191299
 40
0.9371169468
 40
1.0
 40
1.0
 40
1.0
 40
1.0
 10
10.5283917974
 20
7.6538427324
 30
0.0
 10
10.5366830601
 20
7.6520526606
 30
0.0
 10
10.5532112699
 20
7.6480753325
 30
0.0
 10
10.57773514
 20
7.6409484988
 30
0.0
 10
10.6019780197
 20
7.632666204
 30
0.0
 10
10.6258823995
 20
7.6232474332
 30
0.0
 10
10.6493924929
 20
7.6127136643
 30
0.0
 10
10.6724529937
 20
7.601089214
 30
0.0
 10
10.6950103209
 20
7.5884005215
 30
0.0
 10
10.7243609806
 20
7.5700929621
 30
0.0
 10
10.7595205287
 20
7.5447003279
 30
0.0
 10
10.7922892944
 20
7.5162265481
 30
0.0
 10
10.8169120091
 20
7.4917407627
 30
0.0
 10
10.8345445356
 20
7.4725596976
 30
0.0
 10
10.8512928686
 20
7.45261508
 30
0.0
 10
10.8618489166
 20
7.4388329602
 30
0.0
 10
10.866966871
 20
7.4318301272
 30
0.0
  0
SPLINE
  5
3D0
100
AcDbEntity
  8
0
100
AcDbSpline
 62
7
  6
CONTINUOUS
 70
0
 71
3
 72
11
 73
7
 74
0
 42
0.0000001
 43
0.0000001
 44
0.0000000001
 40
0.0
 40
0.0
 40
0.0
 40
0.0
 40
0.2519457329
 40
0.502637337
 40
0.7520020727
 40
1.0
 40
1.0
 40
1.0
 40
1.0
 10
10.9541595929
 20
7.2548275305
 30
0.0
 10
10.9576855154
 20
7.2426385285
 30
0.0
 10
10.9638837681
 20
7.2180701173
 30
0.0
 10
10.9705731745
 20
7.1807621164
 30
0.0
 10
10.974602479
 20
7.1432735918
 30
0.0
 10
10.9755046906
 20
7.1182160223
 30
0.0
 10
10.9755046906
 20
7.1057261143
 30
0.0
  0
SPLINE
  5
3D1
100
AcDbEntity
  8
0
100
AcDbSpline
 62
7
  6
CONTINUOUS
 70
0
 71
3
 72
23
 73
19
 74
0
 42
0.0000001
 43
0.0000001
 44
0.0000000001
 40
0.0
 40
0.0
 40
0.0
 40
0.0
 40
0.0639510658
 40
0.1276638605
 40
0.1911396383
 40
0.2543848933
 40
0.3174065406
 40
0.3802144023
 40
0.4428201553
 40
0.5052375627
 40
0.5674822753
 40
0.6295717041
 40
0.6915248844
 40
0.7533621958
 40
0.8151054923
 40
0.8767768496
 40
0.9384010082
 40
1.0
 40
1.0
 40
1.0
 40
1.0
 10
10.9755046906
 20
8.4348401752
 30
0.0
 10
10.9755046906
 20
8.426536735
 30
0.0
 10
10.9751079083
 20
8.409957981
 30
0.0
 10
10.9733167992
 20
8.3851957584
 30
0.0
 10
10.9703356087
 20
8.3606401071
 30
0.0
 10
10.9661720841
 20
8.3363481736
 30
0.0
 10
10.9608364106
 20
8.3123752112
 30
0.0
 10
10.9543415828
 20
8.2887760215
 30
0.0
 10
10.9467031091
 20
8.2656043118
 30
0.0
 10
10.937939078
 20
8.2429127403
 30
0.0
 10
10.9280700497
 20
8.2207527645
 30
0.0
 10
10.9171190218
 20
8.1991745388
 30
0.0
 10
10.9051113469
 20
8.1782268405
 30
0.0
 10
10.8920746695
 20
8.157956907
 30
0.0
 10
10.8780388909
 20
8.1384105677
 30
0.0
 10
10.86303588
 20
8.119631566
 30
0.0
 10
10.8471003282
 20
8.1016630219
 30
0.0
 10
10.8358768124
 20
8.0902490032
 30
0.0
 10
10.8301241815
 20
8.0846923881
 30
0.0
  0
SPLINE
  5
3D2
100
AcDbEntity
  8
0
100
AcDbSpline
 62
7
  6
CONTINUOUS
 70
0
 71
3
 72
39
 73
35
 74
0
 42
0.0000001
 43
0.0000001
 44
0.0000000001
 40
0.0
 40
0.0
 40
0.0
 40
0.0
 40
0.0297736822
 40
0.0595749236
 40
0.0894314822
 40
0.119368874
 40
0.1494108994
 40
0.1795787094
 40
0.2098903739
 40
0.2403605102
 40
0.2709999879
 40
0.3018157686
 40
0.3328108264
 40
0.3639841774
 40
0.3953309716
 40
0.4268426948
 40
0.4585074075
 40
0.4903100594
 40
0.5222328336
 40
0.5542555508
 40
0.5863560825
 40
0.6185108025
 40
0.6506950465
 40
0.6828835893
 40
0.7150511241
 40
0.7471727428
 40
0.7792244152
 40
0.8111834521
 40
0.8430289663
 40
0.8747422927
 40
0.9063074002
 40
0.9377112982
 40
0.9689440196
 40
1.0
 40
1.0
 40
1.0
 40
1.0
 10
10.0797978407
 20
8.8614873303
 30
0.0
 10
10.0886996978
 20
8.8700858646
 30
0.0
 10
10.1072059895
 20
8.8865883604
 30
0.0
 10
10.1368626112
 20
8.9090666264
 30
0.0
 10
10.168268394
 20
8.9291589151
 30
0.0
 10
10.2012513839
 20
8.9467529679
 30
0.0
 10
10.2356334079
 20
8.9617523249
 30
0.0
 10
10.2712277216
 20
8.97407346
 30
0.0
 10
10.3078407362
 20
8.9836471583
 30
0.0
 10
10.3452727158
 20
8.9904187498
 30
0.0
 10
10.3833188463
 20
8.9943487372
 30
0.0
 10
10.4217703359
 20
8.9954130763
 30
0.0
 10
10.4604155789
 20
8.9936033999
 30
0.0
 10
10.4990413404
 20
8.9889272311
 30
0.0
 10
10.5374340193
 20
8.9814081515
 30
0.0
 10
10.5753808963
 20
8.9710856298
 30
0.0
 10
10.6126713821
 20
8.9580148637
 30
0.0
 10
10.6490982988
 20
8.9422666283
 30
0.0
 10
10.6844591188
 20
8.9239268678
 30
0.0
 10
10.7185571281
 20
8.9030961589
 30
0.0
 10
10.7512025941
 20
8.8798891854
 30
0.0
 10
10.7822139484
 20
8.8544341788
 30
0.0
 10
10.8114187813
 20
8.8268720702
 30
0.0
 10
10.8386548231
 20
8.7973556833
 30
0.0
 10
10.8637709624
 20
8.7660489315
 30
0.0
 10
10.8866281081
 20
8.733125838
 30
0.0
 10
10.9070999207
 20
8.698769478
 30
0.0
 10
10.9250735541
 20
8.6631709321
 30
0.0
 10
10.9404504014
 20
8.6265282404
 30
0.0
 10
10.9531465321
 20
8.5890450756
 30
0.0
 10
10.9630931502
 20
8.5509298677
 30
0.0
 10
10.9702369551
 20
8.5123934762
 30
0.0
 10
10.974540669
 20
8.4736521829
 30
0.0
 10
10.9755046906
 20
8.4477497126
 30
0.0
 10
10.9755046906
 20
8.4348401752
 30
0.0
  0
SPLINE
  5
3D3
100
AcDbEntity
  8
0
100
AcDbSpline
 62
7
  6
CONTINUOUS
 70
0
 71
3
 72
42
 73
38
 74
0
 42
0.0000001
 43
0.0000001
 44
0.0000000001
 40
0.0
 40
0.0
 40
0.0
 40
0.0
 40
0.0301389766
 40
0.0603182069
 40
0.0905777403
 40
0.1209535579
 40
0.151477026
 40
0.1821737019
 40
0.2130623955
 40
0.2441545855
 40
0.2754541243
 40
0.3069572448
 40
0.338652843
 40
0.3705230045
 40
0.4025437415
 40
0.4346859048
 40
0.4669162344
 40
0.4991985138
 40
0.5314947952
 40
0.5637666657
 40
0.5959765241
 40
0.6280888387
 40
0.6600713565
 40
0.6918962317
 40
0.7235410425
 40
0.7549896589
 40
0.7862329271
 40
0.8172691338
 40
0.8327157791
 40
0.8481135174
 40
0.8634642921
 40
0.8787704695
 40
0.909251003
 40
0.9395920138
 40
0.9547247117
 40
0.9698356192
 40
1.0
 40
1.0
 40
1.0
 40
1.0
 10
10.0981909313
 20
7.8846101151
 30
0.0
 10
10.1002089137
 20
7.8865592969
 30
0.0
 10
10.1044517627
 20
7.8902550179
 30
0.0
 10
10.1113562112
 20
7.8951194488
 30
0.0
 10
10.1187414948
 20
7.8992640822
 30
0.0
 10
10.1265384652
 20
7.9026500036
 30
0.0
 10
10.1346752325
 20
7.9052463716
 30
0.0
 10
10.1430765497
 20
7.9070294382
 30
0.0
 10
10.1516648971
 20
7.9079830762
 30
0.0
 10
10.1603611036
 20
7.9080988107
 30
0.0
 10
10.1690851052
 20
7.9073758891
 30
0.0
 10
10.177756666
 20
7.9058212565
 30
0.0
 10
10.1862961056
 20
7.9034494719
 30
0.0
 10
10.194625014
 20
7.9002825595
 30
0.0
 10
10.2026669549
 20
7.8963497971
 30
0.0
 10
10.2103481528
 20
7.8916874471
 30
0.0
 10
10.2175981536
 20
7.8863384185
 30
0.0
 10
10.224350456
 20
7.8803518761
 30
0.0
 10
10.2305431103
 20
7.8737827947
 30
0.0
 10
10.2361192756
 20
7.866691462
 30
0.0
 10
10.2410277328
 20
7.8591429358
 30
0.0
 10
10.2452233477
 20
7.8512064567
 30
0.0
 10
10.2486674817
 20
7.8429548306
 30
0.0
 10
10.2513283411
 20
7.8344637579
 30
0.0
 10
10.2531812842
 20
7.8258112197
 30
0.0
 10
10.2542090105
 20
7.8170765395
 30
0.0
 10
10.2544019051
 20
7.8083405555
 30
0.0
 10
10.2538639832
 20
7.8011126239
 30
0.0
 10
10.2530164918
 20
7.7954129239
 30
0.0
 10
10.2521755674
 20
7.7911938169
 30
0.0
 10
10.2511303973
 20
7.787034072
 30
0.0
 10
10.2494702793
 20
7.7815882581
 30
0.0
 10
10.2468977458
 20
7.7749713098
 30
0.0
 10
10.2436775695
 20
7.7686621322
 30
0.0
 10
10.2407362
 20
7.7638474439
 30
0.0
 10
10.2375624791
 20
7.7592031771
 30
0.0
 10
10.2349182687
 20
7.7559086574
 30
0.0
 10
10.2330503309
 20
7.7538120777
 30
0.0
  0
SPLINE
  5
3D4
100
AcDbEntity
  8
0
100
AcDbSpline
 62
7
  6
CONTINUOUS
 70
0
 71
3
 72
23
 73
19
 74
0
 42
0.0000001
 43
0.0000001
 44
0.0000000001
 40
0.0
 40
0.0
 40
0.0
 40
0.0
 40
0.0407646364
 40
0.0836482539
 40
0.1288887237
 40
0.1767279351
 40
0.2274068269
 40
0.2811566415
 40
0.3381869409
 40
0.3986703219
 40
0.4627234657
 40
0.5303855989
 40
0.6015968215
 40
0.6761780099
 40
0.7538171048
 40
0.8340665731
 40
0.916352225
 40
1.0
 40
1.0
 40
1.0
 40
1.0
 10
10.4830012743
 20
8.4062318679
 30
0.0
 10
10.4805466482
 20
8.4058739931
 30
0.0
 10
10.4754817436
 20
8.405320667
 30
0.0
 10
10.4676384024
 20
8.4050182632
 30
0.0
 10
10.4593621397
 20
8.4052811633
 30
0.0
 10
10.4506526579
 20
8.4061734744
 30
0.0
 10
10.4415169236
 20
8.4077651803
 30
0.0
 10
10.4319727481
 20
8.4101314798
 30
0.0
 10
10.4220516867
 20
8.4133508094
 30
0.0
 10
10.411802457
 20
8.4175017707
 30
0.0
 10
10.4012940748
 20
8.4226586204
 30
0.0
 10
10.390618241
 20
8.4288853057
 30
0.0
 10
10.3798902356
 20
8.436228224
 30
0.0
 10
10.3692475261
 20
8.4447083631
 30
0.0
 10
10.3588453294
 20
8.4543135323
 30
0.0
 10
10.3488490145
 20
8.4649930299
 30
0.0
 10
10.339424622
 20
8.4766537374
 30
0.0
 10
10.3336542984
 20
8.4849522483
 30
0.0
 10
10.3308986086
 20
8.489231847
 30
0.0
  0
SPLINE
  5
3D5
100
AcDbEntity
  8
0
100
AcDbSpline
 62
7
  6
CONTINUOUS
 70
0
 71
3
 72
15
 73
11
 74
0
 42
0.0000001
 43
0.0000001
 44
0.0000000001
 40
0.0
 40
0.0
 40
0.0
 40
0.0
 40
0.1129430796
 40
0.2274171596
 40
0.3440384098
 40
0.46360373
 40
0.5871860225
 40
0.7162748378
 40
0.8529549937
 40
1.0
 40
1.0
 40
1.0
 40
1.0
 10
10.3368758442
 20
8.4805134462
 30
0.0
 10
10.337214163
 20
8.4827814875
 30
0.0
 10
10.3377956243
 20
8.487363761
 30
0.0
 10
10.338385299
 20
8.4943258292
 30
0.0
 10
10.3387037422
 20
8.5014401369
 30
0.0
 10
10.338755809
 20
8.5087461081
 30
0.0
 10
10.3385442802
 20
8.5163022637
 30
0.0
 10
10.3380690959
 20
8.5241943725
 30
0.0
 10
10.3373266024
 20
8.5325439212
 30
0.0
 10
10.3366774324
 20
8.5382683629
 30
0.0
 10
10.3363131466
 20
8.5412315777
 30
0.0
  0
SPLINE
  5
3D6
100
AcDbEntity
  8
0
100
AcDbSpline
 62
7
  6
CONTINUOUS
 70
0
 71
3
 72
33
 73
29
 74
0
 42
0.0000001
 43
0.0000001
 44
0.0000000001
 40
0.0
 40
0.0
 40
0.0
 40
0.0
 40
0.0153347813
 40
0.0307113601
 40
0.0463050796
 40
0.0622824577
 40
0.0787982561
 40
0.0959944698
 40
0.1139999175
 40
0.1329310325
 40
0.1528929791
 40
0.1739808697
 40
0.1962814168
 40
0.2198735834
 40
0.2448300717
 40
0.2712171543
 40
0.2990953432
 40
0.3285190188
 40
0.3595350463
 40
0.3921832284
 40
0.4264921627
 40
0.4624790188
 40
0.5394635553
 40
0.6229198186
 40
0.7121943925
 40
0.8060853725
 40
0.9027907782
 40
1.0
 40
1.0
 40
1.0
 40
1.0
 10
10.4548545106
 20
8.1096113487
 30
0.0
 10
10.4547439317
 20
8.1090387311
 30
0.0
 10
10.4544582839
 20
8.1079032497
 30
0.0
 10
10.453839777
 20
8.1062507504
 30
0.0
 10
10.4530334691
 20
8.1046538049
 30
0.0
 10
10.4520403757
 20
8.1031143393
 30
0.0
 10
10.4508610567
 20
8.1016339816
 30
0.0
 10
10.4494953254
 20
8.100214893
 30
0.0
 10
10.4479427622
 20
8.098859265
 30
0.0
 10
10.4462021529
 20
8.0975700706
 30
0.0
 10
10.4442722125
 20
8.0963503856
 30
0.0
 10
10.4421510493
 20
8.095204273
 30
0.0
 10
10.4398368397
 20
8.0941359633
 30
0.0
 10
10.4373274276
 20
8.0931507523
 30
0.0
 10
10.4346208641
 20
8.0922542204
 30
0.0
 10
10.4317152131
 20
8.0914529846
 30
0.0
 10
10.4286089385
 20
8.090754141
 30
0.0
 10
10.4253009667
 20
8.0901656763
 30
0.0
 10
10.4217909366
 20
8.0896962932
 30
0.0
 10
10.4180795336
 20
8.0893553582
 30
0.0
 10
10.414168661
 20
8.0891530204
 30
0.0
 10
10.4085667257
 20
8.0890807104
 30
0.0
 10
10.4010963542
 20
8.0894177507
 30
0.0
 10
10.3916579005
 20
8.0905413872
 30
0.0
 10
10.3816942013
 20
8.0924718747
 30
0.0
 10
10.3714122597
 20
8.0952618223
 30
0.0
 10
10.361084519
 20
8.0989174783
 30
0.0
 10
10.3543359122
 20
8.1019141719
 30
0.0
 10
10.351021101
 20
8.1035511087
 30
0.0
  0
SPLINE
  5
3D7
100
AcDbEntity
  8
0
100
AcDbSpline
 62
7
  6
CONTINUOUS
 70
0
 71
3
 72
15
 73
11
 74
0
 42
0.0000001
 43
0.0000001
 44
0.0000000001
 40
0.0
 40
0.0
 40
0.0
 40
0.0
 40
0.1136930181
 40
0.2259482555
 40
0.3393165103
 40
0.4562795645
 40
0.579086552
 40
0.7096625858
 40
0.8495734706
 40
1.0
 40
1.0
 40
1.0
 40
1.0
 10
11.8419240144
 20
9.8773330762
 30
0.0
 10
11.8420909844
 20
9.8766516492
 30
0.0
 10
11.8423239569
 20
9.8752704725
 30
0.0
 10
11.842345632
 20
9.8731683431
 30
0.0
 10
11.8420344276
 20
9.8710686591
 30
0.0
 10
11.8413919915
 20
9.8689783251
 30
0.0
 10
11.8404217328
 20
9.8669018862
 30
0.0
 10
11.8391272849
 20
9.8648424723
 30
0.0
 10
11.8375122798
 20
9.8628027635
 30
0.0
 10
11.8362714197
 20
9.8615067304
 30
0.0
 10
11.8356037623
 20
9.8608618229
 30
0.0
  0
SPLINE
  5
3D8
100
AcDbEntity
  8
0
100
AcDbSpline
 62
7
  6
CONTINUOUS
 70
0
 71
3
 72
23
 73
19
 74
0
 42
0.0000001
 43
0.0000001
 44
0.0000000001
 40
0.0
 40
0.0
 40
0.0
 40
0.0
 40
0.0616482066
 40
0.1233194398
 40
0.1850364729
 40
0.2468215638
 40
0.3086962099
 40
0.3706809215
 40
0.4327950013
 40
0.4950563319
 40
0.5574811817
 40
0.6200840805
 40
0.6828775834
 40
0.7458723398
 40
0.8090769807
 40
0.8724966303
 40
0.9361388571
 40
1.0
 40
1.0
 40
1.0
 40
1.0
 10
11.3371216768
 20
6.4509933496
 30
0.0
 10
11.3329134137
 20
6.4469284606
 30
0.0
 10
11.3242747869
 20
6.4390219605
 30
0.0
 10
11.3106955987
 20
6.4278734461
 30
0.0
 10
11.2965267397
 20
6.4174618354
 30
0.0
 10
11.2818043905
 20
6.4078138309
 30
0.0
 10
11.2665655414
 20
6.398953581
 30
0.0
 10
11.2508486411
 20
6.3909033996
 30
0.0
 10
11.2346932836
 20
6.3836835296
 30
0.0
 10
11.2181401661
 20
6.3773121567
 30
0.0
 10
11.2012309972
 20
6.3718052822
 30
0.0
 10
11.1840083831
 20
6.3671767116
 30
0.0
 10
11.1665157027
 20
6.363438044
 30
0.0
 10
11.1487969714
 20
6.3605986654
 30
0.0
 10
11.1308969284
 20
6.3586657447
 30
0.0
 10
11.1128602531
 20
6.3576439133
 30
0.0
 10
11.0947332164
 20
6.3575359223
 30
0.0
 10
11.0826380872
 20
6.3580722834
 30
0.0
 10
11.0765917049
 20
6.3584916015
 30
0.0
  0
SPLINE
  5
3D9
100
AcDbEntity
  8
0
100
AcDbSpline
 62
7
  6
CONTINUOUS
 70
0
 71
3
 72
23
 73
19
 74
0
 42
0.0000001
 43
0.0000001
 44
0.0000000001
 40
0.0
 40
0.0
 40
0.0
 40
0.0
 40
0.0617101467
 40
0.1234414005
 40
0.1852146478
 40
0.2470503543
 40
0.3089683505
 40
0.3709876232
 40
0.433126136
 40
0.4954006598
 40
0.5578266145
 40
0.6204179204
 40
0.6831867797
 40
0.7461439117
 40
0.8092980272
 40
0.8726549309
 40
0.9362234023
 40
1.0
 40
1.0
 40
1.0
 40
1.0
 10
12.7535678277
 20
7.8181753494
 30
0.0
 10
12.7575944012
 20
7.8220647388
 30
0.0
 10
12.7654502671
 20
7.830053592
 30
0.0
 10
12.776604233
 20
7.8426292935
 30
0.0
 10
12.787104959
 20
7.8557705229
 30
0.0
 10
12.7969278159
 20
7.8694465608
 30
0.0
 10
12.8060502545
 20
7.8836259786
 30
0.0
 10
12.8144511979
 20
7.8982760464
 30
0.0
 10
12.8221113449
 20
7.9133629476
 30
0.0
 10
12.829013061
 20
7.9288518789
 30
0.0
 10
12.8351404247
 20
7.9447071334
 30
0.0
 10
12.8404793332
 20
7.9608921382
 30
0.0
 10
12.8450175702
 20
7.9773695593
 30
0.0
 10
12.8487446924
 20
7.994101432
 30
0.0
 10
12.8516520676
 20
8.0110490765
 30
0.0
 10
12.8537332126
 20
8.0281738011
 30
0.0
 10
12.85498311
 20
8.0454353209
 30
0.0
 10
12.8552600621
 20
8.0569898747
 30
0.0
 10
12.8552600621
 20
8.0627756123
 30
0.0
  0
SPLINE
  5
3DA
100
AcDbEntity
  8
0
100
AcDbSpline
 62
7
  6
CONTINUOUS
 70
0
 71
3
 72
56
 73
52
 74
0
 42
0.0000001
 43
0.0000001
 44
0.0000000001
 40
0.0
 40
0.0
 40
0.0
 40
0.0
 40
0.0081222938
 40
0.0169170801
 40
0.0264091382
 40
0.0366148289
 40
0.0475421808
 40
0.0591919764
 40
0.0715595473
 40
0.0846358918
 40
0.0984078501
 40
0.1128591724
 40
0.1279704231
 40
0.1437198166
 40
0.1600830866
 40
0.177033978
 40
0.2125829701
 40
0.2501235391
 40
0.2893881851
 40
0.3300908459
 40
0.3719305622
 40
0.4145949051
 40
0.4577632762
 40
0.5011101389
 40
0.544308216
 40
0.5870316771
 40
0.628959336
 40
0.6697778856
 40
0.7091851907
 40
0.7468936997
 40
0.7826340729
 40
0.7996887672
 40
0.8161607846
 40
0.8320235453
 40
0.8472524452
 40
0.8618251195
 40
0.8757218495
 40
0.8889255774
 40
0.9014227661
 40
0.9132033723
 40
0.9242620665
 40
0.9345986136
 40
0.9442193836
 40
0.9531387147
 40
0.961380935
 40
0.9689832297
 40
0.9759985973
 40
0.9825000153
 40
0.9885833932
 40
0.9943693215
 40
1.0
 40
1.0
 40
1.0
 40
1.0
 10
12.014411261
 20
10.1332912106
 30
0.0
 10
12.014979095
 20
10.1338396961
 30
0.0
 10
12.0162153513
 20
10.1349273128
 30
0.0
 10
12.0182674102
 20
10.1364726479
 30
0.0
 10
12.0205848629
 20
10.1379921078
 30
0.0
 10
12.0231629672
 20
10.1394827943
 30
0.0
 10
12.0259969019
 20
10.1409420029
 30
0.0
 10
12.0290811657
 20
10.1423668607
 30
0.0
 10
12.0324096894
 20
10.1437545695
 30
0.0
 10
12.0359758915
 20
10.145102302
 30
0.0
 10
12.0397726634
 20
10.1464074015
 30
0.0
 10
12.0437924236
 20
10.147667152
 30
0.0
 10
12.0480271001
 20
10.1488790562
 30
0.0
 10
12.0524681824
 20
10.150040594
 30
0.0
 10
12.057106733
 20
10.1511494544
 30
0.0
 10
12.0636464376
 20
10.1525772878
 30
0.0
 10
12.0722475371
 20
10.1542049664
 30
0.0
 10
12.083039674
 20
10.155886308
 30
0.0
 10
12.0943735672
 20
10.1573114545
 30
0.0
 10
12.1061577127
 20
10.1584686853
 30
0.0
 10
12.1182970545
 20
10.1593484414
 30
0.0
 10
12.1306935512
 20
10.1599434791
 30
0.0
 10
12.1432470586
 20
10.1602488989
 30
0.0
 10
12.155856138
 20
10.160262188
 30
0.0
 10
12.1684188949
 20
10.1599832364
 30
0.0
 10
12.1808338133
 20
10.1594143384
 30
0.0
 10
12.1930005964
 20
10.1585601769
 30
0.0
 10
12.2048209767
 20
10.1574277858
 30
0.0
 10
12.2161995984
 20
10.1560265182
 30
0.0
 10
12.227044592
 20
10.1543679015
 30
0.0
 10
12.2356949213
 20
10.1527586751
 30
0.0
 10
12.2422778672
 20
10.151345052
 30
0.0
 10
12.246951296
 20
10.150246009
 30
0.0
 10
12.2514289253
 20
10.149093867
 30
0.0
 10
12.255701744
 20
10.1478909432
 30
0.0
 10
12.2597611551
 20
10.1466396767
 30
0.0
 10
12.2635990176
 20
10.1453426471
 30
0.0
 10
12.2672076424
 20
10.1440024305
 30
0.0
 10
12.2705798516
 20
10.1426218037
 30
0.0
 10
12.2737089456
 20
10.1412034671
 30
0.0
 10
12.2765887894
 20
10.1397503039
 30
0.0
 10
12.2792137638
 20
10.1382651006
 30
0.0
 10
12.2815788335
 20
10.1367506952
 30
0.0
 10
12.2836795253
 20
10.135209829
 30
0.0
 10
12.2855118601
 20
10.1336450413
 30
0.0
 10
12.2870723707
 20
10.1320587321
 30
0.0
 10
12.28835768
 20
10.1304528269
 30
0.0
 10
12.2893644606
 20
10.1288292761
 30
0.0
 10
12.2900886554
 20
10.1271898532
 30
0.0
 10
12.2905259166
 20
10.1255384808
 30
0.0
 10
12.2906238508
 20
10.1244265078
 30
0.0
 10
12.2906238413
 20
10.1238792137
 30
0.0
  0
SPLINE
  5
3DB
100
AcDbEntity
  8
0
100
AcDbSpline
 62
7
  6
CONTINUOUS
 70
0
 71
3
 72
15
 73
11
 74
0
 42
0.0000001
 43
0.0000001
 44
0.0000000001
 40
0.0
 40
0.0
 40
0.0
 40
0.0
 40
0.1263895381
 40
0.252363376
 40
0.3779220777
 40
0.5030789407
 40
0.6278459523
 40
0.7522407676
 40
0.8762840502
 40
1.0
 40
1.0
 40
1.0
 40
1.0
 10
10.9951578996
 20
7.0947659733
 30
0.0
 10
10.9951578996
 20
7.0859754647
 30
0.0
 10
10.9947380937
 20
7.0684203934
 30
0.0
 10
10.9928432044
 20
7.0421941654
 30
0.0
 10
10.9896882567
 20
7.0161751659
 30
0.0
 10
10.985280647
 20
6.9904240595
 30
0.0
 10
10.979630297
 20
6.964999625
 30
0.0
 10
10.9727500965
 20
6.9399601262
 30
0.0
 10
10.9646560804
 20
6.9153637998
 30
0.0
 10
10.958454634
 20
6.8992773232
 30
0.0
 10
10.9551584697
 20
6.8913291333
 30
0.0
  0
SPLINE
  5
3DC
100
AcDbEntity
  8
0
100
AcDbSpline
 62
7
  6
CONTINUOUS
 70
0
 71
3
 72
15
 73
11
 74
0
 42
0.0000001
 43
0.0000001
 44
0.0000000001
 40
0.0
 40
0.0
 40
0.0
 40
0.0
 40
0.1241106012
 40
0.2483209124
 40
0.3727143813
 40
0.4973706855
 40
0.6223641257
 40
0.747762156
 40
0.8736240894
 40
1.0
 40
1.0
 40
1.0
 40
1.0
 10
10.0512620189
 20
7.5478593948
 30
0.0
 10
10.0600836759
 20
7.5561766615
 30
0.0
 10
10.0783504034
 20
7.5721778059
 30
0.0
 10
10.1074432879
 20
7.5941222081
 30
0.0
 10
10.1381046942
 20
7.6139175115
 30
0.0
 10
10.1701895126
 20
7.631469686
 30
0.0
 10
10.2035481709
 20
7.6466974117
 30
0.0
 10
10.2380253382
 20
7.6595298329
 30
0.0
 10
10.2734577229
 20
7.6699069247
 30
0.0
 10
10.2975600552
 20
7.6751458894
 30
0.0
 10
10.3097084288
 20
7.6773437719
 30
0.0
  0
SPLINE
  5
3DD
100
AcDbEntity
  8
0
100
AcDbSpline
 62
7
  6
CONTINUOUS
 70
0
 71
3
 72
23
 73
19
 74
0
 42
0.0000001
 43
0.0000001
 44
0.0000000001
 40
0.0
 40
0.0
 40
0.0
 40
0.0
 40
0.0613707841
 40
0.1229745978
 40
0.184801259
 40
0.2468377058
 40
0.3090681929
 40
0.3714745165
 40
0.4340362643
 40
0.4967310869
 40
0.5595349872
 40
0.6224226254
 40
0.6853676352
 40
0.7483429495
 40
0.8113211315
 40
0.8742747097
 40
0.9371765123
 40
1.0
 40
1.0
 40
1.0
 40
1.0
 10
10.4793549863
 20
7.6809214339
 30
0.0
 10
10.4900328362
 20
7.6794875369
 30
0.0
 10
10.5113514975
 20
7.6759990901
 30
0.0
 10
10.5430342984
 20
7.6689453407
 30
0.0
 10
10.574382085
 20
7.6600835807
 30
0.0
 10
10.6052877949
 20
7.6494440001
 30
0.0
 10
10.6356476343
 20
7.6370625199
 30
0.0
 10
10.6653591837
 20
7.6229809851
 30
0.0
 10
10.6943223443
 20
7.6072469379
 30
0.0
 10
10.7224395095
 20
7.5899134803
 30
0.0
 10
10.7496159347
 20
7.5710390898
 30
0.0
 10
10.775760044
 20
7.5506874218
 30
0.0
 10
10.8007837338
 20
7.5289271052
 30
0.0
 10
10.824602688
 20
7.5058314774
 30
0.0
 10
10.8471365819
 20
7.4814784671
 30
0.0
 10
10.8683096432
 20
7.4559498552
 30
0.0
 10
10.8880498183
 20
7.4293327811
 30
0.0
 10
10.9002212157
 20
7.4109054945
 30
0.0
 10
10.9060461563
 20
7.4015405208
 30
0.0
  0
SPLINE
  5
3DE
100
AcDbEntity
  8
0
100
AcDbSpline
 62
7
  6
CONTINUOUS
 70
0
 71
3
 72
15
 73
11
 74
0
 42
0.0000001
 43
0.0000001
 44
0.0000000001
 40
0.0
 40
0.0
 40
0.0
 40
0.0
 40
0.1263101151
 40
0.252289035
 40
0.3779106581
 40
0.5031522045
 40
0.6279950869
 40
0.7524232822
 40
0.8764282098
 40
1.0
 40
1.0
 40
1.0
 40
1.0
 10
10.9503835523
 20
7.3155526655
 30
0.0
 10
10.9540585371
 20
7.3067423552
 30
0.0
 10
10.9609759601
 20
7.2889649057
 30
0.0
 10
10.9700340196
 20
7.2618669469
 30
0.0
 10
10.9777390685
 20
7.2344367427
 30
0.0
 10
10.9840709574
 20
7.2067455462
 30
0.0
 10
10.9890133742
 20
7.1788644125
 30
0.0
 10
10.9925536457
 20
7.1508646848
 30
0.0
 10
10.9946824459
 20
7.1228193951
 30
0.0
 10
10.9951578996
 20
7.1041050714
 30
0.0
 10
10.9951578996
 20
7.0947659733
 30
0.0
  0
SPLINE
  5
3DF
100
AcDbEntity
  8
0
100
AcDbSpline
 62
7
  6
CONTINUOUS
 70
0
 71
3
 72
71
 73
67
 74
0
 42
0.0000001
 43
0.0000001
 44
0.0000000001
 40
0.0
 40
0.0
 40
0.0
 40
0.0
 40
0.0155842565
 40
0.0311159319
 40
0.0465952524
 40
0.0620238826
 40
0.0774034482
 40
0.0927362827
 40
0.1080251231
 40
0.1232731738
 40
0.1384840558
 40
0.1536617763
 40
0.1688106896
 40
0.1839354527
 40
0.199040978
 40
0.2141323822
 40
0.2292149324
 40
0.2442939901
 40
0.2593749544
 40
0.2744632041
 40
0.2895640403
 40
0.3046826298
 40
0.3198239504
 40
0.3349927394
 40
0.3501934439
 40
0.3654301774
 40
0.3807066784
 40
0.3960262752
 40
0.411391855
 40
0.4268058382
 40
0.4422701586
 40
0.4577862484
 40
0.4733550295
 40
0.4889769098
 40
0.5046517845
 40
0.5203790422
 40
0.5361575755
 40
0.5519857963
 40
0.5678616545
 40
0.5837826618
 40
0.5997459181
 40
0.6157481413
 40
0.6317856992
 40
0.6478546441
 40
0.6639507502
 40
0.6800695513
 40
0.6962063821
 40
0.7123564199
 40
0.7285147268
 40
0.7446762929
 40
0.76083608
 40
0.776989065
 40
0.7931302839
 40
0.8092548753
 40
0.8253581235
 40
0.8414355003
 40
0.8574827053
 40
0.8734957053
 40
0.889470771
 40
0.9054045131
 40
0.921293919
 40
0.9371363621
 40
0.9529297157
 40
0.968672092
 40
0.9843626215
 40
1.0
 40
1.0
 40
1.0
 40
1.0
 10
10.9951578996
 20
8.4238800342
 30
0.0
 10
10.9951578996
 20
8.4148717453
 30
0.0
 10
10.9947170512
 20
8.396882367
 30
0.0
 10
10.9927270312
 20
8.3700116259
 30
0.0
 10
10.9894139258
 20
8.3433616252
 30
0.0
 10
10.9847858536
 20
8.3169976004
 30
0.0
 10
10.9788537572
 20
8.2909827274
 30
0.0
 10
10.9716319425
 20
8.2653798356
 30
0.0
 10
10.9631377173
 20
8.2402506194
 30
0.0
 10
10.9533915036
 20
8.215655686
 30
0.0
 10
10.9424167468
 20
8.1916543472
 30
0.0
 10
10.9302398653
 20
8.1683044922
 30
0.0
 10
10.9168901811
 20
8.1456624446
 30
0.0
 10
10.9023998517
 20
8.123782826
 30
0.0
 10
10.8868037928
 20
8.1027184231
 30
0.0
 10
10.8701395951
 20
8.082520058
 30
0.0
 10
10.8524474319
 20
8.0632364662
 30
0.0
 10
10.833769974
 20
8.0449141645
 30
0.0
 10
10.8141522763
 20
8.0275973441
 30
0.0
 10
10.7936416638
 20
8.0113277659
 30
0.0
 10
10.7722876176
 20
7.9961446581
 30
0.0
 10
10.7501416536
 20
7.9820846222
 30
0.0
 10
10.7272571971
 20
7.9691815432
 30
0.0
 10
10.7036894513
 20
7.9574665111
 30
0.0
 10
10.6794952696
 20
7.9469677323
 30
0.0
 10
10.6547330112
 20
7.9377104674
 30
0.0
 10
10.6294623959
 20
7.9297169788
 30
0.0
 10
10.6037443595
 20
7.9230064773
 30
0.0
 10
10.5776409065
 20
7.9175950774
 30
0.0
 10
10.5512149606
 20
7.9134957597
 30
0.0
 10
10.5245302127
 20
7.9107183444
 30
0.0
 10
10.4976509689
 20
7.9092694557
 30
0.0
 10
10.4706419935
 20
7.9091525097
 30
0.0
 10
10.4435683519
 20
7.9103677189
 30
0.0
 10
10.4164952552
 20
7.9129120899
 30
0.0
 10
10.3894879043
 20
7.9167794335
 30
0.0
 10
10.3626113342
 20
7.9219603795
 30
0.0
 10
10.3359302591
 20
7.9284424025
 30
0.0
 10
10.3095089162
 20
7.9362098423
 30
0.0
 10
10.2834109087
 20
7.9452439408
 30
0.0
 10
10.2576990572
 20
7.9555229001
 30
0.0
 10
10.232435249
 20
7.9670219329
 30
0.0
 10
10.2076802908
 20
7.9797133224
 30
0.0
 10
10.1834937637
 20
7.9935664888
 30
0.0
 10
10.1599338819
 20
8.0085480639
 30
0.0
 10
10.13705735
 20
8.0246219645
 30
0.0
 10
10.1149192219
 20
8.0417494747
 30
0.0
 10
10.0935727767
 20
8.0598893513
 30
0.0
 10
10.0730693906
 20
8.0789979204
 30
0.0
 10
10.0534584141
 20
8.0990291822
 30
0.0
 10
10.0347870544
 20
8.1199349207
 30
0.0
 10
10.0171002635
 20
8.1416648193
 30
0.0
 10
10.0004406267
 20
8.1641665784
 30
0.0
 10
9.9848482515
 20
8.1873860352
 30
0.0
 10
9.9703606836
 20
8.2112673037
 30
0.0
 10
9.9570128154
 20
8.235752907
 30
0.0
 10
9.9448368031
 20
8.2607839144
 30
0.0
 10
9.9338619896
 20
8.286300082
 30
0.0
 10
9.924114835
 20
8.3122399962
 30
0.0
 10
9.9156188467
 20
8.3385412221
 30
0.0
 10
9.9083945272
 20
8.3651404361
 30
0.0
 10
9.9024592819
 20
8.3919736397
 30
0.0
 10
9.8978275265
 20
8.4189761094
 30
0.0
 10
9.8945103291
 20
8.446083202
 30
0.0
 10
9.8925159359
 20
8.4732286122
 30
0.0
 10
9.8920705756
 20
8.4913404045
 30
0.0
 10
9.8920705756
 20
8.5003793999
 30
0.0
  0
SPLINE
  5
3E0
100
AcDbEntity
  8
0
100
AcDbSpline
 62
7
  6
CONTINUOUS
 70
0
 71
3
 72
71
 73
67
 74
0
 42
0.0000001
 43
0.0000001
 44
0.0000000001
 40
0.0
 40
0.0
 40
0.0
 40
0.0
 40
0.0155842565
 40
0.0311159319
 40
0.0465952524
 40
0.0620238826
 40
0.0774034482
 40
0.0927362827
 40
0.1080251231
 40
0.1232731738
 40
0.1384840558
 40
0.1536617763
 40
0.1688106896
 40
0.1839354527
 40
0.199040978
 40
0.2141323822
 40
0.2292149324
 40
0.2442939901
 40
0.2593749544
 40
0.2744632041
 40
0.2895640403
 40
0.3046826298
 40
0.3198239504
 40
0.3349927394
 40
0.3501934439
 40
0.3654301774
 40
0.3807066784
 40
0.3960262752
 40
0.411391855
 40
0.4268058382
 40
0.4422701586
 40
0.4577862484
 40
0.4733550295
 40
0.4889769098
 40
0.5046517845
 40
0.5203790422
 40
0.5361575755
 40
0.5519857963
 40
0.5678616545
 40
0.5837826618
 40
0.5997459181
 40
0.6157481413
 40
0.6317856992
 40
0.6478546441
 40
0.6639507502
 40
0.6800695513
 40
0.6962063821
 40
0.7123564199
 40
0.7285147268
 40
0.7446762929
 40
0.76083608
 40
0.776989065
 40
0.7931302839
 40
0.8092548753
 40
0.8253581235
 40
0.8414355003
 40
0.8574827053
 40
0.8734957053
 40
0.889470771
 40
0.9054045131
 40
0.921293919
 40
0.9371363621
 40
0.9529297157
 40
0.968672092
 40
0.9843626215
 40
1.0
 40
1.0
 40
1.0
 40
1.0
 10
9.8920705756
 20
8.5003793999
 30
0.0
 10
9.8920705756
 20
8.5093876888
 30
0.0
 10
9.8925114241
 20
8.5273770671
 30
0.0
 10
9.8945014441
 20
8.5542478082
 30
0.0
 10
9.8978145495
 20
8.5808978089
 30
0.0
 10
9.9024426217
 20
8.6072618337
 30
0.0
 10
9.9083747181
 20
8.6332767067
 30
0.0
 10
9.9155965328
 20
8.6588795985
 30
0.0
 10
9.924090758
 20
8.6840088148
 30
0.0
 10
9.9338369717
 20
8.7086037482
 30
0.0
 10
9.9448117285
 20
8.7326050869
 30
0.0
 10
9.95698861
 20
8.7559549419
 30
0.0
 10
9.9703382941
 20
8.7785969895
 30
0.0
 10
9.9848286235
 20
8.8004766081
 30
0.0
 10
10.0004246824
 20
8.821541011
 30
0.0
 10
10.0170888801
 20
8.8417393761
 30
0.0
 10
10.0347810434
 20
8.861022968
 30
0.0
 10
10.0534585012
 20
8.8793452696
 30
0.0
 10
10.073076199
 20
8.89666209
 30
0.0
 10
10.0935868115
 20
8.9129316683
 30
0.0
 10
10.1149408576
 20
8.928114776
 30
0.0
 10
10.1370868216
 20
8.9421748119
 30
0.0
 10
10.1599712782
 20
8.955077891
 30
0.0
 10
10.183539024
 20
8.966792923
 30
0.0
 10
10.2077332057
 20
8.9772917018
 30
0.0
 10
10.232495464
 20
8.9865489668
 30
0.0
 10
10.2577660794
 20
8.9945424553
 30
0.0
 10
10.2834841158
 20
9.0012529568
 30
0.0
 10
10.3095875687
 20
9.0066643568
 30
0.0
 10
10.3360135146
 20
9.0107636744
 30
0.0
 10
10.3626982626
 20
9.0135410897
 30
0.0
 10
10.3895775064
 20
9.0149899784
 30
0.0
 10
10.4165864818
 20
9.0151069244
 30
0.0
 10
10.4436601234
 20
9.0138917153
 30
0.0
 10
10.4707332201
 20
9.0113473443
 30
0.0
 10
10.4977405709
 20
9.0074800006
 30
0.0
 10
10.5246171411
 20
9.0022990546
 30
0.0
 10
10.5512982162
 20
8.9958170316
 30
0.0
 10
10.5777195591
 20
8.9880495918
 30
0.0
 10
10.6038175666
 20
8.9790154933
 30
0.0
 10
10.6295294181
 20
8.968736534
 30
0.0
 10
10.6547932263
 20
8.9572375013
 30
0.0
 10
10.6795481845
 20
8.9445461118
 30
0.0
 10
10.7037347116
 20
8.9306929453
 30
0.0
 10
10.7272945933
 20
8.9157113702
 30
0.0
 10
10.7501711252
 20
8.8996374696
 30
0.0
 10
10.7723092534
 20
8.8825099594
 30
0.0
 10
10.7936556986
 20
8.8643700828
 30
0.0
 10
10.8141590847
 20
8.8452615137
 30
0.0
 10
10.8337700612
 20
8.8252302519
 30
0.0
 10
10.8524414209
 20
8.8043245135
 30
0.0
 10
10.8701282118
 20
8.7825946148
 30
0.0
 10
10.8867878486
 20
8.7600928557
 30
0.0
 10
10.9023802238
 20
8.7368733989
 30
0.0
 10
10.9168677917
 20
8.7129921304
 30
0.0
 10
10.9302156598
 20
8.6885065272
 30
0.0
 10
10.9423916721
 20
8.6634755198
 30
0.0
 10
10.9533664856
 20
8.6379593521
 30
0.0
 10
10.9631136403
 20
8.6120194379
 30
0.0
 10
10.9716096286
 20
8.585718212
 30
0.0
 10
10.9788339481
 20
8.559118998
 30
0.0
 10
10.9847691934
 20
8.5322857945
 30
0.0
 10
10.9894009488
 20
8.5052833248
 30
0.0
 10
10.9927181462
 20
8.4781762321
 30
0.0
 10
10.9947125394
 20
8.4510308219
 30
0.0
 10
10.9951578996
 20
8.4329190296
 30
0.0
 10
10.9951578996
 20
8.4238800342
 30
0.0
  0
SPLINE
  5
3E1
100
AcDbEntity
  8
0
100
AcDbSpline
 62
7
  6
CONTINUOUS
 70
0
 71
3
 72
15
 73
11
 74
0
 42
0.0000001
 43
0.0000001
 44
0.0000000001
 40
0.0
 40
0.0
 40
0.0
 40
0.0
 40
0.1098908068
 40
0.2214019772
 40
0.3360751714
 40
0.4553193726
 40
0.5803743547
 40
0.7122980908
 40
0.8519495858
 40
1.0
 40
1.0
 40
1.0
 40
1.0
 10
11.4596338062
 20
9.5926301851
 30
0.0
 10
11.4596338131
 20
9.5930275658
 30
0.0
 10
11.4596848736
 20
9.5938290857
 30
0.0
 10
11.4599137438
 20
9.5950255964
 30
0.0
 10
11.4602941979
 20
9.5962183516
 30
0.0
 10
11.4608252878
 20
9.59740554
 30
0.0
 10
11.4615057847
 20
9.598586068
 30
0.0
 10
11.4623346111
 20
9.5997588577
 30
0.0
 10
11.4633104403
 20
9.6009228216
 30
0.0
 10
11.4640361449
 20
9.6016696403
 30
0.0
 10
11.4644212132
 20
9.6020415878
 30
0.0
  0
SPLINE
  5
3E2
100
AcDbEntity
  8
0
100
AcDbSpline
 62
7
  6
CONTINUOUS
 70
0
 71
3
 72
15
 73
11
 74
0
 42
0.0000001
 43
0.0000001
 44
0.0000000001
 40
0.0
 40
0.0
 40
0.0
 40
0.0
 40
0.1098908068
 40
0.2214019772
 40
0.3360751714
 40
0.4553193726
 40
0.5803743547
 40
0.7122980908
 40
0.8519495858
 40
1.0
 40
1.0
 40
1.0
 40
1.0
 10
9.7093762142
 20
9.7140109613
 30
0.0
 10
9.7093762211
 20
9.7144083421
 30
0.0
 10
9.7094272816
 20
9.7152098619
 30
0.0
 10
9.7096561518
 20
9.7164063727
 30
0.0
 10
9.7100366059
 20
9.7175991279
 30
0.0
 10
9.7105676958
 20
9.7187863163
 30
0.0
 10
9.7112481927
 20
9.7199668443
 30
0.0
 10
9.7120770191
 20
9.721139634
 30
0.0
 10
9.7130528483
 20
9.7223035979
 30
0.0
 10
9.7137785529
 20
9.7230504166
 30
0.0
 10
9.7141636212
 20
9.7234223641
 30
0.0
  0
SPLINE
  5
3E3
100
AcDbEntity
  8
0
100
AcDbSpline
 62
7
  6
CONTINUOUS
 70
0
 71
3
 72
35
 73
31
 74
0
 42
0.0000001
 43
0.0000001
 44
0.0000000001
 40
0.0
 40
0.0
 40
0.0
 40
0.0
 40
0.0306749424
 40
0.0614539339
 40
0.0923319594
 40
0.1233076894
 40
0.15437658
 40
0.1855337963
 40
0.216773717
 40
0.248089889
 40
0.2794752131
 40
0.3109219592
 40
0.3424218573
 40
0.3739661715
 40
0.4371345757
 40
0.50036762
 40
0.5635867548
 40
0.6267139148
 40
0.6582277934
 40
0.6896910398
 40
0.7210952413
 40
0.7524325048
 40
0.7836955284
 40
0.81487769
 40
0.8459730589
 40
0.876976577
 40
0.9078840101
 40
0.9386914492
 40
0.969398221
 40
1.0
 40
1.0
 40
1.0
 40
1.0
 10
11.3959741393
 20
9.4739719791
 30
0.0
 10
11.4019102902
 20
9.4735603056
 30
0.0
 10
11.4137845403
 20
9.4724443191
 30
0.0
 10
11.4315210644
 20
9.4699045697
 30
0.0
 10
11.4491722516
 20
9.4665019318
 30
0.0
 10
11.4666947775
 20
9.4622449694
 30
0.0
 10
11.4840468154
 20
9.4571437418
 30
0.0
 10
11.5011864824
 20
9.4512106565
 30
0.0
 10
11.5180725546
 20
9.44446004
 30
0.0
 10
11.5346643754
 20
9.4369081509
 30
0.0
 10
11.5509220187
 20
9.4285731429
 30
0.0
 10
11.5668062707
 20
9.4194752214
 30
0.0
 10
11.5822792865
 20
9.4096359865
 30
0.0
 10
11.6023176679
 20
9.3955565043
 30
0.0
 10
11.6261494763
 20
9.3762263471
 30
0.0
 10
11.6525124976
 20
9.350502681
 30
0.0
 10
11.6764085281
 20
9.3224828977
 30
0.0
 10
11.6940884678
 20
9.2974226164
 30
0.0
 10
11.7067797495
 20
9.2765019959
 30
0.0
 10
11.7155460421
 20
9.2604210057
 30
0.0
 10
11.7235425026
 20
9.2439821465
 30
0.0
 10
11.7307501534
 20
9.2272245796
 30
0.0
 10
11.7371515059
 20
9.2101887314
 30
0.0
 10
11.7427311729
 20
9.1929155959
 30
0.0
 10
11.7474757126
 20
9.1754467628
 30
0.0
 10
11.7513736553
 20
9.1578242525
 30
0.0
 10
11.7544154956
 20
9.1400906091
 30
0.0
 10
11.756594073
 20
9.1222881568
 30
0.0
 10
11.7579038263
 20
9.1044606129
 30
0.0
 10
11.7581963456
 20
9.0925657936
 30
0.0
 10
11.7581963456
 20
9.0866295774
 30
0.0
  0
SPLINE
  5
3E4
100
AcDbEntity
  8
0
100
AcDbSpline
 62
7
  6
CONTINUOUS
 70
0
 71
3
 72
15
 73
11
 74
0
 42
0.0000001
 43
0.0000001
 44
0.0000000001
 40
0.0
 40
0.0
 40
0.0
 40
0.0
 40
0.1098908068
 40
0.2214019772
 40
0.3360751714
 40
0.4553193726
 40
0.5803743547
 40
0.7122980908
 40
0.8519495858
 40
1.0
 40
1.0
 40
1.0
 40
1.0
 10
10.259366262
 20
10.2452605842
 30
0.0
 10
10.2593662689
 20
10.245657965
 30
0.0
 10
10.2594173294
 20
10.2464594848
 30
0.0
 10
10.2596461996
 20
10.2476559955
 30
0.0
 10
10.2600266537
 20
10.2488487507
 30
0.0
 10
10.2605577436
 20
10.2500359391
 30
0.0
 10
10.2612382405
 20
10.2512164671
 30
0.0
 10
10.2620670669
 20
10.2523892568
 30
0.0
 10
10.2630428961
 20
10.2535532207
 30
0.0
 10
10.2637686007
 20
10.2543000395
 30
0.0
 10
10.264153669
 20
10.2546719869
 30
0.0
  0
SPLINE
  5
3E5
100
AcDbEntity
  8
0
100
AcDbSpline
 62
7
  6
CONTINUOUS
 70
0
 71
3
 72
23
 73
19
 74
0
 42
0.0000001
 43
0.0000001
 44
0.0000000001
 40
0.0
 40
0.0
 40
0.0
 40
0.0
 40
0.0637766017
 40
0.1273450758
 40
0.1907019811
 40
0.2538560972
 40
0.3168132288
 40
0.3795820869
 40
0.442173391
 40
0.5045993435
 40
0.5668738649
 40
0.6290123754
 40
0.6910316459
 40
0.7529496407
 40
0.8147853465
 40
0.8765585942
 40
0.9382898499
 40
1.0
 40
1.0
 40
1.0
 40
1.0
 10
11.7581963456
 20
7.0040933726
 30
0.0
 10
11.7581963456
 20
6.9983076029
 30
0.0
 10
11.7579193904
 20
6.9867529848
 30
0.0
 10
11.7566694791
 20
6.9694913698
 30
0.0
 10
11.7545883109
 20
6.9523665519
 30
0.0
 10
11.7516809034
 20
6.9354188166
 30
0.0
 10
11.74795374
 20
6.9186868566
 30
0.0
 10
11.743415453
 20
6.9022093519
 30
0.0
 10
11.738076486
 20
6.8860242681
 30
0.0
 10
11.7319490554
 20
6.8701689397
 30
0.0
 10
11.7250472645
 20
6.8546799402
 30
0.0
 10
11.717387035
 20
6.8395929771
 30
0.0
 10
11.7089860021
 20
6.8249428541
 30
0.0
 10
11.6998634669
 20
6.8107633885
 30
0.0
 10
11.6900405073
 20
6.7970873104
 30
0.0
 10
11.6795396726
 20
6.7839460492
 30
0.0
 10
11.6683855926
 20
6.7713703243
 30
0.0
 10
11.6605296477
 20
6.7633814617
 30
0.0
 10
11.656503034
 20
6.7594920692
 30
0.0
  0
SPLINE
  5
3E6
100
AcDbEntity
  8
0
100
AcDbSpline
 62
7
  6
CONTINUOUS
 70
0
 71
3
 72
11
 73
7
 74
0
 42
0.0000001
 43
0.0000001
 44
0.0000000001
 40
0.0
 40
0.0
 40
0.0
 40
0.0
 40
0.2480587269
 40
0.4974477197
 40
0.7481219733
 40
1.0
 40
1.0
 40
1.0
 40
1.0
 10
10.9796579065
 20
7.1017144209
 30
0.0
 10
10.9796579065
 20
7.1156682095
 30
0.0
 10
10.9785525682
 20
7.1436625785
 30
0.0
 10
10.973620264
 20
7.1854966514
 30
0.0
 10
10.9654414674
 20
7.2270373976
 30
0.0
 10
10.9578732409
 20
7.2543082408
 30
0.0
 10
10.9535723652
 20
7.2678083369
 30
0.0
  0
SPLINE
  5
3E7
100
AcDbEntity
  8
0
100
AcDbSpline
 62
7
  6
CONTINUOUS
 70
0
 71
3
 72
23
 73
19
 74
0
 42
0.0000001
 43
0.0000001
 44
0.0000000001
 40
0.0
 40
0.0
 40
0.0
 40
0.0
 40
0.0628387135
 40
0.1257229627
 40
0.1886326444
 40
0.2515474264
 40
0.3144469307
 40
0.3773109171
 40
0.4401194662
 40
0.5028531604
 40
0.5654932631
 40
0.6280218942
 40
0.6904221971
 40
0.7526784999
 40
0.8147764678
 40
0.8767032461
 40
0.9384475926
 40
1.0
 40
1.0
 40
1.0
 40
1.0
 10
10.8746675345
 20
7.4257676363
 30
0.0
 10
10.8693816923
 20
7.4332323449
 30
0.0
 10
10.8584544476
 20
7.4479216364
 30
0.0
 10
10.841048569
 20
7.4691689019
 30
0.0
 10
10.8226618761
 20
7.4895890475
 30
0.0
 10
10.803340824
 20
7.509130351
 30
0.0
 10
10.7831336195
 20
7.5277441038
 30
0.0
 10
10.7620908369
 20
7.5453836923
 30
0.0
 10
10.7402650955
 20
7.562004992
 30
0.0
 10
10.7177109813
 20
7.5775664014
 30
0.0
 10
10.6944849059
 20
7.5920289798
 30
0.0
 10
10.6706449605
 20
7.6053565297
 30
0.0
 10
10.646250775
 20
7.6175156844
 30
0.0
 10
10.6213633453
 20
7.6284759961
 30
0.0
 10
10.5960449798
 20
7.6382099938
 30
0.0
 10
10.5703587821
 20
7.6466933181
 30
0.0
 10
10.5443698422
 20
7.6539045359
 30
0.0
 10
10.5268553364
 20
7.6578585754
 30
0.0
 10
10.5180701055
 20
7.659616887
 30
0.0
  0
SPLINE
  5
3E8
100
AcDbEntity
  8
0
100
AcDbSpline
 62
7
  6
CONTINUOUS
 70
0
 71
3
 72
15
 73
11
 74
0
 42
0.0000001
 43
0.0000001
 44
0.0000000001
 40
0.0
 40
0.0
 40
0.0
 40
0.0
 40
0.1098908068
 40
0.2214019772
 40
0.3360751714
 40
0.4553193726
 40
0.5803743547
 40
0.7122980908
 40
0.8519495858
 40
1.0
 40
1.0
 40
1.0
 40
1.0
 10
12.009623854
 20
10.1238798079
 30
0.0
 10
12.0096238609
 20
10.1242771887
 30
0.0
 10
12.0096749215
 20
10.1250787085
 30
0.0
 10
12.0099037916
 20
10.1262752193
 30
0.0
 10
12.0102842457
 20
10.1274679744
 30
0.0
 10
12.0108153356
 20
10.1286551629
 30
0.0
 10
12.0114958325
 20
10.1298356909
 30
0.0
 10
12.0123246589
 20
10.1310084805
 30
0.0
 10
12.0133004881
 20
10.1321724444
 30
0.0
 10
12.0140261927
 20
10.1329192632
 30
0.0
 10
12.014411261
 20
10.1332912106
 30
0.0
  0
SPLINE
  5
3E9
100
AcDbEntity
  8
0
100
AcDbSpline
 62
7
  6
CONTINUOUS
 70
0
 71
3
 72
31
 73
27
 74
0
 42
0.0000001
 43
0.0000001
 44
0.0000000001
 40
0.0
 40
0.0
 40
0.0
 40
0.0
 40
0.030676836
 40
0.0614581414
 40
0.0923381998
 40
0.1233159879
 40
0.1543870066
 40
0.1855463129
 40
0.2167883427
 40
0.2481066319
 40
0.3109260156
 40
0.373957732
 40
0.4371303968
 40
0.5003677083
 40
0.5635911097
 40
0.6267225272
 40
0.6896870984
 40
0.752415797
 40
0.7836809344
 40
0.8148652012
 40
0.8459626558
 40
0.8769682976
 40
0.9078777844
 40
0.9386872516
 40
0.9693963318
 40
1.0
 40
1.0
 40
1.0
 40
1.0
 10
9.4989387604
 20
6.4895394895
 30
0.0
 10
9.4934933626
 20
6.4899171292
 30
0.0
 10
9.4826007077
 20
6.4909408747
 30
0.0
 10
9.4663303992
 20
6.4932706529
 30
0.0
 10
9.4501383474
 20
6.4963920077
 30
0.0
 10
9.4340643678
 20
6.5002970726
 30
0.0
 10
9.4181467499
 20
6.5049766084
 30
0.0
 10
9.4024240216
 20
6.5104191783
 30
0.0
 10
9.3869336131
 20
6.5166118755
 30
0.0
 10
9.3666224264
 20
6.525856539
 30
0.0
 10
9.3420025612
 20
6.5392136436
 30
0.0
 10
9.3140080401
 20
6.5579399297
 30
0.0
 10
9.287791895
 20
6.5792043447
 30
0.0
 10
9.2636075393
 20
6.6028019593
 30
0.0
 10
9.2416865186
 20
6.628506151
 30
0.0
 10
9.2222394507
 20
6.656070819
 30
0.0
 10
9.2054537606
 20
6.6852295677
 30
0.0
 10
9.1938023471
 20
6.7106599487
 30
0.0
 10
9.1859654765
 20
6.7315164478
 30
0.0
 10
9.1808469471
 20
6.7473619312
 30
0.0
 10
9.1764946657
 20
6.7633866113
 30
0.0
 10
9.1729189443
 20
6.7795523432
 30
0.0
 10
9.1701285502
 20
6.7958199887
 30
0.0
 10
9.1681300689
 20
6.8121508011
 30
0.0
 10
9.1669286074
 20
6.8285046037
 30
0.0
 10
9.1666602565
 20
6.8394161283
 30
0.0
 10
9.1666602565
 20
6.844861586
 30
0.0
  0
SPLINE
  5
3EA
100
AcDbEntity
  8
0
100
AcDbSpline
 62
7
  6
CONTINUOUS
 70
0
 71
3
 72
39
 73
35
 74
0
 42
0.0000001
 43
0.0000001
 44
0.0000000001
 40
0.0
 40
0.0
 40
0.0
 40
0.0
 40
0.0318705494
 40
0.0636350198
 40
0.0952912924
 40
0.1268441571
 40
0.1582967608
 40
0.1896536958
 40
0.2209207043
 40
0.2521042851
 40
0.2832118489
 40
0.3142515992
 40
0.3452324375
 40
0.3761638836
 40
0.4070559855
 40
0.4379192107
 40
0.4687643289
 40
0.4996023026
 40
0.5304441758
 40
0.5613009513
 40
0.5921834669
 40
0.6231022865
 40
0.6540675936
 40
0.685089078
 40
0.7161758316
 40
0.7473362636
 40
0.7785780286
 40
0.8099079374
 40
0.8413318452
 40
0.8728548158
 40
0.904480735
 40
0.9362120223
 40
0.9680527341
 40
1.0
 40
1.0
 40
1.0
 40
1.0
 10
9.1666602565
 20
8.9273977909
 30
0.0
 10
9.1666602565
 20
8.9328247489
 30
0.0
 10
9.1669258895
 20
8.9436625242
 30
0.0
 10
9.1681247161
 20
8.9598508526
 30
0.0
 10
9.1701207317
 20
8.9759062884
 30
0.0
 10
9.1729089092
 20
8.9917893066
 30
0.0
 10
9.1764827243
 20
9.0074620147
 30
0.0
 10
9.1808335321
 20
9.0228865269
 30
0.0
 10
9.1859508676
 20
9.038025674
 30
0.0
 10
9.1918225089
 20
9.0528429323
 30
0.0
 10
9.1984342787
 20
9.0673025789
 30
0.0
 10
9.2057702433
 20
9.0813697525
 30
0.0
 10
9.2138127777
 20
9.0950105018
 30
0.0
 10
9.2225425265
 20
9.1081919035
 30
0.0
 10
9.2319384025
 20
9.1208821896
 30
0.0
 10
9.2419777626
 20
9.1330507458
 30
0.0
 10
9.2526364487
 20
9.1446681731
 30
0.0
 10
9.2638887252
 20
9.155706469
 30
0.0
 10
9.2757074301
 20
9.1661390338
 30
0.0
 10
9.2880640779
 20
9.1759406839
 30
0.0
 10
9.300928879
 20
9.1850877532
 30
0.0
 10
9.3142707585
 20
9.1935582423
 30
0.0
 10
9.3280575313
 20
9.2013317442
 30
0.0
 10
9.3422559673
 20
9.2083894802
 30
0.0
 10
9.356831802
 20
9.2147144751
 30
0.0
 10
9.3717498636
 20
9.2202915468
 30
0.0
 10
9.3869741882
 20
9.225107259
 30
0.0
 10
9.4024680722
 20
9.2291499831
 30
0.0
 10
9.4181941476
 20
9.232410091
 30
0.0
 10
9.4341145227
 20
9.2348797475
 30
0.0
 10
9.450190716
 20
9.2365529782
 30
0.0
 10
9.4663843848
 20
9.2374259185
 30
0.0
 10
9.4826556636
 20
9.2374963065
 30
0.0
 10
9.4935117738
 20
9.2370090651
 30
0.0
 10
9.4989387604
 20
9.2366327023
 30
0.0
  0
SPLINE
  5
3EB
100
AcDbEntity
  8
0
100
AcDbSpline
 62
7
  6
CONTINUOUS
 70
0
 71
3
 72
59
 73
55
 74
0
 42
0.0000001
 43
0.0000001
 44
0.0000000001
 40
0.0
 40
0.0
 40
0.0
 40
0.0
 40
0.0079559786
 40
0.016588947
 40
0.0259240621
 40
0.0359771185
 40
0.0467543325
 40
0.0582546952
 40
0.0704713827
 40
0.083392747
 40
0.0970031753
 40
0.1112835147
 40
0.1262118337
 40
0.141763689
 40
0.1579124645
 40
0.1746298197
 40
0.1918857611
 40
0.2096490179
 40
0.2465658668
 40
0.2851119337
 40
0.3250072231
 40
0.3659653647
 40
0.4076967149
 40
0.4499107929
 40
0.4923181815
 40
0.5346320098
 40
0.5765691282
 40
0.6178511136
 40
0.6582052248
 40
0.6973654401
 40
0.7164172866
 40
0.7350746366
 40
0.7533067614
 40
0.7710836425
 40
0.7883761404
 40
0.8051559702
 40
0.8213959619
 40
0.8370701055
 40
0.8521537466
 40
0.8666238754
 40
0.8804592213
 40
0.8936407679
 40
0.9061519877
 40
0.9179793868
 40
0.9291132369
 40
0.9395481904
 40
0.9492846165
 40
0.9583298643
 40
0.9667001997
 40
0.9744234916
 40
0.9815422188
 40
0.9881176118
 40
0.9942336529
 40
1.0
 40
1.0
 40
1.0
 40
1.0
 10
11.4314322338
 20
9.888891216
 30
0.0
 10
11.4322517997
 20
9.8896828558
 30
0.0
 10
11.4340403286
 20
9.8912520687
 30
0.0
 10
11.4370155502
 20
9.8934780496
 30
0.0
 10
11.4403833375
 20
9.8956654564
 30
0.0
 10
11.4441361614
 20
9.8978098926
 30
0.0
 10
11.4482661236
 20
9.8999073754
 30
0.0
 10
11.4527642138
 20
9.9019535984
 30
0.0
 10
11.4576204755
 20
9.9039444715
 30
0.0
 10
11.4628241053
 20
9.905875984
 30
0.0
 10
11.4683635121
 20
9.9077442031
 30
0.0
 10
11.4742263375
 20
9.9095454598
 30
0.0
 10
11.4803995682
 20
9.911276188
 30
0.0
 10
11.4868695767
 20
9.9129330316
 30
0.0
 10
11.4936221805
 20
9.9145128775
 30
0.0
 10
11.5006427175
 20
9.9160127307
 30
0.0
 10
11.5079161014
 20
9.9174299119
 30
0.0
 10
11.5180610126
 20
9.9192288938
 30
0.0
 10
11.5312626115
 20
9.9212422194
 30
0.0
 10
11.5476620903
 20
9.9232647662
 30
0.0
 10
11.5646851304
 20
9.9249105705
 30
0.0
 10
11.5821983466
 20
9.9261696999
 30
0.0
 10
11.6000678212
 20
9.9270351439
 30
0.0
 10
11.6181596904
 20
9.9275027508
 30
0.0
 10
11.636340863
 20
9.9275710586
 30
0.0
 10
11.6544794986
 20
9.9272411699
 30
0.0
 10
11.6724453747
 20
9.9265166329
 30
0.0
 10
11.6901102263
 20
9.9254033779
 30
0.0
 10
11.7073478419
 20
9.923909616
 30
0.0
 10
11.7213791059
 20
9.9223426082
 30
0.0
 10
11.732293891
 20
9.9209005895
 30
0.0
 10
11.7402217861
 20
9.9197408913
 30
0.0
 10
11.7479517177
 20
9.9184951197
 30
0.0
 10
11.7554692332
 20
9.9171653258
 30
0.0
 10
11.7627601036
 20
9.9157537855
 30
0.0
 10
11.7698103538
 20
9.9142628477
 30
0.0
 10
11.7766062924
 20
9.9126950779
 30
0.0
 10
11.7831345288
 20
9.9110531589
 30
0.0
 10
11.7893820042
 20
9.9093399172
 30
0.0
 10
11.7953360345
 20
9.9075583867
 30
0.0
 10
11.8009843227
 20
9.9057116703
 30
0.0
 10
11.8063150312
 20
9.9038031032
 30
0.0
 10
11.8113167987
 20
9.9018361151
 30
0.0
 10
11.8159787932
 20
9.8998142595
 30
0.0
 10
11.8202907929
 20
9.8977412751
 30
0.0
 10
11.8242431793
 20
9.8956208819
 30
0.0
 10
11.827827065
 20
9.8934569421
 30
0.0
 10
11.8310342881
 20
9.891253244
 30
0.0
 10
11.8338574003
 20
9.8890134154
 30
0.0
 10
11.8362897272
 20
9.8867408855
 30
0.0
 10
11.8383249682
 20
9.8844386618
 30
0.0
 10
11.8399570159
 20
9.8821090214
 30
0.0
 10
11.8411790097
 20
9.8797554782
 30
0.0
 10
11.8417274673
 20
9.8781352109
 30
0.0
 10
11.8419240144
 20
9.8773330762
 30
0.0
  0
SPLINE
  5
3EC
100
AcDbEntity
  8
0
100
AcDbSpline
 62
7
  6
CONTINUOUS
 70
0
 71
3
 72
31
 73
27
 74
0
 42
0.0000001
 43
0.0000001
 44
0.0000000001
 40
0.0
 40
0.0
 40
0.0
 40
0.0
 40
0.030676836
 40
0.0614581414
 40
0.0923381998
 40
0.1233159879
 40
0.1543870066
 40
0.1855463129
 40
0.2167883427
 40
0.2481066319
 40
0.3109260156
 40
0.373957732
 40
0.4371303968
 40
0.5003677083
 40
0.5635911097
 40
0.6267225272
 40
0.6896870984
 40
0.752415797
 40
0.7836809344
 40
0.8148652012
 40
0.8459626558
 40
0.8769682976
 40
0.9078777844
 40
0.9386872516
 40
0.9693963318
 40
1.0
 40
1.0
 40
1.0
 40
1.0
 10
11.0685683211
 20
9.1277785225
 30
0.0
 10
11.0740137189
 20
9.1274008829
 30
0.0
 10
11.0849063738
 20
9.1263771374
 30
0.0
 10
11.1011766823
 20
9.1240473592
 30
0.0
 10
11.1173687341
 20
9.1209260044
 30
0.0
 10
11.1334427137
 20
9.1170209395
 30
0.0
 10
11.1493603316
 20
9.1123414037
 30
0.0
 10
11.1650830599
 20
9.1068988338
 30
0.0
 10
11.1805734685
 20
9.1007061366
 30
0.0
 10
11.2008846551
 20
9.0914614731
 30
0.0
 10
11.2255045203
 20
9.0781043685
 30
0.0
 10
11.2534990414
 20
9.0593780823
 30
0.0
 10
11.2797151865
 20
9.0381136674
 30
0.0
 10
11.3038995422
 20
9.0145160528
 30
0.0
 10
11.3258205629
 20
8.988811861
 30
0.0
 10
11.3452676309
 20
8.9612471931
 30
0.0
 10
11.3620533209
 20
8.9320884444
 30
0.0
 10
11.3737047344
 20
8.9066580634
 30
0.0
 10
11.381541605
 20
8.8858015643
 30
0.0
 10
11.3866601344
 20
8.8699560809
 30
0.0
 10
11.3910124158
 20
8.8539314008
 30
0.0
 10
11.3945881372
 20
8.8377656689
 30
0.0
 10
11.3973785313
 20
8.8214980234
 30
0.0
 10
11.3993770126
 20
8.805167211
 30
0.0
 10
11.4005784741
 20
8.7888134083
 30
0.0
 10
11.4008468251
 20
8.7779018837
 30
0.0
 10
11.4008468251
 20
8.7724564261
 30
0.0
  0
SPLINE
  5
3ED
100
AcDbEntity
  8
0
100
AcDbSpline
 62
7
  6
CONTINUOUS
 70
0
 71
3
 72
35
 73
31
 74
0
 42
0.0000001
 43
0.0000001
 44
0.0000000001
 40
0.0
 40
0.0
 40
0.0
 40
0.0
 40
0.0306749424
 40
0.0614539339
 40
0.0923319594
 40
0.1233076894
 40
0.15437658
 40
0.1855337963
 40
0.216773717
 40
0.248089889
 40
0.2794752131
 40
0.3109219592
 40
0.3424218573
 40
0.3739661715
 40
0.4371345757
 40
0.50036762
 40
0.5635867548
 40
0.6267139148
 40
0.6582277934
 40
0.6896910398
 40
0.7210952413
 40
0.7524325048
 40
0.7836955284
 40
0.81487769
 40
0.8459730589
 40
0.876976577
 40
0.9078840101
 40
0.9386914492
 40
0.969398221
 40
1.0
 40
1.0
 40
1.0
 40
1.0
 10
11.0765917049
 20
9.165472219
 30
0.0
 10
11.0825278558
 20
9.1650605455
 30
0.0
 10
11.0944021059
 20
9.163944559
 30
0.0
 10
11.1121386301
 20
9.1614048096
 30
0.0
 10
11.1297898172
 20
9.1580021717
 30
0.0
 10
11.1473123431
 20
9.1537452093
 30
0.0
 10
11.164664381
 20
9.1486439817
 30
0.0
 10
11.181804048
 20
9.1427108964
 30
0.0
 10
11.1986901202
 20
9.1359602799
 30
0.0
 10
11.2152819411
 20
9.1284083907
 30
0.0
 10
11.2315395843
 20
9.1200733828
 30
0.0
 10
11.2474238363
 20
9.1109754613
 30
0.0
 10
11.2628968521
 20
9.1011362264
 30
0.0
 10
11.2829352335
 20
9.0870567442
 30
0.0
 10
11.306767042
 20
9.067726587
 30
0.0
 10
11.3331300632
 20
9.0420029209
 30
0.0
 10
11.3570260937
 20
9.0139831376
 30
0.0
 10
11.3747060335
 20
8.9889228563
 30
0.0
 10
11.3873973152
 20
8.9680022358
 30
0.0
 10
11.3961636077
 20
8.9519212456
 30
0.0
 10
11.4041600682
 20
8.9354823864
 30
0.0
 10
11.411367719
 20
8.9187248195
 30
0.0
 10
11.4177690716
 20
8.9016889713
 30
0.0
 10
11.4233487385
 20
8.8844158358
 30
0.0
 10
11.4280932782
 20
8.8669470027
 30
0.0
 10
11.4319912209
 20
8.8493244924
 30
0.0
 10
11.4350330612
 20
8.831590849
 30
0.0
 10
11.4372116386
 20
8.8137883967
 30
0.0
 10
11.4385213919
 20
8.7959608528
 30
0.0
 10
11.4388139112
 20
8.7840660335
 30
0.0
 10
11.4388139112
 20
8.7781298173
 30
0.0
  0
SPLINE
  5
3EE
100
AcDbEntity
  8
0
100
AcDbSpline
 62
7
  6
CONTINUOUS
 70
0
 71
3
 72
39
 73
35
 74
0
 42
0.0000001
 43
0.0000001
 44
0.0000000001
 40
0.0
 40
0.0
 40
0.0
 40
0.0
 40
0.0318705494
 40
0.0636350198
 40
0.0952912924
 40
0.1268441571
 40
0.1582967608
 40
0.1896536958
 40
0.2209207043
 40
0.2521042851
 40
0.2832118489
 40
0.3142515992
 40
0.3452324375
 40
0.3761638836
 40
0.4070559855
 40
0.4379192107
 40
0.4687643289
 40
0.4996023026
 40
0.5304441758
 40
0.5613009513
 40
0.5921834669
 40
0.6231022865
 40
0.6540675936
 40
0.685089078
 40
0.7161758316
 40
0.7473362636
 40
0.7785780286
 40
0.8099079374
 40
0.8413318452
 40
0.8728548158
 40
0.904480735
 40
0.9362120223
 40
0.9680527341
 40
1.0
 40
1.0
 40
1.0
 40
1.0
 10
11.4008468251
 20
6.6899202212
 30
0.0
 10
11.4008468251
 20
6.6844932632
 30
0.0
 10
11.400581192
 20
6.6736554879
 30
0.0
 10
11.3993823654
 20
6.6574671595
 30
0.0
 10
11.3973863498
 20
6.6414117237
 30
0.0
 10
11.3945981723
 20
6.6255287055
 30
0.0
 10
11.3910243572
 20
6.6098559974
 30
0.0
 10
11.3866735495
 20
6.5944314852
 30
0.0
 10
11.3815562139
 20
6.5792923381
 30
0.0
 10
11.3756845727
 20
6.5644750798
 30
0.0
 10
11.3690728028
 20
6.5500154332
 30
0.0
 10
11.3617368382
 20
6.5359482596
 30
0.0
 10
11.3536943038
 20
6.5223075102
 30
0.0
 10
11.344964555
 20
6.5091261086
 30
0.0
 10
11.335568679
 20
6.4964358225
 30
0.0
 10
11.3255293189
 20
6.4842672663
 30
0.0
 10
11.3148706329
 20
6.4726498389
 30
0.0
 10
11.3036183563
 20
6.4616115431
 30
0.0
 10
11.2917996514
 20
6.4511789783
 30
0.0
 10
11.2794430036
 20
6.4413773281
 30
0.0
 10
11.2665782025
 20
6.4322302589
 30
0.0
 10
11.253236323
 20
6.4237597698
 30
0.0
 10
11.2394495502
 20
6.4159862679
 30
0.0
 10
11.2252511143
 20
6.4089285319
 30
0.0
 10
11.2106752795
 20
6.402603537
 30
0.0
 10
11.1957572179
 20
6.3970264653
 30
0.0
 10
11.1805328933
 20
6.3922107531
 30
0.0
 10
11.1650390093
 20
6.388168029
 30
0.0
 10
11.1493129339
 20
6.3849079211
 30
0.0
 10
11.1333925588
 20
6.3824382645
 30
0.0
 10
11.1173163655
 20
6.3807650339
 30
0.0
 10
11.1011226967
 20
6.3798920936
 30
0.0
 10
11.0848514179
 20
6.3798217056
 30
0.0
 10
11.0739953077
 20
6.380308947
 30
0.0
 10
11.0685683211
 20
6.3806853098
 30
0.0
  0
SPLINE
  5
3EF
100
AcDbEntity
  8
0
100
AcDbSpline
 62
7
  6
CONTINUOUS
 70
0
 71
3
 72
23
 73
19
 74
0
 42
0.0000001
 43
0.0000001
 44
0.0000000001
 40
0.0
 40
0.0
 40
0.0
 40
0.0
 40
0.0637765977
 40
0.1273450691
 40
0.1907019728
 40
0.2538560883
 40
0.3168132203
 40
0.3795820796
 40
0.4421733855
 40
0.5045993402
 40
0.566873864
 40
0.6290123768
 40
0.6910316495
 40
0.7529496457
 40
0.8147853522
 40
0.8765585995
 40
0.9382898533
 40
1.0
 40
1.0
 40
1.0
 40
1.0
 10
11.4388139112
 20
6.6955936125
 30
0.0
 10
11.4388139112
 20
6.6898078749
 30
0.0
 10
11.4385369591
 20
6.6782533211
 30
0.0
 10
11.4372870617
 20
6.6609918013
 30
0.0
 10
11.4352059167
 20
6.6438670767
 30
0.0
 10
11.4322985414
 20
6.6269194322
 30
0.0
 10
11.4285714193
 20
6.6101875595
 30
0.0
 10
11.4240331823
 20
6.5937101384
 30
0.0
 10
11.4186942738
 20
6.5775251336
 30
0.0
 10
11.41256691
 20
6.5616698791
 30
0.0
 10
11.4056651939
 20
6.5461809478
 30
0.0
 10
11.3980050469
 20
6.5310940466
 30
0.0
 10
11.3896041036
 20
6.5164439788
 30
0.0
 10
11.3804816649
 20
6.502264561
 30
0.0
 10
11.3706588081
 20
6.4885885231
 30
0.0
 10
11.3601580821
 20
6.4754472937
 30
0.0
 10
11.3490041161
 20
6.4628715922
 30
0.0
 10
11.3411482503
 20
6.454882739
 30
0.0
 10
11.3371216768
 20
6.4509933496
 30
0.0
  0
SPLINE
  5
3F0
100
AcDbEntity
  8
0
100
AcDbSpline
 62
7
  6
CONTINUOUS
 70
0
 71
3
 72
71
 73
67
 74
0
 42
0.0000001
 43
0.0000001
 44
0.0000000001
 40
0.0
 40
0.0
 40
0.0
 40
0.0
 40
0.0155842357
 40
0.031115943
 40
0.0465952487
 40
0.0620238831
 40
0.0774034484
 40
0.0927362827
 40
0.1080251234
 40
0.1232731737
 40
0.1384840555
 40
0.1536617759
 40
0.1688106894
 40
0.1839354528
 40
0.1990409785
 40
0.2141323826
 40
0.2292149324
 40
0.2442939897
 40
0.2593749538
 40
0.2744632037
 40
0.2895640404
 40
0.3046826304
 40
0.3198239511
 40
0.3349927396
 40
0.3501934435
 40
0.3654301766
 40
0.3807066777
 40
0.3960262752
 40
0.4113918557
 40
0.4268058391
 40
0.4422701589
 40
0.4577862478
 40
0.4733550285
 40
0.4889769092
 40
0.5046517848
 40
0.5203790431
 40
0.5361575763
 40
0.5519857963
 40
0.5678616538
 40
0.5837826609
 40
0.5997459179
 40
0.6157481418
 40
0.6317856999
 40
0.6478546445
 40
0.6639507499
 40
0.6800695506
 40
0.6962063818
 40
0.7123564201
 40
0.7285147273
 40
0.7446762933
 40
0.7608360799
 40
0.7769890645
 40
0.7931302835
 40
0.8092548753
 40
0.8253581239
 40
0.8414355006
 40
0.8574827053
 40
0.873495705
 40
0.8894707706
 40
0.9054045132
 40
0.921293919
 40
0.9371363616
 40
0.9529297193
 40
0.9686720808
 40
0.9843626423
 40
1.0
 40
1.0
 40
1.0
 40
1.0
 10
10.9796579065
 20
8.4308284817
 30
0.0
 10
10.9796579065
 20
8.4221660264
 30
0.0
 10
10.9792339772
 20
8.4048672419
 30
0.0
 10
10.9773203605
 20
8.3790280513
 30
0.0
 10
10.9741344343
 20
8.3534011148
 30
0.0
 10
10.9696840377
 20
8.3280491916
 30
0.0
 10
10.9639796716
 20
8.303033009
 30
0.0
 10
10.9570350987
 20
8.278412994
 30
0.0
 10
10.9488669549
 20
8.2542484731
 30
0.0
 10
10.9394948867
 20
8.2305977244
 30
0.0
 10
10.9289414441
 20
8.2075177805
 30
0.0
 10
10.9172320286
 20
8.1850643082
 30
0.0
 10
10.9043948351
 20
8.1632914695
 30
0.0
 10
10.8904607832
 20
8.1422517911
 30
0.0
 10
10.8754634435
 20
8.1219960372
 30
0.0
 10
10.8594389621
 20
8.1025730822
 30
0.0
 10
10.8424259853
 20
8.0840297781
 30
0.0
 10
10.8244655453
 20
8.0664108547
 30
0.0
 10
10.8056009636
 20
8.0497588083
 30
0.0
 10
10.785877745
 20
8.0341138002
 30
0.0
 10
10.7653434675
 20
8.0195135575
 30
0.0
 10
10.7440476652
 20
8.0059932853
 30
0.0
 10
10.7220417194
 20
7.9935855599
 30
0.0
 10
10.699378722
 20
7.9823202637
 30
0.0
 10
10.6761133422
 20
7.9722245189
 30
0.0
 10
10.6523016947
 20
7.9633226224
 30
0.0
 10
10.6280012036
 20
7.9556359879
 30
0.0
 10
10.6032704632
 20
7.9491830992
 30
0.0
 10
10.5781690996
 20
7.9439794535
 30
0.0
 10
10.5527576253
 20
7.9400375196
 30
0.0
 10
10.5270972872
 20
7.9373667289
 30
0.0
 10
10.5012499207
 20
7.9359734507
 30
0.0
 10
10.4752778016
 20
7.9358609798
 30
0.0
 10
10.4492434973
 20
7.9370295295
 30
0.0
 10
10.4232097175
 20
7.9394762324
 30
0.0
 10
10.3972391613
 20
7.9431951257
 30
0.0
 10
10.3713943664
 20
7.9481771897
 30
0.0
 10
10.34573756
 20
7.9544103706
 30
0.0
 10
10.3203305112
 20
7.9618796105
 30
0.0
 10
10.2952343834
 20
7.9705668826
 30
0.0
 10
10.2705095907
 20
7.9804512387
 30
0.0
 10
10.2462156459
 20
7.9915088414
 30
0.0
 10
10.2224110185
 20
8.003713028
 30
0.0
 10
10.1991529996
 20
8.0170343872
 30
0.0
 10
10.1764975641
 20
8.0314408263
 30
0.0
 10
10.1544992385
 20
8.046897649
 30
0.0
 10
10.1332109711
 20
8.0633676382
 30
0.0
 10
10.1126840031
 20
8.0808111411
 30
0.0
 10
10.0929677334
 20
8.0991861523
 30
0.0
 10
10.0741096149
 20
8.1184484336
 30
0.0
 10
10.0561550389
 20
8.1385516172
 30
0.0
 10
10.0391472282
 20
8.1594473166
 30
0.0
 10
10.0231271328
 20
8.1810852413
 30
0.0
 10
10.0081333355
 20
8.2034133182
 30
0.0
 10
9.9942019389
 20
8.2263778041
 30
0.0
 10
9.9813664916
 20
8.249923425
 30
0.0
 10
9.969657912
 20
8.273993511
 30
0.0
 10
9.9591044148
 20
8.2985301305
 30
0.0
 10
9.9497314419
 20
8.3234742276
 30
0.0
 10
9.9415616027
 20
8.348765766
 30
0.0
 10
9.9346146211
 20
8.3743438551
 30
0.0
 10
9.928907227
 20
8.4001469529
 30
0.0
 10
9.9244532885
 20
8.4261128113
 30
0.0
 10
9.9212634275
 20
8.4521792923
 30
0.0
 10
9.9193456055
 20
8.4782826077
 30
0.0
 10
9.9189173375
 20
8.4956991069
 30
0.0
 10
9.9189173375
 20
8.50439109
 30
0.0
  0
SPLINE
  5
3F1
100
AcDbEntity
  8
0
100
AcDbSpline
 62
7
  6
CONTINUOUS
 70
0
 71
3
 72
23
 73
19
 74
0
 42
0.0000001
 43
0.0000001
 44
0.0000000001
 40
0.0
 40
0.0
 40
0.0
 40
0.0
 40
0.1030388784
 40
0.2020403822
 40
0.2954368878
 40
0.3822957195
 40
0.4622680957
 40
0.5354273793
 40
0.6021054805
 40
0.6627719485
 40
0.7179597458
 40
0.7682281604
 40
0.8141498286
 40
0.856311409
 40
0.8953205608
 40
0.9318161037
 40
0.9664737289
 40
1.0
 40
1.0
 40
1.0
 40
1.0
 10
10.4081210169
 20
8.1587053954
 30
0.0
 10
10.4103236253
 20
8.1576176922
 30
0.0
 10
10.4146029877
 20
8.1554035144
 30
0.0
 10
10.4207273594
 20
8.1519208755
 30
0.0
 10
10.426374396
 20
8.1483904469
 30
0.0
 10
10.4314858908
 20
8.1448705126
 30
0.0
 10
10.4360403048
 20
8.1414034339
 30
0.0
 10
10.4400424448
 20
8.1380164026
 30
0.0
 10
10.443512591
 20
8.1347247097
 30
0.0
 10
10.4464780117
 20
8.1315354366
 30
0.0
 10
10.4489674966
 20
8.128450502
 30
0.0
 10
10.451008277
 20
8.1254688477
 30
0.0
 10
10.4526244917
 20
8.1225879158
 30
0.0
 10
10.4538365501
 20
8.1198046406
 30
0.0
 10
10.45466077
 20
8.1171162278
 30
0.0
 10
10.4551095448
 20
8.1145205945
 30
0.0
 10
10.455192456
 20
8.1120182326
 30
0.0
 10
10.4550060637
 20
8.1103961455
 30
0.0
 10
10.4548545106
 20
8.1096113487
 30
0.0
  0
SPLINE
  5
3F2
100
AcDbEntity
  8
0
100
AcDbSpline
 62
7
  6
CONTINUOUS
 70
0
 71
3
 72
43
 73
39
 74
0
 42
0.0000001
 43
0.0000001
 44
0.0000000001
 40
0.0
 40
0.0
 40
0.0
 40
0.0
 40
0.0149663967
 40
0.0299496373
 40
0.044951938
 40
0.0599754212
 40
0.0900890627
 40
0.1203100857
 40
0.1354672332
 40
0.1506557362
 40
0.1658767977
 40
0.1811314555
 40
0.2117403488
 40
0.2424921122
 40
0.2733891155
 40
0.3044310348
 40
0.3356148961
 40
0.3669351645
 40
0.3983838759
 40
0.4299508077
 40
0.4616236821
 40
0.4933883993
 40
0.5252292936
 40
0.5571294105
 40
0.5890707995
 40
0.6210348189
 40
0.6530024497
 40
0.6849546125
 40
0.7168724865
 40
0.7487378238
 40
0.7805332578
 40
0.8122426017
 40
0.8438511312
 40
0.8753458556
 40
0.9067157285
 40
0.9379520016
 40
0.96904791
 40
1.0
 40
1.0
 40
1.0
 40
1.0
 10
10.9188407641
 20
8.2028706656
 30
0.0
 10
10.9140928747
 20
8.1999232727
 30
0.0
 10
10.9044840075
 20
8.1941967205
 30
0.0
 10
10.8897615178
 20
8.1861288687
 30
0.0
 10
10.8747384105
 20
8.1785871066
 30
0.0
 10
10.8543168062
 20
8.1692386336
 30
0.0
 10
10.8281152327
 20
8.1589102153
 30
0.0
 10
10.8011976769
 20
8.1504584745
 30
0.0
 10
10.7792889514
 20
8.1448344675
 30
0.0
 10
10.7626668217
 20
8.1411856954
 30
0.0
 10
10.745891214
 20
8.1381152642
 30
0.0
 10
10.7233220062
 20
8.1347934266
 30
0.0
 10
10.6948157538
 20
8.1321071036
 30
0.0
 10
10.6603519853
 20
8.1312419313
 30
0.0
 10
10.6257473585
 20
8.1327344493
 30
0.0
 10
10.5911627024
 20
8.1365776446
 30
0.0
 10
10.5567573058
 20
8.1427534472
 30
0.0
 10
10.5226899576
 20
8.1512331151
 30
0.0
 10
10.4891177438
 20
8.1619772837
 30
0.0
 10
10.4561954564
 20
8.1749361727
 30
0.0
 10
10.4240748577
 20
8.1900498282
 30
0.0
 10
10.3929039981
 20
8.2072483997
 30
0.0
 10
10.3628265404
 20
8.2264524624
 30
0.0
 10
10.3339811054
 20
8.2475733812
 30
0.0
 10
10.3065006426
 20
8.2705137202
 30
0.0
 10
10.2805118122
 20
8.2951676745
 30
0.0
 10
10.2561344094
 20
8.3214215626
 30
0.0
 10
10.2334808237
 20
8.3491543531
 30
0.0
 10
10.2126555239
 20
8.378238215
 30
0.0
 10
10.1937545814
 20
8.4085391026
 30
0.0
 10
10.1768652297
 20
8.4399173641
 30
0.0
 10
10.1620654679
 20
8.4722283848
 30
0.0
 10
10.1494236783
 20
8.5053232201
 30
0.0
 10
10.1389983425
 20
8.5390493455
 30
0.0
 10
10.1308377142
 20
8.5732511328
 30
0.0
 10
10.1249797509
 20
8.6077713635
 30
0.0
 10
10.1214516089
 20
8.6424487819
 30
0.0
 10
10.1206620322
 20
8.6656245385
 30
0.0
 10
10.1206620322
 20
8.6771818227
 30
0.0
  0
SPLINE
  5
3F3
100
AcDbEntity
  8
0
100
AcDbSpline
 62
7
  6
CONTINUOUS
 70
0
 71
3
 72
39
 73
35
 74
0
 42
0.0000001
 43
0.0000001
 44
0.0000000001
 40
0.0
 40
0.0
 40
0.0
 40
0.0
 40
0.0626132239
 40
0.1222228158
 40
0.1768103684
 40
0.2263321973
 40
0.2714485738
 40
0.3128908732
 40
0.3512841399
 40
0.387128106
 40
0.4208175563
 40
0.4526665193
 40
0.4829285612
 40
0.511813154
 40
0.5661119904
 40
0.6167239176
 40
0.6409517841
 40
0.6645962183
 40
0.6877600303
 40
0.7105440236
 40
0.7330525601
 40
0.7553925396
 40
0.7776784027
 40
0.8000315015
 40
0.8225839805
 40
0.8454793426
 40
0.8571066838
 40
0.8688797505
 40
0.8929473456
 40
0.9178758834
 40
0.9307302473
 40
0.9438788886
 40
0.971169698
 40
1.0
 40
1.0
 40
1.0
 40
1.0
 10
10.5167305296
 20
8.6687317095
 30
0.0
 10
10.520264824
 20
8.6632429344
 30
0.0
 10
10.5268244809
 20
8.652306181
 30
0.0
 10
10.535358614
 20
8.6359551767
 30
0.0
 10
10.5424250622
 20
8.620408059
 30
0.0
 10
10.5481476202
 20
8.6059335104
 30
0.0
 10
10.5527419181
 20
8.5925046058
 30
0.0
 10
10.5564053325
 20
8.5799980815
 30
0.0
 10
10.5592914292
 20
8.5682835722
 30
0.0
 10
10.5615140198
 20
8.5572490267
 30
0.0
 10
10.5631569273
 20
8.5468037656
 30
0.0
 10
10.5642820161
 20
8.5368757888
 30
0.0
 10
10.5649350486
 20
8.5274074811
 30
0.0
 10
10.5652160223
 20
8.5155794772
 30
0.0
 10
10.5645931348
 20
8.5016212069
 30
0.0
 10
10.5626402912
 20
8.488271757
 30
0.0
 10
10.5603087046
 20
8.4782667371
 30
0.0
 10
10.55821254
 20
8.4711585132
 30
0.0
 10
10.5557413827
 20
8.4643314631
 30
0.0
 10
10.5528874819
 20
8.4577838861
 30
0.0
 10
10.5496430229
 20
8.4515168762
 30
0.0
 10
10.5459945828
 20
8.4455363037
 30
0.0
 10
10.5419287942
 20
8.4398505454
 30
0.0
 10
10.5374270415
 20
8.4344735925
 30
0.0
 10
10.532470377
 20
8.4294229588
 30
0.0
 10
10.5279637568
 20
8.4255254032
 30
0.0
 10
10.5241215693
 20
8.4226015626
 30
0.0
 10
10.5200582851
 20
8.4197736867
 30
0.0
 10
10.5146274228
 20
8.4164939091
 30
0.0
 10
10.5088289426
 20
8.4136518017
 30
0.0
 10
10.5039163982
 20
8.4116314868
 30
0.0
 10
10.4986870079
 20
8.4097480015
 30
0.0
 10
10.4917325783
 20
8.407762666
 30
0.0
 10
10.4859757586
 20
8.406665536
 30
0.0
 10
10.4830012743
 20
8.4062318679
 30
0.0
  0
SPLINE
  5
3F4
100
AcDbEntity
  8
0
100
AcDbSpline
 62
7
  6
CONTINUOUS
 70
0
 71
3
 72
39
 73
35
 74
0
 42
0.0000001
 43
0.0000001
 44
0.0000000001
 40
0.0
 40
0.0
 40
0.0
 40
0.0
 40
0.0304182189
 40
0.0609499491
 40
0.0915962109
 40
0.1223566873
 40
0.1532297424
 40
0.1842124539
 40
0.21530066
 40
0.2464890182
 40
0.2777710757
 40
0.3091393508
 40
0.3405854233
 40
0.3721000332
 40
0.403673185
 40
0.4352942587
 40
0.4669521251
 40
0.4986352656
 40
0.5303318948
 40
0.5620300848
 40
0.5937178923
 40
0.6253834835
 40
0.6570152587
 40
0.6886019758
 40
0.72013287
 40
0.7515977712
 40
0.7829872156
 40
0.8142925523
 40
0.8455060547
 40
0.8766209603
 40
0.907631743
 40
0.9385336025
 40
0.9693240338
 40
1.0
 40
1.0
 40
1.0
 40
1.0
 10
10.973585856
 20
8.4771499293
 30
0.0
 10
10.9658881926
 20
8.4764673052
 30
0.0
 10
10.9504232331
 20
8.4755235907
 30
0.0
 10
10.9271424658
 20
8.4753735238
 30
0.0
 10
10.9038001813
 20
8.4764864304
 30
0.0
 10
10.8804652981
 20
8.4788590611
 30
0.0
 10
10.8572055315
 20
8.482484406
 30
0.0
 10
10.834088682
 20
8.4873518391
 30
0.0
 10
10.8111820403
 20
8.4934471172
 30
0.0
 10
10.7885523002
 20
8.5007524327
 30
0.0
 10
10.7662653369
 20
8.5092464592
 30
0.0
 10
10.7443860206
 20
8.5189044089
 30
0.0
 10
10.7229780302
 20
8.5296981166
 30
0.0
 10
10.7021036697
 20
8.5415961197
 30
0.0
 10
10.6818236886
 20
8.55456375
 30
0.0
 10
10.6621971068
 20
8.5685632346
 30
0.0
 10
10.6432810437
 20
8.5835538045
 30
0.0
 10
10.6251305546
 20
8.5994918137
 30
0.0
 10
10.607798469
 20
8.6163308629
 30
0.0
 10
10.5913352318
 20
8.6340219289
 30
0.0
 10
10.5757887641
 20
8.6525135153
 30
0.0
 10
10.5612043244
 20
8.6717518005
 30
0.0
 10
10.5476243777
 20
8.6916807937
 30
0.0
 10
10.5350884728
 20
8.7122424959
 30
0.0
 10
10.5236331276
 20
8.7333770679
 30
0.0
 10
10.5132917237
 20
8.7550230025
 30
0.0
 10
10.5040944096
 20
8.7771173017
 30
0.0
 10
10.4960679964
 20
8.799595658
 30
0.0
 10
10.4892359124
 20
8.8223926328
 30
0.0
 10
10.4836180716
 20
8.8454418972
 30
0.0
 10
10.4792309682
 20
8.868676234
 30
0.0
 10
10.4760873113
 20
8.8920283525
 30
0.0
 10
10.4741965182
 20
8.9154292093
 30
0.0
 10
10.4737740523
 20
8.9310481993
 30
0.0
 10
10.4737740523
 20
8.9388415525
 30
0.0
  0
SPLINE
  5
3F5
100
AcDbEntity
  8
0
100
AcDbSpline
 62
7
  6
CONTINUOUS
 70
0
 71
3
 72
42
 73
38
 74
0
 42
0.0000001
 43
0.0000001
 44
0.0000000001
 40
0.0
 40
0.0
 40
0.0
 40
0.0
 40
0.0149723977
 40
0.0299478538
 40
0.0449294096
 40
0.0599200691
 40
0.0749227785
 40
0.0899404134
 40
0.120025661
 40
0.1502025864
 40
0.1804899025
 40
0.2109037093
 40
0.2414571466
 40
0.272160128
 40
0.3030191646
 40
0.3340372687
 40
0.3652139372
 40
0.3965452178
 40
0.4280238461
 40
0.4596394447
 40
0.4913787778
 40
0.523226062
 40
0.5551633141
 40
0.5871707326
 40
0.6192271086
 40
0.651310257
 40
0.6833974607
 40
0.7154659218
 40
0.747493215
 40
0.7794577345
 40
0.8113391305
 40
0.8431187296
 40
0.8747799239
 40
0.9063085332
 40
0.9376931786
 40
0.9689252006
 40
1.0
 40
1.0
 40
1.0
 40
1.0
 10
10.8301241769
 20
8.084692393
 30
0.0
 10
10.8256445325
 20
8.0803654032
 30
0.0
 10
10.8165112778
 20
8.0718876496
 30
0.0
 10
10.8023153318
 20
8.0597241699
 30
0.0
 10
10.7876414175
 20
8.0481290251
 30
0.0
 10
10.77251003
 20
8.037118568
 30
0.0
 10
10.7569416095
 20
8.0267076804
 30
0.0
 10
10.7356202216
 20
8.0136389636
 30
0.0
 10
10.7079684973
 20
7.9988672151
 30
0.0
 10
10.6734210921
 20
7.9837653244
 30
0.0
 10
10.6376722975
 20
7.9713557239
 30
0.0
 10
10.6009204432
 20
7.9617072428
 30
0.0
 10
10.5633676464
 20
7.954872322
 30
0.0
 10
10.5252207716
 20
7.9508881117
 30
0.0
 10
10.486689702
 20
7.9497760198
 30
0.0
 10
10.4479863562
 20
7.9515417169
 30
0.0
 10
10.4093234846
 20
7.9561749805
 30
0.0
 10
10.3709135117
 20
7.9636498727
 30
0.0
 10
10.332967394
 20
7.9739249333
 30
0.0
 10
10.2956934814
 20
7.986943381
 30
0.0
 10
10.2592963533
 20
8.0026333545
 30
0.0
 10
10.2239757455
 20
8.0209084296
 30
0.0
 10
10.1899254855
 20
8.0416680921
 30
0.0
 10
10.1573324002
 20
8.0647982073
 30
0.0
 10
10.1263753006
 20
8.0901716635
 30
0.0
 10
10.0972240583
 20
8.1176491267
 30
0.0
 10
10.0700386894
 20
8.1470797819
 30
0.0
 10
10.0449683974
 20
8.1783020718
 30
0.0
 10
10.0221508304
 20
8.2111446534
 30
0.0
 10
10.0017113595
 20
8.2454273328
 30
0.0
 10
9.9837623592
 20
8.280962015
 30
0.0
 10
9.9684025302
 20
8.3175536768
 30
0.0
 10
9.9557164613
 20
8.3550015672
 30
0.0
 10
9.9457741493
 20
8.3930999646
 30
0.0
 10
9.9386306109
 20
8.4316403761
 30
0.0
 10
9.9343253182
 20
8.4704084301
 30
0.0
 10
9.933361034
 20
8.496336553
 30
0.0
 10
9.933361034
 20
8.5092629405
 30
0.0
  0
SPLINE
  5
3F6
100
AcDbEntity
  8
0
100
AcDbSpline
 62
7
  6
CONTINUOUS
 70
0
 71
3
 72
43
 73
39
 74
0
 42
0.0000001
 43
0.0000001
 44
0.0000000001
 40
0.0
 40
0.0
 40
0.0
 40
0.0
 40
0.0149756934
 40
0.0299706987
 40
0.0449870148
 40
0.0600265428
 40
0.0901776827
 40
0.1204415671
 40
0.1356214634
 40
0.1508333671
 40
0.1660782588
 40
0.1813569602
 40
0.2120139714
 40
0.2428122883
 40
0.2737528588
 40
0.3048341188
 40
0.3360520537
 40
0.3674002993
 40
0.3988702788
 40
0.4304513735
 40
0.4621311209
 40
0.4938954374
 40
0.525728861
 40
0.5576148115
 40
0.5895358627
 40
0.6214740258
 40
0.6534110384
 40
0.6853286569
 40
0.7172089477
 40
0.749034576
 40
0.7807890869
 40
0.8124571773
 40
0.8440249534
 40
0.8754801774
 40
0.9068124558
 40
0.93801357
 40
0.9690771623
 40
1.0
 40
1.0
 40
1.0
 40
1.0
 10
10.9061798202
 20
8.1804072339
 30
0.0
 10
10.9012716329
 20
8.1776795832
 30
0.0
 10
10.8913514893
 20
8.1723940083
 30
0.0
 10
10.8761912624
 20
8.1649906905
 30
0.0
 10
10.8607578639
 20
8.1581151358
 30
0.0
 10
10.8398237952
 20
8.1496557158
 30
0.0
 10
10.8130495694
 20
8.1404382702
 30
0.0
 10
10.7856498703
 20
8.1330874531
 30
0.0
 10
10.7634051728
 20
8.1283345192
 30
0.0
 10
10.7465550998
 20
8.1253342318
 30
0.0
 10
10.7295757383
 20
8.1229059051
 30
0.0
 10
10.7067660248
 20
8.1204314932
 30
0.0
 10
10.678017634
 20
8.1187845564
 30
0.0
 10
10.6433500328
 20
8.1191266247
 30
0.0
 10
10.6086226109
 20
8.1217825065
 30
0.0
 10
10.5739900736
 20
8.1267403118
 30
0.0
 10
10.5396053234
 20
8.1339778174
 30
0.0
 10
10.5056204871
 20
8.1434627908
 30
0.0
 10
10.4721857884
 20
8.1551530626
 30
0.0
 10
10.4394490155
 20
8.1689967471
 30
0.0
 10
10.4075548444
 20
8.1849324733
 30
0.0
 10
10.3766442153
 20
8.2028896572
 30
0.0
 10
10.3468537154
 20
8.2227888131
 30
0.0
 10
10.3183149824
 20
8.244541904
 30
0.0
 10
10.29115413
 20
8.2680527286
 30
0.0
 10
10.2654911837
 20
8.2932173306
 30
0.0
 10
10.2414395633
 20
8.3199244685
 30
0.0
 10
10.2191055877
 20
8.3480561039
 30
0.0
 10
10.198588009
 20
8.377487918
 30
0.0
 10
10.1799775795
 20
8.4080898561
 30
0.0
 10
10.1633566528
 20
8.4397266949
 30
0.0
 10
10.1487988239
 20
8.4722586387
 30
0.0
 10
10.1363685823
 20
8.505541907
 30
0.0
 10
10.1261210598
 20
8.5394294313
 30
0.0
 10
10.1181017286
 20
8.573771287
 30
0.0
 10
10.1123463479
 20
8.6084161215
 30
0.0
 10
10.1088804933
 20
8.6432087749
 30
0.0
 10
10.1081049957
 20
8.6664580231
 30
0.0
 10
10.1081049957
 20
8.6780526561
 30
0.0
  0
SPLINE
  5
3F7
100
AcDbEntity
  8
0
100
AcDbSpline
 62
7
  6
CONTINUOUS
 70
0
 71
3
 72
23
 73
19
 74
0
 42
0.0000001
 43
0.0000001
 44
0.0000000001
 40
0.0
 40
0.0
 40
0.0
 40
0.0
 40
0.0615956095
 40
0.1235257528
 40
0.1857618884
 40
0.2482669337
 40
0.3109963839
 40
0.3738996207
 40
0.4369213345
 40
0.5000030326
 40
0.5630846224
 40
0.6261060149
 40
0.6890087261
 40
0.7517374593
 40
0.8142416177
 40
0.8764767228
 40
0.9384056894
 40
1.0
 40
1.0
 40
1.0
 40
1.0
 10
10.9551742996
 20
8.5797735327
 30
0.0
 10
10.9433718234
 20
8.5815403299
 30
0.0
 10
10.9198415273
 20
8.5860909336
 30
0.0
 10
10.8851625783
 20
8.5958663507
 30
0.0
 10
10.8512442325
 20
8.6085395508
 30
0.0
 10
10.8183399926
 20
8.6240161139
 30
0.0
 10
10.7866914564
 20
8.6421814945
 30
0.0
 10
10.7565321561
 20
8.662901425
 30
0.0
 10
10.728084322
 20
8.6860229087
 30
0.0
 10
10.7015576016
 20
8.7113752587
 30
0.0
 10
10.6771476506
 20
8.7387715782
 30
0.0
 10
10.6550344275
 20
8.768009808
 30
0.0
 10
10.6353811584
 20
8.7988744453
 30
0.0
 10
10.6183330187
 20
8.8311380755
 30
0.0
 10
10.6040160016
 20
8.8645626028
 30
0.0
 10
10.5925361542
 20
8.8989025796
 30
0.0
 10
10.5839789715
 20
8.9339013538
 30
0.0
 10
10.5802537516
 20
8.9575758676
 30
0.0
 10
10.5789006228
 20
8.9694326401
 30
0.0
  0
SPLINE
  5
3F8
100
AcDbEntity
  8
0
100
AcDbSpline
 62
7
  6
CONTINUOUS
 70
0
 71
3
 72
42
 73
38
 74
0
 42
0.0000001
 43
0.0000001
 44
0.0000000001
 40
0.0
 40
0.0
 40
0.0
 40
0.0
 40
0.0299355581
 40
0.0599412496
 40
0.0749784475
 40
0.0900396367
 40
0.1051267343
 40
0.1202415241
 40
0.150555758
 40
0.1809985719
 40
0.2115787395
 40
0.2423023363
 40
0.2577213621
 40
0.2731772439
 40
0.3041947824
 40
0.3353572579
 40
0.3666596987
 40
0.3980945689
 40
0.4296519364
 40
0.4613196789
 40
0.493083722
 40
0.5249283046
 40
0.5568362664
 40
0.588789353
 40
0.6207685344
 40
0.6527543337
 40
0.6847271607
 40
0.7166676476
 40
0.7485569809
 40
0.7803772268
 40
0.8121116464
 40
0.8437449953
 40
0.875263809
 40
0.9066566328
 40
0.9379143805
 40
0.969030032
 40
1.0
 40
1.0
 40
1.0
 40
1.0
 10
10.9290547418
 20
8.2233916525
 30
0.0
 10
10.9198108444
 20
8.2172675685
 30
0.0
 10
10.9008435893
 20
8.2056816361
 30
0.0
 10
10.876124572
 20
8.1929645645
 30
0.0
 10
10.8557980201
 20
8.1838723779
 30
0.0
 10
10.8402783582
 20
8.1775954183
 30
0.0
 10
10.8245149002
 20
8.1718738056
 30
0.0
 10
10.8031785108
 20
8.1649884747
 30
0.0
 10
10.7759815177
 20
8.1578040615
 30
0.0
 10
10.7427119445
 20
8.1515077111
 30
0.0
 10
10.7089308375
 20
8.1475556166
 30
0.0
 10
10.6805177675
 20
8.146233016
 30
0.0
 10
10.6576974415
 20
8.1463557781
 30
0.0
 10
10.6347860483
 20
8.1472691061
 30
0.0
 10
10.6061245455
 20
8.1498950925
 30
0.0
 10
10.5719107912
 20
8.1553933283
 30
0.0
 10
10.537993496
 20
8.1632162245
 30
0.0
 10
10.5045341268
 20
8.173326483
 30
0.0
 10
10.4716906323
 20
8.1856760607
 30
0.0
 10
10.4396183709
 20
8.2002063368
 30
0.0
 10
10.4084689335
 20
8.2168484118
 30
0.0
 10
10.3783895623
 20
8.2355234444
 30
0.0
 10
10.3495224301
 20
8.2561430207
 30
0.0
 10
10.3220039851
 20
8.2786095702
 30
0.0
 10
10.2959643134
 20
8.3028168254
 30
0.0
 10
10.2715265211
 20
8.3286503099
 30
0.0
 10
10.2488061511
 20
8.3559878727
 30
0.0
 10
10.2279106563
 20
8.3847002763
 30
0.0
 10
10.2089388934
 20
8.4146517984
 30
0.0
 10
10.1919806596
 20
8.4457008653
 30
0.0
 10
10.1771162731
 20
8.477700719
 30
0.0
 10
10.1644161849
 20
8.5105000811
 30
0.0
 10
10.1539406441
 20
8.5439439195
 30
0.0
 10
10.1457393794
 20
8.5778739589
 30
0.0
 10
10.1398515116
 20
8.6121302386
 30
0.0
 10
10.1363050382
 20
8.6465486405
 30
0.0
 10
10.1355112713
 20
8.6695534657
 30
0.0
 10
10.1355112713
 20
8.6810250871
 30
0.0
  0
SPLINE
  5
3F9
100
AcDbEntity
  8
0
100
AcDbSpline
 62
7
  6
CONTINUOUS
 70
0
 71
3
 72
43
 73
39
 74
0
 42
0.0000001
 43
0.0000001
 44
0.0000000001
 40
0.0
 40
0.0
 40
0.0
 40
0.0
 40
0.0149744288
 40
0.0299678973
 40
0.0449824345
 40
0.0600199615
 40
0.0901665236
 40
0.1204252692
 40
0.135602463
 40
0.1508116061
 40
0.1660536965
 40
0.1813295874
 40
0.2119810047
 40
0.2427739489
 40
0.2737095258
 40
0.3047863074
 40
0.3360003926
 40
0.3673455066
 40
0.3988131384
 40
0.4303927105
 40
0.4620717776
 40
0.4938362506
 40
0.5256706409
 40
0.5575583223
 40
0.5894818066
 40
0.6214230291
 40
0.65336364
 40
0.6852852994
 40
0.717169972
 40
0.7490002181
 40
0.7807594788
 40
0.8124323507
 40
0.8440048455
 40
0.8754646408
 40
0.9068012665
 40
0.9380064476
 40
0.9690737837
 40
1.0
 40
1.0
 40
1.0
 40
1.0
 10
10.9367361325
 20
8.2407273347
 30
0.0
 10
10.9320455166
 20
8.2380863065
 30
0.0
 10
10.922563683
 20
8.2329669821
 30
0.0
 10
10.9080692137
 20
8.2257911984
 30
0.0
 10
10.8933096295
 20
8.2191216638
 30
0.0
 10
10.8732847518
 20
8.2109079224
 30
0.0
 10
10.847664252
 20
8.2019425037
 30
0.0
 10
10.821433886
 20
8.1947688997
 30
0.0
 10
10.8001324811
 20
8.1901127873
 30
0.0
 10
10.7839940076
 20
8.1871627964
 30
0.0
 10
10.7677288911
 20
8.1847620681
 30
0.0
 10
10.7458750302
 20
8.182294432
 30
0.0
 10
10.7183247073
 20
8.1805992101
 30
0.0
 10
10.6850922471
 20
8.1807933636
 30
0.0
 10
10.6517935755
 20
8.1832119183
 30
0.0
 10
10.6185777665
 20
8.1878439917
 30
0.0
 10
10.5855921914
 20
8.194668697
 30
0.0
 10
10.5529835035
 20
8.2036554756
 30
0.0
 10
10.5208965533
 20
8.2147641762
 30
0.0
 10
10.4894738714
 20
8.2279452542
 30
0.0
 10
10.4588550115
 20
8.2431399896
 30
0.0
 10
10.429175946
 20
8.2602807498
 30
0.0
 10
10.400568468
 20
8.27929129
 30
0.0
 10
10.3731596048
 20
8.3000870807
 30
0.0
 10
10.3470710647
 20
8.3225756919
 30
0.0
 10
10.3224187023
 20
8.3466572015
 30
0.0
 10
10.2993120089
 20
8.3722246352
 30
0.0
 10
10.2778536303
 20
8.399164438
 30
0.0
 10
10.258138915
 20
8.4273569736
 30
0.0
 10
10.240255494
 20
8.4566770514
 30
0.0
 10
10.2242828936
 20
8.4869944752
 30
0.0
 10
10.2102921747
 20
8.5181746154
 30
0.0
 10
10.1983456207
 20
8.5500789911
 30
0.0
 10
10.1884964826
 20
8.5825659348
 30
0.0
 10
10.1807886794
 20
8.6154910124
 30
0.0
 10
10.175256753
 20
8.6487084044
 30
0.0
 10
10.171925408
 20
8.6820686082
 30
0.0
 10
10.1711799917
 20
8.7043610451
 30
0.0
 10
10.1711799917
 20
8.7154784273
 30
0.0
  0
SPLINE
  5
3FA
100
AcDbEntity
  8
0
100
AcDbSpline
 62
7
  6
CONTINUOUS
 70
0
 71
3
 72
43
 73
39
 74
0
 42
0.0000001
 43
0.0000001
 44
0.0000000001
 40
0.0
 40
0.0
 40
0.0
 40
0.0
 40
0.0149600193
 40
0.0299331447
 40
0.0449218739
 40
0.0599286161
 40
0.0900001716
 40
0.120170141
 40
0.1352993511
 40
0.1504586305
 40
0.1656494895
 40
0.180873279
 40
0.2114193117
 40
0.2421090276
 40
0.2729468862
 40
0.3039344168
 40
0.3350702302
 40
0.3663500869
 40
0.3977670168
 40
0.4293114849
 40
0.4609715988
 40
0.4927333535
 40
0.5245809055
 40
0.5564968729
 40
0.588462655
 40
0.6204587681
 40
0.6524651934
 40
0.6844617303
 40
0.7164283526
 40
0.7483455625
 40
0.7801947371
 40
0.8119584646
 40
0.8436208653
 40
0.8751678966
 40
0.906587599
 40
0.937870479
 40
0.9690092001
 40
1.0
 40
1.0
 40
1.0
 40
1.0
 10
10.9617197136
 20
8.3173871278
 30
0.0
 10
10.9575714703
 20
8.3144224605
 30
0.0
 10
10.9491596884
 20
8.3086449973
 30
0.0
 10
10.9362221872
 20
8.3004514844
 30
0.0
 10
10.9229747003
 20
8.2927367561
 30
0.0
 10
10.904910015
 20
8.2830960465
 30
0.0
 10
10.8816255469
 20
8.2722861916
 30
0.0
 10
10.8575701092
 20
8.2632044047
 30
0.0
 10
10.8379193389
 20
8.2569915008
 30
0.0
 10
10.8229762736
 20
8.2528588242
 30
0.0
 10
10.8078618538
 20
8.2492632049
 30
0.0
 10
10.78748502
 20
8.2451866061
 30
0.0
 10
10.7616693849
 20
8.2414572302
 30
0.0
 10
10.7303446663
 20
8.2391910146
 30
0.0
 10
10.6987871878
 20
8.2391385254
 30
0.0
 10
10.667151976
 20
8.2412999316
 30
0.0
 10
10.6355930299
 20
8.2456643224
 30
0.0
 10
10.604264282
 20
8.2522101494
 30
0.0
 10
10.5733183971
 20
8.2609052407
 30
0.0
 10
10.542906162
 20
8.2717069864
 30
0.0
 10
10.5131757185
 20
8.2845625284
 30
0.0
 10
10.4842718664
 20
8.2994090461
 30
0.0
 10
10.4563353639
 20
8.3161740595
 30
0.0
 10
10.429502253
 20
8.3347757831
 30
0.0
 10
10.4039032039
 20
8.355123521
 30
0.0
 10
10.3796628891
 20
8.3771181077
 30
0.0
 10
10.3568993666
 20
8.4006523712
 30
0.0
 10
10.3357235183
 20
8.4256116635
 30
0.0
 10
10.3162385199
 20
8.4518744189
 30
0.0
 10
10.2985393422
 20
8.4793127383
 30
0.0
 10
10.2827122918
 20
8.5077930036
 30
0.0
 10
10.2688345969
 20
8.5371765273
 30
0.0
 10
10.2569740171
 20
8.5673201966
 30
0.0
 10
10.2471885231
 20
8.5980772232
 30
0.0
 10
10.2395259749
 20
8.6292976441
 30
0.0
 10
10.2340240336
 20
8.660829821
 30
0.0
 10
10.2307096561
 20
8.6925181126
 30
0.0
 10
10.229967738
 20
8.7137006064
 30
0.0
 10
10.229967738
 20
8.7242630331
 30
0.0
  0
SPLINE
  5
3FB
100
AcDbEntity
  8
0
100
AcDbSpline
 62
7
  6
CONTINUOUS
 70
0
 71
3
 72
39
 73
35
 74
0
 42
0.0000001
 43
0.0000001
 44
0.0000000001
 40
0.0
 40
0.0
 40
0.0
 40
0.0
 40
0.0304053964
 40
0.0609245968
 40
0.0915588303
 40
0.1223079668
 40
0.1531705339
 40
0.1841437491
 40
0.2152235659
 40
0.2464047318
 40
0.2776808598
 40
0.3090445088
 40
0.3404872749
 40
0.3719998904
 40
0.4035723298
 40
0.4351939227
 40
0.4668534717
 40
0.4985393744
 40
0.5302397476
 40
0.5619425546
 40
0.5936357329
 40
0.6253073223
 40
0.6569455919
 40
0.6885391663
 40
0.7200771482
 40
0.751549238
 40
0.7829458497
 40
0.8142582166
 40
0.8454785065
 40
0.8765998675
 40
0.9076166726
 40
0.9385241283
 40
0.9693195084
 40
1.0
 40
1.0
 40
1.0
 40
1.0
 10
10.9750279325
 20
8.4520854057
 30
0.0
 10
10.9669426814
 20
8.4512996503
 30
0.0
 10
10.9506948675
 20
8.4501731676
 30
0.0
 10
10.9262242762
 20
8.4498209062
 30
0.0
 10
10.9016783411
 20
8.4508035381
 30
0.0
 10
10.8771302336
 20
8.4531181966
 30
0.0
 10
10.8526518776
 20
8.4567579571
 30
0.0
 10
10.8283153134
 20
8.4617120429
 30
0.0
 10
10.8041920634
 20
8.4679658095
 30
0.0
 10
10.7803530379
 20
8.4755008022
 30
0.0
 10
10.7568682972
 20
8.4842948077
 30
0.0
 10
10.7338068563
 20
8.4943219208
 30
0.0
 10
10.7112364813
 20
8.5055526208
 30
0.0
 10
10.6892234925
 20
8.5179538585
 30
0.0
 10
10.6678325714
 20
8.5314891532
 30
0.0
 10
10.647126569
 20
8.5461186962
 30
0.0
 10
10.6271663228
 20
8.5617994686
 30
0.0
 10
10.6080104807
 20
8.5784853705
 30
0.0
 10
10.5897153295
 20
8.5961273552
 30
0.0
 10
10.5723346312
 20
8.6146735729
 30
0.0
 10
10.5559194653
 20
8.6340695217
 30
0.0
 10
10.5405180803
 20
8.6542582072
 30
0.0
 10
10.5261757524
 20
8.6751803086
 30
0.0
 10
10.5129346526
 20
8.6967743517
 30
0.0
 10
10.5008337251
 20
8.7189768887
 30
0.0
 10
10.4899085657
 20
8.741722681
 30
0.0
 10
10.4801913239
 20
8.7649448912
 30
0.0
 10
10.4717106022
 20
8.788575282
 30
0.0
 10
10.4644913936
 20
8.8125444026
 30
0.0
 10
10.4585549506
 20
8.8367818403
 30
0.0
 10
10.4539188553
 20
8.8612162465
 30
0.0
 10
10.4505967003
 20
8.8857761445
 30
0.0
 10
10.4485984856
 20
8.9103882578
 30
0.0
 10
10.448152013
 20
8.9268160324
 30
0.0
 10
10.448152013
 20
8.9350128717
 30
0.0
  0
SPLINE
  5
3FC
100
AcDbEntity
  8
0
100
AcDbSpline
 62
7
  6
CONTINUOUS
 70
0
 71
3
 72
39
 73
35
 74
0
 42
0.0000001
 43
0.0000001
 44
0.0000000001
 40
0.0
 40
0.0
 40
0.0
 40
0.0
 40
0.0304386953
 40
0.060990376
 40
0.0916557404
 40
0.1224341825
 40
0.1533238134
 40
0.1843214965
 40
0.2154228948
 40
0.2466225309
 40
0.2779138567
 40
0.3092893338
 40
0.340740522
 40
0.3722581772
 40
0.4038323537
 40
0.4354525129
 40
0.4671076354
 40
0.4987863379
 40
0.5304769913
 40
0.5621678425
 40
0.5938471363
 40
0.625503238
 40
0.6571247542
 40
0.6887006516
 40
0.7202203731
 40
0.7516739512
 40
0.783052116
 40
0.8143463975
 40
0.8455492341
 40
0.8766540093
 40
0.9076553261
 40
0.938548466
 40
0.9693310448
 40
1.0
 40
1.0
 40
1.0
 40
1.0
 10
10.9723960333
 20
8.4909374329
 30
0.0
 10
10.9648969536
 20
8.4903730759
 30
0.0
 10
10.9498370117
 20
8.4896514938
 30
0.0
 10
10.9271822866
 20
8.4897900932
 30
0.0
 10
10.9044831433
 20
8.4911469002
 30
0.0
 10
10.8818055826
 20
8.4937180221
 30
0.0
 10
10.859214416
 20
8.4974959856
 30
0.0
 10
10.8367744969
 20
8.5024698898
 30
0.0
 10
10.8145501554
 20
8.5086254041
 30
0.0
 10
10.7926051184
 20
8.5159448193
 30
0.0
 10
10.7710023007
 20
8.5244070964
 30
0.0
 10
10.7498036342
 20
8.5339879275
 30
0.0
 10
10.7290698836
 20
8.5446597941
 30
0.0
 10
10.7088604779
 20
8.5563920594
 30
0.0
 10
10.6892333419
 20
8.569151055
 30
0.0
 10
10.6702447315
 20
8.5829001776
 30
0.0
 10
10.6519490738
 20
8.5975999935
 30
0.0
 10
10.6343988125
 20
8.6132083501
 30
0.0
 10
10.6176442599
 20
8.6296804974
 30
0.0
 10
10.6017334486
 20
8.6469692108
 30
0.0
 10
10.5867119903
 20
8.6650249232
 30
0.0
 10
10.572622954
 20
8.6837958752
 30
0.0
 10
10.5595067417
 20
8.7032282609
 30
0.0
 10
10.5474009739
 20
8.7232663809
 30
0.0
 10
10.5363403827
 20
8.7438528008
 30
0.0
 10
10.5263567116
 20
8.764928514
 30
0.0
 10
10.5174786285
 20
8.7864331097
 30
0.0
 10
10.5097316256
 20
8.8083049434
 30
0.0
 10
10.503137972
 20
8.8304813028
 30
0.0
 10
10.497716594
 20
8.8528986406
 30
0.0
 10
10.493483172
 20
8.8754925666
 30
0.0
 10
10.4904497745
 20
8.8981986429
 30
0.0
 10
10.4886253648
 20
8.9209507401
 30
0.0
 10
10.4882177488
 20
8.9361362287
 30
0.0
 10
10.4882177488
 20
8.943713403
 30
0.0
  0
SPLINE
  5
3FD
100
AcDbEntity
  8
0
100
AcDbSpline
 62
7
  6
CONTINUOUS
 70
0
 71
3
 72
26
 73
22
 74
0
 42
0.0000001
 43
0.0000001
 44
0.0000000001
 40
0.0
 40
0.0
 40
0.0
 40
0.0
 40
0.030737208
 40
0.0615642308
 40
0.0924784836
 40
0.1234767228
 40
0.1545550843
 40
0.1857091108
 40
0.2482097526
 40
0.3109465674
 40
0.3738666597
 40
0.4369119114
 40
0.5000206518
 40
0.5631294219
 40
0.6261747629
 40
0.6890950011
 40
0.7518320138
 40
0.814332901
 40
0.8765515755
 40
0.938450159
 40
1.0
 40
1.0
 40
1.0
 40
1.0
 10
10.9592399511
 20
8.5641496007
 30
0.0
 10
10.9530039536
 20
8.5649629705
 30
0.0
 10
10.9405476375
 20
8.5668651172
 30
0.0
 10
10.9219792897
 20
8.5705304296
 30
0.0
 10
10.9035338937
 20
8.5750051403
 30
0.0
 10
10.8852480049
 20
8.5802803304
 30
0.0
 10
10.8671567855
 20
8.5863458954
 30
0.0
 10
10.8433201605
 20
8.5954794771
 30
0.0
 10
10.8141887716
 20
8.6088155453
 30
0.0
 10
10.7806104242
 20
8.6277328689
 30
0.0
 10
10.7486263567
 20
8.6494370433
 30
0.0
 10
10.718487227
 20
8.673758295
 30
0.0
 10
10.6904270064
 20
8.7005071891
 30
0.0
 10
10.6646643361
 20
8.7294755085
 30
0.0
 10
10.6413996844
 20
8.7604376939
 30
0.0
 10
10.6208144133
 20
8.793152848
 30
0.0
 10
10.6030690085
 20
8.82736645
 30
0.0
 10
10.5883020448
 20
8.8628119915
 30
0.0
 10
10.5766290107
 20
8.8992146458
 30
0.0
 10
10.5681417212
 20
8.9362871224
 30
0.0
 10
10.5646409064
 20
8.9613386914
 30
0.0
 10
10.5634448537
 20
8.9738748324
 30
0.0
  0
SPLINE
  5
3FE
100
AcDbEntity
  8
0
100
AcDbSpline
 62
7
  6
CONTINUOUS
 70
0
 71
3
 72
23
 73
19
 74
0
 42
0.0000001
 43
0.0000001
 44
0.0000000001
 40
0.0
 40
0.0
 40
0.0
 40
0.0
 40
0.0617101446
 40
0.123441395
 40
0.1852146431
 40
0.247050352
 40
0.3089683478
 40
0.3709876199
 40
0.4331261339
 40
0.495400661
 40
0.5578266111
 40
0.6204179017
 40
0.6831868168
 40
0.746143859
 40
0.8092980008
 40
0.8726552579
 40
0.9362226181
 40
1.0
 40
1.0
 40
1.0
 40
1.0
 10
10.0797978453
 20
8.8614873255
 30
0.0
 10
10.0739995573
 20
8.855886628
 30
0.0
 10
10.0626871707
 20
8.8443826195
 30
0.0
 10
10.0466254241
 20
8.8262736448
 30
0.0
 10
10.0315043676
 20
8.8073502814
 30
0.0
 10
10.0173594614
 20
8.7876567804
 30
0.0
 10
10.004223162
 20
8.7672384107
 30
0.0
 10
9.9921257858
 20
8.7461423234
 30
0.0
 10
9.9810951755
 20
8.7244171833
 30
0.0
 10
9.9711567299
 20
8.7021131107
 30
0.0
 10
9.9623333207
 20
8.6792815494
 30
0.0
 10
9.9546452492
 20
8.6559751512
 30
0.0
 10
9.9481102101
 20
8.632247664
 30
0.0
 10
9.9427431791
 20
8.6081537634
 30
0.0
 10
9.9385565399
 20
8.5837491196
 30
0.0
 10
9.9355597183
 20
8.5590896096
 30
0.0
 10
9.9337598027
 20
8.5342330218
 30
0.0
 10
9.933361034
 20
8.5175945051
 30
0.0
 10
9.933361034
 20
8.5092629405
 30
0.0
  0
SPLINE
  5
3FF
100
AcDbEntity
  8
0
100
AcDbSpline
 62
7
  6
CONTINUOUS
 70
0
 71
3
 72
15
 73
11
 74
0
 42
0.0000001
 43
0.0000001
 44
0.0000000001
 40
0.0
 40
0.0
 40
0.0
 40
0.0
 40
0.123452905
 40
0.2472503442
 40
0.3714511193
 40
0.496106626
 40
0.6212598506
 40
0.7469452697
 40
0.8731864187
 40
1.0
 40
1.0
 40
1.0
 40
1.0
 10
10.1779558895
 20
8.9339560629
 30
0.0
 10
10.1722627022
 20
8.9244873538
 30
0.0
 10
10.1615170637
 20
8.9051198425
 30
0.0
 10
10.1474268088
 20
8.874982782
 30
0.0
 10
10.135401283
 20
8.8438471133
 30
0.0
 10
10.1254929066
 20
8.8118481333
 30
0.0
 10
10.1177435652
 20
8.7791226409
 30
0.0
 10
10.1121863477
 20
8.7458105576
 30
0.0
 10
10.1088446527
 20
8.7120563527
 30
0.0
 10
10.1081049957
 20
8.6894018979
 30
0.0
 10
10.1081049957
 20
8.6780526561
 30
0.0
  0
SPLINE
  5
400
100
AcDbEntity
  8
0
100
AcDbSpline
 62
7
  6
CONTINUOUS
 70
0
 71
3
 72
15
 73
11
 74
0
 42
0.0000001
 43
0.0000001
 44
0.0000000001
 40
0.0
 40
0.0
 40
0.0
 40
0.0
 40
0.1233848683
 40
0.2470900919
 40
0.371199943
 40
0.4957889237
 40
0.6209200853
 40
0.7466439193
 40
0.8729957496
 40
1.0
 40
1.0
 40
1.0
 40
1.0
 10
10.2218148752
 20
8.9555137018
 30
0.0
 10
10.2148322871
 20
8.9457260787
 30
0.0
 10
10.2016248197
 20
8.9255585794
 30
0.0
 10
10.1842510631
 20
8.893792338
 30
0.0
 10
10.1693841194
 20
8.8606476676
 30
0.0
 10
10.1571082976
 20
8.8263119843
 30
0.0
 10
10.1474911724
 20
8.7909763584
 30
0.0
 10
10.1405860456
 20
8.7548373923
 30
0.0
 10
10.1364307034
 20
8.7180990166
 30
0.0
 10
10.1355112713
 20
8.6934008381
 30
0.0
 10
10.1355112713
 20
8.6810250871
 30
0.0
  0
SPLINE
  5
401
100
AcDbEntity
  8
0
100
AcDbSpline
 62
7
  6
CONTINUOUS
 70
0
 71
3
 72
15
 73
11
 74
0
 42
0.0000001
 43
0.0000001
 44
0.0000000001
 40
0.0
 40
0.0
 40
0.0
 40
0.0
 40
0.1234461847
 40
0.247235949
 40
0.3714297879
 40
0.4960806216
 40
0.6212327336
 40
0.7469216607
 40
0.8731716978
 40
1.0
 40
1.0
 40
1.0
 40
1.0
 10
10.2393396964
 20
8.9624738127
 30
0.0
 10
10.2337871399
 20
8.9533574617
 30
0.0
 10
10.2233053783
 20
8.9347015266
 30
0.0
 10
10.2095581912
 20
8.905648029
 30
0.0
 10
10.19782334
 20
8.8756117294
 30
0.0
 10
10.1881530458
 20
8.844725844
 30
0.0
 10
10.1805890297
 20
8.8131251503
 30
0.0
 10
10.1751642565
 20
8.7809475547
 30
0.0
 10
10.1719020378
 20
8.7483354971
 30
0.0
 10
10.1711799917
 20
8.7264450831
 30
0.0
 10
10.1711799917
 20
8.7154784273
 30
0.0
  0
SPLINE
  5
402
100
AcDbEntity
  8
0
100
AcDbSpline
 62
7
  6
CONTINUOUS
 70
0
 71
3
 72
19
 73
15
 74
0
 42
0.0000001
 43
0.0000001
 44
0.0000000001
 40
0.0
 40
0.0
 40
0.0
 40
0.0
 40
0.061661567
 40
0.1233854602
 40
0.1851846936
 40
0.2470717698
 40
0.3090586047
 40
0.371156424
 40
0.4333757071
 40
0.4957261365
 40
0.6208285247
 40
0.7465492964
 40
0.8729303216
 40
1.0
 40
1.0
 40
1.0
 40
1.0
 10
10.3170253642
 20
8.9850858741
 30
0.0
 10
10.3135177436
 20
8.9805252707
 30
0.0
 10
10.3066904388
 20
8.9712503333
 30
0.0
 10
10.2970386432
 20
8.9569123768
 30
0.0
 10
10.2879856993
 20
8.9421639353
 30
0.0
 10
10.2795458423
 20
8.927028315
 30
0.0
 10
10.2717321744
 20
8.9115289004
 30
0.0
 10
10.2645568696
 20
8.8956899149
 30
0.0
 10
10.258030913
 20
8.8795356454
 30
0.0
 10
10.2502013521
 20
8.8575887467
 30
0.0
 10
10.2420883177
 20
8.8294792042
 30
0.0
 10
10.2351033412
 20
8.7949446012
 30
0.0
 10
10.2308980493
 20
8.7597793045
 30
0.0
 10
10.229967738
 20
8.7361195685
 30
0.0
 10
10.229967738
 20
8.7242630331
 30
0.0
  0
SPLINE
  5
403
100
AcDbEntity
  8
0
100
AcDbSpline
 62
7
  6
CONTINUOUS
 70
0
 71
3
 72
23
 73
19
 74
0
 42
0.0000001
 43
0.0000001
 44
0.0000000001
 40
0.0
 40
0.0
 40
0.0
 40
0.0
 40
0.0618461817
 40
0.1239408508
 40
0.1862579015
 40
0.2487669927
 40
0.3114341615
 40
0.3742224877
 40
0.4370927995
 40
0.5000044091
 40
0.5629158669
 40
0.6257857262
 40
0.6885733076
 40
0.7512394533
 40
0.8137472622
 40
0.8760627944
 40
0.9381557443
 40
1.0
 40
1.0
 40
1.0
 40
1.0
 10
10.9230717841
 20
8.6658194244
 30
0.0
 10
10.9152712151
 20
8.6679141165
 30
0.0
 10
10.8997793159
 20
8.6726564574
 30
0.0
 10
10.8770469524
 20
8.6813632959
 30
0.0
 10
10.8548811484
 20
8.6916354833
 30
0.0
 10
10.833396329
 20
8.7034201225
 30
0.0
 10
10.8127015537
 20
8.7166571486
 30
0.0
 10
10.7929023576
 20
8.7312789824
 30
0.0
 10
10.7740995791
 20
8.7472110546
 30
0.0
 10
10.7563890253
 20
8.7643721354
 30
0.0
 10
10.7398609422
 20
8.7826747575
 30
0.0
 10
10.7245995718
 20
8.8020256569
 30
0.0
 10
10.7106827261
 20
8.8223262321
 30
0.0
 10
10.6981813835
 20
8.8434730875
 30
0.0
 10
10.6871593722
 20
8.8653583801
 30
0.0
 10
10.6776728859
 20
8.8878710102
 30
0.0
 10
10.6697707727
 20
8.9108947637
 30
0.0
 10
10.6655761384
 20
8.9265433548
 30
0.0
 10
10.6637570654
 20
8.9344125048
 30
0.0
  0
SPLINE
  5
404
100
AcDbEntity
  8
0
100
AcDbSpline
 62
7
  6
CONTINUOUS
 70
0
 71
3
 72
71
 73
67
 74
0
 42
0.0000001
 43
0.0000001
 44
0.0000000001
 40
0.0
 40
0.0
 40
0.0
 40
0.0
 40
0.0156373577
 40
0.0313279192
 40
0.0470702807
 40
0.0628636384
 40
0.078706081
 40
0.0945954868
 40
0.1105292294
 40
0.126504295
 40
0.1425172947
 40
0.1585644994
 40
0.1746418761
 40
0.1907451247
 40
0.2068697165
 40
0.2230109355
 40
0.2391639201
 40
0.2553237067
 40
0.2714852727
 40
0.2876435799
 40
0.3037936182
 40
0.3199304494
 40
0.3360492501
 40
0.3521453555
 40
0.3682143001
 40
0.3842518582
 40
0.4002540821
 40
0.4162173391
 40
0.4321383462
 40
0.4480142037
 40
0.4638424237
 40
0.4796209569
 40
0.4953482152
 40
0.5110230908
 40
0.5266449715
 40
0.5422137522
 40
0.5577298411
 40
0.5731941609
 40
0.5886081443
 40
0.6039737248
 40
0.6192933223
 40
0.6345698234
 40
0.6498065565
 40
0.6650072604
 40
0.6801760489
 40
0.6953173696
 40
0.7104359596
 40
0.7255367963
 40
0.7406250462
 40
0.7557060103
 40
0.7707850676
 40
0.7858676174
 40
0.8009590215
 40
0.8160645472
 40
0.8311893106
 40
0.8463382241
 40
0.8615159445
 40
0.8767268263
 40
0.8919748766
 40
0.9072637173
 40
0.9225965516
 40
0.9379761169
 40
0.9534047513
 40
0.968884057
 40
0.9844157643
 40
1.0
 40
1.0
 40
1.0
 40
1.0
 10
10.9796579065
 20
8.4308284817
 30
0.0
 10
10.9796579065
 20
8.4395204649
 30
0.0
 10
10.9792296386
 20
8.4569369641
 30
0.0
 10
10.9773118165
 20
8.4830402795
 30
0.0
 10
10.9741219556
 20
8.5091067605
 30
0.0
 10
10.9696680171
 20
8.5350726189
 30
0.0
 10
10.9639606229
 20
8.5608757167
 30
0.0
 10
10.9570136413
 20
8.5864538058
 30
0.0
 10
10.9488438022
 20
8.6117453441
 30
0.0
 10
10.9394708293
 20
8.6366894412
 30
0.0
 10
10.9289173321
 20
8.6612260608
 30
0.0
 10
10.9172087525
 20
8.6852961468
 30
0.0
 10
10.9043733051
 20
8.7088417676
 30
0.0
 10
10.8904419086
 20
8.7318062536
 30
0.0
 10
10.8754481112
 20
8.7541343305
 30
0.0
 10
10.8594280159
 20
8.7757722552
 30
0.0
 10
10.8424202051
 20
8.7966679545
 30
0.0
 10
10.8244656291
 20
8.8167711382
 30
0.0
 10
10.8056075106
 20
8.8360334195
 30
0.0
 10
10.785891241
 20
8.8544084307
 30
0.0
 10
10.7653642729
 20
8.8718519336
 30
0.0
 10
10.7440760056
 20
8.8883219228
 30
0.0
 10
10.7220776799
 20
8.9037787455
 30
0.0
 10
10.6994222445
 20
8.9181851846
 30
0.0
 10
10.6761642255
 20
8.9315065438
 30
0.0
 10
10.6523595981
 20
8.9437107304
 30
0.0
 10
10.6280656534
 20
8.9547683331
 30
0.0
 10
10.6033408606
 20
8.9646526892
 30
0.0
 10
10.5782447328
 20
8.9733399613
 30
0.0
 10
10.552837684
 20
8.9808092011
 30
0.0
 10
10.5271808777
 20
8.9870423821
 30
0.0
 10
10.5013360827
 20
8.9920244461
 30
0.0
 10
10.4753655265
 20
8.9957433394
 30
0.0
 10
10.4493317468
 20
8.9981900423
 30
0.0
 10
10.4232974424
 20
8.999358592
 30
0.0
 10
10.3973253234
 20
8.9992461211
 30
0.0
 10
10.3714779569
 20
8.9978528429
 30
0.0
 10
10.3458176187
 20
8.9951820522
 30
0.0
 10
10.3204061444
 20
8.9912401182
 30
0.0
 10
10.2953047809
 20
8.9860364726
 30
0.0
 10
10.2705740405
 20
8.9795835839
 30
0.0
 10
10.2462735494
 20
8.9718969494
 30
0.0
 10
10.2224619018
 20
8.9629950529
 30
0.0
 10
10.199196522
 20
8.9528993081
 30
0.0
 10
10.1765335246
 20
8.9416340118
 30
0.0
 10
10.1545275789
 20
8.9292262865
 30
0.0
 10
10.1332317765
 20
8.9157060142
 30
0.0
 10
10.1126974991
 20
8.9011057715
 30
0.0
 10
10.0929742805
 20
8.8854607634
 30
0.0
 10
10.0741096987
 20
8.8688087171
 30
0.0
 10
10.0561492587
 20
8.8511897936
 30
0.0
 10
10.0391362819
 20
8.8326464895
 30
0.0
 10
10.0231118006
 20
8.8132235345
 30
0.0
 10
10.0081144609
 20
8.7929677807
 30
0.0
 10
9.9941804089
 20
8.7719281023
 30
0.0
 10
9.9813432154
 20
8.7501552636
 30
0.0
 10
9.9696338
 20
8.7277017913
 30
0.0
 10
9.9590803574
 20
8.7046218474
 30
0.0
 10
9.9497082892
 20
8.6809710987
 30
0.0
 10
9.9415401453
 20
8.6568065778
 30
0.0
 10
9.9345955725
 20
8.6321865628
 30
0.0
 10
9.9288912064
 20
8.6071703802
 30
0.0
 10
9.9244408097
 20
8.581818457
 30
0.0
 10
9.9212548836
 20
8.5561915205
 30
0.0
 10
9.9193412669
 20
8.5303523298
 30
0.0
 10
9.9189173375
 20
8.5130535454
 30
0.0
 10
9.9189173375
 20
8.50439109
 30
0.0
  0
SPLINE
  5
405
100
AcDbEntity
  8
0
100
AcDbSpline
 62
7
  6
CONTINUOUS
 70
0
 71
3
 72
42
 73
38
 74
0
 42
0.0000001
 43
0.0000001
 44
0.0000000001
 40
0.0
 40
0.0
 40
0.0
 40
0.0
 40
0.0301389766
 40
0.0603182069
 40
0.0905777403
 40
0.1209535579
 40
0.151477026
 40
0.1821737019
 40
0.2130623955
 40
0.2441545855
 40
0.2754541243
 40
0.3069572448
 40
0.338652843
 40
0.3705230045
 40
0.4025437415
 40
0.4346859048
 40
0.4669162344
 40
0.4991985138
 40
0.5314947952
 40
0.5637666657
 40
0.5959765241
 40
0.6280888387
 40
0.6600713565
 40
0.6918962317
 40
0.7235410425
 40
0.7549896589
 40
0.7862329271
 40
0.8172691338
 40
0.8327157791
 40
0.8481135174
 40
0.8634642921
 40
0.8787704695
 40
0.909251003
 40
0.9395920138
 40
0.9547247117
 40
0.9698356192
 40
1.0
 40
1.0
 40
1.0
 40
1.0
 10
10.2288006053
 20
7.7493877066
 30
0.0
 10
10.2267826228
 20
7.7474385249
 30
0.0
 10
10.2225397738
 20
7.7437428038
 30
0.0
 10
10.2156353253
 20
7.738878373
 30
0.0
 10
10.2082500417
 20
7.7347337395
 30
0.0
 10
10.2004530713
 20
7.7313478182
 30
0.0
 10
10.192316304
 20
7.7287514502
 30
0.0
 10
10.1839149869
 20
7.7269683836
 30
0.0
 10
10.1753266394
 20
7.7260147456
 30
0.0
 10
10.1666304329
 20
7.7258990111
 30
0.0
 10
10.1579064313
 20
7.7266219327
 30
0.0
 10
10.1492348705
 20
7.7281765653
 30
0.0
 10
10.140695431
 20
7.7305483499
 30
0.0
 10
10.1323665225
 20
7.7337152623
 30
0.0
 10
10.1243245817
 20
7.7376480247
 30
0.0
 10
10.1166433837
 20
7.7423103747
 30
0.0
 10
10.109393383
 20
7.7476594033
 30
0.0
 10
10.1026410805
 20
7.7536459456
 30
0.0
 10
10.0964484262
 20
7.7602150271
 30
0.0
 10
10.0908722609
 20
7.7673063598
 30
0.0
 10
10.0859638037
 20
7.774854886
 30
0.0
 10
10.0817681888
 20
7.7827913651
 30
0.0
 10
10.0783240548
 20
7.7910429912
 30
0.0
 10
10.0756631954
 20
7.7995340639
 30
0.0
 10
10.0738102523
 20
7.8081866021
 30
0.0
 10
10.072782526
 20
7.8169212823
 30
0.0
 10
10.0725896315
 20
7.8256572663
 30
0.0
 10
10.0731275533
 20
7.8328851979
 30
0.0
 10
10.0739750447
 20
7.8385848978
 30
0.0
 10
10.0748159691
 20
7.8428040049
 30
0.0
 10
10.0758611392
 20
7.8469637498
 30
0.0
 10
10.0775212572
 20
7.8524095637
 30
0.0
 10
10.0800937907
 20
7.859026512
 30
0.0
 10
10.0833139671
 20
7.8653356896
 30
0.0
 10
10.0862553365
 20
7.8701503779
 30
0.0
 10
10.0894290574
 20
7.8747946447
 30
0.0
 10
10.0920732678
 20
7.8780891643
 30
0.0
 10
10.0939412056
 20
7.880185744
 30
0.0
  0
SPLINE
  5
406
100
AcDbEntity
  8
0
100
AcDbSpline
 62
7
  6
CONTINUOUS
 70
0
 71
3
 72
37
 73
33
 74
0
 42
0.0000001
 43
0.0000001
 44
0.0000000001
 40
0.0
 40
0.0
 40
0.0
 40
0.0
 40
0.0302330015
 40
0.0605954608
 40
0.0910991902
 40
0.1217528268
 40
0.152561687
 40
0.1835276937
 40
0.214649383
 40
0.2459219801
 40
0.2773375551
 40
0.3088852369
 40
0.3405514681
 40
0.3723203039
 40
0.4041737488
 40
0.4360921328
 40
0.5000015683
 40
0.563910939
 40
0.5958292302
 40
0.6276825382
 40
0.6594512067
 40
0.6911172516
 40
0.7226647279
 40
0.7540800701
 40
0.7853524073
 40
0.8164738242
 40
0.8474395622
 40
0.878248163
 40
0.9089015455
 40
0.9394050193
 40
0.9697672483
 40
1.0
 40
1.0
 40
1.0
 40
1.0
 10
10.2480440493
 20
7.7781073318
 30
0.0
 10
10.2459997263
 20
7.7773693931
 30
0.0
 10
10.2418435547
 20
7.776047824
 30
0.0
 10
10.2354633313
 20
7.7745439506
 30
0.0
 10
10.2289574988
 20
7.7735219651
 30
0.0
 10
10.2223616115
 20
7.7729874738
 30
0.0
 10
10.215711083
 20
7.7729432206
 30
0.0
 10
10.2090417654
 20
7.7733893799
 30
0.0
 10
10.2023895534
 20
7.7743234817
 30
0.0
 10
10.1957902485
 20
7.775740427
 30
0.0
 10
10.1892793444
 20
7.7776325103
 30
0.0
 10
10.1828918554
 20
7.7799894845
 30
0.0
 10
10.1766621002
 20
7.7827986411
 30
0.0
 10
10.1706236401
 20
7.7860447665
 30
0.0
 10
10.1648086627
 20
7.7897106477
 30
0.0
 10
10.1573943016
 20
7.7951320237
 30
0.0
 10
10.1488418337
 20
7.802852525
 30
0.0
 10
10.1414233682
 20
7.8116682568
 30
0.0
 10
10.1362631162
 20
7.8192666439
 30
0.0
 10
10.1328016786
 20
7.825205558
 30
0.0
 10
10.1297674989
 20
7.8313532075
 30
0.0
 10
10.1271766726
 20
7.8376768364
 30
0.0
 10
10.1250432518
 20
7.84414238
 30
0.0
 10
10.1233787601
 20
7.8507150999
 30
0.0
 10
10.1221922038
 20
7.857359639
 30
0.0
 10
10.1214900256
 20
7.8640402555
 30
0.0
 10
10.121276076
 20
7.8707209973
 30
0.0
 10
10.1215515928
 20
7.8773659079
 30
0.0
 10
10.1223151758
 20
7.8839391587
 30
0.0
 10
10.1235628406
 20
7.8904054526
 30
0.0
 10
10.1252877528
 20
7.8967294421
 30
0.0
 10
10.1267530392
 20
7.9008371119
 30
0.0
 10
10.1275616571
 20
7.9028545036
 30
0.0
  0
SPLINE
  5
407
100
AcDbEntity
  8
0
100
AcDbSpline
 62
7
  6
CONTINUOUS
 70
0
 71
3
 72
39
 73
35
 74
0
 42
0.0000001
 43
0.0000001
 44
0.0000000001
 40
0.0
 40
0.0
 40
0.0
 40
0.0
 40
0.0301648217
 40
0.0604478025
 40
0.0908679199
 40
0.1214404586
 40
0.1521765494
 40
0.1830829619
 40
0.2141619953
 40
0.245411499
 40
0.2768249987
 40
0.3083919231
 40
0.3400979214
 40
0.3719252596
 40
0.4038532879
 40
0.4358589691
 40
0.4679174406
 40
0.5000026042
 40
0.5320877366
 40
0.5641461099
 40
0.5961516175
 40
0.6280793959
 40
0.6599064186
 40
0.691612054
 40
0.7231785827
 40
0.7545916591
 40
0.7858407113
 40
0.8169192706
 40
0.8478252027
 40
0.8785608244
 40
0.9091329366
 40
0.9395526615
 40
0.9698352754
 40
1.0
 40
1.0
 40
1.0
 40
1.0
 10
10.2536100806
 20
7.7999586294
 30
0.0
 10
10.2518535667
 20
7.7990790198
 30
0.0
 10
10.2482565626
 20
7.7974658146
 30
0.0
 10
10.2426654796
 20
7.7955069055
 30
0.0
 10
10.2369039194
 20
7.794016472
 30
0.0
 10
10.2310096929
 20
7.7930042947
 30
0.0
 10
10.2250207881
 20
7.7924767595
 30
0.0
 10
10.2189759583
 20
7.7924371879
 30
0.0
 10
10.2129142431
 20
7.792885713
 30
0.0
 10
10.2068747769
 20
7.7938193339
 30
0.0
 10
10.2008965242
 20
7.7952319287
 30
0.0
 10
10.1950180385
 20
7.7971143013
 30
0.0
 10
10.1892772175
 20
7.7994542417
 30
0.0
 10
10.1837110656
 20
7.8022366071
 30
0.0
 10
10.1783554472
 20
7.8054433992
 30
0.0
 10
10.1732448658
 20
7.8090539008
 30
0.0
 10
10.1684122468
 20
7.8130448101
 30
0.0
 10
10.1638887293
 20
7.8173903888
 30
0.0
 10
10.1597034693
 20
7.8220626244
 30
0.0
 10
10.1558834573
 20
7.8270314101
 30
0.0
 10
10.152453334
 20
7.8322647262
 30
0.0
 10
10.1494352293
 20
7.8377288462
 30
0.0
 10
10.146848635
 20
7.8433885617
 30
0.0
 10
10.1447102776
 20
7.8492074022
 30
0.0
 10
10.1430340117
 20
7.8551478657
 30
0.0
 10
10.1418307308
 20
7.8611716548
 30
0.0
 10
10.1411082932
 20
7.8672399181
 30
0.0
 10
10.1408714467
 20
7.873313497
 30
0.0
 10
10.1411218161
 20
7.8793531764
 30
0.0
 10
10.1418578917
 20
7.8853199499
 30
0.0
 10
10.1430750085
 20
7.8911752075
 30
0.0
 10
10.14476548
 20
7.8968811993
 30
0.0
 10
10.1469181909
 20
7.9024005067
 30
0.0
 10
10.1486559547
 20
7.9059389803
 30
0.0
 10
10.1495962795
 20
7.9076637465
 30
0.0
  0
SPLINE
  5
408
100
AcDbEntity
  8
0
100
AcDbSpline
 62
7
  6
CONTINUOUS
 70
0
 71
3
 72
56
 73
52
 74
0
 42
0.0000001
 43
0.0000001
 44
0.0000000001
 40
0.0
 40
0.0
 40
0.0
 40
0.0
 40
0.0081222938
 40
0.0169170801
 40
0.0264091382
 40
0.0366148289
 40
0.0475421808
 40
0.0591919764
 40
0.0715595473
 40
0.0846358918
 40
0.0984078501
 40
0.1128591724
 40
0.1279704231
 40
0.1437198166
 40
0.1600830866
 40
0.177033978
 40
0.2125829701
 40
0.2501235391
 40
0.2893881851
 40
0.3300908459
 40
0.3719305622
 40
0.4145949051
 40
0.4577632762
 40
0.5011101389
 40
0.544308216
 40
0.5870316771
 40
0.628959336
 40
0.6697778856
 40
0.7091851907
 40
0.7468936997
 40
0.7826340729
 40
0.7996887672
 40
0.8161607846
 40
0.8320235453
 40
0.8472524452
 40
0.8618251195
 40
0.8757218495
 40
0.8889255774
 40
0.9014227661
 40
0.9132033723
 40
0.9242620665
 40
0.9345986136
 40
0.9442193836
 40
0.9531387147
 40
0.961380935
 40
0.9689832297
 40
0.9759985973
 40
0.9825000153
 40
0.9885833932
 40
0.9943693215
 40
1.0
 40
1.0
 40
1.0
 40
1.0
 10
11.4644212132
 20
9.6020415878
 30
0.0
 10
11.4649890472
 20
9.6025900733
 30
0.0
 10
11.4662253035
 20
9.60367769
 30
0.0
 10
11.4682773624
 20
9.605223025
 30
0.0
 10
11.4705948151
 20
9.606742485
 30
0.0
 10
11.4731729194
 20
9.6082331715
 30
0.0
 10
11.4760068541
 20
9.60969238
 30
0.0
 10
11.4790911179
 20
9.6111172379
 30
0.0
 10
11.4824196416
 20
9.6125049467
 30
0.0
 10
11.4859858437
 20
9.6138526791
 30
0.0
 10
11.4897826156
 20
9.6151577787
 30
0.0
 10
11.4938023758
 20
9.6164175291
 30
0.0
 10
11.4980370522
 20
9.6176294334
 30
0.0
 10
11.5024781346
 20
9.6187909711
 30
0.0
 10
11.5071166852
 20
9.6198998315
 30
0.0
 10
11.5136563898
 20
9.6213276649
 30
0.0
 10
11.5222574893
 20
9.6229553436
 30
0.0
 10
11.5330496262
 20
9.6246366851
 30
0.0
 10
11.5443835194
 20
9.6260618316
 30
0.0
 10
11.5561676649
 20
9.6272190624
 30
0.0
 10
11.5683070067
 20
9.6280988185
 30
0.0
 10
11.5807035034
 20
9.6286938562
 30
0.0
 10
11.5932570108
 20
9.6289992761
 30
0.0
 10
11.6058660902
 20
9.6290125651
 30
0.0
 10
11.6184288471
 20
9.6287336135
 30
0.0
 10
11.6308437655
 20
9.6281647155
 30
0.0
 10
11.6430105486
 20
9.627310554
 30
0.0
 10
11.6548309289
 20
9.6261781629
 30
0.0
 10
11.6662095506
 20
9.6247768954
 30
0.0
 10
11.6770545442
 20
9.6231182786
 30
0.0
 10
11.6857048735
 20
9.6215090523
 30
0.0
 10
11.6922878194
 20
9.6200954291
 30
0.0
 10
11.6969612482
 20
9.6189963861
 30
0.0
 10
11.7014388775
 20
9.6178442442
 30
0.0
 10
11.7057116962
 20
9.6166413204
 30
0.0
 10
11.7097711073
 20
9.6153900539
 30
0.0
 10
11.7136089698
 20
9.6140930243
 30
0.0
 10
11.7172175946
 20
9.6127528077
 30
0.0
 10
11.7205898038
 20
9.6113721809
 30
0.0
 10
11.7237188978
 20
9.6099538443
 30
0.0
 10
11.7265987416
 20
9.6085006811
 30
0.0
 10
11.729223716
 20
9.6070154778
 30
0.0
 10
11.7315887857
 20
9.6055010724
 30
0.0
 10
11.7336894775
 20
9.6039602061
 30
0.0
 10
11.7355218123
 20
9.6023954185
 30
0.0
 10
11.7370823229
 20
9.6008091093
 30
0.0
 10
11.7383676322
 20
9.599203204
 30
0.0
 10
11.7393744128
 20
9.5975796533
 30
0.0
 10
11.7400986076
 20
9.5959402304
 30
0.0
 10
11.7405358688
 20
9.5942888579
 30
0.0
 10
11.740633803
 20
9.5931768849
 30
0.0
 10
11.7406337935
 20
9.5926295908
 30
0.0
  0
SPLINE
  5
409
100
AcDbEntity
  8
0
100
AcDbSpline
 62
7
  6
CONTINUOUS
 70
0
 71
3
 72
15
 73
11
 74
0
 42
0.0000001
 43
0.0000001
 44
0.0000000001
 40
0.0
 40
0.0
 40
0.0
 40
0.0
 40
0.1234038451
 40
0.2471397673
 40
0.3712820909
 40
0.4958962249
 40
0.6210372732
 40
0.746749405
 40
0.8730631466
 40
1.0
 40
1.0
 40
1.0
 40
1.0
 10
10.2011298234
 20
8.9462794317
 30
0.0
 10
10.1946008992
 20
8.9365452322
 30
0.0
 10
10.1822616193
 20
8.9165453119
 30
0.0
 10
10.1660500333
 20
8.8851921685
 30
0.0
 10
10.1521915879
 20
8.8526033572
 30
0.0
 10
10.1407579328
 20
8.8189467833
 30
0.0
 10
10.131806359
 20
8.7843931075
 30
0.0
 10
10.1253821287
 20
8.7491175133
 30
0.0
 10
10.1215172878
 20
8.7133013868
 30
0.0
 10
10.1206620322
 20
8.6892383754
 30
0.0
 10
10.1206620322
 20
8.6771818227
 30
0.0
  0
SPLINE
  5
40A
100
AcDbEntity
  8
0
100
AcDbSpline
 62
7
  6
CONTINUOUS
 70
0
 71
3
 72
26
 73
22
 74
0
 42
0.0000001
 43
0.0000001
 44
0.0000000001
 40
0.0
 40
0.0
 40
0.0
 40
0.0
 40
0.0376165457
 40
0.0758476635
 40
0.1150309279
 40
0.1350955214
 40
0.1555379739
 40
0.1977540525
 40
0.2421408904
 40
0.2892205759
 40
0.3396134125
 40
0.3940770788
 40
0.4535606487
 40
0.5192800108
 40
0.5928101924
 40
0.6761464042
 40
0.771515336
 40
0.824243071
 40
0.8802799596
 40
0.9391659348
 40
1.0
 40
1.0
 40
1.0
 40
1.0
 10
10.3852113864
 20
8.7547443677
 30
0.0
 10
10.3872640566
 20
8.7550439925
 30
0.0
 10
10.3914298749
 20
8.7554774289
 30
0.0
 10
10.3977784435
 20
8.7556161361
 30
0.0
 10
10.4031509657
 20
8.7552979288
 30
0.0
 10
10.4075158947
 20
8.7547796978
 30
0.0
 10
10.4120223349
 20
8.7540638575
 30
0.0
 10
10.4177941853
 20
8.7527958536
 30
0.0
 10
10.4248606595
 20
8.7506718739
 30
0.0
 10
10.4321737198
 20
8.7478742931
 30
0.0
 10
10.4397728326
 20
8.7443286452
 30
0.0
 10
10.4477075706
 20
8.7399353676
 30
0.0
 10
10.4560395396
 20
8.7345603512
 30
0.0
 10
10.4648444422
 20
8.7280217825
 30
0.0
 10
10.4742102047
 20
8.7200741593
 30
0.0
 10
10.4842186443
 20
8.7104004245
 30
0.0
 10
10.4928044728
 20
8.7009439498
 30
0.0
 10
10.4999631907
 20
8.6922540223
 30
0.0
 10
10.5056005723
 20
8.6849238702
 30
0.0
 10
10.511248675
 20
8.6770451281
 30
0.0
 10
10.5149142949
 20
8.6715523302
 30
0.0
 10
10.5167305296
 20
8.6687317095
 30
0.0
  0
SPLINE
  5
40B
100
AcDbEntity
  8
0
100
AcDbSpline
 62
7
  6
CONTINUOUS
 70
0
 71
3
 72
15
 73
11
 74
0
 42
0.0000001
 43
0.0000001
 44
0.0000000001
 40
0.0
 40
0.0
 40
0.0
 40
0.0
 40
0.1136930152
 40
0.22594825
 40
0.3393165029
 40
0.4562795567
 40
0.5790865458
 40
0.7096625831
 40
0.8495734711
 40
1.0
 40
1.0
 40
1.0
 40
1.0
 10
11.4251119798
 20
9.8724199605
 30
0.0
 10
11.4249450097
 20
9.8731013875
 30
0.0
 10
11.4247120372
 20
9.8744825644
 30
0.0
 10
11.4246903621
 20
9.8765846941
 30
0.0
 10
11.4250015667
 20
9.8786843784
 30
0.0
 10
11.425644003
 20
9.8807747127
 30
0.0
 10
11.4266142621
 20
9.8828511519
 30
0.0
 10
11.4279087105
 20
9.8849105661
 30
0.0
 10
11.429523716
 20
9.8869502751
 30
0.0
 10
11.4307645764
 20
9.8882463084
 30
0.0
 10
11.4314322338
 20
9.888891216
 30
0.0
  0
SPLINE
  5
40C
100
AcDbEntity
  8
0
100
AcDbSpline
 62
7
  6
CONTINUOUS
 70
0
 71
3
 72
35
 73
31
 74
0
 42
0.0000001
 43
0.0000001
 44
0.0000000001
 40
0.0
 40
0.0
 40
0.0
 40
0.0
 40
0.0186807989
 40
0.0368993738
 40
0.054861482
 40
0.0727675102
 40
0.090805996
 40
0.1091520072
 40
0.1279633818
 40
0.1473819808
 40
0.1675326518
 40
0.1885268995
 40
0.2104628533
 40
0.2334300527
 40
0.2575091256
 40
0.2827766713
 40
0.3093042953
 40
0.3371628849
 40
0.3664213467
 40
0.3971497239
 40
0.4294177217
 40
0.4632958325
 40
0.4988531995
 40
0.5361562685
 40
0.5752638631
 40
0.6162207884
 40
0.7037235103
 40
0.7982744075
 40
0.8981952608
 40
1.0
 40
1.0
 40
1.0
 40
1.0
 10
10.305516185
 20
8.1589948009
 30
0.0
 10
10.3056504616
 20
8.1596892921
 30
0.0
 10
10.3059907112
 20
8.1610479986
 30
0.0
 10
10.3067221173
 20
8.1629969375
 30
0.0
 10
10.3076579013
 20
8.1648237004
 30
0.0
 10
10.3087902244
 20
8.1665271136
 30
0.0
 10
10.3101117701
 20
8.168106948
 30
0.0
 10
10.3116161601
 20
8.1695630121
 30
0.0
 10
10.3132977385
 20
8.1708955218
 30
0.0
 10
10.3151518784
 20
8.1721045397
 30
0.0
 10
10.3171747264
 20
8.1731902656
 30
0.0
 10
10.3193633753
 20
8.1741524455
 30
0.0
 10
10.3217156093
 20
8.1749908441
 30
0.0
 10
10.3242300302
 20
8.1757045522
 30
0.0
 10
10.326905863
 20
8.1762926503
 30
0.0
 10
10.3297430364
 20
8.1767533947
 30
0.0
 10
10.3327420683
 20
8.1770849882
 30
0.0
 10
10.3359040715
 20
8.1772847145
 30
0.0
 10
10.3392307026
 20
8.1773496782
 30
0.0
 10
10.3427240738
 20
8.1772760585
 30
0.0
 10
10.3463866847
 20
8.1770595964
 30
0.0
 10
10.3502212119
 20
8.1766952445
 30
0.0
 10
10.3542302906
 20
8.1761771995
 30
0.0
 10
10.3584161065
 20
8.1754990986
 30
0.0
 10
10.3627798422
 20
8.1746538392
 30
0.0
 10
10.3689713401
 20
8.1732631654
 30
0.0
 10
10.3771260149
 20
8.171051698
 30
0.0
 10
10.3872669615
 20
8.167694488
 30
0.0
 10
10.3977149728
 20
8.163593821
 30
0.0
 10
10.4046646294
 20
8.1604122461
 30
0.0
 10
10.4081210169
 20
8.1587053954
 30
0.0
  0
SPLINE
  5
40D
100
AcDbEntity
  8
0
100
AcDbSpline
 62
7
  6
CONTINUOUS
 70
0
 71
3
 72
23
 73
19
 74
0
 42
0.0000001
 43
0.0000001
 44
0.0000000001
 40
0.0
 40
0.0
 40
0.0
 40
0.0
 40
0.0616482031
 40
0.1233194344
 40
0.1850364671
 40
0.2468215587
 40
0.3086962064
 40
0.3706809202
 40
0.4327950026
 40
0.4950563356
 40
0.5574811877
 40
0.6200840884
 40
0.6828775924
 40
0.7458723491
 40
0.8090769894
 40
0.8724966372
 40
0.9361388612
 40
1.0
 40
1.0
 40
1.0
 40
1.0
 10
9.5658156838
 20
9.4903254512
 30
0.0
 10
9.5700239433
 20
9.4943902993
 30
0.0
 10
9.5786625593
 20
9.502296719
 30
0.0
 10
9.5922417219
 20
9.5134451179
 30
0.0
 10
9.6064105465
 20
9.5238566191
 30
0.0
 10
9.6211328528
 20
9.5335045203
 30
0.0
 10
9.6363716511
 20
9.542364674
 30
0.0
 10
9.6520884931
 20
9.5504147664
 30
0.0
 10
9.6682437855
 20
9.5576345554
 30
0.0
 10
9.6847968318
 20
9.5640058555
 30
0.0
 10
9.7017059238
 20
9.5695126657
 30
0.0
 10
9.7189284561
 20
9.574141181
 30
0.0
 10
9.7364210505
 20
9.5778798023
 30
0.0
 10
9.7541396921
 20
9.5807191441
 30
0.0
 10
9.7720396425
 20
9.5826520376
 30
0.0
 10
9.7900762231
 20
9.5836738514
 30
0.0
 10
9.8082031636
 20
9.5837818345
 30
0.0
 10
9.8202982285
 20
9.5832454746
 30
0.0
 10
9.8263445785
 20
9.5828261588
 30
0.0
  0
SPLINE
  5
40E
100
AcDbEntity
  8
0
100
AcDbSpline
 62
7
  6
CONTINUOUS
 70
0
 71
3
 72
23
 73
19
 74
0
 42
0.0000001
 43
0.0000001
 44
0.0000000001
 40
0.0
 40
0.0
 40
0.0
 40
0.0
 40
0.0616482066
 40
0.1233194398
 40
0.1850364729
 40
0.2468215638
 40
0.3086962099
 40
0.3706809215
 40
0.4327950013
 40
0.4950563319
 40
0.5574811817
 40
0.6200840805
 40
0.6828775834
 40
0.7458723398
 40
0.8090769807
 40
0.8724966303
 40
0.9361388571
 40
1.0
 40
1.0
 40
1.0
 40
1.0
 10
9.2464321723
 20
9.1818246506
 30
0.0
 10
9.2506404354
 20
9.1858895396
 30
0.0
 10
9.2592790622
 20
9.1937960397
 30
0.0
 10
9.2728582504
 20
9.2049445541
 30
0.0
 10
9.2870271094
 20
9.2153561648
 30
0.0
 10
9.3017494586
 20
9.2250041693
 30
0.0
 10
9.3169883077
 20
9.2338644192
 30
0.0
 10
9.332705208
 20
9.2419146006
 30
0.0
 10
9.3488605654
 20
9.2491344706
 30
0.0
 10
9.365413683
 20
9.2555058435
 30
0.0
 10
9.3823228519
 20
9.261012718
 30
0.0
 10
9.399545466
 20
9.2656412886
 30
0.0
 10
9.4170381464
 20
9.2693799562
 30
0.0
 10
9.4347568777
 20
9.2722193348
 30
0.0
 10
9.4526569207
 20
9.2741522555
 30
0.0
 10
9.470693596
 20
9.2751740869
 30
0.0
 10
9.4888206327
 20
9.2752820779
 30
0.0
 10
9.5009157619
 20
9.2747457168
 30
0.0
 10
9.5069621442
 20
9.2743263987
 30
0.0
  0
SPLINE
  5
40F
100
AcDbEntity
  8
0
100
AcDbSpline
 62
7
  6
CONTINUOUS
 70
0
 71
3
 72
56
 73
52
 74
0
 42
0.0000001
 43
0.0000001
 44
0.0000000001
 40
0.0
 40
0.0
 40
0.0
 40
0.0
 40
0.0081222938
 40
0.0169170801
 40
0.0264091382
 40
0.0366148289
 40
0.0475421808
 40
0.0591919764
 40
0.0715595473
 40
0.0846358918
 40
0.0984078501
 40
0.1128591724
 40
0.1279704231
 40
0.1437198166
 40
0.1600830866
 40
0.177033978
 40
0.2125829701
 40
0.2501235391
 40
0.2893881851
 40
0.3300908459
 40
0.3719305622
 40
0.4145949051
 40
0.4577632762
 40
0.5011101389
 40
0.544308216
 40
0.5870316771
 40
0.628959336
 40
0.6697778856
 40
0.7091851907
 40
0.7468936997
 40
0.7826340729
 40
0.7996887672
 40
0.8161607846
 40
0.8320235453
 40
0.8472524452
 40
0.8618251195
 40
0.8757218495
 40
0.8889255774
 40
0.9014227661
 40
0.9132033723
 40
0.9242620665
 40
0.9345986136
 40
0.9442193836
 40
0.9531387147
 40
0.961380935
 40
0.9689832297
 40
0.9759985973
 40
0.9825000153
 40
0.9885833932
 40
0.9943693215
 40
1.0
 40
1.0
 40
1.0
 40
1.0
 10
9.7141636212
 20
9.7234223641
 30
0.0
 10
9.7147314552
 20
9.7239708496
 30
0.0
 10
9.7159677115
 20
9.7250584662
 30
0.0
 10
9.7180197704
 20
9.7266038013
 30
0.0
 10
9.7203372231
 20
9.7281232612
 30
0.0
 10
9.7229153274
 20
9.7296139477
 30
0.0
 10
9.7257492621
 20
9.7310731563
 30
0.0
 10
9.7288335259
 20
9.7324980141
 30
0.0
 10
9.7321620495
 20
9.7338857229
 30
0.0
 10
9.7357282517
 20
9.7352334554
 30
0.0
 10
9.7395250236
 20
9.7365385549
 30
0.0
 10
9.7435447838
 20
9.7377983054
 30
0.0
 10
9.7477794602
 20
9.7390102096
 30
0.0
 10
9.7522205426
 20
9.7401717474
 30
0.0
 10
9.7568590932
 20
9.7412806078
 30
0.0
 10
9.7633987978
 20
9.7427084412
 30
0.0
 10
9.7719998973
 20
9.7443361198
 30
0.0
 10
9.7827920342
 20
9.7460174614
 30
0.0
 10
9.7941259274
 20
9.7474426079
 30
0.0
 10
9.8059100729
 20
9.7485998387
 30
0.0
 10
9.8180494147
 20
9.7494795948
 30
0.0
 10
9.8304459114
 20
9.7500746325
 30
0.0
 10
9.8429994188
 20
9.7503800524
 30
0.0
 10
9.8556084982
 20
9.7503933414
 30
0.0
 10
9.868171255
 20
9.7501143898
 30
0.0
 10
9.8805861735
 20
9.7495454918
 30
0.0
 10
9.8927529566
 20
9.7486913303
 30
0.0
 10
9.9045733369
 20
9.7475589392
 30
0.0
 10
9.9159519586
 20
9.7461576716
 30
0.0
 10
9.9267969522
 20
9.7444990549
 30
0.0
 10
9.9354472815
 20
9.7428898285
 30
0.0
 10
9.9420302274
 20
9.7414762054
 30
0.0
 10
9.9467036562
 20
9.7403771624
 30
0.0
 10
9.9511812855
 20
9.7392250204
 30
0.0
 10
9.9554541042
 20
9.7380220966
 30
0.0
 10
9.9595135153
 20
9.7367708301
 30
0.0
 10
9.9633513778
 20
9.7354738006
 30
0.0
 10
9.9669600026
 20
9.7341335839
 30
0.0
 10
9.9703322118
 20
9.7327529571
 30
0.0
 10
9.9734613058
 20
9.7313346206
 30
0.0
 10
9.9763411495
 20
9.7298814573
 30
0.0
 10
9.978966124
 20
9.7283962541
 30
0.0
 10
9.9813311937
 20
9.7268818486
 30
0.0
 10
9.9834318855
 20
9.7253409824
 30
0.0
 10
9.9852642203
 20
9.7237761947
 30
0.0
 10
9.9868247309
 20
9.7221898855
 30
0.0
 10
9.9881100402
 20
9.7205839803
 30
0.0
 10
9.9891168208
 20
9.7189604296
 30
0.0
 10
9.9898410156
 20
9.7173210067
 30
0.0
 10
9.9902782768
 20
9.7156696342
 30
0.0
 10
9.990376211
 20
9.7145576612
 30
0.0
 10
9.9903762015
 20
9.7140103671
 30
0.0
  0
LINE
  5
410
100
AcDbEntity
  8
0
100
AcDbLine
 62
7
  6
CONTINUOUS
 10
10.3405444851
 20
8.5606757984
 11
10.3363131466
 21
8.5412315777
  0
SPLINE
  5
411
100
AcDbEntity
  8
0
100
AcDbSpline
 62
7
  6
CONTINUOUS
 70
0
 71
3
 72
11
 73
7
 74
0
 42
0.0000001
 43
0.0000001
 44
0.0000000001
 40
0.0
 40
0.0
 40
0.0
 40
0.0
 40
0.25184693
 40
0.5024290122
 40
0.751791595
 40
1.0
 40
1.0
 40
1.0
 40
1.0
 10
10.9796579065
 20
7.1017144209
 30
0.0
 10
10.9796579065
 20
7.0888568146
 30
0.0
 10
10.9787243856
 20
7.0631961177
 30
0.0
 10
10.9745053387
 20
7.0250131841
 30
0.0
 10
10.9674940849
 20
6.9874316896
 30
0.0
 10
10.960966472
 20
6.9628526211
 30
0.0
 10
10.9572512312
 20
6.9507376424
 30
0.0
  0
SPLINE
  5
412
100
AcDbEntity
  8
0
100
AcDbSpline
 62
7
  6
CONTINUOUS
 70
0
 71
3
 72
56
 73
52
 74
0
 42
0.0000001
 43
0.0000001
 44
0.0000000001
 40
0.0
 40
0.0
 40
0.0
 40
0.0
 40
0.0081222938
 40
0.0169170801
 40
0.0264091382
 40
0.0366148289
 40
0.0475421808
 40
0.0591919764
 40
0.0715595473
 40
0.0846358918
 40
0.0984078501
 40
0.1128591724
 40
0.1279704231
 40
0.1437198166
 40
0.1600830866
 40
0.177033978
 40
0.2125829701
 40
0.2501235391
 40
0.2893881851
 40
0.3300908459
 40
0.3719305622
 40
0.4145949051
 40
0.4577632762
 40
0.5011101389
 40
0.544308216
 40
0.5870316771
 40
0.628959336
 40
0.6697778856
 40
0.7091851907
 40
0.7468936997
 40
0.7826340729
 40
0.7996887672
 40
0.8161607846
 40
0.8320235453
 40
0.8472524452
 40
0.8618251195
 40
0.8757218495
 40
0.8889255774
 40
0.9014227661
 40
0.9132033723
 40
0.9242620665
 40
0.9345986136
 40
0.9442193836
 40
0.9531387147
 40
0.961380935
 40
0.9689832297
 40
0.9759985973
 40
0.9825000153
 40
0.9885833932
 40
0.9943693215
 40
1.0
 40
1.0
 40
1.0
 40
1.0
 10
10.264153669
 20
10.2546719869
 30
0.0
 10
10.264721503
 20
10.2552204724
 30
0.0
 10
10.2659577593
 20
10.2563080891
 30
0.0
 10
10.2680098182
 20
10.2578534242
 30
0.0
 10
10.2703272709
 20
10.2593728841
 30
0.0
 10
10.2729053752
 20
10.2608635706
 30
0.0
 10
10.2757393099
 20
10.2623227791
 30
0.0
 10
10.2788235737
 20
10.263747637
 30
0.0
 10
10.2821520973
 20
10.2651353458
 30
0.0
 10
10.2857182995
 20
10.2664830783
 30
0.0
 10
10.2895150714
 20
10.2677881778
 30
0.0
 10
10.2935348316
 20
10.2690479282
 30
0.0
 10
10.297769508
 20
10.2702598325
 30
0.0
 10
10.3022105904
 20
10.2714213702
 30
0.0
 10
10.306849141
 20
10.2725302306
 30
0.0
 10
10.3133888456
 20
10.273958064
 30
0.0
 10
10.3219899451
 20
10.2755857427
 30
0.0
 10
10.332782082
 20
10.2772670842
 30
0.0
 10
10.3441159752
 20
10.2786922307
 30
0.0
 10
10.3559001207
 20
10.2798494615
 30
0.0
 10
10.3680394625
 20
10.2807292177
 30
0.0
 10
10.3804359592
 20
10.2813242554
 30
0.0
 10
10.3929894666
 20
10.2816296752
 30
0.0
 10
10.405598546
 20
10.2816429642
 30
0.0
 10
10.4181613028
 20
10.2813640127
 30
0.0
 10
10.4305762213
 20
10.2807951147
 30
0.0
 10
10.4427430044
 20
10.2799409531
 30
0.0
 10
10.4545633847
 20
10.278808562
 30
0.0
 10
10.4659420064
 20
10.2774072945
 30
0.0
 10
10.476787
 20
10.2757486777
 30
0.0
 10
10.4854373293
 20
10.2741394514
 30
0.0
 10
10.4920202752
 20
10.2727258283
 30
0.0
 10
10.496693704
 20
10.2716267852
 30
0.0
 10
10.5011713333
 20
10.2704746433
 30
0.0
 10
10.505444152
 20
10.2692717195
 30
0.0
 10
10.5095035631
 20
10.268020453
 30
0.0
 10
10.5133414256
 20
10.2667234234
 30
0.0
 10
10.5169500504
 20
10.2653832068
 30
0.0
 10
10.5203222596
 20
10.26400258
 30
0.0
 10
10.5234513536
 20
10.2625842434
 30
0.0
 10
10.5263311973
 20
10.2611310802
 30
0.0
 10
10.5289561718
 20
10.2596458769
 30
0.0
 10
10.5313212415
 20
10.2581314715
 30
0.0
 10
10.5334219333
 20
10.2565906052
 30
0.0
 10
10.5352542681
 20
10.2550258176
 30
0.0
 10
10.5368147787
 20
10.2534395084
 30
0.0
 10
10.538100088
 20
10.2518336031
 30
0.0
 10
10.5391068686
 20
10.2502100524
 30
0.0
 10
10.5398310634
 20
10.2485706295
 30
0.0
 10
10.5402683246
 20
10.246919257
 30
0.0
 10
10.5403662588
 20
10.245807284
 30
0.0
 10
10.5403662493
 20
10.2452599899
 30
0.0
  0
SPLINE
  5
413
100
AcDbEntity
  8
0
100
AcDbSpline
 62
4
  6
CONTINUOUS
 70
0
 71
3
 72
360
 73
356
 74
0
 42
0.0000001
 43
0.0000001
 44
0.0000000001
 40
0.0
 40
0.0
 40
0.0
 40
0.0
 40
0.015625
 40
0.0234375
 40
0.03125
 40
0.0390625
 40
0.046875
 40
0.05078125
 40
0.0546875
 40
0.056640625
 40
0.05859375
 40
0.060546875
 40
0.0615234375
 40
0.0620117188
 40
0.0625
 40
0.0629882812
 40
0.0634765625
 40
0.064453125
 40
0.06640625
 40
0.068359375
 40
0.0703125
 40
0.07421875
 40
0.078125
 40
0.0859375
 40
0.09375
 40
0.1015625
 40
0.10546875
 40
0.109375
 40
0.11328125
 40
0.1171875
 40
0.119140625
 40
0.12109375
 40
0.123046875
 40
0.1240234375
 40
0.1245117188
 40
0.125
 40
0.1254882812
 40
0.1259765625
 40
0.126953125
 40
0.12890625
 40
0.130859375
 40
0.1328125
 40
0.13671875
 40
0.140625
 40
0.14453125
 40
0.1484375
 40
0.15625
 40
0.1640625
 40
0.16796875
 40
0.171875
 40
0.17578125
 40
0.1796875
 40
0.181640625
 40
0.18359375
 40
0.1845703125
 40
0.185546875
 40
0.1865234375
 40
0.1870117188
 40
0.1872558594
 40
0.1875
 40
0.1877441406
 40
0.1879882812
 40
0.1884765625
 40
0.189453125
 40
0.1904296875
 40
0.19140625
 40
0.193359375
 40
0.1953125
 40
0.19921875
 40
0.203125
 40
0.20703125
 40
0.2109375
 40
0.21875
 40
0.2265625
 40
0.23046875
 40
0.234375
 40
0.23828125
 40
0.2421875
 40
0.244140625
 40
0.24609375
 40
0.2470703125
 40
0.248046875
 40
0.2490234375
 40
0.2495117188
 40
0.2497558594
 40
0.25
 40
0.2502441406
 40
0.2504882812
 40
0.2509765625
 40
0.251953125
 40
0.2529296875
 40
0.25390625
 40
0.255859375
 40
0.2578125
 40
0.26171875
 40
0.265625
 40
0.26953125
 40
0.2734375
 40
0.28125
 40
0.2890625
 40
0.29296875
 40
0.296875
 40
0.30078125
 40
0.3046875
 40
0.306640625
 40
0.30859375
 40
0.3095703125
 40
0.310546875
 40
0.3115234375
 40
0.3120117188
 40
0.3122558594
 40
0.3125
 40
0.3127441406
 40
0.3129882812
 40
0.3134765625
 40
0.314453125
 40
0.3154296875
 40
0.31640625
 40
0.318359375
 40
0.3203125
 40
0.32421875
 40
0.328125
 40
0.33203125
 40
0.3359375
 40
0.34375
 40
0.3515625
 40
0.35546875
 40
0.359375
 40
0.36328125
 40
0.3671875
 40
0.369140625
 40
0.37109375
 40
0.3720703125
 40
0.373046875
 40
0.3740234375
 40
0.3745117188
 40
0.3747558594
 40
0.375
 40
0.3752441406
 40
0.3754882812
 40
0.3759765625
 40
0.376953125
 40
0.3779296875
 40
0.37890625
 40
0.380859375
 40
0.3828125
 40
0.38671875
 40
0.390625
 40
0.39453125
 40
0.3984375
 40
0.40625
 40
0.4140625
 40
0.41796875
 40
0.421875
 40
0.42578125
 40
0.4296875
 40
0.431640625
 40
0.43359375
 40
0.4345703125
 40
0.435546875
 40
0.4365234375
 40
0.4370117188
 40
0.4372558594
 40
0.4375
 40
0.4377441406
 40
0.4379882812
 40
0.4384765625
 40
0.439453125
 40
0.4404296875
 40
0.44140625
 40
0.443359375
 40
0.4453125
 40
0.44921875
 40
0.453125
 40
0.45703125
 40
0.4609375
 40
0.46875
 40
0.4765625
 40
0.48046875
 40
0.484375
 40
0.48828125
 40
0.4921875
 40
0.494140625
 40
0.49609375
 40
0.4970703125
 40
0.498046875
 40
0.4990234375
 40
0.4995117188
 40
0.4997558594
 40
0.5
 40
0.5002441406
 40
0.5004882812
 40
0.5009765625
 40
0.501953125
 40
0.5029296875
 40
0.50390625
 40
0.505859375
 40
0.5078125
 40
0.51171875
 40
0.515625
 40
0.51953125
 40
0.5234375
 40
0.53125
 40
0.5390625
 40
0.54296875
 40
0.546875
 40
0.55078125
 40
0.5546875
 40
0.556640625
 40
0.55859375
 40
0.5595703125
 40
0.560546875
 40
0.5615234375
 40
0.5620117188
 40
0.5622558594
 40
0.5625
 40
0.5627441406
 40
0.5629882812
 40
0.5634765625
 40
0.564453125
 40
0.5654296875
 40
0.56640625
 40
0.568359375
 40
0.5703125
 40
0.57421875
 40
0.578125
 40
0.58203125
 40
0.5859375
 40
0.59375
 40
0.6015625
 40
0.60546875
 40
0.609375
 40
0.61328125
 40
0.6171875
 40
0.619140625
 40
0.62109375
 40
0.6220703125
 40
0.623046875
 40
0.6240234375
 40
0.6245117188
 40
0.6247558594
 40
0.625
 40
0.6252441406
 40
0.6254882812
 40
0.6259765625
 40
0.626953125
 40
0.6279296875
 40
0.62890625
 40
0.630859375
 40
0.6328125
 40
0.63671875
 40
0.640625
 40
0.64453125
 40
0.6484375
 40
0.65625
 40
0.6640625
 40
0.66796875
 40
0.671875
 40
0.67578125
 40
0.6796875
 40
0.681640625
 40
0.68359375
 40
0.6845703125
 40
0.685546875
 40
0.6865234375
 40
0.6870117188
 40
0.6872558594
 40
0.6875
 40
0.6877441406
 40
0.6879882812
 40
0.6884765625
 40
0.689453125
 40
0.6904296875
 40
0.69140625
 40
0.693359375
 40
0.6953125
 40
0.69921875
 40
0.703125
 40
0.70703125
 40
0.7109375
 40
0.71875
 40
0.7265625
 40
0.734375
 40
0.73828125
 40
0.7421875
 40
0.744140625
 40
0.74609375
 40
0.748046875
 40
0.7490234375
 40
0.7495117188
 40
0.75
 40
0.7504882812
 40
0.7509765625
 40
0.751953125
 40
0.75390625
 40
0.755859375
 40
0.7578125
 40
0.76171875
 40
0.765625
 40
0.7734375
 40
0.78125
 40
0.7890625
 40
0.796875
 40
0.80078125
 40
0.8046875
 40
0.806640625
 40
0.80859375
 40
0.810546875
 40
0.8115234375
 40
0.8120117188
 40
0.8125
 40
0.8129882812
 40
0.8134765625
 40
0.814453125
 40
0.81640625
 40
0.818359375
 40
0.8203125
 40
0.82421875
 40
0.828125
 40
0.8359375
 40
0.84375
 40
0.8515625
 40
0.859375
 40
0.86328125
 40
0.8671875
 40
0.87109375
 40
0.873046875
 40
0.8740234375
 40
0.875
 40
0.8759765625
 40
0.876953125
 40
0.87890625
 40
0.8828125
 40
0.88671875
 40
0.890625
 40
0.8984375
 40
0.90625
 40
0.9140625
 40
0.921875
 40
0.92578125
 40
0.9296875
 40
0.93359375
 40
0.935546875
 40
0.9365234375
 40
0.9375
 40
0.9384765625
 40
0.939453125
 40
0.94140625
 40
0.9453125
 40
0.94921875
 40
0.953125
 40
0.9609375
 40
0.96875
 40
0.984375
 40
1.0
 40
1.0
 40
1.0
 40
1.0
 10
12.2693944725
 20
8.2646032264
 30
0.0
 10
12.2694767896
 20
8.2615495517
 30
0.0
 10
12.2696002651
 20
8.2569690394
 30
0.0
 10
12.2697648993
 20
8.2508616902
 30
0.0
 10
12.2698883744
 20
8.2462811772
 30
0.0
 10
12.2700118519
 20
8.2417006684
 30
0.0
 10
12.2701147421
 20
8.2378835645
 30
0.0
 10
12.2701970717
 20
8.2348299111
 30
0.0
 10
12.2702484879
 20
8.2329213101
 30
0.0
 10
12.2702897119
 20
8.2313945842
 30
0.0
 10
12.2703203809
 20
8.2302491154
 30
0.0
 10
12.2703467303
 20
8.2292959082
 30
0.0
 10
12.2703636209
 20
8.2286260137
 30
0.0
 10
12.2703756991
 20
8.2282473537
 30
0.0
 10
12.2703779223
 20
8.227951705
 30
0.0
 10
12.270406274
 20
8.2277006026
 30
0.0
 10
12.2704349624
 20
8.2273502611
 30
0.0
 10
12.2704894134
 20
8.2267444031
 30
0.0
 10
12.2705649805
 20
8.2258751067
 30
0.0
 10
12.2706566112
 20
8.2248335711
 30
0.0
 10
12.2707784537
 20
8.2234442911
 30
0.0
 10
12.2709308703
 20
8.2217078849
 30
0.0
 10
12.2711746735
 20
8.2189295266
 30
0.0
 10
12.2714794493
 20
8.2154566159
 30
0.0
 10
12.271845171
 20
8.2112891075
 30
0.0
 10
12.2721499407
 20
8.2078161861
 30
0.0
 10
12.2723937571
 20
8.2050378513
 30
0.0
 10
12.2725766163
 20
8.2029540921
 30
0.0
 10
12.2727594878
 20
8.2008703638
 30
0.0
 10
12.2729118424
 20
8.1991338275
 30
0.0
 10
12.2730338119
 20
8.1977448135
 30
0.0
 10
12.2731250545
 20
8.1967024654
 30
0.0
 10
12.2732018362
 20
8.195835711
 30
0.0
 10
12.2732541188
 20
8.1952253151
 30
0.0
 10
12.2732862815
 20
8.1948822444
 30
0.0
 10
12.2733039612
 20
8.1946088086
 30
0.0
 10
12.2733462668
 20
8.1943970403
 30
0.0
 10
12.2733940845
 20
8.1940931723
 30
0.0
 10
12.2734817676
 20
8.1935714254
 30
0.0
 10
12.2736049369
 20
8.1928208329
 30
0.0
 10
12.2737536355
 20
8.1919223648
 30
0.0
 10
12.2739515876
 20
8.1907236238
 30
0.0
 10
12.274199135
 20
8.1892254663
 30
0.0
 10
12.2744961459
 20
8.1874275622
 30
0.0
 10
12.2747931691
 20
8.1856296889
 30
0.0
 10
12.2751891958
 20
8.1832325137
 30
0.0
 10
12.2756842306
 20
8.1802360484
 30
0.0
 10
12.2761792648
 20
8.1772395817
 30
0.0
 10
12.2765752924
 20
8.1748424089
 30
0.0
 10
12.2768723128
 20
8.1730445284
 30
0.0
 10
12.2771693343
 20
8.1712466513
 30
0.0
 10
12.2774168487
 20
8.1697484097
 30
0.0
 10
12.2776148681
 20
8.1685498403
 30
0.0
 10
12.2777386122
 20
8.1678006801
 30
0.0
 10
12.277837649
 20
8.1672014765
 30
0.0
 10
12.2779118127
 20
8.1667517325
 30
0.0
 10
12.2779739781
 20
8.1663780316
 30
0.0
 10
12.2780167828
 20
8.1661143102
 30
0.0
 10
12.2780423529
 20
8.1659669393
 30
0.0
 10
12.2780584031
 20
8.1658470388
 30
0.0
 10
12.2780864075
 20
8.165762964
 30
0.0
 10
12.278119577
 20
8.1656383679
 30
0.0
 10
12.2781795663
 20
8.165426147
 30
0.0
 10
12.2782642497
 20
8.1651199303
 30
0.0
 10
12.2783663045
 20
8.1647537731
 30
0.0
 10
12.2785022257
 20
8.1642651085
 30
0.0
 10
12.2786721793
 20
8.1636544336
 30
0.0
 10
12.2789440759
 20
8.1626772666
 30
0.0
 10
12.2792839565
 20
8.1614558378
 30
0.0
 10
12.2796918091
 20
8.1599901104
 30
0.0
 10
12.2800996628
 20
8.1585243864
 30
0.0
 10
12.2806434673
 20
8.1565700866
 30
0.0
 10
12.2813232232
 20
8.1541272123
 30
0.0
 10
12.2820029789
 20
8.1516843376
 30
0.0
 10
12.2825467836
 20
8.1497300383
 30
0.0
 10
12.2829546369
 20
8.1482643126
 30
0.0
 10
12.283362491
 20
8.1467985915
 30
0.0
 10
12.2837023668
 20
8.1455771432
 30
0.0
 10
12.2839742733
 20
8.1446000161
 30
0.0
 10
12.2841442016
 20
8.1439892396
 30
0.0
 10
12.2842801746
 20
8.1435007834
 30
0.0
 10
12.2843820711
 20
8.1431339898
 30
0.0
 10
12.2844672498
 20
8.1428297643
 30
0.0
 10
12.284526355
 20
8.1426139887
 30
0.0
 10
12.2845609411
 20
8.1424950881
 30
0.0
 10
12.2845845942
 20
8.1423935185
 30
0.0
 10
12.2846169873
 20
8.1423393258
 30
0.0
 10
12.2846571294
 20
8.1422505433
 30
0.0
 10
12.2847287986
 20
8.1421028735
 30
0.0
 10
12.2848304406
 20
8.1418878911
 30
0.0
 10
12.2849527288
 20
8.1416316354
 30
0.0
 10
12.2851156687
 20
8.1412893592
 30
0.0
 10
12.2853193816
 20
8.1408617201
 30
0.0
 10
12.2856453011
 20
8.1401773823
 30
0.0
 10
12.2860527077
 20
8.1393219996
 30
0.0
 10
12.2865415924
 20
8.1382955234
 30
0.0
 10
12.287030478
 20
8.1372690518
 30
0.0
 10
12.2876823252
 20
8.1359004213
 30
0.0
 10
12.2884971343
 20
8.1341896338
 30
0.0
 10
12.2893119433
 20
8.1324788459
 30
0.0
 10
12.2899637906
 20
8.1311102161
 30
0.0
 10
12.2904526759
 20
8.1300837425
 30
0.0
 10
12.2909415619
 20
8.1290572736
 30
0.0
 10
12.2913489646
 20
8.1282018684
 30
0.0
 10
12.2916748918
 20
8.1275175765
 30
0.0
 10
12.291878585
 20
8.1270898205
 30
0.0
 10
12.2920415654
 20
8.1267477843
 30
0.0
 10
12.2921637301
 20
8.1264907955
 30
0.0
 10
12.2922657585
 20
8.1262781067
 30
0.0
 10
12.2923367378
 20
8.1261263425
 30
0.0
 10
12.2923779854
 20
8.1260441203
 30
0.0
 10
12.2924069829
 20
8.1259697764
 30
0.0
 10
12.2924433891
 20
8.1259438912
 30
0.0
 10
12.2924893465
 20
8.1258924747
 30
0.0
 10
12.292570976
 20
8.1258103712
 30
0.0
 10
12.29268696
 20
8.1256889631
 30
0.0
 10
12.2928264102
 20
8.1255450358
 30
0.0
 10
12.2930122498
 20
8.1253525171
 30
0.0
 10
12.2932445815
 20
8.1251120796
 30
0.0
 10
12.2936162942
 20
8.1247272616
 30
0.0
 10
12.2940809412
 20
8.1242462797
 30
0.0
 10
12.294638515
 20
8.123669084
 30
0.0
 10
12.2951960895
 20
8.1230918929
 30
0.0
 10
12.2959395219
 20
8.1223223033
 30
0.0
 10
12.2968688125
 20
8.1213603167
 30
0.0
 10
12.297798103
 20
8.1203983298
 30
0.0
 10
12.2985415355
 20
8.1196287408
 30
0.0
 10
12.2990991098
 20
8.1190515478
 30
0.0
 10
12.2996566845
 20
8.1184743596
 30
0.0
 10
12.3001213286
 20
8.1179933543
 30
0.0
 10
12.3004930473
 20
8.1176085839
 30
0.0
 10
12.3007253637
 20
8.1173680253
 30
0.0
 10
12.3009112346
 20
8.1171757552
 30
0.0
 10
12.301050589
 20
8.1170310684
 30
0.0
 10
12.3011668729
 20
8.1169120365
 30
0.0
 10
12.3012479671
 20
8.1168256911
 30
0.0
 10
12.301294782
 20
8.1167810712
 30
0.0
 10
12.3013285542
 20
8.1167343088
 30
0.0
 10
12.3013674445
 20
8.1167383763
 30
0.0
 10
12.3014175129
 20
8.1167260696
 30
0.0
 10
12.3015059645
 20
8.1167127937
 30
0.0
 10
12.3016318889
 20
8.1166895092
 30
0.0
 10
12.3017831844
 20
8.1166634164
 30
0.0
 10
12.3019848468
 20
8.1166279803
 30
0.0
 10
12.3022369469
 20
8.1165839063
 30
0.0
 10
12.3026402948
 20
8.1165132644
 30
0.0
 10
12.3031444838
 20
8.1164250044
 30
0.0
 10
12.3037495089
 20
8.1163190741
 30
0.0
 10
12.3043545344
 20
8.1162131488
 30
0.0
 10
12.3051612349
 20
8.1160719133
 30
0.0
 10
12.3061696107
 20
8.1158953695
 30
0.0
 10
12.3071779864
 20
8.1157188254
 30
0.0
 10
12.307984687
 20
8.1155775905
 30
0.0
 10
12.3085897123
 20
8.1154716631
 30
0.0
 10
12.309194738
 20
8.1153657407
 30
0.0
 10
12.309698925
 20
8.1152774564
 30
0.0
 10
12.3101022771
 20
8.1152068639
 30
0.0
 10
12.3103543663
 20
8.115162664
 30
0.0
 10
12.3105560511
 20
8.1151274865
 30
0.0
 10
12.310707278
 20
8.1151006038
 30
0.0
 10
12.3108334172
 20
8.1150797907
 30
0.0
 10
12.3109214855
 20
8.1150621029
 30
0.0
 10
12.310972168
 20
8.1150568651
 30
0.0
 10
12.3110091719
 20
8.1150392191
 30
0.0
 10
12.3110500288
 20
8.1150740091
 30
0.0
 10
12.3111031606
 20
8.1151021055
 30
0.0
 10
12.3111967675
 20
8.115159796
 30
0.0
 10
12.3113301642
 20
8.1152377558
 30
0.0
 10
12.3114903804
 20
8.1153332145
 30
0.0
 10
12.3117039531
 20
8.1154598266
 30
0.0
 10
12.3119709357
 20
8.1156183199
 30
0.0
 10
12.3123980985
 20
8.1158717817
 30
0.0
 10
12.3129320552
 20
8.1161886526
 30
0.0
 10
12.3135728018
 20
8.116568879
 30
0.0
 10
12.3142135488
 20
8.1169491105
 30
0.0
 10
12.3150678781
 20
8.1174560839
 30
0.0
 10
12.3161357897
 20
8.1180898014
 30
0.0
 10
12.3172037012
 20
8.1187235185
 30
0.0
 10
12.3180580305
 20
8.1192304926
 30
0.0
 10
12.3186987775
 20
8.119610722
 30
0.0
 10
12.3193395243
 20
8.1199909561
 30
0.0
 10
12.3198734804
 20
8.1203078031
 30
0.0
 10
12.3203006444
 20
8.1205613137
 30
0.0
 10
12.3205676238
 20
8.1207196827
 30
0.0
 10
12.3207812031
 20
8.1208465499
 30
0.0
 10
12.320941399
 20
8.1209412294
 30
0.0
 10
12.3210748593
 20
8.1210216272
 30
0.0
 10
12.3211683527
 20
8.1210749653
 30
0.0
 10
12.3212216663
 20
8.1211100354
 30
0.0
 10
12.3212619647
 20
8.1211234043
 30
0.0
 10
12.3213010662
 20
8.1211862126
 30
0.0
 10
12.321353619
 20
8.121252712
 30
0.0
 10
12.3214453919
 20
8.1213771207
 30
0.0
 10
12.3215765978
 20
8.1215506468
 30
0.0
 10
12.3217340013
 20
8.1217606761
 30
0.0
 10
12.3219438878
 20
8.1220400872
 30
0.0
 10
12.3222062408
 20
8.1223895661
 30
0.0
 10
12.3226260084
 20
8.1229486121
 30
0.0
 10
12.323150717
 20
8.1236474609
 30
0.0
 10
12.3237803677
 20
8.1244860617
 30
0.0
 10
12.3244100183
 20
8.1253246673
 30
0.0
 10
12.3252495525
 20
8.1264428064
 30
0.0
 10
12.3262989702
 20
8.1278404809
 30
0.0
 10
12.3273483879
 20
8.129238155
 30
0.0
 10
12.328187922
 20
8.1303562948
 30
0.0
 10
12.3288175727
 20
8.1311948984
 30
0.0
 10
12.3294472231
 20
8.1320335065
 30
0.0
 10
12.3299719326
 20
8.1327323328
 30
0.0
 10
12.3303916984
 20
8.1332914247
 30
0.0
 10
12.330654056
 20
8.1336407868
 30
0.0
 10
12.3308639331
 20
8.1339204375
 30
0.0
 10
12.3310213655
 20
8.1341297348
 30
0.0
 10
12.3311524808
 20
8.1343055512
 30
0.0
 10
12.3312444154
 20
8.1344258714
 30
0.0
 10
12.3312967092
 20
8.1344989216
 30
0.0
 10
12.3313366063
 20
8.1345416079
 30
0.0
 10
12.3313739166
 20
8.1346305519
 30
0.0
 10
12.3314245659
 20
8.1347330087
 30
0.0
 10
12.3315127819
 20
8.1349198258
 30
0.0
 10
12.3316390245
 20
8.1351827771
 30
0.0
 10
12.3317904216
 20
8.1355000009
 30
0.0
 10
12.3319923172
 20
8.1359223783
 30
0.0
 10
12.3322446755
 20
8.1364505514
 30
0.0
 10
12.332648455
 20
8.1372955158
 30
0.0
 10
12.3331531773
 20
8.1383517599
 30
0.0
 10
12.3337588449
 20
8.1396192363
 30
0.0
 10
12.3343645123
 20
8.1408867171
 30
0.0
 10
12.3351720689
 20
8.14257669
 30
0.0
 10
12.3361815145
 20
8.1446891567
 30
0.0
 10
12.3371909603
 20
8.146801623
 30
0.0
 10
12.3379985168
 20
8.1484915964
 30
0.0
 10
12.3386041843
 20
8.1497590755
 30
0.0
 10
12.3392098514
 20
8.1510265585
 30
0.0
 10
12.3397145754
 20
8.1520827821
 30
0.0
 10
12.3401183513
 20
8.1529277883
 30
0.0
 10
12.3403707189
 20
8.1534558549
 30
0.0
 10
12.3405725953
 20
8.153878451
 30
0.0
 10
12.340724051
 20
8.1541950069
 30
0.0
 10
12.3408501103
 20
8.1544600477
 30
0.0
 10
12.3409386536
 20
8.1546431347
 30
0.0
 10
12.3409887785
 20
8.1547515681
 30
0.0
 10
12.3410276998
 20
8.1548221539
 30
0.0
 10
12.3410615461
 20
8.1549337904
 30
0.0
 10
12.3411084447
 20
8.1550683201
 30
0.0
 10
12.3411896925
 20
8.1553104185
 30
0.0
 10
12.341306192
 20
8.1556527855
 30
0.0
 10
12.3414458068
 20
8.1560651188
 30
0.0
 10
12.3416320244
 20
8.1566143751
 30
0.0
 10
12.3418647742
 20
8.1573011241
 30
0.0
 10
12.3422371864
 20
8.1583998226
 30
0.0
 10
12.3427026973
 20
8.15977323
 30
0.0
 10
12.3432613122
 20
8.1614213042
 30
0.0
 10
12.3438199267
 20
8.1630693823
 30
0.0
 10
12.3445647461
 20
8.1652668184
 30
0.0
 10
12.3454957703
 20
8.168013614
 30
0.0
 10
12.3464267946
 20
8.1707604093
 30
0.0
 10
12.3471716139
 20
8.1729578459
 30
0.0
 10
12.3477302286
 20
8.1746059224
 30
0.0
 10
12.3482888426
 20
8.1762540026
 30
0.0
 10
12.3487543563
 20
8.1776273913
 30
0.0
 10
12.3491267629
 20
8.1787261279
 30
0.0
 10
12.3493595269
 20
8.17941278
 30
0.0
 10
12.3495457154
 20
8.1799622351
 30
0.0
 10
12.3496854188
 20
8.1803739612
 30
0.0
 10
12.3498016412
 20
8.180718228
 30
0.0
 10
12.3498833837
 20
8.180956935
 30
0.0
 10
12.3499294896
 20
8.1810968986
 30
0.0
 10
12.3499657709
 20
8.1811918438
 30
0.0
 10
12.3499955467
 20
8.1813251191
 30
0.0
 10
12.350037517
 20
8.1814894496
 30
0.0
 10
12.3501099078
 20
8.1817832572
 30
0.0
 10
12.3502138759
 20
8.1821997256
 30
0.0
 10
12.350338401
 20
8.1827008817
 30
0.0
 10
12.3505045171
 20
8.183368603
 30
0.0
 10
12.350712134
 20
8.1842034213
 30
0.0
 10
12.3510443368
 20
8.1855390373
 30
0.0
 10
12.3514595849
 20
8.1872085893
 30
0.0
 10
12.351957885
 20
8.1892120381
 30
0.0
 10
12.3524561844
 20
8.1912154905
 30
0.0
 10
12.3531205838
 20
8.1938867591
 30
0.0
 10
12.3539510835
 20
8.1972258445
 30
0.0
 10
12.354947681
 20
8.2012327511
 30
0.0
 10
12.3557781852
 20
8.2045718266
 30
0.0
 10
12.3564425746
 20
8.207243117
 30
0.0
 10
12.3568578497
 20
8.2089126051
 30
0.0
 10
12.3571899971
 20
8.2102483524
 30
0.0
 10
12.3574393065
 20
8.2112497333
 30
0.0
 10
12.357646432
 20
8.2120855838
 30
0.0
 10
12.3577926608
 20
8.2126679978
 30
0.0
 10
12.3578742824
 20
8.2130049924
 30
0.0
 10
12.3579409571
 20
8.2132459446
 30
0.0
 10
12.3579867667
 20
8.2135319787
 30
0.0
 10
12.3580551242
 20
8.2138976324
 30
0.0
 10
12.3581713588
 20
8.2145448531
 30
0.0
 10
12.3583391811
 20
8.2154656236
 30
0.0
 10
12.358539809
 20
8.2165721877
 30
0.0
 10
12.3588075779
 20
8.2180470339
 30
0.0
 10
12.3591421983
 20
8.2198907877
 30
0.0
 10
12.3596776417
 20
8.2228406842
 30
0.0
 10
12.3603469284
 20
8.2265280926
 30
0.0
 10
12.3611500804
 20
8.2309529656
 30
0.0
 10
12.3619532284
 20
8.2353778463
 30
0.0
 10
12.3626225254
 20
8.2390652357
 30
0.0
 10
12.3631579481
 20
8.2420151701
 30
0.0
 10
12.363492621
 20
8.2438588275
 30
0.0
 10
12.3637602822
 20
8.2453338715
 30
0.0
 10
12.363961239
 20
8.2464398313
 30
0.0
 10
12.3641280322
 20
8.2473624925
 30
0.0
 10
12.3642461039
 20
8.248006338
 30
0.0
 10
12.3643115179
 20
8.2483773996
 30
0.0
 10
12.3643663689
 20
8.2486468223
 30
0.0
 10
12.3643990859
 20
8.2489501644
 30
0.0
 10
12.3644504292
 20
8.249342789
 30
0.0
 10
12.3645366828
 20
8.2500353946
 30
0.0
 10
12.3646617828
 20
8.2510219492
 30
0.0
 10
12.3648110979
 20
8.2522070483
 30
0.0
 10
12.3650104658
 20
8.2537867495
 30
0.0
 10
12.3652595794
 20
8.2557615237
 30
0.0
 10
12.3656582151
 20
8.2589210797
 30
0.0
 10
12.3661564899
 20
8.2628705538
 30
0.0
 10
12.3667544343
 20
8.2676099067
 30
0.0
 10
12.3673523519
 20
8.2723492774
 30
0.0
 10
12.3678506936
 20
8.2762987072
 30
0.0
 10
12.3682491954
 20
8.279458352
 30
0.0
 10
12.3685485404
 20
8.2818278102
 30
0.0
 10
12.368796504
 20
8.2838032345
 30
0.0
 10
12.3689730036
 20
8.2851843128
 30
0.0
 10
12.3690692932
 20
8.285976184
 30
0.0
 10
12.3691543765
 20
8.2865625276
 30
0.0
 10
12.3691902791
 20
8.2871777688
 30
0.0
 10
12.369255304
 20
8.2879880105
 30
0.0
 10
12.3693611048
 20
8.2894106299
 30
0.0
 10
12.3695164275
 20
8.291440488
 30
0.0
 10
12.3697010261
 20
8.2938773686
 30
0.0
 10
12.3699477826
 20
8.2971261757
 30
0.0
 10
12.3702560122
 20
8.3011873107
 30
0.0
 10
12.3706259869
 20
8.3060606178
 30
0.0
 10
12.3709959107
 20
8.3109339429
 30
0.0
 10
12.3713042675
 20
8.3149950328
 30
0.0
 10
12.3715507697
 20
8.3182439302
 30
0.0
 10
12.3717361439
 20
8.3206805356
 30
0.0
 10
12.3718890401
 20
8.3227112548
 30
0.0
 10
12.3719991727
 20
8.3241323369
 30
0.0
 10
12.3720572569
 20
8.3249450417
 30
0.0
 10
12.3721144791
 20
8.3255527171
 30
0.0
 10
12.3721194894
 20
8.3261674764
 30
0.0
 10
12.3721443818
 20
8.3269846846
 30
0.0
 10
12.3721794583
 20
8.32841595
 30
0.0
 10
12.3722340037
 20
8.3304600131
 30
0.0
 10
12.3722975594
 20
8.3329131465
 30
0.0
 10
12.3723829635
 20
8.336183901
 30
0.0
 10
12.3724894915
 20
8.3402723749
 30
0.0
 10
12.3726600634
 20
8.3468139159
 30
0.0
 10
12.3728732344
 20
8.3549908482
 30
0.0
 10
12.3730437845
 20
8.3615323921
 30
0.0
 10
12.3731290579
 20
8.3648031644
 30
0.0
  0
SPLINE
  5
414
100
AcDbEntity
  8
0
100
AcDbSpline
 62
4
  6
CONTINUOUS
 70
0
 71
3
 72
360
 73
356
 74
0
 42
0.0000001
 43
0.0000001
 44
0.0000000001
 40
0.0
 40
0.0
 40
0.0
 40
0.0
 40
0.015625
 40
0.0234375
 40
0.03125
 40
0.0390625
 40
0.046875
 40
0.05078125
 40
0.0546875
 40
0.056640625
 40
0.05859375
 40
0.060546875
 40
0.0615234375
 40
0.0620117188
 40
0.0625
 40
0.0629882812
 40
0.0634765625
 40
0.064453125
 40
0.06640625
 40
0.068359375
 40
0.0703125
 40
0.07421875
 40
0.078125
 40
0.0859375
 40
0.09375
 40
0.1015625
 40
0.10546875
 40
0.109375
 40
0.11328125
 40
0.1171875
 40
0.119140625
 40
0.12109375
 40
0.123046875
 40
0.1240234375
 40
0.1245117188
 40
0.125
 40
0.1254882812
 40
0.1259765625
 40
0.126953125
 40
0.12890625
 40
0.130859375
 40
0.1328125
 40
0.13671875
 40
0.140625
 40
0.14453125
 40
0.1484375
 40
0.15625
 40
0.1640625
 40
0.16796875
 40
0.171875
 40
0.17578125
 40
0.1796875
 40
0.181640625
 40
0.18359375
 40
0.1845703125
 40
0.185546875
 40
0.1865234375
 40
0.1870117188
 40
0.1872558594
 40
0.1875
 40
0.1877441406
 40
0.1879882812
 40
0.1884765625
 40
0.189453125
 40
0.1904296875
 40
0.19140625
 40
0.193359375
 40
0.1953125
 40
0.19921875
 40
0.203125
 40
0.20703125
 40
0.2109375
 40
0.21875
 40
0.2265625
 40
0.23046875
 40
0.234375
 40
0.23828125
 40
0.2421875
 40
0.244140625
 40
0.24609375
 40
0.2470703125
 40
0.248046875
 40
0.2490234375
 40
0.2495117188
 40
0.2497558594
 40
0.25
 40
0.2502441406
 40
0.2504882812
 40
0.2509765625
 40
0.251953125
 40
0.2529296875
 40
0.25390625
 40
0.255859375
 40
0.2578125
 40
0.26171875
 40
0.265625
 40
0.26953125
 40
0.2734375
 40
0.28125
 40
0.2890625
 40
0.29296875
 40
0.296875
 40
0.30078125
 40
0.3046875
 40
0.306640625
 40
0.30859375
 40
0.3095703125
 40
0.310546875
 40
0.3115234375
 40
0.3120117188
 40
0.3122558594
 40
0.3125
 40
0.3127441406
 40
0.3129882812
 40
0.3134765625
 40
0.314453125
 40
0.3154296875
 40
0.31640625
 40
0.318359375
 40
0.3203125
 40
0.32421875
 40
0.328125
 40
0.33203125
 40
0.3359375
 40
0.34375
 40
0.3515625
 40
0.35546875
 40
0.359375
 40
0.36328125
 40
0.3671875
 40
0.369140625
 40
0.37109375
 40
0.3720703125
 40
0.373046875
 40
0.3740234375
 40
0.3745117188
 40
0.3747558594
 40
0.375
 40
0.3752441406
 40
0.3754882812
 40
0.3759765625
 40
0.376953125
 40
0.3779296875
 40
0.37890625
 40
0.380859375
 40
0.3828125
 40
0.38671875
 40
0.390625
 40
0.39453125
 40
0.3984375
 40
0.40625
 40
0.4140625
 40
0.41796875
 40
0.421875
 40
0.42578125
 40
0.4296875
 40
0.431640625
 40
0.43359375
 40
0.4345703125
 40
0.435546875
 40
0.4365234375
 40
0.4370117188
 40
0.4372558594
 40
0.4375
 40
0.4377441406
 40
0.4379882812
 40
0.4384765625
 40
0.439453125
 40
0.4404296875
 40
0.44140625
 40
0.443359375
 40
0.4453125
 40
0.44921875
 40
0.453125
 40
0.45703125
 40
0.4609375
 40
0.46875
 40
0.4765625
 40
0.48046875
 40
0.484375
 40
0.48828125
 40
0.4921875
 40
0.494140625
 40
0.49609375
 40
0.4970703125
 40
0.498046875
 40
0.4990234375
 40
0.4995117188
 40
0.4997558594
 40
0.5
 40
0.5002441406
 40
0.5004882812
 40
0.5009765625
 40
0.501953125
 40
0.5029296875
 40
0.50390625
 40
0.505859375
 40
0.5078125
 40
0.51171875
 40
0.515625
 40
0.51953125
 40
0.5234375
 40
0.53125
 40
0.5390625
 40
0.54296875
 40
0.546875
 40
0.55078125
 40
0.5546875
 40
0.556640625
 40
0.55859375
 40
0.5595703125
 40
0.560546875
 40
0.5615234375
 40
0.5620117188
 40
0.5622558594
 40
0.5625
 40
0.5627441406
 40
0.5629882812
 40
0.5634765625
 40
0.564453125
 40
0.5654296875
 40
0.56640625
 40
0.568359375
 40
0.5703125
 40
0.57421875
 40
0.578125
 40
0.58203125
 40
0.5859375
 40
0.59375
 40
0.6015625
 40
0.60546875
 40
0.609375
 40
0.61328125
 40
0.6171875
 40
0.619140625
 40
0.62109375
 40
0.6220703125
 40
0.623046875
 40
0.6240234375
 40
0.6245117188
 40
0.6247558594
 40
0.625
 40
0.6252441406
 40
0.6254882812
 40
0.6259765625
 40
0.626953125
 40
0.6279296875
 40
0.62890625
 40
0.630859375
 40
0.6328125
 40
0.63671875
 40
0.640625
 40
0.64453125
 40
0.6484375
 40
0.65625
 40
0.6640625
 40
0.66796875
 40
0.671875
 40
0.67578125
 40
0.6796875
 40
0.681640625
 40
0.68359375
 40
0.6845703125
 40
0.685546875
 40
0.6865234375
 40
0.6870117188
 40
0.6872558594
 40
0.6875
 40
0.6877441406
 40
0.6879882812
 40
0.6884765625
 40
0.689453125
 40
0.6904296875
 40
0.69140625
 40
0.693359375
 40
0.6953125
 40
0.69921875
 40
0.703125
 40
0.70703125
 40
0.7109375
 40
0.71875
 40
0.7265625
 40
0.734375
 40
0.73828125
 40
0.7421875
 40
0.744140625
 40
0.74609375
 40
0.748046875
 40
0.7490234375
 40
0.7495117188
 40
0.75
 40
0.7504882812
 40
0.7509765625
 40
0.751953125
 40
0.75390625
 40
0.755859375
 40
0.7578125
 40
0.76171875
 40
0.765625
 40
0.7734375
 40
0.78125
 40
0.7890625
 40
0.796875
 40
0.80078125
 40
0.8046875
 40
0.806640625
 40
0.80859375
 40
0.810546875
 40
0.8115234375
 40
0.8120117188
 40
0.8125
 40
0.8129882812
 40
0.8134765625
 40
0.814453125
 40
0.81640625
 40
0.818359375
 40
0.8203125
 40
0.82421875
 40
0.828125
 40
0.8359375
 40
0.84375
 40
0.8515625
 40
0.859375
 40
0.86328125
 40
0.8671875
 40
0.87109375
 40
0.873046875
 40
0.8740234375
 40
0.875
 40
0.8759765625
 40
0.876953125
 40
0.87890625
 40
0.8828125
 40
0.88671875
 40
0.890625
 40
0.8984375
 40
0.90625
 40
0.9140625
 40
0.921875
 40
0.92578125
 40
0.9296875
 40
0.93359375
 40
0.935546875
 40
0.9365234375
 40
0.9375
 40
0.9384765625
 40
0.939453125
 40
0.94140625
 40
0.9453125
 40
0.94921875
 40
0.953125
 40
0.9609375
 40
0.96875
 40
0.984375
 40
1.0
 40
1.0
 40
1.0
 40
1.0
 10
12.3731290579
 20
8.3648031474
 30
0.0
 10
12.3730467408
 20
8.3678568222
 30
0.0
 10
12.3729232653
 20
8.3724373344
 30
0.0
 10
12.3727586311
 20
8.3785446836
 30
0.0
 10
12.372635156
 20
8.3831251967
 30
0.0
 10
12.3725116785
 20
8.3877057054
 30
0.0
 10
12.3724087883
 20
8.3915228094
 30
0.0
 10
12.3723264588
 20
8.3945764628
 30
0.0
 10
12.3722750425
 20
8.3964850638
 30
0.0
 10
12.3722338185
 20
8.3980117897
 30
0.0
 10
12.3722031495
 20
8.3991572584
 30
0.0
 10
12.3721768001
 20
8.4001104657
 30
0.0
 10
12.3721599096
 20
8.4007803602
 30
0.0
 10
12.3721478313
 20
8.4011590202
 30
0.0
 10
12.3721456081
 20
8.4014546689
 30
0.0
 10
12.3721172564
 20
8.4017057713
 30
0.0
 10
12.372088568
 20
8.4020561128
 30
0.0
 10
12.372034117
 20
8.4026619708
 30
0.0
 10
12.37195855
 20
8.4035312672
 30
0.0
 10
12.3718669192
 20
8.4045728028
 30
0.0
 10
12.3717450768
 20
8.4059620828
 30
0.0
 10
12.3715926601
 20
8.407698489
 30
0.0
 10
12.3713488569
 20
8.4104768472
 30
0.0
 10
12.3710440812
 20
8.413949758
 30
0.0
 10
12.3706783595
 20
8.4181172664
 30
0.0
 10
12.3703735898
 20
8.4215901877
 30
0.0
 10
12.3701297733
 20
8.4243685226
 30
0.0
 10
12.3699469141
 20
8.4264522818
 30
0.0
 10
12.3697640426
 20
8.4285360101
 30
0.0
 10
12.369611688
 20
8.4302725464
 30
0.0
 10
12.3694897185
 20
8.4316615604
 30
0.0
 10
12.369398476
 20
8.4327039085
 30
0.0
 10
12.3693216942
 20
8.4335706629
 30
0.0
 10
12.3692694116
 20
8.4341810587
 30
0.0
 10
12.3692372489
 20
8.4345241295
 30
0.0
 10
12.3692195693
 20
8.4347975653
 30
0.0
 10
12.3691772636
 20
8.4350093335
 30
0.0
 10
12.3691294459
 20
8.4353132015
 30
0.0
 10
12.3690417628
 20
8.4358349485
 30
0.0
 10
12.3689185936
 20
8.4365855409
 30
0.0
 10
12.3687698949
 20
8.4374840091
 30
0.0
 10
12.3685719428
 20
8.4386827501
 30
0.0
 10
12.3683243954
 20
8.4401809075
 30
0.0
 10
12.3680273845
 20
8.4419788117
 30
0.0
 10
12.3677303613
 20
8.443776685
 30
0.0
 10
12.3673343346
 20
8.4461738602
 30
0.0
 10
12.3668392998
 20
8.4491703254
 30
0.0
 10
12.3663442656
 20
8.4521667922
 30
0.0
 10
12.365948238
 20
8.454563965
 30
0.0
 10
12.3656512177
 20
8.4563618455
 30
0.0
 10
12.3653541961
 20
8.4581597226
 30
0.0
 10
12.3651066818
 20
8.4596579642
 30
0.0
 10
12.3649086623
 20
8.4608565335
 30
0.0
 10
12.3647849183
 20
8.4616056938
 30
0.0
 10
12.3646858815
 20
8.4622048974
 30
0.0
 10
12.3646117178
 20
8.4626546414
 30
0.0
 10
12.3645495524
 20
8.4630283423
 30
0.0
 10
12.3645067476
 20
8.4632920637
 30
0.0
 10
12.3644811775
 20
8.4634394346
 30
0.0
 10
12.3644651274
 20
8.4635593351
 30
0.0
 10
12.3644371229
 20
8.4636434099
 30
0.0
 10
12.3644039534
 20
8.463768006
 30
0.0
 10
12.3643439641
 20
8.4639802269
 30
0.0
 10
12.3642592807
 20
8.4642864436
 30
0.0
 10
12.3641572259
 20
8.4646526008
 30
0.0
 10
12.3640213047
 20
8.4651412654
 30
0.0
 10
12.3638513512
 20
8.4657519403
 30
0.0
 10
12.3635794546
 20
8.4667291072
 30
0.0
 10
12.3632395739
 20
8.4679505361
 30
0.0
 10
12.3628317213
 20
8.4694162635
 30
0.0
 10
12.3624238676
 20
8.4708819875
 30
0.0
 10
12.3618800631
 20
8.4728362873
 30
0.0
 10
12.3612003073
 20
8.4752791616
 30
0.0
 10
12.3605205515
 20
8.4777220363
 30
0.0
 10
12.3599767469
 20
8.4796763356
 30
0.0
 10
12.3595688936
 20
8.4811420612
 30
0.0
 10
12.3591610395
 20
8.4826077823
 30
0.0
 10
12.3588211636
 20
8.4838292307
 30
0.0
 10
12.3585492571
 20
8.4848063578
 30
0.0
 10
12.3583793288
 20
8.4854171342
 30
0.0
 10
12.3582433558
 20
8.4859055905
 30
0.0
 10
12.3581414593
 20
8.4862723841
 30
0.0
 10
12.3580562807
 20
8.4865766095
 30
0.0
 10
12.3579971754
 20
8.4867923852
 30
0.0
 10
12.3579625894
 20
8.4869112858
 30
0.0
 10
12.3579389362
 20
8.4870128554
 30
0.0
 10
12.3579065432
 20
8.4870670481
 30
0.0
 10
12.357866401
 20
8.4871558306
 30
0.0
 10
12.3577947318
 20
8.4873035004
 30
0.0
 10
12.3576930898
 20
8.4875184827
 30
0.0
 10
12.3575708016
 20
8.4877747385
 30
0.0
 10
12.3574078617
 20
8.4881170146
 30
0.0
 10
12.3572041488
 20
8.4885446538
 30
0.0
 10
12.3568782294
 20
8.4892289916
 30
0.0
 10
12.3564708228
 20
8.4900843743
 30
0.0
 10
12.355981938
 20
8.4911108505
 30
0.0
 10
12.3554930524
 20
8.4921373221
 30
0.0
 10
12.3548412052
 20
8.4935059526
 30
0.0
 10
12.3540263961
 20
8.4952167401
 30
0.0
 10
12.3532115871
 20
8.4969275279
 30
0.0
 10
12.3525597398
 20
8.4982961578
 30
0.0
 10
12.3520708546
 20
8.4993226313
 30
0.0
 10
12.3515819686
 20
8.5003491003
 30
0.0
 10
12.3511745658
 20
8.5012045055
 30
0.0
 10
12.3508486386
 20
8.5018887974
 30
0.0
 10
12.3506449454
 20
8.5023165534
 30
0.0
 10
12.350481965
 20
8.5026585896
 30
0.0
 10
12.3503598003
 20
8.5029155784
 30
0.0
 10
12.3502577719
 20
8.5031282672
 30
0.0
 10
12.3501867926
 20
8.5032800314
 30
0.0
 10
12.350145545
 20
8.5033622536
 30
0.0
 10
12.3501165475
 20
8.5034365974
 30
0.0
 10
12.3500801413
 20
8.5034624826
 30
0.0
 10
12.3500341839
 20
8.5035138992
 30
0.0
 10
12.3499525545
 20
8.5035960027
 30
0.0
 10
12.3498365705
 20
8.5037174107
 30
0.0
 10
12.3496971202
 20
8.5038613381
 30
0.0
 10
12.3495112806
 20
8.5040538568
 30
0.0
 10
12.3492789489
 20
8.5042942943
 30
0.0
 10
12.3489072363
 20
8.5046791122
 30
0.0
 10
12.3484425892
 20
8.5051600942
 30
0.0
 10
12.3478850155
 20
8.5057372899
 30
0.0
 10
12.347327441
 20
8.5063144809
 30
0.0
 10
12.3465840085
 20
8.5070840706
 30
0.0
 10
12.3456547179
 20
8.5080460571
 30
0.0
 10
12.3447254274
 20
8.509008044
 30
0.0
 10
12.3439819949
 20
8.5097776331
 30
0.0
 10
12.3434244207
 20
8.5103548261
 30
0.0
 10
12.3428668459
 20
8.5109320143
 30
0.0
 10
12.3424022018
 20
8.5114130196
 30
0.0
 10
12.3420304832
 20
8.5117977899
 30
0.0
 10
12.3417981667
 20
8.5120383486
 30
0.0
 10
12.3416122958
 20
8.5122306187
 30
0.0
 10
12.3414729414
 20
8.5123753055
 30
0.0
 10
12.3413566576
 20
8.5124943374
 30
0.0
 10
12.3412755633
 20
8.5125806828
 30
0.0
 10
12.3412287484
 20
8.5126253027
 30
0.0
 10
12.3411949762
 20
8.5126720651
 30
0.0
 10
12.3411560859
 20
8.5126679976
 30
0.0
 10
12.3411060175
 20
8.5126803043
 30
0.0
 10
12.341017566
 20
8.5126935802
 30
0.0
 10
12.3408916415
 20
8.5127168647
 30
0.0
 10
12.340740346
 20
8.5127429575
 30
0.0
 10
12.3405386837
 20
8.5127783935
 30
0.0
 10
12.3402865835
 20
8.5128224675
 30
0.0
 10
12.3398832357
 20
8.5128931095
 30
0.0
 10
12.3393790466
 20
8.5129813695
 30
0.0
 10
12.3387740216
 20
8.5130872997
 30
0.0
 10
12.338168996
 20
8.5131932251
 30
0.0
 10
12.3373622955
 20
8.5133344606
 30
0.0
 10
12.3363539198
 20
8.5135110043
 30
0.0
 10
12.3353455441
 20
8.5136875485
 30
0.0
 10
12.3345388435
 20
8.5138287833
 30
0.0
 10
12.3339338181
 20
8.5139347108
 30
0.0
 10
12.3333287924
 20
8.5140406332
 30
0.0
 10
12.3328246054
 20
8.5141289175
 30
0.0
 10
12.3324212533
 20
8.51419951
 30
0.0
 10
12.3321691641
 20
8.5142437099
 30
0.0
 10
12.3319674793
 20
8.5142788874
 30
0.0
 10
12.3318162524
 20
8.5143057701
 30
0.0
 10
12.3316901132
 20
8.5143265832
 30
0.0
 10
12.331602045
 20
8.514344271
 30
0.0
 10
12.3315513624
 20
8.5143495088
 30
0.0
 10
12.3315143585
 20
8.5143671548
 30
0.0
 10
12.3314735017
 20
8.5143323648
 30
0.0
 10
12.3314203698
 20
8.5143042684
 30
0.0
 10
12.331326763
 20
8.5142465778
 30
0.0
 10
12.3311933662
 20
8.5141686181
 30
0.0
 10
12.33103315
 20
8.5140731594
 30
0.0
 10
12.3308195773
 20
8.5139465473
 30
0.0
 10
12.3305525947
 20
8.513788054
 30
0.0
 10
12.330125432
 20
8.5135345922
 30
0.0
 10
12.3295914753
 20
8.5132177212
 30
0.0
 10
12.3289507286
 20
8.5128374948
 30
0.0
 10
12.3283099816
 20
8.5124572634
 30
0.0
 10
12.3274556524
 20
8.51195029
 30
0.0
 10
12.3263877408
 20
8.5113165725
 30
0.0
 10
12.3253198292
 20
8.5106828554
 30
0.0
 10
12.3244654999
 20
8.5101758813
 30
0.0
 10
12.323824753
 20
8.5097956519
 30
0.0
 10
12.3231840061
 20
8.5094154178
 30
0.0
 10
12.3226500501
 20
8.5090985708
 30
0.0
 10
12.322222886
 20
8.5088450602
 30
0.0
 10
12.3219559066
 20
8.5086866912
 30
0.0
 10
12.3217423273
 20
8.5085598239
 30
0.0
 10
12.3215821314
 20
8.5084651445
 30
0.0
 10
12.3214486711
 20
8.5083847467
 30
0.0
 10
12.3213551777
 20
8.5083314086
 30
0.0
 10
12.3213018641
 20
8.5082963384
 30
0.0
 10
12.3212615657
 20
8.5082829696
 30
0.0
 10
12.3212224642
 20
8.5082201613
 30
0.0
 10
12.3211699114
 20
8.5081536619
 30
0.0
 10
12.3210781385
 20
8.5080292531
 30
0.0
 10
12.3209469326
 20
8.5078557271
 30
0.0
 10
12.3207895291
 20
8.5076456977
 30
0.0
 10
12.3205796426
 20
8.5073662867
 30
0.0
 10
12.3203172896
 20
8.5070168078
 30
0.0
 10
12.319897522
 20
8.5064577618
 30
0.0
 10
12.3193728134
 20
8.505758913
 30
0.0
 10
12.3187431627
 20
8.5049203121
 30
0.0
 10
12.3181135121
 20
8.5040817066
 30
0.0
 10
12.3172739779
 20
8.5029635675
 30
0.0
 10
12.3162245602
 20
8.5015658929
 30
0.0
 10
12.3151751425
 20
8.5001682188
 30
0.0
 10
12.3143356084
 20
8.4990500791
 30
0.0
 10
12.3137059577
 20
8.4982114754
 30
0.0
 10
12.3130763073
 20
8.4973728674
 30
0.0
 10
12.3125515978
 20
8.4966740411
 30
0.0
 10
12.312131832
 20
8.4961149492
 30
0.0
 10
12.3118694744
 20
8.495765587
 30
0.0
 10
12.3116595973
 20
8.4954859364
 30
0.0
 10
12.3115021649
 20
8.4952766391
 30
0.0
 10
12.3113710496
 20
8.4951008227
 30
0.0
 10
12.311279115
 20
8.4949805025
 30
0.0
 10
12.3112268212
 20
8.4949074523
 30
0.0
 10
12.3111869241
 20
8.494864766
 30
0.0
 10
12.3111496138
 20
8.494775822
 30
0.0
 10
12.3110989645
 20
8.4946733652
 30
0.0
 10
12.3110107485
 20
8.4944865481
 30
0.0
 10
12.3108845059
 20
8.4942235968
 30
0.0
 10
12.3107331088
 20
8.493906373
 30
0.0
 10
12.3105312132
 20
8.4934839955
 30
0.0
 10
12.3102788549
 20
8.4929558225
 30
0.0
 10
12.3098750754
 20
8.4921108581
 30
0.0
 10
12.3093703532
 20
8.491054614
 30
0.0
 10
12.3087646855
 20
8.4897871376
 30
0.0
 10
12.3081590182
 20
8.4885196568
 30
0.0
 10
12.3073514616
 20
8.4868296839
 30
0.0
 10
12.3063420159
 20
8.4847172172
 30
0.0
 10
12.3053325702
 20
8.4826047509
 30
0.0
 10
12.3045250136
 20
8.4809147775
 30
0.0
 10
12.3039193461
 20
8.4796472984
 30
0.0
 10
12.3033136791
 20
8.4783798154
 30
0.0
 10
12.302808955
 20
8.4773235918
 30
0.0
 10
12.3024051792
 20
8.4764785855
 30
0.0
 10
12.3021528115
 20
8.475950519
 30
0.0
 10
12.3019509351
 20
8.4755279229
 30
0.0
 10
12.3017994794
 20
8.475211367
 30
0.0
 10
12.3016734202
 20
8.4749463262
 30
0.0
 10
12.3015848768
 20
8.4747632392
 30
0.0
 10
12.301534752
 20
8.4746548058
 30
0.0
 10
12.3014958306
 20
8.47458422
 30
0.0
 10
12.3014619843
 20
8.4744725835
 30
0.0
 10
12.3014150857
 20
8.4743380538
 30
0.0
 10
12.3013338379
 20
8.4740959554
 30
0.0
 10
12.3012173384
 20
8.4737535884
 30
0.0
 10
12.3010777236
 20
8.473341255
 30
0.0
 10
12.3008915061
 20
8.4727919987
 30
0.0
 10
12.3006587562
 20
8.4721052498
 30
0.0
 10
12.3002863441
 20
8.4710065513
 30
0.0
 10
12.2998208331
 20
8.4696331439
 30
0.0
 10
12.2992622182
 20
8.4679850697
 30
0.0
 10
12.2987036038
 20
8.4663369916
 30
0.0
 10
12.2979587843
 20
8.4641395555
 30
0.0
 10
12.2970277601
 20
8.4613927599
 30
0.0
 10
12.2960967359
 20
8.4586459646
 30
0.0
 10
12.2953519165
 20
8.456448528
 30
0.0
 10
12.2947933018
 20
8.4548004514
 30
0.0
 10
12.2942346878
 20
8.4531523713
 30
0.0
 10
12.2937691741
 20
8.4517789825
 30
0.0
 10
12.2933967676
 20
8.450680246
 30
0.0
 10
12.2931640036
 20
8.4499935939
 30
0.0
 10
12.292977815
 20
8.4494441388
 30
0.0
 10
12.2928381116
 20
8.4490324127
 30
0.0
 10
12.2927218893
 20
8.4486881459
 30
0.0
 10
12.2926401467
 20
8.4484494389
 30
0.0
 10
12.2925940408
 20
8.4483094753
 30
0.0
 10
12.2925577595
 20
8.4482145301
 30
0.0
 10
12.2925279837
 20
8.4480812547
 30
0.0
 10
12.2924860134
 20
8.4479169243
 30
0.0
 10
12.2924136227
 20
8.4476231167
 30
0.0
 10
12.2923096546
 20
8.4472066482
 30
0.0
 10
12.2921851294
 20
8.4467054921
 30
0.0
 10
12.2920190133
 20
8.4460377709
 30
0.0
 10
12.2918113964
 20
8.4452029526
 30
0.0
 10
12.2914791936
 20
8.4438673366
 30
0.0
 10
12.2910639455
 20
8.4421977845
 30
0.0
 10
12.2905656454
 20
8.4401943358
 30
0.0
 10
12.290067346
 20
8.4381908834
 30
0.0
 10
12.2894029466
 20
8.4355196147
 30
0.0
 10
12.288572447
 20
8.4321805294
 30
0.0
 10
12.2875758494
 20
8.4281736227
 30
0.0
 10
12.2867453453
 20
8.4248345473
 30
0.0
 10
12.2860809559
 20
8.4221632568
 30
0.0
 10
12.2856656808
 20
8.4204937688
 30
0.0
 10
12.2853335333
 20
8.4191580215
 30
0.0
 10
12.2850842239
 20
8.4181566405
 30
0.0
 10
12.2848770985
 20
8.4173207901
 30
0.0
 10
12.2847308697
 20
8.4167383761
 30
0.0
 10
12.284649248
 20
8.4164013815
 30
0.0
 10
12.2845825733
 20
8.4161604293
 30
0.0
 10
12.2845367637
 20
8.4158743952
 30
0.0
 10
12.2844684062
 20
8.4155087414
 30
0.0
 10
12.2843521716
 20
8.4148615208
 30
0.0
 10
12.2841843494
 20
8.4139407503
 30
0.0
 10
12.2839837214
 20
8.4128341862
 30
0.0
 10
12.2837159525
 20
8.41135934
 30
0.0
 10
12.2833813321
 20
8.4095155862
 30
0.0
 10
12.2828458888
 20
8.4065656897
 30
0.0
 10
12.2821766021
 20
8.4028782813
 30
0.0
 10
12.28137345
 20
8.3984534083
 30
0.0
 10
12.2805703021
 20
8.3940285276
 30
0.0
 10
12.2799010051
 20
8.3903411382
 30
0.0
 10
12.2793655823
 20
8.3873912038
 30
0.0
 10
12.2790309095
 20
8.3855475463
 30
0.0
 10
12.2787632482
 20
8.3840725024
 30
0.0
 10
12.2785622914
 20
8.3829665425
 30
0.0
 10
12.2783954982
 20
8.3820438814
 30
0.0
 10
12.2782774265
 20
8.3814000359
 30
0.0
 10
12.2782120125
 20
8.3810289742
 30
0.0
 10
12.2781571616
 20
8.3807595516
 30
0.0
 10
12.2781244445
 20
8.3804562095
 30
0.0
 10
12.2780731012
 20
8.3800635849
 30
0.0
 10
12.2779868477
 20
8.3793709793
 30
0.0
 10
12.2778617476
 20
8.3783844247
 30
0.0
 10
12.2777124326
 20
8.3771993256
 30
0.0
 10
12.2775130647
 20
8.3756196243
 30
0.0
 10
12.2772639511
 20
8.3736448502
 30
0.0
 10
12.2768653153
 20
8.3704852942
 30
0.0
 10
12.2763670405
 20
8.36653582
 30
0.0
 10
12.2757690961
 20
8.3617964671
 30
0.0
 10
12.2751711785
 20
8.3570570965
 30
0.0
 10
12.2746728368
 20
8.3531076667
 30
0.0
 10
12.274274335
 20
8.3499480219
 30
0.0
 10
12.2739749901
 20
8.3475785637
 30
0.0
 10
12.2737270265
 20
8.3456031394
 30
0.0
 10
12.2735505269
 20
8.3442220611
 30
0.0
 10
12.2734542372
 20
8.3434301898
 30
0.0
 10
12.2733691539
 20
8.3428438463
 30
0.0
 10
12.2733332513
 20
8.3422286051
 30
0.0
 10
12.2732682264
 20
8.3414183634
 30
0.0
 10
12.2731624256
 20
8.339995744
 30
0.0
 10
12.2730071029
 20
8.3379658859
 30
0.0
 10
12.2728225043
 20
8.3355290053
 30
0.0
 10
12.2725757478
 20
8.3322801982
 30
0.0
 10
12.2722675182
 20
8.3282190631
 30
0.0
 10
12.2718975435
 20
8.3233457561
 30
0.0
 10
12.2715276197
 20
8.318472431
 30
0.0
 10
12.2712192629
 20
8.314411341
 30
0.0
 10
12.2709727607
 20
8.3111624437
 30
0.0
 10
12.2707873865
 20
8.3087258383
 30
0.0
 10
12.2706344904
 20
8.3066951191
 30
0.0
 10
12.2705243577
 20
8.3052740369
 30
0.0
 10
12.2704662735
 20
8.3044613322
 30
0.0
 10
12.2704090513
 20
8.3038536568
 30
0.0
 10
12.2704040411
 20
8.3032388975
 30
0.0
 10
12.2703791486
 20
8.3024216893
 30
0.0
 10
12.2703440722
 20
8.3009904238
 30
0.0
 10
12.2702895267
 20
8.2989463607
 30
0.0
 10
12.2702259711
 20
8.2964932274
 30
0.0
 10
12.2701405669
 20
8.2932224729
 30
0.0
 10
12.2700340389
 20
8.289133999
 30
0.0
 10
12.269863467
 20
8.282592458
 30
0.0
 10
12.2696502961
 20
8.2744155257
 30
0.0
 10
12.2694797459
 20
8.2678739817
 30
0.0
 10
12.2693944725
 20
8.2646032095
 30
0.0
  0
ELLIPSE
  5
415
100
AcDbEntity
  8
0
100
AcDbEllipse
 62
7
  6
CONTINUOUS
 10
11.1650972592
 20
10.0164167852
 30
0.0
 11
0.2072647672
 21
-0.0027642777
 31
0.0
 40
0.2356188438
 41
0.0
 42
6.2831853072
  0
ELLIPSE
  5
416
100
AcDbEntity
  8
0
100
AcDbEllipse
 62
7
  6
CONTINUOUS
 10
10.9546775586
 20
9.8131669499
 30
0.0
 11
0.2072647672
 21
-0.0027642777
 31
0.0
 40
0.2356188438
 41
0.0
 42
6.2831853072
  0
ELLIPSE
  5
417
100
AcDbEntity
  8
0
100
AcDbEllipse
 62
7
  6
CONTINUOUS
 10
10.3951351083
 20
9.7096904505
 30
0.0
 11
0.19016197
 21
-0.0060793688
 31
0.0
 40
0.3068618647
 41
0.0
 42
6.2831853072
  0
ENDSEC
  0
SECTION
  2
OBJECTS
  0
DICTIONARY
  5
C
100
AcDbDictionary
280
0
281
1
  3
ACAD_GROUP
350
D
  3
ACAD_MLINESTYLE
350
17
  3
ACAD_LAYOUT
350
1A
  3
ACAD_PLOTSETTINGS
350
19
  3
ACAD_PLOTSTYLENAME
350
E
  3
ACAD_IMAGE_DICT
350
       419
  3
ACAD_IMAGE_VARS
350
       41A
  3
ACAD_TABLESTYLE
350
       41B
  0
IMAGEDEF_REACTOR
  5
418
100
AcDbRasterImageDefReactor
 90
2
330
271
  0
DICTIONARY
  5
D
102
{ACAD_REACTORS
330
C
102
}
100
AcDbDictionary
280
0
281
1
  0
ACDBDICTIONARYWDFLT
  5
E
102
{ACAD_REACTORS
330
C
102
}
100
AcDbDictionary
281
1
  3
Normal
350
F
100
AcDbDictionaryWithDefault
340
F
  0
DICTIONARY
  5
419
330
C
100
AcDbDictionary
281
1
  3
BB8_assy_2_img_1
350
       41E
  0
RASTERVARIABLES
  5
41A
330
C
100
AcDbRasterVariables
 90
0
 70
0
 71
1
 72
5
  0
DICTIONARY
  5
17
102
{ACAD_REACTORS
330
C
102
}
100
AcDbDictionary
280
0
281
1
  3
Standard
350
18
  0
DICTIONARY
  5
41B
330
C
100
AcDbDictionary
281
1
  3
Standard
350
       41F
  3
Standard1
350
       420
  0
DICTIONARY
  5
19
102
{ACAD_REACTORS
330
C
102
}
100
AcDbDictionary
281
1
  0
DICTIONARY
  5
1A
102
{ACAD_REACTORS
330
C
102
}
100
AcDbDictionary
281
1
  3
Model
350
41C
  3
Layout1
350
41D
  0
ACDBPLACEHOLDER
  5
F
102
{ACAD_REACTORS
330
E
102
}
  0
MLINESTYLE
  5
18
102
{ACAD_REACTORS
330
17
102
}
100
AcDbMlineStyle
  2
STANDARD
 70
0
  3

 62
256
 51
90.0
 52
90.0
 71
2
 49
0.5
 62
256
  6
BYLAYER
 49
-0.5
 62
256
  6
BYLAYER
  0
LAYOUT
  5
41C
102
{ACAD_REACTORS
330
1A
102
}
100
AcDbPlotSettings
  1

  2
none_device
  4
ANSI_C_(22.00_x_17.00_Inches)
  6

 40
0.0
 41
0.0
 42
0.0
 43
0.0
 44
558.8
 45
431.8
 46
0.0
 47
0.0
 48
0.0
 49
0.0
140
0.0
141
0.0
142
1.0
143
1.0
 70
1024
 72
0
 73
0
 74
0
  7

 75
0
147
1.0
148
0.0
149
0.0
100
AcDbLayout
  1
Model
 70
0
 71
0
 10
0.0
 20
0.0
 11
22.0
 21
17.0
 12
0.0
 22
0.0
 32
0.0
 14
0.0
 24
0.0
 34
0.0
 15
0.0
 25
0.0
 35
0.0
146
0.0
 13
0.0
 23
0.0
 33
0.0
 16
1.0
 26
0.0
 36
0.0
 17
0.0
 27
1.0
 37
0.0
 76
0
330
20E
345
0
346
0
  0
LAYOUT
  5
41D
102
{ACAD_REACTORS
330
1A
102
}
100
AcDbPlotSettings
  1

  2
none_device
  4
ANSI_C_(22.00_x_17.00_Inches)
  6

 40
0.0
 41
0.0
 42
0.0
 43
0.0
 44
558.8
 45
431.8
 46
0.0
 47
0.0
 48
0.0
 49
0.0
140
0.0
141
0.0
142
1.0
143
1.0
 70
0
 72
0
 73
0
 74
0
  7

 75
0
147
1.0
148
0.0
149
0.0
100
AcDbLayout
  1
Layout1
 70
0
 71
1
 10
0.0
 20
0.0
 11
22.0
 21
17.0
 12
0.0
 22
0.0
 32
0.0
 14
0.0
 24
0.0
 34
0.0
 15
0.0
 25
0.0
 35
0.0
146
0.0
 13
0.0
 23
0.0
 33
0.0
 16
1.0
 26
0.0
 36
0.0
 17
0.0
 27
1.0
 37
0.0
 76
0
330
20F
345
0
346
0
  0
IMAGEDEF
  5
41E
102
{ACAD_REACTORS
330
419
330
418
102
}
100
AcDbRasterImageDef
 90
0
  1
BB8_assy_2_img_1.png
 10
369.0
 20
92.0
 11
0.0066666667
 21
0.0066666667
280
1
281
0
  0
TABLESTYLE
  5
41F
102
{ACAD_REACTORS
330
41B
330
274
102
}
330
41B
100
AcDbTableStyle
  3
Standard
 70
0
 71
0
 40
0.06
 41
0.06
280
1
281
1
  7
Standard
140
0.18
170
1
 62
0
 63
7
283
0
  7
Standard
140
0.18
170
1
 62
0
 63
7
283
0
  7
Standard
140
0.18
170
1
 62
0
 63
7
283
0
  0
TABLESTYLE
  5
420
102
{ACAD_REACTORS
330
41B
330
273
102
}
330
41B
100
AcDbTableStyle
  3
Standard1
 70
1
 71
0
 40
0.06
 41
0.06
280
1
281
1
  7
Standard
140
0.18
170
1
 62
0
 63
7
283
0
  7
Standard
140
0.18
170
1
 62
0
 63
7
283
0
  7
Standard
140
0.18
170
1
 62
0
 63
7
283
0
  0
ENDSEC
  0
EOF
