999
DXF file: BB5_assy_2.dxf
999
Pro/ENGINEER 2014200 by Parametric Technology Corporation
  0
SECTION
  2
HEADER
  9
$ACADVER
  1
AC1021
  9
$DWGCODEPAGE
  3
ANSI_1252
  9
$EXTMAX
 10
22.0
 20
17.0
 30
0.0
  9
$EXTMIN
 10
0.0
 20
0.0
 30
0.0
  9
$LIMMIN
 10
0.0
 20
0.0
  9
$LIMMAX
 10
22.0
 20
17.0
  9
$VIEWCTR
 10
11.0
 20
8.5
  9
$VIEWSIZE
 40
17.0
  9
$CLAYER
  8
0
  9
$LTSCALE
 40
1.21
  9
$CELTYPE
  6
BYLAYER
  9
$DIMSCALE
 40
1.0
  9
$DIMASZ
 40
0.1875
  9
$DIMEXO
 40
0.0625
  9
$DIMDLI
 40
0.836
  9
$DIMEXE
 40
0.125
  9
$DIMCEN
 40
0.198
  9
$DIMLFAC
 40
1.0
  9
$DIMBLK
  1
_FILLED
  9
$DIMTXT
 40
0.1
  9
$DIMTOL
 70
0
  9
$DIMLIM
 70
0
  9
$DIMTFAC
 40
1.0
  9
$DIMGAP
 40
0.09
  9
$DIMDSEP
 70
46
  9
$AUNITS
 70
0
  9
$PDMODE
 70
3
  9
$PDSIZE
 40
0.3125
  9
$HANDSEED
  5
488
  9
$TILEMODE
 70
1
  9
$MEASUREMENT
 70
0
  9
$INSUNITS
 70
1
  0
ENDSEC
  0
SECTION
  2
CLASSES
  0
CLASS
  1
ACDBDICTIONARYWDFLT
  2
AcDbDictionaryWithDefault
  3
AutoCAD 2000
 90
0
 91
1
280
0
281
0
  0
CLASS
  1
ACDBPLACEHOLDER
  2
AcDbPlaceHolder
  3
AutoCAD 2000
 90
0
 91
1
280
0
281
0
  0
CLASS
  1
LAYOUT
  2
AcDbLayout
  3
AutoCAD 2000
 90
0
 91
0
280
0
281
0
  0
CLASS
  1
RASTERVARIABLES
  2
AcDbRasterVariables
  3
ISM
 90
0
 91
1
280
0
281
0
  0
CLASS
  1
IMAGEDEF
  2
AcDbRasterImageDef
  3
ISM
 90
0
 91
1
280
0
281
0
  0
CLASS
  1
IMAGEDEF_REACTOR
  2
AcDbRasterImageDefReactor
  3
ISM
 90
0
 91
1
280
0
281
0
  0
CLASS
  1
IMAGE
  2
AcDbRasterImage
  3
ISM
 90
127
 91
1
280
0
281
1
  0
CLASS
  1
TABLESTYLE
  2
AcDbTableStyle
  3
ObjectDBX Classes
 90
2047
 91
1
280
0
281
0
  0
CLASS
  1
ACAD_TABLE
  2
AcDbTable
  3
ObjectDBX Classes
 90
1025
 91
2
280
0
281
1
  0
ENDSEC
  0
SECTION
  2
TABLES
  0
TABLE
  2
VPORT
  5
8
100
AcDbSymbolTable
 70
2
  0
VPORT
  5
1F4
100
AcDbSymbolTableRecord
100
AcDbViewportTableRecord
  2
*ACTIVE
 70
0
 10
0.0
 20
0.0
 11
1.0
 21
1.0
 12
11.0
 22
8.5
 13
0.0
 23
0.0
 14
1.0
 24
1.0
 15
0.0
 25
0.0
 16
0.0
 26
0.0
 36
1.0
 17
0.0
 27
0.0
 37
0.0
 40
17.0
 41
1.2941176471
 42
50.0
 43
0.0
 44
0.0
 50
0.0
 51
0.0
 71
0
 72
100
 73
1
 74
1
 75
0
 76
0
 77
0
 78
0
  0
ENDTAB
  0
TABLE
  2
LTYPE
  5
5
100
AcDbSymbolTable
 70
6
  0
LTYPE
  5
14
100
AcDbSymbolTableRecord
100
AcDbLinetypeTableRecord
  2
BYBLOCK
 70
0
  3

 72
65
 73
0
 40
0.0
  0
LTYPE
  5
15
100
AcDbSymbolTableRecord
100
AcDbLinetypeTableRecord
  2
BYLAYER
 70
0
  3

 72
65
 73
0
 40
0.0
  0
LTYPE
  5
16
100
AcDbSymbolTableRecord
100
AcDbLinetypeTableRecord
  2
CONTINUOUS
 70
64
  3
Solid line
 72
65
 73
0
 40
0.0
  0
LTYPE
  5
1F5
100
AcDbSymbolTableRecord
100
AcDbLinetypeTableRecord
  2
CENTER
 70
64
  3
____ _ ____ _ ____ _ ____ _ ____ _ ____ _ ____
 72
65
 73
4
 40
0.6
 49
0.375
 74
0
 49
-0.075
 74
0
 49
0.075
 74
0
 49
-0.075
 74
0
  0
LTYPE
  5
1F6
100
AcDbSymbolTableRecord
100
AcDbLinetypeTableRecord
  2
HIDDEN
 70
64
  3
- - - - - - - - - - - - - - - - - - - -
 72
65
 73
2
 40
0.2
 49
0.1
 74
0
 49
-0.1
 74
0
  0
LTYPE
  5
1F7
100
AcDbSymbolTableRecord
100
AcDbLinetypeTableRecord
  2
PHANTOM
 70
64
  3
_____ _ _ _____ _ _ _____ _ _ _____
 72
65
 73
6
 40
0.8
 49
0.45
 74
0
 49
-0.05
 74
0
 49
0.1
 74
0
 49
-0.05
 74
0
 49
0.1
 74
0
 49
-0.05
 74
0
  0
LTYPE
  5
1F8
100
AcDbSymbolTableRecord
100
AcDbLinetypeTableRecord
  2
DOT
 70
64
  3
. . . . . . . . . . . . . . . . . . . .
 72
65
 73
2
 40
0.2
 49
0.1
 74
0
 49
-0.1
 74
0
  0
LTYPE
  5
1F9
100
AcDbSymbolTableRecord
100
AcDbLinetypeTableRecord
  2
DASHED
 70
64
  3
- - - - - - - - - - - - - - - - - - - -
 72
65
 73
2
 40
0.2
 49
0.1
 74
0
 49
-0.1
 74
0
  0
ENDTAB
  0
TABLE
  2
LAYER
  5
2
100
AcDbSymbolTable
 70
36
  0
LAYER
  5
10
100
AcDbSymbolTableRecord
100
AcDbLayerTableRecord
  2
0
 70
0
 62
7
  6
CONTINUOUS
370
-3
390
F
  0
LAYER
  5
1FA
100
AcDbSymbolTableRecord
100
AcDbLayerTableRecord
  2
DEFAULT_1
 70
0
 62
7
  6
CENTER
370
-3
390
F
  0
LAYER
  5
1FB
100
AcDbSymbolTableRecord
100
AcDbLayerTableRecord
  2
DEFAULT_2
 70
0
 62
8
  6
HIDDEN
370
-3
390
F
  0
LAYER
  5
1FC
100
AcDbSymbolTableRecord
100
AcDbLayerTableRecord
  2
DEFAULT_3
 70
0
 62
7
  6
PHANTOM
370
-3
390
F
  0
LAYER
  5
1FD
100
AcDbSymbolTableRecord
100
AcDbLayerTableRecord
  2
01___PRT_ALL_DTM_PLN
 70
0
 62
7
  6
CONTINUOUS
370
-3
390
F
  0
LAYER
  5
1FE
100
AcDbSymbolTableRecord
100
AcDbLayerTableRecord
  2
01___PRT_DEF_DTM_PLN
 70
0
 62
7
  6
CONTINUOUS
370
-3
390
F
  0
LAYER
  5
1FF
100
AcDbSymbolTableRecord
100
AcDbLayerTableRecord
  2
02___PRT_ALL_AXES
 70
0
 62
7
  6
CONTINUOUS
370
-3
390
F
  0
LAYER
  5
200
100
AcDbSymbolTableRecord
100
AcDbLayerTableRecord
  2
03___PRT_ALL_CURVES
 70
0
 62
7
  6
CONTINUOUS
370
-3
390
F
  0
LAYER
  5
201
100
AcDbSymbolTableRecord
100
AcDbLayerTableRecord
  2
04___PRT_ALL_DTM_PNT
 70
0
 62
7
  6
CONTINUOUS
370
-3
390
F
  0
LAYER
  5
202
100
AcDbSymbolTableRecord
100
AcDbLayerTableRecord
  2
05___PRT_ALL_DTM_CSYS
 70
0
 62
7
  6
CONTINUOUS
370
-3
390
F
  0
LAYER
  5
203
100
AcDbSymbolTableRecord
100
AcDbLayerTableRecord
  2
05___PRT_DEF_DTM_CSYS
 70
0
 62
7
  6
CONTINUOUS
370
-3
390
F
  0
LAYER
  5
204
100
AcDbSymbolTableRecord
100
AcDbLayerTableRecord
  2
06___PRT_ALL_SURFS
 70
0
 62
7
  6
CONTINUOUS
370
-3
390
F
  0
LAYER
  5
205
100
AcDbSymbolTableRecord
100
AcDbLayerTableRecord
  2
DATUM_PLANES
 70
0
 62
7
  6
CONTINUOUS
370
-3
390
F
  0
LAYER
  5
206
100
AcDbSymbolTableRecord
100
AcDbLayerTableRecord
  2
PORT_AREAS
 70
0
 62
7
  6
CONTINUOUS
370
-3
390
F
  0
LAYER
  5
207
100
AcDbSymbolTableRecord
100
AcDbLayerTableRecord
  2
SUNNBOMCOSMETIC
 70
0
 62
7
  6
CONTINUOUS
370
-3
390
F
  0
LAYER
  5
208
100
AcDbSymbolTableRecord
100
AcDbLayerTableRecord
  2
SUNNBOMSTAMPING
 70
0
 62
7
  6
CONTINUOUS
370
-3
390
F
  0
LAYER
  5
209
100
AcDbSymbolTableRecord
100
AcDbLayerTableRecord
  2
THREADS
 70
0
 62
7
  6
CONTINUOUS
370
-3
390
F
  0
ENDTAB
  0
TABLE
  2
STYLE
  5
3
100
AcDbSymbolTable
 70
1
  0
STYLE
  5
11
100
AcDbSymbolTableRecord
100
AcDbTextStyleTableRecord
  2
STANDARD
 70
0
 40
0.0
 41
0.8
 50
0.0
 71
0
 42
0.2
  3
txt
  4

  0
STYLE
  5
20A
100
AcDbSymbolTableRecord
100
AcDbTextStyleTableRecord
  2
TEXTSTYLE_1
 70
0
 40
0.0
 41
0.8
 50
0.0
 71
0
 42
0.2
  3
gdt
  4

  0
ENDTAB
  0
TABLE
  2
VIEW
  5
6
100
AcDbSymbolTable
 70
0
  0
ENDTAB
  0
TABLE
  2
UCS
  5
7
100
AcDbSymbolTable
 70
0
  0
ENDTAB
  0
TABLE
  2
APPID
  5
9
100
AcDbSymbolTable
 70
1
  0
APPID
  5
20B
100
AcDbSymbolTableRecord
100
AcDbRegAppTableRecord
  2
ACAD
 70
0
  0
ENDTAB
  0
TABLE
  2
BLOCK_RECORD
  5
1
100
AcDbSymbolTable
 70
0
  0
BLOCK_RECORD
  5
20C
100
AcDbSymbolTableRecord
100
AcDbBlockTableRecord
  2
*Model_Space
  0
BLOCK_RECORD
  5
20D
100
AcDbSymbolTableRecord
100
AcDbBlockTableRecord
  2
*Paper_Space
  0
BLOCK_RECORD
  5
20E
100
AcDbSymbolTableRecord
100
AcDbBlockTableRecord
  2
SUN_FIRST_THIRD_ANGLE_BL0
  0
BLOCK_RECORD
  5
20F
100
AcDbSymbolTableRecord
100
AcDbBlockTableRecord
  2
*T1
  0
BLOCK_RECORD
  5
210
100
AcDbSymbolTableRecord
100
AcDbBlockTableRecord
  2
*T2
  0
ENDTAB
  0
TABLE
  2
DIMSTYLE
  5
A
100
AcDbSymbolTable
 70
1
100
AcDbDimStyleTable
 71
0
  0
DIMSTYLE
105
211
100
AcDbSymbolTableRecord
100
AcDbDimStyleTableRecord
  2
STANDARD
 70
0
  3

  4

 40
1.0
 41
0.1875
 42
0.0625
 43
0.38
 44
0.125
 45
0.0
 46
0.0
 47
0.001
 48
0.001
140
0.1
141
0.09
142
0.0
143
25.4
144
1.0
145
0.0
146
1.0
147
0.09
 71
0.0
 72
0.0
 73
1
 74
1
 75
0
 76
0
 77
0
 78
4
170
0
171
2
172
0
173
0
174
0
175
0
176
0
177
0
178
0
270
2
271
3
272
3
273
2
274
2
275
0
280
0
281
0
282
0
283
1
284
4
285
0
286
0
287
3
288
0
340
11
278
46
  0
ENDTAB
  0
ENDSEC
  0
SECTION
  2
BLOCKS
  0
BLOCK
  5
20
100
AcDbEntity
  8
0
100
AcDbBlockBegin
  2
*Model_Space
 70
0
 10
0.0
 20
0.0
 30
0.0
  3
*Model_Space
  1

  0
ENDBLK
  5
21
100
AcDbEntity
  8
0
100
AcDbBlockEnd
  0
BLOCK
  5
1C
100
AcDbEntity
  8
0
100
AcDbBlockBegin
  2
*Paper_Space
 70
0
 10
0.0
 20
0.0
 30
0.0
  3
*Paper_Space
  1

  0
ENDBLK
  5
1D
100
AcDbEntity
  8
0
100
AcDbBlockEnd
  0
BLOCK
  5
212
100
AcDbEntity
  8
0
100
AcDbBlockBegin
 62
2
  6
CONTINUOUS
  2
SUN_FIRST_THIRD_ANGLE_BL0
 70
64
 10
20.4816717061
 20
1.2289683772
  3
SUN_FIRST_THIRD_ANGLE_BL0
  1

  0
TEXT
  5
213
100
AcDbEntity
  8
0
100
AcDbText
 62
2
  6
CONTINUOUS
 10
19.4750896608
 20
1.4136269581
  7
STANDARD
 40
0.08
  1
FIRST ANGLE
 41
0.8
 72
0
100
AcDbText
  0
TEXT
  5
214
100
AcDbEntity
  8
0
100
AcDbText
 62
2
  6
CONTINUOUS
 10
20.7842537513
 20
1.4047600029
  7
STANDARD
 40
0.08
  1
THIRD ANGLE
 41
0.8
 72
0
100
AcDbText
  0
LINE
  5
215
100
AcDbEntity
  8
0
100
AcDbLine
 62
7
  6
CONTINUOUS
 10
19.4767170086
 20
1.1727031207
 11
19.6334271527
 21
1.1717972817
  0
LINE
  5
216
100
AcDbEntity
  8
0
100
AcDbLine
 62
7
  6
CONTINUOUS
 10
19.6596964832
 20
1.1717972817
 11
19.6950230232
 21
1.171593082
  0
LINE
  5
217
100
AcDbEntity
  8
0
100
AcDbLine
 62
7
  6
CONTINUOUS
 10
19.7194818561
 20
1.1708914427
 11
19.8852396156
 21
1.1699333054
  0
LINE
  5
218
100
AcDbEntity
  8
0
100
AcDbLine
 62
7
  6
CONTINUOUS
 10
19.4758111696
 20
1.2723454088
 11
19.88525039
 21
1.3511534004
  0
LINE
  5
219
100
AcDbEntity
  8
0
100
AcDbLine
 62
7
  6
CONTINUOUS
 10
19.88525039
 20
1.3511534004
 11
19.8831348489
 21
0.9851647912
  0
LINE
  5
21A
100
AcDbEntity
  8
0
100
AcDbLine
 62
7
  6
CONTINUOUS
 10
19.8831348489
 20
0.9851647912
 11
19.4767170086
 21
1.0658141206
  0
LINE
  5
21B
100
AcDbEntity
  8
0
100
AcDbLine
 62
7
  6
CONTINUOUS
 10
19.4767170086
 20
1.0658141206
 11
19.4779056764
 21
1.2714536432
  0
CIRCLE
  5
21C
100
AcDbEntity
  8
0
100
AcDbCircle
 62
7
  6
CONTINUOUS
 10
20.2068232291
 20
1.1717972817
 40
0.175742101
  0
CIRCLE
  5
21D
100
AcDbEntity
  8
0
100
AcDbCircle
 62
7
  6
CONTINUOUS
 10
20.2068232291
 20
1.1717972817
 40
0.1005522074
  0
LINE
  5
21E
100
AcDbEntity
  8
0
100
AcDbLine
 62
7
  6
CONTINUOUS
 10
20.2077290681
 20
1.3756110529
 11
20.2071171714
 21
1.2379342989
  0
LINE
  5
21F
100
AcDbEntity
  8
0
100
AcDbLine
 62
7
  6
CONTINUOUS
 10
20.2077290681
 20
1.2016899681
 11
20.2074674401
 21
1.1428236749
  0
LINE
  5
220
100
AcDbEntity
  8
0
100
AcDbLine
 62
7
  6
CONTINUOUS
 10
20.208634907
 20
1.101141841
 11
20.2080230104
 21
0.963465087
  0
LINE
  5
221
100
AcDbEntity
  8
0
100
AcDbLine
 62
7
  6
CONTINUOUS
 10
20.0066328138
 20
1.1745147986
 11
20.1443095678
 21
1.1739029019
  0
LINE
  5
222
100
AcDbEntity
  8
0
100
AcDbLine
 62
7
  6
CONTINUOUS
 10
20.1832714155
 20
1.1727031207
 11
20.238153505
 21
1.172335442
  0
LINE
  5
223
100
AcDbEntity
  8
0
100
AcDbLine
 62
7
  6
CONTINUOUS
 10
20.2756669918
 20
1.1717972817
 11
20.407916871
 21
1.1712095044
  0
CIRCLE
  5
224
100
AcDbEntity
  8
0
100
AcDbCircle
 62
7
  6
CONTINUOUS
 10
20.7509457401
 20
1.1693297793
 40
0.1722024983
  0
CIRCLE
  5
225
100
AcDbEntity
  8
0
100
AcDbCircle
 62
7
  6
CONTINUOUS
 10
20.7509457401
 20
1.1693297793
 40
0.0985164967
  0
LINE
  5
226
100
AcDbEntity
  8
0
100
AcDbLine
 62
7
  6
CONTINUOUS
 10
20.7169767782
 20
1.170462078
 11
20.7825395137
 21
1.1682766535
  0
LINE
  5
227
100
AcDbEntity
  8
0
100
AcDbLine
 62
7
  6
CONTINUOUS
 10
20.8177513651
 20
1.1693297793
 11
20.947965719
 21
1.1693297793
  0
LINE
  5
228
100
AcDbEntity
  8
0
100
AcDbLine
 62
7
  6
CONTINUOUS
 10
20.6875370113
 20
1.170462078
 11
20.5573226574
 21
1.170462078
  0
LINE
  5
229
100
AcDbEntity
  8
0
100
AcDbLine
 62
7
  6
CONTINUOUS
 10
20.7486811426
 20
1.1987695462
 11
20.7486811426
 21
1.1432869085
  0
LINE
  5
22A
100
AcDbEntity
  8
0
100
AcDbLine
 62
7
  6
CONTINUOUS
 10
20.7498134414
 20
1.1059210505
 11
20.7498134414
 21
0.9757066966
  0
LINE
  5
22B
100
AcDbEntity
  8
0
100
AcDbLine
 62
7
  6
CONTINUOUS
 10
20.7486811426
 20
1.2338708068
 11
20.7486811426
 21
1.3640851607
  0
LINE
  5
22C
100
AcDbEntity
  8
0
100
AcDbLine
 62
7
  6
CONTINUOUS
 10
21.0702539817
 20
1.2701043662
 11
21.4790138229
 21
1.3448360823
  0
LINE
  5
22D
100
AcDbEntity
  8
0
100
AcDbLine
 62
7
  6
CONTINUOUS
 10
21.4790138229
 20
1.3448360823
 11
21.4790138229
 21
0.9779712941
  0
LINE
  5
22E
100
AcDbEntity
  8
0
100
AcDbLine
 62
7
  6
CONTINUOUS
 10
21.4790138229
 20
0.9779712941
 11
21.069121683
 21
1.0617614
  0
LINE
  5
22F
100
AcDbEntity
  8
0
100
AcDbLine
 62
7
  6
CONTINUOUS
 10
21.0702539817
 20
1.2701043662
 11
21.069121683
 21
1.0617614
  0
LINE
  5
230
100
AcDbEntity
  8
0
100
AcDbLine
 62
7
  6
CONTINUOUS
 10
21.4790138229
 20
1.1693297793
 11
21.3159628059
 21
1.1693297793
  0
LINE
  5
231
100
AcDbEntity
  8
0
100
AcDbLine
 62
7
  6
CONTINUOUS
 10
21.2876553377
 20
1.1693297793
 11
21.2502894796
 21
1.1693297793
  0
LINE
  5
232
100
AcDbEntity
  8
0
100
AcDbLine
 62
7
  6
CONTINUOUS
 10
21.2208497126
 20
1.1659328831
 11
21.0713862804
 21
1.1659328831
  0
LINE
  5
233
100
AcDbEntity
  8
0
100
AcDbLine
 62
7
  6
CONTINUOUS
 10
20.4796138713
 20
1.5284908897
 11
20.4766766948
 21
0.9294458646
  0
ENDBLK
  5
234
100
AcDbEntity
  8
0
  6
BYBLOCK
 62
0
100
AcDbBlockEnd
  0
BLOCK
  5
235
100
AcDbEntity
  8
0
100
AcDbBlockBegin
  2
*T1
 70
1
 10
0.0
 20
0.0
  3
*T1
  1

  0
LINE
  5
236
100
AcDbEntity
  8
0
100
AcDbLine
 62
2
  6
CONTINUOUS
 10
9.275
 20
0.0
 11
-0.0
 21
0.0
  0
LINE
  5
237
100
AcDbEntity
  8
0
100
AcDbLine
 62
2
  6
CONTINUOUS
 10
9.275
 20
0.0
 11
9.275
 21
1.25
  0
LINE
  5
238
100
AcDbEntity
  8
0
100
AcDbLine
 62
2
  6
CONTINUOUS
 10
9.275
 20
0.625
 11
-0.0
 21
0.625
  0
LINE
  5
239
100
AcDbEntity
  8
0
100
AcDbLine
 62
2
  6
CONTINUOUS
 10
9.275
 20
1.25
 11
-0.0
 21
1.25
  0
LINE
  5
23A
100
AcDbEntity
  8
0
100
AcDbLine
 62
2
  6
CONTINUOUS
 10
6.8
 20
0.0
 11
6.8
 21
1.25
  0
LINE
  5
23B
100
AcDbEntity
  8
0
100
AcDbLine
 62
2
  6
CONTINUOUS
 10
6.4
 20
0.0
 11
6.4
 21
0.625
  0
LINE
  5
23C
100
AcDbEntity
  8
0
100
AcDbLine
 62
2
  6
CONTINUOUS
 10
5.9
 20
0.0
 11
5.9
 21
0.625
  0
LINE
  5
23D
100
AcDbEntity
  8
0
100
AcDbLine
 62
2
  6
CONTINUOUS
 10
5.2
 20
0.0
 11
5.2
 21
0.625
  0
LINE
  5
23E
100
AcDbEntity
  8
0
100
AcDbLine
 62
2
  6
CONTINUOUS
 10
4.1
 20
0.0
 11
4.1
 21
1.25
  0
LINE
  5
23F
100
AcDbEntity
  8
0
100
AcDbLine
 62
2
  6
CONTINUOUS
 10
-0.0
 20
0.0
 11
-0.0
 21
1.25
  0
MTEXT
  5
240
100
AcDbEntity
  8
0
100
AcDbMText
 62
2
  6
CONTINUOUS
  7
STANDARD
 71
2
 72
1
 10
6.6
 20
0.325
 30
0.0
 11
1.0
 21
0.0
 31
0.0
 44
0.9
  1
2
 40
0.125
 41
0.2
  0
MTEXT
  5
241
100
AcDbEntity
  8
0
100
AcDbMText
 62
2
  6
CONTINUOUS
  7
STANDARD
 71
2
 72
1
 10
6.15
 20
0.325
 30
0.0
 11
1.0
 21
0.0
 31
0.0
 44
0.9
  1
C
 40
0.125
 41
0.2
  0
MTEXT
  5
242
100
AcDbEntity
  8
0
100
AcDbMText
 62
2
  6
CONTINUOUS
  7
STANDARD
 71
2
 72
1
 10
5.55
 20
0.325
 30
0.0
 11
1.0
 21
0.0
 31
0.0
 44
0.9
  1
1.000
 40
0.125
 41
1.0
  0
MTEXT
  5
243
100
AcDbEntity
  8
0
100
AcDbMText
 62
2
  6
CONTINUOUS
  7
STANDARD
 71
2
 72
1
 10
4.65
 20
0.325
 30
0.0
 11
1.0
 21
0.0
 31
0.0
 44
0.9
  1
Aug-05-19
 40
0.125
 41
1.8
  0
MTEXT
  5
244
100
AcDbEntity
  8
0
100
AcDbMText
 62
2
  6
CONTINUOUS
  7
STANDARD
 71
2
 72
1
 10
2.05
 20
0.4625
 30
0.0
 11
1.0
 21
0.0
 31
0.0
 44
0.9
  1
T-2A Sandwich ISO 05\P(See Technical Data for Body Features)
 40
0.125
 41
7.6
  0
MTEXT
  5
245
100
AcDbEntity
  8
0
100
AcDbMText
 62
2
  6
CONTINUOUS
  7
STANDARD
 71
1
 72
1
 10
6.45
 20
0.5625
 30
0.0
 11
1.0
 21
0.0
 31
0.0
 44
0.9
  1
SHEET
 40
0.06
 41
0.48
  0
MTEXT
  5
246
100
AcDbEntity
  8
0
100
AcDbMText
 62
2
  6
CONTINUOUS
  7
STANDARD
 71
1
 72
1
 10
5.95
 20
0.5625
 30
0.0
 11
1.0
 21
0.0
 31
0.0
 44
0.9
  1
DWG SIZE
 40
0.06
 41
0.768
  0
MTEXT
  5
247
100
AcDbEntity
  8
0
100
AcDbMText
 62
2
  6
CONTINUOUS
  7
STANDARD
 71
1
 72
1
 10
5.25
 20
0.5625
 30
0.0
 11
1.0
 21
0.0
 31
0.0
 44
0.9
  1
SCALE
 40
0.06
 41
0.48
  0
MTEXT
  5
248
100
AcDbEntity
  8
0
100
AcDbMText
 62
2
  6
CONTINUOUS
  7
STANDARD
 71
1
 72
1
 10
4.15
 20
0.5625
 30
0.0
 11
1.0
 21
0.0
 31
0.0
 44
0.9
  1
DATE
 40
0.06
 41
0.384
  0
MTEXT
  5
249
100
AcDbEntity
  8
0
100
AcDbMText
 62
2
  6
CONTINUOUS
  7
STANDARD
 71
1
 72
1
 10
0.05
 20
0.5625
 30
0.0
 11
1.0
 21
0.0
 31
0.0
 44
0.9
  1
DESCRIPTION
 40
0.06
 41
1.056
  0
MTEXT
  5
24A
100
AcDbEntity
  8
0
100
AcDbMText
 62
2
  6
CONTINUOUS
  7
STANDARD
 71
2
 72
1
 10
5.45
 20
1.0375
 30
0.0
 11
1.0
 21
0.0
 31
0.0
 44
0.9
  1
ALL DIMENSIONS IN INCH\PVIEWS ARE THIRD ANGLE
 40
0.12
 41
4.224
  0
MTEXT
  5
24B
100
AcDbEntity
  8
0
100
AcDbMText
 62
2
  6
CONTINUOUS
  7
STANDARD
 71
2
 72
1
 10
2.05
 20
0.95
 30
0.0
 11
1.0
 21
0.0
 31
0.0
 44
0.9
  1
BB5
 40
0.125
 41
0.6
  0
MTEXT
  5
24C
100
AcDbEntity
  8
0
100
AcDbMText
 62
2
  6
CONTINUOUS
  7
STANDARD
 71
1
 72
1
 10
0.05
 20
1.1875
 30
0.0
 11
1.0
 21
0.0
 31
0.0
 44
0.9
  1
MODEL
 40
0.06
 41
0.48
  0
ENDBLK
  5
24D
100
AcDbEntity
  8
0
  6
BYBLOCK
 62
0
100
AcDbBlockEnd
  0
BLOCK
  5
24E
100
AcDbEntity
  8
0
100
AcDbBlockBegin
  2
*T2
 70
1
 10
0.0
 20
0.0
  3
*T2
  1

  0
LINE
  5
24F
100
AcDbEntity
  8
0
100
AcDbLine
 62
2
  6
CONTINUOUS
 10
0.0
 20
0.0
 11
9.055
 21
0.0
  0
LINE
  5
250
100
AcDbEntity
  8
0
100
AcDbLine
 62
2
  6
CONTINUOUS
 10
0.0
 20
0.0
 11
0.0
 21
-2.344
  0
LINE
  5
251
100
AcDbEntity
  8
0
100
AcDbLine
 62
2
  6
CONTINUOUS
 10
0.0
 20
-0.344
 11
9.055
 21
-0.344
  0
LINE
  5
252
100
AcDbEntity
  8
0
100
AcDbLine
 62
2
  6
CONTINUOUS
 10
0.0
 20
-0.594
 11
9.055
 21
-0.594
  0
LINE
  5
253
100
AcDbEntity
  8
0
100
AcDbLine
 62
2
  6
CONTINUOUS
 10
0.0
 20
-0.844
 11
9.055
 21
-0.844
  0
LINE
  5
254
100
AcDbEntity
  8
0
100
AcDbLine
 62
2
  6
CONTINUOUS
 10
0.0
 20
-1.094
 11
9.055
 21
-1.094
  0
LINE
  5
255
100
AcDbEntity
  8
0
100
AcDbLine
 62
2
  6
CONTINUOUS
 10
0.0
 20
-1.344
 11
9.055
 21
-1.344
  0
LINE
  5
256
100
AcDbEntity
  8
0
100
AcDbLine
 62
2
  6
CONTINUOUS
 10
0.0
 20
-1.594
 11
9.055
 21
-1.594
  0
LINE
  5
257
100
AcDbEntity
  8
0
100
AcDbLine
 62
2
  6
CONTINUOUS
 10
0.0
 20
-1.844
 11
9.055
 21
-1.844
  0
LINE
  5
258
100
AcDbEntity
  8
0
100
AcDbLine
 62
2
  6
CONTINUOUS
 10
0.0
 20
-2.094
 11
9.055
 21
-2.094
  0
LINE
  5
259
100
AcDbEntity
  8
0
100
AcDbLine
 62
2
  6
CONTINUOUS
 10
0.0
 20
-2.344
 11
9.055
 21
-2.344
  0
LINE
  5
25A
100
AcDbEntity
  8
0
100
AcDbLine
 62
2
  6
CONTINUOUS
 10
3.055
 20
0.0
 11
3.055
 21
-2.344
  0
LINE
  5
25B
100
AcDbEntity
  8
0
100
AcDbLine
 62
2
  6
CONTINUOUS
 10
9.055
 20
0.0
 11
9.055
 21
-2.344
  0
MTEXT
  5
25C
100
AcDbEntity
  8
0
100
AcDbMText
 62
2
  6
CONTINUOUS
  7
STANDARD
 71
2
 72
1
 10
1.5275
 20
-0.0995
 30
0.0
 11
1.0
 21
0.0
 31
0.0
 44
0.9
  1
Technical Data
 40
0.145
 41
3.248
  0
MTEXT
  5
25D
100
AcDbEntity
  8
0
100
AcDbMText
 62
2
  6
CONTINUOUS
  7
STANDARD
 71
2
 72
1
 10
4.555
 20
-0.0995
 30
0.0
 11
1.0
 21
0.0
 31
0.0
 44
0.9
  1
U.S. Units
 40
0.145
 41
2.32
  0
MTEXT
  5
25E
100
AcDbEntity
  8
0
100
AcDbMText
 62
2
  6
CONTINUOUS
  7
STANDARD
 71
2
 72
1
 10
7.555
 20
-0.0995
 30
0.0
 11
1.0
 21
0.0
 31
0.0
 44
0.9
  1
Metric Units
 40
0.145
 41
2.784
  0
MTEXT
  5
25F
100
AcDbEntity
  8
0
100
AcDbMText
 62
2
  6
CONTINUOUS
  7
STANDARD
 71
2
 72
1
 10
1.5275
 20
-0.4065
 30
0.0
 11
1.0
 21
0.0
 31
0.0
 44
0.9
  1
Cavity
 40
0.125
 41
1.2
  0
MTEXT
  5
260
100
AcDbEntity
  8
0
100
AcDbMText
 62
2
  6
CONTINUOUS
  7
STANDARD
 71
2
 72
1
 10
6.055
 20
-0.4065
 30
0.0
 11
1.0
 21
0.0
 31
0.0
 44
0.9
  1
T-2A
 40
0.125
 41
0.8
  0
MTEXT
  5
261
100
AcDbEntity
  8
0
100
AcDbMText
 62
2
  6
CONTINUOUS
  7
STANDARD
 71
2
 72
1
 10
1.5275
 20
-0.6565
 30
0.0
 11
1.0
 21
0.0
 31
0.0
 44
0.9
  1
Body Features
 40
0.125
 41
2.6
  0
MTEXT
  5
262
100
AcDbEntity
  8
0
100
AcDbMText
 62
2
  6
CONTINUOUS
  7
STANDARD
 71
2
 72
1
 10
6.055
 20
-0.6565
 30
0.0
 11
1.0
 21
0.0
 31
0.0
 44
0.9
  1
Sequence into B or out of A with reverse flow check
 40
0.125
 41
10.2
  0
MTEXT
  5
263
100
AcDbEntity
  8
0
100
AcDbMText
 62
2
  6
CONTINUOUS
  7
STANDARD
 71
2
 72
1
 10
1.5275
 20
-0.9065
 30
0.0
 11
1.0
 21
0.0
 31
0.0
 44
0.9
  1
Body Type
 40
0.125
 41
1.8
  0
MTEXT
  5
264
100
AcDbEntity
  8
0
100
AcDbMText
 62
2
  6
CONTINUOUS
  7
STANDARD
 71
2
 72
1
 10
6.055
 20
-0.9065
 30
0.0
 11
1.0
 21
0.0
 31
0.0
 44
0.9
  1
Sandwich
 40
0.125
 41
1.6
  0
MTEXT
  5
265
100
AcDbEntity
  8
0
100
AcDbMText
 62
2
  6
CONTINUOUS
  7
STANDARD
 71
2
 72
1
 10
1.5275
 20
-1.1565
 30
0.0
 11
1.0
 21
0.0
 31
0.0
 44
0.9
  1
Interface
 40
0.125
 41
1.8
  0
MTEXT
  5
266
100
AcDbEntity
  8
0
100
AcDbMText
 62
2
  6
CONTINUOUS
  7
STANDARD
 71
2
 72
1
 10
6.055
 20
-1.1565
 30
0.0
 11
1.0
 21
0.0
 31
0.0
 44
0.9
  1
ISO 05
 40
0.125
 41
1.2
  0
MTEXT
  5
267
100
AcDbEntity
  8
0
100
AcDbMText
 62
2
  6
CONTINUOUS
  7
STANDARD
 71
2
 72
1
 10
1.5275
 20
-1.4065
 30
0.0
 11
1.0
 21
0.0
 31
0.0
 44
0.9
  1
Open Cavity Quantity
 40
0.125
 41
4.0
  0
MTEXT
  5
268
100
AcDbEntity
  8
0
100
AcDbMText
 62
2
  6
CONTINUOUS
  7
STANDARD
 71
2
 72
1
 10
6.055
 20
-1.4065
 30
0.0
 11
1.0
 21
0.0
 31
0.0
 44
0.9
  1
1
 40
0.125
 41
0.2
  0
MTEXT
  5
269
100
AcDbEntity
  8
0
100
AcDbMText
 62
2
  6
CONTINUOUS
  7
STANDARD
 71
2
 72
1
 10
1.5275
 20
-1.6565
 30
0.0
 11
1.0
 21
0.0
 31
0.0
 44
0.9
  1
Stack Height
 40
0.125
 41
2.4
  0
MTEXT
  5
26A
100
AcDbEntity
  8
0
100
AcDbMText
 62
2
  6
CONTINUOUS
  7
STANDARD
 71
2
 72
1
 10
4.555
 20
-1.6565
 30
0.0
 11
1.0
 21
0.0
 31
0.0
 44
0.9
  1
2.49 in.
 40
0.125
 41
1.6
  0
MTEXT
  5
26B
100
AcDbEntity
  8
0
100
AcDbMText
 62
2
  6
CONTINUOUS
  7
STANDARD
 71
2
 72
1
 10
7.555
 20
-1.6565
 30
0.0
 11
1.0
 21
0.0
 31
0.0
 44
0.9
  1
63 mm
 40
0.125
 41
1.0
  0
MTEXT
  5
26C
100
AcDbEntity
  8
0
100
AcDbMText
 62
2
  6
CONTINUOUS
  7
STANDARD
 71
2
 72
1
 10
1.5275
 20
-1.9065
 30
0.0
 11
1.0
 21
0.0
 31
0.0
 44
0.9
  1
Weight
 40
0.125
 41
1.2
  0
MTEXT
  5
26D
100
AcDbEntity
  8
0
100
AcDbMText
 62
2
  6
CONTINUOUS
  7
STANDARD
 71
2
 72
1
 10
4.555
 20
-1.9065
 30
0.0
 11
1.0
 21
0.0
 31
0.0
 44
0.9
  1
2.410 lb.
 40
0.125
 41
1.8
  0
MTEXT
  5
26E
100
AcDbEntity
  8
0
100
AcDbMText
 62
2
  6
CONTINUOUS
  7
STANDARD
 71
2
 72
1
 10
7.555
 20
-1.9065
 30
0.0
 11
1.0
 21
0.0
 31
0.0
 44
0.9
  1
1,093 kg.
 40
0.125
 41
1.8
  0
MTEXT
  5
26F
100
AcDbEntity
  8
0
100
AcDbMText
 62
2
  6
CONTINUOUS
  7
STANDARD
 71
2
 72
1
 10
1.5275
 20
-2.1565
 30
0.0
 11
1.0
 21
0.0
 31
0.0
 44
0.9
  1
Seal Plate Included (see notes)
 40
0.125
 41
6.2
  0
MTEXT
  5
270
100
AcDbEntity
  8
0
100
AcDbMText
 62
2
  6
CONTINUOUS
  7
STANDARD
 71
2
 72
1
 10
6.055
 20
-2.1565
 30
0.0
 11
1.0
 21
0.0
 31
0.0
 44
0.9
  1
Yes
 40
0.125
 41
0.6
  0
ENDBLK
  5
271
100
AcDbEntity
  8
0
  6
BYBLOCK
 62
0
100
AcDbBlockEnd
  0
ENDSEC
  0
SECTION
  2
ENTITIES
  0
IMAGE
  5
272
100
AcDbEntity
  8
0
100
AcDbRasterImage
 62
7
  6
CONTINUOUS
 10
19.2297077316
 20
0.3094318264
 30
0.0
 11
0.0066666667
 21
0.0
 31
0.0
 12
0.0
 22
0.0066666667
 32
0.0
 13
369.0
 23
92.0
340
       485
 70
9
280
0
281
50
282
50
283
0
360
       47F
 71
1
 91
2
 14
-0.5
 24
-0.5
 14
368.5
 24
91.5
  0
INSERT
  5
273
100
AcDbEntity
  8
0
100
AcDbBlockReference
 62
2
  6
CONTINUOUS
  2
SUN_FIRST_THIRD_ANGLE_BL0
 10
20.4816717061
 20
1.2289683772
  0
ACAD_TABLE
  5
274
100
AcDbEntity
  8
0
 62
2
  6
CONTINUOUS
100
AcDbBlockReference
  2
*T1
 10
12.42375
 20
0.30125
 30
0.0
100
AcDbTable
342
       487
343
20F
 11
1.0
 21
0.0
 31
0.0
 90
6
 91
4
 92
6
 93
20
 94
0
 95
0
 96
0
 70
1
 41
0.0
141
0.525
141
0.1
141
0.525
141
0.1
142
4.1
142
1.1
142
0.7
142
0.5
142
0.4
142
2.475
171
1
172
0
173
0
174
0
175
1
176
1
 91
33
178
0
145
0.0
301
CELL_VALUE
 90
4
  1
T-2A Sandwich ISO 05\P(See Technical Data for Body Features)
304
ACVALUE_END
170
2
140
0.125
171
1
172
0
173
0
174
0
175
1
176
1
 91
33
178
0
145
0.0
301
CELL_VALUE
 90
4
  1
Aug-05-19
304
ACVALUE_END
170
5
140
0.125
171
1
172
0
173
0
174
0
175
1
176
1
 91
33
178
0
145
0.0
301
CELL_VALUE
 90
4
  1
1.000
304
ACVALUE_END
170
5
140
0.125
171
1
172
0
173
0
174
0
175
1
176
1
 91
33
178
0
145
0.0
301
CELL_VALUE
 90
4
  1
C
304
ACVALUE_END
170
5
140
0.125
171
1
172
0
173
0
174
0
175
1
176
1
 91
33
178
0
145
0.0
301
CELL_VALUE
 90
4
  1
2
304
ACVALUE_END
170
5
140
0.125
171
1
172
0
173
0
174
0
175
1
176
1
 91
33
178
0
145
0.0
301
CELL_VALUE
 90
4
  1
 
304
ACVALUE_END
170
1
140
0.125
171
1
172
0
173
0
174
0
175
1
176
1
 91
33
178
0
145
0.0
301
CELL_VALUE
 90
4
  1
DESCRIPTION
304
ACVALUE_END
170
1
140
0.06
171
1
172
0
173
0
174
0
175
1
176
1
 91
33
178
0
145
0.0
301
CELL_VALUE
 90
4
  1
DATE
304
ACVALUE_END
170
1
140
0.06
171
1
172
0
173
0
174
0
175
1
176
1
 91
33
178
0
145
0.0
301
CELL_VALUE
 90
4
  1
SCALE
304
ACVALUE_END
170
1
140
0.06
171
1
172
0
173
0
174
0
175
1
176
1
 91
33
178
0
145
0.0
301
CELL_VALUE
 90
4
  1
DWG SIZE
304
ACVALUE_END
170
1
140
0.06
171
1
172
0
173
0
174
0
175
1
176
1
 91
33
178
0
145
0.0
301
CELL_VALUE
 90
4
  1
SHEET
304
ACVALUE_END
170
1
140
0.06
171
1
172
0
173
0
174
0
175
1
176
1
 91
33
178
0
145
0.0
301
CELL_VALUE
 90
4
  1
 
304
ACVALUE_END
170
1
140
0.125
171
1
172
0
173
0
174
0
175
1
176
1
 91
33
178
0
145
0.0
301
CELL_VALUE
 90
4
  1
BB5
304
ACVALUE_END
170
5
140
0.125
171
1
172
0
173
0
174
0
175
4
176
1
 91
33
178
0
145
0.0
301
CELL_VALUE
 90
4
  1
ALL DIMENSIONS IN INCH\PVIEWS ARE THIRD ANGLE
304
ACVALUE_END
170
5
140
0.12
171
1
172
0
173
1
174
0
175
1
176
1
 91
1
178
0
145
0.0
170
1
171
1
172
0
173
1
174
0
175
1
176
1
 91
1
178
0
145
0.0
170
1
171
1
172
0
173
1
174
0
175
1
176
1
 91
1
178
0
145
0.0
170
5
171
1
172
0
173
0
174
0
175
1
176
1
 91
33
178
0
145
0.0
301
CELL_VALUE
 90
4
  1
 
304
ACVALUE_END
170
1
140
0.125
171
1
172
0
173
0
174
0
175
1
176
1
 91
33
178
0
145
0.0
301
CELL_VALUE
 90
4
  1
MODEL
304
ACVALUE_END
170
1
140
0.06
171
1
172
0
173
0
174
0
175
1
176
1
 91
33
178
0
145
0.0
301
CELL_VALUE
 90
4
  1
 
304
ACVALUE_END
170
1
140
0.125
171
1
172
0
173
0
174
0
175
1
176
1
 91
33
178
0
145
0.0
301
CELL_VALUE
 90
4
  1
 
304
ACVALUE_END
170
1
140
0.125
171
1
172
0
173
0
174
0
175
1
176
1
 91
33
178
0
145
0.0
301
CELL_VALUE
 90
4
  1
 
304
ACVALUE_END
170
1
140
0.125
171
1
172
0
173
0
174
0
175
1
176
1
 91
33
178
0
145
0.0
301
CELL_VALUE
 90
4
  1
 
304
ACVALUE_END
170
1
140
0.125
171
1
172
0
173
0
174
0
175
1
176
1
 91
33
178
0
145
0.0
301
CELL_VALUE
 90
4
  1
 
304
ACVALUE_END
170
1
140
0.125
  0
ACAD_TABLE
  5
275
100
AcDbEntity
  8
0
 62
2
  6
CONTINUOUS
100
AcDbBlockReference
  2
*T2
 10
12.4237499994
 20
16.47875
 30
0.0
100
AcDbTable
342
       486
343
210
 11
1.0
 21
0.0
 31
0.0
 90
22
 91
9
 92
3
 93
16
 94
0
 95
0
 96
0
 41
0.028
141
0.344
141
0.25
141
0.25
141
0.25
141
0.25
141
0.25
141
0.25
141
0.25
141
0.25
142
3.055
142
3.0
142
3.0
171
1
172
0
173
0
174
0
175
1
176
1
 91
33
178
0
145
0.0
301
CELL_VALUE
 90
4
  1
Technical Data
304
ACVALUE_END
170
5
140
0.145
171
1
172
0
173
0
174
0
175
1
176
1
 91
33
178
0
145
0.0
301
CELL_VALUE
 90
4
  1
U.S. Units
304
ACVALUE_END
170
5
140
0.145
171
1
172
0
173
0
174
0
175
1
176
1
 91
33
178
0
145
0.0
301
CELL_VALUE
 90
4
  1
Metric Units
304
ACVALUE_END
170
5
140
0.145
171
1
172
0
173
0
174
0
175
1
176
1
 91
33
178
0
145
0.0
301
CELL_VALUE
 90
4
  1
Cavity
304
ACVALUE_END
170
5
140
0.125
171
1
172
0
173
0
174
0
175
2
176
1
 91
33
178
0
145
0.0
301
CELL_VALUE
 90
4
  1
T-2A
304
ACVALUE_END
170
5
140
0.125
171
1
172
0
173
1
174
0
175
1
176
1
 91
1
178
0
145
0.0
170
1
171
1
172
0
173
0
174
0
175
1
176
1
 91
33
178
0
145
0.0
301
CELL_VALUE
 90
4
  1
Body Features
304
ACVALUE_END
170
5
140
0.125
171
1
172
0
173
0
174
0
175
2
176
1
 91
33
178
0
145
0.0
301
CELL_VALUE
 90
4
  1
Sequence into B or out of A with reverse flow check
304
ACVALUE_END
170
5
140
0.125
171
1
172
0
173
1
174
0
175
1
176
1
 91
1
178
0
145
0.0
170
1
171
1
172
0
173
0
174
0
175
1
176
1
 91
33
178
0
145
0.0
301
CELL_VALUE
 90
4
  1
Body Type
304
ACVALUE_END
170
5
140
0.125
171
1
172
0
173
0
174
0
175
2
176
1
 91
33
178
0
145
0.0
301
CELL_VALUE
 90
4
  1
Sandwich
304
ACVALUE_END
170
5
140
0.125
171
1
172
0
173
1
174
0
175
1
176
1
 91
1
178
0
145
0.0
170
1
171
1
172
0
173
0
174
0
175
1
176
1
 91
33
178
0
145
0.0
301
CELL_VALUE
 90
4
  1
Interface
304
ACVALUE_END
170
5
140
0.125
171
1
172
0
173
0
174
0
175
2
176
1
 91
33
178
0
145
0.0
301
CELL_VALUE
 90
4
  1
ISO 05
304
ACVALUE_END
170
5
140
0.125
171
1
172
0
173
1
174
0
175
1
176
1
 91
1
178
0
145
0.0
170
1
171
1
172
0
173
0
174
0
175
1
176
1
 91
33
178
0
145
0.0
301
CELL_VALUE
 90
4
  1
Open Cavity Quantity
304
ACVALUE_END
170
5
140
0.125
171
1
172
0
173
0
174
0
175
2
176
1
 91
33
178
0
145
0.0
301
CELL_VALUE
 90
4
  1
1
304
ACVALUE_END
170
5
140
0.125
171
1
172
0
173
1
174
0
175
1
176
1
 91
1
178
0
145
0.0
170
1
171
1
172
0
173
0
174
0
175
1
176
1
 91
33
178
0
145
0.0
301
CELL_VALUE
 90
4
  1
Stack Height
304
ACVALUE_END
170
5
140
0.125
171
1
172
0
173
0
174
0
175
1
176
1
 91
33
178
0
145
0.0
301
CELL_VALUE
 90
4
  1
2.49 in.
304
ACVALUE_END
170
5
140
0.125
171
1
172
0
173
0
174
0
175
1
176
1
 91
33
178
0
145
0.0
301
CELL_VALUE
 90
4
  1
63 mm
304
ACVALUE_END
170
5
140
0.125
171
1
172
0
173
0
174
0
175
1
176
1
 91
33
178
0
145
0.0
301
CELL_VALUE
 90
4
  1
Weight
304
ACVALUE_END
170
5
140
0.125
171
1
172
0
173
0
174
0
175
1
176
1
 91
33
178
0
145
0.0
301
CELL_VALUE
 90
4
  1
2.410 lb.
304
ACVALUE_END
170
5
140
0.125
171
1
172
0
173
0
174
0
175
1
176
1
 91
33
178
0
145
0.0
301
CELL_VALUE
 90
4
  1
1,093 kg.
304
ACVALUE_END
170
5
140
0.125
171
1
172
0
173
0
174
0
175
1
176
1
 91
33
178
0
145
0.0
301
CELL_VALUE
 90
4
  1
Seal Plate Included (see notes)
304
ACVALUE_END
170
5
140
0.125
171
1
172
0
173
0
174
0
175
2
176
1
 91
33
178
0
145
0.0
301
CELL_VALUE
 90
4
  1
Yes
304
ACVALUE_END
170
5
140
0.125
171
1
172
0
173
1
174
0
175
1
176
1
 91
1
178
0
145
0.0
170
1
  0
MTEXT
  5
276
100
AcDbEntity
  8
0
100
AcDbMText
 62
2
  6
CONTINUOUS
  7
STANDARD
 71
1
 72
1
 10
0.52125
 20
5.75995
 30
0.0
 11
1.0
 21
0.0
 31
0.0
 44
0.6
  3
Notes\P \P1. Important: Carefully consider\P   the maximum system pressure. The\P   pressure rating of the manifold is\P   dependent on the manifold material,\P   with the port type/size a secondary\P   consideration. Manifolds\P   constructed of alu
  1
minum are not\P   rated for pressures higher than\P   3000 psi (210 bar), regardless of\P   the port type/size specified.\P2. Items without balloons are\P   shipped loose.
 40
0.1
 41
3.04
  0
LINE
  5
277
100
AcDbEntity
  8
0
100
AcDbLine
 62
7
  6
CONTINUOUS
 10
0.30125
 20
0.30125
 11
0.30125
 21
16.69875
  0
LINE
  5
278
100
AcDbEntity
  8
0
100
AcDbLine
 62
7
  6
CONTINUOUS
 10
0.30125
 20
0.30125
 11
21.69875
 21
0.30125
  0
LINE
  5
279
100
AcDbEntity
  8
0
100
AcDbLine
 62
7
  6
CONTINUOUS
 10
0.30125
 20
16.69875
 11
21.69875
 21
16.69875
  0
LINE
  5
27A
100
AcDbEntity
  8
0
100
AcDbLine
 62
7
  6
CONTINUOUS
 10
21.69875
 20
0.30125
 11
21.69875
 21
16.69875
  0
LINE
  5
27B
100
AcDbEntity
  8
0
100
AcDbLine
 62
7
  6
CONTINUOUS
 10
9.6391439838
 20
10.5935273063
 11
10.0677479687
 21
11.0075269891
  0
LINE
  5
27C
100
AcDbEntity
  8
0
100
AcDbLine
 62
7
  6
CONTINUOUS
 10
9.6690876862
 20
10.6213944058
 11
10.0976916711
 21
11.0353940887
  0
LINE
  5
27D
100
AcDbEntity
  8
0
100
AcDbLine
 62
7
  6
CONTINUOUS
 10
9.4770924947
 20
10.3792568399
 11
9.6263661901
 21
10.5234441661
  0
LINE
  5
27E
100
AcDbEntity
  8
0
100
AcDbLine
 62
7
  6
CONTINUOUS
 10
10.0677479687
 20
11.0075269891
 11
10.0686827588
 21
11.0084131321
  0
LINE
  5
27F
100
AcDbEntity
  8
0
100
AcDbLine
 62
7
  6
CONTINUOUS
 10
10.0976916711
 20
11.0353940887
 11
10.0985502156
 21
11.0362078061
  0
LINE
  5
280
100
AcDbEntity
  8
0
100
AcDbLine
 62
7
  6
CONTINUOUS
 10
10.0976842495
 20
11.0354020637
 11
10.0677479687
 21
11.0075269891
  0
LINE
  5
281
100
AcDbEntity
  8
0
100
AcDbLine
 62
7
  6
CONTINUOUS
 10
9.6690876862
 20
10.6213944058
 11
9.6391439838
 21
10.5935273063
  0
LINE
  5
282
100
AcDbEntity
  8
0
100
AcDbLine
 62
7
  6
CONTINUOUS
 10
10.4891730002
 20
5.9848960827
 11
10.5083908896
 21
5.9754028133
  0
LINE
  5
283
100
AcDbEntity
  8
0
100
AcDbLine
 62
7
  6
CONTINUOUS
 10
9.6400787739
 20
6.4971031724
 11
9.6699452003
 21
6.4693093273
  0
LINE
  5
284
100
AcDbEntity
  8
0
100
AcDbLine
 62
7
  6
CONTINUOUS
 10
9.9123325121
 20
6.4071658742
 11
11.4819620728
 21
6.2983116945
  0
LINE
  5
285
100
AcDbEntity
  8
0
100
AcDbLine
 62
7
  6
CONTINUOUS
 10
9.9043091283
 20
6.4293595826
 11
11.473938689
 21
6.3205054028
  0
LINE
  5
286
100
AcDbEntity
  8
0
100
AcDbLine
 62
7
  6
CONTINUOUS
 10
9.9123325121
 20
6.4071658742
 11
9.9043091283
 21
6.4293595826
  0
LINE
  5
287
100
AcDbEntity
  8
0
100
AcDbLine
 62
7
  6
CONTINUOUS
 10
9.4770924947
 20
10.3792568399
 11
9.4770924947
 21
7.481479175
  0
LINE
  5
288
100
AcDbEntity
  8
0
100
AcDbLine
 62
7
  6
CONTINUOUS
 10
9.9123325121
 20
10.5123508792
 11
9.9043091283
 21
10.4746571828
  0
LINE
  5
289
100
AcDbEntity
  8
0
100
AcDbLine
 62
7
  6
CONTINUOUS
 10
9.6263661901
 20
7.471127009
 11
9.6263661901
 21
6.5231095107
  0
LINE
  5
28A
100
AcDbEntity
  8
0
100
AcDbLine
 62
7
  6
CONTINUOUS
 10
9.6263661901
 20
10.4476663724
 11
9.6263661901
 21
10.5684071109
  0
LINE
  5
28B
100
AcDbEntity
  8
0
100
AcDbLine
 62
7
  6
CONTINUOUS
 10
11.551543662
 20
10.7127073756
 11
11.5501191428
 21
10.7113571305
  0
LINE
  5
28C
100
AcDbEntity
  8
0
100
AcDbLine
 62
7
  6
CONTINUOUS
 10
9.9043091283
 20
10.4746571828
 11
9.9043091283
 21
10.3539164442
  0
LINE
  5
28D
100
AcDbEntity
  8
0
100
AcDbLine
 62
7
  6
CONTINUOUS
 10
9.9043091283
 20
6.4293595826
 11
9.9043091283
 21
7.4518516008
  0
LINE
  5
28E
100
AcDbEntity
  8
0
100
AcDbLine
 62
7
  6
CONTINUOUS
 10
11.8919072035
 20
7.3140112061
 11
9.4770924947
 21
7.481479175
  0
LINE
  5
28F
100
AcDbEntity
  8
0
100
AcDbLine
 62
7
  6
CONTINUOUS
 10
12.3318782397
 20
10.8804527239
 11
11.9032742547
 21
10.4664530411
  0
LINE
  5
290
100
AcDbEntity
  8
0
100
AcDbLine
 62
7
  6
CONTINUOUS
 10
10.3809727232
 20
6.3746655652
 11
10.3809727232
 21
6.1215757444
  0
LINE
  5
291
100
AcDbEntity
  8
0
100
AcDbLine
 62
7
  6
CONTINUOUS
 10
12.3618219421
 20
10.8484324187
 11
11.9332179571
 21
10.4344327359
  0
LINE
  5
292
100
AcDbEntity
  8
0
100
AcDbLine
 62
7
  6
CONTINUOUS
 10
12.3618219421
 20
10.7276916802
 11
11.9332179571
 21
10.3136919973
  0
LINE
  5
293
100
AcDbEntity
  8
0
100
AcDbLine
 62
7
  6
CONTINUOUS
 10
12.5229075053
 20
10.8212883951
 11
11.8919072035
 21
10.2117888711
  0
LINE
  5
294
100
AcDbEntity
  8
0
100
AcDbLine
 62
7
  6
CONTINUOUS
 10
10.5323926627
 20
6.3597190056
 11
10.5323926627
 21
5.9753155643
  0
LINE
  5
295
100
AcDbEntity
  8
0
100
AcDbLine
 62
7
  6
CONTINUOUS
 10
10.5718654406
 20
6.3495027119
 11
10.5718654406
 21
5.9650992706
  0
LINE
  5
296
100
AcDbEntity
  8
0
100
AcDbLine
 62
4
  6
CONTINUOUS
 10
11.9695528536
 20
10.0873250516
 11
11.9384945945
 21
10.0573250752
  0
LINE
  5
297
100
AcDbEntity
  8
0
100
AcDbLine
 62
4
  6
CONTINUOUS
 10
12.0264930014
 20
10.1230065634
 11
12.0187284371
 21
10.1155065698
  0
LINE
  5
298
100
AcDbEntity
  8
0
100
AcDbLine
 62
4
  6
CONTINUOUS
 10
12.0109638714
 20
10.1007621308
 11
12.0031993066
 21
10.0932621368
  0
LINE
  5
299
100
AcDbEntity
  8
0
100
AcDbLine
 62
4
  6
CONTINUOUS
 10
12.000611119
 20
10.0328065876
 11
12.0316693781
 21
10.062806564
  0
LINE
  5
29A
100
AcDbEntity
  8
0
100
AcDbLine
 62
4
  6
CONTINUOUS
 10
11.9384945945
 20
9.8255028683
 11
11.9695528536
 21
9.8555028447
  0
LINE
  5
29B
100
AcDbEntity
  8
0
100
AcDbLine
 62
4
  6
CONTINUOUS
 10
12.000611119
 20
9.7212954971
 11
12.0316693781
 21
9.7512954735
  0
LINE
  5
29C
100
AcDbEntity
  8
0
100
AcDbLine
 62
7
  6
CONTINUOUS
 10
11.4819620728
 20
6.2983116945
 11
11.473938689
 21
6.3205054028
  0
LINE
  5
29D
100
AcDbEntity
  8
0
100
AcDbLine
 62
4
  6
CONTINUOUS
 10
12.0316693781
 20
9.6643621459
 11
12.000611119
 21
9.6343621696
  0
LINE
  5
29E
100
AcDbEntity
  8
0
100
AcDbLine
 62
4
  6
CONTINUOUS
 10
12.0316693781
 20
9.6064065942
 11
12.000611119
 21
9.5764066179
  0
LINE
  5
29F
100
AcDbEntity
  8
0
100
AcDbLine
 62
4
  6
CONTINUOUS
 10
12.000611119
 20
9.4894732903
 11
12.0316693781
 21
9.5194732666
  0
LINE
  5
2A0
100
AcDbEntity
  8
0
100
AcDbLine
 62
4
  6
CONTINUOUS
 10
12.3953098279
 20
8.4797897402
 11
12.3875452632
 21
8.4795341901
  0
LINE
  5
2A1
100
AcDbEntity
  8
0
100
AcDbLine
 62
4
  6
CONTINUOUS
 10
12.3953098279
 20
8.5667230678
 11
12.4030743927
 21
8.5669786179
  0
LINE
  5
2A2
100
AcDbEntity
  8
0
100
AcDbLine
 62
4
  6
CONTINUOUS
 10
12.3797806984
 20
8.0808342219
 11
12.4108389575
 21
8.0746119784
  0
LINE
  5
2A3
100
AcDbEntity
  8
0
100
AcDbLine
 62
4
  6
CONTINUOUS
 10
12.4431913081
 20
8.2217730565
 11
12.4742495671
 21
8.215550813
  0
LINE
  5
2A4
100
AcDbEntity
  8
0
100
AcDbLine
 62
7
  6
CONTINUOUS
 10
11.1369719151
 20
6.3103124448
 11
11.1369719151
 21
5.9259090035
  0
LINE
  5
2A5
100
AcDbEntity
  8
0
100
AcDbLine
 62
7
  6
CONTINUOUS
 10
11.1908927174
 20
6.3140518717
 11
11.1908927174
 21
5.9296484304
  0
LINE
  5
2A6
100
AcDbEntity
  8
0
100
AcDbLine
 62
7
  6
CONTINUOUS
 10
11.4819620728
 20
10.4034966995
 11
11.473938689
 21
10.365803003
  0
LINE
  5
2A7
100
AcDbEntity
  8
0
100
AcDbLine
 62
4
  6
CONTINUOUS
 10
11.9384945945
 20
9.3618584546
 11
11.9695528536
 21
9.391858431
  0
LINE
  5
2A8
100
AcDbEntity
  8
0
100
AcDbLine
 62
4
  6
CONTINUOUS
 10
12.1640367174
 20
9.4772582979
 11
12.1573813758
 21
9.4708297313
  0
LINE
  5
2A9
100
AcDbEntity
  8
0
100
AcDbLine
 62
4
  6
CONTINUOUS
 10
12.1529444819
 20
9.4168679124
 11
12.1462891411
 21
9.4104393464
  0
LINE
  5
2AA
100
AcDbEntity
  8
0
100
AcDbLine
 62
4
  6
CONTINUOUS
 10
12.0316693781
 20
9.2804066158
 11
12.0290811897
 21
9.2779066177
  0
LINE
  5
2AB
100
AcDbEntity
  8
0
100
AcDbLine
 62
4
  6
CONTINUOUS
 10
11.9592001003
 20
9.2079917834
 11
11.9643764769
 21
9.2129917796
  0
LINE
  5
2AC
100
AcDbEntity
  8
0
100
AcDbLine
 62
4
  6
CONTINUOUS
 10
12.1640367174
 20
9.3530678616
 11
12.1462891411
 21
9.3359250183
  0
LINE
  5
2AD
100
AcDbEntity
  8
0
100
AcDbLine
 62
4
  6
CONTINUOUS
 10
11.9436709717
 20
9.1350362444
 11
11.9462591593
 21
9.1375362418
  0
LINE
  5
2AE
100
AcDbEntity
  8
0
100
AcDbLine
 62
4
  6
CONTINUOUS
 10
12.1662551645
 20
9.3110541089
 11
12.1440706932
 21
9.2896255539
  0
LINE
  5
2AF
100
AcDbEntity
  8
0
100
AcDbLine
 62
4
  6
CONTINUOUS
 10
12.1374153533
 20
9.2831969888
 11
12.1351969054
 21
9.2810541326
  0
LINE
  5
2B0
100
AcDbEntity
  8
0
100
AcDbLine
 62
4
  6
CONTINUOUS
 10
11.9384945945
 20
9.9341695278
 11
11.9695528536
 21
10.000391724
  0
LINE
  5
2B1
100
AcDbEntity
  8
0
100
AcDbLine
 62
4
  6
CONTINUOUS
 10
11.9384945945
 20
9.7385695408
 11
11.9695528536
 21
9.8047917369
  0
LINE
  5
2B2
100
AcDbEntity
  8
0
100
AcDbLine
 62
4
  6
CONTINUOUS
 10
11.9384945945
 20
9.5864362175
 11
11.9695528536
 21
9.6526584137
  0
LINE
  5
2B3
100
AcDbEntity
  8
0
100
AcDbLine
 62
4
  6
CONTINUOUS
 10
12.0083756837
 20
9.8809288145
 11
12.0161402485
 21
9.8956732525
  0
LINE
  5
2B4
100
AcDbEntity
  8
0
100
AcDbLine
 62
4
  6
CONTINUOUS
 10
12.0239048133
 20
9.823484363
 11
12.0161402485
 21
9.808739925
  0
LINE
  5
2B5
100
AcDbEntity
  8
0
100
AcDbLine
 62
4
  6
CONTINUOUS
 10
12.3246522859
 20
9.4447355093
 11
12.2935940268
 21
9.4147355329
  0
LINE
  5
2B6
100
AcDbEntity
  8
0
100
AcDbLine
 62
4
  6
CONTINUOUS
 10
12.2980309207
 20
9.3721048024
 11
12.3202153915
 21
9.393533357
  0
LINE
  5
2B7
100
AcDbEntity
  8
0
100
AcDbLine
 62
4
  6
CONTINUOUS
 10
12.1640367174
 20
9.2343969805
 11
12.1351969054
 21
9.2065398597
  0
LINE
  5
2B8
100
AcDbEntity
  8
0
100
AcDbLine
 62
4
  6
CONTINUOUS
 10
11.9307300298
 20
8.9993807076
 11
11.973435136
 21
9.0406306751
  0
LINE
  5
2B9
100
AcDbEntity
  8
0
100
AcDbLine
 62
4
  6
CONTINUOUS
 10
12.1662551645
 20
9.2034223937
 11
12.1440706932
 21
9.1819938387
  0
LINE
  5
2BA
100
AcDbEntity
  8
0
100
AcDbLine
 62
4
  6
CONTINUOUS
 10
12.3246522859
 20
9.3398635164
 11
12.2935940268
 21
9.3098635401
  0
LINE
  5
2BB
100
AcDbEntity
  8
0
100
AcDbLine
 62
4
  6
CONTINUOUS
 10
12.0316693781
 20
9.026851077
 11
12.000611119
 21
8.9968511007
  0
LINE
  5
2BC
100
AcDbEntity
  8
0
100
AcDbLine
 62
4
  6
CONTINUOUS
 10
12.1440706932
 20
9.1323176199
 11
12.1640367174
 21
9.1516033194
  0
LINE
  5
2BD
100
AcDbEntity
  8
0
100
AcDbLine
 62
4
  6
CONTINUOUS
 10
12.2980309207
 20
9.2810318084
 11
12.3202153915
 21
9.302460363
  0
LINE
  5
2BE
100
AcDbEntity
  8
0
100
AcDbLine
 62
4
  6
CONTINUOUS
 10
12.1662551645
 20
9.1206287326
 11
12.1485075871
 21
9.1034858882
  0
LINE
  5
2BF
100
AcDbEntity
  8
0
100
AcDbLine
 62
4
  6
CONTINUOUS
 10
12.0213166247
 20
8.9588955329
 11
12.0264930014
 21
8.9638955291
  0
LINE
  5
2C0
100
AcDbEntity
  8
0
100
AcDbLine
 62
4
  6
CONTINUOUS
 10
12.3202153915
 20
9.2445048113
 11
12.2980309207
 21
9.2230762567
  0
LINE
  5
2C1
100
AcDbEntity
  8
0
100
AcDbLine
 62
4
  6
CONTINUOUS
 10
12.1640367174
 20
9.0688097136
 11
12.1573813758
 21
9.0623811469
  0
LINE
  5
2C2
100
AcDbEntity
  8
0
100
AcDbLine
 62
4
  6
CONTINUOUS
 10
12.2518872215
 20
9.1357281291
 11
12.2430134333
 21
9.1271567073
  0
LINE
  5
2C3
100
AcDbEntity
  8
0
100
AcDbLine
 62
4
  6
CONTINUOUS
 10
12.0057874961
 20
8.8859399939
 11
12.0083756837
 21
8.8884399913
  0
LINE
  5
2C4
100
AcDbEntity
  8
0
100
AcDbLine
 62
4
  6
CONTINUOUS
 10
12.1462891411
 20
9.015789595
 11
12.150726035
 21
9.0200753057
  0
LINE
  5
2C5
100
AcDbEntity
  8
0
100
AcDbLine
 62
4
  6
CONTINUOUS
 10
12.3953098279
 20
8.8275230505
 11
12.3875452632
 21
8.8272675004
  0
LINE
  5
2C6
100
AcDbEntity
  8
0
100
AcDbLine
 62
4
  6
CONTINUOUS
 10
12.4587204376
 20
8.8887730014
 11
12.4509558728
 21
8.8885174513
  0
LINE
  5
2C7
100
AcDbEntity
  8
0
100
AcDbLine
 62
4
  6
CONTINUOUS
 10
12.3953098279
 20
8.9144563781
 11
12.4030743927
 21
8.9147119282
  0
LINE
  5
2C8
100
AcDbEntity
  8
0
100
AcDbLine
 62
4
  6
CONTINUOUS
 10
12.4587204376
 20
8.975706329
 11
12.4664850024
 21
8.9759618791
  0
LINE
  5
2C9
100
AcDbEntity
  8
0
100
AcDbLine
 62
4
  6
CONTINUOUS
 10
12.3246522859
 20
8.7796265395
 11
12.2935940268
 21
8.7827440193
  0
LINE
  5
2CA
100
AcDbEntity
  8
0
100
AcDbLine
 62
4
  6
CONTINUOUS
 10
12.4431913081
 20
8.4898174831
 11
12.4742495671
 21
8.4835952397
  0
LINE
  5
2CB
100
AcDbEntity
  8
0
100
AcDbLine
 62
4
  6
CONTINUOUS
 10
12.4431913081
 20
8.5695063668
 11
12.4742495671
 21
8.5632841233
  0
LINE
  5
2CC
100
AcDbEntity
  8
0
100
AcDbLine
 62
7
  6
CONTINUOUS
 10
11.473938689
 20
10.365803003
 11
11.473938689
 21
10.2450622644
  0
LINE
  5
2CD
100
AcDbEntity
  8
0
100
AcDbLine
 62
7
  6
CONTINUOUS
 10
11.473938689
 20
6.3205054028
 11
11.473938689
 21
7.3429974211
  0
LINE
  5
2CE
100
AcDbEntity
  8
0
100
AcDbLine
 62
7
  6
CONTINUOUS
 10
11.6045792525
 20
6.2957511465
 11
11.6045792525
 21
6.0367183434
  0
LINE
  5
2CF
100
AcDbEntity
  8
0
100
AcDbLine
 62
7
  6
CONTINUOUS
 10
11.6190272768
 20
6.2961734161
 11
11.6190272768
 21
6.0506740641
  0
LINE
  5
2D0
100
AcDbEntity
  8
0
100
AcDbLine
 62
4
  6
CONTINUOUS
 10
12.0031993066
 20
10.0932621368
 11
12.000611119
 21
10.0835176954
  0
LINE
  5
2D1
100
AcDbEntity
  8
0
100
AcDbLine
 62
4
  6
CONTINUOUS
 10
12.0187284371
 20
10.1155065698
 11
12.0135520609
 21
10.0960176861
  0
LINE
  5
2D2
100
AcDbEntity
  8
0
100
AcDbLine
 62
4
  6
CONTINUOUS
 10
12.0031993066
 20
9.8614399299
 11
12.0083756837
 21
9.8809288145
  0
LINE
  5
2D3
100
AcDbEntity
  8
0
100
AcDbLine
 62
4
  6
CONTINUOUS
 10
12.000611119
 20
9.5764066179
 11
12.0316693781
 21
9.6643621459
  0
LINE
  5
2D4
100
AcDbEntity
  8
0
100
AcDbLine
 62
4
  6
CONTINUOUS
 10
11.9462591593
 20
9.318647341
 11
11.9540237241
 21
9.333391779
  0
LINE
  5
2D5
100
AcDbEntity
  8
0
100
AcDbLine
 62
4
  6
CONTINUOUS
 10
11.9617882888
 20
9.2612028895
 11
11.9540237241
 21
9.2464584514
  0
LINE
  5
2D6
100
AcDbEntity
  8
0
100
AcDbLine
 62
4
  6
CONTINUOUS
 10
12.0083756837
 20
9.1854621939
 11
12.0161402485
 21
9.2002066319
  0
LINE
  5
2D7
100
AcDbEntity
  8
0
100
AcDbLine
 62
4
  6
CONTINUOUS
 10
12.0239048133
 20
9.1280177424
 11
12.0161402485
 21
9.1132733044
  0
LINE
  5
2D8
100
AcDbEntity
  8
0
100
AcDbLine
 62
4
  6
CONTINUOUS
 10
12.2385765385
 20
9.0731948046
 11
12.2252658568
 21
9.0603376727
  0
LINE
  5
2D9
100
AcDbEntity
  8
0
100
AcDbLine
 62
4
  6
CONTINUOUS
 10
12.3202153915
 20
9.1479122619
 11
12.2980309207
 21
9.1264837073
  0
LINE
  5
2DA
100
AcDbEntity
  8
0
100
AcDbLine
 62
4
  6
CONTINUOUS
 10
12.1662551645
 20
8.9964382962
 11
12.1440706932
 21
8.9750097412
  0
LINE
  5
2DB
100
AcDbEntity
  8
0
100
AcDbLine
 62
4
  6
CONTINUOUS
 10
12.2452318802
 20
9.0465059154
 11
12.2518872215
 21
9.0529344818
  0
LINE
  5
2DC
100
AcDbEntity
  8
0
100
AcDbLine
 62
4
  6
CONTINUOUS
 10
12.1351969054
 20
8.9333208223
 11
12.1662551645
 21
8.9633207986
  0
LINE
  5
2DD
100
AcDbEntity
  8
0
100
AcDbLine
 62
4
  6
CONTINUOUS
 10
12.2297027507
 20
9.0232265666
 11
12.2363580925
 21
9.0296551335
  0
LINE
  5
2DE
100
AcDbEntity
  8
0
100
AcDbLine
 62
4
  6
CONTINUOUS
 10
12.4820141319
 20
9.2227840728
 11
12.4393090257
 21
9.1815341053
  0
LINE
  5
2DF
100
AcDbEntity
  8
0
100
AcDbLine
 62
4
  6
CONTINUOUS
 10
12.1640367174
 20
8.9115017796
 11
12.1462891411
 21
8.8943589363
  0
LINE
  5
2E0
100
AcDbEntity
  8
0
100
AcDbLine
 62
4
  6
CONTINUOUS
 10
12.2563241159
 20
8.9992646412
 11
12.2252658568
 21
8.9692646648
  0
LINE
  5
2E1
100
AcDbEntity
  8
0
100
AcDbLine
 62
4
  6
CONTINUOUS
 10
12.4056625804
 20
9.1417896885
 11
12.4030743927
 21
9.1392896911
  0
LINE
  5
2E2
100
AcDbEntity
  8
0
100
AcDbLine
 62
4
  6
CONTINUOUS
 10
12.2452318802
 20
8.9554329075
 11
12.2518872215
 21
8.9618614739
  0
LINE
  5
2E3
100
AcDbEntity
  8
0
100
AcDbLine
 62
4
  6
CONTINUOUS
 10
12.2297027507
 20
8.9321535553
 11
12.2363580925
 21
8.9385821222
  0
LINE
  5
2E4
100
AcDbEntity
  8
0
100
AcDbLine
 62
4
  6
CONTINUOUS
 10
12.3901334517
 20
9.0688341495
 11
12.3849570751
 21
9.0638341533
  0
LINE
  5
2E5
100
AcDbEntity
  8
0
100
AcDbLine
 62
4
  6
CONTINUOUS
 10
12.3246522859
 20
8.9783312902
 11
12.2935940268
 21
8.9483313139
  0
LINE
  5
2E6
100
AcDbEntity
  8
0
100
AcDbLine
 62
4
  6
CONTINUOUS
 10
12.2563241159
 20
8.9081916333
 11
12.2252658568
 21
8.878191657
  0
LINE
  5
2E7
100
AcDbEntity
  8
0
100
AcDbLine
 62
4
  6
CONTINUOUS
 10
12.1462891411
 20
8.7894869711
 11
12.1662551645
 21
8.8087726699
  0
LINE
  5
2E8
100
AcDbEntity
  8
0
100
AcDbLine
 62
4
  6
CONTINUOUS
 10
12.46907319
 20
9.087128536
 11
12.4664850024
 21
9.0846285386
  0
LINE
  5
2E9
100
AcDbEntity
  8
0
100
AcDbLine
 62
4
  6
CONTINUOUS
 10
12.3797806984
 20
9.0008786054
 11
12.4108389575
 21
9.0308785817
  0
LINE
  5
2EA
100
AcDbEntity
  8
0
100
AcDbLine
 62
4
  6
CONTINUOUS
 10
12.3246522859
 20
8.9120963779
 11
12.2935940268
 21
8.8820964016
  0
LINE
  5
2EB
100
AcDbEntity
  8
0
100
AcDbLine
 62
4
  6
CONTINUOUS
 10
12.1662551645
 20
8.7590964788
 11
12.1351969054
 21
8.7290965024
  0
LINE
  5
2EC
100
AcDbEntity
  8
0
100
AcDbLine
 62
4
  6
CONTINUOUS
 10
12.0161402485
 20
9.1132733044
 11
12.0083756837
 21
9.1130177542
  0
LINE
  5
2ED
100
AcDbEntity
  8
0
100
AcDbLine
 62
4
  6
CONTINUOUS
 10
12.1736499882
 20
8.8655917126
 11
12.1440706932
 21
8.8701377483
  0
LINE
  5
2EE
100
AcDbEntity
  8
0
100
AcDbLine
 62
4
  6
CONTINUOUS
 10
12.000611119
 20
9.8444510445
 11
12.0031993066
 21
9.8614399299
  0
LINE
  5
2EF
100
AcDbEntity
  8
0
100
AcDbLine
 62
4
  6
CONTINUOUS
 10
11.9384945945
 20
9.282169571
 11
11.9410827822
 21
9.2991584564
  0
LINE
  5
2F0
100
AcDbEntity
  8
0
100
AcDbLine
 62
4
  6
CONTINUOUS
 10
12.0316693781
 20
9.859962133
 11
12.0290811897
 21
9.8429732469
  0
LINE
  5
2F1
100
AcDbEntity
  8
0
100
AcDbLine
 62
4
  6
CONTINUOUS
 10
11.9410827822
 20
9.1832473529
 11
11.9384945945
 21
9.1662584676
  0
LINE
  5
2F2
100
AcDbEntity
  8
0
100
AcDbLine
 62
4
  6
CONTINUOUS
 10
12.0290811897
 20
9.8429732469
 11
12.0239048133
 21
9.823484363
  0
LINE
  5
2F3
100
AcDbEntity
  8
0
100
AcDbLine
 62
4
  6
CONTINUOUS
 10
11.9410827822
 20
9.2991584564
 11
11.9462591593
 21
9.318647341
  0
LINE
  5
2F4
100
AcDbEntity
  8
0
100
AcDbLine
 62
4
  6
CONTINUOUS
 10
11.9436709717
 20
9.1929917961
 11
11.9410827822
 21
9.1832473529
  0
LINE
  5
2F5
100
AcDbEntity
  8
0
100
AcDbLine
 62
4
  6
CONTINUOUS
 10
11.9669646653
 20
9.2806917734
 11
11.9617882888
 21
9.2612028895
  0
LINE
  5
2F6
100
AcDbEntity
  8
0
100
AcDbLine
 62
4
  6
CONTINUOUS
 10
11.9566119126
 20
9.198247342
 11
11.9592001003
 21
9.2079917834
  0
LINE
  5
2F7
100
AcDbEntity
  8
0
100
AcDbLine
 62
4
  6
CONTINUOUS
 10
11.9462591593
 20
9.1375362418
 11
11.9488473469
 21
9.1472806832
  0
LINE
  5
2F8
100
AcDbEntity
  8
0
100
AcDbLine
 62
4
  6
CONTINUOUS
 10
11.9669646653
 20
9.16478067
 11
11.9617882888
 21
9.1452917861
  0
LINE
  5
2F9
100
AcDbEntity
  8
0
100
AcDbLine
 62
4
  6
CONTINUOUS
 10
12.0290811897
 20
9.2779066177
 11
12.0316693781
 21
9.2876510598
  0
LINE
  5
2FA
100
AcDbEntity
  8
0
100
AcDbLine
 62
4
  6
CONTINUOUS
 10
12.0031993066
 20
9.1659733093
 11
12.0083756837
 21
9.1854621939
  0
LINE
  5
2FB
100
AcDbEntity
  8
0
100
AcDbLine
 62
4
  6
CONTINUOUS
 10
12.0290811897
 20
9.1475066263
 11
12.0239048133
 21
9.1280177424
  0
LINE
  5
2FC
100
AcDbEntity
  8
0
100
AcDbLine
 62
4
  6
CONTINUOUS
 10
12.0213166247
 20
9.1689844079
 11
12.0316693781
 21
9.2007177322
  0
LINE
  5
2FD
100
AcDbEntity
  8
0
100
AcDbLine
 62
4
  6
CONTINUOUS
 10
11.9307300298
 20
8.9993807076
 11
11.9495894189
 21
9.0504181996
  0
LINE
  5
2FE
100
AcDbEntity
  8
0
100
AcDbLine
 62
4
  6
CONTINUOUS
 10
12.4535440614
 20
9.014172997
 11
12.4483676847
 21
9.0091730008
  0
LINE
  5
2FF
100
AcDbEntity
  8
0
100
AcDbLine
 62
4
  6
CONTINUOUS
 10
12.1662551645
 20
8.6349060148
 11
12.1351969054
 21
8.6049060384
  0
LINE
  5
300
100
AcDbEntity
  8
0
100
AcDbLine
 62
4
  6
CONTINUOUS
 10
12.2980309207
 20
8.7069958742
 11
12.3202153915
 21
8.7284244288
  0
LINE
  5
301
100
AcDbEntity
  8
0
100
AcDbLine
 62
4
  6
CONTINUOUS
 10
12.1662551645
 20
8.5769504631
 11
12.1351969054
 21
8.5469504867
  0
LINE
  5
302
100
AcDbEntity
  8
0
100
AcDbLine
 62
4
  6
CONTINUOUS
 10
12.4742495671
 20
8.8603063258
 11
12.4431913081
 21
8.8303063495
  0
LINE
  5
303
100
AcDbEntity
  8
0
100
AcDbLine
 62
4
  6
CONTINUOUS
 10
12.1618182702
 20
8.5395472958
 11
12.1351969054
 21
8.5138330306
  0
LINE
  5
304
100
AcDbEntity
  8
0
100
AcDbLine
 62
4
  6
CONTINUOUS
 10
12.3797806984
 20
8.7473230666
 11
12.3823688867
 21
8.7498230647
  0
LINE
  5
305
100
AcDbEntity
  8
0
100
AcDbLine
 62
4
  6
CONTINUOUS
 10
12.3246522859
 20
8.6747545951
 11
12.2935940268
 21
8.6447546187
  0
LINE
  5
306
100
AcDbEntity
  8
0
100
AcDbLine
 62
4
  6
CONTINUOUS
 10
12.1351969054
 20
8.4558774788
 11
12.1618182702
 21
8.4815917441
  0
LINE
  5
307
100
AcDbEntity
  8
0
100
AcDbLine
 62
4
  6
CONTINUOUS
 10
12.0161402485
 20
9.2002066319
 11
12.0239048133
 21
9.2004621821
  0
LINE
  5
308
100
AcDbEntity
  8
0
100
AcDbLine
 62
4
  6
CONTINUOUS
 10
11.9540237241
 20
9.2464584514
 11
11.9462591593
 21
9.2462029013
  0
LINE
  5
309
100
AcDbEntity
  8
0
100
AcDbLine
 62
4
  6
CONTINUOUS
 10
11.9540237241
 20
9.333391779
 11
11.9617882888
 21
9.3336473291
  0
LINE
  5
30A
100
AcDbEntity
  8
0
100
AcDbLine
 62
7
  6
CONTINUOUS
 10
11.8919072035
 20
10.2117888711
 11
11.8919072035
 21
7.3140112061
  0
LINE
  5
30B
100
AcDbEntity
  8
0
100
AcDbLine
 62
7
  6
CONTINUOUS
 10
11.9332179571
 20
10.4344327359
 11
11.9332179571
 21
10.3136919973
  0
LINE
  5
30C
100
AcDbEntity
  8
0
100
AcDbLine
 62
7
  6
CONTINUOUS
 10
11.9332179571
 20
6.3891351357
 11
11.9332179571
 21
7.3539143323
  0
LINE
  5
30D
100
AcDbEntity
  8
0
100
AcDbLine
 62
4
  6
CONTINUOUS
 10
11.9384945945
 20
9.1662584676
 11
11.9384945945
 21
9.1517695797
  0
LINE
  5
30E
100
AcDbEntity
  8
0
100
AcDbLine
 62
4
  6
CONTINUOUS
 10
11.9384945945
 20
9.2676806831
 11
11.9384945945
 21
9.282169571
  0
LINE
  5
30F
100
AcDbEntity
  8
0
100
AcDbLine
 62
4
  6
CONTINUOUS
 10
11.9384945945
 20
10.0573250752
 11
11.9384945945
 21
10.1152806269
  0
LINE
  5
310
100
AcDbEntity
  8
0
100
AcDbLine
 62
4
  6
CONTINUOUS
 10
11.9540237241
 20
10.0723250634
 11
11.9540237241
 21
10.1085472832
  0
LINE
  5
311
100
AcDbEntity
  8
0
100
AcDbLine
 62
4
  6
CONTINUOUS
 10
11.9592001003
 20
9.7368361928
 11
11.9592001003
 21
9.7803028566
  0
LINE
  5
312
100
AcDbEntity
  8
0
100
AcDbLine
 62
4
  6
CONTINUOUS
 10
11.9695528536
 20
10.1452806033
 11
11.9695528536
 21
10.0873250516
  0
LINE
  5
313
100
AcDbEntity
  8
0
100
AcDbLine
 62
4
  6
CONTINUOUS
 10
11.9695528536
 20
9.3121695474
 11
11.9695528536
 21
9.2976806594
  0
LINE
  5
314
100
AcDbEntity
  8
0
100
AcDbLine
 62
4
  6
CONTINUOUS
 10
11.9695528536
 20
9.1962584439
 11
11.9695528536
 21
9.181769556
  0
LINE
  5
315
100
AcDbEntity
  8
0
100
AcDbLine
 62
4
  6
CONTINUOUS
 10
11.9695528536
 20
9.391858431
 11
11.9695528536
 21
9.4498139827
  0
LINE
  5
316
100
AcDbEntity
  8
0
100
AcDbLine
 62
4
  6
CONTINUOUS
 10
11.9695528536
 20
9.8555028447
 11
11.9695528536
 21
9.9134583964
  0
LINE
  5
317
100
AcDbEntity
  8
0
100
AcDbLine
 62
4
  6
CONTINUOUS
 10
11.973435136
 20
9.0406306751
 11
11.973435136
 21
10.1997417094
  0
LINE
  5
318
100
AcDbEntity
  8
0
100
AcDbLine
 62
4
  6
CONTINUOUS
 10
12.000611119
 20
10.0835176954
 11
12.000611119
 21
10.0328065876
  0
LINE
  5
319
100
AcDbEntity
  8
0
100
AcDbLine
 62
4
  6
CONTINUOUS
 10
12.000611119
 20
8.9171622171
 11
12.000611119
 21
8.9026733292
  0
LINE
  5
31A
100
AcDbEntity
  8
0
100
AcDbLine
 62
4
  6
CONTINUOUS
 10
12.000611119
 20
8.9968511007
 11
12.000611119
 21
9.0548066524
  0
LINE
  5
31B
100
AcDbEntity
  8
0
100
AcDbLine
 62
4
  6
CONTINUOUS
 10
12.000611119
 20
9.134495536
 11
12.000611119
 21
9.1489844239
  0
LINE
  5
31C
100
AcDbEntity
  8
0
100
AcDbLine
 62
4
  6
CONTINUOUS
 10
12.000611119
 20
9.6850732773
 11
12.000611119
 21
9.757517717
  0
LINE
  5
31D
100
AcDbEntity
  8
0
100
AcDbLine
 62
4
  6
CONTINUOUS
 10
12.000611119
 20
9.8299621566
 11
12.000611119
 21
9.8444510445
  0
LINE
  5
31E
100
AcDbEntity
  8
0
100
AcDbLine
 62
4
  6
CONTINUOUS
 10
12.0135520609
 20
10.0453065784
 11
12.0135520609
 21
10.0960176861
  0
LINE
  5
31F
100
AcDbEntity
  8
0
100
AcDbLine
 62
4
  6
CONTINUOUS
 10
12.0161402485
 20
9.0118510889
 11
12.0161402485
 21
9.0480733087
  0
LINE
  5
320
100
AcDbEntity
  8
0
100
AcDbLine
 62
4
  6
CONTINUOUS
 10
12.0316693781
 20
9.8744510209
 11
12.0316693781
 21
9.859962133
  0
LINE
  5
321
100
AcDbEntity
  8
0
100
AcDbLine
 62
4
  6
CONTINUOUS
 10
12.0316693781
 20
9.2876510598
 11
12.0316693781
 21
9.2804066158
  0
LINE
  5
322
100
AcDbEntity
  8
0
100
AcDbLine
 62
4
  6
CONTINUOUS
 10
12.0316693781
 20
9.1789844003
 11
12.0316693781
 21
9.1644955124
  0
LINE
  5
323
100
AcDbEntity
  8
0
100
AcDbLine
 62
4
  6
CONTINUOUS
 10
12.0316693781
 20
9.0848066288
 11
12.0316693781
 21
9.026851077
  0
LINE
  5
324
100
AcDbEntity
  8
0
100
AcDbLine
 62
4
  6
CONTINUOUS
 10
12.0316693781
 20
8.9471621934
 11
12.0316693781
 21
8.9326733055
  0
LINE
  5
325
100
AcDbEntity
  8
0
100
AcDbLine
 62
4
  6
CONTINUOUS
 10
12.0316693781
 20
10.062806564
 11
12.0316693781
 21
10.1135176717
  0
LINE
  5
326
100
AcDbEntity
  8
0
100
AcDbLine
 62
4
  6
CONTINUOUS
 10
11.9695528536
 20
9.2976806594
 11
11.9669646653
 21
9.2806917734
  0
LINE
  5
327
100
AcDbEntity
  8
0
100
AcDbLine
 62
4
  6
CONTINUOUS
 10
11.9488473469
 20
9.1472806832
 11
11.9566119126
 21
9.198247342
  0
LINE
  5
328
100
AcDbEntity
  8
0
100
AcDbLine
 62
4
  6
CONTINUOUS
 10
11.9695528536
 20
9.181769556
 11
11.9669646653
 21
9.16478067
  0
LINE
  5
329
100
AcDbEntity
  8
0
100
AcDbLine
 62
4
  6
CONTINUOUS
 10
12.000611119
 20
9.1489844239
 11
12.0031993066
 21
9.1659733093
  0
LINE
  5
32A
100
AcDbEntity
  8
0
100
AcDbLine
 62
4
  6
CONTINUOUS
 10
12.0316693781
 20
9.1644955124
 11
12.0290811897
 21
9.1475066263
  0
LINE
  5
32B
100
AcDbEntity
  8
0
100
AcDbLine
 62
4
  6
CONTINUOUS
 10
12.0031993066
 20
8.9341511024
 11
12.000611119
 21
8.9171622171
  0
LINE
  5
32C
100
AcDbEntity
  8
0
100
AcDbLine
 62
4
  6
CONTINUOUS
 10
12.0109638714
 20
8.8981844327
 11
12.0187284371
 21
8.9491510915
  0
LINE
  5
32D
100
AcDbEntity
  8
0
100
AcDbLine
 62
4
  6
CONTINUOUS
 10
12.0316693781
 20
8.9326733055
 11
12.0290811897
 21
8.9156844195
  0
LINE
  5
32E
100
AcDbEntity
  8
0
100
AcDbLine
 62
4
  6
CONTINUOUS
 10
12.1573813758
 20
9.4708297313
 11
12.1559024112
 21
9.4611218281
  0
LINE
  5
32F
100
AcDbEntity
  8
0
100
AcDbLine
 62
4
  6
CONTINUOUS
 10
12.1544234466
 20
9.4265758156
 11
12.1529444819
 21
9.4168679124
  0
LINE
  5
330
100
AcDbEntity
  8
0
100
AcDbLine
 62
4
  6
CONTINUOUS
 10
12.1440706932
 20
9.4496932655
 11
12.1462891411
 21
9.4601154547
  0
LINE
  5
331
100
AcDbEntity
  8
0
100
AcDbLine
 62
4
  6
CONTINUOUS
 10
12.1640367174
 20
9.4275821897
 11
12.1662551645
 21
9.4380043782
  0
LINE
  5
332
100
AcDbEntity
  8
0
100
AcDbLine
 62
4
  6
CONTINUOUS
 10
12.1662551645
 20
9.3634900501
 11
12.1640367174
 21
9.3530678616
  0
LINE
  5
333
100
AcDbEntity
  8
0
100
AcDbLine
 62
4
  6
CONTINUOUS
 10
12.1662551645
 20
9.2448192242
 11
12.1640367174
 21
9.2343969805
  0
LINE
  5
334
100
AcDbEntity
  8
0
100
AcDbLine
 62
4
  6
CONTINUOUS
 10
12.1640367174
 20
9.1516033194
 11
12.1662551645
 21
9.1620255631
  0
LINE
  5
335
100
AcDbEntity
  8
0
100
AcDbLine
 62
4
  6
CONTINUOUS
 10
12.0057874961
 20
8.9438955456
 11
12.0031993066
 21
8.9341511024
  0
LINE
  5
336
100
AcDbEntity
  8
0
100
AcDbLine
 62
4
  6
CONTINUOUS
 10
12.0187284371
 20
8.9491510915
 11
12.0213166247
 21
8.9588955329
  0
LINE
  5
337
100
AcDbEntity
  8
0
100
AcDbLine
 62
4
  6
CONTINUOUS
 10
12.0083756837
 20
8.8884399913
 11
12.0109638714
 21
8.8981844327
  0
LINE
  5
338
100
AcDbEntity
  8
0
100
AcDbLine
 62
4
  6
CONTINUOUS
 10
12.0290811897
 20
8.9156844195
 11
12.0239048133
 21
8.8961955356
  0
LINE
  5
339
100
AcDbEntity
  8
0
100
AcDbLine
 62
4
  6
CONTINUOUS
 10
12.1440706932
 20
9.0081271835
 11
12.1462891411
 21
9.015789595
  0
LINE
  5
33A
100
AcDbEntity
  8
0
100
AcDbLine
 62
4
  6
CONTINUOUS
 10
12.1485075871
 20
9.1034858882
 11
12.1440706932
 21
9.0909208446
  0
LINE
  5
33B
100
AcDbEntity
  8
0
100
AcDbLine
 62
4
  6
CONTINUOUS
 10
12.1440706932
 20
8.8204615848
 11
12.1662551645
 21
8.8667282493
  0
LINE
  5
33C
100
AcDbEntity
  8
0
100
AcDbLine
 62
4
  6
CONTINUOUS
 10
12.1618182702
 20
8.4484742879
 11
12.1573813758
 21
8.4441885768
  0
LINE
  5
33D
100
AcDbEntity
  8
0
100
AcDbLine
 62
4
  6
CONTINUOUS
 10
12.1440706932
 20
8.3733758923
 11
12.1396337993
 21
8.3690901816
  0
LINE
  5
33E
100
AcDbEntity
  8
0
100
AcDbLine
 62
4
  6
CONTINUOUS
 10
12.3849570751
 20
8.4263230844
 11
12.4108389575
 21
8.4513230646
  0
LINE
  5
33F
100
AcDbEntity
  8
0
100
AcDbLine
 62
4
  6
CONTINUOUS
 10
11.9307300298
 20
8.9993807076
 11
11.9495894189
 21
8.9847767599
  0
LINE
  5
340
100
AcDbEntity
  8
0
100
AcDbLine
 62
4
  6
CONTINUOUS
 10
12.1396337993
 20
8.3690901816
 11
12.1351969054
 21
8.3813632008
  0
LINE
  5
341
100
AcDbEntity
  8
0
100
AcDbLine
 62
4
  6
CONTINUOUS
 10
12.1351969054
 20
8.3813632008
 11
12.1351969054
 21
8.4144806587
  0
LINE
  5
342
100
AcDbEntity
  8
0
100
AcDbLine
 62
4
  6
CONTINUOUS
 10
12.1351969054
 20
9.2810541326
 11
12.1351969054
 21
9.2838139102
  0
LINE
  5
343
100
AcDbEntity
  8
0
100
AcDbLine
 62
4
  6
CONTINUOUS
 10
12.1440706932
 20
9.0909208446
 11
12.1440706932
 21
9.0495240141
  0
LINE
  5
344
100
AcDbEntity
  8
0
100
AcDbLine
 62
4
  6
CONTINUOUS
 10
12.1440706932
 20
8.7376679237
 11
12.1440706932
 21
8.7790647543
  0
LINE
  5
345
100
AcDbEntity
  8
0
100
AcDbLine
 62
4
  6
CONTINUOUS
 10
12.1440706932
 20
8.9087748012
 11
12.1440706932
 21
8.9418922436
  0
LINE
  5
346
100
AcDbEntity
  8
0
100
AcDbLine
 62
4
  6
CONTINUOUS
 10
12.1440706932
 20
8.9750097412
 11
12.1440706932
 21
9.0081271835
  0
LINE
  5
347
100
AcDbEntity
  8
0
100
AcDbLine
 62
4
  6
CONTINUOUS
 10
12.1440706932
 20
9.342061495
 11
12.1440706932
 21
9.3751790479
  0
LINE
  5
348
100
AcDbEntity
  8
0
100
AcDbLine
 62
4
  6
CONTINUOUS
 10
12.1440706932
 20
9.4165758232
 11
12.1440706932
 21
9.4496932655
  0
LINE
  5
349
100
AcDbEntity
  8
0
100
AcDbLine
 62
4
  6
CONTINUOUS
 10
12.1551629289
 20
9.0767970127
 11
12.1551629289
 21
9.1099144551
  0
LINE
  5
34A
100
AcDbEntity
  8
0
100
AcDbLine
 62
4
  6
CONTINUOUS
 10
12.1662551645
 20
9.3966076029
 11
12.1662551645
 21
9.3634900501
  0
LINE
  5
34B
100
AcDbEntity
  8
0
100
AcDbLine
 62
4
  6
CONTINUOUS
 10
12.1662551645
 20
9.2613779454
 11
12.1662551645
 21
9.2448192242
  0
LINE
  5
34C
100
AcDbEntity
  8
0
100
AcDbLine
 62
4
  6
CONTINUOUS
 10
12.1662551645
 20
9.1206287326
 11
12.1662551645
 21
9.0875112903
  0
LINE
  5
34D
100
AcDbEntity
  8
0
100
AcDbLine
 62
4
  6
CONTINUOUS
 10
12.1662551645
 20
8.9633207986
 11
12.1662551645
 21
8.9302033563
  0
LINE
  5
34E
100
AcDbEntity
  8
0
100
AcDbLine
 62
4
  6
CONTINUOUS
 10
12.1662551645
 20
8.4030838122
 11
12.1662551645
 21
8.436201271
  0
LINE
  5
34F
100
AcDbEntity
  8
0
100
AcDbLine
 62
4
  6
CONTINUOUS
 10
12.1662551645
 20
8.5024361833
 11
12.1662551645
 21
8.5272742857
  0
LINE
  5
350
100
AcDbEntity
  8
0
100
AcDbLine
 62
4
  6
CONTINUOUS
 10
12.1662551645
 20
9.1620255631
 11
12.1662551645
 21
9.2034223937
  0
LINE
  5
351
100
AcDbEntity
  8
0
100
AcDbLine
 62
4
  6
CONTINUOUS
 10
12.1662551645
 20
9.4380043782
 11
12.1662551645
 21
9.4711218205
  0
LINE
  5
352
100
AcDbEntity
  8
0
100
AcDbLine
 62
4
  6
CONTINUOUS
 10
12.1736499882
 20
8.8490329914
 11
12.1736499882
 21
8.8655917126
  0
LINE
  5
353
100
AcDbEntity
  8
0
100
AcDbLine
 62
4
  6
CONTINUOUS
 10
12.2252658568
 20
8.878191657
 11
12.2252658568
 21
8.9030297508
  0
LINE
  5
354
100
AcDbEntity
  8
0
100
AcDbLine
 62
4
  6
CONTINUOUS
 10
12.2252658568
 20
8.9692646648
 11
12.2252658568
 21
8.9941027604
  0
LINE
  5
355
100
AcDbEntity
  8
0
100
AcDbLine
 62
4
  6
CONTINUOUS
 10
12.2252658568
 20
9.0603376727
 11
12.2252658568
 21
9.1100138638
  0
LINE
  5
356
100
AcDbEntity
  8
0
100
AcDbLine
 62
4
  6
CONTINUOUS
 10
12.1559024112
 20
9.4611218281
 11
12.1544234466
 21
9.4265758156
  0
LINE
  5
357
100
AcDbEntity
  8
0
100
AcDbLine
 62
4
  6
CONTINUOUS
 10
12.2252658568
 20
8.9941027604
 11
12.22600534
 21
9.003096407
  0
LINE
  5
358
100
AcDbEntity
  8
0
100
AcDbLine
 62
4
  6
CONTINUOUS
 10
12.2252658568
 20
8.9030297508
 11
12.22600534
 21
8.9120234026
  0
LINE
  5
359
100
AcDbEntity
  8
0
100
AcDbLine
 62
4
  6
CONTINUOUS
 10
12.1662551645
 20
9.0875112903
 11
12.1640367174
 21
9.0688097136
  0
LINE
  5
35A
100
AcDbEntity
  8
0
100
AcDbLine
 62
4
  6
CONTINUOUS
 10
12.1662551645
 20
8.9302033563
 11
12.1640367174
 21
8.9115017796
  0
LINE
  5
35B
100
AcDbEntity
  8
0
100
AcDbLine
 62
4
  6
CONTINUOUS
 10
12.3054257438
 20
9.5089577005
 11
12.3113416033
 21
9.5588285904
  0
LINE
  5
35C
100
AcDbEntity
  8
0
100
AcDbLine
 62
4
  6
CONTINUOUS
 10
12.22600534
 20
9.003096407
 11
12.2297027507
 21
9.0232265666
  0
LINE
  5
35D
100
AcDbEntity
  8
0
100
AcDbLine
 62
4
  6
CONTINUOUS
 10
12.22600534
 20
8.9120234026
 11
12.2297027507
 21
8.9321535553
  0
LINE
  5
35E
100
AcDbEntity
  8
0
100
AcDbLine
 62
4
  6
CONTINUOUS
 10
12.1573813758
 20
8.4441885768
 11
12.1440706932
 21
8.3733758923
  0
LINE
  5
35F
100
AcDbEntity
  8
0
100
AcDbLine
 62
4
  6
CONTINUOUS
 10
12.1440706932
 20
8.7790647543
 11
12.1462891411
 21
8.7894869711
  0
LINE
  5
360
100
AcDbEntity
  8
0
100
AcDbLine
 62
4
  6
CONTINUOUS
 10
12.2430134333
 20
9.1271567073
 11
12.2385765385
 21
9.1063122608
  0
LINE
  5
361
100
AcDbEntity
  8
0
100
AcDbLine
 62
4
  6
CONTINUOUS
 10
12.2935940268
 20
9.3512603706
 11
12.2980309207
 21
9.3721048024
  0
LINE
  5
362
100
AcDbEntity
  8
0
100
AcDbLine
 62
4
  6
CONTINUOUS
 10
12.2407949863
 20
9.0256614836
 11
12.2452318802
 21
9.0465059154
  0
LINE
  5
363
100
AcDbEntity
  8
0
100
AcDbLine
 62
4
  6
CONTINUOUS
 10
12.2935940268
 20
9.2601873766
 11
12.2980309207
 21
9.2810318084
  0
LINE
  5
364
100
AcDbEntity
  8
0
100
AcDbLine
 62
4
  6
CONTINUOUS
 10
12.2407949863
 20
8.9345884688
 11
12.2452318802
 21
8.9554329075
  0
LINE
  5
365
100
AcDbEntity
  8
0
100
AcDbLine
 62
4
  6
CONTINUOUS
 10
12.1351969054
 20
8.4144806587
 11
12.1374153533
 21
8.4249028789
  0
LINE
  5
366
100
AcDbEntity
  8
0
100
AcDbLine
 62
4
  6
CONTINUOUS
 10
12.3246522859
 20
9.2653492435
 11
12.3202153915
 21
9.2445048113
  0
LINE
  5
367
100
AcDbEntity
  8
0
100
AcDbLine
 62
4
  6
CONTINUOUS
 10
12.1618182702
 20
8.4815917441
 11
12.1662551645
 21
8.5024361833
  0
LINE
  5
368
100
AcDbEntity
  8
0
100
AcDbLine
 62
4
  6
CONTINUOUS
 10
12.3246522859
 20
9.1687566942
 11
12.3202153915
 21
9.1479122619
  0
LINE
  5
369
100
AcDbEntity
  8
0
100
AcDbLine
 62
4
  6
CONTINUOUS
 10
12.1640367174
 20
8.3926615918
 11
12.1662551645
 21
8.4030838122
  0
LINE
  5
36A
100
AcDbEntity
  8
0
100
AcDbLine
 62
4
  6
CONTINUOUS
 10
12.2935940268
 20
8.6861514354
 11
12.2980309207
 21
8.7069958742
  0
LINE
  5
36B
100
AcDbEntity
  8
0
100
AcDbLine
 62
4
  6
CONTINUOUS
 10
12.3823688867
 20
9.112045263
 11
12.3875452632
 21
9.1315341469
  0
LINE
  5
36C
100
AcDbEntity
  8
0
100
AcDbLine
 62
4
  6
CONTINUOUS
 10
12.4030743927
 20
9.1392896911
 11
12.4004862051
 21
9.1295452497
  0
LINE
  5
36D
100
AcDbEntity
  8
0
100
AcDbLine
 62
4
  6
CONTINUOUS
 10
12.3927216394
 20
9.0785785909
 11
12.3901334517
 21
9.0688341495
  0
LINE
  5
36E
100
AcDbEntity
  8
0
100
AcDbLine
 62
4
  6
CONTINUOUS
 10
12.4056625804
 20
9.0838341368
 11
12.4082507699
 21
9.09357858
  0
LINE
  5
36F
100
AcDbEntity
  8
0
100
AcDbLine
 62
4
  6
CONTINUOUS
 10
12.3901334517
 20
8.8587452746
 11
12.3797806984
 21
8.8270119502
  0
LINE
  5
370
100
AcDbEntity
  8
0
100
AcDbLine
 62
4
  6
CONTINUOUS
 10
12.1351969054
 20
8.5469504867
 11
12.1662551645
 21
8.6349060148
  0
LINE
  5
371
100
AcDbEntity
  8
0
100
AcDbLine
 62
4
  6
CONTINUOUS
 10
12.4820141319
 20
9.2227840728
 11
12.4631547427
 21
9.1717465808
  0
LINE
  5
372
100
AcDbEntity
  8
0
100
AcDbLine
 62
4
  6
CONTINUOUS
 10
12.2935940268
 20
8.7827440193
 11
12.3246522859
 21
8.8458614656
  0
LINE
  5
373
100
AcDbEntity
  8
0
100
AcDbLine
 62
4
  6
CONTINUOUS
 10
12.3875452632
 20
8.89971194
 11
12.3953098279
 21
8.9144563781
  0
LINE
  5
374
100
AcDbEntity
  8
0
100
AcDbLine
 62
4
  6
CONTINUOUS
 10
12.4509558728
 20
8.960961891
 11
12.4587204376
 21
8.975706329
  0
LINE
  5
375
100
AcDbEntity
  8
0
100
AcDbLine
 62
4
  6
CONTINUOUS
 10
12.4030743927
 20
8.8422674885
 11
12.3953098279
 21
8.8275230505
  0
LINE
  5
376
100
AcDbEntity
  8
0
100
AcDbLine
 62
4
  6
CONTINUOUS
 10
12.4664850024
 20
8.9035174395
 11
12.4587204376
 21
8.8887730014
  0
LINE
  5
377
100
AcDbEntity
  8
0
100
AcDbLine
 62
4
  6
CONTINUOUS
 10
12.3875452632
 20
8.5519786297
 11
12.3953098279
 21
8.5667230678
  0
LINE
  5
378
100
AcDbEntity
  8
0
100
AcDbLine
 62
4
  6
CONTINUOUS
 10
12.4108389575
 20
8.3933675129
 11
12.3849570751
 21
8.3683675327
  0
LINE
  5
379
100
AcDbEntity
  8
0
100
AcDbLine
 62
4
  6
CONTINUOUS
 10
12.4742495671
 20
8.3966619121
 11
12.4431913081
 21
8.3666619358
  0
LINE
  5
37A
100
AcDbEntity
  8
0
100
AcDbLine
 62
4
  6
CONTINUOUS
 10
12.4108389575
 20
8.3064341853
 11
12.3797806984
 21
8.2764342089
  0
LINE
  5
37B
100
AcDbEntity
  8
0
100
AcDbLine
 62
4
  6
CONTINUOUS
 10
12.1351969054
 20
9.2838139102
 11
12.1374153533
 21
9.2831969888
  0
LINE
  5
37C
100
AcDbEntity
  8
0
100
AcDbLine
 62
4
  6
CONTINUOUS
 10
12.0031993066
 20
8.8906844387
 11
12.0057874961
 21
8.8859399939
  0
LINE
  5
37D
100
AcDbEntity
  8
0
100
AcDbLine
 62
4
  6
CONTINUOUS
 10
12.0264930014
 20
8.9638955291
 11
12.0290811897
 21
8.9591510833
  0
LINE
  5
37E
100
AcDbEntity
  8
0
100
AcDbLine
 62
4
  6
CONTINUOUS
 10
11.9410827822
 20
9.1397806892
 11
11.9436709717
 21
9.1350362444
  0
LINE
  5
37F
100
AcDbEntity
  8
0
100
AcDbLine
 62
4
  6
CONTINUOUS
 10
12.3849570751
 20
8.3683675327
 11
12.3823688867
 21
8.3731119786
  0
LINE
  5
380
100
AcDbEntity
  8
0
100
AcDbLine
 62
4
  6
CONTINUOUS
 10
12.0083756837
 20
9.1130177542
 11
12.0031993066
 21
9.1225066455
  0
LINE
  5
381
100
AcDbEntity
  8
0
100
AcDbLine
 62
4
  6
CONTINUOUS
 10
11.9643764769
 20
9.2129917796
 11
11.9669646653
 21
9.2082473338
  0
LINE
  5
382
100
AcDbEntity
  8
0
100
AcDbLine
 62
4
  6
CONTINUOUS
 10
11.9462591593
 20
9.2462029013
 11
11.9410827822
 21
9.2556917926
  0
LINE
  5
383
100
AcDbEntity
  8
0
100
AcDbLine
 62
4
  6
CONTINUOUS
 10
12.3875452632
 20
8.4795341901
 11
12.3823688867
 21
8.489023082
  0
LINE
  5
384
100
AcDbEntity
  8
0
100
AcDbLine
 62
4
  6
CONTINUOUS
 10
12.1662551645
 20
8.436201271
 11
12.1618182702
 21
8.4484742879
  0
LINE
  5
385
100
AcDbEntity
  8
0
100
AcDbLine
 62
4
  6
CONTINUOUS
 10
12.1662551645
 20
8.5272742857
 11
12.1618182702
 21
8.5395472958
  0
LINE
  5
386
100
AcDbEntity
  8
0
100
AcDbLine
 62
4
  6
CONTINUOUS
 10
11.9384945945
 20
9.1517695797
 11
11.9410827822
 21
9.1397806892
  0
LINE
  5
387
100
AcDbEntity
  8
0
100
AcDbLine
 62
4
  6
CONTINUOUS
 10
12.000611119
 20
8.9026733292
 11
12.0031993066
 21
8.8906844387
  0
LINE
  5
388
100
AcDbEntity
  8
0
100
AcDbLine
 62
4
  6
CONTINUOUS
 10
11.9410827822
 20
9.2556917926
 11
11.9384945945
 21
9.2676806831
  0
LINE
  5
389
100
AcDbEntity
  8
0
100
AcDbLine
 62
4
  6
CONTINUOUS
 10
11.9669646653
 20
9.2082473338
 11
11.9695528536
 21
9.1962584439
  0
LINE
  5
38A
100
AcDbEntity
  8
0
100
AcDbLine
 62
4
  6
CONTINUOUS
 10
12.0290811897
 20
8.9591510833
 11
12.0316693781
 21
8.9471621934
  0
LINE
  5
38B
100
AcDbEntity
  8
0
100
AcDbLine
 62
4
  6
CONTINUOUS
 10
12.0031993066
 20
9.1225066455
 11
12.000611119
 21
9.134495536
  0
LINE
  5
38C
100
AcDbEntity
  8
0
100
AcDbLine
 62
4
  6
CONTINUOUS
 10
11.9669646653
 20
9.3241584372
 11
11.9695528536
 21
9.3121695474
  0
LINE
  5
38D
100
AcDbEntity
  8
0
100
AcDbLine
 62
4
  6
CONTINUOUS
 10
12.0290811897
 20
9.1909732901
 11
12.0316693781
 21
9.1789844003
  0
LINE
  5
38E
100
AcDbEntity
  8
0
100
AcDbLine
 62
4
  6
CONTINUOUS
 10
12.1462891411
 20
8.8943589363
 11
12.1440706932
 21
8.9087748012
  0
LINE
  5
38F
100
AcDbEntity
  8
0
100
AcDbLine
 62
4
  6
CONTINUOUS
 10
12.1573813758
 20
9.0623811469
 11
12.1551629289
 21
9.0767970127
  0
LINE
  5
390
100
AcDbEntity
  8
0
100
AcDbLine
 62
4
  6
CONTINUOUS
 10
12.2385765385
 20
9.1063122608
 11
12.2385765385
 21
9.0731948046
  0
LINE
  5
391
100
AcDbEntity
  8
0
100
AcDbLine
 62
4
  6
CONTINUOUS
 10
12.2407949863
 20
8.8931916451
 11
12.2407949863
 21
8.9345884688
  0
LINE
  5
392
100
AcDbEntity
  8
0
100
AcDbLine
 62
4
  6
CONTINUOUS
 10
12.2407949863
 20
8.984264653
 11
12.2407949863
 21
9.0256614836
  0
LINE
  5
393
100
AcDbEntity
  8
0
100
AcDbLine
 62
4
  6
CONTINUOUS
 10
12.2563241159
 20
9.0406614717
 11
12.2563241159
 21
8.9992646412
  0
LINE
  5
394
100
AcDbEntity
  8
0
100
AcDbLine
 62
4
  6
CONTINUOUS
 10
12.2563241159
 20
8.949588457
 11
12.2563241159
 21
8.9081916333
  0
LINE
  5
395
100
AcDbEntity
  8
0
100
AcDbLine
 62
4
  6
CONTINUOUS
 10
12.2563241159
 20
9.090337649
 11
12.2563241159
 21
9.1234551052
  0
LINE
  5
396
100
AcDbEntity
  8
0
100
AcDbLine
 62
4
  6
CONTINUOUS
 10
12.2935940268
 20
8.6447546187
 11
12.2935940268
 21
8.6861514354
  0
LINE
  5
397
100
AcDbEntity
  8
0
100
AcDbLine
 62
4
  6
CONTINUOUS
 10
12.2935940268
 20
8.8489789316
 11
12.2935940268
 21
8.9152138439
  0
LINE
  5
398
100
AcDbEntity
  8
0
100
AcDbLine
 62
4
  6
CONTINUOUS
 10
12.2935940268
 20
8.9483313139
 11
12.2935940268
 21
8.998007505
  0
LINE
  5
399
100
AcDbEntity
  8
0
100
AcDbLine
 62
4
  6
CONTINUOUS
 10
12.2935940268
 20
9.1387567178
 11
12.2935940268
 21
9.1718741602
  0
LINE
  5
39A
100
AcDbEntity
  8
0
100
AcDbLine
 62
4
  6
CONTINUOUS
 10
12.2935940268
 20
9.2353492672
 11
12.2935940268
 21
9.2601873766
  0
LINE
  5
39B
100
AcDbEntity
  8
0
100
AcDbLine
 62
4
  6
CONTINUOUS
 10
12.2935940268
 20
9.3098635401
 11
12.2935940268
 21
9.3512603706
  0
LINE
  5
39C
100
AcDbEntity
  8
0
100
AcDbLine
 62
4
  6
CONTINUOUS
 10
12.2935940268
 20
9.4147355329
 11
12.2935940268
 21
9.4644116964
  0
LINE
  5
39D
100
AcDbEntity
  8
0
100
AcDbLine
 62
4
  6
CONTINUOUS
 10
12.3069047085
 20
9.4607101072
 11
12.3069047085
 21
9.4275926649
  0
LINE
  5
39E
100
AcDbEntity
  8
0
100
AcDbLine
 62
4
  6
CONTINUOUS
 10
12.3069047085
 20
8.9943059158
 11
12.3069047085
 21
8.9611884459
  0
LINE
  5
39F
100
AcDbEntity
  8
0
100
AcDbLine
 62
4
  6
CONTINUOUS
 10
12.3157784972
 20
8.7820942694
 11
12.3157784972
 21
8.8262508776
  0
LINE
  5
3A0
100
AcDbEntity
  8
0
100
AcDbLine
 62
4
  6
CONTINUOUS
 10
12.3246522859
 20
9.381260347
 11
12.3246522859
 21
9.3398635164
  0
LINE
  5
3A1
100
AcDbEntity
  8
0
100
AcDbLine
 62
4
  6
CONTINUOUS
 10
12.3246522859
 20
9.2901873529
 11
12.3246522859
 21
9.2653492435
  0
LINE
  5
3A2
100
AcDbEntity
  8
0
100
AcDbLine
 62
4
  6
CONTINUOUS
 10
12.3246522859
 20
9.2018741365
 11
12.3246522859
 21
9.1687566942
  0
LINE
  5
3A3
100
AcDbEntity
  8
0
100
AcDbLine
 62
4
  6
CONTINUOUS
 10
12.3246522859
 20
8.7161514118
 11
12.3246522859
 21
8.6747545951
  0
LINE
  5
3A4
100
AcDbEntity
  8
0
100
AcDbLine
 62
4
  6
CONTINUOUS
 10
12.3246522859
 20
8.9783312902
 11
12.3246522859
 21
9.0280074814
  0
LINE
  5
3A5
100
AcDbEntity
  8
0
100
AcDbLine
 62
4
  6
CONTINUOUS
 10
12.3246522859
 20
9.4447355093
 11
12.3246522859
 21
9.4944116728
  0
LINE
  5
3A6
100
AcDbEntity
  8
0
100
AcDbLine
 62
7
  6
CONTINUOUS
 10
12.3618219421
 20
10.8484324187
 11
12.3618219421
 21
10.7276916802
  0
LINE
  5
3A7
100
AcDbEntity
  8
0
100
AcDbLine
 62
7
  6
CONTINUOUS
 10
12.3618219421
 20
6.8031348185
 11
12.3618219421
 21
7.7679140152
  0
LINE
  5
3A8
100
AcDbEntity
  8
0
100
AcDbLine
 62
7
  6
CONTINUOUS
 10
12.3745997358
 20
7.7802564169
 11
12.3745997358
 21
6.8282550139
  0
LINE
  5
3A9
100
AcDbEntity
  8
0
100
AcDbLine
 62
7
  6
CONTINUOUS
 10
12.3745997358
 20
10.7528118755
 11
12.3745997358
 21
10.873552614
  0
LINE
  5
3AA
100
AcDbEntity
  8
0
100
AcDbLine
 62
4
  6
CONTINUOUS
 10
12.3797806984
 20
8.3851008684
 11
12.3797806984
 21
8.3995897563
  0
LINE
  5
3AB
100
AcDbEntity
  8
0
100
AcDbLine
 62
4
  6
CONTINUOUS
 10
12.3797806984
 20
8.5010119718
 11
12.3797806984
 21
8.5155008598
  0
LINE
  5
3AC
100
AcDbEntity
  8
0
100
AcDbLine
 62
4
  6
CONTINUOUS
 10
12.3797806984
 20
8.7400786227
 11
12.3797806984
 21
8.7473230666
  0
LINE
  5
3AD
100
AcDbEntity
  8
0
100
AcDbLine
 62
4
  6
CONTINUOUS
 10
12.3797806984
 20
8.8487452821
 11
12.3797806984
 21
8.8632341701
  0
LINE
  5
3AE
100
AcDbEntity
  8
0
100
AcDbLine
 62
4
  6
CONTINUOUS
 10
12.3797806984
 20
8.9429230537
 11
12.3797806984
 21
9.0008786054
  0
LINE
  5
3AF
100
AcDbEntity
  8
0
100
AcDbLine
 62
4
  6
CONTINUOUS
 10
12.3797806984
 20
9.080567489
 11
12.3797806984
 21
9.0950563769
  0
LINE
  5
3B0
100
AcDbEntity
  8
0
100
AcDbLine
 62
4
  6
CONTINUOUS
 10
12.3901334517
 20
8.0763453264
 11
12.3901334517
 21
8.0328786626
  0
LINE
  5
3B1
100
AcDbEntity
  8
0
100
AcDbLine
 62
4
  6
CONTINUOUS
 10
12.3953098279
 20
9.0158785936
 11
12.3953098279
 21
8.9796563737
  0
LINE
  5
3B2
100
AcDbEntity
  8
0
100
AcDbLine
 62
4
  6
CONTINUOUS
 10
12.4108389575
 20
9.0308785817
 11
12.4108389575
 21
8.97292303
  0
LINE
  5
3B3
100
AcDbEntity
  8
0
100
AcDbLine
 62
4
  6
CONTINUOUS
 10
12.4108389575
 20
8.8932341464
 11
12.4108389575
 21
8.8787452585
  0
LINE
  5
3B4
100
AcDbEntity
  8
0
100
AcDbLine
 62
4
  6
CONTINUOUS
 10
12.4108389575
 20
8.5455008361
 11
12.4108389575
 21
8.5310119482
  0
LINE
  5
3B5
100
AcDbEntity
  8
0
100
AcDbLine
 62
4
  6
CONTINUOUS
 10
12.4108389575
 20
8.3426564051
 11
12.4108389575
 21
8.2702119655
  0
LINE
  5
3B6
100
AcDbEntity
  8
0
100
AcDbLine
 62
4
  6
CONTINUOUS
 10
12.4108389575
 20
9.1105674654
 11
12.4108389575
 21
9.1250563533
  0
LINE
  5
3B7
100
AcDbEntity
  8
0
100
AcDbLine
 62
4
  6
CONTINUOUS
 10
12.3113416033
 20
8.595662543
 11
12.3172574623
 21
8.645533436
  0
LINE
  5
3B8
100
AcDbEntity
  8
0
100
AcDbLine
 62
4
  6
CONTINUOUS
 10
12.3797806984
 20
9.0950563769
 11
12.3823688867
 21
9.112045263
  0
LINE
  5
3B9
100
AcDbEntity
  8
0
100
AcDbLine
 62
4
  6
CONTINUOUS
 10
12.4004862051
 20
9.1295452497
 11
12.3927216394
 21
9.0785785909
  0
LINE
  5
3BA
100
AcDbEntity
  8
0
100
AcDbLine
 62
4
  6
CONTINUOUS
 10
12.4082507699
 20
9.09357858
 11
12.4108389575
 21
9.1105674654
  0
LINE
  5
3BB
100
AcDbEntity
  8
0
100
AcDbLine
 62
4
  6
CONTINUOUS
 10
12.3797806984
 20
8.8632341701
 11
12.3823688867
 21
8.8802230561
  0
LINE
  5
3BC
100
AcDbEntity
  8
0
100
AcDbLine
 62
4
  6
CONTINUOUS
 10
12.4108389575
 20
8.8787452585
 11
12.4082507699
 21
8.8617563731
  0
LINE
  5
3BD
100
AcDbEntity
  8
0
100
AcDbLine
 62
4
  6
CONTINUOUS
 10
12.4431913081
 20
9.0403952245
 11
12.4457794964
 21
9.0573841105
  0
LINE
  5
3BE
100
AcDbEntity
  8
0
100
AcDbLine
 62
4
  6
CONTINUOUS
 10
12.4638968147
 20
9.0748840972
 11
12.456132249
 21
9.0239174384
  0
LINE
  5
3BF
100
AcDbEntity
  8
0
100
AcDbLine
 62
4
  6
CONTINUOUS
 10
12.3797806984
 20
8.5155008598
 11
12.3823688867
 21
8.5324897458
  0
LINE
  5
3C0
100
AcDbEntity
  8
0
100
AcDbLine
 62
4
  6
CONTINUOUS
 10
12.4431913081
 20
8.924484121
 11
12.4457794964
 21
8.9414730071
  0
LINE
  5
3C1
100
AcDbEntity
  8
0
100
AcDbLine
 62
4
  6
CONTINUOUS
 10
12.4716613795
 20
9.0389174275
 11
12.4742495671
 21
9.0559063129
  0
LINE
  5
3C2
100
AcDbEntity
  8
0
100
AcDbLine
 62
4
  6
CONTINUOUS
 10
12.3797806984
 20
8.3995897563
 11
12.3823688867
 21
8.4165786424
  0
LINE
  5
3C3
100
AcDbEntity
  8
0
100
AcDbLine
 62
4
  6
CONTINUOUS
 10
12.4108389575
 20
8.5310119482
 11
12.4082507699
 21
8.5140230628
  0
LINE
  5
3C4
100
AcDbEntity
  8
0
100
AcDbLine
 62
4
  6
CONTINUOUS
 10
12.4742495671
 20
8.9399952094
 11
12.4716613795
 21
8.9230063241
  0
LINE
  5
3C5
100
AcDbEntity
  8
0
100
AcDbLine
 62
4
  6
CONTINUOUS
 10
12.3823688867
 20
8.8802230561
 11
12.3875452632
 21
8.89971194
  0
LINE
  5
3C6
100
AcDbEntity
  8
0
100
AcDbLine
 62
4
  6
CONTINUOUS
 10
12.4457794964
 20
9.0573841105
 11
12.4509558728
 21
9.0768729944
  0
LINE
  5
3C7
100
AcDbEntity
  8
0
100
AcDbLine
 62
4
  6
CONTINUOUS
 10
12.4664850024
 20
9.0846285386
 11
12.4638968147
 21
9.0748840972
  0
LINE
  5
3C8
100
AcDbEntity
  8
0
100
AcDbLine
 62
4
  6
CONTINUOUS
 10
12.4082507699
 20
8.8617563731
 11
12.4030743927
 21
8.8422674885
  0
LINE
  5
3C9
100
AcDbEntity
  8
0
100
AcDbLine
 62
4
  6
CONTINUOUS
 10
12.3823688867
 20
8.7498230647
 11
12.3797806984
 21
8.7400786227
  0
LINE
  5
3CA
100
AcDbEntity
  8
0
100
AcDbLine
 62
4
  6
CONTINUOUS
 10
12.456132249
 20
9.0239174384
 11
12.4535440614
 21
9.014172997
  0
LINE
  5
3CB
100
AcDbEntity
  8
0
100
AcDbLine
 62
4
  6
CONTINUOUS
 10
12.46907319
 20
9.0291729843
 11
12.4716613795
 21
9.0389174275
  0
LINE
  5
3CC
100
AcDbEntity
  8
0
100
AcDbLine
 62
4
  6
CONTINUOUS
 10
12.4457794964
 20
8.9414730071
 11
12.4509558728
 21
8.960961891
  0
LINE
  5
3CD
100
AcDbEntity
  8
0
100
AcDbLine
 62
4
  6
CONTINUOUS
 10
12.4716613795
 20
8.9230063241
 11
12.4664850024
 21
8.9035174395
  0
LINE
  5
3CE
100
AcDbEntity
  8
0
100
AcDbLine
 62
4
  6
CONTINUOUS
 10
12.3823688867
 20
8.5324897458
 11
12.3875452632
 21
8.5519786297
  0
LINE
  5
3CF
100
AcDbEntity
  8
0
100
AcDbLine
 62
4
  6
CONTINUOUS
 10
12.4082507699
 20
8.5140230628
 11
12.4030743927
 21
8.4945341782
  0
LINE
  5
3D0
100
AcDbEntity
  8
0
100
AcDbLine
 62
4
  6
CONTINUOUS
 10
12.3823688867
 20
8.4165786424
 11
12.3849570751
 21
8.4263230844
  0
LINE
  5
3D1
100
AcDbEntity
  8
0
100
AcDbLine
 62
4
  6
CONTINUOUS
 10
12.4742495671
 20
8.6357285629
 11
12.4431913081
 21
8.5695063668
  0
LINE
  5
3D2
100
AcDbEntity
  8
0
100
AcDbLine
 62
4
  6
CONTINUOUS
 10
12.4742495671
 20
8.4835952397
 11
12.4431913081
 21
8.4173730435
  0
LINE
  5
3D3
100
AcDbEntity
  8
0
100
AcDbLine
 62
4
  6
CONTINUOUS
 10
12.4742495671
 20
8.2879952526
 11
12.4431913081
 21
8.2217730565
  0
LINE
  5
3D4
100
AcDbEntity
  8
0
100
AcDbLine
 62
4
  6
CONTINUOUS
 10
12.4030743927
 20
8.4945341782
 11
12.3953098279
 21
8.4797897402
  0
LINE
  5
3D5
100
AcDbEntity
  8
0
100
AcDbLine
 62
4
  6
CONTINUOUS
 10
12.4431913081
 20
8.1348397289
 11
12.4742495671
 21
8.1648397052
  0
LINE
  5
3D6
100
AcDbEntity
  8
0
100
AcDbLine
 62
4
  6
CONTINUOUS
 10
12.0161402485
 20
9.808739925
 11
12.0083756837
 21
9.8084843748
  0
LINE
  5
3D7
100
AcDbEntity
  8
0
100
AcDbLine
 62
4
  6
CONTINUOUS
 10
12.0161402485
 20
9.8956732525
 11
12.0239048133
 21
9.8959288027
  0
LINE
  5
3D8
100
AcDbEntity
  8
0
100
AcDbLine
 62
4
  6
CONTINUOUS
 10
11.9695528536
 20
9.6526584137
 11
11.9384945945
 21
9.6588806572
  0
LINE
  5
3D9
100
AcDbEntity
  8
0
100
AcDbLine
 62
4
  6
CONTINUOUS
 10
11.9695528536
 20
9.7323472973
 11
11.9384945945
 21
9.7385695408
  0
LINE
  5
3DA
100
AcDbEntity
  8
0
100
AcDbLine
 62
4
  6
CONTINUOUS
 10
12.0239048133
 20
9.2004621821
 11
12.0290811897
 21
9.1909732901
  0
LINE
  5
3DB
100
AcDbEntity
  8
0
100
AcDbLine
 62
4
  6
CONTINUOUS
 10
11.9617882888
 20
9.3336473291
 11
11.9669646653
 21
9.3241584372
  0
LINE
  5
3DC
100
AcDbEntity
  8
0
100
AcDbLine
 62
4
  6
CONTINUOUS
 10
12.4030743927
 20
8.5669786179
 11
12.4082507699
 21
8.5574897266
  0
LINE
  5
3DD
100
AcDbEntity
  8
0
100
AcDbLine
 62
4
  6
CONTINUOUS
 10
12.3875452632
 20
8.8272675004
 11
12.3823688867
 21
8.8367563923
  0
LINE
  5
3DE
100
AcDbEntity
  8
0
100
AcDbLine
 62
4
  6
CONTINUOUS
 10
12.4030743927
 20
8.9147119282
 11
12.4082507699
 21
8.9052230369
  0
LINE
  5
3DF
100
AcDbEntity
  8
0
100
AcDbLine
 62
4
  6
CONTINUOUS
 10
12.2363580925
 20
8.9385821222
 11
12.2407949863
 21
8.9263091047
  0
LINE
  5
3E0
100
AcDbEntity
  8
0
100
AcDbLine
 62
4
  6
CONTINUOUS
 10
12.3202153915
 20
8.7284244288
 11
12.3246522859
 21
8.7161514118
  0
LINE
  5
3E1
100
AcDbEntity
  8
0
100
AcDbLine
 62
4
  6
CONTINUOUS
 10
12.2518872215
 20
8.9618614739
 11
12.2563241159
 21
8.949588457
  0
LINE
  5
3E2
100
AcDbEntity
  8
0
100
AcDbLine
 62
4
  6
CONTINUOUS
 10
12.2363580925
 20
9.0296551335
 11
12.2407949863
 21
9.0173821092
  0
LINE
  5
3E3
100
AcDbEntity
  8
0
100
AcDbLine
 62
4
  6
CONTINUOUS
 10
12.1462891411
 20
9.3359250183
 11
12.1440706932
 21
9.342061495
  0
LINE
  5
3E4
100
AcDbEntity
  8
0
100
AcDbLine
 62
4
  6
CONTINUOUS
 10
12.2518872215
 20
9.0529344818
 11
12.2563241159
 21
9.0406614717
  0
LINE
  5
3E5
100
AcDbEntity
  8
0
100
AcDbLine
 62
4
  6
CONTINUOUS
 10
12.1462891411
 20
9.4104393464
 11
12.1440706932
 21
9.4165758232
  0
LINE
  5
3E6
100
AcDbEntity
  8
0
100
AcDbLine
 62
4
  6
CONTINUOUS
 10
12.2563241159
 20
9.1234551052
 11
12.2518872215
 21
9.1357281291
  0
LINE
  5
3E7
100
AcDbEntity
  8
0
100
AcDbLine
 62
4
  6
CONTINUOUS
 10
12.1662551645
 20
9.4711218205
 11
12.1640367174
 21
9.4772582979
  0
LINE
  5
3E8
100
AcDbEntity
  8
0
100
AcDbLine
 62
4
  6
CONTINUOUS
 10
12.0031993066
 20
9.8179732661
 11
12.000611119
 21
9.8299621566
  0
LINE
  5
3E9
100
AcDbEntity
  8
0
100
AcDbLine
 62
4
  6
CONTINUOUS
 10
12.0290811897
 20
9.8864399107
 11
12.0316693781
 21
9.8744510209
  0
LINE
  5
3EA
100
AcDbEntity
  8
0
100
AcDbLine
 62
4
  6
CONTINUOUS
 10
12.3823688867
 20
8.3731119786
 11
12.3797806984
 21
8.3851008684
  0
LINE
  5
3EB
100
AcDbEntity
  8
0
100
AcDbLine
 62
4
  6
CONTINUOUS
 10
12.3823688867
 20
8.489023082
 11
12.3797806984
 21
8.5010119718
  0
LINE
  5
3EC
100
AcDbEntity
  8
0
100
AcDbLine
 62
4
  6
CONTINUOUS
 10
12.4082507699
 20
8.5574897266
 11
12.4108389575
 21
8.5455008361
  0
LINE
  5
3ED
100
AcDbEntity
  8
0
100
AcDbLine
 62
4
  6
CONTINUOUS
 10
12.3823688867
 20
8.8367563923
 11
12.3797806984
 21
8.8487452821
  0
LINE
  5
3EE
100
AcDbEntity
  8
0
100
AcDbLine
 62
4
  6
CONTINUOUS
 10
12.3054257438
 20
8.6341048729
 11
12.3113416033
 21
8.595662543
  0
LINE
  5
3EF
100
AcDbEntity
  8
0
100
AcDbLine
 62
4
  6
CONTINUOUS
 10
12.4393090257
 20
9.1815341053
 11
12.4393090257
 21
8.022423071
  0
LINE
  5
3F0
100
AcDbEntity
  8
0
100
AcDbLine
 62
4
  6
CONTINUOUS
 10
12.4431913081
 20
8.8303063495
 11
12.4431913081
 21
8.7723507978
  0
LINE
  5
3F1
100
AcDbEntity
  8
0
100
AcDbLine
 62
4
  6
CONTINUOUS
 10
12.4431913081
 20
8.3666619358
 11
12.4431913081
 21
8.308706384
  0
LINE
  5
3F2
100
AcDbEntity
  8
0
100
AcDbLine
 62
4
  6
CONTINUOUS
 10
12.4431913081
 20
8.0768841772
 11
12.4431913081
 21
8.1348397289
  0
LINE
  5
3F3
100
AcDbEntity
  8
0
100
AcDbLine
 62
4
  6
CONTINUOUS
 10
12.4431913081
 20
8.9099952331
 11
12.4431913081
 21
8.924484121
  0
LINE
  5
3F4
100
AcDbEntity
  8
0
100
AcDbLine
 62
4
  6
CONTINUOUS
 10
12.4431913081
 20
9.0259063365
 11
12.4431913081
 21
9.0403952245
  0
LINE
  5
3F5
100
AcDbEntity
  8
0
100
AcDbLine
 62
4
  6
CONTINUOUS
 10
12.4535440614
 20
8.4853285876
 11
12.4535440614
 21
8.4418619238
  0
LINE
  5
3F6
100
AcDbEntity
  8
0
100
AcDbLine
 62
4
  6
CONTINUOUS
 10
12.4587204376
 20
8.1498397171
 11
12.4587204376
 21
8.1136174972
  0
LINE
  5
3F7
100
AcDbEntity
  8
0
100
AcDbLine
 62
4
  6
CONTINUOUS
 10
12.4742495671
 20
8.9544840974
 11
12.4742495671
 21
8.9399952094
  0
LINE
  5
3F8
100
AcDbEntity
  8
0
100
AcDbLine
 62
4
  6
CONTINUOUS
 10
12.4742495671
 20
8.1648397052
 11
12.4742495671
 21
8.1068841535
  0
LINE
  5
3F9
100
AcDbEntity
  8
0
100
AcDbLine
 62
4
  6
CONTINUOUS
 10
12.4742495671
 20
9.0559063129
 11
12.4742495671
 21
9.0703952008
  0
LINE
  5
3FA
100
AcDbEntity
  8
0
100
AcDbLine
 62
7
  6
CONTINUOUS
 10
12.5229075053
 20
10.8212883951
 11
12.5229075053
 21
7.9235107302
  0
LINE
  5
3FB
100
AcDbEntity
  8
0
100
AcDbLine
 62
4
  6
CONTINUOUS
 10
12.4108389575
 20
8.0746119784
 11
12.3797806984
 21
8.0083897823
  0
LINE
  5
3FC
100
AcDbEntity
  8
0
100
AcDbLine
 62
7
  6
CONTINUOUS
 10
12.5229075053
 20
7.9235107302
 11
11.8919072035
 21
7.3140112061
  0
LINE
  5
3FD
100
AcDbEntity
  8
0
100
AcDbLine
 62
4
  6
CONTINUOUS
 10
12.4820141319
 20
9.2227840728
 11
12.4631547427
 21
9.2373880205
  0
LINE
  5
3FE
100
AcDbEntity
  8
0
100
AcDbLine
 62
4
  6
CONTINUOUS
 10
12.4509558728
 20
8.8885174513
 11
12.4457794964
 21
8.8980063433
  0
LINE
  5
3FF
100
AcDbEntity
  8
0
100
AcDbLine
 62
4
  6
CONTINUOUS
 10
12.3849570751
 20
9.0638341533
 11
12.3823688867
 21
9.0685785992
  0
LINE
  5
400
100
AcDbEntity
  8
0
100
AcDbLine
 62
4
  6
CONTINUOUS
 10
12.0083756837
 20
9.8084843748
 11
12.0031993066
 21
9.8179732661
  0
LINE
  5
401
100
AcDbEntity
  8
0
100
AcDbLine
 62
4
  6
CONTINUOUS
 10
12.4664850024
 20
8.9759618791
 11
12.4716613795
 21
8.9664729879
  0
LINE
  5
402
100
AcDbEntity
  8
0
100
AcDbLine
 62
4
  6
CONTINUOUS
 10
12.4483676847
 20
9.0091730008
 11
12.4457794964
 21
9.0139174467
  0
LINE
  5
403
100
AcDbEntity
  8
0
100
AcDbLine
 62
4
  6
CONTINUOUS
 10
12.4082507699
 20
9.1370452438
 11
12.4056625804
 21
9.1417896885
  0
LINE
  5
404
100
AcDbEntity
  8
0
100
AcDbLine
 62
4
  6
CONTINUOUS
 10
12.0239048133
 20
9.8959288027
 11
12.0290811897
 21
9.8864399107
  0
LINE
  5
405
100
AcDbEntity
  8
0
100
AcDbLine
 62
4
  6
CONTINUOUS
 10
12.4716613795
 20
9.0823840913
 11
12.46907319
 21
9.087128536
  0
LINE
  5
406
100
AcDbEntity
  8
0
100
AcDbLine
 62
4
  6
CONTINUOUS
 10
12.2980309207
 20
9.1264837073
 11
12.2935940268
 21
9.1387567178
  0
LINE
  5
407
100
AcDbEntity
  8
0
100
AcDbLine
 62
4
  6
CONTINUOUS
 10
12.2980309207
 20
9.2230762567
 11
12.2935940268
 21
9.2353492672
  0
LINE
  5
408
100
AcDbEntity
  8
0
100
AcDbLine
 62
4
  6
CONTINUOUS
 10
12.3202153915
 20
9.302460363
 11
12.3246522859
 21
9.2901873529
  0
LINE
  5
409
100
AcDbEntity
  8
0
100
AcDbLine
 62
4
  6
CONTINUOUS
 10
12.3202153915
 20
9.393533357
 11
12.3246522859
 21
9.381260347
  0
LINE
  5
40A
100
AcDbEntity
  8
0
100
AcDbLine
 62
4
  6
CONTINUOUS
 10
12.4082507699
 20
8.9052230369
 11
12.4108389575
 21
8.8932341464
  0
LINE
  5
40B
100
AcDbEntity
  8
0
100
AcDbLine
 62
4
  6
CONTINUOUS
 10
12.3823688867
 20
9.0685785992
 11
12.3797806984
 21
9.080567489
  0
LINE
  5
40C
100
AcDbEntity
  8
0
100
AcDbLine
 62
4
  6
CONTINUOUS
 10
12.4457794964
 20
8.8980063433
 11
12.4431913081
 21
8.9099952331
  0
LINE
  5
40D
100
AcDbEntity
  8
0
100
AcDbLine
 62
4
  6
CONTINUOUS
 10
12.4108389575
 20
9.1250563533
 11
12.4082507699
 21
9.1370452438
  0
LINE
  5
40E
100
AcDbEntity
  8
0
100
AcDbLine
 62
4
  6
CONTINUOUS
 10
12.4457794964
 20
9.0139174467
 11
12.4431913081
 21
9.0259063365
  0
LINE
  5
40F
100
AcDbEntity
  8
0
100
AcDbLine
 62
4
  6
CONTINUOUS
 10
12.4716613795
 20
8.9664729879
 11
12.4742495671
 21
8.9544840974
  0
LINE
  5
410
100
AcDbEntity
  8
0
100
AcDbLine
 62
4
  6
CONTINUOUS
 10
12.4742495671
 20
9.0703952008
 11
12.4716613795
 21
9.0823840913
  0
LINE
  5
411
100
AcDbEntity
  8
0
100
AcDbLine
 62
4
  6
CONTINUOUS
 10
12.3113416033
 20
9.5588285904
 11
12.3172574623
 21
9.5203862636
  0
LINE
  5
412
100
AcDbEntity
  8
0
100
AcDbLine
 62
7
  6
CONTINUOUS
 10
11.8919072035
 20
10.2117888711
 11
9.4770924947
 21
10.3792568399
  0
LINE
  5
413
100
AcDbEntity
  8
0
100
AcDbLine
 62
7
  6
CONTINUOUS
 10
11.473938689
 20
10.2450622644
 11
9.9043091283
 21
10.3539164442
  0
LINE
  5
414
100
AcDbEntity
  8
0
100
AcDbLine
 62
4
  6
CONTINUOUS
 10
11.9695528536
 20
10.000391724
 11
11.9384945945
 21
10.0066139675
  0
LINE
  5
415
100
AcDbEntity
  8
0
100
AcDbLine
 62
4
  6
CONTINUOUS
 10
12.0135520609
 20
10.0960176861
 11
12.0109638714
 21
10.1007621308
  0
LINE
  5
416
100
AcDbEntity
  8
0
100
AcDbLine
 62
4
  6
CONTINUOUS
 10
12.0316693781
 20
10.1135176717
 11
12.0264930014
 21
10.1230065634
  0
LINE
  5
417
100
AcDbEntity
  8
0
100
AcDbLine
 62
7
  6
CONTINUOUS
 10
11.473938689
 20
10.365803003
 11
9.9043091283
 21
10.4746571828
  0
LINE
  5
418
100
AcDbEntity
  8
0
100
AcDbLine
 62
7
  6
CONTINUOUS
 10
11.4819620728
 20
10.4034966995
 11
9.9123325121
 21
10.5123508792
  0
LINE
  5
419
100
AcDbEntity
  8
0
100
AcDbLine
 62
7
  6
CONTINUOUS
 10
11.9032742547
 20
10.4664530411
 11
11.9332179571
 21
10.4344327359
  0
LINE
  5
41A
100
AcDbEntity
  8
0
100
AcDbLine
 62
7
  6
CONTINUOUS
 10
11.9332179571
 20
6.3891351357
 11
12.3618219421
 21
6.8031348185
  0
LINE
  5
41B
100
AcDbEntity
  8
0
100
AcDbLine
 62
7
  6
CONTINUOUS
 10
11.932283167
 20
6.3882489927
 11
11.9332179571
 21
6.3891351357
  0
LINE
  5
41C
100
AcDbEntity
  8
0
100
AcDbLine
 62
7
  6
CONTINUOUS
 10
11.932283167
 20
6.3882489927
 11
11.9024167406
 21
6.3604551476
  0
LINE
  5
41D
100
AcDbEntity
  8
0
100
AcDbLine
 62
7
  6
CONTINUOUS
 10
12.3745997358
 20
10.8315735739
 11
12.5229075053
 21
10.8212883951
  0
LINE
  5
41E
100
AcDbEntity
  8
0
100
AcDbLine
 62
7
  6
CONTINUOUS
 10
11.5222831208
 20
5.9905551872
 11
11.4916091104
 21
5.9754028133
  0
LINE
  5
41F
100
AcDbEntity
  8
0
100
AcDbLine
 62
7
  6
CONTINUOUS
 10
10.5190038531
 20
11.0983504303
 11
12.0886334138
 21
10.9894962506
  0
LINE
  5
420
100
AcDbEntity
  8
0
100
AcDbLine
 62
7
  6
CONTINUOUS
 10
12.3318782397
 20
10.8804527239
 11
12.3618219421
 21
10.8484324187
  0
LINE
  5
421
100
AcDbEntity
  8
0
100
AcDbLine
 62
7
  6
CONTINUOUS
 10
12.360887152
 20
10.8995589524
 11
12.3310207256
 21
10.9273527975
  0
ARC
  5
422
100
AcDbEntity
  8
0
100
AcDbCircle
 62
7
  6
CONTINUOUS
 10
11.0110395226
 20
8.1324218881
 40
2.2101036351
100
AcDbArc
 50
273.2665005552
 51
274.6677615151
  0
ARC
  5
423
100
AcDbEntity
  8
0
100
AcDbCircle
 62
7
  6
CONTINUOUS
 10
11.0110395226
 20
8.5168253295
 40
2.2101036351
100
AcDbArc
 50
273.2665005552
 51
274.6677615151
  0
ARC
  5
424
100
AcDbEntity
  8
0
100
AcDbCircle
 62
7
  6
CONTINUOUS
 10
10.6618263761
 20
4.8959812711
 40
1.4920107078
100
AcDbArc
 50
71.4301899841
 51
73.3829217194
  0
ARC
  5
425
100
AcDbEntity
  8
0
100
AcDbCircle
 62
7
  6
CONTINUOUS
 10
10.828824849
 20
5.049258477
 40
1.3253917187
100
AcDbArc
 50
99.0504770942
 51
101.1789715723
  0
ARC
  5
426
100
AcDbEntity
  8
0
100
AcDbCircle
 62
7
  6
CONTINUOUS
 10
11.8032487268
 20
5.3307328534
 40
1.1584024232
100
AcDbArc
 50
121.5247220346
 51
121.9123380639
  0
ARC
  5
427
100
AcDbEntity
  8
0
100
AcDbCircle
 62
7
  6
CONTINUOUS
 10
9.6333415203
 20
5.9010507044
 40
1.0092916165
100
AcDbArc
 50
27.0292794725
 51
27.3325113777
  0
ARC
  5
428
100
AcDbEntity
  8
0
100
AcDbCircle
 62
7
  6
CONTINUOUS
 10
10.791064949
 20
7.2777894455
 40
0.9538158545
100
AcDbArc
 50
254.2644742826
 51
256.7139235525
  0
ARC
  5
429
100
AcDbEntity
  8
0
100
AcDbCircle
 62
7
  6
CONTINUOUS
 10
10.791064949
 20
6.8933860042
 40
0.9538158545
100
AcDbArc
 50
254.2644742826
 51
256.7139235525
  0
ARC
  5
42A
100
AcDbEntity
  8
0
100
AcDbCircle
 62
7
  6
CONTINUOUS
 10
11.1834021192
 20
6.6754503883
 40
0.7641475746
100
AcDbArc
 50
293.7608747297
 51
296.3085175792
  0
ARC
  5
42B
100
AcDbEntity
  8
0
100
AcDbCircle
 62
7
  6
CONTINUOUS
 10
10.1867529364
 20
9.5433729366
 40
0.3504829126
100
AcDbArc
 50
54.3282210747
 51
55.5867167469
  0
ARC
  5
42C
100
AcDbEntity
  8
0
100
AcDbCircle
 62
7
  6
CONTINUOUS
 10
10.756106833
 20
8.4375076096
 40
0.1689057013
100
AcDbArc
 50
260.058747036
 51
266.0213280683
  0
ARC
  5
42D
100
AcDbEntity
  8
0
100
AcDbCircle
 62
7
  6
CONTINUOUS
 10
10.7326677253
 20
8.4631225051
 40
0.1689053572
100
AcDbArc
 50
80.0587166208
 51
86.0212640729
  0
SPLINE
  5
42E
100
AcDbEntity
  8
0
100
AcDbSpline
 62
7
  6
CONTINUOUS
 70
0
 71
3
 72
9
 73
5
 74
0
 42
0.0000001
 43
0.0000001
 44
0.0000000001
 40
0.0
 40
0.0
 40
0.0
 40
0.0
 40
0.2426770998
 40
1.0
 40
1.0
 40
1.0
 40
1.0
 10
11.6123970102
 20
6.0436550273
 30
0.0
 10
11.6117888197
 20
6.0430675604
 30
0.0
 10
11.6092557683
 20
6.0406746793
 30
0.0
 10
11.6066200546
 20
6.0383912098
 30
0.0
 10
11.6045792525
 20
6.0367183434
 30
0.0
  0
SPLINE
  5
42F
100
AcDbEntity
  8
0
100
AcDbSpline
 62
7
  6
CONTINUOUS
 70
0
 71
3
 72
9
 73
5
 74
0
 42
0.0000001
 43
0.0000001
 44
0.0000000001
 40
0.0
 40
0.0
 40
0.0
 40
0.0
 40
0.2426666479
 40
1.0
 40
1.0
 40
1.0
 40
1.0
 10
11.6190272768
 20
6.0506740641
 30
0.0
 10
11.618519649
 20
6.0500802911
 30
0.0
 10
11.6163959532
 20
6.0476607067
 30
0.0
 10
11.6141505448
 20
6.0453488118
 30
0.0
 10
11.6123970102
 20
6.0436550273
 30
0.0
  0
SPLINE
  5
430
100
AcDbEntity
  8
0
100
AcDbSpline
 62
7
  6
CONTINUOUS
 70
0
 71
3
 72
9
 73
5
 74
0
 42
0.0000001
 43
0.0000001
 44
0.0000000001
 40
0.0
 40
0.0
 40
0.0
 40
0.0
 40
0.504378312
 40
1.0
 40
1.0
 40
1.0
 40
1.0
 10
11.6045792525
 20
6.0367183434
 30
0.0
 10
11.5910755022
 20
6.0283094896
 30
0.0
 10
11.5639626648
 20
6.0121748337
 30
0.0
 10
11.5360898683
 20
5.9973776389
 30
0.0
 10
11.5220757304
 20
5.9904527965
 30
0.0
  0
SPLINE
  5
431
100
AcDbEntity
  8
0
100
AcDbSpline
 62
7
  6
CONTINUOUS
 70
0
 71
3
 72
23
 73
19
 74
0
 42
0.0000001
 43
0.0000001
 44
0.0000000001
 40
0.0
 40
0.0
 40
0.0
 40
0.0
 40
0.0436203086
 40
0.0892268542
 40
0.137068591
 40
0.187353676
 40
0.2402538462
 40
0.2958872461
 40
0.3543311569
 40
0.4156094827
 40
0.4797102731
 40
0.5465788188
 40
0.6161346312
 40
0.6882694307
 40
0.7628606873
 40
0.8397744221
 40
0.9188692703
 40
1.0
 40
1.0
 40
1.0
 40
1.0
 10
10.4893812334
 20
5.9847932558
 30
0.0
 10
10.4870712978
 20
5.9859338244
 30
0.0
 10
10.4824341741
 20
5.9884489209
 30
0.0
 10
10.4756068846
 20
5.9928099729
 30
0.0
 10
10.4687704957
 20
5.9978522594
 30
0.0
 10
10.461928946
 20
6.0035831917
 30
0.0
 10
10.4550878478
 20
6.0100068426
 30
0.0
 10
10.4482503073
 20
6.017118415
 30
0.0
 10
10.4414220482
 20
6.024909227
 30
0.0
 10
10.4346058041
 20
6.0333626294
 30
0.0
 10
10.4278066355
 20
6.0424585353
 30
0.0
 10
10.4210267853
 20
6.0521709173
 30
0.0
 10
10.4142701184
 20
6.0624714654
 30
0.0
 10
10.4075382314
 20
6.0733284194
 30
0.0
 10
10.4008335144
 20
6.084709273
 30
0.0
 10
10.3941568652
 20
6.0965803554
 30
0.0
 10
10.3875093728
 20
6.1089081945
 30
0.0
 10
10.3831502547
 20
6.1173076116
 30
0.0
 10
10.3809727232
 20
6.1215757444
 30
0.0
  0
SPLINE
  5
432
100
AcDbEntity
  8
0
100
AcDbSpline
 62
7
  6
CONTINUOUS
 70
0
 71
3
 72
47
 73
43
 74
0
 42
0.0000001
 43
0.0000001
 44
0.0000000001
 40
0.0
 40
0.0
 40
0.0
 40
0.0
 40
0.0099874638
 40
0.0204476834
 40
0.0313771515
 40
0.0427708334
 40
0.0546218702
 40
0.0669225517
 40
0.0796641282
 40
0.0928362942
 40
0.1204271347
 40
0.1495984091
 40
0.1802407165
 40
0.2122338314
 40
0.2454489836
 40
0.2797497839
 40
0.3149929168
 40
0.3510298084
 40
0.3877071885
 40
0.4248680172
 40
0.4623527228
 40
0.4999997959
 40
0.5376468789
 40
0.575131606
 40
0.6122924455
 40
0.6489698269
 40
0.6850067267
 40
0.7202498875
 40
0.7545507276
 40
0.7877659112
 40
0.8197590481
 40
0.8504013805
 40
0.8795726993
 40
0.9071635849
 40
0.9203357726
 40
0.933077377
 40
0.9453780958
 40
0.9572291635
 40
0.968622847
 40
0.9795522717
 40
0.9900124597
 40
1.0
 40
1.0
 40
1.0
 40
1.0
 10
11.4916129958
 20
5.975404768
 30
0.0
 10
11.4886224614
 20
5.9739274902
 30
0.0
 10
11.482448755
 20
5.9710055744
 30
0.0
 10
11.4728465566
 20
5.9668061307
 30
0.0
 10
11.4626983785
 20
5.962693296
 30
0.0
 10
11.4520159305
 20
5.9586720862
 30
0.0
 10
11.4408115549
 20
5.954746781
 30
0.0
 10
11.4290980542
 20
5.9509220619
 30
0.0
 10
11.4168887983
 20
5.9472024911
 30
0.0
 10
11.3997009694
 20
5.9423129593
 30
0.0
 10
11.3770706572
 20
5.9365174778
 30
0.0
 10
11.3485793788
 20
5.9301488055
 30
0.0
 10
11.3184793299
 20
5.9242932816
 30
0.0
 10
11.2869093236
 20
5.9189779399
 30
0.0
 10
11.2540146657
 20
5.9142277836
 30
0.0
 10
11.2199470146
 20
5.9100652514
 30
0.0
 10
11.184863556
 20
5.9065095234
 30
0.0
 10
11.1489262352
 20
5.9035773531
 30
0.0
 10
11.1123009742
 20
5.9012825684
 30
0.0
 10
11.0751569418
 20
5.899635621
 30
0.0
 10
11.0376657178
 20
5.898644385
 30
0.0
 10
11.0000004776
 20
5.8983135284
 30
0.0
 10
10.96233523
 20
5.8986443683
 30
0.0
 10
10.9248439915
 20
5.8996355882
 30
0.0
 10
10.8876999471
 20
5.9012825189
 30
0.0
 10
10.8510746783
 20
5.9035772875
 30
0.0
 10
10.8151373436
 20
5.9065094409
 30
0.0
 10
10.7800538581
 20
5.9100651544
 30
0.0
 10
10.7459861718
 20
5.9142276718
 30
0.0
 10
10.7130914805
 20
5.9189778148
 30
0.0
 10
10.6815214451
 20
5.9242931407
 30
0.0
 10
10.6514213622
 20
5.9301486503
 30
0.0
 10
10.6229300426
 20
5.936517313
 30
0.0
 10
10.6002996886
 20
5.942312781
 30
0.0
 10
10.5831118242
 20
5.9472023033
 30
0.0
 10
10.5709025374
 20
5.9509218726
 30
0.0
 10
10.5591890053
 20
5.954746599
 30
0.0
 10
10.5479846059
 20
5.9586719068
 30
0.0
 10
10.5373021552
 20
5.9626930982
 30
0.0
 10
10.5271539831
 20
5.9668058821
 30
0.0
 10
10.5175517671
 20
5.9710052874
 30
0.0
 10
10.5113780459
 20
5.973927208
 30
0.0
 10
10.5083874929
 20
5.9754045057
 30
0.0
  0
SPLINE
  5
433
100
AcDbEntity
  8
0
100
AcDbSpline
 62
7
  6
CONTINUOUS
 70
0
 71
3
 72
21
 73
17
 74
0
 42
0.0000001
 43
0.0000001
 44
0.0000000001
 40
0.0
 40
0.0
 40
0.0
 40
0.0
 40
0.1230212981
 40
0.1847065752
 40
0.2465215318
 40
0.3084771567
 40
0.3705832678
 40
0.432847904
 40
0.4952752623
 40
0.5578663069
 40
0.6206183946
 40
0.6835249868
 40
0.7465773451
 40
0.8097643485
 40
0.8730733734
 40
1.0
 40
1.0
 40
1.0
 40
1.0
 10
11.1369719151
 20
5.9259090035
 30
0.0
 10
11.1138927341
 20
5.9213616473
 30
0.0
 10
11.0790602926
 20
5.915389241
 30
0.0
 10
11.0322890776
 20
5.9094790936
 30
0.0
 10
10.996977769
 20
5.9061518796
 30
0.0
 10
10.9614933262
 20
5.904017472
 30
0.0
 10
10.9258686052
 20
5.9031467356
 30
0.0
 10
10.8901453937
 20
5.9035956308
 30
0.0
 10
10.854371772
 20
5.9053976296
 30
0.0
 10
10.8185992458
 20
5.9085609155
 30
0.0
 10
10.7828793058
 20
5.9130698661
 30
0.0
 10
10.7472596925
 20
5.9188841079
 30
0.0
 10
10.711781553
 20
5.9259418219
 30
0.0
 10
10.6764773622
 20
5.9341675117
 30
0.0
 10
10.6296334361
 20
5.9465870637
 30
0.0
 10
10.5948730264
 20
5.9573748581
 30
0.0
 10
10.5718654406
 20
5.9650992706
 30
0.0
  0
SPLINE
  5
434
100
AcDbEntity
  8
0
100
AcDbSpline
 62
7
  6
CONTINUOUS
 70
0
 71
3
 72
11
 73
7
 74
0
 42
0.0000001
 43
0.0000001
 44
0.0000000001
 40
0.0
 40
0.0
 40
0.0
 40
0.0
 40
0.2465919593
 40
0.494712682
 40
0.7454424776
 40
1.0
 40
1.0
 40
1.0
 40
1.0
 10
10.5323926627
 20
5.9753155643
 30
0.0
 10
10.5304502498
 20
5.9752607297
 30
0.0
 10
10.5265489401
 20
5.9752680761
 30
0.0
 10
10.5206832488
 20
5.975651598
 30
0.0
 10
10.5147931768
 20
5.9764298803
 30
0.0
 10
10.5108867197
 20
5.9772194282
 30
0.0
 10
10.5089352746
 20
5.9776838896
 30
0.0
  0
SPLINE
  5
435
100
AcDbEntity
  8
0
100
AcDbSpline
 62
7
  6
CONTINUOUS
 70
0
 71
3
 72
10
 73
6
 74
0
 42
0.0000001
 43
0.0000001
 44
0.0000000001
 40
0.0
 40
0.0
 40
0.0
 40
0.0
 40
0.2418255986
 40
0.4885199497
 40
1.0
 40
1.0
 40
1.0
 40
1.0
 10
10.5089352746
 20
5.9776838896
 30
0.0
 10
10.5073007572
 20
5.9780729193
 30
0.0
 10
10.5040204468
 20
5.9789537799
 30
0.0
 10
10.4974215465
 20
5.9811360852
 30
0.0
 10
10.4925676681
 20
5.9832199015
 30
0.0
 10
10.4893812334
 20
5.9847932558
 30
0.0
  0
LINE
  5
436
100
AcDbEntity
  8
0
100
AcDbLine
 62
7
  6
CONTINUOUS
 10
11.4912927722
 20
5.9760757666
 11
11.4905636581
 21
5.9757558789
  0
SPLINE
  5
437
100
AcDbEntity
  8
0
100
AcDbSpline
 62
7
  6
CONTINUOUS
 70
0
 71
3
 72
15
 73
11
 74
0
 42
0.0000001
 43
0.0000001
 44
0.0000000001
 40
0.0
 40
0.0
 40
0.0
 40
0.0
 40
0.1321602046
 40
0.2618009952
 40
0.3890353631
 40
0.5141096583
 40
0.6373677171
 40
0.75919507
 40
0.8799649792
 40
1.0
 40
1.0
 40
1.0
 40
1.0
 10
11.4905636581
 20
5.9757558789
 30
0.0
 10
11.4781825547
 20
5.9703321368
 30
0.0
 10
11.4533417909
 20
5.9602851476
 30
0.0
 10
11.4155477278
 20
5.9477517103
 30
0.0
 10
11.3776769583
 20
5.9380344207
 30
0.0
 10
11.3398505826
 20
5.9311659165
 30
0.0
 10
11.3021831967
 20
5.9270660881
 30
0.0
 10
11.2647676148
 20
5.9255594002
 30
0.0
 10
11.2276667781
 20
5.9264062479
 30
0.0
 10
11.2031023587
 20
5.9283655978
 30
0.0
 10
11.1908927174
 20
5.9296484304
 30
0.0
  0
SPLINE
  5
438
100
AcDbEntity
  8
0
100
AcDbSpline
 62
7
  6
CONTINUOUS
 70
0
 71
3
 72
11
 73
7
 74
0
 42
0.0000001
 43
0.0000001
 44
0.0000000001
 40
0.0
 40
0.0
 40
0.0
 40
0.0
 40
0.236942309
 40
0.4833108379
 40
0.7380343631
 40
1.0
 40
1.0
 40
1.0
 40
1.0
 10
10.8183644052
 20
8.3411046603
 30
0.0
 10
10.8244092859
 20
8.3422221806
 30
0.0
 10
10.8367705798
 20
8.3443362476
 30
0.0
 10
10.85571853
 20
8.3471068794
 30
0.0
 10
10.875368179
 20
8.3495305491
 30
0.0
 10
10.8887054009
 20
8.3508894289
 30
0.0
 10
10.8954734274
 20
8.3515111728
 30
0.0
  0
SPLINE
  5
439
100
AcDbEntity
  8
0
100
AcDbSpline
 62
7
  6
CONTINUOUS
 70
0
 71
3
 72
41
 73
37
 74
0
 42
0.0000001
 43
0.0000001
 44
0.0000000001
 40
0.0
 40
0.0
 40
0.0
 40
0.0
 40
0.031144444
 40
0.0624425093
 40
0.0938872508
 40
0.1254695847
 40
0.1571771078
 40
0.1889951283
 40
0.2209066801
 40
0.2528929859
 40
0.2849338014
 40
0.3170078274
 40
0.3490931225
 40
0.3811675283
 40
0.4132090962
 40
0.4451965119
 40
0.4771095115
 40
0.5089292827
 40
0.5406388458
 40
0.5722234075
 40
0.6036706813
 40
0.6349711679
 40
0.6661183875
 40
0.6971090579
 40
0.7279432122
 40
0.7586242475
 40
0.7891589026
 40
0.8195571573
 40
0.8498320547
 40
0.8649308931
 40
0.8800050545
 40
0.9100832586
 40
0.9400926739
 40
0.9550812746
 40
0.9700610358
 40
1.0
 40
1.0
 40
1.0
 40
1.0
 10
9.8093710963
 20
10.0688503109
 30
0.0
 10
9.8126850479
 20
10.0686204876
 30
0.0
 10
9.8193149395
 20
10.0679171283
 30
0.0
 10
9.8291793865
 20
10.0661453955
 30
0.0
 10
9.8389381948
 20
10.0636636696
 30
0.0
 10
9.8485386134
 20
10.0604853818
 30
0.0
 10
9.8579296739
 20
10.0566275102
 30
0.0
 10
9.8670612715
 20
10.05211072
 30
0.0
 10
9.8758847626
 20
10.0469591365
 30
0.0
 10
9.8843531304
 20
10.0412002708
 30
0.0
 10
9.8924212554
 20
10.0348648501
 30
0.0
 10
9.9000461475
 20
10.0279866646
 30
0.0
 10
9.9071871734
 20
10.0206023849
 30
0.0
 10
9.9138062712
 20
10.0127513701
 30
0.0
 10
9.9198681507
 20
10.0044754588
 30
0.0
 10
9.9253404803
 20
9.9958187496
 30
0.0
 10
9.9301940577
 20
9.9868273677
 30
0.0
 10
9.9344029649
 20
9.9775492228
 30
0.0
 10
9.9379447057
 20
9.9680337566
 30
0.0
 10
9.940800326
 20
9.9583316826
 30
0.0
 10
9.9429545151
 20
9.9484947197
 30
0.0
 10
9.9443956898
 20
9.9385753203
 30
0.0
 10
9.9451160577
 20
9.9286263937
 30
0.0
 10
9.9451116637
 20
9.9187010299
 30
0.0
 10
9.9443824109
 20
9.9088522091
 30
0.0
 10
9.9429320853
 20
9.8991325597
 30
0.0
 10
9.940768271
 20
9.8895939351
 30
0.0
 10
9.9379025789
 20
9.8802876652
 30
0.0
 10
9.9349389788
 20
9.8727594375
 30
0.0
 10
9.932234534
 20
9.8669050797
 30
0.0
 10
9.9293159286
 20
9.86117801
 30
0.0
 10
9.9252636034
 20
9.8542508234
 30
0.0
 10
9.9206900772
 20
9.8476671625
 30
0.0
 10
9.9167379031
 20
9.8426347579
 30
0.0
 10
9.9125971618
 20
9.837766639
 30
0.0
 10
9.9092797229
 20
9.8343009404
 30
0.0
 10
9.9069829024
 20
9.8320823842
 30
0.0
  0
SPLINE
  5
43A
100
AcDbEntity
  8
0
100
AcDbSpline
 62
7
  6
CONTINUOUS
 70
0
 71
3
 72
41
 73
37
 74
0
 42
0.0000001
 43
0.0000001
 44
0.0000000001
 40
0.0
 40
0.0
 40
0.0
 40
0.0
 40
0.031144444
 40
0.0624425093
 40
0.0938872508
 40
0.1254695847
 40
0.1571771078
 40
0.1889951283
 40
0.2209066801
 40
0.2528929859
 40
0.2849338014
 40
0.3170078274
 40
0.3490931225
 40
0.3811675283
 40
0.4132090962
 40
0.4451965119
 40
0.4771095115
 40
0.5089292827
 40
0.5406388458
 40
0.5722234075
 40
0.6036706813
 40
0.6349711679
 40
0.6661183875
 40
0.6971090579
 40
0.7279432122
 40
0.7586242475
 40
0.7891589026
 40
0.8195571573
 40
0.8498320547
 40
0.8649308931
 40
0.8800050545
 40
0.9100832586
 40
0.9400926739
 40
0.9550812746
 40
0.9700610358
 40
1.0
 40
1.0
 40
1.0
 40
1.0
 10
9.8093710963
 20
8.0162576933
 30
0.0
 10
9.8126850479
 20
8.01602787
 30
0.0
 10
9.8193149395
 20
8.0153245107
 30
0.0
 10
9.8291793865
 20
8.0135527778
 30
0.0
 10
9.8389381948
 20
8.011071052
 30
0.0
 10
9.8485386134
 20
8.0078927641
 30
0.0
 10
9.8579296739
 20
8.0040348926
 30
0.0
 10
9.8670612715
 20
7.9995181024
 30
0.0
 10
9.8758847626
 20
7.9943665189
 30
0.0
 10
9.8843531304
 20
7.9886076532
 30
0.0
 10
9.8924212554
 20
7.9822722325
 30
0.0
 10
9.9000461475
 20
7.9753940469
 30
0.0
 10
9.9071871734
 20
7.9680097673
 30
0.0
 10
9.9138062712
 20
7.9601587524
 30
0.0
 10
9.9198681507
 20
7.9518828412
 30
0.0
 10
9.9253404803
 20
7.9432261319
 30
0.0
 10
9.9301940577
 20
7.9342347501
 30
0.0
 10
9.9344029649
 20
7.9249566052
 30
0.0
 10
9.9379447057
 20
7.915441139
 30
0.0
 10
9.940800326
 20
7.905739065
 30
0.0
 10
9.9429545151
 20
7.8959021021
 30
0.0
 10
9.9443956898
 20
7.8859827027
 30
0.0
 10
9.9451160577
 20
7.8760337761
 30
0.0
 10
9.9451116637
 20
7.8661084122
 30
0.0
 10
9.9443824109
 20
7.8562595915
 30
0.0
 10
9.9429320853
 20
7.846539942
 30
0.0
 10
9.940768271
 20
7.8370013174
 30
0.0
 10
9.9379025789
 20
7.8276950476
 30
0.0
 10
9.9349389788
 20
7.8201668199
 30
0.0
 10
9.932234534
 20
7.814312462
 30
0.0
 10
9.9293159286
 20
7.8085853923
 30
0.0
 10
9.9252636034
 20
7.8016582058
 30
0.0
 10
9.9206900772
 20
7.7950745449
 30
0.0
 10
9.9167379031
 20
7.7900421402
 30
0.0
 10
9.9125971618
 20
7.7851740214
 30
0.0
 10
9.9092797229
 20
7.7817083227
 30
0.0
 10
9.9069829024
 20
7.7794897665
 30
0.0
  0
SPLINE
  5
43B
100
AcDbEntity
  8
0
100
AcDbSpline
 62
7
  6
CONTINUOUS
 70
0
 71
3
 72
41
 73
37
 74
0
 42
0.0000001
 43
0.0000001
 44
0.0000000001
 40
0.0
 40
0.0
 40
0.0
 40
0.0
 40
0.031144444
 40
0.0624425093
 40
0.0938872508
 40
0.1254695847
 40
0.1571771078
 40
0.1889951283
 40
0.2209066801
 40
0.2528929859
 40
0.2849338014
 40
0.3170078274
 40
0.3490931225
 40
0.3811675283
 40
0.4132090962
 40
0.4451965119
 40
0.4771095115
 40
0.5089292827
 40
0.5406388458
 40
0.5722234075
 40
0.6036706813
 40
0.6349711679
 40
0.6661183875
 40
0.6971090579
 40
0.7279432122
 40
0.7586242475
 40
0.7891589026
 40
0.8195571573
 40
0.8498320547
 40
0.8649308931
 40
0.8800050545
 40
0.9100832586
 40
0.9400926739
 40
0.9550812746
 40
0.9700610358
 40
1.0
 40
1.0
 40
1.0
 40
1.0
 10
11.5596286883
 20
7.894876917
 30
0.0
 10
11.5629426399
 20
7.8946470937
 30
0.0
 10
11.5695725315
 20
7.8939437344
 30
0.0
 10
11.5794369785
 20
7.8921720016
 30
0.0
 10
11.5891957868
 20
7.8896902757
 30
0.0
 10
11.5987962054
 20
7.8865119879
 30
0.0
 10
11.6081872659
 20
7.8826541163
 30
0.0
 10
11.6173188636
 20
7.8781373261
 30
0.0
 10
11.6261423546
 20
7.8729857426
 30
0.0
 10
11.6346107224
 20
7.8672268769
 30
0.0
 10
11.6426788474
 20
7.8608914562
 30
0.0
 10
11.6503037395
 20
7.8540132707
 30
0.0
 10
11.6574447655
 20
7.846628991
 30
0.0
 10
11.6640638632
 20
7.8387779762
 30
0.0
 10
11.6701257427
 20
7.8305020649
 30
0.0
 10
11.6755980723
 20
7.8218453557
 30
0.0
 10
11.6804516497
 20
7.8128539738
 30
0.0
 10
11.6846605569
 20
7.8035758289
 30
0.0
 10
11.6882022978
 20
7.7940603627
 30
0.0
 10
11.691057918
 20
7.7843582887
 30
0.0
 10
11.6932121071
 20
7.7745213258
 30
0.0
 10
11.6946532818
 20
7.7646019264
 30
0.0
 10
11.6953736497
 20
7.7546529998
 30
0.0
 10
11.6953692557
 20
7.744727636
 30
0.0
 10
11.6946400029
 20
7.7348788152
 30
0.0
 10
11.6931896773
 20
7.7251591658
 30
0.0
 10
11.6910258631
 20
7.7156205412
 30
0.0
 10
11.6881601709
 20
7.7063142713
 30
0.0
 10
11.6851965709
 20
7.6987860436
 30
0.0
 10
11.682492126
 20
7.6929316858
 30
0.0
 10
11.6795735206
 20
7.6872046161
 30
0.0
 10
11.6755211954
 20
7.6802774295
 30
0.0
 10
11.6709476692
 20
7.6736937686
 30
0.0
 10
11.6669954952
 20
7.668661364
 30
0.0
 10
11.6628547539
 20
7.6637932451
 30
0.0
 10
11.6595373149
 20
7.6603275465
 30
0.0
 10
11.6572404944
 20
7.6581089903
 30
0.0
  0
SPLINE
  5
43C
100
AcDbEntity
  8
0
100
AcDbSpline
 62
7
  6
CONTINUOUS
 70
0
 71
3
 72
41
 73
37
 74
0
 42
0.0000001
 43
0.0000001
 44
0.0000000001
 40
0.0
 40
0.0
 40
0.0
 40
0.0
 40
0.031144444
 40
0.0624425093
 40
0.0938872508
 40
0.1254695847
 40
0.1571771078
 40
0.1889951283
 40
0.2209066801
 40
0.2528929859
 40
0.2849338014
 40
0.3170078274
 40
0.3490931225
 40
0.3811675283
 40
0.4132090962
 40
0.4451965119
 40
0.4771095115
 40
0.5089292827
 40
0.5406388458
 40
0.5722234075
 40
0.6036706813
 40
0.6349711679
 40
0.6661183875
 40
0.6971090579
 40
0.7279432122
 40
0.7586242475
 40
0.7891589026
 40
0.8195571573
 40
0.8498320547
 40
0.8649308931
 40
0.8800050545
 40
0.9100832586
 40
0.9400926739
 40
0.9550812746
 40
0.9700610358
 40
1.0
 40
1.0
 40
1.0
 40
1.0
 10
11.5596286883
 20
9.9474695346
 30
0.0
 10
11.5629426399
 20
9.9472397113
 30
0.0
 10
11.5695725315
 20
9.9465363521
 30
0.0
 10
11.5794369785
 20
9.9447646192
 30
0.0
 10
11.5891957868
 20
9.9422828933
 30
0.0
 10
11.5987962054
 20
9.9391046055
 30
0.0
 10
11.6081872659
 20
9.9352467339
 30
0.0
 10
11.6173188636
 20
9.9307299437
 30
0.0
 10
11.6261423546
 20
9.9255783602
 30
0.0
 10
11.6346107224
 20
9.9198194945
 30
0.0
 10
11.6426788474
 20
9.9134840738
 30
0.0
 10
11.6503037395
 20
9.9066058883
 30
0.0
 10
11.6574447655
 20
9.8992216087
 30
0.0
 10
11.6640638632
 20
9.8913705938
 30
0.0
 10
11.6701257427
 20
9.8830946826
 30
0.0
 10
11.6755980723
 20
9.8744379733
 30
0.0
 10
11.6804516497
 20
9.8654465914
 30
0.0
 10
11.6846605569
 20
9.8561684466
 30
0.0
 10
11.6882022978
 20
9.8466529803
 30
0.0
 10
11.691057918
 20
9.8369509063
 30
0.0
 10
11.6932121071
 20
9.8271139434
 30
0.0
 10
11.6946532818
 20
9.817194544
 30
0.0
 10
11.6953736497
 20
9.8072456174
 30
0.0
 10
11.6953692557
 20
9.7973202536
 30
0.0
 10
11.6946400029
 20
9.7874714329
 30
0.0
 10
11.6931896773
 20
9.7777517834
 30
0.0
 10
11.6910258631
 20
9.7682131588
 30
0.0
 10
11.6881601709
 20
9.7589068889
 30
0.0
 10
11.6851965709
 20
9.7513786612
 30
0.0
 10
11.682492126
 20
9.7455243034
 30
0.0
 10
11.6795735206
 20
9.7397972337
 30
0.0
 10
11.6755211954
 20
9.7328700471
 30
0.0
 10
11.6709476692
 20
9.7262863862
 30
0.0
 10
11.6669954952
 20
9.7212539816
 30
0.0
 10
11.6628547539
 20
9.7163858627
 30
0.0
 10
11.6595373149
 20
9.7129201641
 30
0.0
 10
11.6572404944
 20
9.7107016079
 30
0.0
  0
SPLINE
  5
43D
100
AcDbEntity
  8
0
100
AcDbSpline
 62
7
  6
CONTINUOUS
 70
0
 71
3
 72
23
 73
19
 74
0
 42
0.0000001
 43
0.0000001
 44
0.0000000001
 40
0.0
 40
0.0
 40
0.0
 40
0.0
 40
0.0638527024
 40
0.1272541104
 40
0.1902429032
 40
0.2528741707
 40
0.3152168324
 40
0.3773456334
 40
0.4393352168
 40
0.5012558237
 40
0.5631706089
 40
0.625134294
 40
0.6871929369
 40
0.7493844205
 40
0.8117392934
 40
0.874281741
 40
0.9370305502
 40
1.0
 40
1.0
 40
1.0
 40
1.0
 10
10.949746698
 20
9.2204050106
 30
0.0
 10
10.949746698
 20
9.2157400902
 30
0.0
 10
10.9492613536
 20
9.2064355899
 30
0.0
 10
10.9470743837
 20
9.1926850906
 30
0.0
 10
10.9434776815
 20
9.1793257639
 30
0.0
 10
10.9385439835
 20
9.1664847785
 30
0.0
 10
10.9323658994
 20
9.1542658915
 30
0.0
 10
10.9250480174
 20
9.1427511182
 30
0.0
 10
10.9167002077
 20
9.1320009174
 30
0.0
 10
10.9074321474
 20
9.1220569353
 30
0.0
 10
10.8973494578
 20
9.112945246
 30
0.0
 10
10.8865513382
 20
9.1046798035
 30
0.0
 10
10.8751294304
 20
9.097265576
 30
0.0
 10
10.8631675146
 20
9.0907012017
 30
0.0
 10
10.8507418596
 20
9.0849811479
 30
0.0
 10
10.8379215584
 20
9.0800973114
 30
0.0
 10
10.8247703487
 20
9.0760404957
 30
0.0
 10
10.8158353558
 20
9.0738843903
 30
0.0
 10
10.8113328235
 20
9.0729405628
 30
0.0
  0
SPLINE
  5
43E
100
AcDbEntity
  8
0
100
AcDbSpline
 62
7
  6
CONTINUOUS
 70
0
 71
3
 72
15
 73
11
 74
0
 42
0.0000001
 43
0.0000001
 44
0.0000000001
 40
0.0
 40
0.0
 40
0.0
 40
0.0
 40
0.123475914
 40
0.2473107467
 40
0.3715471258
 40
0.4962322585
 40
0.6213983211
 40
0.747071779
 40
0.8732695228
 40
1.0
 40
1.0
 40
1.0
 40
1.0
 10
11.408800197
 20
8.6393880994
 30
0.0
 10
11.4058140653
 20
8.6378711443
 30
0.0
 10
11.3997307242
 20
8.6350298159
 30
0.0
 10
11.3903326215
 20
8.6313708636
 30
0.0
 10
11.3806845367
 20
8.6283218434
 30
0.0
 10
11.3708249866
 20
8.6258931236
 30
0.0
 10
11.3607922684
 20
8.6240918546
 30
0.0
 10
11.350625221
 20
8.6229221548
 30
0.0
 10
11.3403632495
 20
8.6223851824
 30
0.0
 10
11.3334977118
 20
8.6224478441
 30
0.0
 10
11.3300627359
 20
8.6225829077
 30
0.0
  0
SPLINE
  5
43F
100
AcDbEntity
  8
0
100
AcDbSpline
 62
7
  6
CONTINUOUS
 70
0
 71
3
 72
33
 73
29
 74
0
 42
0.0000001
 43
0.0000001
 44
0.0000000001
 40
0.0
 40
0.0
 40
0.0
 40
0.0
 40
0.0298631196
 40
0.0598555916
 40
0.0900011113
 40
0.1203144835
 40
0.1508035061
 40
0.1814687772
 40
0.2123050358
 40
0.2433024839
 40
0.2744481491
 40
0.3057270807
 40
0.3371233215
 40
0.368620643
 40
0.4002030585
 40
0.4318551476
 40
0.463562231
 40
0.495310438
 40
0.5270867109
 40
0.5588788233
 40
0.6224477247
 40
0.6859516521
 40
0.7493139886
 40
0.8124638012
 40
0.8753340017
 40
0.9066533542
 40
0.9378793504
 40
1.0
 40
1.0
 40
1.0
 40
1.0
 10
10.216509728
 20
8.1490780525
 30
0.0
 10
10.2200467073
 20
8.1509579937
 30
0.0
 10
10.2273253265
 20
8.1543812078
 30
0.0
 10
10.2387101874
 20
8.1584477756
 30
0.0
 10
10.2504863043
 20
8.1614387035
 30
0.0
 10
10.2625506868
 20
8.1633521389
 30
0.0
 10
10.2748048415
 20
8.1642038934
 30
0.0
 10
10.287156061
 20
8.1640232815
 30
0.0
 10
10.2995200088
 20
8.1628502308
 30
0.0
 10
10.3118216644
 20
8.1607319068
 30
0.0
 10
10.323995568
 20
8.15771984
 30
0.0
 10
10.3359853976
 20
8.1538675246
 30
0.0
 10
10.3477431664
 20
8.1492285887
 30
0.0
 10
10.3592282146
 20
8.1438554822
 30
0.0
 10
10.3704061395
 20
8.137798605
 30
0.0
 10
10.3812477371
 20
8.1311057994
 30
0.0
 10
10.3917280594
 20
8.123822078
 30
0.0
 10
10.4018254353
 20
8.1159896845
 30
0.0
 10
10.4115211342
 20
8.1076477776
 30
0.0
 10
10.4238876568
 20
8.0958976764
 30
0.0
 10
10.4382586372
 20
8.0801173212
 30
0.0
 10
10.4536480731
 20
8.0596867983
 30
0.0
 10
10.4670760537
 20
8.0379818144
 30
0.0
 10
10.4784237328
 20
8.0152163625
 30
0.0
 10
10.4860510976
 20
7.9955020599
 30
0.0
 10
10.4909697298
 20
7.9794086077
 30
0.0
 10
10.4950613769
 20
7.9631908
 30
0.0
 10
10.4971968578
 20
7.950822852
 30
0.0
 10
10.4981647756
 20
7.9425470068
 30
0.0
  0
SPLINE
  5
440
100
AcDbEntity
  8
0
100
AcDbSpline
 62
7
  6
CONTINUOUS
 70
0
 71
3
 72
14
 73
10
 74
0
 42
0.0000001
 43
0.0000001
 44
0.0000000001
 40
0.0
 40
0.0
 40
0.0
 40
0.0
 40
0.2688955018
 40
0.3971818627
 40
0.5220372185
 40
0.6440703089
 40
0.7639388141
 40
0.8823399426
 40
1.0
 40
1.0
 40
1.0
 40
1.0
 10
11.5321636896
 20
10.6972896836
 30
0.0
 10
11.5334223225
 20
10.6991809527
 30
0.0
 10
11.5351261533
 20
10.7020856838
 30
0.0
 10
11.5369584466
 20
10.7061005923
 30
0.0
 10
11.5380669895
 20
10.7090733071
 30
0.0
 10
11.5389300489
 20
10.7120523773
 30
0.0
 10
11.5395471203
 20
10.7150365591
 30
0.0
 10
11.5399175472
 20
10.718023952
 30
0.0
 10
11.539999987
 20
10.7200193086
 30
0.0
 10
11.5399999923
 20
10.7210133736
 30
0.0
  0
SPLINE
  5
441
100
AcDbEntity
  8
0
100
AcDbSpline
 62
7
  6
CONTINUOUS
 70
0
 71
3
 72
34
 73
30
 74
0
 42
0.0000001
 43
0.0000001
 44
0.0000000001
 40
0.0
 40
0.0
 40
0.0
 40
0.0
 40
0.029600263
 40
0.058999178
 40
0.0882491959
 40
0.1174037548
 40
0.1465158076
 40
0.1756368251
 40
0.2048160364
 40
0.2340994342
 40
0.263529311
 40
0.293143879
 40
0.3229766205
 40
0.3530559889
 40
0.4140230584
 40
0.4761723202
 40
0.5395070604
 40
0.571598493
 40
0.6039389734
 40
0.6692332382
 40
0.7351414045
 40
0.7682460272
 40
0.8013994064
 40
0.8345713652
 40
0.8677362396
 40
0.9008735856
 40
0.9339685283
 40
0.9670119321
 40
1.0
 40
1.0
 40
1.0
 40
1.0
 10
10.8708777161
 20
8.5653878269
 30
0.0
 10
10.8684497009
 20
8.5636836187
 30
0.0
 10
10.863713925
 20
8.5601361821
 30
0.0
 10
10.8569694919
 20
8.5544073577
 30
0.0
 10
10.8506141835
 20
8.5483138692
 30
0.0
 10
10.8446495238
 20
8.5418770634
 30
0.0
 10
10.8390753779
 20
8.5351162669
 30
0.0
 10
10.8338910935
 20
8.5280492923
 30
0.0
 10
10.8290959206
 20
8.5206924525
 30
0.0
 10
10.8246894199
 20
8.5130608889
 30
0.0
 10
10.8206716839
 20
8.5051688733
 30
0.0
 10
10.8170436925
 20
8.4970301812
 30
0.0
 10
10.8138073454
 20
8.4886580819
 30
0.0
 10
10.8100019291
 20
8.4771530539
 30
0.0
 10
10.8062521367
 20
8.4622388334
 30
0.0
 10
10.8034160856
 20
8.443744087
 30
0.0
 10
10.8024702465
 20
8.4279565708
 30
0.0
 10
10.8025805935
 20
8.4151490394
 30
0.0
 10
10.8032892072
 20
8.4021637223
 30
0.0
 10
10.8053159875
 20
8.385874956
 30
0.0
 10
10.8088709769
 20
8.369770202
 30
0.0
 10
10.8126463728
 20
8.357070038
 30
0.0
 10
10.8159475049
 20
8.3476639183
 30
0.0
 10
10.8197105521
 20
8.3384264489
 30
0.0
 10
10.8239307705
 20
8.3293902505
 30
0.0
 10
10.8286015632
 20
8.3205871345
 30
0.0
 10
10.83371477
 20
8.312047342
 30
0.0
 10
10.8392603109
 20
8.3037999861
 30
0.0
 10
10.8432418504
 20
8.2985097308
 30
0.0
 10
10.8453003532
 20
8.2959229036
 30
0.0
  0
SPLINE
  5
442
100
AcDbEntity
  8
0
100
AcDbSpline
 62
7
  6
CONTINUOUS
 70
0
 71
3
 72
31
 73
27
 74
0
 42
0.0000001
 43
0.0000001
 44
0.0000000001
 40
0.0
 40
0.0
 40
0.0
 40
0.0
 40
0.0845018904
 40
0.167301158
 40
0.2480799795
 40
0.3265304606
 40
0.4023579462
 40
0.475282401
 40
0.5450409099
 40
0.6113901015
 40
0.6432172375
 40
0.6741112302
 40
0.7040486061
 40
0.7330077048
 40
0.7609690412
 40
0.7879152504
 40
0.8138316265
 40
0.8387060317
 40
0.8625296419
 40
0.8852968756
 40
0.9070063887
 40
0.927661115
 40
0.9472695745
 40
0.9658461645
 40
0.9834128737
 40
1.0
 40
1.0
 40
1.0
 40
1.0
 10
12.0886334138
 20
10.9894962506
 30
0.0
 10
12.095754418
 20
10.9890024072
 30
0.0
 10
12.109844642
 20
10.9878996878
 30
0.0
 10
12.1307040644
 20
10.9858776627
 30
0.0
 10
12.1510128057
 20
10.9835109469
 30
0.0
 10
12.1706855665
 20
10.9808095905
 30
0.0
 10
12.1896398083
 20
10.9777850845
 30
0.0
 10
12.207796128
 20
10.9744503022
 30
0.0
 10
12.2250783462
 20
10.9708194115
 30
0.0
 10
12.2388765714
 20
10.9675157081
 30
0.0
 10
12.249417224
 20
10.9647269017
 30
0.0
 10
12.2569502559
 20
10.9626000969
 30
0.0
 10
12.2642128703
 20
10.9604113521
 30
0.0
 10
12.2711974703
 20
10.9581629298
 30
0.0
 10
12.2778967494
 20
10.9558572313
 30
0.0
 10
12.2843037035
 20
10.9534966487
 30
0.0
 10
12.2904116548
 20
10.9510837033
 30
0.0
 10
12.2962142339
 20
10.9486208786
 30
0.0
 10
12.301705426
 20
10.946110804
 30
0.0
 10
12.306879528
 20
10.9435560307
 30
0.0
 10
12.3117312222
 20
10.9409592707
 30
0.0
 10
12.3162555026
 20
10.9383231069
 30
0.0
 10
12.3204477642
 20
10.9356503026
 30
0.0
 10
12.3243037564
 20
10.9329433802
 30
0.0
 10
12.3278194394
 20
10.9302052244
 30
0.0
 10
12.3299950225
 20
10.928307309
 30
0.0
 10
12.3310207427
 20
10.9273527681
 30
0.0
  0
SPLINE
  5
443
100
AcDbEntity
  8
0
100
AcDbSpline
 62
7
  6
CONTINUOUS
 70
0
 71
3
 72
11
 73
7
 74
0
 42
0.0000001
 43
0.0000001
 44
0.0000000001
 40
0.0
 40
0.0
 40
0.0
 40
0.0
 40
0.2498112646
 40
0.499691646
 40
0.7497667993
 40
1.0
 40
1.0
 40
1.0
 40
1.0
 10
10.1449014618
 20
9.7504684991
 30
0.0
 10
10.1447343085
 20
9.755807798
 30
0.0
 10
10.1448523014
 20
9.766507301
 30
0.0
 10
10.1463674979
 20
9.7824863068
 30
0.0
 10
10.149205357
 20
9.798293259
 30
0.0
 10
10.1519770169
 20
9.808642462
 30
0.0
 10
10.1535853052
 20
9.8137459842
 30
0.0
  0
SPLINE
  5
444
100
AcDbEntity
  8
0
100
AcDbSpline
 62
7
  6
CONTINUOUS
 70
0
 71
3
 72
19
 73
15
 74
0
 42
0.0000001
 43
0.0000001
 44
0.0000000001
 40
0.0
 40
0.0
 40
0.0
 40
0.0
 40
0.1248859782
 40
0.2498245999
 40
0.3748296153
 40
0.4998885722
 40
0.5624471184
 40
0.625006917
 40
0.6875614738
 40
0.7501040562
 40
0.8126271757
 40
0.8751217975
 40
0.9375844797
 40
1.0
 40
1.0
 40
1.0
 40
1.0
 10
10.4996538238
 20
9.803185099
 30
0.0
 10
10.4994845856
 20
9.8085909964
 30
0.0
 10
10.4986818755
 20
9.8193965039
 30
0.0
 10
10.4960651474
 20
9.8354379776
 30
0.0
 10
10.4920197291
 20
9.8511893887
 30
0.0
 10
10.4874514414
 20
9.8639573166
 30
0.0
 10
10.4830851922
 20
9.8738769745
 30
0.0
 10
10.4794561838
 20
9.8811532172
 30
0.0
 10
10.475478099
 20
9.8882437373
 30
0.0
 10
10.4711566629
 20
9.895128655
 30
0.0
 10
10.4664992497
 20
9.9017877791
 30
0.0
 10
10.4615147808
 20
9.9082015446
 30
0.0
 10
10.4562141338
 20
9.9143502117
 30
0.0
 10
10.4524758705
 20
9.9182623239
 30
0.0
 10
10.4505586297
 20
9.9201678021
 30
0.0
  0
SPLINE
  5
445
100
AcDbEntity
  8
0
100
AcDbSpline
 62
7
  6
CONTINUOUS
 70
0
 71
3
 72
25
 73
21
 74
0
 42
0.0000001
 43
0.0000001
 44
0.0000000001
 40
0.0
 40
0.0
 40
0.0
 40
0.0
 40
0.0630731519
 40
0.1260368618
 40
0.1888775597
 40
0.2515848813
 40
0.3141566519
 40
0.3765979031
 40
0.4389212742
 40
0.501146647
 40
0.5633007341
 40
0.6254167581
 40
0.6875343496
 40
0.7186135797
 40
0.7497109527
 40
0.8119774621
 40
0.8744054717
 40
0.9057041614
 40
0.9370675816
 40
1.0
 40
1.0
 40
1.0
 40
1.0
 10
10.4505586297
 20
9.9201678021
 30
0.0
 10
10.4472584286
 20
9.9234477558
 30
0.0
 10
10.4403684994
 20
9.929712594
 30
0.0
 10
10.4292475767
 20
9.9381366378
 30
0.0
 10
10.4174373593
 20
9.9455147707
 30
0.0
 10
10.4050396846
 20
9.9517915191
 30
0.0
 10
10.3921602098
 20
9.9569288907
 30
0.0
 10
10.378906297
 20
9.9609047356
 30
0.0
 10
10.3653834564
 20
9.9637122715
 30
0.0
 10
10.3516927682
 20
9.9653581862
 30
0.0
 10
10.3379286241
 20
9.965860426
 30
0.0
 10
10.3241781651
 20
9.9652459224
 30
0.0
 10
10.3127958368
 20
9.9638308272
 30
0.0
 10
10.303775164
 20
9.9621769751
 30
0.0
 10
10.2948128051
 20
9.9601802797
 30
0.0
 10
10.2837420185
 20
9.9570535006
 30
0.0
 10
10.2729140834
 20
9.9531269429
 30
0.0
 10
10.2644155498
 20
9.9495270114
 30
0.0
 10
10.2560134844
 20
9.9456190306
 30
0.0
 10
10.2498587345
 20
9.9423627468
 30
0.0
 10
10.2458287008
 20
9.9400580237
 30
0.0
  0
SPLINE
  5
446
100
AcDbEntity
  8
0
100
AcDbSpline
 62
7
  6
CONTINUOUS
 70
0
 71
3
 72
11
 73
7
 74
0
 42
0.0000001
 43
0.0000001
 44
0.0000000001
 40
0.0
 40
0.0
 40
0.0
 40
0.0
 40
0.2376810961
 40
0.4843980506
 40
0.738929832
 40
1.0
 40
1.0
 40
1.0
 40
1.0
 10
10.8119307575
 20
8.3598068796
 30
0.0
 10
10.8192394092
 20
8.3610368835
 30
0.0
 10
10.8341690384
 20
8.3633422048
 30
0.0
 10
10.8570217351
 20
8.3663015115
 30
0.0
 10
10.8806611299
 20
8.3688156799
 30
0.0
 10
10.8966829441
 20
8.3701708022
 30
0.0
 10
10.9048013184
 20
8.3707740239
 30
0.0
  0
SPLINE
  5
447
100
AcDbEntity
  8
0
100
AcDbSpline
 62
7
  6
CONTINUOUS
 70
0
 71
3
 72
39
 73
35
 74
0
 42
0.0000001
 43
0.0000001
 44
0.0000000001
 40
0.0
 40
0.0
 40
0.0
 40
0.0
 40
0.0761045614
 40
0.1533638414
 40
0.2310945098
 40
0.308606284
 40
0.3852117318
 40
0.4229632652
 40
0.4602356444
 40
0.4969471857
 40
0.533017899
 40
0.5683697145
 40
0.6029267318
 40
0.6366155259
 40
0.6693654831
 40
0.7011090544
 40
0.7317820724
 40
0.7613241683
 40
0.7896792262
 40
0.8167957883
 40
0.8426276049
 40
0.8671343875
 40
0.8902826946
 40
0.9120469165
 40
0.9224050883
 40
0.9324120712
 40
0.9420675339
 40
0.9513720755
 40
0.9603272196
 40
0.9689354834
 40
0.9772009228
 40
0.9851288947
 40
0.9927259654
 40
1.0
 40
1.0
 40
1.0
 40
1.0
 10
11.4819620728
 20
6.2983116945
 30
0.0
 10
11.4928852427
 20
6.2975541701
 30
0.0
 10
11.5149190396
 20
6.2963264232
 30
0.0
 10
11.5481559042
 20
6.2953335246
 30
0.0
 10
11.5816099322
 20
6.2951796981
 30
0.0
 10
11.6149630002
 20
6.295866461
 30
0.0
 10
11.6425418107
 20
6.2971396895
 30
0.0
 10
11.6643101873
 20
6.2985795823
 30
0.0
 10
11.6803355451
 20
6.2998578929
 30
0.0
 10
11.6961007755
 20
6.3013366736
 30
0.0
 10
11.7115684195
 20
6.3030123992
 30
0.0
 10
11.7267016915
 20
6.3048810497
 30
0.0
 10
11.741464612
 20
6.3069381589
 30
0.0
 10
11.7558220901
 20
6.3091788051
 30
0.0
 10
11.769740017
 20
6.3115976087
 30
0.0
 10
11.7831853399
 20
6.314188771
 30
0.0
 10
11.7961261388
 20
6.3169460883
 30
0.0
 10
11.8085317194
 20
6.3198629547
 30
0.0
 10
11.8203726956
 20
6.3229323642
 30
0.0
 10
11.8316210611
 20
6.3261469579
 30
0.0
 10
11.8422502367
 20
6.3294990461
 30
0.0
 10
11.8522352511
 20
6.3329806181
 30
0.0
 10
11.8615525255
 20
6.3365833618
 30
0.0
 10
11.8688583796
 20
6.3397292525
 30
0.0
 10
11.8743446087
 20
6.3423072182
 30
0.0
 10
11.8782108155
 20
6.3442336677
 30
0.0
 10
11.8818944084
 20
6.3461839403
 30
0.0
 10
11.8853932279
 20
6.3481568894
 30
0.0
 10
11.8887052264
 20
6.3501513169
 30
0.0
 10
11.8918284512
 20
6.3521661293
 30
0.0
 10
11.8947611325
 20
6.3542001484
 30
0.0
 10
11.8975015921
 20
6.3562522818
 30
0.0
 10
11.9000480707
 20
6.3583212672
 30
0.0
 10
11.9016496054
 20
6.359741297
 30
0.0
 10
11.9024157453
 20
6.3604542293
 30
0.0
  0
SPLINE
  5
448
100
AcDbEntity
  8
0
100
AcDbSpline
 62
7
  6
CONTINUOUS
 70
0
 71
3
 72
17
 73
13
 74
0
 42
0.0000001
 43
0.0000001
 44
0.0000000001
 40
0.0
 40
0.0
 40
0.0
 40
0.0
 40
0.1480475465
 40
0.2876832517
 40
0.4195860392
 40
0.482920882
 40
0.5446651876
 40
0.6639007805
 40
0.7785650961
 40
0.8900650781
 40
0.9451345358
 40
1.0
 40
1.0
 40
1.0
 40
1.0
 10
12.3618219421
 20
6.8031348185
 30
0.0
 10
12.3628498071
 20
6.8041276599
 30
0.0
 10
12.3647868933
 20
6.8061210642
 30
0.0
 10
12.3673913841
 20
6.8092276821
 30
0.0
 10
12.3692594955
 20
6.8118712898
 30
0.0
 10
12.370546049
 20
6.8139931992
 30
0.0
 10
12.3716696369
 20
6.8160675012
 30
0.0
 10
12.3728372854
 20
6.8186779175
 30
0.0
 10
12.3738528128
 20
6.8218610685
 30
0.0
 10
12.3743638609
 20
6.8245348994
 30
0.0
 10
12.3745661075
 20
6.8266638936
 30
0.0
 10
12.3745997346
 20
6.8277254098
 30
0.0
 10
12.3745997305
 20
6.8282550139
 30
0.0
  0
SPLINE
  5
449
100
AcDbEntity
  8
0
100
AcDbSpline
 62
7
  6
CONTINUOUS
 70
0
 71
3
 72
70
 73
66
 74
0
 42
0.0000001
 43
0.0000001
 44
0.0000000001
 40
0.0
 40
0.0
 40
0.0
 40
0.0
 40
0.003800743
 40
0.0077417268
 40
0.0118259912
 40
0.0160562065
 40
0.0204346508
 40
0.02496314
 40
0.0344744888
 40
0.044597625
 40
0.0553343622
 40
0.066682467
 40
0.0786363272
 40
0.0911874484
 40
0.1043248258
 40
0.1180352315
 40
0.1323034761
 40
0.1471126208
 40
0.1624441442
 40
0.1782780695
 40
0.1945930969
 40
0.2113667276
 40
0.22857536
 40
0.2461943694
 40
0.2641981908
 40
0.2825604112
 40
0.3012538438
 40
0.3202505913
 40
0.339522111
 40
0.378771898
 40
0.418765347
 40
0.459257885
 40
0.5000009603
 40
0.5407440232
 40
0.5812365259
 40
0.6212299143
 40
0.6604796204
 40
0.6797510883
 40
0.6987477798
 40
0.7174411549
 40
0.7358033097
 40
0.7538070573
 40
0.771425989
 40
0.7886345443
 40
0.8054080909
 40
0.8217230255
 40
0.8375568539
 40
0.8528882825
 40
0.8676973288
 40
0.8819654654
 40
0.8956757592
 40
0.9088130276
 40
0.9213640405
 40
0.9333177837
 40
0.9446657669
 40
0.9554023876
 40
0.9655254157
 40
0.9703575375
 40
0.9750373247
 40
0.9795657612
 40
0.9839441826
 40
0.9881743671
 40
0.9922584991
 40
0.9961992872
 40
1.0
 40
1.0
 40
1.0
 40
1.0
 10
11.5501192556
 20
10.7113571224
 30
0.0
 10
11.5490646491
 20
10.7103757352
 30
0.0
 10
11.5468764583
 20
10.708419435
 30
0.0
 10
11.543427579
 20
10.7055550102
 30
0.0
 10
11.5397549195
 20
10.7027094525
 30
0.0
 10
11.535860122
 20
10.6998839717
 30
0.0
 10
11.5317447122
 20
10.6970796131
 30
0.0
 10
11.5258690525
 20
10.6933083515
 30
0.0
 10
11.5179704203
 20
10.6886648033
 30
0.0
 10
11.5077907103
 20
10.6832827861
 30
0.0
 10
11.4967762202
 20
10.6780118358
 30
0.0
 10
11.4849448839
 20
10.6728605304
 30
0.0
 10
11.4723157343
 20
10.6678372443
 30
0.0
 10
11.458909289
 20
10.6629502298
 30
0.0
 10
11.4447473778
 20
10.6582075483
 30
0.0
 10
11.4298531461
 20
10.6536170301
 30
0.0
 10
11.4142509853
 20
10.6491862683
 30
0.0
 10
11.3979664799
 20
10.6449226024
 30
0.0
 10
11.3810263621
 20
10.6408331052
 30
0.0
 10
11.3634584717
 20
10.636924552
 30
0.0
 10
11.3452917037
 20
10.6332034157
 30
0.0
 10
11.3265559482
 20
10.6296758638
 30
0.0
 10
11.3072820407
 20
10.6263477475
 30
0.0
 10
11.2875017162
 20
10.6232245824
 30
0.0
 10
11.2672475561
 20
10.620311536
 30
0.0
 10
11.2465529238
 20
10.6176134314
 30
0.0
 10
11.2254519191
 20
10.6151347471
 30
0.0
 10
11.2039792808
 20
10.6128795658
 30
0.0
 10
11.1747232394
 20
10.6101592409
 30
0.0
 10
11.1374852851
 20
10.6073526486
 30
0.0
 10
11.09216225
 20
10.6049451946
 30
0.0
 10
11.0462322175
 20
10.6034942853
 30
0.0
 10
10.9999977873
 20
10.6030096061
 30
0.0
 10
10.9537633715
 20
10.6034943788
 30
0.0
 10
10.907833383
 20
10.6049453778
 30
0.0
 10
10.86251042
 20
10.6073529267
 30
0.0
 10
10.8252725444
 20
10.6101595889
 30
0.0
 10
10.7960165807
 20
10.6128799767
 30
0.0
 10
10.7745440099
 20
10.615135202
 30
0.0
 10
10.7534430781
 20
10.6176139245
 30
0.0
 10
10.7327485265
 20
10.6203120713
 30
0.0
 10
10.7124944558
 20
10.6232251604
 30
0.0
 10
10.6927142255
 20
10.6263483671
 30
0.0
 10
10.6734404159
 20
10.6296765182
 30
0.0
 10
10.6547047654
 20
10.633204107
 30
0.0
 10
10.6365381111
 20
10.6369252819
 30
0.0
 10
10.6189703396
 20
10.6408338727
 30
0.0
 10
10.6020303424
 20
10.6449234012
 30
0.0
 10
10.5857459629
 20
10.6491870973
 30
0.0
 10
10.5701439371
 20
10.6536178926
 30
0.0
 10
10.5552498454
 20
10.6582084433
 30
0.0
 10
10.5410880763
 20
10.6629511519
 30
0.0
 10
10.5276817695
 20
10.6678381898
 30
0.0
 10
10.5150527876
 20
10.6728615
 30
0.0
 10
10.5032215567
 20
10.6780128438
 30
0.0
 10
10.4922074039
 20
10.6832837745
 30
0.0
 10
10.483595647
 20
10.6878367464
 30
0.0
 10
10.4771394475
 20
10.6915398899
 30
0.0
 10
10.4725879593
 20
10.6942986175
 30
0.0
 10
10.4682536623
 20
10.6970806972
 30
0.0
 10
10.4641383301
 20
10.6998850704
 30
0.0
 10
10.4602436157
 20
10.7027105525
 30
0.0
 10
10.4565711032
 20
10.705556076
 30
0.0
 10
10.4531223512
 20
10.7084204416
 30
0.0
 10
10.450934251
 20
10.7103767152
 30
0.0
 10
10.4498796705
 20
10.7113581136
 30
0.0
  0
SPLINE
  5
44A
100
AcDbEntity
  8
0
100
AcDbSpline
 62
7
  6
CONTINUOUS
 70
0
 71
3
 72
14
 73
10
 74
0
 42
0.0000001
 43
0.0000001
 44
0.0000000001
 40
0.0
 40
0.0
 40
0.0
 40
0.0
 40
0.2687102809
 40
0.3969612397
 40
0.5218157759
 40
0.6438774342
 40
0.7637970317
 40
0.882265131
 40
1.0
 40
1.0
 40
1.0
 40
1.0
 10
10.4677465926
 20
10.6974249005
 30
0.0
 10
10.466501976
 20
10.6993061629
 30
0.0
 10
10.4648174577
 20
10.7021949932
 30
0.0
 10
10.4630065103
 20
10.7061865288
 30
0.0
 10
10.4619107288
 20
10.709142237
 30
0.0
 10
10.4610575804
 20
10.7121041786
 30
0.0
 10
10.4604476781
 20
10.7150711571
 30
0.0
 10
10.4600814802
 20
10.7180412657
 30
0.0
 10
10.4600000025
 20
10.7200250397
 30
0.0
 10
10.4600000077
 20
10.7210133736
 30
0.0
  0
SPLINE
  5
44B
100
AcDbEntity
  8
0
100
AcDbSpline
 62
7
  6
CONTINUOUS
 70
0
 71
3
 72
17
 73
13
 74
0
 42
0.0000001
 43
0.0000001
 44
0.0000000001
 40
0.0
 40
0.0
 40
0.0
 40
0.0
 40
0.0548654642
 40
0.1099349219
 40
0.2214349039
 40
0.3360992195
 40
0.4553348124
 40
0.517079118
 40
0.5804139608
 40
0.7123167483
 40
0.8519524535
 40
1.0
 40
1.0
 40
1.0
 40
1.0
 10
9.6263661954
 20
10.5684071109
 30
0.0
 10
9.6263661913
 20
10.568936715
 30
0.0
 10
9.6263998184
 20
10.5699982312
 30
0.0
 10
9.626602065
 20
10.5721272254
 30
0.0
 10
9.6271131131
 20
10.5748010563
 30
0.0
 10
9.6281286405
 20
10.5779842072
 30
0.0
 10
9.629296289
 20
10.5805946236
 30
0.0
 10
9.6304198769
 20
10.5826689256
 30
0.0
 10
9.6317064304
 20
10.584790835
 30
0.0
 10
9.6335745418
 20
10.5874344427
 30
0.0
 10
9.6361790326
 20
10.5905410606
 30
0.0
 10
9.6381161188
 20
10.5925344649
 30
0.0
 10
9.6391439838
 20
10.5935273063
 30
0.0
  0
SPLINE
  5
44C
100
AcDbEntity
  8
0
100
AcDbSpline
 62
7
  6
CONTINUOUS
 70
0
 71
3
 72
18
 73
14
 74
0
 42
0.0000001
 43
0.0000001
 44
0.0000000001
 40
0.0
 40
0.0
 40
0.0
 40
0.0
 40
0.1492378719
 40
0.2896551254
 40
0.4219619721
 40
0.4853618993
 40
0.5470839706
 40
0.6660306019
 40
0.7801313525
 40
0.8358490322
 40
0.8909261152
 40
0.9455716555
 40
1.0
 40
1.0
 40
1.0
 40
1.0
 10
12.3608871374
 20
10.8995589513
 30
0.0
 10
12.3619886375
 20
10.8985338905
 30
0.0
 10
12.3640645042
 20
10.8964757711
 30
0.0
 10
12.3668592021
 20
10.8932627161
 30
0.0
 10
12.3688656386
 20
10.890525435
 30
0.0
 10
12.3702475276
 20
10.8883272585
 30
0.0
 10
12.3714528525
 20
10.8861808985
 30
0.0
 10
12.3727060387
 20
10.8834792638
 30
0.0
 10
12.3736224369
 20
10.880707854
 30
0.0
 10
12.3741308884
 20
10.8784967882
 30
0.0
 10
12.3744013193
 20
10.8768496137
 30
0.0
 10
12.3745636171
 20
10.8752014496
 30
0.0
 10
12.3745997262
 20
10.8741013827
 30
0.0
 10
12.3745997305
 20
10.873552614
 30
0.0
  0
SPLINE
  5
44D
100
AcDbEntity
  8
0
100
AcDbSpline
 62
7
  6
CONTINUOUS
 70
0
 71
3
 72
39
 73
35
 74
0
 42
0.0000001
 43
0.0000001
 44
0.0000000001
 40
0.0
 40
0.0
 40
0.0
 40
0.0
 40
0.0072740609
 40
0.0148710987
 40
0.0227990055
 40
0.0310644039
 40
0.0396726832
 40
0.0486278341
 40
0.0579323608
 40
0.0675878247
 40
0.0775947766
 40
0.0879529422
 40
0.1097171419
 40
0.1328654483
 40
0.1573722348
 40
0.1832040234
 40
0.2103205583
 40
0.2386756272
 40
0.2682177396
 40
0.2988907408
 40
0.3306342899
 40
0.3633842613
 40
0.3970730791
 40
0.4316300925
 40
0.466981898
 40
0.5030526247
 40
0.5397641902
 40
0.5770365759
 40
0.614788113
 40
0.6913935957
 40
0.7689053926
 40
0.8466360797
 40
0.9238954807
 40
1.0
 40
1.0
 40
1.0
 40
1.0
 10
10.0985500932
 20
11.0362078149
 30
0.0
 10
10.0993162342
 20
11.036920752
 30
0.0
 10
10.1009177642
 20
11.0383407867
 30
0.0
 10
10.1034642329
 20
11.0404097694
 30
0.0
 10
10.1062046784
 20
11.0424618898
 30
0.0
 10
10.1091373438
 20
11.0444959106
 30
0.0
 10
10.1122605678
 20
11.0465107212
 30
0.0
 10
10.1155725632
 20
11.0485051578
 30
0.0
 10
10.1190713772
 20
11.0504781173
 30
0.0
 10
10.1227549705
 20
11.0524283779
 30
0.0
 10
10.1266211669
 20
11.054354839
 30
0.0
 10
10.1321073905
 20
11.0569328006
 30
0.0
 10
10.1394132366
 20
11.0600787046
 30
0.0
 10
10.1487305118
 20
11.0636814468
 30
0.0
 10
10.1587155255
 20
11.0671630184
 30
0.0
 10
10.1693446936
 20
11.0705151159
 30
0.0
 10
10.180593053
 20
11.0737297198
 30
0.0
 10
10.192434033
 20
11.0767991287
 30
0.0
 10
10.2048396193
 20
11.0797159928
 30
0.0
 10
10.2177804169
 20
11.0824733182
 30
0.0
 10
10.2312257378
 20
11.085064492
 30
0.0
 10
10.2451436711
 20
11.0874832953
 30
0.0
 10
10.2595011588
 20
11.0897239375
 30
0.0
 10
10.274264084
 20
11.091781053
 30
0.0
 10
10.2893973588
 20
11.0936497137
 30
0.0
 10
10.304865011
 20
11.0953254413
 30
0.0
 10
10.3206302528
 20
11.0968042164
 30
0.0
 10
10.3366556196
 20
11.0980825311
 30
0.0
 10
10.358424008
 20
11.0995224356
 30
0.0
 10
10.3860028354
 20
11.1007956555
 30
0.0
 10
10.4193559233
 20
11.10148243
 30
0.0
 10
10.4528099841
 20
11.1013286
 30
0.0
 10
10.4860468719
 20
11.1003357026
 30
0.0
 10
10.5080806862
 20
11.0991079545
 30
0.0
 10
10.5190038531
 20
11.0983504303
 30
0.0
  0
SPLINE
  5
44E
100
AcDbEntity
  8
0
100
AcDbSpline
 62
7
  6
CONTINUOUS
 70
0
 71
3
 72
19
 73
15
 74
0
 42
0.0000001
 43
0.0000001
 44
0.0000000001
 40
0.0
 40
0.0
 40
0.0
 40
0.0
 40
0.0616584454
 40
0.1233399317
 40
0.185067215
 40
0.2468625626
 40
0.3087474945
 40
0.3707425066
 40
0.4328668994
 40
0.4951385746
 40
0.6201443393
 40
0.7459117862
 40
0.8725152911
 40
1.0
 40
1.0
 40
1.0
 40
1.0
 10
9.7117592901
 20
10.0341930644
 30
0.0
 10
9.7133359884
 20
10.0357160366
 30
0.0
 10
9.7165725788
 20
10.0386783477
 30
0.0
 10
9.7216602498
 20
10.0428553121
 30
0.0
 10
9.7269688605
 20
10.0467561675
 30
0.0
 10
9.7324848142
 20
10.0503709643
 30
0.0
 10
9.7381943094
 20
10.0536905999
 30
0.0
 10
9.7440828732
 20
10.0567067046
 30
0.0
 10
9.7501358753
 20
10.0594117876
 30
0.0
 10
9.7584141153
 20
10.0625982203
 30
0.0
 10
9.7691051227
 20
10.0657705942
 30
0.0
 10
9.7823175796
 20
10.0682351983
 30
0.0
 10
9.7957997625
 20
10.0693404119
 30
0.0
 10
9.8048495244
 20
10.069163883
 30
0.0
 10
9.8093710963
 20
10.0688503109
 30
0.0
  0
SPLINE
  5
44F
100
AcDbEntity
  8
0
100
AcDbSpline
 62
7
  6
CONTINUOUS
 70
0
 71
3
 72
19
 73
15
 74
0
 42
0.0000001
 43
0.0000001
 44
0.0000000001
 40
0.0
 40
0.0
 40
0.0
 40
0.0
 40
0.0616584454
 40
0.1233399317
 40
0.185067215
 40
0.2468625626
 40
0.3087474945
 40
0.3707425066
 40
0.4328668994
 40
0.4951385746
 40
0.6201443393
 40
0.7459117862
 40
0.8725152911
 40
1.0
 40
1.0
 40
1.0
 40
1.0
 10
9.7117592901
 20
7.9816004468
 30
0.0
 10
9.7133359884
 20
7.983123419
 30
0.0
 10
9.7165725788
 20
7.9860857301
 30
0.0
 10
9.7216602498
 20
7.9902626945
 30
0.0
 10
9.7269688605
 20
7.9941635498
 30
0.0
 10
9.7324848142
 20
7.9977783467
 30
0.0
 10
9.7381943094
 20
8.0010979823
 30
0.0
 10
9.7440828732
 20
8.004114087
 30
0.0
 10
9.7501358753
 20
8.00681917
 30
0.0
 10
9.7584141153
 20
8.0100056027
 30
0.0
 10
9.7691051227
 20
8.0131779766
 30
0.0
 10
9.7823175796
 20
8.0156425807
 30
0.0
 10
9.7957997625
 20
8.0167477943
 30
0.0
 10
9.8048495244
 20
8.0165712654
 30
0.0
 10
9.8093710963
 20
8.0162576933
 30
0.0
  0
SPLINE
  5
450
100
AcDbEntity
  8
0
100
AcDbSpline
 62
7
  6
CONTINUOUS
 70
0
 71
3
 72
19
 73
15
 74
0
 42
0.0000001
 43
0.0000001
 44
0.0000000001
 40
0.0
 40
0.0
 40
0.0
 40
0.0
 40
0.0616584454
 40
0.1233399317
 40
0.185067215
 40
0.2468625626
 40
0.3087474945
 40
0.3707425066
 40
0.4328668994
 40
0.4951385746
 40
0.6201443393
 40
0.7459117862
 40
0.8725152911
 40
1.0
 40
1.0
 40
1.0
 40
1.0
 10
11.4620168821
 20
7.8602196705
 30
0.0
 10
11.4635935804
 20
7.8617426427
 30
0.0
 10
11.4668301708
 20
7.8647049538
 30
0.0
 10
11.4719178418
 20
7.8688819182
 30
0.0
 10
11.4772264525
 20
7.8727827736
 30
0.0
 10
11.4827424062
 20
7.8763975704
 30
0.0
 10
11.4884519014
 20
7.879717206
 30
0.0
 10
11.4943404652
 20
7.8827333107
 30
0.0
 10
11.5003934673
 20
7.8854383937
 30
0.0
 10
11.5086717073
 20
7.8886248264
 30
0.0
 10
11.5193627147
 20
7.8917972003
 30
0.0
 10
11.5325751716
 20
7.8942618044
 30
0.0
 10
11.5460573545
 20
7.895367018
 30
0.0
 10
11.5551071164
 20
7.8951904891
 30
0.0
 10
11.5596286883
 20
7.894876917
 30
0.0
  0
SPLINE
  5
451
100
AcDbEntity
  8
0
100
AcDbSpline
 62
7
  6
CONTINUOUS
 70
0
 71
3
 72
19
 73
15
 74
0
 42
0.0000001
 43
0.0000001
 44
0.0000000001
 40
0.0
 40
0.0
 40
0.0
 40
0.0
 40
0.0616584454
 40
0.1233399317
 40
0.185067215
 40
0.2468625626
 40
0.3087474945
 40
0.3707425066
 40
0.4328668994
 40
0.4951385746
 40
0.6201443393
 40
0.7459117862
 40
0.8725152911
 40
1.0
 40
1.0
 40
1.0
 40
1.0
 10
11.4620168821
 20
9.9128122881
 30
0.0
 10
11.4635935804
 20
9.9143352604
 30
0.0
 10
11.4668301708
 20
9.9172975715
 30
0.0
 10
11.4719178418
 20
9.9214745358
 30
0.0
 10
11.4772264525
 20
9.9253753912
 30
0.0
 10
11.4827424062
 20
9.9289901881
 30
0.0
 10
11.4884519014
 20
9.9323098237
 30
0.0
 10
11.4943404652
 20
9.9353259283
 30
0.0
 10
11.5003934673
 20
9.9380310113
 30
0.0
 10
11.5086717073
 20
9.9412174441
 30
0.0
 10
11.5193627147
 20
9.9443898179
 30
0.0
 10
11.5325751716
 20
9.9468544221
 30
0.0
 10
11.5460573545
 20
9.9479596356
 30
0.0
 10
11.5551071164
 20
9.9477831067
 30
0.0
 10
11.5596286883
 20
9.9474695346
 30
0.0
  0
SPLINE
  5
452
100
AcDbEntity
  8
0
100
AcDbSpline
 62
7
  6
CONTINUOUS
 70
0
 71
3
 72
25
 73
21
 74
0
 42
0.0000001
 43
0.0000001
 44
0.0000000001
 40
0.0
 40
0.0
 40
0.0
 40
0.0
 40
0.0315686554
 40
0.0638716321
 40
0.0973350726
 40
0.1324952732
 40
0.2109434796
 40
0.256522472
 40
0.3085589642
 40
0.3376906958
 40
0.3692860373
 40
0.4035893997
 40
0.4407309026
 40
0.4806601008
 40
0.5231161565
 40
0.6137894159
 40
0.7089250075
 40
0.8057693706
 40
0.9029688867
 40
1.0
 40
1.0
 40
1.0
 40
1.0
 10
10.4752730516
 20
9.6899720228
 30
0.0
 10
10.4749256765
 20
9.6888681516
 30
0.0
 10
10.4741514378
 20
9.6866565339
 30
0.0
 10
10.4727636669
 20
9.683367054
 30
0.0
 10
10.4711194536
 20
9.6800501868
 30
0.0
 10
10.4684451695
 20
9.6753658183
 30
0.0
 10
10.4651192466
 20
9.6705562133
 30
0.0
 10
10.4611049952
 20
9.6655012999
 30
0.0
 10
10.458068844
 20
9.6619823333
 30
0.0
 10
10.455288301
 20
9.6589234735
 30
0.0
 10
10.4529013355
 20
9.6563859088
 30
0.0
 10
10.4502684513
 20
9.6536772949
 30
0.0
 10
10.4473756607
 20
9.6507959903
 30
0.0
 10
10.444220963
 20
9.6477549215
 30
0.0
 10
10.4395794553
 20
9.6434299609
 30
0.0
 10
10.4333028905
 20
9.6378929012
 30
0.0
 10
10.4252649321
 20
9.6313497943
 30
0.0
 10
10.4167571934
 20
9.6250196088
 30
0.0
 10
10.4079070511
 20
9.6190522774
 30
0.0
 10
10.401814273
 20
9.6153613825
 30
0.0
 10
10.3987265848
 20
9.6135955744
 30
0.0
  0
SPLINE
  5
453
100
AcDbEntity
  8
0
100
AcDbSpline
 62
7
  6
CONTINUOUS
 70
0
 71
3
 72
31
 73
27
 74
0
 42
0.0000001
 43
0.0000001
 44
0.0000000001
 40
0.0
 40
0.0
 40
0.0
 40
0.0
 40
0.0606401453
 40
0.1216522413
 40
0.1830427749
 40
0.2448103598
 40
0.3069463877
 40
0.3694346475
 40
0.4322500022
 40
0.4953556758
 40
0.5587002518
 40
0.6222122988
 40
0.6540149011
 40
0.6858223102
 40
0.7176181308
 40
0.7493841345
 40
0.7811004531
 40
0.8127459419
 40
0.8442987789
 40
0.8600363394
 40
0.8757428266
 40
0.9070467371
 40
0.9381983514
 40
0.9537153351
 40
0.9691898335
 40
1.0
 40
1.0
 40
1.0
 40
1.0
 10
10.6774417538
 20
9.3963529051
 30
0.0
 10
10.6846917541
 20
9.3978726609
 30
0.0
 10
10.6993930614
 20
9.4002166595
 30
0.0
 10
10.721734278
 20
9.4016793793
 30
0.0
 10
10.7442551511
 20
9.4011280183
 30
0.0
 10
10.7667751905
 20
9.3985793707
 30
0.0
 10
10.7891172836
 20
9.3940417038
 30
0.0
 10
10.8110958597
 20
9.3875150388
 30
0.0
 10
10.8325101082
 20
9.3789939586
 30
0.0
 10
10.8531359596
 20
9.3684710187
 30
0.0
 10
10.8727150092
 20
9.3559459896
 30
0.0
 10
10.8879108346
 20
9.3438507466
 30
0.0
 10
10.8992239099
 20
9.3332030345
 30
0.0
 10
10.9072430719
 20
9.3247366592
 30
0.0
 10
10.9147397225
 20
9.3158098248
 30
0.0
 10
10.9216604639
 20
9.3064424382
 30
0.0
 10
10.9279496912
 20
9.29666083
 30
0.0
 10
10.9335509358
 20
9.2864989048
 30
0.0
 10
10.9376030546
 20
9.2777391142
 30
0.0
 10
10.9404454336
 20
9.2705861425
 30
0.0
 10
10.9430086533
 20
9.2633607164
 30
0.0
 10
10.9456862772
 20
9.2541854207
 30
0.0
 10
10.9476307741
 20
9.2448501889
 30
0.0
 10
10.9487257175
 20
9.2373364314
 30
0.0
 10
10.9495087265
 20
9.2298262154
 30
0.0
 10
10.949746698
 20
9.2241686659
 30
0.0
 10
10.949746698
 20
9.2204050106
 30
0.0
  0
SPLINE
  5
454
100
AcDbEntity
  8
0
100
AcDbSpline
 62
7
  6
CONTINUOUS
 70
0
 71
3
 72
41
 73
37
 74
0
 42
0.0000001
 43
0.0000001
 44
0.0000000001
 40
0.0
 40
0.0
 40
0.0
 40
0.0
 40
0.031199794
 40
0.0625819771
 40
0.0941364706
 40
0.1258486772
 40
0.1577002512
 40
0.1896698809
 40
0.221734042
 40
0.2538676955
 40
0.2860449166
 40
0.3182394437
 40
0.3504251701
 40
0.3825765812
 40
0.4146691525
 40
0.4466797212
 40
0.4785868466
 40
0.5103711709
 40
0.5420157895
 40
0.5735066384
 40
0.6048329001
 40
0.6204350361
 40
0.6359937208
 40
0.6669734221
 40
0.6977796925
 40
0.7131230279
 40
0.7284257619
 40
0.7589087237
 40
0.7892519073
 40
0.819476562
 40
0.8496085362
 40
0.8796776254
 40
0.9097166182
 40
0.9397602254
 40
0.9698430718
 40
1.0
 40
1.0
 40
1.0
 40
1.0
 10
11.3062317563
 20
8.9827979315
 30
0.0
 10
11.3111860616
 20
8.9826031278
 30
0.0
 10
11.3211116762
 20
8.981779054
 30
0.0
 10
11.3358777954
 20
8.9792779626
 30
0.0
 10
11.3504648411
 20
8.9755399919
 30
0.0
 10
11.3647697694
 20
8.9706057028
 30
0.0
 10
11.3786968495
 20
8.9645228823
 30
0.0
 10
11.3921555722
 20
8.9573455504
 30
0.0
 10
11.405061407
 20
8.9491329375
 30
0.0
 10
11.4173355829
 20
8.9399486383
 30
0.0
 10
11.428904981
 20
8.9298599063
 30
0.0
 10
11.4397018879
 20
8.9189370922
 30
0.0
 10
11.4496637409
 20
8.9072532394
 30
0.0
 10
11.4587328712
 20
8.8948838123
 30
0.0
 10
11.4668562787
 20
8.8819065395
 30
0.0
 10
11.4739854604
 20
8.8684013625
 30
0.0
 10
11.4800763137
 20
8.8544504359
 30
0.0
 10
11.4850891261
 20
8.8401382741
 30
0.0
 10
11.4889886835
 20
8.8255515882
 30
0.0
 10
11.4917444526
 20
8.8107803847
 30
0.0
 10
11.4930684221
 20
8.7983747003
 30
0.0
 10
11.4935304402
 20
8.7884529626
 30
0.0
 10
11.4935929184
 20
8.7785757392
 30
0.0
 10
11.4929222775
 20
8.7662881622
 30
0.0
 10
11.4912392213
 20
8.7541316756
 30
0.0
 10
11.48928598
 20
8.7445605636
 30
0.0
 10
11.4869367071
 20
8.73513194
 30
0.0
 10
11.4832505605
 20
8.7235914838
 30
0.0
 10
11.4776383471
 20
8.7102343142
 30
0.0
 10
11.4708697063
 20
8.6974860966
 30
0.0
 10
11.4629830097
 20
8.6854491066
 30
0.0
 10
11.4540274244
 20
8.6742217123
 30
0.0
 10
11.4440635447
 20
8.6638978058
 30
0.0
 10
11.4331625371
 20
8.6545645552
 30
0.0
 10
11.4214079526
 20
8.6463017239
 30
0.0
 10
11.4130728954
 20
8.6415586303
 30
0.0
 10
11.408800197
 20
8.6393880994
 30
0.0
  0
SPLINE
  5
455
100
AcDbEntity
  8
0
100
AcDbSpline
 62
7
  6
CONTINUOUS
 70
0
 71
3
 72
39
 73
35
 74
0
 42
0.0000001
 43
0.0000001
 44
0.0000000001
 40
0.0
 40
0.0
 40
0.0
 40
0.0
 40
0.0316298563
 40
0.0634542043
 40
0.0954481719
 40
0.1275809816
 40
0.159817407
 40
0.1921195953
 40
0.2244486914
 40
0.2567663479
 40
0.2890360421
 40
0.3212240326
 40
0.3533001741
 40
0.3852385657
 40
0.4170179583
 40
0.448622092
 40
0.4800399749
 40
0.511266074
 40
0.5423004593
 40
0.5731489253
 40
0.6038230398
 40
0.6343401086
 40
0.664723041
 40
0.6950000273
 40
0.7252039668
 40
0.7553716959
 40
0.7855428789
 40
0.8157585186
 40
0.8460593057
 40
0.876483703
 40
0.9070658989
 40
0.937833986
 40
0.9688079926
 40
1.0
 40
1.0
 40
1.0
 40
1.0
 10
10.7618273532
 20
8.6294917805
 30
0.0
 10
10.7674345401
 20
8.6285101311
 30
0.0
 10
10.778592468
 20
8.6259763856
 30
0.0
 10
10.7949156485
 20
8.6205434328
 30
0.0
 10
10.8107249586
 20
8.6135303639
 30
0.0
 10
10.8258655171
 20
8.6050211339
 30
0.0
 10
10.8401972686
 20
8.5951140182
 30
0.0
 10
10.8535929128
 20
8.5839197237
 30
0.0
 10
10.8659394644
 20
8.5715582375
 30
0.0
 10
10.8771381672
 20
8.5581564168
 30
0.0
 10
10.8871043432
 20
8.5438458333
 30
0.0
 10
10.8957666023
 20
8.5287608503
 30
0.0
 10
10.9030660244
 20
8.5130372635
 30
0.0
 10
10.9089553167
 20
8.4968113255
 30
0.0
 10
10.9133978266
 20
8.4802190427
 30
0.0
 10
10.9163667317
 20
8.4633958307
 30
0.0
 10
10.9178444407
 20
8.4464763932
 30
0.0
 10
10.917822152
 20
8.4295947399
 30
0.0
 10
10.9162995836
 20
8.4128842997
 30
0.0
 10
10.9132849876
 20
8.396478069
 30
0.0
 10
10.9087954706
 20
8.380508691
 30
0.0
 10
10.902857451
 20
8.3651084157
 30
0.0
 10
10.895507323
 20
8.3504088886
 30
0.0
 10
10.8867923443
 20
8.3365406701
 30
0.0
 10
10.8767716824
 20
8.3236323654
 30
0.0
 10
10.8655173115
 20
8.3118094641
 30
0.0
 10
10.8531149141
 20
8.3011927544
 30
0.0
 10
10.8396646585
 20
8.2918961501
 30
0.0
 10
10.8252813677
 20
8.284024406
 30
0.0
 10
10.8100942292
 20
8.2776704956
 30
0.0
 10
10.7942462279
 20
8.2729126076
 30
0.0
 10
10.7778915016
 20
8.2698119342
 30
0.0
 10
10.7611965128
 20
8.268409788
 30
0.0
 10
10.7499875048
 20
8.2686206036
 30
0.0
 10
10.7443872889
 20
8.2690089799
 30
0.0
  0
SPLINE
  5
456
100
AcDbEntity
  8
0
100
AcDbSpline
 62
7
  6
CONTINUOUS
 70
0
 71
3
 72
22
 73
18
 74
0
 42
0.0000001
 43
0.0000001
 44
0.0000000001
 40
0.0
 40
0.0
 40
0.0
 40
0.0
 40
0.1279962752
 40
0.1916476211
 40
0.2550407731
 40
0.3181708338
 40
0.3810369196
 40
0.4436432658
 40
0.506000476
 40
0.5681268272
 40
0.630049471
 40
0.6918052867
 40
0.7534411488
 40
0.8150131083
 40
0.8765850633
 40
0.9382240083
 40
1.0
 40
1.0
 40
1.0
 40
1.0
 10
10.1463905099
 20
7.9888842976
 30
0.0
 10
10.1454690492
 20
7.9967629282
 30
0.0
 10
10.1447017177
 20
8.0086461826
 30
0.0
 10
10.1450231852
 20
8.0244549988
 30
0.0
 10
10.1459576067
 20
8.0362112631
 30
0.0
 10
10.1476094739
 20
8.0478392782
 30
0.0
 10
10.1500014917
 20
8.0592890076
 30
0.0
 10
10.1531546798
 20
8.0705040169
 30
0.0
 10
10.1570870837
 20
8.08142242
 30
0.0
 10
10.1618122785
 20
8.0919765611
 30
0.0
 10
10.1673375822
 20
8.1020935093
 30
0.0
 10
10.1736620612
 20
8.1116959833
 30
0.0
 10
10.1807745522
 20
8.1207039709
 30
0.0
 10
10.1886516898
 20
8.1290370425
 30
0.0
 10
10.1972571167
 20
8.1366174853
 30
0.0
 10
10.2065391551
 20
8.1433730543
 30
0.0
 10
10.2131291256
 20
8.1472812272
 30
0.0
 10
10.216509728
 20
8.1490780525
 30
0.0
  0
SPLINE
  5
457
100
AcDbEntity
  8
0
100
AcDbSpline
 62
7
  6
CONTINUOUS
 70
0
 71
3
 72
18
 73
14
 74
0
 42
0.0000001
 43
0.0000001
 44
0.0000000001
 40
0.0
 40
0.0
 40
0.0
 40
0.0
 40
0.0544283445
 40
0.1090738848
 40
0.1641509678
 40
0.2198686475
 40
0.3339693981
 40
0.4529160294
 40
0.5146381007
 40
0.5780380279
 40
0.7103448746
 40
0.8507621281
 40
1.0
 40
1.0
 40
1.0
 40
1.0
 10
9.6263661954
 20
6.5231095107
 30
0.0
 10
9.6263661997
 20
6.5225607421
 30
0.0
 10
9.6264023088
 20
6.5214606752
 30
0.0
 10
9.6265646065
 20
6.5198125111
 30
0.0
 10
9.6268350375
 20
6.5181653366
 30
0.0
 10
9.6273434889
 20
6.5159542708
 30
0.0
 10
9.6282598872
 20
6.513182861
 30
0.0
 10
9.6295130734
 20
6.5104812263
 30
0.0
 10
9.6307183983
 20
6.5083348663
 30
0.0
 10
9.6321002873
 20
6.5061366898
 30
0.0
 10
9.6341067238
 20
6.5033994087
 30
0.0
 10
9.6369014216
 20
6.5001863537
 30
0.0
 10
9.6389772884
 20
6.4981282343
 30
0.0
 10
9.6400787885
 20
6.4971031735
 30
0.0
  0
SPLINE
  5
458
100
AcDbEntity
  8
0
100
AcDbSpline
 62
7
  6
CONTINUOUS
 70
0
 71
3
 72
31
 73
27
 74
0
 42
0.0000001
 43
0.0000001
 44
0.0000000001
 40
0.0
 40
0.0
 40
0.0
 40
0.0
 40
0.0165871091
 40
0.0341536703
 40
0.0527302526
 40
0.0723385666
 40
0.0929932951
 40
0.1147026719
 40
0.1374699173
 40
0.1612934054
 40
0.1861678307
 40
0.2120841024
 40
0.2390303392
 40
0.2669915909
 40
0.2959507237
 40
0.3258880358
 40
0.3567820684
 40
0.3886091614
 40
0.4549583764
 40
0.5247169311
 40
0.5976414593
 40
0.6734690209
 40
0.7519196486
 40
0.8326984863
 40
0.9154981136
 40
1.0
 40
1.0
 40
1.0
 40
1.0
 10
9.6699448255
 20
6.46930968
 30
0.0
 10
9.670970543
 20
6.4683551346
 30
0.0
 10
9.6731461224
 20
6.4664572287
 30
0.0
 10
9.6766617581
 20
6.4637190218
 30
0.0
 10
9.6805177488
 20
6.4610121254
 30
0.0
 10
9.6847099727
 20
6.4583392687
 30
0.0
 10
9.689234252
 20
6.4557031295
 30
0.0
 10
9.6940859194
 20
6.4531063197
 30
0.0
 10
9.6992600212
 20
6.4505515678
 30
0.0
 10
9.7047511964
 20
6.4480414472
 30
0.0
 10
9.7105537772
 20
6.4455786402
 30
0.0
 10
9.7166617202
 20
6.4431656531
 30
0.0
 10
9.7230686789
 20
6.4408050846
 30
0.0
 10
9.7297679572
 20
6.4384993486
 30
0.0
 10
9.7367525652
 20
6.4362509369
 30
0.0
 10
9.7440151856
 20
6.4340621592
 30
0.0
 10
9.751548229
 20
6.4319353609
 30
0.0
 10
9.7620888959
 20
6.4291465216
 30
0.0
 10
9.7758871494
 20
6.4258428098
 30
0.0
 10
9.7931694093
 20
6.422211896
 30
0.0
 10
9.8113257785
 20
6.4188770973
 30
0.0
 10
9.8302800798
 20
6.4158525737
 30
0.0
 10
9.8499528976
 20
6.4131512066
 30
0.0
 10
9.8702617206
 20
6.4107844745
 30
0.0
 10
9.8911212141
 20
6.4087624442
 30
0.0
 10
9.9052114947
 20
6.4076597185
 30
0.0
 10
9.9123325121
 20
6.4071658742
 30
0.0
  0
SPLINE
  5
459
100
AcDbEntity
  8
0
100
AcDbSpline
 62
7
  6
CONTINUOUS
 70
0
 71
3
 72
17
 73
13
 74
0
 42
0.0000001
 43
0.0000001
 44
0.0000000001
 40
0.0
 40
0.0
 40
0.0
 40
0.0
 40
0.0548646902
 40
0.1099333156
 40
0.1654074076
 40
0.2214837295
 40
0.3361457233
 40
0.4553803082
 40
0.5804213409
 40
0.712320525
 40
0.8519515616
 40
1.0
 40
1.0
 40
1.0
 40
1.0
 10
10.4600000077
 20
10.7210133736
 30
0.0
 10
10.4600000118
 20
10.7217760043
 30
0.0
 10
10.4600484216
 20
10.7233045405
 30
0.0
 10
10.460266042
 20
10.7255948452
 30
0.0
 10
10.4606287023
 20
10.7278838825
 30
0.0
 10
10.4613101876
 20
10.7309552335
 30
0.0
 10
10.4625379503
 20
10.73480485
 30
0.0
 10
10.4645791279
 20
10.739367636
 30
0.0
 10
10.4671945693
 20
10.7439050145
 30
0.0
 10
10.4703799163
 20
10.7484125352
 30
0.0
 10
10.4741304653
 20
10.7528862931
 30
0.0
 10
10.4769198659
 20
10.7557567329
 30
0.0
 10
10.4784000229
 20
10.7571864549
 30
0.0
  0
SPLINE
  5
45A
100
AcDbEntity
  8
0
100
AcDbSpline
 62
7
  6
CONTINUOUS
 70
0
 71
3
 72
33
 73
29
 74
0
 42
0.0000001
 43
0.0000001
 44
0.0000000001
 40
0.0
 40
0.0
 40
0.0
 40
0.0
 40
0.0298631203
 40
0.0598555925
 40
0.0900011128
 40
0.1203144854
 40
0.1508035085
 40
0.1814687801
 40
0.212305039
 40
0.2433024874
 40
0.2744481529
 40
0.3057270847
 40
0.3371233256
 40
0.3686206472
 40
0.4002030626
 40
0.4318551517
 40
0.463562235
 40
0.4953104419
 40
0.5270867146
 40
0.5588788268
 40
0.6224477277
 40
0.6859516547
 40
0.7493139906
 40
0.8124638027
 40
0.8753340027
 40
0.9066533549
 40
0.9378793508
 40
1.0
 40
1.0
 40
1.0
 40
1.0
 10
10.4280455111
 20
7.7823532249
 30
0.0
 10
10.4245085322
 20
7.7804732839
 30
0.0
 10
10.4172299095
 20
7.7770500792
 30
0.0
 10
10.4058450498
 20
7.7729835133
 30
0.0
 10
10.3940689327
 20
7.7699925915
 30
0.0
 10
10.382004551
 20
7.7680791602
 30
0.0
 10
10.3697503975
 20
7.76722741
 30
0.0
 10
10.3573991796
 20
7.7674080255
 30
0.0
 10
10.3450352335
 20
7.7685810796
 30
0.0
 10
10.3327335801
 20
7.7706994065
 30
0.0
 10
10.3205596786
 20
7.7737114757
 30
0.0
 10
10.3085698514
 20
7.7775637931
 30
0.0
 10
10.296812085
 20
7.7822027306
 30
0.0
 10
10.2853270392
 20
7.7875758384
 30
0.0
 10
10.2741491168
 20
7.7936327166
 30
0.0
 10
10.2633075216
 20
7.8003255228
 30
0.0
 10
10.2528272017
 20
7.8076092445
 30
0.0
 10
10.2427298281
 20
7.8154416382
 30
0.0
 10
10.2330341315
 20
7.823783545
 30
0.0
 10
10.2206676118
 20
7.8355336457
 30
0.0
 10
10.2062966348
 20
7.8513139999
 30
0.0
 10
10.1909072025
 20
7.871744521
 30
0.0
 10
10.177479225
 20
7.8934495026
 30
0.0
 10
10.1661315486
 20
7.9162149518
 30
0.0
 10
10.1585041855
 20
7.9359292518
 30
0.0
 10
10.1535855544
 20
7.9520227019
 30
0.0
 10
10.1494939082
 20
7.9682405073
 30
0.0
 10
10.1473584276
 20
7.9806084535
 30
0.0
 10
10.1463905099
 20
7.9888842976
 30
0.0
  0
SPLINE
  5
45B
100
AcDbEntity
  8
0
100
AcDbSpline
 62
7
  6
CONTINUOUS
 70
0
 71
3
 72
39
 73
35
 74
0
 42
0.0000001
 43
0.0000001
 44
0.0000000001
 40
0.0
 40
0.0
 40
0.0
 40
0.0
 40
0.0071758079
 40
0.0146741357
 40
0.022503624
 40
0.030671441
 40
0.0391835297
 40
0.0480445027
 40
0.0572573755
 40
0.0668240442
 40
0.0767454363
 40
0.0870215068
 40
0.1086328144
 40
0.1316444976
 40
0.1560319006
 40
0.1817621503
 40
0.2087952904
 40
0.2370851496
 40
0.2665801077
 40
0.2972237102
 40
0.3289551658
 40
0.3617097536
 40
0.3954191975
 40
0.4300120549
 40
0.4654140374
 40
0.501548304
 40
0.5383357251
 40
0.5756951818
 40
0.6135438486
 40
0.6903688691
 40
0.7681254643
 40
0.846115686
 40
0.9236386402
 40
1.0
 40
1.0
 40
1.0
 40
1.0
 10
11.9032742547
 20
10.4664530411
 30
0.0
 10
11.9025296572
 20
10.465733815
 30
0.0
 10
11.9009699652
 20
10.4643009921
 30
0.0
 10
11.8984824168
 20
10.4622133743
 30
0.0
 10
11.8957979265
 20
10.4601423077
 30
0.0
 10
11.8929182403
 20
10.458089153
 30
0.0
 10
11.8898450622
 20
10.4560550124
 30
0.0
 10
11.8865801485
 20
10.4540410883
 30
0.0
 10
11.8831254386
 20
10.4520484991
 30
0.0
 10
11.8794829784
 20
10.4500784557
 30
0.0
 10
11.8756549274
 20
10.4481321303
 30
0.0
 10
11.8702147008
 20
10.4455263065
 30
0.0
 10
11.862958458
 20
10.4423457884
 30
0.0
 10
11.8536905637
 20
10.4387032069
 30
0.0
 10
11.843743376
 20
10.4351819671
 30
0.0
 10
11.8331406606
 20
10.4317905638
 30
0.0
 10
11.8219076038
 20
10.4285372084
 30
0.0
 10
11.8100710567
 20
10.4254297814
 30
0.0
 10
11.7976593541
 20
10.422475819
 30
0.0
 10
11.7847022539
 20
10.419682491
 30
0.0
 10
11.7712308513
 20
10.4170565817
 30
0.0
 10
11.7572775072
 20
10.4146044663
 30
0.0
 10
11.7428757655
 20
10.4123320869
 30
0.0
 10
11.7280602614
 20
10.410244954
 30
0.0
 10
11.7128666333
 20
10.4083481296
 30
0.0
 10
11.697331436
 20
10.4066462163
 30
0.0
 10
11.681492068
 20
10.4051433419
 30
0.0
 10
11.6653866271
 20
10.4038431176
 30
0.0
 10
11.6435017139
 20
10.4023767737
 30
0.0
 10
11.6157672666
 20
10.4010767882
 30
0.0
 10
11.5822187163
 20
10.4003679905
 30
0.0
 10
11.5485621121
 20
10.4005099022
 30
0.0
 10
11.5151214166
 20
10.4015010784
 30
0.0
 10
11.4929521298
 20
10.4027345364
 30
0.0
 10
11.4819620728
 20
10.4034966995
 30
0.0
  0
SPLINE
  5
45C
100
AcDbEntity
  8
0
100
AcDbSpline
 62
7
  6
CONTINUOUS
 70
0
 71
3
 72
40
 73
36
 74
0
 42
0.0000001
 43
0.0000001
 44
0.0000000001
 40
0.0
 40
0.0
 40
0.0
 40
0.0
 40
0.0071757996
 40
0.0146741187
 40
0.022503598
 40
0.0306714055
 40
0.0391834843
 40
0.0480444471
 40
0.0572573092
 40
0.0668239668
 40
0.0767453474
 40
0.087021406
 40
0.0976514315
 40
0.1086338464
 40
0.1316455029
 40
0.1560328777
 40
0.1817630977
 40
0.2087962065
 40
0.2370860329
 40
0.2665809568
 40
0.2972245239
 40
0.3289559428
 40
0.3617104926
 40
0.3954198975
 40
0.4300127148
 40
0.4654146563
 40
0.5015488811
 40
0.5383362596
 40
0.575695673
 40
0.6135442961
 40
0.6903692276
 40
0.7681257327
 40
0.8461158642
 40
0.9236387286
 40
1.0
 40
1.0
 40
1.0
 40
1.0
 10
11.9332179571
 20
10.4344327359
 30
0.0
 10
11.9324062593
 20
10.4336486959
 30
0.0
 10
11.9307060136
 20
10.4320867522
 30
0.0
 10
11.9279942966
 20
10.4298110061
 30
0.0
 10
11.9250678901
 20
10.4275533027
 30
0.0
 10
11.9219286972
 20
10.4253151254
 30
0.0
 10
11.9185785758
 20
10.4230976756
 30
0.0
 10
11.9150194402
 20
10.4209022639
 30
0.0
 10
11.9112534048
 20
10.418730111
 30
0.0
 10
11.9072826989
 20
10.4165825302
 30
0.0
 10
11.9031096812
 20
10.4144608267
 30
0.0
 10
11.8987368579
 20
10.4123662172
 30
0.0
 10
11.8941668079
 20
10.4102999831
 30
0.0
 10
11.8877132731
 20
10.4075414472
 30
0.0
 10
11.8791658644
 20
10.404182189
 30
0.0
 10
11.8683224073
 20
10.4003436293
 30
0.0
 10
11.8567641757
 20
10.396646605
 30
0.0
 10
11.8445188489
 20
10.3931000695
 30
0.0
 10
11.831615633
 20
10.3897126127
 30
0.0
 10
11.8180854348
 20
10.3864924501
 30
0.0
 10
11.8039606887
 20
10.3834473978
 30
0.0
 10
11.7892752935
 20
10.3805848514
 30
0.0
 10
11.7740645259
 20
10.3779117605
 30
0.0
 10
11.7583649528
 20
10.3754346027
 30
0.0
 10
11.7422143307
 20
10.3731593851
 30
0.0
 10
11.7256515093
 20
10.371091626
 30
0.0
 10
11.7087163379
 20
10.3692363426
 30
0.0
 10
11.6914495849
 20
10.3675980348
 30
0.0
 10
11.6738927817
 20
10.3661806391
 30
0.0
 10
11.6500356815
 20
10.3645821538
 30
0.0
 10
11.6198019091
 20
10.3631650184
 30
0.0
 10
11.5832300881
 20
10.3623923464
 30
0.0
 10
11.546540476
 20
10.3625470467
 30
0.0
 10
11.5100862296
 20
10.363627544
 30
0.0
 10
11.4859191291
 20
10.3649721567
 30
0.0
 10
11.473938689
 20
10.365803003
 30
0.0
  0
SPLINE
  5
45D
100
AcDbEntity
  8
0
100
AcDbSpline
 62
7
  6
CONTINUOUS
 70
0
 71
3
 72
86
 73
82
 74
0
 42
0.0000001
 43
0.0000001
 44
0.0000000001
 40
0.0
 40
0.0
 40
0.0
 40
0.0
 40
0.0028079904
 40
0.0056356662
 40
0.0085022632
 40
0.0114261848
 40
0.0144246496
 40
0.0175135001
 40
0.0207070556
 40
0.0240180638
 40
0.0274577715
 40
0.0310359274
 40
0.0347609647
 40
0.0386400599
 40
0.0426792699
 40
0.0468836849
 40
0.0512574562
 40
0.0558039959
 40
0.0605259773
 40
0.065425459
 40
0.0705039651
 40
0.075762475
 40
0.0812015787
 40
0.0868214156
 40
0.0926217854
 40
0.0986021659
 40
0.1110988126
 40
0.1243020305
 40
0.1381981474
 40
0.1527702277
 40
0.1679984687
 40
0.1838605377
 40
0.2003318422
 40
0.2173857543
 40
0.2349938022
 40
0.2531258324
 40
0.2717501645
 40
0.2908337358
 40
0.310342229
 40
0.3302401918
 40
0.350491149
 40
0.3710577106
 40
0.3919016856
 40
0.412984188
 40
0.4342657383
 40
0.4557063645
 40
0.4989023515
 40
0.542247104
 40
0.5854133628
 40
0.6068280561
 40
0.6280763755
 40
0.6491184308
 40
0.6699148406
 40
0.6904268343
 40
0.7106163609
 40
0.7304461935
 40
0.7498800348
 40
0.7688826268
 40
0.7874198664
 40
0.805458932
 40
0.8229684178
 40
0.8399184678
 40
0.8562809284
 40
0.8720295209
 40
0.8871400413
 40
0.9015906027
 40
0.915361906
 40
0.9284375728
 40
0.94080457
 40
0.9467195621
 40
0.9524543368
 40
0.9580084456
 40
0.963381838
 40
0.9685748151
 40
0.973588079
 40
0.9784228114
 40
0.9830806721
 40
0.9875640357
 40
0.991875911
 40
0.9960198463
 40
1.0
 40
1.0
 40
1.0
 40
1.0
 10
11.5399999923
 20
10.7210133736
 30
0.0
 10
11.5399999978
 20
10.7220624159
 30
0.0
 10
11.5399081337
 20
10.7241689899
 30
0.0
 10
11.5394953472
 20
10.7273221654
 30
0.0
 10
11.5388079321
 20
10.7304714916
 30
0.0
 10
11.5378464725
 20
10.7336147276
 30
0.0
 10
11.5366119427
 20
10.7367502293
 30
0.0
 10
11.5351052912
 20
10.7398763291
 30
0.0
 10
11.5333276183
 20
10.7429915089
 30
0.0
 10
11.5312801317
 20
10.746094354
 30
0.0
 10
11.5289639894
 20
10.7491834059
 30
0.0
 10
11.526380565
 20
10.752257338
 30
0.0
 10
11.5235311873
 20
10.7553147192
 30
0.0
 10
11.5204173511
 20
10.7583541711
 30
0.0
 10
11.5170406482
 20
10.7613743089
 30
0.0
 10
11.5134027353
 20
10.7643736644
 30
0.0
 10
11.5095054695
 20
10.7673508745
 30
0.0
 10
11.5053507522
 20
10.770304449
 30
0.0
 10
11.5009406697
 20
10.773232982
 30
0.0
 10
11.4962774157
 20
10.7761350396
 30
0.0
 10
11.4913632989
 20
10.779009152
 30
0.0
 10
11.4862007963
 20
10.7818539458
 30
0.0
 10
11.4807924657
 20
10.784667946
 30
0.0
 10
11.4751410347
 20
10.787449777
 30
0.0
 10
11.469249324
 20
10.7901980551
 30
0.0
 10
11.4609553504
 20
10.793869682
 30
0.0
 10
11.4499997566
 20
10.7983549381
 30
0.0
 10
11.436130321
 20
10.8035058379
 30
0.0
 10
11.4213797162
 20
10.8084908837
 30
0.0
 10
11.4057776396
 20
10.8132999452
 30
0.0
 10
11.3893553523
 20
10.8179232529
 30
0.0
 10
11.3721459
 20
10.8223513959
 30
0.0
 10
11.3541839421
 20
10.8265753559
 30
0.0
 10
11.3355056971
 20
10.8305865271
 30
0.0
 10
11.3161488582
 20
10.8343767348
 30
0.0
 10
11.2961525172
 20
10.8379382598
 30
0.0
 10
11.275557079
 20
10.8412638525
 30
0.0
 10
11.2544041726
 20
10.8443467426
 30
0.0
 10
11.2327365629
 20
10.8471806546
 30
0.0
 10
11.2105980638
 20
10.8497598191
 30
0.0
 10
11.1880334511
 20
10.8520789859
 30
0.0
 10
11.1650883715
 20
10.8541334404
 30
0.0
 10
11.1418092422
 20
10.8559190073
 30
0.0
 10
11.1182431721
 20
10.8574320489
 30
0.0
 10
11.0944378004
 20
10.8586695128
 30
0.0
 10
11.0623644691
 20
10.8599516664
 30
0.0
 10
11.0220293815
 20
10.8608471577
 30
0.0
 10
10.9735678137
 20
10.8607960463
 30
0.0
 10
10.9332554989
 20
10.8598153298
 30
0.0
 10
10.9012181956
 20
10.8584651327
 30
0.0
 10
10.8774527583
 20
10.857177357
 30
0.0
 10
10.8539353297
 20
10.8556145227
 30
0.0
 10
10.8307134527
 20
10.8537797809
 30
0.0
 10
10.8078341214
 20
10.8516768658
 30
0.0
 10
10.7853436179
 20
10.8493100551
 30
0.0
 10
10.7632874341
 20
10.8466841665
 30
0.0
 10
10.741710177
 20
10.8438045432
 30
0.0
 10
10.7206554799
 20
10.8406770452
 30
0.0
 10
10.7001659112
 20
10.837308036
 30
0.0
 10
10.6802828832
 20
10.8337043734
 30
0.0
 10
10.661046563
 20
10.8298734002
 30
0.0
 10
10.6424957914
 20
10.8258229206
 30
0.0
 10
10.624668002
 20
10.8215611858
 30
0.0
 10
10.6075991428
 20
10.8170968763
 30
0.0
 10
10.5913235843
 20
10.8124390794
 30
0.0
 10
10.5758740613
 20
10.8075972789
 30
0.0
 10
10.5612815037
 20
10.8025813157
 30
0.0
 10
10.5475752843
 20
10.7974013686
 30
0.0
 10
10.5367597893
 20
10.7928923989
 30
0.0
 10
10.5285805596
 20
10.7892026204
 30
0.0
 10
10.522775883
 20
10.7864419902
 30
0.0
 10
10.5172125393
 20
10.7836482905
 30
0.0
 10
10.511893295
 20
10.7808229291
 30
0.0
 10
10.5068208162
 20
10.7779673147
 30
0.0
 10
10.5019976562
 20
10.7750828504
 30
0.0
 10
10.4974262071
 20
10.7721710324
 30
0.0
 10
10.4931087612
 20
10.7692332294
 30
0.0
 10
10.4890474114
 20
10.766270892
 30
0.0
 10
10.4852441603
 20
10.7632853825
 30
0.0
 10
10.481701096
 20
10.7602783218
 30
0.0
 10
10.4794695206
 20
10.7582195104
 30
0.0
 10
10.4784000229
 20
10.7571864549
 30
0.0
  0
SPLINE
  5
45E
100
AcDbEntity
  8
0
100
AcDbSpline
 62
7
  6
CONTINUOUS
 70
0
 71
3
 72
53
 73
49
 74
0
 42
0.0000001
 43
0.0000001
 44
0.0000000001
 40
0.0
 40
0.0
 40
0.0
 40
0.0
 40
0.0527850893
 40
0.1048062875
 40
0.1559447948
 40
0.2060909053
 40
0.2551345071
 40
0.302970028
 40
0.3494956453
 40
0.394613795
 40
0.4382317369
 40
0.4802620127
 40
0.5206231205
 40
0.5592401462
 40
0.5960455205
 40
0.630979967
 40
0.6639937254
 40
0.6950480956
 40
0.724117325
 40
0.7379046975
 40
0.7511934988
 40
0.763985398
 40
0.7762837369
 40
0.7880933299
 40
0.7994209949
 40
0.8102757033
 40
0.8206687266
 40
0.8306143016
 40
0.8401296535
 40
0.8492356228
 40
0.8579570947
 40
0.8663232304
 40
0.8743681253
 40
0.8821308248
 40
0.8896554973
 40
0.8969912634
 40
0.904191506
 40
0.911313045
 40
0.9184147508
 40
0.9255560501
 40
0.9327952929
 40
0.9401883194
 40
0.9477871408
 40
0.9637757361
 40
0.9722567854
 40
0.9811038243
 40
0.9903441174
 40
1.0
 40
1.0
 40
1.0
 40
1.0
 10
9.9123325121
 20
10.5123508792
 30
0.0
 10
9.9069309536
 20
10.5127254786
 30
0.0
 10
9.8962108567
 20
10.5135414228
 30
0.0
 10
9.8802785669
 20
10.5149771063
 30
0.0
 10
9.8646376933
 20
10.5166131325
 30
0.0
 10
9.8493261422
 20
10.5184454545
 30
0.0
 10
9.8343805709
 20
10.5204696906
 30
0.0
 10
9.8198370097
 20
10.5226809134
 30
0.0
 10
9.8057304172
 20
10.5250737581
 30
0.0
 10
9.792094705
 20
10.527642421
 30
0.0
 10
9.7789626418
 20
10.5303806686
 30
0.0
 10
9.766365761
 20
10.5332818635
 30
0.0
 10
9.7543342747
 20
10.5363389587
 30
0.0
 10
9.7428969967
 20
10.5395445322
 30
0.0
 10
9.7320812626
 20
10.5428908106
 30
0.0
 10
9.7219128809
 20
10.5463696944
 30
0.0
 10
9.7124159368
 20
10.5499727956
 30
0.0
 10
9.7036130667
 20
10.5536914358
 30
0.0
 10
9.6967566766
 20
10.5569339521
 30
0.0
 10
9.6916441545
 20
10.5595866939
 30
0.0
 10
9.6880640297
 20
10.5615643802
 30
0.0
 10
9.6846723632
 20
10.5635642273
 30
0.0
 10
9.6814711326
 20
10.5655850292
 30
0.0
 10
9.678462252
 20
10.5676256421
 30
0.0
 10
9.675647493
 20
10.5696848751
 30
0.0
 10
9.6730284949
 20
10.571761522
 30
0.0
 10
9.6706068445
 20
10.5738544693
 30
0.0
 10
9.6683839356
 20
10.5759624977
 30
0.0
 10
9.6663611273
 20
10.5780844965
 30
0.0
 10
9.6645396733
 20
10.5802193385
 30
0.0
 10
9.6629206885
 20
10.5823658628
 30
0.0
 10
9.6615053428
 20
10.5845230088
 30
0.0
 10
9.6602946192
 20
10.5866895899
 30
0.0
 10
9.6592895369
 20
10.5888644435
 30
0.0
 10
9.658491082
 20
10.5910463119
 30
0.0
 10
9.657900031
 20
10.5932337752
 30
0.0
 10
9.6575172142
 20
10.5954253252
 30
0.0
 10
9.6573430828
 20
10.5976192578
 30
0.0
 10
9.6573778909
 20
10.5998137969
 30
0.0
 10
9.6576216603
 20
10.6020071301
 30
0.0
 10
9.6580739199
 20
10.6041974852
 30
0.0
 10
9.6587342517
 20
10.6063833285
 30
0.0
 10
9.6599104051
 20
10.6093389424
 30
0.0
 10
9.6614982677
 20
10.6122366609
 30
0.0
 10
9.6634376563
 20
10.6150523032
 30
0.0
 10
9.6651244414
 20
10.6171953428
 30
0.0
 10
9.6670131015
 20
10.6193259147
 30
0.0
 10
9.6683752855
 20
10.6207062796
 30
0.0
 10
9.6690876862
 20
10.6213944058
 30
0.0
  0
SPLINE
  5
45F
100
AcDbEntity
  8
0
100
AcDbSpline
 62
7
  6
CONTINUOUS
 70
0
 71
3
 72
40
 73
36
 74
0
 42
0.0000001
 43
0.0000001
 44
0.0000000001
 40
0.0
 40
0.0
 40
0.0
 40
0.0
 40
0.0958313241
 40
0.1890999997
 40
0.2345965946
 40
0.2792415226
 40
0.3229681534
 40
0.3657118216
 40
0.4074099467
 40
0.4480024597
 40
0.4874320406
 40
0.5256441383
 40
0.5625874389
 40
0.5982141646
 40
0.6324801981
 40
0.6653457469
 40
0.6967757223
 40
0.7267401371
 40
0.7552151195
 40
0.7821835957
 40
0.807636302
 40
0.8315735259
 40
0.854006673
 40
0.8749606539
 40
0.8944772516
 40
0.9126187723
 40
0.9294730441
 40
0.945159307
 40
0.9598338401
 40
0.9668558655
 40
0.9737029019
 40
0.9804063157
 40
0.9869997191
 40
0.9935186517
 40
1.0
 40
1.0
 40
1.0
 40
1.0
 10
9.9043091283
 20
10.4746571828
 30
0.0
 10
9.894541853
 20
10.4753345456
 30
0.0
 10
9.8752826494
 20
10.4768859994
 30
0.0
 10
9.8514417248
 20
10.4793739376
 30
0.0
 10
9.8328444185
 20
10.4816723698
 30
0.0
 10
9.8192934877
 20
10.4835268117
 30
0.0
 10
9.8060470542
 20
10.4855229228
 30
0.0
 10
9.7931272197
 20
10.4876573469
 30
0.0
 10
9.7805555786
 20
10.4899265077
 30
0.0
 10
9.768353132
 20
10.4923265976
 30
0.0
 10
9.7565402497
 20
10.4948535549
 30
0.0
 10
9.7451366502
 20
10.4975031529
 30
0.0
 10
9.7341613535
 20
10.5002709347
 30
0.0
 10
9.7236326456
 20
10.5031522223
 30
0.0
 10
9.7135680606
 20
10.5061422015
 30
0.0
 10
9.7039843279
 20
10.5092358391
 30
0.0
 10
9.6948973435
 20
10.5124279246
 30
0.0
 10
9.6863221576
 20
10.5157131489
 30
0.0
 10
9.6782729076
 20
10.5190860091
 30
0.0
 10
9.6707628025
 20
10.5225408951
 30
0.0
 10
9.6638041142
 20
10.5260721646
 30
0.0
 10
9.6574080943
 20
10.529674057
 30
0.0
 10
9.6515849908
 20
10.5333408547
 30
0.0
 10
9.6463440701
 20
10.5370669679
 30
0.0
 10
9.6416935554
 20
10.5408469423
 30
0.0
 10
9.6376408463
 20
10.5446756221
 30
0.0
 10
9.6341926391
 20
10.5485485629
 30
0.0
 10
9.6313555955
 20
10.552460803
 30
0.0
 10
9.629479036
 20
10.555799661
 30
0.0
 10
9.6283092677
 20
10.5584731092
 30
0.0
 10
9.6276010337
 20
10.5604539157
 30
0.0
 10
9.6270496273
 20
10.5624386184
 30
0.0
 10
9.626655468
 20
10.564426419
 30
0.0
 10
9.6264188613
 20
10.5664161526
 30
0.0
 10
9.6263662006
 20
10.5677449354
 30
0.0
 10
9.6263661954
 20
10.5684071109
 30
0.0
  0
SPLINE
  5
460
100
AcDbEntity
  8
0
100
AcDbSpline
 62
7
  6
CONTINUOUS
 70
0
 71
3
 72
41
 73
37
 74
0
 42
0.0000001
 43
0.0000001
 44
0.0000000001
 40
0.0
 40
0.0
 40
0.0
 40
0.0
 40
0.031144444
 40
0.0624425093
 40
0.0938872508
 40
0.1254695847
 40
0.1571771078
 40
0.1889951283
 40
0.2209066801
 40
0.2528929859
 40
0.2849338014
 40
0.3170078274
 40
0.3490931225
 40
0.3811675283
 40
0.4132090962
 40
0.4451965119
 40
0.4771095115
 40
0.5089292827
 40
0.5406388458
 40
0.5722234075
 40
0.6036706813
 40
0.6349711679
 40
0.6661183875
 40
0.6971090579
 40
0.7279432122
 40
0.7586242475
 40
0.7891589026
 40
0.8195571573
 40
0.8498320547
 40
0.8649308931
 40
0.8800050545
 40
0.9100832586
 40
0.9400926739
 40
0.9550812746
 40
0.9700610358
 40
1.0
 40
1.0
 40
1.0
 40
1.0
 10
9.8093710963
 20
7.74483252
 30
0.0
 10
9.8060571446
 20
7.7450623433
 30
0.0
 10
9.799427253
 20
7.7457657026
 30
0.0
 10
9.789562806
 20
7.7475374355
 30
0.0
 10
9.7798039977
 20
7.7500191613
 30
0.0
 10
9.7702035791
 20
7.7531974492
 30
0.0
 10
9.7608125186
 20
7.7570553207
 30
0.0
 10
9.751680921
 20
7.7615721109
 30
0.0
 10
9.74285743
 20
7.7667236944
 30
0.0
 10
9.7343890621
 20
7.7724825602
 30
0.0
 10
9.7263209371
 20
7.7788179808
 30
0.0
 10
9.718696045
 20
7.7856961664
 30
0.0
 10
9.7115550191
 20
7.793080446
 30
0.0
 10
9.7049359213
 20
7.8009314609
 30
0.0
 10
9.6988740418
 20
7.8092073721
 30
0.0
 10
9.6934017122
 20
7.8178640814
 30
0.0
 10
9.6885481348
 20
7.8268554632
 30
0.0
 10
9.6843392276
 20
7.8361336081
 30
0.0
 10
9.6807974868
 20
7.8456490743
 30
0.0
 10
9.6779418666
 20
7.8553511483
 30
0.0
 10
9.6757876774
 20
7.8651881112
 30
0.0
 10
9.6743465027
 20
7.8751075106
 30
0.0
 10
9.6736261348
 20
7.8850564372
 30
0.0
 10
9.6736305288
 20
7.8949818011
 30
0.0
 10
9.6743597816
 20
7.9048306218
 30
0.0
 10
9.6758101072
 20
7.9145502713
 30
0.0
 10
9.6779739215
 20
7.9240888959
 30
0.0
 10
9.6808396137
 20
7.9333951657
 30
0.0
 10
9.6838032137
 20
7.9409233934
 30
0.0
 10
9.6865076585
 20
7.9467777513
 30
0.0
 10
9.6894262639
 20
7.952504821
 30
0.0
 10
9.6934785892
 20
7.9594320075
 30
0.0
 10
9.6980521153
 20
7.9660156684
 30
0.0
 10
9.7020042894
 20
7.9710480731
 30
0.0
 10
9.7061450307
 20
7.9759161919
 30
0.0
 10
9.7094624697
 20
7.9793818906
 30
0.0
 10
9.7117592901
 20
7.9816004468
 30
0.0
  0
SPLINE
  5
461
100
AcDbEntity
  8
0
100
AcDbSpline
 62
7
  6
CONTINUOUS
 70
0
 71
3
 72
17
 73
13
 74
0
 42
0.0000001
 43
0.0000001
 44
0.0000000001
 40
0.0
 40
0.0
 40
0.0
 40
0.0
 40
0.0548654278
 40
0.1099348511
 40
0.2214348476
 40
0.336099037
 40
0.4553350807
 40
0.5170795749
 40
0.5804144754
 40
0.7123166389
 40
0.8519515296
 40
1.0
 40
1.0
 40
1.0
 40
1.0
 10
12.3745997247
 20
10.7528116112
 30
0.0
 10
12.374599722
 20
10.7522820123
 30
0.0
 10
12.3745660925
 20
10.7512205068
 30
0.0
 10
12.3743638373
 20
10.7490915328
 30
0.0
 10
12.373852748
 20
10.7464177373
 30
0.0
 10
12.3728372372
 20
10.7432346098
 30
0.0
 10
12.371669561
 20
10.7406242283
 30
0.0
 10
12.3705459806
 20
10.7385499394
 30
0.0
 10
12.3692594315
 20
10.7364280577
 30
0.0
 10
12.3673913396
 20
10.7337844893
 30
0.0
 10
12.3647868785
 20
10.7306779009
 30
0.0
 10
12.3628498042
 20
10.7286845187
 30
0.0
 10
12.3618219421
 20
10.7276916802
 30
0.0
  0
SPLINE
  5
462
100
AcDbEntity
  8
0
100
AcDbSpline
 62
7
  6
CONTINUOUS
 70
0
 71
3
 72
17
 73
13
 74
0
 42
0.0000001
 43
0.0000001
 44
0.0000000001
 40
0.0
 40
0.0
 40
0.0
 40
0.0
 40
0.0548654642
 40
0.1099349219
 40
0.2214349039
 40
0.3360992195
 40
0.4553348124
 40
0.517079118
 40
0.5804139608
 40
0.7123167483
 40
0.8519524535
 40
1.0
 40
1.0
 40
1.0
 40
1.0
 10
12.3745997305
 20
10.873552614
 30
0.0
 10
12.3745997346
 20
10.87302301
 30
0.0
 10
12.3745661075
 20
10.8719614938
 30
0.0
 10
12.3743638609
 20
10.8698324996
 30
0.0
 10
12.3738528128
 20
10.8671586687
 30
0.0
 10
12.3728372854
 20
10.8639755177
 30
0.0
 10
12.3716696369
 20
10.8613651014
 30
0.0
 10
12.370546049
 20
10.8592907994
 30
0.0
 10
12.3692594955
 20
10.85716889
 30
0.0
 10
12.3673913841
 20
10.8545252823
 30
0.0
 10
12.3647868933
 20
10.8514186644
 30
0.0
 10
12.3628498071
 20
10.8494252601
 30
0.0
 10
12.3618219421
 20
10.8484324187
 30
0.0
  0
SPLINE
  5
463
100
AcDbEntity
  8
0
100
AcDbSpline
 62
7
  6
CONTINUOUS
 70
0
 71
3
 72
15
 73
11
 74
0
 42
0.0000001
 43
0.0000001
 44
0.0000000001
 40
0.0
 40
0.0
 40
0.0
 40
0.0
 40
0.1234759166
 40
0.2473107527
 40
0.3715471305
 40
0.4962322645
 40
0.6213983264
 40
0.7470717833
 40
0.8732695253
 40
1.0
 40
1.0
 40
1.0
 40
1.0
 10
11.2274944003
 20
8.9659927983
 30
0.0
 10
11.2304805277
 20
8.9675097512
 30
0.0
 10
11.2365638657
 20
8.9703510634
 30
0.0
 10
11.2459619566
 20
8.9740100046
 30
0.0
 10
11.2556100285
 20
8.9770590165
 30
0.0
 10
11.2654695653
 20
8.9794877277
 30
0.0
 10
11.2755022692
 20
8.9812889911
 30
0.0
 10
11.2856693018
 20
8.9824586865
 30
0.0
 10
11.2959312581
 20
8.9829956568
 30
0.0
 10
11.3027967855
 20
8.9829329949
 30
0.0
 10
11.3062317563
 20
8.9827979315
 30
0.0
  0
SPLINE
  5
464
100
AcDbEntity
  8
0
100
AcDbSpline
 62
7
  6
CONTINUOUS
 70
0
 71
3
 72
23
 73
19
 74
0
 42
0.0000001
 43
0.0000001
 44
0.0000000001
 40
0.0
 40
0.0
 40
0.0
 40
0.0
 40
0.0749625009
 40
0.1455684839
 40
0.2121600745
 40
0.2751631548
 40
0.3350982506
 40
0.3925832742
 40
0.4483295117
 40
0.5031237972
 40
0.5577983643
 40
0.613191491
 40
0.670106811
 40
0.729278715
 40
0.7913522906
 40
0.8568775564
 40
0.9263090861
 40
1.0
 40
1.0
 40
1.0
 40
1.0
 10
12.3310207427
 20
10.9273527681
 30
0.0
 10
12.3320140878
 20
10.9264283556
 30
0.0
 10
12.3338879814
 20
10.9245724636
 30
0.0
 10
12.3364164293
 20
10.9216769984
 30
0.0
 10
12.3385725403
 20
10.9187586122
 30
0.0
 10
12.3403530713
 20
10.9158198149
 30
0.0
 10
12.3417550816
 20
10.9128632251
 30
0.0
 10
12.342775398
 20
10.9098918539
 30
0.0
 10
12.3434111664
 20
10.9069095324
 30
0.0
 10
12.343660122
 20
10.9039209821
 30
0.0
 10
12.343521285
 20
10.9009316384
 30
0.0
 10
12.3429952314
 20
10.8979470195
 30
0.0
 10
12.3420838387
 20
10.8949721203
 30
0.0
 10
12.3407899753
 20
10.8920109925
 30
0.0
 10
12.3391166519
 20
10.8890668831
 30
0.0
 10
12.3370669023
 20
10.8861423647
 30
0.0
 10
12.3346438817
 20
10.8832402237
 30
0.0
 10
12.3328376659
 20
10.8813794585
 30
0.0
 10
12.3318782397
 20
10.8804527239
 30
0.0
  0
SPLINE
  5
465
100
AcDbEntity
  8
0
100
AcDbSpline
 62
7
  6
CONTINUOUS
 70
0
 71
3
 72
41
 73
37
 74
0
 42
0.0000001
 43
0.0000001
 44
0.0000000001
 40
0.0
 40
0.0
 40
0.0
 40
0.0
 40
0.031144444
 40
0.0624425093
 40
0.0938872508
 40
0.1254695847
 40
0.1571771078
 40
0.1889951283
 40
0.2209066801
 40
0.2528929859
 40
0.2849338014
 40
0.3170078274
 40
0.3490931225
 40
0.3811675283
 40
0.4132090962
 40
0.4451965119
 40
0.4771095115
 40
0.5089292827
 40
0.5406388458
 40
0.5722234075
 40
0.6036706813
 40
0.6349711679
 40
0.6661183875
 40
0.6971090579
 40
0.7279432122
 40
0.7586242475
 40
0.7891589026
 40
0.8195571573
 40
0.8498320547
 40
0.8649308931
 40
0.8800050545
 40
0.9100832586
 40
0.9400926739
 40
0.9550812746
 40
0.9700610358
 40
1.0
 40
1.0
 40
1.0
 40
1.0
 10
11.5596286883
 20
9.6760443614
 30
0.0
 10
11.5563147367
 20
9.6762741847
 30
0.0
 10
11.549684845
 20
9.6769775439
 30
0.0
 10
11.539820398
 20
9.6787492768
 30
0.0
 10
11.5300615897
 20
9.6812310027
 30
0.0
 10
11.5204611711
 20
9.6844092905
 30
0.0
 10
11.5110701106
 20
9.6882671621
 30
0.0
 10
11.501938513
 20
9.6927839523
 30
0.0
 10
11.493115022
 20
9.6979355358
 30
0.0
 10
11.4846466541
 20
9.7036944015
 30
0.0
 10
11.4765785291
 20
9.7100298222
 30
0.0
 10
11.468953637
 20
9.7169080077
 30
0.0
 10
11.4618126111
 20
9.7242922873
 30
0.0
 10
11.4551935133
 20
9.7321433022
 30
0.0
 10
11.4491316338
 20
9.7404192135
 30
0.0
 10
11.4436593042
 20
9.7490759227
 30
0.0
 10
11.4388057268
 20
9.7580673046
 30
0.0
 10
11.4345968196
 20
9.7673454495
 30
0.0
 10
11.4310550788
 20
9.7768609157
 30
0.0
 10
11.4281994586
 20
9.7865629897
 30
0.0
 10
11.4260452694
 20
9.7963999526
 30
0.0
 10
11.4246040947
 20
9.806319352
 30
0.0
 10
11.4238837269
 20
9.8162682786
 30
0.0
 10
11.4238881208
 20
9.8261936424
 30
0.0
 10
11.4246173737
 20
9.8360424632
 30
0.0
 10
11.4260676992
 20
9.8457621126
 30
0.0
 10
11.4282315135
 20
9.8553007372
 30
0.0
 10
11.4310972057
 20
9.8646070071
 30
0.0
 10
11.4340608057
 20
9.8721352348
 30
0.0
 10
11.4367652505
 20
9.8779895926
 30
0.0
 10
11.4396838559
 20
9.8837166623
 30
0.0
 10
11.4437361812
 20
9.8906438489
 30
0.0
 10
11.4483097073
 20
9.8972275098
 30
0.0
 10
11.4522618814
 20
9.9022599144
 30
0.0
 10
11.4564026227
 20
9.9071280333
 30
0.0
 10
11.4597200617
 20
9.9105937319
 30
0.0
 10
11.4620168821
 20
9.9128122881
 30
0.0
  0
SPLINE
  5
466
100
AcDbEntity
  8
0
100
AcDbSpline
 62
7
  6
CONTINUOUS
 70
0
 71
3
 72
32
 73
28
 74
0
 42
0.0000001
 43
0.0000001
 44
0.0000000001
 40
0.0
 40
0.0
 40
0.0
 40
0.0
 40
0.0165871034
 40
0.0341537877
 40
0.0527303508
 40
0.0723387813
 40
0.0929934762
 40
0.1147029556
 40
0.1374701532
 40
0.1612937248
 40
0.186168089
 40
0.2120844216
 40
0.2390305848
 40
0.2669918729
 40
0.2959509208
 40
0.3258882436
 40
0.3567821809
 40
0.3886092592
 40
0.4213442018
 40
0.4549601395
 40
0.5247185182
 40
0.5976428349
 40
0.6734701755
 40
0.7519205052
 40
0.8326991697
 40
0.9154982754
 40
1.0
 40
1.0
 40
1.0
 40
1.0
 10
9.6400787885
 20
6.4971031735
 30
0.0
 10
9.6411969437
 20
6.4960626133
 30
0.0
 10
9.6435685842
 20
6.4939936657
 30
0.0
 10
9.6474010898
 20
6.4910087588
 30
0.0
 10
9.6516045719
 20
6.4880578999
 30
0.0
 10
9.6561746263
 20
6.4851442336
 30
0.0
 10
9.6611066196
 20
6.4822705099
 30
0.0
 10
9.6663955317
 20
6.4794397408
 30
0.0
 10
9.6720359056
 20
6.4766547421
 30
0.0
 10
9.6780219443
 20
6.4739184702
 30
0.0
 10
9.6843474306
 20
6.4712337062
 30
0.0
 10
9.6910058081
 20
6.4686033164
 30
0.0
 10
9.697990133
 20
6.4660300082
 30
0.0
 10
9.705293126
 20
6.4635165295
 30
0.0
 10
9.7129071513
 20
6.4610654901
 30
0.0
 10
9.7208242463
 20
6.4586795006
 30
0.0
 10
9.7290361196
 20
6.456361054
 30
0.0
 10
9.7375341634
 20
6.454112615
 30
0.0
 10
9.7463094776
 20
6.4519365252
 30
0.0
 10
9.7585182513
 20
6.4490996336
 30
0.0
 10
9.77440804
 20
6.4457614275
 30
0.0
 10
9.7942004201
 20
6.4421261044
 30
0.0
 10
9.8148627749
 20
6.4388290497
 30
0.0
 10
9.8363083565
 20
6.4358842565
 30
0.0
 10
9.858447242
 20
6.4333042628
 30
0.0
 10
9.8811864302
 20
6.431100021
 30
0.0
 10
9.8965464082
 20
6.429897929
 30
0.0
 10
9.9043091283
 20
6.4293595826
 30
0.0
  0
SPLINE
  5
467
100
AcDbEntity
  8
0
100
AcDbSpline
 62
7
  6
CONTINUOUS
 70
0
 71
3
 72
19
 73
15
 74
0
 42
0.0000001
 43
0.0000001
 44
0.0000000001
 40
0.0
 40
0.0
 40
0.0
 40
0.0
 40
0.0616584454
 40
0.1233399317
 40
0.185067215
 40
0.2468625626
 40
0.3087474945
 40
0.3707425066
 40
0.4328668994
 40
0.4951385746
 40
0.6201443393
 40
0.7459117862
 40
0.8725152911
 40
1.0
 40
1.0
 40
1.0
 40
1.0
 10
9.9069829024
 20
9.8320823842
 30
0.0
 10
9.9054062041
 20
9.8305594119
 30
0.0
 10
9.9021696137
 20
9.8275971008
 30
0.0
 10
9.8970819427
 20
9.8234201365
 30
0.0
 10
9.891773332
 20
9.8195192811
 30
0.0
 10
9.8862573783
 20
9.8159044842
 30
0.0
 10
9.8805478831
 20
9.8125848486
 30
0.0
 10
9.8746593193
 20
9.809568744
 30
0.0
 10
9.8686063172
 20
9.806863661
 30
0.0
 10
9.8603280772
 20
9.8036772282
 30
0.0
 10
9.8496370698
 20
9.8005048544
 30
0.0
 10
9.8364246129
 20
9.7980402502
 30
0.0
 10
9.82294243
 20
9.7969350367
 30
0.0
 10
9.8138926681
 20
9.7971115656
 30
0.0
 10
9.8093710963
 20
9.7974251376
 30
0.0
  0
SPLINE
  5
468
100
AcDbEntity
  8
0
100
AcDbSpline
 62
7
  6
CONTINUOUS
 70
0
 71
3
 72
19
 73
15
 74
0
 42
0.0000001
 43
0.0000001
 44
0.0000000001
 40
0.0
 40
0.0
 40
0.0
 40
0.0
 40
0.0616584454
 40
0.1233399317
 40
0.185067215
 40
0.2468625626
 40
0.3087474945
 40
0.3707425066
 40
0.4328668994
 40
0.4951385746
 40
0.6201443393
 40
0.7459117862
 40
0.8725152911
 40
1.0
 40
1.0
 40
1.0
 40
1.0
 10
9.9069829024
 20
7.7794897665
 30
0.0
 10
9.9054062041
 20
7.7779667943
 30
0.0
 10
9.9021696137
 20
7.7750044832
 30
0.0
 10
9.8970819427
 20
7.7708275188
 30
0.0
 10
9.891773332
 20
7.7669266635
 30
0.0
 10
9.8862573783
 20
7.7633118666
 30
0.0
 10
9.8805478831
 20
7.759992231
 30
0.0
 10
9.8746593193
 20
7.7569761264
 30
0.0
 10
9.8686063172
 20
7.7542710433
 30
0.0
 10
9.8603280772
 20
7.7510846106
 30
0.0
 10
9.8496370698
 20
7.7479122367
 30
0.0
 10
9.8364246129
 20
7.7454476326
 30
0.0
 10
9.82294243
 20
7.744342419
 30
0.0
 10
9.8138926681
 20
7.7445189479
 30
0.0
 10
9.8093710963
 20
7.74483252
 30
0.0
  0
SPLINE
  5
469
100
AcDbEntity
  8
0
100
AcDbSpline
 62
7
  6
CONTINUOUS
 70
0
 71
3
 72
19
 73
15
 74
0
 42
0.0000001
 43
0.0000001
 44
0.0000000001
 40
0.0
 40
0.0
 40
0.0
 40
0.0
 40
0.0616584454
 40
0.1233399317
 40
0.185067215
 40
0.2468625626
 40
0.3087474945
 40
0.3707425066
 40
0.4328668994
 40
0.4951385746
 40
0.6201443393
 40
0.7459117862
 40
0.8725152911
 40
1.0
 40
1.0
 40
1.0
 40
1.0
 10
11.6572404944
 20
7.6581089903
 30
0.0
 10
11.6556637961
 20
7.656586018
 30
0.0
 10
11.6524272057
 20
7.6536237069
 30
0.0
 10
11.6473395347
 20
7.6494467426
 30
0.0
 10
11.642030924
 20
7.6455458872
 30
0.0
 10
11.6365149703
 20
7.6419310903
 30
0.0
 10
11.6308054752
 20
7.6386114547
 30
0.0
 10
11.6249169113
 20
7.6355953501
 30
0.0
 10
11.6188639092
 20
7.6328902671
 30
0.0
 10
11.6105856693
 20
7.6297038343
 30
0.0
 10
11.5998946618
 20
7.6265314604
 30
0.0
 10
11.5866822049
 20
7.6240668563
 30
0.0
 10
11.573200022
 20
7.6229616428
 30
0.0
 10
11.5641502602
 20
7.6231381717
 30
0.0
 10
11.5596286883
 20
7.6234517437
 30
0.0
  0
SPLINE
  5
46A
100
AcDbEntity
  8
0
100
AcDbSpline
 62
7
  6
CONTINUOUS
 70
0
 71
3
 72
19
 73
15
 74
0
 42
0.0000001
 43
0.0000001
 44
0.0000000001
 40
0.0
 40
0.0
 40
0.0
 40
0.0
 40
0.0616584454
 40
0.1233399317
 40
0.185067215
 40
0.2468625626
 40
0.3087474945
 40
0.3707425066
 40
0.4328668994
 40
0.4951385746
 40
0.6201443393
 40
0.7459117862
 40
0.8725152911
 40
1.0
 40
1.0
 40
1.0
 40
1.0
 10
11.6572404944
 20
9.7107016079
 30
0.0
 10
11.6556637961
 20
9.7091786356
 30
0.0
 10
11.6524272057
 20
9.7062163246
 30
0.0
 10
11.6473395347
 20
9.7020393602
 30
0.0
 10
11.642030924
 20
9.6981385048
 30
0.0
 10
11.6365149703
 20
9.6945237079
 30
0.0
 10
11.6308054752
 20
9.6912040723
 30
0.0
 10
11.6249169113
 20
9.6881879677
 30
0.0
 10
11.6188639092
 20
9.6854828847
 30
0.0
 10
11.6105856693
 20
9.682296452
 30
0.0
 10
11.5998946618
 20
9.6791240781
 30
0.0
 10
11.5866822049
 20
9.676659474
 30
0.0
 10
11.573200022
 20
9.6755542604
 30
0.0
 10
11.5641502602
 20
9.6757307893
 30
0.0
 10
11.5596286883
 20
9.6760443614
 30
0.0
  0
SPLINE
  5
46B
100
AcDbEntity
  8
0
100
AcDbSpline
 62
7
  6
CONTINUOUS
 70
0
 71
3
 72
41
 73
37
 74
0
 42
0.0000001
 43
0.0000001
 44
0.0000000001
 40
0.0
 40
0.0
 40
0.0
 40
0.0
 40
0.031144444
 40
0.0624425093
 40
0.0938872508
 40
0.1254695847
 40
0.1571771078
 40
0.1889951283
 40
0.2209066801
 40
0.2528929859
 40
0.2849338014
 40
0.3170078274
 40
0.3490931225
 40
0.3811675283
 40
0.4132090962
 40
0.4451965119
 40
0.4771095115
 40
0.5089292827
 40
0.5406388458
 40
0.5722234075
 40
0.6036706813
 40
0.6349711679
 40
0.6661183875
 40
0.6971090579
 40
0.7279432122
 40
0.7586242475
 40
0.7891589026
 40
0.8195571573
 40
0.8498320547
 40
0.8649308931
 40
0.8800050545
 40
0.9100832586
 40
0.9400926739
 40
0.9550812746
 40
0.9700610358
 40
1.0
 40
1.0
 40
1.0
 40
1.0
 10
11.5596286883
 20
7.6234517437
 30
0.0
 10
11.5563147367
 20
7.6236815671
 30
0.0
 10
11.549684845
 20
7.6243849263
 30
0.0
 10
11.539820398
 20
7.6261566592
 30
0.0
 10
11.5300615897
 20
7.6286383851
 30
0.0
 10
11.5204611711
 20
7.6318166729
 30
0.0
 10
11.5110701106
 20
7.6356745444
 30
0.0
 10
11.501938513
 20
7.6401913347
 30
0.0
 10
11.493115022
 20
7.6453429182
 30
0.0
 10
11.4846466541
 20
7.6511017839
 30
0.0
 10
11.4765785291
 20
7.6574372046
 30
0.0
 10
11.468953637
 20
7.6643153901
 30
0.0
 10
11.4618126111
 20
7.6716996697
 30
0.0
 10
11.4551935133
 20
7.6795506846
 30
0.0
 10
11.4491316338
 20
7.6878265958
 30
0.0
 10
11.4436593042
 20
7.6964833051
 30
0.0
 10
11.4388057268
 20
7.705474687
 30
0.0
 10
11.4345968196
 20
7.7147528318
 30
0.0
 10
11.4310550788
 20
7.7242682981
 30
0.0
 10
11.4281994586
 20
7.7339703721
 30
0.0
 10
11.4260452694
 20
7.743807335
 30
0.0
 10
11.4246040947
 20
7.7537267343
 30
0.0
 10
11.4238837269
 20
7.763675661
 30
0.0
 10
11.4238881208
 20
7.7736010248
 30
0.0
 10
11.4246173737
 20
7.7834498455
 30
0.0
 10
11.4260676992
 20
7.793169495
 30
0.0
 10
11.4282315135
 20
7.8027081196
 30
0.0
 10
11.4310972057
 20
7.8120143895
 30
0.0
 10
11.4340608057
 20
7.8195426171
 30
0.0
 10
11.4367652505
 20
7.825396975
 30
0.0
 10
11.4396838559
 20
7.8311240447
 30
0.0
 10
11.4437361812
 20
7.8380512313
 30
0.0
 10
11.4483097073
 20
7.8446348921
 30
0.0
 10
11.4522618814
 20
7.8496672968
 30
0.0
 10
11.4564026227
 20
7.8545354157
 30
0.0
 10
11.4597200617
 20
7.8580011143
 30
0.0
 10
11.4620168821
 20
7.8602196705
 30
0.0
  0
SPLINE
  5
46C
100
AcDbEntity
  8
0
100
AcDbSpline
 62
7
  6
CONTINUOUS
 70
0
 71
3
 72
49
 73
45
 74
0
 42
0.0000001
 43
0.0000001
 44
0.0000000001
 40
0.0
 40
0.0
 40
0.0
 40
0.0
 40
0.0240671433
 40
0.0480780089
 40
0.0719651694
 40
0.0956098653
 40
0.118817579
 40
0.141301281
 40
0.1627035334
 40
0.1826830743
 40
0.2177231264
 40
0.2329372609
 40
0.2468899221
 40
0.2598245926
 40
0.2719608681
 40
0.2834827605
 40
0.2945404442
 40
0.3052531706
 40
0.3157160327
 40
0.326006232
 40
0.3361845928
 40
0.3463023777
 40
0.3564003307
 40
0.3766695904
 40
0.3972165413
 40
0.4182084262
 40
0.4397798526
 40
0.4620456359
 40
0.4851088344
 40
0.5090674885
 40
0.5340181461
 40
0.5600601894
 40
0.5872973428
 40
0.6158413318
 40
0.645812848
 40
0.6773428787
 40
0.7105731078
 40
0.7456529203
 40
0.782732294
 40
0.821946333
 40
0.8633846146
 40
0.9070389423
 40
0.9527265989
 40
1.0
 40
1.0
 40
1.0
 40
1.0
 10
10.1535853052
 20
9.8137459842
 30
0.0
 10
10.1542595331
 20
9.815885487
 30
0.0
 10
10.1556849597
 20
9.8201352214
 30
0.0
 10
10.1580568144
 20
9.8264112046
 30
0.0
 10
10.1606571409
 20
9.8325535372
 30
0.0
 10
10.1634753581
 20
9.8385164609
 30
0.0
 10
10.1664895144
 20
9.8442356188
 30
0.0
 10
10.1696610902
 20
9.8496280087
 30
0.0
 10
10.172934599
 20
9.8546034931
 30
0.0
 10
10.1771664378
 20
9.8603358439
 30
0.0
 10
10.1814869118
 20
9.8652787935
 30
0.0
 10
10.1858411411
 20
9.8693889771
 30
0.0
 10
10.1888550852
 20
9.8719057968
 30
0.0
 10
10.1917823555
 20
9.8740681483
 30
0.0
 10
10.1946390741
 20
9.8759347875
 30
0.0
 10
10.1974422029
 20
9.8775542079
 30
0.0
 10
10.2002071757
 20
9.8789656325
 30
0.0
 10
10.2029477427
 20
9.8801994416
 30
0.0
 10
10.2056755617
 20
9.8812793262
 30
0.0
 10
10.208400134
 20
9.8822245078
 30
0.0
 10
10.2111299376
 20
9.8830489443
 30
0.0
 10
10.2138715695
 20
9.8837649927
 30
0.0
 10
10.217555031
 20
9.8845873434
 30
0.0
 10
10.2222362233
 20
9.8853874649
 30
0.0
 10
10.2279656984
 20
9.8860164864
 30
0.0
 10
10.2338415804
 20
9.8863425514
 30
0.0
 10
10.2398861757
 20
9.8863811244
 30
0.0
 10
10.2461190589
 20
9.8861405494
 30
0.0
 10
10.2525580492
 20
9.8856220063
 30
0.0
 10
10.2592202094
 20
9.8848227201
 30
0.0
 10
10.2661225808
 20
9.8837354129
 30
0.0
 10
10.2732824439
 20
9.8823482825
 30
0.0
 10
10.2807180487
 20
9.8806464469
 30
0.0
 10
10.2884484315
 20
9.8786100104
 30
0.0
 10
10.2964937538
 20
9.8762149767
 30
0.0
 10
10.3048750344
 20
9.8734325384
 30
0.0
 10
10.3136133792
 20
9.8702284072
 30
0.0
 10
10.3227285777
 20
9.8665629259
 30
0.0
 10
10.3322361698
 20
9.8623914753
 30
0.0
 10
10.3421421977
 20
9.8576662908
 30
0.0
 10
10.3524344325
 20
9.852340969
 30
0.0
 10
10.3630693883
 20
9.8463791598
 30
0.0
 10
10.3739557647
 20
9.8397690773
 30
0.0
 10
10.3811962456
 20
9.8350054592
 30
0.0
 10
10.3848312563
 20
9.8325152047
 30
0.0
  0
SPLINE
  5
46D
100
AcDbEntity
  8
0
100
AcDbSpline
 62
7
  6
CONTINUOUS
 70
0
 71
3
 72
95
 73
91
 74
0
 42
0.0000001
 43
0.0000001
 44
0.0000000001
 40
0.0
 40
0.0
 40
0.0
 40
0.0
 40
0.0041939594
 40
0.0085762782
 40
0.0131520573
 40
0.0179256173
 40
0.0229004891
 40
0.0280792353
 40
0.0334636269
 40
0.0390547837
 40
0.0448532429
 40
0.0508590315
 40
0.0570716617
 40
0.0634902595
 40
0.0701135134
 40
0.0769398105
 40
0.09119284
 40
0.1062306851
 40
0.1220299823
 40
0.1385637575
 40
0.1558018515
 40
0.1737112679
 40
0.1922564673
 40
0.2113996207
 40
0.2311008356
 40
0.2513183603
 40
0.272008772
 40
0.2931271544
 40
0.3146272662
 40
0.3364617034
 40
0.3585820579
 40
0.380939072
 40
0.4034827908
 40
0.4261627133
 40
0.448927942
 40
0.4717273316
 40
0.4945096381
 40
0.5172236671
 40
0.539818422
 40
0.5622432532
 40
0.5844480073
 40
0.6063831771
 40
0.6280000543
 40
0.6492508828
 40
0.6700890155
 40
0.690469076
 40
0.710347124
 40
0.7296808303
 40
0.748429661
 40
0.7665550762
 40
0.7840207471
 40
0.8007927993
 40
0.816840092
 40
0.8321345465
 40
0.8466515423
 40
0.8536121205
 40
0.860370937
 40
0.8669261464
 40
0.8732762126
 40
0.8794199799
 40
0.8853566932
 40
0.8910860295
 40
0.8966081824
 40
0.9019238591
 40
0.9070344273
 40
0.9119418968
 40
0.9166491158
 40
0.9211597694
 40
0.9254786037
 40
0.9296114746
 40
0.9335655778
 40
0.9373495665
 40
0.9409737611
 40
0.9477890579
 40
0.9510148461
 40
0.9541417235
 40
0.9571900969
 40
0.9601821554
 40
0.9631415091
 40
0.9660926235
 40
0.9690601892
 40
0.9720684542
 40
0.9751406083
 40
0.9782982941
 40
0.9815612373
 40
0.98494706
 40
0.9884713247
 40
0.992147593
 40
0.9959873756
 40
1.0
 40
1.0
 40
1.0
 40
1.0
 10
10.448456338
 20
10.7892067413
 30
0.0
 10
10.4496923173
 20
10.7904006058
 30
0.0
 10
10.4522812444
 20
10.7927789617
 30
0.0
 10
10.4564102812
 20
10.7962441664
 30
0.0
 10
10.4608661905
 20
10.7996818178
 30
0.0
 10
10.4656460828
 20
10.8030898112
 30
0.0
 10
10.4707472224
 20
10.8064662265
 30
0.0
 10
10.4761666025
 20
10.809809157
 30
0.0
 10
10.4819010299
 20
10.8131166168
 30
0.0
 10
10.4879470925
 20
10.8163866424
 30
0.0
 10
10.4943011916
 20
10.8196173139
 30
0.0
 10
10.5009595565
 20
10.822806679
 30
0.0
 10
10.5079182058
 20
10.8259528753
 30
0.0
 10
10.5151729934
 20
10.8290539571
 30
0.0
 10
10.5227195764
 20
10.8321081494
 30
0.0
 10
10.5333177342
 20
10.8361739238
 30
0.0
 10
10.5472707503
 20
10.8411130862
 30
0.0
 10
10.5648699242
 20
10.8467424167
 30
0.0
 10
10.5835155165
 20
10.8521426129
 30
0.0
 10
10.603162792
 20
10.8573005855
 30
0.0
 10
10.6237647768
 20
10.8622038195
 30
0.0
 10
10.6452720604
 20
10.8668404141
 30
0.0
 10
10.6676330242
 20
10.8711991156
 30
0.0
 10
10.6907939498
 20
10.8752693471
 30
0.0
 10
10.714699165
 20
10.8790412343
 30
0.0
 10
10.7392911819
 20
10.8825056289
 30
0.0
 10
10.7645108414
 20
10.8856541313
 30
0.0
 10
10.7902974587
 20
10.8884791097
 30
0.0
 10
10.8165889728
 20
10.8909737182
 30
0.0
 10
10.8433220979
 20
10.8931319131
 30
0.0
 10
10.870432478
 20
10.8949484664
 30
0.0
 10
10.8978548428
 20
10.8964189786
 30
0.0
 10
10.9255231668
 20
10.8975398887
 30
0.0
 10
10.9533708287
 20
10.8983084822
 30
0.0
 10
10.9813307733
 20
10.8987228982
 30
0.0
 10
11.0093356733
 20
10.8987821333
 30
0.0
 10
11.0373180928
 20
10.8984860443
 30
0.0
 10
11.0652106504
 20
10.8978353482
 30
0.0
 10
11.0929461822
 20
10.8968316207
 30
0.0
 10
11.1204579046
 20
10.895477292
 30
0.0
 10
11.1476795755
 20
10.8937756417
 30
0.0
 10
11.1745456554
 20
10.8917307908
 30
0.0
 10
11.2009914659
 20
10.8893476922
 30
0.0
 10
11.226953347
 20
10.8866321193
 30
0.0
 10
11.2523688122
 20
10.8835906519
 30
0.0
 10
11.277176701
 20
10.8802306618
 30
0.0
 10
11.301317329
 20
10.8765602948
 30
0.0
 10
11.324732635
 20
10.8725884515
 30
0.0
 10
11.3473663262
 20
10.8683247673
 30
0.0
 10
11.3691640177
 20
10.863779588
 30
0.0
 10
11.3900733781
 20
10.8589639451
 30
0.0
 10
11.4100442401
 20
10.8538895267
 30
0.0
 10
11.4290288238
 20
10.8485686479
 30
0.0
 10
11.4469815592
 20
10.8430142074
 30
0.0
 10
11.4612397918
 20
10.8381361943
 30
0.0
 10
11.4720893434
 20
10.8341173192
 30
0.0
 10
11.4798279636
 20
10.8310954518
 30
0.0
 10
11.4872777764
 20
10.8280254505
 30
0.0
 10
11.4944343295
 20
10.8249091127
 30
0.0
 10
11.5012933426
 20
10.8217483214
 30
0.0
 10
11.5078507249
 20
10.8185449759
 30
0.0
 10
11.5141025592
 20
10.8153009654
 30
0.0
 10
11.5200451404
 20
10.8120182587
 30
0.0
 10
11.5256749195
 20
10.8086987482
 30
0.0
 10
11.5309885884
 20
10.8053444513
 30
0.0
 10
11.5359829732
 20
10.8019572577
 30
0.0
 10
11.540655164
 20
10.7985392021
 30
0.0
 10
11.5450023682
 20
10.7950921644
 30
0.0
 10
11.5490220513
 20
10.7916181645
 30
0.0
 10
11.5527118191
 20
10.7881190302
 30
0.0
 10
11.5560693879
 20
10.7845968545
 30
0.0
 10
11.5590930133
 20
10.7810529615
 30
0.0
 10
11.5626036622
 20
10.7763985153
 30
0.0
 10
11.5655419662
 20
10.7716056106
 30
0.0
 10
11.5678074
 20
10.7667034228
 30
0.0
 10
11.5691328208
 20
10.7630816596
 30
0.0
 10
11.5701138632
 20
10.7594507509
 30
0.0
 10
11.570749302
 20
10.7558130278
 30
0.0
 10
11.5710383699
 20
10.7521713566
 30
0.0
 10
11.5709805273
 20
10.7485286749
 30
0.0
 10
11.5705759714
 20
10.7448879971
 30
0.0
 10
11.5698251947
 20
10.7412522457
 30
0.0
 10
11.5687292499
 20
10.7376241263
 30
0.0
 10
11.5672893909
 20
10.7340061183
 30
0.0
 10
11.565507126
 20
10.7304004689
 30
0.0
 10
11.563384094
 20
10.7268092093
 30
0.0
 10
11.5609219103
 20
10.7232342768
 30
0.0
 10
11.5581223099
 20
10.7196774614
 30
0.0
 10
11.5549872951
 20
10.7161408636
 30
0.0
 10
11.5527262011
 20
10.7138496207
 30
0.0
 10
11.551543662
 20
10.7127073756
 30
0.0
  0
SPLINE
  5
46E
100
AcDbEntity
  8
0
100
AcDbSpline
 62
7
  6
CONTINUOUS
 70
0
 71
3
 72
31
 73
27
 74
0
 42
0.0000001
 43
0.0000001
 44
0.0000000001
 40
0.0
 40
0.0
 40
0.0
 40
0.0
 40
0.0606401455
 40
0.1216522417
 40
0.1830427756
 40
0.2448103608
 40
0.3069463891
 40
0.3694346494
 40
0.4322500046
 40
0.4953556785
 40
0.558700255
 40
0.6222123023
 40
0.6540149047
 40
0.6858223139
 40
0.7176181345
 40
0.7493841382
 40
0.7811004565
 40
0.8127459451
 40
0.8442987817
 40
0.860036342
 40
0.8757428289
 40
0.9070467389
 40
0.9381983524
 40
0.9537153357
 40
0.9691898338
 40
1.0
 40
1.0
 40
1.0
 40
1.0
 10
10.8113328235
 20
9.0729405628
 30
0.0
 10
10.8040828221
 20
9.0714208068
 30
0.0
 10
10.7893815125
 20
9.069076808
 30
0.0
 10
10.7670402923
 20
9.0676140884
 30
0.0
 10
10.7445194155
 20
9.0681654504
 30
0.0
 10
10.7219993726
 20
9.0707140995
 30
0.0
 10
10.6996572762
 20
9.0752517685
 30
0.0
 10
10.677678697
 20
9.0817784364
 30
0.0
 10
10.6562644458
 20
9.09029952
 30
0.0
 10
10.6356385922
 20
9.100822464
 30
0.0
 10
10.6160595412
 20
9.1133474977
 30
0.0
 10
10.6008637153
 20
9.1254427452
 30
0.0
 10
10.5895506402
 20
9.1360904611
 30
0.0
 10
10.5815314785
 20
9.1445568393
 30
0.0
 10
10.5740348287
 20
9.1534836768
 30
0.0
 10
10.5671140885
 20
9.1628510664
 30
0.0
 10
10.5608248627
 20
9.1726326777
 30
0.0
 10
10.5552236202
 20
9.182794606
 30
0.0
 10
10.5511715035
 20
9.1915543991
 30
0.0
 10
10.5483291264
 20
9.1987073727
 30
0.0
 10
10.5457659087
 20
9.2059328007
 30
0.0
 10
10.5430882877
 20
9.2151080986
 30
0.0
 10
10.5411437939
 20
9.2244433324
 30
0.0
 10
10.5400488535
 20
9.2319570913
 30
0.0
 10
10.5392658475
 20
9.2394673086
 30
0.0
 10
10.5390278775
 20
9.2451248589
 30
0.0
 10
10.5390278775
 20
9.2488885148
 30
0.0
  0
SPLINE
  5
46F
100
AcDbEntity
  8
0
100
AcDbSpline
 62
7
  6
CONTINUOUS
 70
0
 71
3
 72
41
 73
37
 74
0
 42
0.0000001
 43
0.0000001
 44
0.0000000001
 40
0.0
 40
0.0
 40
0.0
 40
0.0
 40
0.0311997943
 40
0.0625819777
 40
0.0941364716
 40
0.1258486787
 40
0.1577002531
 40
0.1896698832
 40
0.2217340447
 40
0.2538676987
 40
0.2860449201
 40
0.3182394475
 40
0.3504251741
 40
0.3825765854
 40
0.4146691568
 40
0.4466797254
 40
0.4785868506
 40
0.5103711747
 40
0.5420157929
 40
0.5735066414
 40
0.6048329025
 40
0.6204350382
 40
0.6359937226
 40
0.6669734233
 40
0.697779693
 40
0.7131230281
 40
0.7284257617
 40
0.7589087229
 40
0.7892519059
 40
0.8194765602
 40
0.8496085341
 40
0.8796776232
 40
0.9097166161
 40
0.9397602238
 40
0.9698430709
 40
1.0
 40
1.0
 40
1.0
 40
1.0
 10
11.3300627359
 20
8.6225829077
 30
0.0
 10
11.3251084293
 20
8.6227777115
 30
0.0
 10
11.3151828121
 20
8.6236017855
 30
0.0
 10
11.300416689
 20
8.6261028782
 30
0.0
 10
11.2858296397
 20
8.6298408506
 30
0.0
 10
11.271524708
 20
8.6347751422
 30
0.0
 10
11.2575976248
 20
8.6408579655
 30
0.0
 10
11.2441388993
 20
8.6480353009
 30
0.0
 10
11.2312330621
 20
8.6562479176
 30
0.0
 10
11.2189588844
 20
8.6654322211
 30
0.0
 10
11.2073894849
 20
8.6755209577
 30
0.0
 10
11.1965925772
 20
8.6864437766
 30
0.0
 10
11.1866307239
 20
8.6981276344
 30
0.0
 10
11.177561594
 20
8.7104970667
 30
0.0
 10
11.1694381876
 20
8.7234743447
 30
0.0
 10
11.1623090076
 20
8.736979527
 30
0.0
 10
11.1562181568
 20
8.7509304588
 30
0.0
 10
11.1512053475
 20
8.7652426256
 30
0.0
 10
11.1473057939
 20
8.7798293163
 30
0.0
 10
11.1445500294
 20
8.7946005243
 30
0.0
 10
11.1432260643
 20
8.8070062121
 30
0.0
 10
11.1427640501
 20
8.8169279523
 30
0.0
 10
11.142701576
 20
8.826805178
 30
0.0
 10
11.1433722225
 20
8.8390927575
 30
0.0
 10
11.1450552848
 20
8.8512492461
 30
0.0
 10
11.1470085313
 20
8.8608203594
 30
0.0
 10
11.1493578096
 20
8.870248984
 30
0.0
 10
11.1530439632
 20
8.8817894409
 30
0.0
 10
11.1586561856
 20
8.8951466103
 30
0.0
 10
11.1654248358
 20
8.9078948269
 30
0.0
 10
11.1733115421
 20
8.9199318148
 30
0.0
 10
11.1822671371
 20
8.9311592059
 30
0.0
 10
11.1922310267
 20
8.9414831079
 30
0.0
 10
11.2031320439
 20
8.9508163533
 30
0.0
 10
11.2148866385
 20
8.9590791772
 30
0.0
 10
11.2232217007
 20
8.9638222668
 30
0.0
 10
11.2274944003
 20
8.9659927983
 30
0.0
  0
SPLINE
  5
470
100
AcDbEntity
  8
0
100
AcDbSpline
 62
7
  6
CONTINUOUS
 70
0
 71
3
 72
40
 73
36
 74
0
 42
0.0000001
 43
0.0000001
 44
0.0000000001
 40
0.0
 40
0.0
 40
0.0
 40
0.0
 40
0.0958313936
 40
0.1891002636
 40
0.2345968559
 40
0.2792418231
 40
0.3229685191
 40
0.3657121987
 40
0.4074103657
 40
0.4480029213
 40
0.4874324913
 40
0.5256446262
 40
0.5625879545
 40
0.5982146421
 40
0.632480706
 40
0.6653462654
 40
0.6967761768
 40
0.726740613
 40
0.7552155871
 40
0.7821839784
 40
0.8076366943
 40
0.8315738914
 40
0.8540069425
 40
0.8749609194
 40
0.8944774765
 40
0.9126189061
 40
0.9294731629
 40
0.9451593854
 40
0.9598338584
 40
0.9668558876
 40
0.9737029112
 40
0.9804063068
 40
0.9869997133
 40
0.9935186461
 40
1.0
 40
1.0
 40
1.0
 40
1.0
 10
9.9043091283
 20
10.3539164442
 30
0.0
 10
9.8945418375
 20
10.3545938081
 30
0.0
 10
9.8752825906
 20
10.3561452681
 30
0.0
 10
9.8514416181
 20
10.358633206
 30
0.0
 10
9.8328442734
 20
10.3609316519
 30
0.0
 10
9.8192933207
 20
10.3627860976
 30
0.0
 10
9.8060468636
 20
10.3647822097
 30
0.0
 10
9.7931270078
 20
10.3669166487
 30
0.0
 10
9.7805553462
 20
10.3691858125
 30
0.0
 10
9.7683528812
 20
10.3715859046
 30
0.0
 10
9.7565399851
 20
10.3741128812
 30
0.0
 10
9.7451363701
 20
10.3767624808
 30
0.0
 10
9.734161061
 20
10.3795302655
 30
0.0
 10
9.7236323477
 20
10.3824115769
 30
0.0
 10
9.7135677531
 20
10.3854015558
 30
0.0
 10
9.7039840144
 20
10.3884951968
 30
0.0
 10
9.6948970346
 20
10.3916873103
 30
0.0
 10
9.686321845
 20
10.3949725319
 30
0.0
 10
9.678272596
 20
10.3983453962
 30
0.0
 10
9.6707625069
 20
10.4018003135
 30
0.0
 10
9.6638038205
 20
10.4053315776
 30
0.0
 10
9.6574078084
 20
10.408933475
 30
0.0
 10
9.6515847343
 20
10.4126003056
 30
0.0
 10
9.6463438198
 20
10.4163264114
 30
0.0
 10
9.6416933202
 20
10.4201063926
 30
0.0
 10
9.6376406549
 20
10.4239351036
 30
0.0
 10
9.6341924577
 20
10.4278080375
 30
0.0
 10
9.6313554344
 20
10.4317202865
 30
0.0
 10
9.6294789338
 20
10.4350591684
 30
0.0
 10
9.6283091624
 20
10.4377326098
 30
0.0
 10
9.6276009458
 20
10.4397134226
 30
0.0
 10
9.627049582
 20
10.4416981354
 30
0.0
 10
9.6266554172
 20
10.4436859347
 30
0.0
 10
9.6264188324
 20
10.4456756746
 30
0.0
 10
9.6263661977
 20
10.44700446
 30
0.0
 10
9.6263662012
 20
10.4476666367
 30
0.0
  0
SPLINE
  5
471
100
AcDbEntity
  8
0
100
AcDbSpline
 62
7
  6
CONTINUOUS
 70
0
 71
3
 72
39
 73
35
 74
0
 42
0.0000001
 43
0.0000001
 44
0.0000000001
 40
0.0
 40
0.0
 40
0.0
 40
0.0
 40
0.0316298566
 40
0.0634542045
 40
0.0954481721
 40
0.1275809819
 40
0.1598174073
 40
0.1921195957
 40
0.2244486917
 40
0.2567663482
 40
0.2890360422
 40
0.3212240326
 40
0.3533001737
 40
0.3852385649
 40
0.4170179569
 40
0.44862209
 40
0.4800399723
 40
0.5112660706
 40
0.542300455
 40
0.5731489203
 40
0.6038230339
 40
0.634340102
 40
0.6647230338
 40
0.6950000196
 40
0.7252039586
 40
0.7553716876
 40
0.7855428708
 40
0.8157585109
 40
0.8460592987
 40
0.876483697
 40
0.9070658943
 40
0.9378339829
 40
0.9688079912
 40
1.0
 40
1.0
 40
1.0
 40
1.0
 10
10.7269472341
 20
8.2711379798
 30
0.0
 10
10.7213400455
 20
8.2721196295
 30
0.0
 10
10.7101821146
 20
8.2746533766
 30
0.0
 10
10.693858929
 20
8.2800863301
 30
0.0
 10
10.6780496146
 20
8.2870994014
 30
0.0
 10
10.662909052
 20
8.2956086345
 30
0.0
 10
10.648577297
 20
8.305515754
 30
0.0
 10
10.63518165
 20
8.3167100529
 30
0.0
 10
10.6228350963
 20
8.3290715441
 30
0.0
 10
10.6116363922
 20
8.3424733702
 30
0.0
 10
10.6016702157
 20
8.3567839593
 30
0.0
 10
10.5930079569
 20
8.3718689482
 30
0.0
 10
10.5857085361
 20
8.3875925409
 30
0.0
 10
10.5798192461
 20
8.4038184847
 30
0.0
 10
10.5753767393
 20
8.4204107732
 30
0.0
 10
10.5724078382
 20
8.4372339906
 30
0.0
 10
10.5709301342
 20
8.454153433
 30
0.0
 10
10.5709524287
 20
8.4710350907
 30
0.0
 10
10.5724750038
 20
8.4877455348
 30
0.0
 10
10.5754896072
 20
8.5041517685
 30
0.0
 10
10.5799791325
 20
8.5201211488
 30
0.0
 10
10.5859171609
 20
8.5355214253
 30
0.0
 10
10.5932672984
 20
8.5502209526
 30
0.0
 10
10.6019822871
 20
8.56408917
 30
0.0
 10
10.6120029593
 20
8.5769974724
 30
0.0
 10
10.6232573408
 20
8.5888203701
 30
0.0
 10
10.6356597489
 20
8.5994370746
 30
0.0
 10
10.649110015
 20
8.6087336723
 30
0.0
 10
10.6634933161
 20
8.6166054084
 30
0.0
 10
10.6786804644
 20
8.6229593092
 30
0.0
 10
10.6945284746
 20
8.6277171861
 30
0.0
 10
10.7108832089
 20
8.6308178474
 30
0.0
 10
10.7275782048
 20
8.6322199792
 30
0.0
 10
10.738787216
 20
8.6320091549
 30
0.0
 10
10.7443874338
 20
8.6316207785
 30
0.0
  0
SPLINE
  5
472
100
AcDbEntity
  8
0
100
AcDbSpline
 62
7
  6
CONTINUOUS
 70
0
 71
3
 72
41
 73
37
 74
0
 42
0.0000001
 43
0.0000001
 44
0.0000000001
 40
0.0
 40
0.0
 40
0.0
 40
0.0
 40
0.0071758425
 40
0.0146741453
 40
0.0225035656
 40
0.0306713257
 40
0.0391834036
 40
0.0480443729
 40
0.0572572157
 40
0.0668238661
 40
0.0767452117
 40
0.087021259
 40
0.0976512753
 40
0.1086336553
 40
0.1316452786
 40
0.1560326285
 40
0.1817628121
 40
0.2087958578
 40
0.2370856249
 40
0.2665805114
 40
0.2972240455
 40
0.3289554128
 40
0.3617098907
 40
0.3954192316
 40
0.4300120033
 40
0.4654138991
 40
0.5015480605
 40
0.5383353682
 40
0.5756947176
 40
0.6135432851
 40
0.6517967846
 40
0.6903697386
 40
0.7681261117
 40
0.8461161118
 40
0.923638923
 40
1.0
 40
1.0
 40
1.0
 40
1.0
 10
11.9332179571
 20
10.3136919973
 30
0.0
 10
11.9324062531
 20
10.3129079513
 30
0.0
 10
11.9307060031
 20
10.3113460007
 30
0.0
 10
11.9279942866
 20
10.3090702526
 30
0.0
 10
11.9250678852
 20
10.3068125642
 30
0.0
 10
11.9219287034
 20
10.3045743895
 30
0.0
 10
11.9185785801
 20
10.3023569423
 30
0.0
 10
11.9150194414
 20
10.300161527
 30
0.0
 10
11.9112534067
 20
10.2979893644
 30
0.0
 10
11.9072826961
 20
10.2958417972
 30
0.0
 10
11.9031096839
 20
10.2937200845
 30
0.0
 10
11.8987368591
 20
10.2916254796
 30
0.0
 10
11.8941668086
 20
10.289559248
 30
0.0
 10
11.8877132788
 20
10.2868007018
 30
0.0
 10
11.8791658668
 20
10.2834414501
 30
0.0
 10
11.868322405
 20
10.2796028918
 30
0.0
 10
11.8567641718
 20
10.2759058709
 30
0.0
 10
11.8445188508
 20
10.2723593298
 30
0.0
 10
11.831615639
 20
10.2689718694
 30
0.0
 10
11.8180854375
 20
10.2657517098
 30
0.0
 10
11.8039606856
 20
10.2627066623
 30
0.0
 10
11.7892752902
 20
10.2598441169
 30
0.0
 10
11.7740645278
 20
10.2571710201
 30
0.0
 10
11.7583649575
 20
10.2546938589
 30
0.0
 10
11.7422143324
 20
10.252418645
 30
0.0
 10
11.7256515068
 20
10.2503508912
 30
0.0
 10
11.7087163371
 20
10.2484956077
 30
0.0
 10
11.691449582
 20
10.2468572908
 30
0.0
 10
11.6738927997
 20
10.2454399092
 30
0.0
 10
11.656088264
 20
10.2442469064
 30
0.0
 10
11.6380788062
 20
10.2432811459
 30
0.0
 10
11.6137871264
 20
10.2422971068
 30
0.0
 10
11.5832299799
 20
10.2416516338
 30
0.0
 10
11.5465404962
 20
10.2418063029
 30
0.0
 10
11.5100862115
 20
10.2428868073
 30
0.0
 10
11.4859191184
 20
10.2442314189
 30
0.0
 10
11.473938689
 20
10.2450622644
 30
0.0
  0
SPLINE
  5
473
100
AcDbEntity
  8
0
100
AcDbSpline
 62
7
  6
CONTINUOUS
 70
0
 71
3
 72
22
 73
18
 74
0
 42
0.0000001
 43
0.0000001
 44
0.0000000001
 40
0.0
 40
0.0
 40
0.0
 40
0.0
 40
0.1279962754
 40
0.1916476213
 40
0.2550407733
 40
0.3181708338
 40
0.3810369194
 40
0.4436432654
 40
0.5060004753
 40
0.5681268261
 40
0.6300494696
 40
0.691805285
 40
0.753441147
 40
0.8150131065
 40
0.8765850618
 40
0.9382240075
 40
1.0
 40
1.0
 40
1.0
 40
1.0
 10
10.4981647756
 20
7.9425470068
 30
0.0
 10
10.4990862367
 20
7.9346683739
 30
0.0
 10
10.4998535681
 20
7.922785116
 30
0.0
 10
10.4995320999
 20
7.9069762953
 30
0.0
 10
10.4985976774
 20
7.8952200276
 30
0.0
 10
10.4969458087
 20
7.8835920093
 30
0.0
 10
10.494553789
 20
7.8721422769
 30
0.0
 10
10.4914005986
 20
7.8609272649
 30
0.0
 10
10.4874681918
 20
7.8500088594
 30
0.0
 10
10.4827429936
 20
7.8394547161
 30
0.0
 10
10.4772176861
 20
7.8293377663
 30
0.0
 10
10.4708932027
 20
7.8197352912
 30
0.0
 10
10.4637807071
 20
7.810727303
 30
0.0
 10
10.4559035643
 20
7.8023942317
 30
0.0
 10
10.4472981323
 20
7.7948137896
 30
0.0
 10
10.4380160881
 20
7.7880582227
 30
0.0
 10
10.4314261146
 20
7.7841500507
 30
0.0
 10
10.4280455111
 20
7.7823532249
 30
0.0
  0
SPLINE
  5
474
100
AcDbEntity
  8
0
100
AcDbSpline
 62
7
  6
CONTINUOUS
 70
0
 71
3
 72
41
 73
37
 74
0
 42
0.0000001
 43
0.0000001
 44
0.0000000001
 40
0.0
 40
0.0
 40
0.0
 40
0.0
 40
0.031144444
 40
0.0624425093
 40
0.0938872508
 40
0.1254695847
 40
0.1571771078
 40
0.1889951283
 40
0.2209066801
 40
0.2528929859
 40
0.2849338014
 40
0.3170078274
 40
0.3490931225
 40
0.3811675283
 40
0.4132090962
 40
0.4451965119
 40
0.4771095115
 40
0.5089292827
 40
0.5406388458
 40
0.5722234075
 40
0.6036706813
 40
0.6349711679
 40
0.6661183875
 40
0.6971090579
 40
0.7279432122
 40
0.7586242475
 40
0.7891589026
 40
0.8195571573
 40
0.8498320547
 40
0.8649308931
 40
0.8800050545
 40
0.9100832586
 40
0.9400926739
 40
0.9550812746
 40
0.9700610358
 40
1.0
 40
1.0
 40
1.0
 40
1.0
 10
9.8093710963
 20
9.7974251376
 30
0.0
 10
9.8060571446
 20
9.797654961
 30
0.0
 10
9.799427253
 20
9.7983583202
 30
0.0
 10
9.789562806
 20
9.8001300531
 30
0.0
 10
9.7798039977
 20
9.802611779
 30
0.0
 10
9.7702035791
 20
9.8057900668
 30
0.0
 10
9.7608125186
 20
9.8096479383
 30
0.0
 10
9.751680921
 20
9.8141647286
 30
0.0
 10
9.74285743
 20
9.8193163121
 30
0.0
 10
9.7343890621
 20
9.8250751778
 30
0.0
 10
9.7263209371
 20
9.8314105985
 30
0.0
 10
9.718696045
 20
9.838288784
 30
0.0
 10
9.7115550191
 20
9.8456730636
 30
0.0
 10
9.7049359213
 20
9.8535240785
 30
0.0
 10
9.6988740418
 20
9.8617999897
 30
0.0
 10
9.6934017122
 20
9.870456699
 30
0.0
 10
9.6885481348
 20
9.8794480809
 30
0.0
 10
9.6843392276
 20
9.8887262257
 30
0.0
 10
9.6807974868
 20
9.898241692
 30
0.0
 10
9.6779418666
 20
9.907943766
 30
0.0
 10
9.6757876774
 20
9.9177807289
 30
0.0
 10
9.6743465027
 20
9.9277001282
 30
0.0
 10
9.6736261348
 20
9.9376490549
 30
0.0
 10
9.6736305288
 20
9.9475744187
 30
0.0
 10
9.6743597816
 20
9.9574232394
 30
0.0
 10
9.6758101072
 20
9.9671428889
 30
0.0
 10
9.6779739215
 20
9.9766815135
 30
0.0
 10
9.6808396137
 20
9.9859877834
 30
0.0
 10
9.6838032137
 20
9.993516011
 30
0.0
 10
9.6865076585
 20
9.9993703689
 30
0.0
 10
9.6894262639
 20
10.0050974386
 30
0.0
 10
9.6934785892
 20
10.0120246252
 30
0.0
 10
9.6980521153
 20
10.018608286
 30
0.0
 10
9.7020042894
 20
10.0236406907
 30
0.0
 10
9.7061450307
 20
10.0285088096
 30
0.0
 10
9.7094624697
 20
10.0319745082
 30
0.0
 10
9.7117592901
 20
10.0341930644
 30
0.0
  0
SPLINE
  5
475
100
AcDbEntity
  8
0
100
AcDbSpline
 62
7
  6
CONTINUOUS
 70
0
 71
3
 72
23
 73
19
 74
0
 42
0.0000001
 43
0.0000001
 44
0.0000000001
 40
0.0
 40
0.0
 40
0.0
 40
0.0
 40
0.0638527005
 40
0.1272541072
 40
0.1902428992
 40
0.2528741661
 40
0.3152168275
 40
0.3773456284
 40
0.4393352121
 40
0.5012558194
 40
0.563170605
 40
0.6251342907
 40
0.6871929342
 40
0.7493844184
 40
0.8117392919
 40
0.87428174
 40
0.9370305497
 40
1.0
 40
1.0
 40
1.0
 40
1.0
 10
10.5390278775
 20
9.2488885148
 30
0.0
 10
10.5390278775
 20
9.2535534338
 30
0.0
 10
10.5395132327
 20
9.262857931
 30
0.0
 10
10.5417002036
 20
9.2766084258
 30
0.0
 10
10.5452969107
 20
9.2899677474
 30
0.0
 10
10.5502306112
 20
9.3028087276
 30
0.0
 10
10.5564086973
 20
9.3150276096
 30
0.0
 10
10.5637265803
 20
9.326542378
 30
0.0
 10
10.5720743902
 20
9.3372925741
 30
0.0
 10
10.58134245
 20
9.3472365519
 30
0.0
 10
10.5914251384
 20
9.3563482373
 30
0.0
 10
10.6022232563
 20
9.3646136762
 30
0.0
 10
10.6136451621
 20
9.3720279007
 30
0.0
 10
10.6256070753
 20
9.3785922723
 30
0.0
 10
10.6380327275
 20
9.384312324
 30
0.0
 10
10.6508530256
 20
9.3891961586
 30
0.0
 10
10.6640042321
 20
9.3932529731
 30
0.0
 10
10.6729392227
 20
9.3954090779
 30
0.0
 10
10.6774417538
 20
9.3963529051
 30
0.0
  0
SPLINE
  5
476
100
AcDbEntity
  8
0
100
AcDbSpline
 62
7
  6
CONTINUOUS
 70
0
 71
3
 72
39
 73
35
 74
0
 42
0.0000001
 43
0.0000001
 44
0.0000000001
 40
0.0
 40
0.0
 40
0.0
 40
0.0
 40
0.076104783
 40
0.1533644547
 40
0.2310954084
 40
0.3086074569
 40
0.3852131652
 40
0.4229648022
 40
0.4602372774
 40
0.496948921
 40
0.5330197132
 40
0.5683715705
 40
0.6029286209
 40
0.6366174601
 40
0.6693674365
 40
0.7011109735
 40
0.7317839448
 40
0.7613260091
 40
0.7896810114
 40
0.8167974608
 40
0.8426291454
 40
0.8671358095
 40
0.8902839757
 40
0.9120480183
 40
0.9224060996
 40
0.9324129635
 40
0.942068336
 40
0.9513727683
 40
0.9603278223
 40
0.9689360023
 40
0.9772013001
 40
0.9851291051
 40
0.9927260409
 40
1.0
 40
1.0
 40
1.0
 40
1.0
 10
11.473938689
 20
6.3205054028
 30
0.0
 10
11.4858462862
 20
6.3196796081
 30
0.0
 10
11.5098658583
 20
6.3183412135
 30
0.0
 10
11.5460981599
 20
6.3172588417
 30
0.0
 10
11.5825672039
 20
6.3170911625
 30
0.0
 10
11.6189261678
 20
6.3178398512
 30
0.0
 10
11.6489904717
 20
6.319227839
 30
0.0
 10
11.6727206775
 20
6.3207975318
 30
0.0
 10
11.690190281
 20
6.3221910681
 30
0.0
 10
11.7073763112
 20
6.3238031319
 30
0.0
 10
11.724237927
 20
6.3256298991
 30
0.0
 10
11.7407350245
 20
6.3276669882
 30
0.0
 10
11.756828389
 20
6.329909517
 30
0.0
 10
11.7724797704
 20
6.3323521131
 30
0.0
 10
11.7876519764
 20
6.3349889273
 30
0.0
 10
11.8023089695
 20
6.3378136471
 30
0.0
 10
11.8164159626
 20
6.3408194927
 30
0.0
 10
11.8299395018
 20
6.3439992554
 30
0.0
 10
11.8428475426
 20
6.3473453107
 30
0.0
 10
11.855109546
 20
6.3508496462
 30
0.0
 10
11.8666965464
 20
6.3545038664
 30
0.0
 10
11.8775813307
 20
6.3582992289
 30
0.0
 10
11.8877381896
 20
6.3622266816
 30
0.0
 10
11.8957023565
 20
6.3656561217
 30
0.0
 10
11.9016829272
 20
6.368466431
 30
0.0
 10
11.9058974885
 20
6.3705665199
 30
0.0
 10
11.9099129879
 20
6.372692553
 30
0.0
 10
11.9137270529
 20
6.3748433304
 30
0.0
 10
11.9173374607
 20
6.37701752
 30
0.0
 10
11.9207420824
 20
6.3792139197
 30
0.0
 10
11.9239389697
 20
6.3814312604
 30
0.0
 10
11.9269263116
 20
6.3836683316
 30
0.0
 10
11.929702193
 20
6.3859237844
 30
0.0
 10
11.9314480003
 20
6.3874718018
 30
0.0
 10
11.9322831592
 20
6.3882489932
 30
0.0
  0
SPLINE
  5
477
100
AcDbEntity
  8
0
100
AcDbSpline
 62
7
  6
CONTINUOUS
 70
0
 71
3
 72
38
 73
34
 74
0
 42
0.0000001
 43
0.0000001
 44
0.0000000001
 40
0.0
 40
0.0
 40
0.0
 40
0.0
 40
0.10951407
 40
0.1630446571
 40
0.2150147728
 40
0.2650163734
 40
0.3127863291
 40
0.3581953421
 40
0.4012198615
 40
0.4419109417
 40
0.4803669577
 40
0.5167129383
 40
0.5510856494
 40
0.5836239966
 40
0.6144644265
 40
0.6437370513
 40
0.6715652987
 40
0.6980646472
 40
0.7233437192
 40
0.7475041632
 40
0.7706425528
 40
0.7928494402
 40
0.814213109
 40
0.834817348
 40
0.8547449574
 40
0.8740779354
 40
0.892898241
 40
0.9112892319
 40
0.9293372657
 40
0.9471317422
 40
0.9647695334
 40
0.9823535164
 40
1.0
 40
1.0
 40
1.0
 40
1.0
 10
10.3911339445
 20
9.8280950389
 30
0.0
 10
10.3962041732
 20
9.8244551506
 30
0.0
 10
10.403609324
 20
9.8188312229
 30
0.0
 10
10.4130449473
 20
9.8110105099
 30
0.0
 10
10.4197040357
 20
9.8051604406
 30
0.0
 10
10.4259497185
 20
9.7993429243
 30
0.0
 10
10.4317554922
 20
9.7936069344
 30
0.0
 10
10.4371136981
 20
9.7879886559
 30
0.0
 10
10.4420311175
 20
9.782512139
 30
0.0
 10
10.4465240922
 20
9.7771914512
 30
0.0
 10
10.4506144595
 20
9.7720330978
 30
0.0
 10
10.4543265141
 20
9.7670382537
 30
0.0
 10
10.4576849221
 20
9.7622045387
 30
0.0
 10
10.460713458
 20
9.7575273275
 30
0.0
 10
10.4634346503
 20
9.7530008867
 30
0.0
 10
10.4658687526
 20
9.7486185038
 30
0.0
 10
10.4680346366
 20
9.7443735238
 30
0.0
 10
10.4699487885
 20
9.7402589722
 30
0.0
 10
10.4716263638
 20
9.7362682436
 30
0.0
 10
10.4730803481
 20
9.7323946744
 30
0.0
 10
10.4743229126
 20
9.7286321345
 30
0.0
 10
10.475363721
 20
9.7249742865
 30
0.0
 10
10.4762126696
 20
9.7214154897
 30
0.0
 10
10.4768767368
 20
9.7179497368
 30
0.0
 10
10.4773631446
 20
9.714571472
 30
0.0
 10
10.4776774648
 20
9.7112749372
 30
0.0
 10
10.4778239678
 20
9.7080543153
 30
0.0
 10
10.4778066534
 20
9.7049035927
 30
0.0
 10
10.4776273139
 20
9.7018164473
 30
0.0
 10
10.4772877972
 20
9.698785949
 30
0.0
 10
10.4767873575
 20
9.695804589
 30
0.0
 10
10.4761249869
 20
9.6928636934
 30
0.0
 10
10.4755749434
 20
9.6909313593
 30
0.0
 10
10.4752730516
 20
9.6899720228
 30
0.0
  0
SPLINE
  5
478
100
AcDbEntity
  8
0
100
AcDbSpline
 62
7
  6
CONTINUOUS
 70
0
 71
3
 72
28
 73
24
 74
0
 42
0.0000001
 43
0.0000001
 44
0.0000000001
 40
0.0
 40
0.0
 40
0.0
 40
0.0
 40
0.0749521666
 40
0.1455488036
 40
0.2121313338
 40
0.2751259575
 40
0.3350529662
 40
0.3925302559
 40
0.4205823079
 40
0.4482955537
 40
0.4757704955
 40
0.5031104574
 40
0.5304204587
 40
0.5578059005
 40
0.5853712096
 40
0.6132186548
 40
0.6414470911
 40
0.6701510149
 40
0.7293152462
 40
0.7913810034
 40
0.8568966317
 40
0.9263171678
 40
1.0
 40
1.0
 40
1.0
 40
1.0
 10
10.4498796705
 20
10.7113581136
 30
0.0
 10
10.448230838
 20
10.7128925262
 30
0.0
 10
10.4451204253
 20
10.7159731191
 30
0.0
 10
10.4409234547
 20
10.7207792237
 30
0.0
 10
10.4373445899
 20
10.725623401
 30
0.0
 10
10.4343890869
 20
10.7305015531
 30
0.0
 10
10.4320619593
 20
10.7354087987
 30
0.0
 10
10.4306390511
 20
10.7395533001
 30
0.0
 10
10.4298310157
 20
10.7428608523
 30
0.0
 10
10.4293884036
 20
10.7453245043
 30
0.0
 10
10.4291046876
 20
10.747789904
 30
0.0
 10
10.4289799529
 20
10.7502563492
 30
0.0
 10
10.4290143191
 20
10.7527230189
 30
0.0
 10
10.4292077186
 20
10.7551891127
 30
0.0
 10
10.4295600576
 20
10.7576538433
 30
0.0
 10
10.4300712165
 20
10.7601164057
 30
0.0
 10
10.4307409874
 20
10.7625761111
 30
0.0
 10
10.4318560457
 20
10.7658836979
 30
0.0
 10
10.4336639829
 20
10.7700216176
 30
0.0
 10
10.436441393
 20
10.7749081785
 30
0.0
 10
10.4398437533
 20
10.7797625752
 30
0.0
 10
10.4438656198
 20
10.7845797896
 30
0.0
 10
10.4468637618
 20
10.7876684308
 30
0.0
 10
10.448456338
 20
10.7892067413
 30
0.0
  0
SPLINE
  5
479
100
AcDbEntity
  8
0
100
AcDbSpline
 62
4
  6
CONTINUOUS
 70
0
 71
3
 72
315
 73
311
 74
0
 42
0.0000001
 43
0.0000001
 44
0.0000000001
 40
0.0
 40
0.0
 40
0.0
 40
0.0
 40
0.015625
 40
0.0234375
 40
0.03125
 40
0.0390625
 40
0.04296875
 40
0.046875
 40
0.05078125
 40
0.0546875
 40
0.056640625
 40
0.05859375
 40
0.060546875
 40
0.0615234375
 40
0.0620117188
 40
0.0625
 40
0.0629882812
 40
0.0634765625
 40
0.064453125
 40
0.06640625
 40
0.068359375
 40
0.0703125
 40
0.07421875
 40
0.078125
 40
0.08203125
 40
0.0859375
 40
0.09375
 40
0.1015625
 40
0.109375
 40
0.11328125
 40
0.1171875
 40
0.119140625
 40
0.12109375
 40
0.123046875
 40
0.1240234375
 40
0.1245117188
 40
0.125
 40
0.1254882812
 40
0.1259765625
 40
0.126953125
 40
0.12890625
 40
0.130859375
 40
0.1328125
 40
0.13671875
 40
0.140625
 40
0.1484375
 40
0.15625
 40
0.1640625
 40
0.171875
 40
0.17578125
 40
0.1796875
 40
0.181640625
 40
0.18359375
 40
0.185546875
 40
0.1865234375
 40
0.1870117188
 40
0.1875
 40
0.1879882812
 40
0.1884765625
 40
0.189453125
 40
0.19140625
 40
0.193359375
 40
0.1953125
 40
0.19921875
 40
0.203125
 40
0.2109375
 40
0.21875
 40
0.2265625
 40
0.234375
 40
0.23828125
 40
0.2421875
 40
0.244140625
 40
0.24609375
 40
0.248046875
 40
0.2490234375
 40
0.25
 40
0.2509765625
 40
0.251953125
 40
0.25390625
 40
0.255859375
 40
0.2578125
 40
0.26171875
 40
0.265625
 40
0.2734375
 40
0.28125
 40
0.2890625
 40
0.296875
 40
0.30078125
 40
0.3046875
 40
0.30859375
 40
0.310546875
 40
0.3115234375
 40
0.3125
 40
0.3134765625
 40
0.314453125
 40
0.31640625
 40
0.3203125
 40
0.32421875
 40
0.328125
 40
0.3359375
 40
0.34375
 40
0.3515625
 40
0.359375
 40
0.36328125
 40
0.3671875
 40
0.37109375
 40
0.373046875
 40
0.3740234375
 40
0.375
 40
0.3759765625
 40
0.376953125
 40
0.37890625
 40
0.3828125
 40
0.38671875
 40
0.390625
 40
0.3984375
 40
0.40625
 40
0.4140625
 40
0.421875
 40
0.42578125
 40
0.4296875
 40
0.43359375
 40
0.435546875
 40
0.4365234375
 40
0.4375
 40
0.4384765625
 40
0.439453125
 40
0.44140625
 40
0.4453125
 40
0.44921875
 40
0.453125
 40
0.4609375
 40
0.46875
 40
0.4765625
 40
0.484375
 40
0.48828125
 40
0.4921875
 40
0.49609375
 40
0.498046875
 40
0.4990234375
 40
0.5
 40
0.5009765625
 40
0.501953125
 40
0.50390625
 40
0.5078125
 40
0.51171875
 40
0.515625
 40
0.5234375
 40
0.53125
 40
0.5390625
 40
0.546875
 40
0.55078125
 40
0.5546875
 40
0.556640625
 40
0.55859375
 40
0.560546875
 40
0.5615234375
 40
0.5620117188
 40
0.5625
 40
0.5629882812
 40
0.5634765625
 40
0.564453125
 40
0.56640625
 40
0.568359375
 40
0.5703125
 40
0.57421875
 40
0.578125
 40
0.5859375
 40
0.59375
 40
0.6015625
 40
0.609375
 40
0.61328125
 40
0.6171875
 40
0.619140625
 40
0.62109375
 40
0.623046875
 40
0.6240234375
 40
0.6245117188
 40
0.625
 40
0.6254882812
 40
0.6259765625
 40
0.626953125
 40
0.62890625
 40
0.630859375
 40
0.6328125
 40
0.63671875
 40
0.640625
 40
0.6484375
 40
0.65625
 40
0.6640625
 40
0.671875
 40
0.67578125
 40
0.6796875
 40
0.681640625
 40
0.68359375
 40
0.685546875
 40
0.6865234375
 40
0.6870117188
 40
0.6875
 40
0.6879882812
 40
0.6884765625
 40
0.689453125
 40
0.69140625
 40
0.693359375
 40
0.6953125
 40
0.69921875
 40
0.703125
 40
0.7109375
 40
0.71875
 40
0.7265625
 40
0.73046875
 40
0.734375
 40
0.73828125
 40
0.7421875
 40
0.744140625
 40
0.74609375
 40
0.7470703125
 40
0.748046875
 40
0.7490234375
 40
0.7495117188
 40
0.75
 40
0.7504882812
 40
0.7509765625
 40
0.751953125
 40
0.7529296875
 40
0.75390625
 40
0.755859375
 40
0.7578125
 40
0.76171875
 40
0.765625
 40
0.76953125
 40
0.7734375
 40
0.78125
 40
0.7890625
 40
0.79296875
 40
0.796875
 40
0.80078125
 40
0.8046875
 40
0.806640625
 40
0.80859375
 40
0.8095703125
 40
0.810546875
 40
0.8115234375
 40
0.8120117188
 40
0.8125
 40
0.8129882812
 40
0.8134765625
 40
0.814453125
 40
0.8154296875
 40
0.81640625
 40
0.818359375
 40
0.8203125
 40
0.82421875
 40
0.828125
 40
0.83203125
 40
0.8359375
 40
0.84375
 40
0.8515625
 40
0.85546875
 40
0.859375
 40
0.86328125
 40
0.8671875
 40
0.869140625
 40
0.87109375
 40
0.8720703125
 40
0.873046875
 40
0.8740234375
 40
0.8745117188
 40
0.875
 40
0.8754882812
 40
0.8759765625
 40
0.876953125
 40
0.8779296875
 40
0.87890625
 40
0.880859375
 40
0.8828125
 40
0.88671875
 40
0.890625
 40
0.89453125
 40
0.8984375
 40
0.90625
 40
0.9140625
 40
0.91796875
 40
0.921875
 40
0.92578125
 40
0.9296875
 40
0.931640625
 40
0.93359375
 40
0.9345703125
 40
0.935546875
 40
0.9365234375
 40
0.9370117188
 40
0.9372558594
 40
0.9375
 40
0.9377441406
 40
0.9379882812
 40
0.9384765625
 40
0.939453125
 40
0.9404296875
 40
0.94140625
 40
0.943359375
 40
0.9453125
 40
0.94921875
 40
0.953125
 40
0.95703125
 40
0.9609375
 40
0.96875
 40
0.9765625
 40
0.984375
 40
1.0
 40
1.0
 40
1.0
 40
1.0
 10
12.150726035
 20
8.303137532
 30
0.0
 10
12.1515655692
 20
8.3042556715
 30
0.0
 10
12.1528248704
 20
8.3059328807
 30
0.0
 10
12.1545039387
 20
8.3081691594
 30
0.0
 10
12.1557632399
 20
8.3098463691
 30
0.0
 10
12.1568126577
 20
8.3112440418
 30
0.0
 10
12.1576521917
 20
8.3123621844
 30
0.0
 10
12.1582818429
 20
8.3132007793
 30
0.0
 10
12.1589114915
 20
8.3140394204
 30
0.0
 10
12.1594362067
 20
8.3147381439
 30
0.0
 10
12.1598559608
 20
8.3152974454
 30
0.0
 10
12.1601708257
 20
8.31571604
 30
0.0
 10
12.1604330563
 20
8.3160676727
 30
0.0
 10
12.1606169254
 20
8.3163083131
 30
0.0
 10
12.160721513
 20
8.3164544135
 30
0.0
 10
12.1608013072
 20
8.3165397861
 30
0.0
 10
12.1608759278
 20
8.3167176741
 30
0.0
 10
12.1609772265
 20
8.3169225877
 30
0.0
 10
12.1611536585
 20
8.3172962219
 30
0.0
 10
12.1614061437
 20
8.3178221244
 30
0.0
 10
12.1617089379
 20
8.3184565721
 30
0.0
 10
12.1621127291
 20
8.3193013269
 30
0.0
 10
12.1626174456
 20
8.3203576738
 30
0.0
 10
12.1632231151
 20
8.3216251172
 30
0.0
 10
12.163828782
 20
8.3228926067
 30
0.0
 10
12.1646363387
 20
8.3245825769
 30
0.0
 10
12.1656457845
 20
8.3266950435
 30
0.0
 10
12.1668571186
 20
8.329230009
 30
0.0
 10
12.1678665667
 20
8.3313424563
 30
0.0
 10
12.1686741184
 20
8.3330324688
 30
0.0
 10
12.1691788536
 20
8.3340886019
 30
0.0
 10
12.1695826065
 20
8.334933794
 30
0.0
 10
12.1698855178
 20
8.335566906
 30
0.0
 10
12.1701376363
 20
8.3360969875
 30
0.0
 10
12.170314723
 20
8.3364631615
 30
0.0
 10
12.1704149727
 20
8.3366800283
 30
0.0
 10
12.1704928154
 20
8.3368212
 30
0.0
 10
12.170560508
 20
8.3370444729
 30
0.0
 10
12.1706543052
 20
8.3373135323
 30
0.0
 10
12.1708168008
 20
8.3377977292
 30
0.0
 10
12.1710497998
 20
8.3384824631
 30
0.0
 10
12.1713290294
 20
8.3393071298
 30
0.0
 10
12.1717014645
 20
8.3404056424
 30
0.0
 10
12.1721669643
 20
8.3417791403
 30
0.0
 10
12.1729117885
 20
8.3439765373
 30
0.0
 10
12.1738428103
 20
8.3467233524
 30
0.0
 10
12.1749600405
 20
8.3500194992
 30
0.0
 10
12.1760772684
 20
8.3533156612
 30
0.0
 10
12.1770082957
 20
8.3560624383
 30
0.0
 10
12.1777531089
 20
8.3582599114
 30
0.0
 10
12.1782186368
 20
8.3596332157
 30
0.0
 10
12.178591014
 20
8.3607321258
 30
0.0
 10
12.1788704208
 20
8.361555578
 30
0.0
 10
12.1791028654
 20
8.3622441116
 30
0.0
 10
12.1792663506
 20
8.3627215256
 30
0.0
 10
12.1793585623
 20
8.3630014528
 30
0.0
 10
12.1794311249
 20
8.3631913433
 30
0.0
 10
12.1794906766
 20
8.3634578939
 30
0.0
 10
12.1795746172
 20
8.3637865549
 30
0.0
 10
12.1797193987
 20
8.3643741701
 30
0.0
 10
12.1799273349
 20
8.3652071069
 30
0.0
 10
12.1801763851
 20
8.3662094191
 30
0.0
 10
12.1805086174
 20
8.3675448616
 30
0.0
 10
12.1809238512
 20
8.3692144982
 30
0.0
 10
12.1815882568
 20
8.3718857303
 30
0.0
 10
12.1824187533
 20
8.3752248338
 30
0.0
 10
12.1834153522
 20
8.3792317338
 30
0.0
 10
12.1844119555
 20
8.383238629
 30
0.0
 10
12.185242441
 20
8.3865777446
 30
0.0
 10
12.1859068686
 20
8.3892489525
 30
0.0
 10
12.1863220464
 20
8.3909186507
 30
0.0
 10
12.1866543935
 20
8.3922539666
 30
0.0
 10
12.1869030929
 20
8.3932566655
 30
0.0
 10
12.1871121268
 20
8.3940883926
 30
0.0
 10
12.187275352
 20
8.3947624209
 30
0.0
 10
12.1874087059
 20
8.3952443155
 30
0.0
 10
12.1875003206
 20
8.3958163935
 30
0.0
 10
12.1876370536
 20
8.3965476619
 30
0.0
 10
12.1878029675
 20
8.3974725557
 30
0.0
 10
12.1880042054
 20
8.3985778019
 30
0.0
 10
12.1882717747
 20
8.4000530795
 30
0.0
 10
12.1886064923
 20
8.4018966232
 30
0.0
 10
12.1891418976
 20
8.404846602
 30
0.0
 10
12.189811202
 20
8.4085339715
 30
0.0
 10
12.1906143523
 20
8.4129588511
 30
0.0
 10
12.191417486
 20
8.4173837524
 30
0.0
 10
12.1920868318
 20
8.4210710674
 30
0.0
 10
12.1926221543
 20
8.4240211553
 30
0.0
 10
12.193024068
 20
8.426233075
 30
0.0
 10
12.1933576544
 20
8.4280783974
 30
0.0
 10
12.1935937977
 20
8.4293660882
 30
0.0
 10
12.1937246258
 20
8.4301082116
 30
0.0
 10
12.1938343276
 20
8.4306470569
 30
0.0
 10
12.1938997617
 20
8.431253741
 30
0.0
 10
12.1940024483
 20
8.4320389903
 30
0.0
 10
12.1941749554
 20
8.4334242015
 30
0.0
 10
12.1944251555
 20
8.4353973107
 30
0.0
 10
12.1947237856
 20
8.4377675089
 30
0.0
 10
12.1951225216
 20
8.4409269112
 30
0.0
 10
12.1956207472
 20
8.4448764608
 30
0.0
 10
12.1962187074
 20
8.4496157894
 30
0.0
 10
12.1968166207
 20
8.4543551666
 30
0.0
 10
12.1973149635
 20
8.4583045948
 30
0.0
 10
12.1977134652
 20
8.4614642398
 30
0.0
 10
12.1980128102
 20
8.463833698
 30
0.0
 10
12.1982607737
 20
8.4658091223
 30
0.0
 10
12.1984372734
 20
8.4671902006
 30
0.0
 10
12.198533563
 20
8.4679820719
 30
0.0
 10
12.1986186463
 20
8.4685684154
 30
0.0
 10
12.1986545489
 20
8.4691836566
 30
0.0
 10
12.1987195738
 20
8.4699938983
 30
0.0
 10
12.1988253746
 20
8.4714165177
 30
0.0
 10
12.1989806973
 20
8.4734463758
 30
0.0
 10
12.1991652959
 20
8.4758832564
 30
0.0
 10
12.1994120524
 20
8.4791320635
 30
0.0
 10
12.199720282
 20
8.4831931986
 30
0.0
 10
12.2000902567
 20
8.4880665056
 30
0.0
 10
12.2004601805
 20
8.4929398307
 30
0.0
 10
12.2007685373
 20
8.4970009207
 30
0.0
 10
12.2010150395
 20
8.500249818
 30
0.0
 10
12.2012004137
 20
8.5026864234
 30
0.0
 10
12.2013533098
 20
8.5047171426
 30
0.0
 10
12.2014634425
 20
8.5061382248
 30
0.0
 10
12.2015215267
 20
8.5069509295
 30
0.0
 10
12.2015787489
 20
8.507558605
 30
0.0
 10
12.2015837592
 20
8.508173364
 30
0.0
 10
12.2016086516
 20
8.5089905718
 30
0.0
 10
12.201643728
 20
8.5104218366
 30
0.0
 10
12.2016982735
 20
8.5124658989
 30
0.0
 10
12.2017618291
 20
8.5149190311
 30
0.0
 10
12.2018472335
 20
8.5181897844
 30
0.0
 10
12.2019537597
 20
8.5222782548
 30
0.0
 10
12.2020816962
 20
8.5271844157
 30
0.0
 10
12.2022095793
 20
8.5320905449
 30
0.0
 10
12.202316239
 20
8.5361790945
 30
0.0
 10
12.2024013764
 20
8.5394496894
 30
0.0
 10
12.2024657463
 20
8.5419033048
 30
0.0
 10
12.2025177443
 20
8.5439458554
 30
0.0
 10
12.2025573683
 20
8.5453798188
 30
0.0
 10
12.2025749745
 20
8.5461927029
 30
0.0
 10
12.2026023657
 20
8.5468207431
 30
0.0
 10
12.2025755288
 20
8.5473785364
 30
0.0
 10
12.2025586617
 20
8.5481467638
 30
0.0
 10
12.2025203311
 20
8.5494797453
 30
0.0
 10
12.2024701808
 20
8.5513899732
 30
0.0
 10
12.2024080282
 20
8.5536796919
 30
0.0
 10
12.202325847
 20
8.5567335426
 30
0.0
 10
12.202222884
 20
8.5605505496
 30
0.0
 10
12.2020994304
 20
8.5651310904
 30
0.0
 10
12.201975947
 20
8.5697115917
 30
0.0
 10
12.2018730583
 20
8.5735286974
 30
0.0
 10
12.2017907285
 20
8.5765823505
 30
0.0
 10
12.2017393123
 20
8.5784909516
 30
0.0
 10
12.2016980883
 20
8.5800176775
 30
0.0
 10
12.2016674193
 20
8.5811631463
 30
0.0
 10
12.2016410699
 20
8.5821163535
 30
0.0
 10
12.2016241793
 20
8.582786248
 30
0.0
 10
12.2016121011
 20
8.583164908
 30
0.0
 10
12.2016098779
 20
8.5834605567
 30
0.0
 10
12.2015815262
 20
8.5837116591
 30
0.0
 10
12.2015528378
 20
8.5840620006
 30
0.0
 10
12.2014983868
 20
8.5846678586
 30
0.0
 10
12.2014228197
 20
8.585537155
 30
0.0
 10
12.201331189
 20
8.5865786906
 30
0.0
 10
12.2012093466
 20
8.5879679706
 30
0.0
 10
12.2010569299
 20
8.5897043768
 30
0.0
 10
12.2008131267
 20
8.5924827351
 30
0.0
 10
12.2005083508
 20
8.5959556455
 30
0.0
 10
12.2001426297
 20
8.6001231554
 30
0.0
 10
12.1997769038
 20
8.6042906552
 30
0.0
 10
12.1994721401
 20
8.6077635911
 30
0.0
 10
12.1992283126
 20
8.6105418984
 30
0.0
 10
12.1990759578
 20
8.6122784342
 30
0.0
 10
12.1989539883
 20
8.6136674482
 30
0.0
 10
12.1988627458
 20
8.6147097963
 30
0.0
 10
12.198785964
 20
8.6155765507
 30
0.0
 10
12.1987336814
 20
8.6161869466
 30
0.0
 10
12.1987015187
 20
8.6165300173
 30
0.0
 10
12.198683839
 20
8.6168034531
 30
0.0
 10
12.1986415334
 20
8.6170152213
 30
0.0
 10
12.1985937157
 20
8.6173190894
 30
0.0
 10
12.1985060326
 20
8.6178408363
 30
0.0
 10
12.1983828634
 20
8.6185914288
 30
0.0
 10
12.1982341647
 20
8.6194898969
 30
0.0
 10
12.1980362126
 20
8.6206886379
 30
0.0
 10
12.1977886654
 20
8.6221867958
 30
0.0
 10
12.1973926497
 20
8.6245839985
 30
0.0
 10
12.1968976094
 20
8.62758045
 30
0.0
 10
12.1963035705
 20
8.6311762157
 30
0.0
 10
12.195709527
 20
8.6347719686
 30
0.0
 10
12.1952144983
 20
8.6377684521
 30
0.0
 10
12.1948184594
 20
8.6401655908
 30
0.0
 10
12.1945709713
 20
8.6416639113
 30
0.0
 10
12.1943728977
 20
8.6428623185
 30
0.0
 10
12.1942245703
 20
8.6437618064
 30
0.0
 10
12.1941002395
 20
8.6445092082
 30
0.0
 10
12.19401463
 20
8.645036651
 30
0.0
 10
12.1939634899
 20
8.6453313929
 30
0.0
 10
12.1939313895
 20
8.6455711938
 30
0.0
 10
12.1938753806
 20
8.6457393434
 30
0.0
 10
12.1938090417
 20
8.6459885357
 30
0.0
 10
12.193689063
 20
8.6464129775
 30
0.0
 10
12.1935196962
 20
8.6470254109
 30
0.0
 10
12.1933155866
 20
8.6477577252
 30
0.0
 10
12.1930437442
 20
8.6487350544
 30
0.0
 10
12.1927038371
 20
8.6499564043
 30
0.0
 10
12.192160044
 20
8.6519107382
 30
0.0
 10
12.1914802826
 20
8.6543535958
 30
0.0
 10
12.1906645775
 20
8.6572850508
 30
0.0
 10
12.1899848212
 20
8.6597279235
 30
0.0
 10
12.1894410168
 20
8.6616822242
 30
0.0
 10
12.1890331628
 20
8.6631479462
 30
0.0
 10
12.1886253112
 20
8.664613681
 30
0.0
 10
12.1882854275
 20
8.6658350868
 30
0.0
 10
12.1880135371
 20
8.6668123007
 30
0.0
 10
12.187843568
 20
8.6674228562
 30
0.0
 10
12.1877076786
 20
8.6679117658
 30
0.0
 10
12.1876055266
 20
8.6682771744
 30
0.0
 10
12.1875211474
 20
8.6685857331
 30
0.0
 10
12.1874519676
 20
8.6688234932
 30
0.0
 10
12.1874046633
 20
8.6690266428
 30
0.0
 10
12.1873398753
 20
8.6691350179
 30
0.0
 10
12.1872595985
 20
8.669312624
 30
0.0
 10
12.1871571572
 20
8.6695232731
 30
0.0
 10
12.1870351245
 20
8.6697809138
 30
0.0
 10
12.1868721009
 20
8.6701227366
 30
0.0
 10
12.1866684287
 20
8.6705505966
 30
0.0
 10
12.1863424933
 20
8.6712348476
 30
0.0
 10
12.1859350945
 20
8.6720902729
 30
0.0
 10
12.1854462073
 20
8.6731167354
 30
0.0
 10
12.1849573223
 20
8.6741432107
 30
0.0
 10
12.1843054749
 20
8.6755118399
 30
0.0
 10
12.183490666
 20
8.6772226282
 30
0.0
 10
12.1826758568
 20
8.6789334153
 30
0.0
 10
12.1820240097
 20
8.6803020464
 30
0.0
 10
12.1815351239
 20
8.6813285162
 30
0.0
 10
12.18104624
 20
8.6823549991
 30
0.0
 10
12.1806388306
 20
8.6832103609
 30
0.0
 10
12.180312917
 20
8.6838947415
 30
0.0
 10
12.1801091892
 20
8.6843222716
 30
0.0
 10
12.1799462798
 20
8.6846647715
 30
0.0
 10
12.1798238985
 20
8.6849203437
 30
0.0
 10
12.1797225477
 20
8.6851374646
 30
0.0
 10
12.179640046
 20
8.685301867
 30
0.0
 10
12.1795820526
 20
8.6854505652
 30
0.0
 10
12.1795092386
 20
8.6855023251
 30
0.0
 10
12.1794173302
 20
8.6856052001
 30
0.0
 10
12.1793006686
 20
8.685722176
 30
0.0
 10
12.1791614349
 20
8.68586752
 30
0.0
 10
12.1789755245
 20
8.686059575
 30
0.0
 10
12.1787432273
 20
8.6863002384
 30
0.0
 10
12.1783715011
 20
8.6866849676
 30
0.0
 10
12.1779068607
 20
8.6871659931
 30
0.0
 10
12.1773492848
 20
8.6877431747
 30
0.0
 10
12.1767917109
 20
8.6883203695
 30
0.0
 10
12.1760482783
 20
8.689089958
 30
0.0
 10
12.1751189878
 20
8.6900519453
 30
0.0
 10
12.1741896971
 20
8.6910139314
 30
0.0
 10
12.1734462648
 20
8.6917835217
 30
0.0
 10
12.1728886901
 20
8.6923607108
 30
0.0
 10
12.1723311169
 20
8.6929379137
 30
0.0
 10
12.1718664682
 20
8.6934188734
 30
0.0
 10
12.1714947589
 20
8.6938037368
 30
0.0
 10
12.1712624186
 20
8.6940440585
 30
0.0
 10
12.1710765967
 20
8.694236815
 30
0.0
 10
12.1709370926
 20
8.6943800159
 30
0.0
 10
12.1708212769
 20
8.6945036967
 30
0.0
 10
12.1707276427
 20
8.6945928924
 30
0.0
 10
12.1706600993
 20
8.6946864282
 30
0.0
 10
12.1705823177
 20
8.6946782822
 30
0.0
 10
12.1704821853
 20
8.6947029396
 30
0.0
 10
12.1703557927
 20
8.6947215751
 30
0.0
 10
12.1702046468
 20
8.6947491538
 30
0.0
 10
12.1700029355
 20
8.6947841035
 30
0.0
 10
12.1697508592
 20
8.6948284144
 30
0.0
 10
12.169347502
 20
8.6948989632
 30
0.0
 10
12.1688433175
 20
8.6949872689
 30
0.0
 10
12.168238291
 20
8.6950931845
 30
0.0
 10
12.1676332659
 20
8.6951991137
 30
0.0
 10
12.1668265652
 20
8.695340348
 30
0.0
 10
12.1658181896
 20
8.6955168923
 30
0.0
 10
12.1648098138
 20
8.6956934363
 30
0.0
 10
12.1640031132
 20
8.6958346712
 30
0.0
 10
12.1633980879
 20
8.6959405986
 30
0.0
 10
12.1627930622
 20
8.696046521
 30
0.0
 10
12.1622888752
 20
8.6961348053
 30
0.0
 10
12.1618855231
 20
8.6962053978
 30
0.0
 10
12.1616334339
 20
8.6962495977
 30
0.0
 10
12.1614317491
 20
8.6962847752
 30
0.0
 10
12.1612805222
 20
8.6963116579
 30
0.0
 10
12.161154383
 20
8.696332471
 30
0.0
 10
12.1610663147
 20
8.6963501588
 30
0.0
 10
12.1610156322
 20
8.6963553966
 30
0.0
 10
12.1609786283
 20
8.6963730426
 30
0.0
 10
12.1609377714
 20
8.6963382526
 30
0.0
 10
12.1608846396
 20
8.6963101561
 30
0.0
 10
12.1607910327
 20
8.6962524656
 30
0.0
 10
12.1606576359
 20
8.6961745058
 30
0.0
 10
12.1604974196
 20
8.696079047
 30
0.0
 10
12.1602838468
 20
8.6959524348
 30
0.0
 10
12.1600168641
 20
8.6957939414
 30
0.0
 10
12.1595897011
 20
8.6955404794
 30
0.0
 10
12.1590557442
 20
8.6952236082
 30
0.0
 10
12.1584149973
 20
8.6948433816
 30
0.0
 10
12.15777425
 20
8.6944631499
 30
0.0
 10
12.1569199203
 20
8.693956176
 30
0.0
 10
12.1558520083
 20
8.6933224581
 30
0.0
 10
12.1545705138
 20
8.6925619969
 30
0.0
 10
12.1528618546
 20
8.6915480486
 30
0.0
 10
12.1515803601
 20
8.6907875873
 30
0.0
 10
12.1507260305
 20
8.6902806131
 30
0.0
  0
SPLINE
  5
47A
100
AcDbEntity
  8
0
100
AcDbSpline
 62
4
  6
CONTINUOUS
 70
0
 71
3
 72
315
 73
311
 74
0
 42
0.0000001
 43
0.0000001
 44
0.0000000001
 40
0.0
 40
0.0
 40
0.0
 40
0.0
 40
0.015625
 40
0.0234375
 40
0.03125
 40
0.0390625
 40
0.04296875
 40
0.046875
 40
0.05078125
 40
0.0546875
 40
0.056640625
 40
0.05859375
 40
0.060546875
 40
0.0615234375
 40
0.0620117188
 40
0.0625
 40
0.0629882812
 40
0.0634765625
 40
0.064453125
 40
0.06640625
 40
0.068359375
 40
0.0703125
 40
0.07421875
 40
0.078125
 40
0.08203125
 40
0.0859375
 40
0.09375
 40
0.1015625
 40
0.109375
 40
0.11328125
 40
0.1171875
 40
0.119140625
 40
0.12109375
 40
0.123046875
 40
0.1240234375
 40
0.1245117188
 40
0.125
 40
0.1254882812
 40
0.1259765625
 40
0.126953125
 40
0.12890625
 40
0.130859375
 40
0.1328125
 40
0.13671875
 40
0.140625
 40
0.1484375
 40
0.15625
 40
0.1640625
 40
0.171875
 40
0.17578125
 40
0.1796875
 40
0.181640625
 40
0.18359375
 40
0.185546875
 40
0.1865234375
 40
0.1870117188
 40
0.1875
 40
0.1879882812
 40
0.1884765625
 40
0.189453125
 40
0.19140625
 40
0.193359375
 40
0.1953125
 40
0.19921875
 40
0.203125
 40
0.2109375
 40
0.21875
 40
0.2265625
 40
0.234375
 40
0.23828125
 40
0.2421875
 40
0.244140625
 40
0.24609375
 40
0.248046875
 40
0.2490234375
 40
0.25
 40
0.2509765625
 40
0.251953125
 40
0.25390625
 40
0.255859375
 40
0.2578125
 40
0.26171875
 40
0.265625
 40
0.2734375
 40
0.28125
 40
0.2890625
 40
0.296875
 40
0.30078125
 40
0.3046875
 40
0.30859375
 40
0.310546875
 40
0.3115234375
 40
0.3125
 40
0.3134765625
 40
0.314453125
 40
0.31640625
 40
0.3203125
 40
0.32421875
 40
0.328125
 40
0.3359375
 40
0.34375
 40
0.3515625
 40
0.359375
 40
0.36328125
 40
0.3671875
 40
0.37109375
 40
0.373046875
 40
0.3740234375
 40
0.375
 40
0.3759765625
 40
0.376953125
 40
0.37890625
 40
0.3828125
 40
0.38671875
 40
0.390625
 40
0.3984375
 40
0.40625
 40
0.4140625
 40
0.421875
 40
0.42578125
 40
0.4296875
 40
0.43359375
 40
0.435546875
 40
0.4365234375
 40
0.4375
 40
0.4384765625
 40
0.439453125
 40
0.44140625
 40
0.4453125
 40
0.44921875
 40
0.453125
 40
0.4609375
 40
0.46875
 40
0.4765625
 40
0.484375
 40
0.48828125
 40
0.4921875
 40
0.49609375
 40
0.498046875
 40
0.4990234375
 40
0.5
 40
0.5009765625
 40
0.501953125
 40
0.50390625
 40
0.5078125
 40
0.51171875
 40
0.515625
 40
0.5234375
 40
0.53125
 40
0.5390625
 40
0.546875
 40
0.55078125
 40
0.5546875
 40
0.556640625
 40
0.55859375
 40
0.560546875
 40
0.5615234375
 40
0.5620117188
 40
0.5625
 40
0.5629882812
 40
0.5634765625
 40
0.564453125
 40
0.56640625
 40
0.568359375
 40
0.5703125
 40
0.57421875
 40
0.578125
 40
0.5859375
 40
0.59375
 40
0.6015625
 40
0.609375
 40
0.61328125
 40
0.6171875
 40
0.619140625
 40
0.62109375
 40
0.623046875
 40
0.6240234375
 40
0.6245117188
 40
0.625
 40
0.6254882812
 40
0.6259765625
 40
0.626953125
 40
0.62890625
 40
0.630859375
 40
0.6328125
 40
0.63671875
 40
0.640625
 40
0.6484375
 40
0.65625
 40
0.6640625
 40
0.671875
 40
0.67578125
 40
0.6796875
 40
0.681640625
 40
0.68359375
 40
0.685546875
 40
0.6865234375
 40
0.6870117188
 40
0.6875
 40
0.6879882812
 40
0.6884765625
 40
0.689453125
 40
0.69140625
 40
0.693359375
 40
0.6953125
 40
0.69921875
 40
0.703125
 40
0.7109375
 40
0.71875
 40
0.7265625
 40
0.73046875
 40
0.734375
 40
0.73828125
 40
0.7421875
 40
0.744140625
 40
0.74609375
 40
0.7470703125
 40
0.748046875
 40
0.7490234375
 40
0.7495117188
 40
0.75
 40
0.7504882812
 40
0.7509765625
 40
0.751953125
 40
0.7529296875
 40
0.75390625
 40
0.755859375
 40
0.7578125
 40
0.76171875
 40
0.765625
 40
0.76953125
 40
0.7734375
 40
0.78125
 40
0.7890625
 40
0.79296875
 40
0.796875
 40
0.80078125
 40
0.8046875
 40
0.806640625
 40
0.80859375
 40
0.8095703125
 40
0.810546875
 40
0.8115234375
 40
0.8120117188
 40
0.8125
 40
0.8129882812
 40
0.8134765625
 40
0.814453125
 40
0.8154296875
 40
0.81640625
 40
0.818359375
 40
0.8203125
 40
0.82421875
 40
0.828125
 40
0.83203125
 40
0.8359375
 40
0.84375
 40
0.8515625
 40
0.85546875
 40
0.859375
 40
0.86328125
 40
0.8671875
 40
0.869140625
 40
0.87109375
 40
0.8720703125
 40
0.873046875
 40
0.8740234375
 40
0.8745117188
 40
0.875
 40
0.8754882812
 40
0.8759765625
 40
0.876953125
 40
0.8779296875
 40
0.87890625
 40
0.880859375
 40
0.8828125
 40
0.88671875
 40
0.890625
 40
0.89453125
 40
0.8984375
 40
0.90625
 40
0.9140625
 40
0.91796875
 40
0.921875
 40
0.92578125
 40
0.9296875
 40
0.931640625
 40
0.93359375
 40
0.9345703125
 40
0.935546875
 40
0.9365234375
 40
0.9370117188
 40
0.9372558594
 40
0.9375
 40
0.9377441406
 40
0.9379882812
 40
0.9384765625
 40
0.939453125
 40
0.9404296875
 40
0.94140625
 40
0.943359375
 40
0.9453125
 40
0.94921875
 40
0.953125
 40
0.95703125
 40
0.9609375
 40
0.96875
 40
0.9765625
 40
0.984375
 40
1.0
 40
1.0
 40
1.0
 40
1.0
 10
12.150726035
 20
8.6902806175
 30
0.0
 10
12.1498865008
 20
8.6891624781
 30
0.0
 10
12.1486271996
 20
8.6874852688
 30
0.0
 10
12.1469481313
 20
8.6852489901
 30
0.0
 10
12.14568883
 20
8.6835717805
 30
0.0
 10
12.1446394123
 20
8.6821741077
 30
0.0
 10
12.1437998783
 20
8.6810559651
 30
0.0
 10
12.1431702271
 20
8.6802173702
 30
0.0
 10
12.1425405785
 20
8.6793787291
 30
0.0
 10
12.1420158633
 20
8.6786800056
 30
0.0
 10
12.1415961092
 20
8.6781207042
 30
0.0
 10
12.1412812443
 20
8.6777021096
 30
0.0
 10
12.1410190137
 20
8.6773504769
 30
0.0
 10
12.1408351446
 20
8.6771098364
 30
0.0
 10
12.140730557
 20
8.676963736
 30
0.0
 10
12.1406507628
 20
8.6768783635
 30
0.0
 10
12.1405761422
 20
8.6767004754
 30
0.0
 10
12.1404748435
 20
8.6764955618
 30
0.0
 10
12.1402984115
 20
8.6761219276
 30
0.0
 10
12.1400459263
 20
8.6755960251
 30
0.0
 10
12.1397431321
 20
8.6749615775
 30
0.0
 10
12.1393393409
 20
8.6741168226
 30
0.0
 10
12.1388346244
 20
8.6730604757
 30
0.0
 10
12.1382289549
 20
8.6717930324
 30
0.0
 10
12.137623288
 20
8.6705255428
 30
0.0
 10
12.1368157313
 20
8.6688355726
 30
0.0
 10
12.1358062855
 20
8.6667231061
 30
0.0
 10
12.1345949514
 20
8.6641881405
 30
0.0
 10
12.1335855033
 20
8.6620756932
 30
0.0
 10
12.1327779516
 20
8.6603856807
 30
0.0
 10
12.1322732164
 20
8.6593295476
 30
0.0
 10
12.1318694635
 20
8.6584843555
 30
0.0
 10
12.1315665522
 20
8.6578512435
 30
0.0
 10
12.1313144336
 20
8.657321162
 30
0.0
 10
12.131137347
 20
8.6569549881
 30
0.0
 10
12.1310370972
 20
8.6567381213
 30
0.0
 10
12.1309592546
 20
8.6565969495
 30
0.0
 10
12.130891562
 20
8.6563736766
 30
0.0
 10
12.1307977648
 20
8.6561046172
 30
0.0
 10
12.1306352692
 20
8.6556204204
 30
0.0
 10
12.1304022702
 20
8.6549356864
 30
0.0
 10
12.1301230406
 20
8.6541110197
 30
0.0
 10
12.1297506054
 20
8.6530125071
 30
0.0
 10
12.1292851057
 20
8.6516390092
 30
0.0
 10
12.1285402814
 20
8.6494416122
 30
0.0
 10
12.1276092596
 20
8.6466947971
 30
0.0
 10
12.1264920295
 20
8.6433986503
 30
0.0
 10
12.1253748016
 20
8.6401024883
 30
0.0
 10
12.1244437743
 20
8.6373557112
 30
0.0
 10
12.1236989611
 20
8.6351582381
 30
0.0
 10
12.1232334331
 20
8.6337849339
 30
0.0
 10
12.122861056
 20
8.6326860237
 30
0.0
 10
12.1225816492
 20
8.6318625715
 30
0.0
 10
12.1223492045
 20
8.6311740379
 30
0.0
 10
12.1221857194
 20
8.6306966239
 30
0.0
 10
12.1220935077
 20
8.6304166967
 30
0.0
 10
12.1220209451
 20
8.6302268062
 30
0.0
 10
12.1219613934
 20
8.6299602556
 30
0.0
 10
12.1218774528
 20
8.6296315947
 30
0.0
 10
12.1217326713
 20
8.6290439794
 30
0.0
 10
12.1215247351
 20
8.6282110426
 30
0.0
 10
12.1212756849
 20
8.6272087304
 30
0.0
 10
12.1209434526
 20
8.6258732879
 30
0.0
 10
12.1205282188
 20
8.6242036514
 30
0.0
 10
12.1198638132
 20
8.6215324192
 30
0.0
 10
12.1190333167
 20
8.6181933157
 30
0.0
 10
12.1180367178
 20
8.6141864157
 30
0.0
 10
12.1170401145
 20
8.6101795205
 30
0.0
 10
12.116209629
 20
8.6068404049
 30
0.0
 10
12.1155452014
 20
8.604169197
 30
0.0
 10
12.1151300236
 20
8.6024994988
 30
0.0
 10
12.1147976765
 20
8.6011641829
 30
0.0
 10
12.114548977
 20
8.600161484
 30
0.0
 10
12.1143399432
 20
8.5993297569
 30
0.0
 10
12.114176718
 20
8.5986557286
 30
0.0
 10
12.1140433641
 20
8.598173834
 30
0.0
 10
12.1139517494
 20
8.597601756
 30
0.0
 10
12.1138150164
 20
8.5968704876
 30
0.0
 10
12.1136491025
 20
8.5959455938
 30
0.0
 10
12.1134478646
 20
8.5948403476
 30
0.0
 10
12.1131802953
 20
8.59336507
 30
0.0
 10
12.1128455777
 20
8.5915215263
 30
0.0
 10
12.1123101724
 20
8.5885715475
 30
0.0
 10
12.111640868
 20
8.584884178
 30
0.0
 10
12.1108377177
 20
8.5804592985
 30
0.0
 10
12.110034584
 20
8.5760343971
 30
0.0
 10
12.1093652382
 20
8.5723470822
 30
0.0
 10
12.1088299157
 20
8.5693969942
 30
0.0
 10
12.108428002
 20
8.5671850745
 30
0.0
 10
12.1080944156
 20
8.5653397522
 30
0.0
 10
12.1078582723
 20
8.5640520613
 30
0.0
 10
12.1077274442
 20
8.563309938
 30
0.0
 10
12.1076177424
 20
8.5627710927
 30
0.0
 10
12.1075523083
 20
8.5621644085
 30
0.0
 10
12.1074496217
 20
8.5613791592
 30
0.0
 10
12.1072771146
 20
8.559993948
 30
0.0
 10
12.1070269145
 20
8.5580208388
 30
0.0
 10
12.1067282844
 20
8.5556506406
 30
0.0
 10
12.1063295484
 20
8.5524912383
 30
0.0
 10
12.1058313228
 20
8.5485416887
 30
0.0
 10
12.1052333626
 20
8.5438023601
 30
0.0
 10
12.1046354492
 20
8.5390629829
 30
0.0
 10
12.1041371065
 20
8.5351135547
 30
0.0
 10
12.1037386048
 20
8.5319539097
 30
0.0
 10
12.1034392598
 20
8.5295844515
 30
0.0
 10
12.1031912962
 20
8.5276090272
 30
0.0
 10
12.1030147966
 20
8.5262279489
 30
0.0
 10
12.102918507
 20
8.5254360777
 30
0.0
 10
12.1028334237
 20
8.5248497341
 30
0.0
 10
12.1027975211
 20
8.5242344929
 30
0.0
 10
12.1027324962
 20
8.5234242512
 30
0.0
 10
12.1026266954
 20
8.5220016318
 30
0.0
 10
12.1024713727
 20
8.5199717737
 30
0.0
 10
12.1022867741
 20
8.5175348931
 30
0.0
 10
12.1020400176
 20
8.514286086
 30
0.0
 10
12.101731788
 20
8.5102249509
 30
0.0
 10
12.1013618133
 20
8.5053516439
 30
0.0
 10
12.1009918895
 20
8.5004783188
 30
0.0
 10
12.1006835327
 20
8.4964172289
 30
0.0
 10
12.1004370305
 20
8.4931683315
 30
0.0
 10
12.1002516563
 20
8.4907317261
 30
0.0
 10
12.1000987601
 20
8.4887010069
 30
0.0
 10
12.0999886275
 20
8.4872799248
 30
0.0
 10
12.0999305433
 20
8.48646722
 30
0.0
 10
12.0998733211
 20
8.4858595445
 30
0.0
 10
12.0998683108
 20
8.4852447856
 30
0.0
 10
12.0998434184
 20
8.4844275778
 30
0.0
 10
12.0998083419
 20
8.4829963129
 30
0.0
 10
12.0997537965
 20
8.4809522507
 30
0.0
 10
12.0996902409
 20
8.4784991184
 30
0.0
 10
12.0996048365
 20
8.4752283651
 30
0.0
 10
12.0994983103
 20
8.4711398947
 30
0.0
 10
12.0993703738
 20
8.4662337338
 30
0.0
 10
12.0992424907
 20
8.4613276046
 30
0.0
 10
12.099135831
 20
8.457239055
 30
0.0
 10
12.0990506936
 20
8.4539684601
 30
0.0
 10
12.0989863237
 20
8.4515148447
 30
0.0
 10
12.0989343257
 20
8.4494722941
 30
0.0
 10
12.0988947017
 20
8.4480383307
 30
0.0
 10
12.0988770955
 20
8.4472254466
 30
0.0
 10
12.0988497043
 20
8.4465974064
 30
0.0
 10
12.0988765412
 20
8.4460396131
 30
0.0
 10
12.0988934083
 20
8.4452713858
 30
0.0
 10
12.0989317388
 20
8.4439384042
 30
0.0
 10
12.0989818892
 20
8.4420281763
 30
0.0
 10
12.0990440418
 20
8.4397384576
 30
0.0
 10
12.099126223
 20
8.4366846069
 30
0.0
 10
12.099229186
 20
8.4328675999
 30
0.0
 10
12.0993526396
 20
8.4282870591
 30
0.0
 10
12.099476123
 20
8.4237065579
 30
0.0
 10
12.0995790117
 20
8.4198894521
 30
0.0
 10
12.0996613415
 20
8.416835799
 30
0.0
 10
12.0997127577
 20
8.4149271979
 30
0.0
 10
12.0997539817
 20
8.413400472
 30
0.0
 10
12.0997846507
 20
8.4122550033
 30
0.0
 10
12.0998110001
 20
8.411301796
 30
0.0
 10
12.0998278906
 20
8.4106319015
 30
0.0
 10
12.0998399689
 20
8.4102532415
 30
0.0
 10
12.0998421921
 20
8.4099575928
 30
0.0
 10
12.0998705438
 20
8.4097064904
 30
0.0
 10
12.0998992322
 20
8.4093561489
 30
0.0
 10
12.0999536832
 20
8.4087502909
 30
0.0
 10
12.1000292503
 20
8.4078809945
 30
0.0
 10
12.100120881
 20
8.4068394589
 30
0.0
 10
12.1002427234
 20
8.4054501789
 30
0.0
 10
12.1003951401
 20
8.4037137727
 30
0.0
 10
12.1006389433
 20
8.4009354144
 30
0.0
 10
12.1009437192
 20
8.3974625041
 30
0.0
 10
12.1013094403
 20
8.3932949941
 30
0.0
 10
12.1016751662
 20
8.3891274943
 30
0.0
 10
12.1019799299
 20
8.3856545585
 30
0.0
 10
12.1022237574
 20
8.3828762511
 30
0.0
 10
12.1023761122
 20
8.3811397153
 30
0.0
 10
12.1024980817
 20
8.3797507013
 30
0.0
 10
12.1025893242
 20
8.3787083532
 30
0.0
 10
12.102666106
 20
8.3778415988
 30
0.0
 10
12.1027183886
 20
8.377231203
 30
0.0
 10
12.1027505513
 20
8.3768881322
 30
0.0
 10
12.1027682309
 20
8.3766146964
 30
0.0
 10
12.1028105366
 20
8.3764029282
 30
0.0
 10
12.1028583543
 20
8.3760990602
 30
0.0
 10
12.1029460374
 20
8.3755773132
 30
0.0
 10
12.1030692066
 20
8.3748267208
 30
0.0
 10
12.1032179053
 20
8.3739282526
 30
0.0
 10
12.1034158574
 20
8.3727295116
 30
0.0
 10
12.1036634046
 20
8.3712313537
 30
0.0
 10
12.1040594203
 20
8.368834151
 30
0.0
 10
12.1045544606
 20
8.3658376996
 30
0.0
 10
12.1051484995
 20
8.3622419338
 30
0.0
 10
12.105742543
 20
8.3586461809
 30
0.0
 10
12.1062375717
 20
8.3556496974
 30
0.0
 10
12.1066336106
 20
8.3532525588
 30
0.0
 10
12.1068810986
 20
8.3517542382
 30
0.0
 10
12.1070791723
 20
8.350555831
 30
0.0
 10
12.1072274997
 20
8.3496563431
 30
0.0
 10
12.1073518305
 20
8.3489089413
 30
0.0
 10
12.10743744
 20
8.3483814985
 30
0.0
 10
12.1074885801
 20
8.3480867567
 30
0.0
 10
12.1075206805
 20
8.3478469557
 30
0.0
 10
12.1075766894
 20
8.3476788061
 30
0.0
 10
12.1076430283
 20
8.3474296138
 30
0.0
 10
12.107763007
 20
8.347005172
 30
0.0
 10
12.1079323738
 20
8.3463927386
 30
0.0
 10
12.1081364834
 20
8.3456604243
 30
0.0
 10
12.1084083258
 20
8.3446830951
 30
0.0
 10
12.1087482329
 20
8.3434617453
 30
0.0
 10
12.109292026
 20
8.3415074113
 30
0.0
 10
12.1099717874
 20
8.3390645537
 30
0.0
 10
12.1107874925
 20
8.3361330987
 30
0.0
 10
12.1114672488
 20
8.333690226
 30
0.0
 10
12.1120110532
 20
8.3317359253
 30
0.0
 10
12.1124189072
 20
8.3302702034
 30
0.0
 10
12.1128267588
 20
8.3288044686
 30
0.0
 10
12.1131666424
 20
8.3275830627
 30
0.0
 10
12.1134385329
 20
8.3266058489
 30
0.0
 10
12.113608502
 20
8.3259952933
 30
0.0
 10
12.1137443914
 20
8.3255063837
 30
0.0
 10
12.1138465434
 20
8.3251409751
 30
0.0
 10
12.1139309226
 20
8.3248324164
 30
0.0
 10
12.1140001024
 20
8.3245946563
 30
0.0
 10
12.1140474067
 20
8.3243915067
 30
0.0
 10
12.1141121947
 20
8.3242831316
 30
0.0
 10
12.1141924715
 20
8.3241055255
 30
0.0
 10
12.1142949128
 20
8.3238948764
 30
0.0
 10
12.1144169455
 20
8.3236372357
 30
0.0
 10
12.1145799691
 20
8.3232954129
 30
0.0
 10
12.1147836413
 20
8.3228675529
 30
0.0
 10
12.1151095767
 20
8.3221833019
 30
0.0
 10
12.1155169754
 20
8.3213278766
 30
0.0
 10
12.1160058627
 20
8.3203014141
 30
0.0
 10
12.1164947477
 20
8.3192749388
 30
0.0
 10
12.1171465951
 20
8.3179063096
 30
0.0
 10
12.117961404
 20
8.3161955213
 30
0.0
 10
12.1187762132
 20
8.3144847342
 30
0.0
 10
12.1194280603
 20
8.3131161032
 30
0.0
 10
12.1199169461
 20
8.3120896333
 30
0.0
 10
12.12040583
 20
8.3110631504
 30
0.0
 10
12.1208132394
 20
8.3102077887
 30
0.0
 10
12.121139153
 20
8.3095234081
 30
0.0
 10
12.1213428808
 20
8.3090958779
 30
0.0
 10
12.1215057902
 20
8.308753378
 30
0.0
 10
12.1216281715
 20
8.3084978058
 30
0.0
 10
12.1217295223
 20
8.3082806849
 30
0.0
 10
12.1218120239
 20
8.3081162825
 30
0.0
 10
12.1218700174
 20
8.3079675843
 30
0.0
 10
12.1219428314
 20
8.3079158244
 30
0.0
 10
12.1220347397
 20
8.3078129494
 30
0.0
 10
12.1221514014
 20
8.3076959735
 30
0.0
 10
12.1222906351
 20
8.3075506296
 30
0.0
 10
12.1224765455
 20
8.3073585746
 30
0.0
 10
12.1227088427
 20
8.3071179111
 30
0.0
 10
12.1230805689
 20
8.306733182
 30
0.0
 10
12.1235452093
 20
8.3062521565
 30
0.0
 10
12.1241027852
 20
8.3056749748
 30
0.0
 10
12.1246603591
 20
8.30509778
 30
0.0
 10
12.1254037917
 20
8.3043281915
 30
0.0
 10
12.1263330822
 20
8.3033662043
 30
0.0
 10
12.1272623729
 20
8.3024042181
 30
0.0
 10
12.1280058052
 20
8.3016346278
 30
0.0
 10
12.1285633799
 20
8.3010574387
 30
0.0
 10
12.1291209531
 20
8.3004802358
 30
0.0
 10
12.1295856018
 20
8.2999992762
 30
0.0
 10
12.1299573111
 20
8.2996144127
 30
0.0
 10
12.1301896514
 20
8.299374091
 30
0.0
 10
12.1303754733
 20
8.2991813346
 30
0.0
 10
12.1305149774
 20
8.2990381336
 30
0.0
 10
12.1306307931
 20
8.2989144528
 30
0.0
 10
12.1307244273
 20
8.2988252571
 30
0.0
 10
12.1307919707
 20
8.2987317213
 30
0.0
 10
12.1308697522
 20
8.2987398673
 30
0.0
 10
12.1309698847
 20
8.2987152099
 30
0.0
 10
12.1310962773
 20
8.2986965744
 30
0.0
 10
12.1312474232
 20
8.2986689958
 30
0.0
 10
12.1314491345
 20
8.2986340461
 30
0.0
 10
12.1317012108
 20
8.2985897351
 30
0.0
 10
12.132104568
 20
8.2985191863
 30
0.0
 10
12.1326087524
 20
8.2984308806
 30
0.0
 10
12.133213779
 20
8.2983249651
 30
0.0
 10
12.1338188041
 20
8.2982190358
 30
0.0
 10
12.1346255048
 20
8.2980778016
 30
0.0
 10
12.1356338804
 20
8.2979012572
 30
0.0
 10
12.1366422562
 20
8.2977247132
 30
0.0
 10
12.1374489567
 20
8.2975834783
 30
0.0
 10
12.1380539821
 20
8.2974775509
 30
0.0
 10
12.1386590078
 20
8.2973716285
 30
0.0
 10
12.1391631948
 20
8.2972833442
 30
0.0
 10
12.1395665469
 20
8.2972127517
 30
0.0
 10
12.1398186361
 20
8.2971685518
 30
0.0
 10
12.1400203209
 20
8.2971333743
 30
0.0
 10
12.1401715478
 20
8.2971064916
 30
0.0
 10
12.140297687
 20
8.2970856785
 30
0.0
 10
12.1403857552
 20
8.2970679907
 30
0.0
 10
12.1404364378
 20
8.2970627529
 30
0.0
 10
12.1404734417
 20
8.2970451069
 30
0.0
 10
12.1405142986
 20
8.2970798969
 30
0.0
 10
12.1405674304
 20
8.2971079934
 30
0.0
 10
12.1406610373
 20
8.2971656839
 30
0.0
 10
12.1407944341
 20
8.2972436437
 30
0.0
 10
12.1409546504
 20
8.2973391025
 30
0.0
 10
12.1411682232
 20
8.2974657147
 30
0.0
 10
12.1414352059
 20
8.2976242081
 30
0.0
 10
12.1418623689
 20
8.2978776701
 30
0.0
 10
12.1423963258
 20
8.2981945413
 30
0.0
 10
12.1430370727
 20
8.298574768
 30
0.0
 10
12.14367782
 20
8.2989549996
 30
0.0
 10
12.1445321496
 20
8.2994619735
 30
0.0
 10
12.1456000617
 20
8.3000956914
 30
0.0
 10
12.1468815562
 20
8.3008561526
 30
0.0
 10
12.1485902154
 20
8.301870101
 30
0.0
 10
12.1498717099
 20
8.3026305622
 30
0.0
 10
12.1507260395
 20
8.3031375364
 30
0.0
  0
ELLIPSE
  5
47B
100
AcDbEntity
  8
0
100
AcDbEllipse
 62
7
  6
CONTINUOUS
 10
10.3222776428
 20
9.776826799
 30
0.0
 11
0.0910353894
 21
0.1773713926
 31
0.0
 40
0.8583630142
 41
2.1221815022
 42
4.1260564007
  0
ELLIPSE
  5
47C
100
AcDbEntity
  8
0
100
AcDbEllipse
 62
7
  6
CONTINUOUS
 10
10.3222776428
 20
9.776826799
 30
0.0
 11
0.0910353894
 21
0.1773713926
 31
0.0
 40
0.8583630142
 41
-1.0194111514
 42
0.9844637471
  0
ELLIPSE
  5
47D
100
AcDbEntity
  8
0
100
AcDbEllipse
 62
7
  6
CONTINUOUS
 10
10.3222776428
 20
9.776826799
 30
0.0
 11
0.0463191243
 21
0.1751165513
 31
0.0
 40
0.9881608447
 41
-2.439136126
 42
-1.1689964247
  0
ELLIPSE
  5
47E
100
AcDbEntity
  8
0
100
AcDbEllipse
 62
7
  6
CONTINUOUS
 10
10.3222776428
 20
9.776826799
 30
0.0
 11
0.0463191243
 21
0.1751165513
 31
0.0
 40
0.9881608447
 41
6.9856418348
 42
8.255781536
  0
ENDSEC
  0
SECTION
  2
OBJECTS
  0
DICTIONARY
  5
C
100
AcDbDictionary
280
0
281
1
  3
ACAD_GROUP
350
D
  3
ACAD_MLINESTYLE
350
17
  3
ACAD_LAYOUT
350
1A
  3
ACAD_PLOTSETTINGS
350
19
  3
ACAD_PLOTSTYLENAME
350
E
  3
ACAD_IMAGE_DICT
350
       480
  3
ACAD_IMAGE_VARS
350
       481
  3
ACAD_TABLESTYLE
350
       482
  0
IMAGEDEF_REACTOR
  5
47F
100
AcDbRasterImageDefReactor
 90
2
330
272
  0
DICTIONARY
  5
D
102
{ACAD_REACTORS
330
C
102
}
100
AcDbDictionary
280
0
281
1
  0
ACDBDICTIONARYWDFLT
  5
E
102
{ACAD_REACTORS
330
C
102
}
100
AcDbDictionary
281
1
  3
Normal
350
F
100
AcDbDictionaryWithDefault
340
F
  0
DICTIONARY
  5
480
330
C
100
AcDbDictionary
281
1
  3
BB5_assy_2_img_1
350
       485
  0
RASTERVARIABLES
  5
481
330
C
100
AcDbRasterVariables
 90
0
 70
0
 71
1
 72
5
  0
DICTIONARY
  5
17
102
{ACAD_REACTORS
330
C
102
}
100
AcDbDictionary
280
0
281
1
  3
Standard
350
18
  0
DICTIONARY
  5
482
330
C
100
AcDbDictionary
281
1
  3
Standard
350
       486
  3
Standard1
350
       487
  0
DICTIONARY
  5
19
102
{ACAD_REACTORS
330
C
102
}
100
AcDbDictionary
281
1
  0
DICTIONARY
  5
1A
102
{ACAD_REACTORS
330
C
102
}
100
AcDbDictionary
281
1
  3
Model
350
483
  3
Layout1
350
484
  0
ACDBPLACEHOLDER
  5
F
102
{ACAD_REACTORS
330
E
102
}
  0
MLINESTYLE
  5
18
102
{ACAD_REACTORS
330
17
102
}
100
AcDbMlineStyle
  2
STANDARD
 70
0
  3

 62
256
 51
90.0
 52
90.0
 71
2
 49
0.5
 62
256
  6
BYLAYER
 49
-0.5
 62
256
  6
BYLAYER
  0
LAYOUT
  5
483
102
{ACAD_REACTORS
330
1A
102
}
100
AcDbPlotSettings
  1

  2
none_device
  4
ANSI_C_(22.00_x_17.00_Inches)
  6

 40
0.0
 41
0.0
 42
0.0
 43
0.0
 44
558.8
 45
431.8
 46
0.0
 47
0.0
 48
0.0
 49
0.0
140
0.0
141
0.0
142
1.0
143
1.0
 70
1024
 72
0
 73
0
 74
0
  7

 75
0
147
1.0
148
0.0
149
0.0
100
AcDbLayout
  1
Model
 70
0
 71
0
 10
0.0
 20
0.0
 11
22.0
 21
17.0
 12
0.0
 22
0.0
 32
0.0
 14
0.0
 24
0.0
 34
0.0
 15
0.0
 25
0.0
 35
0.0
146
0.0
 13
0.0
 23
0.0
 33
0.0
 16
1.0
 26
0.0
 36
0.0
 17
0.0
 27
1.0
 37
0.0
 76
0
330
20C
345
0
346
0
  0
LAYOUT
  5
484
102
{ACAD_REACTORS
330
1A
102
}
100
AcDbPlotSettings
  1

  2
none_device
  4
ANSI_C_(22.00_x_17.00_Inches)
  6

 40
0.0
 41
0.0
 42
0.0
 43
0.0
 44
558.8
 45
431.8
 46
0.0
 47
0.0
 48
0.0
 49
0.0
140
0.0
141
0.0
142
1.0
143
1.0
 70
0
 72
0
 73
0
 74
0
  7

 75
0
147
1.0
148
0.0
149
0.0
100
AcDbLayout
  1
Layout1
 70
0
 71
1
 10
0.0
 20
0.0
 11
22.0
 21
17.0
 12
0.0
 22
0.0
 32
0.0
 14
0.0
 24
0.0
 34
0.0
 15
0.0
 25
0.0
 35
0.0
146
0.0
 13
0.0
 23
0.0
 33
0.0
 16
1.0
 26
0.0
 36
0.0
 17
0.0
 27
1.0
 37
0.0
 76
0
330
20D
345
0
346
0
  0
IMAGEDEF
  5
485
102
{ACAD_REACTORS
330
480
330
47F
102
}
100
AcDbRasterImageDef
 90
0
  1
BB5_assy_2_img_1.png
 10
369.0
 20
92.0
 11
0.0066666667
 21
0.0066666667
280
1
281
0
  0
TABLESTYLE
  5
486
102
{ACAD_REACTORS
330
482
330
275
102
}
330
482
100
AcDbTableStyle
  3
Standard
 70
0
 71
0
 40
0.06
 41
0.06
280
1
281
1
  7
Standard
140
0.18
170
1
 62
0
 63
7
283
0
  7
Standard
140
0.18
170
1
 62
0
 63
7
283
0
  7
Standard
140
0.18
170
1
 62
0
 63
7
283
0
  0
TABLESTYLE
  5
487
102
{ACAD_REACTORS
330
482
330
274
102
}
330
482
100
AcDbTableStyle
  3
Standard1
 70
1
 71
0
 40
0.06
 41
0.06
280
1
281
1
  7
Standard
140
0.18
170
1
 62
0
 63
7
283
0
  7
Standard
140
0.18
170
1
 62
0
 63
7
283
0
  7
Standard
140
0.18
170
1
 62
0
 63
7
283
0
  0
ENDSEC
  0
EOF
