999
DXF file: BB3_assy_2.dxf
999
Pro/ENGINEER 2014200 by Parametric Technology Corporation
  0
SECTION
  2
HEADER
  9
$ACADVER
  1
AC1021
  9
$DWGCODEPAGE
  3
ANSI_1252
  9
$EXTMAX
 10
22.0
 20
17.0
 30
0.0
  9
$EXTMIN
 10
0.0
 20
0.0
 30
0.0
  9
$LIMMIN
 10
0.0
 20
0.0
  9
$LIMMAX
 10
22.0
 20
17.0
  9
$VIEWCTR
 10
11.0
 20
8.5
  9
$VIEWSIZE
 40
17.0
  9
$CLAYER
  8
0
  9
$LTSCALE
 40
1.21
  9
$CELTYPE
  6
BYLAYER
  9
$DIMSCALE
 40
1.0
  9
$DIMASZ
 40
0.1875
  9
$DIMEXO
 40
0.0625
  9
$DIMDLI
 40
0.836
  9
$DIMEXE
 40
0.125
  9
$DIMCEN
 40
0.198
  9
$DIMLFAC
 40
1.0
  9
$DIMBLK
  1
_FILLED
  9
$DIMTXT
 40
0.1
  9
$DIMTOL
 70
0
  9
$DIMLIM
 70
0
  9
$DIMTFAC
 40
1.0
  9
$DIMGAP
 40
0.09
  9
$DIMDSEP
 70
46
  9
$AUNITS
 70
0
  9
$PDMODE
 70
3
  9
$PDSIZE
 40
0.3125
  9
$HANDSEED
  5
341
  9
$TILEMODE
 70
1
  9
$MEASUREMENT
 70
0
  9
$INSUNITS
 70
1
  0
ENDSEC
  0
SECTION
  2
CLASSES
  0
CLASS
  1
ACDBDICTIONARYWDFLT
  2
AcDbDictionaryWithDefault
  3
AutoCAD 2000
 90
0
 91
1
280
0
281
0
  0
CLASS
  1
ACDBPLACEHOLDER
  2
AcDbPlaceHolder
  3
AutoCAD 2000
 90
0
 91
1
280
0
281
0
  0
CLASS
  1
LAYOUT
  2
AcDbLayout
  3
AutoCAD 2000
 90
0
 91
0
280
0
281
0
  0
CLASS
  1
RASTERVARIABLES
  2
AcDbRasterVariables
  3
ISM
 90
0
 91
1
280
0
281
0
  0
CLASS
  1
IMAGEDEF
  2
AcDbRasterImageDef
  3
ISM
 90
0
 91
1
280
0
281
0
  0
CLASS
  1
IMAGEDEF_REACTOR
  2
AcDbRasterImageDefReactor
  3
ISM
 90
0
 91
1
280
0
281
0
  0
CLASS
  1
IMAGE
  2
AcDbRasterImage
  3
ISM
 90
127
 91
1
280
0
281
1
  0
CLASS
  1
TABLESTYLE
  2
AcDbTableStyle
  3
ObjectDBX Classes
 90
2047
 91
1
280
0
281
0
  0
CLASS
  1
ACAD_TABLE
  2
AcDbTable
  3
ObjectDBX Classes
 90
1025
 91
2
280
0
281
1
  0
ENDSEC
  0
SECTION
  2
TABLES
  0
TABLE
  2
VPORT
  5
8
100
AcDbSymbolTable
 70
2
  0
VPORT
  5
1F4
100
AcDbSymbolTableRecord
100
AcDbViewportTableRecord
  2
*ACTIVE
 70
0
 10
0.0
 20
0.0
 11
1.0
 21
1.0
 12
11.0
 22
8.5
 13
0.0
 23
0.0
 14
1.0
 24
1.0
 15
0.0
 25
0.0
 16
0.0
 26
0.0
 36
1.0
 17
0.0
 27
0.0
 37
0.0
 40
17.0
 41
1.2941176471
 42
50.0
 43
0.0
 44
0.0
 50
0.0
 51
0.0
 71
0
 72
100
 73
1
 74
1
 75
0
 76
0
 77
0
 78
0
  0
ENDTAB
  0
TABLE
  2
LTYPE
  5
5
100
AcDbSymbolTable
 70
6
  0
LTYPE
  5
14
100
AcDbSymbolTableRecord
100
AcDbLinetypeTableRecord
  2
BYBLOCK
 70
0
  3

 72
65
 73
0
 40
0.0
  0
LTYPE
  5
15
100
AcDbSymbolTableRecord
100
AcDbLinetypeTableRecord
  2
BYLAYER
 70
0
  3

 72
65
 73
0
 40
0.0
  0
LTYPE
  5
16
100
AcDbSymbolTableRecord
100
AcDbLinetypeTableRecord
  2
CONTINUOUS
 70
64
  3
Solid line
 72
65
 73
0
 40
0.0
  0
LTYPE
  5
1F5
100
AcDbSymbolTableRecord
100
AcDbLinetypeTableRecord
  2
CENTER
 70
64
  3
____ _ ____ _ ____ _ ____ _ ____ _ ____ _ ____
 72
65
 73
4
 40
0.6
 49
0.375
 74
0
 49
-0.075
 74
0
 49
0.075
 74
0
 49
-0.075
 74
0
  0
LTYPE
  5
1F6
100
AcDbSymbolTableRecord
100
AcDbLinetypeTableRecord
  2
HIDDEN
 70
64
  3
- - - - - - - - - - - - - - - - - - - -
 72
65
 73
2
 40
0.2
 49
0.1
 74
0
 49
-0.1
 74
0
  0
LTYPE
  5
1F7
100
AcDbSymbolTableRecord
100
AcDbLinetypeTableRecord
  2
PHANTOM
 70
64
  3
_____ _ _ _____ _ _ _____ _ _ _____
 72
65
 73
6
 40
0.8
 49
0.45
 74
0
 49
-0.05
 74
0
 49
0.1
 74
0
 49
-0.05
 74
0
 49
0.1
 74
0
 49
-0.05
 74
0
  0
LTYPE
  5
1F8
100
AcDbSymbolTableRecord
100
AcDbLinetypeTableRecord
  2
DOT
 70
64
  3
. . . . . . . . . . . . . . . . . . . .
 72
65
 73
2
 40
0.2
 49
0.1
 74
0
 49
-0.1
 74
0
  0
LTYPE
  5
1F9
100
AcDbSymbolTableRecord
100
AcDbLinetypeTableRecord
  2
DASHED
 70
64
  3
- - - - - - - - - - - - - - - - - - - -
 72
65
 73
2
 40
0.2
 49
0.1
 74
0
 49
-0.1
 74
0
  0
ENDTAB
  0
TABLE
  2
LAYER
  5
2
100
AcDbSymbolTable
 70
36
  0
LAYER
  5
10
100
AcDbSymbolTableRecord
100
AcDbLayerTableRecord
  2
0
 70
0
 62
7
  6
CONTINUOUS
370
-3
390
F
  0
LAYER
  5
1FA
100
AcDbSymbolTableRecord
100
AcDbLayerTableRecord
  2
DEFAULT_1
 70
0
 62
7
  6
CENTER
370
-3
390
F
  0
LAYER
  5
1FB
100
AcDbSymbolTableRecord
100
AcDbLayerTableRecord
  2
DEFAULT_2
 70
0
 62
8
  6
HIDDEN
370
-3
390
F
  0
LAYER
  5
1FC
100
AcDbSymbolTableRecord
100
AcDbLayerTableRecord
  2
DEFAULT_3
 70
0
 62
7
  6
PHANTOM
370
-3
390
F
  0
LAYER
  5
1FD
100
AcDbSymbolTableRecord
100
AcDbLayerTableRecord
  2
01___PRT_ALL_DTM_PLN
 70
0
 62
7
  6
CONTINUOUS
370
-3
390
F
  0
LAYER
  5
1FE
100
AcDbSymbolTableRecord
100
AcDbLayerTableRecord
  2
01___PRT_DEF_DTM_PLN
 70
0
 62
7
  6
CONTINUOUS
370
-3
390
F
  0
LAYER
  5
1FF
100
AcDbSymbolTableRecord
100
AcDbLayerTableRecord
  2
02___PRT_ALL_AXES
 70
0
 62
7
  6
CONTINUOUS
370
-3
390
F
  0
LAYER
  5
200
100
AcDbSymbolTableRecord
100
AcDbLayerTableRecord
  2
03___PRT_ALL_CURVES
 70
0
 62
7
  6
CONTINUOUS
370
-3
390
F
  0
LAYER
  5
201
100
AcDbSymbolTableRecord
100
AcDbLayerTableRecord
  2
04___PRT_ALL_DTM_PNT
 70
0
 62
7
  6
CONTINUOUS
370
-3
390
F
  0
LAYER
  5
202
100
AcDbSymbolTableRecord
100
AcDbLayerTableRecord
  2
05___PRT_ALL_DTM_CSYS
 70
0
 62
7
  6
CONTINUOUS
370
-3
390
F
  0
LAYER
  5
203
100
AcDbSymbolTableRecord
100
AcDbLayerTableRecord
  2
05___PRT_DEF_DTM_CSYS
 70
0
 62
7
  6
CONTINUOUS
370
-3
390
F
  0
LAYER
  5
204
100
AcDbSymbolTableRecord
100
AcDbLayerTableRecord
  2
06___PRT_ALL_SURFS
 70
0
 62
7
  6
CONTINUOUS
370
-3
390
F
  0
LAYER
  5
205
100
AcDbSymbolTableRecord
100
AcDbLayerTableRecord
  2
DATUM_PLANES
 70
0
 62
7
  6
CONTINUOUS
370
-3
390
F
  0
LAYER
  5
206
100
AcDbSymbolTableRecord
100
AcDbLayerTableRecord
  2
PORT_AREAS
 70
0
 62
7
  6
CONTINUOUS
370
-3
390
F
  0
LAYER
  5
207
100
AcDbSymbolTableRecord
100
AcDbLayerTableRecord
  2
SUNNBOMCOSMETIC
 70
0
 62
7
  6
CONTINUOUS
370
-3
390
F
  0
LAYER
  5
208
100
AcDbSymbolTableRecord
100
AcDbLayerTableRecord
  2
SUNNBOMSTAMPING
 70
0
 62
7
  6
CONTINUOUS
370
-3
390
F
  0
LAYER
  5
209
100
AcDbSymbolTableRecord
100
AcDbLayerTableRecord
  2
THREADS
 70
0
 62
7
  6
CONTINUOUS
370
-3
390
F
  0
ENDTAB
  0
TABLE
  2
STYLE
  5
3
100
AcDbSymbolTable
 70
1
  0
STYLE
  5
11
100
AcDbSymbolTableRecord
100
AcDbTextStyleTableRecord
  2
STANDARD
 70
0
 40
0.0
 41
0.8
 50
0.0
 71
0
 42
0.2
  3
txt
  4

  0
STYLE
  5
20A
100
AcDbSymbolTableRecord
100
AcDbTextStyleTableRecord
  2
TEXTSTYLE_1
 70
0
 40
0.0
 41
0.8
 50
0.0
 71
0
 42
0.2
  3
gdt
  4

  0
ENDTAB
  0
TABLE
  2
VIEW
  5
6
100
AcDbSymbolTable
 70
0
  0
ENDTAB
  0
TABLE
  2
UCS
  5
7
100
AcDbSymbolTable
 70
0
  0
ENDTAB
  0
TABLE
  2
APPID
  5
9
100
AcDbSymbolTable
 70
1
  0
APPID
  5
20B
100
AcDbSymbolTableRecord
100
AcDbRegAppTableRecord
  2
ACAD
 70
0
  0
ENDTAB
  0
TABLE
  2
BLOCK_RECORD
  5
1
100
AcDbSymbolTable
 70
0
  0
BLOCK_RECORD
  5
20C
100
AcDbSymbolTableRecord
100
AcDbBlockTableRecord
  2
*Model_Space
  0
BLOCK_RECORD
  5
20D
100
AcDbSymbolTableRecord
100
AcDbBlockTableRecord
  2
*Paper_Space
  0
BLOCK_RECORD
  5
20E
100
AcDbSymbolTableRecord
100
AcDbBlockTableRecord
  2
SUN_FIRST_THIRD_ANGLE_BL0
  0
BLOCK_RECORD
  5
20F
100
AcDbSymbolTableRecord
100
AcDbBlockTableRecord
  2
*T1
  0
BLOCK_RECORD
  5
210
100
AcDbSymbolTableRecord
100
AcDbBlockTableRecord
  2
*T2
  0
ENDTAB
  0
TABLE
  2
DIMSTYLE
  5
A
100
AcDbSymbolTable
 70
1
100
AcDbDimStyleTable
 71
0
  0
DIMSTYLE
105
211
100
AcDbSymbolTableRecord
100
AcDbDimStyleTableRecord
  2
STANDARD
 70
0
  3

  4

 40
1.0
 41
0.1875
 42
0.0625
 43
0.38
 44
0.125
 45
0.0
 46
0.0
 47
0.001
 48
0.001
140
0.1
141
0.09
142
0.0
143
25.4
144
1.0
145
0.0
146
1.0
147
0.09
 71
0.0
 72
0.0
 73
1
 74
1
 75
0
 76
0
 77
0
 78
4
170
0
171
2
172
0
173
0
174
0
175
0
176
0
177
0
178
0
270
2
271
3
272
3
273
2
274
2
275
0
280
0
281
0
282
0
283
1
284
4
285
0
286
0
287
3
288
0
340
11
278
46
  0
ENDTAB
  0
ENDSEC
  0
SECTION
  2
BLOCKS
  0
BLOCK
  5
20
100
AcDbEntity
  8
0
100
AcDbBlockBegin
  2
*Model_Space
 70
0
 10
0.0
 20
0.0
 30
0.0
  3
*Model_Space
  1

  0
ENDBLK
  5
21
100
AcDbEntity
  8
0
100
AcDbBlockEnd
  0
BLOCK
  5
1C
100
AcDbEntity
  8
0
100
AcDbBlockBegin
  2
*Paper_Space
 70
0
 10
0.0
 20
0.0
 30
0.0
  3
*Paper_Space
  1

  0
ENDBLK
  5
1D
100
AcDbEntity
  8
0
100
AcDbBlockEnd
  0
BLOCK
  5
212
100
AcDbEntity
  8
0
100
AcDbBlockBegin
 62
2
  6
CONTINUOUS
  2
SUN_FIRST_THIRD_ANGLE_BL0
 70
64
 10
20.4816717061
 20
1.2289683772
  3
SUN_FIRST_THIRD_ANGLE_BL0
  1

  0
TEXT
  5
213
100
AcDbEntity
  8
0
100
AcDbText
 62
2
  6
CONTINUOUS
 10
19.4750896608
 20
1.4136269581
  7
STANDARD
 40
0.08
  1
FIRST ANGLE
 41
0.8
 72
0
100
AcDbText
  0
TEXT
  5
214
100
AcDbEntity
  8
0
100
AcDbText
 62
2
  6
CONTINUOUS
 10
20.7842537513
 20
1.4047600029
  7
STANDARD
 40
0.08
  1
THIRD ANGLE
 41
0.8
 72
0
100
AcDbText
  0
LINE
  5
215
100
AcDbEntity
  8
0
100
AcDbLine
 62
7
  6
CONTINUOUS
 10
19.4767170086
 20
1.1727031207
 11
19.6334271527
 21
1.1717972817
  0
LINE
  5
216
100
AcDbEntity
  8
0
100
AcDbLine
 62
7
  6
CONTINUOUS
 10
19.6596964832
 20
1.1717972817
 11
19.6950230232
 21
1.171593082
  0
LINE
  5
217
100
AcDbEntity
  8
0
100
AcDbLine
 62
7
  6
CONTINUOUS
 10
19.7194818561
 20
1.1708914427
 11
19.8852396156
 21
1.1699333054
  0
LINE
  5
218
100
AcDbEntity
  8
0
100
AcDbLine
 62
7
  6
CONTINUOUS
 10
19.4758111696
 20
1.2723454088
 11
19.88525039
 21
1.3511534004
  0
LINE
  5
219
100
AcDbEntity
  8
0
100
AcDbLine
 62
7
  6
CONTINUOUS
 10
19.88525039
 20
1.3511534004
 11
19.8831348489
 21
0.9851647912
  0
LINE
  5
21A
100
AcDbEntity
  8
0
100
AcDbLine
 62
7
  6
CONTINUOUS
 10
19.8831348489
 20
0.9851647912
 11
19.4767170086
 21
1.0658141206
  0
LINE
  5
21B
100
AcDbEntity
  8
0
100
AcDbLine
 62
7
  6
CONTINUOUS
 10
19.4767170086
 20
1.0658141206
 11
19.4779056764
 21
1.2714536432
  0
CIRCLE
  5
21C
100
AcDbEntity
  8
0
100
AcDbCircle
 62
7
  6
CONTINUOUS
 10
20.2068232291
 20
1.1717972817
 40
0.175742101
  0
CIRCLE
  5
21D
100
AcDbEntity
  8
0
100
AcDbCircle
 62
7
  6
CONTINUOUS
 10
20.2068232291
 20
1.1717972817
 40
0.1005522074
  0
LINE
  5
21E
100
AcDbEntity
  8
0
100
AcDbLine
 62
7
  6
CONTINUOUS
 10
20.2077290681
 20
1.3756110529
 11
20.2071171714
 21
1.2379342989
  0
LINE
  5
21F
100
AcDbEntity
  8
0
100
AcDbLine
 62
7
  6
CONTINUOUS
 10
20.2077290681
 20
1.2016899681
 11
20.2074674401
 21
1.1428236749
  0
LINE
  5
220
100
AcDbEntity
  8
0
100
AcDbLine
 62
7
  6
CONTINUOUS
 10
20.208634907
 20
1.101141841
 11
20.2080230104
 21
0.963465087
  0
LINE
  5
221
100
AcDbEntity
  8
0
100
AcDbLine
 62
7
  6
CONTINUOUS
 10
20.0066328138
 20
1.1745147986
 11
20.1443095678
 21
1.1739029019
  0
LINE
  5
222
100
AcDbEntity
  8
0
100
AcDbLine
 62
7
  6
CONTINUOUS
 10
20.1832714155
 20
1.1727031207
 11
20.238153505
 21
1.172335442
  0
LINE
  5
223
100
AcDbEntity
  8
0
100
AcDbLine
 62
7
  6
CONTINUOUS
 10
20.2756669918
 20
1.1717972817
 11
20.407916871
 21
1.1712095044
  0
CIRCLE
  5
224
100
AcDbEntity
  8
0
100
AcDbCircle
 62
7
  6
CONTINUOUS
 10
20.7509457401
 20
1.1693297793
 40
0.1722024983
  0
CIRCLE
  5
225
100
AcDbEntity
  8
0
100
AcDbCircle
 62
7
  6
CONTINUOUS
 10
20.7509457401
 20
1.1693297793
 40
0.0985164967
  0
LINE
  5
226
100
AcDbEntity
  8
0
100
AcDbLine
 62
7
  6
CONTINUOUS
 10
20.7169767782
 20
1.170462078
 11
20.7825395137
 21
1.1682766535
  0
LINE
  5
227
100
AcDbEntity
  8
0
100
AcDbLine
 62
7
  6
CONTINUOUS
 10
20.8177513651
 20
1.1693297793
 11
20.947965719
 21
1.1693297793
  0
LINE
  5
228
100
AcDbEntity
  8
0
100
AcDbLine
 62
7
  6
CONTINUOUS
 10
20.6875370113
 20
1.170462078
 11
20.5573226574
 21
1.170462078
  0
LINE
  5
229
100
AcDbEntity
  8
0
100
AcDbLine
 62
7
  6
CONTINUOUS
 10
20.7486811426
 20
1.1987695462
 11
20.7486811426
 21
1.1432869085
  0
LINE
  5
22A
100
AcDbEntity
  8
0
100
AcDbLine
 62
7
  6
CONTINUOUS
 10
20.7498134414
 20
1.1059210505
 11
20.7498134414
 21
0.9757066966
  0
LINE
  5
22B
100
AcDbEntity
  8
0
100
AcDbLine
 62
7
  6
CONTINUOUS
 10
20.7486811426
 20
1.2338708068
 11
20.7486811426
 21
1.3640851607
  0
LINE
  5
22C
100
AcDbEntity
  8
0
100
AcDbLine
 62
7
  6
CONTINUOUS
 10
21.0702539817
 20
1.2701043662
 11
21.4790138229
 21
1.3448360823
  0
LINE
  5
22D
100
AcDbEntity
  8
0
100
AcDbLine
 62
7
  6
CONTINUOUS
 10
21.4790138229
 20
1.3448360823
 11
21.4790138229
 21
0.9779712941
  0
LINE
  5
22E
100
AcDbEntity
  8
0
100
AcDbLine
 62
7
  6
CONTINUOUS
 10
21.4790138229
 20
0.9779712941
 11
21.069121683
 21
1.0617614
  0
LINE
  5
22F
100
AcDbEntity
  8
0
100
AcDbLine
 62
7
  6
CONTINUOUS
 10
21.0702539817
 20
1.2701043662
 11
21.069121683
 21
1.0617614
  0
LINE
  5
230
100
AcDbEntity
  8
0
100
AcDbLine
 62
7
  6
CONTINUOUS
 10
21.4790138229
 20
1.1693297793
 11
21.3159628059
 21
1.1693297793
  0
LINE
  5
231
100
AcDbEntity
  8
0
100
AcDbLine
 62
7
  6
CONTINUOUS
 10
21.2876553377
 20
1.1693297793
 11
21.2502894796
 21
1.1693297793
  0
LINE
  5
232
100
AcDbEntity
  8
0
100
AcDbLine
 62
7
  6
CONTINUOUS
 10
21.2208497126
 20
1.1659328831
 11
21.0713862804
 21
1.1659328831
  0
LINE
  5
233
100
AcDbEntity
  8
0
100
AcDbLine
 62
7
  6
CONTINUOUS
 10
20.4796138713
 20
1.5284908897
 11
20.4766766948
 21
0.9294458646
  0
ENDBLK
  5
234
100
AcDbEntity
  8
0
  6
BYBLOCK
 62
0
100
AcDbBlockEnd
  0
BLOCK
  5
235
100
AcDbEntity
  8
0
100
AcDbBlockBegin
  2
*T1
 70
1
 10
0.0
 20
0.0
  3
*T1
  1

  0
LINE
  5
236
100
AcDbEntity
  8
0
100
AcDbLine
 62
2
  6
CONTINUOUS
 10
9.275
 20
0.0
 11
-0.0
 21
0.0
  0
LINE
  5
237
100
AcDbEntity
  8
0
100
AcDbLine
 62
2
  6
CONTINUOUS
 10
9.275
 20
0.0
 11
9.275
 21
1.25
  0
LINE
  5
238
100
AcDbEntity
  8
0
100
AcDbLine
 62
2
  6
CONTINUOUS
 10
9.275
 20
0.625
 11
-0.0
 21
0.625
  0
LINE
  5
239
100
AcDbEntity
  8
0
100
AcDbLine
 62
2
  6
CONTINUOUS
 10
9.275
 20
1.25
 11
-0.0
 21
1.25
  0
LINE
  5
23A
100
AcDbEntity
  8
0
100
AcDbLine
 62
2
  6
CONTINUOUS
 10
6.8
 20
0.0
 11
6.8
 21
1.25
  0
LINE
  5
23B
100
AcDbEntity
  8
0
100
AcDbLine
 62
2
  6
CONTINUOUS
 10
6.4
 20
0.0
 11
6.4
 21
0.625
  0
LINE
  5
23C
100
AcDbEntity
  8
0
100
AcDbLine
 62
2
  6
CONTINUOUS
 10
5.9
 20
0.0
 11
5.9
 21
0.625
  0
LINE
  5
23D
100
AcDbEntity
  8
0
100
AcDbLine
 62
2
  6
CONTINUOUS
 10
5.2
 20
0.0
 11
5.2
 21
0.625
  0
LINE
  5
23E
100
AcDbEntity
  8
0
100
AcDbLine
 62
2
  6
CONTINUOUS
 10
4.1
 20
0.0
 11
4.1
 21
1.25
  0
LINE
  5
23F
100
AcDbEntity
  8
0
100
AcDbLine
 62
2
  6
CONTINUOUS
 10
-0.0
 20
0.0
 11
-0.0
 21
1.25
  0
MTEXT
  5
240
100
AcDbEntity
  8
0
100
AcDbMText
 62
2
  6
CONTINUOUS
  7
STANDARD
 71
2
 72
1
 10
6.6
 20
0.325
 30
0.0
 11
1.0
 21
0.0
 31
0.0
 44
0.9
  1
2
 40
0.125
 41
0.2
  0
MTEXT
  5
241
100
AcDbEntity
  8
0
100
AcDbMText
 62
2
  6
CONTINUOUS
  7
STANDARD
 71
2
 72
1
 10
6.15
 20
0.325
 30
0.0
 11
1.0
 21
0.0
 31
0.0
 44
0.9
  1
C
 40
0.125
 41
0.2
  0
MTEXT
  5
242
100
AcDbEntity
  8
0
100
AcDbMText
 62
2
  6
CONTINUOUS
  7
STANDARD
 71
2
 72
1
 10
5.55
 20
0.325
 30
0.0
 11
1.0
 21
0.0
 31
0.0
 44
0.9
  1
1.000
 40
0.125
 41
1.0
  0
MTEXT
  5
243
100
AcDbEntity
  8
0
100
AcDbMText
 62
2
  6
CONTINUOUS
  7
STANDARD
 71
2
 72
1
 10
4.65
 20
0.325
 30
0.0
 11
1.0
 21
0.0
 31
0.0
 44
0.9
  1
Feb-05-24
 40
0.125
 41
1.8
  0
MTEXT
  5
244
100
AcDbEntity
  8
0
100
AcDbMText
 62
2
  6
CONTINUOUS
  7
STANDARD
 71
2
 72
1
 10
2.05
 20
0.4625
 30
0.0
 11
1.0
 21
0.0
 31
0.0
 44
0.9
  1
T-2A Sandwich ISO 05\PReducer on  B with reverse flow check
 40
0.125
 41
7.4
  0
MTEXT
  5
245
100
AcDbEntity
  8
0
100
AcDbMText
 62
2
  6
CONTINUOUS
  7
STANDARD
 71
1
 72
1
 10
6.45
 20
0.5625
 30
0.0
 11
1.0
 21
0.0
 31
0.0
 44
0.9
  1
SHEET
 40
0.06
 41
0.48
  0
MTEXT
  5
246
100
AcDbEntity
  8
0
100
AcDbMText
 62
2
  6
CONTINUOUS
  7
STANDARD
 71
1
 72
1
 10
5.95
 20
0.5625
 30
0.0
 11
1.0
 21
0.0
 31
0.0
 44
0.9
  1
DWG SIZE
 40
0.06
 41
0.768
  0
MTEXT
  5
247
100
AcDbEntity
  8
0
100
AcDbMText
 62
2
  6
CONTINUOUS
  7
STANDARD
 71
1
 72
1
 10
5.25
 20
0.5625
 30
0.0
 11
1.0
 21
0.0
 31
0.0
 44
0.9
  1
SCALE
 40
0.06
 41
0.48
  0
MTEXT
  5
248
100
AcDbEntity
  8
0
100
AcDbMText
 62
2
  6
CONTINUOUS
  7
STANDARD
 71
1
 72
1
 10
4.15
 20
0.5625
 30
0.0
 11
1.0
 21
0.0
 31
0.0
 44
0.9
  1
DATE
 40
0.06
 41
0.384
  0
MTEXT
  5
249
100
AcDbEntity
  8
0
100
AcDbMText
 62
2
  6
CONTINUOUS
  7
STANDARD
 71
1
 72
1
 10
0.05
 20
0.5625
 30
0.0
 11
1.0
 21
0.0
 31
0.0
 44
0.9
  1
DESCRIPTION
 40
0.06
 41
1.056
  0
MTEXT
  5
24A
100
AcDbEntity
  8
0
100
AcDbMText
 62
2
  6
CONTINUOUS
  7
STANDARD
 71
2
 72
1
 10
5.45
 20
1.0375
 30
0.0
 11
1.0
 21
0.0
 31
0.0
 44
0.9
  1
ALL DIMENSIONS IN INCH\PVIEWS ARE THIRD ANGLE
 40
0.12
 41
4.224
  0
MTEXT
  5
24B
100
AcDbEntity
  8
0
100
AcDbMText
 62
2
  6
CONTINUOUS
  7
STANDARD
 71
2
 72
1
 10
2.05
 20
0.95
 30
0.0
 11
1.0
 21
0.0
 31
0.0
 44
0.9
  1
BB3
 40
0.125
 41
0.6
  0
MTEXT
  5
24C
100
AcDbEntity
  8
0
100
AcDbMText
 62
2
  6
CONTINUOUS
  7
STANDARD
 71
1
 72
1
 10
0.05
 20
1.1875
 30
0.0
 11
1.0
 21
0.0
 31
0.0
 44
0.9
  1
MODEL
 40
0.06
 41
0.48
  0
ENDBLK
  5
24D
100
AcDbEntity
  8
0
  6
BYBLOCK
 62
0
100
AcDbBlockEnd
  0
BLOCK
  5
24E
100
AcDbEntity
  8
0
100
AcDbBlockBegin
  2
*T2
 70
1
 10
0.0
 20
0.0
  3
*T2
  1

  0
LINE
  5
24F
100
AcDbEntity
  8
0
100
AcDbLine
 62
2
  6
CONTINUOUS
 10
0.0
 20
0.0
 11
9.055
 21
0.0
  0
LINE
  5
250
100
AcDbEntity
  8
0
100
AcDbLine
 62
2
  6
CONTINUOUS
 10
0.0
 20
0.0
 11
0.0
 21
-2.594
  0
LINE
  5
251
100
AcDbEntity
  8
0
100
AcDbLine
 62
2
  6
CONTINUOUS
 10
0.0
 20
-0.344
 11
9.055
 21
-0.344
  0
LINE
  5
252
100
AcDbEntity
  8
0
100
AcDbLine
 62
2
  6
CONTINUOUS
 10
0.0
 20
-0.594
 11
9.055
 21
-0.594
  0
LINE
  5
253
100
AcDbEntity
  8
0
100
AcDbLine
 62
2
  6
CONTINUOUS
 10
0.0
 20
-0.844
 11
9.055
 21
-0.844
  0
LINE
  5
254
100
AcDbEntity
  8
0
100
AcDbLine
 62
2
  6
CONTINUOUS
 10
0.0
 20
-1.094
 11
9.055
 21
-1.094
  0
LINE
  5
255
100
AcDbEntity
  8
0
100
AcDbLine
 62
2
  6
CONTINUOUS
 10
0.0
 20
-1.344
 11
9.055
 21
-1.344
  0
LINE
  5
256
100
AcDbEntity
  8
0
100
AcDbLine
 62
2
  6
CONTINUOUS
 10
0.0
 20
-1.594
 11
9.055
 21
-1.594
  0
LINE
  5
257
100
AcDbEntity
  8
0
100
AcDbLine
 62
2
  6
CONTINUOUS
 10
0.0
 20
-1.844
 11
9.055
 21
-1.844
  0
LINE
  5
258
100
AcDbEntity
  8
0
100
AcDbLine
 62
2
  6
CONTINUOUS
 10
0.0
 20
-2.094
 11
9.055
 21
-2.094
  0
LINE
  5
259
100
AcDbEntity
  8
0
100
AcDbLine
 62
2
  6
CONTINUOUS
 10
0.0
 20
-2.344
 11
9.055
 21
-2.344
  0
LINE
  5
25A
100
AcDbEntity
  8
0
100
AcDbLine
 62
2
  6
CONTINUOUS
 10
0.0
 20
-2.594
 11
9.055
 21
-2.594
  0
LINE
  5
25B
100
AcDbEntity
  8
0
100
AcDbLine
 62
2
  6
CONTINUOUS
 10
3.055
 20
0.0
 11
3.055
 21
-2.594
  0
LINE
  5
25C
100
AcDbEntity
  8
0
100
AcDbLine
 62
2
  6
CONTINUOUS
 10
9.055
 20
0.0
 11
9.055
 21
-2.594
  0
MTEXT
  5
25D
100
AcDbEntity
  8
0
100
AcDbMText
 62
2
  6
CONTINUOUS
  7
STANDARD
 71
2
 72
1
 10
1.5275
 20
-0.0995
 30
0.0
 11
1.0
 21
0.0
 31
0.0
 44
0.9
  1
Technical Data
 40
0.145
 41
3.248
  0
MTEXT
  5
25E
100
AcDbEntity
  8
0
100
AcDbMText
 62
2
  6
CONTINUOUS
  7
STANDARD
 71
2
 72
1
 10
4.555
 20
-0.0995
 30
0.0
 11
1.0
 21
0.0
 31
0.0
 44
0.9
  1
U.S. Units
 40
0.145
 41
2.32
  0
MTEXT
  5
25F
100
AcDbEntity
  8
0
100
AcDbMText
 62
2
  6
CONTINUOUS
  7
STANDARD
 71
2
 72
1
 10
7.555
 20
-0.0995
 30
0.0
 11
1.0
 21
0.0
 31
0.0
 44
0.9
  1
Metric Units
 40
0.145
 41
2.784
  0
MTEXT
  5
260
100
AcDbEntity
  8
0
100
AcDbMText
 62
2
  6
CONTINUOUS
  7
STANDARD
 71
2
 72
1
 10
1.5275
 20
-0.4065
 30
0.0
 11
1.0
 21
0.0
 31
0.0
 44
0.9
  1
Cavity
 40
0.125
 41
1.2
  0
MTEXT
  5
261
100
AcDbEntity
  8
0
100
AcDbMText
 62
2
  6
CONTINUOUS
  7
STANDARD
 71
2
 72
1
 10
6.055
 20
-0.4065
 30
0.0
 11
1.0
 21
0.0
 31
0.0
 44
0.9
  1
T-2A
 40
0.125
 41
0.8
  0
MTEXT
  5
262
100
AcDbEntity
  8
0
100
AcDbMText
 62
2
  6
CONTINUOUS
  7
STANDARD
 71
2
 72
1
 10
1.5275
 20
-0.6565
 30
0.0
 11
1.0
 21
0.0
 31
0.0
 44
0.9
  1
Body Features
 40
0.125
 41
2.6
  0
MTEXT
  5
263
100
AcDbEntity
  8
0
100
AcDbMText
 62
2
  6
CONTINUOUS
  7
STANDARD
 71
2
 72
1
 10
6.055
 20
-0.6565
 30
0.0
 11
1.0
 21
0.0
 31
0.0
 44
0.9
  1
Reducer on  B with reverse flow check
 40
0.125
 41
7.4
  0
MTEXT
  5
264
100
AcDbEntity
  8
0
100
AcDbMText
 62
2
  6
CONTINUOUS
  7
STANDARD
 71
2
 72
1
 10
1.5275
 20
-0.9065
 30
0.0
 11
1.0
 21
0.0
 31
0.0
 44
0.9
  1
Body Type
 40
0.125
 41
1.8
  0
MTEXT
  5
265
100
AcDbEntity
  8
0
100
AcDbMText
 62
2
  6
CONTINUOUS
  7
STANDARD
 71
2
 72
1
 10
6.055
 20
-0.9065
 30
0.0
 11
1.0
 21
0.0
 31
0.0
 44
0.9
  1
Sandwich
 40
0.125
 41
1.6
  0
MTEXT
  5
266
100
AcDbEntity
  8
0
100
AcDbMText
 62
2
  6
CONTINUOUS
  7
STANDARD
 71
2
 72
1
 10
1.5275
 20
-1.1565
 30
0.0
 11
1.0
 21
0.0
 31
0.0
 44
0.9
  1
Interface
 40
0.125
 41
1.8
  0
MTEXT
  5
267
100
AcDbEntity
  8
0
100
AcDbMText
 62
2
  6
CONTINUOUS
  7
STANDARD
 71
2
 72
1
 10
6.055
 20
-1.1565
 30
0.0
 11
1.0
 21
0.0
 31
0.0
 44
0.9
  1
ISO 05
 40
0.125
 41
1.2
  0
MTEXT
  5
268
100
AcDbEntity
  8
0
100
AcDbMText
 62
2
  6
CONTINUOUS
  7
STANDARD
 71
2
 72
1
 10
1.5275
 20
-1.4065
 30
0.0
 11
1.0
 21
0.0
 31
0.0
 44
0.9
  1
Open Cavity Quantity
 40
0.125
 41
4.0
  0
MTEXT
  5
269
100
AcDbEntity
  8
0
100
AcDbMText
 62
2
  6
CONTINUOUS
  7
STANDARD
 71
2
 72
1
 10
6.055
 20
-1.4065
 30
0.0
 11
1.0
 21
0.0
 31
0.0
 44
0.9
  1
1
 40
0.125
 41
0.2
  0
MTEXT
  5
26A
100
AcDbEntity
  8
0
100
AcDbMText
 62
2
  6
CONTINUOUS
  7
STANDARD
 71
2
 72
1
 10
1.5275
 20
-1.6565
 30
0.0
 11
1.0
 21
0.0
 31
0.0
 44
0.9
  1
Stack Height
 40
0.125
 41
2.4
  0
MTEXT
  5
26B
100
AcDbEntity
  8
0
100
AcDbMText
 62
2
  6
CONTINUOUS
  7
STANDARD
 71
2
 72
1
 10
4.555
 20
-1.6565
 30
0.0
 11
1.0
 21
0.0
 31
0.0
 44
0.9
  1
2.49 in.
 40
0.125
 41
1.6
  0
MTEXT
  5
26C
100
AcDbEntity
  8
0
100
AcDbMText
 62
2
  6
CONTINUOUS
  7
STANDARD
 71
2
 72
1
 10
7.555
 20
-1.6565
 30
0.0
 11
1.0
 21
0.0
 31
0.0
 44
0.9
  1
63 mm
 40
0.125
 41
1.0
  0
MTEXT
  5
26D
100
AcDbEntity
  8
0
100
AcDbMText
 62
2
  6
CONTINUOUS
  7
STANDARD
 71
2
 72
1
 10
1.5275
 20
-1.9065
 30
0.0
 11
1.0
 21
0.0
 31
0.0
 44
0.9
  1
Weight
 40
0.125
 41
1.2
  0
MTEXT
  5
26E
100
AcDbEntity
  8
0
100
AcDbMText
 62
2
  6
CONTINUOUS
  7
STANDARD
 71
2
 72
1
 10
4.555
 20
-1.9065
 30
0.0
 11
1.0
 21
0.0
 31
0.0
 44
0.9
  1
2.451 lb.
 40
0.125
 41
1.8
  0
MTEXT
  5
26F
100
AcDbEntity
  8
0
100
AcDbMText
 62
2
  6
CONTINUOUS
  7
STANDARD
 71
2
 72
1
 10
7.555
 20
-1.9065
 30
0.0
 11
1.0
 21
0.0
 31
0.0
 44
0.9
  1
1,112 kg.
 40
0.125
 41
1.8
  0
MTEXT
  5
270
100
AcDbEntity
  8
0
100
AcDbMText
 62
2
  6
CONTINUOUS
  7
STANDARD
 71
2
 72
1
 10
1.5275
 20
-2.1565
 30
0.0
 11
1.0
 21
0.0
 31
0.0
 44
0.9
  1
Seal Plate Included (see notes)
 40
0.125
 41
6.2
  0
MTEXT
  5
271
100
AcDbEntity
  8
0
100
AcDbMText
 62
2
  6
CONTINUOUS
  7
STANDARD
 71
2
 72
1
 10
6.055
 20
-2.1565
 30
0.0
 11
1.0
 21
0.0
 31
0.0
 44
0.9
  1
Yes
 40
0.125
 41
0.6
  0
MTEXT
  5
272
100
AcDbEntity
  8
0
100
AcDbMText
 62
2
  6
CONTINUOUS
  7
STANDARD
 71
2
 72
1
 10
1.5275
 20
-2.4065
 30
0.0
 11
1.0
 21
0.0
 31
0.0
 44
0.9
  1
Includes integral cartridge(s)
 40
0.125
 41
6.0
  0
MTEXT
  5
273
100
AcDbEntity
  8
0
100
AcDbMText
 62
2
  6
CONTINUOUS
  7
STANDARD
 71
2
 72
1
 10
6.055
 20
-2.4065
 30
0.0
 11
1.0
 21
0.0
 31
0.0
 44
0.9
  1
Yes (see Included Components)
 40
0.125
 41
5.8
  0
ENDBLK
  5
274
100
AcDbEntity
  8
0
  6
BYBLOCK
 62
0
100
AcDbBlockEnd
  0
ENDSEC
  0
SECTION
  2
ENTITIES
  0
IMAGE
  5
275
100
AcDbEntity
  8
0
100
AcDbRasterImage
 62
7
  6
CONTINUOUS
 10
19.2297077316
 20
0.3094318264
 30
0.0
 11
0.0066666667
 21
0.0
 31
0.0
 12
0.0
 22
0.0066666667
 32
0.0
 13
369.0
 23
92.0
340
       33E
 70
9
280
0
281
50
282
50
283
0
360
       338
 71
1
 91
2
 14
-0.5
 24
-0.5
 14
368.5
 24
91.5
  0
INSERT
  5
276
100
AcDbEntity
  8
0
100
AcDbBlockReference
 62
2
  6
CONTINUOUS
  2
SUN_FIRST_THIRD_ANGLE_BL0
 10
20.4816717061
 20
1.2289683772
  0
ACAD_TABLE
  5
277
100
AcDbEntity
  8
0
 62
2
  6
CONTINUOUS
100
AcDbBlockReference
  2
*T1
 10
12.42375
 20
0.30125
 30
0.0
100
AcDbTable
342
       340
343
20F
 11
1.0
 21
0.0
 31
0.0
 90
6
 91
4
 92
6
 93
20
 94
0
 95
0
 96
0
 70
1
 41
0.0
141
0.525
141
0.1
141
0.525
141
0.1
142
4.1
142
1.1
142
0.7
142
0.5
142
0.4
142
2.475
171
1
172
0
173
0
174
0
175
1
176
1
 91
33
178
0
145
0.0
301
CELL_VALUE
 90
4
  1
T-2A Sandwich ISO 05\PReducer on  B with reverse flow check
304
ACVALUE_END
170
2
140
0.125
171
1
172
0
173
0
174
0
175
1
176
1
 91
33
178
0
145
0.0
301
CELL_VALUE
 90
4
  1
Feb-05-24
304
ACVALUE_END
170
5
140
0.125
171
1
172
0
173
0
174
0
175
1
176
1
 91
33
178
0
145
0.0
301
CELL_VALUE
 90
4
  1
1.000
304
ACVALUE_END
170
5
140
0.125
171
1
172
0
173
0
174
0
175
1
176
1
 91
33
178
0
145
0.0
301
CELL_VALUE
 90
4
  1
C
304
ACVALUE_END
170
5
140
0.125
171
1
172
0
173
0
174
0
175
1
176
1
 91
33
178
0
145
0.0
301
CELL_VALUE
 90
4
  1
2
304
ACVALUE_END
170
5
140
0.125
171
1
172
0
173
0
174
0
175
1
176
1
 91
33
178
0
145
0.0
301
CELL_VALUE
 90
4
  1
 
304
ACVALUE_END
170
1
140
0.125
171
1
172
0
173
0
174
0
175
1
176
1
 91
33
178
0
145
0.0
301
CELL_VALUE
 90
4
  1
DESCRIPTION
304
ACVALUE_END
170
1
140
0.06
171
1
172
0
173
0
174
0
175
1
176
1
 91
33
178
0
145
0.0
301
CELL_VALUE
 90
4
  1
DATE
304
ACVALUE_END
170
1
140
0.06
171
1
172
0
173
0
174
0
175
1
176
1
 91
33
178
0
145
0.0
301
CELL_VALUE
 90
4
  1
SCALE
304
ACVALUE_END
170
1
140
0.06
171
1
172
0
173
0
174
0
175
1
176
1
 91
33
178
0
145
0.0
301
CELL_VALUE
 90
4
  1
DWG SIZE
304
ACVALUE_END
170
1
140
0.06
171
1
172
0
173
0
174
0
175
1
176
1
 91
33
178
0
145
0.0
301
CELL_VALUE
 90
4
  1
SHEET
304
ACVALUE_END
170
1
140
0.06
171
1
172
0
173
0
174
0
175
1
176
1
 91
33
178
0
145
0.0
301
CELL_VALUE
 90
4
  1
 
304
ACVALUE_END
170
1
140
0.125
171
1
172
0
173
0
174
0
175
1
176
1
 91
33
178
0
145
0.0
301
CELL_VALUE
 90
4
  1
BB3
304
ACVALUE_END
170
5
140
0.125
171
1
172
0
173
0
174
0
175
4
176
1
 91
33
178
0
145
0.0
301
CELL_VALUE
 90
4
  1
ALL DIMENSIONS IN INCH\PVIEWS ARE THIRD ANGLE
304
ACVALUE_END
170
5
140
0.12
171
1
172
0
173
1
174
0
175
1
176
1
 91
1
178
0
145
0.0
170
1
171
1
172
0
173
1
174
0
175
1
176
1
 91
1
178
0
145
0.0
170
1
171
1
172
0
173
1
174
0
175
1
176
1
 91
1
178
0
145
0.0
170
5
171
1
172
0
173
0
174
0
175
1
176
1
 91
33
178
0
145
0.0
301
CELL_VALUE
 90
4
  1
 
304
ACVALUE_END
170
1
140
0.125
171
1
172
0
173
0
174
0
175
1
176
1
 91
33
178
0
145
0.0
301
CELL_VALUE
 90
4
  1
MODEL
304
ACVALUE_END
170
1
140
0.06
171
1
172
0
173
0
174
0
175
1
176
1
 91
33
178
0
145
0.0
301
CELL_VALUE
 90
4
  1
 
304
ACVALUE_END
170
1
140
0.125
171
1
172
0
173
0
174
0
175
1
176
1
 91
33
178
0
145
0.0
301
CELL_VALUE
 90
4
  1
 
304
ACVALUE_END
170
1
140
0.125
171
1
172
0
173
0
174
0
175
1
176
1
 91
33
178
0
145
0.0
301
CELL_VALUE
 90
4
  1
 
304
ACVALUE_END
170
1
140
0.125
171
1
172
0
173
0
174
0
175
1
176
1
 91
33
178
0
145
0.0
301
CELL_VALUE
 90
4
  1
 
304
ACVALUE_END
170
1
140
0.125
171
1
172
0
173
0
174
0
175
1
176
1
 91
33
178
0
145
0.0
301
CELL_VALUE
 90
4
  1
 
304
ACVALUE_END
170
1
140
0.125
  0
ACAD_TABLE
  5
278
100
AcDbEntity
  8
0
 62
2
  6
CONTINUOUS
100
AcDbBlockReference
  2
*T2
 10
12.4237499994
 20
16.47875
 30
0.0
100
AcDbTable
342
       33F
343
210
 11
1.0
 21
0.0
 31
0.0
 90
22
 91
10
 92
3
 93
16
 94
0
 95
0
 96
0
 41
0.028
141
0.344
141
0.25
141
0.25
141
0.25
141
0.25
141
0.25
141
0.25
141
0.25
141
0.25
141
0.25
142
3.055
142
3.0
142
3.0
171
1
172
0
173
0
174
0
175
1
176
1
 91
33
178
0
145
0.0
301
CELL_VALUE
 90
4
  1
Technical Data
304
ACVALUE_END
170
5
140
0.145
171
1
172
0
173
0
174
0
175
1
176
1
 91
33
178
0
145
0.0
301
CELL_VALUE
 90
4
  1
U.S. Units
304
ACVALUE_END
170
5
140
0.145
171
1
172
0
173
0
174
0
175
1
176
1
 91
33
178
0
145
0.0
301
CELL_VALUE
 90
4
  1
Metric Units
304
ACVALUE_END
170
5
140
0.145
171
1
172
0
173
0
174
0
175
1
176
1
 91
33
178
0
145
0.0
301
CELL_VALUE
 90
4
  1
Cavity
304
ACVALUE_END
170
5
140
0.125
171
1
172
0
173
0
174
0
175
2
176
1
 91
33
178
0
145
0.0
301
CELL_VALUE
 90
4
  1
T-2A
304
ACVALUE_END
170
5
140
0.125
171
1
172
0
173
1
174
0
175
1
176
1
 91
1
178
0
145
0.0
170
1
171
1
172
0
173
0
174
0
175
1
176
1
 91
33
178
0
145
0.0
301
CELL_VALUE
 90
4
  1
Body Features
304
ACVALUE_END
170
5
140
0.125
171
1
172
0
173
0
174
0
175
2
176
1
 91
33
178
0
145
0.0
301
CELL_VALUE
 90
4
  1
Reducer on  B with reverse flow check
304
ACVALUE_END
170
5
140
0.125
171
1
172
0
173
1
174
0
175
1
176
1
 91
1
178
0
145
0.0
170
1
171
1
172
0
173
0
174
0
175
1
176
1
 91
33
178
0
145
0.0
301
CELL_VALUE
 90
4
  1
Body Type
304
ACVALUE_END
170
5
140
0.125
171
1
172
0
173
0
174
0
175
2
176
1
 91
33
178
0
145
0.0
301
CELL_VALUE
 90
4
  1
Sandwich
304
ACVALUE_END
170
5
140
0.125
171
1
172
0
173
1
174
0
175
1
176
1
 91
1
178
0
145
0.0
170
1
171
1
172
0
173
0
174
0
175
1
176
1
 91
33
178
0
145
0.0
301
CELL_VALUE
 90
4
  1
Interface
304
ACVALUE_END
170
5
140
0.125
171
1
172
0
173
0
174
0
175
2
176
1
 91
33
178
0
145
0.0
301
CELL_VALUE
 90
4
  1
ISO 05
304
ACVALUE_END
170
5
140
0.125
171
1
172
0
173
1
174
0
175
1
176
1
 91
1
178
0
145
0.0
170
1
171
1
172
0
173
0
174
0
175
1
176
1
 91
33
178
0
145
0.0
301
CELL_VALUE
 90
4
  1
Open Cavity Quantity
304
ACVALUE_END
170
5
140
0.125
171
1
172
0
173
0
174
0
175
2
176
1
 91
33
178
0
145
0.0
301
CELL_VALUE
 90
4
  1
1
304
ACVALUE_END
170
5
140
0.125
171
1
172
0
173
1
174
0
175
1
176
1
 91
1
178
0
145
0.0
170
1
171
1
172
0
173
0
174
0
175
1
176
1
 91
33
178
0
145
0.0
301
CELL_VALUE
 90
4
  1
Stack Height
304
ACVALUE_END
170
5
140
0.125
171
1
172
0
173
0
174
0
175
1
176
1
 91
33
178
0
145
0.0
301
CELL_VALUE
 90
4
  1
2.49 in.
304
ACVALUE_END
170
5
140
0.125
171
1
172
0
173
0
174
0
175
1
176
1
 91
33
178
0
145
0.0
301
CELL_VALUE
 90
4
  1
63 mm
304
ACVALUE_END
170
5
140
0.125
171
1
172
0
173
0
174
0
175
1
176
1
 91
33
178
0
145
0.0
301
CELL_VALUE
 90
4
  1
Weight
304
ACVALUE_END
170
5
140
0.125
171
1
172
0
173
0
174
0
175
1
176
1
 91
33
178
0
145
0.0
301
CELL_VALUE
 90
4
  1
2.451 lb.
304
ACVALUE_END
170
5
140
0.125
171
1
172
0
173
0
174
0
175
1
176
1
 91
33
178
0
145
0.0
301
CELL_VALUE
 90
4
  1
1,112 kg.
304
ACVALUE_END
170
5
140
0.125
171
1
172
0
173
0
174
0
175
1
176
1
 91
33
178
0
145
0.0
301
CELL_VALUE
 90
4
  1
Seal Plate Included (see notes)
304
ACVALUE_END
170
5
140
0.125
171
1
172
0
173
0
174
0
175
2
176
1
 91
33
178
0
145
0.0
301
CELL_VALUE
 90
4
  1
Yes
304
ACVALUE_END
170
5
140
0.125
171
1
172
0
173
1
174
0
175
1
176
1
 91
1
178
0
145
0.0
170
1
171
1
172
0
173
0
174
0
175
1
176
1
 91
33
178
0
145
0.0
301
CELL_VALUE
 90
4
  1
Includes integral cartridge(s)
304
ACVALUE_END
170
5
140
0.125
171
1
172
0
173
0
174
0
175
2
176
1
 91
33
178
0
145
0.0
301
CELL_VALUE
 90
4
  1
Yes (see Included Components)
304
ACVALUE_END
170
5
140
0.125
171
1
172
0
173
1
174
0
175
1
176
1
 91
1
178
0
145
0.0
170
1
  0
MTEXT
  5
279
100
AcDbEntity
  8
0
100
AcDbMText
 62
2
  6
CONTINUOUS
  7
STANDARD
 71
1
 72
1
 10
0.52125
 20
5.75995
 30
0.0
 11
1.0
 21
0.0
 31
0.0
 44
0.6
  3
Notes\P \P1. Stack height value in technical\P   data table includes seal retainer\P   plate.\P2. Important: Carefully consider\P   the maximum system pressure. The\P   pressure rating of the manifold is\P   dependent on the manifold material,\P   wi
  3
th the port type/size a secondary\P   consideration. Manifolds\P   constructed of aluminum are not\P   rated for pressures higher than\P   3000 psi (210 bar), regardless of\P   the port type/size specified.\P3. This drawing is for reference\P   only.
  1
 It is generated by an\P   automated process and does not fall\P   under Sun's document control\P   process.\P4. Items without balloons are\P   shipped loose.
 40
0.1
 41
3.04
  0
LINE
  5
27A
100
AcDbEntity
  8
0
100
AcDbLine
 62
7
  6
CONTINUOUS
 10
0.30125
 20
0.30125
 11
0.30125
 21
16.69875
  0
LINE
  5
27B
100
AcDbEntity
  8
0
100
AcDbLine
 62
7
  6
CONTINUOUS
 10
0.30125
 20
0.30125
 11
21.69875
 21
0.30125
  0
LINE
  5
27C
100
AcDbEntity
  8
0
100
AcDbLine
 62
7
  6
CONTINUOUS
 10
0.30125
 20
16.69875
 11
21.69875
 21
16.69875
  0
LINE
  5
27D
100
AcDbEntity
  8
0
100
AcDbLine
 62
7
  6
CONTINUOUS
 10
21.69875
 20
0.30125
 11
21.69875
 21
16.69875
  0
LINE
  5
27E
100
AcDbEntity
  8
0
100
AcDbLine
 62
7
  6
CONTINUOUS
 10
8.49183056
 20
7.2577808242
 11
8.4659550842
 21
7.289596074
  0
LINE
  5
27F
100
AcDbEntity
  8
0
100
AcDbLine
 62
7
  6
CONTINUOUS
 10
8.4220655979
 20
9.103228751
 11
8.4220655979
 21
7.5335991903
  0
LINE
  5
280
100
AcDbEntity
  8
0
100
AcDbLine
 62
7
  6
CONTINUOUS
 10
8.4439859165
 20
9.0934021542
 11
8.4439859165
 21
7.5237725934
  0
LINE
  5
281
100
AcDbEntity
  8
0
100
AcDbLine
 62
7
  6
CONTINUOUS
 10
8.5605855585
 20
7.0883236654
 11
8.5605855585
 21
9.5031383742
  0
LINE
  5
282
100
AcDbEntity
  8
0
100
AcDbLine
 62
7
  6
CONTINUOUS
 10
8.9397032609
 20
9.935506872
 11
8.5110992759
 21
9.5215071891
  0
LINE
  5
283
100
AcDbEntity
  8
0
100
AcDbLine
 62
7
  6
CONTINUOUS
 10
8.9696469633
 20
9.9633739715
 11
8.5410429783
 21
9.5493742887
  0
LINE
  5
284
100
AcDbEntity
  8
0
100
AcDbLine
 62
7
  6
CONTINUOUS
 10
9.1915858603
 20
10.1126378982
 11
8.5605855585
 21
9.5031383742
  0
LINE
  5
285
100
AcDbEntity
  8
0
100
AcDbLine
 62
7
  6
CONTINUOUS
 10
8.9705631664
 20
9.9642428165
 11
8.9696469633
 21
9.9633739715
  0
LINE
  5
286
100
AcDbEntity
  8
0
100
AcDbLine
 62
7
  6
CONTINUOUS
 10
8.940544676
 20
9.9363046286
 11
8.9397032609
 21
9.935506872
  0
LINE
  5
287
100
AcDbEntity
  8
0
100
AcDbLine
 62
7
  6
CONTINUOUS
 10
8.9397032609
 20
9.935506872
 11
8.9696389141
 21
9.9633826202
  0
LINE
  5
288
100
AcDbEntity
  8
0
100
AcDbLine
 62
7
  6
CONTINUOUS
 10
8.5110992759
 20
9.5215071891
 11
8.5410429783
 21
9.5493742887
  0
LINE
  5
289
100
AcDbEntity
  8
0
100
AcDbLine
 62
7
  6
CONTINUOUS
 10
8.4220655979
 20
7.5335991903
 11
8.4439859165
 21
7.5237725934
  0
LINE
  5
28A
100
AcDbEntity
  8
0
100
AcDbLine
 62
7
  6
CONTINUOUS
 10
12.5272506029
 20
7.2479377174
 11
12.4892835167
 21
7.2422643261
  0
LINE
  5
28B
100
AcDbEntity
  8
0
100
AcDbLine
 62
7
  6
CONTINUOUS
 10
8.5605855585
 20
7.0883236654
 11
11.4583632234
 21
6.8873621018
  0
LINE
  5
28C
100
AcDbEntity
  8
0
100
AcDbLine
 62
7
  6
CONTINUOUS
 10
11.533617357
 20
7.0331201665
 11
12.5603965537
 21
6.9619127874
  0
LINE
  5
28D
100
AcDbEntity
  8
0
100
AcDbLine
 62
7
  6
CONTINUOUS
 10
8.5605855585
 20
7.2402665479
 11
8.5150989535
 21
7.2434210547
  0
LINE
  5
28E
100
AcDbEntity
  8
0
100
AcDbLine
 62
7
  6
CONTINUOUS
 10
8.9950480209
 20
8.7622154617
 11
9.0016200248
 21
8.7663832241
  0
LINE
  5
28F
100
AcDbEntity
  8
0
100
AcDbLine
 62
7
  6
CONTINUOUS
 10
12.4892835167
 20
7.2422643261
 11
11.46250432
 21
7.3134717053
  0
LINE
  5
290
100
AcDbEntity
  8
0
100
AcDbLine
 62
7
  6
CONTINUOUS
 10
8.4439859165
 20
7.5237725934
 11
8.5605855585
 21
7.5156863808
  0
LINE
  5
291
100
AcDbEntity
  8
0
100
AcDbLine
 62
7
  6
CONTINUOUS
 10
9.2137552144
 20
8.4763311599
 11
9.2071835957
 21
8.4721637158
  0
LINE
  5
292
100
AcDbEntity
  8
0
100
AcDbLine
 62
7
  6
CONTINUOUS
 10
12.9986059692
 20
7.6953009188
 11
13.3830094105
 21
7.6686424496
  0
LINE
  5
293
100
AcDbEntity
  8
0
100
AcDbLine
 62
7
  6
CONTINUOUS
 10
12.7823740802
 20
7.7902865716
 11
12.8876095829
 21
7.7829884647
  0
LINE
  5
294
100
AcDbEntity
  8
0
100
AcDbLine
 62
7
  6
CONTINUOUS
 10
12.8674726714
 20
7.8511891096
 11
13.2518761127
 21
7.8245306404
  0
LINE
  5
295
100
AcDbEntity
  8
0
100
AcDbLine
 62
7
  6
CONTINUOUS
 10
12.8602486592
 20
7.8909080393
 11
13.2446521005
 21
7.8642495701
  0
LINE
  5
296
100
AcDbEntity
  8
0
100
AcDbLine
 62
7
  6
CONTINUOUS
 10
8.4220655979
 20
9.103228751
 11
8.4439859165
 21
9.0934021542
  0
LINE
  5
297
100
AcDbEntity
  8
0
100
AcDbLine
 62
7
  6
CONTINUOUS
 10
12.0893635252
 20
9.9116763346
 11
11.4583632234
 21
9.3021768106
  0
LINE
  5
298
100
AcDbEntity
  8
0
100
AcDbLine
 62
7
  6
CONTINUOUS
 10
11.5595613818
 20
9.3390734005
 11
11.9881653668
 21
9.7530730834
  0
LINE
  5
299
100
AcDbEntity
  8
0
100
AcDbLine
 62
7
  6
CONTINUOUS
 10
12.5272506029
 20
8.8175672781
 11
12.4892835167
 21
8.8118938868
  0
LINE
  5
29A
100
AcDbEntity
  8
0
100
AcDbLine
 62
7
  6
CONTINUOUS
 10
12.8602486592
 20
8.4560145139
 11
13.2446521005
 21
8.4293560447
  0
LINE
  5
29B
100
AcDbEntity
  8
0
100
AcDbLine
 62
7
  6
CONTINUOUS
 10
12.8674726714
 20
8.5096891643
 11
13.2518761127
 21
8.4830306951
  0
LINE
  5
29C
100
AcDbEntity
  8
0
100
AcDbLine
 62
7
  6
CONTINUOUS
 10
12.4892835167
 20
8.8118938868
 11
11.46250432
 21
8.883101266
  0
LINE
  5
29D
100
AcDbEntity
  8
0
100
AcDbLine
 62
7
  6
CONTINUOUS
 10
8.4439859165
 20
9.0934021542
 11
8.5605855585
 21
9.0853159415
  0
LINE
  5
29E
100
AcDbEntity
  8
0
100
AcDbLine
 62
7
  6
CONTINUOUS
 10
11.4583632234
 20
6.8873621018
 11
11.4583632234
 21
9.3021768106
  0
LINE
  5
29F
100
AcDbEntity
  8
0
100
AcDbLine
 62
7
  6
CONTINUOUS
 10
11.46250432
 20
7.3134717053
 11
11.46250432
 21
8.883101266
  0
LINE
  5
2A0
100
AcDbEntity
  8
0
100
AcDbLine
 62
7
  6
CONTINUOUS
 10
12.5863405785
 20
9.2678660214
 11
13.0149445635
 21
9.6818657042
  0
LINE
  5
2A1
100
AcDbEntity
  8
0
100
AcDbLine
 62
7
  6
CONTINUOUS
 10
12.6162842809
 20
9.2358457162
 11
13.0448882659
 21
9.649845399
  0
LINE
  5
2A2
100
AcDbEntity
  8
0
100
AcDbLine
 62
7
  6
CONTINUOUS
 10
12.8568157652
 20
8.8637084064
 11
12.9579910795
 21
8.8566918745
  0
LINE
  5
2A3
100
AcDbEntity
  8
0
100
AcDbLine
 62
7
  6
CONTINUOUS
 10
12.9986059692
 20
8.9189074481
 11
13.3830094105
 21
8.8922489789
  0
LINE
  5
2A4
100
AcDbEntity
  8
0
100
AcDbLine
 62
7
  6
CONTINUOUS
 10
13.0130539935
 20
8.9328631688
 11
13.3974574348
 21
8.9062046996
  0
LINE
  5
2A5
100
AcDbEntity
  8
0
100
AcDbLine
 62
7
  6
CONTINUOUS
 10
11.4583632234
 20
9.3021768106
 11
8.5605855585
 21
9.5031383742
  0
LINE
  5
2A6
100
AcDbEntity
  8
0
100
AcDbLine
 62
7
  6
CONTINUOUS
 10
12.5863405785
 20
9.2678660214
 11
11.5595613818
 21
9.3390734005
  0
LINE
  5
2A7
100
AcDbEntity
  8
0
100
AcDbLine
 62
7
  6
CONTINUOUS
 10
8.5410429783
 20
9.5493742887
 11
8.6039369225
 21
9.5450125788
  0
LINE
  5
2A8
100
AcDbEntity
  8
0
100
AcDbLine
 62
4
  6
CONTINUOUS
 10
12.7957751309
 20
7.4715732574
 11
12.7918928485
 21
7.4774825193
  0
LINE
  5
2A9
100
AcDbEntity
  8
0
100
AcDbLine
 62
4
  6
CONTINUOUS
 10
12.7996574133
 20
7.5912343579
 11
12.8035396957
 21
7.5853250986
  0
LINE
  5
2AA
100
AcDbEntity
  8
0
100
AcDbLine
 62
7
  6
CONTINUOUS
 10
12.0893635252
 20
9.7597334521
 11
12.0893635252
 21
9.9116763346
  0
LINE
  5
2AB
100
AcDbEntity
  8
0
100
AcDbLine
 62
7
  6
CONTINUOUS
 10
13.0149445635
 20
9.6818657042
 11
11.9881653668
 21
9.7530730834
  0
LINE
  5
2AC
100
AcDbEntity
  8
0
100
AcDbLine
 62
7
  6
CONTINUOUS
 10
8.9696469633
 20
9.9633739715
 11
9.0325409075
 21
9.9590122617
  0
LINE
  5
2AD
100
AcDbEntity
  8
0
100
AcDbLine
 62
7
  6
CONTINUOUS
 10
12.0141093917
 20
9.764952344
 11
13.0408885884
 21
9.6937449648
  0
LINE
  5
2AE
100
AcDbEntity
  8
0
100
AcDbLine
 62
7
  6
CONTINUOUS
 10
9.0457533101
 20
9.9717744633
 11
8.9955909882
 21
9.9752532322
  0
LINE
  5
2AF
100
AcDbEntity
  8
0
100
AcDbLine
 62
7
  6
CONTINUOUS
 10
12.4892835167
 20
7.2422643261
 11
12.4892835167
 21
8.8118938868
  0
LINE
  5
2B0
100
AcDbEntity
  8
0
100
AcDbLine
 62
7
  6
CONTINUOUS
 10
12.5272506029
 20
7.2479377174
 11
12.5272506029
 21
8.8175672781
  0
LINE
  5
2B1
100
AcDbEntity
  8
0
100
AcDbLine
 62
7
  6
CONTINUOUS
 10
12.9255784324
 20
8.8020052062
 11
12.9545614429
 21
8.8511454593
  0
LINE
  5
2B2
100
AcDbEntity
  8
0
100
AcDbLine
 62
7
  6
CONTINUOUS
 10
11.6041957736
 20
7.0282255367
 11
11.4583632234
 21
6.8873621018
  0
LINE
  5
2B3
100
AcDbEntity
  8
0
100
AcDbLine
 62
7
  6
CONTINUOUS
 10
12.0893635252
 20
9.9116763346
 11
9.1915858603
 21
10.1126378982
  0
LINE
  5
2B4
100
AcDbEntity
  8
0
100
AcDbLine
 62
7
  6
CONTINUOUS
 10
12.8589954204
 20
7.8419073566
 11
12.8734473547
 21
7.8071852837
  0
LINE
  5
2B5
100
AcDbEntity
  8
0
100
AcDbLine
 62
4
  6
CONTINUOUS
 10
12.7918928485
 20
7.4774825193
 11
12.7880105661
 21
7.4930510392
  0
LINE
  5
2B6
100
AcDbEntity
  8
0
100
AcDbLine
 62
4
  6
CONTINUOUS
 10
12.8035396957
 20
7.5853250986
 11
12.8054808368
 21
7.5775408339
  0
LINE
  5
2B7
100
AcDbEntity
  8
0
100
AcDbLine
 62
4
  6
CONTINUOUS
 10
12.8908910493
 20
7.6793592884
 11
12.9005967553
 21
7.5728231776
  0
LINE
  5
2B8
100
AcDbEntity
  8
0
100
AcDbLine
 62
4
  6
CONTINUOUS
 10
12.7880105661
 20
7.4930510392
 11
12.7860694249
 21
7.5201538165
  0
LINE
  5
2B9
100
AcDbEntity
  8
0
100
AcDbLine
 62
4
  6
CONTINUOUS
 10
12.7860694249
 20
7.5201538165
 11
12.7880105661
 21
7.5510065909
  0
LINE
  5
2BA
100
AcDbEntity
  8
0
100
AcDbLine
 62
7
  6
CONTINUOUS
 10
12.6162842809
 20
9.2358457162
 11
12.5863405785
 21
9.2678660214
  0
LINE
  5
2BB
100
AcDbEntity
  8
0
100
AcDbLine
 62
4
  6
CONTINUOUS
 10
12.8210099664
 20
7.6118593416
 11
12.8365390959
 21
7.5109482264
  0
LINE
  5
2BC
100
AcDbEntity
  8
0
100
AcDbLine
 62
4
  6
CONTINUOUS
 10
12.8520682255
 20
7.5259482145
 11
12.8520682255
 21
7.641859318
  0
LINE
  5
2BD
100
AcDbEntity
  8
0
100
AcDbLine
 62
4
  6
CONTINUOUS
 10
12.8811853434
 20
7.5540731924
 11
12.8908910493
 21
7.6793592884
  0
LINE
  5
2BE
100
AcDbEntity
  8
0
100
AcDbLine
 62
4
  6
CONTINUOUS
 10
12.8210099664
 20
7.4959482382
 11
12.8365390959
 21
7.6268593298
  0
LINE
  5
2BF
100
AcDbEntity
  8
0
100
AcDbLine
 62
4
  6
CONTINUOUS
 10
12.7880105661
 20
7.5510065909
 11
12.7918928485
 21
7.5740751075
  0
LINE
  5
2C0
100
AcDbEntity
  8
0
100
AcDbLine
 62
4
  6
CONTINUOUS
 10
12.8054808368
 20
7.5002667678
 11
12.8035396957
 21
7.4887325104
  0
LINE
  5
2C1
100
AcDbEntity
  8
0
100
AcDbLine
 62
4
  6
CONTINUOUS
 10
12.7918928485
 20
7.5740751075
 11
12.7957751309
 21
7.5874843608
  0
LINE
  5
2C2
100
AcDbEntity
  8
0
100
AcDbLine
 62
4
  6
CONTINUOUS
 10
12.8035396957
 20
7.4887325104
 11
12.7996574133
 21
7.4753232544
  0
LINE
  5
2C3
100
AcDbEntity
  8
0
100
AcDbLine
 62
4
  6
CONTINUOUS
 10
12.7957751309
 20
7.5874843608
 11
12.7996574133
 21
7.5912343579
  0
LINE
  5
2C4
100
AcDbEntity
  8
0
100
AcDbLine
 62
4
  6
CONTINUOUS
 10
12.8520682255
 20
7.641859318
 11
12.867597355
 21
7.6568593061
  0
LINE
  5
2C5
100
AcDbEntity
  8
0
100
AcDbLine
 62
4
  6
CONTINUOUS
 10
12.8520682255
 20
7.5839037662
 11
12.8617739314
 21
7.5932787589
  0
LINE
  5
2C6
100
AcDbEntity
  8
0
100
AcDbLine
 62
4
  6
CONTINUOUS
 10
12.8850676258
 20
7.596460225
 11
12.8967144729
 21
7.6077102162
  0
LINE
  5
2C7
100
AcDbEntity
  8
0
100
AcDbLine
 62
4
  6
CONTINUOUS
 10
12.7996574133
 20
7.4753232544
 11
12.7957751309
 21
7.4715732574
  0
LINE
  5
2C8
100
AcDbEntity
  8
0
100
AcDbLine
 62
7
  6
CONTINUOUS
 10
13.1339219439
 20
9.4035668292
 11
13.1339219439
 21
8.924480948
  0
LINE
  5
2C9
100
AcDbEntity
  8
0
100
AcDbLine
 62
7
  6
CONTINUOUS
 10
13.0448882659
 20
7.4156588304
 11
12.6162842809
 21
7.0016591476
  0
LINE
  5
2CA
100
AcDbEntity
  8
0
100
AcDbLine
 62
7
  6
CONTINUOUS
 10
12.6162842809
 20
7.0016591476
 11
12.6154428659
 21
7.0008613909
  0
LINE
  5
2CB
100
AcDbEntity
  8
0
100
AcDbLine
 62
7
  6
CONTINUOUS
 10
12.5854243755
 20
6.972923203
 11
12.6154438173
 21
7.0008621271
  0
LINE
  5
2CC
100
AcDbEntity
  8
0
100
AcDbLine
 62
7
  6
CONTINUOUS
 10
13.0448882659
 20
9.649845399
 11
13.0149445635
 21
9.6818657042
  0
LINE
  5
2CD
100
AcDbEntity
  8
0
100
AcDbLine
 62
7
  6
CONTINUOUS
 10
13.0641569818
 20
9.6793851953
 11
13.0900324576
 21
9.6475699455
  0
LINE
  5
2CE
100
AcDbEntity
  8
0
100
AcDbLine
 62
7
  6
CONTINUOUS
 10
13.5226160493
 20
8.7943203347
 11
13.5305355277
 21
8.7752930752
  0
LINE
  5
2CF
100
AcDbEntity
  8
0
100
AcDbLine
 62
7
  6
CONTINUOUS
 10
13.4415019612
 20
7.7503601592
 11
13.4618485915
 21
7.7848575612
  0
ARC
  5
2D0
100
AcDbEntity
  8
0
100
AcDbCircle
 62
7
  6
CONTINUOUS
 10
15.1697475366
 20
8.1725050608
 40
2.3268353346
100
AcDbArc
 50
171.6678728683
 51
173.0014994771
  0
ARC
  5
2D1
100
AcDbEntity
  8
0
100
AcDbCircle
 62
7
  6
CONTINUOUS
 10
15.5297556047
 20
8.1491299381
 40
2.3022216869
100
AcDbArc
 50
171.6607434676
 51
173.0086288778
  0
ARC
  5
2D2
100
AcDbEntity
  8
0
100
AcDbCircle
 62
7
  6
CONTINUOUS
 10
13.8066387279
 20
8.0425194637
 40
0.9584571905
100
AcDbArc
 50
189.1014340788
 51
191.5149294916
  0
ARC
  5
2D3
100
AcDbEntity
  8
0
100
AcDbCircle
 62
7
  6
CONTINUOUS
 10
14.1910421692
 20
8.0158609945
 40
0.9584571905
100
AcDbArc
 50
189.1014340788
 51
191.5149294916
  0
ARC
  5
2D4
100
AcDbEntity
  8
0
100
AcDbCircle
 62
7
  6
CONTINUOUS
 10
9.0954096862
 20
8.6147485134
 40
0.184217037
100
AcDbArc
 50
38.9938753454
 51
42.8031158888
  0
ARC
  5
2D5
100
AcDbEntity
  8
0
100
AcDbCircle
 62
7
  6
CONTINUOUS
 10
9.1059209514
 20
8.6163158468
 40
0.1828063101
100
AcDbArc
 50
124.8002838478
 51
127.2368792216
  0
ARC
  5
2D6
100
AcDbEntity
  8
0
100
AcDbCircle
 62
7
  6
CONTINUOUS
 10
9.1059341686
 20
8.6163779374
 40
0.1827568855
100
AcDbArc
 50
101.3814332008
 51
111.6627901566
  0
ARC
  5
2D7
100
AcDbEntity
  8
0
100
AcDbCircle
 62
7
  6
CONTINUOUS
 10
9.0915291948
 20
8.6165240205
 40
0.1817039369
100
AcDbArc
 50
293.4271043993
 51
295.6394103606
  0
ARC
  5
2D8
100
AcDbEntity
  8
0
100
AcDbCircle
 62
7
  6
CONTINUOUS
 10
9.0916725953
 20
8.6133973685
 40
0.1802546316
100
AcDbArc
 50
107.1444722962
 51
107.5899334928
  0
ARC
  5
2D9
100
AcDbEntity
  8
0
100
AcDbCircle
 62
7
  6
CONTINUOUS
 10
9.0916182275
 20
8.613566747
 40
0.1800767425
100
AcDbArc
 50
107.589730122
 51
109.3332189164
  0
ARC
  5
2DA
100
AcDbEntity
  8
0
100
AcDbCircle
 62
7
  6
CONTINUOUS
 10
9.0997243932
 20
8.6280960981
 40
0.1695734783
100
AcDbArc
 50
100.1256743374
 51
111.1789231004
  0
ARC
  5
2DB
100
AcDbEntity
  8
0
100
AcDbCircle
 62
7
  6
CONTINUOUS
 10
9.1090792999
 20
8.6101868816
 40
0.1693364909
100
AcDbArc
 50
305.404505887
 51
308.0192258536
  0
SPLINE
  5
2DC
100
AcDbEntity
  8
0
100
AcDbSpline
 62
7
  6
CONTINUOUS
 70
0
 71
3
 72
9
 73
5
 74
0
 42
0.0000001
 43
0.0000001
 44
0.0000000001
 40
0.0
 40
0.0
 40
0.0
 40
0.0
 40
0.2423492772
 40
1.0
 40
1.0
 40
1.0
 40
1.0
 10
13.0130539935
 20
8.9328631688
 30
0.0
 10
13.0124461585
 20
8.9323760103
 30
0.0
 10
13.0099635701
 20
8.9303341193
 30
0.0
 10
13.0075815534
 20
8.9281709427
 30
0.0
 10
13.0058299813
 20
8.926479054
 30
0.0
  0
SPLINE
  5
2DD
100
AcDbEntity
  8
0
100
AcDbSpline
 62
7
  6
CONTINUOUS
 70
0
 71
3
 72
9
 73
5
 74
0
 42
0.0000001
 43
0.0000001
 44
0.0000000001
 40
0.0
 40
0.0
 40
0.0
 40
0.0
 40
0.2576616456
 40
1.0
 40
1.0
 40
1.0
 40
1.0
 10
12.9986059692
 20
8.9189074481
 30
0.0
 10
12.9992015934
 20
8.9195807339
 30
0.0
 10
13.0015365512
 20
8.922173
 30
0.0
 10
13.0039671975
 20
8.9246797428
 30
0.0
 10
13.0058299813
 20
8.926479054
 30
0.0
  0
SPLINE
  5
2DE
100
AcDbEntity
  8
0
100
AcDbSpline
 62
7
  6
CONTINUOUS
 70
0
 71
3
 72
9
 73
5
 74
0
 42
0.0000001
 43
0.0000001
 44
0.0000000001
 40
0.0
 40
0.0
 40
0.0
 40
0.0
 40
0.2424516602
 40
1.0
 40
1.0
 40
1.0
 40
1.0
 10
13.3902334227
 20
7.6750265645
 30
0.0
 10
13.3908418214
 20
7.6756142325
 30
0.0
 10
13.3933251117
 20
7.6780650182
 30
0.0
 10
13.3957062359
 20
7.6806186382
 30
0.0
 10
13.3974574348
 20
7.6825981703
 30
0.0
  0
SPLINE
  5
2DF
100
AcDbEntity
  8
0
100
AcDbSpline
 62
7
  6
CONTINUOUS
 70
0
 71
3
 72
9
 73
5
 74
0
 42
0.0000001
 43
0.0000001
 44
0.0000000001
 40
0.0
 40
0.0
 40
0.0
 40
0.0
 40
0.2423492772
 40
1.0
 40
1.0
 40
1.0
 40
1.0
 10
13.3830094105
 20
7.6686424496
 30
0.0
 10
13.3836172455
 20
7.6691296081
 30
0.0
 10
13.3860998339
 20
7.6711714992
 30
0.0
 10
13.3884818506
 20
7.6733346757
 30
0.0
 10
13.3902334227
 20
7.6750265645
 30
0.0
  0
SPLINE
  5
2E0
100
AcDbEntity
  8
0
100
AcDbSpline
 62
7
  6
CONTINUOUS
 70
0
 71
3
 72
9
 73
5
 74
0
 42
0.0000001
 43
0.0000001
 44
0.0000000001
 40
0.0
 40
0.0
 40
0.0
 40
0.0
 40
0.5035395631
 40
1.0
 40
1.0
 40
1.0
 40
1.0
 10
13.3974574348
 20
7.6825981703
 30
0.0
 10
13.40530828
 20
7.6937132012
 30
0.0
 10
13.4205182449
 20
7.7160597325
 30
0.0
 10
13.4348057096
 20
7.7390110357
 30
0.0
 10
13.4416235845
 20
7.7505663843
 30
0.0
  0
SPLINE
  5
2E1
100
AcDbEntity
  8
0
100
AcDbSpline
 62
7
  6
CONTINUOUS
 70
0
 71
3
 72
9
 73
5
 74
0
 42
0.0000001
 43
0.0000001
 44
0.0000000001
 40
0.0
 40
0.0
 40
0.0
 40
0.0
 40
0.5035395631
 40
1.0
 40
1.0
 40
1.0
 40
1.0
 10
12.9986059692
 20
8.9189074481
 30
0.0
 10
12.990755124
 20
8.9077924172
 30
0.0
 10
12.9755451591
 20
8.8854458859
 30
0.0
 10
12.9612576944
 20
8.8624945827
 30
0.0
 10
12.9544398195
 20
8.8509392341
 30
0.0
  0
SPLINE
  5
2E2
100
AcDbEntity
  8
0
100
AcDbSpline
 62
7
  6
CONTINUOUS
 70
0
 71
3
 72
23
 73
19
 74
0
 42
0.0000001
 43
0.0000001
 44
0.0000000001
 40
0.0
 40
0.0
 40
0.0
 40
0.0
 40
0.0432903358
 40
0.0886111095
 40
0.1362135929
 40
0.1863092711
 40
0.2390678977
 40
0.2946076476
 40
0.3530023406
 40
0.4142746704
 40
0.4784099503
 40
0.5453523313
 40
0.6150199742
 40
0.6873039377
 40
0.76208146
 40
0.8392182661
 40
0.9185728956
 40
1.0
 40
1.0
 40
1.0
 40
1.0
 10
12.873274627
 20
7.8076005276
 30
0.0
 10
12.8742210496
 20
7.8053243203
 30
0.0
 10
12.8763419533
 20
7.8007396271
 30
0.0
 10
12.8801060138
 20
7.7939506734
 30
0.0
 10
12.8845330139
 20
7.7871079128
 30
0.0
 10
12.8896301849
 20
7.7802152015
 30
0.0
 10
12.8954000632
 20
7.7732768387
 30
0.0
 10
12.9018380644
 20
7.7662965655
 30
0.0
 10
12.9089350066
 20
7.7592797324
 30
0.0
 10
12.9166749453
 20
7.7522303306
 30
0.0
 10
12.9250382657
 20
7.7451540365
 30
0.0
 10
12.9340000896
 20
7.7380548103
 30
0.0
 10
12.9435332658
 20
7.7309379455
 30
0.0
 10
12.9536074707
 20
7.7238070453
 30
0.0
 10
12.9641916804
 20
7.7166664325
 30
0.0
 10
12.9752537311
 20
7.7095191421
 30
0.0
 10
12.9867616552
 20
7.7023684072
 30
0.0
 10
12.994613342
 20
7.6976586049
 30
0.0
 10
12.9986059692
 20
7.6953009188
 30
0.0
  0
SPLINE
  5
2E3
100
AcDbEntity
  8
0
100
AcDbSpline
 62
7
  6
CONTINUOUS
 70
0
 71
3
 72
23
 73
19
 74
0
 42
0.0000001
 43
0.0000001
 44
0.0000000001
 40
0.0
 40
0.0
 40
0.0
 40
0.0
 40
0.0432903358
 40
0.0886111095
 40
0.1362135929
 40
0.1863092711
 40
0.2390678977
 40
0.2946076476
 40
0.3530023406
 40
0.4142746704
 40
0.4784099503
 40
0.5453523313
 40
0.6150199742
 40
0.6873039377
 40
0.76208146
 40
0.8392182661
 40
0.9185728956
 40
1.0
 40
1.0
 40
1.0
 40
1.0
 10
13.522788777
 20
8.7939050908
 30
0.0
 10
13.5218423544
 20
8.7961812981
 30
0.0
 10
13.5197214507
 20
8.8007659913
 30
0.0
 10
13.5159573902
 20
8.807554945
 30
0.0
 10
13.5115303901
 20
8.8143977056
 30
0.0
 10
13.5064332191
 20
8.8212904169
 30
0.0
 10
13.5006633408
 20
8.8282287797
 30
0.0
 10
13.4942253396
 20
8.8352090529
 30
0.0
 10
13.4871283975
 20
8.842225886
 30
0.0
 10
13.4793884587
 20
8.8492752878
 30
0.0
 10
13.4710251383
 20
8.8563515819
 30
0.0
 10
13.4620633144
 20
8.8634508081
 30
0.0
 10
13.4525301382
 20
8.8705676729
 30
0.0
 10
13.4424559333
 20
8.8776985731
 30
0.0
 10
13.4318717236
 20
8.8848391859
 30
0.0
 10
13.4208096729
 20
8.8919864763
 30
0.0
 10
13.4093017488
 20
8.8991372112
 30
0.0
 10
13.401450062
 20
8.9038470135
 30
0.0
 10
13.3974574348
 20
8.9062046996
 30
0.0
  0
SPLINE
  5
2E4
100
AcDbEntity
  8
0
100
AcDbSpline
 62
7
  6
CONTINUOUS
 70
0
 71
3
 72
47
 73
43
 74
0
 42
0.0000001
 43
0.0000001
 44
0.0000000001
 40
0.0
 40
0.0
 40
0.0
 40
0.0
 40
0.0097390474
 40
0.0199698054
 40
0.0306887706
 40
0.0418911797
 40
0.0535705278
 40
0.0657187093
 40
0.0783268726
 40
0.0913848251
 40
0.1188026063
 40
0.1478725169
 40
0.1784807562
 40
0.2105024129
 40
0.2438034215
 40
0.2782411642
 40
0.3136659887
 40
0.3499225137
 40
0.3868501632
 40
0.4242845303
 40
0.4620583808
 40
0.5000024026
 40
0.537946423
 40
0.5757202051
 40
0.6131544659
 40
0.6500819745
 40
0.6863382449
 40
0.7217628641
 40
0.7562003755
 40
0.7895009924
 40
0.8215223322
 40
0.8521302096
 40
0.8811996138
 40
0.9086170193
 40
0.9216746676
 40
0.9342827067
 40
0.9464306368
 40
0.9581096421
 40
0.9693118429
 40
0.9800304705
 40
0.9902609046
 40
1.0
 40
1.0
 40
1.0
 40
1.0
 10
13.4618509643
 20
7.7848615642
 30
0.0
 10
13.4635188592
 20
7.7876895577
 30
0.0
 10
13.466836403
 20
7.7935492131
 30
0.0
 10
13.4716511646
 20
7.8027078801
 30
0.0
 10
13.4764218481
 20
7.8124420845
 30
0.0
 10
13.4811423361
 20
7.8227402793
 30
0.0
 10
13.4858070134
 20
7.8335902695
 30
0.0
 10
13.4904105454
 20
7.8449790532
 30
0.0
 10
13.4949472365
 20
7.8568932312
 30
0.0
 10
13.50099839
 20
7.8737355739
 30
0.0
 10
13.5083326662
 20
7.8960089609
 30
0.0
 10
13.5166472292
 20
7.9241728461
 30
0.0
 10
13.5245722636
 20
7.9540571484
 30
0.0
 10
13.5320696856
 20
7.9855192884
 30
0.0
 10
13.5391030092
 20
8.0184094746
 30
0.0
 10
13.5456383899
 20
8.0525707367
 30
0.0
 10
13.5516444665
 20
8.0878399361
 30
0.0
 10
13.5570920724
 20
8.1240486071
 30
0.0
 10
13.5619550951
 20
8.1610236916
 30
0.0
 10
13.5662102788
 20
8.1985883997
 30
0.0
 10
13.5698369555
 20
8.2365631449
 30
0.0
 10
13.5728178498
 20
8.274766342
 30
0.0
 10
13.5751387969
 20
8.3130152829
 30
0.0
 10
13.576788481
 20
8.3511270668
 30
0.0
 10
13.5777592034
 20
8.3889194401
 30
0.0
 10
13.5780465061
 20
8.4262116748
 30
0.0
 10
13.5776489052
 20
8.4628254884
 30
0.0
 10
13.5765686372
 20
8.4985858809
 30
0.0
 10
13.5748111815
 20
8.5333219577
 30
0.0
 10
13.5723849697
 20
8.5668678094
 30
0.0
 10
13.5693021364
 20
8.5990633108
 30
0.0
 10
13.5655779693
 20
8.6297550641
 30
0.0
 10
13.5612303542
 20
8.6587965838
 30
0.0
 10
13.5570408538
 20
8.6818687485
 30
0.0
 10
13.5533722456
 20
8.6993848148
 30
0.0
 10
13.5505235963
 20
8.7118109381
 30
0.0
 10
13.547536109
 20
8.7237258828
 30
0.0
 10
13.5444136201
 20
8.7351155778
 30
0.0
 10
13.5411599242
 20
8.7459664984
 30
0.0
 10
13.5377785552
 20
8.7562657308
 30
0.0
 10
13.5342739302
 20
8.7660010495
 30
0.0
 10
13.5317969378
 20
8.7722624316
 30
0.0
 10
13.5305353185
 20
8.7752935773
 30
0.0
  0
SPLINE
  5
2E5
100
AcDbEntity
  8
0
100
AcDbSpline
 62
7
  6
CONTINUOUS
 70
0
 71
3
 72
11
 73
7
 74
0
 42
0.0000001
 43
0.0000001
 44
0.0000000001
 40
0.0
 40
0.0
 40
0.0
 40
0.0
 40
0.2194295797
 40
0.4588777944
 40
0.7189534041
 40
1.0
 40
1.0
 40
1.0
 40
1.0
 10
13.4342899506
 20
7.7482793787
 30
0.0
 10
13.4367061718
 20
7.7506132692
 30
0.0
 10
13.4415240886
 20
7.7557400817
 30
0.0
 10
13.4484247445
 20
7.7643257986
 30
0.0
 10
13.455290833
 20
7.7741152851
 30
0.0
 10
13.4596651755
 20
7.7811554576
 30
0.0
 10
13.4618509643
 20
7.7848615642
 30
0.0
  0
SPLINE
  5
2E6
100
AcDbEntity
  8
0
100
AcDbSpline
 62
7
  6
CONTINUOUS
 70
0
 71
3
 72
71
 73
67
 74
0
 42
0.0000001
 43
0.0000001
 44
0.0000000001
 40
0.0
 40
0.0
 40
0.0
 40
0.0
 40
0.0086181769
 40
0.0180358616
 40
0.0282774586
 40
0.0393565278
 40
0.0512781193
 40
0.0640379079
 40
0.0776250778
 40
0.0920232712
 40
0.1072117669
 40
0.1231658877
 40
0.1398572575
 40
0.1572547554
 40
0.1753241015
 40
0.1940290556
 40
0.2133305876
 40
0.2331882383
 40
0.2743982911
 40
0.3173016118
 40
0.3615185692
 40
0.4066539401
 40
0.4523018244
 40
0.498050443
 40
0.543486841
 40
0.5882016236
 40
0.6317937783
 40
0.6530475103
 40
0.6738765743
 40
0.6942351706
 40
0.7140793344
 40
0.7333664045
 40
0.7520557961
 40
0.7701087697
 40
0.7874888656
 40
0.8041621724
 40
0.8200973098
 40
0.8352663455
 40
0.8496443226
 40
0.8632109019
 40
0.875949623
 40
0.8878502973
 40
0.8989084674
 40
0.9091286382
 40
0.9185247606
 40
0.9229228386
 40
0.9271266988
 40
0.9311424085
 40
0.9349775089
 40
0.9386412763
 40
0.9421446752
 40
0.9487194012
 40
0.9518277284
 40
0.9548406465
 40
0.9577799033
 40
0.9606691014
 40
0.9635332525
 40
0.9663980381
 40
0.9692890983
 40
0.9722313645
 40
0.9752484317
 40
0.9783620293
 40
0.9849505497
 40
0.9884623794
 40
0.9921350537
 40
1.0
 40
1.0
 40
1.0
 40
1.0
 10
13.4342899506
 20
8.8204571094
 30
0.0
 10
13.4318307817
 20
8.8180817345
 30
0.0
 10
13.4269278056
 20
8.8128555573
 30
0.0
 10
13.4199110675
 20
8.8040912579
 30
0.0
 10
13.4129305754
 20
8.7940826406
 30
0.0
 10
13.4060022048
 20
8.7828542717
 30
0.0
 10
13.3991415794
 20
8.7704308696
 30
0.0
 10
13.3923640229
 20
8.7568412028
 30
0.0
 10
13.385686188
 20
8.7421168439
 30
0.0
 10
13.3791238997
 20
8.7262926929
 30
0.0
 10
13.372693023
 20
8.7094062623
 30
0.0
 10
13.3664091346
 20
8.6914977718
 30
0.0
 10
13.360287263
 20
8.6726100196
 30
0.0
 10
13.3543425517
 20
8.6527882133
 30
0.0
 10
13.3485889805
 20
8.632079913
 30
0.0
 10
13.3430409863
 20
8.6105348102
 30
0.0
 10
13.3377113886
 20
8.5882046599
 30
0.0
 10
13.3308295195
 20
8.5570703946
 30
0.0
 10
13.3228948472
 20
8.5165856766
 30
0.0
 10
13.3145455892
 20
8.4663566511
 30
0.0
 10
13.3073364365
 20
8.4143789354
 30
0.0
 10
13.3013373875
 20
8.3611522686
 30
0.0
 10
13.2966066354
 20
8.3071880654
 30
0.0
 10
13.2931898736
 20
8.2530051592
 30
0.0
 10
13.2911198381
 20
8.1991243814
 30
0.0
 10
13.2904162395
 20
8.1460640341
 30
0.0
 10
13.2909778057
 20
8.102596285
 30
0.0
 10
13.2921328908
 20
8.0686254816
 30
0.0
 10
13.2933334112
 20
8.0438815482
 30
0.0
 10
13.2948726645
 20
8.0197166709
 30
0.0
 10
13.2967466027
 20
7.9961889914
 30
0.0
 10
13.2989508898
 20
7.9733550772
 30
0.0
 10
13.3014799837
 20
7.9512698515
 30
0.0
 10
13.3043277535
 20
7.9299863697
 30
0.0
 10
13.3074873172
 20
7.9095557504
 30
0.0
 10
13.3109507519
 20
7.8900270013
 30
0.0
 10
13.3147099403
 20
7.8714469146
 30
0.0
 10
13.3187552306
 20
7.853859897
 30
0.0
 10
13.3230773767
 20
7.8373079107
 30
0.0
 10
13.3276651461
 20
7.8218301939
 30
0.0
 10
13.3325083054
 20
7.8074633591
 30
0.0
 10
13.3375943477
 20
7.7942409278
 30
0.0
 10
13.3429123888
 20
7.7821934277
 30
0.0
 10
13.3484492085
 20
7.7713486784
 30
0.0
 10
13.3533390608
 20
7.7631611247
 30
0.0
 10
13.3573655432
 20
7.7572621402
 30
0.0
 10
13.3603653059
 20
7.7532526129
 30
0.0
 10
13.3634101531
 20
7.7495621785
 30
0.0
 10
13.3664984668
 20
7.746193231
 30
0.0
 10
13.3696290044
 20
7.743147258
 30
0.0
 10
13.3737677506
 20
7.7395954517
 30
0.0
 10
13.37807823
 20
7.7365902773
 30
0.0
 10
13.3825362198
 20
7.734235034
 30
0.0
 10
13.3858514197
 20
7.7328332704
 30
0.0
 10
13.389197811
 20
7.7317653652
 30
0.0
 10
13.3925732087
 20
7.7310328824
 30
0.0
 10
13.3959747408
 20
7.7306365709
 30
0.0
 10
13.399399488
 20
7.730576637
 30
0.0
 10
13.4028445446
 20
7.7308530071
 30
0.0
 10
13.4063070324
 20
7.7314653649
 30
0.0
 10
13.4097845613
 20
7.7324128265
 30
0.0
 10
13.4145263719
 20
7.7341531837
 30
0.0
 10
13.419211061
 20
7.7365568712
 30
0.0
 10
13.4238011379
 20
7.7395253973
 30
0.0
 10
13.4286059362
 20
7.7430751645
 30
0.0
 10
13.4320457136
 20
7.7461116121
 30
0.0
 10
13.4342899506
 20
7.7482793787
 30
0.0
  0
SPLINE
  5
2E7
100
AcDbEntity
  8
0
100
AcDbSpline
 62
7
  6
CONTINUOUS
 70
0
 71
3
 72
9
 73
5
 74
0
 42
0.0000001
 43
0.0000001
 44
0.0000000001
 40
0.0
 40
0.0
 40
0.0
 40
0.0
 40
0.2423492772
 40
1.0
 40
1.0
 40
1.0
 40
1.0
 10
13.3974574348
 20
8.9062046996
 30
0.0
 10
13.3968495998
 20
8.9057175411
 30
0.0
 10
13.3943670115
 20
8.9036756501
 30
0.0
 10
13.3919849947
 20
8.9015124735
 30
0.0
 10
13.3902334227
 20
8.8998205848
 30
0.0
  0
SPLINE
  5
2E8
100
AcDbEntity
  8
0
100
AcDbSpline
 62
7
  6
CONTINUOUS
 70
0
 71
3
 72
9
 73
5
 74
0
 42
0.0000001
 43
0.0000001
 44
0.0000000001
 40
0.0
 40
0.0
 40
0.0
 40
0.0
 40
0.2424516602
 40
1.0
 40
1.0
 40
1.0
 40
1.0
 10
13.3902334227
 20
8.8998205848
 30
0.0
 10
13.389625024
 20
8.8992329167
 30
0.0
 10
13.3871417336
 20
8.896782131
 30
0.0
 10
13.3847606094
 20
8.894228511
 30
0.0
 10
13.3830094105
 20
8.8922489789
 30
0.0
  0
SPLINE
  5
2E9
100
AcDbEntity
  8
0
100
AcDbSpline
 62
7
  6
CONTINUOUS
 70
0
 71
3
 72
21
 73
17
 74
0
 42
0.0000001
 43
0.0000001
 44
0.0000000001
 40
0.0
 40
0.0
 40
0.0
 40
0.0
 40
0.1269527041
 40
0.1902689165
 40
0.2534593491
 40
0.3165116873
 40
0.37941528
 40
0.4421620112
 40
0.5047460954
 40
0.5671657261
 40
0.6294227274
 40
0.6915221182
 40
0.7534726662
 40
0.8152847883
 40
0.8769699244
 40
1.0
 40
1.0
 40
1.0
 40
1.0
 10
13.2446521005
 20
8.4293560447
 30
0.0
 10
13.2507805485
 20
8.4059248875
 30
0.0
 10
13.2591575642
 20
8.3705845981
 30
0.0
 10
13.26832881
 20
8.323103185
 30
0.0
 10
13.2741061923
 20
8.2873982524
 30
0.0
 10
13.2787035371
 20
8.2516011625
 30
0.0
 10
13.2820475944
 20
8.2157494677
 30
0.0
 10
13.2840793923
 20
8.1798884113
 30
0.0
 10
13.284761863
 20
8.1440683177
 30
0.0
 10
13.2840829518
 20
8.1083415316
 30
0.0
 10
13.282054415
 20
8.0727587622
 30
0.0
 10
13.2787130625
 20
8.0373655541
 30
0.0
 10
13.2741177585
 20
8.0021996252
 30
0.0
 10
13.2683416517
 20
7.96728876
 30
0.0
 10
13.2591876347
 20
7.921151148
 30
0.0
 10
13.2507996764
 20
7.8869011882
 30
0.0
 10
13.2446521005
 20
7.8642495701
 30
0.0
  0
SPLINE
  5
2EA
100
AcDbEntity
  8
0
100
AcDbSpline
 62
7
  6
CONTINUOUS
 70
0
 71
3
 72
21
 73
17
 74
0
 42
0.0000001
 43
0.0000001
 44
0.0000000001
 40
0.0
 40
0.0
 40
0.0
 40
0.0
 40
0.1230300756
 40
0.1847152118
 40
0.2465273339
 40
0.3084778819
 40
0.3705772727
 40
0.432834274
 40
0.4952539046
 40
0.5578379889
 40
0.6205847201
 40
0.6834883127
 40
0.746540651
 40
0.8097310835
 40
0.8730472959
 40
1.0
 40
1.0
 40
1.0
 40
1.0
 10
12.8602486592
 20
8.4560145139
 30
0.0
 10
12.8541010833
 20
8.4333628957
 30
0.0
 10
12.845713125
 20
8.399112936
 30
0.0
 10
12.836559108
 20
8.352975324
 30
0.0
 10
12.8307830012
 20
8.3180644588
 30
0.0
 10
12.8261876972
 20
8.2828985298
 30
0.0
 10
12.8228463447
 20
8.2475053218
 30
0.0
 10
12.8208178079
 20
8.2119225524
 30
0.0
 10
12.8201388967
 20
8.1761957663
 30
0.0
 10
12.8208213674
 20
8.1403756727
 30
0.0
 10
12.8228531654
 20
8.1045146162
 30
0.0
 10
12.8261972226
 20
8.0686629214
 30
0.0
 10
12.8307945674
 20
8.0328658315
 30
0.0
 10
12.8365719497
 20
7.997160899
 30
0.0
 10
12.8457431955
 20
7.9496794859
 30
0.0
 10
12.8541202112
 20
7.9143391965
 30
0.0
 10
12.8602486592
 20
7.8909080393
 30
0.0
  0
SPLINE
  5
2EB
100
AcDbEntity
  8
0
100
AcDbSpline
 62
7
  6
CONTINUOUS
 70
0
 71
3
 72
24
 73
20
 74
0
 42
0.0000001
 43
0.0000001
 44
0.0000000001
 40
0.0
 40
0.0
 40
0.0
 40
0.0
 40
0.0913270067
 40
0.1792345887
 40
0.2633975065
 40
0.3435123174
 40
0.419314425
 40
0.4906094671
 40
0.5245345675
 40
0.5573078303
 40
0.6194264789
 40
0.67715515
 40
0.7308292085
 40
0.7809307172
 40
0.8280591397
 40
0.8728796032
 40
0.9160685661
 40
0.9582602556
 40
1.0
 40
1.0
 40
1.0
 40
1.0
 10
13.2518761127
 20
7.8245306404
 30
0.0
 10
13.2575198828
 20
7.8211979378
 30
0.0
 10
13.2685329848
 20
7.8145493585
 30
0.0
 10
13.2844851467
 20
7.8044033728
 30
0.0
 10
13.2994846941
 20
7.7942704869
 30
0.0
 10
13.3134409002
 20
7.7841599108
 30
0.0
 10
13.3262664501
 20
7.774082396
 30
0.0
 10
13.3361038571
 20
7.765587271
 30
0.0
 10
13.3433215479
 20
7.7588041773
 30
0.0
 10
13.3498663205
 20
7.752273218
 30
0.0
 10
13.357246727
 20
7.7441670069
 30
0.0
 10
13.3649189693
 20
7.734340708
 30
0.0
 10
13.3712388786
 20
7.7246046437
 30
0.0
 10
13.3762248949
 20
7.7149690309
 30
0.0
 10
13.3799178656
 20
7.7054442062
 30
0.0
 10
13.3823766916
 20
7.696040163
 30
0.0
 10
13.3836767982
 20
7.6867655155
 30
0.0
 10
13.3839060985
 20
7.6776270643
 30
0.0
 10
13.3834054822
 20
7.671611709
 30
0.0
 10
13.3830094105
 20
7.6686424496
 30
0.0
  0
SPLINE
  5
2EC
100
AcDbEntity
  8
0
100
AcDbSpline
 62
7
  6
CONTINUOUS
 70
0
 71
3
 72
15
 73
11
 74
0
 42
0.0000001
 43
0.0000001
 44
0.0000000001
 40
0.0
 40
0.0
 40
0.0
 40
0.0
 40
0.1195882985
 40
0.2396126262
 40
0.360556304
 40
0.482967703
 40
0.6074530981
 40
0.7346676949
 40
0.8652861107
 40
1.0
 40
1.0
 40
1.0
 40
1.0
 10
12.8674726714
 20
7.8511891096
 30
0.0
 10
12.8672381482
 20
7.8494309428
 30
0.0
 10
12.866871409
 20
7.8458934345
 30
0.0
 10
12.8666497885
 20
7.840546812
 30
0.0
 10
12.8667750122
 20
7.8351546759
 30
0.0
 10
12.8672657612
 20
7.8297168051
 30
0.0
 10
12.8681404024
 20
7.8242329361
 30
0.0
 10
12.8694172116
 20
7.8187033693
 30
0.0
 10
12.8711120114
 20
7.8131287778
 30
0.0
 10
12.8725075132
 20
7.809445486
 30
0.0
 10
12.873274627
 20
7.8076005276
 30
0.0
  0
SPLINE
  5
2ED
100
AcDbEntity
  8
0
100
AcDbSpline
 62
7
  6
CONTINUOUS
 70
0
 71
3
 72
20
 73
16
 74
0
 42
0.0000001
 43
0.0000001
 44
0.0000000001
 40
0.0
 40
0.0
 40
0.0
 40
0.0
 40
0.1331037673
 40
0.2634964055
 40
0.327677312
 40
0.3911929477
 40
0.4540734952
 40
0.5163596019
 40
0.5781028428
 40
0.6393597248
 40
0.700191946
 40
0.7606604287
 40
0.8208241912
 40
0.8807392578
 40
1.0
 40
1.0
 40
1.0
 40
1.0
 10
12.9544398195
 20
8.8509392341
 30
0.0
 10
12.9463770613
 20
8.837273982
 30
0.0
 10
12.9311714821
 20
8.809764877
 30
0.0
 10
12.9145627276
 20
8.7743725894
 30
0.0
 10
12.9030739588
 20
8.7458257114
 30
0.0
 10
12.8954145533
 20
8.7244318241
 30
0.0
 10
12.8886847575
 20
8.7029640967
 30
0.0
 10
12.8828911255
 20
8.6814436268
 30
0.0
 10
12.878024817
 20
8.659893164
 30
0.0
 10
12.8740697845
 20
8.6383334013
 30
0.0
 10
12.8709954172
 20
8.6167843744
 30
0.0
 10
12.8687660631
 20
8.5952631315
 30
0.0
 10
12.8673374619
 20
8.5737836931
 30
0.0
 10
12.8664385669
 20
8.5452633752
 30
0.0
 10
12.8668161247
 20
8.5238903905
 30
0.0
 10
12.8674726714
 20
8.5096891643
 30
0.0
  0
SPLINE
  5
2EE
100
AcDbEntity
  8
0
100
AcDbSpline
 62
7
  6
CONTINUOUS
 70
0
 71
3
 72
23
 73
19
 74
0
 42
0.0000001
 43
0.0000001
 44
0.0000000001
 40
0.0
 40
0.0
 40
0.0
 40
0.0
 40
0.0586500584
 40
0.1174971748
 40
0.1766041375
 40
0.2360481059
 40
0.2959121929
 40
0.3562840494
 40
0.417251051
 40
0.4788922537
 40
0.5412731263
 40
0.604440809
 40
0.668420163
 40
0.7332144894
 40
0.7988073735
 40
0.8651659572
 40
0.9322480423
 40
1.0
 40
1.0
 40
1.0
 40
1.0
 10
13.3830094105
 20
8.8922489789
 30
0.0
 10
13.3834054968
 20
8.8836815573
 30
0.0
 10
13.38390388
 20
8.8665025041
 30
0.0
 10
13.3836823974
 20
8.8406717621
 30
0.0
 10
13.3824042629
 20
8.814754046
 30
0.0
 10
13.3799824013
 20
8.7887677147
 30
0.0
 10
13.3763378173
 20
8.7627367149
 30
0.0
 10
13.3714049494
 20
8.7366913719
 30
0.0
 10
13.3651350014
 20
8.7106673695
 30
0.0
 10
13.3575030066
 20
8.6847033924
 30
0.0
 10
13.3485099884
 20
8.6588383364
 30
0.0
 10
13.3381808841
 20
8.6331092215
 30
0.0
 10
13.3265646121
 20
8.6075479694
 30
0.0
 10
13.313729958
 20
8.5821794221
 30
0.0
 10
13.2997580453
 20
8.5570216296
 30
0.0
 10
13.2847384218
 20
8.5320848084
 30
0.0
 10
13.2687644801
 20
8.507372878
 30
0.0
 10
13.2575920428
 20
8.4911231665
 30
0.0
 10
13.2518761127
 20
8.4830306951
 30
0.0
  0
SPLINE
  5
2EF
100
AcDbEntity
  8
0
100
AcDbSpline
 62
7
  6
CONTINUOUS
 70
0
 71
3
 72
47
 73
43
 74
0
 42
0.0000001
 43
0.0000001
 44
0.0000000001
 40
0.0
 40
0.0
 40
0.0
 40
0.0
 40
0.0097391519
 40
0.0199696499
 40
0.0306883499
 40
0.0418906313
 40
0.0535697218
 40
0.0657177381
 40
0.0783258622
 40
0.0913835967
 40
0.1188011894
 40
0.1478708031
 40
0.1784789024
 40
0.2105004597
 40
0.2438012893
 40
0.2782390213
 40
0.3136638571
 40
0.3499203301
 40
0.3868480282
 40
0.4242824673
 40
0.4620564087
 40
0.5000005539
 40
0.5379446778
 40
0.5757186136
 40
0.6131530318
 40
0.6500806823
 40
0.6863371626
 40
0.7217619248
 40
0.7561995698
 40
0.7895004202
 40
0.8215218603
 40
0.852129847
 40
0.8811994802
 40
0.9086169292
 40
0.9216746935
 40
0.9342826567
 40
0.9464306281
 40
0.9581097577
 40
0.9693119419
 40
0.9800306772
 40
0.9902611984
 40
1.0
 40
1.0
 40
1.0
 40
1.0
 10
12.8589954325
 20
7.841907328
 30
0.0
 10
12.8577724499
 20
7.8448456615
 30
0.0
 10
12.8553713145
 20
7.8509153244
 30
0.0
 10
12.8519740185
 20
7.8603525563
 30
0.0
 10
12.8486962047
 20
7.8703364396
 30
0.0
 10
12.8455421556
 20
7.8808551223
 30
0.0
 10
12.8425152967
 20
7.8918960836
 30
0.0
 10
12.8396193071
 20
7.9034462099
 30
0.0
 10
12.8368579062
 20
7.91549186
 30
0.0
 10
12.833301664
 20
7.9324716035
 30
0.0
 10
12.82924049
 20
7.9548373268
 30
0.0
 10
12.8250260529
 20
7.9829896334
 30
0.0
 10
12.8214159795
 20
8.012741643
 30
0.0
 10
12.818427606
 20
8.0439513474
 30
0.0
 10
12.8160757537
 20
8.0764700453
 30
0.0
 10
12.8143721842
 20
8.110142515
 30
0.0
 10
12.8133250705
 20
8.1448079256
 30
0.0
 10
12.8129397248
 20
8.1803006088
 30
0.0
 10
12.8132183141
 20
8.2164509219
 30
0.0
 10
12.8141594003
 20
8.2530860406
 30
0.0
 10
12.8157586606
 20
8.2900307647
 30
0.0
 10
12.8180086311
 20
8.3271084186
 30
0.0
 10
12.8208983437
 20
8.3641417029
 30
0.0
 10
12.824414065
 20
8.4009535057
 30
0.0
 10
12.8285390492
 20
8.4373677934
 30
0.0
 10
12.8332532577
 20
8.4732104703
 30
0.0
 10
12.8385341481
 20
8.5083101657
 30
0.0
 10
12.8443564082
 20
8.5424991259
 30
0.0
 10
12.8506917612
 20
8.5756140398
 30
0.0
 10
12.8575098058
 20
8.6074967512
 30
0.0
 10
12.8647777296
 20
8.6379950972
 30
0.0
 10
12.8724601694
 20
8.6669638835
 30
0.0
 10
12.8805202036
 20
8.6942648984
 30
0.0
 10
12.8876299558
 20
8.715855838
 30
0.0
 10
12.8934958599
 20
8.7321820931
 30
0.0
 10
12.897893658
 20
8.7437311618
 30
0.0
 10
12.9023562477
 20
8.7547709142
 30
0.0
 10
12.9068781086
 20
8.7652883631
 30
0.0
 10
12.9114540702
 20
8.7752709051
 30
0.0
 10
12.9160786881
 20
8.7847067194
 30
0.0
 10
12.9207460317
 20
8.7935846112
 30
0.0
 10
12.923962
 20
8.799264613
 30
0.0
 10
12.9255788274
 20
8.8020058958
 30
0.0
  0
SPLINE
  5
2F0
100
AcDbEntity
  8
0
100
AcDbSpline
 62
7
  6
CONTINUOUS
 70
0
 71
3
 72
9
 73
5
 74
0
 42
0.0000001
 43
0.0000001
 44
0.0000000001
 40
0.0
 40
0.0
 40
0.0
 40
0.0
 40
0.5156474505
 40
1.0
 40
1.0
 40
1.0
 40
1.0
 10
13.5305353185
 20
8.7752935773
 30
0.0
 10
13.5291758226
 20
8.7785598799
 30
0.0
 10
13.5264182826
 20
8.7848448226
 30
0.0
 10
13.5233847639
 20
8.7910022634
 30
0.0
 10
13.5218390574
 20
8.7939441227
 30
0.0
  0
SPLINE
  5
2F1
100
AcDbEntity
  8
0
100
AcDbSpline
 62
7
  6
CONTINUOUS
 70
0
 71
3
 72
27
 73
23
 74
0
 42
0.0000001
 43
0.0000001
 44
0.0000000001
 40
0.0
 40
0.0
 40
0.0
 40
0.0
 40
0.0862376397
 40
0.166476999
 40
0.2409287868
 40
0.3098931797
 40
0.3737956139
 40
0.4332053045
 40
0.4888618794
 40
0.5155840016
 40
0.5417313436
 40
0.5674464209
 40
0.5928800766
 40
0.6181886775
 40
0.6435307976
 40
0.669064262
 40
0.6949432855
 40
0.7482846378
 40
0.8046652017
 40
0.8649789148
 40
0.929919677
 40
1.0
 40
1.0
 40
1.0
 40
1.0
 10
13.5218390574
 20
8.7939441227
 30
0.0
 10
13.52033736
 20
8.796802222
 30
0.0
 10
13.5172981179
 20
8.8022479683
 30
0.0
 10
13.512432582
 20
8.8098503311
 30
0.0
 10
13.5074337706
 20
8.8165776434
 30
0.0
 10
13.5023072768
 20
8.8224185032
 30
0.0
 10
13.4970586244
 20
8.8273634931
 30
0.0
 10
13.4916936767
 20
8.8314024397
 30
0.0
 10
13.4870655334
 20
8.8340390589
 30
0.0
 10
13.4833342621
 20
8.835655353
 30
0.0
 10
13.4805515418
 20
8.8366195914
 30
0.0
 10
13.4777485263
 20
8.8373510073
 30
0.0
 10
13.4749265437
 20
8.8378490451
 30
0.0
 10
13.4720871619
 20
8.8381135446
 30
0.0
 10
13.4692319583
 20
8.8381444417
 30
0.0
 10
13.4663623437
 20
8.837941686
 30
0.0
 10
13.4624811453
 20
8.8373545707
 30
0.0
 10
13.4575649082
 20
8.8360084262
 30
0.0
 10
13.4517049178
 20
8.8334762971
 30
0.0
 10
13.445829985
 20
8.8300216816
 30
0.0
 10
13.4399485092
 20
8.8256563519
 30
0.0
 10
13.436177053
 20
8.8222799104
 30
0.0
 10
13.4342899506
 20
8.8204571094
 30
0.0
  0
SPLINE
  5
2F2
100
AcDbEntity
  8
0
100
AcDbSpline
 62
7
  6
CONTINUOUS
 70
0
 71
3
 72
41
 73
37
 74
0
 42
0.0000001
 43
0.0000001
 44
0.0000000001
 40
0.0
 40
0.0
 40
0.0
 40
0.0
 40
0.031144444
 40
0.0624425093
 40
0.0938872508
 40
0.1254695847
 40
0.1571771078
 40
0.1889951283
 40
0.2209066801
 40
0.2528929859
 40
0.2849338014
 40
0.3170078274
 40
0.3490931225
 40
0.3811675283
 40
0.4132090962
 40
0.4451965119
 40
0.4771095115
 40
0.5089292827
 40
0.5406388458
 40
0.5722234075
 40
0.6036706813
 40
0.6349711679
 40
0.6661183875
 40
0.6971090579
 40
0.7279432122
 40
0.7586242475
 40
0.7891589026
 40
0.8195571573
 40
0.8498320547
 40
0.8649308931
 40
0.8800050545
 40
0.9100832586
 40
0.9400926739
 40
0.9550812746
 40
0.9700610358
 40
1.0
 40
1.0
 40
1.0
 40
1.0
 10
11.0362536925
 20
7.384626599
 30
0.0
 10
11.0395676441
 20
7.3843967757
 30
0.0
 10
11.0461975357
 20
7.3836934164
 30
0.0
 10
11.0560619827
 20
7.3819216835
 30
0.0
 10
11.065820791
 20
7.3794399577
 30
0.0
 10
11.0754212096
 20
7.3762616699
 30
0.0
 10
11.0848122701
 20
7.3724037983
 30
0.0
 10
11.0939438677
 20
7.3678870081
 30
0.0
 10
11.1027673588
 20
7.3627354246
 30
0.0
 10
11.1112357266
 20
7.3569765589
 30
0.0
 10
11.1193038516
 20
7.3506411382
 30
0.0
 10
11.1269287437
 20
7.3437629527
 30
0.0
 10
11.1340697696
 20
7.336378673
 30
0.0
 10
11.1406888674
 20
7.3285276582
 30
0.0
 10
11.1467507469
 20
7.3202517469
 30
0.0
 10
11.1522230765
 20
7.3115950377
 30
0.0
 10
11.1570766539
 20
7.3026036558
 30
0.0
 10
11.1612855611
 20
7.2933255109
 30
0.0
 10
11.164827302
 20
7.2838100447
 30
0.0
 10
11.1676829222
 20
7.2741079707
 30
0.0
 10
11.1698371113
 20
7.2642710078
 30
0.0
 10
11.171278286
 20
7.2543516084
 30
0.0
 10
11.1719986539
 20
7.2444026818
 30
0.0
 10
11.1719942599
 20
7.234477318
 30
0.0
 10
11.1712650071
 20
7.2246284972
 30
0.0
 10
11.1698146815
 20
7.2149088478
 30
0.0
 10
11.1676508672
 20
7.2053702232
 30
0.0
 10
11.1647851751
 20
7.1960639533
 30
0.0
 10
11.161821575
 20
7.1885357256
 30
0.0
 10
11.1591171302
 20
7.1826813678
 30
0.0
 10
11.1561985248
 20
7.1769542981
 30
0.0
 10
11.1521461996
 20
7.1700271115
 30
0.0
 10
11.1475726734
 20
7.1634434506
 30
0.0
 10
11.1436204993
 20
7.158411046
 30
0.0
 10
11.139479758
 20
7.1535429271
 30
0.0
 10
11.1361623191
 20
7.1500772285
 30
0.0
 10
11.1338654986
 20
7.1478586723
 30
0.0
  0
SPLINE
  5
2F3
100
AcDbEntity
  8
0
100
AcDbSpline
 62
7
  6
CONTINUOUS
 70
0
 71
3
 72
41
 73
37
 74
0
 42
0.0000001
 43
0.0000001
 44
0.0000000001
 40
0.0
 40
0.0
 40
0.0
 40
0.0
 40
0.031144444
 40
0.0624425093
 40
0.0938872508
 40
0.1254695847
 40
0.1571771078
 40
0.1889951283
 40
0.2209066801
 40
0.2528929859
 40
0.2849338014
 40
0.3170078274
 40
0.3490931225
 40
0.3811675283
 40
0.4132090962
 40
0.4451965119
 40
0.4771095115
 40
0.5089292827
 40
0.5406388458
 40
0.5722234075
 40
0.6036706813
 40
0.6349711679
 40
0.6661183875
 40
0.6971090579
 40
0.7279432122
 40
0.7586242475
 40
0.7891589026
 40
0.8195571573
 40
0.8498320547
 40
0.8649308931
 40
0.8800050545
 40
0.9100832586
 40
0.9400926739
 40
0.9550812746
 40
0.9700610358
 40
1.0
 40
1.0
 40
1.0
 40
1.0
 10
8.9826951614
 20
7.5270413668
 30
0.0
 10
8.986009113
 20
7.5268115435
 30
0.0
 10
8.9926390047
 20
7.5261081843
 30
0.0
 10
9.0025034516
 20
7.5243364514
 30
0.0
 10
9.0122622599
 20
7.5218547255
 30
0.0
 10
9.0218626785
 20
7.5186764377
 30
0.0
 10
9.0312537391
 20
7.5148185661
 30
0.0
 10
9.0403853367
 20
7.5103017759
 30
0.0
 10
9.0492088277
 20
7.5051501924
 30
0.0
 10
9.0576771955
 20
7.4993913267
 30
0.0
 10
9.0657453205
 20
7.493055906
 30
0.0
 10
9.0733702126
 20
7.4861777205
 30
0.0
 10
9.0805112386
 20
7.4787934409
 30
0.0
 10
9.0871303363
 20
7.470942426
 30
0.0
 10
9.0931922158
 20
7.4626665148
 30
0.0
 10
9.0986645454
 20
7.4540098055
 30
0.0
 10
9.1035181228
 20
7.4450184236
 30
0.0
 10
9.10772703
 20
7.4357402788
 30
0.0
 10
9.1112687709
 20
7.4262248125
 30
0.0
 10
9.1141243911
 20
7.4165227385
 30
0.0
 10
9.1162785802
 20
7.4066857756
 30
0.0
 10
9.1177197549
 20
7.3967663762
 30
0.0
 10
9.1184401228
 20
7.3868174496
 30
0.0
 10
9.1184357288
 20
7.3768920858
 30
0.0
 10
9.117706476
 20
7.3670432651
 30
0.0
 10
9.1162561504
 20
7.3573236156
 30
0.0
 10
9.1140923362
 20
7.347784991
 30
0.0
 10
9.111226644
 20
7.3384787211
 30
0.0
 10
9.108263044
 20
7.3309504934
 30
0.0
 10
9.1055585991
 20
7.3250961356
 30
0.0
 10
9.1026399938
 20
7.3193690659
 30
0.0
 10
9.0985876685
 20
7.3124418793
 30
0.0
 10
9.0940141423
 20
7.3058582184
 30
0.0
 10
9.0900619683
 20
7.3008258138
 30
0.0
 10
9.085921227
 20
7.2959576949
 30
0.0
 10
9.082603788
 20
7.2924919963
 30
0.0
 10
9.0803069675
 20
7.2902734401
 30
0.0
  0
SPLINE
  5
2F4
100
AcDbEntity
  8
0
100
AcDbSpline
 62
7
  6
CONTINUOUS
 70
0
 71
3
 72
41
 73
37
 74
0
 42
0.0000001
 43
0.0000001
 44
0.0000000001
 40
0.0
 40
0.0
 40
0.0
 40
0.0
 40
0.031144444
 40
0.0624425093
 40
0.0938872508
 40
0.1254695847
 40
0.1571771078
 40
0.1889951283
 40
0.2209066801
 40
0.2528929859
 40
0.2849338014
 40
0.3170078274
 40
0.3490931225
 40
0.3811675283
 40
0.4132090962
 40
0.4451965119
 40
0.4771095115
 40
0.5089292827
 40
0.5406388458
 40
0.5722234075
 40
0.6036706813
 40
0.6349711679
 40
0.6661183875
 40
0.6971090579
 40
0.7279432122
 40
0.7586242475
 40
0.7891589026
 40
0.8195571573
 40
0.8498320547
 40
0.8649308931
 40
0.8800050545
 40
0.9100832586
 40
0.9400926739
 40
0.9550812746
 40
0.9700610358
 40
1.0
 40
1.0
 40
1.0
 40
1.0
 10
8.9826951614
 20
9.276333103
 30
0.0
 10
8.986009113
 20
9.2761032797
 30
0.0
 10
8.9926390047
 20
9.2753999204
 30
0.0
 10
9.0025034516
 20
9.2736281875
 30
0.0
 10
9.0122622599
 20
9.2711464617
 30
0.0
 10
9.0218626785
 20
9.2679681738
 30
0.0
 10
9.0312537391
 20
9.2641103023
 30
0.0
 10
9.0403853367
 20
9.2595935121
 30
0.0
 10
9.0492088277
 20
9.2544419286
 30
0.0
 10
9.0576771955
 20
9.2486830629
 30
0.0
 10
9.0657453205
 20
9.2423476422
 30
0.0
 10
9.0733702126
 20
9.2354694566
 30
0.0
 10
9.0805112386
 20
9.228085177
 30
0.0
 10
9.0871303363
 20
9.2202341621
 30
0.0
 10
9.0931922158
 20
9.2119582509
 30
0.0
 10
9.0986645454
 20
9.2033015416
 30
0.0
 10
9.1035181228
 20
9.1943101598
 30
0.0
 10
9.10772703
 20
9.1850320149
 30
0.0
 10
9.1112687709
 20
9.1755165487
 30
0.0
 10
9.1141243911
 20
9.1658144747
 30
0.0
 10
9.1162785802
 20
9.1559775118
 30
0.0
 10
9.1177197549
 20
9.1460581124
 30
0.0
 10
9.1184401228
 20
9.1361091858
 30
0.0
 10
9.1184357288
 20
9.1261838219
 30
0.0
 10
9.117706476
 20
9.1163350012
 30
0.0
 10
9.1162561504
 20
9.1066153517
 30
0.0
 10
9.1140923362
 20
9.0970767271
 30
0.0
 10
9.111226644
 20
9.0877704573
 30
0.0
 10
9.108263044
 20
9.0802422296
 30
0.0
 10
9.1055585991
 20
9.0743878717
 30
0.0
 10
9.1026399938
 20
9.068660802
 30
0.0
 10
9.0985876685
 20
9.0617336155
 30
0.0
 10
9.0940141423
 20
9.0551499546
 30
0.0
 10
9.0900619683
 20
9.0501175499
 30
0.0
 10
9.085921227
 20
9.0452494311
 30
0.0
 10
9.082603788
 20
9.0417837324
 30
0.0
 10
9.0803069675
 20
9.0395651762
 30
0.0
  0
SPLINE
  5
2F5
100
AcDbEntity
  8
0
100
AcDbSpline
 62
7
  6
CONTINUOUS
 70
0
 71
3
 72
41
 73
37
 74
0
 42
0.0000001
 43
0.0000001
 44
0.0000000001
 40
0.0
 40
0.0
 40
0.0
 40
0.0
 40
0.031144444
 40
0.0624425093
 40
0.0938872508
 40
0.1254695847
 40
0.1571771078
 40
0.1889951283
 40
0.2209066801
 40
0.2528929859
 40
0.2849338014
 40
0.3170078274
 40
0.3490931225
 40
0.3811675283
 40
0.4132090962
 40
0.4451965119
 40
0.4771095115
 40
0.5089292827
 40
0.5406388458
 40
0.5722234075
 40
0.6036706813
 40
0.6349711679
 40
0.6661183875
 40
0.6971090579
 40
0.7279432122
 40
0.7586242475
 40
0.7891589026
 40
0.8195571573
 40
0.8498320547
 40
0.8649308931
 40
0.8800050545
 40
0.9100832586
 40
0.9400926739
 40
0.9550812746
 40
0.9700610358
 40
1.0
 40
1.0
 40
1.0
 40
1.0
 10
11.0362536925
 20
9.1339183351
 30
0.0
 10
11.0395676441
 20
9.1336885118
 30
0.0
 10
11.0461975357
 20
9.1329851526
 30
0.0
 10
11.0560619827
 20
9.1312134197
 30
0.0
 10
11.065820791
 20
9.1287316938
 30
0.0
 10
11.0754212096
 20
9.125553406
 30
0.0
 10
11.0848122701
 20
9.1216955345
 30
0.0
 10
11.0939438677
 20
9.1171787442
 30
0.0
 10
11.1027673588
 20
9.1120271607
 30
0.0
 10
11.1112357266
 20
9.106268295
 30
0.0
 10
11.1193038516
 20
9.0999328743
 30
0.0
 10
11.1269287437
 20
9.0930546888
 30
0.0
 10
11.1340697696
 20
9.0856704092
 30
0.0
 10
11.1406888674
 20
9.0778193943
 30
0.0
 10
11.1467507469
 20
9.0695434831
 30
0.0
 10
11.1522230765
 20
9.0608867738
 30
0.0
 10
11.1570766539
 20
9.0518953919
 30
0.0
 10
11.1612855611
 20
9.0426172471
 30
0.0
 10
11.164827302
 20
9.0331017808
 30
0.0
 10
11.1676829222
 20
9.0233997068
 30
0.0
 10
11.1698371113
 20
9.0135627439
 30
0.0
 10
11.171278286
 20
9.0036433446
 30
0.0
 10
11.1719986539
 20
8.9936944179
 30
0.0
 10
11.1719942599
 20
8.9837690541
 30
0.0
 10
11.1712650071
 20
8.9739202334
 30
0.0
 10
11.1698146815
 20
8.9642005839
 30
0.0
 10
11.1676508672
 20
8.9546619593
 30
0.0
 10
11.1647851751
 20
8.9453556894
 30
0.0
 10
11.161821575
 20
8.9378274617
 30
0.0
 10
11.1591171302
 20
8.9319731039
 30
0.0
 10
11.1561985248
 20
8.9262460342
 30
0.0
 10
11.1521461996
 20
8.9193188476
 30
0.0
 10
11.1475726734
 20
8.9127351868
 30
0.0
 10
11.1436204993
 20
8.9077027821
 30
0.0
 10
11.139479758
 20
8.9028346632
 30
0.0
 10
11.1361623191
 20
8.8993689646
 30
0.0
 10
11.1338654986
 20
8.8971504084
 30
0.0
  0
SPLINE
  5
2F6
100
AcDbEntity
  8
0
100
AcDbSpline
 62
7
  6
CONTINUOUS
 70
0
 71
3
 72
15
 73
11
 74
0
 42
0.0000001
 43
0.0000001
 44
0.0000000001
 40
0.0
 40
0.0
 40
0.0
 40
0.0
 40
0.1235035077
 40
0.2471882718
 40
0.3712032567
 40
0.4956772015
 40
0.6207205208
 40
0.7464194475
 40
0.8728344618
 40
1.0
 40
1.0
 40
1.0
 40
1.0
 10
10.1391395263
 20
7.4210135782
 30
0.0
 10
10.1355772055
 20
7.4176983052
 30
0.0
 10
10.1281138261
 20
7.4114112395
 30
0.0
 10
10.1160357263
 20
7.4031224898
 30
0.0
 10
10.1031719629
 20
7.396033141
 30
0.0
 10
10.0896365774
 20
7.3901957258
 30
0.0
 10
10.0755466284
 20
7.3856465939
 30
0.0
 10
10.061021185
 20
7.3824082787
 30
0.0
 10
10.0461810269
 20
7.3804897773
 30
0.0
 10
10.0361823557
 20
7.3800896869
 30
0.0
 10
10.031171756
 20
7.3801047483
 30
0.0
  0
SPLINE
  5
2F7
100
AcDbEntity
  8
0
100
AcDbSpline
 62
7
  6
CONTINUOUS
 70
0
 71
3
 72
42
 73
38
 74
0
 42
0.0000001
 43
0.0000001
 44
0.0000000001
 40
0.0
 40
0.0
 40
0.0
 40
0.0
 40
0.0150212292
 40
0.030024664
 40
0.0450130799
 40
0.0599931936
 40
0.0749704488
 40
0.0899499652
 40
0.1049368447
 40
0.1199359307
 40
0.1349515076
 40
0.1499874977
 40
0.1801262838
 40
0.2103830178
 40
0.2407725005
 40
0.2713032516
 40
0.3019786689
 40
0.332798192
 40
0.3637583435
 40
0.3948535919
 40
0.4260770248
 40
0.4574208443
 40
0.4888767117
 40
0.520435979
 40
0.5520898437
 40
0.5838294843
 40
0.6156460904
 40
0.6794572687
 40
0.7114513344
 40
0.7434864564
 40
0.775553239
 40
0.807641952
 40
0.8397424711
 40
0.8718441528
 40
0.9039356473
 40
0.9360048297
 40
1.0
 40
1.0
 40
1.0
 40
1.0
 10
10.7259468624
 20
8.6201412564
 30
0.0
 10
10.7271250942
 20
8.6220204527
 30
0.0
 10
10.72958114
 20
8.6257143937
 30
0.0
 10
10.7335540289
 20
8.6310466941
 30
0.0
 10
10.7378025016
 20
8.6361544658
 30
0.0
 10
10.742313802
 20
8.6410262533
 30
0.0
 10
10.747074423
 20
8.645652752
 30
0.0
 10
10.7520700282
 20
8.6500258579
 30
0.0
 10
10.757285672
 20
8.6541391087
 30
0.0
 10
10.7627058819
 20
8.6579877424
 30
0.0
 10
10.7683154073
 20
8.6615683253
 30
0.0
 10
10.7760310848
 20
8.6659852273
 30
0.0
 10
10.786079112
 20
8.670830634
 30
0.0
 10
10.7986391584
 20
8.6755614265
 30
0.0
 10
10.8116063323
 20
8.6792373361
 30
0.0
 10
10.8248821162
 20
8.6818895721
 30
0.0
 10
10.8383798569
 20
8.6835558906
 30
0.0
 10
10.8520231499
 20
8.6842770049
 30
0.0
 10
10.8657451925
 20
8.6840946635
 30
0.0
 10
10.8794875359
 20
8.6830501157
 30
0.0
 10
10.8931988874
 20
8.6811831512
 30
0.0
 10
10.9068339306
 20
8.6785315005
 30
0.0
 10
10.9203522252
 20
8.6751305305
 30
0.0
 10
10.9337172872
 20
8.671013099
 30
0.0
 10
10.9468955307
 20
8.6662096783
 30
0.0
 10
10.959856285
 20
8.6607480485
 30
0.0
 10
10.9768205623
 20
8.6526166681
 30
0.0
 10
10.9932222645
 20
8.6432709634
 30
0.0
 10
11.0089407385
 20
8.6328092712
 30
0.0
 10
11.020382171
 20
8.6244076663
 30
0.0
 10
11.0314335825
 20
8.6154776639
 30
0.0
 10
11.0420648274
 20
8.6060364947
 30
0.0
 10
11.0522434634
 20
8.5961014002
 30
0.0
 10
11.0619348645
 20
8.5856899146
 30
0.0
 10
11.0711025406
 20
8.574819023
 30
0.0
 10
11.0825621389
 20
8.5597539446
 30
0.0
 10
11.0902659272
 20
8.5478001833
 30
0.0
 10
11.0949305087
 20
8.5395822773
 30
0.0
  0
SPLINE
  5
2F8
100
AcDbEntity
  8
0
100
AcDbSpline
 62
7
  6
CONTINUOUS
 70
0
 71
3
 72
25
 73
21
 74
0
 42
0.0000001
 43
0.0000001
 44
0.0000000001
 40
0.0
 40
0.0
 40
0.0
 40
0.0
 40
0.0639322334
 40
0.1275378232
 40
0.190828883
 40
0.2538243514
 40
0.3165503594
 40
0.3790389103
 40
0.441327027
 40
0.5034555433
 40
0.5654679085
 40
0.6274089733
 40
0.6893238383
 40
0.7202905847
 40
0.7512672727
 40
0.8132609043
 40
0.8753552682
 40
0.9064567828
 40
0.9375970221
 40
1.0
 40
1.0
 40
1.0
 40
1.0
 10
10.584912587
 20
8.0944901679
 30
0.0
 10
10.584912587
 20
8.0904117432
 30
0.0
 10
10.5846104332
 20
8.0822723762
 30
0.0
 10
10.5832456111
 20
8.0701645138
 30
0.0
 10
10.5809798847
 20
8.0582525009
 30
0.0
 10
10.577828963
 20
8.0466017203
 30
0.0
 10
10.5738144772
 20
8.035273825
 30
0.0
 10
10.5689634735
 20
8.0243275302
 30
0.0
 10
10.5633078969
 20
8.0138177659
 30
0.0
 10
10.556884014
 20
8.0037954475
 30
0.0
 10
10.5497316655
 20
7.9943071037
 30
0.0
 10
10.5418941314
 20
7.9853951917
 30
0.0
 10
10.534828845
 20
7.978479684
 30
0.0
 10
10.5288832543
 20
7.9732734989
 30
0.0
 10
10.5227464007
 20
7.9682861579
 30
0.0
 10
10.5147316603
 20
7.962472365
 30
0.0
 10
10.5063117713
 20
7.9572481104
 30
0.0
 10
10.4993570216
 20
7.9534312715
 30
0.0
 10
10.4922543999
 20
7.9498539339
 30
0.0
 10
10.4867849111
 20
7.9474517099
 30
0.0
 10
10.4830869443
 20
7.9459778175
 30
0.0
  0
SPLINE
  5
2F9
100
AcDbEntity
  8
0
100
AcDbSpline
 62
7
  6
CONTINUOUS
 70
0
 71
3
 72
52
 73
48
 74
0
 42
0.0000001
 43
0.0000001
 44
0.0000000001
 40
0.0
 40
0.0
 40
0.0
 40
0.0
 40
0.0417745441
 40
0.0840379818
 40
0.1266600639
 40
0.1695085795
 40
0.2124507196
 40
0.255353198
 40
0.2980829191
 40
0.3405074579
 40
0.3824955993
 40
0.423917863
 40
0.4646470384
 40
0.504558725
 40
0.5435318837
 40
0.5814494042
 40
0.6181986953
 40
0.6536723091
 40
0.6877686132
 40
0.7203925339
 40
0.7361249853
 40
0.7514571335
 40
0.7663793239
 40
0.7808825301
 40
0.7949583539
 40
0.8085990881
 40
0.8217977952
 40
0.8345483187
 40
0.8468454493
 40
0.8586848962
 40
0.870063542
 40
0.8809794018
 40
0.8914319634
 40
0.9014221784
 40
0.9109528818
 40
0.9200288787
 40
0.928657443
 40
0.9368485699
 40
0.9446155673
 40
0.9519755296
 40
0.9589500258
 40
0.9655657776
 40
0.9778459327
 40
0.983607172
 40
0.9891799219
 40
0.9946230133
 40
1.0
 40
1.0
 40
1.0
 40
1.0
 10
12.6908241044
 20
8.1912353396
 30
0.0
 10
12.6908241044
 20
8.201309519
 30
0.0
 10
12.690981272
 20
8.221576094
 30
0.0
 10
12.6916760839
 20
8.2521140774
 30
0.0
 10
12.6928292988
 20
8.2828974136
 30
0.0
 10
12.694437139
 20
8.3138242122
 30
0.0
 10
12.6964942894
 20
8.3447921437
 30
0.0
 10
12.6989939511
 20
8.3756987612
 30
0.0
 10
12.7019278431
 20
8.4064418109
 30
0.0
 10
12.7052862399
 20
8.4369195882
 30
0.0
 10
12.7090579989
 20
8.4670312703
 30
0.0
 10
12.7132305984
 20
8.496677255
 30
0.0
 10
12.7177901784
 20
8.5257594923
 30
0.0
 10
12.7227215849
 20
8.5541818132
 30
0.0
 10
12.7280084198
 20
8.5818502513
 30
0.0
 10
12.7336330931
 20
8.6086733654
 30
0.0
 10
12.7395768824
 20
8.6345625306
 30
0.0
 10
12.7458199851
 20
8.6594323124
 30
0.0
 10
12.7523416164
 20
8.683200517
 30
0.0
 10
12.7580571976
 20
8.7022476865
 30
0.0
 10
12.7627619522
 20
8.716868643
 30
0.0
 10
12.7663037837
 20
8.7273782402
 30
0.0
 10
12.7698986525
 20
8.7375559669
 30
0.0
 10
12.7735435898
 20
8.7473934339
 30
0.0
 10
12.7772355726
 20
8.7568825227
 30
0.0
 10
12.7809715489
 20
8.7660154103
 30
0.0
 10
12.7847484086
 20
8.7747845774
 30
0.0
 10
12.788563053
 20
8.7831828025
 30
0.0
 10
12.792412293
 20
8.7912031937
 30
0.0
 10
12.7962929983
 20
8.7988391579
 30
0.0
 10
12.8002019202
 20
8.8060844596
 30
0.0
 10
12.8041359119
 20
8.8129331596
 30
0.0
 10
12.8080916947
 20
8.8193797047
 30
0.0
 10
12.812066124
 20
8.825418834
 30
0.0
 10
12.8160559353
 20
8.8310456953
 30
0.0
 10
12.8200580142
 20
8.8362557238
 30
0.0
 10
12.8240691778
 20
8.8410447718
 30
0.0
 10
12.8280863704
 20
8.8454089572
 30
0.0
 10
12.8321066403
 20
8.8493448304
 30
0.0
 10
12.8361268111
 20
8.8528490096
 30
0.0
 10
12.8401450651
 20
8.8559190278
 30
0.0
 10
12.8453636625
 20
8.8593433109
 30
0.0
 10
12.8507141103
 20
8.8620212938
 30
0.0
 10
12.8561335775
 20
8.8637975518
 30
0.0
 10
12.8600959542
 20
8.8646542518
 30
0.0
 10
12.8640361229
 20
8.8650609024
 30
0.0
 10
12.8666520989
 20
8.8650310583
 30
0.0
 10
12.8679456841
 20
8.8649413476
 30
0.0
  0
SPLINE
  5
2FA
100
AcDbEntity
  8
0
100
AcDbSpline
 62
7
  6
CONTINUOUS
 70
0
 71
3
 72
20
 73
16
 74
0
 42
0.0000001
 43
0.0000001
 44
0.0000000001
 40
0.0
 40
0.0
 40
0.0
 40
0.0
 40
0.1692296618
 40
0.3285411595
 40
0.4762491898
 40
0.5452819921
 40
0.6108746723
 40
0.6728832068
 40
0.7311824788
 40
0.7856741009
 40
0.8362863358
 40
0.882985553
 40
0.925779945
 40
0.9647374352
 40
1.0
 40
1.0
 40
1.0
 40
1.0
 10
12.606585829
 20
7.3554072757
 30
0.0
 10
12.6068540854
 20
7.3568595124
 30
0.0
 10
12.6074198252
 20
7.3596708867
 30
0.0
 10
12.6083870803
 20
7.3637137667
 30
0.0
 10
12.609282266
 20
7.3668723017
 30
0.0
 10
12.6100428476
 20
7.3692160509
 30
0.0
 10
12.6106168174
 20
7.3708334163
 30
0.0
 10
12.6112054274
 20
7.372345448
 30
0.0
 10
12.6118069447
 20
7.3737476131
 30
0.0
 10
12.6124194871
 20
7.3750357531
 30
0.0
 10
12.6130412782
 20
7.3762060644
 30
0.0
 10
12.6136704085
 20
7.3772551666
 30
0.0
 10
12.6143051955
 20
7.3781800995
 30
0.0
 10
12.6149437562
 20
7.3789782151
 30
0.0
 10
12.6153926862
 20
7.3794468704
 30
0.0
 10
12.6156179485
 20
7.3796565145
 30
0.0
  0
SPLINE
  5
2FB
100
AcDbEntity
  8
0
100
AcDbSpline
 62
7
  6
CONTINUOUS
 70
0
 71
3
 72
39
 73
35
 74
0
 42
0.0000001
 43
0.0000001
 44
0.0000000001
 40
0.0
 40
0.0
 40
0.0
 40
0.0
 40
0.0299347026
 40
0.0599708636
 40
0.0901340453
 40
0.1204523272
 40
0.1509481586
 40
0.1816405091
 40
0.2125432119
 40
0.2436640822
 40
0.2750041423
 40
0.3065568675
 40
0.3383077545
 40
0.3702344313
 40
0.402307242
 40
0.4344902935
 40
0.4667430844
 40
0.4990226937
 40
0.5312862134
 40
0.5634930001
 40
0.595606698
 40
0.6275969115
 40
0.6594402197
 40
0.6911207068
 40
0.7226300025
 40
0.7539667734
 40
0.7851361063
 40
0.8161487281
 40
0.8470199668
 40
0.8777687976
 40
0.9084169624
 40
0.9389881783
 40
0.9695074041
 40
1.0
 40
1.0
 40
1.0
 40
1.0
 10
9.2235221337
 20
8.7371171398
 30
0.0
 10
9.2258359375
 20
8.734675315
 30
0.0
 10
9.2303352622
 20
8.7296522932
 30
0.0
 10
9.2366617873
 20
8.7217355927
 30
0.0
 10
9.2425558008
 20
8.7134383848
 30
0.0
 10
9.2479957295
 20
8.704775553
 30
0.0
 10
9.2529590478
 20
8.6957630068
 30
0.0
 10
9.2574219934
 20
8.6864195118
 30
0.0
 10
9.2613600212
 20
8.6767668881
 30
0.0
 10
9.2647482375
 20
8.6668307388
 30
0.0
 10
9.2675620535
 20
8.6566409631
 30
0.0
 10
9.2697779963
 20
8.6462321467
 30
0.0
 10
9.2713746601
 20
8.6356437252
 30
0.0
 10
9.2723337437
 20
8.6249198435
 30
0.0
 10
9.2726410733
 20
8.6141088726
 30
0.0
 10
9.2722875133
 20
8.603262584
 30
0.0
 10
9.2712696617
 20
8.5924349969
 30
0.0
 10
9.2695902283
 20
8.5816809731
 30
0.0
 10
9.2672580324
 20
8.5710547172
 30
0.0
 10
9.2642876324
 20
8.5606083457
 30
0.0
 10
9.2606986289
 20
8.5503906581
 30
0.0
 10
9.2565147296
 20
8.5404462161
 30
0.0
 10
9.2517627037
 20
8.5308147722
 30
0.0
 10
9.2464713059
 20
8.5215310729
 30
0.0
 10
9.240670314
 20
8.512624977
 30
0.0
 10
9.2343896924
 20
8.5041218298
 30
0.0
 10
9.2276589605
 20
8.4960429937
 30
0.0
 10
9.2205067382
 20
8.4884064785
 30
0.0
 10
9.2129604753
 20
8.4812276238
 30
0.0
 10
9.2050463505
 20
8.4745197455
 30
0.0
 10
9.1967893556
 20
8.4682947363
 30
0.0
 10
9.1882132609
 20
8.4625634912
 30
0.0
 10
9.1793414679
 20
8.4573366558
 30
0.0
 10
9.1732428166
 20
8.4541942743
 30
0.0
 10
9.1701535719
 20
8.4527115423
 30
0.0
  0
SPLINE
  5
2FC
100
AcDbEntity
  8
0
100
AcDbSpline
 62
7
  6
CONTINUOUS
 70
0
 71
3
 72
23
 73
19
 74
0
 42
0.0000001
 43
0.0000001
 44
0.0000000001
 40
0.0
 40
0.0
 40
0.0
 40
0.0
 40
0.0658342561
 40
0.131368164
 40
0.1965347547
 40
0.2612774091
 40
0.325552656
 40
0.3893293199
 40
0.4525883281
 40
0.5153215588
 40
0.5775308461
 40
0.6392267115
 40
0.7004271738
 40
0.7611563259
 40
0.8214436227
 40
0.8813213681
 40
0.9408283683
 40
1.0
 40
1.0
 40
1.0
 40
1.0
 10
8.9717178645
 20
8.4960334695
 30
0.0
 10
8.9744679841
 20
8.4931018849
 30
0.0
 10
8.9801556378
 20
8.4874360373
 30
0.0
 10
8.9892152761
 20
8.4795541716
 30
0.0
 10
8.9987297698
 20
8.4723369482
 30
0.0
 10
9.0086386497
 20
8.4658108338
 30
0.0
 10
9.0188822789
 20
8.459994188
 30
0.0
 10
9.0294022642
 20
8.4548987242
 30
0.0
 10
9.0401424229
 20
8.4505300387
 30
0.0
 10
9.0510493293
 20
8.4468885343
 30
0.0
 10
9.0620726708
 20
8.4439702671
 30
0.0
 10
9.073165418
 20
8.441767781
 30
0.0
 10
9.0842838175
 20
8.4402708826
 30
0.0
 10
9.0953873077
 20
8.4394672872
 30
0.0
 10
9.1064381816
 20
8.4393432722
 30
0.0
 10
9.1174017556
 20
8.4398839979
 30
0.0
 10
9.1282448901
 20
8.4410740758
 30
0.0
 10
9.1353928371
 20
8.4422931528
 30
0.0
 10
9.1389346356
 20
8.4430059992
 30
0.0
  0
SPLINE
  5
2FD
100
AcDbEntity
  8
0
100
AcDbSpline
 62
7
  6
CONTINUOUS
 70
0
 71
3
 72
39
 73
35
 74
0
 42
0.0000001
 43
0.0000001
 44
0.0000000001
 40
0.0
 40
0.0
 40
0.0
 40
0.0
 40
0.0071625678
 40
0.0146567179
 40
0.0224900413
 40
0.0306687017
 40
0.0391977329
 40
0.0480809761
 40
0.0573207983
 40
0.0669183965
 40
0.0768741435
 40
0.0871874377
 40
0.1088799456
 40
0.131978928
 40
0.1564568622
 40
0.182278431
 40
0.2094015018
 40
0.2377780607
 40
0.2673549092
 40
0.2980741881
 40
0.3298737896
 40
0.3626878448
 40
0.3964471028
 40
0.4310792359
 40
0.4665091073
 40
0.5026591244
 40
0.5394495258
 40
0.5767986285
 40
0.6146230679
 40
0.6913563402
 40
0.7689609431
 40
0.8467367595
 40
0.9239813805
 40
1.0
 40
1.0
 40
1.0
 40
1.0
 10
8.5110992759
 20
9.5215071891
 30
0.0
 10
8.5103541314
 20
9.5207874347
 30
0.0
 10
8.5088648247
 20
9.5192775238
 30
0.0
 10
8.5066819684
 20
9.5168645348
 30
0.0
 10
8.5045018521
 20
9.5142545059
 30
0.0
 10
8.5023259351
 20
9.5114491222
 30
0.0
 10
8.5001553973
 20
9.5084500633
 30
0.0
 10
8.4979915176
 20
9.5052590364
 30
0.0
 10
8.4958355224
 20
9.5018779249
 30
0.0
 10
8.4936886866
 20
9.4983087441
 30
0.0
 10
8.4915523247
 20
9.4945535964
 30
0.0
 10
8.4886708107
 20
9.4892114186
 30
0.0
 10
8.4851127586
 20
9.4820767165
 30
0.0
 10
8.480973695
 20
9.4729504067
 30
0.0
 10
8.4769062617
 20
9.4631422608
 30
0.0
 10
8.4729202825
 20
9.4526757178
 30
0.0
 10
8.4690253755
 20
9.441575671
 30
0.0
 10
8.4652309664
 20
9.4298686641
 30
0.0
 10
8.4615462467
 20
9.4175827195
 30
0.0
 10
8.457980151
 20
9.4047472957
 30
0.0
 10
8.4545413041
 20
9.3913932115
 30
0.0
 10
8.4512380296
 20
9.3775525545
 30
0.0
 10
8.4480783255
 20
9.363258592
 30
0.0
 10
8.4450698461
 20
9.3485456964
 30
0.0
 10
8.4422198583
 20
9.3334492678
 30
0.0
 10
8.4395352487
 20
9.3180056344
 30
0.0
 10
8.4370225159
 20
9.3022519701
 30
0.0
 10
8.4346877138
 20
9.2862261663
 30
0.0
 10
8.4318058299
 20
9.2644436228
 30
0.0
 10
8.4286926424
 20
9.2368208628
 30
0.0
 10
8.4257604224
 20
9.2033728955
 30
0.0
 10
8.4236426436
 20
9.1697892204
 30
0.0
 10
8.4223596237
 20
9.1363930845
 30
0.0
 10
8.4220655979
 20
9.1142241028
 30
0.0
 10
8.4220655979
 20
9.103228751
 30
0.0
  0
SPLINE
  5
2FE
100
AcDbEntity
  8
0
100
AcDbSpline
 62
7
  6
CONTINUOUS
 70
0
 71
3
 72
32
 73
28
 74
0
 42
0.0000001
 43
0.0000001
 44
0.0000000001
 40
0.0
 40
0.0
 40
0.0
 40
0.0
 40
0.0851787336
 40
0.1685810096
 40
0.2498835716
 40
0.3287745562
 40
0.404955028
 40
0.4781412829
 40
0.5480670187
 40
0.5817301622
 40
0.6144876613
 40
0.6463121802
 40
0.6771783478
 40
0.7070622542
 40
0.7359422461
 40
0.7637984486
 40
0.7906136241
 40
0.816372753
 40
0.8410639787
 40
0.8646782957
 40
0.8872106222
 40
0.9086596695
 40
0.9290292143
 40
0.9483282651
 40
0.9665726485
 40
0.9837856363
 40
1.0
 40
1.0
 40
1.0
 40
1.0
 10
8.4220655979
 20
7.5335991903
 30
0.0
 10
8.4220655979
 20
7.5264716369
 30
0.0
 10
8.4221870551
 20
7.5123648362
 30
0.0
 10
8.4227441106
 20
7.4914614639
 30
0.0
 10
8.4236719059
 20
7.4710977788
 30
0.0
 10
8.424966412
 20
7.4513595808
 30
0.0
 10
8.4266220155
 20
7.4323298324
 30
0.0
 10
8.4286316035
 20
7.4140886507
 30
0.0
 10
8.4306182315
 20
7.3994286307
 30
0.0
 10
8.4323865372
 20
7.3881570196
 30
0.0
 10
8.4337787637
 20
7.3800545244
 30
0.0
 10
8.4352523345
 20
7.3722044235
 30
0.0
 10
8.4368056445
 20
7.3646149605
 30
0.0
 10
8.4384371067
 20
7.3572941118
 30
0.0
 10
8.4401449268
 20
7.3502495609
 30
0.0
 10
8.4419273638
 20
7.3434886989
 30
0.0
 10
8.4437824624
 20
7.3370186026
 30
0.0
 10
8.445708334
 20
7.3308460442
 30
0.0
 10
8.4477028765
 20
7.3249774561
 30
0.0
 10
8.4497640692
 20
7.3194189567
 30
0.0
 10
8.4518896833
 20
7.314176296
 30
0.0
 10
8.4540775902
 20
7.3092549065
 30
0.0
 10
8.4563254708
 20
7.3046598163
 30
0.0
 10
8.4586311201
 20
7.3003957578
 30
0.0
 10
8.4609922282
 20
7.2964669647
 30
0.0
 10
8.4634064476
 20
7.2928776313
 30
0.0
 10
8.4650992895
 20
7.2906483137
 30
0.0
 10
8.4659553783
 20
7.2895957159
 30
0.0
  0
SPLINE
  5
2FF
100
AcDbEntity
  8
0
100
AcDbSpline
 62
7
  6
CONTINUOUS
 70
0
 71
3
 72
32
 73
28
 74
0
 42
0.0000001
 43
0.0000001
 44
0.0000000001
 40
0.0
 40
0.0
 40
0.0
 40
0.0
 40
0.0838779565
 40
0.1664389942
 40
0.2472959916
 40
0.3260723734
 40
0.4024046774
 40
0.475945224
 40
0.5463649434
 40
0.5803083428
 40
0.6133582032
 40
0.6454801101
 40
0.6766413604
 40
0.7068114023
 40
0.7359615884
 40
0.7640658826
 40
0.7911005024
 40
0.8170447929
 40
0.8418809491
 40
0.8655949017
 40
0.8881764272
 40
0.909619997
 40
0.929925215
 40
0.9490977252
 40
0.9671513775
 40
0.984108628
 40
1.0
 40
1.0
 40
1.0
 40
1.0
 10
13.1256920075
 20
7.6864593134
 30
0.0
 10
13.1248116171
 20
7.6785075634
 30
0.0
 10
13.1229219399
 20
7.6627442979
 30
0.0
 10
13.1196774666
 20
7.6393798734
 30
0.0
 10
13.1160574051
 20
7.6165630629
 30
0.0
 10
13.112080165
 20
7.5944090506
 30
0.0
 10
13.1077659864
 20
7.5730294475
 30
0.0
 10
13.1031368137
 20
7.5525321012
 30
0.0
 10
13.0989871975
 20
7.536076517
 30
0.0
 10
13.0955189846
 20
7.5234367781
 30
0.0
 10
13.0928859319
 20
7.5143568147
 30
0.0
 10
13.0901924897
 20
7.5055717528
 30
0.0
 10
13.0874420138
 20
7.4970926556
 30
0.0
 10
13.0846380408
 20
7.4889301979
 30
0.0
 10
13.0817840625
 20
7.4810946588
 30
0.0
 10
13.0788837594
 20
7.4735958785
 30
0.0
 10
13.0759407307
 20
7.4664432849
 30
0.0
 10
13.0729587646
 20
7.4596458304
 30
0.0
 10
13.0699415624
 20
7.4532120338
 30
0.0
 10
13.0668929732
 20
7.4471499081
 30
0.0
 10
13.0638167821
 20
7.4414669938
 30
0.0
 10
13.06071683
 20
7.4361703288
 30
0.0
 10
13.0575969671
 20
7.431266434
 30
0.0
 10
13.0544609882
 20
7.4267613081
 30
0.0
 10
13.0513125414
 20
7.4226602775
 30
0.0
 10
13.0481555017
 20
7.4189686855
 30
0.0
 10
13.0459784618
 20
7.4167118789
 30
0.0
 10
13.0448882659
 20
7.4156588304
 30
0.0
  0
SPLINE
  5
300
100
AcDbEntity
  8
0
100
AcDbSpline
 62
7
  6
CONTINUOUS
 70
0
 71
3
 72
19
 73
15
 74
0
 42
0.0000001
 43
0.0000001
 44
0.0000000001
 40
0.0
 40
0.0
 40
0.0
 40
0.0
 40
0.0616584454
 40
0.1233399317
 40
0.185067215
 40
0.2468625626
 40
0.3087474945
 40
0.3707425066
 40
0.4328668994
 40
0.4951385746
 40
0.6201443393
 40
0.7459117862
 40
0.8725152911
 40
1.0
 40
1.0
 40
1.0
 40
1.0
 10
10.9386418863
 20
7.3499693525
 30
0.0
 10
10.9402185846
 20
7.3514923247
 30
0.0
 10
10.943455175
 20
7.3544546358
 30
0.0
 10
10.948542846
 20
7.3586316002
 30
0.0
 10
10.9538514567
 20
7.3625324556
 30
0.0
 10
10.9593674104
 20
7.3661472524
 30
0.0
 10
10.9650769056
 20
7.369466888
 30
0.0
 10
10.9709654694
 20
7.3724829927
 30
0.0
 10
10.9770184715
 20
7.3751880757
 30
0.0
 10
10.9852967115
 20
7.3783745084
 30
0.0
 10
10.9959877189
 20
7.3815468823
 30
0.0
 10
11.0092001758
 20
7.3840114864
 30
0.0
 10
11.0226823587
 20
7.3851167
 30
0.0
 10
11.0317321206
 20
7.3849401711
 30
0.0
 10
11.0362536925
 20
7.384626599
 30
0.0
  0
SPLINE
  5
301
100
AcDbEntity
  8
0
100
AcDbSpline
 62
7
  6
CONTINUOUS
 70
0
 71
3
 72
19
 73
15
 74
0
 42
0.0000001
 43
0.0000001
 44
0.0000000001
 40
0.0
 40
0.0
 40
0.0
 40
0.0
 40
0.0616584454
 40
0.1233399317
 40
0.185067215
 40
0.2468625626
 40
0.3087474945
 40
0.3707425066
 40
0.4328668994
 40
0.4951385746
 40
0.6201443393
 40
0.7459117862
 40
0.8725152911
 40
1.0
 40
1.0
 40
1.0
 40
1.0
 10
8.8850833552
 20
7.4923841203
 30
0.0
 10
8.8866600535
 20
7.4939070926
 30
0.0
 10
8.889896644
 20
7.4968694037
 30
0.0
 10
8.8949843149
 20
7.501046368
 30
0.0
 10
8.9002929256
 20
7.5049472234
 30
0.0
 10
8.9058088793
 20
7.5085620203
 30
0.0
 10
8.9115183745
 20
7.5118816559
 30
0.0
 10
8.9174069384
 20
7.5148977605
 30
0.0
 10
8.9234599404
 20
7.5176028435
 30
0.0
 10
8.9317381804
 20
7.5207892763
 30
0.0
 10
8.9424291878
 20
7.5239616501
 30
0.0
 10
8.9556416447
 20
7.5264262543
 30
0.0
 10
8.9691238276
 20
7.5275314678
 30
0.0
 10
8.9781735895
 20
7.5273549389
 30
0.0
 10
8.9826951614
 20
7.5270413668
 30
0.0
  0
SPLINE
  5
302
100
AcDbEntity
  8
0
100
AcDbSpline
 62
7
  6
CONTINUOUS
 70
0
 71
3
 72
19
 73
15
 74
0
 42
0.0000001
 43
0.0000001
 44
0.0000000001
 40
0.0
 40
0.0
 40
0.0
 40
0.0
 40
0.0616584454
 40
0.1233399317
 40
0.185067215
 40
0.2468625626
 40
0.3087474945
 40
0.3707425066
 40
0.4328668994
 40
0.4951385746
 40
0.6201443393
 40
0.7459117862
 40
0.8725152911
 40
1.0
 40
1.0
 40
1.0
 40
1.0
 10
8.8850833552
 20
9.2416758565
 30
0.0
 10
8.8866600535
 20
9.2431988287
 30
0.0
 10
8.889896644
 20
9.2461611398
 30
0.0
 10
8.8949843149
 20
9.2503381042
 30
0.0
 10
8.9002929256
 20
9.2542389595
 30
0.0
 10
8.9058088793
 20
9.2578537564
 30
0.0
 10
8.9115183745
 20
9.261173392
 30
0.0
 10
8.9174069384
 20
9.2641894967
 30
0.0
 10
8.9234599404
 20
9.2668945797
 30
0.0
 10
8.9317381804
 20
9.2700810124
 30
0.0
 10
8.9424291878
 20
9.2732533863
 30
0.0
 10
8.9556416447
 20
9.2757179904
 30
0.0
 10
8.9691238276
 20
9.276823204
 30
0.0
 10
8.9781735895
 20
9.2766466751
 30
0.0
 10
8.9826951614
 20
9.276333103
 30
0.0
  0
SPLINE
  5
303
100
AcDbEntity
  8
0
100
AcDbSpline
 62
7
  6
CONTINUOUS
 70
0
 71
3
 72
19
 73
15
 74
0
 42
0.0000001
 43
0.0000001
 44
0.0000000001
 40
0.0
 40
0.0
 40
0.0
 40
0.0
 40
0.0616584454
 40
0.1233399317
 40
0.185067215
 40
0.2468625626
 40
0.3087474945
 40
0.3707425066
 40
0.4328668994
 40
0.4951385746
 40
0.6201443393
 40
0.7459117862
 40
0.8725152911
 40
1.0
 40
1.0
 40
1.0
 40
1.0
 10
10.9386418863
 20
9.0992610886
 30
0.0
 10
10.9402185846
 20
9.1007840609
 30
0.0
 10
10.943455175
 20
9.103746372
 30
0.0
 10
10.948542846
 20
9.1079233363
 30
0.0
 10
10.9538514567
 20
9.1118241917
 30
0.0
 10
10.9593674104
 20
9.1154389886
 30
0.0
 10
10.9650769056
 20
9.1187586242
 30
0.0
 10
10.9709654694
 20
9.1217747288
 30
0.0
 10
10.9770184715
 20
9.1244798118
 30
0.0
 10
10.9852967115
 20
9.1276662446
 30
0.0
 10
10.9959877189
 20
9.1308386184
 30
0.0
 10
11.0092001758
 20
9.1333032226
 30
0.0
 10
11.0226823587
 20
9.1344084361
 30
0.0
 10
11.0317321206
 20
9.1342319072
 30
0.0
 10
11.0362536925
 20
9.1339183351
 30
0.0
  0
SPLINE
  5
304
100
AcDbEntity
  8
0
100
AcDbSpline
 62
7
  6
CONTINUOUS
 70
0
 71
3
 72
39
 73
35
 74
0
 42
0.0000001
 43
0.0000001
 44
0.0000000001
 40
0.0
 40
0.0
 40
0.0
 40
0.0
 40
0.0309843069
 40
0.062133452
 40
0.0934411919
 40
0.1248980141
 40
0.1564916214
 40
0.1882073994
 40
0.2200288529
 40
0.2519380005
 40
0.2839157271
 40
0.3159420956
 40
0.3479966253
 40
0.3800585442
 40
0.4121070256
 40
0.4441214185
 40
0.4760814832
 40
0.507967642
 40
0.5397612535
 40
0.5714449203
 40
0.6030028335
 40
0.6344211588
 40
0.6656884598
 40
0.6967961507
 40
0.727738962
 40
0.7585153933
 40
0.7891281176
 40
0.8195842933
 40
0.849895736
 40
0.880078915
 40
0.9101546636
 40
0.9401478825
 40
0.9700860554
 40
1.0
 40
1.0
 40
1.0
 40
1.0
 10
9.9877770401
 20
7.7392372787
 30
0.0
 10
9.9923572233
 20
7.739223511
 30
0.0
 10
10.0015446816
 20
7.7388345003
 30
0.0
 10
10.0152723541
 20
7.7371944979
 30
0.0
 10
10.0289079636
 20
7.7345196745
 30
0.0
 10
10.0423742722
 20
7.7308381859
 30
0.0
 10
10.0555990749
 20
7.7261823411
 30
0.0
 10
10.0685133641
 20
7.7205879882
 30
0.0
 10
10.0810517022
 20
7.7140939904
 30
0.0
 10
10.0931519139
 20
7.7067418165
 30
0.0
 10
10.1047549106
 20
7.6985752366
 30
0.0
 10
10.1158044568
 20
7.6896401194
 30
0.0
 10
10.1262469544
 20
7.6799843213
 30
0.0
 10
10.1360312472
 20
7.6696576584
 30
0.0
 10
10.1451084626
 20
7.65871195
 30
0.0
 10
10.1534319042
 20
7.6472011232
 30
0.0
 10
10.1609570047
 20
7.6351813644
 30
0.0
 10
10.1676413523
 20
7.6227113075
 30
0.0
 10
10.173444799
 20
7.6098522403
 30
0.0
 10
10.1783296597
 20
7.596668316
 30
0.0
 10
10.1822610108
 20
7.5832267482
 30
0.0
 10
10.1852070921
 20
7.5695979683
 30
0.0
 10
10.1871398149
 20
7.5558557207
 30
0.0
 10
10.1880353724
 20
7.542077068
 30
0.0
 10
10.1878749437
 20
7.5283422763
 30
0.0
 10
10.1866454716
 20
7.5147345514
 30
0.0
 10
10.184340487
 20
7.5013395988
 30
0.0
 10
10.1809609402
 20
7.4882449832
 30
0.0
 10
10.1765160017
 20
7.4755392797
 30
0.0
 10
10.1710236954
 20
7.4633109952
 30
0.0
 10
10.1645115486
 20
7.4516473901
 30
0.0
 10
10.157016372
 20
7.4406327998
 30
0.0
 10
10.1485859671
 20
7.4303484402
 30
0.0
 10
10.1423765674
 20
7.4240261297
 30
0.0
 10
10.1391395263
 20
7.4210135782
 30
0.0
  0
SPLINE
  5
305
100
AcDbEntity
  8
0
100
AcDbSpline
 62
7
  6
CONTINUOUS
 70
0
 71
3
 72
21
 73
17
 74
0
 42
0.0000001
 43
0.0000001
 44
0.0000000001
 40
0.0
 40
0.0
 40
0.0
 40
0.0
 40
0.1281821544
 40
0.1920776603
 40
0.2557990724
 40
0.3825700667
 40
0.4456234703
 40
0.5084076134
 40
0.5709029036
 40
0.6330941798
 40
0.6949724854
 40
0.7565369661
 40
0.8177964285
 40
0.8787709988
 40
0.9394911704
 40
1.0
 40
1.0
 40
1.0
 40
1.0
 10
10.7341632331
 20
8.4478966896
 30
0.0
 10
10.7303454553
 20
8.4546227248
 30
0.0
 10
10.7250838672
 20
8.464974994
 30
0.0
 10
10.719139268
 20
8.4792241298
 30
0.0
 10
10.7139745185
 20
8.4936834587
 30
0.0
 10
10.7100127126
 20
8.5085011398
 30
0.0
 10
10.7074217949
 20
8.5235287888
 30
0.0
 10
10.7062037307
 20
8.534835003
 30
0.0
 10
10.7057445434
 20
8.5461456803
 30
0.0
 10
10.7060778793
 20
8.5574070747
 30
0.0
 10
10.7072331232
 20
8.5685584273
 30
0.0
 10
10.7092332216
 20
8.5795333963
 30
0.0
 10
10.7120925675
 20
8.5902608508
 30
0.0
 10
10.7158153535
 20
8.6006669987
 30
0.0
 10
10.7203929599
 20
8.6106763533
 30
0.0
 10
10.7240074883
 20
8.6170480919
 30
0.0
 10
10.7259468624
 20
8.6201412564
 30
0.0
  0
SPLINE
  5
306
100
AcDbEntity
  8
0
100
AcDbSpline
 62
7
  6
CONTINUOUS
 70
0
 71
3
 72
37
 73
33
 74
0
 42
0.0000001
 43
0.0000001
 44
0.0000000001
 40
0.0
 40
0.0
 40
0.0
 40
0.0
 40
0.0300680754
 40
0.0602353106
 40
0.090510393
 40
0.120900327
 40
0.1514104267
 40
0.1820443237
 40
0.2128039839
 40
0.2436897264
 40
0.2747002514
 40
0.3058326739
 40
0.3370825594
 40
0.3684439621
 40
0.3999094606
 40
0.4314701989
 40
0.4948089362
 40
0.5583888123
 40
0.5902474572
 40
0.6221222371
 40
0.653996691
 40
0.6858538857
 40
0.7176766662
 40
0.7494479377
 40
0.781150983
 40
0.8127698011
 40
0.8442894844
 40
0.8756965447
 40
0.9069794075
 40
0.9381283974
 40
0.969136898
 40
1.0
 40
1.0
 40
1.0
 40
1.0
 10
10.322125416
 20
8.2682885027
 30
0.0
 10
10.3255501443
 20
8.2696534908
 30
0.0
 10
10.3325004511
 20
8.2721689436
 30
0.0
 10
10.3431597962
 20
8.2752819818
 30
0.0
 10
10.3540310535
 20
8.2777341985
 30
0.0
 10
10.3650737466
 20
8.2795200463
 30
0.0
 10
10.3762482192
 20
8.2806360577
 30
0.0
 10
10.3875147301
 20
8.2810804102
 30
0.0
 10
10.3988336743
 20
8.2808529648
 30
0.0
 10
10.4101654879
 20
8.2799551902
 30
0.0
 10
10.4214706319
 20
8.2783901471
 30
0.0
 10
10.4327095385
 20
8.2761625007
 30
0.0
 10
10.4438426229
 20
8.2732785246
 30
0.0
 10
10.4548300877
 20
8.2697462497
 30
0.0
 10
10.4656325357
 20
8.2655751784
 30
0.0
 10
10.4797491372
 20
8.2591717375
 30
0.0
 10
10.4967284984
 20
8.249629048
 30
0.0
 10
10.5125257842
 20
8.2381715854
 30
0.0
 10
10.5243186857
 20
8.2279323968
 30
0.0
 10
10.5327082162
 20
8.2197345131
 30
0.0
 10
10.5405959729
 20
8.2110533133
 30
0.0
 10
10.5479451125
 20
8.2019195169
 30
0.0
 10
10.554719618
 20
8.1923670923
 30
0.0
 10
10.5608852688
 20
8.1824328443
 30
0.0
 10
10.5664098546
 20
8.1721564917
 30
0.0
 10
10.5712636265
 20
8.1615805369
 30
0.0
 10
10.5754196856
 20
8.1507501136
 30
0.0
 10
10.5788544215
 20
8.1397127198
 30
0.0
 10
10.5815478365
 20
8.1285180082
 30
0.0
 10
10.583484011
 20
8.1172170462
 30
0.0
 10
10.584651212
 20
8.1058631188
 30
0.0
 10
10.584912587
 20
8.0982743752
 30
0.0
 10
10.584912587
 20
8.0944901679
 30
0.0
  0
LINE
  5
307
100
AcDbEntity
  8
0
100
AcDbLine
 62
7
  6
CONTINUOUS
 10
9.0385367543
 20
8.7856422947
 11
9.0386382592
 21
8.7856735752
  0
SPLINE
  5
308
100
AcDbEntity
  8
0
100
AcDbSpline
 62
7
  6
CONTINUOUS
 70
0
 71
3
 72
25
 73
21
 74
0
 42
0.0000001
 43
0.0000001
 44
0.0000000001
 40
0.0
 40
0.0
 40
0.0
 40
0.0
 40
0.0652175556
 40
0.0977400251
 40
0.1301898787
 40
0.1948289086
 40
0.2590852709
 40
0.2910593844
 40
0.3229207638
 40
0.3862831604
 40
0.4491687584
 40
0.5115834165
 40
0.5735520602
 40
0.6351171669
 40
0.6963365116
 40
0.7572804089
 40
0.8180293697
 40
0.8786702472
 40
0.9392964033
 40
1.0
 40
1.0
 40
1.0
 40
1.0
 10
9.0386382592
 20
8.7856735752
 30
0.0
 10
9.0428203767
 20
8.7869610199
 30
0.0
 10
9.0491614905
 20
8.788662954
 30
0.0
 10
9.0577101906
 20
8.7904646475
 30
0.0
 10
9.0662806166
 20
8.791949281
 30
0.0
 10
9.0770413458
 20
8.7932193557
 30
0.0
 10
9.0878333592
 20
8.7937141056
 30
0.0
 10
9.0964290692
 20
8.7936487956
 30
0.0
 10
9.104957102
 20
8.7932817997
 30
0.0
 10
9.1155263217
 20
8.7922661334
 30
0.0
 10
9.1280210849
 20
8.7901758671
 30
0.0
 10
9.1402500198
 20
8.7872462549
 30
0.0
 10
9.1521635866
 20
8.783508786
 30
0.0
 10
9.163719015
 20
8.7789950869
 30
0.0
 10
9.1748786189
 20
8.7737358482
 30
0.0
 10
9.1856087834
 20
8.7677601082
 30
0.0
 10
9.1958784805
 20
8.7610949201
 30
0.0
 10
9.205658446
 20
8.7537651574
 30
0.0
 10
9.2149188346
 20
8.745794558
 30
0.0
 10
9.220720679
 20
8.7400735968
 30
0.0
 10
9.2235221337
 20
8.7371171398
 30
0.0
  0
LINE
  5
309
100
AcDbEntity
  8
0
100
AcDbLine
 62
7
  6
CONTINUOUS
 10
8.9953027167
 20
8.7618553711
 11
8.9949272612
 21
8.7615692378
  0
SPLINE
  5
30A
100
AcDbEntity
  8
0
100
AcDbSpline
 62
7
  6
CONTINUOUS
 70
0
 71
3
 72
37
 73
33
 74
0
 42
0.0000001
 43
0.0000001
 44
0.0000000001
 40
0.0
 40
0.0
 40
0.0
 40
0.0
 40
0.0291183802
 40
0.058275095
 40
0.0874838082
 40
0.1167605285
 40
0.175560782
 40
0.2348105744
 40
0.2646486011
 40
0.2946407505
 40
0.3247995544
 40
0.3551368393
 40
0.3856633179
 40
0.4163883006
 40
0.4473196939
 40
0.4784636646
 40
0.5098241392
 40
0.5414026774
 40
0.5731982226
 40
0.6052067657
 40
0.6374209947
 40
0.6698301744
 40
0.702420088
 40
0.7351730121
 40
0.7680678213
 40
0.8010802388
 40
0.8341832615
 40
0.8673476659
 40
0.9005429797
 40
0.9337372266
 40
0.9669003969
 40
1.0
 40
1.0
 40
1.0
 40
1.0
 10
8.9949272612
 20
8.7615692378
 30
0.0
 10
8.9926109395
 20
8.7597992448
 30
0.0
 10
8.9880592307
 20
8.75614542
 30
0.0
 10
8.9814971857
 20
8.7503398817
 30
0.0
 10
8.9752097002
 20
8.7442147155
 30
0.0
 10
8.9672003964
 20
8.7356231967
 30
0.0
 10
8.9579360456
 20
8.7241145973
 30
0.0
 10
8.9498053118
 20
8.7117109354
 30
0.0
 10
8.9440198093
 20
8.7012826127
 30
0.0
 10
8.9400432015
 20
8.6931942195
 30
0.0
 10
8.9364554075
 20
8.6848716971
 30
0.0
 10
8.93327163
 20
8.6763291493
 30
0.0
 10
8.9305073627
 20
8.6675822422
 30
0.0
 10
8.9281779905
 20
8.6586480342
 30
0.0
 10
8.9262987491
 20
8.6495451991
 30
0.0
 10
8.9248845365
 20
8.6402941585
 30
0.0
 10
8.9239496273
 20
8.6309172487
 30
0.0
 10
8.9235074387
 20
8.6214388214
 30
0.0
 10
8.923570238
 20
8.6118853066
 30
0.0
 10
8.9241488091
 20
8.6022852592
 30
0.0
 10
8.9252520339
 20
8.5926693382
 30
0.0
 10
8.9268865161
 20
8.5830701994
 30
0.0
 10
8.9290562161
 20
8.5735223016
 30
0.0
 10
8.9317620765
 20
8.5640616297
 30
0.0
 10
8.9350016931
 20
8.554725329
 30
0.0
 10
8.938769047
 20
8.5455512447
 30
0.0
 10
8.9430543206
 20
8.5365773865
 30
0.0
 10
8.9478438522
 20
8.527841294
 30
0.0
 10
8.9531202108
 20
8.5193795674
 30
0.0
 10
8.9588624431
 20
8.5112268554
 30
0.0
 10
8.965046033
 20
8.5034162601
 30
0.0
 10
8.969450691
 20
8.4984502559
 30
0.0
 10
8.9717178645
 20
8.4960334695
 30
0.0
  0
SPLINE
  5
30B
100
AcDbEntity
  8
0
100
AcDbSpline
 62
7
  6
CONTINUOUS
 70
0
 71
3
 72
17
 73
13
 74
0
 42
0.0000001
 43
0.0000001
 44
0.0000000001
 40
0.0
 40
0.0
 40
0.0
 40
0.0
 40
0.0544358448
 40
0.1090885253
 40
0.2198402599
 40
0.3339491399
 40
0.4528985532
 40
0.5146194848
 40
0.5780176026
 40
0.7103219531
 40
0.8507493365
 40
1.0
 40
1.0
 40
1.0
 40
1.0
 10
8.9955909873
 20
9.9752532203
 30
0.0
 10
8.9950818916
 20
9.9752885298
 30
0.0
 10
8.9940590098
 20
9.9753259221
 30
0.0
 10
8.9919977665
 20
9.9752670359
 30
0.0
 10
8.9893904327
 20
9.9749374439
 30
0.0
 10
8.9862597896
 20
9.9741408718
 30
0.0
 10
8.9836715041
 20
9.9731558255
 30
0.0
 10
8.9816014865
 20
9.9721792645
 30
0.0
 10
8.9794716434
 20
9.9710426418
 30
0.0
 10
8.9768001407
 20
9.9693629366
 30
0.0
 10
8.973634587
 20
9.966984232
 30
0.0
 10
8.9715873969
 20
9.9651960395
 30
0.0
 10
8.9705631664
 20
9.9642428086
 30
0.0
  0
SPLINE
  5
30C
100
AcDbEntity
  8
0
100
AcDbSpline
 62
7
  6
CONTINUOUS
 70
0
 71
3
 72
18
 73
14
 74
0
 42
0.0000001
 43
0.0000001
 44
0.0000000001
 40
0.0
 40
0.0
 40
0.0
 40
0.0
 40
0.1492438628
 40
0.2896566766
 40
0.4219552654
 40
0.4853510326
 40
0.5470696139
 40
0.6660130313
 40
0.7801157008
 40
0.8358361162
 40
0.8909169338
 40
0.9455668697
 40
1.0
 40
1.0
 40
1.0
 40
1.0
 10
8.491830562
 20
7.2577808387
 30
0.0
 10
8.4927134063
 20
7.2566953338
 30
0.0
 10
8.4944941013
 20
7.2546416824
 30
0.0
 10
8.4973010331
 20
7.2518488724
 30
0.0
 10
8.4997150366
 20
7.2498164594
 30
0.0
 10
8.5016676286
 20
7.2483967213
 30
0.0
 10
8.5035830698
 20
7.2471437267
 30
0.0
 10
8.50601035
 20
7.245810843
 30
0.0
 10
8.5085232816
 20
7.2447851111
 30
0.0
 10
8.5105421406
 20
7.2441726827
 30
0.0
 10
8.5120529911
 20
7.2438166332
 30
0.0
 10
8.513571633
 20
7.2435605335
 30
0.0
 10
8.5145898559
 20
7.2434563762
 30
0.0
 10
8.5150989543
 20
7.2434210665
 30
0.0
  0
SPLINE
  5
30D
100
AcDbEntity
  8
0
100
AcDbSpline
 62
7
  6
CONTINUOUS
 70
0
 71
3
 72
47
 73
43
 74
0
 42
0.0000001
 43
0.0000001
 44
0.0000000001
 40
0.0
 40
0.0
 40
0.0
 40
0.0
 40
0.0063158953
 40
0.0126706964
 40
0.0191025413
 40
0.0256481068
 40
0.0323419887
 40
0.0392163511
 40
0.0536141938
 40
0.0611949453
 40
0.0690567093
 40
0.0772178306
 40
0.0856942536
 40
0.094499648
 40
0.1036457893
 40
0.1131425899
 40
0.1229983503
 40
0.1332200167
 40
0.1438131323
 40
0.1547821683
 40
0.1661305713
 40
0.1899729423
 40
0.2153524409
 40
0.2422683478
 40
0.2707106917
 40
0.3006617255
 40
0.3320970385
 40
0.3649863926
 40
0.3992943516
 40
0.4349809011
 40
0.4720019229
 40
0.5103095575
 40
0.5498524869
 40
0.5905762826
 40
0.6324236706
 40
0.6753347453
 40
0.7192471563
 40
0.7640962954
 40
0.8098156376
 40
0.856336788
 40
0.9035890146
 40
1.0
 40
1.0
 40
1.0
 40
1.0
 10
12.7932268627
 20
7.7875291249
 30
0.0
 10
12.7923141615
 20
7.7875924211
 30
0.0
 10
12.7904874524
 20
7.7877941315
 30
0.0
 10
12.7877678561
 20
7.7883198284
 30
0.0
 10
12.7850664332
 20
7.7890686793
 30
0.0
 10
12.7823847862
 20
7.7900401334
 30
0.0
 10
12.7797239269
 20
7.7912335344
 30
0.0
 10
12.776151134
 20
7.7931487653
 30
0.0
 10
12.7726753388
 20
7.795493256
 30
0.0
 10
12.7693116844
 20
7.798210199
 30
0.0
 10
12.7667709784
 20
7.8005008846
 30
0.0
 10
12.7642573951
 20
7.8030080377
 30
0.0
 10
12.7617715995
 20
7.8057307941
 30
0.0
 10
12.7593145509
 20
7.8086679318
 30
0.0
 10
12.756887201
 20
7.8118182962
 30
0.0
 10
12.7544904663
 20
7.8151805827
 30
0.0
 10
12.7521252585
 20
7.8187534202
 30
0.0
 10
12.7497925506
 20
7.8225353859
 30
0.0
 10
12.7474932298
 20
7.8265249188
 30
0.0
 10
12.7452282057
 20
7.8307204197
 30
0.0
 10
12.7422053298
 20
7.8366853217
 30
0.0
 10
12.7385293136
 20
7.8446558033
 30
0.0
 10
12.7343391818
 20
7.8548608509
 30
0.0
 10
12.7303071296
 20
7.8658418181
 30
0.0
 10
12.7264397532
 20
7.8775807858
 30
0.0
 10
12.722743398
 20
7.8900588015
 30
0.0
 10
12.7192241828
 20
7.9032555392
 30
0.0
 10
12.7158879556
 20
7.9171494529
 30
0.0
 10
12.7127402535
 20
7.9317177836
 30
0.0
 10
12.7097863148
 20
7.9469366269
 30
0.0
 10
12.7070310628
 20
7.9627809836
 30
0.0
 10
12.704479097
 20
7.9792247991
 30
0.0
 10
12.7021346611
 20
7.9962410051
 30
0.0
 10
12.7000016603
 20
8.0138015753
 30
0.0
 10
12.6980836521
 20
8.03187758
 30
0.0
 10
12.6963838403
 20
8.0504392305
 30
0.0
 10
12.694905052
 20
8.0694559185
 30
0.0
 10
12.6936497464
 20
8.0888962919
 30
0.0
 10
12.6926200272
 20
8.1087282868
 30
0.0
 10
12.6918176064
 20
8.1289191767
 30
0.0
 10
12.6910474952
 20
8.1564581358
 30
0.0
 10
12.6908241044
 20
8.1772696607
 30
0.0
 10
12.6908241044
 20
8.1912353396
 30
0.0
  0
SPLINE
  5
30E
100
AcDbEntity
  8
0
100
AcDbSpline
 62
7
  6
CONTINUOUS
 70
0
 71
3
 72
28
 73
24
 74
0
 42
0.0000001
 43
0.0000001
 44
0.0000000001
 40
0.0
 40
0.0
 40
0.0
 40
0.0
 40
0.0142891591
 40
0.030052259
 40
0.047346633
 40
0.0661989976
 40
0.0866146866
 40
0.1085804369
 40
0.1320701364
 40
0.157045213
 40
0.1834583411
 40
0.2112532615
 40
0.2707262478
 40
0.3348918487
 40
0.4030921536
 40
0.4746052646
 40
0.5486594155
 40
0.6244458478
 40
0.7011311884
 40
0.7778691948
 40
0.8538135745
 40
0.928127288
 40
1.0
 40
1.0
 40
1.0
 40
1.0
 10
12.6096021902
 20
7.2929166189
 30
0.0
 10
12.6094111466
 20
7.2931515242
 30
0.0
 10
12.6090371988
 20
7.2936684862
 30
0.0
 10
12.608522373
 20
7.2945306928
 30
0.0
 10
12.6080281703
 20
7.2955143111
 30
0.0
 10
12.6075558892
 20
7.2966165465
 30
0.0
 10
12.6071068694
 20
7.2978344318
 30
0.0
 10
12.6066823434
 20
7.2991645131
 30
0.0
 10
12.6062836132
 20
7.3006030047
 30
0.0
 10
12.6059118163
 20
7.3021457493
 30
0.0
 10
12.6055680824
 20
7.3037882726
 30
0.0
 10
12.6051388668
 20
7.3061588488
 30
0.0
 10
12.6046860345
 20
7.3093368214
 30
0.0
 10
12.6042791007
 20
7.3133823682
 30
0.0
 10
12.6040023634
 20
7.3176945039
 30
0.0
 10
12.6038592605
 20
7.3222226536
 30
0.0
 10
12.6038516691
 20
7.3269137424
 30
0.0
 10
12.6039797898
 20
7.3317126803
 30
0.0
 10
12.6042421879
 20
7.3365630867
 30
0.0
 10
12.6046357985
 20
7.3414079644
 30
0.0
 10
12.6051559866
 20
7.3461903763
 30
0.0
 10
12.6057965625
 20
7.3508541006
 30
0.0
 10
12.6063091876
 20
7.3539096458
 30
0.0
 10
12.606585829
 20
7.3554072757
 30
0.0
  0
SPLINE
  5
30F
100
AcDbEntity
  8
0
100
AcDbSpline
 62
7
  6
CONTINUOUS
 70
0
 71
3
 72
32
 73
28
 74
0
 42
0.0000001
 43
0.0000001
 44
0.0000000001
 40
0.0
 40
0.0
 40
0.0
 40
0.0
 40
0.0162143637
 40
0.0334273515
 40
0.0516717349
 40
0.0709707857
 40
0.0913403305
 40
0.1127893778
 40
0.1353217043
 40
0.1589360213
 40
0.183627247
 40
0.2093863759
 40
0.2362015514
 40
0.2640577539
 40
0.2929377458
 40
0.3228216522
 40
0.3536878198
 40
0.3855123387
 40
0.4182698378
 40
0.4519329813
 40
0.5218587171
 40
0.595044972
 40
0.6712254438
 40
0.7501164284
 40
0.8314189904
 40
0.9148212664
 40
1.0
 40
1.0
 40
1.0
 40
1.0
 10
13.0900321635
 20
9.6475703036
 30
0.0
 10
13.0908882524
 20
9.6465177059
 30
0.0
 10
13.0925810942
 20
9.6442883882
 30
0.0
 10
13.0949953136
 20
9.6406990548
 30
0.0
 10
13.0973564218
 20
9.6367702617
 30
0.0
 10
13.099662071
 20
9.6325062032
 30
0.0
 10
13.1019099516
 20
9.627911113
 30
0.0
 10
13.1040978585
 20
9.6229897235
 30
0.0
 10
13.1062234726
 20
9.6177470628
 30
0.0
 10
13.1082846653
 20
9.6121885634
 30
0.0
 10
13.1102792078
 20
9.6063199753
 30
0.0
 10
13.1122050795
 20
9.6001474169
 30
0.0
 10
13.1140601781
 20
9.5936773206
 30
0.0
 10
13.1158426151
 20
9.5869164586
 30
0.0
 10
13.1175504351
 20
9.5798719077
 30
0.0
 10
13.1191818974
 20
9.572551059
 30
0.0
 10
13.1207352073
 20
9.564961596
 30
0.0
 10
13.1222087781
 20
9.5571114951
 30
0.0
 10
13.1236010046
 20
9.5490089999
 30
0.0
 10
13.1253693104
 20
9.5377373888
 30
0.0
 10
13.1273559384
 20
9.5230773688
 30
0.0
 10
13.1293655264
 20
9.5048361871
 30
0.0
 10
13.1310211299
 20
9.4858064388
 30
0.0
 10
13.132315636
 20
9.4660682408
 30
0.0
 10
13.1332434313
 20
9.4457045556
 30
0.0
 10
13.1338004868
 20
9.4248011834
 30
0.0
 10
13.1339219439
 20
9.4106943826
 30
0.0
 10
13.1339219439
 20
9.4035668292
 30
0.0
  0
SPLINE
  5
310
100
AcDbEntity
  8
0
100
AcDbSpline
 62
7
  6
CONTINUOUS
 70
0
 71
3
 72
17
 73
13
 74
0
 42
0.0000001
 43
0.0000001
 44
0.0000000001
 40
0.0
 40
0.0
 40
0.0
 40
0.0
 40
0.1492506635
 40
0.2896780469
 40
0.4219823974
 40
0.4853805152
 40
0.5471014468
 40
0.6660508601
 40
0.7801597401
 40
0.8909114747
 40
0.9455641552
 40
1.0
 40
1.0
 40
1.0
 40
1.0
 10
12.5854243755
 20
6.9729232109
 30
0.0
 10
12.5844001449
 20
6.97196998
 30
0.0
 10
12.5823529548
 20
6.9701817875
 30
0.0
 10
12.5791874011
 20
6.9678030829
 30
0.0
 10
12.5765158984
 20
6.9661233777
 30
0.0
 10
12.5743860554
 20
6.964986755
 30
0.0
 10
12.5723160378
 20
6.964010194
 30
0.0
 10
12.5697277523
 20
6.9630251477
 30
0.0
 10
12.5665971092
 20
6.9622285756
 30
0.0
 10
12.5639897754
 20
6.9618989836
 30
0.0
 10
12.5619285321
 20
6.9618400975
 30
0.0
 10
12.5609056502
 20
6.9618774898
 30
0.0
 10
12.5603965545
 20
6.9619127992
 30
0.0
  0
SPLINE
  5
311
100
AcDbEntity
  8
0
100
AcDbSpline
 62
7
  6
CONTINUOUS
 70
0
 71
3
 72
18
 73
14
 74
0
 42
0.0000001
 43
0.0000001
 44
0.0000000001
 40
0.0
 40
0.0
 40
0.0
 40
0.0
 40
0.0544331303
 40
0.1090830662
 40
0.1641638838
 40
0.2198842992
 40
0.3339869687
 40
0.4529303861
 40
0.5146489674
 40
0.5780447346
 40
0.7103433234
 40
0.8507561372
 40
1.0
 40
1.0
 40
1.0
 40
1.0
 10
13.0408885875
 20
9.693744953
 30
0.0
 10
13.0413976859
 20
9.6937096433
 30
0.0
 10
13.0424159088
 20
9.693605486
 30
0.0
 10
13.0439345507
 20
9.6933493863
 30
0.0
 10
13.0454454012
 20
9.6929933368
 30
0.0
 10
13.0474642602
 20
9.6923809084
 30
0.0
 10
13.0499771919
 20
9.6913551765
 30
0.0
 10
13.052404472
 20
9.6900222928
 30
0.0
 10
13.0543199132
 20
9.6887692982
 30
0.0
 10
13.0562725053
 20
9.6873495601
 30
0.0
 10
13.0586865088
 20
9.6853171471
 30
0.0
 10
13.0614934405
 20
9.6825243372
 30
0.0
 10
13.0632741355
 20
9.6804706857
 30
0.0
 10
13.0641569798
 20
9.6793851808
 30
0.0
  0
SPLINE
  5
312
100
AcDbEntity
  8
0
100
AcDbSpline
 62
7
  6
CONTINUOUS
 70
0
 71
3
 72
41
 73
37
 74
0
 42
0.0000001
 43
0.0000001
 44
0.0000000001
 40
0.0
 40
0.0
 40
0.0
 40
0.0
 40
0.031144444
 40
0.0624425093
 40
0.0938872508
 40
0.1254695847
 40
0.1571771078
 40
0.1889951283
 40
0.2209066801
 40
0.2528929859
 40
0.2849338014
 40
0.3170078274
 40
0.3490931225
 40
0.3811675283
 40
0.4132090962
 40
0.4451965119
 40
0.4771095115
 40
0.5089292827
 40
0.5406388458
 40
0.5722234075
 40
0.6036706813
 40
0.6349711679
 40
0.6661183875
 40
0.6971090579
 40
0.7279432122
 40
0.7586242475
 40
0.7891589026
 40
0.8195571573
 40
0.8498320547
 40
0.8649308931
 40
0.8800050545
 40
0.9100832586
 40
0.9400926739
 40
0.9550812746
 40
0.9700610358
 40
1.0
 40
1.0
 40
1.0
 40
1.0
 10
11.0362536925
 20
8.8624931619
 30
0.0
 10
11.0329397408
 20
8.8627229852
 30
0.0
 10
11.0263098492
 20
8.8634263445
 30
0.0
 10
11.0164454022
 20
8.8651980773
 30
0.0
 10
11.0066865939
 20
8.8676798032
 30
0.0
 10
10.9970861753
 20
8.870858091
 30
0.0
 10
10.9876951148
 20
8.8747159626
 30
0.0
 10
10.9785635172
 20
8.8792327528
 30
0.0
 10
10.9697400262
 20
8.8843843363
 30
0.0
 10
10.9612716583
 20
8.890143202
 30
0.0
 10
10.9532035333
 20
8.8964786227
 30
0.0
 10
10.9455786412
 20
8.9033568082
 30
0.0
 10
10.9384376153
 20
8.9107410879
 30
0.0
 10
10.9318185175
 20
8.9185921027
 30
0.0
 10
10.925756638
 20
8.926868014
 30
0.0
 10
10.9202843084
 20
8.9355247232
 30
0.0
 10
10.915430731
 20
8.9445161051
 30
0.0
 10
10.9112218238
 20
8.95379425
 30
0.0
 10
10.907680083
 20
8.9633097162
 30
0.0
 10
10.9048244628
 20
8.9730117902
 30
0.0
 10
10.9026702736
 20
8.9828487531
 30
0.0
 10
10.9012290989
 20
8.9927681525
 30
0.0
 10
10.900508731
 20
9.0027170791
 30
0.0
 10
10.900513125
 20
9.0126424429
 30
0.0
 10
10.9012423778
 20
9.0224912637
 30
0.0
 10
10.9026927034
 20
9.0322109131
 30
0.0
 10
10.9048565177
 20
9.0417495377
 30
0.0
 10
10.9077222099
 20
9.0510558076
 30
0.0
 10
10.9106858099
 20
9.0585840353
 30
0.0
 10
10.9133902547
 20
9.0644383931
 30
0.0
 10
10.9163088601
 20
9.0701654628
 30
0.0
 10
10.9203611854
 20
9.0770926494
 30
0.0
 10
10.9249347115
 20
9.0836763103
 30
0.0
 10
10.9288868856
 20
9.0887087149
 30
0.0
 10
10.9330276269
 20
9.0935768338
 30
0.0
 10
10.9363450659
 20
9.0970425324
 30
0.0
 10
10.9386418863
 20
9.0992610886
 30
0.0
  0
SPLINE
  5
313
100
AcDbEntity
  8
0
100
AcDbSpline
 62
7
  6
CONTINUOUS
 70
0
 71
3
 72
19
 73
15
 74
0
 42
0.0000001
 43
0.0000001
 44
0.0000000001
 40
0.0
 40
0.0
 40
0.0
 40
0.0
 40
0.0616584454
 40
0.1233399317
 40
0.185067215
 40
0.2468625626
 40
0.3087474945
 40
0.3707425066
 40
0.4328668994
 40
0.4951385746
 40
0.6201443393
 40
0.7459117862
 40
0.8725152911
 40
1.0
 40
1.0
 40
1.0
 40
1.0
 10
11.1338654986
 20
7.1478586723
 30
0.0
 10
11.1322888003
 20
7.1463357
 30
0.0
 10
11.1290522099
 20
7.1433733889
 30
0.0
 10
11.1239645389
 20
7.1391964246
 30
0.0
 10
11.1186559282
 20
7.1352955692
 30
0.0
 10
11.1131399745
 20
7.1316807723
 30
0.0
 10
11.1074304793
 20
7.1283611367
 30
0.0
 10
11.1015419155
 20
7.1253450321
 30
0.0
 10
11.0954889134
 20
7.1226399491
 30
0.0
 10
11.0872106734
 20
7.1194535163
 30
0.0
 10
11.076519666
 20
7.1162811424
 30
0.0
 10
11.0633072091
 20
7.1138165383
 30
0.0
 10
11.0498250262
 20
7.1127113248
 30
0.0
 10
11.0407752643
 20
7.1128878537
 30
0.0
 10
11.0362536925
 20
7.1132014257
 30
0.0
  0
SPLINE
  5
314
100
AcDbEntity
  8
0
100
AcDbSpline
 62
7
  6
CONTINUOUS
 70
0
 71
3
 72
39
 73
35
 74
0
 42
0.0000001
 43
0.0000001
 44
0.0000000001
 40
0.0
 40
0.0
 40
0.0
 40
0.0
 40
0.0071626305
 40
0.0146567796
 40
0.0224900537
 40
0.0306686706
 40
0.0391977046
 40
0.0480809813
 40
0.0573207996
 40
0.0669184069
 40
0.0768741415
 40
0.0871874214
 40
0.1088799375
 40
0.131978937
 40
0.1564568751
 40
0.182278417
 40
0.209401486
 40
0.2377780679
 40
0.2673549265
 40
0.2980741807
 40
0.3298737714
 40
0.3626878467
 40
0.3964471182
 40
0.4310792351
 40
0.466509094
 40
0.5026591221
 40
0.5394495351
 40
0.57679863
 40
0.6146230625
 40
0.6913563437
 40
0.7689609396
 40
0.8467367446
 40
0.9239814542
 40
1.0
 40
1.0
 40
1.0
 40
1.0
 10
8.5410429783
 20
9.5493742887
 30
0.0
 10
8.540230677
 20
9.5485896658
 30
0.0
 10
8.538607151
 20
9.5469436821
 30
0.0
 10
8.5362275805
 20
9.5443132438
 30
0.0
 10
8.5338510172
 20
9.5414680139
 30
0.0
 10
8.5314790211
 20
9.5384098325
 30
0.0
 10
8.529112883
 20
9.5351405105
 30
0.0
 10
8.5267540027
 20
9.5316619139
 30
0.0
 10
8.5244037034
 20
9.5279761108
 30
0.0
 10
8.5220634137
 20
9.5240852833
 30
0.0
 10
8.5197345294
 20
9.5199917398
 30
0.0
 10
8.5165933407
 20
9.51416815
 30
0.0
 10
8.5127146505
 20
9.5063904928
 30
0.0
 10
8.508202594
 20
9.4964417469
 30
0.0
 10
8.5037686218
 20
9.4857497274
 30
0.0
 10
8.4994234318
 20
9.4743399861
 30
0.0
 10
8.4951775307
 20
9.462239645
 30
0.0
 10
8.4910411889
 20
9.4494776392
 30
0.0
 10
8.4870244202
 20
9.4360845285
 30
0.0
 10
8.4831369533
 20
9.4220924305
 30
0.0
 10
8.4793882067
 20
9.4075349292
 30
0.0
 10
8.4757872595
 20
9.3924469985
 30
0.0
 10
8.4723428202
 20
9.3768649132
 30
0.0
 10
8.4690632218
 20
9.3608261499
 30
0.0
 10
8.4659563981
 20
9.3443692912
 30
0.0
 10
8.4630298654
 20
9.3275339327
 30
0.0
 10
8.4602907015
 20
9.3103606033
 30
0.0
 10
8.4577454918
 20
9.2928906148
 30
0.0
 10
8.4546038953
 20
9.2691451113
 30
0.0
 10
8.4512101726
 20
9.2390330903
 30
0.0
 10
8.4480137003
 20
9.2025709192
 30
0.0
 10
8.445705081
 20
9.1659607966
 30
0.0
 10
8.4443064381
 20
9.1295551248
 30
0.0
 10
8.4439859165
 20
9.1053883545
 30
0.0
 10
8.4439859165
 20
9.0934021542
 30
0.0
  0
SPLINE
  5
315
100
AcDbEntity
  8
0
100
AcDbSpline
 62
7
  6
CONTINUOUS
 70
0
 71
3
 72
32
 73
28
 74
0
 42
0.0000001
 43
0.0000001
 44
0.0000000001
 40
0.0
 40
0.0
 40
0.0
 40
0.0
 40
0.0851787312
 40
0.1685806418
 40
0.2498831816
 40
0.3287740155
 40
0.4049544072
 40
0.4781405859
 40
0.5480662739
 40
0.5817294426
 40
0.6144868925
 40
0.646311459
 40
0.6771775823
 40
0.7070615585
 40
0.7359415117
 40
0.7637978061
 40
0.7906129494
 40
0.8163721909
 40
0.841063392
 40
0.8646778401
 40
0.8872101508
 40
0.9086593436
 40
0.9290288828
 40
0.9483280881
 40
0.9665724768
 40
0.9837856204
 40
1.0
 40
1.0
 40
1.0
 40
1.0
 10
8.4439859165
 20
7.5237725934
 30
0.0
 10
8.4439859165
 20
7.5160027463
 30
0.0
 10
8.4441183164
 20
7.5006247556
 30
0.0
 10
8.4447255713
 20
7.4778377277
 30
0.0
 10
8.445736965
 20
7.4556390335
 30
0.0
 10
8.4471481196
 20
7.4341221658
 30
0.0
 10
8.4489529067
 20
7.4133775937
 30
0.0
 10
8.4511435736
 20
7.3934926391
 30
0.0
 10
8.4533092226
 20
7.3775115517
 30
0.0
 10
8.4552368514
 20
7.3652242104
 30
0.0
 10
8.4567545468
 20
7.3563915646
 30
0.0
 10
8.458360879
 20
7.3478340569
 30
0.0
 10
8.460054178
 20
7.3395606714
 30
0.0
 10
8.4618326247
 20
7.3315801037
 30
0.0
 10
8.4636943612
 20
7.3239007314
 30
0.0
 10
8.4656373825
 20
7.3165306072
 30
0.0
 10
8.4676596735
 20
7.3094774532
 30
0.0
 10
8.4697590496
 20
7.3027486402
 30
0.0
 10
8.4719333548
 20
7.2963511968
 30
0.0
 10
8.4741802412
 20
7.2902917702
 30
0.0
 10
8.4764974336
 20
7.2845766582
 30
0.0
 10
8.4788824481
 20
7.2792117447
 30
0.0
 10
8.4813329289
 20
7.2742025588
 30
0.0
 10
8.4838462925
 20
7.2695542005
 30
0.0
 10
8.4864202062
 20
7.2652713557
 30
0.0
 10
8.4890519243
 20
7.2613585148
 30
0.0
 10
8.4908973317
 20
7.2589282958
 30
0.0
 10
8.491830562
 20
7.2577808387
 30
0.0
  0
SPLINE
  5
316
100
AcDbEntity
  8
0
100
AcDbSpline
 62
7
  6
CONTINUOUS
 70
0
 71
3
 72
19
 73
15
 74
0
 42
0.0000001
 43
0.0000001
 44
0.0000000001
 40
0.0
 40
0.0
 40
0.0
 40
0.0
 40
0.0616584454
 40
0.1233399317
 40
0.185067215
 40
0.2468625626
 40
0.3087474945
 40
0.3707425066
 40
0.4328668994
 40
0.4951385746
 40
0.6201443393
 40
0.7459117862
 40
0.8725152911
 40
1.0
 40
1.0
 40
1.0
 40
1.0
 10
9.0803069675
 20
7.2902734401
 30
0.0
 10
9.0787302692
 20
7.2887504678
 30
0.0
 10
9.0754936788
 20
7.2857881568
 30
0.0
 10
9.0704060078
 20
7.2816111924
 30
0.0
 10
9.0650973971
 20
7.277710337
 30
0.0
 10
9.0595814435
 20
7.2740955401
 30
0.0
 10
9.0538719483
 20
7.2707759045
 30
0.0
 10
9.0479833844
 20
7.2677597999
 30
0.0
 10
9.0419303823
 20
7.2650547169
 30
0.0
 10
9.0336521424
 20
7.2618682842
 30
0.0
 10
9.0229611349
 20
7.2586959103
 30
0.0
 10
9.009748678
 20
7.2562313062
 30
0.0
 10
8.9962664951
 20
7.2551260926
 30
0.0
 10
8.9872167333
 20
7.2553026215
 30
0.0
 10
8.9826951614
 20
7.2556161936
 30
0.0
  0
SPLINE
  5
317
100
AcDbEntity
  8
0
100
AcDbSpline
 62
7
  6
CONTINUOUS
 70
0
 71
3
 72
19
 73
15
 74
0
 42
0.0000001
 43
0.0000001
 44
0.0000000001
 40
0.0
 40
0.0
 40
0.0
 40
0.0
 40
0.0616584454
 40
0.1233399317
 40
0.185067215
 40
0.2468625626
 40
0.3087474945
 40
0.3707425066
 40
0.4328668994
 40
0.4951385746
 40
0.6201443393
 40
0.7459117862
 40
0.8725152911
 40
1.0
 40
1.0
 40
1.0
 40
1.0
 10
9.0803069675
 20
9.0395651762
 30
0.0
 10
9.0787302692
 20
9.038042204
 30
0.0
 10
9.0754936788
 20
9.0350798929
 30
0.0
 10
9.0704060078
 20
9.0309029285
 30
0.0
 10
9.0650973971
 20
9.0270020732
 30
0.0
 10
9.0595814435
 20
9.0233872763
 30
0.0
 10
9.0538719483
 20
9.0200676407
 30
0.0
 10
9.0479833844
 20
9.0170515361
 30
0.0
 10
9.0419303823
 20
9.014346453
 30
0.0
 10
9.0336521424
 20
9.0111600203
 30
0.0
 10
9.0229611349
 20
9.0079876464
 30
0.0
 10
9.009748678
 20
9.0055230423
 30
0.0
 10
8.9962664951
 20
9.0044178287
 30
0.0
 10
8.9872167333
 20
9.0045943576
 30
0.0
 10
8.9826951614
 20
9.0049079297
 30
0.0
  0
SPLINE
  5
318
100
AcDbEntity
  8
0
100
AcDbSpline
 62
7
  6
CONTINUOUS
 70
0
 71
3
 72
19
 73
15
 74
0
 42
0.0000001
 43
0.0000001
 44
0.0000000001
 40
0.0
 40
0.0
 40
0.0
 40
0.0
 40
0.0616584454
 40
0.1233399317
 40
0.185067215
 40
0.2468625626
 40
0.3087474945
 40
0.3707425066
 40
0.4328668994
 40
0.4951385746
 40
0.6201443393
 40
0.7459117862
 40
0.8725152911
 40
1.0
 40
1.0
 40
1.0
 40
1.0
 10
11.1338654986
 20
8.8971504084
 30
0.0
 10
11.1322888003
 20
8.8956274362
 30
0.0
 10
11.1290522099
 20
8.8926651251
 30
0.0
 10
11.1239645389
 20
8.8884881607
 30
0.0
 10
11.1186559282
 20
8.8845873053
 30
0.0
 10
11.1131399745
 20
8.8809725085
 30
0.0
 10
11.1074304793
 20
8.8776528728
 30
0.0
 10
11.1015419155
 20
8.8746367682
 30
0.0
 10
11.0954889134
 20
8.8719316852
 30
0.0
 10
11.0872106734
 20
8.8687452525
 30
0.0
 10
11.076519666
 20
8.8655728786
 30
0.0
 10
11.0633072091
 20
8.8631082745
 30
0.0
 10
11.0498250262
 20
8.8620030609
 30
0.0
 10
11.0407752643
 20
8.8621795898
 30
0.0
 10
11.0362536925
 20
8.8624931619
 30
0.0
  0
SPLINE
  5
319
100
AcDbEntity
  8
0
100
AcDbSpline
 62
7
  6
CONTINUOUS
 70
0
 71
3
 72
39
 73
35
 74
0
 42
0.0000001
 43
0.0000001
 44
0.0000000001
 40
0.0
 40
0.0
 40
0.0
 40
0.0
 40
0.0309843071
 40
0.0621334524
 40
0.0934411925
 40
0.124898015
 40
0.1564916226
 40
0.1882074008
 40
0.2200288546
 40
0.2519380025
 40
0.2839157293
 40
0.3159420981
 40
0.347996628
 40
0.3800585471
 40
0.4121070286
 40
0.4441214216
 40
0.4760814864
 40
0.5079676452
 40
0.5397612567
 40
0.5714449233
 40
0.6030028364
 40
0.6344211615
 40
0.6656884622
 40
0.6967961528
 40
0.7277389638
 40
0.7585153947
 40
0.7891281187
 40
0.819584294
 40
0.8498957363
 40
0.8800789151
 40
0.9101546635
 40
0.9401478823
 40
0.9700860551
 40
1.0
 40
1.0
 40
1.0
 40
1.0
 10
10.031171756
 20
7.3801047483
 30
0.0
 10
10.0265915722
 20
7.380118516
 30
0.0
 10
10.0174041126
 20
7.3805075268
 30
0.0
 10
10.0036764382
 20
7.3821475297
 30
0.0
 10
9.9900408269
 20
7.3848223537
 30
0.0
 10
9.9765745165
 20
7.3885038434
 30
0.0
 10
9.9633497122
 20
7.3931596894
 30
0.0
 10
9.9504354215
 20
7.3987540438
 30
0.0
 10
9.937897082
 20
7.4052480433
 30
0.0
 10
9.9257968691
 20
7.4126002191
 30
0.0
 10
9.9141938714
 20
7.4207668011
 30
0.0
 10
9.9031443245
 20
7.4297019205
 30
0.0
 10
9.8927018264
 20
7.4393577209
 30
0.0
 10
9.8829175334
 20
7.4496843863
 30
0.0
 10
9.8738403179
 20
7.4606300972
 30
0.0
 10
9.8655168766
 20
7.4721409267
 30
0.0
 10
9.8579917768
 20
7.484160688
 30
0.0
 10
9.8513074301
 20
7.4966307476
 30
0.0
 10
9.8455039846
 20
7.5094898174
 30
0.0
 10
9.8406191255
 20
7.5226737442
 30
0.0
 10
9.8366877763
 20
7.5361153144
 30
0.0
 10
9.8337416973
 20
7.5497440967
 30
0.0
 10
9.8318089772
 20
7.5634863463
 30
0.0
 10
9.8309134227
 20
7.5772650009
 30
0.0
 10
9.8310738547
 20
7.5909997942
 30
0.0
 10
9.8323033304
 20
7.6046075205
 30
0.0
 10
9.834608319
 20
7.618002474
 30
0.0
 10
9.8379878701
 20
7.6310970902
 30
0.0
 10
9.8424328131
 20
7.6438027939
 30
0.0
 10
9.8479251241
 20
7.6560310781
 30
0.0
 10
9.8544372758
 20
7.6676946824
 30
0.0
 10
9.8619324572
 20
7.6787092715
 30
0.0
 10
9.8703628675
 20
7.688993629
 30
0.0
 10
9.8765722699
 20
7.6953159385
 30
0.0
 10
9.8798093114
 20
7.6983284904
 30
0.0
  0
SPLINE
  5
31A
100
AcDbEntity
  8
0
100
AcDbSpline
 62
7
  6
CONTINUOUS
 70
0
 71
3
 72
21
 73
17
 74
0
 42
0.0000001
 43
0.0000001
 44
0.0000000001
 40
0.0
 40
0.0
 40
0.0
 40
0.0
 40
0.1281821553
 40
0.1920776617
 40
0.2557990741
 40
0.3825700688
 40
0.4456234725
 40
0.5084076155
 40
0.5709029056
 40
0.6330941815
 40
0.6949724869
 40
0.7565369671
 40
0.817796429
 40
0.878770999
 40
0.9394911702
 40
1.0
 40
1.0
 40
1.0
 40
1.0
 10
11.0949305087
 20
8.5395822773
 30
0.0
 10
11.0987482875
 20
8.5328562406
 30
0.0
 10
11.1040098767
 20
8.5225039687
 30
0.0
 10
11.109954477
 20
8.5082548292
 30
0.0
 10
11.115119227
 20
8.4937954965
 30
0.0
 10
11.1190810328
 20
8.4789778115
 30
0.0
 10
11.1216719497
 20
8.4639501586
 30
0.0
 10
11.1228900128
 20
8.4526439416
 30
0.0
 10
11.1233491985
 20
8.4413332615
 30
0.0
 10
11.1230158606
 20
8.4300718645
 30
0.0
 10
11.1218606142
 20
8.4189205096
 30
0.0
 10
11.1198605129
 20
8.4079455384
 30
0.0
 10
11.1170011636
 20
8.3972180822
 30
0.0
 10
11.1132783739
 20
8.3868119328
 30
0.0
 10
11.1087007629
 20
8.3768025774
 30
0.0
 10
11.1050862322
 20
8.3704308382
 30
0.0
 10
11.1031468576
 20
8.367337673
 30
0.0
  0
SPLINE
  5
31B
100
AcDbEntity
  8
0
100
AcDbSpline
 62
7
  6
CONTINUOUS
 70
0
 71
3
 72
37
 73
33
 74
0
 42
0.0000001
 43
0.0000001
 44
0.0000000001
 40
0.0
 40
0.0
 40
0.0
 40
0.0
 40
0.0300680755
 40
0.0602353109
 40
0.0905103934
 40
0.1209003277
 40
0.1514104277
 40
0.182044325
 40
0.2128039855
 40
0.2436897284
 40
0.2747002538
 40
0.3058326767
 40
0.3370825627
 40
0.3684439659
 40
0.3999094648
 40
0.4314702037
 40
0.4948089418
 40
0.5583888185
 40
0.5902474637
 40
0.6221222438
 40
0.6539966977
 40
0.6858538924
 40
0.7176766727
 40
0.7494479439
 40
0.7811509888
 40
0.8127698063
 40
0.8442894889
 40
0.8756965483
 40
0.9069794102
 40
0.9381283989
 40
0.9691368984
 40
1.0
 40
1.0
 40
1.0
 40
1.0
 10
10.4830869443
 20
7.9459778175
 30
0.0
 10
10.479662215
 20
7.944612829
 30
0.0
 10
10.4727119062
 20
7.9420973756
 30
0.0
 10
10.4620525578
 20
7.9389843367
 30
0.0
 10
10.4511812972
 20
7.9365321198
 30
0.0
 10
10.4401386008
 20
7.9347462722
 30
0.0
 10
10.4289641247
 20
7.9336302614
 30
0.0
 10
10.4176976104
 20
7.9331859098
 30
0.0
 10
10.4063786629
 20
7.9334133565
 30
0.0
 10
10.395046846
 20
7.9343111329
 30
0.0
 10
10.3837416988
 20
7.9358761781
 30
0.0
 10
10.3725027891
 20
7.938103827
 30
0.0
 10
10.3613697019
 20
7.9409878059
 30
0.0
 10
10.3503822344
 20
7.944520084
 30
0.0
 10
10.339579784
 20
7.9486911589
 30
0.0
 10
10.3254631797
 20
7.9550946049
 30
0.0
 10
10.3084838158
 20
7.9646373016
 30
0.0
 10
10.2926865285
 20
7.9760947722
 30
0.0
 10
10.2808936267
 20
7.9863339675
 30
0.0
 10
10.2725040966
 20
7.9945318565
 30
0.0
 10
10.2646163406
 20
8.0032130616
 30
0.0
 10
10.2572672025
 20
8.0123468634
 30
0.0
 10
10.2504926989
 20
8.0218992935
 30
0.0
 10
10.2443270505
 20
8.0318335469
 30
0.0
 10
10.2388024679
 20
8.0421099048
 30
0.0
 10
10.2339486997
 20
8.0526858647
 30
0.0
 10
10.2297926448
 20
8.063516293
 30
0.0
 10
10.2263579138
 20
8.0745536914
 30
0.0
 10
10.2236645043
 20
8.0857484074
 30
0.0
 10
10.2217283357
 20
8.0970493735
 30
0.0
 10
10.2205611418
 20
8.1084033045
 30
0.0
 10
10.2202997696
 20
8.1159920501
 30
0.0
 10
10.2202997696
 20
8.1197762585
 30
0.0
  0
SPLINE
  5
31C
100
AcDbEntity
  8
0
100
AcDbSpline
 62
7
  6
CONTINUOUS
 70
0
 71
3
 72
15
 73
11
 74
0
 42
0.0000001
 43
0.0000001
 44
0.0000000001
 40
0.0
 40
0.0
 40
0.0
 40
0.0
 40
0.123503508
 40
0.2471882714
 40
0.3712032569
 40
0.4956772021
 40
0.6207205216
 40
0.7464194484
 40
0.8728344624
 40
1.0
 40
1.0
 40
1.0
 40
1.0
 10
9.8798093114
 20
7.6983284904
 30
0.0
 10
9.8833716304
 20
7.7016437618
 30
0.0
 10
9.8908350131
 20
7.7079308161
 30
0.0
 10
9.9029131071
 20
7.7162195609
 30
0.0
 10
9.9157768668
 20
7.7233089017
 30
0.0
 10
9.9293122466
 20
7.7291463114
 30
0.0
 10
9.9434021894
 20
7.7336954386
 30
0.0
 10
9.9579276259
 20
7.7369337506
 30
0.0
 10
9.9727677767
 20
7.7388522501
 30
0.0
 10
9.9827664429
 20
7.7392523401
 30
0.0
 10
9.9877770401
 20
7.7392372787
 30
0.0
  0
SPLINE
  5
31D
100
AcDbEntity
  8
0
100
AcDbSpline
 62
7
  6
CONTINUOUS
 70
0
 71
3
 72
42
 73
38
 74
0
 42
0.0000001
 43
0.0000001
 44
0.0000000001
 40
0.0
 40
0.0
 40
0.0
 40
0.0
 40
0.0150212289
 40
0.0300246637
 40
0.0450130794
 40
0.0599931929
 40
0.0749704482
 40
0.0899499645
 40
0.104936844
 40
0.1199359301
 40
0.134951507
 40
0.1499874972
 40
0.1801262834
 40
0.2103830176
 40
0.2407725006
 40
0.2713032518
 40
0.3019786694
 40
0.3327981927
 40
0.3637583443
 40
0.3948535929
 40
0.4260770259
 40
0.4574208455
 40
0.4888767129
 40
0.5204359802
 40
0.552089845
 40
0.5838294856
 40
0.6156460917
 40
0.6794572698
 40
0.7114513354
 40
0.7434864574
 40
0.7755532398
 40
0.8076419527
 40
0.8397424717
 40
0.8718441533
 40
0.9039356477
 40
0.9360048299
 40
1.0
 40
1.0
 40
1.0
 40
1.0
 10
11.1031468576
 20
8.367337673
 30
0.0
 10
11.101968626
 20
8.3654584769
 30
0.0
 10
11.099512578
 20
8.3617645379
 30
0.0
 10
11.0955396861
 20
8.3564322406
 30
0.0
 10
11.0912912129
 20
8.3513244703
 30
0.0
 10
11.0867799114
 20
8.3464526848
 30
0.0
 10
11.0820192894
 20
8.3418261882
 30
0.0
 10
11.0770236834
 20
8.3374530842
 30
0.0
 10
11.0718080388
 20
8.3333398354
 30
0.0
 10
11.0663878283
 20
8.3294912036
 30
0.0
 10
11.0607783025
 20
8.3259106226
 30
0.0
 10
11.0530626245
 20
8.3214937231
 30
0.0
 10
11.0430145971
 20
8.3166483193
 30
0.0
 10
11.0304545507
 20
8.3119175301
 30
0.0
 10
11.0174873774
 20
8.3082416234
 30
0.0
 10
11.0042115941
 20
8.3055893901
 30
0.0
 10
10.9907138545
 20
8.303923074
 30
0.0
 10
10.9770705626
 20
8.3032019618
 30
0.0
 10
10.9633485213
 20
8.303384305
 30
0.0
 10
10.9496061793
 20
8.3044288543
 30
0.0
 10
10.9358948293
 20
8.3062958202
 30
0.0
 10
10.9222597877
 20
8.308947472
 30
0.0
 10
10.9087414947
 20
8.3123484429
 30
0.0
 10
10.8953764344
 20
8.316465875
 30
0.0
 10
10.8821981925
 20
8.3212692962
 30
0.0
 10
10.8692374399
 20
8.3267309264
 30
0.0
 10
10.8522731648
 20
8.3348623069
 30
0.0
 10
10.8358714646
 20
8.3442080115
 30
0.0
 10
10.8201529927
 20
8.3546697034
 30
0.0
 10
10.8087115617
 20
8.3630713078
 30
0.0
 10
10.7976601516
 20
8.3720013098
 30
0.0
 10
10.7870289081
 20
8.3814424783
 30
0.0
 10
10.7768502734
 20
8.391377572
 30
0.0
 10
10.7671588735
 20
8.4017890568
 30
0.0
 10
10.7579911986
 20
8.4126599474
 30
0.0
 10
10.7465316016
 20
8.4277250244
 30
0.0
 10
10.7388278142
 20
8.4396787845
 30
0.0
 10
10.7341632331
 20
8.4478966896
 30
0.0
  0
SPLINE
  5
31E
100
AcDbEntity
  8
0
100
AcDbSpline
 62
7
  6
CONTINUOUS
 70
0
 71
3
 72
39
 73
35
 74
0
 42
0.0000001
 43
0.0000001
 44
0.0000000001
 40
0.0
 40
0.0
 40
0.0
 40
0.0
 40
0.0760185458
 40
0.1532632554
 40
0.2310390604
 40
0.3086436563
 40
0.3853769375
 40
0.42320137
 40
0.4605504649
 40
0.4973408779
 40
0.533490906
 40
0.5689207649
 40
0.6035528818
 40
0.6373121533
 40
0.6701262286
 40
0.7019258193
 40
0.7326450735
 40
0.7622219321
 40
0.790598514
 40
0.817721583
 40
0.8435431249
 40
0.868021063
 40
0.8911200625
 40
0.9128125786
 40
0.9231258585
 40
0.9330815931
 40
0.9426792004
 40
0.9519190187
 40
0.9608022954
 40
0.9693313294
 40
0.9775099463
 40
0.9853432204
 40
0.9928373695
 40
1.0
 40
1.0
 40
1.0
 40
1.0
 10
11.46250432
 20
8.883101266
 30
0.0
 10
11.46250432
 20
8.8950874664
 30
0.0
 10
11.4628248416
 20
8.9192542366
 30
0.0
 10
11.4642234845
 20
8.9556599085
 30
0.0
 10
11.4665321038
 20
8.992270031
 30
0.0
 10
11.4697285761
 20
9.0287322021
 30
0.0
 10
11.4731222988
 20
9.0588442232
 30
0.0
 10
11.4762638953
 20
9.0825897266
 30
0.0
 10
11.4788091051
 20
9.1000597152
 30
0.0
 10
11.4815482689
 20
9.1172330446
 30
0.0
 10
11.4844748016
 20
9.134068403
 30
0.0
 10
11.4875816253
 20
9.1505252617
 30
0.0
 10
11.4908612237
 20
9.1665640251
 30
0.0
 10
11.494305663
 20
9.1821461103
 30
0.0
 10
11.4979066102
 20
9.1972340411
 30
0.0
 10
11.5016553568
 20
9.2117915423
 30
0.0
 10
11.5055428237
 20
9.2257836403
 30
0.0
 10
11.5095595924
 20
9.2391767511
 30
0.0
 10
11.5136959342
 20
9.2519387568
 30
0.0
 10
11.5179418353
 20
9.2640390979
 30
0.0
 10
11.5222870253
 20
9.2754488392
 30
0.0
 10
11.5267209975
 20
9.2861408588
 30
0.0
 10
11.531233054
 20
9.2960896046
 30
0.0
 10
11.5351117442
 20
9.3038672618
 30
0.0
 10
11.5382529329
 20
9.3096908516
 30
0.0
 10
11.5405818172
 20
9.3137843951
 30
0.0
 10
11.5429221069
 20
9.3176752226
 30
0.0
 10
11.5452724062
 20
9.3213610258
 30
0.0
 10
11.5476312865
 20
9.3248396223
 30
0.0
 10
11.5499974246
 20
9.3281089443
 30
0.0
 10
11.5523694207
 20
9.3311671258
 30
0.0
 10
11.554745984
 20
9.3340123556
 30
0.0
 10
11.5571255546
 20
9.3366427939
 30
0.0
 10
11.5587490805
 20
9.3382887776
 30
0.0
 10
11.5595613818
 20
9.3390734005
 30
0.0
  0
SPLINE
  5
31F
100
AcDbEntity
  8
0
100
AcDbSpline
 62
7
  6
CONTINUOUS
 70
0
 71
3
 72
18
 73
14
 74
0
 42
0.0000001
 43
0.0000001
 44
0.0000000001
 40
0.0
 40
0.0
 40
0.0
 40
0.0
 40
0.150465277
 40
0.2917135888
 40
0.4244428697
 40
0.4879101177
 40
0.5496092744
 40
0.6682620957
 40
0.7817884661
 40
0.8371381947
 40
0.8918080597
 40
0.9460194495
 40
1.0
 40
1.0
 40
1.0
 40
1.0
 10
11.9881653668
 20
9.7530730834
 30
0.0
 10
11.9892254907
 20
9.7540970845
 30
0.0
 10
11.9913443424
 20
9.7560184282
 30
0.0
 10
11.9946251348
 20
9.7585789056
 30
0.0
 10
11.9973963628
 20
9.7603898073
 30
0.0
 10
11.9996061476
 20
9.7616161042
 30
0.0
 10
12.0017509115
 20
9.762668915
 30
0.0
 10
12.0044325686
 20
9.7637327138
 30
0.0
 10
12.0071619068
 20
9.7644587521
 30
0.0
 10
12.0093236466
 20
9.7648163671
 30
0.0
 10
12.0109257842
 20
9.7649751223
 30
0.0
 10
12.012521443
 20
9.7650264314
 30
0.0
 10
12.0135815597
 20
9.7649889338
 30
0.0
 10
12.0141090729
 20
9.7649523542
 30
0.0
  0
SPLINE
  5
320
100
AcDbEntity
  8
0
100
AcDbSpline
 62
7
  6
CONTINUOUS
 70
0
 71
3
 72
11
 73
7
 74
0
 42
0.0000001
 43
0.0000001
 44
0.0000000001
 40
0.0
 40
0.0
 40
0.0
 40
0.0
 40
0.2552649476
 40
0.5060466531
 40
0.7537904461
 40
1.0
 40
1.0
 40
1.0
 40
1.0
 10
12.8043471667
 20
7.7885650452
 30
0.0
 10
12.8034221459
 20
7.7883314023
 30
0.0
 10
12.8015704763
 20
7.7879355096
 30
0.0
 10
12.7987752317
 20
7.7875613074
 30
0.0
 10
12.7959927569
 20
7.7874132151
 30
0.0
 10
12.794144884
 20
7.7874654597
 30
0.0
 10
12.7932268627
 20
7.7875291249
 30
0.0
  0
SPLINE
  5
321
100
AcDbEntity
  8
0
100
AcDbSpline
 62
7
  6
CONTINUOUS
 70
0
 71
3
 72
33
 73
29
 74
0
 42
0.0000001
 43
0.0000001
 44
0.0000000001
 40
0.0
 40
0.0
 40
0.0
 40
0.0
 40
0.1077036204
 40
0.210599873
 40
0.3079769319
 40
0.3992013909
 40
0.4836994052
 40
0.5609878746
 40
0.5968096034
 40
0.6306983552
 40
0.6626282202
 40
0.6925867412
 40
0.7205733727
 40
0.7466064492
 40
0.7707240607
 40
0.792991502
 40
0.8135079933
 40
0.8324147001
 40
0.8499072539
 40
0.8662427803
 40
0.8817471478
 40
0.8968062416
 40
0.9118441306
 40
0.9272866127
 40
0.9435250655
 40
0.9608909307
 40
0.9796492558
 40
1.0
 40
1.0
 40
1.0
 40
1.0
 10
12.6244298352
 20
7.3167635939
 30
0.0
 10
12.6242151069
 20
7.3156011379
 30
0.0
 10
12.6237661612
 20
7.313333338
 30
0.0
 10
12.623016204
 20
7.3100368328
 30
0.0
 10
12.6222092858
 20
7.3069402722
 30
0.0
 10
12.6213517892
 20
7.3040673354
 30
0.0
 10
12.6204503518
 20
7.3014398798
 30
0.0
 10
12.619649446
 20
7.2994230608
 30
0.0
 10
12.6189878423
 20
7.2979512791
 30
0.0
 10
12.6184976615
 20
7.2969489222
 30
0.0
 10
12.6180017765
 20
7.2960217195
 30
0.0
 10
12.6175011628
 20
7.2951713845
 30
0.0
 10
12.6169966969
 20
7.2943995115
 30
0.0
 10
12.6164893352
 20
7.2937074874
 30
0.0
 10
12.6159799246
 20
7.2930965678
 30
0.0
 10
12.615469282
 20
7.2925678493
 30
0.0
 10
12.6149581601
 20
7.2921222738
 30
0.0
 10
12.6144471393
 20
7.2917608063
 30
0.0
 10
12.6139368272
 20
7.2914843282
 30
0.0
 10
12.6134277855
 20
7.291294059
 30
0.0
 10
12.6129210232
 20
7.2911912014
 30
0.0
 10
12.6124181314
 20
7.2911769702
 30
0.0
 10
12.6119213055
 20
7.2912517533
 30
0.0
 10
12.6114326753
 20
7.291414915
 30
0.0
 10
12.6109537881
 20
7.2916651829
 30
0.0
 10
12.6104854181
 20
7.2920010626
 30
0.0
 10
12.6100281388
 20
7.2924213665
 30
0.0
 10
12.6097431229
 20
7.2927433294
 30
0.0
 10
12.6096021902
 20
7.2929166189
 30
0.0
  0
SPLINE
  5
322
100
AcDbEntity
  8
0
100
AcDbSpline
 62
7
  6
CONTINUOUS
 70
0
 71
3
 72
39
 73
35
 74
0
 42
0.0000001
 43
0.0000001
 44
0.0000000001
 40
0.0
 40
0.0
 40
0.0
 40
0.0
 40
0.0760186195
 40
0.1532632405
 40
0.2310390569
 40
0.3086436598
 40
0.3853769321
 40
0.4232013715
 40
0.4605504742
 40
0.4973408756
 40
0.5334908927
 40
0.5689207641
 40
0.6035528972
 40
0.6373121552
 40
0.6701262104
 40
0.7019258119
 40
0.7326450908
 40
0.7622219393
 40
0.7905984982
 40
0.817721569
 40
0.8435431378
 40
0.868021072
 40
0.8911200544
 40
0.9128125623
 40
0.9231258565
 40
0.9330816035
 40
0.9426792017
 40
0.9519190239
 40
0.9608022671
 40
0.9693312983
 40
0.9775099587
 40
0.9853432821
 40
0.9928374322
 40
1.0
 40
1.0
 40
1.0
 40
1.0
 10
12.5272506029
 20
8.8175672781
 30
0.0
 10
12.5272506029
 20
8.8285626299
 30
0.0
 10
12.5275446286
 20
8.8507316116
 30
0.0
 10
12.5288276486
 20
8.8841277475
 30
0.0
 10
12.5309454274
 20
8.9177114226
 30
0.0
 10
12.5338776474
 20
8.9511593899
 30
0.0
 10
12.5369908349
 20
8.9787821498
 30
0.0
 10
12.5398727188
 20
9.0005646934
 30
0.0
 10
12.5422075209
 20
9.0165904972
 30
0.0
 10
12.5447202536
 20
9.0323441615
 30
0.0
 10
12.5474048633
 20
9.0477877948
 30
0.0
 10
12.5502548511
 20
9.0628842234
 30
0.0
 10
12.5532633305
 20
9.077597119
 30
0.0
 10
12.5564230346
 20
9.0918910816
 30
0.0
 10
12.5597263091
 20
9.1057317386
 30
0.0
 10
12.563165156
 20
9.1190858228
 30
0.0
 10
12.5667312516
 20
9.1319212466
 30
0.0
 10
12.5704159714
 20
9.1442071911
 30
0.0
 10
12.5742103805
 20
9.155914198
 30
0.0
 10
12.5781052875
 20
9.1670142448
 30
0.0
 10
12.5820912667
 20
9.1774807879
 30
0.0
 10
12.5861587
 20
9.1872889337
 30
0.0
 10
12.5902977636
 20
9.1964152435
 30
0.0
 10
12.5938558157
 20
9.2035499457
 30
0.0
 10
12.5967373297
 20
9.2088921234
 30
0.0
 10
12.5988736915
 20
9.2126472711
 30
0.0
 10
12.6010205274
 20
9.2162164519
 30
0.0
 10
12.6031765226
 20
9.2195975634
 30
0.0
 10
12.6053404023
 20
9.2227885904
 30
0.0
 10
12.6075109401
 20
9.2257876492
 30
0.0
 10
12.6096868571
 20
9.228593033
 30
0.0
 10
12.6118669733
 20
9.2312030619
 30
0.0
 10
12.6140498296
 20
9.2336160508
 30
0.0
 10
12.6155391364
 20
9.2351259617
 30
0.0
 10
12.6162842809
 20
9.2358457162
 30
0.0
  0
SPLINE
  5
323
100
AcDbEntity
  8
0
100
AcDbSpline
 62
7
  6
CONTINUOUS
 70
0
 71
3
 72
39
 73
35
 74
0
 42
0.0000001
 43
0.0000001
 44
0.0000000001
 40
0.0
 40
0.0
 40
0.0
 40
0.0
 40
0.0760185458
 40
0.1532632554
 40
0.2310390604
 40
0.3086436563
 40
0.3853769375
 40
0.42320137
 40
0.4605504649
 40
0.4973408779
 40
0.533490906
 40
0.5689207649
 40
0.6035528818
 40
0.6373121533
 40
0.6701262286
 40
0.7019258193
 40
0.7326450735
 40
0.7622219321
 40
0.790598514
 40
0.817721583
 40
0.8435431249
 40
0.868021063
 40
0.8911200625
 40
0.9128125786
 40
0.9231258585
 40
0.9330815931
 40
0.9426792004
 40
0.9519190187
 40
0.9608022954
 40
0.9693313294
 40
0.9775099463
 40
0.9853432204
 40
0.9928373695
 40
1.0
 40
1.0
 40
1.0
 40
1.0
 10
12.4892835167
 20
8.8118938868
 30
0.0
 10
12.4892835167
 20
8.8238800872
 30
0.0
 10
12.4896040383
 20
8.8480468575
 30
0.0
 10
12.4910026812
 20
8.8844525293
 30
0.0
 10
12.4933113004
 20
8.9210626519
 30
0.0
 10
12.4965077727
 20
8.957524823
 30
0.0
 10
12.4999014955
 20
8.987636844
 30
0.0
 10
12.503043092
 20
9.0113823475
 30
0.0
 10
12.5055883017
 20
9.028852336
 30
0.0
 10
12.5083274656
 20
9.0460256654
 30
0.0
 10
12.5112539983
 20
9.0628610239
 30
0.0
 10
12.514360822
 20
9.0793178826
 30
0.0
 10
12.5176404204
 20
9.0953566459
 30
0.0
 10
12.5210848597
 20
9.1109387312
 30
0.0
 10
12.5246858069
 20
9.1260266619
 30
0.0
 10
12.5284345535
 20
9.1405841632
 30
0.0
 10
12.5323220204
 20
9.1545762612
 30
0.0
 10
12.5363387891
 20
9.1679693719
 30
0.0
 10
12.5404751309
 20
9.1807313777
 30
0.0
 10
12.5447210319
 20
9.1928317188
 30
0.0
 10
12.549066222
 20
9.2042414601
 30
0.0
 10
12.5535001942
 20
9.2149334796
 30
0.0
 10
12.5580122507
 20
9.2248822255
 30
0.0
 10
12.5618909409
 20
9.2326598826
 30
0.0
 10
12.5650321296
 20
9.2384834725
 30
0.0
 10
12.5673610139
 20
9.242577016
 30
0.0
 10
12.5697013036
 20
9.2464678435
 30
0.0
 10
12.5720516029
 20
9.2501536466
 30
0.0
 10
12.5744104832
 20
9.2536322432
 30
0.0
 10
12.5767766213
 20
9.2569015652
 30
0.0
 10
12.5791486174
 20
9.2599597466
 30
0.0
 10
12.5815251807
 20
9.2628049765
 30
0.0
 10
12.5839047512
 20
9.2654354148
 30
0.0
 10
12.5855282772
 20
9.2670813985
 30
0.0
 10
12.5863405785
 20
9.2678660214
 30
0.0
  0
SPLINE
  5
324
100
AcDbEntity
  8
0
100
AcDbSpline
 62
7
  6
CONTINUOUS
 70
0
 71
3
 72
23
 73
19
 74
0
 42
0.0000001
 43
0.0000001
 44
0.0000000001
 40
0.0
 40
0.0
 40
0.0
 40
0.0
 40
0.0755954479
 40
0.1466391714
 40
0.2134657403
 40
0.2765145402
 40
0.3363265376
 40
0.3935471486
 40
0.4489234403
 40
0.5032885643
 40
0.5575265067
 40
0.6125277807
 40
0.6691438784
 40
0.7281492575
 40
0.7902198463
 40
0.8559237775
 40
0.9257267722
 40
1.0
 40
1.0
 40
1.0
 40
1.0
 10
13.0448882659
 20
9.649845399
 30
0.0
 10
13.0458443153
 20
9.6507688719
 30
0.0
 10
13.0477551759
 20
9.6525034511
 30
0.0
 10
13.0507124112
 20
9.6548207782
 30
0.0
 10
13.0536662084
 20
9.6567670011
 30
0.0
 10
13.0566137945
 20
9.6583392076
 30
0.0
 10
13.0595527471
 20
9.6595344961
 30
0.0
 10
13.0624800096
 20
9.6603500456
 30
0.0
 10
13.0653917813
 20
9.6607828429
 30
0.0
 10
13.0682831798
 20
9.6608309817
 30
0.0
 10
13.071148655
 20
9.6604935964
 30
0.0
 10
13.0739826711
 20
9.6597718567
 30
0.0
 10
13.0767803779
 20
9.6586680383
 30
0.0
 10
13.0795381186
 20
9.6571855035
 30
0.0
 10
13.0822530351
 20
9.6553275202
 30
0.0
 10
13.0849230159
 20
9.6530974241
 30
0.0
 10
13.0875458139
 20
9.650498409
 30
0.0
 10
13.0892081317
 20
9.6485834858
 30
0.0
 10
13.0900321635
 20
9.6475703036
 30
0.0
  0
SPLINE
  5
325
100
AcDbEntity
  8
0
100
AcDbSpline
 62
7
  6
CONTINUOUS
 70
0
 71
3
 72
18
 73
14
 74
0
 42
0.0000001
 43
0.0000001
 44
0.0000000001
 40
0.0
 40
0.0
 40
0.0
 40
0.0
 40
0.1504654776
 40
0.2917138659
 40
0.4244431221
 40
0.4879103299
 40
0.5496094336
 40
0.6682621302
 40
0.7817883943
 40
0.837138095
 40
0.8918079579
 40
0.9460193786
 40
1.0
 40
1.0
 40
1.0
 40
1.0
 10
13.0149445635
 20
9.6818657042
 30
0.0
 10
13.0160047003
 20
9.6828897178
 30
0.0
 10
13.0181235777
 20
9.6848110834
 30
0.0
 10
13.0214044114
 20
9.6873715854
 30
0.0
 10
13.0241756746
 20
9.6891824993
 30
0.0
 10
13.0263854871
 20
9.6904088003
 30
0.0
 10
13.0285302775
 20
9.6914616111
 30
0.0
 10
13.0312119679
 20
9.6925254037
 30
0.0
 10
13.0339413397
 20
9.6932514262
 30
0.0
 10
13.0361031052
 20
9.693609023
 30
0.0
 10
13.037705262
 20
9.693767762
 30
0.0
 10
13.0393009397
 20
9.6938190523
 30
0.0
 10
13.0403610684
 20
9.6937815402
 30
0.0
 10
13.0408885875
 20
9.693744953
 30
0.0
  0
SPLINE
  5
326
100
AcDbEntity
  8
0
100
AcDbSpline
 62
7
  6
CONTINUOUS
 70
0
 71
3
 72
25
 73
21
 74
0
 42
0.0000001
 43
0.0000001
 44
0.0000000001
 40
0.0
 40
0.0
 40
0.0
 40
0.0
 40
0.0639322304
 40
0.1275378187
 40
0.1908288773
 40
0.2538243446
 40
0.316550352
 40
0.3790389026
 40
0.4413270193
 40
0.5034555359
 40
0.5654679017
 40
0.6274089672
 40
0.6893238331
 40
0.72029058
 40
0.7512672685
 40
0.8132609012
 40
0.8753552662
 40
0.9064567813
 40
0.9375970211
 40
1.0
 40
1.0
 40
1.0
 40
1.0
 10
10.2202997696
 20
8.1197762585
 30
0.0
 10
10.2202997696
 20
8.1238546807
 30
0.0
 10
10.220601938
 20
8.1319940424
 30
0.0
 10
10.2219667622
 20
8.1441018971
 30
0.0
 10
10.2242324952
 20
8.1560139018
 30
0.0
 10
10.2273834207
 20
8.1676646743
 30
0.0
 10
10.2313979097
 20
8.1789925612
 30
0.0
 10
10.2362489153
 20
8.1899388478
 30
0.0
 10
10.241904493
 20
8.200448604
 30
0.0
 10
10.2483283758
 20
8.2104709147
 30
0.0
 10
10.2554807233
 20
8.2199592511
 30
0.0
 10
10.2633182555
 20
8.2288711562
 30
0.0
 10
10.2703835396
 20
8.2357866586
 30
0.0
 10
10.2763291281
 20
8.2409928398
 30
0.0
 10
10.2824659791
 20
8.245980177
 30
0.0
 10
10.290480716
 20
8.2517939657
 30
0.0
 10
10.298900601
 20
8.2570182167
 30
0.0
 10
10.3058553473
 20
8.2608350532
 30
0.0
 10
10.3129579653
 20
8.2644123885
 30
0.0
 10
10.3184274512
 20
8.2668146111
 30
0.0
 10
10.322125416
 20
8.2682885027
 30
0.0
  0
SPLINE
  5
327
100
AcDbEntity
  8
0
100
AcDbSpline
 62
7
  6
CONTINUOUS
 70
0
 71
3
 72
41
 73
37
 74
0
 42
0.0000001
 43
0.0000001
 44
0.0000000001
 40
0.0
 40
0.0
 40
0.0
 40
0.0
 40
0.031144444
 40
0.0624425093
 40
0.0938872508
 40
0.1254695847
 40
0.1571771078
 40
0.1889951283
 40
0.2209066801
 40
0.2528929859
 40
0.2849338014
 40
0.3170078274
 40
0.3490931225
 40
0.3811675283
 40
0.4132090962
 40
0.4451965119
 40
0.4771095115
 40
0.5089292827
 40
0.5406388458
 40
0.5722234075
 40
0.6036706813
 40
0.6349711679
 40
0.6661183875
 40
0.6971090579
 40
0.7279432122
 40
0.7586242475
 40
0.7891589026
 40
0.8195571573
 40
0.8498320547
 40
0.8649308931
 40
0.8800050545
 40
0.9100832586
 40
0.9400926739
 40
0.9550812746
 40
0.9700610358
 40
1.0
 40
1.0
 40
1.0
 40
1.0
 10
8.9826951614
 20
9.0049079297
 30
0.0
 10
8.9793812098
 20
9.005137753
 30
0.0
 10
8.9727513181
 20
9.0058411123
 30
0.0
 10
8.9628868712
 20
9.0076128452
 30
0.0
 10
8.9531280629
 20
9.010094571
 30
0.0
 10
8.9435276442
 20
9.0132728589
 30
0.0
 10
8.9341365837
 20
9.0171307304
 30
0.0
 10
8.9250049861
 20
9.0216475206
 30
0.0
 10
8.9161814951
 20
9.0267991041
 30
0.0
 10
8.9077131272
 20
9.0325579699
 30
0.0
 10
8.8996450022
 20
9.0388933905
 30
0.0
 10
8.8920201101
 20
9.0457715761
 30
0.0
 10
8.8848790842
 20
9.0531558557
 30
0.0
 10
8.8782599864
 20
9.0610068706
 30
0.0
 10
8.8721981069
 20
9.0692827818
 30
0.0
 10
8.8667257773
 20
9.0779394911
 30
0.0
 10
8.8618721999
 20
9.0869308729
 30
0.0
 10
8.8576632927
 20
9.0962090178
 30
0.0
 10
8.8541215519
 20
9.105724484
 30
0.0
 10
8.8512659317
 20
9.115426558
 30
0.0
 10
8.8491117425
 20
9.1252635209
 30
0.0
 10
8.8476705678
 20
9.1351829203
 30
0.0
 10
8.8469502
 20
9.1451318469
 30
0.0
 10
8.8469545939
 20
9.1550572108
 30
0.0
 10
8.8476838468
 20
9.1649060315
 30
0.0
 10
8.8491341723
 20
9.174625681
 30
0.0
 10
8.8512979866
 20
9.1841643056
 30
0.0
 10
8.8541636788
 20
9.1934705754
 30
0.0
 10
8.8571272788
 20
9.2009988031
 30
0.0
 10
8.8598317236
 20
9.206853161
 30
0.0
 10
8.862750329
 20
9.2125802307
 30
0.0
 10
8.8668026543
 20
9.2195074172
 30
0.0
 10
8.8713761804
 20
9.2260910781
 30
0.0
 10
8.8753283545
 20
9.2311234828
 30
0.0
 10
8.8794690958
 20
9.2359916016
 30
0.0
 10
8.8827865348
 20
9.2394573003
 30
0.0
 10
8.8850833552
 20
9.2416758565
 30
0.0
  0
SPLINE
  5
328
100
AcDbEntity
  8
0
100
AcDbSpline
 62
7
  6
CONTINUOUS
 70
0
 71
3
 72
32
 73
28
 74
0
 42
0.0000001
 43
0.0000001
 44
0.0000000001
 40
0.0
 40
0.0
 40
0.0
 40
0.0
 40
0.045721087
 40
0.0918852295
 40
0.1387185015
 40
0.1864668455
 40
0.210774088
 40
0.235417264
 40
0.2858710557
 40
0.3382194467
 40
0.3929268333
 40
0.450570152
 40
0.4807213768
 40
0.5118937293
 40
0.5442082247
 40
0.5777992947
 40
0.6128133211
 40
0.6494038228
 40
0.6877201521
 40
0.7278867325
 40
0.7699654442
 40
0.8138987981
 40
0.8594433553
 40
0.9061198261
 40
0.929675109
 40
0.9532409934
 40
1.0
 40
1.0
 40
1.0
 40
1.0
 10
9.2133780239
 20
8.4767828962
 30
0.0
 10
9.2167856382
 20
8.4794470785
 30
0.0
 10
9.2234314621
 20
8.4850660524
 30
0.0
 10
9.2327825568
 20
8.4942916082
 30
0.0
 10
9.2415189127
 20
8.5043577773
 30
0.0
 10
9.2482114295
 20
8.5134133044
 30
0.0
 10
9.2532036551
 20
8.5210818508
 30
0.0
 10
9.2580153465
 20
8.5291644266
 30
0.0
 10
9.2635413565
 20
8.5398971498
 30
0.0
 10
9.2692400294
 20
8.5536847495
 30
0.0
 10
9.2739339833
 20
8.5685629547
 30
0.0
 10
9.2768237699
 20
8.5817523102
 30
0.0
 10
9.2784622459
 20
8.5928908937
 30
0.0
 10
9.2793258902
 20
8.6017111283
 30
0.0
 10
9.2797636911
 20
8.6108887006
 30
0.0
 10
9.2797258226
 20
8.6204405887
 30
0.0
 10
9.2791535787
 20
8.6303811555
 30
0.0
 10
9.2779785998
 20
8.6407193191
 30
0.0
 10
9.2761228646
 20
8.651453045
 30
0.0
 10
9.273500972
 20
8.6625609083
 30
0.0
 10
9.2700264589
 20
8.6739899715
 30
0.0
 10
9.2656245196
 20
8.6856416872
 30
0.0
 10
9.2602521466
 20
8.6973600885
 30
0.0
 10
9.2549905043
 20
8.7069781973
 30
0.0
 10
9.2503178085
 20
8.7145241092
 30
0.0
 10
9.2453713777
 20
8.7219024637
 30
0.0
 10
9.2413691629
 20
8.7272266359
 30
0.0
 10
9.2385856043
 20
8.7306647469
 30
0.0
  0
SPLINE
  5
329
100
AcDbEntity
  8
0
100
AcDbSpline
 62
7
  6
CONTINUOUS
 70
0
 71
3
 72
11
 73
7
 74
0
 42
0.0000001
 43
0.0000001
 44
0.0000000001
 40
0.0
 40
0.0
 40
0.0
 40
0.0
 40
0.2462097952
 40
0.4939537429
 40
0.7447353902
 40
1.0
 40
1.0
 40
1.0
 40
1.0
 10
12.8679456841
 20
8.8649413476
 30
0.0
 10
12.8688636722
 20
8.8648776847
 30
0.0
 10
12.8707010003
 20
8.8646743635
 30
0.0
 10
12.8734362974
 20
8.8641436339
 30
0.0
 10
12.8761530327
 20
8.8633872147
 30
0.0
 10
12.8779322667
 20
8.8627395538
 30
0.0
 10
12.8788161505
 20
8.8623804833
 30
0.0
  0
SPLINE
  5
32A
100
AcDbEntity
  8
0
100
AcDbSpline
 62
7
  6
CONTINUOUS
 70
0
 71
3
 72
24
 73
20
 74
0
 42
0.0000001
 43
0.0000001
 44
0.0000000001
 40
0.0
 40
0.0
 40
0.0
 40
0.0
 40
0.0872381282
 40
0.169874502
 40
0.247804232
 40
0.3213084893
 40
0.3908289293
 40
0.4568396507
 40
0.5197883136
 40
0.5800750216
 40
0.6093342326
 40
0.6380548016
 40
0.6940168008
 40
0.7482278827
 40
0.800913911
 40
0.8522712986
 40
0.9024725407
 40
0.9516702152
 40
1.0
 40
1.0
 40
1.0
 40
1.0
 10
9.2305684209
 20
8.7399205277
 30
0.0
 10
9.2270687735
 20
8.743699045
 30
0.0
 10
9.2199413128
 20
8.7507743091
 30
0.0
 10
9.2087359807
 20
8.7602027351
 30
0.0
 10
9.1974896098
 20
8.7682555594
 30
0.0
 10
9.1863411924
 20
8.775049776
 30
0.0
 10
9.1753691115
 20
8.7807194214
 30
0.0
 10
9.1646143164
 20
8.7853919172
 30
0.0
 10
9.1540958923
 20
8.7891795237
 30
0.0
 10
9.1454479061
 20
8.7917031539
 30
0.0
 10
9.1386631737
 20
8.7933548502
 30
0.0
 10
9.1320828759
 20
8.7947545576
 30
0.0
 10
9.1239919953
 20
8.7961157022
 30
0.0
 10
9.114431439
 20
8.7971777756
 30
0.0
 10
9.1050987677
 20
8.7977011283
 30
0.0
 10
9.0959885503
 20
8.7977246465
 30
0.0
 10
9.0870954275
 20
8.7972820879
 30
0.0
 10
9.0784150564
 20
8.7964011926
 30
0.0
 10
9.0727207171
 20
8.7955305393
 30
0.0
 10
9.0699120213
 20
8.7950284994
 30
0.0
  0
SPLINE
  5
32B
100
AcDbEntity
  8
0
100
AcDbSpline
 62
7
  6
CONTINUOUS
 70
0
 71
3
 72
41
 73
37
 74
0
 42
0.0000001
 43
0.0000001
 44
0.0000000001
 40
0.0
 40
0.0
 40
0.0
 40
0.0
 40
0.031144444
 40
0.0624425093
 40
0.0938872508
 40
0.1254695847
 40
0.1571771078
 40
0.1889951283
 40
0.2209066801
 40
0.2528929859
 40
0.2849338014
 40
0.3170078274
 40
0.3490931225
 40
0.3811675283
 40
0.4132090962
 40
0.4451965119
 40
0.4771095115
 40
0.5089292827
 40
0.5406388458
 40
0.5722234075
 40
0.6036706813
 40
0.6349711679
 40
0.6661183875
 40
0.6971090579
 40
0.7279432122
 40
0.7586242475
 40
0.7891589026
 40
0.8195571573
 40
0.8498320547
 40
0.8649308931
 40
0.8800050545
 40
0.9100832586
 40
0.9400926739
 40
0.9550812746
 40
0.9700610358
 40
1.0
 40
1.0
 40
1.0
 40
1.0
 10
11.0362536925
 20
7.1132014257
 30
0.0
 10
11.0329397408
 20
7.1134312491
 30
0.0
 10
11.0263098492
 20
7.1141346083
 30
0.0
 10
11.0164454022
 20
7.1159063412
 30
0.0
 10
11.0066865939
 20
7.118388067
 30
0.0
 10
10.9970861753
 20
7.1215663549
 30
0.0
 10
10.9876951148
 20
7.1254242264
 30
0.0
 10
10.9785635172
 20
7.1299410167
 30
0.0
 10
10.9697400262
 20
7.1350926001
 30
0.0
 10
10.9612716583
 20
7.1408514659
 30
0.0
 10
10.9532035333
 20
7.1471868866
 30
0.0
 10
10.9455786412
 20
7.1540650721
 30
0.0
 10
10.9384376153
 20
7.1614493517
 30
0.0
 10
10.9318185175
 20
7.1693003666
 30
0.0
 10
10.925756638
 20
7.1775762778
 30
0.0
 10
10.9202843084
 20
7.1862329871
 30
0.0
 10
10.915430731
 20
7.195224369
 30
0.0
 10
10.9112218238
 20
7.2045025138
 30
0.0
 10
10.907680083
 20
7.2140179801
 30
0.0
 10
10.9048244628
 20
7.2237200541
 30
0.0
 10
10.9026702736
 20
7.233557017
 30
0.0
 10
10.9012290989
 20
7.2434764163
 30
0.0
 10
10.900508731
 20
7.253425343
 30
0.0
 10
10.900513125
 20
7.2633507068
 30
0.0
 10
10.9012423778
 20
7.2731995275
 30
0.0
 10
10.9026927034
 20
7.282919177
 30
0.0
 10
10.9048565177
 20
7.2924578016
 30
0.0
 10
10.9077222099
 20
7.3017640715
 30
0.0
 10
10.9106858099
 20
7.3092922991
 30
0.0
 10
10.9133902547
 20
7.315146657
 30
0.0
 10
10.9163088601
 20
7.3208737267
 30
0.0
 10
10.9203611854
 20
7.3278009133
 30
0.0
 10
10.9249347115
 20
7.3343845741
 30
0.0
 10
10.9288868856
 20
7.3394169788
 30
0.0
 10
10.9330276269
 20
7.3442850977
 30
0.0
 10
10.9363450659
 20
7.3477507963
 30
0.0
 10
10.9386418863
 20
7.3499693525
 30
0.0
  0
SPLINE
  5
32C
100
AcDbEntity
  8
0
100
AcDbSpline
 62
7
  6
CONTINUOUS
 70
0
 71
3
 72
40
 73
36
 74
0
 42
0.0000001
 43
0.0000001
 44
0.0000000001
 40
0.0
 40
0.0
 40
0.0
 40
0.0
 40
0.0149504424
 40
0.0217374252
 40
0.0281329715
 40
0.0342066386
 40
0.0400414793
 40
0.0457319799
 40
0.0513807415
 40
0.0570927754
 40
0.0629694548
 40
0.0755537602
 40
0.082428892
 40
0.089762185
 40
0.0975959406
 40
0.1059630662
 40
0.1243807644
 40
0.1451439094
 40
0.1564223732
 40
0.1682988331
 40
0.193829305
 40
0.2216903328
 40
0.251803339
 40
0.284065955
 40
0.3183564682
 40
0.3545362831
 40
0.3924524159
 40
0.431939922
 40
0.4728232206
 40
0.5580260736
 40
0.6465045013
 40
0.7366169944
 40
0.8266831928
 40
0.9150222641
 40
1.0
 40
1.0
 40
1.0
 40
1.0
 10
12.6156179485
 20
7.3796565145
 30
0.0
 10
12.6158744604
 20
7.3798952416
 30
0.0
 10
12.616271481
 20
7.380219373
 30
0.0
 10
12.6168365827
 20
7.3805608942
 30
0.0
 10
12.6172458418
 20
7.3807533927
 30
0.0
 10
12.6176536619
 20
7.3808899612
 30
0.0
 10
12.6180595171
 20
7.3809701764
 30
0.0
 10
12.6184626899
 20
7.3809935751
 30
0.0
 10
12.6188622719
 20
7.3809599412
 30
0.0
 10
12.6192573746
 20
7.3808694061
 30
0.0
 10
12.6197888619
 20
7.380668896
 30
0.0
 10
12.6202991054
 20
7.3803532061
 30
0.0
 10
12.6207788926
 20
7.3799473835
 30
0.0
 10
12.6211426428
 20
7.3795795131
 30
0.0
 10
12.6214989613
 20
7.3791578375
 30
0.0
 10
12.6219792818
 20
7.3785032094
 30
0.0
 10
12.6225542301
 20
7.3775457752
 30
0.0
 10
12.6230675922
 20
7.3764789184
 30
0.0
 10
12.623463382
 20
7.3755285184
 30
0.0
 10
12.6238664673
 20
7.3744607725
 30
0.0
 10
12.6243402646
 20
7.3730053128
 30
0.0
 10
12.6248525635
 20
7.3711156805
 30
0.0
 10
12.6253189185
 20
7.3690521738
 30
0.0
 10
12.6257369641
 20
7.3668249386
 30
0.0
 10
12.6261045438
 20
7.3644449006
 30
0.0
 10
12.6264197764
 20
7.3619238233
 30
0.0
 10
12.6266810526
 20
7.3592741996
 30
0.0
 10
12.6268870439
 20
7.3565091683
 30
0.0
 10
12.6270892582
 20
7.3526334159
 30
0.0
 10
12.6271927497
 20
7.3476039973
 30
0.0
 10
12.6270873674
 20
7.3414207095
 30
0.0
 10
12.6267556682
 20
7.3351312805
 30
0.0
 10
12.6262041759
 20
7.3288605666
 30
0.0
 10
12.6254439395
 20
7.3227330214
 30
0.0
 10
12.6247916262
 20
7.318722191
 30
0.0
 10
12.6244298352
 20
7.3167635939
 30
0.0
  0
SPLINE
  5
32D
100
AcDbEntity
  8
0
100
AcDbSpline
 62
7
  6
CONTINUOUS
 70
0
 71
3
 72
54
 73
50
 74
0
 42
0.0000001
 43
0.0000001
 44
0.0000000001
 40
0.0
 40
0.0
 40
0.0
 40
0.0
 40
0.0095821431
 40
0.0187371502
 40
0.0274871808
 40
0.035859769
 40
0.0515977187
 40
0.0590554864
 40
0.0662982161
 40
0.0733793743
 40
0.0803566276
 40
0.0872904384
 40
0.0942425204
 40
0.1012740366
 40
0.1084439752
 40
0.1158076223
 40
0.123415643
 40
0.131313479
 40
0.1395410145
 40
0.1481329413
 40
0.1571188404
 40
0.1665236635
 40
0.1763683995
 40
0.1866701842
 40
0.1974430554
 40
0.208698296
 40
0.2204445413
 40
0.2326884865
 40
0.2454348312
 40
0.2586865507
 40
0.2724453489
 40
0.2867113944
 40
0.3014837889
 40
0.3325374969
 40
0.365581517
 40
0.4005762991
 40
0.4374715115
 40
0.4762074889
 40
0.516716267
 40
0.5589226085
 40
0.6027448263
 40
0.6480954068
 40
0.6948814964
 40
0.7430054079
 40
0.7923653672
 40
0.842855674
 40
0.8943661376
 40
0.9467876045
 40
1.0
 40
1.0
 40
1.0
 40
1.0
 10
12.6154428655
 20
7.0008612492
 30
0.0
 10
12.6147352619
 20
7.0002027261
 30
0.0
 10
12.6133206164
 20
6.9989476819
 30
0.0
 10
12.6111502193
 20
6.9972198862
 30
0.0
 10
12.6089817526
 20
6.9956919177
 30
0.0
 10
12.6061544005
 20
6.9939588599
 30
0.0
 10
12.6032699741
 20
6.9925750772
 30
0.0
 10
12.60035489
 20
6.9916003503
 30
0.0
 10
12.5982153769
 20
6.9910867301
 30
0.0
 10
12.5960856324
 20
6.9907785235
 30
0.0
 10
12.5939671661
 20
6.9906760792
 30
0.0
 10
12.5918617372
 20
6.9907797725
 30
0.0
 10
12.5897711299
 20
6.9910894981
 30
0.0
 10
12.5876970617
 20
6.9916048373
 30
0.0
 10
12.5856411661
 20
6.9923252456
 30
0.0
 10
12.5836048391
 20
6.9932497731
 30
0.0
 10
12.5815893422
 20
6.9943774927
 30
0.0
 10
12.5795958242
 20
6.995707411
 30
0.0
 10
12.5776252554
 20
6.9972383895
 30
0.0
 10
12.5756786689
 20
6.9989694039
 30
0.0
 10
12.5737570116
 20
7.0008992906
 30
0.0
 10
12.5718612153
 20
7.0030268312
 30
0.0
 10
12.5699923208
 20
7.0053508042
 30
0.0
 10
12.5681512559
 20
7.0078697996
 30
0.0
 10
12.5663390326
 20
7.0105823679
 30
0.0
 10
12.5645566871
 20
7.0134869532
 30
0.0
 10
12.5628051601
 20
7.0165818387
 30
0.0
 10
12.5610855014
 20
7.0198652512
 30
0.0
 10
12.5593986911
 20
7.0233352685
 30
0.0
 10
12.5577456758
 20
7.0269898523
 30
0.0
 10
12.5561274867
 20
7.030826879
 30
0.0
 10
12.5545450045
 20
7.0348440835
 30
0.0
 10
12.5524489675
 20
7.0405325563
 30
0.0
 10
12.5499343189
 20
7.0480832806
 30
0.0
 10
12.5471216102
 20
7.0576775135
 30
0.0
 10
12.544472376
 20
7.0679278185
 30
0.0
 10
12.5419929682
 20
7.0788099755
 30
0.0
 10
12.5396893725
 20
7.0902983976
 30
0.0
 10
12.537567132
 20
7.1023659229
 30
0.0
 10
12.5356313608
 20
7.1149839826
 30
0.0
 10
12.5338867327
 20
7.1281226687
 30
0.0
 10
12.5323374693
 20
7.1417508124
 30
0.0
 10
12.5309873019
 20
7.1558360471
 30
0.0
 10
12.5298394802
 20
7.1703449126
 30
0.0
 10
12.5288967816
 20
7.1852429405
 30
0.0
 10
12.5281615054
 20
7.2004946367
 30
0.0
 10
12.5276353808
 20
7.2160639713
 30
0.0
 10
12.527319755
 20
7.2319135933
 30
0.0
 10
12.5272506029
 20
7.2425697946
 30
0.0
 10
12.5272506029
 20
7.2479377174
 30
0.0
  0
SPLINE
  5
32E
100
AcDbEntity
  8
0
100
AcDbSpline
 62
7
  6
CONTINUOUS
 70
0
 71
3
 72
41
 73
37
 74
0
 42
0.0000001
 43
0.0000001
 44
0.0000000001
 40
0.0
 40
0.0
 40
0.0
 40
0.0
 40
0.031144444
 40
0.0624425093
 40
0.0938872508
 40
0.1254695847
 40
0.1571771078
 40
0.1889951283
 40
0.2209066801
 40
0.2528929859
 40
0.2849338014
 40
0.3170078274
 40
0.3490931225
 40
0.3811675283
 40
0.4132090962
 40
0.4451965119
 40
0.4771095115
 40
0.5089292827
 40
0.5406388458
 40
0.5722234075
 40
0.6036706813
 40
0.6349711679
 40
0.6661183875
 40
0.6971090579
 40
0.7279432122
 40
0.7586242475
 40
0.7891589026
 40
0.8195571573
 40
0.8498320547
 40
0.8649308931
 40
0.8800050545
 40
0.9100832586
 40
0.9400926739
 40
0.9550812746
 40
0.9700610358
 40
1.0
 40
1.0
 40
1.0
 40
1.0
 10
8.9826951614
 20
7.2556161936
 30
0.0
 10
8.9793812098
 20
7.2558460169
 30
0.0
 10
8.9727513181
 20
7.2565493761
 30
0.0
 10
8.9628868712
 20
7.258321109
 30
0.0
 10
8.9531280629
 20
7.2608028349
 30
0.0
 10
8.9435276442
 20
7.2639811227
 30
0.0
 10
8.9341365837
 20
7.2678389943
 30
0.0
 10
8.9250049861
 20
7.2723557845
 30
0.0
 10
8.9161814951
 20
7.277507368
 30
0.0
 10
8.9077131272
 20
7.2832662337
 30
0.0
 10
8.8996450022
 20
7.2896016544
 30
0.0
 10
8.8920201101
 20
7.2964798399
 30
0.0
 10
8.8848790842
 20
7.3038641195
 30
0.0
 10
8.8782599864
 20
7.3117151344
 30
0.0
 10
8.8721981069
 20
7.3199910457
 30
0.0
 10
8.8667257773
 20
7.3286477549
 30
0.0
 10
8.8618721999
 20
7.3376391368
 30
0.0
 10
8.8576632927
 20
7.3469172817
 30
0.0
 10
8.8541215519
 20
7.3564327479
 30
0.0
 10
8.8512659317
 20
7.3661348219
 30
0.0
 10
8.8491117425
 20
7.3759717848
 30
0.0
 10
8.8476705678
 20
7.3858911842
 30
0.0
 10
8.8469502
 20
7.3958401108
 30
0.0
 10
8.8469545939
 20
7.4057654746
 30
0.0
 10
8.8476838468
 20
7.4156142954
 30
0.0
 10
8.8491341723
 20
7.4253339448
 30
0.0
 10
8.8512979866
 20
7.4348725694
 30
0.0
 10
8.8541636788
 20
7.4441788393
 30
0.0
 10
8.8571272788
 20
7.451707067
 30
0.0
 10
8.8598317236
 20
7.4575614248
 30
0.0
 10
8.862750329
 20
7.4632884945
 30
0.0
 10
8.8668026543
 20
7.4702156811
 30
0.0
 10
8.8713761804
 20
7.476799342
 30
0.0
 10
8.8753283545
 20
7.4818317466
 30
0.0
 10
8.8794690958
 20
7.4866998655
 30
0.0
 10
8.8827865348
 20
7.4901655641
 30
0.0
 10
8.8850833552
 20
7.4923841203
 30
0.0
  0
SPLINE
  5
32F
100
AcDbEntity
  8
0
100
AcDbSpline
 62
7
  6
CONTINUOUS
 70
0
 71
3
 72
39
 73
35
 74
0
 42
0.0000001
 43
0.0000001
 44
0.0000000001
 40
0.0
 40
0.0
 40
0.0
 40
0.0
 40
0.00631605
 40
0.0126710036
 40
0.0191030137
 40
0.0256487366
 40
0.0323427745
 40
0.0392173093
 40
0.0536154999
 40
0.0690527098
 40
0.0856860775
 40
0.103634432
 40
0.1229846057
 40
0.1437975285
 40
0.1661136281
 40
0.1899566057
 40
0.2153367
 40
0.2422532743
 40
0.2706963086
 40
0.3006480514
 40
0.3320841722
 40
0.3649743116
 40
0.3992830784
 40
0.4349705379
 40
0.4719924585
 40
0.5103010083
 40
0.5498449224
 40
0.5905696991
 40
0.6324181177
 40
0.6753302619
 40
0.7192436941
 40
0.8098127521
 40
0.903586456
 40
1.0
 40
1.0
 40
1.0
 40
1.0
 10
12.5603965545
 20
6.9619127992
 30
0.0
 10
12.5597627345
 20
6.9619567592
 30
0.0
 10
12.5584941865
 20
6.9620968263
 30
0.0
 10
12.5566055723
 20
6.9624618747
 30
0.0
 10
12.5547295911
 20
6.9629819328
 30
0.0
 10
12.55286733
 20
6.9636565474
 30
0.0
 10
12.5510195231
 20
6.9644852809
 30
0.0
 10
12.5485383393
 20
6.9658153593
 30
0.0
 10
12.5454680595
 20
6.9678863751
 30
0.0
 10
12.5419168277
 20
6.9709392313
 30
0.0
 10
12.5384446805
 20
6.9745908329
 30
0.0
 10
12.5350556862
 20
6.9788344772
 30
0.0
 10
12.5317535063
 20
6.9836635109
 30
0.0
 10
12.5285424471
 20
6.989070473
 30
0.0
 10
12.5254271028
 20
6.9950470804
 30
0.0
 10
12.5224121588
 20
7.0015840108
 30
0.0
 10
12.5195023174
 20
7.0086709448
 30
0.0
 10
12.5167022919
 20
7.0162965884
 30
0.0
 10
12.5140166123
 20
7.024448656
 30
0.0
 10
12.5114496899
 20
7.0331139414
 30
0.0
 10
12.5090058036
 20
7.0422783471
 30
0.0
 10
12.5066889736
 20
7.0519268962
 30
0.0
 10
12.5045030605
 20
7.0620437902
 30
0.0
 10
12.5024517257
 20
7.0726124344
 30
0.0
 10
12.5005383534
 20
7.083615461
 30
0.0
 10
12.4987661486
 20
7.0950347762
 30
0.0
 10
12.4971380756
 20
7.1068515857
 30
0.0
 10
12.4956568182
 20
7.1190464281
 30
0.0
 10
12.4943248741
 20
7.1315992083
 30
0.0
 10
12.4931444378
 20
7.1444892549
 30
0.0
 10
12.4917610128
 20
7.1622804504
 30
0.0
 10
12.4904355927
 20
7.1852055866
 30
0.0
 10
12.4894889502
 20
7.213433872
 30
0.0
 10
12.4892835167
 20
7.2325659171
 30
0.0
 10
12.4892835167
 20
7.2422643261
 30
0.0
  0
SPLINE
  5
330
100
AcDbEntity
  8
0
100
AcDbSpline
 62
7
  6
CONTINUOUS
 70
0
 71
3
 72
39
 73
35
 74
0
 42
0.0000001
 43
0.0000001
 44
0.0000000001
 40
0.0
 40
0.0
 40
0.0
 40
0.0
 40
0.0063160566
 40
0.0126710106
 40
0.0191030154
 40
0.0256487277
 40
0.0323427504
 40
0.039217266
 40
0.0536154085
 40
0.0690525617
 40
0.0856858679
 40
0.1036341595
 40
0.1229842714
 40
0.1437971352
 40
0.1661131805
 40
0.1899561089
 40
0.2153361604
 40
0.2422526985
 40
0.2706957037
 40
0.3006474247
 40
0.3320835311
 40
0.3649736636
 40
0.3992824308
 40
0.434969898
 40
0.4719918335
 40
0.5103004051
 40
0.5498443477
 40
0.5905691592
 40
0.6324176188
 40
0.6753298096
 40
0.7192432939
 40
0.8098124703
 40
0.9035863088
 40
1.0
 40
1.0
 40
1.0
 40
1.0
 10
11.5336176758
 20
7.0331201563
 30
0.0
 10
11.5329838538
 20
7.0331641078
 30
0.0
 10
11.5317153019
 20
7.0333041579
 30
0.0
 10
11.5298266807
 20
7.0336691819
 30
0.0
 10
11.5279506924
 20
7.0341892165
 30
0.0
 10
11.5260884243
 20
7.0348638085
 30
0.0
 10
11.5242406102
 20
7.0356925202
 30
0.0
 10
11.5217594171
 20
7.0370225702
 30
0.0
 10
11.518689125
 20
7.0390935527
 30
0.0
 10
11.5151378782
 20
7.0421463739
 30
0.0
 10
11.5116657163
 20
7.0457979439
 30
0.0
 10
11.5082767076
 20
7.0500415601
 30
0.0
 10
11.5049745133
 20
7.0548705692
 30
0.0
 10
11.50176344
 20
7.0602775103
 30
0.0
 10
11.4986480819
 20
7.0662541001
 30
0.0
 10
11.4956331243
 20
7.0727910165
 30
0.0
 10
11.4927232695
 20
7.0798779398
 30
0.0
 10
11.489923231
 20
7.0875035762
 30
0.0
 10
11.4872375388
 20
7.09565564
 30
0.0
 10
11.4846706042
 20
7.1043209248
 30
0.0
 10
11.4822267061
 20
7.1134853333
 30
0.0
 10
11.4799098649
 20
7.1231338883
 30
0.0
 10
11.4777239411
 20
7.1332507913
 30
0.0
 10
11.4756725961
 20
7.1438194475
 30
0.0
 10
11.4737592143
 20
7.1548224889
 30
0.0
 10
11.4719870005
 20
7.1662418217
 30
0.0
 10
11.4703589193
 20
7.1780586514
 30
0.0
 10
11.4688776544
 20
7.1902535166
 30
0.0
 10
11.4675457035
 20
7.2028063218
 30
0.0
 10
11.4663652611
 20
7.2156963957
 30
0.0
 10
11.464981829
 20
7.2334876314
 30
0.0
 10
11.4636564019
 20
7.2564128222
 30
0.0
 10
11.4627097546
 20
7.2846411776
 30
0.0
 10
11.46250432
 20
7.3037732712
 30
0.0
 10
11.46250432
 20
7.3134717053
 30
0.0
  0
SPLINE
  5
331
100
AcDbEntity
  8
0
100
AcDbSpline
 62
4
  6
CONTINUOUS
 70
0
 71
3
 72
69
 73
65
 74
0
 42
0.0000001
 43
0.0000001
 44
0.0000000001
 40
0.0
 40
0.0
 40
0.0
 40
0.0
 40
0.03125
 40
0.046875
 40
0.0625
 40
0.078125
 40
0.09375
 40
0.109375
 40
0.125
 40
0.140625
 40
0.15625
 40
0.171875
 40
0.1875
 40
0.203125
 40
0.21875
 40
0.234375
 40
0.25
 40
0.265625
 40
0.28125
 40
0.296875
 40
0.3125
 40
0.328125
 40
0.34375
 40
0.359375
 40
0.375
 40
0.390625
 40
0.40625
 40
0.421875
 40
0.4375
 40
0.453125
 40
0.46875
 40
0.484375
 40
0.5
 40
0.515625
 40
0.53125
 40
0.546875
 40
0.5625
 40
0.578125
 40
0.59375
 40
0.609375
 40
0.625
 40
0.640625
 40
0.65625
 40
0.671875
 40
0.6875
 40
0.703125
 40
0.71875
 40
0.734375
 40
0.75
 40
0.765625
 40
0.78125
 40
0.796875
 40
0.8125
 40
0.828125
 40
0.84375
 40
0.859375
 40
0.875
 40
0.890625
 40
0.90625
 40
0.921875
 40
0.9375
 40
0.953125
 40
0.96875
 40
1.0
 40
1.0
 40
1.0
 40
1.0
 10
11.031424063
 20
7.2492489483
 30
0.0
 10
11.031439393
 20
7.2490915385
 30
0.0
 10
11.0314603244
 20
7.2488551562
 30
0.0
 10
11.0314964869
 20
7.2485410503
 30
0.0
 10
11.0315029738
 20
7.2483027946
 30
0.0
 10
11.0315878734
 20
7.2480747089
 30
0.0
 10
11.0316504407
 20
7.2478434441
 30
0.0
 10
11.0317239246
 20
7.2476147255
 30
0.0
 10
11.0317760747
 20
7.2473790014
 30
0.0
 10
11.0319026432
 20
7.2471687531
 30
0.0
 10
11.0320079897
 20
7.2469510668
 30
0.0
 10
11.0321238057
 20
7.2467376564
 30
0.0
 10
11.0322189661
 20
7.2465145804
 30
0.0
 10
11.0323862793
 20
7.2463258912
 30
0.0
 10
11.0325333217
 20
7.2461269328
 30
0.0
 10
11.0326892947
 20
7.2459346646
 30
0.0
 10
11.0328298162
 20
7.2457259047
 30
0.0
 10
11.0330232129
 20
7.2455764214
 30
0.0
 10
11.0332016477
 20
7.2454099213
 30
0.0
 10
11.0333870551
 20
7.245252212
 30
0.0
 10
11.0335595337
 20
7.2450763563
 30
0.0
 10
11.0337767548
 20
7.2449642951
 30
0.0
 10
11.0339814384
 20
7.2448338578
 30
0.0
 10
11.0341915294
 20
7.2447131302
 30
0.0
 10
11.0343925285
 20
7.2445719401
 30
0.0
 10
11.0346244876
 20
7.2445028902
 30
0.0
 10
11.0348477402
 20
7.2444131373
 30
0.0
 10
11.035074859
 20
7.2443340563
 30
0.0
 10
11.0352952197
 20
7.2442329906
 30
0.0
 10
11.0355387467
 20
7.2442091917
 30
0.0
 10
11.0357761956
 20
7.244163225
 30
0.0
 10
11.0360147907
 20
7.2441286624
 30
0.0
 10
11.036254879
 20
7.2440706513
 30
0.0
 10
11.036487848
 20
7.2440950301
 30
0.0
 10
11.0367230037
 20
7.2440959112
 30
0.0
 10
11.0369565319
 20
7.2441083934
 30
0.0
 10
11.0371943834
 20
7.2440979685
 30
0.0
 10
11.037416569
 20
7.2441675712
 30
0.0
 10
11.037643498
 20
7.244214371
 30
0.0
 10
11.0378671196
 20
7.2442723546
 30
0.0
 10
11.0380992273
 20
7.2443084059
 30
0.0
 10
11.0383006981
 20
7.2444210029
 30
0.0
 10
11.0385110785
 20
7.2445117594
 30
0.0
 10
11.038716457
 20
7.2446133323
 30
0.0
 10
11.0389329337
 20
7.24469348
 30
0.0
 10
11.0391100196
 20
7.2448485123
 30
0.0
 10
11.0392987806
 20
7.244982464
 30
0.0
 10
11.0394802321
 20
7.2451258533
 30
0.0
 10
11.0396792468
 20
7.2452525731
 30
0.0
 10
11.0398153179
 20
7.2454365333
 30
0.0
 10
11.0399694436
 20
7.2456042794
 30
0.0
 10
11.0401142949
 20
7.2457796413
 30
0.0
 10
11.040278189
 20
7.2459407539
 30
0.0
 10
11.040375186
 20
7.2461512482
 30
0.0
 10
11.0404914283
 20
7.2463478703
 30
0.0
 10
11.0405975863
 20
7.2465505992
 30
0.0
 10
11.0407248364
 20
7.2467427735
 30
0.0
 10
11.0407778021
 20
7.2469710595
 30
0.0
 10
11.0408520643
 20
7.2471891619
 30
0.0
 10
11.0409154245
 20
7.247411887
 30
0.0
 10
11.0410010964
 20
7.2476263051
 30
0.0
 10
11.0410084235
 20
7.2478693283
 30
0.0
 10
11.0410456824
 20
7.2481833223
 30
0.0
 10
11.0410674414
 20
7.2484210762
 30
0.0
 10
11.0410833219
 20
7.2485790769
 30
0.0
  0
SPLINE
  5
332
100
AcDbEntity
  8
0
100
AcDbSpline
 62
4
  6
CONTINUOUS
 70
0
 71
3
 72
69
 73
65
 74
0
 42
0.0000001
 43
0.0000001
 44
0.0000000001
 40
0.0
 40
0.0
 40
0.0
 40
0.0
 40
0.03125
 40
0.046875
 40
0.0625
 40
0.078125
 40
0.09375
 40
0.109375
 40
0.125
 40
0.140625
 40
0.15625
 40
0.171875
 40
0.1875
 40
0.203125
 40
0.21875
 40
0.234375
 40
0.25
 40
0.265625
 40
0.28125
 40
0.296875
 40
0.3125
 40
0.328125
 40
0.34375
 40
0.359375
 40
0.375
 40
0.390625
 40
0.40625
 40
0.421875
 40
0.4375
 40
0.453125
 40
0.46875
 40
0.484375
 40
0.5
 40
0.515625
 40
0.53125
 40
0.546875
 40
0.5625
 40
0.578125
 40
0.59375
 40
0.609375
 40
0.625
 40
0.640625
 40
0.65625
 40
0.671875
 40
0.6875
 40
0.703125
 40
0.71875
 40
0.734375
 40
0.75
 40
0.765625
 40
0.78125
 40
0.796875
 40
0.8125
 40
0.828125
 40
0.84375
 40
0.859375
 40
0.875
 40
0.890625
 40
0.90625
 40
0.921875
 40
0.9375
 40
0.953125
 40
0.96875
 40
1.0
 40
1.0
 40
1.0
 40
1.0
 10
11.0410833219
 20
7.2485790764
 30
0.0
 10
11.041067992
 20
7.2487364862
 30
0.0
 10
11.0410470606
 20
7.2489728685
 30
0.0
 10
11.0410108981
 20
7.2492869744
 30
0.0
 10
11.0410044111
 20
7.2495252302
 30
0.0
 10
11.0409195115
 20
7.2497533159
 30
0.0
 10
11.0408569442
 20
7.2499845806
 30
0.0
 10
11.0407834603
 20
7.2502132993
 30
0.0
 10
11.0407313103
 20
7.2504490233
 30
0.0
 10
11.0406047417
 20
7.2506592717
 30
0.0
 10
11.0404993952
 20
7.250876958
 30
0.0
 10
11.0403835792
 20
7.2510903683
 30
0.0
 10
11.0402884189
 20
7.2513134444
 30
0.0
 10
11.0401211056
 20
7.2515021335
 30
0.0
 10
11.0399740632
 20
7.251701092
 30
0.0
 10
11.0398180902
 20
7.2518933601
 30
0.0
 10
11.0396775687
 20
7.2521021201
 30
0.0
 10
11.039484172
 20
7.2522516033
 30
0.0
 10
11.0393057373
 20
7.2524181034
 30
0.0
 10
11.0391203298
 20
7.2525758128
 30
0.0
 10
11.0389478512
 20
7.2527516684
 30
0.0
 10
11.0387306301
 20
7.2528637297
 30
0.0
 10
11.0385259465
 20
7.2529941669
 30
0.0
 10
11.0383158556
 20
7.2531148946
 30
0.0
 10
11.0381148565
 20
7.2532560847
 30
0.0
 10
11.0378828973
 20
7.2533251345
 30
0.0
 10
11.0376596447
 20
7.2534148875
 30
0.0
 10
11.0374325259
 20
7.2534939685
 30
0.0
 10
11.0372121652
 20
7.2535950341
 30
0.0
 10
11.0369686382
 20
7.2536188331
 30
0.0
 10
11.0367311893
 20
7.2536647997
 30
0.0
 10
11.0364925943
 20
7.2536993623
 30
0.0
 10
11.0362525059
 20
7.2537573734
 30
0.0
 10
11.0360195369
 20
7.2537329946
 30
0.0
 10
11.0357843812
 20
7.2537321136
 30
0.0
 10
11.0355508531
 20
7.2537196313
 30
0.0
 10
11.0353130015
 20
7.2537300563
 30
0.0
 10
11.0350908159
 20
7.2536604536
 30
0.0
 10
11.0348638869
 20
7.2536136538
 30
0.0
 10
11.0346402653
 20
7.2535556701
 30
0.0
 10
11.0344081576
 20
7.2535196189
 30
0.0
 10
11.0342066869
 20
7.2534070219
 30
0.0
 10
11.0339963064
 20
7.2533162654
 30
0.0
 10
11.0337909279
 20
7.2532146925
 30
0.0
 10
11.0335744512
 20
7.2531345448
 30
0.0
 10
11.0333973653
 20
7.2529795125
 30
0.0
 10
11.0332086043
 20
7.2528455607
 30
0.0
 10
11.0330271529
 20
7.2527021714
 30
0.0
 10
11.0328281382
 20
7.2525754516
 30
0.0
 10
11.032692067
 20
7.2523914915
 30
0.0
 10
11.0325379414
 20
7.2522237454
 30
0.0
 10
11.0323930901
 20
7.2520483834
 30
0.0
 10
11.0322291959
 20
7.2518872709
 30
0.0
 10
11.0321321989
 20
7.2516767766
 30
0.0
 10
11.0320159566
 20
7.2514801544
 30
0.0
 10
11.0319097987
 20
7.2512774255
 30
0.0
 10
11.0317825485
 20
7.2510852513
 30
0.0
 10
11.0317295829
 20
7.2508569653
 30
0.0
 10
11.0316553206
 20
7.2506388628
 30
0.0
 10
11.0315919604
 20
7.2504161378
 30
0.0
 10
11.0315062885
 20
7.2502017196
 30
0.0
 10
11.0314989614
 20
7.2499586965
 30
0.0
 10
11.0314617026
 20
7.2496447024
 30
0.0
 10
11.0314399435
 20
7.2494069486
 30
0.0
 10
11.031424063
 20
7.2492489479
 30
0.0
  0
ELLIPSE
  5
333
100
AcDbEntity
  8
0
100
AcDbEllipse
 62
7
  6
CONTINUOUS
 10
9.1044018103
 20
8.6192734699
 30
0.0
 11
0.1962593891
 21
0.0850156053
 31
0.0
 40
0.8339440817
 41
4.9173242521
 42
7.6735746787
  0
ELLIPSE
  5
334
100
AcDbEntity
  8
0
100
AcDbEllipse
 62
7
  6
CONTINUOUS
 10
9.1044018103
 20
8.6192734699
 30
0.0
 11
0.1522435693
 21
0.0972849033
 31
0.0
 40
0.9932711359
 41
1.1979443582
 42
1.6117454873
  0
ELLIPSE
  5
335
100
AcDbEntity
  8
0
100
AcDbEllipse
 62
7
  6
CONTINUOUS
 10
9.6173084719
 20
8.1615937412
 30
0.0
 11
-0.0273439662
 21
0.2135283802
 31
0.0
 40
0.8018322472
 41
0.0
 42
6.2831853072
  0
ELLIPSE
  5
336
100
AcDbEntity
  8
0
100
AcDbEllipse
 62
7
  6
CONTINUOUS
 10
9.1044018103
 20
8.6192734699
 30
0.0
 11
0.1522435693
 21
0.0972849033
 31
0.0
 40
0.9932711359
 41
4.3395370118
 42
4.7533381409
  0
ELLIPSE
  5
337
100
AcDbEntity
  8
0
100
AcDbEllipse
 62
7
  6
CONTINUOUS
 10
9.1044018103
 20
8.6192734699
 30
0.0
 11
0.1962593891
 21
0.0850156053
 31
0.0
 40
0.8339440817
 41
1.7757339417
 42
4.5319820251
  0
ENDSEC
  0
SECTION
  2
OBJECTS
  0
DICTIONARY
  5
C
100
AcDbDictionary
280
0
281
1
  3
ACAD_GROUP
350
D
  3
ACAD_MLINESTYLE
350
17
  3
ACAD_LAYOUT
350
1A
  3
ACAD_PLOTSETTINGS
350
19
  3
ACAD_PLOTSTYLENAME
350
E
  3
ACAD_IMAGE_DICT
350
       339
  3
ACAD_IMAGE_VARS
350
       33A
  3
ACAD_TABLESTYLE
350
       33B
  0
IMAGEDEF_REACTOR
  5
338
100
AcDbRasterImageDefReactor
 90
2
330
275
  0
DICTIONARY
  5
D
102
{ACAD_REACTORS
330
C
102
}
100
AcDbDictionary
280
0
281
1
  0
ACDBDICTIONARYWDFLT
  5
E
102
{ACAD_REACTORS
330
C
102
}
100
AcDbDictionary
281
1
  3
Normal
350
F
100
AcDbDictionaryWithDefault
340
F
  0
DICTIONARY
  5
339
330
C
100
AcDbDictionary
281
1
  3
BB3_assy_2_img_1
350
       33E
  0
RASTERVARIABLES
  5
33A
330
C
100
AcDbRasterVariables
 90
0
 70
0
 71
1
 72
5
  0
DICTIONARY
  5
17
102
{ACAD_REACTORS
330
C
102
}
100
AcDbDictionary
280
0
281
1
  3
Standard
350
18
  0
DICTIONARY
  5
33B
330
C
100
AcDbDictionary
281
1
  3
Standard
350
       33F
  3
Standard1
350
       340
  0
DICTIONARY
  5
19
102
{ACAD_REACTORS
330
C
102
}
100
AcDbDictionary
281
1
  0
DICTIONARY
  5
1A
102
{ACAD_REACTORS
330
C
102
}
100
AcDbDictionary
281
1
  3
Model
350
33C
  3
Layout1
350
33D
  0
ACDBPLACEHOLDER
  5
F
102
{ACAD_REACTORS
330
E
102
}
  0
MLINESTYLE
  5
18
102
{ACAD_REACTORS
330
17
102
}
100
AcDbMlineStyle
  2
STANDARD
 70
0
  3

 62
256
 51
90.0
 52
90.0
 71
2
 49
0.5
 62
256
  6
BYLAYER
 49
-0.5
 62
256
  6
BYLAYER
  0
LAYOUT
  5
33C
102
{ACAD_REACTORS
330
1A
102
}
100
AcDbPlotSettings
  1

  2
none_device
  4
ANSI_C_(22.00_x_17.00_Inches)
  6

 40
0.0
 41
0.0
 42
0.0
 43
0.0
 44
558.8
 45
431.8
 46
0.0
 47
0.0
 48
0.0
 49
0.0
140
0.0
141
0.0
142
1.0
143
1.0
 70
1024
 72
0
 73
0
 74
0
  7

 75
0
147
1.0
148
0.0
149
0.0
100
AcDbLayout
  1
Model
 70
0
 71
0
 10
0.0
 20
0.0
 11
22.0
 21
17.0
 12
0.0
 22
0.0
 32
0.0
 14
0.0
 24
0.0
 34
0.0
 15
0.0
 25
0.0
 35
0.0
146
0.0
 13
0.0
 23
0.0
 33
0.0
 16
1.0
 26
0.0
 36
0.0
 17
0.0
 27
1.0
 37
0.0
 76
0
330
20C
345
0
346
0
  0
LAYOUT
  5
33D
102
{ACAD_REACTORS
330
1A
102
}
100
AcDbPlotSettings
  1

  2
none_device
  4
ANSI_C_(22.00_x_17.00_Inches)
  6

 40
0.0
 41
0.0
 42
0.0
 43
0.0
 44
558.8
 45
431.8
 46
0.0
 47
0.0
 48
0.0
 49
0.0
140
0.0
141
0.0
142
1.0
143
1.0
 70
0
 72
0
 73
0
 74
0
  7

 75
0
147
1.0
148
0.0
149
0.0
100
AcDbLayout
  1
Layout1
 70
0
 71
1
 10
0.0
 20
0.0
 11
22.0
 21
17.0
 12
0.0
 22
0.0
 32
0.0
 14
0.0
 24
0.0
 34
0.0
 15
0.0
 25
0.0
 35
0.0
146
0.0
 13
0.0
 23
0.0
 33
0.0
 16
1.0
 26
0.0
 36
0.0
 17
0.0
 27
1.0
 37
0.0
 76
0
330
20D
345
0
346
0
  0
IMAGEDEF
  5
33E
102
{ACAD_REACTORS
330
339
330
338
102
}
100
AcDbRasterImageDef
 90
0
  1
BB3_assy_2_img_1.png
 10
369.0
 20
92.0
 11
0.0066666667
 21
0.0066666667
280
1
281
0
  0
TABLESTYLE
  5
33F
102
{ACAD_REACTORS
330
33B
330
278
102
}
330
33B
100
AcDbTableStyle
  3
Standard
 70
0
 71
0
 40
0.06
 41
0.06
280
1
281
1
  7
Standard
140
0.18
170
1
 62
0
 63
7
283
0
  7
Standard
140
0.18
170
1
 62
0
 63
7
283
0
  7
Standard
140
0.18
170
1
 62
0
 63
7
283
0
  0
TABLESTYLE
  5
340
102
{ACAD_REACTORS
330
33B
330
277
102
}
330
33B
100
AcDbTableStyle
  3
Standard1
 70
1
 71
0
 40
0.06
 41
0.06
280
1
281
1
  7
Standard
140
0.18
170
1
 62
0
 63
7
283
0
  7
Standard
140
0.18
170
1
 62
0
 63
7
283
0
  7
Standard
140
0.18
170
1
 62
0
 63
7
283
0
  0
ENDSEC
  0
EOF
