999
DXF file: B8D_assy_2.dxf
999
Pro/ENGINEER 2014200 by Parametric Technology Corporation
  0
SECTION
  2
HEADER
  9
$ACADVER
  1
AC1021
  9
$DWGCODEPAGE
  3
ANSI_1252
  9
$EXTMAX
 10
22.0
 20
17.0
 30
0.0
  9
$EXTMIN
 10
0.0
 20
0.0
 30
0.0
  9
$LIMMIN
 10
0.0
 20
0.0
  9
$LIMMAX
 10
22.0
 20
17.0
  9
$VIEWCTR
 10
11.0
 20
8.5
  9
$VIEWSIZE
 40
17.0
  9
$CLAYER
  8
0
  9
$LTSCALE
 40
1.21
  9
$CELTYPE
  6
BYLAYER
  9
$DIMSCALE
 40
1.0
  9
$DIMASZ
 40
0.1875
  9
$DIMEXO
 40
0.0625
  9
$DIMDLI
 40
0.836
  9
$DIMEXE
 40
0.125
  9
$DIMCEN
 40
0.198
  9
$DIMLFAC
 40
1.0
  9
$DIMBLK
  1
_FILLED
  9
$DIMTXT
 40
0.1
  9
$DIMTOL
 70
0
  9
$DIMLIM
 70
0
  9
$DIMTFAC
 40
1.0
  9
$DIMGAP
 40
0.09
  9
$DIMDSEP
 70
46
  9
$AUNITS
 70
0
  9
$PDMODE
 70
3
  9
$PDSIZE
 40
0.3125
  9
$HANDSEED
  5
456
  9
$TILEMODE
 70
1
  9
$MEASUREMENT
 70
0
  9
$INSUNITS
 70
1
  0
ENDSEC
  0
SECTION
  2
CLASSES
  0
CLASS
  1
ACDBDICTIONARYWDFLT
  2
AcDbDictionaryWithDefault
  3
AutoCAD 2000
 90
0
 91
1
280
0
281
0
  0
CLASS
  1
ACDBPLACEHOLDER
  2
AcDbPlaceHolder
  3
AutoCAD 2000
 90
0
 91
1
280
0
281
0
  0
CLASS
  1
LAYOUT
  2
AcDbLayout
  3
AutoCAD 2000
 90
0
 91
0
280
0
281
0
  0
CLASS
  1
RASTERVARIABLES
  2
AcDbRasterVariables
  3
ISM
 90
0
 91
1
280
0
281
0
  0
CLASS
  1
IMAGEDEF
  2
AcDbRasterImageDef
  3
ISM
 90
0
 91
1
280
0
281
0
  0
CLASS
  1
IMAGEDEF_REACTOR
  2
AcDbRasterImageDefReactor
  3
ISM
 90
0
 91
1
280
0
281
0
  0
CLASS
  1
IMAGE
  2
AcDbRasterImage
  3
ISM
 90
127
 91
1
280
0
281
1
  0
CLASS
  1
TABLESTYLE
  2
AcDbTableStyle
  3
ObjectDBX Classes
 90
2047
 91
1
280
0
281
0
  0
CLASS
  1
ACAD_TABLE
  2
AcDbTable
  3
ObjectDBX Classes
 90
1025
 91
3
280
0
281
1
  0
ENDSEC
  0
SECTION
  2
TABLES
  0
TABLE
  2
VPORT
  5
8
100
AcDbSymbolTable
 70
2
  0
VPORT
  5
1F4
100
AcDbSymbolTableRecord
100
AcDbViewportTableRecord
  2
*ACTIVE
 70
0
 10
0.0
 20
0.0
 11
1.0
 21
1.0
 12
11.0
 22
8.5
 13
0.0
 23
0.0
 14
1.0
 24
1.0
 15
0.0
 25
0.0
 16
0.0
 26
0.0
 36
1.0
 17
0.0
 27
0.0
 37
0.0
 40
17.0
 41
1.2941176471
 42
50.0
 43
0.0
 44
0.0
 50
0.0
 51
0.0
 71
0
 72
100
 73
1
 74
1
 75
0
 76
0
 77
0
 78
0
  0
ENDTAB
  0
TABLE
  2
LTYPE
  5
5
100
AcDbSymbolTable
 70
6
  0
LTYPE
  5
14
100
AcDbSymbolTableRecord
100
AcDbLinetypeTableRecord
  2
BYBLOCK
 70
0
  3

 72
65
 73
0
 40
0.0
  0
LTYPE
  5
15
100
AcDbSymbolTableRecord
100
AcDbLinetypeTableRecord
  2
BYLAYER
 70
0
  3

 72
65
 73
0
 40
0.0
  0
LTYPE
  5
16
100
AcDbSymbolTableRecord
100
AcDbLinetypeTableRecord
  2
CONTINUOUS
 70
64
  3
Solid line
 72
65
 73
0
 40
0.0
  0
LTYPE
  5
1F5
100
AcDbSymbolTableRecord
100
AcDbLinetypeTableRecord
  2
CENTER
 70
64
  3
____ _ ____ _ ____ _ ____ _ ____ _ ____ _ ____
 72
65
 73
4
 40
0.6
 49
0.375
 74
0
 49
-0.075
 74
0
 49
0.075
 74
0
 49
-0.075
 74
0
  0
LTYPE
  5
1F6
100
AcDbSymbolTableRecord
100
AcDbLinetypeTableRecord
  2
HIDDEN
 70
64
  3
- - - - - - - - - - - - - - - - - - - -
 72
65
 73
2
 40
0.2
 49
0.1
 74
0
 49
-0.1
 74
0
  0
LTYPE
  5
1F7
100
AcDbSymbolTableRecord
100
AcDbLinetypeTableRecord
  2
PHANTOM
 70
64
  3
_____ _ _ _____ _ _ _____ _ _ _____
 72
65
 73
6
 40
0.8
 49
0.45
 74
0
 49
-0.05
 74
0
 49
0.1
 74
0
 49
-0.05
 74
0
 49
0.1
 74
0
 49
-0.05
 74
0
  0
LTYPE
  5
1F8
100
AcDbSymbolTableRecord
100
AcDbLinetypeTableRecord
  2
DOT
 70
64
  3
. . . . . . . . . . . . . . . . . . . .
 72
65
 73
2
 40
0.2
 49
0.1
 74
0
 49
-0.1
 74
0
  0
LTYPE
  5
1F9
100
AcDbSymbolTableRecord
100
AcDbLinetypeTableRecord
  2
DASHED
 70
64
  3
- - - - - - - - - - - - - - - - - - - -
 72
65
 73
2
 40
0.2
 49
0.1
 74
0
 49
-0.1
 74
0
  0
ENDTAB
  0
TABLE
  2
LAYER
  5
2
100
AcDbSymbolTable
 70
36
  0
LAYER
  5
10
100
AcDbSymbolTableRecord
100
AcDbLayerTableRecord
  2
0
 70
0
 62
7
  6
CONTINUOUS
370
-3
390
F
  0
LAYER
  5
1FA
100
AcDbSymbolTableRecord
100
AcDbLayerTableRecord
  2
DEFAULT_1
 70
0
 62
7
  6
CENTER
370
-3
390
F
  0
LAYER
  5
1FB
100
AcDbSymbolTableRecord
100
AcDbLayerTableRecord
  2
DEFAULT_2
 70
0
 62
8
  6
HIDDEN
370
-3
390
F
  0
LAYER
  5
1FC
100
AcDbSymbolTableRecord
100
AcDbLayerTableRecord
  2
DEFAULT_3
 70
0
 62
7
  6
PHANTOM
370
-3
390
F
  0
LAYER
  5
1FD
100
AcDbSymbolTableRecord
100
AcDbLayerTableRecord
  2
01___PRT_ALL_DTM_PLN
 70
0
 62
7
  6
CONTINUOUS
370
-3
390
F
  0
LAYER
  5
1FE
100
AcDbSymbolTableRecord
100
AcDbLayerTableRecord
  2
01___PRT_DEF_DTM_PLN
 70
0
 62
7
  6
CONTINUOUS
370
-3
390
F
  0
LAYER
  5
1FF
100
AcDbSymbolTableRecord
100
AcDbLayerTableRecord
  2
02___PRT_ALL_AXES
 70
0
 62
7
  6
CONTINUOUS
370
-3
390
F
  0
LAYER
  5
200
100
AcDbSymbolTableRecord
100
AcDbLayerTableRecord
  2
03___PRT_ALL_CURVES
 70
0
 62
7
  6
CONTINUOUS
370
-3
390
F
  0
LAYER
  5
201
100
AcDbSymbolTableRecord
100
AcDbLayerTableRecord
  2
04___PRT_ALL_DTM_PNT
 70
0
 62
7
  6
CONTINUOUS
370
-3
390
F
  0
LAYER
  5
202
100
AcDbSymbolTableRecord
100
AcDbLayerTableRecord
  2
05___PRT_ALL_DTM_CSYS
 70
0
 62
7
  6
CONTINUOUS
370
-3
390
F
  0
LAYER
  5
203
100
AcDbSymbolTableRecord
100
AcDbLayerTableRecord
  2
05___PRT_DEF_DTM_CSYS
 70
0
 62
7
  6
CONTINUOUS
370
-3
390
F
  0
LAYER
  5
204
100
AcDbSymbolTableRecord
100
AcDbLayerTableRecord
  2
06___PRT_ALL_SURFS
 70
0
 62
7
  6
CONTINUOUS
370
-3
390
F
  0
LAYER
  5
205
100
AcDbSymbolTableRecord
100
AcDbLayerTableRecord
  2
DATUM_PLANES
 70
0
 62
7
  6
CONTINUOUS
370
-3
390
F
  0
LAYER
  5
206
100
AcDbSymbolTableRecord
100
AcDbLayerTableRecord
  2
PORT_AREAS
 70
0
 62
7
  6
CONTINUOUS
370
-3
390
F
  0
LAYER
  5
207
100
AcDbSymbolTableRecord
100
AcDbLayerTableRecord
  2
SUNNBOMCOSMETIC
 70
0
 62
7
  6
CONTINUOUS
370
-3
390
F
  0
LAYER
  5
208
100
AcDbSymbolTableRecord
100
AcDbLayerTableRecord
  2
SUNNBOMSTAMPING
 70
0
 62
7
  6
CONTINUOUS
370
-3
390
F
  0
LAYER
  5
209
100
AcDbSymbolTableRecord
100
AcDbLayerTableRecord
  2
THREADS
 70
0
 62
7
  6
CONTINUOUS
370
-3
390
F
  0
ENDTAB
  0
TABLE
  2
STYLE
  5
3
100
AcDbSymbolTable
 70
1
  0
STYLE
  5
11
100
AcDbSymbolTableRecord
100
AcDbTextStyleTableRecord
  2
STANDARD
 70
0
 40
0.0
 41
0.8
 50
0.0
 71
0
 42
0.2
  3
txt
  4

  0
STYLE
  5
20A
100
AcDbSymbolTableRecord
100
AcDbTextStyleTableRecord
  2
TEXTSTYLE_1
 70
0
 40
0.0
 41
0.8
 50
0.0
 71
0
 42
0.2
  3
gdt
  4

  0
ENDTAB
  0
TABLE
  2
VIEW
  5
6
100
AcDbSymbolTable
 70
0
  0
ENDTAB
  0
TABLE
  2
UCS
  5
7
100
AcDbSymbolTable
 70
0
  0
ENDTAB
  0
TABLE
  2
APPID
  5
9
100
AcDbSymbolTable
 70
1
  0
APPID
  5
20B
100
AcDbSymbolTableRecord
100
AcDbRegAppTableRecord
  2
ACAD
 70
0
  0
ENDTAB
  0
TABLE
  2
BLOCK_RECORD
  5
1
100
AcDbSymbolTable
 70
0
  0
BLOCK_RECORD
  5
20C
100
AcDbSymbolTableRecord
100
AcDbBlockTableRecord
  2
*Model_Space
  0
BLOCK_RECORD
  5
20D
100
AcDbSymbolTableRecord
100
AcDbBlockTableRecord
  2
*Paper_Space
  0
BLOCK_RECORD
  5
20E
100
AcDbSymbolTableRecord
100
AcDbBlockTableRecord
  2
SUN_FIRST_THIRD_ANGLE_BL0
  0
BLOCK_RECORD
  5
20F
100
AcDbSymbolTableRecord
100
AcDbBlockTableRecord
  2
*T1
  0
BLOCK_RECORD
  5
210
100
AcDbSymbolTableRecord
100
AcDbBlockTableRecord
  2
*T2
  0
BLOCK_RECORD
  5
211
100
AcDbSymbolTableRecord
100
AcDbBlockTableRecord
  2
*T3
  0
ENDTAB
  0
TABLE
  2
DIMSTYLE
  5
A
100
AcDbSymbolTable
 70
1
100
AcDbDimStyleTable
 71
0
  0
DIMSTYLE
105
212
100
AcDbSymbolTableRecord
100
AcDbDimStyleTableRecord
  2
STANDARD
 70
0
  3

  4

 40
1.0
 41
0.1875
 42
0.0625
 43
0.38
 44
0.125
 45
0.0
 46
0.0
 47
0.001
 48
0.001
140
0.1
141
0.09
142
0.0
143
25.4
144
1.0
145
0.0
146
1.0
147
0.09
 71
0.0
 72
0.0
 73
1
 74
1
 75
0
 76
0
 77
0
 78
4
170
0
171
2
172
0
173
0
174
0
175
0
176
0
177
0
178
0
270
2
271
3
272
3
273
2
274
2
275
0
280
0
281
0
282
0
283
1
284
4
285
0
286
0
287
3
288
0
340
11
278
46
  0
ENDTAB
  0
ENDSEC
  0
SECTION
  2
BLOCKS
  0
BLOCK
  5
20
100
AcDbEntity
  8
0
100
AcDbBlockBegin
  2
*Model_Space
 70
0
 10
0.0
 20
0.0
 30
0.0
  3
*Model_Space
  1

  0
ENDBLK
  5
21
100
AcDbEntity
  8
0
100
AcDbBlockEnd
  0
BLOCK
  5
1C
100
AcDbEntity
  8
0
100
AcDbBlockBegin
  2
*Paper_Space
 70
0
 10
0.0
 20
0.0
 30
0.0
  3
*Paper_Space
  1

  0
ENDBLK
  5
1D
100
AcDbEntity
  8
0
100
AcDbBlockEnd
  0
BLOCK
  5
213
100
AcDbEntity
  8
0
100
AcDbBlockBegin
 62
2
  6
CONTINUOUS
  2
SUN_FIRST_THIRD_ANGLE_BL0
 70
64
 10
20.4816717061
 20
1.2289683772
  3
SUN_FIRST_THIRD_ANGLE_BL0
  1

  0
TEXT
  5
214
100
AcDbEntity
  8
0
100
AcDbText
 62
2
  6
CONTINUOUS
 10
19.4750896608
 20
1.4136269581
  7
STANDARD
 40
0.08
  1
FIRST ANGLE
 41
0.8
 72
0
100
AcDbText
  0
TEXT
  5
215
100
AcDbEntity
  8
0
100
AcDbText
 62
2
  6
CONTINUOUS
 10
20.7842537513
 20
1.4047600029
  7
STANDARD
 40
0.08
  1
THIRD ANGLE
 41
0.8
 72
0
100
AcDbText
  0
LINE
  5
216
100
AcDbEntity
  8
0
100
AcDbLine
 62
7
  6
CONTINUOUS
 10
19.4767170086
 20
1.1727031207
 11
19.6334271527
 21
1.1717972817
  0
LINE
  5
217
100
AcDbEntity
  8
0
100
AcDbLine
 62
7
  6
CONTINUOUS
 10
19.6596964832
 20
1.1717972817
 11
19.6950230232
 21
1.171593082
  0
LINE
  5
218
100
AcDbEntity
  8
0
100
AcDbLine
 62
7
  6
CONTINUOUS
 10
19.7194818561
 20
1.1708914427
 11
19.8852396156
 21
1.1699333054
  0
LINE
  5
219
100
AcDbEntity
  8
0
100
AcDbLine
 62
7
  6
CONTINUOUS
 10
19.4758111696
 20
1.2723454088
 11
19.88525039
 21
1.3511534004
  0
LINE
  5
21A
100
AcDbEntity
  8
0
100
AcDbLine
 62
7
  6
CONTINUOUS
 10
19.88525039
 20
1.3511534004
 11
19.8831348489
 21
0.9851647912
  0
LINE
  5
21B
100
AcDbEntity
  8
0
100
AcDbLine
 62
7
  6
CONTINUOUS
 10
19.8831348489
 20
0.9851647912
 11
19.4767170086
 21
1.0658141206
  0
LINE
  5
21C
100
AcDbEntity
  8
0
100
AcDbLine
 62
7
  6
CONTINUOUS
 10
19.4767170086
 20
1.0658141206
 11
19.4779056764
 21
1.2714536432
  0
CIRCLE
  5
21D
100
AcDbEntity
  8
0
100
AcDbCircle
 62
7
  6
CONTINUOUS
 10
20.2068232291
 20
1.1717972817
 40
0.175742101
  0
CIRCLE
  5
21E
100
AcDbEntity
  8
0
100
AcDbCircle
 62
7
  6
CONTINUOUS
 10
20.2068232291
 20
1.1717972817
 40
0.1005522074
  0
LINE
  5
21F
100
AcDbEntity
  8
0
100
AcDbLine
 62
7
  6
CONTINUOUS
 10
20.2077290681
 20
1.3756110529
 11
20.2071171714
 21
1.2379342989
  0
LINE
  5
220
100
AcDbEntity
  8
0
100
AcDbLine
 62
7
  6
CONTINUOUS
 10
20.2077290681
 20
1.2016899681
 11
20.2074674401
 21
1.1428236749
  0
LINE
  5
221
100
AcDbEntity
  8
0
100
AcDbLine
 62
7
  6
CONTINUOUS
 10
20.208634907
 20
1.101141841
 11
20.2080230104
 21
0.963465087
  0
LINE
  5
222
100
AcDbEntity
  8
0
100
AcDbLine
 62
7
  6
CONTINUOUS
 10
20.0066328138
 20
1.1745147986
 11
20.1443095678
 21
1.1739029019
  0
LINE
  5
223
100
AcDbEntity
  8
0
100
AcDbLine
 62
7
  6
CONTINUOUS
 10
20.1832714155
 20
1.1727031207
 11
20.238153505
 21
1.172335442
  0
LINE
  5
224
100
AcDbEntity
  8
0
100
AcDbLine
 62
7
  6
CONTINUOUS
 10
20.2756669918
 20
1.1717972817
 11
20.407916871
 21
1.1712095044
  0
CIRCLE
  5
225
100
AcDbEntity
  8
0
100
AcDbCircle
 62
7
  6
CONTINUOUS
 10
20.7509457401
 20
1.1693297793
 40
0.1722024983
  0
CIRCLE
  5
226
100
AcDbEntity
  8
0
100
AcDbCircle
 62
7
  6
CONTINUOUS
 10
20.7509457401
 20
1.1693297793
 40
0.0985164967
  0
LINE
  5
227
100
AcDbEntity
  8
0
100
AcDbLine
 62
7
  6
CONTINUOUS
 10
20.7169767782
 20
1.170462078
 11
20.7825395137
 21
1.1682766535
  0
LINE
  5
228
100
AcDbEntity
  8
0
100
AcDbLine
 62
7
  6
CONTINUOUS
 10
20.8177513651
 20
1.1693297793
 11
20.947965719
 21
1.1693297793
  0
LINE
  5
229
100
AcDbEntity
  8
0
100
AcDbLine
 62
7
  6
CONTINUOUS
 10
20.6875370113
 20
1.170462078
 11
20.5573226574
 21
1.170462078
  0
LINE
  5
22A
100
AcDbEntity
  8
0
100
AcDbLine
 62
7
  6
CONTINUOUS
 10
20.7486811426
 20
1.1987695462
 11
20.7486811426
 21
1.1432869085
  0
LINE
  5
22B
100
AcDbEntity
  8
0
100
AcDbLine
 62
7
  6
CONTINUOUS
 10
20.7498134414
 20
1.1059210505
 11
20.7498134414
 21
0.9757066966
  0
LINE
  5
22C
100
AcDbEntity
  8
0
100
AcDbLine
 62
7
  6
CONTINUOUS
 10
20.7486811426
 20
1.2338708068
 11
20.7486811426
 21
1.3640851607
  0
LINE
  5
22D
100
AcDbEntity
  8
0
100
AcDbLine
 62
7
  6
CONTINUOUS
 10
21.0702539817
 20
1.2701043662
 11
21.4790138229
 21
1.3448360823
  0
LINE
  5
22E
100
AcDbEntity
  8
0
100
AcDbLine
 62
7
  6
CONTINUOUS
 10
21.4790138229
 20
1.3448360823
 11
21.4790138229
 21
0.9779712941
  0
LINE
  5
22F
100
AcDbEntity
  8
0
100
AcDbLine
 62
7
  6
CONTINUOUS
 10
21.4790138229
 20
0.9779712941
 11
21.069121683
 21
1.0617614
  0
LINE
  5
230
100
AcDbEntity
  8
0
100
AcDbLine
 62
7
  6
CONTINUOUS
 10
21.0702539817
 20
1.2701043662
 11
21.069121683
 21
1.0617614
  0
LINE
  5
231
100
AcDbEntity
  8
0
100
AcDbLine
 62
7
  6
CONTINUOUS
 10
21.4790138229
 20
1.1693297793
 11
21.3159628059
 21
1.1693297793
  0
LINE
  5
232
100
AcDbEntity
  8
0
100
AcDbLine
 62
7
  6
CONTINUOUS
 10
21.2876553377
 20
1.1693297793
 11
21.2502894796
 21
1.1693297793
  0
LINE
  5
233
100
AcDbEntity
  8
0
100
AcDbLine
 62
7
  6
CONTINUOUS
 10
21.2208497126
 20
1.1659328831
 11
21.0713862804
 21
1.1659328831
  0
LINE
  5
234
100
AcDbEntity
  8
0
100
AcDbLine
 62
7
  6
CONTINUOUS
 10
20.4796138713
 20
1.5284908897
 11
20.4766766948
 21
0.9294458646
  0
ENDBLK
  5
235
100
AcDbEntity
  8
0
  6
BYBLOCK
 62
0
100
AcDbBlockEnd
  0
BLOCK
  5
236
100
AcDbEntity
  8
0
100
AcDbBlockBegin
  2
*T1
 70
1
 10
0.0
 20
0.0
  3
*T1
  1

  0
LINE
  5
237
100
AcDbEntity
  8
0
100
AcDbLine
 62
2
  6
CONTINUOUS
 10
9.275
 20
0.0
 11
-0.0
 21
0.0
  0
LINE
  5
238
100
AcDbEntity
  8
0
100
AcDbLine
 62
2
  6
CONTINUOUS
 10
9.275
 20
0.0
 11
9.275
 21
1.25
  0
LINE
  5
239
100
AcDbEntity
  8
0
100
AcDbLine
 62
2
  6
CONTINUOUS
 10
9.275
 20
0.625
 11
-0.0
 21
0.625
  0
LINE
  5
23A
100
AcDbEntity
  8
0
100
AcDbLine
 62
2
  6
CONTINUOUS
 10
9.275
 20
1.25
 11
-0.0
 21
1.25
  0
LINE
  5
23B
100
AcDbEntity
  8
0
100
AcDbLine
 62
2
  6
CONTINUOUS
 10
6.8
 20
0.0
 11
6.8
 21
1.25
  0
LINE
  5
23C
100
AcDbEntity
  8
0
100
AcDbLine
 62
2
  6
CONTINUOUS
 10
6.4
 20
0.0
 11
6.4
 21
0.625
  0
LINE
  5
23D
100
AcDbEntity
  8
0
100
AcDbLine
 62
2
  6
CONTINUOUS
 10
5.9
 20
0.0
 11
5.9
 21
0.625
  0
LINE
  5
23E
100
AcDbEntity
  8
0
100
AcDbLine
 62
2
  6
CONTINUOUS
 10
5.2
 20
0.0
 11
5.2
 21
0.625
  0
LINE
  5
23F
100
AcDbEntity
  8
0
100
AcDbLine
 62
2
  6
CONTINUOUS
 10
4.1
 20
0.0
 11
4.1
 21
1.25
  0
LINE
  5
240
100
AcDbEntity
  8
0
100
AcDbLine
 62
2
  6
CONTINUOUS
 10
-0.0
 20
0.0
 11
-0.0
 21
1.25
  0
MTEXT
  5
241
100
AcDbEntity
  8
0
100
AcDbMText
 62
2
  6
CONTINUOUS
  7
STANDARD
 71
2
 72
1
 10
6.6
 20
0.325
 30
0.0
 11
1.0
 21
0.0
 31
0.0
 44
0.9
  1
2
 40
0.125
 41
0.2
  0
MTEXT
  5
242
100
AcDbEntity
  8
0
100
AcDbMText
 62
2
  6
CONTINUOUS
  7
STANDARD
 71
2
 72
1
 10
6.15
 20
0.325
 30
0.0
 11
1.0
 21
0.0
 31
0.0
 44
0.9
  1
C
 40
0.125
 41
0.2
  0
MTEXT
  5
243
100
AcDbEntity
  8
0
100
AcDbMText
 62
2
  6
CONTINUOUS
  7
STANDARD
 71
2
 72
1
 10
5.55
 20
0.325
 30
0.0
 11
1.0
 21
0.0
 31
0.0
 44
0.9
  1
1.000
 40
0.125
 41
1.0
  0
MTEXT
  5
244
100
AcDbEntity
  8
0
100
AcDbMText
 62
2
  6
CONTINUOUS
  7
STANDARD
 71
2
 72
1
 10
4.65
 20
0.325
 30
0.0
 11
1.0
 21
0.0
 31
0.0
 44
0.9
  1
Feb-17-22
 40
0.125
 41
1.8
  0
MTEXT
  5
245
100
AcDbEntity
  8
0
100
AcDbMText
 62
2
  6
CONTINUOUS
  7
STANDARD
 71
2
 72
1
 10
2.05
 20
0.4625
 30
0.0
 11
1.0
 21
0.0
 31
0.0
 44
0.9
  1
T-2A Line mount\P2 cylinder sequence, with reverse checks
 40
0.125
 41
8.0
  0
MTEXT
  5
246
100
AcDbEntity
  8
0
100
AcDbMText
 62
2
  6
CONTINUOUS
  7
STANDARD
 71
1
 72
1
 10
6.45
 20
0.5625
 30
0.0
 11
1.0
 21
0.0
 31
0.0
 44
0.9
  1
SHEET
 40
0.06
 41
0.48
  0
MTEXT
  5
247
100
AcDbEntity
  8
0
100
AcDbMText
 62
2
  6
CONTINUOUS
  7
STANDARD
 71
1
 72
1
 10
5.95
 20
0.5625
 30
0.0
 11
1.0
 21
0.0
 31
0.0
 44
0.9
  1
DWG SIZE
 40
0.06
 41
0.768
  0
MTEXT
  5
248
100
AcDbEntity
  8
0
100
AcDbMText
 62
2
  6
CONTINUOUS
  7
STANDARD
 71
1
 72
1
 10
5.25
 20
0.5625
 30
0.0
 11
1.0
 21
0.0
 31
0.0
 44
0.9
  1
SCALE
 40
0.06
 41
0.48
  0
MTEXT
  5
249
100
AcDbEntity
  8
0
100
AcDbMText
 62
2
  6
CONTINUOUS
  7
STANDARD
 71
1
 72
1
 10
4.15
 20
0.5625
 30
0.0
 11
1.0
 21
0.0
 31
0.0
 44
0.9
  1
DATE
 40
0.06
 41
0.384
  0
MTEXT
  5
24A
100
AcDbEntity
  8
0
100
AcDbMText
 62
2
  6
CONTINUOUS
  7
STANDARD
 71
1
 72
1
 10
0.05
 20
0.5625
 30
0.0
 11
1.0
 21
0.0
 31
0.0
 44
0.9
  1
DESCRIPTION
 40
0.06
 41
1.056
  0
MTEXT
  5
24B
100
AcDbEntity
  8
0
100
AcDbMText
 62
2
  6
CONTINUOUS
  7
STANDARD
 71
2
 72
1
 10
5.45
 20
1.0375
 30
0.0
 11
1.0
 21
0.0
 31
0.0
 44
0.9
  1
ALL DIMENSIONS IN INCH\PVIEWS ARE THIRD ANGLE
 40
0.12
 41
4.224
  0
MTEXT
  5
24C
100
AcDbEntity
  8
0
100
AcDbMText
 62
2
  6
CONTINUOUS
  7
STANDARD
 71
2
 72
1
 10
2.05
 20
0.95
 30
0.0
 11
1.0
 21
0.0
 31
0.0
 44
0.9
  1
B8D
 40
0.125
 41
0.6
  0
MTEXT
  5
24D
100
AcDbEntity
  8
0
100
AcDbMText
 62
2
  6
CONTINUOUS
  7
STANDARD
 71
1
 72
1
 10
0.05
 20
1.1875
 30
0.0
 11
1.0
 21
0.0
 31
0.0
 44
0.9
  1
MODEL
 40
0.06
 41
0.48
  0
ENDBLK
  5
24E
100
AcDbEntity
  8
0
  6
BYBLOCK
 62
0
100
AcDbBlockEnd
  0
BLOCK
  5
24F
100
AcDbEntity
  8
0
100
AcDbBlockBegin
  2
*T2
 70
1
 10
0.0
 20
0.0
  3
*T2
  1

  0
LINE
  5
250
100
AcDbEntity
  8
0
100
AcDbLine
 62
2
  6
CONTINUOUS
 10
0.0
 20
0.0
 11
9.055
 21
0.0
  0
LINE
  5
251
100
AcDbEntity
  8
0
100
AcDbLine
 62
2
  6
CONTINUOUS
 10
0.0
 20
0.0
 11
0.0
 21
-2.594
  0
LINE
  5
252
100
AcDbEntity
  8
0
100
AcDbLine
 62
2
  6
CONTINUOUS
 10
0.0
 20
-0.344
 11
9.055
 21
-0.344
  0
LINE
  5
253
100
AcDbEntity
  8
0
100
AcDbLine
 62
2
  6
CONTINUOUS
 10
0.0
 20
-0.594
 11
9.055
 21
-0.594
  0
LINE
  5
254
100
AcDbEntity
  8
0
100
AcDbLine
 62
2
  6
CONTINUOUS
 10
0.0
 20
-0.844
 11
9.055
 21
-0.844
  0
LINE
  5
255
100
AcDbEntity
  8
0
100
AcDbLine
 62
2
  6
CONTINUOUS
 10
0.0
 20
-1.094
 11
9.055
 21
-1.094
  0
LINE
  5
256
100
AcDbEntity
  8
0
100
AcDbLine
 62
2
  6
CONTINUOUS
 10
0.0
 20
-1.344
 11
9.055
 21
-1.344
  0
LINE
  5
257
100
AcDbEntity
  8
0
100
AcDbLine
 62
2
  6
CONTINUOUS
 10
0.0
 20
-1.594
 11
9.055
 21
-1.594
  0
LINE
  5
258
100
AcDbEntity
  8
0
100
AcDbLine
 62
2
  6
CONTINUOUS
 10
0.0
 20
-1.844
 11
9.055
 21
-1.844
  0
LINE
  5
259
100
AcDbEntity
  8
0
100
AcDbLine
 62
2
  6
CONTINUOUS
 10
0.0
 20
-2.094
 11
9.055
 21
-2.094
  0
LINE
  5
25A
100
AcDbEntity
  8
0
100
AcDbLine
 62
2
  6
CONTINUOUS
 10
0.0
 20
-2.344
 11
9.055
 21
-2.344
  0
LINE
  5
25B
100
AcDbEntity
  8
0
100
AcDbLine
 62
2
  6
CONTINUOUS
 10
0.0
 20
-2.594
 11
9.055
 21
-2.594
  0
LINE
  5
25C
100
AcDbEntity
  8
0
100
AcDbLine
 62
2
  6
CONTINUOUS
 10
3.055
 20
0.0
 11
3.055
 21
-2.594
  0
LINE
  5
25D
100
AcDbEntity
  8
0
100
AcDbLine
 62
2
  6
CONTINUOUS
 10
9.055
 20
0.0
 11
9.055
 21
-2.594
  0
MTEXT
  5
25E
100
AcDbEntity
  8
0
100
AcDbMText
 62
2
  6
CONTINUOUS
  7
STANDARD
 71
2
 72
1
 10
1.5275
 20
-0.0995
 30
0.0
 11
1.0
 21
0.0
 31
0.0
 44
0.9
  1
Technical Data
 40
0.145
 41
3.248
  0
MTEXT
  5
25F
100
AcDbEntity
  8
0
100
AcDbMText
 62
2
  6
CONTINUOUS
  7
STANDARD
 71
2
 72
1
 10
4.555
 20
-0.0995
 30
0.0
 11
1.0
 21
0.0
 31
0.0
 44
0.9
  1
U.S. Units
 40
0.145
 41
2.32
  0
MTEXT
  5
260
100
AcDbEntity
  8
0
100
AcDbMText
 62
2
  6
CONTINUOUS
  7
STANDARD
 71
2
 72
1
 10
7.555
 20
-0.0995
 30
0.0
 11
1.0
 21
0.0
 31
0.0
 44
0.9
  1
Metric Units
 40
0.145
 41
2.784
  0
MTEXT
  5
261
100
AcDbEntity
  8
0
100
AcDbMText
 62
2
  6
CONTINUOUS
  7
STANDARD
 71
2
 72
1
 10
1.5275
 20
-0.4065
 30
0.0
 11
1.0
 21
0.0
 31
0.0
 44
0.9
  1
Cavity
 40
0.125
 41
1.2
  0
MTEXT
  5
262
100
AcDbEntity
  8
0
100
AcDbMText
 62
2
  6
CONTINUOUS
  7
STANDARD
 71
2
 72
1
 10
6.055
 20
-0.4065
 30
0.0
 11
1.0
 21
0.0
 31
0.0
 44
0.9
  1
T-2A
 40
0.125
 41
0.8
  0
MTEXT
  5
263
100
AcDbEntity
  8
0
100
AcDbMText
 62
2
  6
CONTINUOUS
  7
STANDARD
 71
2
 72
1
 10
1.5275
 20
-0.6565
 30
0.0
 11
1.0
 21
0.0
 31
0.0
 44
0.9
  1
Body Features
 40
0.125
 41
2.6
  0
MTEXT
  5
264
100
AcDbEntity
  8
0
100
AcDbMText
 62
2
  6
CONTINUOUS
  7
STANDARD
 71
2
 72
1
 10
6.055
 20
-0.6565
 30
0.0
 11
1.0
 21
0.0
 31
0.0
 44
0.9
  1
2 cylinder sequence, with reverse checks
 40
0.125
 41
8.0
  0
MTEXT
  5
265
100
AcDbEntity
  8
0
100
AcDbMText
 62
2
  6
CONTINUOUS
  7
STANDARD
 71
2
 72
1
 10
1.5275
 20
-0.9065
 30
0.0
 11
1.0
 21
0.0
 31
0.0
 44
0.9
  1
Body Type
 40
0.125
 41
1.8
  0
MTEXT
  5
266
100
AcDbEntity
  8
0
100
AcDbMText
 62
2
  6
CONTINUOUS
  7
STANDARD
 71
2
 72
1
 10
6.055
 20
-0.9065
 30
0.0
 11
1.0
 21
0.0
 31
0.0
 44
0.9
  1
Line mount
 40
0.125
 41
2.0
  0
MTEXT
  5
267
100
AcDbEntity
  8
0
100
AcDbMText
 62
2
  6
CONTINUOUS
  7
STANDARD
 71
2
 72
1
 10
1.5275
 20
-1.1565
 30
0.0
 11
1.0
 21
0.0
 31
0.0
 44
0.9
  1
Interface
 40
0.125
 41
1.8
  0
MTEXT
  5
268
100
AcDbEntity
  8
0
100
AcDbMText
 62
2
  6
CONTINUOUS
  7
STANDARD
 71
2
 72
1
 10
6.055
 20
-1.1565
 30
0.0
 11
1.0
 21
0.0
 31
0.0
 44
0.9
  1
None
 40
0.125
 41
0.8
  0
MTEXT
  5
269
100
AcDbEntity
  8
0
100
AcDbMText
 62
2
  6
CONTINUOUS
  7
STANDARD
 71
2
 72
1
 10
1.5275
 20
-1.4065
 30
0.0
 11
1.0
 21
0.0
 31
0.0
 44
0.9
  1
Open Cavity Quantity
 40
0.125
 41
4.0
  0
MTEXT
  5
26A
100
AcDbEntity
  8
0
100
AcDbMText
 62
2
  6
CONTINUOUS
  7
STANDARD
 71
2
 72
1
 10
6.055
 20
-1.4065
 30
0.0
 11
1.0
 21
0.0
 31
0.0
 44
0.9
  1
2
 40
0.125
 41
0.2
  0
MTEXT
  5
26B
100
AcDbEntity
  8
0
100
AcDbMText
 62
2
  6
CONTINUOUS
  7
STANDARD
 71
2
 72
1
 10
1.5275
 20
-1.6565
 30
0.0
 11
1.0
 21
0.0
 31
0.0
 44
0.9
  1
Weight
 40
0.125
 41
1.2
  0
MTEXT
  5
26C
100
AcDbEntity
  8
0
100
AcDbMText
 62
2
  6
CONTINUOUS
  7
STANDARD
 71
2
 72
1
 10
4.555
 20
-1.6565
 30
0.0
 11
1.0
 21
0.0
 31
0.0
 44
0.9
  1
3.504 lb.
 40
0.125
 41
1.8
  0
MTEXT
  5
26D
100
AcDbEntity
  8
0
100
AcDbMText
 62
2
  6
CONTINUOUS
  7
STANDARD
 71
2
 72
1
 10
7.555
 20
-1.6565
 30
0.0
 11
1.0
 21
0.0
 31
0.0
 44
0.9
  1
1,589 kg.
 40
0.125
 41
1.8
  0
MTEXT
  5
26E
100
AcDbEntity
  8
0
100
AcDbMText
 62
2
  6
CONTINUOUS
  7
STANDARD
 71
2
 72
1
 10
1.5275
 20
-1.9065
 30
0.0
 11
1.0
 21
0.0
 31
0.0
 44
0.9
  1
Mounting Hole Diameter
 40
0.125
 41
4.4
  0
MTEXT
  5
26F
100
AcDbEntity
  8
0
100
AcDbMText
 62
2
  6
CONTINUOUS
  7
STANDARD
 71
2
 72
1
 10
4.555
 20
-1.9065
 30
0.0
 11
1.0
 21
0.0
 31
0.0
 44
0.9
  1
.34 in.
 40
0.125
 41
1.4
  0
MTEXT
  5
270
100
AcDbEntity
  8
0
100
AcDbMText
 62
2
  6
CONTINUOUS
  7
STANDARD
 71
2
 72
1
 10
7.555
 20
-1.9065
 30
0.0
 11
1.0
 21
0.0
 31
0.0
 44
0.9
  1
8.6 mm
 40
0.125
 41
1.2
  0
MTEXT
  5
271
100
AcDbEntity
  8
0
100
AcDbMText
 62
2
  6
CONTINUOUS
  7
STANDARD
 71
2
 72
1
 10
1.5275
 20
-2.1565
 30
0.0
 11
1.0
 21
0.0
 31
0.0
 44
0.9
  1
Mounting Hole Depth
 40
0.125
 41
3.8
  0
MTEXT
  5
272
100
AcDbEntity
  8
0
100
AcDbMText
 62
2
  6
CONTINUOUS
  7
STANDARD
 71
2
 72
1
 10
6.055
 20
-2.1565
 30
0.0
 11
1.0
 21
0.0
 31
0.0
 44
0.9
  1
Through
 40
0.125
 41
1.4
  0
MTEXT
  5
273
100
AcDbEntity
  8
0
100
AcDbMText
 62
2
  6
CONTINUOUS
  7
STANDARD
 71
2
 72
1
 10
1.5275
 20
-2.4065
 30
0.0
 11
1.0
 21
0.0
 31
0.0
 44
0.9
  1
Mounting Hole Quantity
 40
0.125
 41
4.4
  0
MTEXT
  5
274
100
AcDbEntity
  8
0
100
AcDbMText
 62
2
  6
CONTINUOUS
  7
STANDARD
 71
2
 72
1
 10
6.055
 20
-2.4065
 30
0.0
 11
1.0
 21
0.0
 31
0.0
 44
0.9
  1
2
 40
0.125
 41
0.2
  0
ENDBLK
  5
275
100
AcDbEntity
  8
0
  6
BYBLOCK
 62
0
100
AcDbBlockEnd
  0
BLOCK
  5
276
100
AcDbEntity
  8
0
100
AcDbBlockBegin
  2
*T3
 70
1
 10
0.0
 20
0.0
  3
*T3
  1

  0
LINE
  5
277
100
AcDbEntity
  8
0
100
AcDbLine
 62
2
  6
CONTINUOUS
 10
0.0
 20
0.0
 11
4.6
 21
0.0
  0
LINE
  5
278
100
AcDbEntity
  8
0
100
AcDbLine
 62
2
  6
CONTINUOUS
 10
0.0
 20
0.0
 11
0.0
 21
-0.93775
  0
LINE
  5
279
100
AcDbEntity
  8
0
100
AcDbLine
 62
2
  6
CONTINUOUS
 10
0.0
 20
-0.34375
 11
4.6
 21
-0.34375
  0
LINE
  5
27A
100
AcDbEntity
  8
0
100
AcDbLine
 62
2
  6
CONTINUOUS
 10
0.0
 20
-0.68775
 11
4.6
 21
-0.68775
  0
LINE
  5
27B
100
AcDbEntity
  8
0
100
AcDbLine
 62
2
  6
CONTINUOUS
 10
0.0
 20
-0.93775
 11
4.6
 21
-0.93775
  0
LINE
  5
27C
100
AcDbEntity
  8
0
100
AcDbLine
 62
2
  6
CONTINUOUS
 10
1.3
 20
-0.34375
 11
1.3
 21
-0.93775
  0
LINE
  5
27D
100
AcDbEntity
  8
0
100
AcDbLine
 62
2
  6
CONTINUOUS
 10
3.3
 20
-0.34375
 11
3.3
 21
-0.93775
  0
LINE
  5
27E
100
AcDbEntity
  8
0
100
AcDbLine
 62
2
  6
CONTINUOUS
 10
4.6
 20
0.0
 11
4.6
 21
-0.93775
  0
MTEXT
  5
27F
100
AcDbEntity
  8
0
100
AcDbMText
 62
2
  6
CONTINUOUS
  7
STANDARD
 71
2
 72
1
 10
2.3
 20
-0.099375
 30
0.0
 11
1.0
 21
0.0
 31
0.0
 44
0.9
  1
Port Headings
 40
0.145
 41
3.016
  0
MTEXT
  5
280
100
AcDbEntity
  8
0
100
AcDbMText
 62
2
  6
CONTINUOUS
  7
STANDARD
 71
2
 72
1
 10
0.65
 20
-0.44325
 30
0.0
 11
1.0
 21
0.0
 31
0.0
 44
0.9
  1
Product
 40
0.145
 41
1.624
  0
MTEXT
  5
281
100
AcDbEntity
  8
0
100
AcDbMText
 62
2
  6
CONTINUOUS
  7
STANDARD
 71
2
 72
1
 10
2.3
 20
-0.44325
 30
0.0
 11
1.0
 21
0.0
 31
0.0
 44
0.9
  1
Port
 40
0.145
 41
0.928
  0
MTEXT
  5
282
100
AcDbEntity
  8
0
100
AcDbMText
 62
2
  6
CONTINUOUS
  7
STANDARD
 71
2
 72
1
 10
3.95
 20
-0.44325
 30
0.0
 11
1.0
 21
0.0
 31
0.0
 44
0.9
  1
Size
 40
0.145
 41
0.928
  0
MTEXT
  5
283
100
AcDbEntity
  8
0
100
AcDbMText
 62
2
  6
CONTINUOUS
  7
STANDARD
 71
2
 72
1
 10
0.65
 20
-0.75025
 30
0.0
 11
1.0
 21
0.0
 31
0.0
 44
0.9
  1
B8D
 40
0.125
 41
0.6
  0
MTEXT
  5
284
100
AcDbEntity
  8
0
100
AcDbMText
 62
2
  6
CONTINUOUS
  7
STANDARD
 71
2
 72
1
 10
2.3
 20
-0.75025
 30
0.0
 11
1.0
 21
0.0
 31
0.0
 44
0.9
  1
All Ports
 40
0.125
 41
1.8
  0
MTEXT
  5
285
100
AcDbEntity
  8
0
100
AcDbMText
 62
2
  6
CONTINUOUS
  7
STANDARD
 71
2
 72
1
 10
3.95
 20
-0.75025
 30
0.0
 11
1.0
 21
0.0
 31
0.0
 44
0.9
  1
3/4" NPTF
 40
0.125
 41
1.8
  0
ENDBLK
  5
286
100
AcDbEntity
  8
0
  6
BYBLOCK
 62
0
100
AcDbBlockEnd
  0
ENDSEC
  0
SECTION
  2
ENTITIES
  0
IMAGE
  5
287
100
AcDbEntity
  8
0
100
AcDbRasterImage
 62
7
  6
CONTINUOUS
 10
19.2297077316
 20
0.3094318264
 30
0.0
 11
0.0066666667
 21
0.0
 31
0.0
 12
0.0
 22
0.0066666667
 32
0.0
 13
369.0
 23
92.0
340
       453
 70
9
280
0
281
50
282
50
283
0
360
       44D
 71
1
 91
2
 14
-0.5
 24
-0.5
 14
368.5
 24
91.5
  0
INSERT
  5
288
100
AcDbEntity
  8
0
100
AcDbBlockReference
 62
2
  6
CONTINUOUS
  2
SUN_FIRST_THIRD_ANGLE_BL0
 10
20.4816717061
 20
1.2289683772
  0
ACAD_TABLE
  5
289
100
AcDbEntity
  8
0
 62
2
  6
CONTINUOUS
100
AcDbBlockReference
  2
*T1
 10
12.42375
 20
0.30125
 30
0.0
100
AcDbTable
342
       455
343
20F
 11
1.0
 21
0.0
 31
0.0
 90
6
 91
4
 92
6
 93
20
 94
0
 95
0
 96
0
 70
1
 41
0.0
141
0.525
141
0.1
141
0.525
141
0.1
142
4.1
142
1.1
142
0.7
142
0.5
142
0.4
142
2.475
171
1
172
0
173
0
174
0
175
1
176
1
 91
33
178
0
145
0.0
301
CELL_VALUE
 90
4
  1
T-2A Line mount\P2 cylinder sequence, with reverse checks
304
ACVALUE_END
170
2
140
0.125
171
1
172
0
173
0
174
0
175
1
176
1
 91
33
178
0
145
0.0
301
CELL_VALUE
 90
4
  1
Feb-17-22
304
ACVALUE_END
170
5
140
0.125
171
1
172
0
173
0
174
0
175
1
176
1
 91
33
178
0
145
0.0
301
CELL_VALUE
 90
4
  1
1.000
304
ACVALUE_END
170
5
140
0.125
171
1
172
0
173
0
174
0
175
1
176
1
 91
33
178
0
145
0.0
301
CELL_VALUE
 90
4
  1
C
304
ACVALUE_END
170
5
140
0.125
171
1
172
0
173
0
174
0
175
1
176
1
 91
33
178
0
145
0.0
301
CELL_VALUE
 90
4
  1
2
304
ACVALUE_END
170
5
140
0.125
171
1
172
0
173
0
174
0
175
1
176
1
 91
33
178
0
145
0.0
301
CELL_VALUE
 90
4
  1
 
304
ACVALUE_END
170
1
140
0.125
171
1
172
0
173
0
174
0
175
1
176
1
 91
33
178
0
145
0.0
301
CELL_VALUE
 90
4
  1
DESCRIPTION
304
ACVALUE_END
170
1
140
0.06
171
1
172
0
173
0
174
0
175
1
176
1
 91
33
178
0
145
0.0
301
CELL_VALUE
 90
4
  1
DATE
304
ACVALUE_END
170
1
140
0.06
171
1
172
0
173
0
174
0
175
1
176
1
 91
33
178
0
145
0.0
301
CELL_VALUE
 90
4
  1
SCALE
304
ACVALUE_END
170
1
140
0.06
171
1
172
0
173
0
174
0
175
1
176
1
 91
33
178
0
145
0.0
301
CELL_VALUE
 90
4
  1
DWG SIZE
304
ACVALUE_END
170
1
140
0.06
171
1
172
0
173
0
174
0
175
1
176
1
 91
33
178
0
145
0.0
301
CELL_VALUE
 90
4
  1
SHEET
304
ACVALUE_END
170
1
140
0.06
171
1
172
0
173
0
174
0
175
1
176
1
 91
33
178
0
145
0.0
301
CELL_VALUE
 90
4
  1
 
304
ACVALUE_END
170
1
140
0.125
171
1
172
0
173
0
174
0
175
1
176
1
 91
33
178
0
145
0.0
301
CELL_VALUE
 90
4
  1
B8D
304
ACVALUE_END
170
5
140
0.125
171
1
172
0
173
0
174
0
175
4
176
1
 91
33
178
0
145
0.0
301
CELL_VALUE
 90
4
  1
ALL DIMENSIONS IN INCH\PVIEWS ARE THIRD ANGLE
304
ACVALUE_END
170
5
140
0.12
171
1
172
0
173
1
174
0
175
1
176
1
 91
1
178
0
145
0.0
170
1
171
1
172
0
173
1
174
0
175
1
176
1
 91
1
178
0
145
0.0
170
1
171
1
172
0
173
1
174
0
175
1
176
1
 91
1
178
0
145
0.0
170
5
171
1
172
0
173
0
174
0
175
1
176
1
 91
33
178
0
145
0.0
301
CELL_VALUE
 90
4
  1
 
304
ACVALUE_END
170
1
140
0.125
171
1
172
0
173
0
174
0
175
1
176
1
 91
33
178
0
145
0.0
301
CELL_VALUE
 90
4
  1
MODEL
304
ACVALUE_END
170
1
140
0.06
171
1
172
0
173
0
174
0
175
1
176
1
 91
33
178
0
145
0.0
301
CELL_VALUE
 90
4
  1
 
304
ACVALUE_END
170
1
140
0.125
171
1
172
0
173
0
174
0
175
1
176
1
 91
33
178
0
145
0.0
301
CELL_VALUE
 90
4
  1
 
304
ACVALUE_END
170
1
140
0.125
171
1
172
0
173
0
174
0
175
1
176
1
 91
33
178
0
145
0.0
301
CELL_VALUE
 90
4
  1
 
304
ACVALUE_END
170
1
140
0.125
171
1
172
0
173
0
174
0
175
1
176
1
 91
33
178
0
145
0.0
301
CELL_VALUE
 90
4
  1
 
304
ACVALUE_END
170
1
140
0.125
171
1
172
0
173
0
174
0
175
1
176
1
 91
33
178
0
145
0.0
301
CELL_VALUE
 90
4
  1
 
304
ACVALUE_END
170
1
140
0.125
  0
ACAD_TABLE
  5
28A
100
AcDbEntity
  8
0
 62
2
  6
CONTINUOUS
100
AcDbBlockReference
  2
*T2
 10
12.4237499994
 20
16.47875
 30
0.0
100
AcDbTable
342
       454
343
210
 11
1.0
 21
0.0
 31
0.0
 90
22
 91
10
 92
3
 93
16
 94
0
 95
0
 96
0
 41
0.028
141
0.344
141
0.25
141
0.25
141
0.25
141
0.25
141
0.25
141
0.25
141
0.25
141
0.25
141
0.25
142
3.055
142
3.0
142
3.0
171
1
172
0
173
0
174
0
175
1
176
1
 91
33
178
0
145
0.0
301
CELL_VALUE
 90
4
  1
Technical Data
304
ACVALUE_END
170
5
140
0.145
171
1
172
0
173
0
174
0
175
1
176
1
 91
33
178
0
145
0.0
301
CELL_VALUE
 90
4
  1
U.S. Units
304
ACVALUE_END
170
5
140
0.145
171
1
172
0
173
0
174
0
175
1
176
1
 91
33
178
0
145
0.0
301
CELL_VALUE
 90
4
  1
Metric Units
304
ACVALUE_END
170
5
140
0.145
171
1
172
0
173
0
174
0
175
1
176
1
 91
33
178
0
145
0.0
301
CELL_VALUE
 90
4
  1
Cavity
304
ACVALUE_END
170
5
140
0.125
171
1
172
0
173
0
174
0
175
2
176
1
 91
33
178
0
145
0.0
301
CELL_VALUE
 90
4
  1
T-2A
304
ACVALUE_END
170
5
140
0.125
171
1
172
0
173
1
174
0
175
1
176
1
 91
1
178
0
145
0.0
170
1
171
1
172
0
173
0
174
0
175
1
176
1
 91
33
178
0
145
0.0
301
CELL_VALUE
 90
4
  1
Body Features
304
ACVALUE_END
170
5
140
0.125
171
1
172
0
173
0
174
0
175
2
176
1
 91
33
178
0
145
0.0
301
CELL_VALUE
 90
4
  1
2 cylinder sequence, with reverse checks
304
ACVALUE_END
170
5
140
0.125
171
1
172
0
173
1
174
0
175
1
176
1
 91
1
178
0
145
0.0
170
1
171
1
172
0
173
0
174
0
175
1
176
1
 91
33
178
0
145
0.0
301
CELL_VALUE
 90
4
  1
Body Type
304
ACVALUE_END
170
5
140
0.125
171
1
172
0
173
0
174
0
175
2
176
1
 91
33
178
0
145
0.0
301
CELL_VALUE
 90
4
  1
Line mount
304
ACVALUE_END
170
5
140
0.125
171
1
172
0
173
1
174
0
175
1
176
1
 91
1
178
0
145
0.0
170
1
171
1
172
0
173
0
174
0
175
1
176
1
 91
33
178
0
145
0.0
301
CELL_VALUE
 90
4
  1
Interface
304
ACVALUE_END
170
5
140
0.125
171
1
172
0
173
0
174
0
175
2
176
1
 91
33
178
0
145
0.0
301
CELL_VALUE
 90
4
  1
None
304
ACVALUE_END
170
5
140
0.125
171
1
172
0
173
1
174
0
175
1
176
1
 91
1
178
0
145
0.0
170
1
171
1
172
0
173
0
174
0
175
1
176
1
 91
33
178
0
145
0.0
301
CELL_VALUE
 90
4
  1
Open Cavity Quantity
304
ACVALUE_END
170
5
140
0.125
171
1
172
0
173
0
174
0
175
2
176
1
 91
33
178
0
145
0.0
301
CELL_VALUE
 90
4
  1
2
304
ACVALUE_END
170
5
140
0.125
171
1
172
0
173
1
174
0
175
1
176
1
 91
1
178
0
145
0.0
170
1
171
1
172
0
173
0
174
0
175
1
176
1
 91
33
178
0
145
0.0
301
CELL_VALUE
 90
4
  1
Weight
304
ACVALUE_END
170
5
140
0.125
171
1
172
0
173
0
174
0
175
1
176
1
 91
33
178
0
145
0.0
301
CELL_VALUE
 90
4
  1
3.504 lb.
304
ACVALUE_END
170
5
140
0.125
171
1
172
0
173
0
174
0
175
1
176
1
 91
33
178
0
145
0.0
301
CELL_VALUE
 90
4
  1
1,589 kg.
304
ACVALUE_END
170
5
140
0.125
171
1
172
0
173
0
174
0
175
1
176
1
 91
33
178
0
145
0.0
301
CELL_VALUE
 90
4
  1
Mounting Hole Diameter
304
ACVALUE_END
170
5
140
0.125
171
1
172
0
173
0
174
0
175
1
176
1
 91
33
178
0
145
0.0
301
CELL_VALUE
 90
4
  1
.34 in.
304
ACVALUE_END
170
5
140
0.125
171
1
172
0
173
0
174
0
175
1
176
1
 91
33
178
0
145
0.0
301
CELL_VALUE
 90
4
  1
8.6 mm
304
ACVALUE_END
170
5
140
0.125
171
1
172
0
173
0
174
0
175
1
176
1
 91
33
178
0
145
0.0
301
CELL_VALUE
 90
4
  1
Mounting Hole Depth
304
ACVALUE_END
170
5
140
0.125
171
1
172
0
173
0
174
0
175
2
176
1
 91
33
178
0
145
0.0
301
CELL_VALUE
 90
4
  1
Through
304
ACVALUE_END
170
5
140
0.125
171
1
172
0
173
1
174
0
175
1
176
1
 91
1
178
0
145
0.0
170
1
171
1
172
0
173
0
174
0
175
1
176
1
 91
33
178
0
145
0.0
301
CELL_VALUE
 90
4
  1
Mounting Hole Quantity
304
ACVALUE_END
170
5
140
0.125
171
1
172
0
173
0
174
0
175
2
176
1
 91
33
178
0
145
0.0
301
CELL_VALUE
 90
4
  1
2
304
ACVALUE_END
170
5
140
0.125
171
1
172
0
173
1
174
0
175
1
176
1
 91
1
178
0
145
0.0
170
1
  0
ACAD_TABLE
  5
28B
100
AcDbEntity
  8
0
 62
2
  6
CONTINUOUS
100
AcDbBlockReference
  2
*T3
 10
0.52125
 20
1.459
 30
0.0
100
AcDbTable
342
       454
343
211
 11
1.0
 21
0.0
 31
0.0
 90
22
 91
3
 92
3
 93
16
 94
0
 95
0
 96
0
 41
0.05
141
0.34375
141
0.344
141
0.25
142
1.3
142
2.0
142
1.3
171
1
172
0
173
0
174
0
175
3
176
1
 91
33
178
0
145
0.0
301
CELL_VALUE
 90
4
  1
Port Headings
304
ACVALUE_END
170
5
140
0.145
171
1
172
0
173
1
174
0
175
1
176
1
 91
1
178
0
145
0.0
170
1
171
1
172
0
173
1
174
0
175
1
176
1
 91
1
178
0
145
0.0
170
1
171
1
172
0
173
0
174
0
175
1
176
1
 91
33
178
0
145
0.0
301
CELL_VALUE
 90
4
  1
Product
304
ACVALUE_END
170
5
140
0.145
171
1
172
0
173
0
174
0
175
1
176
1
 91
33
178
0
145
0.0
301
CELL_VALUE
 90
4
  1
Port
304
ACVALUE_END
170
5
140
0.145
171
1
172
0
173
0
174
0
175
1
176
1
 91
33
178
0
145
0.0
301
CELL_VALUE
 90
4
  1
Size
304
ACVALUE_END
170
5
140
0.145
171
1
172
0
173
0
174
0
175
1
176
1
 91
33
178
0
145
0.0
301
CELL_VALUE
 90
4
  1
B8D
304
ACVALUE_END
170
5
140
0.125
171
1
172
0
173
0
174
0
175
1
176
1
 91
33
178
0
145
0.0
301
CELL_VALUE
 90
4
  1
All Ports
304
ACVALUE_END
170
5
140
0.125
171
1
172
0
173
0
174
0
175
1
176
1
 91
33
178
0
145
0.0
301
CELL_VALUE
 90
4
  1
3/4" NPTF
304
ACVALUE_END
170
5
140
0.125
  0
MTEXT
  5
28C
100
AcDbEntity
  8
0
100
AcDbMText
 62
2
  6
CONTINUOUS
  7
STANDARD
 71
1
 72
1
 10
0.52125
 20
5.75995
 30
0.0
 11
1.0
 21
0.0
 31
0.0
 44
0.6
  3
Notes\P \P1. Important: Carefully consider\P   the maximum system pressure. The\P   pressure rating of the manifold is\P   dependent on the manifold material,\P   with the port type/size a secondary\P   consideration. Manifolds\P   constructed of alu
  1
minum are not\P   rated for pressures higher than\P   3000 psi (210 bar), regardless of\P   the port type/size specified.
 40
0.1
 41
3.04
  0
LINE
  5
28D
100
AcDbEntity
  8
0
100
AcDbLine
 62
7
  6
CONTINUOUS
 10
0.30125
 20
0.30125
 11
0.30125
 21
16.69875
  0
LINE
  5
28E
100
AcDbEntity
  8
0
100
AcDbLine
 62
7
  6
CONTINUOUS
 10
0.30125
 20
0.30125
 11
21.69875
 21
0.30125
  0
LINE
  5
28F
100
AcDbEntity
  8
0
100
AcDbLine
 62
7
  6
CONTINUOUS
 10
0.30125
 20
16.69875
 11
21.69875
 21
16.69875
  0
LINE
  5
290
100
AcDbEntity
  8
0
100
AcDbLine
 62
7
  6
CONTINUOUS
 10
21.69875
 20
0.30125
 11
21.69875
 21
16.69875
  0
LINE
  5
291
100
AcDbEntity
  8
0
100
AcDbLine
 62
7
  6
CONTINUOUS
 10
9.7403995803
 20
11.2332821796
 11
9.7596175115
 21
11.2427754696
  0
LINE
  5
292
100
AcDbEntity
  8
0
100
AcDbLine
 62
7
  6
CONTINUOUS
 10
9.6321994056
 20
10.8152688517
 11
9.1628829275
 21
10.3619439179
  0
LINE
  5
293
100
AcDbEntity
  8
0
100
AcDbLine
 62
7
  6
CONTINUOUS
 10
9.1628829275
 20
6.1360181775
 11
12.060660578
 21
5.9350566149
  0
LINE
  5
294
100
AcDbEntity
  8
0
100
AcDbLine
 62
4
  6
CONTINUOUS
 10
11.2748798298
 20
6.2213729017
 11
11.2603909419
 21
6.2223777095
  0
LINE
  5
295
100
AcDbEntity
  8
0
100
AcDbLine
 62
4
  6
CONTINUOUS
 10
11.4777242608
 20
6.2459426283
 11
11.5211909246
 21
6.2429282049
  0
LINE
  5
296
100
AcDbEntity
  8
0
100
AcDbLine
 62
7
  6
CONTINUOUS
 10
11.1892884474
 20
5.7667178031
 11
11.2085063368
 21
5.7572245337
  0
LINE
  5
297
100
AcDbEntity
  8
0
100
AcDbLine
 62
7
  6
CONTINUOUS
 10
10.7277774352
 20
10.6294893361
 11
10.7620536635
 21
10.6464211366
  0
LINE
  5
298
100
AcDbEntity
  8
0
100
AcDbLine
 62
4
  6
CONTINUOUS
 10
11.2603909419
 20
6.3382888129
 11
11.2748798298
 21
6.3372840051
  0
LINE
  5
299
100
AcDbEntity
  8
0
100
AcDbLine
 62
4
  6
CONTINUOUS
 10
9.8115021742
 20
6.6879784479
 11
9.7970132862
 21
6.6986425146
  0
LINE
  5
29A
100
AcDbEntity
  8
0
100
AcDbLine
 62
4
  6
CONTINUOUS
 10
9.8259910621
 20
6.8028847435
 11
9.84047995
 21
6.7922206794
  0
LINE
  5
29B
100
AcDbEntity
  8
0
100
AcDbLine
 62
4
  6
CONTINUOUS
 10
9.7970132862
 20
6.6986425146
 11
9.7825243983
 21
6.7189658393
  0
LINE
  5
29C
100
AcDbEntity
  8
0
100
AcDbLine
 62
7
  6
CONTINUOUS
 10
9.1628829275
 20
10.3619439179
 11
9.1628829275
 21
6.1360181775
  0
LINE
  5
29D
100
AcDbEntity
  8
0
100
AcDbLine
 62
4
  6
CONTINUOUS
 10
9.7825243983
 20
10.0523759207
 11
9.7970132862
 21
10.0706896324
  0
LINE
  5
29E
100
AcDbEntity
  8
0
100
AcDbLine
 62
4
  6
CONTINUOUS
 10
9.847724394
 20
9.9802394758
 11
9.84047995
 21
9.9710826208
  0
LINE
  5
29F
100
AcDbEntity
  8
0
100
AcDbLine
 62
4
  6
CONTINUOUS
 10
9.9056799457
 20
10.0534943108
 11
9.9129243897
 21
10.0626511701
  0
LINE
  5
2A0
100
AcDbEntity
  8
0
100
AcDbLine
 62
4
  6
CONTINUOUS
 10
9.9274132776
 20
10.0036908071
 11
9.9129243897
 21
9.9853770988
  0
LINE
  5
2A1
100
AcDbEntity
  8
0
100
AcDbLine
 62
4
  6
CONTINUOUS
 10
9.7970132862
 20
10.0706896324
 11
9.8115021742
 21
10.0793440809
  0
LINE
  5
2A2
100
AcDbEntity
  8
0
100
AcDbLine
 62
4
  6
CONTINUOUS
 10
9.9129243897
 20
10.0626511701
 11
9.9274132776
 21
10.0713056186
  0
LINE
  5
2A3
100
AcDbEntity
  8
0
100
AcDbLine
 62
4
  6
CONTINUOUS
 10
9.84047995
 20
9.9710826208
 11
9.8259910621
 21
9.9624281697
  0
LINE
  5
2A4
100
AcDbEntity
  8
0
100
AcDbLine
 62
4
  6
CONTINUOUS
 10
9.9563910534
 20
10.0209997076
 11
9.9274132776
 21
10.0036908071
  0
LINE
  5
2A5
100
AcDbEntity
  8
0
100
AcDbLine
 62
4
  6
CONTINUOUS
 10
9.8259910621
 20
6.6869736401
 11
9.8115021742
 21
6.6879784479
  0
LINE
  5
2A6
100
AcDbEntity
  8
0
100
AcDbLine
 62
4
  6
CONTINUOUS
 10
10.0143466052
 20
6.6739111388
 11
10.0650577129
 21
6.6703943115
  0
LINE
  5
2A7
100
AcDbEntity
  8
0
100
AcDbLine
 62
4
  6
CONTINUOUS
 10
10.0143466052
 20
6.7415259468
 11
10.0650577129
 21
6.7380091196
  0
LINE
  5
2A8
100
AcDbEntity
  8
0
100
AcDbLine
 62
4
  6
CONTINUOUS
 10
10.0650577129
 20
6.786305415
 11
10.0143466052
 21
6.7898222422
  0
LINE
  5
2A9
100
AcDbEntity
  8
0
100
AcDbLine
 62
4
  6
CONTINUOUS
 10
9.8115021742
 20
6.8038895513
 11
9.8259910621
 21
6.8028847435
  0
LINE
  5
2AA
100
AcDbEntity
  8
0
100
AcDbLine
 62
4
  6
CONTINUOUS
 10
9.84047995
 20
6.7922206794
 11
9.847724394
 21
6.7820590123
  0
LINE
  5
2AB
100
AcDbEntity
  8
0
100
AcDbLine
 62
4
  6
CONTINUOUS
 10
10.0795466008
 20
6.7176857957
 11
10.0650577129
 21
6.7380091196
  0
LINE
  5
2AC
100
AcDbEntity
  8
0
100
AcDbLine
 62
4
  6
CONTINUOUS
 10
9.7752799543
 20
10.0239005487
 11
9.7825243983
 21
10.0523759207
  0
LINE
  5
2AD
100
AcDbEntity
  8
0
100
AcDbLine
 62
4
  6
CONTINUOUS
 10
9.9636354974
 20
10.030156567
 11
9.9563910534
 21
10.0209997076
  0
LINE
  5
2AE
100
AcDbEntity
  8
0
100
AcDbLine
 62
4
  6
CONTINUOUS
 10
10.0650577129
 20
10.0134636492
 11
10.0723021569
 21
10.0226205085
  0
LINE
  5
2AF
100
AcDbEntity
  8
0
100
AcDbLine
 62
4
  6
CONTINUOUS
 10
10.0650577129
 20
9.9458488412
 11
10.0795466008
 21
9.9641625512
  0
LINE
  5
2B0
100
AcDbEntity
  8
0
100
AcDbLine
 62
4
  6
CONTINUOUS
 10
10.8886392589
 20
10.55589657
 11
10.8925215412
 21
10.5596465671
  0
LINE
  5
2B1
100
AcDbEntity
  8
0
100
AcDbLine
 62
4
  6
CONTINUOUS
 10
10.9449323535
 20
10.6102715271
 11
10.960461483
 21
10.6252715153
  0
LINE
  5
2B2
100
AcDbEntity
  8
0
100
AcDbLine
 62
4
  6
CONTINUOUS
 10
11.2603909419
 20
6.2223777095
 11
11.2459020539
 21
6.2330417762
  0
LINE
  5
2B3
100
AcDbEntity
  8
0
100
AcDbLine
 62
4
  6
CONTINUOUS
 10
11.2748798298
 20
6.3372840051
 11
11.2893687177
 21
6.326619941
  0
LINE
  5
2B4
100
AcDbEntity
  8
0
100
AcDbLine
 62
4
  6
CONTINUOUS
 10
10.0723021569
 20
6.7761437548
 11
10.0650577129
 21
6.786305415
  0
LINE
  5
2B5
100
AcDbEntity
  8
0
100
AcDbLine
 62
4
  6
CONTINUOUS
 10
9.7825243983
 20
6.7189658393
 11
9.7752799543
 21
6.7484460191
  0
LINE
  5
2B6
100
AcDbEntity
  8
0
100
AcDbLine
 62
7
  6
CONTINUOUS
 10
9.6321994056
 20
10.7121990264
 11
9.6321994056
 21
11.0966024677
  0
LINE
  5
2B7
100
AcDbEntity
  8
0
100
AcDbLine
 62
7
  6
CONTINUOUS
 10
9.6466474538
 20
10.6982433073
 11
9.6466474538
 21
11.0826467487
  0
LINE
  5
2B8
100
AcDbEntity
  8
0
100
AcDbLine
 62
4
  6
CONTINUOUS
 10
9.9129243897
 20
9.9853770988
 11
9.9056799457
 21
9.9569017269
  0
LINE
  5
2B9
100
AcDbEntity
  8
0
100
AcDbLine
 62
4
  6
CONTINUOUS
 10
11.0028879052
 20
10.606252296
 11
11.0125936111
 21
10.6156272886
  0
LINE
  5
2BA
100
AcDbEntity
  8
0
100
AcDbLine
 62
4
  6
CONTINUOUS
 10
11.0552058215
 20
10.6367875272
 11
11.0668526687
 21
10.6480375183
  0
LINE
  5
2BB
100
AcDbEntity
  8
0
100
AcDbLine
 62
4
  6
CONTINUOUS
 10
11.0084326447
 20
10.5516081047
 11
11.0045503623
 21
10.5478581077
  0
LINE
  5
2BC
100
AcDbEntity
  8
0
100
AcDbLine
 62
7
  6
CONTINUOUS
 10
9.7132266219
 20
10.6021216501
 11
9.7132266219
 21
10.6602925361
  0
LINE
  5
2BD
100
AcDbEntity
  8
0
100
AcDbLine
 62
7
  6
CONTINUOUS
 10
9.8772266219
 20
9.3090992765
 11
9.8772266219
 21
9.6094583147
  0
LINE
  5
2BE
100
AcDbEntity
  8
0
100
AcDbLine
 62
4
  6
CONTINUOUS
 10
11.2459020539
 20
6.2330417762
 11
11.231413166
 21
6.2533651009
  0
LINE
  5
2BF
100
AcDbEntity
  8
0
100
AcDbLine
 62
7
  6
CONTINUOUS
 10
9.9393284853
 20
7.8911837117
 11
9.9387259291
 21
7.9044173806
  0
LINE
  5
2C0
100
AcDbEntity
  8
0
100
AcDbLine
 62
4
  6
CONTINUOUS
 10
9.9346577215
 20
6.7953486851
 11
9.9346577215
 21
6.6794375817
  0
LINE
  5
2C1
100
AcDbEntity
  8
0
100
AcDbLine
 62
4
  6
CONTINUOUS
 10
9.9636354974
 20
10.0494750796
 11
9.9636354974
 21
10.030156567
  0
LINE
  5
2C2
100
AcDbEntity
  8
0
100
AcDbLine
 62
4
  6
CONTINUOUS
 10
10.0143466052
 20
10.0652767719
 11
10.0143466052
 21
9.9493656684
  0
LINE
  5
2C3
100
AcDbEntity
  8
0
100
AcDbLine
 62
4
  6
CONTINUOUS
 10
10.0143466052
 20
6.7898222422
 11
10.0143466052
 21
6.6739111388
  0
LINE
  5
2C4
100
AcDbEntity
  8
0
100
AcDbLine
 62
7
  6
CONTINUOUS
 10
10.0603341719
 20
10.5911734417
 11
10.0603341719
 21
10.9755768831
  0
LINE
  5
2C5
100
AcDbEntity
  8
0
100
AcDbLine
 62
4
  6
CONTINUOUS
 10
10.0723021569
 20
6.7471659789
 11
10.0723021569
 21
6.7761437548
  0
LINE
  5
2C6
100
AcDbEntity
  8
0
100
AcDbLine
 62
4
  6
CONTINUOUS
 10
10.0723021569
 20
10.0226205085
 11
10.0723021569
 21
10.0515982844
  0
LINE
  5
2C7
100
AcDbEntity
  8
0
100
AcDbLine
 62
4
  6
CONTINUOUS
 10
10.0795466008
 20
6.6887080216
 11
10.0795466008
 21
6.7176857957
  0
LINE
  5
2C8
100
AcDbEntity
  8
0
100
AcDbLine
 62
4
  6
CONTINUOUS
 10
10.0795466008
 20
9.9641625512
 11
10.0795466008
 21
9.9931403253
  0
LINE
  5
2C9
100
AcDbEntity
  8
0
100
AcDbLine
 62
7
  6
CONTINUOUS
 10
10.1142549805
 20
10.5874340209
 11
10.1142549805
 21
10.9718374623
  0
LINE
  5
2CA
100
AcDbEntity
  8
0
100
AcDbLine
 62
4
  6
CONTINUOUS
 10
11.2893687177
 20
6.326619941
 11
11.2966131617
 21
6.3164582739
  0
LINE
  5
2CB
100
AcDbEntity
  8
0
100
AcDbLine
 62
4
  6
CONTINUOUS
 10
9.7752799543
 20
6.7484460191
 11
9.7825243983
 21
6.776921391
  0
LINE
  5
2CC
100
AcDbEntity
  8
0
100
AcDbLine
 62
4
  6
CONTINUOUS
 10
11.2459020539
 20
9.6089527349
 11
11.2603909419
 21
9.6176071835
  0
LINE
  5
2CD
100
AcDbEntity
  8
0
100
AcDbLine
 62
4
  6
CONTINUOUS
 10
11.3618131574
 20
9.6009142726
 11
11.3763020453
 21
9.6095687211
  0
LINE
  5
2CE
100
AcDbEntity
  8
0
100
AcDbLine
 62
4
  6
CONTINUOUS
 10
11.2893687177
 20
9.5093457234
 11
11.2748798298
 21
9.5006912722
  0
LINE
  5
2CF
100
AcDbEntity
  8
0
100
AcDbLine
 62
4
  6
CONTINUOUS
 10
11.4052798212
 20
9.5592628102
 11
11.3763020453
 21
9.5419539097
  0
LINE
  5
2D0
100
AcDbEntity
  8
0
100
AcDbLine
 62
4
  6
CONTINUOUS
 10
9.7825243983
 20
9.9944203689
 11
9.7752799543
 21
10.0239005487
  0
LINE
  5
2D1
100
AcDbEntity
  8
0
100
AcDbLine
 62
4
  6
CONTINUOUS
 10
11.231413166
 20
9.5906390232
 11
11.2459020539
 21
9.6089527349
  0
LINE
  5
2D2
100
AcDbEntity
  8
0
100
AcDbLine
 62
7
  6
CONTINUOUS
 10
12.8371170725
 20
10.9109817808
 11
12.060660578
 21
10.1609823553
  0
LINE
  5
2D3
100
AcDbEntity
  8
0
100
AcDbLine
 62
7
  6
CONTINUOUS
 10
12.4701021983
 20
10.7354726322
 11
12.4686775786
 21
10.7341223093
  0
LINE
  5
2D4
100
AcDbEntity
  8
0
100
AcDbLine
 62
7
  6
CONTINUOUS
 10
10.6793613881
 20
10.6266243528
 11
10.6793613881
 21
11.0110277941
  0
LINE
  5
2D5
100
AcDbEntity
  8
0
100
AcDbLine
 62
7
  6
CONTINUOUS
 10
10.7188341486
 20
10.636840651
 11
10.7188341486
 21
11.0212440923
  0
LINE
  5
2D6
100
AcDbEntity
  8
0
100
AcDbLine
 62
7
  6
CONTINUOUS
 10
10.7892266219
 20
10.6022089912
 11
10.7892266219
 21
10.6652926114
  0
LINE
  5
2D7
100
AcDbEntity
  8
0
100
AcDbLine
 62
4
  6
CONTINUOUS
 10
11.2966131617
 20
9.5185025784
 11
11.2893687177
 21
9.5093457234
  0
LINE
  5
2D8
100
AcDbEntity
  8
0
100
AcDbLine
 62
4
  6
CONTINUOUS
 10
11.3545687134
 20
9.5917574133
 11
11.3618131574
 21
9.6009142726
  0
LINE
  5
2D9
100
AcDbEntity
  8
0
100
AcDbLine
 62
4
  6
CONTINUOUS
 10
11.3763020453
 20
9.5419539097
 11
11.3618131574
 21
9.5236402014
  0
LINE
  5
2DA
100
AcDbEntity
  8
0
100
AcDbLine
 62
4
  6
CONTINUOUS
 10
11.4125242651
 20
9.5684196695
 11
11.4052798212
 21
9.5592628102
  0
LINE
  5
2DB
100
AcDbEntity
  8
0
100
AcDbLine
 62
7
  6
CONTINUOUS
 10
9.9393284853
 20
7.8911837117
 11
9.9714220391
 21
7.9221837061
  0
LINE
  5
2DC
100
AcDbEntity
  8
0
100
AcDbLine
 62
4
  6
CONTINUOUS
 10
11.231413166
 20
6.2533651009
 11
11.224168722
 21
6.2828452807
  0
LINE
  5
2DD
100
AcDbEntity
  8
0
100
AcDbLine
 62
7
  6
CONTINUOUS
 10
10.8702538381
 20
10.7831008484
 11
10.8702538381
 21
11.1675042898
  0
LINE
  5
2DE
100
AcDbEntity
  8
0
100
AcDbLine
 62
4
  6
CONTINUOUS
 10
11.224168722
 20
9.5621636512
 11
11.231413166
 21
9.5906390232
  0
LINE
  5
2DF
100
AcDbEntity
  8
0
100
AcDbLine
 62
7
  6
CONTINUOUS
 10
11.3881556653
 20
9.1185873658
 11
11.4207668193
 21
9.1500873236
  0
LINE
  5
2E0
100
AcDbEntity
  8
0
100
AcDbLine
 62
4
  6
CONTINUOUS
 10
12.5581103683
 20
8.2204578308
 11
12.5270521092
 21
8.2235753107
  0
LINE
  5
2E1
100
AcDbEntity
  8
0
100
AcDbLine
 62
4
  6
CONTINUOUS
 10
12.4071080706
 20
8.3064230039
 11
12.3775287756
 21
8.3109690397
  0
LINE
  5
2E2
100
AcDbEntity
  8
0
100
AcDbLine
 62
4
  6
CONTINUOUS
 10
9.7970132862
 20
9.9740970442
 11
9.7825243983
 21
9.9944203689
  0
LINE
  5
2E3
100
AcDbEntity
  8
0
100
AcDbLine
 62
4
  6
CONTINUOUS
 10
9.84047995
 20
10.067675209
 11
9.847724394
 21
10.0575135419
  0
LINE
  5
2E4
100
AcDbEntity
  8
0
100
AcDbLine
 62
4
  6
CONTINUOUS
 10
11.4994575927
 20
6.3217094844
 11
11.5356798125
 21
6.2032863615
  0
LINE
  5
2E5
100
AcDbEntity
  8
0
100
AcDbLine
 62
7
  6
CONTINUOUS
 10
11.0810881703
 20
6.0029901921
 11
11.0810881703
 21
5.9033974648
  0
LINE
  5
2E6
100
AcDbEntity
  8
0
100
AcDbLine
 62
7
  6
CONTINUOUS
 10
11.2325081098
 20
5.9924891836
 11
11.2325081098
 21
5.7571372847
  0
LINE
  5
2E7
100
AcDbEntity
  8
0
100
AcDbLine
 62
4
  6
CONTINUOUS
 10
11.3618131574
 20
9.5236402014
 11
11.3545687134
 21
9.4951648294
  0
LINE
  5
2E8
100
AcDbEntity
  8
0
100
AcDbLine
 62
4
  6
CONTINUOUS
 10
11.4632353729
 20
9.487628771
 11
11.4994575927
 21
9.6010278549
  0
LINE
  5
2E9
100
AcDbEntity
  8
0
100
AcDbLine
 62
4
  6
CONTINUOUS
 10
9.7825243983
 20
6.776921391
 11
9.7970132862
 21
6.7952351028
  0
LINE
  5
2EA
100
AcDbEntity
  8
0
100
AcDbLine
 62
4
  6
CONTINUOUS
 10
9.847724394
 20
6.7047849462
 11
9.84047995
 21
6.6956280912
  0
LINE
  5
2EB
100
AcDbEntity
  8
0
100
AcDbLine
 62
7
  6
CONTINUOUS
 10
9.831169786
 20
9.6370969739
 11
9.8157548562
 21
9.6514421843
  0
LINE
  5
2EC
100
AcDbEntity
  8
0
100
AcDbLine
 62
4
  6
CONTINUOUS
 10
9.9563910534
 20
10.0596367467
 11
9.9636354974
 21
10.0494750796
  0
LINE
  5
2ED
100
AcDbEntity
  8
0
100
AcDbLine
 62
4
  6
CONTINUOUS
 10
10.0795466008
 20
9.9931403253
 11
10.0650577129
 21
10.0134636492
  0
LINE
  5
2EE
100
AcDbEntity
  8
0
100
AcDbLine
 62
4
  6
CONTINUOUS
 10
10.0723021569
 20
10.0515982844
 11
10.0650577129
 21
10.0617599446
  0
LINE
  5
2EF
100
AcDbEntity
  8
0
100
AcDbLine
 62
7
  6
CONTINUOUS
 10
11.2719808877
 20
5.9897517372
 11
11.2719808877
 21
5.7469209909
  0
LINE
  5
2F0
100
AcDbEntity
  8
0
100
AcDbLine
 62
7
  6
CONTINUOUS
 10
11.3261154472
 20
7.4700969732
 11
11.3261154472
 21
7.3326663267
  0
LINE
  5
2F1
100
AcDbEntity
  8
0
100
AcDbLine
 62
4
  6
CONTINUOUS
 10
11.3835464893
 20
6.3297479467
 11
11.3835464893
 21
6.2138368433
  0
LINE
  5
2F2
100
AcDbEntity
  8
0
100
AcDbLine
 62
4
  6
CONTINUOUS
 10
11.4125242651
 20
9.5877381821
 11
11.4125242651
 21
9.5684196695
  0
LINE
  5
2F3
100
AcDbEntity
  8
0
100
AcDbLine
 62
7
  6
CONTINUOUS
 10
11.3876145209
 20
9.0965566405
 11
11.3881556653
 21
9.1185873658
  0
LINE
  5
2F4
100
AcDbEntity
  8
0
100
AcDbLine
 62
4
  6
CONTINUOUS
 10
10.0650577129
 20
6.7380091196
 11
10.0723021569
 21
6.7471659789
  0
LINE
  5
2F5
100
AcDbEntity
  8
0
100
AcDbLine
 62
4
  6
CONTINUOUS
 10
10.0650577129
 20
6.6703943115
 11
10.0795466008
 21
6.6887080216
  0
LINE
  5
2F6
100
AcDbEntity
  8
0
100
AcDbLine
 62
4
  6
CONTINUOUS
 10
9.8115021742
 20
9.9634329775
 11
9.7970132862
 21
9.9740970442
  0
LINE
  5
2F7
100
AcDbEntity
  8
0
100
AcDbLine
 62
4
  6
CONTINUOUS
 10
11.231413166
 20
9.5326834715
 11
11.224168722
 21
9.5621636512
  0
LINE
  5
2F8
100
AcDbEntity
  8
0
100
AcDbLine
 62
4
  6
CONTINUOUS
 10
12.3974947998
 20
8.9180895893
 11
12.3908394582
 21
8.9116610226
  0
LINE
  5
2F9
100
AcDbEntity
  8
0
100
AcDbLine
 62
4
  6
CONTINUOUS
 10
12.3686549879
 20
8.7246452015
 11
12.3708734357
 21
8.7240282801
  0
LINE
  5
2FA
100
AcDbEntity
  8
0
100
AcDbLine
 62
4
  6
CONTINUOUS
 10
9.8259910621
 20
10.0783392731
 11
9.84047995
 21
10.067675209
  0
LINE
  5
2FB
100
AcDbEntity
  8
0
100
AcDbLine
 62
4
  6
CONTINUOUS
 10
9.9419021655
 20
10.0703008108
 11
9.9563910534
 21
10.0596367467
  0
LINE
  5
2FC
100
AcDbEntity
  8
0
100
AcDbLine
 62
7
  6
CONTINUOUS
 10
11.8370873623
 20
5.95056147
 11
11.8370873623
 21
5.7077307238
  0
LINE
  5
2FD
100
AcDbEntity
  8
0
100
AcDbLine
 62
7
  6
CONTINUOUS
 10
11.8910081646
 20
5.9468220497
 11
11.8910081646
 21
5.7114701508
  0
LINE
  5
2FE
100
AcDbEntity
  8
0
100
AcDbLine
 62
4
  6
CONTINUOUS
 10
11.224168722
 20
6.2828452807
 11
11.231413166
 21
6.3113206527
  0
LINE
  5
2FF
100
AcDbEntity
  8
0
100
AcDbLine
 62
4
  6
CONTINUOUS
 10
12.3864025644
 20
8.8576992037
 11
12.3797472235
 21
8.8512706378
  0
LINE
  5
300
100
AcDbEntity
  8
0
100
AcDbLine
 62
4
  6
CONTINUOUS
 10
12.3974947998
 20
8.7938991529
 11
12.3797472235
 21
8.7767563096
  0
LINE
  5
301
100
AcDbEntity
  8
0
100
AcDbLine
 62
4
  6
CONTINUOUS
 10
12.399713247
 20
8.7518854002
 11
12.3775287756
 21
8.7304568452
  0
LINE
  5
302
100
AcDbEntity
  8
0
100
AcDbLine
 62
4
  6
CONTINUOUS
 10
12.3708734357
 20
8.7240282801
 11
12.3686549879
 21
8.7218854239
  0
LINE
  5
303
100
AcDbEntity
  8
0
100
AcDbLine
 62
4
  6
CONTINUOUS
 10
12.5581103683
 20
8.8855668006
 11
12.5270521092
 21
8.8555668242
  0
LINE
  5
304
100
AcDbEntity
  8
0
100
AcDbLine
 62
4
  6
CONTINUOUS
 10
12.5314890031
 20
8.8129360938
 11
12.5536734739
 21
8.8343646484
  0
LINE
  5
305
100
AcDbEntity
  8
0
100
AcDbLine
 62
4
  6
CONTINUOUS
 10
12.3974947998
 20
8.6752282718
 11
12.3686549879
 21
8.647371151
  0
LINE
  5
306
100
AcDbEntity
  8
0
100
AcDbLine
 62
4
  6
CONTINUOUS
 10
12.399713247
 20
8.644253685
 11
12.3775287756
 21
8.62282513
  0
LINE
  5
307
100
AcDbEntity
  8
0
100
AcDbLine
 62
4
  6
CONTINUOUS
 10
12.5581103683
 20
8.7806948077
 11
12.5270521092
 21
8.7506948314
  0
LINE
  5
308
100
AcDbEntity
  8
0
100
AcDbLine
 62
4
  6
CONTINUOUS
 10
12.3775287756
 20
8.5731489112
 11
12.3974947998
 21
8.5924346107
  0
LINE
  5
309
100
AcDbEntity
  8
0
100
AcDbLine
 62
4
  6
CONTINUOUS
 10
12.5314890031
 20
8.7218630997
 11
12.5536734739
 21
8.7432916543
  0
LINE
  5
30A
100
AcDbEntity
  8
0
100
AcDbLine
 62
4
  6
CONTINUOUS
 10
9.7970132862
 20
6.7952351028
 11
9.8115021742
 21
6.8038895513
  0
LINE
  5
30B
100
AcDbEntity
  8
0
100
AcDbLine
 62
4
  6
CONTINUOUS
 10
11.2459020539
 20
9.5123601467
 11
11.231413166
 21
9.5326834715
  0
LINE
  5
30C
100
AcDbEntity
  8
0
100
AcDbLine
 62
4
  6
CONTINUOUS
 10
11.2893687177
 20
9.6059383116
 11
11.2966131617
 21
9.5957766444
  0
LINE
  5
30D
100
AcDbEntity
  8
0
100
AcDbLine
 62
4
  6
CONTINUOUS
 10
11.4994575927
 20
9.6010278549
 11
11.5356798125
 21
9.482604732
  0
LINE
  5
30E
100
AcDbEntity
  8
0
100
AcDbLine
 62
7
  6
CONTINUOUS
 10
12.060660578
 20
5.9350566149
 11
12.060660578
 21
10.1609823553
  0
LINE
  5
30F
100
AcDbEntity
  8
0
100
AcDbLine
 62
4
  6
CONTINUOUS
 10
11.4632353729
 20
6.2083104004
 11
11.4994575927
 21
6.3217094844
  0
LINE
  5
310
100
AcDbEntity
  8
0
100
AcDbLine
 62
4
  6
CONTINUOUS
 10
12.399713247
 20
8.5614600239
 11
12.3819656695
 21
8.5443171795
  0
LINE
  5
311
100
AcDbEntity
  8
0
100
AcDbLine
 62
4
  6
CONTINUOUS
 10
12.5536734739
 20
8.6853361026
 11
12.5314890031
 21
8.663907548
  0
LINE
  5
312
100
AcDbEntity
  8
0
100
AcDbLine
 62
4
  6
CONTINUOUS
 10
12.3974947998
 20
8.5096410049
 11
12.3908394582
 21
8.5032124382
  0
LINE
  5
313
100
AcDbEntity
  8
0
100
AcDbLine
 62
4
  6
CONTINUOUS
 10
12.4631608331
 20
8.5592705644
 11
12.4853453039
 21
8.580699119
  0
LINE
  5
314
100
AcDbEntity
  8
0
100
AcDbLine
 62
4
  6
CONTINUOUS
 10
12.3797472235
 20
8.4566208863
 11
12.3841841174
 21
8.460906597
  0
LINE
  5
315
100
AcDbEntity
  8
0
100
AcDbLine
 62
4
  6
CONTINUOUS
 10
12.5536734739
 20
8.5887435532
 11
12.5314890031
 21
8.5673149986
  0
LINE
  5
316
100
AcDbEntity
  8
0
100
AcDbLine
 62
4
  6
CONTINUOUS
 10
12.4897821983
 20
8.5270292784
 11
12.4587239392
 21
8.4970293021
  0
LINE
  5
317
100
AcDbEntity
  8
0
100
AcDbLine
 62
4
  6
CONTINUOUS
 10
12.399713247
 20
8.4372695875
 11
12.3775287756
 21
8.4158410325
  0
LINE
  5
318
100
AcDbEntity
  8
0
100
AcDbLine
 62
4
  6
CONTINUOUS
 10
12.4764715157
 20
8.4810546894
 11
12.4853453039
 21
8.4896261112
  0
LINE
  5
319
100
AcDbEntity
  8
0
100
AcDbLine
 62
4
  6
CONTINUOUS
 10
12.3686549879
 20
8.3741521136
 11
12.399713247
 21
8.4041520899
  0
LINE
  5
31A
100
AcDbEntity
  8
0
100
AcDbLine
 62
4
  6
CONTINUOUS
 10
12.4631608331
 20
8.4626779874
 11
12.4698161749
 21
8.4691065543
  0
LINE
  5
31B
100
AcDbEntity
  8
0
100
AcDbLine
 62
4
  6
CONTINUOUS
 10
12.4698161749
 20
8.4221901477
 11
12.4631608331
 21
8.4157615809
  0
LINE
  5
31C
100
AcDbEntity
  8
0
100
AcDbLine
 62
4
  6
CONTINUOUS
 10
12.3974947998
 20
8.3523330709
 11
12.3797472235
 21
8.3351902276
  0
LINE
  5
31D
100
AcDbEntity
  8
0
100
AcDbLine
 62
4
  6
CONTINUOUS
 10
12.4853453039
 20
8.4316705594
 11
12.4764715157
 21
8.4230991377
  0
LINE
  5
31E
100
AcDbEntity
  8
0
100
AcDbLine
 62
4
  6
CONTINUOUS
 10
12.4786899626
 20
8.3921245369
 11
12.4853453039
 21
8.3985531033
  0
LINE
  5
31F
100
AcDbEntity
  8
0
100
AcDbLine
 62
4
  6
CONTINUOUS
 10
12.4631608331
 20
8.3688451847
 11
12.4698161749
 21
8.3752737515
  0
LINE
  5
320
100
AcDbEntity
  8
0
100
AcDbLine
 62
4
  6
CONTINUOUS
 10
12.5581103683
 20
8.4191625816
 11
12.5270521092
 21
8.3891626052
  0
LINE
  5
321
100
AcDbEntity
  8
0
100
AcDbLine
 62
4
  6
CONTINUOUS
 10
12.4897821983
 20
8.3448832627
 11
12.4587239392
 21
8.3148832863
  0
LINE
  5
322
100
AcDbEntity
  8
0
100
AcDbLine
 62
7
  6
CONTINUOUS
 10
11.2635169478
 20
7.3474897213
 11
11.2646438828
 21
7.3485580063
  0
LINE
  5
323
100
AcDbEntity
  8
0
100
AcDbLine
 62
7
  6
CONTINUOUS
 10
11.278971762
 20
7.3618727405
 11
11.2800637492
 21
7.3629066433
  0
LINE
  5
324
100
AcDbEntity
  8
0
100
AcDbLine
 62
7
  6
CONTINUOUS
 10
11.2800586112
 20
7.3629030294
 11
11.2646436815
 21
7.348557819
  0
LINE
  5
325
100
AcDbEntity
  8
0
100
AcDbLine
 62
4
  6
CONTINUOUS
 10
9.84047995
 20
6.6956280912
 11
9.8259910621
 21
6.6869736401
  0
LINE
  5
326
100
AcDbEntity
  8
0
100
AcDbLine
 62
4
  6
CONTINUOUS
 10
11.2748798298
 20
9.5006912722
 11
11.2603909419
 21
9.50169608
  0
LINE
  5
327
100
AcDbEntity
  8
0
100
AcDbLine
 62
4
  6
CONTINUOUS
 10
11.3545687134
 20
9.4951648294
 11
11.4125242651
 21
9.4911455982
  0
LINE
  5
328
100
AcDbEntity
  8
0
100
AcDbLine
 62
4
  6
CONTINUOUS
 10
11.4777242608
 20
9.5252609988
 11
11.5211909246
 21
9.5222465754
  0
LINE
  5
329
100
AcDbEntity
  8
0
100
AcDbLine
 62
4
  6
CONTINUOUS
 10
11.2603909419
 20
9.6176071835
 11
11.2748798298
 21
9.6166023757
  0
LINE
  5
32A
100
AcDbEntity
  8
0
100
AcDbLine
 62
4
  6
CONTINUOUS
 10
11.3763020453
 20
9.6095687211
 11
11.3907909332
 21
9.6085639133
  0
LINE
  5
32B
100
AcDbEntity
  8
0
100
AcDbLine
 62
4
  6
CONTINUOUS
 10
11.2603909419
 20
9.50169608
 11
11.2459020539
 21
9.5123601467
  0
LINE
  5
32C
100
AcDbEntity
  8
0
100
AcDbLine
 62
4
  6
CONTINUOUS
 10
11.2748798298
 20
9.6166023757
 11
11.2893687177
 21
9.6059383116
  0
LINE
  5
32D
100
AcDbEntity
  8
0
100
AcDbLine
 62
4
  6
CONTINUOUS
 10
11.3907909332
 20
9.6085639133
 11
11.4052798212
 21
9.5978998492
  0
LINE
  5
32E
100
AcDbEntity
  8
0
100
AcDbLine
 62
4
  6
CONTINUOUS
 10
11.4052798212
 20
9.5978998492
 11
11.4125242651
 21
9.5877381821
  0
LINE
  5
32F
100
AcDbEntity
  8
0
100
AcDbLine
 62
4
  6
CONTINUOUS
 10
12.3730918818
 20
7.8099214729
 11
12.3686549879
 21
7.8221944921
  0
LINE
  5
330
100
AcDbEntity
  8
0
100
AcDbLine
 62
4
  6
CONTINUOUS
 10
12.399713247
 20
7.8770325623
 11
12.3952763526
 21
7.8893055793
  0
LINE
  5
331
100
AcDbEntity
  8
0
100
AcDbLine
 62
4
  6
CONTINUOUS
 10
12.399713247
 20
7.9681055771
 11
12.3952763526
 21
7.9803785871
  0
LINE
  5
332
100
AcDbEntity
  8
0
100
AcDbLine
 62
7
  6
CONTINUOUS
 10
12.3046946997
 20
6.1707754894
 11
12.3046946997
 21
5.8185400637
  0
LINE
  5
333
100
AcDbEntity
  8
0
100
AcDbLine
 62
7
  6
CONTINUOUS
 10
12.319142724
 20
6.1847312101
 11
12.319142724
 21
5.8324957844
  0
LINE
  5
334
100
AcDbEntity
  8
0
100
AcDbLine
 62
4
  6
CONTINUOUS
 10
12.3686549879
 20
7.8221944921
 11
12.3686549879
 21
7.85531195
  0
LINE
  5
335
100
AcDbEntity
  8
0
100
AcDbLine
 62
4
  6
CONTINUOUS
 10
12.3686549879
 20
8.7218854239
 11
12.3686549879
 21
8.7246452015
  0
LINE
  5
336
100
AcDbEntity
  8
0
100
AcDbLine
 62
4
  6
CONTINUOUS
 10
12.3893604936
 20
8.9019531194
 11
12.387881529
 21
8.8674071069
  0
LINE
  5
337
100
AcDbEntity
  8
0
100
AcDbLine
 62
4
  6
CONTINUOUS
 10
12.3908394582
 20
8.9116610226
 11
12.3893604936
 21
8.9019531194
  0
LINE
  5
338
100
AcDbEntity
  8
0
100
AcDbLine
 62
4
  6
CONTINUOUS
 10
12.387881529
 20
8.8674071069
 11
12.3864025644
 21
8.8576992037
  0
LINE
  5
339
100
AcDbEntity
  8
0
100
AcDbLine
 62
4
  6
CONTINUOUS
 10
12.3775287756
 20
8.8905245568
 11
12.3797472235
 21
8.900946746
  0
LINE
  5
33A
100
AcDbEntity
  8
0
100
AcDbLine
 62
4
  6
CONTINUOUS
 10
12.3974947998
 20
8.868413481
 11
12.399713247
 21
8.8788356695
  0
LINE
  5
33B
100
AcDbEntity
  8
0
100
AcDbLine
 62
4
  6
CONTINUOUS
 10
12.399713247
 20
8.8043213414
 11
12.3974947998
 21
8.7938991529
  0
LINE
  5
33C
100
AcDbEntity
  8
0
100
AcDbLine
 62
4
  6
CONTINUOUS
 10
12.399713247
 20
8.6856505156
 11
12.3974947998
 21
8.6752282718
  0
LINE
  5
33D
100
AcDbEntity
  8
0
100
AcDbLine
 62
4
  6
CONTINUOUS
 10
12.3974947998
 20
8.5924346107
 11
12.399713247
 21
8.6028568545
  0
LINE
  5
33E
100
AcDbEntity
  8
0
100
AcDbLine
 62
4
  6
CONTINUOUS
 10
12.3775287756
 20
8.4489584748
 11
12.3797472235
 21
8.4566208863
  0
LINE
  5
33F
100
AcDbEntity
  8
0
100
AcDbLine
 62
4
  6
CONTINUOUS
 10
12.3819656695
 20
8.5443171795
 11
12.3775287756
 21
8.5317521359
  0
LINE
  5
340
100
AcDbEntity
  8
0
100
AcDbLine
 62
4
  6
CONTINUOUS
 10
12.3775287756
 20
8.2612928762
 11
12.399713247
 21
8.3075595406
  0
LINE
  5
341
100
AcDbEntity
  8
0
100
AcDbLine
 62
4
  6
CONTINUOUS
 10
12.3797472235
 20
8.2303182624
 11
12.399713247
 21
8.2496039612
  0
LINE
  5
342
100
AcDbEntity
  8
0
100
AcDbLine
 62
4
  6
CONTINUOUS
 10
12.5581103683
 20
8.3529276693
 11
12.5270521092
 21
8.3229276929
  0
LINE
  5
343
100
AcDbEntity
  8
0
100
AcDbLine
 62
4
  6
CONTINUOUS
 10
12.399713247
 20
8.1999277701
 11
12.3686549879
 21
8.1699277938
  0
LINE
  5
344
100
AcDbEntity
  8
0
100
AcDbLine
 62
4
  6
CONTINUOUS
 10
12.399713247
 20
8.0757373061
 11
12.3686549879
 21
8.0457373297
  0
LINE
  5
345
100
AcDbEntity
  8
0
100
AcDbLine
 62
4
  6
CONTINUOUS
 10
12.5314890031
 20
8.1478271655
 11
12.5536734739
 21
8.1692557201
  0
LINE
  5
346
100
AcDbEntity
  8
0
100
AcDbLine
 62
4
  6
CONTINUOUS
 10
12.399713247
 20
8.0177817544
 11
12.3686549879
 21
7.987781778
  0
LINE
  5
347
100
AcDbEntity
  8
0
100
AcDbLine
 62
4
  6
CONTINUOUS
 10
12.3952763526
 20
7.9803785871
 11
12.3686549879
 21
7.9546643219
  0
LINE
  5
348
100
AcDbEntity
  8
0
100
AcDbLine
 62
4
  6
CONTINUOUS
 10
12.5581103683
 20
8.1155858864
 11
12.5270521092
 21
8.08558591
  0
LINE
  5
349
100
AcDbEntity
  8
0
100
AcDbLine
 62
7
  6
CONTINUOUS
 10
9.7746758086
 20
10.6294893361
 11
9.7289434369
 21
10.652080252
  0
LINE
  5
34A
100
AcDbEntity
  8
0
100
AcDbLine
 62
4
  6
CONTINUOUS
 10
12.4631608331
 20
8.4157615809
 11
12.4587239392
 21
8.4225150223
  0
LINE
  5
34B
100
AcDbEntity
  8
0
100
AcDbLine
 62
4
  6
CONTINUOUS
 10
12.4698161749
 20
8.3752737515
 11
12.4742530688
 21
8.3630007341
  0
LINE
  5
34C
100
AcDbEntity
  8
0
100
AcDbLine
 62
4
  6
CONTINUOUS
 10
12.5536734739
 20
8.1692557201
 11
12.5581103683
 21
8.1569827031
  0
LINE
  5
34D
100
AcDbEntity
  8
0
100
AcDbLine
 62
4
  6
CONTINUOUS
 10
12.4853453039
 20
8.3985531033
 11
12.4897821983
 21
8.3862800863
  0
LINE
  5
34E
100
AcDbEntity
  8
0
100
AcDbLine
 62
4
  6
CONTINUOUS
 10
12.4764715157
 20
8.4230991377
 11
12.4720346209
 21
8.4353721542
  0
LINE
  5
34F
100
AcDbEntity
  8
0
100
AcDbLine
 62
4
  6
CONTINUOUS
 10
12.3797472235
 20
8.3351902276
 11
12.3775287756
 21
8.3496060926
  0
LINE
  5
350
100
AcDbEntity
  8
0
100
AcDbLine
 62
4
  6
CONTINUOUS
 10
12.3908394582
 20
8.5032124382
 11
12.3886210113
 21
8.5176283041
  0
LINE
  5
351
100
AcDbEntity
  8
0
100
AcDbLine
 62
4
  6
CONTINUOUS
 10
12.3775287756
 20
8.5317521359
 11
12.3775287756
 21
8.4903553054
  0
LINE
  5
352
100
AcDbEntity
  8
0
100
AcDbLine
 62
4
  6
CONTINUOUS
 10
12.3775287756
 20
8.1784992151
 11
12.3775287756
 21
8.2198960456
  0
LINE
  5
353
100
AcDbEntity
  8
0
100
AcDbLine
 62
4
  6
CONTINUOUS
 10
12.3775287756
 20
8.3496060926
 11
12.3775287756
 21
8.3827235349
  0
LINE
  5
354
100
AcDbEntity
  8
0
100
AcDbLine
 62
4
  6
CONTINUOUS
 10
12.3775287756
 20
8.4158410325
 11
12.3775287756
 21
8.4489584748
  0
LINE
  5
355
100
AcDbEntity
  8
0
100
AcDbLine
 62
4
  6
CONTINUOUS
 10
12.3775287756
 20
8.7828927863
 11
12.3775287756
 21
8.8160103392
  0
LINE
  5
356
100
AcDbEntity
  8
0
100
AcDbLine
 62
4
  6
CONTINUOUS
 10
12.3775287756
 20
8.8574071145
 11
12.3775287756
 21
8.8905245568
  0
LINE
  5
357
100
AcDbEntity
  8
0
100
AcDbLine
 62
4
  6
CONTINUOUS
 10
12.3886210113
 20
8.5176283041
 11
12.3886210113
 21
8.5507457464
  0
LINE
  5
358
100
AcDbEntity
  8
0
100
AcDbLine
 62
4
  6
CONTINUOUS
 10
12.399713247
 20
8.8374388943
 11
12.399713247
 21
8.8043213414
  0
LINE
  5
359
100
AcDbEntity
  8
0
100
AcDbLine
 62
4
  6
CONTINUOUS
 10
12.399713247
 20
8.7022092367
 11
12.399713247
 21
8.6856505156
  0
LINE
  5
35A
100
AcDbEntity
  8
0
100
AcDbLine
 62
4
  6
CONTINUOUS
 10
12.399713247
 20
8.5614600239
 11
12.399713247
 21
8.5283425816
  0
LINE
  5
35B
100
AcDbEntity
  8
0
100
AcDbLine
 62
4
  6
CONTINUOUS
 10
12.399713247
 20
8.4041520899
 11
12.399713247
 21
8.3710346476
  0
LINE
  5
35C
100
AcDbEntity
  8
0
100
AcDbLine
 62
4
  6
CONTINUOUS
 10
12.399713247
 20
7.8439151035
 11
12.399713247
 21
7.8770325623
  0
LINE
  5
35D
100
AcDbEntity
  8
0
100
AcDbLine
 62
4
  6
CONTINUOUS
 10
12.399713247
 20
7.9432674746
 11
12.399713247
 21
7.9681055771
  0
LINE
  5
35E
100
AcDbEntity
  8
0
100
AcDbLine
 62
4
  6
CONTINUOUS
 10
12.399713247
 20
8.6028568545
 11
12.399713247
 21
8.644253685
  0
LINE
  5
35F
100
AcDbEntity
  8
0
100
AcDbLine
 62
4
  6
CONTINUOUS
 10
12.399713247
 20
8.8788356695
 11
12.399713247
 21
8.9119531119
  0
LINE
  5
360
100
AcDbEntity
  8
0
100
AcDbLine
 62
4
  6
CONTINUOUS
 10
12.4071080706
 20
8.2898642827
 11
12.4071080706
 21
8.3064230039
  0
LINE
  5
361
100
AcDbEntity
  8
0
100
AcDbLine
 62
4
  6
CONTINUOUS
 10
12.4587239392
 20
8.3148832863
 11
12.4587239392
 21
8.3397213802
  0
LINE
  5
362
100
AcDbEntity
  8
0
100
AcDbLine
 62
4
  6
CONTINUOUS
 10
12.4587239392
 20
8.4225150223
 11
12.4587239392
 21
8.4473531247
  0
LINE
  5
363
100
AcDbEntity
  8
0
100
AcDbLine
 62
4
  6
CONTINUOUS
 10
12.4587239392
 20
8.4970293021
 11
12.4587239392
 21
8.5384261326
  0
LINE
  5
364
100
AcDbEntity
  8
0
100
AcDbLine
 62
4
  6
CONTINUOUS
 10
12.4720346209
 20
8.4353721542
 11
12.4720346209
 21
8.4602102567
  0
LINE
  5
365
100
AcDbEntity
  8
0
100
AcDbLine
 62
4
  6
CONTINUOUS
 10
12.4742530688
 20
8.3298832745
 11
12.4742530688
 21
8.3712800981
  0
LINE
  5
366
100
AcDbEntity
  8
0
100
AcDbLine
 62
4
  6
CONTINUOUS
 10
12.4897821983
 20
8.568426109
 11
12.4897821983
 21
8.5270292784
  0
LINE
  5
367
100
AcDbEntity
  8
0
100
AcDbLine
 62
4
  6
CONTINUOUS
 10
12.4897821983
 20
8.4773531011
 11
12.4897821983
 21
8.4525149986
  0
LINE
  5
368
100
AcDbEntity
  8
0
100
AcDbLine
 62
4
  6
CONTINUOUS
 10
12.4897821983
 20
8.3862800863
 11
12.4897821983
 21
8.3448832627
  0
LINE
  5
369
100
AcDbEntity
  8
0
100
AcDbLine
 62
4
  6
CONTINUOUS
 10
12.5270521092
 20
8.08558591
 11
12.5270521092
 21
8.1269827268
  0
LINE
  5
36A
100
AcDbEntity
  8
0
100
AcDbLine
 62
4
  6
CONTINUOUS
 10
12.5270521092
 20
8.2898102229
 11
12.5270521092
 21
8.3560451352
  0
LINE
  5
36B
100
AcDbEntity
  8
0
100
AcDbLine
 62
4
  6
CONTINUOUS
 10
12.5270521092
 20
8.3891626052
 11
12.5270521092
 21
8.4388387963
  0
LINE
  5
36C
100
AcDbEntity
  8
0
100
AcDbLine
 62
4
  6
CONTINUOUS
 10
12.5270521092
 20
8.5795880092
 11
12.5270521092
 21
8.6127054515
  0
LINE
  5
36D
100
AcDbEntity
  8
0
100
AcDbLine
 62
4
  6
CONTINUOUS
 10
12.5270521092
 20
8.6761805585
 11
12.5270521092
 21
8.7010186679
  0
LINE
  5
36E
100
AcDbEntity
  8
0
100
AcDbLine
 62
4
  6
CONTINUOUS
 10
12.5270521092
 20
8.7506948314
 11
12.5270521092
 21
8.7920916619
  0
LINE
  5
36F
100
AcDbEntity
  8
0
100
AcDbLine
 62
4
  6
CONTINUOUS
 10
12.5270521092
 20
8.8555668242
 11
12.5270521092
 21
8.9052429877
  0
LINE
  5
370
100
AcDbEntity
  8
0
100
AcDbLine
 62
4
  6
CONTINUOUS
 10
12.5403627909
 20
8.9015413985
 11
12.5403627909
 21
8.8684239562
  0
LINE
  5
371
100
AcDbEntity
  8
0
100
AcDbLine
 62
4
  6
CONTINUOUS
 10
12.5403627909
 20
8.4351372071
 11
12.5403627909
 21
8.4020197372
  0
LINE
  5
372
100
AcDbEntity
  8
0
100
AcDbLine
 62
4
  6
CONTINUOUS
 10
12.5492365796
 20
8.2229255607
 11
12.5492365796
 21
8.2670821689
  0
LINE
  5
373
100
AcDbEntity
  8
0
100
AcDbLine
 62
4
  6
CONTINUOUS
 10
12.5581103683
 20
8.8220916383
 11
12.5581103683
 21
8.7806948077
  0
LINE
  5
374
100
AcDbEntity
  8
0
100
AcDbLine
 62
4
  6
CONTINUOUS
 10
12.5581103683
 20
8.7310186442
 11
12.5581103683
 21
8.7061805349
  0
LINE
  5
375
100
AcDbEntity
  8
0
100
AcDbLine
 62
4
  6
CONTINUOUS
 10
12.5581103683
 20
8.6427054278
 11
12.5581103683
 21
8.6095879855
  0
LINE
  5
376
100
AcDbEntity
  8
0
100
AcDbLine
 62
4
  6
CONTINUOUS
 10
12.5581103683
 20
8.1569827031
 11
12.5581103683
 21
8.1155858864
  0
LINE
  5
377
100
AcDbEntity
  8
0
100
AcDbLine
 62
4
  6
CONTINUOUS
 10
12.5581103683
 20
8.4191625816
 11
12.5581103683
 21
8.4688387727
  0
LINE
  5
378
100
AcDbEntity
  8
0
100
AcDbLine
 62
4
  6
CONTINUOUS
 10
12.5581103683
 20
8.8855668006
 11
12.5581103683
 21
8.9352429641
  0
LINE
  5
379
100
AcDbEntity
  8
0
100
AcDbLine
 62
4
  6
CONTINUOUS
 10
12.4587239392
 20
8.3397213802
 11
12.4594634225
 21
8.3487150319
  0
LINE
  5
37A
100
AcDbEntity
  8
0
100
AcDbLine
 62
4
  6
CONTINUOUS
 10
12.399713247
 20
8.5283425816
 11
12.3974947998
 21
8.5096410049
  0
LINE
  5
37B
100
AcDbEntity
  8
0
100
AcDbLine
 62
4
  6
CONTINUOUS
 10
12.399713247
 20
8.3710346476
 11
12.3974947998
 21
8.3523330709
  0
LINE
  5
37C
100
AcDbEntity
  8
0
100
AcDbLine
 62
4
  6
CONTINUOUS
 10
12.5388838262
 20
8.9497889918
 11
12.5447996857
 21
8.9996598818
  0
LINE
  5
37D
100
AcDbEntity
  8
0
100
AcDbLine
 62
4
  6
CONTINUOUS
 10
12.5447996857
 20
8.0364938343
 11
12.5507155447
 21
8.0863647273
  0
LINE
  5
37E
100
AcDbEntity
  8
0
100
AcDbLine
 62
4
  6
CONTINUOUS
 10
12.4720346209
 20
8.4353721542
 11
12.4698161749
 21
8.4221901477
  0
LINE
  5
37F
100
AcDbEntity
  8
0
100
AcDbLine
 62
4
  6
CONTINUOUS
 10
12.4594634225
 20
8.3487150319
 11
12.4631608331
 21
8.3688451847
  0
LINE
  5
380
100
AcDbEntity
  8
0
100
AcDbLine
 62
4
  6
CONTINUOUS
 10
12.3908394582
 20
7.8850198682
 11
12.3775287756
 21
7.8142071836
  0
LINE
  5
381
100
AcDbEntity
  8
0
100
AcDbLine
 62
4
  6
CONTINUOUS
 10
12.3775287756
 20
8.2198960456
 11
12.3797472235
 21
8.2303182624
  0
LINE
  5
382
100
AcDbEntity
  8
0
100
AcDbLine
 62
4
  6
CONTINUOUS
 10
12.4587239392
 20
8.5384261326
 11
12.4631608331
 21
8.5592705644
  0
LINE
  5
383
100
AcDbEntity
  8
0
100
AcDbLine
 62
4
  6
CONTINUOUS
 10
12.5270521092
 20
8.7920916619
 11
12.5314890031
 21
8.8129360938
  0
LINE
  5
384
100
AcDbEntity
  8
0
100
AcDbLine
 62
4
  6
CONTINUOUS
 10
12.4720346209
 20
8.4602102567
 11
12.4764715157
 21
8.4810546894
  0
LINE
  5
385
100
AcDbEntity
  8
0
100
AcDbLine
 62
4
  6
CONTINUOUS
 10
12.5270521092
 20
8.7010186679
 11
12.5314890031
 21
8.7218630997
  0
LINE
  5
386
100
AcDbEntity
  8
0
100
AcDbLine
 62
4
  6
CONTINUOUS
 10
12.4897821983
 20
8.4525149986
 11
12.4853453039
 21
8.4316705594
  0
LINE
  5
387
100
AcDbEntity
  8
0
100
AcDbLine
 62
4
  6
CONTINUOUS
 10
12.4742530688
 20
8.3712800981
 11
12.4786899626
 21
8.3921245369
  0
LINE
  5
388
100
AcDbEntity
  8
0
100
AcDbLine
 62
4
  6
CONTINUOUS
 10
12.3686549879
 20
7.85531195
 11
12.3708734357
 21
7.8657341702
  0
LINE
  5
389
100
AcDbEntity
  8
0
100
AcDbLine
 62
4
  6
CONTINUOUS
 10
12.5581103683
 20
8.7061805349
 11
12.5536734739
 21
8.6853361026
  0
LINE
  5
38A
100
AcDbEntity
  8
0
100
AcDbLine
 62
4
  6
CONTINUOUS
 10
12.3952763526
 20
7.9224230354
 11
12.399713247
 21
7.9432674746
  0
LINE
  5
38B
100
AcDbEntity
  8
0
100
AcDbLine
 62
4
  6
CONTINUOUS
 10
12.5581103683
 20
8.6095879855
 11
12.5536734739
 21
8.5887435532
  0
LINE
  5
38C
100
AcDbEntity
  8
0
100
AcDbLine
 62
4
  6
CONTINUOUS
 10
12.3974947998
 20
7.8334928831
 11
12.399713247
 21
7.8439151035
  0
LINE
  5
38D
100
AcDbEntity
  8
0
100
AcDbLine
 62
4
  6
CONTINUOUS
 10
12.5270521092
 20
8.1269827268
 11
12.5314890031
 21
8.1478271655
  0
LINE
  5
38E
100
AcDbEntity
  8
0
100
AcDbLine
 62
4
  6
CONTINUOUS
 10
12.4587239392
 20
8.4473531247
 11
12.4631608331
 21
8.4626779874
  0
LINE
  5
38F
100
AcDbEntity
  8
0
100
AcDbLine
 62
4
  6
CONTINUOUS
 10
12.3686549879
 20
7.987781778
 11
12.399713247
 21
8.0757373061
  0
LINE
  5
390
100
AcDbEntity
  8
0
100
AcDbLine
 62
4
  6
CONTINUOUS
 10
12.5270521092
 20
8.2235753107
 11
12.5581103683
 21
8.286692757
  0
LINE
  5
391
100
AcDbEntity
  8
0
100
AcDbLine
 62
4
  6
CONTINUOUS
 10
11.231413166
 20
6.3113206527
 11
11.2459020539
 21
6.3296343644
  0
LINE
  5
392
100
AcDbEntity
  8
0
100
AcDbLine
 62
4
  6
CONTINUOUS
 10
12.3686549879
 20
7.8967087702
 11
12.3952763526
 21
7.9224230354
  0
LINE
  5
393
100
AcDbEntity
  8
0
100
AcDbLine
 62
4
  6
CONTINUOUS
 10
12.3952763526
 20
7.8893055793
 11
12.3908394582
 21
7.8850198682
  0
LINE
  5
394
100
AcDbEntity
  8
0
100
AcDbLine
 62
4
  6
CONTINUOUS
 10
12.3775287756
 20
7.8142071836
 11
12.3730918818
 21
7.8099214729
  0
LINE
  5
395
100
AcDbEntity
  8
0
100
AcDbLine
 62
4
  6
CONTINUOUS
 10
9.8259910621
 20
9.9624281697
 11
9.8115021742
 21
9.9634329775
  0
LINE
  5
396
100
AcDbEntity
  8
0
100
AcDbLine
 62
4
  6
CONTINUOUS
 10
9.9056799457
 20
9.9569017269
 11
9.9636354974
 21
9.9528824957
  0
LINE
  5
397
100
AcDbEntity
  8
0
100
AcDbLine
 62
4
  6
CONTINUOUS
 10
10.0143466052
 20
9.9493656684
 11
10.0650577129
 21
9.9458488412
  0
LINE
  5
398
100
AcDbEntity
  8
0
100
AcDbLine
 62
4
  6
CONTINUOUS
 10
10.0143466052
 20
10.0169804765
 11
10.0650577129
 21
10.0134636492
  0
LINE
  5
399
100
AcDbEntity
  8
0
100
AcDbLine
 62
4
  6
CONTINUOUS
 10
10.0650577129
 20
10.0617599446
 11
10.0143466052
 21
10.0652767719
  0
LINE
  5
39A
100
AcDbEntity
  8
0
100
AcDbLine
 62
4
  6
CONTINUOUS
 10
9.8115021742
 20
10.0793440809
 11
9.8259910621
 21
10.0783392731
  0
LINE
  5
39B
100
AcDbEntity
  8
0
100
AcDbLine
 62
4
  6
CONTINUOUS
 10
9.9274132776
 20
10.0713056186
 11
9.9419021655
 21
10.0703008108
  0
LINE
  5
39C
100
AcDbEntity
  8
0
100
AcDbLine
 62
4
  6
CONTINUOUS
 10
10.8944162328
 20
10.5514767013
 11
10.8886392589
 21
10.55589657
  0
LINE
  5
39D
100
AcDbEntity
  8
0
100
AcDbLine
 62
4
  6
CONTINUOUS
 10
12.3797472235
 20
8.7767563096
 11
12.3775287756
 21
8.7828927863
  0
LINE
  5
39E
100
AcDbEntity
  8
0
100
AcDbLine
 62
4
  6
CONTINUOUS
 10
12.4853453039
 20
8.4896261112
 11
12.4897821983
 21
8.4773531011
  0
LINE
  5
39F
100
AcDbEntity
  8
0
100
AcDbLine
 62
4
  6
CONTINUOUS
 10
12.3797472235
 20
8.8512706378
 11
12.3775287756
 21
8.8574071145
  0
LINE
  5
3A0
100
AcDbEntity
  8
0
100
AcDbLine
 62
4
  6
CONTINUOUS
 10
12.4853453039
 20
8.580699119
 11
12.4897821983
 21
8.568426109
  0
LINE
  5
3A1
100
AcDbEntity
  8
0
100
AcDbLine
 62
4
  6
CONTINUOUS
 10
12.399713247
 20
8.9119531119
 11
12.3974947998
 21
8.9180895893
  0
LINE
  5
3A2
100
AcDbEntity
  8
0
100
AcDbLine
 62
4
  6
CONTINUOUS
 10
12.5314890031
 20
8.5673149986
 11
12.5270521092
 21
8.5795880092
  0
LINE
  5
3A3
100
AcDbEntity
  8
0
100
AcDbLine
 62
4
  6
CONTINUOUS
 10
12.5314890031
 20
8.663907548
 11
12.5270521092
 21
8.6761805585
  0
LINE
  5
3A4
100
AcDbEntity
  8
0
100
AcDbLine
 62
4
  6
CONTINUOUS
 10
12.5536734739
 20
8.7432916543
 11
12.5581103683
 21
8.7310186442
  0
LINE
  5
3A5
100
AcDbEntity
  8
0
100
AcDbLine
 62
4
  6
CONTINUOUS
 10
12.5536734739
 20
8.8343646484
 11
12.5581103683
 21
8.8220916383
  0
LINE
  5
3A6
100
AcDbEntity
  8
0
100
AcDbLine
 62
4
  6
CONTINUOUS
 10
12.4698161749
 20
8.4691065543
 11
12.4720346209
 21
8.4602102567
  0
LINE
  5
3A7
100
AcDbEntity
  8
0
100
AcDbLine
 62
4
  6
CONTINUOUS
 10
12.5388838262
 20
8.0749361642
 11
12.5447996857
 21
8.0364938343
  0
LINE
  5
3A8
100
AcDbEntity
  8
0
100
AcDbLine
 62
4
  6
CONTINUOUS
 10
11.2966131617
 20
6.2391842078
 11
11.2893687177
 21
6.2300273528
  0
LINE
  5
3A9
100
AcDbEntity
  8
0
100
AcDbLine
 62
7
  6
CONTINUOUS
 10
12.060660578
 20
10.1609823553
 11
9.1628829275
 21
10.3619439179
  0
LINE
  5
3AA
100
AcDbEntity
  8
0
100
AcDbLine
 62
4
  6
CONTINUOUS
 10
11.0026556682
 20
10.5560279737
 11
11.0084326447
 21
10.5516081047
  0
LINE
  5
3AB
100
AcDbEntity
  8
0
100
AcDbLine
 62
4
  6
CONTINUOUS
 10
12.5447996857
 20
8.9996598818
 11
12.5507155447
 21
8.9612175549
  0
LINE
  5
3AC
100
AcDbEntity
  8
0
100
AcDbLine
 62
7
  6
CONTINUOUS
 10
12.8371170725
 20
6.6850560404
 11
12.8371170725
 21
10.9109817808
  0
LINE
  5
3AD
100
AcDbEntity
  8
0
100
AcDbLine
 62
4
  6
CONTINUOUS
 10
11.2459020539
 20
6.3296343644
 11
11.2603909419
 21
6.3382888129
  0
LINE
  5
3AE
100
AcDbEntity
  8
0
100
AcDbLine
 62
4
  6
CONTINUOUS
 10
11.0045503623
 20
10.5478581077
 11
10.991008821
 21
10.5447779825
  0
LINE
  5
3AF
100
AcDbEntity
  8
0
100
AcDbLine
 62
4
  6
CONTINUOUS
 10
10.8925215412
 20
10.5596465671
 11
10.9060630799
 21
10.5627266924
  0
LINE
  5
3B0
100
AcDbEntity
  8
0
100
AcDbLine
 62
4
  6
CONTINUOUS
 10
10.991008821
 20
10.5447779825
 11
10.9678080217
 21
10.5423677292
  0
LINE
  5
3B1
100
AcDbEntity
  8
0
100
AcDbLine
 62
4
  6
CONTINUOUS
 10
10.9678080217
 20
10.5423677292
 11
10.9368891046
 21
10.5425023462
  0
LINE
  5
3B2
100
AcDbEntity
  8
0
100
AcDbLine
 62
4
  6
CONTINUOUS
 10
10.9368891046
 20
10.5425023462
 11
10.9098524699
 21
10.5463869603
  0
LINE
  5
3B3
100
AcDbEntity
  8
0
100
AcDbLine
 62
4
  6
CONTINUOUS
 10
11.0297851978
 20
10.5722330885
 11
10.9294032239
 21
10.595271539
  0
LINE
  5
3B4
100
AcDbEntity
  8
0
100
AcDbLine
 62
4
  6
CONTINUOUS
 10
10.9098524699
 20
10.5463869603
 11
10.8944162328
 21
10.5514767013
  0
LINE
  5
3B5
100
AcDbEntity
  8
0
100
AcDbLine
 62
4
  6
CONTINUOUS
 10
10.9949375504
 20
10.5585728441
 11
11.0026556682
 21
10.5560279737
  0
LINE
  5
3B6
100
AcDbEntity
  8
0
100
AcDbLine
 62
4
  6
CONTINUOUS
 10
11.2893687177
 20
6.2300273528
 11
11.2748798298
 21
6.2213729017
  0
LINE
  5
3B7
100
AcDbEntity
  8
0
100
AcDbLine
 62
4
  6
CONTINUOUS
 10
10.9060630799
 20
10.5627266924
 11
10.9176634844
 21
10.5639318187
  0
LINE
  5
3B8
100
AcDbEntity
  8
0
100
AcDbLine
 62
4
  6
CONTINUOUS
 10
10.9138740944
 20
10.5802715508
 11
11.0453143273
 21
10.5872330766
  0
LINE
  5
3B9
100
AcDbEntity
  8
0
100
AcDbLine
 62
4
  6
CONTINUOUS
 10
10.9837551773
 20
10.6477714976
 11
11.1093719867
 21
10.6491080279
  0
LINE
  5
3BA
100
AcDbEntity
  8
0
100
AcDbLine
 62
4
  6
CONTINUOUS
 10
11.0608434569
 20
10.6022330648
 11
10.9449323535
 21
10.6102715271
  0
LINE
  5
3BB
100
AcDbEntity
  8
0
100
AcDbLine
 62
4
  6
CONTINUOUS
 10
11.0899605748
 20
10.6303580426
 11
10.9837551773
 21
10.6477714976
  0
LINE
  5
3BC
100
AcDbEntity
  8
0
100
AcDbLine
 62
7
  6
CONTINUOUS
 10
10.7735098068
 20
11.2276230641
 11
10.7428357322
 21
11.2427754696
  0
LINE
  5
3BD
100
AcDbEntity
  8
0
100
AcDbLine
 62
7
  6
CONTINUOUS
 10
12.8371170725
 20
6.6850560404
 11
12.060660578
 21
5.9350566149
  0
LINE
  5
3BE
100
AcDbEntity
  8
0
100
AcDbLine
 62
7
  6
CONTINUOUS
 10
12.8371170725
 20
10.9109817808
 11
10.8702538381
 21
11.0473842094
  0
LINE
  5
3BF
100
AcDbEntity
  8
0
100
AcDbLine
 62
7
  6
CONTINUOUS
 10
12.222398568
 20
5.7723769075
 11
12.1917245575
 21
5.7572245337
  0
ARC
  5
3C0
100
AcDbEntity
  8
0
100
AcDbCircle
 62
7
  6
CONTINUOUS
 10
10.2436735502
 20
12.8478576681
 40
2.2641254892
100
AcDbArc
 50
266.0354973614
 51
266.723157899
  0
ARC
  5
3C1
100
AcDbEntity
  8
0
100
AcDbCircle
 62
7
  6
CONTINUOUS
 10
10.2429599546
 20
13.220983762
 40
2.2528257917
100
AcDbArc
 50
266.0337727607
 51
266.7248824998
  0
ARC
  5
3C2
100
AcDbEntity
  8
0
100
AcDbCircle
 62
7
  6
CONTINUOUS
 10
11.7111549697
 20
7.9142436085
 40
2.2101036351
100
AcDbArc
 50
273.2665005552
 51
274.6677615151
  0
ARC
  5
3C3
100
AcDbEntity
  8
0
100
AcDbCircle
 62
7
  6
CONTINUOUS
 10
10.2377639228
 20
13.1472606121
 40
2.1789198093
100
AcDbArc
 50
265.329224888
 51
266.0359887124
  0
ARC
  5
3C4
100
AcDbEntity
  8
0
100
AcDbCircle
 62
7
  6
CONTINUOUS
 10
10.2377639227
 20
12.7628571706
 40
2.1789198091
100
AcDbArc
 50
265.329224888
 51
266.0359887124
  0
ARC
  5
3C5
100
AcDbEntity
  8
0
100
AcDbCircle
 62
7
  6
CONTINUOUS
 10
10.2502216891
 20
11.2578528938
 40
1.6920461747
100
AcDbArc
 50
266.0695780218
 51
269.7047938069
  0
ARC
  5
3C6
100
AcDbEntity
  8
0
100
AcDbCircle
 62
7
  6
CONTINUOUS
 10
10.2504587366
 20
11.1918852062
 40
1.6373942582
100
AcDbArc
 50
266.0751167828
 51
269.9994598288
  0
ARC
  5
3C7
100
AcDbEntity
  8
0
100
AcDbCircle
 62
7
  6
CONTINUOUS
 10
10.4390902272
 20
6.2655739933
 40
1.3942355598
100
AcDbArc
 50
95.5310880065
 51
97.8541963735
  0
ARC
  5
3C8
100
AcDbEntity
  8
0
100
AcDbCircle
 62
7
  6
CONTINUOUS
 10
11.4911803962
 20
6.6752077245
 40
0.9538158545
100
AcDbArc
 50
254.2644742826
 51
256.7139235525
  0
ARC
  5
3C9
100
AcDbEntity
  8
0
100
AcDbCircle
 62
7
  6
CONTINUOUS
 10
10.4601619503
 20
11.5549099656
 40
0.9538147475
100
AcDbArc
 50
283.286087793
 51
285.7355389587
  0
ARC
  5
3CA
100
AcDbEntity
  8
0
100
AcDbCircle
 62
7
  6
CONTINUOUS
 10
10.4601619503
 20
11.9393134069
 40
0.9538147475
100
AcDbArc
 50
283.286087793
 51
285.7355389587
  0
ARC
  5
3CB
100
AcDbEntity
  8
0
100
AcDbCircle
 62
7
  6
CONTINUOUS
 10
11.8835175664
 20
6.4572721087
 40
0.7641475746
100
AcDbArc
 50
293.7608747297
 51
296.3085175792
  0
ARC
  5
3CC
100
AcDbEntity
  8
0
100
AcDbCircle
 62
7
  6
CONTINUOUS
 10
10.4619920746
 20
7.7368089215
 40
0.5244261344
100
AcDbArc
 50
159.1304142762
 51
159.2996100683
  0
ARC
  5
3CD
100
AcDbEntity
  8
0
100
AcDbCircle
 62
7
  6
CONTINUOUS
 10
10.017097749
 20
8.9244046078
 40
0.431628817
100
AcDbArc
 50
108.9308791805
 51
110.4436495808
  0
ARC
  5
3CE
100
AcDbEntity
  8
0
100
AcDbCircle
 62
7
  6
CONTINUOUS
 10
10.1578651978
 20
9.5423961521
 40
0.4011281645
100
AcDbArc
 50
263.2901751245
 51
266.0308540031
  0
ARC
  5
3CF
100
AcDbEntity
  8
0
100
AcDbCircle
 62
7
  6
CONTINUOUS
 10
10.1574326882
 20
9.5358283961
 40
0.3945462242
100
AcDbArc
 50
266.027493193
 51
268.7983683529
  0
SPLINE
  5
3D0
100
AcDbEntity
  8
0
100
AcDbSpline
 62
7
  6
CONTINUOUS
 70
0
 71
3
 72
9
 73
5
 74
0
 42
0.0000001
 43
0.0000001
 44
0.0000000001
 40
0.0
 40
0.0
 40
0.0
 40
0.0
 40
0.2426666479
 40
1.0
 40
1.0
 40
1.0
 40
1.0
 10
12.319142724
 20
5.8324957844
 30
0.0
 10
12.3186350962
 20
5.8319020115
 30
0.0
 10
12.3165114004
 20
5.829482427
 30
0.0
 10
12.314265992
 20
5.8271705322
 30
0.0
 10
12.3125124573
 20
5.8254767477
 30
0.0
  0
SPLINE
  5
3D1
100
AcDbEntity
  8
0
100
AcDbSpline
 62
7
  6
CONTINUOUS
 70
0
 71
3
 72
9
 73
5
 74
0
 42
0.0000001
 43
0.0000001
 44
0.0000000001
 40
0.0
 40
0.0
 40
0.0
 40
0.0
 40
0.2426770998
 40
1.0
 40
1.0
 40
1.0
 40
1.0
 10
12.3125124573
 20
5.8254767477
 30
0.0
 10
12.3119042669
 20
5.8248892808
 30
0.0
 10
12.3093712155
 20
5.8224963996
 30
0.0
 10
12.3067355017
 20
5.8202129301
 30
0.0
 10
12.3046946997
 20
5.8185400637
 30
0.0
  0
SPLINE
  5
3D2
100
AcDbEntity
  8
0
100
AcDbSpline
 62
7
  6
CONTINUOUS
 70
0
 71
3
 72
9
 73
5
 74
0
 42
0.0000001
 43
0.0000001
 44
0.0000000001
 40
0.0
 40
0.0
 40
0.0
 40
0.0
 40
0.504378312
 40
1.0
 40
1.0
 40
1.0
 40
1.0
 10
12.3046946997
 20
5.8185400637
 30
0.0
 10
12.2911909494
 20
5.81013121
 30
0.0
 10
12.264078112
 20
5.793996554
 30
0.0
 10
12.2362053155
 20
5.7791993592
 30
0.0
 10
12.2221911776
 20
5.7722745169
 30
0.0
  0
SPLINE
  5
3D3
100
AcDbEntity
  8
0
100
AcDbSpline
 62
7
  6
CONTINUOUS
 70
0
 71
3
 72
9
 73
5
 74
0
 42
0.0000001
 43
0.0000001
 44
0.0000000001
 40
0.0
 40
0.0
 40
0.0
 40
0.0
 40
0.4824337568
 40
1.0
 40
1.0
 40
1.0
 40
1.0
 10
11.2556259412
 20
7.3384485905
 30
0.0
 10
11.2567477844
 20
7.3400212876
 30
0.0
 10
11.2592505574
 20
7.343156639
 30
0.0
 10
11.2620262954
 20
7.3460498616
 30
0.0
 10
11.2635169478
 20
7.3474897213
 30
0.0
  0
SPLINE
  5
3D4
100
AcDbEntity
  8
0
100
AcDbSpline
 62
7
  6
CONTINUOUS
 70
0
 71
3
 72
47
 73
43
 74
0
 42
0.0000001
 43
0.0000001
 44
0.0000000001
 40
0.0
 40
0.0
 40
0.0
 40
0.0
 40
0.0099874638
 40
0.0204476834
 40
0.0313771515
 40
0.0427708334
 40
0.0546218702
 40
0.0669225517
 40
0.0796641282
 40
0.0928362942
 40
0.1204271347
 40
0.1495984091
 40
0.1802407165
 40
0.2122338314
 40
0.2454489836
 40
0.2797497839
 40
0.3149929168
 40
0.3510298084
 40
0.3877071885
 40
0.4248680172
 40
0.4623527228
 40
0.4999997959
 40
0.5376468789
 40
0.575131606
 40
0.6122924455
 40
0.6489698269
 40
0.6850067267
 40
0.7202498875
 40
0.7545507276
 40
0.7877659112
 40
0.8197590481
 40
0.8504013805
 40
0.8795726993
 40
0.9071635849
 40
0.9203357726
 40
0.933077377
 40
0.9453780958
 40
0.9572291635
 40
0.968622847
 40
0.9795522717
 40
0.9900124597
 40
1.0
 40
1.0
 40
1.0
 40
1.0
 10
12.191728443
 20
5.7572264883
 30
0.0
 10
12.1887379086
 20
5.7557492106
 30
0.0
 10
12.1825642022
 20
5.7528272948
 30
0.0
 10
12.1729620038
 20
5.7486278511
 30
0.0
 10
12.1628138257
 20
5.7445150163
 30
0.0
 10
12.1521313777
 20
5.7404938066
 30
0.0
 10
12.140927002
 20
5.7365685013
 30
0.0
 10
12.1292135014
 20
5.7327437822
 30
0.0
 10
12.1170042455
 20
5.7290242114
 30
0.0
 10
12.0998164166
 20
5.7241346796
 30
0.0
 10
12.0771861043
 20
5.7183391981
 30
0.0
 10
12.048694826
 20
5.7119705259
 30
0.0
 10
12.018594777
 20
5.706115002
 30
0.0
 10
11.9870247708
 20
5.7007996603
 30
0.0
 10
11.9541301128
 20
5.6960495039
 30
0.0
 10
11.9200624617
 20
5.6918869718
 30
0.0
 10
11.8849790032
 20
5.6883312438
 30
0.0
 10
11.8490416823
 20
5.6853990734
 30
0.0
 10
11.8124164214
 20
5.6831042888
 30
0.0
 10
11.7752723889
 20
5.6814573413
 30
0.0
 10
11.737781165
 20
5.6804661053
 30
0.0
 10
11.7001159247
 20
5.6801352487
 30
0.0
 10
11.6624506771
 20
5.6804660886
 30
0.0
 10
11.6249594387
 20
5.6814573086
 30
0.0
 10
11.5878153942
 20
5.6831042393
 30
0.0
 10
11.5511901255
 20
5.6853990078
 30
0.0
 10
11.5152527908
 20
5.6883311613
 30
0.0
 10
11.4801693052
 20
5.6918868748
 30
0.0
 10
11.446101619
 20
5.6960493922
 30
0.0
 10
11.4132069277
 20
5.7007995352
 30
0.0
 10
11.3816368923
 20
5.7061148611
 30
0.0
 10
11.3515368094
 20
5.7119703707
 30
0.0
 10
11.3230454898
 20
5.7183390334
 30
0.0
 10
11.3004151358
 20
5.7241345014
 30
0.0
 10
11.2832272713
 20
5.7290240237
 30
0.0
 10
11.2710179846
 20
5.732743593
 30
0.0
 10
11.2593044525
 20
5.7365683193
 30
0.0
 10
11.2481000531
 20
5.7404936272
 30
0.0
 10
11.2374176023
 20
5.7445148186
 30
0.0
 10
11.2272694303
 20
5.7486276024
 30
0.0
 10
11.2176672143
 20
5.7528270077
 30
0.0
 10
11.2114934931
 20
5.7557489284
 30
0.0
 10
11.2085029401
 20
5.757226226
 30
0.0
  0
SPLINE
  5
3D5
100
AcDbEntity
  8
0
100
AcDbSpline
 62
7
  6
CONTINUOUS
 70
0
 71
3
 72
23
 73
19
 74
0
 42
0.0000001
 43
0.0000001
 44
0.0000000001
 40
0.0
 40
0.0
 40
0.0
 40
0.0
 40
0.0436203086
 40
0.0892268542
 40
0.137068591
 40
0.187353676
 40
0.2402538462
 40
0.2958872461
 40
0.3543311569
 40
0.4156094827
 40
0.4797102731
 40
0.5465788188
 40
0.6161346312
 40
0.6882694307
 40
0.7628606873
 40
0.8397744221
 40
0.9188692703
 40
1.0
 40
1.0
 40
1.0
 40
1.0
 10
11.1894966806
 20
5.7666149762
 30
0.0
 10
11.187186745
 20
5.7677555447
 30
0.0
 10
11.1825496212
 20
5.7702706412
 30
0.0
 10
11.1757223318
 20
5.7746316933
 30
0.0
 10
11.1688859429
 20
5.7796739798
 30
0.0
 10
11.1620443932
 20
5.7854049121
 30
0.0
 10
11.155203295
 20
5.7918285629
 30
0.0
 10
11.1483657545
 20
5.7989401353
 30
0.0
 10
11.1415374953
 20
5.8067309473
 30
0.0
 10
11.1347212512
 20
5.8151843498
 30
0.0
 10
11.1279220827
 20
5.8242802557
 30
0.0
 10
11.1211422325
 20
5.8339926376
 30
0.0
 10
11.1143855656
 20
5.8442931857
 30
0.0
 10
11.1076536786
 20
5.8551501398
 30
0.0
 10
11.1009489616
 20
5.8665309933
 30
0.0
 10
11.0942723124
 20
5.8784020758
 30
0.0
 10
11.0876248199
 20
5.8907299148
 30
0.0
 10
11.0832657019
 20
5.8991293319
 30
0.0
 10
11.0810881703
 20
5.9033974648
 30
0.0
  0
SPLINE
  5
3D6
100
AcDbEntity
  8
0
100
AcDbSpline
 62
7
  6
CONTINUOUS
 70
0
 71
3
 72
15
 73
11
 74
0
 42
0.0000001
 43
0.0000001
 44
0.0000000001
 40
0.0
 40
0.0
 40
0.0
 40
0.0
 40
0.1023558154
 40
0.2109358052
 40
0.3259161785
 40
0.4474244519
 40
0.5755484627
 40
0.7103426014
 40
0.8518318565
 40
1.0
 40
1.0
 40
1.0
 40
1.0
 10
11.2800626163
 20
7.3629067249
 30
0.0
 10
11.28139702
 20
7.3641482953
 30
0.0
 10
11.2842319568
 20
7.3666166255
 30
0.0
 10
11.2888203341
 20
7.3701745697
 30
0.0
 10
11.2938623453
 20
7.3736909637
 30
0.0
 10
11.299352199
 20
7.3771612115
 30
0.0
 10
11.3052837307
 20
7.3805819927
 30
0.0
 10
11.3116507121
 20
7.3839498217
 30
0.0
 10
11.3184464911
 20
7.3872609401
 30
0.0
 10
11.3231501303
 20
7.3893797221
 30
0.0
 10
11.3255701672
 20
7.3904308626
 30
0.0
  0
SPLINE
  5
3D7
100
AcDbEntity
  8
0
100
AcDbSpline
 62
7
  6
CONTINUOUS
 70
0
 71
3
 72
11
 73
7
 74
0
 42
0.0000001
 43
0.0000001
 44
0.0000000001
 40
0.0
 40
0.0
 40
0.0
 40
0.0
 40
0.2518966491
 40
0.5036469249
 40
0.7535960621
 40
1.0
 40
1.0
 40
1.0
 40
1.0
 10
11.7293483706
 20
7.2361642277
 30
0.0
 10
11.7187619961
 20
7.2359494071
 30
0.0
 10
11.6975899273
 20
7.2357542393
 30
0.0
 10
11.6659123774
 20
7.2361570409
 30
0.0
 10
11.6344822027
 20
7.2372524417
 30
0.0
 10
11.6136500523
 20
7.2384498129
 30
0.0
 10
11.6033172042
 20
7.2391663983
 30
0.0
  0
SPLINE
  5
3D8
100
AcDbEntity
  8
0
100
AcDbSpline
 62
7
  6
CONTINUOUS
 70
0
 71
3
 72
33
 73
29
 74
0
 42
0.0000001
 43
0.0000001
 44
0.0000000001
 40
0.0
 40
0.0
 40
0.0
 40
0.0
 40
0.0958286365
 40
0.1891115053
 40
0.2792513104
 40
0.3657237971
 40
0.4480154657
 40
0.5256570047
 40
0.562601917
 40
0.5982301544
 40
0.632497199
 40
0.6653641947
 40
0.6967951774
 40
0.7267604252
 40
0.7552366683
 40
0.782205698
 40
0.8076591304
 40
0.831597296
 40
0.8540306469
 40
0.8749852782
 40
0.8945024171
 40
0.9126440121
 40
0.9294988596
 40
0.945185365
 40
0.9598600908
 40
0.973721423
 40
0.987009211
 40
1.0
 40
1.0
 40
1.0
 40
1.0
 10
11.6033172042
 20
7.2391663983
 30
0.0
 10
11.5935765599
 20
7.2398419143
 30
0.0
 10
11.5743680997
 20
7.2413893854
 30
0.0
 10
11.546066007
 20
7.2443427819
 30
0.0
 10
11.518791861
 20
7.2478825697
 30
0.0
 10
11.4927291527
 20
7.2519838707
 30
0.0
 10
11.4680504465
 20
7.2566193658
 30
0.0
 10
11.4484630732
 20
7.2609696599
 30
0.0
 10
11.4336213734
 20
7.2647123253
 30
0.0
 10
11.4231206555
 20
7.2675859665
 30
0.0
 10
11.4130828903
 20
7.2705681328
 30
0.0
 10
11.4035246703
 20
7.2736534896
 30
0.0
 10
11.3944619145
 20
7.2768371414
 30
0.0
 10
11.3859096295
 20
7.2801137523
 30
0.0
 10
11.3778818226
 20
7.283477545
 30
0.0
 10
11.370391822
 20
7.2869233809
 30
0.0
 10
11.3634517655
 20
7.2904453231
 30
0.0
 10
11.3570728058
 20
7.2940375361
 30
0.0
 10
11.3512654164
 20
7.2976947841
 30
0.0
 10
11.3460385549
 20
7.3014109634
 30
0.0
 10
11.3414005042
 20
7.3051808354
 30
0.0
 10
11.337358894
 20
7.3089995772
 30
0.0
 10
11.3339199507
 20
7.3128619845
 30
0.0
 10
11.3310905334
 20
7.3167643077
 30
0.0
 10
11.328877442
 20
7.3207021847
 30
0.0
 10
11.3272875598
 20
7.3246708482
 30
0.0
 10
11.3263296624
 20
7.3286622175
 30
0.0
 10
11.326115525
 20
7.3313443768
 30
0.0
 10
11.3261155695
 20
7.3326680164
 30
0.0
  0
SPLINE
  5
3D9
100
AcDbEntity
  8
0
100
AcDbSpline
 62
7
  6
CONTINUOUS
 70
0
 71
3
 72
21
 73
17
 74
0
 42
0.0000001
 43
0.0000001
 44
0.0000000001
 40
0.0
 40
0.0
 40
0.0
 40
0.0
 40
0.1230212981
 40
0.1847065752
 40
0.2465215318
 40
0.3084771567
 40
0.3705832678
 40
0.432847904
 40
0.4952752623
 40
0.5578663069
 40
0.6206183946
 40
0.6835249868
 40
0.7465773451
 40
0.8097643485
 40
0.8730733734
 40
1.0
 40
1.0
 40
1.0
 40
1.0
 10
11.8370873623
 20
5.7077307238
 30
0.0
 10
11.8140081813
 20
5.7031833677
 30
0.0
 10
11.7791757398
 20
5.6972109613
 30
0.0
 10
11.7324045248
 20
5.6913008139
 30
0.0
 10
11.6970932162
 20
5.6879735999
 30
0.0
 10
11.6616087734
 20
5.6858391923
 30
0.0
 10
11.6259840523
 20
5.684968456
 30
0.0
 10
11.5902608408
 20
5.6854173512
 30
0.0
 10
11.5544872191
 20
5.6872193499
 30
0.0
 10
11.5187146929
 20
5.6903826359
 30
0.0
 10
11.482994753
 20
5.6948915864
 30
0.0
 10
11.4473751396
 20
5.7007058282
 30
0.0
 10
11.4118970001
 20
5.7077635423
 30
0.0
 10
11.3765928094
 20
5.715989232
 30
0.0
 10
11.3297488832
 20
5.728408784
 30
0.0
 10
11.2949884735
 20
5.7391965784
 30
0.0
 10
11.2719808877
 20
5.7469209909
 30
0.0
  0
SPLINE
  5
3DA
100
AcDbEntity
  8
0
100
AcDbSpline
 62
7
  6
CONTINUOUS
 70
0
 71
3
 72
11
 73
7
 74
0
 42
0.0000001
 43
0.0000001
 44
0.0000000001
 40
0.0
 40
0.0
 40
0.0
 40
0.0
 40
0.2465919593
 40
0.494712682
 40
0.7454424776
 40
1.0
 40
1.0
 40
1.0
 40
1.0
 10
11.2325081098
 20
5.7571372847
 30
0.0
 10
11.230565697
 20
5.75708245
 30
0.0
 10
11.2266643872
 20
5.7570897965
 30
0.0
 10
11.220798696
 20
5.7574733183
 30
0.0
 10
11.214908624
 20
5.7582516007
 30
0.0
 10
11.2110021669
 20
5.7590411486
 30
0.0
 10
11.2090507218
 20
5.7595056099
 30
0.0
  0
SPLINE
  5
3DB
100
AcDbEntity
  8
0
100
AcDbSpline
 62
7
  6
CONTINUOUS
 70
0
 71
3
 72
10
 73
6
 74
0
 42
0.0000001
 43
0.0000001
 44
0.0000000001
 40
0.0
 40
0.0
 40
0.0
 40
0.0
 40
0.2418255986
 40
0.4885199497
 40
1.0
 40
1.0
 40
1.0
 40
1.0
 10
11.2090507218
 20
5.7595056099
 30
0.0
 10
11.2074162043
 20
5.7598946397
 30
0.0
 10
11.204135894
 20
5.7607755002
 30
0.0
 10
11.1975369937
 20
5.7629578055
 30
0.0
 10
11.1926831153
 20
5.7650416219
 30
0.0
 10
11.1894966806
 20
5.7666149762
 30
0.0
  0
SPLINE
  5
3DC
100
AcDbEntity
  8
0
100
AcDbSpline
 62
7
  6
CONTINUOUS
 70
0
 71
3
 72
19
 73
15
 74
0
 42
0.0000001
 43
0.0000001
 44
0.0000000001
 40
0.0
 40
0.0
 40
0.0
 40
0.0
 40
0.052355758
 40
0.1068517561
 40
0.1633415832
 40
0.2216694758
 40
0.2816718053
 40
0.3431779536
 40
0.4060109402
 40
0.4699887198
 40
0.6006236375
 40
0.7335522237
 40
0.8672046872
 40
1.0
 40
1.0
 40
1.0
 40
1.0
 10
11.3995011241
 20
6.9439350844
 30
0.0
 10
11.405977558
 20
6.942442276
 30
0.0
 10
11.4192341179
 20
6.9395626237
 30
0.0
 10
11.4395931918
 20
6.9356227628
 30
0.0
 10
11.4607779808
 20
6.9319847886
 30
0.0
 10
11.4827212972
 20
6.9286604079
 30
0.0
 10
11.505353708
 20
6.9256601773
 30
0.0
 10
11.5286035122
 20
6.9229938405
 30
0.0
 10
11.552397105
 20
6.9206696797
 30
0.0
 10
11.5849718261
 20
6.9180191751
 30
0.0
 10
11.6264893288
 20
6.9156247751
 30
0.0
 10
11.6769010609
 20
6.9142196125
 30
0.0
 10
11.7276062858
 20
6.9142816828
 30
0.0
 10
11.7614204828
 20
6.9153079541
 30
0.0
 10
11.7782606895
 20
6.9160730121
 30
0.0
  0
LINE
  5
3DD
100
AcDbEntity
  8
0
100
AcDbLine
 62
7
  6
CONTINUOUS
 10
12.1914082193
 20
5.7578974869
 11
12.1906791053
 21
5.7575775993
  0
SPLINE
  5
3DE
100
AcDbEntity
  8
0
100
AcDbSpline
 62
7
  6
CONTINUOUS
 70
0
 71
3
 72
15
 73
11
 74
0
 42
0.0000001
 43
0.0000001
 44
0.0000000001
 40
0.0
 40
0.0
 40
0.0
 40
0.0
 40
0.1321602046
 40
0.2618009952
 40
0.3890353631
 40
0.5141096583
 40
0.6373677171
 40
0.75919507
 40
0.8799649792
 40
1.0
 40
1.0
 40
1.0
 40
1.0
 10
12.1906791053
 20
5.7575775993
 30
0.0
 10
12.1782980019
 20
5.7521538572
 30
0.0
 10
12.1534572381
 20
5.742106868
 30
0.0
 10
12.1156631749
 20
5.7295734306
 30
0.0
 10
12.0777924055
 20
5.7198561411
 30
0.0
 10
12.0399660298
 20
5.7129876369
 30
0.0
 10
12.0022986439
 20
5.7088878084
 30
0.0
 10
11.964883062
 20
5.7073811205
 30
0.0
 10
11.9277822253
 20
5.7082279682
 30
0.0
 10
11.9032178059
 20
5.7101873182
 30
0.0
 10
11.8910081646
 20
5.7114701508
 30
0.0
  0
SPLINE
  5
3DF
100
AcDbEntity
  8
0
100
AcDbSpline
 62
7
  6
CONTINUOUS
 70
0
 71
3
 72
50
 73
46
 74
0
 42
0.0000001
 43
0.0000001
 44
0.0000000001
 40
0.0
 40
0.0
 40
0.0
 40
0.0
 40
0.0966033537
 40
0.1928583798
 40
0.2874746259
 40
0.3337738616
 40
0.3791937859
 40
0.4235849945
 40
0.4668027602
 40
0.5087076507
 40
0.5491670758
 40
0.5880548165
 40
0.6252539004
 40
0.6606553702
 40
0.6941622053
 40
0.7256884157
 40
0.7551630571
 40
0.7691140846
 40
0.7825336209
 40
0.7954178391
 40
0.807764617
 40
0.8195741918
 40
0.8308484641
 40
0.8415913073
 40
0.8518098422
 40
0.8615144923
 40
0.8707189245
 40
0.8794410454
 40
0.8877044345
 40
0.8955382984
 40
0.9029782218
 40
0.9100675642
 40
0.9168579811
 40
0.9234090291
 40
0.9297878334
 40
0.9360678753
 40
0.942326312
 40
0.9486411313
 40
0.9550882837
 40
0.9617388334
 40
0.9686570311
 40
0.9758993814
 40
0.9835129781
 40
0.9915360611
 40
1.0
 40
1.0
 40
1.0
 40
1.0
 10
11.7383491072
 20
7.2202560605
 30
0.0
 10
11.7209267516
 20
7.2198591514
 30
0.0
 10
11.6861300537
 20
7.2196103916
 30
0.0
 10
11.6342777075
 20
7.2208435182
 30
0.0
 10
11.5915501986
 20
7.2232098027
 30
0.0
 10
11.5580431826
 20
7.2259088515
 30
0.0
 10
11.5336049488
 20
7.2283017083
 30
0.0
 10
11.5097657382
 20
7.2310685991
 30
0.0
 10
11.4866111924
 20
7.2341995772
 30
0.0
 10
11.4642245135
 20
7.2376833692
 30
0.0
 10
11.4426860933
 20
7.2415070262
 30
0.0
 10
11.4220732143
 20
7.2456570665
 30
0.0
 10
11.4024597343
 20
7.2501178465
 30
0.0
 10
11.3839158864
 20
7.2548737143
 30
0.0
 10
11.3665076937
 20
7.2599067841
 30
0.0
 10
11.3502974386
 20
7.2651992955
 30
0.0
 10
11.3376120213
 20
7.2698915931
 30
0.0
 10
11.3281205194
 20
7.2737757303
 30
0.0
 10
11.3214674324
 20
7.276688056
 30
0.0
 10
11.3151547608
 20
7.279650597
 30
0.0
 10
11.3091881726
 20
7.2826608754
 30
0.0
 10
11.30357281
 20
7.2857160182
 30
0.0
 10
11.2983135939
 20
7.2888133188
 30
0.0
 10
11.2934153126
 20
7.2919502877
 30
0.0
 10
11.2888822111
 20
7.2951241656
 30
0.0
 10
11.2847180848
 20
7.2983321401
 30
0.0
 10
11.2809266246
 20
7.3015716312
 30
0.0
 10
11.2775113994
 20
7.304840279
 30
0.0
 10
11.2744752563
 20
7.3081353515
 30
0.0
 10
11.2718209249
 20
7.3114543648
 30
0.0
 10
11.2695513651
 20
7.3147950903
 30
0.0
 10
11.2676693371
 20
7.3181551176
 30
0.0
 10
11.2661771371
 20
7.3215316814
 30
0.0
 10
11.2650773312
 20
7.3249218815
 30
0.0
 10
11.2643727439
 20
7.3283222959
 30
0.0
 10
11.2640647947
 20
7.3317286076
 30
0.0
 10
11.2641540436
 20
7.3351361818
 30
0.0
 10
11.2646404658
 20
7.3385402948
 30
0.0
 10
11.2655230605
 20
7.3419364364
 30
0.0
 10
11.2667994424
 20
7.3453208961
 30
0.0
 10
11.2684673055
 20
7.3486906023
 30
0.0
 10
11.2705244575
 20
7.3520425493
 30
0.0
 10
11.2729678229
 20
7.3553741203
 30
0.0
 10
11.2757938663
 20
7.3586825296
 30
0.0
 10
11.2778735593
 20
7.3608119581
 30
0.0
 10
11.278971762
 20
7.3618727405
 30
0.0
  0
SPLINE
  5
3E0
100
AcDbEntity
  8
0
100
AcDbSpline
 62
7
  6
CONTINUOUS
 70
0
 71
3
 72
33
 73
29
 74
0
 42
0.0000001
 43
0.0000001
 44
0.0000000001
 40
0.0
 40
0.0
 40
0.0
 40
0.0
 40
0.0821170289
 40
0.1643319745
 40
0.245982433
 40
0.3264119527
 40
0.4049768196
 40
0.4810531676
 40
0.5179713945
 40
0.5540463946
 40
0.5892087705
 40
0.6233925782
 40
0.6565337217
 40
0.6885726192
 40
0.7194522199
 40
0.7491201269
 40
0.7775282582
 40
0.8046329213
 40
0.8303971144
 40
0.8547886504
 40
0.8777842874
 40
0.8993680028
 40
0.9195348287
 40
0.9382921016
 40
0.9556619731
 40
0.9716871657
 40
0.9864335688
 40
1.0
 40
1.0
 40
1.0
 40
1.0
 10
11.7482563225
 20
7.2008908207
 30
0.0
 10
11.7342823733
 20
7.2005034411
 30
0.0
 10
11.7063072374
 20
7.2000685851
 30
0.0
 10
11.6644297127
 20
7.2004223129
 30
0.0
 10
11.622859702
 20
7.20177666
 30
0.0
 10
11.5819558853
 20
7.2041197142
 30
0.0
 10
11.5420710392
 20
7.2074309548
 30
0.0
 10
11.5096525474
 20
7.2110073526
 30
0.0
 10
11.4844952793
 20
7.2143464739
 30
0.0
 10
11.466281639
 20
7.2170473613
 30
0.0
 10
11.4485729029
 20
7.2199641357
 30
0.0
 10
11.4314072315
 20
7.2230900419
 30
0.0
 10
11.4148216551
 20
7.2264187871
 30
0.0
 10
11.3988518972
 20
7.2299426637
 30
0.0
 10
11.383532343
 20
7.2336543301
 30
0.0
 10
11.3688959473
 20
7.2375456084
 30
0.0
 10
11.3549741181
 20
7.2416078874
 30
0.0
 10
11.341796764
 20
7.2458327422
 30
0.0
 10
11.3293919665
 20
7.2502104175
 30
0.0
 10
11.3177862751
 20
7.2547321259
 30
0.0
 10
11.3070041526
 20
7.259387515
 30
0.0
 10
11.2970683625
 20
7.2641671103
 30
0.0
 10
11.2879995914
 20
7.2690607303
 30
0.0
 10
11.2798163224
 20
7.2740582136
 30
0.0
 10
11.2725355007
 20
7.2791502153
 30
0.0
 10
11.2661709295
 20
7.2843270877
 30
0.0
 10
11.2607369634
 20
7.2895800039
 30
0.0
 10
11.2576203997
 20
7.2932722113
 30
0.0
 10
11.2562432431
 20
7.2951261906
 30
0.0
  0
SPLINE
  5
3E1
100
AcDbEntity
  8
0
100
AcDbSpline
 62
7
  6
CONTINUOUS
 70
0
 71
3
 72
29
 73
25
 74
0
 42
0.0000001
 43
0.0000001
 44
0.0000000001
 40
0.0
 40
0.0
 40
0.0
 40
0.0
 40
0.070984318
 40
0.1429825523
 40
0.2155057028
 40
0.2880809331
 40
0.3602234383
 40
0.4314560192
 40
0.5013085085
 40
0.5693229079
 40
0.6350576048
 40
0.6980916372
 40
0.728471958
 40
0.7580314442
 40
0.7867250902
 40
0.8145108681
 40
0.8413490867
 40
0.8672023195
 40
0.8920371672
 40
0.9158224349
 40
0.9385315725
 40
0.9601419631
 40
0.9806353258
 40
1.0
 40
1.0
 40
1.0
 40
1.0
 10
10.3948710734
 20
11.3148598004
 30
0.0
 10
10.3796529449
 20
11.3159151812
 30
0.0
 10
10.3489733168
 20
11.3176813497
 30
0.0
 10
10.3026856139
 20
11.3193061545
 30
0.0
 10
10.2560313483
 20
11.3199186516
 30
0.0
 10
10.2093438834
 20
11.3195150248
 30
0.0
 10
10.1629535779
 20
11.3180977795
 30
0.0
 10
10.1171905763
 20
11.3156772736
 30
0.0
 10
10.0723798112
 20
11.312270965
 30
0.0
 10
10.0288393539
 20
11.3079035529
 30
0.0
 10
9.9868785121
 20
11.3026065008
 30
0.0
 10
9.9530721512
 20
11.2973878947
 30
0.0
 10
9.9270529124
 20
11.2927561658
 30
0.0
 10
9.908355131
 20
11.2891182369
 30
0.0
 10
9.8902670474
 20
11.2852797817
 30
0.0
 10
9.8728207333
 20
11.2812477749
 30
0.0
 10
9.8560471216
 20
11.2770295798
 30
0.0
 10
9.8399759891
 20
11.2726323278
 30
0.0
 10
9.8246357186
 20
11.2680644363
 30
0.0
 10
9.8100534759
 20
11.263333573
 30
0.0
 10
9.7962549732
 20
11.2584484415
 30
0.0
 10
9.7832643496
 20
11.253417811
 30
0.0
 10
9.771104771
 20
11.2482502822
 30
0.0
 10
9.7633452112
 20
11.2446168944
 30
0.0
 10
9.7596141149
 20
11.2427737772
 30
0.0
  0
SPLINE
  5
3E2
100
AcDbEntity
  8
0
100
AcDbSpline
 62
7
  6
CONTINUOUS
 70
0
 71
3
 72
9
 73
5
 74
0
 42
0.0000001
 43
0.0000001
 44
0.0000000001
 40
0.0
 40
0.0
 40
0.0
 40
0.0
 40
0.4802028106
 40
1.0
 40
1.0
 40
1.0
 40
1.0
 10
9.6321994056
 20
10.7121990264
 30
0.0
 10
9.6342908285
 20
10.7097526913
 30
0.0
 10
9.6389196482
 20
10.7048891015
 30
0.0
 10
9.6439531178
 20
10.7004518788
 30
0.0
 10
9.6466474538
 20
10.6982433073
 30
0.0
  0
SPLINE
  5
3E3
100
AcDbEntity
  8
0
100
AcDbSpline
 62
7
  6
CONTINUOUS
 70
0
 71
3
 72
9
 73
5
 74
0
 42
0.0000001
 43
0.0000001
 44
0.0000000001
 40
0.0
 40
0.0
 40
0.0
 40
0.0
 40
0.4802028106
 40
1.0
 40
1.0
 40
1.0
 40
1.0
 10
10.8702538381
 20
11.1675042898
 30
0.0
 10
10.8681624152
 20
11.1699506249
 30
0.0
 10
10.8635335955
 20
11.1748142146
 30
0.0
 10
10.858500126
 20
11.1792514374
 30
0.0
 10
10.8558057899
 20
11.1814600088
 30
0.0
  0
SPLINE
  5
3E4
100
AcDbEntity
  8
0
100
AcDbSpline
 62
7
  6
CONTINUOUS
 70
0
 71
3
 72
9
 73
5
 74
0
 42
0.0000001
 43
0.0000001
 44
0.0000000001
 40
0.0
 40
0.0
 40
0.0
 40
0.0
 40
0.5043782952
 40
1.0
 40
1.0
 40
1.0
 40
1.0
 10
10.8558057899
 20
11.1814600088
 30
0.0
 10
10.8423020642
 20
11.189868842
 30
0.0
 10
10.8151892761
 20
11.20600346
 30
0.0
 10
10.7873165329
 20
11.2208006231
 30
0.0
 10
10.7733024219
 20
11.2277254521
 30
0.0
  0
SPLINE
  5
3E5
100
AcDbEntity
  8
0
100
AcDbSpline
 62
7
  6
CONTINUOUS
 70
0
 71
3
 72
9
 73
5
 74
0
 42
0.0000001
 43
0.0000001
 44
0.0000000001
 40
0.0
 40
0.0
 40
0.0
 40
0.0
 40
0.5043782952
 40
1.0
 40
1.0
 40
1.0
 40
1.0
 10
9.6466474538
 20
10.6982433073
 30
0.0
 10
9.6601511796
 20
10.6898344741
 30
0.0
 10
9.6872639676
 20
10.6736998561
 30
0.0
 10
9.7151367109
 20
10.658902693
 30
0.0
 10
9.7291508219
 20
10.6519778641
 30
0.0
  0
SPLINE
  5
3E6
100
AcDbEntity
  8
0
100
AcDbSpline
 62
7
  6
CONTINUOUS
 70
0
 71
3
 72
9
 73
5
 74
0
 42
0.0000001
 43
0.0000001
 44
0.0000000001
 40
0.0
 40
0.0
 40
0.0
 40
0.0
 40
0.2413167516
 40
1.0
 40
1.0
 40
1.0
 40
1.0
 10
9.8100311944
 20
9.6573628012
 30
0.0
 10
9.8104632968
 20
9.6568605192
 30
0.0
 10
9.8122859136
 20
9.6548067121
 30
0.0
 10
9.814229713
 20
9.6528616336
 30
0.0
 10
9.8157546332
 20
9.6514425409
 30
0.0
  0
SPLINE
  5
3E7
100
AcDbEntity
  8
0
100
AcDbSpline
 62
7
  6
CONTINUOUS
 70
0
 71
3
 72
28
 73
24
 74
0
 42
0.0000001
 43
0.0000001
 44
0.0000000001
 40
0.0
 40
0.0
 40
0.0
 40
0.0
 40
0.0165871052
 40
0.0341535937
 40
0.0527305364
 40
0.0723390866
 40
0.0929936513
 40
0.1147033577
 40
0.1374709508
 40
0.1612944416
 40
0.1861689377
 40
0.2120857194
 40
0.2669901087
 40
0.3258847519
 40
0.3886041301
 40
0.4549539099
 40
0.5247129201
 40
0.5976380021
 40
0.6734672954
 40
0.7519163431
 40
0.8326946248
 40
0.9155068431
 40
1.0
 40
1.0
 40
1.0
 40
1.0
 10
9.8311693683
 20
9.6370975057
 30
0.0
 10
9.8324693982
 20
9.6358876881
 30
0.0
 10
9.8352267559
 20
9.6334821905
 30
0.0
 10
9.8396825498
 20
9.6300116023
 30
0.0
 10
9.8445698646
 20
9.6265808512
 30
0.0
 10
9.8498832733
 20
9.6231931876
 30
0.0
 10
9.8556174512
 20
9.6198519096
 30
0.0
 10
9.861766698
 20
9.6165606773
 30
0.0
 10
9.8683246004
 20
9.6133227041
 30
0.0
 10
9.8752843023
 20
9.6101412294
 30
0.0
 10
9.8826387232
 20
9.6070196824
 30
0.0
 10
9.8931644137
 20
9.602861803
 30
0.0
 10
9.9072672596
 20
9.5978596363
 30
0.0
 10
9.9253202701
 20
9.5922555521
 30
0.0
 10
9.944739832
 20
9.5869633039
 30
0.0
 10
9.9654448925
 20
9.5820056959
 30
0.0
 10
9.9873492795
 20
9.5774038013
 30
0.0
 10
10.0103614716
 20
9.5731770015
 30
0.0
 10
10.0343848657
 20
9.5693437717
 30
0.0
 10
10.0593187536
 20
9.5659198419
 30
0.0
 10
10.0850599113
 20
9.562919996
 30
0.0
 10
10.111498272
 20
9.5603574313
 30
0.0
 10
10.1293571401
 20
9.5589596093
 30
0.0
 10
10.1383816114
 20
9.5583337601
 30
0.0
  0
SPLINE
  5
3E8
100
AcDbEntity
  8
0
100
AcDbSpline
 62
7
  6
CONTINUOUS
 70
0
 71
3
 72
23
 73
19
 74
0
 42
0.0000001
 43
0.0000001
 44
0.0000000001
 40
0.0
 40
0.0
 40
0.0
 40
0.0
 40
0.0436202716
 40
0.0892267831
 40
0.1370684894
 40
0.1873535484
 40
0.2402536978
 40
0.2958870825
 40
0.3543309839
 40
0.4156093066
 40
0.4797101
 40
0.5465786547
 40
0.6161344819
 40
0.6882693018
 40
0.7628605839
 40
0.8397743489
 40
0.9188692317
 40
1.0
 40
1.0
 40
1.0
 40
1.0
 10
10.76184544
 20
10.6463183145
 30
0.0
 10
10.7641553733
 20
10.6474588819
 30
0.0
 10
10.7687924923
 20
10.6499739763
 30
0.0
 10
10.7756197746
 20
10.6543350259
 30
0.0
 10
10.7824561564
 20
10.6593773106
 30
0.0
 10
10.7892976989
 20
10.665108242
 30
0.0
 10
10.7961387901
 20
10.6715318927
 30
0.0
 10
10.8029763235
 20
10.6786434658
 30
0.0
 10
10.8098045756
 20
10.6864342795
 30
0.0
 10
10.8166208127
 20
10.6948876845
 30
0.0
 10
10.8234199742
 20
10.7039835938
 30
0.0
 10
10.8301998174
 20
10.7136959801
 30
0.0
 10
10.8369564774
 20
10.7239965334
 30
0.0
 10
10.8436883575
 20
10.7348534933
 30
0.0
 10
10.8503930675
 20
10.7462343535
 30
0.0
 10
10.8570697098
 20
10.7581054433
 30
0.0
 10
10.8637171954
 20
10.7704332903
 30
0.0
 10
10.8680763089
 20
10.7788327128
 30
0.0
 10
10.8702538381
 20
10.7831008484
 30
0.0
  0
SPLINE
  5
3E9
100
AcDbEntity
  8
0
100
AcDbSpline
 62
7
  6
CONTINUOUS
 70
0
 71
3
 72
23
 73
19
 74
0
 42
0.0000001
 43
0.0000001
 44
0.0000000001
 40
0.0
 40
0.0
 40
0.0
 40
0.0
 40
0.0436202716
 40
0.0892267831
 40
0.1370684894
 40
0.1873535484
 40
0.2402536978
 40
0.2958870825
 40
0.3543309839
 40
0.4156093066
 40
0.4797101
 40
0.5465786547
 40
0.6161344819
 40
0.6882693018
 40
0.7628605839
 40
0.8397743489
 40
0.9188692317
 40
1.0
 40
1.0
 40
1.0
 40
1.0
 10
9.7406078037
 20
11.2333850017
 30
0.0
 10
9.7382978705
 20
11.2322444343
 30
0.0
 10
9.7336607514
 20
11.2297293398
 30
0.0
 10
9.7268334691
 20
11.2253682903
 30
0.0
 10
9.7199970874
 20
11.2203260055
 30
0.0
 10
9.7131555448
 20
11.2145950742
 30
0.0
 10
9.7063144537
 20
11.2081714235
 30
0.0
 10
9.6994769203
 20
11.2010598503
 30
0.0
 10
9.6926486682
 20
11.1932690367
 30
0.0
 10
9.6858324311
 20
11.1848156316
 30
0.0
 10
9.6790332696
 20
11.1757197223
 30
0.0
 10
9.6722534263
 20
11.166007336
 30
0.0
 10
9.6654967664
 20
11.1557067828
 30
0.0
 10
9.6587648863
 20
11.1448498228
 30
0.0
 10
9.6520601762
 20
11.1334689626
 30
0.0
 10
9.6453835339
 20
11.1215978728
 30
0.0
 10
9.6387360483
 20
11.1092700259
 30
0.0
 10
9.6343769349
 20
11.1008706034
 30
0.0
 10
9.6321994056
 20
11.0966024677
 30
0.0
  0
SPLINE
  5
3EA
100
AcDbEntity
  8
0
100
AcDbSpline
 62
7
  6
CONTINUOUS
 70
0
 71
3
 72
23
 73
19
 74
0
 42
0.0000001
 43
0.0000001
 44
0.0000000001
 40
0.0
 40
0.0
 40
0.0
 40
0.0
 40
0.0430692708
 40
0.0891859059
 40
0.1383039462
 40
0.1903539308
 40
0.2452509344
 40
0.3028923159
 40
0.36316428
 40
0.4259386958
 40
0.4910792536
 40
0.558438617
 40
0.6278623889
 40
0.6991843849
 40
0.7722354743
 40
0.8468474017
 40
0.9228412057
 40
1.0
 40
1.0
 40
1.0
 40
1.0
 10
10.7428396506
 20
11.2427735195
 30
0.0
 10
10.738241917
 20
11.2450447563
 30
0.0
 10
10.7285992726
 20
11.2495036377
 30
0.0
 10
10.7133655002
 20
11.2557680025
 30
0.0
 10
10.6969027651
 20
11.2618217366
 30
0.0
 10
10.6792547634
 20
11.2676491851
 30
0.0
 10
10.6604676413
 20
11.273234108
 30
0.0
 10
10.6405911012
 20
11.2785621925
 30
0.0
 10
10.6196777127
 20
11.283618434
 30
0.0
 10
10.5977829954
 20
11.2883899162
 30
0.0
 10
10.5749650315
 20
11.2928631631
 30
0.0
 10
10.5512844081
 20
11.2970267664
 30
0.0
 10
10.5268043312
 20
11.3008688679
 30
0.0
 10
10.5015902572
 20
11.3043798189
 30
0.0
 10
10.4757086547
 20
11.3075496755
 30
0.0
 10
10.4492272616
 20
11.3103704158
 30
0.0
 10
10.4222191845
 20
11.3128336988
 30
0.0
 10
10.4040361203
 20
11.3142242022
 30
0.0
 10
10.3948710734
 20
11.3148598004
 30
0.0
  0
SPLINE
  5
3EB
100
AcDbEntity
  8
0
100
AcDbSpline
 62
7
  6
CONTINUOUS
 70
0
 71
3
 72
15
 73
11
 74
0
 42
0.0000001
 43
0.0000001
 44
0.0000000001
 40
0.0
 40
0.0
 40
0.0
 40
0.0
 40
0.1336450863
 40
0.2659787511
 40
0.3964038129
 40
0.5243344809
 40
0.6491995655
 40
0.7704476389
 40
0.8875481155
 40
1.0
 40
1.0
 40
1.0
 40
1.0
 10
10.2210136706
 20
9.1487422558
 30
0.0
 10
10.2123783555
 20
9.1489233736
 30
0.0
 10
10.1951952927
 20
9.1494391643
 30
0.0
 10
10.1696051186
 20
9.1506790378
 30
0.0
 10
10.1444111752
 20
9.152376057
 30
0.0
 10
10.1197358963
 20
9.154522116
 30
0.0
 10
10.0956989909
 20
9.1571065853
 30
0.0
 10
10.0724170438
 20
9.1601166714
 30
0.0
 10
10.0500031141
 20
9.1635377769
 30
0.0
 10
10.0353951452
 20
9.1661373753
 30
0.0
 10
10.0282582096
 20
9.1675089764
 30
0.0
  0
SPLINE
  5
3EC
100
AcDbEntity
  8
0
100
AcDbSpline
 62
7
  6
CONTINUOUS
 70
0
 71
3
 72
56
 73
52
 74
0
 42
0.0000001
 43
0.0000001
 44
0.0000000001
 40
0.0
 40
0.0
 40
0.0
 40
0.0
 40
0.0460140365
 40
0.0926138763
 40
0.1395821546
 40
0.1867221822
 40
0.2338288136
 40
0.280695969
 40
0.3271205498
 40
0.3729016883
 40
0.4178419215
 40
0.4617486806
 40
0.5044357275
 40
0.5457237503
 40
0.5854421779
 40
0.623430808
 40
0.6595404895
 40
0.6936358272
 40
0.7098908177
 40
0.7255987191
 40
0.7407472814
 40
0.7553261698
 40
0.7693260262
 40
0.7827391099
 40
0.795560201
 40
0.8077857039
 40
0.8194143239
 40
0.8304482927
 40
0.8408926824
 40
0.8507562508
 40
0.8600531092
 40
0.8688025169
 40
0.8770301158
 40
0.8847700999
 40
0.8920656216
 40
0.8989701892
 40
0.9055493464
 40
0.9118801083
 40
0.9180498998
 40
0.9241540552
 40
0.93029114
 40
0.9365581198
 40
0.9430454648
 40
0.9498338051
 40
0.9533640988
 40
0.9569946791
 40
0.964581397
 40
0.9726423977
 40
0.9812148065
 40
0.9903269582
 40
1.0
 40
1.0
 40
1.0
 40
1.0
 10
10.1075821704
 20
11.037360013
 30
0.0
 10
10.1198800578
 20
11.0365071516
 30
0.0
 10
10.1446492631
 20
11.0350255378
 30
0.0
 10
10.18201387
 20
11.0334744897
 30
0.0
 10
10.2197019337
 20
11.0325857931
 30
0.0
 10
10.2575355307
 20
11.0323634304
 30
0.0
 10
10.2953400883
 20
11.032808196
 30
0.0
 10
10.3329392365
 20
11.0339182282
 30
0.0
 10
10.3701576459
 20
11.035688359
 30
0.0
 10
10.4068220921
 20
11.0381100051
 30
0.0
 10
10.4427618129
 20
11.0411719267
 30
0.0
 10
10.4778094752
 20
11.0448597754
 30
0.0
 10
10.5118019829
 20
11.0491559037
 30
0.0
 10
10.5445811968
 20
11.0540402534
 30
0.0
 10
10.5759947313
 20
11.0594897885
 30
0.0
 10
10.6058968764
 20
11.0654784828
 30
0.0
 10
10.6341486313
 20
11.0719783806
 30
0.0
 10
10.6565510124
 20
11.0778853386
 30
0.0
 10
10.673534848
 20
11.0828631547
 30
0.0
 10
10.6855771584
 20
11.0866453172
 30
0.0
 10
10.6971134843
 20
11.0905315378
 30
0.0
 10
10.7081305949
 20
11.0945170176
 30
0.0
 10
10.7186157101
 20
11.0985972026
 30
0.0
 10
10.7285566297
 20
11.1027675882
 30
0.0
 10
10.7379420633
 20
11.1070229967
 30
0.0
 10
10.746761226
 20
11.1113585901
 30
0.0
 10
10.7550038815
 20
11.1157697065
 30
0.0
 10
10.7626608645
 20
11.1202509753
 30
0.0
 10
10.7697235367
 20
11.1247974238
 30
0.0
 10
10.7761837066
 20
11.1294044523
 30
0.0
 10
10.7820344123
 20
11.1340667844
 30
0.0
 10
10.7872691562
 20
11.138779666
 30
0.0
 10
10.7918815445
 20
11.1435389515
 30
0.0
 10
10.7958663848
 20
11.1483399056
 30
0.0
 10
10.7992185188
 20
11.1531783289
 30
0.0
 10
10.8019320145
 20
11.1580503791
 30
0.0
 10
10.8040018824
 20
11.1629510199
 30
0.0
 10
10.8054228984
 20
11.1678745347
 30
0.0
 10
10.8061894045
 20
11.172813742
 30
0.0
 10
10.8062988593
 20
11.1777594268
 30
0.0
 10
10.8057510433
 20
11.1827018582
 30
0.0
 10
10.8045474041
 20
11.1876315479
 30
0.0
 10
10.8026930563
 20
11.1925403312
 30
0.0
 10
10.8006369493
 20
11.196556078
 30
0.0
 10
10.7986887088
 20
11.1997464837
 30
0.0
 10
10.7964695236
 20
11.2030169956
 30
0.0
 10
10.7932782962
 20
11.2070867288
 30
0.0
 10
10.7888744919
 20
11.211860203
 30
0.0
 10
10.78384625
 20
11.2165891014
 30
0.0
 10
10.7782000691
 20
11.2212686521
 30
0.0
 10
10.7741509297
 20
11.2242618371
 30
0.0
 10
10.772030706
 20
11.2257519159
 30
0.0
  0
SPLINE
  5
3ED
100
AcDbEntity
  8
0
100
AcDbSpline
 62
7
  6
CONTINUOUS
 70
0
 71
3
 72
11
 73
7
 74
0
 42
0.0000001
 43
0.0000001
 44
0.0000000001
 40
0.0
 40
0.0
 40
0.0
 40
0.0
 40
0.2310152257
 40
0.4746103058
 40
0.7309143418
 40
1.0
 40
1.0
 40
1.0
 40
1.0
 10
10.772030706
 20
11.2257519159
 30
0.0
 10
10.7698998398
 20
11.2272494742
 30
0.0
 10
10.7654474021
 20
11.2302208705
 30
0.0
 10
10.7584050222
 20
11.2345036179
 30
0.0
 10
10.7508306031
 20
11.2387251627
 30
0.0
 10
10.7455595617
 20
11.2414299092
 30
0.0
 10
10.7428396506
 20
11.2427735195
 30
0.0
  0
SPLINE
  5
3EE
100
AcDbEntity
  8
0
100
AcDbSpline
 62
7
  6
CONTINUOUS
 70
0
 71
3
 72
9
 73
5
 74
0
 42
0.0000001
 43
0.0000001
 44
0.0000000001
 40
0.0
 40
0.0
 40
0.0
 40
0.0
 40
0.4802028106
 40
1.0
 40
1.0
 40
1.0
 40
1.0
 10
9.6321994056
 20
11.0966024677
 30
0.0
 10
9.6342908285
 20
11.0941561326
 30
0.0
 10
9.6389196482
 20
11.0892925428
 30
0.0
 10
9.6439531178
 20
11.0848553201
 30
0.0
 10
9.6466474538
 20
11.0826467487
 30
0.0
  0
SPLINE
  5
3EF
100
AcDbEntity
  8
0
100
AcDbSpline
 62
7
  6
CONTINUOUS
 70
0
 71
3
 72
24
 73
20
 74
0
 42
0.0000001
 43
0.0000001
 44
0.0000000001
 40
0.0
 40
0.0
 40
0.0
 40
0.0
 40
0.0904093868
 40
0.1775325331
 40
0.2610553835
 40
0.3406844661
 40
0.41616279
 40
0.4872998029
 40
0.521207684
 40
0.5540039824
 40
0.6162843266
 40
0.6743126111
 40
0.7283969377
 40
0.7789824074
 40
0.826623815
 40
0.8719379797
 40
0.9155549124
 40
0.9580698186
 40
1.0
 40
1.0
 40
1.0
 40
1.0
 10
10.7188341486
 20
11.0212440923
 30
0.0
 10
10.721869677
 20
11.0271939765
 30
0.0
 10
10.7279436489
 20
11.0388203
 30
0.0
 10
10.737269133
 20
11.0557050714
 30
0.0
 10
10.7466493982
 20
11.0716426717
 30
0.0
 10
10.7560814115
 20
11.0865419593
 30
0.0
 10
10.765560275
 20
11.1003150115
 30
0.0
 10
10.7736161167
 20
11.1109520178
 30
0.0
 10
10.7800930116
 20
11.1188124357
 30
0.0
 10
10.7863655668
 20
11.1259877476
 30
0.0
 10
10.7942047561
 20
11.1341550605
 30
0.0
 10
10.8037912658
 20
11.1427827718
 30
0.0
 10
10.8133799684
 20
11.1500576804
 30
0.0
 10
10.822958778
 20
11.1559975473
 30
0.0
 10
10.8325143376
 20
11.1606426318
 30
0.0
 10
10.8420329257
 20
11.164051121
 30
0.0
 10
10.8515013996
 20
11.1662973393
 30
0.0
 10
10.8609074904
 20
11.1674676225
 30
0.0
 10
10.8671572505
 20
11.1675917067
 30
0.0
 10
10.8702538381
 20
11.1675042898
 30
0.0
  0
SPLINE
  5
3F0
100
AcDbEntity
  8
0
100
AcDbSpline
 62
7
  6
CONTINUOUS
 70
0
 71
3
 72
15
 73
11
 74
0
 42
0.0000001
 43
0.0000001
 44
0.0000000001
 40
0.0
 40
0.0
 40
0.0
 40
0.0
 40
0.1193884442
 40
0.2394118209
 40
0.3604965246
 40
0.4831212753
 40
0.6078106285
 40
0.735130254
 40
0.8656619472
 40
1.0
 40
1.0
 40
1.0
 40
1.0
 10
10.7188341486
 20
10.636840651
 30
0.0
 10
10.7206039042
 20
10.6367906906
 30
0.0
 10
10.7241564312
 20
10.6367878591
 30
0.0
 10
10.7294967235
 20
10.6370910907
 30
0.0
 10
10.7348574171
 20
10.6377186343
 30
0.0
 10
10.7402375853
 20
10.6386872079
 30
0.0
 10
10.7456364051
 20
10.6400132231
 30
0.0
 10
10.7510525748
 20
10.6417131458
 30
0.0
 10
10.7564845344
 20
10.6438014492
 30
0.0
 10
10.760059171
 20
10.6454363149
 30
0.0
 10
10.76184544
 20
10.6463183145
 30
0.0
  0
SPLINE
  5
3F1
100
AcDbEntity
  8
0
100
AcDbSpline
 62
7
  6
CONTINUOUS
 70
0
 71
3
 72
23
 73
19
 74
0
 42
0.0000001
 43
0.0000001
 44
0.0000000001
 40
0.0
 40
0.0
 40
0.0
 40
0.0
 40
0.0584073816
 40
0.1170342823
 40
0.175946792
 40
0.235225456
 40
0.2949566682
 40
0.3552310086
 40
0.416138202
 40
0.4777588108
 40
0.540158822
 40
0.6033849084
 40
0.6674605222
 40
0.7323867869
 40
0.7981446078
 40
0.8646981496
 40
0.9320021535
 40
1.0
 40
1.0
 40
1.0
 40
1.0
 10
9.6466474538
 20
11.0826467487
 30
0.0
 10
9.6550944866
 20
11.0835342552
 30
0.0
 10
9.6720529391
 20
11.0850190719
 30
0.0
 10
9.6976139928
 20
11.0862842097
 30
0.0
 10
9.7233335403
 20
11.0865018345
 30
0.0
 10
9.7491993288
 20
11.0855841582
 30
0.0
 10
9.7751930299
 20
11.0834511346
 30
0.0
 10
9.8012890929
 20
11.0800357446
 30
0.0
 10
9.8274555137
 20
11.0752873754
 30
0.0
 10
9.8536557277
 20
11.0691789832
 30
0.0
 10
9.8798512221
 20
11.0617093892
 30
0.0
 10
9.9060037085
 20
11.0529013322
 30
0.0
 10
9.9320783252
 20
11.0428017093
 30
0.0
 10
9.958045863
 20
11.0314775891
 30
0.0
 10
9.9838829586
 20
11.0190087146
 30
0.0
 10
10.0095734099
 20
11.0054836632
 30
0.0
 10
10.035106971
 20
10.9909951991
 30
0.0
 10
10.0519403795
 20
10.9808037369
 30
0.0
 10
10.0603341719
 20
10.9755768831
 30
0.0
  0
SPLINE
  5
3F2
100
AcDbEntity
  8
0
100
AcDbSpline
 62
7
  6
CONTINUOUS
 70
0
 71
3
 72
23
 73
19
 74
0
 42
0.0000001
 43
0.0000001
 44
0.0000000001
 40
0.0
 40
0.0
 40
0.0
 40
0.0
 40
0.0430699451
 40
0.0891871423
 40
0.1383056318
 40
0.190355986
 40
0.2452532918
 40
0.3028948794
 40
0.3631669336
 40
0.4259413274
 40
0.4910817656
 40
0.5584409459
 40
0.6278644901
 40
0.6991861904
 40
0.7722368997
 40
0.8468483862
 40
0.9228417141
 40
1.0
 40
1.0
 40
1.0
 40
1.0
 10
9.7746761802
 20
10.6294891665
 30
0.0
 10
9.7791331276
 20
10.6272875661
 30
0.0
 10
9.7884804775
 20
10.6229653959
 30
0.0
 10
9.8032476822
 20
10.6168930932
 30
0.0
 10
9.8192061444
 20
10.6110249654
 30
0.0
 10
9.8363135147
 20
10.6053761873
 30
0.0
 10
9.8545250633
 20
10.5999624977
 30
0.0
 10
9.8737926082
 20
10.5947977716
 30
0.0
 10
9.894065187
 20
10.589896556
 30
0.0
 10
9.9152889816
 20
10.5852713699
 30
0.0
 10
9.9374076961
 20
10.5809352737
 30
0.0
 10
9.9603626083
 20
10.5768993261
 30
0.0
 10
9.9840924531
 20
10.5731750201
 30
0.0
 10
10.0085337777
 20
10.5697717087
 30
0.0
 10
10.033622149
 20
10.566699032
 30
0.0
 10
10.0592919088
 20
10.5639647655
 30
0.0
 10
10.085472197
 20
10.5615769931
 30
0.0
 10
10.1030979526
 20
10.5602291109
 30
0.0
 10
10.1119820905
 20
10.5596129938
 30
0.0
  0
SPLINE
  5
3F3
100
AcDbEntity
  8
0
100
AcDbSpline
 62
7
  6
CONTINUOUS
 70
0
 71
3
 72
21
 73
17
 74
0
 42
0.0000001
 43
0.0000001
 44
0.0000000001
 40
0.0
 40
0.0
 40
0.0
 40
0.0
 40
0.1331620508
 40
0.198721389
 40
0.2635863969
 40
0.3277657689
 40
0.3912790145
 40
0.4541586317
 40
0.5164459921
 40
0.5781920281
 40
0.6394524084
 40
0.7002861096
 40
0.7607522371
 40
0.8209070106
 40
0.8808048208
 40
1.0
 40
1.0
 40
1.0
 40
1.0
 10
9.7291508219
 20
10.6519778641
 30
0.0
 10
9.7427458073
 20
10.6452601387
 30
0.0
 10
9.7633263373
 20
10.6358042504
 30
0.0
 10
9.7911923989
 20
10.6246355113
 30
0.0
 10
9.8120418858
 20
10.6171104072
 30
0.0
 10
9.8329300125
 20
10.6104214806
 30
0.0
 10
9.853839577
 20
10.6045909916
 30
0.0
 10
9.8747502828
 20
10.5996265763
 30
0.0
 10
9.8956433375
 20
10.5955307924
 30
0.0
 10
9.916499418
 20
10.592290926
 30
0.0
 10
9.937301638
 20
10.5898885895
 30
0.0
 10
9.9580348571
 20
10.5882943968
 30
0.0
 10
9.9786866011
 20
10.5874735312
 30
0.0
 10
9.9992477504
 20
10.5873857658
 30
0.0
 10
10.0264845935
 20
10.5881865194
 30
0.0
 10
10.0468348385
 20
10.5897551039
 30
0.0
 10
10.0603341719
 20
10.5911734417
 30
0.0
  0
SPLINE
  5
3F4
100
AcDbEntity
  8
0
100
AcDbSpline
 62
7
  6
CONTINUOUS
 70
0
 71
3
 72
11
 73
7
 74
0
 42
0.0000001
 43
0.0000001
 44
0.0000000001
 40
0.0
 40
0.0
 40
0.0
 40
0.0
 40
0.2320767097
 40
0.4758884504
 40
0.7317791001
 40
1.0
 40
1.0
 40
1.0
 40
1.0
 10
9.8157546332
 20
9.6514425409
 30
0.0
 10
9.8169053753
 20
9.6503716588
 30
0.0
 10
9.8193256847
 20
9.6482402311
 30
0.0
 10
9.823201225
 20
9.6451475747
 30
0.0
 10
9.8274068934
 20
9.6420844407
 30
0.0
 10
9.8303585592
 20
9.6401102948
 30
0.0
 10
9.8318864218
 20
9.6391273171
 30
0.0
  0
SPLINE
  5
3F5
100
AcDbEntity
  8
0
100
AcDbSpline
 62
7
  6
CONTINUOUS
 70
0
 71
3
 72
23
 73
19
 74
0
 42
0.0000001
 43
0.0000001
 44
0.0000000001
 40
0.0
 40
0.0
 40
0.0
 40
0.0
 40
0.0389207046
 40
0.0814255686
 40
0.1275152005
 40
0.1771498773
 40
0.2302524773
 40
0.2867201288
 40
0.3464240776
 40
0.4092167948
 40
0.4749318021
 40
0.5433882711
 40
0.6143919456
 40
0.6877337187
 40
0.7631937098
 40
0.8405519861
 40
0.9195799858
 40
1.0
 40
1.0
 40
1.0
 40
1.0
 10
9.8318864218
 20
9.6391273171
 30
0.0
 10
9.8352976612
 20
9.6369326354
 30
0.0
 10
9.8426168523
 20
9.632622029
 30
0.0
 10
9.8544745394
 20
9.6266070573
 30
0.0
 10
9.8676549133
 20
9.6207776071
 30
0.0
 10
9.8821149751
 20
9.6151541418
 30
0.0
 10
9.8978078385
 20
9.6097544332
 30
0.0
 10
9.9146819849
 20
9.6045973109
 30
0.0
 10
9.9326816051
 20
9.5996996884
 30
0.0
 10
9.9517469479
 20
9.5950784909
 30
0.0
 10
9.9718145491
 20
9.5907491519
 30
0.0
 10
9.9928175703
 20
9.5867263903
 30
0.0
 10
10.0146858239
 20
9.5830239608
 30
0.0
 10
10.037345845
 20
9.5796541819
 30
0.0
 10
10.0607222153
 20
9.5766286057
 30
0.0
 10
10.0847379809
 20
9.5739571784
 30
0.0
 10
10.1093105431
 20
9.5716496342
 30
0.0
 10
10.1258793498
 20
9.5703684257
 30
0.0
 10
10.13424051
 20
9.5697885773
 30
0.0
  0
SPLINE
  5
3F6
100
AcDbEntity
  8
0
100
AcDbSpline
 62
7
  6
CONTINUOUS
 70
0
 71
3
 72
21
 73
17
 74
0
 42
0.0000001
 43
0.0000001
 44
0.0000000001
 40
0.0
 40
0.0
 40
0.0
 40
0.0
 40
0.1269266306
 40
0.1902356571
 40
0.2534226618
 40
0.3164750211
 40
0.379381614
 40
0.442133702
 40
0.5047247465
 40
0.5671521045
 40
0.6294167402
 40
0.6915228504
 40
0.7534784743
 40
0.8152934295
 40
0.8769787052
 40
1.0
 40
1.0
 40
1.0
 40
1.0
 10
10.1142549805
 20
10.9718374623
 30
0.0
 10
10.1372625635
 20
10.9795618774
 30
0.0
 10
10.172022969
 20
10.9903496757
 30
0.0
 10
10.2188668897
 20
11.0027692332
 30
0.0
 10
10.2541710763
 20
11.0109949269
 30
0.0
 10
10.2896492116
 20
11.018052645
 30
0.0
 10
10.3252688207
 20
11.0238668909
 30
0.0
 10
10.3609887564
 20
11.0283758456
 30
0.0
 10
10.3967612784
 20
11.0315391356
 30
0.0
 10
10.4325348959
 20
11.0333411385
 30
0.0
 10
10.4682581031
 20
11.0337900377
 30
0.0
 10
10.5038828199
 20
11.0329193055
 30
0.0
 10
10.5393672585
 20
11.0307849019
 30
0.0
 10
10.574678563
 20
11.027457692
 30
0.0
 10
10.6214497724
 20
11.02154755
 30
0.0
 10
10.6562822098
 20
11.0155751476
 30
0.0
 10
10.6793613881
 20
11.0110277941
 30
0.0
  0
SPLINE
  5
3F7
100
AcDbEntity
  8
0
100
AcDbSpline
 62
7
  6
CONTINUOUS
 70
0
 71
3
 72
29
 73
25
 74
0
 42
0.0000001
 43
0.0000001
 44
0.0000000001
 40
0.0
 40
0.0
 40
0.0
 40
0.0
 40
0.0193649952
 40
0.0398586582
 40
0.0614693309
 40
0.0841787293
 40
0.1079642341
 40
0.1327992914
 40
0.1586527009
 40
0.1854910601
 40
0.2132769506
 40
0.2419706946
 40
0.2715302662
 40
0.301910651
 40
0.3649447207
 40
0.4306793292
 40
0.4986935923
 40
0.5685459112
 40
0.6397782272
 40
0.7119204072
 40
0.7844953224
 40
0.8570181404
 40
0.9290160173
 40
1.0
 40
1.0
 40
1.0
 40
1.0
 10
10.7277767968
 20
10.6294890347
 30
0.0
 10
10.7241599246
 20
10.6277024112
 30
0.0
 10
10.7166379316
 20
10.6241803913
 30
0.0
 10
10.7048506574
 20
10.6191712518
 30
0.0
 10
10.692257818
 20
10.6142948165
 30
0.0
 10
10.6788818693
 20
10.6095594217
 30
0.0
 10
10.6647462117
 20
10.6049735692
 30
0.0
 10
10.6498757714
 20
10.6005456962
 30
0.0
 10
10.6342968842
 20
10.5962832351
 30
0.0
 10
10.618037063
 20
10.5921943449
 30
0.0
 10
10.601125168
 20
10.5882859378
 30
0.0
 10
10.5835911793
 20
10.584565151
 30
0.0
 10
10.5654661849
 20
10.5810387437
 30
0.0
 10
10.5402440539
 20
10.5765490054
 30
0.0
 10
10.5074734144
 20
10.5714903885
 30
0.0
 10
10.4667981706
 20
10.5663557346
 30
0.0
 10
10.4245917538
 20
10.5621222293
 30
0.0
 10
10.3811539885
 20
10.5588203663
 30
0.0
 10
10.3367932025
 20
10.5564740918
 30
0.0
 10
10.2918243637
 20
10.5551003242
 30
0.0
 10
10.2465674852
 20
10.5547091064
 30
0.0
 10
10.2013427962
 20
10.5553028632
 30
0.0
 10
10.1564734437
 20
10.5568778988
 30
0.0
 10
10.126733905
 20
10.558589952
 30
0.0
 10
10.1119820905
 20
10.5596129938
 30
0.0
  0
SPLINE
  5
3F8
100
AcDbEntity
  8
0
100
AcDbSpline
 62
7
  6
CONTINUOUS
 70
0
 71
3
 72
21
 73
17
 74
0
 42
0.0000001
 43
0.0000001
 44
0.0000000001
 40
0.0
 40
0.0
 40
0.0
 40
0.0
 40
0.1230212948
 40
0.1847065705
 40
0.2465215258
 40
0.3084771496
 40
0.3705832599
 40
0.4328478955
 40
0.4952752535
 40
0.5578662981
 40
0.6206183861
 40
0.683524979
 40
0.7465773382
 40
0.8097643429
 40
0.8730733694
 40
1.0
 40
1.0
 40
1.0
 40
1.0
 10
10.1142549805
 20
10.5874340209
 30
0.0
 10
10.1373341588
 20
10.5828866674
 30
0.0
 10
10.1721665963
 20
10.5769142651
 30
0.0
 10
10.2189378057
 20
10.5710041231
 30
0.0
 10
10.2542491101
 20
10.5676769131
 30
0.0
 10
10.2897335487
 20
10.5655425096
 30
0.0
 10
10.3253582655
 20
10.5646717773
 30
0.0
 10
10.3610814728
 20
10.5651206766
 30
0.0
 10
10.3968550903
 20
10.5669226794
 30
0.0
 10
10.4326276123
 20
10.5700859694
 30
0.0
 10
10.468347548
 20
10.5745949241
 30
0.0
 10
10.5039671571
 20
10.58040917
 30
0.0
 10
10.5394452924
 20
10.5874668881
 30
0.0
 10
10.574749479
 20
10.5956925819
 30
0.0
 10
10.6215933997
 20
10.6081121393
 30
0.0
 10
10.6563538052
 20
10.6188999376
 30
0.0
 10
10.6793613881
 20
10.6266243528
 30
0.0
  0
SPLINE
  5
3F9
100
AcDbEntity
  8
0
100
AcDbSpline
 62
7
  6
CONTINUOUS
 70
0
 71
3
 72
9
 73
5
 74
0
 42
0.0000001
 43
0.0000001
 44
0.0000000001
 40
0.0
 40
0.0
 40
0.0
 40
0.0
 40
0.5151645244
 40
1.0
 40
1.0
 40
1.0
 40
1.0
 10
9.7596141149
 20
11.2427737772
 30
0.0
 10
9.7562769682
 20
11.2411252665
 30
0.0
 10
9.7498582231
 20
11.237803686
 30
0.0
 10
9.7435885534
 20
11.2342069531
 30
0.0
 10
9.7405951093
 20
11.2323875606
 30
0.0
  0
SPLINE
  5
3FA
100
AcDbEntity
  8
0
100
AcDbSpline
 62
7
  6
CONTINUOUS
 70
0
 71
3
 72
55
 73
51
 74
0
 42
0.0000001
 43
0.0000001
 44
0.0000000001
 40
0.0
 40
0.0
 40
0.0
 40
0.0
 40
0.0126039668
 40
0.0246626451
 40
0.0361845815
 40
0.0471813629
 40
0.0576675083
 40
0.0676611077
 40
0.0771851246
 40
0.0862675479
 40
0.0949416347
 40
0.1032466857
 40
0.1112290233
 40
0.118941678
 40
0.1264439865
 40
0.1338010228
 40
0.1410823646
 40
0.1483598643
 40
0.1557054861
 40
0.1631891608
 40
0.1708765213
 40
0.1788275498
 40
0.1870959619
 40
0.195728829
 40
0.2047661593
 40
0.2142418107
 40
0.2241843014
 40
0.2346171506
 40
0.2455588974
 40
0.2570244016
 40
0.2690255426
 40
0.281571226
 40
0.294667253
 40
0.3083174627
 40
0.337285222
 40
0.3684733057
 40
0.4018562187
 40
0.4373894698
 40
0.4750146658
 40
0.514659581
 40
0.5562421653
 40
0.5996694007
 40
0.6448409651
 40
0.6916481552
 40
0.7399765684
 40
0.7897029257
 40
0.8407002665
 40
0.8928422091
 40
0.9459958947
 40
1.0
 40
1.0
 40
1.0
 40
1.0
 10
9.7405951093
 20
11.2323875606
 30
0.0
 10
9.7386981504
 20
11.2312346035
 30
0.0
 10
9.7350221812
 20
11.2289186956
 30
0.0
 10
9.7297542066
 20
11.2253296353
 30
0.0
 10
9.724858281
 20
11.2217050368
 30
0.0
 10
9.7203377293
 20
11.2180474969
 30
0.0
 10
9.7161956985
 20
11.2143594083
 30
0.0
 10
9.7124353617
 20
11.2106429372
 30
0.0
 10
9.7090593299
 20
11.2069005167
 30
0.0
 10
9.7060699322
 20
11.2031345341
 30
0.0
 10
9.7034695678
 20
11.1993472321
 30
0.0
 10
9.7012608699
 20
11.1955407158
 30
0.0
 10
9.6994458525
 20
11.1917175209
 30
0.0
 10
9.6980264179
 20
11.1878802958
 30
0.0
 10
9.697004588
 20
11.1840319041
 30
0.0
 10
9.6963824517
 20
11.1801755953
 30
0.0
 10
9.6961607959
 20
11.1763151723
 30
0.0
 10
9.6963398533
 20
11.1724545416
 30
0.0
 10
9.6969194235
 20
11.1685976104
 30
0.0
 10
9.6978988455
 20
11.1647482134
 30
0.0
 10
9.6992761031
 20
11.1609096611
 30
0.0
 10
9.7010491554
 20
11.1570848499
 30
0.0
 10
9.703216077
 20
11.1532764322
 30
0.0
 10
9.7057749244
 20
11.1494869866
 30
0.0
 10
9.708723075
 20
11.1457186312
 30
0.0
 10
9.7120581116
 20
11.141973597
 30
0.0
 10
9.7157776986
 20
11.1382542412
 30
0.0
 10
9.7198792972
 20
11.1345630354
 30
0.0
 10
9.7243597568
 20
11.1309021317
 30
0.0
 10
9.7292159143
 20
11.1272739217
 30
0.0
 10
9.7344445335
 20
11.1236809274
 30
0.0
 10
9.7400420439
 20
11.1201257151
 30
0.0
 10
9.7460043547
 20
11.1166104734
 30
0.0
 10
9.7546062598
 20
11.1118862425
 30
0.0
 10
9.7662635252
 20
11.1061196756
 30
0.0
 10
9.7813674634
 20
11.0995283354
 30
0.0
 10
9.7978104273
 20
11.0931540608
 30
0.0
 10
9.8155459195
 20
11.0870144709
 30
0.0
 10
9.8345243613
 20
11.0811276985
 30
0.0
 10
9.8546920393
 20
11.0755101196
 30
0.0
 10
9.8759918539
 20
11.0701785067
 30
0.0
 10
9.898363217
 20
11.0651476542
 30
0.0
 10
9.9217425139
 20
11.0604326475
 30
0.0
 10
9.9460632065
 20
11.0560465169
 30
0.0
 10
9.971255795
 20
11.052002553
 30
0.0
 10
9.9972480273
 20
11.0483117809
 30
0.0
 10
10.0239662585
 20
11.044985304
 30
0.0
 10
10.0513354866
 20
11.0420322307
 30
0.0
 10
10.0792750169
 20
11.039461867
 30
0.0
 10
10.0980935607
 20
11.0380180503
 30
0.0
 10
10.1075821704
 20
11.037360013
 30
0.0
  0
SPLINE
  5
3FB
100
AcDbEntity
  8
0
100
AcDbSpline
 62
7
  6
CONTINUOUS
 70
0
 71
3
 72
42
 73
38
 74
0
 42
0.0000001
 43
0.0000001
 44
0.0000000001
 40
0.0
 40
0.0
 40
0.0
 40
0.0
 40
0.0840368756
 40
0.1695054183
 40
0.2553485112
 40
0.3405012145
 40
0.4239098766
 40
0.4646393716
 40
0.5045513825
 40
0.5435248581
 40
0.581442655
 40
0.6181922027
 40
0.6536660794
 40
0.6877626471
 40
0.7203867856
 40
0.7514508298
 40
0.7808755442
 40
0.8085912582
 40
0.834539382
 40
0.8586744864
 40
0.8809670915
 40
0.8914197167
 40
0.9014099692
 40
0.9109406788
 40
0.9200167536
 40
0.9286452964
 40
0.9368364686
 40
0.9446034904
 40
0.9519634435
 40
0.95893799
 40
0.965553732
 40
0.9718433269
 40
0.9778458183
 40
0.9836070648
 40
0.9891798495
 40
0.9946229739
 40
1.0
 40
1.0
 40
1.0
 40
1.0
 10
12.0808484469
 20
6.1960380708
 30
0.0
 10
12.0808484469
 20
6.2024931229
 30
0.0
 10
12.0810510122
 20
6.215513944
 30
0.0
 10
12.0819300586
 20
6.2351106677
 30
0.0
 10
12.0833767488
 20
6.2547598194
 30
0.0
 10
12.0853719742
 20
6.2742017119
 30
0.0
 10
12.0874858877
 20
6.2901409668
 30
0.0
 10
12.0894376637
 20
6.3025904012
 30
0.0
 10
12.0910084297
 20
6.3116434634
 30
0.0
 10
12.0926923833
 20
6.3204563826
 30
0.0
 10
12.0944839566
 20
6.3290000487
 30
0.0
 10
12.0963771719
 20
6.3372462342
 30
0.0
 10
12.098365723
 20
6.3451677183
 30
0.0
 10
12.1004429828
 20
6.3527383667
 30
0.0
 10
12.1026020335
 20
6.3599332286
 30
0.0
 10
12.1048356732
 20
6.3667286362
 30
0.0
 10
12.1071364513
 20
6.3731023029
 30
0.0
 10
12.1094967049
 20
6.3790333756
 30
0.0
 10
12.1119086125
 20
6.3845026243
 30
0.0
 10
12.1143642033
 20
6.3894922198
 30
0.0
 10
12.116483443
 20
6.3933156015
 30
0.0
 10
12.1182004586
 20
6.3961138785
 30
0.0
 10
12.1194664046
 20
6.3980374445
 30
0.0
 10
12.1207372448
 20
6.3998296869
 30
0.0
 10
12.1220119658
 20
6.4014891796
 30
0.0
 10
12.1232896155
 20
6.4030145553
 30
0.0
 10
12.1245691636
 20
6.4044046257
 30
0.0
 10
12.125849678
 20
6.4056582571
 30
0.0
 10
12.1271302471
 20
6.4067744041
 30
0.0
 10
12.1284099312
 20
6.4077521706
 30
0.0
 10
12.1296879183
 20
6.4085906059
 30
0.0
 10
12.1309633157
 20
6.4092888961
 30
0.0
 10
12.1322352543
 20
6.4098462078
 30
0.0
 10
12.13350278
 20
6.410261639
 30
0.0
 10
12.1347648122
 20
6.4105344832
 30
0.0
 10
12.1360198467
 20
6.4106640014
 30
0.0
 10
12.1368530797
 20
6.4106544643
 30
0.0
 10
12.1372651107
 20
6.4106258867
 30
0.0
  0
SPLINE
  5
3FC
100
AcDbEntity
  8
0
100
AcDbSpline
 62
7
  6
CONTINUOUS
 70
0
 71
3
 72
42
 73
38
 74
0
 42
0.0000001
 43
0.0000001
 44
0.0000000001
 40
0.0
 40
0.0
 40
0.0
 40
0.0
 40
0.0840368756
 40
0.1695054183
 40
0.2553485112
 40
0.3405012145
 40
0.4239098766
 40
0.4646393716
 40
0.5045513825
 40
0.5435248581
 40
0.581442655
 40
0.6181922027
 40
0.6536660794
 40
0.6877626471
 40
0.7203867856
 40
0.7514508298
 40
0.7808755442
 40
0.8085912582
 40
0.834539382
 40
0.8586744864
 40
0.8809670915
 40
0.8914197167
 40
0.9014099692
 40
0.9109406788
 40
0.9200167536
 40
0.9286452964
 40
0.9368364686
 40
0.9446034904
 40
0.9519634435
 40
0.95893799
 40
0.965553732
 40
0.9718433269
 40
0.9778458183
 40
0.9836070648
 40
0.9891798495
 40
0.9946229739
 40
1.0
 40
1.0
 40
1.0
 40
1.0
 10
12.0808484469
 20
9.9390008695
 30
0.0
 10
12.0808484469
 20
9.9454559215
 30
0.0
 10
12.0810510122
 20
9.9584767426
 30
0.0
 10
12.0819300586
 20
9.9780734663
 30
0.0
 10
12.0833767488
 20
9.997722618
 30
0.0
 10
12.0853719742
 20
10.0171645105
 30
0.0
 10
12.0874858877
 20
10.0331037654
 30
0.0
 10
12.0894376637
 20
10.0455531999
 30
0.0
 10
12.0910084297
 20
10.054606262
 30
0.0
 10
12.0926923833
 20
10.0634191813
 30
0.0
 10
12.0944839566
 20
10.0719628474
 30
0.0
 10
12.0963771719
 20
10.0802090328
 30
0.0
 10
12.098365723
 20
10.088130517
 30
0.0
 10
12.1004429828
 20
10.0957011653
 30
0.0
 10
12.1026020335
 20
10.1028960273
 30
0.0
 10
12.1048356732
 20
10.1096914349
 30
0.0
 10
12.1071364513
 20
10.1160651015
 30
0.0
 10
12.1094967049
 20
10.1219961742
 30
0.0
 10
12.1119086125
 20
10.1274654229
 30
0.0
 10
12.1143642033
 20
10.1324550185
 30
0.0
 10
12.116483443
 20
10.1362784002
 30
0.0
 10
12.1182004586
 20
10.1390766772
 30
0.0
 10
12.1194664046
 20
10.1410002431
 30
0.0
 10
12.1207372448
 20
10.1427924855
 30
0.0
 10
12.1220119658
 20
10.1444519783
 30
0.0
 10
12.1232896155
 20
10.1459773539
 30
0.0
 10
12.1245691636
 20
10.1473674243
 30
0.0
 10
12.125849678
 20
10.1486210558
 30
0.0
 10
12.1271302471
 20
10.1497372028
 30
0.0
 10
12.1284099312
 20
10.1507149693
 30
0.0
 10
12.1296879183
 20
10.1515534045
 30
0.0
 10
12.1309633157
 20
10.1522516948
 30
0.0
 10
12.1322352543
 20
10.1528090064
 30
0.0
 10
12.13350278
 20
10.1532244376
 30
0.0
 10
12.1347648122
 20
10.1534972819
 30
0.0
 10
12.1360198467
 20
10.1536268001
 30
0.0
 10
12.1368530797
 20
10.153617263
 30
0.0
 10
12.1372651107
 20
10.1535886853
 30
0.0
  0
SPLINE
  5
3FD
100
AcDbEntity
  8
0
100
AcDbSpline
 62
7
  6
CONTINUOUS
 70
0
 71
3
 72
30
 73
26
 74
0
 42
0.0000001
 43
0.0000001
 44
0.0000000001
 40
0.0
 40
0.0
 40
0.0
 40
0.0
 40
0.0313006665
 40
0.0624866396
 40
0.0935628404
 40
0.1245365126
 40
0.1554166572
 40
0.1862135567
 40
0.2169388159
 40
0.2476053618
 40
0.2782266751
 40
0.3088170839
 40
0.3393914388
 40
0.3699645354
 40
0.4311562959
 40
0.4925245166
 40
0.5541835219
 40
0.6162384985
 40
0.6787807605
 40
0.7418816236
 40
0.7736597858
 40
0.8055906693
 40
0.8698950045
 40
0.9347438016
 40
1.0
 40
1.0
 40
1.0
 40
1.0
 10
10.3173317388
 20
7.6223943471
 30
0.0
 10
10.313559908
 20
7.6231316475
 30
0.0
 10
10.3060627562
 20
7.6247769313
 30
0.0
 10
10.2949632591
 20
7.6277541899
 30
0.0
 10
10.2840502464
 20
7.6312258891
 30
0.0
 10
10.2733426377
 20
7.6351796266
 30
0.0
 10
10.2628570427
 20
7.6396016353
 30
0.0
 10
10.2526083865
 20
7.6444772365
 30
0.0
 10
10.2426096547
 20
7.649790884
 30
0.0
 10
10.2328719472
 20
7.6555264001
 30
0.0
 10
10.2234046816
 20
7.6616675368
 30
0.0
 10
10.2142155886
 20
7.668197778
 30
0.0
 10
10.2053107399
 20
7.6751010031
 30
0.0
 10
10.1938213077
 20
7.6847826774
 30
0.0
 10
10.1801789469
 20
7.6977519519
 30
0.0
 10
10.1650077583
 20
7.7145560869
 30
0.0
 10
10.1510329114
 20
7.7325006477
 30
0.0
 10
10.1382534854
 20
7.7514871384
 30
0.0
 10
10.1266649822
 20
7.7714260221
 30
0.0
 10
10.1180167861
 20
7.7887268928
 30
0.0
 10
10.1116891067
 20
7.8029554502
 30
0.0
 10
10.1057284534
 20
7.8175015093
 30
0.0
 10
10.0990295173
 20
7.8361236277
 30
0.0
 10
10.0922194106
 20
7.8590136896
 30
0.0
 10
10.0885080413
 20
7.8745610563
 30
0.0
 10
10.0868590722
 20
7.8824019494
 30
0.0
  0
SPLINE
  5
3FE
100
AcDbEntity
  8
0
100
AcDbSpline
 62
7
  6
CONTINUOUS
 70
0
 71
3
 72
43
 73
39
 74
0
 42
0.0000001
 43
0.0000001
 44
0.0000000001
 40
0.0
 40
0.0
 40
0.0
 40
0.0
 40
0.0326567186
 40
0.0649900686
 40
0.0970056795
 40
0.1287217473
 40
0.1601687658
 40
0.19138646
 40
0.2224210582
 40
0.253322911
 40
0.2841445436
 40
0.3149392311
 40
0.3457601314
 40
0.3766599063
 40
0.4076907085
 40
0.4389042672
 40
0.4703518713
 40
0.5020840579
 40
0.5665755948
 40
0.5994286239
 40
0.6327061243
 40
0.6663848087
 40
0.7003794316
 40
0.7345133808
 40
0.7515473391
 40
0.7684989617
 40
0.7853165994
 40
0.8019463646
 40
0.8183354615
 40
0.8344357025
 40
0.8502066124
 40
0.8656178298
 40
0.8806501772
 40
0.8952953409
 40
0.9234357435
 40
0.9501420111
 40
0.9755924232
 40
1.0
 40
1.0
 40
1.0
 40
1.0
 10
10.1109969656
 20
9.1440154633
 30
0.0
 10
10.1029779853
 20
9.1450773484
 30
0.0
 10
10.0870964753
 20
9.1478321812
 30
0.0
 10
10.063808831
 20
9.1538526297
 30
0.0
 10
10.0413048839
 20
9.1616647123
 30
0.0
 10
10.0197033419
 20
9.1711702626
 30
0.0
 10
9.9990947379
 20
9.1822574054
 30
0.0
 10
9.9795448366
 20
9.1948072972
 30
0.0
 10
9.9610961194
 20
9.2087002599
 30
0.0
 10
9.9437712628
 20
9.2238205151
 30
0.0
 10
9.927576791
 20
9.2400596228
 30
0.0
 10
9.9125067729
 20
9.2573186523
 30
0.0
 10
9.8985461512
 20
9.2755093613
 30
0.0
 10
9.8856735811
 20
9.2945546198
 30
0.0
 10
9.8738637296
 20
9.3143884127
 30
0.0
 10
9.8630892608
 20
9.3349551023
 30
0.0
 10
9.8533219904
 20
9.3562096447
 30
0.0
 10
9.841544268
 20
9.3855692143
 30
0.0
 10
9.831748713
 20
9.4160571954
 30
0.0
 10
9.8238186973
 20
9.4474312975
 30
0.0
 10
9.8187354646
 20
9.4716328393
 30
0.0
 10
9.8145486758
 20
9.4962910701
 30
0.0
 10
9.8112598602
 20
9.5212987497
 30
0.0
 10
9.8092729046
 20
9.5423045552
 30
0.0
 10
9.808140751
 20
9.5591403165
 30
0.0
 10
9.80752532
 20
9.5717098194
 30
0.0
 10
9.8071446544
 20
9.5841884299
 30
0.0
 10
9.8069999883
 20
9.5965326971
 30
0.0
 10
9.8070918405
 20
9.6086997989
 30
0.0
 10
9.8074199717
 20
9.620650048
 30
0.0
 10
9.80798342
 20
9.6323490806
 30
0.0
 10
9.8087806302
 20
9.6437693994
 30
0.0
 10
9.8098096695
 20
9.6548913241
 30
0.0
 10
9.8114662382
 20
9.6691175864
 30
0.0
 10
9.8140840685
 20
9.6861386267
 30
0.0
 10
9.8181739104
 20
9.7056139244
 30
0.0
 10
9.8231667233
 20
9.723921377
 30
0.0
 10
9.8271732185
 20
9.7356143663
 30
0.0
 10
9.829329366
 20
9.7412625009
 30
0.0
  0
SPLINE
  5
3FF
100
AcDbEntity
  8
0
100
AcDbSpline
 62
7
  6
CONTINUOUS
 70
0
 71
3
 72
31
 73
27
 74
0
 42
0.0000001
 43
0.0000001
 44
0.0000000001
 40
0.0
 40
0.0
 40
0.0
 40
0.0
 40
0.0345167177
 40
0.0687064542
 40
0.102549839
 40
0.1360364642
 40
0.1691642161
 40
0.2019389965
 40
0.2343736287
 40
0.2664865515
 40
0.2983003596
 40
0.3298405052
 40
0.3611340493
 40
0.3922086478
 40
0.4230918782
 40
0.45381044
 40
0.4843896015
 40
0.5148532888
 40
0.5755065809
 40
0.6359449622
 40
0.6962994305
 40
0.7566781913
 40
0.8171702074
 40
0.8778488779
 40
0.9387747459
 40
1.0
 40
1.0
 40
1.0
 40
1.0
 10
11.6192345623
 20
8.7947101728
 30
0.0
 10
11.6144085257
 20
8.7950448596
 30
0.0
 10
11.6048197589
 20
8.7960044041
 30
0.0
 10
11.5906262697
 20
8.7983230107
 30
0.0
 10
11.5767463715
 20
8.8014954563
 30
0.0
 10
11.5632368314
 20
8.8054937064
 30
0.0
 10
11.5501463821
 20
8.8102824809
 30
0.0
 10
11.5375161134
 20
8.8158207555
 30
0.0
 10
11.525378935
 20
8.8220636049
 30
0.0
 10
11.5137598868
 20
8.8289638289
 30
0.0
 10
11.5026767126
 20
8.8364734654
 30
0.0
 10
11.4921406757
 20
8.8445450027
 30
0.0
 10
11.4821574777
 20
8.8531323283
 30
0.0
 10
11.4727281814
 20
8.8621913839
 30
0.0
 10
11.4638501211
 20
8.8716806533
 30
0.0
 10
11.4555178406
 20
8.8815612888
 30
0.0
 10
11.4477235236
 20
8.8917975954
 30
0.0
 10
11.4380517289
 20
8.9058528775
 30
0.0
 10
11.4272390608
 20
8.9241722146
 30
0.0
 10
11.416239917
 20
8.947132362
 30
0.0
 10
11.4071397932
 20
8.9708651838
 30
0.0
 10
11.399852545
 20
8.9952201466
 30
0.0
 10
11.3942981165
 20
9.0200717363
 30
0.0
 10
11.3904054279
 20
9.0453129374
 30
0.0
 10
11.388112184
 20
9.0708500243
 30
0.0
 10
11.3876155856
 20
9.0879744893
 30
0.0
 10
11.3876154473
 20
9.0965554037
 30
0.0
  0
SPLINE
  5
400
100
AcDbEntity
  8
0
100
AcDbSpline
 62
7
  6
CONTINUOUS
 70
0
 71
3
 72
30
 73
26
 74
0
 42
0.0000001
 43
0.0000001
 44
0.0000000001
 40
0.0
 40
0.0
 40
0.0
 40
0.0
 40
0.0313006751
 40
0.062486652
 40
0.0935628528
 40
0.1245365242
 40
0.1554166686
 40
0.18621357
 40
0.2169388322
 40
0.2476053801
 40
0.2782266925
 40
0.3088171003
 40
0.339391455
 40
0.3699645517
 40
0.4311563123
 40
0.4925245324
 40
0.5541835328
 40
0.6162385042
 40
0.6787807653
 40
0.7418816265
 40
0.7736597878
 40
0.8055906706
 40
0.869895005
 40
0.9347438015
 40
1.0
 40
1.0
 40
1.0
 40
1.0
 10
11.7662206926
 20
8.9708023659
 30
0.0
 10
11.7624488596
 20
8.9715396647
 30
0.0
 10
11.754951704
 20
8.9731849455
 30
0.0
 10
11.7438522015
 20
8.9761621994
 30
0.0
 10
11.7329391845
 20
8.9796338943
 30
0.0
 10
11.7222315717
 20
8.9835876275
 30
0.0
 10
11.7117459724
 20
8.9880096325
 30
0.0
 10
11.7014973113
 20
8.9928852302
 30
0.0
 10
11.6914985744
 20
8.9981988751
 30
0.0
 10
11.681760862
 20
9.0039343886
 30
0.0
 10
11.672293592
 20
9.0100755229
 30
0.0
 10
11.6631044947
 20
9.0166057619
 30
0.0
 10
11.6541996418
 20
9.0235089851
 30
0.0
 10
11.6427102038
 20
9.0331906574
 30
0.0
 10
11.6290678359
 20
9.0461599302
 30
0.0
 10
11.6138966396
 20
9.0629640638
 30
0.0
 10
11.5999217858
 20
9.0809086237
 30
0.0
 10
11.5871423531
 20
9.0998951142
 30
0.0
 10
11.5755538436
 20
9.1198339988
 30
0.0
 10
11.5669056425
 20
9.1371348711
 30
0.0
 10
11.5605779594
 20
9.15136343
 30
0.0
 10
11.5546173024
 20
9.1659094908
 30
0.0
 10
11.5479183621
 20
9.1845316119
 30
0.0
 10
11.5411082508
 20
9.2074216776
 30
0.0
 10
11.5373968787
 20
9.222969047
 30
0.0
 10
11.5357479084
 20
9.2308099416
 30
0.0
  0
SPLINE
  5
401
100
AcDbEntity
  8
0
100
AcDbSpline
 62
7
  6
CONTINUOUS
 70
0
 71
3
 72
43
 73
39
 74
0
 42
0.0000001
 43
0.0000001
 44
0.0000000001
 40
0.0
 40
0.0
 40
0.0
 40
0.0
 40
0.0328562039
 40
0.0653876821
 40
0.0975890453
 40
0.1294692388
 40
0.1610518431
 40
0.1923722679
 40
0.2234748576
 40
0.2544099472
 40
0.28523143
 40
0.315994819
 40
0.3467559578
 40
0.3775703404
 40
0.4084928975
 40
0.4395780377
 40
0.4708797108
 40
0.5024512456
 40
0.566590345
 40
0.5992636552
 40
0.6323697553
 40
0.6658983095
 40
0.6997811851
 40
0.7338602159
 40
0.7508929669
 40
0.7678618657
 40
0.7847147496
 40
0.801395732
 40
0.8178486119
 40
0.8340208355
 40
0.8498673062
 40
0.8653531654
 40
0.8804552511
 40
0.8951621637
 40
0.923395387
 40
0.9501508484
 40
0.9756116167
 40
1.0
 40
1.0
 40
1.0
 40
1.0
 10
11.5788588246
 20
6.8682910963
 30
0.0
 10
11.5705317481
 20
6.868868581
 30
0.0
 10
11.5539982057
 20
6.8706919815
 30
0.0
 10
11.529637661
 20
6.8754435434
 30
0.0
 10
11.5059936799
 20
6.8821368591
 30
0.0
 10
11.4832126565
 20
6.890681939
 30
0.0
 10
11.4614112526
 20
6.9009679619
 30
0.0
 10
11.4406783149
 20
6.9128714277
 30
0.0
 10
11.421075278
 20
6.9262636226
 30
0.0
 10
11.4026393634
 20
6.9410169454
 30
0.0
 10
11.3853874751
 20
6.9570097369
 30
0.0
 10
11.3693204484
 20
6.9741295646
 30
0.0
 10
11.3544270632
 20
6.9922751676
 30
0.0
 10
11.340687565
 20
7.0113573522
 30
0.0
 10
11.3280765595
 20
7.031299268
 30
0.0
 10
11.3165654954
 20
7.0520357804
 30
0.0
 10
11.3061241537
 20
7.0735138706
 30
0.0
 10
11.2935251779
 20
7.1032319598
 30
0.0
 10
11.2830239716
 20
7.1341707239
 30
0.0
 10
11.2744957117
 20
7.1660623841
 30
0.0
 10
11.2690087763
 20
7.1906956054
 30
0.0
 10
11.2644635352
 20
7.2158307519
 30
0.0
 10
11.260859289
 20
7.241367299
 30
0.0
 10
11.2586452257
 20
7.2628517295
 30
0.0
 10
11.2573512081
 20
7.2800998759
 30
0.0
 10
11.2566245523
 20
7.2929997436
 30
0.0
 10
11.2561435349
 20
7.3058216423
 30
0.0
 10
11.2559097158
 20
7.3185193497
 30
0.0
 10
11.2559239341
 20
7.3310463113
 30
0.0
 10
11.2561862103
 20
7.3433585232
 30
0.0
 10
11.2566957316
 20
7.3554171592
 30
0.0
 10
11.2574509961
 20
7.3671905206
 30
0.0
 10
11.2584500177
 20
7.3786553093
 30
0.0
 10
11.2600821509
 20
7.3933113631
 30
0.0
 10
11.2626964123
 20
7.4108322156
 30
0.0
 10
11.2668283862
 20
7.4308599458
 30
0.0
 10
11.2719082305
 20
7.4496591075
 30
0.0
 10
11.2760063121
 20
7.4616539159
 30
0.0
 10
11.2782158622
 20
7.467442378
 30
0.0
  0
SPLINE
  5
402
100
AcDbEntity
  8
0
100
AcDbSpline
 62
7
  6
CONTINUOUS
 70
0
 71
3
 72
23
 73
19
 74
0
 42
0.0000001
 43
0.0000001
 44
0.0000000001
 40
0.0
 40
0.0
 40
0.0
 40
0.0
 40
0.0616482071
 40
0.1233194423
 40
0.1850364754
 40
0.2468215648
 40
0.3086962113
 40
0.3706809251
 40
0.4327950039
 40
0.4950563299
 40
0.5574811805
 40
0.6200840695
 40
0.682877611
 40
0.7458723236
 40
0.8090769236
 40
0.8724969197
 40
0.9361382346
 40
1.0
 40
1.0
 40
1.0
 40
1.0
 10
9.5938302791
 20
7.8211014693
 30
0.0
 10
9.5989138743
 20
7.8260118416
 30
0.0
 10
9.6093493043
 20
7.8355629271
 30
0.0
 10
9.6257529759
 20
7.8490303208
 30
0.0
 10
9.642868964
 20
7.8616075372
 30
0.0
 10
9.6606535579
 20
7.8732623325
 30
0.0
 10
9.6790620838
 20
7.8839655221
 30
0.0
 10
9.6980481039
 20
7.893690134
 30
0.0
 10
9.7175637833
 20
7.9024117192
 30
0.0
 10
9.737559945
 20
7.9101083463
 30
0.0
 10
9.7579862119
 20
7.9167606745
 30
0.0
 10
9.7787911323
 20
7.9223519945
 30
0.0
 10
9.7999222959
 20
7.9268682728
 30
0.0
 10
9.821326519
 20
7.930298231
 30
0.0
 10
9.8429497983
 20
7.9326332322
 30
0.0
 10
9.8647380341
 20
7.9338675754
 30
0.0
 10
9.8866355008
 20
7.9339980756
 30
0.0
 10
9.9012463832
 20
7.933350123
 30
0.0
 10
9.9085504843
 20
7.9328435819
 30
0.0
  0
SPLINE
  5
403
100
AcDbEntity
  8
0
100
AcDbSpline
 62
7
  6
CONTINUOUS
 70
0
 71
3
 72
39
 73
35
 74
0
 42
0.0000001
 43
0.0000001
 44
0.0000000001
 40
0.0
 40
0.0
 40
0.0
 40
0.0
 40
0.0299393047
 40
0.0599022801
 40
0.0899120371
 40
0.1199905837
 40
0.1501583157
 40
0.1804335568
 40
0.2108321569
 40
0.2413671588
 40
0.2720485416
 40
0.3028830442
 40
0.3338740651
 40
0.3650216374
 40
0.3963224781
 40
0.4277701073
 40
0.4593550264
 40
0.4910649494
 40
0.522885082
 40
0.5547984439
 40
0.586786223
 40
0.6188281554
 40
0.6509029262
 40
0.6829885862
 40
0.7150629769
 40
0.7471041563
 40
0.7790908245
 40
0.8110027389
 40
0.842821116
 40
0.8745290096
 40
0.9061116585
 40
0.9375568878
 40
0.9688549526
 40
1.0
 40
1.0
 40
1.0
 40
1.0
 10
10.2232706895
 20
7.169456844
 30
0.0
 10
10.2306760935
 20
7.1766099098
 30
0.0
 10
10.2449381127
 20
7.1915090126
 30
0.0
 10
10.2645252463
 20
7.2154727084
 30
0.0
 10
10.2822111658
 20
7.2409324907
 30
0.0
 10
10.2978995826
 20
7.2677502255
 30
0.0
 10
10.3115072372
 20
7.2957827368
 30
0.0
 10
10.3229614612
 20
7.3248798031
 30
0.0
 10
10.332201315
 20
7.3548857304
 30
0.0
 10
10.3391777549
 20
7.3856399782
 30
0.0
 10
10.3438538923
 20
7.416978105
 30
0.0
 10
10.3462051325
 20
7.4487326419
 30
0.0
 10
10.3462192837
 20
7.4807339851
 30
0.0
 10
10.3438966456
 20
7.5128112927
 30
0.0
 10
10.3392499979
 20
7.5447933991
 30
0.0
 10
10.3323044646
 20
7.5765097159
 30
0.0
 10
10.3230973777
 20
7.607791125
 30
0.0
 10
10.3116780827
 20
7.6384708669
 30
0.0
 10
10.2981077184
 20
7.6683854391
 30
0.0
 10
10.2824588211
 20
7.6973754358
 30
0.0
 10
10.2648149489
 20
7.7252863855
 30
0.0
 10
10.2452702328
 20
7.7519695545
 30
0.0
 10
10.2239289347
 20
7.7772827714
 30
0.0
 10
10.2009048463
 20
7.8010911485
 30
0.0
 10
10.1763206844
 20
7.8232677852
 30
0.0
 10
10.1503074417
 20
7.8436944276
 30
0.0
 10
10.1230037326
 20
7.8622621344
 30
0.0
 10
10.0945550432
 20
7.8788718474
 30
0.0
 10
10.0651129635
 20
7.8934348832
 30
0.0
 10
10.0348343272
 20
7.9058734019
 30
0.0
 10
10.0038806454
 20
7.916120856
 30
0.0
 10
9.9724163844
 20
7.9241223342
 30
0.0
 10
9.940611461
 20
7.9298348444
 30
0.0
 10
9.919235407
 20
7.93210258
 30
0.0
 10
9.9085504843
 20
7.9328435819
 30
0.0
  0
SPLINE
  5
404
100
AcDbEntity
  8
0
100
AcDbSpline
 62
7
  6
CONTINUOUS
 70
0
 71
3
 72
16
 73
12
 74
0
 42
0.0000001
 43
0.0000001
 44
0.0000000001
 40
0.0
 40
0.0
 40
0.0
 40
0.0
 40
0.1258192938
 40
0.2516608067
 40
0.3774221123
 40
0.5029758936
 40
0.6281735994
 40
0.7528518505
 40
0.8149531695
 40
0.8768614039
 40
1.0
 40
1.0
 40
1.0
 40
1.0
 10
10.3386271495
 20
9.1953985454
 30
0.0
 10
10.3314244121
 20
9.1911486857
 30
0.0
 10
10.316769747
 20
9.1830598725
 30
0.0
 10
10.294109096
 20
9.1722623211
 30
0.0
 10
10.2708357152
 20
9.162899415
 30
0.0
 10
10.2470438666
 20
9.1550772232
 30
0.0
 10
10.2228468534
 20
9.1488975022
 30
0.0
 10
10.2024248442
 20
9.1451882662
 30
0.0
 10
10.1860200502
 20
9.1431296804
 30
0.0
 10
10.1696529581
 20
9.1416904225
 30
0.0
 10
10.1573433351
 20
9.1413060024
 30
0.0
 10
10.1491587022
 20
9.1413689379
 30
0.0
  0
SPLINE
  5
405
100
AcDbEntity
  8
0
100
AcDbSpline
 62
7
  6
CONTINUOUS
 70
0
 71
3
 72
23
 73
19
 74
0
 42
0.0000001
 43
0.0000001
 44
0.0000000001
 40
0.0
 40
0.0
 40
0.0
 40
0.0
 40
0.0616482071
 40
0.1233194423
 40
0.1850364754
 40
0.2468215648
 40
0.3086962113
 40
0.3706809251
 40
0.4327950039
 40
0.4950563299
 40
0.5574811805
 40
0.6200840695
 40
0.682877611
 40
0.7458723236
 40
0.8090769236
 40
0.8724969197
 40
0.9361382346
 40
1.0
 40
1.0
 40
1.0
 40
1.0
 10
9.5938302791
 20
9.631246645
 30
0.0
 10
9.5989138743
 20
9.6361570173
 30
0.0
 10
9.6093493043
 20
9.6457081028
 30
0.0
 10
9.6257529759
 20
9.6591754965
 30
0.0
 10
9.642868964
 20
9.6717527129
 30
0.0
 10
9.6606535579
 20
9.6834075083
 30
0.0
 10
9.6790620838
 20
9.6941106979
 30
0.0
 10
9.6980481039
 20
9.7038353097
 30
0.0
 10
9.7175637833
 20
9.7125568949
 30
0.0
 10
9.737559945
 20
9.720253522
 30
0.0
 10
9.7579862119
 20
9.7269058502
 30
0.0
 10
9.7787911323
 20
9.7324971703
 30
0.0
 10
9.7999222959
 20
9.7370134485
 30
0.0
 10
9.821326519
 20
9.7404434068
 30
0.0
 10
9.8429497983
 20
9.7427784079
 30
0.0
 10
9.8647380341
 20
9.7440127511
 30
0.0
 10
9.8866355008
 20
9.7441432513
 30
0.0
 10
9.9012463832
 20
9.7434952987
 30
0.0
 10
9.9085504843
 20
9.7429887576
 30
0.0
  0
SPLINE
  5
406
100
AcDbEntity
  8
0
100
AcDbSpline
 62
7
  6
CONTINUOUS
 70
0
 71
3
 72
39
 73
35
 74
0
 42
0.0000001
 43
0.0000001
 44
0.0000000001
 40
0.0
 40
0.0
 40
0.0
 40
0.0
 40
0.0299393047
 40
0.0599022801
 40
0.0899120371
 40
0.1199905837
 40
0.1501583157
 40
0.1804335568
 40
0.2108321569
 40
0.2413671588
 40
0.2720485416
 40
0.3028830442
 40
0.3338740651
 40
0.3650216374
 40
0.3963224781
 40
0.4277701073
 40
0.4593550264
 40
0.4910649494
 40
0.522885082
 40
0.5547984439
 40
0.586786223
 40
0.6188281554
 40
0.6509029262
 40
0.6829885862
 40
0.7150629769
 40
0.7471041563
 40
0.7790908245
 40
0.8110027389
 40
0.842821116
 40
0.8745290096
 40
0.9061116585
 40
0.9375568878
 40
0.9688549526
 40
1.0
 40
1.0
 40
1.0
 40
1.0
 10
10.2232706895
 20
8.9796020197
 30
0.0
 10
10.2306760935
 20
8.9867550855
 30
0.0
 10
10.2449381127
 20
9.0016541883
 30
0.0
 10
10.2645252463
 20
9.0256178842
 30
0.0
 10
10.2822111658
 20
9.0510776665
 30
0.0
 10
10.2978995826
 20
9.0778954013
 30
0.0
 10
10.3115072372
 20
9.1059279125
 30
0.0
 10
10.3229614612
 20
9.1350249788
 30
0.0
 10
10.332201315
 20
9.1650309062
 30
0.0
 10
10.3391777549
 20
9.1957851539
 30
0.0
 10
10.3438538923
 20
9.2271232808
 30
0.0
 10
10.3462051325
 20
9.2588778177
 30
0.0
 10
10.3462192837
 20
9.2908791609
 30
0.0
 10
10.3438966456
 20
9.3229564684
 30
0.0
 10
10.3392499979
 20
9.3549385749
 30
0.0
 10
10.3323044646
 20
9.3866548916
 30
0.0
 10
10.3230973777
 20
9.4179363008
 30
0.0
 10
10.3116780827
 20
9.4486160426
 30
0.0
 10
10.2981077184
 20
9.4785306148
 30
0.0
 10
10.2824588211
 20
9.5075206116
 30
0.0
 10
10.2648149489
 20
9.5354315613
 30
0.0
 10
10.2452702328
 20
9.5621147302
 30
0.0
 10
10.2239289347
 20
9.5874279471
 30
0.0
 10
10.2009048463
 20
9.6112363242
 30
0.0
 10
10.1763206844
 20
9.6334129609
 30
0.0
 10
10.1503074417
 20
9.6538396033
 30
0.0
 10
10.1230037326
 20
9.6724073101
 30
0.0
 10
10.0945550432
 20
9.6890170231
 30
0.0
 10
10.0651129635
 20
9.703580059
 30
0.0
 10
10.0348343272
 20
9.7160185776
 30
0.0
 10
10.0038806454
 20
9.7262660317
 30
0.0
 10
9.9724163844
 20
9.73426751
 30
0.0
 10
9.940611461
 20
9.7399800201
 30
0.0
 10
9.919235407
 20
9.7422477557
 30
0.0
 10
9.9085504843
 20
9.7429887576
 30
0.0
  0
SPLINE
  5
407
100
AcDbEntity
  8
0
100
AcDbSpline
 62
7
  6
CONTINUOUS
 70
0
 71
3
 72
17
 73
13
 74
0
 42
0.0000001
 43
0.0000001
 44
0.0000000001
 40
0.0
 40
0.0
 40
0.0
 40
0.0
 40
0.125131827
 40
0.2507414773
 40
0.3766298682
 40
0.5025447973
 40
0.6281824639
 40
0.7531985111
 40
0.8153758282
 40
0.8772620651
 40
0.9388186078
 40
1.0
 40
1.0
 40
1.0
 40
1.0
 10
11.7938569769
 20
8.8428269779
 30
0.0
 10
11.7873446196
 20
8.8387582161
 30
0.0
 10
11.7740393102
 20
8.8310054766
 30
0.0
 10
11.7533371189
 20
8.8206913121
 30
0.0
 10
11.7319212748
 20
8.8118201456
 30
0.0
 10
11.7099044557
 20
8.8045540237
 30
0.0
 10
11.6874356404
 20
8.7990498805
 30
0.0
 10
11.6684492471
 20
8.7960425984
 30
0.0
 10
11.6532236145
 20
8.7946481666
 30
0.0
 10
11.6418410214
 20
8.7941174917
 30
0.0
 10
11.6305075127
 20
8.7941071816
 30
0.0
 10
11.6229800567
 20
8.7944504219
 30
0.0
 10
11.6192345623
 20
8.7947101728
 30
0.0
  0
SPLINE
  5
408
100
AcDbEntity
  8
0
100
AcDbSpline
 62
7
  6
CONTINUOUS
 70
0
 71
3
 72
23
 73
19
 74
0
 42
0.0000001
 43
0.0000001
 44
0.0000000001
 40
0.0
 40
0.0
 40
0.0
 40
0.0
 40
0.0616482071
 40
0.1233194423
 40
0.1850364754
 40
0.2468215648
 40
0.3086962113
 40
0.3706809251
 40
0.4327950039
 40
0.4950563299
 40
0.5574811805
 40
0.6200840695
 40
0.682877611
 40
0.7458723236
 40
0.8090769236
 40
0.8724969197
 40
0.9361382346
 40
1.0
 40
1.0
 40
1.0
 40
1.0
 10
11.0427191044
 20
9.1695095133
 30
0.0
 10
11.0478026995
 20
9.1744198856
 30
0.0
 10
11.0582381295
 20
9.1839709711
 30
0.0
 10
11.0746418011
 20
9.1974383648
 30
0.0
 10
11.0917577893
 20
9.2100155812
 30
0.0
 10
11.1095423831
 20
9.2216703765
 30
0.0
 10
11.1279509091
 20
9.2323735661
 30
0.0
 10
11.1469369292
 20
9.242098178
 30
0.0
 10
11.1664526085
 20
9.2508197631
 30
0.0
 10
11.1864487703
 20
9.2585163903
 30
0.0
 10
11.2068750371
 20
9.2651687184
 30
0.0
 10
11.2276799576
 20
9.2707600385
 30
0.0
 10
11.2488111212
 20
9.2752763168
 30
0.0
 10
11.2702153443
 20
9.278706275
 30
0.0
 10
11.2918386235
 20
9.2810412762
 30
0.0
 10
11.3136268594
 20
9.2822756194
 30
0.0
 10
11.3355243261
 20
9.2824061195
 30
0.0
 10
11.3501352085
 20
9.281758167
 30
0.0
 10
11.3574393096
 20
9.2812516258
 30
0.0
  0
SPLINE
  5
409
100
AcDbEntity
  8
0
100
AcDbSpline
 62
7
  6
CONTINUOUS
 70
0
 71
3
 72
39
 73
35
 74
0
 42
0.0000001
 43
0.0000001
 44
0.0000000001
 40
0.0
 40
0.0
 40
0.0
 40
0.0
 40
0.0299393047
 40
0.0599022801
 40
0.0899120371
 40
0.1199905837
 40
0.1501583157
 40
0.1804335568
 40
0.2108321569
 40
0.2413671588
 40
0.2720485416
 40
0.3028830442
 40
0.3338740651
 40
0.3650216374
 40
0.3963224781
 40
0.4277701073
 40
0.4593550264
 40
0.4910649494
 40
0.522885082
 40
0.5547984439
 40
0.586786223
 40
0.6188281554
 40
0.6509029262
 40
0.6829885862
 40
0.7150629769
 40
0.7471041563
 40
0.7790908245
 40
0.8110027389
 40
0.842821116
 40
0.8745290096
 40
0.9061116585
 40
0.9375568878
 40
0.9688549526
 40
1.0
 40
1.0
 40
1.0
 40
1.0
 10
11.6721595148
 20
8.517864888
 30
0.0
 10
11.6795649187
 20
8.5250179537
 30
0.0
 10
11.6938269379
 20
8.5399170566
 30
0.0
 10
11.7134140716
 20
8.5638807524
 30
0.0
 10
11.731099991
 20
8.5893405347
 30
0.0
 10
11.7467884079
 20
8.6161582695
 30
0.0
 10
11.7603960625
 20
8.6441907808
 30
0.0
 10
11.7718502865
 20
8.673287847
 30
0.0
 10
11.7810901403
 20
8.7032937744
 30
0.0
 10
11.7880665802
 20
8.7340480221
 30
0.0
 10
11.7927427176
 20
8.765386149
 30
0.0
 10
11.7950939578
 20
8.7971406859
 30
0.0
 10
11.795108109
 20
8.8291420291
 30
0.0
 10
11.7927854709
 20
8.8612193367
 30
0.0
 10
11.7881388232
 20
8.8932014431
 30
0.0
 10
11.7811932899
 20
8.9249177599
 30
0.0
 10
11.771986203
 20
8.956199169
 30
0.0
 10
11.760566908
 20
8.9868789109
 30
0.0
 10
11.7469965436
 20
9.0167934831
 30
0.0
 10
11.7313476464
 20
9.0457834798
 30
0.0
 10
11.7137037742
 20
9.0736944295
 30
0.0
 10
11.694159058
 20
9.1003775985
 30
0.0
 10
11.67281776
 20
9.1256908154
 30
0.0
 10
11.6497936715
 20
9.1494991924
 30
0.0
 10
11.6252095097
 20
9.1716758292
 30
0.0
 10
11.5991962669
 20
9.1921024716
 30
0.0
 10
11.5718925579
 20
9.2106701784
 30
0.0
 10
11.5434438685
 20
9.2272798914
 30
0.0
 10
11.5140017888
 20
9.2418429272
 30
0.0
 10
11.4837231525
 20
9.2542814458
 30
0.0
 10
11.4527694706
 20
9.2645288999
 30
0.0
 10
11.4213052097
 20
9.2725303782
 30
0.0
 10
11.3895002862
 20
9.2782428883
 30
0.0
 10
11.3681242323
 20
9.2805106239
 30
0.0
 10
11.3574393096
 20
9.2812516258
 30
0.0
  0
SPLINE
  5
40A
100
AcDbEntity
  8
0
100
AcDbSpline
 62
7
  6
CONTINUOUS
 70
0
 71
3
 72
23
 73
19
 74
0
 42
0.0000001
 43
0.0000001
 44
0.0000000001
 40
0.0
 40
0.0
 40
0.0
 40
0.0
 40
0.0616482071
 40
0.1233194423
 40
0.1850364754
 40
0.2468215648
 40
0.3086962113
 40
0.3706809251
 40
0.4327950039
 40
0.4950563299
 40
0.5574811805
 40
0.6200840695
 40
0.682877611
 40
0.7458723236
 40
0.8090769236
 40
0.8724969197
 40
0.9361382346
 40
1.0
 40
1.0
 40
1.0
 40
1.0
 10
11.0427191044
 20
7.3574326258
 30
0.0
 10
11.0478026995
 20
7.3623429981
 30
0.0
 10
11.0582381295
 20
7.3718940836
 30
0.0
 10
11.0746418011
 20
7.3853614773
 30
0.0
 10
11.0917577893
 20
7.3979386937
 30
0.0
 10
11.1095423831
 20
7.409593489
 30
0.0
 10
11.1279509091
 20
7.4202966786
 30
0.0
 10
11.1469369292
 20
7.4300212905
 30
0.0
 10
11.1664526085
 20
7.4387428757
 30
0.0
 10
11.1864487703
 20
7.4464395028
 30
0.0
 10
11.2068750371
 20
7.453091831
 30
0.0
 10
11.2276799576
 20
7.458683151
 30
0.0
 10
11.2488111212
 20
7.4631994293
 30
0.0
 10
11.2702153443
 20
7.4666293875
 30
0.0
 10
11.2918386235
 20
7.4689643887
 30
0.0
 10
11.3136268594
 20
7.4701987319
 30
0.0
 10
11.3355243261
 20
7.4703292321
 30
0.0
 10
11.3501352085
 20
7.4696812795
 30
0.0
 10
11.3574393096
 20
7.4691747384
 30
0.0
  0
SPLINE
  5
40B
100
AcDbEntity
  8
0
100
AcDbSpline
 62
7
  6
CONTINUOUS
 70
0
 71
3
 72
39
 73
35
 74
0
 42
0.0000001
 43
0.0000001
 44
0.0000000001
 40
0.0
 40
0.0
 40
0.0
 40
0.0
 40
0.0299393047
 40
0.0599022801
 40
0.0899120371
 40
0.1199905837
 40
0.1501583157
 40
0.1804335568
 40
0.2108321569
 40
0.2413671588
 40
0.2720485416
 40
0.3028830442
 40
0.3338740651
 40
0.3650216374
 40
0.3963224781
 40
0.4277701073
 40
0.4593550264
 40
0.4910649494
 40
0.522885082
 40
0.5547984439
 40
0.586786223
 40
0.6188281554
 40
0.6509029262
 40
0.6829885862
 40
0.7150629769
 40
0.7471041563
 40
0.7790908245
 40
0.8110027389
 40
0.842821116
 40
0.8745290096
 40
0.9061116585
 40
0.9375568878
 40
0.9688549526
 40
1.0
 40
1.0
 40
1.0
 40
1.0
 10
11.6721595148
 20
6.7057880005
 30
0.0
 10
11.6795649187
 20
6.7129410662
 30
0.0
 10
11.6938269379
 20
6.7278401691
 30
0.0
 10
11.7134140716
 20
6.7518038649
 30
0.0
 10
11.731099991
 20
6.7772636472
 30
0.0
 10
11.7467884079
 20
6.804081382
 30
0.0
 10
11.7603960625
 20
6.8321138933
 30
0.0
 10
11.7718502865
 20
6.8612109596
 30
0.0
 10
11.7810901403
 20
6.8912168869
 30
0.0
 10
11.7880665802
 20
6.9219711347
 30
0.0
 10
11.7927427176
 20
6.9533092615
 30
0.0
 10
11.7950939578
 20
6.9850637984
 30
0.0
 10
11.795108109
 20
7.0170651416
 30
0.0
 10
11.7927854709
 20
7.0491424492
 30
0.0
 10
11.7881388232
 20
7.0811245556
 30
0.0
 10
11.7811932899
 20
7.1128408724
 30
0.0
 10
11.771986203
 20
7.1441222815
 30
0.0
 10
11.760566908
 20
7.1748020234
 30
0.0
 10
11.7469965436
 20
7.2047165956
 30
0.0
 10
11.7313476464
 20
7.2337065923
 30
0.0
 10
11.7137037742
 20
7.261617542
 30
0.0
 10
11.694159058
 20
7.288300711
 30
0.0
 10
11.67281776
 20
7.3136139279
 30
0.0
 10
11.6497936715
 20
7.337422305
 30
0.0
 10
11.6252095097
 20
7.3595989417
 30
0.0
 10
11.5991962669
 20
7.3800255841
 30
0.0
 10
11.5718925579
 20
7.3985932909
 30
0.0
 10
11.5434438685
 20
7.4152030039
 30
0.0
 10
11.5140017888
 20
7.4297660397
 30
0.0
 10
11.4837231525
 20
7.4422045584
 30
0.0
 10
11.4527694706
 20
7.4524520125
 30
0.0
 10
11.4213052097
 20
7.4604534907
 30
0.0
 10
11.3895002862
 20
7.4661660009
 30
0.0
 10
11.3681242323
 20
7.4684337365
 30
0.0
 10
11.3574393096
 20
7.4691747384
 30
0.0
  0
SPLINE
  5
40C
100
AcDbEntity
  8
0
100
AcDbSpline
 62
7
  6
CONTINUOUS
 70
0
 71
3
 72
18
 73
14
 74
0
 42
0.0000001
 43
0.0000001
 44
0.0000000001
 40
0.0
 40
0.0
 40
0.0
 40
0.0
 40
0.0548626505
 40
0.1099292212
 40
0.1654012836
 40
0.2214755222
 40
0.3361333874
 40
0.4553634688
 40
0.517104949
 40
0.58043661
 40
0.7123312106
 40
0.8519577725
 40
1.0
 40
1.0
 40
1.0
 40
1.0
 10
10.7912266069
 20
10.6139674756
 30
0.0
 10
10.791226605
 20
10.6132048451
 30
0.0
 10
10.7911782043
 20
10.6116763092
 30
0.0
 10
10.7909605872
 20
10.609386003
 30
0.0
 10
10.7905979108
 20
10.6070969719
 30
0.0
 10
10.7899164314
 20
10.6040256005
 30
0.0
 10
10.7886887245
 20
10.6001761124
 30
0.0
 10
10.7870072595
 20
10.5964175041
 30
0.0
 10
10.7853893016
 20
10.5934304337
 30
0.0
 10
10.7835366694
 20
10.5903749068
 30
0.0
 10
10.780846609
 20
10.5865681436
 30
0.0
 10
10.7770961732
 20
10.5820946035
 30
0.0
 10
10.7743067486
 20
10.5792241092
 30
0.0
 10
10.772826599
 20
10.5777943943
 30
0.0
  0
SPLINE
  5
40D
100
AcDbEntity
  8
0
100
AcDbSpline
 62
7
  6
CONTINUOUS
 70
0
 71
3
 72
55
 73
51
 74
0
 42
0.0000001
 43
0.0000001
 44
0.0000000001
 40
0.0
 40
0.0
 40
0.0
 40
0.0
 40
0.0099874912
 40
0.0204477711
 40
0.0313772774
 40
0.0427708795
 40
0.0546219795
 40
0.0669227579
 40
0.0796642422
 40
0.0928363999
 40
0.1064282967
 40
0.1204280898
 40
0.1348231448
 40
0.1496001092
 40
0.164744899
 40
0.180242823
 40
0.1960785882
 40
0.2122363246
 40
0.2454512648
 40
0.2797517072
 40
0.3149945373
 40
0.3510310754
 40
0.3877080396
 40
0.424868496
 40
0.4623527914
 40
0.4999994618
 40
0.5376461367
 40
0.5751304476
 40
0.6122909297
 40
0.6489679246
 40
0.6850045031
 40
0.7202473889
 40
0.7545478952
 40
0.7877628978
 40
0.803920678
 40
0.8197564729
 40
0.8352544455
 40
0.8503992779
 40
0.8651762785
 40
0.8795713922
 40
0.893571225
 40
0.9071631696
 40
0.9203353878
 40
0.9330769114
 40
0.9453777511
 40
0.9572289063
 40
0.968622552
 40
0.979552129
 40
0.9900124556
 40
1.0
 40
1.0
 40
1.0
 40
1.0
 10
10.8077526837
 20
10.587734808
 30
0.0
 10
10.8043672471
 20
10.5860624644
 30
0.0
 10
10.7973782955
 20
10.5827547042
 30
0.0
 10
10.7865080227
 20
10.5780009357
 30
0.0
 10
10.7750197315
 20
10.5733452096
 30
0.0
 10
10.7629267029
 20
10.5687929984
 30
0.0
 10
10.7502427556
 20
10.564349495
 30
0.0
 10
10.736982454
 20
10.5600198719
 30
0.0
 10
10.7231610359
 20
10.5558091474
 30
0.0
 10
10.7087944126
 20
10.5517221743
 30
0.0
 10
10.6938991251
 20
10.5477637283
 30
0.0
 10
10.6784923461
 20
10.5439383818
 30
0.0
 10
10.6625918443
 20
10.5402505668
 30
0.0
 10
10.6462159621
 20
10.5367045923
 30
0.0
 10
10.6293836033
 20
10.533304539
 30
0.0
 10
10.6121142058
 20
10.530054375
 30
0.0
 10
10.5944276908
 20
10.5269578533
 30
0.0
 10
10.5700932139
 20
10.5230025559
 30
0.0
 10
10.5387807332
 20
10.5184811251
 30
0.0
 10
10.500215014
 20
10.5137689122
 30
0.0
 10
10.4604992569
 20
10.5097437939
 30
0.0
 10
10.4198169523
 20
10.5064245537
 30
0.0
 10
10.3783558939
 20
10.50382671
 30
0.0
 10
10.3363075785
 20
10.5019623854
 30
0.0
 10
10.2938662255
 20
10.5008402857
 30
0.0
 10
10.2512278916
 20
10.5004656574
 30
0.0
 10
10.2085895515
 20
10.5008402458
 30
0.0
 10
10.1661481799
 20
10.5019622963
 30
0.0
 10
10.1240998352
 20
10.5038265723
 30
0.0
 10
10.0826387378
 20
10.5064243783
 30
0.0
 10
10.0419563819
 20
10.5097435797
 30
0.0
 10
10.0022405595
 20
10.5137686521
 30
0.0
 10
9.9636747649
 20
10.5184808172
 30
0.0
 10
9.9323622168
 20
10.5230022298
 30
0.0
 10
9.9080276812
 20
10.5269574867
 30
0.0
 10
9.8903411188
 20
10.5300540052
 30
0.0
 10
9.8730716692
 20
10.5333041395
 30
0.0
 10
9.8562392577
 20
10.5367041757
 30
0.0
 10
9.8398633214
 20
10.5402501452
 30
0.0
 10
9.8239627594
 20
10.5439379258
 30
0.0
 10
9.8085559223
 20
10.5477632682
 30
0.0
 10
9.7936605734
 20
10.5517217002
 30
0.0
 10
9.7792938837
 20
10.5558086441
 30
0.0
 10
9.7654724031
 20
10.5600193726
 30
0.0
 10
9.7522120314
 20
10.56434897
 30
0.0
 10
9.7395280139
 20
10.5687924574
 30
0.0
 10
9.7274349191
 20
10.5733446737
 30
0.0
 10
9.7159465477
 20
10.5780003641
 30
0.0
 10
9.7050762074
 20
10.5827541392
 30
0.0
 10
9.6980872045
 20
10.5860618793
 30
0.0
 10
9.6947017468
 20
10.5877342255
 30
0.0
  0
SPLINE
  5
40E
100
AcDbEntity
  8
0
100
AcDbSpline
 62
7
  6
CONTINUOUS
 70
0
 71
3
 72
9
 73
5
 74
0
 42
0.0000001
 43
0.0000001
 44
0.0000000001
 40
0.0
 40
0.0
 40
0.0
 40
0.0
 40
0.5155012115
 40
1.0
 40
1.0
 40
1.0
 40
1.0
 10
10.7618182982
 20
10.5684741152
 30
0.0
 10
10.7638003156
 20
10.5699642463
 30
0.0
 10
10.7675700767
 20
10.5729567333
 30
0.0
 10
10.7711503298
 20
10.5761752425
 30
0.0
 10
10.772826599
 20
10.5777943943
 30
0.0
  0
SPLINE
  5
40F
100
AcDbEntity
  8
0
100
AcDbSpline
 62
7
  6
CONTINUOUS
 70
0
 71
3
 72
22
 73
18
 74
0
 42
0.0000001
 43
0.0000001
 44
0.0000000001
 40
0.0
 40
0.0
 40
0.0
 40
0.0
 40
0.0516094297
 40
0.103526819
 40
0.1560541247
 40
0.2094819429
 40
0.264085209
 40
0.3201191951
 40
0.4373375855
 40
0.4989793834
 40
0.5628550679
 40
0.62911159
 40
0.6978765513
 40
0.7692607614
 40
0.8433582156
 40
0.9202488072
 40
1.0
 40
1.0
 40
1.0
 40
1.0
 10
9.7112266368
 20
10.6139674756
 30
0.0
 10
9.7112266343
 20
10.6130001897
 30
0.0
 10
9.7113046436
 20
10.6110589542
 30
0.0
 10
9.7116553475
 20
10.6081522903
 30
0.0
 10
9.7122394889
 20
10.6052485481
 30
0.0
 10
9.7130565779
 20
10.6023494675
 30
0.0
 10
9.7141061541
 20
10.599456268
 30
0.0
 10
9.7158400458
 20
10.5955504638
 30
0.0
 10
9.718027926
 20
10.5917144522
 30
0.0
 10
9.7206124983
 20
10.5879687403
 30
0.0
 10
9.7228119545
 20
10.5851236233
 30
0.0
 10
9.7252384183
 20
10.582291781
 30
0.0
 10
9.7278909435
 20
10.579473985
 30
0.0
 10
9.73076837
 20
10.5766714883
 30
0.0
 10
9.7338694435
 20
10.5738853366
 30
0.0
 10
9.7371927915
 20
10.5711166927
 30
0.0
 10
9.7395128315
 20
10.5693165855
 30
0.0
 10
9.7407081518
 20
10.5684191283
 30
0.0
  0
SPLINE
  5
410
100
AcDbEntity
  8
0
100
AcDbSpline
 62
7
  6
CONTINUOUS
 70
0
 71
3
 72
9
 73
5
 74
0
 42
0.0000001
 43
0.0000001
 44
0.0000000001
 40
0.0
 40
0.0
 40
0.0
 40
0.0
 40
0.5021339382
 40
1.0
 40
1.0
 40
1.0
 40
1.0
 10
9.9387266237
 20
7.9044189529
 30
0.0
 10
9.9387270755
 20
7.9085974192
 30
0.0
 10
9.9390956584
 20
7.9169234691
 30
0.0
 10
9.9402406916
 20
7.9251802971
 30
0.0
 10
9.9410091848
 20
7.9292513493
 30
0.0
  0
SPLINE
  5
411
100
AcDbEntity
  8
0
100
AcDbSpline
 62
7
  6
CONTINUOUS
 70
0
 71
3
 72
15
 73
11
 74
0
 42
0.0000001
 43
0.0000001
 44
0.0000000001
 40
0.0
 40
0.0
 40
0.0
 40
0.0
 40
0.068527302
 40
0.1464932328
 40
0.2368098229
 40
0.3426743279
 40
0.4680706563
 40
0.6174209168
 40
0.7942271465
 40
1.0
 40
1.0
 40
1.0
 40
1.0
 10
12.4585585363
 20
10.7313755425
 30
0.0
 10
12.4585585363
 20
10.7311852641
 30
0.0
 10
12.4585428646
 20
10.7307783182
 30
0.0
 10
12.4584632042
 20
10.7301248683
 30
0.0
 10
12.4583097068
 20
10.7293785052
 30
0.0
 10
12.4580649679
 20
10.7285189142
 30
0.0
 10
12.4576980579
 20
10.7275267489
 30
0.0
 10
12.4571802993
 20
10.7263837941
 30
0.0
 10
12.4564856507
 20
10.7250793016
 30
0.0
 10
12.4559290997
 20
10.7241735605
 30
0.0
 10
12.4556167482
 20
10.7236951307
 30
0.0
  0
SPLINE
  5
412
100
AcDbEntity
  8
0
100
AcDbSpline
 62
7
  6
CONTINUOUS
 70
0
 71
3
 72
63
 73
59
 74
0
 42
0.0000001
 43
0.0000001
 44
0.0000000001
 40
0.0
 40
0.0
 40
0.0
 40
0.0
 40
0.0077404951
 40
0.0160540231
 40
0.0249601625
 40
0.0344715779
 40
0.0445947918
 40
0.0553316038
 40
0.0666797818
 40
0.0786337195
 40
0.0911849323
 40
0.1043223985
 40
0.1180328871
 40
0.1323012211
 40
0.1471104705
 40
0.1624420942
 40
0.1782761125
 40
0.1945912411
 40
0.2113649863
 40
0.2285737288
 40
0.2461928417
 40
0.2641967748
 40
0.2825591168
 40
0.3012526675
 40
0.3202495285
 40
0.3395211688
 40
0.3787712063
 40
0.4187649048
 40
0.4592577009
 40
0.5000010365
 40
0.5407443622
 40
0.5812371306
 40
0.6212307843
 40
0.6604807551
 40
0.6797523556
 40
0.6987491799
 40
0.7174426839
 40
0.7358049676
 40
0.7538088469
 40
0.7714279092
 40
0.7886365862
 40
0.8054102566
 40
0.8217253206
 40
0.837559275
 40
0.8528908158
 40
0.8676999784
 40
0.88196824
 40
0.8956786521
 40
0.908816022
 40
0.9213671416
 40
0.9333210024
 40
0.9446690929
 40
0.9554058035
 40
0.9655289264
 40
0.9750402472
 40
0.9839463523
 40
0.9922597067
 40
1.0
 40
1.0
 40
1.0
 40
1.0
 10
12.4686777064
 20
10.7341223001
 30
0.0
 10
12.4665299352
 20
10.7321236508
 30
0.0
 10
12.4619064783
 20
10.7281577073
 30
0.0
 10
12.454321809
 20
10.7224934861
 30
0.0
 10
12.4458580275
 20
10.716914663
 30
0.0
 10
12.4365289861
 20
10.7114300438
 30
0.0
 10
12.4263491053
 20
10.7060479803
 30
0.0
 10
12.4153346684
 20
10.7007770559
 30
0.0
 10
12.4035033298
 20
10.6956257489
 30
0.0
 10
12.3908741954
 20
10.6906024669
 30
0.0
 10
12.377467755
 20
10.6857154656
 30
0.0
 10
12.3633058561
 20
10.6809727913
 30
0.0
 10
12.3484116441
 20
10.676382274
 30
0.0
 10
12.3328095016
 20
10.6719515138
 30
0.0
 10
12.3165250094
 20
10.6676878611
 30
0.0
 10
12.29958491
 20
10.6635983697
 30
0.0
 10
12.2820170455
 20
10.6596898146
 30
0.0
 10
12.2638503014
 20
10.6559686791
 30
0.0
 10
12.2451145653
 20
10.6524411384
 30
0.0
 10
12.2258406814
 20
10.6491130267
 30
0.0
 10
12.2060603866
 20
10.6459898568
 30
0.0
 10
12.1858062543
 20
10.6430768105
 30
0.0
 10
12.1651116462
 20
10.640378714
 30
0.0
 10
12.1440106688
 20
10.6379000325
 30
0.0
 10
12.1225380616
 20
10.6356448439
 30
0.0
 10
12.0932820596
 20
10.6329245182
 30
0.0
 10
12.0560441529
 20
10.6301179338
 30
0.0
 10
12.0107211757
 20
10.6277104624
 30
0.0
 10
11.9647912006
 20
10.6262595571
 30
0.0
 10
11.9185568252
 20
10.6257748595
 30
0.0
 10
11.872322461
 20
10.6262596271
 30
0.0
 10
11.8263925196
 20
10.6277106083
 30
0.0
 10
11.7810695986
 20
10.6301181429
 30
0.0
 10
11.7438317541
 20
10.6329247906
 30
0.0
 10
11.7145758112
 20
10.6356451652
 30
0.0
 10
11.6931032535
 20
10.6379003784
 30
0.0
 10
11.672002334
 20
10.6403790933
 30
0.0
 10
11.6513077919
 20
10.6430772302
 30
0.0
 10
11.6310537262
 20
10.6459903062
 30
0.0
 10
11.6112735001
 20
10.6491134983
 30
0.0
 10
11.5919996953
 20
10.6524416433
 30
0.0
 10
11.5732640453
 20
10.6559692212
 30
0.0
 10
11.5550973847
 20
10.6596903801
 30
0.0
 10
11.5375296066
 20
10.6635989548
 30
0.0
 10
11.520589606
 20
10.6676884786
 30
0.0
 10
11.5043052171
 20
10.6719521636
 30
0.0
 10
11.4887031723
 20
10.6763829404
 30
0.0
 10
11.4738090626
 20
10.6809734745
 30
0.0
 10
11.4596472803
 20
10.6857161798
 30
0.0
 10
11.4462409569
 20
10.6906032069
 30
0.0
 10
11.4336119314
 20
10.6956264984
 30
0.0
 10
11.4217807084
 20
10.7007778193
 30
0.0
 10
11.4107664028
 20
10.7060487729
 30
0.0
 10
11.4005866556
 20
10.7114308552
 30
0.0
 10
11.3912577093
 20
10.7169154722
 30
0.0
 10
11.3827940796
 20
10.7224943196
 30
0.0
 10
11.3752095964
 20
10.7281585272
 30
0.0
 10
11.3705862624
 20
10.7321243974
 30
0.0
 10
11.3684385817
 20
10.7341230316
 30
0.0
  0
SPLINE
  5
413
100
AcDbEntity
  8
0
100
AcDbSpline
 62
7
  6
CONTINUOUS
 70
0
 71
3
 72
15
 73
11
 74
0
 42
0.0000001
 43
0.0000001
 44
0.0000000001
 40
0.0
 40
0.0
 40
0.0
 40
0.0
 40
0.2070183484
 40
0.3847335518
 40
0.5345488743
 40
0.6601707684
 40
0.7659103235
 40
0.8556379774
 40
0.9326487331
 40
1.0
 40
1.0
 40
1.0
 40
1.0
 10
11.3816640233
 20
10.7234474694
 30
0.0
 10
11.3813341182
 20
10.7239429993
 30
0.0
 10
11.3807460667
 20
10.7248810622
 30
0.0
 10
11.3800110465
 20
10.7262322004
 30
0.0
 10
11.3794636778
 20
10.7274158882
 30
0.0
 10
11.3790769208
 20
10.7284426474
 30
0.0
 10
11.3788189936
 20
10.7293301296
 30
0.0
 10
11.3786576387
 20
10.730097719
 30
0.0
 10
11.3785746571
 20
10.7307665443
 30
0.0
 10
11.3785585363
 20
10.7311818665
 30
0.0
 10
11.3785585363
 20
10.7313755425
 30
0.0
  0
SPLINE
  5
414
100
AcDbEntity
  8
0
100
AcDbSpline
 62
7
  6
CONTINUOUS
 70
0
 71
3
 72
33
 73
29
 74
0
 42
0.0000001
 43
0.0000001
 44
0.0000000001
 40
0.0
 40
0.0
 40
0.0
 40
0.0
 40
0.0126611239
 40
0.0256297336
 40
0.0391904263
 40
0.053589189
 40
0.0690270082
 40
0.0856610213
 40
0.103610138
 40
0.1229609819
 40
0.143774814
 40
0.1660916856
 40
0.1899356205
 40
0.2153166451
 40
0.2422342381
 40
0.2706782889
 40
0.3006311593
 40
0.332068398
 40
0.364959691
 40
0.3992697436
 40
0.4349583791
 40
0.4719816771
 40
0.5498339899
 40
0.6324076926
 40
0.7192341191
 40
0.8098063578
 40
0.9035833072
 40
1.0
 40
1.0
 40
1.0
 40
1.0
 10
12.1134654611
 20
6.0674501891
 30
0.0
 10
12.1128827224
 20
6.0674906067
 30
0.0
 10
12.1117076892
 20
6.0676697608
 30
0.0
 10
12.1099800404
 20
6.0682260034
 30
0.0
 10
12.1082824941
 20
6.0690674382
 30
0.0
 10
12.1066184327
 20
6.0701901008
 30
0.0
 10
12.1049894222
 20
6.0715904399
 30
0.0
 10
12.1033969196
 20
6.0732652959
 30
0.0
 10
12.10184251
 20
6.0752117466
 30
0.0
 10
12.1003278958
 20
6.0774266592
 30
0.0
 10
12.0988551249
 20
6.0799066779
 30
0.0
 10
12.0974262038
 20
6.0826479477
 30
0.0
 10
12.0960433725
 20
6.0856462323
 30
0.0
 10
12.0947087233
 20
6.0888967766
 30
0.0
 10
12.0934244581
 20
6.0923944097
 30
0.0
 10
12.0921926264
 20
6.0961334923
 30
0.0
 10
12.0910152772
 20
6.1001079715
 30
0.0
 10
12.0898943525
 20
6.1043113764
 30
0.0
 10
12.0888316988
 20
6.1087368411
 30
0.0
 10
12.0878291162
 20
6.1133771176
 30
0.0
 10
12.08688821
 20
6.1182246007
 30
0.0
 10
12.0856981477
 20
6.1250687667
 30
0.0
 10
12.0843862371
 20
6.1340854027
 30
0.0
 10
12.0831045383
 20
6.1454221612
 30
0.0
 10
12.0820991228
 20
6.1573756517
 30
0.0
 10
12.0813768468
 20
6.1698671738
 30
0.0
 10
12.0809426754
 20
6.1828145603
 30
0.0
 10
12.0808484469
 20
6.1915897524
 30
0.0
 10
12.0808484469
 20
6.1960380708
 30
0.0
  0
SPLINE
  5
415
100
AcDbEntity
  8
0
100
AcDbSpline
 62
7
  6
CONTINUOUS
 70
0
 71
3
 72
33
 73
29
 74
0
 42
0.0000001
 43
0.0000001
 44
0.0000000001
 40
0.0
 40
0.0
 40
0.0
 40
0.0
 40
0.0126611239
 40
0.0256297336
 40
0.0391904263
 40
0.053589189
 40
0.0690270082
 40
0.0856610213
 40
0.103610138
 40
0.1229609819
 40
0.143774814
 40
0.1660916856
 40
0.1899356205
 40
0.2153166451
 40
0.2422342381
 40
0.2706782889
 40
0.3006311593
 40
0.332068398
 40
0.364959691
 40
0.3992697436
 40
0.4349583791
 40
0.4719816771
 40
0.5498339899
 40
0.6324076926
 40
0.7192341191
 40
0.8098063578
 40
0.9035833072
 40
1.0
 40
1.0
 40
1.0
 40
1.0
 10
12.1134654611
 20
9.8104129877
 30
0.0
 10
12.1128827224
 20
9.8104534053
 30
0.0
 10
12.1117076892
 20
9.8106325594
 30
0.0
 10
12.1099800404
 20
9.8111888021
 30
0.0
 10
12.1082824941
 20
9.8120302368
 30
0.0
 10
12.1066184327
 20
9.8131528995
 30
0.0
 10
12.1049894222
 20
9.8145532386
 30
0.0
 10
12.1033969196
 20
9.8162280945
 30
0.0
 10
12.10184251
 20
9.8181745453
 30
0.0
 10
12.1003278958
 20
9.8203894578
 30
0.0
 10
12.0988551249
 20
9.8228694765
 30
0.0
 10
12.0974262038
 20
9.8256107464
 30
0.0
 10
12.0960433725
 20
9.828609031
 30
0.0
 10
12.0947087233
 20
9.8318595753
 30
0.0
 10
12.0934244581
 20
9.8353572084
 30
0.0
 10
12.0921926264
 20
9.839096291
 30
0.0
 10
12.0910152772
 20
9.8430707702
 30
0.0
 10
12.0898943525
 20
9.847274175
 30
0.0
 10
12.0888316988
 20
9.8516996397
 30
0.0
 10
12.0878291162
 20
9.8563399163
 30
0.0
 10
12.08688821
 20
9.8611873994
 30
0.0
 10
12.0856981477
 20
9.8680315654
 30
0.0
 10
12.0843862371
 20
9.8770482013
 30
0.0
 10
12.0831045383
 20
9.8883849598
 30
0.0
 10
12.0820991228
 20
9.9003384503
 30
0.0
 10
12.0813768468
 20
9.9128299724
 30
0.0
 10
12.0809426754
 20
9.9257773589
 30
0.0
 10
12.0808484469
 20
9.934552551
 30
0.0
 10
12.0808484469
 20
9.9390008695
 30
0.0
  0
SPLINE
  5
416
100
AcDbEntity
  8
0
100
AcDbSpline
 62
7
  6
CONTINUOUS
 70
0
 71
3
 72
25
 73
21
 74
0
 42
0.0000001
 43
0.0000001
 44
0.0000000001
 40
0.0
 40
0.0
 40
0.0
 40
0.0
 40
0.0758028043
 40
0.1477704043
 40
0.2161637321
 40
0.2491271711
 40
0.2813259245
 40
0.3436215677
 40
0.4035210453
 40
0.4615453422
 40
0.5182747439
 40
0.5743339546
 40
0.6303723199
 40
0.6870399851
 40
0.7449638081
 40
0.8047272018
 40
0.8668557951
 40
0.8989609834
 40
0.931824516
 40
1.0
 40
1.0
 40
1.0
 40
1.0
 10
11.3881882518
 20
10.7893302417
 30
0.0
 10
11.3868506626
 20
10.7880382296
 30
0.0
 10
11.3843132393
 20
10.7854452737
 30
0.0
 10
11.3808523323
 20
10.7814221411
 30
0.0
 10
11.3783130096
 20
10.7780058698
 30
0.0
 10
11.3765184741
 20
10.7752634401
 30
0.0
 10
11.3749154859
 20
10.7725777749
 30
0.0
 10
11.3731843141
 20
10.7692025505
 30
0.0
 10
11.3715432538
 20
10.7650895285
 30
0.0
 10
11.3703643232
 20
10.7609619604
 30
0.0
 10
11.3696498606
 20
10.7568242371
 30
0.0
 10
11.3694016051
 20
10.7526811101
 30
0.0
 10
11.3696200931
 20
10.7485378137
 30
0.0
 10
11.3703048551
 20
10.7443995938
 30
0.0
 10
11.3714542349
 20
10.7402712529
 30
0.0
 10
11.3730658695
 20
10.7361571889
 30
0.0
 10
11.3747731171
 20
10.7327806611
 30
0.0
 10
11.3763570925
 20
10.7300939653
 30
0.0
 10
11.3781318874
 20
10.7273508467
 30
0.0
 10
11.3796029488
 20
10.7253518443
 30
0.0
 10
11.3806407204
 20
10.7240401642
 30
0.0
  0
SPLINE
  5
417
100
AcDbEntity
  8
0
100
AcDbSpline
 62
7
  6
CONTINUOUS
 70
0
 71
3
 72
34
 73
30
 74
0
 42
0.0000001
 43
0.0000001
 44
0.0000000001
 40
0.0
 40
0.0
 40
0.0
 40
0.0
 40
0.0429696463
 40
0.0845173468
 40
0.1246630558
 40
0.1634317043
 40
0.2008529654
 40
0.2369620229
 40
0.2718005799
 40
0.3054167879
 40
0.3378664766
 40
0.3692137569
 40
0.4288765476
 40
0.4573909827
 40
0.4851515881
 40
0.5122700561
 40
0.5388670337
 40
0.5650712584
 40
0.5910180111
 40
0.6168469499
 40
0.6426998706
 40
0.6687180987
 40
0.695040106
 40
0.7217991284
 40
0.7491213926
 40
0.8058884085
 40
0.8662005793
 40
0.9307313107
 40
1.0
 40
1.0
 40
1.0
 40
1.0
 10
10.8359980611
 20
10.7226680649
 30
0.0
 10
10.8374955584
 20
10.7216815911
 30
0.0
 10
10.8404156112
 20
10.7197023449
 30
0.0
 10
10.8446372758
 20
10.716660839
 30
0.0
 10
10.8486247567
 20
10.7135980392
 30
0.0
 10
10.8523764884
 20
10.7105151808
 30
0.0
 10
10.8558910133
 20
10.7074134066
 30
0.0
 10
10.8591669194
 20
10.7042938524
 30
0.0
 10
10.8622029735
 20
10.7011576993
 30
0.0
 10
10.8649978799
 20
10.6980061373
 30
0.0
 10
10.8675506791
 20
10.6948400283
 30
0.0
 10
10.8705796741
 20
10.6906704925
 30
0.0
 10
10.8731885036
 20
10.6864035637
 30
0.0
 10
10.8753186413
 20
10.6820563295
 30
0.0
 10
10.8766454148
 20
10.6788360965
 30
0.0
 10
10.8777244474
 20
10.6756087995
 30
0.0
 10
10.8785551029
 20
10.6723756479
 30
0.0
 10
10.879136766
 20
10.6691381033
 30
0.0
 10
10.8794691065
 20
10.6658976766
 30
0.0
 10
10.8795517883
 20
10.6626559211
 30
0.0
 10
10.8793847768
 20
10.6594144409
 30
0.0
 10
10.8789682449
 20
10.6561748062
 30
0.0
 10
10.8783024292
 20
10.6529386057
 30
0.0
 10
10.8773878054
 20
10.6497072017
 30
0.0
 10
10.8758178397
 20
10.6453523804
 30
0.0
 10
10.8731998439
 20
10.6399044696
 30
0.0
 10
10.8691140967
 20
10.6335028079
 30
0.0
 10
10.8640553712
 20
10.6271595782
 30
0.0
 10
10.8601846573
 20
10.6231243982
 30
0.0
 10
10.8581054836
 20
10.6211160705
 30
0.0
  0
SPLINE
  5
418
100
AcDbEntity
  8
0
100
AcDbSpline
 62
7
  6
CONTINUOUS
 70
0
 71
3
 72
18
 73
14
 74
0
 42
0.0000001
 43
0.0000001
 44
0.0000000001
 40
0.0
 40
0.0
 40
0.0
 40
0.0
 40
0.1480422275
 40
0.2876687894
 40
0.41956339
 40
0.482895051
 40
0.5446365312
 40
0.6638666126
 40
0.7785244778
 40
0.8345987164
 40
0.8900707788
 40
0.9451373495
 40
1.0
 40
1.0
 40
1.0
 40
1.0
 10
11.3969585592
 20
10.7675486238
 30
0.0
 10
11.3954784095
 20
10.7661189089
 30
0.0
 10
11.392688985
 20
10.7632484146
 30
0.0
 10
11.3889385492
 20
10.7587748745
 30
0.0
 10
11.3862484887
 20
10.7549681113
 30
0.0
 10
11.3843958566
 20
10.7519125844
 30
0.0
 10
11.3827778987
 20
10.748925514
 30
0.0
 10
11.3810964337
 20
10.7451669057
 30
0.0
 10
11.3798687268
 20
10.7413174176
 30
0.0
 10
11.3791872473
 20
10.7382460462
 30
0.0
 10
11.3788245709
 20
10.7359570151
 30
0.0
 10
11.3786069539
 20
10.7336667089
 30
0.0
 10
11.3785585532
 20
10.732138173
 30
0.0
 10
11.3785585512
 20
10.7313755425
 30
0.0
  0
SPLINE
  5
419
100
AcDbEntity
  8
0
100
AcDbSpline
 62
7
  6
CONTINUOUS
 70
0
 71
3
 72
71
 73
67
 74
0
 42
0.0000001
 43
0.0000001
 44
0.0000000001
 40
0.0
 40
0.0
 40
0.0
 40
0.0
 40
0.0156747833
 40
0.0314021865
 40
0.047180646
 40
0.0630088943
 40
0.0788847428
 40
0.0948057522
 40
0.1107690081
 40
0.1267712319
 40
0.1428087904
 40
0.1588777355
 40
0.1749738412
 40
0.1910926417
 40
0.2072294723
 40
0.2233795101
 40
0.2395378174
 40
0.255699384
 40
0.2718591712
 40
0.2880121559
 40
0.3041533744
 40
0.3202779656
 40
0.3363812139
 40
0.352458591
 40
0.3685057963
 40
0.3845187962
 40
0.4004938618
 40
0.416427604
 40
0.4323170075
 40
0.4481594604
 40
0.4639527817
 40
0.4796952457
 40
0.4953856017
 40
0.5110230907
 40
0.5266074578
 40
0.5421389598
 40
0.557618368
 40
0.5730469658
 40
0.588426541
 40
0.6037593729
 40
0.6190482136
 40
0.6342962645
 40
0.6495071467
 40
0.6646848675
 40
0.6798337809
 40
0.6949585438
 40
0.7100640688
 40
0.7251554727
 40
0.7402380227
 40
0.7553170805
 40
0.7703980452
 40
0.7854862953
 40
0.8005871318
 40
0.8157057211
 40
0.8308470414
 40
0.8460158297
 40
0.8612165339
 40
0.8764532676
 40
0.8917297692
 40
0.9070493661
 40
0.9224149487
 40
0.9378289227
 40
0.9532932705
 40
0.9688092857
 40
0.9843782115
 40
1.0
 40
1.0
 40
1.0
 40
1.0
 10
11.3362161654
 20
7.5278806765
 30
0.0
 10
11.3446851939
 20
7.5272933474
 30
0.0
 10
11.3616257401
 20
7.5257012603
 30
0.0
 10
11.386929848
 20
7.5220778068
 30
0.0
 10
11.412112102
 20
7.5172234388
 30
0.0
 10
11.4371109473
 20
7.5111501197
 30
0.0
 10
11.4618665164
 20
7.5038723885
 30
0.0
 10
11.4863191143
 20
7.4954078814
 30
0.0
 10
11.5104099085
 20
7.4857769876
 30
0.0
 10
11.5340809041
 20
7.4750029388
 30
0.0
 10
11.5572751269
 20
7.4631116982
 30
0.0
 10
11.5799367542
 20
7.4501319255
 30
0.0
 10
11.6020112464
 20
7.4360948928
 30
0.0
 10
11.6234454775
 20
7.4210344115
 30
0.0
 10
11.6441878619
 20
7.4049867503
 30
0.0
 10
11.6641884773
 20
7.3879905488
 30
0.0
 10
11.6833991844
 20
7.3700867251
 30
0.0
 10
11.7017737417
 20
7.3513183775
 30
0.0
 10
11.7192679163
 20
7.3317306818
 30
0.0
 10
11.7358395972
 20
7.311370789
 30
0.0
 10
11.7514488902
 20
7.2902877051
 30
0.0
 10
11.7660582126
 20
7.2685321742
 30
0.0
 10
11.7796323837
 20
7.2461565568
 30
0.0
 10
11.7921387089
 20
7.223214705
 30
0.0
 10
11.8035470576
 20
7.1997618338
 30
0.0
 10
11.8138299361
 20
7.1758543889
 30
0.0
 10
11.8229625534
 20
7.1515499127
 30
0.0
 10
11.8309228906
 20
7.1269069085
 30
0.0
 10
11.8376917448
 20
7.101984697
 30
0.0
 10
11.8432527758
 20
7.0768432744
 30
0.0
 10
11.8475925458
 20
7.0515431693
 30
0.0
 10
11.8507005518
 20
7.0261452981
 30
0.0
 10
11.8525692521
 20
7.0007108196
 30
0.0
 10
11.8531940847
 20
6.9753009887
 30
0.0
 10
11.8525734802
 20
6.9499770099
 30
0.0
 10
11.8507088761
 20
6.9247998896
 30
0.0
 10
11.847604705
 20
6.8998302888
 30
0.0
 10
11.8432683854
 20
6.8751283779
 30
0.0
 10
11.837710305
 20
6.8507536921
 30
0.0
 10
11.8309437976
 20
6.8267649877
 30
0.0
 10
11.8229851124
 20
6.803220101
 30
0.0
 10
11.8138533767
 20
6.7801758077
 30
0.0
 10
11.8035705514
 20
6.7576876856
 30
0.0
 10
11.7921613883
 20
6.7358099747
 30
0.0
 10
11.7796533616
 20
6.7145954478
 30
0.0
 10
11.7660766031
 20
6.6940952824
 30
0.0
 10
11.7514638291
 20
6.6743589356
 30
0.0
 10
11.7358502628
 20
6.6554340232
 30
0.0
 10
11.7192735484
 20
6.6373662034
 30
0.0
 10
11.7017736601
 20
6.6201990649
 30
0.0
 10
11.6833928052
 20
6.6039740204
 30
0.0
 10
11.6641753274
 20
6.5887301974
 30
0.0
 10
11.6441675902
 20
6.5745043494
 30
0.0
 10
11.6234178641
 20
6.5613307673
 30
0.0
 10
11.6019762081
 20
6.5492411963
 30
0.0
 10
11.5798943477
 20
6.5382647595
 30
0.0
 10
11.5572255481
 20
6.5284278885
 30
0.0
 10
11.534024485
 20
6.5197542599
 30
0.0
 10
11.5103471115
 20
6.5122647406
 30
0.0
 10
11.4862505223
 20
6.5059773238
 30
0.0
 10
11.4617928233
 20
6.5009071139
 30
0.0
 10
11.4370329404
 20
6.4970662423
 30
0.0
 10
11.4120306563
 20
6.4944639573
 30
0.0
 10
11.3868458939
 20
6.4931063747
 30
0.0
 10
11.361540263
 20
6.492996798
 30
0.0
 10
11.344656561
 20
6.4937546377
 30
0.0
 10
11.3362161654
 20
6.4943399811
 30
0.0
  0
SPLINE
  5
41A
100
AcDbEntity
  8
0
100
AcDbSpline
 62
7
  6
CONTINUOUS
 70
0
 71
3
 72
15
 73
11
 74
0
 42
0.0000001
 43
0.0000001
 44
0.0000000001
 40
0.0
 40
0.0
 40
0.0
 40
0.0
 40
0.1232794921
 40
0.2469170249
 40
0.3709941927
 40
0.4955818529
 40
0.6207385205
 40
0.7465094251
 40
0.8729238856
 40
1.0
 40
1.0
 40
1.0
 40
1.0
 10
11.7859570436
 20
6.9135303694
 30
0.0
 10
11.7781534398
 20
6.9087126209
 30
0.0
 10
11.7621289123
 20
6.8996864291
 30
0.0
 10
11.7370542856
 20
6.8880893879
 30
0.0
 10
11.7110477203
 20
6.8784791571
 30
0.0
 10
11.6842585988
 20
6.8709111212
 30
0.0
 10
11.6568383183
 20
6.8654274589
 30
0.0
 10
11.6289418444
 20
6.8620589898
 30
0.0
 10
11.6007289924
 20
6.8608241024
 30
0.0
 10
11.581859958
 20
6.8614265182
 30
0.0
 10
11.5724291884
 20
6.8620805443
 30
0.0
  0
SPLINE
  5
41B
100
AcDbEntity
  8
0
100
AcDbSpline
 62
7
  6
CONTINUOUS
 70
0
 71
3
 72
38
 73
34
 74
0
 42
0.0000001
 43
0.0000001
 44
0.0000000001
 40
0.0
 40
0.0
 40
0.0
 40
0.0
 40
0.0472573783
 40
0.092953454
 40
0.1370913879
 40
0.1796784752
 40
0.2207257287
 40
0.2602492645
 40
0.2982701596
 40
0.3348154611
 40
0.3699190088
 40
0.4036218055
 40
0.4359736927
 40
0.4670335628
 40
0.4968710837
 40
0.5255673909
 40
0.5798923288
 40
0.6057805681
 40
0.6309831945
 40
0.6556470428
 40
0.6799299421
 40
0.703998014
 40
0.7280222588
 40
0.7521746908
 40
0.7766243925
 40
0.8015337793
 40
0.8270556343
 40
0.8533307894
 40
0.8804865799
 40
0.9086370274
 40
0.9378829928
 40
0.9683127035
 40
1.0
 40
1.0
 40
1.0
 40
1.0
 10
9.6947017468
 20
10.5877342255
 30
0.0
 10
9.692530631
 20
10.588806712
 30
0.0
 10
9.6882826759
 20
10.5909623474
 30
0.0
 10
9.6820937603
 20
10.5942872454
 30
0.0
 10
9.6761979053
 20
10.5976476999
 30
0.0
 10
9.6705981226
 20
10.6010419244
 30
0.0
 10
9.6652972769
 20
10.6044682795
 30
0.0
 10
9.6602980332
 20
10.607924993
 30
0.0
 10
9.6556029331
 20
10.611410372
 30
0.0
 10
9.6512143639
 20
10.6149227108
 30
0.0
 10
9.6471345162
 20
10.6184602588
 30
0.0
 10
9.6433655257
 20
10.622021376
 30
0.0
 10
9.6399092483
 20
10.6256043431
 30
0.0
 10
9.6367676184
 20
10.6292074146
 30
0.0
 10
9.6339420335
 20
10.632829388
 30
0.0
 10
9.6306590002
 20
10.6375928162
 30
0.0
 10
9.6279271063
 20
10.6424833149
 30
0.0
 10
9.6258335936
 20
10.6474676533
 30
0.0
 10
9.6246115232
 20
10.6511565751
 30
0.0
 10
9.6237140266
 20
10.6548531155
 30
0.0
 10
9.623141895
 20
10.6585552202
 30
0.0
 10
9.6228957258
 20
10.6622604497
 30
0.0
 10
9.622975903
 20
10.6659663236
 30
0.0
 10
9.6233822011
 20
10.6696703242
 30
0.0
 10
9.624114283
 20
10.6733699905
 30
0.0
 10
9.6251712986
 20
10.6770630193
 30
0.0
 10
9.6265522673
 20
10.6807472639
 30
0.0
 10
9.6282560283
 20
10.6844207156
 30
0.0
 10
9.6302811874
 20
10.6880815736
 30
0.0
 10
9.632626461
 20
10.6917280489
 30
0.0
 10
9.6352903858
 20
10.6953585837
 30
0.0
 10
9.6382713942
 20
10.6989713557
 30
0.0
 10
9.6404241633
 20
10.7013180769
 30
0.0
 10
9.6415498004
 20
10.7024882956
 30
0.0
  0
SPLINE
  5
41C
100
AcDbEntity
  8
0
100
AcDbSpline
 62
7
  6
CONTINUOUS
 70
0
 71
3
 72
15
 73
11
 74
0
 42
0.0000001
 43
0.0000001
 44
0.0000000001
 40
0.0
 40
0.0
 40
0.0
 40
0.0
 40
0.1054890436
 40
0.2163111227
 40
0.3326228146
 40
0.4545533816
 40
0.5822020428
 40
0.7156349262
 40
0.8548942457
 40
1.0
 40
1.0
 40
1.0
 40
1.0
 10
10.8581054836
 20
10.6211160705
 30
0.0
 10
10.856571815
 20
10.6196346603
 30
0.0
 10
10.8533407136
 20
10.6166852654
 30
0.0
 10
10.8481534983
 20
10.6124039786
 30
0.0
 10
10.8425125455
 20
10.6081618584
 30
0.0
 10
10.8364224136
 20
10.6039621039
 30
0.0
 10
10.8298874847
 20
10.5998077033
 30
0.0
 10
10.8229126235
 20
10.5957016086
 30
0.0
 10
10.8155030719
 20
10.5916469947
 30
0.0
 10
10.810382424
 20
10.5890338515
 30
0.0
 10
10.8077526837
 20
10.587734808
 30
0.0
  0
SPLINE
  5
41D
100
AcDbEntity
  8
0
100
AcDbSpline
 62
7
  6
CONTINUOUS
 70
0
 71
3
 72
39
 73
35
 74
0
 42
0.0000001
 43
0.0000001
 44
0.0000000001
 40
0.0
 40
0.0
 40
0.0
 40
0.0
 40
0.0311450474
 40
0.0624431122
 40
0.0938883415
 40
0.1254709904
 40
0.157178884
 40
0.1889972611
 40
0.2209091755
 40
0.2528958437
 40
0.2849370231
 40
0.3170114138
 40
0.3490970738
 40
0.3811718446
 40
0.413213777
 40
0.4452015561
 40
0.477114918
 40
0.5089350506
 40
0.5406449736
 40
0.5722298927
 40
0.6036775219
 40
0.6349783626
 40
0.6661259349
 40
0.6971169558
 40
0.7279514584
 40
0.7586328412
 40
0.7891678431
 40
0.8195664432
 40
0.8498416843
 40
0.8800094163
 40
0.9100879629
 40
0.9400977199
 40
0.9700606953
 40
1.0
 40
1.0
 40
1.0
 40
1.0
 10
9.9085504843
 20
8.8678599071
 30
0.0
 10
9.8978655616
 20
8.868600909
 30
0.0
 10
9.8764895076
 20
8.8708686446
 30
0.0
 10
9.8446845842
 20
8.8765811548
 30
0.0
 10
9.8132203232
 20
8.884582633
 30
0.0
 10
9.7822666413
 20
8.8948300871
 30
0.0
 10
9.751988005
 20
8.9072686058
 30
0.0
 10
9.7225459254
 20
8.9218316416
 30
0.0
 10
9.694097236
 20
8.9384413546
 30
0.0
 10
9.6667935269
 20
8.9570090614
 30
0.0
 10
9.6407802841
 20
8.9774357038
 30
0.0
 10
9.6161961223
 20
8.9996123405
 30
0.0
 10
9.5931720339
 20
9.0234207176
 30
0.0
 10
9.5718307358
 20
9.0487339345
 30
0.0
 10
9.5522860196
 20
9.0754171035
 30
0.0
 10
9.5346421474
 20
9.1033280532
 30
0.0
 10
9.5189932502
 20
9.1323180499
 30
0.0
 10
9.5054228859
 20
9.1622326221
 30
0.0
 10
9.4940035908
 20
9.192912364
 30
0.0
 10
9.484796504
 20
9.2241937731
 30
0.0
 10
9.4778509707
 20
9.2559100899
 30
0.0
 10
9.4732043229
 20
9.2878921963
 30
0.0
 10
9.4708816848
 20
9.3199695039
 30
0.0
 10
9.4708958361
 20
9.3519708471
 30
0.0
 10
9.4732470763
 20
9.383725384
 30
0.0
 10
9.4779232137
 20
9.4150635108
 30
0.0
 10
9.4848996536
 20
9.4458177586
 30
0.0
 10
9.4941395074
 20
9.4758236859
 30
0.0
 10
9.5055937314
 20
9.5049207522
 30
0.0
 10
9.519201386
 20
9.5329532635
 30
0.0
 10
9.5348898028
 20
9.5597709983
 30
0.0
 10
9.5525757223
 20
9.5852307806
 30
0.0
 10
9.5721628559
 20
9.6091944764
 30
0.0
 10
9.5864248751
 20
9.6240935793
 30
0.0
 10
9.5938302791
 20
9.631246645
 30
0.0
  0
SPLINE
  5
41E
100
AcDbEntity
  8
0
100
AcDbSpline
 62
7
  6
CONTINUOUS
 70
0
 71
3
 72
96
 73
92
 74
0
 42
0.0000001
 43
0.0000001
 44
0.0000000001
 40
0.0
 40
0.0
 40
0.0
 40
0.0
 40
0.0041939212
 40
0.0085762269
 40
0.0131520052
 40
0.0179255503
 40
0.0229003895
 40
0.0280791136
 40
0.0334634798
 40
0.039054619
 40
0.0448530484
 40
0.0508588136
 40
0.0570714162
 40
0.0634899855
 40
0.0701132151
 40
0.0769394762
 40
0.0911924427
 40
0.1062302232
 40
0.1220294549
 40
0.1385631627
 40
0.1558011854
 40
0.173710526
 40
0.1922556446
 40
0.2113987132
 40
0.2310998404
 40
0.2513172756
 40
0.2720075971
 40
0.2931258893
 40
0.3146259101
 40
0.3364602548
 40
0.358580515
 40
0.380937433
 40
0.4034810543
 40
0.4261608786
 40
0.4489260088
 40
0.4717253002
 40
0.4945075089
 40
0.5172214402
 40
0.5398160978
 40
0.5622408322
 40
0.5844454903
 40
0.6063805658
 40
0.6279973504
 40
0.649248088
 40
0.6700861315
 40
0.6904661036
 40
0.7103440641
 40
0.7296776851
 40
0.7484264339
 40
0.7665517712
 40
0.7840173684
 40
0.8007893512
 40
0.8168365781
 40
0.8321309695
 40
0.8466479033
 40
0.8536084389
 40
0.8603672363
 40
0.8669224108
 40
0.8732724521
 40
0.8794161948
 40
0.8853528766
 40
0.891082198
 40
0.8966043145
 40
0.9019199826
 40
0.9070305141
 40
0.9119379754
 40
0.9166451634
 40
0.9211558052
 40
0.925474617
 40
0.9296074706
 40
0.9335615598
 40
0.9373455271
 40
0.9409697129
 40
0.9444462457
 40
0.9477892864
 40
0.9510150553
 40
0.9541419228
 40
0.9571902809
 40
0.9601823275
 40
0.9631416685
 40
0.9660927703
 40
0.969060322
 40
0.9720685748
 40
0.9751407156
 40
0.9782983924
 40
0.981561316
 40
0.9849471178
 40
0.9884713701
 40
0.9921476423
 40
0.9959874147
 40
1.0
 40
1.0
 40
1.0
 40
1.0
 10
11.3670148743
 20
10.8119719979
 30
0.0
 10
11.3682508477
 20
10.8131658566
 30
0.0
 10
11.3708397722
 20
10.8155442066
 30
0.0
 10
11.3749688098
 20
10.819009413
 30
0.0
 10
11.3794247257
 20
10.8224470765
 30
0.0
 10
11.3842046248
 20
10.8258550696
 30
0.0
 10
11.3893057597
 20
10.8292314883
 30
0.0
 10
11.3947251411
 20
10.832574406
 30
0.0
 10
11.4004595634
 20
10.8358818785
 30
0.0
 10
11.4065056312
 20
10.8391518939
 30
0.0
 10
11.4128597271
 20
10.8423825755
 30
0.0
 10
11.4195180943
 20
10.8455719327
 30
0.0
 10
11.4264767427
 20
10.8487181316
 30
0.0
 10
11.4337315304
 20
10.851819216
 30
0.0
 10
11.4412781148
 20
10.8548734012
 30
0.0
 10
11.451876267
 20
10.8589391856
 30
0.0
 10
11.4658292814
 20
10.8638783431
 30
0.0
 10
11.483428455
 20
10.8695076757
 30
0.0
 10
11.5020740505
 20
10.8749078703
 30
0.0
 10
11.5217213304
 20
10.8800658415
 30
0.0
 10
11.5423233189
 20
10.8849690739
 30
0.0
 10
11.5638306041
 20
10.8896056676
 30
0.0
 10
11.5861915669
 20
10.8939643693
 30
0.0
 10
11.6093524898
 20
10.8980346019
 30
0.0
 10
11.6332577015
 20
10.9018064906
 30
0.0
 10
11.6578497156
 20
10.905270887
 30
0.0
 10
11.6830693737
 20
10.9084193908
 30
0.0
 10
11.7088559915
 20
10.9112443691
 30
0.0
 10
11.7351475072
 20
10.9137389765
 30
0.0
 10
11.7618806342
 20
10.9158971698
 30
0.0
 10
11.7889910154
 20
10.9177137216
 30
0.0
 10
11.8164133806
 20
10.9191842329
 30
0.0
 10
11.8440817042
 20
10.9203051426
 30
0.0
 10
11.8719293656
 20
10.9210737366
 30
0.0
 10
11.8998893096
 20
10.9214881538
 30
0.0
 10
11.9278942095
 20
10.9215473904
 30
0.0
 10
11.9558766292
 20
10.921251302
 30
0.0
 10
11.9837691869
 20
10.9206006056
 30
0.0
 10
12.0115047186
 20
10.9195968774
 30
0.0
 10
12.0390164407
 20
10.9182425482
 30
0.0
 10
12.0662381115
 20
10.9165408977
 30
0.0
 10
12.0931041915
 20
10.914496047
 30
0.0
 10
12.1195500024
 20
10.912112949
 30
0.0
 10
12.1455118843
 20
10.9093973765
 30
0.0
 10
12.1709273497
 20
10.9063559096
 30
0.0
 10
12.1957352376
 20
10.9029959189
 30
0.0
 10
12.2198758635
 20
10.8993255505
 30
0.0
 10
12.2432911672
 20
10.8953537062
 30
0.0
 10
12.265924857
 20
10.8910900216
 30
0.0
 10
12.2877225487
 20
10.8865448426
 30
0.0
 10
12.3086319112
 20
10.8817292006
 30
0.0
 10
12.3286027767
 20
10.876654783
 30
0.0
 10
12.3475873648
 20
10.8713339067
 30
0.0
 10
12.365540102
 20
10.8657794632
 30
0.0
 10
12.3797983353
 20
10.8609014629
 30
0.0
 10
12.3906478774
 20
10.8568825653
 30
0.0
 10
12.3983865007
 20
10.8538607165
 30
0.0
 10
12.405836311
 20
10.8507907025
 30
0.0
 10
12.4129928647
 20
10.8476743688
 30
0.0
 10
12.4198518798
 20
10.8445135831
 30
0.0
 10
12.426409257
 20
10.8413102224
 30
0.0
 10
12.4326611001
 20
10.838066236
 30
0.0
 10
12.4386036691
 20
10.8347834982
 30
0.0
 10
12.4442334632
 20
10.8314640233
 30
0.0
 10
12.4495471148
 20
10.8281096895
 30
0.0
 10
12.4545415167
 20
10.8247225304
 30
0.0
 10
12.4592136919
 20
10.8213044454
 30
0.0
 10
12.463560907
 20
10.8178574304
 30
0.0
 10
12.4675805886
 20
10.8143834124
 30
0.0
 10
12.471270339
 20
10.8108843046
 30
0.0
 10
12.4746279762
 20
10.8073620468
 30
0.0
 10
12.4776513796
 20
10.8038184572
 30
0.0
 10
12.4803386962
 20
10.8002554693
 30
0.0
 10
12.4826880111
 20
10.7966748625
 30
0.0
 10
12.4846976839
 20
10.7930785955
 30
0.0
 10
12.4863659689
 20
10.7894685759
 30
0.0
 10
12.4876913579
 20
10.7858469464
 30
0.0
 10
12.4886723897
 20
10.7822159978
 30
0.0
 10
12.489307842
 20
10.7785782874
 30
0.0
 10
12.4895969049
 20
10.7749366121
 30
0.0
 10
12.4895390574
 20
10.7712939324
 30
0.0
 10
12.4891345168
 20
10.7676532523
 30
0.0
 10
12.4883837212
 20
10.7640175053
 30
0.0
 10
12.4872877952
 20
10.7603893779
 30
0.0
 10
12.4858479149
 20
10.7567713785
 30
0.0
 10
12.4840656686
 20
10.7531657238
 30
0.0
 10
12.4819426307
 20
10.7495744715
 30
0.0
 10
12.4794804482
 20
10.7459995304
 30
0.0
 10
12.4766808345
 20
10.7424427102
 30
0.0
 10
12.4735458186
 20
10.7389061113
 30
0.0
 10
12.4712847309
 20
10.736614871
 30
0.0
 10
12.4701021983
 20
10.7354726322
 30
0.0
  0
SPLINE
  5
41F
100
AcDbEntity
  8
0
100
AcDbSpline
 62
7
  6
CONTINUOUS
 70
0
 71
3
 72
44
 73
40
 74
0
 42
0.0000001
 43
0.0000001
 44
0.0000000001
 40
0.0
 40
0.0
 40
0.0
 40
0.0
 40
0.0310182055
 40
0.0465821746
 40
0.0621804203
 40
0.0934736827
 40
0.1248945665
 40
0.1564336436
 40
0.1880793755
 40
0.2198184792
 40
0.251636122
 40
0.2675713605
 40
0.2835200988
 40
0.3154454491
 40
0.3473982176
 40
0.3793600935
 40
0.411312619
 40
0.427281588
 40
0.4432413847
 40
0.475120736
 40
0.5069374473
 40
0.5228192118
 40
0.5386793818
 40
0.5703237944
 40
0.6018613832
 40
0.6332806606
 40
0.6645721321
 40
0.6957284805
 40
0.7267447195
 40
0.7576183114
 40
0.7883492452
 40
0.8189400718
 40
0.8493958934
 40
0.8797243037
 40
0.8948460499
 40
0.9099398766
 40
0.9400456157
 40
0.9700603323
 40
1.0
 40
1.0
 40
1.0
 40
1.0
 10
10.1235403632
 20
9.1358945636
 30
0.0
 10
10.1151203715
 20
9.136478492
 30
0.0
 10
10.1024996106
 20
9.1377775316
 30
0.0
 10
10.0857728118
 20
9.14033878
 30
0.0
 10
10.0690648065
 20
9.1434609558
 30
0.0
 10
10.0483193752
 20
9.1484010506
 30
0.0
 10
10.0237904585
 20
9.1559497266
 30
0.0
 10
9.9997069295
 20
9.1650919677
 30
0.0
 10
9.9761766354
 20
9.1757868859
 30
0.0
 10
9.95330479
 20
9.1879863518
 30
0.0
 10
9.9348859332
 20
9.1993565407
 30
0.0
 10
9.9205790245
 20
9.2091467743
 30
0.0
 10
9.9065620901
 20
9.2193976027
 30
0.0
 10
9.8896380948
 20
9.2330380022
 30
0.0
 10
9.8703816616
 20
9.2506490334
 30
0.0
 10
9.8522546469
 20
9.2694308151
 30
0.0
 10
9.8381535078
 20
9.2859930297
 30
0.0
 10
9.8275153553
 20
9.2997430588
 30
0.0
 10
9.8173235886
 20
9.3138026148
 30
0.0
 10
9.8054308582
 20
9.3319412937
 30
0.0
 10
9.7947100972
 20
9.350772107
 30
0.0
 10
9.7868728236
 20
9.3661918812
 30
0.0
 10
9.779546737
 20
9.3818091267
 30
0.0
 10
9.7713416798
 20
9.4017073598
 30
0.0
 10
9.7630606313
 20
9.4260986442
 30
0.0
 10
9.7563878198
 20
9.4508793184
 30
0.0
 10
9.7513534304
 20
9.4759383266
 30
0.0
 10
9.7479800125
 20
9.5011640812
 30
0.0
 10
9.7462828178
 20
9.5264440218
 30
0.0
 10
9.746269617
 20
9.5516653817
 30
0.0
 10
9.7479406604
 20
9.5767155359
 30
0.0
 10
9.7512887686
 20
9.6014828309
 30
0.0
 10
9.756298957
 20
9.6258559174
 30
0.0
 10
9.7618470766
 20
9.6457698803
 30
0.0
 10
9.7670914604
 20
9.6613902463
 30
0.0
 10
9.7728560742
 20
9.6767614247
 30
0.0
 10
9.7810457061
 20
9.6955378596
 30
0.0
 10
9.7924099114
 20
9.717270775
 30
0.0
 10
9.8009832597
 20
9.7311695199
 30
0.0
 10
9.8055046468
 20
9.7379464234
 30
0.0
  0
SPLINE
  5
420
100
AcDbEntity
  8
0
100
AcDbSpline
 62
7
  6
CONTINUOUS
 70
0
 71
3
 72
43
 73
39
 74
0
 42
0.0000001
 43
0.0000001
 44
0.0000000001
 40
0.0
 40
0.0
 40
0.0
 40
0.0
 40
0.0309231505
 40
0.0464357822
 40
0.0619803019
 40
0.0931602797
 40
0.1244605189
 40
0.1558732539
 40
0.1873889813
 40
0.2189967269
 40
0.2506841817
 40
0.2824378986
 40
0.3142434888
 40
0.3460858304
 40
0.377949284
 40
0.4098179142
 40
0.4416757127
 40
0.4735068233
 40
0.5052957645
 40
0.5370276493
 40
0.5686883984
 40
0.6002649453
 40
0.6317454313
 40
0.6631193867
 40
0.6943778971
 40
0.7255137508
 40
0.7565215657
 40
0.7873978924
 40
0.818141291
 40
0.8487523792
 40
0.8640109874
 40
0.8792376989
 40
0.9095943014
 40
0.9398327956
 40
0.9549123816
 40
0.9699658496
 40
0.9849945666
 40
1.0
 40
1.0
 40
1.0
 40
1.0
 10
10.1137938177
 20
9.0661097553
 30
0.0
 10
10.1046850768
 20
9.0667414486
 30
0.0
 10
10.0910315915
 20
9.068115765
 30
0.0
 10
10.0729245627
 20
9.070785739
 30
0.0
 10
10.0548325256
 20
9.0740221613
 30
0.0
 10
10.0323487789
 20
9.0791161838
 30
0.0
 10
10.0057146622
 20
9.0868706161
 30
0.0
 10
9.9795003162
 20
9.0962430524
 30
0.0
 10
9.9538080162
 20
9.1071969344
 30
0.0
 10
9.9287372282
 20
9.1196896916
 30
0.0
 10
9.9043852088
 20
9.1336727795
 30
0.0
 10
9.8808463665
 20
9.1490918965
 30
0.0
 10
9.8582119709
 20
9.1658871879
 30
0.0
 10
9.8365697821
 20
9.1839934785
 30
0.0
 10
9.8160037191
 20
9.2033405235
 30
0.0
 10
9.7965935348
 20
9.2238532797
 30
0.0
 10
9.7784145102
 20
9.2454521941
 30
0.0
 10
9.7615371636
 20
9.2680535107
 30
0.0
 10
9.7460269797
 20
9.2915695924
 30
0.0
 10
9.7319441563
 20
9.3159092583
 30
0.0
 10
9.7193433724
 20
9.3409781344
 30
0.0
 10
9.7082735768
 20
9.3666790163
 30
0.0
 10
9.6987777983
 20
9.392912242
 30
0.0
 10
9.6908929783
 20
9.4195760766
 30
0.0
 10
9.6846498257
 20
9.446567097
 30
0.0
 10
9.6800727
 20
9.4737806109
 30
0.0
 10
9.6771795014
 20
9.5011109787
 30
0.0
 10
9.6759816457
 20
9.5284523181
 30
0.0
 10
9.676483839
 20
9.5556978028
 30
0.0
 10
9.6783198904
 20
9.5782609393
 30
0.0
 10
9.680635862
 20
9.5961541186
 30
0.0
 10
9.6835072149
 20
9.6138905272
 30
0.0
 10
9.6881406771
 20
9.6358101411
 30
0.0
 10
9.6941628444
 20
9.6573448884
 30
0.0
 10
9.6997938596
 20
9.674260671
 30
0.0
 10
9.7044157831
 20
9.6867715449
 30
0.0
 10
9.7094351451
 20
9.6991044082
 30
0.0
 10
9.713046085
 20
9.7072061515
 30
0.0
 10
9.7149160144
 20
9.7112228421
 30
0.0
  0
SPLINE
  5
421
100
AcDbEntity
  8
0
100
AcDbSpline
 62
7
  6
CONTINUOUS
 70
0
 71
3
 72
23
 73
19
 74
0
 42
0.0000001
 43
0.0000001
 44
0.0000000001
 40
0.0
 40
0.0
 40
0.0
 40
0.0
 40
0.0638617654
 40
0.1275030803
 40
0.1909230764
 40
0.2541276764
 40
0.317122389
 40
0.3799159305
 40
0.4425188195
 40
0.5049436701
 40
0.5672049961
 40
0.6293190749
 40
0.6913037887
 40
0.7531784352
 40
0.8149635246
 40
0.8766805577
 40
0.9383517929
 40
1.0
 40
1.0
 40
1.0
 40
1.0
 10
9.9085504843
 20
8.8678599071
 30
0.0
 10
9.9158545854
 20
8.867353366
 30
0.0
 10
9.9304654677
 20
8.8667054134
 30
0.0
 10
9.9523629345
 20
8.8668359136
 30
0.0
 10
9.9741511703
 20
8.8680702568
 30
0.0
 10
9.9957744496
 20
8.870405258
 30
0.0
 10
10.0171786726
 20
8.8738352162
 30
0.0
 10
10.0383098362
 20
8.8783514945
 30
0.0
 10
10.0591147567
 20
8.8839428145
 30
0.0
 10
10.0795410236
 20
8.8905951427
 30
0.0
 10
10.0995371853
 20
8.8982917698
 30
0.0
 10
10.1190528647
 20
8.907013355
 30
0.0
 10
10.1380388848
 20
8.9167379669
 30
0.0
 10
10.1564474107
 20
8.9274411565
 30
0.0
 10
10.1742320046
 20
8.9390959518
 30
0.0
 10
10.1913479927
 20
8.9516731682
 30
0.0
 10
10.2077516643
 20
8.9651405619
 30
0.0
 10
10.2181870943
 20
8.9746916474
 30
0.0
 10
10.2232706895
 20
8.9796020197
 30
0.0
  0
SPLINE
  5
422
100
AcDbEntity
  8
0
100
AcDbSpline
 62
7
  6
CONTINUOUS
 70
0
 71
3
 72
17
 73
13
 74
0
 42
0.0000001
 43
0.0000001
 44
0.0000000001
 40
0.0
 40
0.0
 40
0.0
 40
0.0
 40
0.12665525
 40
0.252808913
 40
0.3784660144
 40
0.441119042
 40
0.503653149
 40
0.6283622384
 40
0.7526322061
 40
0.8146190124
 40
0.8765083198
 40
1.0
 40
1.0
 40
1.0
 40
1.0
 10
10.1137938177
 20
9.0661097553
 30
0.0
 10
10.1221295845
 20
9.0655316679
 30
0.0
 10
10.138805015
 20
9.0648509459
 30
0.0
 10
10.1637828172
 20
9.065266978
 30
0.0
 10
10.1844840463
 20
9.0668134599
 30
0.0
 10
10.2009190937
 20
9.0687682535
 30
0.0
 10
10.2172280381
 20
9.0711942636
 30
0.0
 10
10.2374152206
 20
9.0751130396
 30
0.0
 10
10.2573001083
 20
9.0802113933
 30
0.0
 10
10.2729623198
 20
9.0849835866
 30
0.0
 10
10.2884256689
 20
9.0902054172
 30
0.0
 10
10.2998342627
 20
9.0946390306
 30
0.0
 10
10.3073354251
 20
9.0978182532
 30
0.0
  0
SPLINE
  5
423
100
AcDbEntity
  8
0
100
AcDbSpline
 62
7
  6
CONTINUOUS
 70
0
 71
3
 72
42
 73
38
 74
0
 42
0.0000001
 43
0.0000001
 44
0.0000000001
 40
0.0
 40
0.0
 40
0.0
 40
0.0
 40
0.0840368756
 40
0.1695054183
 40
0.2553485112
 40
0.3405012145
 40
0.4239098766
 40
0.4646393716
 40
0.5045513825
 40
0.5435248581
 40
0.581442655
 40
0.6181922027
 40
0.6536660794
 40
0.6877626471
 40
0.7203867856
 40
0.7514508298
 40
0.7808755442
 40
0.8085912582
 40
0.834539382
 40
0.8586744864
 40
0.8809670915
 40
0.8914197167
 40
0.9014099692
 40
0.9109406788
 40
0.9200167536
 40
0.9286452964
 40
0.9368364686
 40
0.9446034904
 40
0.9519634435
 40
0.95893799
 40
0.965553732
 40
0.9718433269
 40
0.9778458183
 40
0.9836070648
 40
0.9891798495
 40
0.9946229739
 40
1.0
 40
1.0
 40
1.0
 40
1.0
 10
12.1698821249
 20
10.0250008036
 30
0.0
 10
12.1698821249
 20
10.0185457515
 30
0.0
 10
12.1696795596
 20
10.0055249304
 30
0.0
 10
12.1688005132
 20
9.9859282067
 30
0.0
 10
12.167353823
 20
9.966279055
 30
0.0
 10
12.1653585976
 20
9.9468371625
 30
0.0
 10
12.1632446841
 20
9.9308979076
 30
0.0
 10
12.1612929081
 20
9.9184484732
 30
0.0
 10
12.1597221421
 20
9.909395411
 30
0.0
 10
12.1580381885
 20
9.9005824918
 30
0.0
 10
12.1562466152
 20
9.8920388257
 30
0.0
 10
12.1543533999
 20
9.8837926402
 30
0.0
 10
12.1523648488
 20
9.8758711561
 30
0.0
 10
12.150287589
 20
9.8683005077
 30
0.0
 10
12.1481285383
 20
9.8611056458
 30
0.0
 10
12.1458948986
 20
9.8543102382
 30
0.0
 10
12.1435941205
 20
9.8479365715
 30
0.0
 10
12.1412338669
 20
9.8420054988
 30
0.0
 10
12.1388219593
 20
9.8365362501
 30
0.0
 10
12.1363663685
 20
9.8315466546
 30
0.0
 10
12.1342471288
 20
9.8277232729
 30
0.0
 10
12.1325301132
 20
9.8249249959
 30
0.0
 10
12.1312641672
 20
9.8230014299
 30
0.0
 10
12.1299933271
 20
9.8212091875
 30
0.0
 10
12.128718606
 20
9.8195496948
 30
0.0
 10
12.1274409563
 20
9.8180243191
 30
0.0
 10
12.1261614082
 20
9.8166342487
 30
0.0
 10
12.1248808938
 20
9.8153806173
 30
0.0
 10
12.1236003247
 20
9.8142644703
 30
0.0
 10
12.1223206406
 20
9.8132867038
 30
0.0
 10
12.1210426535
 20
9.8124482685
 30
0.0
 10
12.1197672561
 20
9.8117499783
 30
0.0
 10
12.1184953175
 20
9.8111926666
 30
0.0
 10
12.1172277918
 20
9.8107772355
 30
0.0
 10
12.1159657596
 20
9.8105043912
 30
0.0
 10
12.1147107251
 20
9.810374873
 30
0.0
 10
12.1138774921
 20
9.8103844101
 30
0.0
 10
12.1134654611
 20
9.8104129877
 30
0.0
  0
SPLINE
  5
424
100
AcDbEntity
  8
0
100
AcDbSpline
 62
7
  6
CONTINUOUS
 70
0
 71
3
 72
11
 73
7
 74
0
 42
0.0000001
 43
0.0000001
 44
0.0000000001
 40
0.0
 40
0.0
 40
0.0
 40
0.0
 40
0.255195361
 40
0.5059667185
 40
0.7537402106
 40
1.0
 40
1.0
 40
1.0
 40
1.0
 10
9.7131417386
 20
10.6257278151
 30
0.0
 10
9.7128261176
 20
10.6247604443
 30
0.0
 10
9.7122704731
 20
10.6228186467
 30
0.0
 10
9.7116684769
 20
10.6198710569
 30
0.0
 10
9.7113070486
 20
10.6169202188
 30
0.0
 10
9.7112266394
 20
10.6149494035
 30
0.0
 10
9.7112266368
 20
10.6139674756
 30
0.0
  0
SPLINE
  5
425
100
AcDbEntity
  8
0
100
AcDbSpline
 62
7
  6
CONTINUOUS
 70
0
 71
3
 72
24
 73
20
 74
0
 42
0.0000001
 43
0.0000001
 44
0.0000000001
 40
0.0
 40
0.0
 40
0.0
 40
0.0
 40
0.0460238857
 40
0.09405001
 40
0.1441928559
 40
0.1965605434
 40
0.2512543138
 40
0.3083662604
 40
0.3679742722
 40
0.4301330242
 40
0.4948598634
 40
0.5621130188
 40
0.6317603528
 40
0.7035397057
 40
0.7770127417
 40
0.8515260986
 40
0.8889114533
 40
0.9262125053
 40
1.0
 40
1.0
 40
1.0
 40
1.0
 10
11.4207668193
 20
9.1500873236
 30
0.0
 10
11.4241676907
 20
9.1446644818
 30
0.0
 10
11.4315011307
 20
9.1338195382
 30
0.0
 10
11.44377579
 20
9.1179451766
 30
0.0
 10
11.4575665871
 20
9.1021757003
 30
0.0
 10
11.4728925297
 20
9.0865661307
 30
0.0
 10
11.4897772665
 20
9.071178288
 30
0.0
 10
11.5082459465
 20
9.0560850673
 30
0.0
 10
11.5283223608
 20
9.0413729803
 30
0.0
 10
11.5500239131
 20
9.0271459227
 30
0.0
 10
11.5733540436
 20
9.0135292411
 30
0.0
 10
11.5982910029
 20
9.0006740754
 30
0.0
 10
11.6247719838
 20
8.9887609162
 30
0.0
 10
11.652672795
 20
8.978000449
 30
0.0
 10
11.6817834807
 20
8.9686296509
 30
0.0
 10
11.7067664243
 20
8.962192273
 30
0.0
 10
11.7270843869
 20
8.9579600109
 30
0.0
 10
11.747427695
 20
8.9544015902
 30
0.0
 10
11.7627756386
 20
8.9524934581
 30
0.0
 10
11.7729982664
 20
8.9515907873
 30
0.0
  0
SPLINE
  5
426
100
AcDbEntity
  8
0
100
AcDbSpline
 62
7
  6
CONTINUOUS
 70
0
 71
3
 72
28
 73
24
 74
0
 42
0.0000001
 43
0.0000001
 44
0.0000000001
 40
0.0
 40
0.0
 40
0.0
 40
0.0
 40
0.0749525414
 40
0.1455492598
 40
0.2121319828
 40
0.2751267504
 40
0.3350537751
 40
0.3925311517
 40
0.4205831712
 40
0.4482964194
 40
0.4757713564
 40
0.5031112904
 40
0.5304212607
 40
0.5578066529
 40
0.585371914
 40
0.6132193169
 40
0.6414476915
 40
0.6701515776
 40
0.7293157133
 40
0.7913812221
 40
0.8568968201
 40
0.9263175734
 40
1.0
 40
1.0
 40
1.0
 40
1.0
 10
11.3684385817
 20
10.7341230316
 30
0.0
 10
11.3667897281
 20
10.7356574566
 30
0.0
 10
11.363679249
 20
10.7387380369
 30
0.0
 10
11.3594822443
 20
10.7435441863
 30
0.0
 10
11.3559033176
 20
10.748388373
 30
0.0
 10
11.352947754
 20
10.7532665406
 30
0.0
 10
11.3506206159
 20
10.7581738207
 30
0.0
 10
11.3491976343
 20
10.7623183259
 30
0.0
 10
11.3483896085
 20
10.7656259023
 30
0.0
 10
11.347946973
 20
10.7680895624
 30
0.0
 10
11.3476632275
 20
10.7705549724
 30
0.0
 10
11.3475384998
 20
10.77302143
 30
0.0
 10
11.3475728553
 20
10.7754881097
 30
0.0
 10
11.3477662303
 20
10.7779542156
 30
0.0
 10
11.3481185679
 20
10.7804189567
 30
0.0
 10
11.3486297284
 20
10.7828815281
 30
0.0
 10
11.3492994833
 20
10.7853412481
 30
0.0
 10
11.3504145399
 20
10.7886488502
 30
0.0
 10
11.352222477
 20
10.7927867847
 30
0.0
 10
11.3549998863
 20
10.7976733692
 30
0.0
 10
11.3584022578
 20
10.8025277967
 30
0.0
 10
11.3624241481
 20
10.8073450282
 30
0.0
 10
11.365422298
 20
10.8104336872
 30
0.0
 10
11.3670148743
 20
10.8119719979
 30
0.0
  0
SPLINE
  5
427
100
AcDbEntity
  8
0
100
AcDbSpline
 62
7
  6
CONTINUOUS
 70
0
 71
3
 72
71
 73
67
 74
0
 42
0.0000001
 43
0.0000001
 44
0.0000000001
 40
0.0
 40
0.0
 40
0.0
 40
0.0
 40
0.0156747833
 40
0.0314021865
 40
0.047180646
 40
0.0630088943
 40
0.0788847428
 40
0.0948057522
 40
0.1107690081
 40
0.1267712319
 40
0.1428087904
 40
0.1588777355
 40
0.1749738412
 40
0.1910926417
 40
0.2072294723
 40
0.2233795101
 40
0.2395378174
 40
0.255699384
 40
0.2718591712
 40
0.2880121559
 40
0.3041533744
 40
0.3202779656
 40
0.3363812139
 40
0.352458591
 40
0.3685057963
 40
0.3845187962
 40
0.4004938618
 40
0.416427604
 40
0.4323170075
 40
0.4481594604
 40
0.4639527817
 40
0.4796952457
 40
0.4953856017
 40
0.5110230907
 40
0.5266074578
 40
0.5421389598
 40
0.557618368
 40
0.5730469658
 40
0.588426541
 40
0.6037593729
 40
0.6190482136
 40
0.6342962645
 40
0.6495071467
 40
0.6646848675
 40
0.6798337809
 40
0.6949585438
 40
0.7100640688
 40
0.7251554727
 40
0.7402380227
 40
0.7553170805
 40
0.7703980452
 40
0.7854862953
 40
0.8005871318
 40
0.8157057211
 40
0.8308470414
 40
0.8460158297
 40
0.8612165339
 40
0.8764532676
 40
0.8917297692
 40
0.9070493661
 40
0.9224149487
 40
0.9378289227
 40
0.9532932705
 40
0.9688092857
 40
0.9843782115
 40
1.0
 40
1.0
 40
1.0
 40
1.0
 10
9.8873273401
 20
6.9580088247
 30
0.0
 10
9.8788583116
 20
6.9585961538
 30
0.0
 10
9.8619177654
 20
6.9601882409
 30
0.0
 10
9.8366136575
 20
6.9638116944
 30
0.0
 10
9.8114314035
 20
6.9686660624
 30
0.0
 10
9.7864325582
 20
6.9747393814
 30
0.0
 10
9.7616769891
 20
6.9820171127
 30
0.0
 10
9.7372243912
 20
6.9904816198
 30
0.0
 10
9.713133597
 20
7.0001125136
 30
0.0
 10
9.6894626014
 20
7.0108865624
 30
0.0
 10
9.6662683785
 20
7.0227778029
 30
0.0
 10
9.6436067513
 20
7.0357575757
 30
0.0
 10
9.6215322591
 20
7.0497946083
 30
0.0
 10
9.6000980279
 20
7.0648550897
 30
0.0
 10
9.5793556436
 20
7.0809027509
 30
0.0
 10
9.5593550281
 20
7.0978989523
 30
0.0
 10
9.540144321
 20
7.1158027761
 30
0.0
 10
9.5217697638
 20
7.1345711237
 30
0.0
 10
9.5042755892
 20
7.1541588194
 30
0.0
 10
9.4877039083
 20
7.1745187122
 30
0.0
 10
9.4720946153
 20
7.1956017961
 30
0.0
 10
9.4574852929
 20
7.217357327
 30
0.0
 10
9.4439111217
 20
7.2397329443
 30
0.0
 10
9.4314047966
 20
7.2626747961
 30
0.0
 10
9.4199964479
 20
7.2861276674
 30
0.0
 10
9.4097135694
 20
7.3100351122
 30
0.0
 10
9.4005809521
 20
7.3343395885
 30
0.0
 10
9.3926206149
 20
7.3589825927
 30
0.0
 10
9.3858517607
 20
7.3839048042
 30
0.0
 10
9.3802907297
 20
7.4090462268
 30
0.0
 10
9.3759509597
 20
7.4343463319
 30
0.0
 10
9.3728429536
 20
7.4597442031
 30
0.0
 10
9.3709742534
 20
7.4851786815
 30
0.0
 10
9.3703494208
 20
7.5105885124
 30
0.0
 10
9.3709700253
 20
7.5359124913
 30
0.0
 10
9.3728346294
 20
7.5610896116
 30
0.0
 10
9.3759388004
 20
7.5860592124
 30
0.0
 10
9.3802751201
 20
7.6107611233
 30
0.0
 10
9.3858332005
 20
7.6351358091
 30
0.0
 10
9.3925997079
 20
7.6591245134
 30
0.0
 10
9.4005583931
 20
7.6826694002
 30
0.0
 10
9.4096901288
 20
7.7057136935
 30
0.0
 10
9.4199729541
 20
7.7282018156
 30
0.0
 10
9.4313821172
 20
7.7500795265
 30
0.0
 10
9.4438901438
 20
7.7712940534
 30
0.0
 10
9.4574669024
 20
7.7917942188
 30
0.0
 10
9.4720796763
 20
7.8115305656
 30
0.0
 10
9.4876932427
 20
7.830455478
 30
0.0
 10
9.5042699571
 20
7.8485232978
 30
0.0
 10
9.5217698454
 20
7.8656904363
 30
0.0
 10
9.5401507003
 20
7.8819154807
 30
0.0
 10
9.5593681781
 20
7.8971593038
 30
0.0
 10
9.5793759153
 20
7.9113851518
 30
0.0
 10
9.6001256414
 20
7.9245587339
 30
0.0
 10
9.6215672974
 20
7.9366483049
 30
0.0
 10
9.6436491578
 20
7.9476247416
 30
0.0
 10
9.6663179574
 20
7.9574616126
 30
0.0
 10
9.6895190205
 20
7.9661352413
 30
0.0
 10
9.7131963939
 20
7.9736247606
 30
0.0
 10
9.7372929832
 20
7.9799121774
 30
0.0
 10
9.7617506822
 20
7.9849823873
 30
0.0
 10
9.7865105651
 20
7.9888232589
 30
0.0
 10
9.8115128492
 20
7.9914255438
 30
0.0
 10
9.8366976116
 20
7.9927831265
 30
0.0
 10
9.8620032425
 20
7.9928927032
 30
0.0
 10
9.8788869445
 20
7.9921348635
 30
0.0
 10
9.8873273401
 20
7.99154952
 30
0.0
  0
SPLINE
  5
428
100
AcDbEntity
  8
0
100
AcDbSpline
 62
7
  6
CONTINUOUS
 70
0
 71
3
 72
71
 73
67
 74
0
 42
0.0000001
 43
0.0000001
 44
0.0000000001
 40
0.0
 40
0.0
 40
0.0
 40
0.0
 40
0.0156747833
 40
0.0314021865
 40
0.047180646
 40
0.0630088943
 40
0.0788847428
 40
0.0948057522
 40
0.1107690081
 40
0.1267712319
 40
0.1428087904
 40
0.1588777355
 40
0.1749738412
 40
0.1910926417
 40
0.2072294723
 40
0.2233795101
 40
0.2395378174
 40
0.255699384
 40
0.2718591712
 40
0.2880121559
 40
0.3041533744
 40
0.3202779656
 40
0.3363812139
 40
0.352458591
 40
0.3685057963
 40
0.3845187962
 40
0.4004938618
 40
0.416427604
 40
0.4323170075
 40
0.4481594604
 40
0.4639527817
 40
0.4796952457
 40
0.4953856017
 40
0.5110230907
 40
0.5266074578
 40
0.5421389598
 40
0.557618368
 40
0.5730469658
 40
0.588426541
 40
0.6037593729
 40
0.6190482136
 40
0.6342962645
 40
0.6495071467
 40
0.6646848675
 40
0.6798337809
 40
0.6949585438
 40
0.7100640688
 40
0.7251554727
 40
0.7402380227
 40
0.7553170805
 40
0.7703980452
 40
0.7854862953
 40
0.8005871318
 40
0.8157057211
 40
0.8308470414
 40
0.8460158297
 40
0.8612165339
 40
0.8764532676
 40
0.8917297692
 40
0.9070493661
 40
0.9224149487
 40
0.9378289227
 40
0.9532932705
 40
0.9688092857
 40
0.9843782115
 40
1.0
 40
1.0
 40
1.0
 40
1.0
 10
9.8873273401
 20
7.99154952
 30
0.0
 10
9.8957963686
 20
7.9909621909
 30
0.0
 10
9.9127369148
 20
7.9893701038
 30
0.0
 10
9.9380410227
 20
7.9857466503
 30
0.0
 10
9.9632232767
 20
7.9808922823
 30
0.0
 10
9.988222122
 20
7.9748189632
 30
0.0
 10
10.0129776911
 20
7.967541232
 30
0.0
 10
10.037430289
 20
7.9590767249
 30
0.0
 10
10.0615210832
 20
7.9494458311
 30
0.0
 10
10.0851920788
 20
7.9386717823
 30
0.0
 10
10.1083863017
 20
7.9267805418
 30
0.0
 10
10.1310479289
 20
7.913800769
 30
0.0
 10
10.1531224211
 20
7.8997637363
 30
0.0
 10
10.1745566523
 20
7.884703255
 30
0.0
 10
10.1952990366
 20
7.8686555938
 30
0.0
 10
10.2152996521
 20
7.8516593924
 30
0.0
 10
10.2345103592
 20
7.8337555686
 30
0.0
 10
10.2528849165
 20
7.814987221
 30
0.0
 10
10.270379091
 20
7.7953995253
 30
0.0
 10
10.2869507719
 20
7.7750396325
 30
0.0
 10
10.3025600649
 20
7.7539565486
 30
0.0
 10
10.3171693873
 20
7.7322010177
 30
0.0
 10
10.3307435585
 20
7.7098254003
 30
0.0
 10
10.3432498836
 20
7.6868835485
 30
0.0
 10
10.3546582323
 20
7.6634306773
 30
0.0
 10
10.3649411108
 20
7.6395232325
 30
0.0
 10
10.3740737281
 20
7.6152187562
 30
0.0
 10
10.3820340653
 20
7.590575752
 30
0.0
 10
10.3888029195
 20
7.5656535405
 30
0.0
 10
10.3943639505
 20
7.5405121179
 30
0.0
 10
10.3987037205
 20
7.5152120128
 30
0.0
 10
10.4018117266
 20
7.4898141416
 30
0.0
 10
10.4036804268
 20
7.4643796631
 30
0.0
 10
10.4043052594
 20
7.4389698322
 30
0.0
 10
10.4036846549
 20
7.4136458534
 30
0.0
 10
10.4018200508
 20
7.3884687331
 30
0.0
 10
10.3987158798
 20
7.3634991323
 30
0.0
 10
10.3943795601
 20
7.3387972214
 30
0.0
 10
10.3888214797
 20
7.3144225356
 30
0.0
 10
10.3820549723
 20
7.2904338312
 30
0.0
 10
10.3740962871
 20
7.2668889445
 30
0.0
 10
10.3649645514
 20
7.2438446512
 30
0.0
 10
10.3546817261
 20
7.2213565291
 30
0.0
 10
10.343272563
 20
7.1994788182
 30
0.0
 10
10.3307645364
 20
7.1782642913
 30
0.0
 10
10.3171877778
 20
7.1577641259
 30
0.0
 10
10.3025750039
 20
7.1380277791
 30
0.0
 10
10.2869614375
 20
7.1191028667
 30
0.0
 10
10.2703847231
 20
7.1010350469
 30
0.0
 10
10.2528848348
 20
7.0838679084
 30
0.0
 10
10.2345039799
 20
7.067642864
 30
0.0
 10
10.2152865021
 20
7.0523990409
 30
0.0
 10
10.1952787649
 20
7.0381731929
 30
0.0
 10
10.1745290388
 20
7.0249996108
 30
0.0
 10
10.1530873828
 20
7.0129100398
 30
0.0
 10
10.1310055224
 20
7.001933603
 30
0.0
 10
10.1083367228
 20
6.992096732
 30
0.0
 10
10.0851356597
 20
6.9834231034
 30
0.0
 10
10.0614582863
 20
6.9759335841
 30
0.0
 10
10.037361697
 20
6.9696461673
 30
0.0
 10
10.012903998
 20
6.9645759574
 30
0.0
 10
9.9881441151
 20
6.9607350858
 30
0.0
 10
9.963141831
 20
6.9581328008
 30
0.0
 10
9.9379570686
 20
6.9567752182
 30
0.0
 10
9.9126514377
 20
6.9566656415
 30
0.0
 10
9.8957677357
 20
6.9574234812
 30
0.0
 10
9.8873273401
 20
6.9580088247
 30
0.0
  0
SPLINE
  5
429
100
AcDbEntity
  8
0
100
AcDbSpline
 62
7
  6
CONTINUOUS
 70
0
 71
3
 72
39
 73
35
 74
0
 42
0.0000001
 43
0.0000001
 44
0.0000000001
 40
0.0
 40
0.0
 40
0.0
 40
0.0
 40
0.0311450474
 40
0.0624431122
 40
0.0938883415
 40
0.1254709904
 40
0.157178884
 40
0.1889972611
 40
0.2209091755
 40
0.2528958437
 40
0.2849370231
 40
0.3170114138
 40
0.3490970738
 40
0.3811718446
 40
0.413213777
 40
0.4452015561
 40
0.477114918
 40
0.5089350506
 40
0.5406449736
 40
0.5722298927
 40
0.6036775219
 40
0.6349783626
 40
0.6661259349
 40
0.6971169558
 40
0.7279514584
 40
0.7586328412
 40
0.7891678431
 40
0.8195664432
 40
0.8498416843
 40
0.8800094163
 40
0.9100879629
 40
0.9400977199
 40
0.9700606953
 40
1.0
 40
1.0
 40
1.0
 40
1.0
 10
11.3574393096
 20
8.4061227754
 30
0.0
 10
11.3467543869
 20
8.4068637773
 30
0.0
 10
11.3253783329
 20
8.4091315129
 30
0.0
 10
11.2935734095
 20
8.414844023
 30
0.0
 10
11.2621091485
 20
8.4228455013
 30
0.0
 10
11.2311554666
 20
8.4330929554
 30
0.0
 10
11.2008768303
 20
8.445531474
 30
0.0
 10
11.1714347507
 20
8.4600945099
 30
0.0
 10
11.1429860613
 20
8.4767042228
 30
0.0
 10
11.1156823522
 20
8.4952719296
 30
0.0
 10
11.0896691094
 20
8.5156985721
 30
0.0
 10
11.0650849476
 20
8.5378752088
 30
0.0
 10
11.0420608592
 20
8.5616835859
 30
0.0
 10
11.0207195611
 20
8.5869968027
 30
0.0
 10
11.0011748449
 20
8.6136799717
 30
0.0
 10
10.9835309727
 20
8.6415909214
 30
0.0
 10
10.9678820755
 20
8.6705809181
 30
0.0
 10
10.9543117112
 20
8.7004954903
 30
0.0
 10
10.9428924161
 20
8.7311752322
 30
0.0
 10
10.9336853293
 20
8.7624566413
 30
0.0
 10
10.9267397959
 20
8.7941729581
 30
0.0
 10
10.9220931482
 20
8.8261550645
 30
0.0
 10
10.9197705101
 20
8.8582323721
 30
0.0
 10
10.9197846614
 20
8.8902337153
 30
0.0
 10
10.9221359016
 20
8.9219882522
 30
0.0
 10
10.926812039
 20
8.9533263791
 30
0.0
 10
10.9337884789
 20
8.9840806268
 30
0.0
 10
10.9430283327
 20
9.0140865542
 30
0.0
 10
10.9544825567
 20
9.0431836205
 30
0.0
 10
10.9680902112
 20
9.0712161317
 30
0.0
 10
10.9837786281
 20
9.0980338665
 30
0.0
 10
11.0014645476
 20
9.1234936488
 30
0.0
 10
11.0210516812
 20
9.1474573446
 30
0.0
 10
11.0353137004
 20
9.1623564475
 30
0.0
 10
11.0427191044
 20
9.1695095133
 30
0.0
  0
SPLINE
  5
42A
100
AcDbEntity
  8
0
100
AcDbSpline
 62
7
  6
CONTINUOUS
 70
0
 71
3
 72
39
 73
35
 74
0
 42
0.0000001
 43
0.0000001
 44
0.0000000001
 40
0.0
 40
0.0
 40
0.0
 40
0.0
 40
0.0311249031
 40
0.0624006415
 40
0.0938215824
 40
0.1253783249
 40
0.157059221
 40
0.1888500652
 40
0.2207345657
 40
0.2526946327
 40
0.2847107441
 40
0.3167623206
 40
0.3488281173
 40
0.3808866229
 40
0.4129164629
 40
0.4448968006
 40
0.4768077312
 40
0.5086306634
 40
0.5403486831
 40
0.5719468943
 40
0.6034127294
 40
0.6347362234
 40
0.6659102459
 40
0.6969306837
 40
0.7277965693
 40
0.7585101474
 40
0.7890768757
 40
0.8195053563
 40
0.849807193
 40
0.8799967755
 40
0.9100909931
 40
0.9401088801
 40
0.9700712036
 40
1.0
 40
1.0
 40
1.0
 40
1.0
 10
11.5845928772
 20
8.7612488725
 30
0.0
 10
11.5773277266
 20
8.7617527124
 30
0.0
 10
11.5627933095
 20
8.7632869433
 30
0.0
 10
11.5411636466
 20
8.7671373815
 30
0.0
 10
11.5197590413
 20
8.7725226534
 30
0.0
 10
11.4986918101
 20
8.7794146557
 30
0.0
 10
11.4780707057
 20
8.7877774721
 30
0.0
 10
11.4580026029
 20
8.7975676546
 30
0.0
 10
11.4385913767
 20
8.8087343642
 30
0.0
 10
11.419937529
 20
8.8212196743
 30
0.0
 10
11.4021376305
 20
8.8349588552
 30
0.0
 10
11.3852838336
 20
8.8498807041
 30
0.0
 10
11.3694634002
 20
8.8659079179
 30
0.0
 10
11.3547582569
 20
8.8829574908
 30
0.0
 10
11.3412445747
 20
8.9009411395
 30
0.0
 10
11.3289923782
 20
8.9197657558
 30
0.0
 10
11.3180651858
 20
8.939333883
 30
0.0
 10
11.3085196832
 20
8.9595442145
 30
0.0
 10
11.3004054316
 20
8.9802921123
 30
0.0
 10
11.2937646019
 20
9.0014701385
 30
0.0
 10
11.2886317611
 20
9.0229686086
 30
0.0
 10
11.2850336929
 20
9.0446761522
 30
0.0
 10
11.2829892538
 20
9.066480282
 30
0.0
 10
11.2825092694
 20
9.0882679694
 30
0.0
 10
11.2835964697
 20
9.109926223
 30
0.0
 10
11.2862454649
 20
9.1313426702
 30
0.0
 10
11.2904427617
 20
9.1524061353
 30
0.0
 10
11.2961668136
 20
9.1730072213
 30
0.0
 10
11.3033881147
 20
9.193038871
 30
0.0
 10
11.31206938
 20
9.2123969651
 30
0.0
 10
11.3221655927
 20
9.230980735
 30
0.0
 10
11.3336247248
 20
9.24869381
 30
0.0
 10
11.3463861582
 20
9.2654428316
 30
0.0
 10
11.3557234857
 20
9.2759141699
 30
0.0
 10
11.3605823478
 20
9.2809569631
 30
0.0
  0
SPLINE
  5
42B
100
AcDbEntity
  8
0
100
AcDbSpline
 62
7
  6
CONTINUOUS
 70
0
 71
3
 72
43
 73
39
 74
0
 42
0.0000001
 43
0.0000001
 44
0.0000000001
 40
0.0
 40
0.0
 40
0.0
 40
0.0
 40
0.0309231505
 40
0.0464357822
 40
0.0619803019
 40
0.0931602797
 40
0.1244605189
 40
0.1558732539
 40
0.1873889813
 40
0.2189967269
 40
0.2506841817
 40
0.2824378986
 40
0.3142434888
 40
0.3460858304
 40
0.377949284
 40
0.4098179142
 40
0.4416757127
 40
0.4735068233
 40
0.5052957645
 40
0.5370276493
 40
0.5686883984
 40
0.6002649453
 40
0.6317454313
 40
0.6631193867
 40
0.6943778971
 40
0.7255137508
 40
0.7565215657
 40
0.7873978924
 40
0.818141291
 40
0.8487523792
 40
0.8640109874
 40
0.8792376989
 40
0.9095943014
 40
0.9398327956
 40
0.9549123816
 40
0.9699658496
 40
0.9849945666
 40
1.0
 40
1.0
 40
1.0
 40
1.0
 10
11.562682643
 20
8.6043726235
 30
0.0
 10
11.5535739021
 20
8.6050043168
 30
0.0
 10
11.5399204168
 20
8.6063786333
 30
0.0
 10
11.521813388
 20
8.6090486072
 30
0.0
 10
11.5037213509
 20
8.6122850295
 30
0.0
 10
11.4812376041
 20
8.617379052
 30
0.0
 10
11.4546034875
 20
8.6251334843
 30
0.0
 10
11.4283891415
 20
8.6345059207
 30
0.0
 10
11.4026968415
 20
8.6454598027
 30
0.0
 10
11.3776260535
 20
8.6579525599
 30
0.0
 10
11.3532740341
 20
8.6719356478
 30
0.0
 10
11.3297351918
 20
8.6873547647
 30
0.0
 10
11.3071007962
 20
8.7041500561
 30
0.0
 10
11.2854586074
 20
8.7222563467
 30
0.0
 10
11.2648925443
 20
8.7416033918
 30
0.0
 10
11.2454823601
 20
8.7621161479
 30
0.0
 10
11.2273033354
 20
8.7837150624
 30
0.0
 10
11.2104259889
 20
8.806316379
 30
0.0
 10
11.194915805
 20
8.8298324606
 30
0.0
 10
11.1808329816
 20
8.8541721266
 30
0.0
 10
11.1682321977
 20
8.8792410027
 30
0.0
 10
11.1571624021
 20
8.9049418845
 30
0.0
 10
11.1476666236
 20
8.9311751102
 30
0.0
 10
11.1397818036
 20
8.9578389448
 30
0.0
 10
11.133538651
 20
8.9848299652
 30
0.0
 10
11.1289615253
 20
9.0120434792
 30
0.0
 10
11.1260683267
 20
9.0393738469
 30
0.0
 10
11.124870471
 20
9.0667151863
 30
0.0
 10
11.1253726643
 20
9.093960671
 30
0.0
 10
11.1272087157
 20
9.1165238075
 30
0.0
 10
11.1295246873
 20
9.1344169868
 30
0.0
 10
11.1323960402
 20
9.1521533954
 30
0.0
 10
11.1370295024
 20
9.1740730094
 30
0.0
 10
11.1430516696
 20
9.1956077566
 30
0.0
 10
11.1486826848
 20
9.2125235392
 30
0.0
 10
11.1533046083
 20
9.2250344132
 30
0.0
 10
11.1583239703
 20
9.2373672765
 30
0.0
 10
11.1619349103
 20
9.2454690197
 30
0.0
 10
11.1638048397
 20
9.2494857104
 30
0.0
  0
SPLINE
  5
42C
100
AcDbEntity
  8
0
100
AcDbSpline
 62
7
  6
CONTINUOUS
 70
0
 71
3
 72
33
 73
29
 74
0
 42
0.0000001
 43
0.0000001
 44
0.0000000001
 40
0.0
 40
0.0
 40
0.0
 40
0.0
 40
0.0126611239
 40
0.0256297336
 40
0.0391904263
 40
0.053589189
 40
0.0690270082
 40
0.0856610213
 40
0.103610138
 40
0.1229609819
 40
0.143774814
 40
0.1660916856
 40
0.1899356205
 40
0.2153166451
 40
0.2422342381
 40
0.2706782889
 40
0.3006311593
 40
0.332068398
 40
0.364959691
 40
0.3992697436
 40
0.4349583791
 40
0.4719816771
 40
0.5498339899
 40
0.6324076926
 40
0.7192341191
 40
0.8098063578
 40
0.9035833072
 40
1.0
 40
1.0
 40
1.0
 40
1.0
 10
12.1372651107
 20
6.4106258867
 30
0.0
 10
12.1378478494
 20
6.4105854691
 30
0.0
 10
12.1390228826
 20
6.410406315
 30
0.0
 10
12.1407505314
 20
6.4098500723
 30
0.0
 10
12.1424480778
 20
6.4090086376
 30
0.0
 10
12.1441121391
 20
6.4078859749
 30
0.0
 10
12.1457411496
 20
6.4064856358
 30
0.0
 10
12.1473336522
 20
6.4048107799
 30
0.0
 10
12.1488880618
 20
6.4028643292
 30
0.0
 10
12.150402676
 20
6.4006494166
 30
0.0
 10
12.1518754469
 20
6.3981693979
 30
0.0
 10
12.153304368
 20
6.395428128
 30
0.0
 10
12.1546871993
 20
6.3924298434
 30
0.0
 10
12.1560218485
 20
6.3891792991
 30
0.0
 10
12.1573061137
 20
6.385681666
 30
0.0
 10
12.1585379454
 20
6.3819425834
 30
0.0
 10
12.1597152946
 20
6.3779681042
 30
0.0
 10
12.1608362193
 20
6.3737646994
 30
0.0
 10
12.161898873
 20
6.3693392347
 30
0.0
 10
12.1629014556
 20
6.3646989581
 30
0.0
 10
12.1638423618
 20
6.359851475
 30
0.0
 10
12.1650324241
 20
6.353007309
 30
0.0
 10
12.1663443347
 20
6.3439906731
 30
0.0
 10
12.1676260335
 20
6.3326539146
 30
0.0
 10
12.168631449
 20
6.3207004241
 30
0.0
 10
12.169353725
 20
6.308208902
 30
0.0
 10
12.1697878964
 20
6.2952615155
 30
0.0
 10
12.1698821249
 20
6.2864863234
 30
0.0
 10
12.1698821249
 20
6.2820380049
 30
0.0
  0
SPLINE
  5
42D
100
AcDbEntity
  8
0
100
AcDbSpline
 62
7
  6
CONTINUOUS
 70
0
 71
3
 72
23
 73
19
 74
0
 42
0.0000001
 43
0.0000001
 44
0.0000000001
 40
0.0
 40
0.0
 40
0.0
 40
0.0
 40
0.0638617654
 40
0.1275030803
 40
0.1909230764
 40
0.2541276764
 40
0.317122389
 40
0.3799159305
 40
0.4425188195
 40
0.5049436701
 40
0.5672049961
 40
0.6293190749
 40
0.6913037887
 40
0.7531784352
 40
0.8149635246
 40
0.8766805577
 40
0.9383517929
 40
1.0
 40
1.0
 40
1.0
 40
1.0
 10
11.3574393096
 20
8.4061227754
 30
0.0
 10
11.3647434106
 20
8.4056162342
 30
0.0
 10
11.379354293
 20
8.4049682817
 30
0.0
 10
11.4012517598
 20
8.4050987819
 30
0.0
 10
11.4230399956
 20
8.406333125
 30
0.0
 10
11.4446632749
 20
8.4086681262
 30
0.0
 10
11.4660674979
 20
8.4120980844
 30
0.0
 10
11.4871986615
 20
8.4166143627
 30
0.0
 10
11.508003582
 20
8.4222056828
 30
0.0
 10
11.5284298489
 20
8.428858011
 30
0.0
 10
11.5484260106
 20
8.4365546381
 30
0.0
 10
11.56794169
 20
8.4452762233
 30
0.0
 10
11.5869277101
 20
8.4550008351
 30
0.0
 10
11.605336236
 20
8.4657040247
 30
0.0
 10
11.6231208299
 20
8.47735882
 30
0.0
 10
11.640236818
 20
8.4899360365
 30
0.0
 10
11.6566404896
 20
8.5034034302
 30
0.0
 10
11.6670759196
 20
8.5129545157
 30
0.0
 10
11.6721595148
 20
8.517864888
 30
0.0
  0
SPLINE
  5
42E
100
AcDbEntity
  8
0
100
AcDbSpline
 62
7
  6
CONTINUOUS
 70
0
 71
3
 72
33
 73
29
 74
0
 42
0.0000001
 43
0.0000001
 44
0.0000000001
 40
0.0
 40
0.0
 40
0.0
 40
0.0
 40
0.0126611239
 40
0.0256297336
 40
0.0391904263
 40
0.053589189
 40
0.0690270082
 40
0.0856610213
 40
0.103610138
 40
0.1229609819
 40
0.143774814
 40
0.1660916856
 40
0.1899356205
 40
0.2153166451
 40
0.2422342381
 40
0.2706782889
 40
0.3006311593
 40
0.332068398
 40
0.364959691
 40
0.3992697436
 40
0.4349583791
 40
0.4719816771
 40
0.5498339899
 40
0.6324076926
 40
0.7192341191
 40
0.8098063578
 40
0.9035833072
 40
1.0
 40
1.0
 40
1.0
 40
1.0
 10
12.1372651107
 20
10.1535886853
 30
0.0
 10
12.1378478494
 20
10.1535482677
 30
0.0
 10
12.1390228826
 20
10.1533691136
 30
0.0
 10
12.1407505314
 20
10.152812871
 30
0.0
 10
12.1424480778
 20
10.1519714362
 30
0.0
 10
12.1441121391
 20
10.1508487736
 30
0.0
 10
12.1457411496
 20
10.1494484345
 30
0.0
 10
12.1473336522
 20
10.1477735785
 30
0.0
 10
12.1488880618
 20
10.1458271278
 30
0.0
 10
12.150402676
 20
10.1436122152
 30
0.0
 10
12.1518754469
 20
10.1411321965
 30
0.0
 10
12.153304368
 20
10.1383909267
 30
0.0
 10
12.1546871993
 20
10.1353926421
 30
0.0
 10
12.1560218485
 20
10.1321420978
 30
0.0
 10
12.1573061137
 20
10.1286444647
 30
0.0
 10
12.1585379454
 20
10.1249053821
 30
0.0
 10
12.1597152946
 20
10.1209309029
 30
0.0
 10
12.1608362193
 20
10.116727498
 30
0.0
 10
12.161898873
 20
10.1123020333
 30
0.0
 10
12.1629014556
 20
10.1076617568
 30
0.0
 10
12.1638423618
 20
10.1028142737
 30
0.0
 10
12.1650324241
 20
10.0959701077
 30
0.0
 10
12.1663443347
 20
10.0869534718
 30
0.0
 10
12.1676260335
 20
10.0756167132
 30
0.0
 10
12.168631449
 20
10.0636632227
 30
0.0
 10
12.169353725
 20
10.0511717006
 30
0.0
 10
12.1697878964
 20
10.0382243141
 30
0.0
 10
12.1698821249
 20
10.029449122
 30
0.0
 10
12.1698821249
 20
10.0250008036
 30
0.0
  0
SPLINE
  5
42F
100
AcDbEntity
  8
0
100
AcDbSpline
 62
7
  6
CONTINUOUS
 70
0
 71
3
 72
17
 73
13
 74
0
 42
0.0000001
 43
0.0000001
 44
0.0000000001
 40
0.0
 40
0.0
 40
0.0
 40
0.0
 40
0.12665525
 40
0.252808913
 40
0.3784660144
 40
0.441119042
 40
0.503653149
 40
0.6283622384
 40
0.7526322061
 40
0.8146190124
 40
0.8765083198
 40
1.0
 40
1.0
 40
1.0
 40
1.0
 10
11.562682643
 20
8.6043726235
 30
0.0
 10
11.5710184097
 20
8.6037945361
 30
0.0
 10
11.5876938403
 20
8.6031138142
 30
0.0
 10
11.6126716425
 20
8.6035298463
 30
0.0
 10
11.6333728716
 20
8.6050763281
 30
0.0
 10
11.649807919
 20
8.6070311217
 30
0.0
 10
11.6661168634
 20
8.6094571318
 30
0.0
 10
11.6863040459
 20
8.6133759079
 30
0.0
 10
11.7061889336
 20
8.6184742616
 30
0.0
 10
11.7218511451
 20
8.6232464548
 30
0.0
 10
11.7373144941
 20
8.6284682854
 30
0.0
 10
11.748723088
 20
8.6329018989
 30
0.0
 10
11.7562242503
 20
8.6360811215
 30
0.0
  0
SPLINE
  5
430
100
AcDbEntity
  8
0
100
AcDbSpline
 62
7
  6
CONTINUOUS
 70
0
 71
3
 72
42
 73
38
 74
0
 42
0.0000001
 43
0.0000001
 44
0.0000000001
 40
0.0
 40
0.0
 40
0.0
 40
0.0
 40
0.0840368756
 40
0.1695054183
 40
0.2553485112
 40
0.3405012145
 40
0.4239098766
 40
0.4646393716
 40
0.5045513825
 40
0.5435248581
 40
0.581442655
 40
0.6181922027
 40
0.6536660794
 40
0.6877626471
 40
0.7203867856
 40
0.7514508298
 40
0.7808755442
 40
0.8085912582
 40
0.834539382
 40
0.8586744864
 40
0.8809670915
 40
0.8914197167
 40
0.9014099692
 40
0.9109406788
 40
0.9200167536
 40
0.9286452964
 40
0.9368364686
 40
0.9446034904
 40
0.9519634435
 40
0.95893799
 40
0.965553732
 40
0.9718433269
 40
0.9778458183
 40
0.9836070648
 40
0.9891798495
 40
0.9946229739
 40
1.0
 40
1.0
 40
1.0
 40
1.0
 10
12.1698821249
 20
6.2820380049
 30
0.0
 10
12.1698821249
 20
6.2755829529
 30
0.0
 10
12.1696795596
 20
6.2625621318
 30
0.0
 10
12.1688005132
 20
6.2429654081
 30
0.0
 10
12.167353823
 20
6.2233162564
 30
0.0
 10
12.1653585976
 20
6.2038743639
 30
0.0
 10
12.1632446841
 20
6.187935109
 30
0.0
 10
12.1612929081
 20
6.1754856745
 30
0.0
 10
12.1597221421
 20
6.1664326124
 30
0.0
 10
12.1580381885
 20
6.1576196931
 30
0.0
 10
12.1562466152
 20
6.149076027
 30
0.0
 10
12.1543533999
 20
6.1408298416
 30
0.0
 10
12.1523648488
 20
6.1329083574
 30
0.0
 10
12.150287589
 20
6.1253377091
 30
0.0
 10
12.1481285383
 20
6.1181428471
 30
0.0
 10
12.1458948986
 20
6.1113474395
 30
0.0
 10
12.1435941205
 20
6.1049737729
 30
0.0
 10
12.1412338669
 20
6.0990427002
 30
0.0
 10
12.1388219593
 20
6.0935734515
 30
0.0
 10
12.1363663685
 20
6.0885838559
 30
0.0
 10
12.1342471288
 20
6.0847604742
 30
0.0
 10
12.1325301132
 20
6.0819621972
 30
0.0
 10
12.1312641672
 20
6.0800386313
 30
0.0
 10
12.1299933271
 20
6.0782463889
 30
0.0
 10
12.128718606
 20
6.0765868961
 30
0.0
 10
12.1274409563
 20
6.0750615205
 30
0.0
 10
12.1261614082
 20
6.0736714501
 30
0.0
 10
12.1248808938
 20
6.0724178186
 30
0.0
 10
12.1236003247
 20
6.0713016716
 30
0.0
 10
12.1223206406
 20
6.0703239051
 30
0.0
 10
12.1210426535
 20
6.0694854699
 30
0.0
 10
12.1197672561
 20
6.0687871796
 30
0.0
 10
12.1184953175
 20
6.068229868
 30
0.0
 10
12.1172277918
 20
6.0678144368
 30
0.0
 10
12.1159657596
 20
6.0675415925
 30
0.0
 10
12.1147107251
 20
6.0674120743
 30
0.0
 10
12.1138774921
 20
6.0674216114
 30
0.0
 10
12.1134654611
 20
6.0674501891
 30
0.0
  0
SPLINE
  5
431
100
AcDbEntity
  8
0
100
AcDbSpline
 62
7
  6
CONTINUOUS
 70
0
 71
3
 72
39
 73
35
 74
0
 42
0.0000001
 43
0.0000001
 44
0.0000000001
 40
0.0
 40
0.0
 40
0.0
 40
0.0
 40
0.0311450474
 40
0.0624431122
 40
0.0938883415
 40
0.1254709904
 40
0.157178884
 40
0.1889972611
 40
0.2209091755
 40
0.2528958437
 40
0.2849370231
 40
0.3170114138
 40
0.3490970738
 40
0.3811718446
 40
0.413213777
 40
0.4452015561
 40
0.477114918
 40
0.5089350506
 40
0.5406449736
 40
0.5722298927
 40
0.6036775219
 40
0.6349783626
 40
0.6661259349
 40
0.6971169558
 40
0.7279514584
 40
0.7586328412
 40
0.7891678431
 40
0.8195664432
 40
0.8498416843
 40
0.8800094163
 40
0.9100879629
 40
0.9400977199
 40
0.9700606953
 40
1.0
 40
1.0
 40
1.0
 40
1.0
 10
9.9085504843
 20
7.0577147314
 30
0.0
 10
9.8978655616
 20
7.0584557333
 30
0.0
 10
9.8764895076
 20
7.0607234689
 30
0.0
 10
9.8446845842
 20
7.066435979
 30
0.0
 10
9.8132203232
 20
7.0744374573
 30
0.0
 10
9.7822666413
 20
7.0846849114
 30
0.0
 10
9.751988005
 20
7.0971234301
 30
0.0
 10
9.7225459254
 20
7.1116864659
 30
0.0
 10
9.694097236
 20
7.1282961789
 30
0.0
 10
9.6667935269
 20
7.1468638857
 30
0.0
 10
9.6407802841
 20
7.1672905281
 30
0.0
 10
9.6161961223
 20
7.1894671648
 30
0.0
 10
9.5931720339
 20
7.2132755419
 30
0.0
 10
9.5718307358
 20
7.2385887588
 30
0.0
 10
9.5522860196
 20
7.2652719277
 30
0.0
 10
9.5346421474
 20
7.2931828774
 30
0.0
 10
9.5189932502
 20
7.3221728742
 30
0.0
 10
9.5054228859
 20
7.3520874464
 30
0.0
 10
9.4940035908
 20
7.3827671882
 30
0.0
 10
9.484796504
 20
7.4140485974
 30
0.0
 10
9.4778509707
 20
7.4457649141
 30
0.0
 10
9.4732043229
 20
7.4777470206
 30
0.0
 10
9.4708816848
 20
7.5098243282
 30
0.0
 10
9.4708958361
 20
7.5418256713
 30
0.0
 10
9.4732470763
 20
7.5735802082
 30
0.0
 10
9.4779232137
 20
7.6049183351
 30
0.0
 10
9.4848996536
 20
7.6356725828
 30
0.0
 10
9.4941395074
 20
7.6656785102
 30
0.0
 10
9.5055937314
 20
7.6947755765
 30
0.0
 10
9.519201386
 20
7.7228080877
 30
0.0
 10
9.5348898028
 20
7.7496258225
 30
0.0
 10
9.5525757223
 20
7.7750856048
 30
0.0
 10
9.5721628559
 20
7.7990493007
 30
0.0
 10
9.5864248751
 20
7.8139484035
 30
0.0
 10
9.5938302791
 20
7.8211014693
 30
0.0
  0
SPLINE
  5
432
100
AcDbEntity
  8
0
100
AcDbSpline
 62
7
  6
CONTINUOUS
 70
0
 71
3
 72
23
 73
19
 74
0
 42
0.0000001
 43
0.0000001
 44
0.0000000001
 40
0.0
 40
0.0
 40
0.0
 40
0.0
 40
0.0616236152
 40
0.1232830671
 40
0.184998984
 40
0.2467914191
 40
0.3086796413
 40
0.3706819427
 40
0.4328154736
 40
0.4950960692
 40
0.5575380958
 40
0.6201543376
 40
0.6829557936
 40
0.7459518415
 40
0.809149949
 40
0.8725545065
 40
0.9361725818
 40
1.0
 40
1.0
 40
1.0
 40
1.0
 10
10.3456117329
 20
7.4832177985
 30
0.0
 10
10.3421364053
 20
7.4800957973
 30
0.0
 10
10.335021463
 20
7.474027939
 30
0.0
 10
10.3238915848
 20
7.4654847344
 30
0.0
 10
10.3123267417
 20
7.457517016
 30
0.0
 10
10.3003540342
 20
7.450143528
 30
0.0
 10
10.2880010372
 20
7.4433812424
 30
0.0
 10
10.2752963589
 20
7.4372457712
 30
0.0
 10
10.262269372
 20
7.431751259
 30
0.0
 10
10.2489501916
 20
7.4269103914
 30
0.0
 10
10.235369598
 20
7.4227343568
 30
0.0
 10
10.2215589946
 20
7.419232754
 30
0.0
 10
10.2075503006
 20
7.4164136219
 30
0.0
 10
10.1933758629
 20
7.4142834571
 30
0.0
 10
10.1790685244
 20
7.4128472072
 30
0.0
 10
10.164661036
 20
7.412108021
 30
0.0
 10
10.1501873432
 20
7.4120677415
 30
0.0
 10
10.1405312299
 20
7.4125060626
 30
0.0
 10
10.1357040519
 20
7.4128408286
 30
0.0
  0
SPLINE
  5
433
100
AcDbEntity
  8
0
100
AcDbSpline
 62
7
  6
CONTINUOUS
 70
0
 71
3
 72
39
 73
35
 74
0
 42
0.0000001
 43
0.0000001
 44
0.0000000001
 40
0.0
 40
0.0
 40
0.0
 40
0.0
 40
0.0311249031
 40
0.0624006415
 40
0.0938215824
 40
0.1253783249
 40
0.157059221
 40
0.1888500652
 40
0.2207345657
 40
0.2526946327
 40
0.2847107441
 40
0.3167623206
 40
0.3488281173
 40
0.3808866229
 40
0.4129164629
 40
0.4448968006
 40
0.4768077312
 40
0.5086306634
 40
0.5403486831
 40
0.5719468943
 40
0.6034127294
 40
0.6347362234
 40
0.6659102459
 40
0.6969306837
 40
0.7277965693
 40
0.7585101474
 40
0.7890768757
 40
0.8195053563
 40
0.849807193
 40
0.8799967755
 40
0.9100909931
 40
0.9401088801
 40
0.9700712036
 40
1.0
 40
1.0
 40
1.0
 40
1.0
 10
10.1357040519
 20
7.4128408286
 30
0.0
 10
10.1284389013
 20
7.4133446685
 30
0.0
 10
10.1139044842
 20
7.4148788993
 30
0.0
 10
10.0922748213
 20
7.4187293375
 30
0.0
 10
10.0708702161
 20
7.4241146094
 30
0.0
 10
10.0498029848
 20
7.4310066118
 30
0.0
 10
10.0291818804
 20
7.4393694282
 30
0.0
 10
10.0091137776
 20
7.4491596106
 30
0.0
 10
9.9897025514
 20
7.4603263202
 30
0.0
 10
9.9710487037
 20
7.4728116304
 30
0.0
 10
9.9532488053
 20
7.4865508112
 30
0.0
 10
9.9363950083
 20
7.5014726601
 30
0.0
 10
9.9205745749
 20
7.5174998739
 30
0.0
 10
9.9058694316
 20
7.5345494469
 30
0.0
 10
9.8923557494
 20
7.5525330956
 30
0.0
 10
9.8801035529
 20
7.5713577118
 30
0.0
 10
9.8691763605
 20
7.590925839
 30
0.0
 10
9.859630858
 20
7.6111361705
 30
0.0
 10
9.8515166063
 20
7.6318840683
 30
0.0
 10
9.8448757766
 20
7.6530620945
 30
0.0
 10
9.8397429358
 20
7.6745605646
 30
0.0
 10
9.8361448676
 20
7.6962681082
 30
0.0
 10
9.8341004285
 20
7.718072238
 30
0.0
 10
9.8336204441
 20
7.7398599254
 30
0.0
 10
9.8347076444
 20
7.761518179
 30
0.0
 10
9.8373566396
 20
7.7829346262
 30
0.0
 10
9.8415539365
 20
7.8039980913
 30
0.0
 10
9.8472779883
 20
7.8245991773
 30
0.0
 10
9.8544992894
 20
7.844630827
 30
0.0
 10
9.8631805548
 20
7.8639889211
 30
0.0
 10
9.8732767674
 20
7.882572691
 30
0.0
 10
9.8847358995
 20
7.900285766
 30
0.0
 10
9.8974973329
 20
7.9170347877
 30
0.0
 10
9.9068346604
 20
7.9275061259
 30
0.0
 10
9.9116935225
 20
7.9325489192
 30
0.0
  0
SPLINE
  5
434
100
AcDbEntity
  8
0
100
AcDbSpline
 62
7
  6
CONTINUOUS
 70
0
 71
3
 72
14
 73
10
 74
0
 42
0.0000001
 43
0.0000001
 44
0.0000000001
 40
0.0
 40
0.0
 40
0.0
 40
0.0
 40
0.1439519699
 40
0.2815979858
 40
0.413287802
 40
0.5394531944
 40
0.7771434155
 40
0.8900904156
 40
1.0
 40
1.0
 40
1.0
 40
1.0
 10
9.9493747833
 20
7.9070998435
 30
0.0
 10
9.9487167145
 20
7.9064641978
 30
0.0
 10
9.9474593913
 20
7.9051890859
 30
0.0
 10
9.9457188161
 20
7.9032200249
 30
0.0
 10
9.9441680726
 20
7.9012392552
 30
0.0
 10
9.9423909655
 20
7.8986372889
 30
0.0
 10
9.9409445593
 20
7.8959579665
 30
0.0
 10
9.939886492
 20
7.893225663
 30
0.0
 10
9.9394916036
 20
7.8918629649
 30
0.0
 10
9.9393284853
 20
7.8911837117
 30
0.0
  0
SPLINE
  5
435
100
AcDbEntity
  8
0
100
AcDbSpline
 62
7
  6
CONTINUOUS
 70
0
 71
3
 72
43
 73
39
 74
0
 42
0.0000001
 43
0.0000001
 44
0.0000000001
 40
0.0
 40
0.0
 40
0.0
 40
0.0
 40
0.0309231505
 40
0.0464357822
 40
0.0619803019
 40
0.0931602797
 40
0.1244605189
 40
0.1558732539
 40
0.1873889813
 40
0.2189967269
 40
0.2506841817
 40
0.2824378986
 40
0.3142434888
 40
0.3460858304
 40
0.377949284
 40
0.4098179142
 40
0.4416757127
 40
0.4735068233
 40
0.5052957645
 40
0.5370276493
 40
0.5686883984
 40
0.6002649453
 40
0.6317454313
 40
0.6631193867
 40
0.6943778971
 40
0.7255137508
 40
0.7565215657
 40
0.7873978924
 40
0.818141291
 40
0.8487523792
 40
0.8640109874
 40
0.8792376989
 40
0.9095943014
 40
0.9398327956
 40
0.9549123816
 40
0.9699658496
 40
0.9849945666
 40
1.0
 40
1.0
 40
1.0
 40
1.0
 10
10.1137938177
 20
7.2559645795
 30
0.0
 10
10.1046850768
 20
7.2565962729
 30
0.0
 10
10.0910315915
 20
7.2579705893
 30
0.0
 10
10.0729245627
 20
7.2606405632
 30
0.0
 10
10.0548325256
 20
7.2638769856
 30
0.0
 10
10.0323487789
 20
7.268971008
 30
0.0
 10
10.0057146622
 20
7.2767254403
 30
0.0
 10
9.9795003162
 20
7.2860978767
 30
0.0
 10
9.9538080162
 20
7.2970517587
 30
0.0
 10
9.9287372282
 20
7.3095445159
 30
0.0
 10
9.9043852088
 20
7.3235276038
 30
0.0
 10
9.8808463665
 20
7.3389467207
 30
0.0
 10
9.8582119709
 20
7.3557420121
 30
0.0
 10
9.8365697821
 20
7.3738483027
 30
0.0
 10
9.8160037191
 20
7.3931953478
 30
0.0
 10
9.7965935348
 20
7.413708104
 30
0.0
 10
9.7784145102
 20
7.4353070184
 30
0.0
 10
9.7615371636
 20
7.457908335
 30
0.0
 10
9.7460269797
 20
7.4814244167
 30
0.0
 10
9.7319441563
 20
7.5057640826
 30
0.0
 10
9.7193433724
 20
7.5308329587
 30
0.0
 10
9.7082735768
 20
7.5565338405
 30
0.0
 10
9.6987777983
 20
7.5827670662
 30
0.0
 10
9.6908929783
 20
7.6094309008
 30
0.0
 10
9.6846498257
 20
7.6364219212
 30
0.0
 10
9.6800727
 20
7.6636354352
 30
0.0
 10
9.6771795014
 20
7.690965803
 30
0.0
 10
9.6759816457
 20
7.7183071424
 30
0.0
 10
9.676483839
 20
7.7455526271
 30
0.0
 10
9.6783198904
 20
7.7681157635
 30
0.0
 10
9.680635862
 20
7.7860089428
 30
0.0
 10
9.6835072149
 20
7.8037453515
 30
0.0
 10
9.6881406771
 20
7.8256649654
 30
0.0
 10
9.6941628444
 20
7.8471997127
 30
0.0
 10
9.6997938596
 20
7.8641154952
 30
0.0
 10
9.7044157831
 20
7.8766263692
 30
0.0
 10
9.7094351451
 20
7.8889592325
 30
0.0
 10
9.713046085
 20
7.8970609757
 30
0.0
 10
9.7149160144
 20
7.9010776664
 30
0.0
  0
SPLINE
  5
436
100
AcDbEntity
  8
0
100
AcDbSpline
 62
7
  6
CONTINUOUS
 70
0
 71
3
 72
15
 73
11
 74
0
 42
0.0000001
 43
0.0000001
 44
0.0000000001
 40
0.0
 40
0.0
 40
0.0
 40
0.0
 40
0.1071214906
 40
0.2191362575
 40
0.336179361
 40
0.4583643452
 40
0.5857824134
 40
0.7185020376
 40
0.8565697608
 40
1.0
 40
1.0
 40
1.0
 40
1.0
 10
9.9493747833
 20
7.9070998435
 30
0.0
 10
9.9500631124
 20
7.9077647184
 30
0.0
 10
9.9515060518
 20
7.9090891351
 30
0.0
 10
9.9538094907
 20
7.9110177821
 30
0.0
 10
9.9562979551
 20
7.9129307712
 30
0.0
 10
9.958969777
 20
7.9148269082
 30
0.0
 10
9.9618233947
 20
7.9167050949
 30
0.0
 10
9.9648571045
 20
7.9185642475
 30
0.0
 10
9.9680689663
 20
7.9204031495
 30
0.0
 10
9.9702853629
 20
7.9215921833
 30
0.0
 10
9.9714220391
 20
7.9221837061
 30
0.0
  0
SPLINE
  5
437
100
AcDbEntity
  8
0
100
AcDbSpline
 62
7
  6
CONTINUOUS
 70
0
 71
3
 72
11
 73
7
 74
0
 42
0.0000001
 43
0.0000001
 44
0.0000000001
 40
0.0
 40
0.0
 40
0.0
 40
0.0
 40
0.2552692464
 40
0.506051994
 40
0.7537940055
 40
1.0
 40
1.0
 40
1.0
 40
1.0
 10
10.7892831028
 20
10.6258145446
 30
0.0
 10
10.7896033613
 20
10.6248402173
 30
0.0
 10
10.790167202
 20
10.6228843658
 30
0.0
 10
10.7907781528
 20
10.6199149369
 30
0.0
 10
10.7911450075
 20
10.6169421855
 30
0.0
 10
10.7912266095
 20
10.6149566732
 30
0.0
 10
10.7912266069
 20
10.6139674756
 30
0.0
  0
SPLINE
  5
438
100
AcDbEntity
  8
0
100
AcDbSpline
 62
7
  6
CONTINUOUS
 70
0
 71
3
 72
94
 73
90
 74
0
 42
0.0000001
 43
0.0000001
 44
0.0000000001
 40
0.0
 40
0.0
 40
0.0
 40
0.0
 40
0.0041491716
 40
0.0084809577
 40
0.0130002142
 40
0.0177110432
 40
0.0226168479
 40
0.0277201924
 40
0.0330228096
 40
0.0385258601
 40
0.0442299052
 40
0.0501350675
 40
0.0562409737
 40
0.0625468525
 40
0.069051578
 40
0.0757536478
 40
0.0897419898
 40
0.1044947953
 40
0.1199904887
 40
0.1362040535
 40
0.1531074356
 40
0.1706698734
 40
0.1888581762
 40
0.2076369619
 40
0.2269688663
 40
0.2468147383
 40
0.267133817
 40
0.2878838961
 40
0.3090214799
 40
0.3305019328
 40
0.3522796243
 40
0.3743080704
 40
0.3965400758
 40
0.418927873
 40
0.4414232584
 40
0.4639777285
 40
0.4865426149
 40
0.5090692191
 40
0.5315089498
 40
0.5538134581
 40
0.5759347738
 40
0.597825441
 40
0.6194386558
 40
0.6407284048
 40
0.6616496064
 40
0.6821582587
 40
0.702211586
 40
0.7217681908
 40
0.7407882148
 40
0.7592335089
 40
0.7770678166
 40
0.794256978
 40
0.8107691605
 40
0.8265751166
 40
0.8416484883
 40
0.855966176
 40
0.8695087949
 40
0.8759848324
 40
0.8822618605
 40
0.8883387604
 40
0.8942148525
 40
0.8998898107
 40
0.9053638113
 40
0.9106375199
 40
0.9157121643
 40
0.920589646
 40
0.9252725355
 40
0.9297642824
 40
0.9340692054
 40
0.9381927167
 40
0.9421414009
 40
0.9459231827
 40
0.9495475218
 40
0.9530255068
 40
0.9563700913
 40
0.9595961194
 40
0.9627204437
 40
0.96576184
 40
0.9687408508
 40
0.9716794839
 40
0.9746007448
 40
0.9775280927
 40
0.9804848283
 40
0.9834935044
 40
0.9865754229
 40
0.9897502425
 40
0.9930357107
 40
0.9964476566
 40
1.0
 40
1.0
 40
1.0
 40
1.0
 10
11.3881882518
 20
10.7893302417
 30
0.0
 10
11.3893523607
 20
10.7904546847
 30
0.0
 10
11.3917884869
 20
10.7926949649
 30
0.0
 10
11.3956696346
 20
10.7959609592
 30
0.0
 10
11.3998527232
 20
10.799201622
 30
0.0
 10
11.4043351376
 20
10.8024149956
 30
0.0
 10
11.4091143853
 20
10.8055993742
 30
0.0
 10
11.4141877966
 20
10.8087529882
 30
0.0
 10
11.4195524761
 20
10.8118741166
 30
0.0
 10
11.4252053865
 20
10.8149609034
 30
0.0
 10
11.4311432688
 20
10.8180116593
 30
0.0
 10
11.4373627508
 20
10.8210245881
 30
0.0
 10
11.4438602618
 20
10.8239979961
 30
0.0
 10
11.4506320754
 20
10.8269301618
 30
0.0
 10
11.4576743158
 20
10.8298193983
 30
0.0
 10
11.4675605677
 20
10.8336672311
 30
0.0
 10
11.4805731848
 20
10.8383461687
 30
0.0
 10
11.4969841037
 20
10.8436867845
 30
0.0
 10
11.514368508
 20
10.8488180242
 30
0.0
 10
11.5326863437
 20
10.8537279582
 30
0.0
 10
11.5518955667
 20
10.8584051504
 30
0.0
 10
11.5719519461
 20
10.8628387045
 30
0.0
 10
11.5928092683
 20
10.8670182897
 30
0.0
 10
11.6144194266
 20
10.8709341675
 30
0.0
 10
11.6367325456
 20
10.8745772196
 30
0.0
 10
11.659697103
 20
10.8779389645
 30
0.0
 10
11.6832600549
 20
10.8810115774
 30
0.0
 10
11.7073669617
 20
10.8837879078
 30
0.0
 10
11.7319621168
 20
10.8862614962
 30
0.0
 10
11.7569886762
 20
10.8884265877
 30
0.0
 10
11.7823887907
 20
10.8902781455
 30
0.0
 10
11.8081037412
 20
10.8918118661
 30
0.0
 10
11.8340740762
 20
10.8930241851
 30
0.0
 10
11.8602397519
 20
10.8939122848
 30
0.0
 10
11.8865402709
 20
10.8944741011
 30
0.0
 10
11.9129148228
 20
10.8947083276
 30
0.0
 10
11.9393024244
 20
10.8946144188
 30
0.0
 10
11.9656420619
 20
10.8941925912
 30
0.0
 10
11.9918728328
 20
10.8934438267
 30
0.0
 10
12.0179340886
 20
10.8923698671
 30
0.0
 10
12.0437655745
 20
10.8909732092
 30
0.0
 10
12.06930757
 20
10.8892571
 30
0.0
 10
12.0945010268
 20
10.8872255287
 30
0.0
 10
12.119287706
 20
10.8848832188
 30
0.0
 10
12.1436103154
 20
10.8822356158
 30
0.0
 10
12.1674126446
 20
10.8792888808
 30
0.0
 10
12.190639697
 20
10.8760498715
 30
0.0
 10
12.213237818
 20
10.8725261273
 30
0.0
 10
12.2351548214
 20
10.8687258519
 30
0.0
 10
12.2563401131
 20
10.8646578948
 30
0.0
 10
12.2767448143
 20
10.8603317309
 30
0.0
 10
12.2963218802
 20
10.8557574371
 30
0.0
 10
12.3150262285
 20
10.8509456725
 30
0.0
 10
12.3328148256
 20
10.8459076461
 30
0.0
 10
12.3496468998
 20
10.840655086
 30
0.0
 10
12.3654837064
 20
10.835200196
 30
0.0
 10
12.3780016609
 20
10.8304279566
 30
0.0
 10
12.387481275
 20
10.8265086811
 30
0.0
 10
12.3942136633
 20
10.8235704446
 30
0.0
 10
12.400671181
 20
10.820591202
 30
0.0
 10
12.406850153
 20
10.817572701
 30
0.0
 10
12.4127470227
 20
10.8145166259
 30
0.0
 10
12.4183584303
 20
10.8114247546
 30
0.0
 10
12.4236811754
 20
10.808298844
 30
0.0
 10
12.4287122137
 20
10.8051406357
 30
0.0
 10
12.4334487147
 20
10.8019519606
 30
0.0
 10
12.437887953
 20
10.7987345223
 30
0.0
 10
12.4420274569
 20
10.7954901704
 30
0.0
 10
12.4458648404
 20
10.7922206054
 30
0.0
 10
12.4493979415
 20
10.7889276163
 30
0.0
 10
12.4526247288
 20
10.7856129294
 30
0.0
 10
12.4555432795
 20
10.7822782282
 30
0.0
 10
12.4581518861
 20
10.7789252637
 30
0.0
 10
12.4604487998
 20
10.7755556534
 30
0.0
 10
12.4624325348
 20
10.7721711757
 30
0.0
 10
12.4641015028
 20
10.7687735334
 30
0.0
 10
12.4654543258
 20
10.7653646249
 30
0.0
 10
12.4664896783
 20
10.7619464617
 30
0.0
 10
12.46720636
 20
10.7585212582
 30
0.0
 10
12.4676035796
 20
10.7550914641
 30
0.0
 10
12.4676806714
 20
10.7516596731
 30
0.0
 10
12.4674376699
 20
10.7482285821
 30
0.0
 10
12.4668747927
 20
10.7448008546
 30
0.0
 10
12.465992838
 20
10.7413790083
 30
0.0
 10
12.4647928159
 20
10.7379653637
 30
0.0
 10
12.4632759565
 20
10.7345620755
 30
0.0
 10
12.4614437128
 20
10.7311710022
 30
0.0
 10
12.459297557
 20
10.7277941332
 30
0.0
 10
12.4576924731
 20
10.7255998259
 30
0.0
 10
12.4568417862
 20
10.7245060001
 30
0.0
  0
SPLINE
  5
439
100
AcDbEntity
  8
0
100
AcDbSpline
 62
7
  6
CONTINUOUS
 70
0
 71
3
 72
83
 73
79
 74
0
 42
0.0000001
 43
0.0000001
 44
0.0000000001
 40
0.0
 40
0.0
 40
0.0
 40
0.0
 40
0.0039801392
 40
0.008124085
 40
0.0124359891
 40
0.0169193758
 40
0.0215772403
 40
0.0264119747
 40
0.0314252505
 40
0.0366182358
 40
0.0419916472
 40
0.0475457641
 40
0.0532805491
 40
0.0591955595
 40
0.0715625821
 40
0.0846382708
 40
0.0984095991
 40
0.1128601963
 40
0.127970756
 40
0.1437193797
 40
0.1600818675
 40
0.1770319494
 40
0.194541478
 40
0.2125805882
 40
0.2311178653
 40
0.2501204909
 40
0.2695543707
 40
0.2893842495
 40
0.3095738226
 40
0.3300858587
 40
0.3508823085
 40
0.3719244075
 40
0.4145867424
 40
0.4577530908
 40
0.5010979354
 40
0.5442940129
 40
0.5870155124
 40
0.6080980589
 40
0.6289420781
 40
0.6495086839
 40
0.6697596832
 40
0.6896576862
 40
0.7091662207
 40
0.7282498351
 40
0.746874209
 40
0.765006274
 40
0.7826143539
 40
0.7996683035
 40
0.8161396492
 40
0.8320017558
 40
0.8472300223
 40
0.8618021251
 40
0.8756982738
 40
0.8889015292
 40
0.901398207
 40
0.9131784013
 40
0.918798254
 40
0.9242373564
 40
0.9294958943
 40
0.9345743964
 40
0.9394738952
 40
0.9441958903
 40
0.9487424281
 40
0.9531162232
 40
0.9573206342
 40
0.9613598587
 40
0.9652389652
 40
0.9689640015
 40
0.9725421755
 40
0.9759818813
 40
0.9792929007
 40
0.9824864648
 40
0.985575317
 40
0.9885737931
 40
0.9914977171
 40
0.9943643215
 40
0.9971920038
 40
1.0
 40
1.0
 40
1.0
 40
1.0
 10
11.3969585592
 20
10.7675486238
 30
0.0
 10
11.3980280507
 20
10.7685816734
 30
0.0
 10
11.4002596217
 20
10.770640478
 30
0.0
 10
11.4038026866
 20
10.7736475369
 30
0.0
 10
11.4076059431
 20
10.7766330609
 30
0.0
 10
11.4116673035
 20
10.779595401
 30
0.0
 10
11.4159847473
 20
10.7825332066
 30
0.0
 10
11.4205561935
 20
10.7854450203
 30
0.0
 10
11.4253793542
 20
10.7883294763
 30
0.0
 10
11.4304518285
 20
10.7911851033
 30
0.0
 10
11.4357710784
 20
10.7940104553
 30
0.0
 10
11.4413344198
 20
10.7968041613
 30
0.0
 10
11.4471390967
 20
10.7995647914
 30
0.0
 10
11.455318331
 20
10.8032545625
 30
0.0
 10
11.4661338238
 20
10.8077635364
 30
0.0
 10
11.4798400385
 20
10.8129434849
 30
0.0
 10
11.4944325931
 20
10.8179594517
 30
0.0
 10
11.5098821205
 20
10.8228012491
 30
0.0
 10
11.5261576846
 20
10.8274590408
 30
0.0
 10
11.5432265426
 20
10.8319233519
 30
0.0
 10
11.5610543258
 20
10.8361850906
 30
0.0
 10
11.5796050946
 20
10.8402355737
 30
0.0
 10
11.5988414188
 20
10.8440665429
 30
0.0
 10
11.6187244518
 20
10.8476702004
 30
0.0
 10
11.6392140196
 20
10.8510392105
 30
0.0
 10
11.6602687119
 20
10.8541667136
 30
0.0
 10
11.6818459669
 20
10.85704634
 30
0.0
 10
11.7039021529
 20
10.8596722242
 30
0.0
 10
11.7263926611
 20
10.862039032
 30
0.0
 10
11.7492719861
 20
10.8641419423
 30
0.0
 10
11.7724938829
 20
10.8659767069
 30
0.0
 10
11.8039938578
 20
10.8680699379
 30
0.0
 10
11.8438781294
 20
10.8699843054
 30
0.0
 10
11.8921261949
 20
10.8711582403
 30
0.0
 10
11.940588071
 20
10.8712093487
 30
0.0
 10
11.9888717167
 20
10.8701372414
 30
0.0
 10
12.028808306
 20
10.8683073622
 30
0.0
 10
12.0603677597
 20
10.866281189
 30
0.0
 10
12.0836469115
 20
10.8644956055
 30
0.0
 10
12.1065919855
 20
10.8624411567
 30
0.0
 10
12.1291565991
 20
10.8601219879
 30
0.0
 10
12.1512950965
 20
10.8575428218
 30
0.0
 10
12.1729627068
 20
10.8547089102
 30
0.0
 10
12.1941156154
 20
10.851626022
 30
0.0
 10
12.2147110546
 20
10.8483004318
 30
0.0
 10
12.2347073928
 20
10.8447389039
 30
0.0
 10
12.2540642282
 20
10.8409486925
 30
0.0
 10
12.2727424746
 20
10.8369375228
 30
0.0
 10
12.2907044376
 20
10.8327135663
 30
0.0
 10
12.3079138933
 20
10.8282854266
 30
0.0
 10
12.3243361716
 20
10.8236621148
 30
0.0
 10
12.3399382542
 20
10.8188530471
 30
0.0
 10
12.3546888175
 20
10.8138680067
 30
0.0
 10
12.3685584121
 20
10.8087170997
 30
0.0
 10
12.3815191662
 20
10.8034107604
 30
0.0
 10
12.3916950942
 20
10.7987985382
 30
0.0
 10
12.3993510004
 20
10.7950301397
 30
0.0
 10
12.4047593257
 20
10.7922160952
 30
0.0
 10
12.4099218405
 20
10.7893713386
 30
0.0
 10
12.4148359456
 20
10.7864971975
 30
0.0
 10
12.4194992045
 20
10.7835951521
 30
0.0
 10
12.4239092929
 20
10.7806666277
 30
0.0
 10
12.4280639946
 20
10.7777130276
 30
0.0
 10
12.431961281
 20
10.7747358503
 30
0.0
 10
12.4355991749
 20
10.7717364667
 30
0.0
 10
12.4389758862
 20
10.7687163415
 30
0.0
 10
12.442089731
 20
10.765676897
 30
0.0
 10
12.4449390859
 20
10.7626194931
 30
0.0
 10
12.4475225402
 20
10.7595455895
 30
0.0
 10
12.4498386547
 20
10.7564565135
 30
0.0
 10
12.4518861541
 20
10.7533536797
 30
0.0
 10
12.4536638373
 20
10.7502385037
 30
0.0
 10
12.4551704603
 20
10.7471123904
 30
0.0
 10
12.4564050266
 20
10.7439769043
 30
0.0
 10
12.4573664531
 20
10.7408336565
 30
0.0
 10
12.4580538839
 20
10.7376843359
 30
0.0
 10
12.4584666798
 20
10.7345311595
 30
0.0
 10
12.4585585241
 20
10.7324245848
 30
0.0
 10
12.4585585213
 20
10.7313755425
 30
0.0
  0
SPLINE
  5
43A
100
AcDbEntity
  8
0
100
AcDbSpline
 62
7
  6
CONTINUOUS
 70
0
 71
3
 72
15
 73
11
 74
0
 42
0.0000001
 43
0.0000001
 44
0.0000000001
 40
0.0
 40
0.0
 40
0.0
 40
0.0
 40
0.1232794921
 40
0.2469170249
 40
0.3709941927
 40
0.4955818529
 40
0.6207385205
 40
0.7465094251
 40
0.8729238856
 40
1.0
 40
1.0
 40
1.0
 40
1.0
 10
10.3370682183
 20
9.1873443886
 30
0.0
 10
10.3292646145
 20
9.1825266401
 30
0.0
 10
10.313240087
 20
9.1735004483
 30
0.0
 10
10.2881654603
 20
9.1619034072
 30
0.0
 10
10.2621588951
 20
9.1522931764
 30
0.0
 10
10.2353697735
 20
9.1447251405
 30
0.0
 10
10.207949493
 20
9.1392414782
 30
0.0
 10
10.1800530191
 20
9.1358730091
 30
0.0
 10
10.1518401671
 20
9.1346381216
 30
0.0
 10
10.1329711327
 20
9.1352405375
 30
0.0
 10
10.1235403632
 20
9.1358945636
 30
0.0
  0
SPLINE
  5
43B
100
AcDbEntity
  8
0
100
AcDbSpline
 62
7
  6
CONTINUOUS
 70
0
 71
3
 72
39
 73
35
 74
0
 42
0.0000001
 43
0.0000001
 44
0.0000000001
 40
0.0
 40
0.0
 40
0.0
 40
0.0
 40
0.0311450474
 40
0.0624431122
 40
0.0938883415
 40
0.1254709904
 40
0.157178884
 40
0.1889972611
 40
0.2209091755
 40
0.2528958437
 40
0.2849370231
 40
0.3170114138
 40
0.3490970738
 40
0.3811718446
 40
0.413213777
 40
0.4452015561
 40
0.477114918
 40
0.5089350506
 40
0.5406449736
 40
0.5722298927
 40
0.6036775219
 40
0.6349783626
 40
0.6661259349
 40
0.6971169558
 40
0.7279514584
 40
0.7586328412
 40
0.7891678431
 40
0.8195664432
 40
0.8498416843
 40
0.8800094163
 40
0.9100879629
 40
0.9400977199
 40
0.9700606953
 40
1.0
 40
1.0
 40
1.0
 40
1.0
 10
11.3574393096
 20
6.5940458879
 30
0.0
 10
11.3467543869
 20
6.5947868898
 30
0.0
 10
11.3253783329
 20
6.5970546254
 30
0.0
 10
11.2935734095
 20
6.6027671355
 30
0.0
 10
11.2621091485
 20
6.6107686138
 30
0.0
 10
11.2311554666
 20
6.6210160679
 30
0.0
 10
11.2008768303
 20
6.6334545865
 30
0.0
 10
11.1714347507
 20
6.6480176224
 30
0.0
 10
11.1429860613
 20
6.6646273354
 30
0.0
 10
11.1156823522
 20
6.6831950422
 30
0.0
 10
11.0896691094
 20
6.7036216846
 30
0.0
 10
11.0650849476
 20
6.7257983213
 30
0.0
 10
11.0420608592
 20
6.7496066984
 30
0.0
 10
11.0207195611
 20
6.7749199153
 30
0.0
 10
11.0011748449
 20
6.8016030842
 30
0.0
 10
10.9835309727
 20
6.8295140339
 30
0.0
 10
10.9678820755
 20
6.8585040307
 30
0.0
 10
10.9543117112
 20
6.8884186029
 30
0.0
 10
10.9428924161
 20
6.9190983447
 30
0.0
 10
10.9336853293
 20
6.9503797539
 30
0.0
 10
10.9267397959
 20
6.9820960706
 30
0.0
 10
10.9220931482
 20
7.0140781771
 30
0.0
 10
10.9197705101
 20
7.0461554846
 30
0.0
 10
10.9197846614
 20
7.0781568278
 30
0.0
 10
10.9221359016
 20
7.1099113647
 30
0.0
 10
10.926812039
 20
7.1412494916
 30
0.0
 10
10.9337884789
 20
7.1720037393
 30
0.0
 10
10.9430283327
 20
7.2020096667
 30
0.0
 10
10.9544825567
 20
7.231106733
 30
0.0
 10
10.9680902112
 20
7.2591392442
 30
0.0
 10
10.9837786281
 20
7.285956979
 30
0.0
 10
11.0014645476
 20
7.3114167613
 30
0.0
 10
11.0210516812
 20
7.3353804572
 30
0.0
 10
11.0353137004
 20
7.35027956
 30
0.0
 10
11.0427191044
 20
7.3574326258
 30
0.0
  0
SPLINE
  5
43C
100
AcDbEntity
  8
0
100
AcDbSpline
 62
7
  6
CONTINUOUS
 70
0
 71
3
 72
23
 73
19
 74
0
 42
0.0000001
 43
0.0000001
 44
0.0000000001
 40
0.0
 40
0.0
 40
0.0
 40
0.0
 40
0.0638617654
 40
0.1275030803
 40
0.1909230764
 40
0.2541276764
 40
0.317122389
 40
0.3799159305
 40
0.4425188195
 40
0.5049436701
 40
0.5672049961
 40
0.6293190749
 40
0.6913037887
 40
0.7531784352
 40
0.8149635246
 40
0.8766805577
 40
0.9383517929
 40
1.0
 40
1.0
 40
1.0
 40
1.0
 10
9.9085504843
 20
7.0577147314
 30
0.0
 10
9.9158545854
 20
7.0572081903
 30
0.0
 10
9.9304654677
 20
7.0565602377
 30
0.0
 10
9.9523629345
 20
7.0566907379
 30
0.0
 10
9.9741511703
 20
7.0579250811
 30
0.0
 10
9.9957744496
 20
7.0602600822
 30
0.0
 10
10.0171786726
 20
7.0636900405
 30
0.0
 10
10.0383098362
 20
7.0682063187
 30
0.0
 10
10.0591147567
 20
7.0737976388
 30
0.0
 10
10.0795410236
 20
7.080449967
 30
0.0
 10
10.0995371853
 20
7.0881465941
 30
0.0
 10
10.1190528647
 20
7.0968681793
 30
0.0
 10
10.1380388848
 20
7.1065927911
 30
0.0
 10
10.1564474107
 20
7.1172959807
 30
0.0
 10
10.1742320046
 20
7.1289507761
 30
0.0
 10
10.1913479927
 20
7.1415279925
 30
0.0
 10
10.2077516643
 20
7.1549953862
 30
0.0
 10
10.2181870943
 20
7.1645464717
 30
0.0
 10
10.2232706895
 20
7.169456844
 30
0.0
  0
SPLINE
  5
43D
100
AcDbEntity
  8
0
100
AcDbSpline
 62
7
  6
CONTINUOUS
 70
0
 71
3
 72
71
 73
67
 74
0
 42
0.0000001
 43
0.0000001
 44
0.0000000001
 40
0.0
 40
0.0
 40
0.0
 40
0.0
 40
0.0156747833
 40
0.0314021865
 40
0.047180646
 40
0.0630088943
 40
0.0788847428
 40
0.0948057522
 40
0.1107690081
 40
0.1267712319
 40
0.1428087904
 40
0.1588777355
 40
0.1749738412
 40
0.1910926417
 40
0.2072294723
 40
0.2233795101
 40
0.2395378174
 40
0.255699384
 40
0.2718591712
 40
0.2880121559
 40
0.3041533744
 40
0.3202779656
 40
0.3363812139
 40
0.352458591
 40
0.3685057963
 40
0.3845187962
 40
0.4004938618
 40
0.416427604
 40
0.4323170075
 40
0.4481594604
 40
0.4639527817
 40
0.4796952457
 40
0.4953856017
 40
0.5110230907
 40
0.5266074578
 40
0.5421389598
 40
0.557618368
 40
0.5730469658
 40
0.588426541
 40
0.6037593729
 40
0.6190482136
 40
0.6342962645
 40
0.6495071467
 40
0.6646848675
 40
0.6798337809
 40
0.6949585438
 40
0.7100640688
 40
0.7251554727
 40
0.7402380227
 40
0.7553170805
 40
0.7703980452
 40
0.7854862953
 40
0.8005871318
 40
0.8157057211
 40
0.8308470414
 40
0.8460158297
 40
0.8612165339
 40
0.8764532676
 40
0.8917297692
 40
0.9070493661
 40
0.9224149487
 40
0.9378289227
 40
0.9532932705
 40
0.9688092857
 40
0.9843782115
 40
1.0
 40
1.0
 40
1.0
 40
1.0
 10
9.8873273401
 20
8.7681540004
 30
0.0
 10
9.8788583116
 20
8.7687413295
 30
0.0
 10
9.8619177654
 20
8.7703334166
 30
0.0
 10
9.8366136575
 20
8.7739568701
 30
0.0
 10
9.8114314035
 20
8.7788112381
 30
0.0
 10
9.7864325582
 20
8.7848845572
 30
0.0
 10
9.7616769891
 20
8.7921622884
 30
0.0
 10
9.7372243912
 20
8.8006267955
 30
0.0
 10
9.713133597
 20
8.8102576893
 30
0.0
 10
9.6894626014
 20
8.8210317381
 30
0.0
 10
9.6662683785
 20
8.8329229787
 30
0.0
 10
9.6436067513
 20
8.8459027514
 30
0.0
 10
9.6215322591
 20
8.8599397841
 30
0.0
 10
9.6000980279
 20
8.8750002654
 30
0.0
 10
9.5793556436
 20
8.8910479266
 30
0.0
 10
9.5593550281
 20
8.9080441281
 30
0.0
 10
9.540144321
 20
8.9259479518
 30
0.0
 10
9.5217697638
 20
8.9447162994
 30
0.0
 10
9.5042755892
 20
8.9643039951
 30
0.0
 10
9.4877039083
 20
8.984663888
 30
0.0
 10
9.4720946153
 20
9.0057469718
 30
0.0
 10
9.4574852929
 20
9.0275025027
 30
0.0
 10
9.4439111217
 20
9.0498781201
 30
0.0
 10
9.4314047966
 20
9.0728199719
 30
0.0
 10
9.4199964479
 20
9.0962728431
 30
0.0
 10
9.4097135694
 20
9.120180288
 30
0.0
 10
9.4005809521
 20
9.1444847642
 30
0.0
 10
9.3926206149
 20
9.1691277684
 30
0.0
 10
9.3858517607
 20
9.1940499799
 30
0.0
 10
9.3802907297
 20
9.2191914025
 30
0.0
 10
9.3759509597
 20
9.2444915076
 30
0.0
 10
9.3728429536
 20
9.2698893788
 30
0.0
 10
9.3709742534
 20
9.2953238573
 30
0.0
 10
9.3703494208
 20
9.3207336882
 30
0.0
 10
9.3709700253
 20
9.346057667
 30
0.0
 10
9.3728346294
 20
9.3712347873
 30
0.0
 10
9.3759388004
 20
9.3962043881
 30
0.0
 10
9.3802751201
 20
9.420906299
 30
0.0
 10
9.3858332005
 20
9.4452809848
 30
0.0
 10
9.3925997079
 20
9.4692696892
 30
0.0
 10
9.4005583931
 20
9.4928145759
 30
0.0
 10
9.4096901288
 20
9.5158588692
 30
0.0
 10
9.4199729541
 20
9.5383469913
 30
0.0
 10
9.4313821172
 20
9.5602247022
 30
0.0
 10
9.4438901438
 20
9.5814392291
 30
0.0
 10
9.4574669024
 20
9.6019393945
 30
0.0
 10
9.4720796763
 20
9.6216757413
 30
0.0
 10
9.4876932427
 20
9.6406006537
 30
0.0
 10
9.5042699571
 20
9.6586684735
 30
0.0
 10
9.5217698454
 20
9.675835612
 30
0.0
 10
9.5401507003
 20
9.6920606565
 30
0.0
 10
9.5593681781
 20
9.7073044795
 30
0.0
 10
9.5793759153
 20
9.7215303275
 30
0.0
 10
9.6001256414
 20
9.7347039096
 30
0.0
 10
9.6215672974
 20
9.7467934806
 30
0.0
 10
9.6436491578
 20
9.7577699174
 30
0.0
 10
9.6663179574
 20
9.7676067884
 30
0.0
 10
9.6895190205
 20
9.776280417
 30
0.0
 10
9.7131963939
 20
9.7837699363
 30
0.0
 10
9.7372929832
 20
9.7900573531
 30
0.0
 10
9.7617506822
 20
9.795127563
 30
0.0
 10
9.7865105651
 20
9.7989684346
 30
0.0
 10
9.8115128492
 20
9.8015707196
 30
0.0
 10
9.8366976116
 20
9.8029283022
 30
0.0
 10
9.8620032425
 20
9.8030378789
 30
0.0
 10
9.8788869445
 20
9.8022800392
 30
0.0
 10
9.8873273401
 20
9.8016946958
 30
0.0
  0
SPLINE
  5
43E
100
AcDbEntity
  8
0
100
AcDbSpline
 62
7
  6
CONTINUOUS
 70
0
 71
3
 72
44
 73
40
 74
0
 42
0.0000001
 43
0.0000001
 44
0.0000000001
 40
0.0
 40
0.0
 40
0.0
 40
0.0
 40
0.0310182055
 40
0.0465821746
 40
0.0621804203
 40
0.0934736827
 40
0.1248945665
 40
0.1564336436
 40
0.1880793755
 40
0.2198184792
 40
0.251636122
 40
0.2675713605
 40
0.2835200988
 40
0.3154454491
 40
0.3473982176
 40
0.3793600935
 40
0.411312619
 40
0.427281588
 40
0.4432413847
 40
0.475120736
 40
0.5069374473
 40
0.5228192118
 40
0.5386793818
 40
0.5703237944
 40
0.6018613832
 40
0.6332806606
 40
0.6645721321
 40
0.6957284805
 40
0.7267447195
 40
0.7576183114
 40
0.7883492452
 40
0.8189400718
 40
0.8493958934
 40
0.8797243037
 40
0.8948460499
 40
0.9099398766
 40
0.9400456157
 40
0.9700603323
 40
1.0
 40
1.0
 40
1.0
 40
1.0
 10
11.5724291884
 20
6.8620805443
 30
0.0
 10
11.5640091968
 20
6.8626644727
 30
0.0
 10
11.5513884358
 20
6.8639635124
 30
0.0
 10
11.5346616371
 20
6.8665247608
 30
0.0
 10
11.5179536318
 20
6.8696469366
 30
0.0
 10
11.4972082005
 20
6.8745870314
 30
0.0
 10
11.4726792838
 20
6.8821357074
 30
0.0
 10
11.4485957547
 20
6.8912779485
 30
0.0
 10
11.4250654607
 20
6.9019728667
 30
0.0
 10
11.4021936153
 20
6.9141723325
 30
0.0
 10
11.3837747584
 20
6.9255425214
 30
0.0
 10
11.3694678498
 20
6.935332755
 30
0.0
 10
11.3554509153
 20
6.9455835834
 30
0.0
 10
11.3385269201
 20
6.9592239829
 30
0.0
 10
11.3192704868
 20
6.9768350142
 30
0.0
 10
11.3011434722
 20
6.9956167959
 30
0.0
 10
11.2870423331
 20
7.0121790104
 30
0.0
 10
11.2764041806
 20
7.0259290396
 30
0.0
 10
11.2662124139
 20
7.0399885955
 30
0.0
 10
11.2543196835
 20
7.0581272744
 30
0.0
 10
11.2435989224
 20
7.0769580878
 30
0.0
 10
11.2357616489
 20
7.092377862
 30
0.0
 10
11.2284355623
 20
7.1079951075
 30
0.0
 10
11.2202305051
 20
7.1278933406
 30
0.0
 10
11.2119494566
 20
7.152284625
 30
0.0
 10
11.205276645
 20
7.1770652992
 30
0.0
 10
11.2002422557
 20
7.2021243073
 30
0.0
 10
11.1968688378
 20
7.2273500619
 30
0.0
 10
11.1951716431
 20
7.2526300026
 30
0.0
 10
11.1951584423
 20
7.2778513624
 30
0.0
 10
11.1968294857
 20
7.3029015167
 30
0.0
 10
11.2001775939
 20
7.3276688116
 30
0.0
 10
11.2051877822
 20
7.3520418982
 30
0.0
 10
11.2107359018
 20
7.371955861
 30
0.0
 10
11.2159802857
 20
7.3875762271
 30
0.0
 10
11.2217448995
 20
7.4029474054
 30
0.0
 10
11.2299345314
 20
7.4217238403
 30
0.0
 10
11.2412987367
 20
7.4434567558
 30
0.0
 10
11.249872085
 20
7.4573555006
 30
0.0
 10
11.2543934721
 20
7.4641324042
 30
0.0
  0
SPLINE
  5
43F
100
AcDbEntity
  8
0
100
AcDbSpline
 62
7
  6
CONTINUOUS
 70
0
 71
3
 72
11
 73
7
 74
0
 42
0.0000001
 43
0.0000001
 44
0.0000000001
 40
0.0
 40
0.0
 40
0.0
 40
0.0
 40
0.2334794645
 40
0.478317481
 40
0.7340088387
 40
1.0
 40
1.0
 40
1.0
 40
1.0
 10
11.5626485362
 20
9.1467500686
 30
0.0
 10
11.5680604642
 20
9.148386383
 30
0.0
 10
11.5791979841
 20
9.1515736651
 30
0.0
 10
11.5964109367
 20
9.1560136255
 30
0.0
 10
11.6144922488
 20
9.1602172328
 30
0.0
 10
11.6268583903
 20
9.1628053277
 30
0.0
 10
11.6331759543
 20
9.1640612299
 30
0.0
  0
SPLINE
  5
440
100
AcDbEntity
  8
0
100
AcDbSpline
 62
7
  6
CONTINUOUS
 70
0
 71
3
 72
11
 73
7
 74
0
 42
0.0000001
 43
0.0000001
 44
0.0000000001
 40
0.0
 40
0.0
 40
0.0
 40
0.0
 40
0.2302455967
 40
0.4741675517
 40
0.731026608
 40
1.0
 40
1.0
 40
1.0
 40
1.0
 10
11.5747651345
 20
9.121864569
 30
0.0
 10
11.580961314
 20
9.1237883496
 30
0.0
 10
11.593796051
 20
9.1275133892
 30
0.0
 10
11.6137546327
 20
9.1326222577
 30
0.0
 10
11.6349153954
 20
9.1373985104
 30
0.0
 10
11.6494504553
 20
9.1402849676
 30
0.0
 10
11.6569012358
 20
9.1416745022
 30
0.0
  0
SPLINE
  5
441
100
AcDbEntity
  8
0
100
AcDbSpline
 62
7
  6
CONTINUOUS
 70
0
 71
3
 72
14
 73
10
 74
0
 42
0.0000001
 43
0.0000001
 44
0.0000000001
 40
0.0
 40
0.0
 40
0.0
 40
0.0
 40
0.1129807774
 40
0.2296142222
 40
0.3497991819
 40
0.4734280946
 40
0.6003864105
 40
0.7305536834
 40
1.0
 40
1.0
 40
1.0
 40
1.0
 10
11.5868613487
 20
9.1007478426
 30
0.0
 10
11.5901700748
 20
9.101738232
 30
0.0
 10
11.5969139424
 20
9.1036865696
 30
0.0
 10
11.6072383397
 20
9.1064725924
 30
0.0
 10
11.617923229
 20
9.1091662772
 30
0.0
 10
11.6289562074
 20
9.1117644298
 30
0.0
 10
11.640324567
 20
9.1142640827
 30
0.0
 10
11.6560936439
 20
9.1174988908
 30
0.0
 10
11.6681097084
 20
9.1197100125
 30
0.0
 10
11.6762278744
 20
9.1211032573
 30
0.0
  0
SPLINE
  5
442
100
AcDbEntity
  8
0
100
AcDbSpline
 62
7
  6
CONTINUOUS
 70
0
 71
3
 72
17
 73
13
 74
0
 42
0.0000001
 43
0.0000001
 44
0.0000000001
 40
0.0
 40
0.0
 40
0.0
 40
0.0
 40
0.12665525
 40
0.252808913
 40
0.3784660144
 40
0.441119042
 40
0.503653149
 40
0.6283622384
 40
0.7526322061
 40
0.8146190124
 40
0.8765083198
 40
1.0
 40
1.0
 40
1.0
 40
1.0
 10
10.1137938177
 20
7.2559645795
 30
0.0
 10
10.1221295845
 20
7.2553864921
 30
0.0
 10
10.138805015
 20
7.2547057702
 30
0.0
 10
10.1637828172
 20
7.2551218023
 30
0.0
 10
10.1844840463
 20
7.2566682842
 30
0.0
 10
10.2009190937
 20
7.2586230777
 30
0.0
 10
10.2172280381
 20
7.2610490879
 30
0.0
 10
10.2374152206
 20
7.2649678639
 30
0.0
 10
10.2573001083
 20
7.2700662176
 30
0.0
 10
10.2729623198
 20
7.2748384109
 30
0.0
 10
10.2884256689
 20
7.2800602414
 30
0.0
 10
10.2998342627
 20
7.2844938549
 30
0.0
 10
10.3073354251
 20
7.2876730775
 30
0.0
  0
SPLINE
  5
443
100
AcDbEntity
  8
0
100
AcDbSpline
 62
7
  6
CONTINUOUS
 70
0
 71
3
 72
23
 73
19
 74
0
 42
0.0000001
 43
0.0000001
 44
0.0000000001
 40
0.0
 40
0.0
 40
0.0
 40
0.0
 40
0.0616236152
 40
0.1232830671
 40
0.184998984
 40
0.2467914191
 40
0.3086796413
 40
0.3706819427
 40
0.4328154736
 40
0.4950960692
 40
0.5575380958
 40
0.6201543376
 40
0.6829557936
 40
0.7459518415
 40
0.809149949
 40
0.8725545065
 40
0.9361725818
 40
1.0
 40
1.0
 40
1.0
 40
1.0
 10
11.7945005582
 20
8.8316258424
 30
0.0
 10
11.7910252306
 20
8.8285038413
 30
0.0
 10
11.7839102882
 20
8.8224359829
 30
0.0
 10
11.7727804101
 20
8.8138927784
 30
0.0
 10
11.761215567
 20
8.80592506
 30
0.0
 10
11.7492428594
 20
8.798551572
 30
0.0
 10
11.7368898625
 20
8.7917892864
 30
0.0
 10
11.7241851842
 20
8.7856538152
 30
0.0
 10
11.7111581973
 20
8.780159303
 30
0.0
 10
11.6978390169
 20
8.7753184354
 30
0.0
 10
11.6842584233
 20
8.7711424008
 30
0.0
 10
11.6704478199
 20
8.767640798
 30
0.0
 10
11.6564391258
 20
8.7648216659
 30
0.0
 10
11.6422646882
 20
8.7626915011
 30
0.0
 10
11.6279573497
 20
8.7612552511
 30
0.0
 10
11.6135498613
 20
8.760516065
 30
0.0
 10
11.5990761685
 20
8.7604757855
 30
0.0
 10
11.5894200552
 20
8.7609141066
 30
0.0
 10
11.5845928772
 20
8.7612488725
 30
0.0
  0
SPLINE
  5
444
100
AcDbEntity
  8
0
100
AcDbSpline
 62
7
  6
CONTINUOUS
 70
0
 71
3
 72
43
 73
39
 74
0
 42
0.0000001
 43
0.0000001
 44
0.0000000001
 40
0.0
 40
0.0
 40
0.0
 40
0.0
 40
0.0309231505
 40
0.0464357822
 40
0.0619803019
 40
0.0931602797
 40
0.1244605189
 40
0.1558732539
 40
0.1873889813
 40
0.2189967269
 40
0.2506841817
 40
0.2824378986
 40
0.3142434888
 40
0.3460858304
 40
0.377949284
 40
0.4098179142
 40
0.4416757127
 40
0.4735068233
 40
0.5052957645
 40
0.5370276493
 40
0.5686883984
 40
0.6002649453
 40
0.6317454313
 40
0.6631193867
 40
0.6943778971
 40
0.7255137508
 40
0.7565215657
 40
0.7873978924
 40
0.818141291
 40
0.8487523792
 40
0.8640109874
 40
0.8792376989
 40
0.9095943014
 40
0.9398327956
 40
0.9549123816
 40
0.9699658496
 40
0.9849945666
 40
1.0
 40
1.0
 40
1.0
 40
1.0
 10
11.562682643
 20
6.792295736
 30
0.0
 10
11.5535739021
 20
6.7929274294
 30
0.0
 10
11.5399204168
 20
6.7943017458
 30
0.0
 10
11.521813388
 20
6.7969717197
 30
0.0
 10
11.5037213509
 20
6.8002081421
 30
0.0
 10
11.4812376041
 20
6.8053021645
 30
0.0
 10
11.4546034875
 20
6.8130565968
 30
0.0
 10
11.4283891415
 20
6.8224290332
 30
0.0
 10
11.4026968415
 20
6.8333829152
 30
0.0
 10
11.3776260535
 20
6.8458756724
 30
0.0
 10
11.3532740341
 20
6.8598587603
 30
0.0
 10
11.3297351918
 20
6.8752778772
 30
0.0
 10
11.3071007962
 20
6.8920731686
 30
0.0
 10
11.2854586074
 20
6.9101794592
 30
0.0
 10
11.2648925443
 20
6.9295265043
 30
0.0
 10
11.2454823601
 20
6.9500392605
 30
0.0
 10
11.2273033354
 20
6.9716381749
 30
0.0
 10
11.2104259889
 20
6.9942394915
 30
0.0
 10
11.194915805
 20
7.0177555732
 30
0.0
 10
11.1808329816
 20
7.0420952391
 30
0.0
 10
11.1682321977
 20
7.0671641152
 30
0.0
 10
11.1571624021
 20
7.092864997
 30
0.0
 10
11.1476666236
 20
7.1190982227
 30
0.0
 10
11.1397818036
 20
7.1457620573
 30
0.0
 10
11.133538651
 20
7.1727530777
 30
0.0
 10
11.1289615253
 20
7.1999665917
 30
0.0
 10
11.1260683267
 20
7.2272969595
 30
0.0
 10
11.124870471
 20
7.2546382988
 30
0.0
 10
11.1253726643
 20
7.2818837835
 30
0.0
 10
11.1272087157
 20
7.30444692
 30
0.0
 10
11.1295246873
 20
7.3223400993
 30
0.0
 10
11.1323960402
 20
7.340076508
 30
0.0
 10
11.1370295024
 20
7.3619961219
 30
0.0
 10
11.1430516696
 20
7.3835308692
 30
0.0
 10
11.1486826848
 20
7.4004466517
 30
0.0
 10
11.1533046083
 20
7.4129575257
 30
0.0
 10
11.1583239703
 20
7.425290389
 30
0.0
 10
11.1619349103
 20
7.4333921322
 30
0.0
 10
11.1638048397
 20
7.4374088229
 30
0.0
  0
SPLINE
  5
445
100
AcDbEntity
  8
0
100
AcDbSpline
 62
7
  6
CONTINUOUS
 70
0
 71
3
 72
71
 73
67
 74
0
 42
0.0000001
 43
0.0000001
 44
0.0000000001
 40
0.0
 40
0.0
 40
0.0
 40
0.0
 40
0.0156747833
 40
0.0314021865
 40
0.047180646
 40
0.0630088943
 40
0.0788847428
 40
0.0948057522
 40
0.1107690081
 40
0.1267712319
 40
0.1428087904
 40
0.1588777355
 40
0.1749738412
 40
0.1910926417
 40
0.2072294723
 40
0.2233795101
 40
0.2395378174
 40
0.255699384
 40
0.2718591712
 40
0.2880121559
 40
0.3041533744
 40
0.3202779656
 40
0.3363812139
 40
0.352458591
 40
0.3685057963
 40
0.3845187962
 40
0.4004938618
 40
0.416427604
 40
0.4323170075
 40
0.4481594604
 40
0.4639527817
 40
0.4796952457
 40
0.4953856017
 40
0.5110230907
 40
0.5266074578
 40
0.5421389598
 40
0.557618368
 40
0.5730469658
 40
0.588426541
 40
0.6037593729
 40
0.6190482136
 40
0.6342962645
 40
0.6495071467
 40
0.6646848675
 40
0.6798337809
 40
0.6949585438
 40
0.7100640688
 40
0.7251554727
 40
0.7402380227
 40
0.7553170805
 40
0.7703980452
 40
0.7854862953
 40
0.8005871318
 40
0.8157057211
 40
0.8308470414
 40
0.8460158297
 40
0.8612165339
 40
0.8764532676
 40
0.8917297692
 40
0.9070493661
 40
0.9224149487
 40
0.9378289227
 40
0.9532932705
 40
0.9688092857
 40
0.9843782115
 40
1.0
 40
1.0
 40
1.0
 40
1.0
 10
9.8873273401
 20
9.8016946958
 30
0.0
 10
9.8957963686
 20
9.8011073666
 30
0.0
 10
9.9127369148
 20
9.7995152795
 30
0.0
 10
9.9380410227
 20
9.7958918261
 30
0.0
 10
9.9632232767
 20
9.791037458
 30
0.0
 10
9.988222122
 20
9.784964139
 30
0.0
 10
10.0129776911
 20
9.7776864077
 30
0.0
 10
10.037430289
 20
9.7692219006
 30
0.0
 10
10.0615210832
 20
9.7595910068
 30
0.0
 10
10.0851920788
 20
9.748816958
 30
0.0
 10
10.1083863017
 20
9.7369257175
 30
0.0
 10
10.1310479289
 20
9.7239459447
 30
0.0
 10
10.1531224211
 20
9.7099089121
 30
0.0
 10
10.1745566523
 20
9.6948484307
 30
0.0
 10
10.1952990366
 20
9.6788007695
 30
0.0
 10
10.2152996521
 20
9.6618045681
 30
0.0
 10
10.2345103592
 20
9.6439007444
 30
0.0
 10
10.2528849165
 20
9.6251323967
 30
0.0
 10
10.270379091
 20
9.605544701
 30
0.0
 10
10.2869507719
 20
9.5851848082
 30
0.0
 10
10.3025600649
 20
9.5641017243
 30
0.0
 10
10.3171693873
 20
9.5423461934
 30
0.0
 10
10.3307435585
 20
9.5199705761
 30
0.0
 10
10.3432498836
 20
9.4970287243
 30
0.0
 10
10.3546582323
 20
9.473575853
 30
0.0
 10
10.3649411108
 20
9.4496684082
 30
0.0
 10
10.3740737281
 20
9.4253639319
 30
0.0
 10
10.3820340653
 20
9.4007209277
 30
0.0
 10
10.3888029195
 20
9.3757987162
 30
0.0
 10
10.3943639505
 20
9.3506572936
 30
0.0
 10
10.3987037205
 20
9.3253571885
 30
0.0
 10
10.4018117266
 20
9.2999593174
 30
0.0
 10
10.4036804268
 20
9.2745248389
 30
0.0
 10
10.4043052594
 20
9.249115008
 30
0.0
 10
10.4036846549
 20
9.2237910292
 30
0.0
 10
10.4018200508
 20
9.1986139088
 30
0.0
 10
10.3987158798
 20
9.173644308
 30
0.0
 10
10.3943795601
 20
9.1489423971
 30
0.0
 10
10.3888214797
 20
9.1245677113
 30
0.0
 10
10.3820549723
 20
9.100579007
 30
0.0
 10
10.3740962871
 20
9.0770341202
 30
0.0
 10
10.3649645514
 20
9.0539898269
 30
0.0
 10
10.3546817261
 20
9.0315017048
 30
0.0
 10
10.343272563
 20
9.0096239939
 30
0.0
 10
10.3307645364
 20
8.988409467
 30
0.0
 10
10.3171877778
 20
8.9679093016
 30
0.0
 10
10.3025750039
 20
8.9481729548
 30
0.0
 10
10.2869614375
 20
8.9292480424
 30
0.0
 10
10.2703847231
 20
8.9111802227
 30
0.0
 10
10.2528848348
 20
8.8940130842
 30
0.0
 10
10.2345039799
 20
8.8777880397
 30
0.0
 10
10.2152865021
 20
8.8625442166
 30
0.0
 10
10.1952787649
 20
8.8483183686
 30
0.0
 10
10.1745290388
 20
8.8351447865
 30
0.0
 10
10.1530873828
 20
8.8230552155
 30
0.0
 10
10.1310055224
 20
8.8120787788
 30
0.0
 10
10.1083367228
 20
8.8022419078
 30
0.0
 10
10.0851356597
 20
8.7935682791
 30
0.0
 10
10.0614582863
 20
8.7860787599
 30
0.0
 10
10.037361697
 20
8.779791343
 30
0.0
 10
10.012903998
 20
8.7747211331
 30
0.0
 10
9.9881441151
 20
8.7708802615
 30
0.0
 10
9.963141831
 20
8.7682779766
 30
0.0
 10
9.9379570686
 20
8.7669203939
 30
0.0
 10
9.9126514377
 20
8.7668108172
 30
0.0
 10
9.8957677357
 20
8.767568657
 30
0.0
 10
9.8873273401
 20
8.7681540004
 30
0.0
  0
SPLINE
  5
446
100
AcDbEntity
  8
0
100
AcDbSpline
 62
7
  6
CONTINUOUS
 70
0
 71
3
 72
71
 73
67
 74
0
 42
0.0000001
 43
0.0000001
 44
0.0000000001
 40
0.0
 40
0.0
 40
0.0
 40
0.0
 40
0.0156747833
 40
0.0314021865
 40
0.047180646
 40
0.0630088943
 40
0.0788847428
 40
0.0948057522
 40
0.1107690081
 40
0.1267712319
 40
0.1428087904
 40
0.1588777355
 40
0.1749738412
 40
0.1910926417
 40
0.2072294723
 40
0.2233795101
 40
0.2395378174
 40
0.255699384
 40
0.2718591712
 40
0.2880121559
 40
0.3041533744
 40
0.3202779656
 40
0.3363812139
 40
0.352458591
 40
0.3685057963
 40
0.3845187962
 40
0.4004938618
 40
0.416427604
 40
0.4323170075
 40
0.4481594604
 40
0.4639527817
 40
0.4796952457
 40
0.4953856017
 40
0.5110230907
 40
0.5266074578
 40
0.5421389598
 40
0.557618368
 40
0.5730469658
 40
0.588426541
 40
0.6037593729
 40
0.6190482136
 40
0.6342962645
 40
0.6495071467
 40
0.6646848675
 40
0.6798337809
 40
0.6949585438
 40
0.7100640688
 40
0.7251554727
 40
0.7402380227
 40
0.7553170805
 40
0.7703980452
 40
0.7854862953
 40
0.8005871318
 40
0.8157057211
 40
0.8308470414
 40
0.8460158297
 40
0.8612165339
 40
0.8764532676
 40
0.8917297692
 40
0.9070493661
 40
0.9224149487
 40
0.9378289227
 40
0.9532932705
 40
0.9688092857
 40
0.9843782115
 40
1.0
 40
1.0
 40
1.0
 40
1.0
 10
11.3362161654
 20
8.3064168686
 30
0.0
 10
11.3277471369
 20
8.3070041978
 30
0.0
 10
11.3108065907
 20
8.3085962849
 30
0.0
 10
11.2855024828
 20
8.3122197383
 30
0.0
 10
11.2603202288
 20
8.3170741063
 30
0.0
 10
11.2353213835
 20
8.3231474254
 30
0.0
 10
11.2105658143
 20
8.3304251567
 30
0.0
 10
11.1861132165
 20
8.3388896638
 30
0.0
 10
11.1620224223
 20
8.3485205576
 30
0.0
 10
11.1383514267
 20
8.3592946063
 30
0.0
 10
11.1151572038
 20
8.3711858469
 30
0.0
 10
11.0924955766
 20
8.3841656197
 30
0.0
 10
11.0704210844
 20
8.3982026523
 30
0.0
 10
11.0489868532
 20
8.4132631337
 30
0.0
 10
11.0282444688
 20
8.4293107949
 30
0.0
 10
11.0082438534
 20
8.4463069963
 30
0.0
 10
10.9890331463
 20
8.46421082
 30
0.0
 10
10.970658589
 20
8.4829791676
 30
0.0
 10
10.9531644145
 20
8.5025668634
 30
0.0
 10
10.9365927335
 20
8.5229267562
 30
0.0
 10
10.9209834406
 20
8.54400984
 30
0.0
 10
10.9063741182
 20
8.5657653709
 30
0.0
 10
10.892799947
 20
8.5881409883
 30
0.0
 10
10.8802936219
 20
8.6110828401
 30
0.0
 10
10.8688852732
 20
8.6345357114
 30
0.0
 10
10.8586023947
 20
8.6584431562
 30
0.0
 10
10.8494697773
 20
8.6827476325
 30
0.0
 10
10.8415094402
 20
8.7073906367
 30
0.0
 10
10.834740586
 20
8.7323128482
 30
0.0
 10
10.8291795549
 20
8.7574542707
 30
0.0
 10
10.824839785
 20
8.7827543758
 30
0.0
 10
10.8217317789
 20
8.808152247
 30
0.0
 10
10.8198630787
 20
8.8335867255
 30
0.0
 10
10.819238246
 20
8.8589965564
 30
0.0
 10
10.8198588506
 20
8.8843205352
 30
0.0
 10
10.8217234547
 20
8.9094976556
 30
0.0
 10
10.8248276257
 20
8.9344672564
 30
0.0
 10
10.8291639453
 20
8.9591691672
 30
0.0
 10
10.8347220257
 20
8.9835438531
 30
0.0
 10
10.8414885332
 20
9.0075325574
 30
0.0
 10
10.8494472184
 20
9.0310774441
 30
0.0
 10
10.858578954
 20
9.0541217375
 30
0.0
 10
10.8688617793
 20
9.0766098596
 30
0.0
 10
10.8802709425
 20
9.0984875705
 30
0.0
 10
10.8927789691
 20
9.1197020974
 30
0.0
 10
10.9063557277
 20
9.1402022628
 30
0.0
 10
10.9209685016
 20
9.1599386096
 30
0.0
 10
10.936582068
 20
9.1788635219
 30
0.0
 10
10.9531587824
 20
9.1969313417
 30
0.0
 10
10.9706586707
 20
9.2140984802
 30
0.0
 10
10.9890395255
 20
9.2303235247
 30
0.0
 10
11.0082570034
 20
9.2455673478
 30
0.0
 10
11.0282647406
 20
9.2597931958
 30
0.0
 10
11.0490144667
 20
9.2729667779
 30
0.0
 10
11.0704561227
 20
9.2850563489
 30
0.0
 10
11.0925379831
 20
9.2960327856
 30
0.0
 10
11.1152067826
 20
9.3058696566
 30
0.0
 10
11.1384078458
 20
9.3145432853
 30
0.0
 10
11.1620852192
 20
9.3220328045
 30
0.0
 10
11.1861818085
 20
9.3283202213
 30
0.0
 10
11.2106395075
 20
9.3333904313
 30
0.0
 10
11.2353993904
 20
9.3372313029
 30
0.0
 10
11.2604016745
 20
9.3398335878
 30
0.0
 10
11.2855864369
 20
9.3411911705
 30
0.0
 10
11.3108920678
 20
9.3413007472
 30
0.0
 10
11.3277757698
 20
9.3405429074
 30
0.0
 10
11.3362161654
 20
9.339957564
 30
0.0
  0
SPLINE
  5
447
100
AcDbEntity
  8
0
100
AcDbSpline
 62
7
  6
CONTINUOUS
 70
0
 71
3
 72
71
 73
67
 74
0
 42
0.0000001
 43
0.0000001
 44
0.0000000001
 40
0.0
 40
0.0
 40
0.0
 40
0.0
 40
0.0156747833
 40
0.0314021865
 40
0.047180646
 40
0.0630088943
 40
0.0788847428
 40
0.0948057522
 40
0.1107690081
 40
0.1267712319
 40
0.1428087904
 40
0.1588777355
 40
0.1749738412
 40
0.1910926417
 40
0.2072294723
 40
0.2233795101
 40
0.2395378174
 40
0.255699384
 40
0.2718591712
 40
0.2880121559
 40
0.3041533744
 40
0.3202779656
 40
0.3363812139
 40
0.352458591
 40
0.3685057963
 40
0.3845187962
 40
0.4004938618
 40
0.416427604
 40
0.4323170075
 40
0.4481594604
 40
0.4639527817
 40
0.4796952457
 40
0.4953856017
 40
0.5110230907
 40
0.5266074578
 40
0.5421389598
 40
0.557618368
 40
0.5730469658
 40
0.588426541
 40
0.6037593729
 40
0.6190482136
 40
0.6342962645
 40
0.6495071467
 40
0.6646848675
 40
0.6798337809
 40
0.6949585438
 40
0.7100640688
 40
0.7251554727
 40
0.7402380227
 40
0.7553170805
 40
0.7703980452
 40
0.7854862953
 40
0.8005871318
 40
0.8157057211
 40
0.8308470414
 40
0.8460158297
 40
0.8612165339
 40
0.8764532676
 40
0.8917297692
 40
0.9070493661
 40
0.9224149487
 40
0.9378289227
 40
0.9532932705
 40
0.9688092857
 40
0.9843782115
 40
1.0
 40
1.0
 40
1.0
 40
1.0
 10
11.3362161654
 20
9.339957564
 30
0.0
 10
11.3446851939
 20
9.3393702349
 30
0.0
 10
11.3616257401
 20
9.3377781478
 30
0.0
 10
11.386929848
 20
9.3341546943
 30
0.0
 10
11.412112102
 20
9.3293003263
 30
0.0
 10
11.4371109473
 20
9.3232270072
 30
0.0
 10
11.4618665164
 20
9.315949276
 30
0.0
 10
11.4863191143
 20
9.3074847688
 30
0.0
 10
11.5104099085
 20
9.297853875
 30
0.0
 10
11.5340809041
 20
9.2870798263
 30
0.0
 10
11.5572751269
 20
9.2751885857
 30
0.0
 10
11.5799367542
 20
9.262208813
 30
0.0
 10
11.6020112464
 20
9.2481717803
 30
0.0
 10
11.6234454775
 20
9.233111299
 30
0.0
 10
11.6441878619
 20
9.2170636378
 30
0.0
 10
11.6641884773
 20
9.2000674363
 30
0.0
 10
11.6833991844
 20
9.1821636126
 30
0.0
 10
11.7017737417
 20
9.163395265
 30
0.0
 10
11.7192679163
 20
9.1438075693
 30
0.0
 10
11.7358395972
 20
9.1234476764
 30
0.0
 10
11.7514488902
 20
9.1023645926
 30
0.0
 10
11.7660582126
 20
9.0806090617
 30
0.0
 10
11.7796323837
 20
9.0582334443
 30
0.0
 10
11.7921387089
 20
9.0352915925
 30
0.0
 10
11.8035470576
 20
9.0118387212
 30
0.0
 10
11.8138299361
 20
8.9879312764
 30
0.0
 10
11.8229625534
 20
8.9636268002
 30
0.0
 10
11.8309228906
 20
8.938983796
 30
0.0
 10
11.8376917448
 20
8.9140615845
 30
0.0
 10
11.8432527758
 20
8.8889201619
 30
0.0
 10
11.8475925458
 20
8.8636200568
 30
0.0
 10
11.8507005518
 20
8.8382221856
 30
0.0
 10
11.8525692521
 20
8.8127877071
 30
0.0
 10
11.8531940847
 20
8.7873778762
 30
0.0
 10
11.8525734802
 20
8.7620538974
 30
0.0
 10
11.8507088761
 20
8.7368767771
 30
0.0
 10
11.847604705
 20
8.7119071763
 30
0.0
 10
11.8432683854
 20
8.6872052654
 30
0.0
 10
11.837710305
 20
8.6628305796
 30
0.0
 10
11.8309437976
 20
8.6388418752
 30
0.0
 10
11.8229851124
 20
8.6152969885
 30
0.0
 10
11.8138533767
 20
8.5922526951
 30
0.0
 10
11.8035705514
 20
8.5697645731
 30
0.0
 10
11.7921613883
 20
8.5478868621
 30
0.0
 10
11.7796533616
 20
8.5266723352
 30
0.0
 10
11.7660766031
 20
8.5061721698
 30
0.0
 10
11.7514638291
 20
8.486435823
 30
0.0
 10
11.7358502628
 20
8.4675109107
 30
0.0
 10
11.7192735484
 20
8.4494430909
 30
0.0
 10
11.7017736601
 20
8.4322759524
 30
0.0
 10
11.6833928052
 20
8.4160509079
 30
0.0
 10
11.6641753274
 20
8.4008070849
 30
0.0
 10
11.6441675902
 20
8.3865812369
 30
0.0
 10
11.6234178641
 20
8.3734076548
 30
0.0
 10
11.6019762081
 20
8.3613180837
 30
0.0
 10
11.5798943477
 20
8.350341647
 30
0.0
 10
11.5572255481
 20
8.340504776
 30
0.0
 10
11.534024485
 20
8.3318311474
 30
0.0
 10
11.5103471115
 20
8.3243416281
 30
0.0
 10
11.4862505223
 20
8.3180542113
 30
0.0
 10
11.4617928233
 20
8.3129840014
 30
0.0
 10
11.4370329404
 20
8.3091431297
 30
0.0
 10
11.4120306563
 20
8.3065408448
 30
0.0
 10
11.3868458939
 20
8.3051832622
 30
0.0
 10
11.361540263
 20
8.3050736855
 30
0.0
 10
11.344656561
 20
8.3058315252
 30
0.0
 10
11.3362161654
 20
8.3064168686
 30
0.0
  0
SPLINE
  5
448
100
AcDbEntity
  8
0
100
AcDbSpline
 62
7
  6
CONTINUOUS
 70
0
 71
3
 72
23
 73
19
 74
0
 42
0.0000001
 43
0.0000001
 44
0.0000000001
 40
0.0
 40
0.0
 40
0.0
 40
0.0
 40
0.0638617654
 40
0.1275030803
 40
0.1909230764
 40
0.2541276764
 40
0.317122389
 40
0.3799159305
 40
0.4425188195
 40
0.5049436701
 40
0.5672049961
 40
0.6293190749
 40
0.6913037887
 40
0.7531784352
 40
0.8149635246
 40
0.8766805577
 40
0.9383517929
 40
1.0
 40
1.0
 40
1.0
 40
1.0
 10
11.3574393096
 20
6.5940458879
 30
0.0
 10
11.3647434106
 20
6.5935393468
 30
0.0
 10
11.379354293
 20
6.5928913942
 30
0.0
 10
11.4012517598
 20
6.5930218944
 30
0.0
 10
11.4230399956
 20
6.5942562376
 30
0.0
 10
11.4446632749
 20
6.5965912387
 30
0.0
 10
11.4660674979
 20
6.6000211969
 30
0.0
 10
11.4871986615
 20
6.6045374752
 30
0.0
 10
11.508003582
 20
6.6101287953
 30
0.0
 10
11.5284298489
 20
6.6167811235
 30
0.0
 10
11.5484260106
 20
6.6244777506
 30
0.0
 10
11.56794169
 20
6.6331993358
 30
0.0
 10
11.5869277101
 20
6.6429239476
 30
0.0
 10
11.605336236
 20
6.6536271372
 30
0.0
 10
11.6231208299
 20
6.6652819326
 30
0.0
 10
11.640236818
 20
6.677859149
 30
0.0
 10
11.6566404896
 20
6.6913265427
 30
0.0
 10
11.6670759196
 20
6.7008776282
 30
0.0
 10
11.6721595148
 20
6.7057880005
 30
0.0
  0
SPLINE
  5
449
100
AcDbEntity
  8
0
100
AcDbSpline
 62
7
  6
CONTINUOUS
 70
0
 71
3
 72
71
 73
67
 74
0
 42
0.0000001
 43
0.0000001
 44
0.0000000001
 40
0.0
 40
0.0
 40
0.0
 40
0.0
 40
0.0156747833
 40
0.0314021865
 40
0.047180646
 40
0.0630088943
 40
0.0788847428
 40
0.0948057522
 40
0.1107690081
 40
0.1267712319
 40
0.1428087904
 40
0.1588777355
 40
0.1749738412
 40
0.1910926417
 40
0.2072294723
 40
0.2233795101
 40
0.2395378174
 40
0.255699384
 40
0.2718591712
 40
0.2880121559
 40
0.3041533744
 40
0.3202779656
 40
0.3363812139
 40
0.352458591
 40
0.3685057963
 40
0.3845187962
 40
0.4004938618
 40
0.416427604
 40
0.4323170075
 40
0.4481594604
 40
0.4639527817
 40
0.4796952457
 40
0.4953856017
 40
0.5110230907
 40
0.5266074578
 40
0.5421389598
 40
0.557618368
 40
0.5730469658
 40
0.588426541
 40
0.6037593729
 40
0.6190482136
 40
0.6342962645
 40
0.6495071467
 40
0.6646848675
 40
0.6798337809
 40
0.6949585438
 40
0.7100640688
 40
0.7251554727
 40
0.7402380227
 40
0.7553170805
 40
0.7703980452
 40
0.7854862953
 40
0.8005871318
 40
0.8157057211
 40
0.8308470414
 40
0.8460158297
 40
0.8612165339
 40
0.8764532676
 40
0.8917297692
 40
0.9070493661
 40
0.9224149487
 40
0.9378289227
 40
0.9532932705
 40
0.9688092857
 40
0.9843782115
 40
1.0
 40
1.0
 40
1.0
 40
1.0
 10
11.3362161654
 20
6.4943399811
 30
0.0
 10
11.3277471369
 20
6.4949273103
 30
0.0
 10
11.3108065907
 20
6.4965193974
 30
0.0
 10
11.2855024828
 20
6.5001428509
 30
0.0
 10
11.2603202288
 20
6.5049972189
 30
0.0
 10
11.2353213835
 20
6.5110705379
 30
0.0
 10
11.2105658143
 20
6.5183482692
 30
0.0
 10
11.1861132165
 20
6.5268127763
 30
0.0
 10
11.1620224223
 20
6.5364436701
 30
0.0
 10
11.1383514267
 20
6.5472177189
 30
0.0
 10
11.1151572038
 20
6.5591089594
 30
0.0
 10
11.0924955766
 20
6.5720887322
 30
0.0
 10
11.0704210844
 20
6.5861257648
 30
0.0
 10
11.0489868532
 20
6.6011862462
 30
0.0
 10
11.0282444688
 20
6.6172339074
 30
0.0
 10
11.0082438534
 20
6.6342301088
 30
0.0
 10
10.9890331463
 20
6.6521339325
 30
0.0
 10
10.970658589
 20
6.6709022802
 30
0.0
 10
10.9531644145
 20
6.6904899759
 30
0.0
 10
10.9365927335
 20
6.7108498687
 30
0.0
 10
10.9209834406
 20
6.7319329526
 30
0.0
 10
10.9063741182
 20
6.7536884835
 30
0.0
 10
10.892799947
 20
6.7760641008
 30
0.0
 10
10.8802936219
 20
6.7990059526
 30
0.0
 10
10.8688852732
 20
6.8224588239
 30
0.0
 10
10.8586023947
 20
6.8463662687
 30
0.0
 10
10.8494697773
 20
6.870670745
 30
0.0
 10
10.8415094402
 20
6.8953137492
 30
0.0
 10
10.834740586
 20
6.9202359607
 30
0.0
 10
10.8291795549
 20
6.9453773833
 30
0.0
 10
10.824839785
 20
6.9706774884
 30
0.0
 10
10.8217317789
 20
6.9960753595
 30
0.0
 10
10.8198630787
 20
7.021509838
 30
0.0
 10
10.819238246
 20
7.0469196689
 30
0.0
 10
10.8198588506
 20
7.0722436477
 30
0.0
 10
10.8217234547
 20
7.0974207681
 30
0.0
 10
10.8248276257
 20
7.1223903689
 30
0.0
 10
10.8291639453
 20
7.1470922798
 30
0.0
 10
10.8347220257
 20
7.1714669656
 30
0.0
 10
10.8414885332
 20
7.1954556699
 30
0.0
 10
10.8494472184
 20
7.2190005567
 30
0.0
 10
10.858578954
 20
7.24204485
 30
0.0
 10
10.8688617793
 20
7.2645329721
 30
0.0
 10
10.8802709425
 20
7.286410683
 30
0.0
 10
10.8927789691
 20
7.3076252099
 30
0.0
 10
10.9063557277
 20
7.3281253753
 30
0.0
 10
10.9209685016
 20
7.3478617221
 30
0.0
 10
10.936582068
 20
7.3667866345
 30
0.0
 10
10.9531587824
 20
7.3848544542
 30
0.0
 10
10.9706586707
 20
7.4020215927
 30
0.0
 10
10.9890395255
 20
7.4182466372
 30
0.0
 10
11.0082570034
 20
7.4334904603
 30
0.0
 10
11.0282647406
 20
7.4477163083
 30
0.0
 10
11.0490144667
 20
7.4608898904
 30
0.0
 10
11.0704561227
 20
7.4729794614
 30
0.0
 10
11.0925379831
 20
7.4839558981
 30
0.0
 10
11.1152067826
 20
7.4937927691
 30
0.0
 10
11.1384078458
 20
7.5024663978
 30
0.0
 10
11.1620852192
 20
7.5099559171
 30
0.0
 10
11.1861818085
 20
7.5162433339
 30
0.0
 10
11.2106395075
 20
7.5213135438
 30
0.0
 10
11.2353993904
 20
7.5251544154
 30
0.0
 10
11.2604016745
 20
7.5277567003
 30
0.0
 10
11.2855864369
 20
7.529114283
 30
0.0
 10
11.3108920678
 20
7.5292238597
 30
0.0
 10
11.3277757698
 20
7.5284660199
 30
0.0
 10
11.3362161654
 20
7.5278806765
 30
0.0
  0
SPLINE
  5
44A
100
AcDbEntity
  8
0
100
AcDbSpline
 62
7
  6
CONTINUOUS
 70
0
 71
3
 72
17
 73
13
 74
0
 42
0.0000001
 43
0.0000001
 44
0.0000000001
 40
0.0
 40
0.0
 40
0.0
 40
0.0
 40
0.12665525
 40
0.252808913
 40
0.3784660144
 40
0.441119042
 40
0.503653149
 40
0.6283622384
 40
0.7526322061
 40
0.8146190124
 40
0.8765083198
 40
1.0
 40
1.0
 40
1.0
 40
1.0
 10
11.562682643
 20
6.792295736
 30
0.0
 10
11.5710184097
 20
6.7917176486
 30
0.0
 10
11.5876938403
 20
6.7910369267
 30
0.0
 10
11.6126716425
 20
6.7914529588
 30
0.0
 10
11.6333728716
 20
6.7929994406
 30
0.0
 10
11.649807919
 20
6.7949542342
 30
0.0
 10
11.6661168634
 20
6.7973802443
 30
0.0
 10
11.6863040459
 20
6.8012990204
 30
0.0
 10
11.7061889336
 20
6.8063973741
 30
0.0
 10
11.7218511451
 20
6.8111695674
 30
0.0
 10
11.7373144941
 20
6.8163913979
 30
0.0
 10
11.748723088
 20
6.8208250114
 30
0.0
 10
11.7562242503
 20
6.824004234
 30
0.0
  0
SPLINE
  5
44B
100
AcDbEntity
  8
0
100
AcDbSpline
 62
4
  6
CONTINUOUS
 70
0
 71
3
 72
295
 73
291
 74
0
 42
0.0000001
 43
0.0000001
 44
0.0000000001
 40
0.0
 40
0.0
 40
0.0
 40
0.0
 40
0.015625
 40
0.0234375
 40
0.03125
 40
0.0390625
 40
0.046875
 40
0.05078125
 40
0.0546875
 40
0.056640625
 40
0.05859375
 40
0.060546875
 40
0.0615234375
 40
0.0620117188
 40
0.0625
 40
0.0629882812
 40
0.0634765625
 40
0.064453125
 40
0.06640625
 40
0.068359375
 40
0.0703125
 40
0.07421875
 40
0.078125
 40
0.0859375
 40
0.09375
 40
0.1015625
 40
0.109375
 40
0.11328125
 40
0.1171875
 40
0.119140625
 40
0.12109375
 40
0.123046875
 40
0.1240234375
 40
0.1245117188
 40
0.125
 40
0.1254882812
 40
0.1259765625
 40
0.126953125
 40
0.12890625
 40
0.130859375
 40
0.1328125
 40
0.13671875
 40
0.140625
 40
0.1484375
 40
0.15625
 40
0.1640625
 40
0.171875
 40
0.17578125
 40
0.1796875
 40
0.181640625
 40
0.18359375
 40
0.185546875
 40
0.1865234375
 40
0.1870117188
 40
0.1875
 40
0.1879882812
 40
0.1884765625
 40
0.189453125
 40
0.19140625
 40
0.193359375
 40
0.1953125
 40
0.19921875
 40
0.203125
 40
0.2109375
 40
0.21875
 40
0.2265625
 40
0.234375
 40
0.23828125
 40
0.2421875
 40
0.24609375
 40
0.248046875
 40
0.2490234375
 40
0.25
 40
0.2509765625
 40
0.251953125
 40
0.25390625
 40
0.2578125
 40
0.26171875
 40
0.265625
 40
0.2734375
 40
0.28125
 40
0.2890625
 40
0.296875
 40
0.30078125
 40
0.3046875
 40
0.30859375
 40
0.310546875
 40
0.3115234375
 40
0.3125
 40
0.3134765625
 40
0.314453125
 40
0.31640625
 40
0.3203125
 40
0.32421875
 40
0.328125
 40
0.3359375
 40
0.34375
 40
0.3515625
 40
0.359375
 40
0.36328125
 40
0.3671875
 40
0.37109375
 40
0.373046875
 40
0.3740234375
 40
0.375
 40
0.3759765625
 40
0.376953125
 40
0.37890625
 40
0.3828125
 40
0.38671875
 40
0.390625
 40
0.3984375
 40
0.40625
 40
0.4140625
 40
0.421875
 40
0.42578125
 40
0.4296875
 40
0.43359375
 40
0.435546875
 40
0.4375
 40
0.439453125
 40
0.44140625
 40
0.4453125
 40
0.44921875
 40
0.453125
 40
0.4609375
 40
0.46875
 40
0.4765625
 40
0.484375
 40
0.48828125
 40
0.4921875
 40
0.49609375
 40
0.498046875
 40
0.4990234375
 40
0.5
 40
0.5009765625
 40
0.501953125
 40
0.50390625
 40
0.5078125
 40
0.51171875
 40
0.515625
 40
0.5234375
 40
0.53125
 40
0.5390625
 40
0.546875
 40
0.55078125
 40
0.5546875
 40
0.556640625
 40
0.55859375
 40
0.560546875
 40
0.5615234375
 40
0.5625
 40
0.5634765625
 40
0.564453125
 40
0.56640625
 40
0.568359375
 40
0.5703125
 40
0.57421875
 40
0.578125
 40
0.5859375
 40
0.59375
 40
0.6015625
 40
0.609375
 40
0.61328125
 40
0.6171875
 40
0.619140625
 40
0.62109375
 40
0.623046875
 40
0.6240234375
 40
0.6245117188
 40
0.625
 40
0.6254882812
 40
0.6259765625
 40
0.626953125
 40
0.62890625
 40
0.630859375
 40
0.6328125
 40
0.63671875
 40
0.640625
 40
0.6484375
 40
0.65625
 40
0.6640625
 40
0.671875
 40
0.67578125
 40
0.6796875
 40
0.681640625
 40
0.68359375
 40
0.685546875
 40
0.6865234375
 40
0.6870117188
 40
0.6875
 40
0.6879882812
 40
0.6884765625
 40
0.689453125
 40
0.69140625
 40
0.693359375
 40
0.6953125
 40
0.69921875
 40
0.703125
 40
0.7109375
 40
0.71875
 40
0.7265625
 40
0.734375
 40
0.73828125
 40
0.7421875
 40
0.744140625
 40
0.74609375
 40
0.748046875
 40
0.7490234375
 40
0.7495117188
 40
0.75
 40
0.7504882812
 40
0.7509765625
 40
0.751953125
 40
0.75390625
 40
0.755859375
 40
0.7578125
 40
0.76171875
 40
0.765625
 40
0.7734375
 40
0.78125
 40
0.7890625
 40
0.796875
 40
0.80078125
 40
0.8046875
 40
0.806640625
 40
0.80859375
 40
0.810546875
 40
0.8115234375
 40
0.8120117188
 40
0.8125
 40
0.8129882812
 40
0.8134765625
 40
0.814453125
 40
0.81640625
 40
0.818359375
 40
0.8203125
 40
0.82421875
 40
0.828125
 40
0.8359375
 40
0.84375
 40
0.8515625
 40
0.85546875
 40
0.859375
 40
0.86328125
 40
0.8671875
 40
0.869140625
 40
0.87109375
 40
0.873046875
 40
0.8740234375
 40
0.8745117188
 40
0.875
 40
0.8754882812
 40
0.8759765625
 40
0.876953125
 40
0.87890625
 40
0.880859375
 40
0.8828125
 40
0.88671875
 40
0.890625
 40
0.89453125
 40
0.8984375
 40
0.90625
 40
0.9140625
 40
0.91796875
 40
0.921875
 40
0.92578125
 40
0.9296875
 40
0.931640625
 40
0.93359375
 40
0.9345703125
 40
0.935546875
 40
0.9365234375
 40
0.9370117188
 40
0.9375
 40
0.9379882812
 40
0.9384765625
 40
0.939453125
 40
0.9404296875
 40
0.94140625
 40
0.943359375
 40
0.9453125
 40
0.94921875
 40
0.953125
 40
0.95703125
 40
0.9609375
 40
0.96875
 40
0.9765625
 40
0.984375
 40
1.0
 40
1.0
 40
1.0
 40
1.0
 10
12.3841841174
 20
7.7439688233
 30
0.0
 10
12.3850236516
 20
7.7450869628
 30
0.0
 10
12.3862829528
 20
7.7467641717
 30
0.0
 10
12.3879620211
 20
7.7490004512
 30
0.0
 10
12.3892213225
 20
7.7506776585
 30
0.0
 10
12.3904806233
 20
7.7523548747
 30
0.0
 10
12.3915300422
 20
7.7537525272
 30
0.0
 10
12.3923695739
 20
7.754870711
 30
0.0
 10
12.3928942891
 20
7.7555694353
 30
0.0
 10
12.3933140432
 20
7.7561287367
 30
0.0
 10
12.3936289081
 20
7.7565473313
 30
0.0
 10
12.3938911387
 20
7.756898964
 30
0.0
 10
12.3940750078
 20
7.7571396044
 30
0.0
 10
12.3941795954
 20
7.7572857049
 30
0.0
 10
12.3942593896
 20
7.7573710774
 30
0.0
 10
12.3943340102
 20
7.7575489654
 30
0.0
 10
12.3944353089
 20
7.757753879
 30
0.0
 10
12.3946117409
 20
7.7581275133
 30
0.0
 10
12.3948642261
 20
7.7586534157
 30
0.0
 10
12.3951670203
 20
7.7592878634
 30
0.0
 10
12.3955708115
 20
7.7601326183
 30
0.0
 10
12.3960755281
 20
7.7611889644
 30
0.0
 10
12.3968830871
 20
7.7628788932
 30
0.0
 10
12.3978925315
 20
7.7649913818
 30
0.0
 10
12.399103867
 20
7.7675263329
 30
0.0
 10
12.400315201
 20
7.7700613008
 30
0.0
 10
12.4013246491
 20
7.7721737475
 30
0.0
 10
12.4021322008
 20
7.7738637601
 30
0.0
 10
12.402636936
 20
7.7749198932
 30
0.0
 10
12.4030406889
 20
7.7757650854
 30
0.0
 10
12.4033436002
 20
7.7763981973
 30
0.0
 10
12.4035957188
 20
7.7769282788
 30
0.0
 10
12.4037728054
 20
7.7772944528
 30
0.0
 10
12.4038730552
 20
7.7775113196
 30
0.0
 10
12.4039508978
 20
7.7776524913
 30
0.0
 10
12.4040185904
 20
7.7778757642
 30
0.0
 10
12.4041123876
 20
7.7781448236
 30
0.0
 10
12.4042748832
 20
7.7786290205
 30
0.0
 10
12.4045078822
 20
7.7793137545
 30
0.0
 10
12.4047871118
 20
7.7801384211
 30
0.0
 10
12.405159547
 20
7.7812369337
 30
0.0
 10
12.4056250467
 20
7.7826104316
 30
0.0
 10
12.406369871
 20
7.7848078286
 30
0.0
 10
12.4073008928
 20
7.7875546437
 30
0.0
 10
12.4084181229
 20
7.7908507905
 30
0.0
 10
12.4095353508
 20
7.7941469526
 30
0.0
 10
12.4104663781
 20
7.7968937296
 30
0.0
 10
12.4112111913
 20
7.7990912028
 30
0.0
 10
12.4116767193
 20
7.800464507
 30
0.0
 10
12.4120490964
 20
7.8015634171
 30
0.0
 10
12.4123285032
 20
7.8023868694
 30
0.0
 10
12.4125609479
 20
7.8030754029
 30
0.0
 10
12.412724433
 20
7.8035528169
 30
0.0
 10
12.4128166447
 20
7.8038327441
 30
0.0
 10
12.4128892073
 20
7.8040226346
 30
0.0
 10
12.412948759
 20
7.8042891852
 30
0.0
 10
12.4130326996
 20
7.8046178462
 30
0.0
 10
12.4131774811
 20
7.8052054614
 30
0.0
 10
12.4133854173
 20
7.8060383983
 30
0.0
 10
12.4136344675
 20
7.8070407105
 30
0.0
 10
12.4139666998
 20
7.8083761529
 30
0.0
 10
12.4143819336
 20
7.8100457895
 30
0.0
 10
12.4150463393
 20
7.8127170213
 30
0.0
 10
12.4158768345
 20
7.8160561277
 30
0.0
 10
12.416873439
 20
7.8200630156
 30
0.0
 10
12.4178700214
 20
7.824069956
 30
0.0
 10
12.418700572
 20
7.8274089309
 30
0.0
 10
12.4193648668
 20
7.8300804257
 30
0.0
 10
12.4198634856
 20
7.8320831876
 30
0.0
 10
12.4202777365
 20
7.8337548885
 30
0.0
 10
12.4205701941
 20
7.8349197165
 30
0.0
 10
12.4207334374
 20
7.8355937057
 30
0.0
 10
12.4208667868
 20
7.8360756101
 30
0.0
 10
12.420958406
 20
7.8366476783
 30
0.0
 10
12.421095121
 20
7.8373789858
 30
0.0
 10
12.4213275902
 20
7.8386734271
 30
0.0
 10
12.4216632348
 20
7.840514968
 30
0.0
 10
12.4220644905
 20
7.8427280963
 30
0.0
 10
12.4226000286
 20
7.8456777884
 30
0.0
 10
12.4232692679
 20
7.8493652985
 30
0.0
 10
12.4240724391
 20
7.8537901328
 30
0.0
 10
12.4248755672
 20
7.8582150464
 30
0.0
 10
12.4255449144
 20
7.8619023584
 30
0.0
 10
12.4260802367
 20
7.8648524467
 30
0.0
 10
12.4264821504
 20
7.8670643663
 30
0.0
 10
12.4268157368
 20
7.8689096887
 30
0.0
 10
12.4270518801
 20
7.8701973795
 30
0.0
 10
12.4271827082
 20
7.8709395029
 30
0.0
 10
12.42729241
 20
7.8714783482
 30
0.0
 10
12.4273578441
 20
7.8720850323
 30
0.0
 10
12.4274605307
 20
7.8728702816
 30
0.0
 10
12.4276330378
 20
7.8742554928
 30
0.0
 10
12.4278832379
 20
7.876228602
 30
0.0
 10
12.428181868
 20
7.8785988002
 30
0.0
 10
12.428580604
 20
7.8817582026
 30
0.0
 10
12.4290788296
 20
7.8857077521
 30
0.0
 10
12.4296767898
 20
7.8904470808
 30
0.0
 10
12.4302747032
 20
7.8951864579
 30
0.0
 10
12.4307730459
 20
7.8991358862
 30
0.0
 10
12.4311715476
 20
7.9022955311
 30
0.0
 10
12.4314708926
 20
7.9046649893
 30
0.0
 10
12.4317188562
 20
7.9066404136
 30
0.0
 10
12.4318953558
 20
7.9080214919
 30
0.0
 10
12.4319916454
 20
7.9088133632
 30
0.0
 10
12.4320767287
 20
7.9093997068
 30
0.0
 10
12.4321126313
 20
7.9100149479
 30
0.0
 10
12.4321776562
 20
7.9108251896
 30
0.0
 10
12.432283457
 20
7.912247809
 30
0.0
 10
12.4324387797
 20
7.9142776671
 30
0.0
 10
12.4326233784
 20
7.9167145478
 30
0.0
 10
12.4328701342
 20
7.9199633549
 30
0.0
 10
12.433178369
 20
7.9240244893
 30
0.0
 10
12.4335483224
 20
7.9288977992
 30
0.0
 10
12.4339183251
 20
7.9337711136
 30
0.0
 10
12.4342264368
 20
7.9378322368
 30
0.0
 10
12.4344734387
 20
7.9410810663
 30
0.0
 10
12.4346572867
 20
7.9435178788
 30
0.0
 10
12.4348149582
 20
7.9455479502
 30
0.0
 10
12.4349310813
 20
7.9471733658
 30
0.0
 10
12.4350455371
 20
7.9483887152
 30
0.0
 10
12.4350555463
 20
7.9496182347
 30
0.0
 10
12.4351053764
 20
7.9512526442
 30
0.0
 10
12.4351551464
 20
7.9532973543
 30
0.0
 10
12.4352202284
 20
7.9557502794
 30
0.0
 10
12.4353051329
 20
7.9590211005
 30
0.0
 10
12.4354119043
 20
7.9631095377
 30
0.0
 10
12.4355397619
 20
7.9680157093
 30
0.0
 10
12.4356676663
 20
7.9729218356
 30
0.0
 10
12.4357743208
 20
7.9770103859
 30
0.0
 10
12.4358594589
 20
7.9802809807
 30
0.0
 10
12.4359238287
 20
7.9827345962
 30
0.0
 10
12.4359758267
 20
7.9847771467
 30
0.0
 10
12.4360154507
 20
7.9862111102
 30
0.0
 10
12.4360330569
 20
7.9870239942
 30
0.0
 10
12.4360604481
 20
7.9876520344
 30
0.0
 10
12.4360336112
 20
7.9882098277
 30
0.0
 10
12.4360167441
 20
7.9889780551
 30
0.0
 10
12.4359784136
 20
7.9903110366
 30
0.0
 10
12.4359282632
 20
7.9922212645
 30
0.0
 10
12.4358661106
 20
7.9945109832
 30
0.0
 10
12.4357839294
 20
7.9975648339
 30
0.0
 10
12.4356809668
 20
8.0013818416
 30
0.0
 10
12.4355575112
 20
8.005962379
 30
0.0
 10
12.4354340354
 20
8.0105428931
 30
0.0
 10
12.4353311232
 20
8.0143599588
 30
0.0
 10
12.4352488413
 20
8.0174136936
 30
0.0
 10
12.4351973032
 20
8.019322087
 30
0.0
 10
12.4351563293
 20
8.0208492391
 30
0.0
 10
12.4351248965
 20
8.0219934057
 30
0.0
 10
12.4351009368
 20
8.0229506872
 30
0.0
 10
12.4350767577
 20
8.0237079686
 30
0.0
 10
12.4350723169
 20
8.0242992756
 30
0.0
 10
12.4350156079
 20
8.0248014708
 30
0.0
 10
12.4349582537
 20
8.0255021923
 30
0.0
 10
12.4348802969
 20
8.0263674144
 30
0.0
 10
12.4347894299
 20
8.0274102522
 30
0.0
 10
12.4346673375
 20
8.028799106
 30
0.0
 10
12.4345150426
 20
8.0305357199
 30
0.0
 10
12.4342711916
 20
8.0333139966
 30
0.0
 10
12.4339664392
 20
8.0367869469
 30
0.0
 10
12.4336007106
 20
8.040954444
 30
0.0
 10
12.4332349866
 20
8.0451219473
 30
0.0
 10
12.4329302224
 20
8.0485948823
 30
0.0
 10
12.432686395
 20
8.0513731897
 30
0.0
 10
12.4325340402
 20
8.0531097255
 30
0.0
 10
12.4324120707
 20
8.0544987396
 30
0.0
 10
12.4323208282
 20
8.0555410876
 30
0.0
 10
12.4322440464
 20
8.056407842
 30
0.0
 10
12.4321917638
 20
8.0570182379
 30
0.0
 10
12.4321596011
 20
8.0573613086
 30
0.0
 10
12.4321419215
 20
8.0576347444
 30
0.0
 10
12.4320996158
 20
8.0578465127
 30
0.0
 10
12.4320517981
 20
8.0581503807
 30
0.0
 10
12.431964115
 20
8.0586721276
 30
0.0
 10
12.4318409458
 20
8.0594227201
 30
0.0
 10
12.4316922471
 20
8.0603211883
 30
0.0
 10
12.431494295
 20
8.0615199292
 30
0.0
 10
12.4312467478
 20
8.0630180871
 30
0.0
 10
12.4308507321
 20
8.0654152898
 30
0.0
 10
12.4303556918
 20
8.0684117413
 30
0.0
 10
12.4297616529
 20
8.072007507
 30
0.0
 10
12.4291676094
 20
8.0756032599
 30
0.0
 10
12.4286725807
 20
8.0785997434
 30
0.0
 10
12.4282765418
 20
8.0809968821
 30
0.0
 10
12.4280290538
 20
8.0824952027
 30
0.0
 10
12.4278309801
 20
8.0836936098
 30
0.0
 10
12.4276826527
 20
8.0845930978
 30
0.0
 10
12.4275583219
 20
8.0853404996
 30
0.0
 10
12.4274727124
 20
8.0858679424
 30
0.0
 10
12.4274215723
 20
8.0861626842
 30
0.0
 10
12.4273894719
 20
8.0864024852
 30
0.0
 10
12.427333463
 20
8.0865706347
 30
0.0
 10
12.4272671241
 20
8.086819827
 30
0.0
 10
12.4271471454
 20
8.0872442688
 30
0.0
 10
12.4269777786
 20
8.0878567023
 30
0.0
 10
12.426773669
 20
8.0885890165
 30
0.0
 10
12.4265018266
 20
8.0895663457
 30
0.0
 10
12.4261619195
 20
8.0907876956
 30
0.0
 10
12.4256181264
 20
8.0927420296
 30
0.0
 10
12.4249383649
 20
8.0951848868
 30
0.0
 10
12.4241226601
 20
8.0981163435
 30
0.0
 10
12.4233069514
 20
8.1010477843
 30
0.0
 10
12.4226271999
 20
8.1034906814
 30
0.0
 10
12.4220833869
 20
8.1054449355
 30
0.0
 10
12.4217435303
 20
8.1066664883
 30
0.0
 10
12.4214715842
 20
8.1076434009
 30
0.0
 10
12.4212677912
 20
8.108376988
 30
0.0
 10
12.4210974339
 20
8.108985439
 30
0.0
 10
12.4209792235
 20
8.1094169902
 30
0.0
 10
12.4209100513
 20
8.1096547914
 30
0.0
 10
12.4208627451
 20
8.1098579307
 30
0.0
 10
12.420797959
 20
8.1099663161
 30
0.0
 10
12.4207176746
 20
8.1101438811
 30
0.0
 10
12.4205743362
 20
8.1104392207
 30
0.0
 10
12.4203710523
 20
8.1108691853
 30
0.0
 10
12.4201264759
 20
8.1113816969
 30
0.0
 10
12.419800596
 20
8.1120662492
 30
0.0
 10
12.4193931702
 20
8.1129215274
 30
0.0
 10
12.4187413313
 20
8.114290203
 30
0.0
 10
12.4179265181
 20
8.116000968
 30
0.0
 10
12.4169487489
 20
8.1180539223
 30
0.0
 10
12.4159709765
 20
8.1201068583
 30
0.0
 10
12.415156171
 20
8.1218176692
 30
0.0
 10
12.4145043167
 20
8.1231862529
 30
0.0
 10
12.4140969302
 20
8.1240417649
 30
0.0
 10
12.4137709695
 20
8.1247258373
 30
0.0
 10
12.4135266402
 20
8.125239815
 30
0.0
 10
12.4133225833
 20
8.1256651924
 30
0.0
 10
12.4131806247
 20
8.1259687209
 30
0.0
 10
12.4130981295
 20
8.1261331653
 30
0.0
 10
12.4130401345
 20
8.126281853
 30
0.0
 10
12.4129673221
 20
8.1263336234
 30
0.0
 10
12.4128754073
 20
8.1264364564
 30
0.0
 10
12.4127121484
 20
8.1266006635
 30
0.0
 10
12.4124801804
 20
8.1268434796
 30
0.0
 10
12.4122012799
 20
8.1271313343
 30
0.0
 10
12.4118296007
 20
8.1275163716
 30
0.0
 10
12.4113649374
 20
8.1279972468
 30
0.0
 10
12.410621512
 20
8.1287668826
 30
0.0
 10
12.409692218
 20
8.1297288466
 30
0.0
 10
12.4085770703
 20
8.1308832375
 30
0.0
 10
12.4076477797
 20
8.1318452241
 30
0.0
 10
12.4069043469
 20
8.1326148102
 30
0.0
 10
12.4063467736
 20
8.1331920129
 30
0.0
 10
12.4057891952
 20
8.1337691648
 30
0.0
 10
12.4053245625
 20
8.134250283
 30
0.0
 10
12.4049528206
 20
8.1346348231
 30
0.0
 10
12.4046741118
 20
8.1349241967
 30
0.0
 10
12.4044415442
 20
8.1351622604
 30
0.0
 10
12.4042793556
 20
8.1353349514
 30
0.0
 10
12.4041857259
 20
8.135424191
 30
0.0
 10
12.4041181814
 20
8.1355177159
 30
0.0
 10
12.4040404009
 20
8.1355095808
 30
0.0
 10
12.403940264
 20
8.1355341942
 30
0.0
 10
12.403763361
 20
8.1355607462
 30
0.0
 10
12.403511512
 20
8.1356073151
 30
0.0
 10
12.403208921
 20
8.1356595007
 30
0.0
 10
12.4028055963
 20
8.1357303729
 30
0.0
 10
12.4023013959
 20
8.13581852
 30
0.0
 10
12.4016963745
 20
8.1359244865
 30
0.0
 10
12.401091348
 20
8.1360304022
 30
0.0
 10
12.4002846478
 20
8.1361716409
 30
0.0
 10
12.3992762719
 20
8.1363481833
 30
0.0
 10
12.3982678962
 20
8.1365247272
 30
0.0
 10
12.3974611957
 20
8.1366659633
 30
0.0
 10
12.3968561701
 20
8.1367718867
 30
0.0
 10
12.3962511455
 20
8.1368778243
 30
0.0
 10
12.3957469551
 20
8.1369660615
 30
0.0
 10
12.39534361
 20
8.13703675
 30
0.0
 10
12.3950915028
 20
8.1370807055
 30
0.0
 10
12.3948898549
 20
8.1371163847
 30
0.0
 10
12.3947385153
 20
8.1371417346
 30
0.0
 10
12.3946127286
 20
8.1371673436
 30
0.0
 10
12.3945113602
 20
8.1371777737
 30
0.0
 10
12.3944373531
 20
8.1372130771
 30
0.0
 10
12.3943556386
 20
8.1371434856
 30
0.0
 10
12.3942493782
 20
8.1370873382
 30
0.0
 10
12.394115629
 20
8.1370045824
 30
0.0
 10
12.3939555254
 20
8.1369106565
 30
0.0
 10
12.3937419157
 20
8.1367835426
 30
0.0
 10
12.393474951
 20
8.1366252936
 30
0.0
 10
12.393047781
 20
8.1363717356
 30
0.0
 10
12.3925138275
 20
8.1360549115
 30
0.0
 10
12.3918730794
 20
8.1356746697
 30
0.0
 10
12.3912323324
 20
8.135294442
 30
0.0
 10
12.3903780027
 20
8.1347874669
 30
0.0
 10
12.3893100907
 20
8.1341537496
 30
0.0
 10
12.3880285962
 20
8.1333932882
 30
0.0
 10
12.386319937
 20
8.1323793399
 30
0.0
 10
12.3850384425
 20
8.1316188786
 30
0.0
 10
12.3841841129
 20
8.1311119044
 30
0.0
  0
SPLINE
  5
44C
100
AcDbEntity
  8
0
100
AcDbSpline
 62
4
  6
CONTINUOUS
 70
0
 71
3
 72
295
 73
291
 74
0
 42
0.0000001
 43
0.0000001
 44
0.0000000001
 40
0.0
 40
0.0
 40
0.0
 40
0.0
 40
0.015625
 40
0.0234375
 40
0.03125
 40
0.0390625
 40
0.046875
 40
0.05078125
 40
0.0546875
 40
0.056640625
 40
0.05859375
 40
0.060546875
 40
0.0615234375
 40
0.0620117188
 40
0.0625
 40
0.0629882812
 40
0.0634765625
 40
0.064453125
 40
0.06640625
 40
0.068359375
 40
0.0703125
 40
0.07421875
 40
0.078125
 40
0.0859375
 40
0.09375
 40
0.1015625
 40
0.109375
 40
0.11328125
 40
0.1171875
 40
0.119140625
 40
0.12109375
 40
0.123046875
 40
0.1240234375
 40
0.1245117188
 40
0.125
 40
0.1254882812
 40
0.1259765625
 40
0.126953125
 40
0.12890625
 40
0.130859375
 40
0.1328125
 40
0.13671875
 40
0.140625
 40
0.1484375
 40
0.15625
 40
0.1640625
 40
0.171875
 40
0.17578125
 40
0.1796875
 40
0.181640625
 40
0.18359375
 40
0.185546875
 40
0.1865234375
 40
0.1870117188
 40
0.1875
 40
0.1879882812
 40
0.1884765625
 40
0.189453125
 40
0.19140625
 40
0.193359375
 40
0.1953125
 40
0.19921875
 40
0.203125
 40
0.2109375
 40
0.21875
 40
0.2265625
 40
0.234375
 40
0.23828125
 40
0.2421875
 40
0.24609375
 40
0.248046875
 40
0.2490234375
 40
0.25
 40
0.2509765625
 40
0.251953125
 40
0.25390625
 40
0.2578125
 40
0.26171875
 40
0.265625
 40
0.2734375
 40
0.28125
 40
0.2890625
 40
0.296875
 40
0.30078125
 40
0.3046875
 40
0.30859375
 40
0.310546875
 40
0.3115234375
 40
0.3125
 40
0.3134765625
 40
0.314453125
 40
0.31640625
 40
0.3203125
 40
0.32421875
 40
0.328125
 40
0.3359375
 40
0.34375
 40
0.3515625
 40
0.359375
 40
0.36328125
 40
0.3671875
 40
0.37109375
 40
0.373046875
 40
0.3740234375
 40
0.375
 40
0.3759765625
 40
0.376953125
 40
0.37890625
 40
0.3828125
 40
0.38671875
 40
0.390625
 40
0.3984375
 40
0.40625
 40
0.4140625
 40
0.421875
 40
0.42578125
 40
0.4296875
 40
0.43359375
 40
0.435546875
 40
0.4375
 40
0.439453125
 40
0.44140625
 40
0.4453125
 40
0.44921875
 40
0.453125
 40
0.4609375
 40
0.46875
 40
0.4765625
 40
0.484375
 40
0.48828125
 40
0.4921875
 40
0.49609375
 40
0.498046875
 40
0.4990234375
 40
0.5
 40
0.5009765625
 40
0.501953125
 40
0.50390625
 40
0.5078125
 40
0.51171875
 40
0.515625
 40
0.5234375
 40
0.53125
 40
0.5390625
 40
0.546875
 40
0.55078125
 40
0.5546875
 40
0.556640625
 40
0.55859375
 40
0.560546875
 40
0.5615234375
 40
0.5625
 40
0.5634765625
 40
0.564453125
 40
0.56640625
 40
0.568359375
 40
0.5703125
 40
0.57421875
 40
0.578125
 40
0.5859375
 40
0.59375
 40
0.6015625
 40
0.609375
 40
0.61328125
 40
0.6171875
 40
0.619140625
 40
0.62109375
 40
0.623046875
 40
0.6240234375
 40
0.6245117188
 40
0.625
 40
0.6254882812
 40
0.6259765625
 40
0.626953125
 40
0.62890625
 40
0.630859375
 40
0.6328125
 40
0.63671875
 40
0.640625
 40
0.6484375
 40
0.65625
 40
0.6640625
 40
0.671875
 40
0.67578125
 40
0.6796875
 40
0.681640625
 40
0.68359375
 40
0.685546875
 40
0.6865234375
 40
0.6870117188
 40
0.6875
 40
0.6879882812
 40
0.6884765625
 40
0.689453125
 40
0.69140625
 40
0.693359375
 40
0.6953125
 40
0.69921875
 40
0.703125
 40
0.7109375
 40
0.71875
 40
0.7265625
 40
0.734375
 40
0.73828125
 40
0.7421875
 40
0.744140625
 40
0.74609375
 40
0.748046875
 40
0.7490234375
 40
0.7495117188
 40
0.75
 40
0.7504882812
 40
0.7509765625
 40
0.751953125
 40
0.75390625
 40
0.755859375
 40
0.7578125
 40
0.76171875
 40
0.765625
 40
0.7734375
 40
0.78125
 40
0.7890625
 40
0.796875
 40
0.80078125
 40
0.8046875
 40
0.806640625
 40
0.80859375
 40
0.810546875
 40
0.8115234375
 40
0.8120117188
 40
0.8125
 40
0.8129882812
 40
0.8134765625
 40
0.814453125
 40
0.81640625
 40
0.818359375
 40
0.8203125
 40
0.82421875
 40
0.828125
 40
0.8359375
 40
0.84375
 40
0.8515625
 40
0.85546875
 40
0.859375
 40
0.86328125
 40
0.8671875
 40
0.869140625
 40
0.87109375
 40
0.873046875
 40
0.8740234375
 40
0.8745117188
 40
0.875
 40
0.8754882812
 40
0.8759765625
 40
0.876953125
 40
0.87890625
 40
0.880859375
 40
0.8828125
 40
0.88671875
 40
0.890625
 40
0.89453125
 40
0.8984375
 40
0.90625
 40
0.9140625
 40
0.91796875
 40
0.921875
 40
0.92578125
 40
0.9296875
 40
0.931640625
 40
0.93359375
 40
0.9345703125
 40
0.935546875
 40
0.9365234375
 40
0.9370117188
 40
0.9375
 40
0.9379882812
 40
0.9384765625
 40
0.939453125
 40
0.9404296875
 40
0.94140625
 40
0.943359375
 40
0.9453125
 40
0.94921875
 40
0.953125
 40
0.95703125
 40
0.9609375
 40
0.96875
 40
0.9765625
 40
0.984375
 40
1.0
 40
1.0
 40
1.0
 40
1.0
 10
12.3841841174
 20
8.1311119088
 30
0.0
 10
12.3833445832
 20
8.1299937694
 30
0.0
 10
12.382085282
 20
8.1283165604
 30
0.0
 10
12.3804062137
 20
8.1260802809
 30
0.0
 10
12.3791469124
 20
8.1244030736
 30
0.0
 10
12.3778876115
 20
8.1227258575
 30
0.0
 10
12.3768381926
 20
8.1213282049
 30
0.0
 10
12.3759986609
 20
8.1202100212
 30
0.0
 10
12.3754739457
 20
8.1195112969
 30
0.0
 10
12.3750541916
 20
8.1189519955
 30
0.0
 10
12.3747393267
 20
8.1185334009
 30
0.0
 10
12.3744770961
 20
8.1181817682
 30
0.0
 10
12.374293227
 20
8.1179411278
 30
0.0
 10
12.3741886394
 20
8.1177950273
 30
0.0
 10
12.3741088452
 20
8.1177096548
 30
0.0
 10
12.3740342246
 20
8.1175317667
 30
0.0
 10
12.3739329259
 20
8.1173268531
 30
0.0
 10
12.3737564939
 20
8.1169532189
 30
0.0
 10
12.3735040087
 20
8.1164273164
 30
0.0
 10
12.3732012145
 20
8.1157928688
 30
0.0
 10
12.3727974233
 20
8.1149481138
 30
0.0
 10
12.3722927068
 20
8.1138917677
 30
0.0
 10
12.3714851477
 20
8.112201839
 30
0.0
 10
12.3704757033
 20
8.1100893503
 30
0.0
 10
12.3692643678
 20
8.1075543992
 30
0.0
 10
12.3680530338
 20
8.1050194314
 30
0.0
 10
12.3670435857
 20
8.1029069846
 30
0.0
 10
12.366236034
 20
8.101216972
 30
0.0
 10
12.3657312988
 20
8.1001608389
 30
0.0
 10
12.3653275459
 20
8.0993156468
 30
0.0
 10
12.3650246346
 20
8.0986825349
 30
0.0
 10
12.3647725161
 20
8.0981524534
 30
0.0
 10
12.3645954294
 20
8.0977862794
 30
0.0
 10
12.3644951797
 20
8.0975694126
 30
0.0
 10
12.364417337
 20
8.0974282409
 30
0.0
 10
12.3643496444
 20
8.0972049679
 30
0.0
 10
12.3642558472
 20
8.0969359085
 30
0.0
 10
12.3640933516
 20
8.0964517117
 30
0.0
 10
12.3638603526
 20
8.0957669777
 30
0.0
 10
12.363581123
 20
8.094942311
 30
0.0
 10
12.3632086879
 20
8.0938437984
 30
0.0
 10
12.3627431881
 20
8.0924703005
 30
0.0
 10
12.3619983639
 20
8.0902729036
 30
0.0
 10
12.3610673421
 20
8.0875260884
 30
0.0
 10
12.3599501119
 20
8.0842299416
 30
0.0
 10
12.358832884
 20
8.0809337796
 30
0.0
 10
12.3579018567
 20
8.0781870026
 30
0.0
 10
12.3571570435
 20
8.0759895294
 30
0.0
 10
12.3566915156
 20
8.0746162252
 30
0.0
 10
12.3563191384
 20
8.0735173151
 30
0.0
 10
12.3560397316
 20
8.0726938628
 30
0.0
 10
12.355807287
 20
8.0720053293
 30
0.0
 10
12.3556438018
 20
8.0715279153
 30
0.0
 10
12.3555515901
 20
8.071247988
 30
0.0
 10
12.3554790275
 20
8.0710580976
 30
0.0
 10
12.3554194758
 20
8.0707915469
 30
0.0
 10
12.3553355352
 20
8.070462886
 30
0.0
 10
12.3551907537
 20
8.0698752707
 30
0.0
 10
12.3549828175
 20
8.0690423339
 30
0.0
 10
12.3547337673
 20
8.0680400217
 30
0.0
 10
12.354401535
 20
8.0667045792
 30
0.0
 10
12.3539863013
 20
8.0650349426
 30
0.0
 10
12.3533218955
 20
8.0623637108
 30
0.0
 10
12.3524914003
 20
8.0590246044
 30
0.0
 10
12.3514947958
 20
8.0550177166
 30
0.0
 10
12.3504982134
 20
8.0510107761
 30
0.0
 10
12.3496676629
 20
8.0476718012
 30
0.0
 10
12.349003368
 20
8.0450003065
 30
0.0
 10
12.3485047492
 20
8.0429975446
 30
0.0
 10
12.3480904983
 20
8.0413258437
 30
0.0
 10
12.3477980407
 20
8.0401610157
 30
0.0
 10
12.3476347974
 20
8.0394870264
 30
0.0
 10
12.347501448
 20
8.0390051221
 30
0.0
 10
12.3474098288
 20
8.0384330539
 30
0.0
 10
12.3472731138
 20
8.0377017464
 30
0.0
 10
12.3470406446
 20
8.0364073051
 30
0.0
 10
12.346705
 20
8.0345657642
 30
0.0
 10
12.3463037443
 20
8.0323526358
 30
0.0
 10
12.3457682062
 20
8.0294029438
 30
0.0
 10
12.3450989669
 20
8.0257154337
 30
0.0
 10
12.3442957957
 20
8.0212905993
 30
0.0
 10
12.3434926676
 20
8.0168656858
 30
0.0
 10
12.3428233204
 20
8.0131783738
 30
0.0
 10
12.3422879981
 20
8.0102282855
 30
0.0
 10
12.3418860844
 20
8.0080163659
 30
0.0
 10
12.341552498
 20
8.0061710435
 30
0.0
 10
12.3413163547
 20
8.0048833526
 30
0.0
 10
12.3411855266
 20
8.0041412293
 30
0.0
 10
12.3410758248
 20
8.003602384
 30
0.0
 10
12.3410103907
 20
8.0029956998
 30
0.0
 10
12.3409077041
 20
8.0022104505
 30
0.0
 10
12.340735197
 20
8.0008252393
 30
0.0
 10
12.3404849969
 20
7.9988521302
 30
0.0
 10
12.3401863668
 20
7.9964819319
 30
0.0
 10
12.3397876308
 20
7.9933225296
 30
0.0
 10
12.3392894052
 20
7.9893729801
 30
0.0
 10
12.338691445
 20
7.9846336514
 30
0.0
 10
12.3380935317
 20
7.9798942742
 30
0.0
 10
12.3375951889
 20
7.975944846
 30
0.0
 10
12.3371966872
 20
7.972785201
 30
0.0
 10
12.3368973422
 20
7.9704157429
 30
0.0
 10
12.3366493787
 20
7.9684403185
 30
0.0
 10
12.336472879
 20
7.9670592402
 30
0.0
 10
12.3363765894
 20
7.966267369
 30
0.0
 10
12.3362915061
 20
7.9656810254
 30
0.0
 10
12.3362556035
 20
7.9650657843
 30
0.0
 10
12.3361905786
 20
7.9642555425
 30
0.0
 10
12.3360847778
 20
7.9628329232
 30
0.0
 10
12.3359294551
 20
7.9608030651
 30
0.0
 10
12.3357448564
 20
7.9583661844
 30
0.0
 10
12.3354981006
 20
7.9551173772
 30
0.0
 10
12.3351898658
 20
7.9510562429
 30
0.0
 10
12.3348199124
 20
7.9461829329
 30
0.0
 10
12.3344499097
 20
7.9413096185
 30
0.0
 10
12.3341417981
 20
7.9372484954
 30
0.0
 10
12.3338947961
 20
7.9339996658
 30
0.0
 10
12.3337109482
 20
7.9315628533
 30
0.0
 10
12.3335532766
 20
7.929532782
 30
0.0
 10
12.3334371535
 20
7.9279073663
 30
0.0
 10
12.3333226977
 20
7.9266920169
 30
0.0
 10
12.3333126885
 20
7.9254624975
 30
0.0
 10
12.3332628584
 20
7.923828088
 30
0.0
 10
12.3332130884
 20
7.9217833779
 30
0.0
 10
12.3331480064
 20
7.9193304527
 30
0.0
 10
12.3330631019
 20
7.9160596316
 30
0.0
 10
12.3329563306
 20
7.9119711945
 30
0.0
 10
12.3328284729
 20
7.9070650229
 30
0.0
 10
12.3327005685
 20
7.9021588965
 30
0.0
 10
12.332593914
 20
7.8980703462
 30
0.0
 10
12.3325087759
 20
7.8947997515
 30
0.0
 10
12.3324444062
 20
7.892346136
 30
0.0
 10
12.3323924081
 20
7.8903035854
 30
0.0
 10
12.3323527841
 20
7.888869622
 30
0.0
 10
12.3323351779
 20
7.888056738
 30
0.0
 10
12.3323077867
 20
7.8874286978
 30
0.0
 10
12.3323346236
 20
7.8868709044
 30
0.0
 10
12.3323514907
 20
7.8861026771
 30
0.0
 10
12.3323898213
 20
7.8847696956
 30
0.0
 10
12.3324399716
 20
7.8828594677
 30
0.0
 10
12.3325021242
 20
7.8805697489
 30
0.0
 10
12.3325843054
 20
7.8775158983
 30
0.0
 10
12.332687268
 20
7.8736988905
 30
0.0
 10
12.3328107236
 20
7.8691183532
 30
0.0
 10
12.3329341994
 20
7.864537839
 30
0.0
 10
12.3330371117
 20
7.8607207733
 30
0.0
 10
12.3331193935
 20
7.8576670386
 30
0.0
 10
12.3331709316
 20
7.8557586451
 30
0.0
 10
12.3332119055
 20
7.854231493
 30
0.0
 10
12.3332433384
 20
7.8530873265
 30
0.0
 10
12.333267298
 20
7.8521300449
 30
0.0
 10
12.3332914771
 20
7.8513727635
 30
0.0
 10
12.3332959179
 20
7.8507814566
 30
0.0
 10
12.333352627
 20
7.8502792613
 30
0.0
 10
12.3334099811
 20
7.8495785398
 30
0.0
 10
12.3334879379
 20
7.8487133177
 30
0.0
 10
12.3335788049
 20
7.8476704799
 30
0.0
 10
12.3337008973
 20
7.8462816262
 30
0.0
 10
12.3338531922
 20
7.8445450123
 30
0.0
 10
12.3340970432
 20
7.8417667356
 30
0.0
 10
12.3344017956
 20
7.8382937852
 30
0.0
 10
12.3347675243
 20
7.8341262881
 30
0.0
 10
12.3351332482
 20
7.8299587849
 30
0.0
 10
12.3354380124
 20
7.8264858499
 30
0.0
 10
12.3356818398
 20
7.8237075424
 30
0.0
 10
12.3358341946
 20
7.8219710067
 30
0.0
 10
12.3359561641
 20
7.8205819926
 30
0.0
 10
12.3360474066
 20
7.8195396446
 30
0.0
 10
12.3361241884
 20
7.8186728901
 30
0.0
 10
12.336176471
 20
7.8180624943
 30
0.0
 10
12.3362086337
 20
7.8177194235
 30
0.0
 10
12.3362263134
 20
7.8174459878
 30
0.0
 10
12.336268619
 20
7.8172342195
 30
0.0
 10
12.3363164367
 20
7.8169303515
 30
0.0
 10
12.3364041198
 20
7.8164086045
 30
0.0
 10
12.336527289
 20
7.8156580121
 30
0.0
 10
12.3366759877
 20
7.8147595439
 30
0.0
 10
12.3368739398
 20
7.813560803
 30
0.0
 10
12.337121487
 20
7.812062645
 30
0.0
 10
12.3375175027
 20
7.8096654424
 30
0.0
 10
12.338012543
 20
7.8066689909
 30
0.0
 10
12.3386065819
 20
7.8030732252
 30
0.0
 10
12.3392006254
 20
7.7994774722
 30
0.0
 10
12.3396956541
 20
7.7964809888
 30
0.0
 10
12.340091693
 20
7.7940838501
 30
0.0
 10
12.3403391811
 20
7.7925855295
 30
0.0
 10
12.3405372547
 20
7.7913871224
 30
0.0
 10
12.3406855821
 20
7.7904876344
 30
0.0
 10
12.3408099129
 20
7.7897402326
 30
0.0
 10
12.3408955224
 20
7.7892127898
 30
0.0
 10
12.3409466625
 20
7.788918048
 30
0.0
 10
12.3409787629
 20
7.788678247
 30
0.0
 10
12.3410347718
 20
7.7885100974
 30
0.0
 10
12.3411011107
 20
7.7882609052
 30
0.0
 10
12.3412210894
 20
7.7878364633
 30
0.0
 10
12.3413904562
 20
7.7872240299
 30
0.0
 10
12.3415945658
 20
7.7864917156
 30
0.0
 10
12.3418664082
 20
7.7855143864
 30
0.0
 10
12.3422063153
 20
7.7842930366
 30
0.0
 10
12.3427501084
 20
7.7823387026
 30
0.0
 10
12.3434298699
 20
7.7798958454
 30
0.0
 10
12.3442455747
 20
7.7769643887
 30
0.0
 10
12.3450612834
 20
7.7740329479
 30
0.0
 10
12.345741035
 20
7.7715900508
 30
0.0
 10
12.346284848
 20
7.7696357966
 30
0.0
 10
12.3466247045
 20
7.7684142438
 30
0.0
 10
12.3468966506
 20
7.7674373313
 30
0.0
 10
12.3471004436
 20
7.7667037441
 30
0.0
 10
12.3472708009
 20
7.7660952932
 30
0.0
 10
12.3473890114
 20
7.7656637419
 30
0.0
 10
12.3474581835
 20
7.7654259408
 30
0.0
 10
12.3475054897
 20
7.7652228014
 30
0.0
 10
12.3475702759
 20
7.7651144161
 30
0.0
 10
12.3476505602
 20
7.7649368511
 30
0.0
 10
12.3477938986
 20
7.7646415114
 30
0.0
 10
12.3479971825
 20
7.7642115468
 30
0.0
 10
12.3482417589
 20
7.7636990353
 30
0.0
 10
12.3485676388
 20
7.763014483
 30
0.0
 10
12.3489750646
 20
7.7621592047
 30
0.0
 10
12.3496269035
 20
7.7607905291
 30
0.0
 10
12.3504417167
 20
7.7590797642
 30
0.0
 10
12.351419486
 20
7.7570268098
 30
0.0
 10
12.3523972583
 20
7.7549738739
 30
0.0
 10
12.3532120638
 20
7.7532630629
 30
0.0
 10
12.3538639181
 20
7.7518944793
 30
0.0
 10
12.3542713046
 20
7.7510389672
 30
0.0
 10
12.3545972653
 20
7.7503548948
 30
0.0
 10
12.3548415947
 20
7.7498409172
 30
0.0
 10
12.3550456515
 20
7.7494155397
 30
0.0
 10
12.3551876101
 20
7.7491120112
 30
0.0
 10
12.3552701053
 20
7.7489475668
 30
0.0
 10
12.3553281003
 20
7.7487988791
 30
0.0
 10
12.3554009128
 20
7.7487471087
 30
0.0
 10
12.3554928275
 20
7.7486442757
 30
0.0
 10
12.3556560864
 20
7.7484800687
 30
0.0
 10
12.3558880544
 20
7.7482372525
 30
0.0
 10
12.356166955
 20
7.7479493979
 30
0.0
 10
12.3565386341
 20
7.7475643605
 30
0.0
 10
12.3570032974
 20
7.7470834854
 30
0.0
 10
12.3577467228
 20
7.7463138496
 30
0.0
 10
12.3586760169
 20
7.7453518855
 30
0.0
 10
12.3597911645
 20
7.7441974947
 30
0.0
 10
12.3607204551
 20
7.743235508
 30
0.0
 10
12.3614638879
 20
7.7424659219
 30
0.0
 10
12.3620214612
 20
7.7418887192
 30
0.0
 10
12.3625790396
 20
7.7413115673
 30
0.0
 10
12.3630436723
 20
7.7408304491
 30
0.0
 10
12.3634154142
 20
7.7404459091
 30
0.0
 10
12.363694123
 20
7.7401565354
 30
0.0
 10
12.3639266907
 20
7.7399184717
 30
0.0
 10
12.3640888792
 20
7.7397457808
 30
0.0
 10
12.3641825089
 20
7.7396565411
 30
0.0
 10
12.3642500534
 20
7.7395630163
 30
0.0
 10
12.3643278339
 20
7.7395711513
 30
0.0
 10
12.3644279708
 20
7.7395465379
 30
0.0
 10
12.3646048739
 20
7.739519986
 30
0.0
 10
12.3648567228
 20
7.739473417
 30
0.0
 10
12.3651593138
 20
7.7394212315
 30
0.0
 10
12.3655626385
 20
7.7393503592
 30
0.0
 10
12.3660668389
 20
7.7392622121
 30
0.0
 10
12.3666718603
 20
7.7391562456
 30
0.0
 10
12.3672768868
 20
7.7390503299
 30
0.0
 10
12.368083587
 20
7.7389090913
 30
0.0
 10
12.3690919629
 20
7.7387325489
 30
0.0
 10
12.3701003386
 20
7.7385560049
 30
0.0
 10
12.3709070391
 20
7.7384147688
 30
0.0
 10
12.3715120647
 20
7.7383088454
 30
0.0
 10
12.3721170894
 20
7.7382029079
 30
0.0
 10
12.3726212798
 20
7.7381146707
 30
0.0
 10
12.3730246248
 20
7.7380439822
 30
0.0
 10
12.373276732
 20
7.7380000267
 30
0.0
 10
12.37347838
 20
7.7379643474
 30
0.0
 10
12.3736297195
 20
7.7379389976
 30
0.0
 10
12.3737555062
 20
7.7379133886
 30
0.0
 10
12.3738568746
 20
7.7379029585
 30
0.0
 10
12.3739308817
 20
7.7378676551
 30
0.0
 10
12.3740125962
 20
7.7379372465
 30
0.0
 10
12.3741188566
 20
7.737993394
 30
0.0
 10
12.3742526058
 20
7.7380761497
 30
0.0
 10
12.3744127094
 20
7.7381700756
 30
0.0
 10
12.3746263191
 20
7.7382971896
 30
0.0
 10
12.3748932838
 20
7.7384554386
 30
0.0
 10
12.3753204539
 20
7.7387089966
 30
0.0
 10
12.3758544073
 20
7.7390258207
 30
0.0
 10
12.3764951554
 20
7.7394060625
 30
0.0
 10
12.3771359024
 20
7.7397862901
 30
0.0
 10
12.3779902321
 20
7.7402932653
 30
0.0
 10
12.3790581441
 20
7.7409269825
 30
0.0
 10
12.3803396386
 20
7.7416874439
 30
0.0
 10
12.3820482978
 20
7.7427013923
 30
0.0
 10
12.3833297923
 20
7.7434618535
 30
0.0
 10
12.3841841219
 20
7.7439688277
 30
0.0
  0
ENDSEC
  0
SECTION
  2
OBJECTS
  0
DICTIONARY
  5
C
100
AcDbDictionary
280
0
281
1
  3
ACAD_GROUP
350
D
  3
ACAD_MLINESTYLE
350
17
  3
ACAD_LAYOUT
350
1A
  3
ACAD_PLOTSETTINGS
350
19
  3
ACAD_PLOTSTYLENAME
350
E
  3
ACAD_IMAGE_DICT
350
       44E
  3
ACAD_IMAGE_VARS
350
       44F
  3
ACAD_TABLESTYLE
350
       450
  0
IMAGEDEF_REACTOR
  5
44D
100
AcDbRasterImageDefReactor
 90
2
330
287
  0
DICTIONARY
  5
D
102
{ACAD_REACTORS
330
C
102
}
100
AcDbDictionary
280
0
281
1
  0
ACDBDICTIONARYWDFLT
  5
E
102
{ACAD_REACTORS
330
C
102
}
100
AcDbDictionary
281
1
  3
Normal
350
F
100
AcDbDictionaryWithDefault
340
F
  0
DICTIONARY
  5
44E
330
C
100
AcDbDictionary
281
1
  3
B8D_assy_2_img_1
350
       453
  0
RASTERVARIABLES
  5
44F
330
C
100
AcDbRasterVariables
 90
0
 70
0
 71
1
 72
5
  0
DICTIONARY
  5
17
102
{ACAD_REACTORS
330
C
102
}
100
AcDbDictionary
280
0
281
1
  3
Standard
350
18
  0
DICTIONARY
  5
450
330
C
100
AcDbDictionary
281
1
  3
Standard
350
       454
  3
Standard1
350
       455
  0
DICTIONARY
  5
19
102
{ACAD_REACTORS
330
C
102
}
100
AcDbDictionary
281
1
  0
DICTIONARY
  5
1A
102
{ACAD_REACTORS
330
C
102
}
100
AcDbDictionary
281
1
  3
Model
350
451
  3
Layout1
350
452
  0
ACDBPLACEHOLDER
  5
F
102
{ACAD_REACTORS
330
E
102
}
  0
MLINESTYLE
  5
18
102
{ACAD_REACTORS
330
17
102
}
100
AcDbMlineStyle
  2
STANDARD
 70
0
  3

 62
256
 51
90.0
 52
90.0
 71
2
 49
0.5
 62
256
  6
BYLAYER
 49
-0.5
 62
256
  6
BYLAYER
  0
LAYOUT
  5
451
102
{ACAD_REACTORS
330
1A
102
}
100
AcDbPlotSettings
  1

  2
none_device
  4
ANSI_C_(22.00_x_17.00_Inches)
  6

 40
0.0
 41
0.0
 42
0.0
 43
0.0
 44
558.8
 45
431.8
 46
0.0
 47
0.0
 48
0.0
 49
0.0
140
0.0
141
0.0
142
1.0
143
1.0
 70
1024
 72
0
 73
0
 74
0
  7

 75
0
147
1.0
148
0.0
149
0.0
100
AcDbLayout
  1
Model
 70
0
 71
0
 10
0.0
 20
0.0
 11
22.0
 21
17.0
 12
0.0
 22
0.0
 32
0.0
 14
0.0
 24
0.0
 34
0.0
 15
0.0
 25
0.0
 35
0.0
146
0.0
 13
0.0
 23
0.0
 33
0.0
 16
1.0
 26
0.0
 36
0.0
 17
0.0
 27
1.0
 37
0.0
 76
0
330
20C
345
0
346
0
  0
LAYOUT
  5
452
102
{ACAD_REACTORS
330
1A
102
}
100
AcDbPlotSettings
  1

  2
none_device
  4
ANSI_C_(22.00_x_17.00_Inches)
  6

 40
0.0
 41
0.0
 42
0.0
 43
0.0
 44
558.8
 45
431.8
 46
0.0
 47
0.0
 48
0.0
 49
0.0
140
0.0
141
0.0
142
1.0
143
1.0
 70
0
 72
0
 73
0
 74
0
  7

 75
0
147
1.0
148
0.0
149
0.0
100
AcDbLayout
  1
Layout1
 70
0
 71
1
 10
0.0
 20
0.0
 11
22.0
 21
17.0
 12
0.0
 22
0.0
 32
0.0
 14
0.0
 24
0.0
 34
0.0
 15
0.0
 25
0.0
 35
0.0
146
0.0
 13
0.0
 23
0.0
 33
0.0
 16
1.0
 26
0.0
 36
0.0
 17
0.0
 27
1.0
 37
0.0
 76
0
330
20D
345
0
346
0
  0
IMAGEDEF
  5
453
102
{ACAD_REACTORS
330
44E
330
44D
102
}
100
AcDbRasterImageDef
 90
0
  1
B8D_assy_2_img_1.png
 10
369.0
 20
92.0
 11
0.0066666667
 21
0.0066666667
280
1
281
0
  0
TABLESTYLE
  5
454
102
{ACAD_REACTORS
330
450
330
28A
330
28B
102
}
330
450
100
AcDbTableStyle
  3
Standard
 70
0
 71
0
 40
0.06
 41
0.06
280
1
281
1
  7
Standard
140
0.18
170
1
 62
0
 63
7
283
0
  7
Standard
140
0.18
170
1
 62
0
 63
7
283
0
  7
Standard
140
0.18
170
1
 62
0
 63
7
283
0
  0
TABLESTYLE
  5
455
102
{ACAD_REACTORS
330
450
330
289
102
}
330
450
100
AcDbTableStyle
  3
Standard1
 70
1
 71
0
 40
0.06
 41
0.06
280
1
281
1
  7
Standard
140
0.18
170
1
 62
0
 63
7
283
0
  7
Standard
140
0.18
170
1
 62
0
 63
7
283
0
  7
Standard
140
0.18
170
1
 62
0
 63
7
283
0
  0
ENDSEC
  0
EOF
