999
DXF file: B8B_assy_2.dxf
999
Pro/ENGINEER 2014200 by Parametric Technology Corporation
  0
SECTION
  2
HEADER
  9
$ACADVER
  1
AC1021
  9
$DWGCODEPAGE
  3
ANSI_1252
  9
$EXTMAX
 10
22.0
 20
17.0
 30
0.0
  9
$EXTMIN
 10
0.0
 20
0.0
 30
0.0
  9
$LIMMIN
 10
0.0
 20
0.0
  9
$LIMMAX
 10
22.0
 20
17.0
  9
$VIEWCTR
 10
11.0
 20
8.5
  9
$VIEWSIZE
 40
17.0
  9
$CLAYER
  8
0
  9
$LTSCALE
 40
1.21
  9
$CELTYPE
  6
BYLAYER
  9
$DIMSCALE
 40
1.0
  9
$DIMASZ
 40
0.1875
  9
$DIMEXO
 40
0.0625
  9
$DIMDLI
 40
0.836
  9
$DIMEXE
 40
0.125
  9
$DIMCEN
 40
0.198
  9
$DIMLFAC
 40
1.0
  9
$DIMBLK
  1
_FILLED
  9
$DIMTXT
 40
0.1
  9
$DIMTOL
 70
0
  9
$DIMLIM
 70
0
  9
$DIMTFAC
 40
1.0
  9
$DIMGAP
 40
0.09
  9
$DIMDSEP
 70
46
  9
$AUNITS
 70
0
  9
$PDMODE
 70
3
  9
$PDSIZE
 40
0.3125
  9
$HANDSEED
  5
42A
  9
$TILEMODE
 70
1
  9
$MEASUREMENT
 70
0
  9
$INSUNITS
 70
1
  0
ENDSEC
  0
SECTION
  2
CLASSES
  0
CLASS
  1
ACDBDICTIONARYWDFLT
  2
AcDbDictionaryWithDefault
  3
AutoCAD 2000
 90
0
 91
1
280
0
281
0
  0
CLASS
  1
ACDBPLACEHOLDER
  2
AcDbPlaceHolder
  3
AutoCAD 2000
 90
0
 91
1
280
0
281
0
  0
CLASS
  1
LAYOUT
  2
AcDbLayout
  3
AutoCAD 2000
 90
0
 91
0
280
0
281
0
  0
CLASS
  1
RASTERVARIABLES
  2
AcDbRasterVariables
  3
ISM
 90
0
 91
1
280
0
281
0
  0
CLASS
  1
IMAGEDEF
  2
AcDbRasterImageDef
  3
ISM
 90
0
 91
1
280
0
281
0
  0
CLASS
  1
IMAGEDEF_REACTOR
  2
AcDbRasterImageDefReactor
  3
ISM
 90
0
 91
1
280
0
281
0
  0
CLASS
  1
IMAGE
  2
AcDbRasterImage
  3
ISM
 90
127
 91
1
280
0
281
1
  0
CLASS
  1
TABLESTYLE
  2
AcDbTableStyle
  3
ObjectDBX Classes
 90
2047
 91
1
280
0
281
0
  0
CLASS
  1
ACAD_TABLE
  2
AcDbTable
  3
ObjectDBX Classes
 90
1025
 91
3
280
0
281
1
  0
ENDSEC
  0
SECTION
  2
TABLES
  0
TABLE
  2
VPORT
  5
8
100
AcDbSymbolTable
 70
2
  0
VPORT
  5
1F4
100
AcDbSymbolTableRecord
100
AcDbViewportTableRecord
  2
*ACTIVE
 70
0
 10
0.0
 20
0.0
 11
1.0
 21
1.0
 12
11.0
 22
8.5
 13
0.0
 23
0.0
 14
1.0
 24
1.0
 15
0.0
 25
0.0
 16
0.0
 26
0.0
 36
1.0
 17
0.0
 27
0.0
 37
0.0
 40
17.0
 41
1.2941176471
 42
50.0
 43
0.0
 44
0.0
 50
0.0
 51
0.0
 71
0
 72
100
 73
1
 74
1
 75
0
 76
0
 77
0
 78
0
  0
ENDTAB
  0
TABLE
  2
LTYPE
  5
5
100
AcDbSymbolTable
 70
6
  0
LTYPE
  5
14
100
AcDbSymbolTableRecord
100
AcDbLinetypeTableRecord
  2
BYBLOCK
 70
0
  3

 72
65
 73
0
 40
0.0
  0
LTYPE
  5
15
100
AcDbSymbolTableRecord
100
AcDbLinetypeTableRecord
  2
BYLAYER
 70
0
  3

 72
65
 73
0
 40
0.0
  0
LTYPE
  5
16
100
AcDbSymbolTableRecord
100
AcDbLinetypeTableRecord
  2
CONTINUOUS
 70
64
  3
Solid line
 72
65
 73
0
 40
0.0
  0
LTYPE
  5
1F5
100
AcDbSymbolTableRecord
100
AcDbLinetypeTableRecord
  2
CENTER
 70
64
  3
____ _ ____ _ ____ _ ____ _ ____ _ ____ _ ____
 72
65
 73
4
 40
0.6
 49
0.375
 74
0
 49
-0.075
 74
0
 49
0.075
 74
0
 49
-0.075
 74
0
  0
LTYPE
  5
1F6
100
AcDbSymbolTableRecord
100
AcDbLinetypeTableRecord
  2
HIDDEN
 70
64
  3
- - - - - - - - - - - - - - - - - - - -
 72
65
 73
2
 40
0.2
 49
0.1
 74
0
 49
-0.1
 74
0
  0
LTYPE
  5
1F7
100
AcDbSymbolTableRecord
100
AcDbLinetypeTableRecord
  2
PHANTOM
 70
64
  3
_____ _ _ _____ _ _ _____ _ _ _____
 72
65
 73
6
 40
0.8
 49
0.45
 74
0
 49
-0.05
 74
0
 49
0.1
 74
0
 49
-0.05
 74
0
 49
0.1
 74
0
 49
-0.05
 74
0
  0
LTYPE
  5
1F8
100
AcDbSymbolTableRecord
100
AcDbLinetypeTableRecord
  2
DOT
 70
64
  3
. . . . . . . . . . . . . . . . . . . .
 72
65
 73
2
 40
0.2
 49
0.1
 74
0
 49
-0.1
 74
0
  0
LTYPE
  5
1F9
100
AcDbSymbolTableRecord
100
AcDbLinetypeTableRecord
  2
DASHED
 70
64
  3
- - - - - - - - - - - - - - - - - - - -
 72
65
 73
2
 40
0.2
 49
0.1
 74
0
 49
-0.1
 74
0
  0
ENDTAB
  0
TABLE
  2
LAYER
  5
2
100
AcDbSymbolTable
 70
36
  0
LAYER
  5
10
100
AcDbSymbolTableRecord
100
AcDbLayerTableRecord
  2
0
 70
0
 62
7
  6
CONTINUOUS
370
-3
390
F
  0
LAYER
  5
1FA
100
AcDbSymbolTableRecord
100
AcDbLayerTableRecord
  2
DEFAULT_1
 70
0
 62
7
  6
CENTER
370
-3
390
F
  0
LAYER
  5
1FB
100
AcDbSymbolTableRecord
100
AcDbLayerTableRecord
  2
DEFAULT_2
 70
0
 62
8
  6
HIDDEN
370
-3
390
F
  0
LAYER
  5
1FC
100
AcDbSymbolTableRecord
100
AcDbLayerTableRecord
  2
DEFAULT_3
 70
0
 62
7
  6
PHANTOM
370
-3
390
F
  0
LAYER
  5
1FD
100
AcDbSymbolTableRecord
100
AcDbLayerTableRecord
  2
01___PRT_ALL_DTM_PLN
 70
0
 62
7
  6
CONTINUOUS
370
-3
390
F
  0
LAYER
  5
1FE
100
AcDbSymbolTableRecord
100
AcDbLayerTableRecord
  2
01___PRT_DEF_DTM_PLN
 70
0
 62
7
  6
CONTINUOUS
370
-3
390
F
  0
LAYER
  5
1FF
100
AcDbSymbolTableRecord
100
AcDbLayerTableRecord
  2
02___PRT_ALL_AXES
 70
0
 62
7
  6
CONTINUOUS
370
-3
390
F
  0
LAYER
  5
200
100
AcDbSymbolTableRecord
100
AcDbLayerTableRecord
  2
03___PRT_ALL_CURVES
 70
0
 62
7
  6
CONTINUOUS
370
-3
390
F
  0
LAYER
  5
201
100
AcDbSymbolTableRecord
100
AcDbLayerTableRecord
  2
04___PRT_ALL_DTM_PNT
 70
0
 62
7
  6
CONTINUOUS
370
-3
390
F
  0
LAYER
  5
202
100
AcDbSymbolTableRecord
100
AcDbLayerTableRecord
  2
05___PRT_ALL_DTM_CSYS
 70
0
 62
7
  6
CONTINUOUS
370
-3
390
F
  0
LAYER
  5
203
100
AcDbSymbolTableRecord
100
AcDbLayerTableRecord
  2
05___PRT_DEF_DTM_CSYS
 70
0
 62
7
  6
CONTINUOUS
370
-3
390
F
  0
LAYER
  5
204
100
AcDbSymbolTableRecord
100
AcDbLayerTableRecord
  2
06___PRT_ALL_SURFS
 70
0
 62
7
  6
CONTINUOUS
370
-3
390
F
  0
LAYER
  5
205
100
AcDbSymbolTableRecord
100
AcDbLayerTableRecord
  2
DATUM_PLANES
 70
0
 62
7
  6
CONTINUOUS
370
-3
390
F
  0
LAYER
  5
206
100
AcDbSymbolTableRecord
100
AcDbLayerTableRecord
  2
PORT_AREAS
 70
0
 62
7
  6
CONTINUOUS
370
-3
390
F
  0
LAYER
  5
207
100
AcDbSymbolTableRecord
100
AcDbLayerTableRecord
  2
SUNNBOMCOSMETIC
 70
0
 62
7
  6
CONTINUOUS
370
-3
390
F
  0
LAYER
  5
208
100
AcDbSymbolTableRecord
100
AcDbLayerTableRecord
  2
SUNNBOMSTAMPING
 70
0
 62
7
  6
CONTINUOUS
370
-3
390
F
  0
LAYER
  5
209
100
AcDbSymbolTableRecord
100
AcDbLayerTableRecord
  2
THREADS
 70
0
 62
7
  6
CONTINUOUS
370
-3
390
F
  0
ENDTAB
  0
TABLE
  2
STYLE
  5
3
100
AcDbSymbolTable
 70
1
  0
STYLE
  5
11
100
AcDbSymbolTableRecord
100
AcDbTextStyleTableRecord
  2
STANDARD
 70
0
 40
0.0
 41
0.8
 50
0.0
 71
0
 42
0.2
  3
txt
  4

  0
STYLE
  5
20A
100
AcDbSymbolTableRecord
100
AcDbTextStyleTableRecord
  2
TEXTSTYLE_1
 70
0
 40
0.0
 41
0.8
 50
0.0
 71
0
 42
0.2
  3
gdt
  4

  0
ENDTAB
  0
TABLE
  2
VIEW
  5
6
100
AcDbSymbolTable
 70
0
  0
ENDTAB
  0
TABLE
  2
UCS
  5
7
100
AcDbSymbolTable
 70
0
  0
ENDTAB
  0
TABLE
  2
APPID
  5
9
100
AcDbSymbolTable
 70
1
  0
APPID
  5
20B
100
AcDbSymbolTableRecord
100
AcDbRegAppTableRecord
  2
ACAD
 70
0
  0
ENDTAB
  0
TABLE
  2
BLOCK_RECORD
  5
1
100
AcDbSymbolTable
 70
0
  0
BLOCK_RECORD
  5
20C
100
AcDbSymbolTableRecord
100
AcDbBlockTableRecord
  2
*Model_Space
  0
BLOCK_RECORD
  5
20D
100
AcDbSymbolTableRecord
100
AcDbBlockTableRecord
  2
*Paper_Space
  0
BLOCK_RECORD
  5
20E
100
AcDbSymbolTableRecord
100
AcDbBlockTableRecord
  2
SUN_FIRST_THIRD_ANGLE_BL0
  0
BLOCK_RECORD
  5
20F
100
AcDbSymbolTableRecord
100
AcDbBlockTableRecord
  2
*T1
  0
BLOCK_RECORD
  5
210
100
AcDbSymbolTableRecord
100
AcDbBlockTableRecord
  2
*T2
  0
BLOCK_RECORD
  5
211
100
AcDbSymbolTableRecord
100
AcDbBlockTableRecord
  2
*T3
  0
ENDTAB
  0
TABLE
  2
DIMSTYLE
  5
A
100
AcDbSymbolTable
 70
1
100
AcDbDimStyleTable
 71
0
  0
DIMSTYLE
105
212
100
AcDbSymbolTableRecord
100
AcDbDimStyleTableRecord
  2
STANDARD
 70
0
  3

  4

 40
1.0
 41
0.1875
 42
0.0625
 43
0.38
 44
0.125
 45
0.0
 46
0.0
 47
0.001
 48
0.001
140
0.1
141
0.09
142
0.0
143
25.4
144
1.0
145
0.0
146
1.0
147
0.09
 71
0.0
 72
0.0
 73
1
 74
1
 75
0
 76
0
 77
0
 78
4
170
0
171
2
172
0
173
0
174
0
175
0
176
0
177
0
178
0
270
2
271
3
272
3
273
2
274
2
275
0
280
0
281
0
282
0
283
1
284
4
285
0
286
0
287
3
288
0
340
11
278
46
  0
ENDTAB
  0
ENDSEC
  0
SECTION
  2
BLOCKS
  0
BLOCK
  5
20
100
AcDbEntity
  8
0
100
AcDbBlockBegin
  2
*Model_Space
 70
0
 10
0.0
 20
0.0
 30
0.0
  3
*Model_Space
  1

  0
ENDBLK
  5
21
100
AcDbEntity
  8
0
100
AcDbBlockEnd
  0
BLOCK
  5
1C
100
AcDbEntity
  8
0
100
AcDbBlockBegin
  2
*Paper_Space
 70
0
 10
0.0
 20
0.0
 30
0.0
  3
*Paper_Space
  1

  0
ENDBLK
  5
1D
100
AcDbEntity
  8
0
100
AcDbBlockEnd
  0
BLOCK
  5
213
100
AcDbEntity
  8
0
100
AcDbBlockBegin
 62
2
  6
CONTINUOUS
  2
SUN_FIRST_THIRD_ANGLE_BL0
 70
64
 10
20.4816717061
 20
1.2289683772
  3
SUN_FIRST_THIRD_ANGLE_BL0
  1

  0
TEXT
  5
214
100
AcDbEntity
  8
0
100
AcDbText
 62
2
  6
CONTINUOUS
 10
19.4750896608
 20
1.4136269581
  7
STANDARD
 40
0.08
  1
FIRST ANGLE
 41
0.8
 72
0
100
AcDbText
  0
TEXT
  5
215
100
AcDbEntity
  8
0
100
AcDbText
 62
2
  6
CONTINUOUS
 10
20.7842537513
 20
1.4047600029
  7
STANDARD
 40
0.08
  1
THIRD ANGLE
 41
0.8
 72
0
100
AcDbText
  0
LINE
  5
216
100
AcDbEntity
  8
0
100
AcDbLine
 62
7
  6
CONTINUOUS
 10
19.4767170086
 20
1.1727031207
 11
19.6334271527
 21
1.1717972817
  0
LINE
  5
217
100
AcDbEntity
  8
0
100
AcDbLine
 62
7
  6
CONTINUOUS
 10
19.6596964832
 20
1.1717972817
 11
19.6950230232
 21
1.171593082
  0
LINE
  5
218
100
AcDbEntity
  8
0
100
AcDbLine
 62
7
  6
CONTINUOUS
 10
19.7194818561
 20
1.1708914427
 11
19.8852396156
 21
1.1699333054
  0
LINE
  5
219
100
AcDbEntity
  8
0
100
AcDbLine
 62
7
  6
CONTINUOUS
 10
19.4758111696
 20
1.2723454088
 11
19.88525039
 21
1.3511534004
  0
LINE
  5
21A
100
AcDbEntity
  8
0
100
AcDbLine
 62
7
  6
CONTINUOUS
 10
19.88525039
 20
1.3511534004
 11
19.8831348489
 21
0.9851647912
  0
LINE
  5
21B
100
AcDbEntity
  8
0
100
AcDbLine
 62
7
  6
CONTINUOUS
 10
19.8831348489
 20
0.9851647912
 11
19.4767170086
 21
1.0658141206
  0
LINE
  5
21C
100
AcDbEntity
  8
0
100
AcDbLine
 62
7
  6
CONTINUOUS
 10
19.4767170086
 20
1.0658141206
 11
19.4779056764
 21
1.2714536432
  0
CIRCLE
  5
21D
100
AcDbEntity
  8
0
100
AcDbCircle
 62
7
  6
CONTINUOUS
 10
20.2068232291
 20
1.1717972817
 40
0.175742101
  0
CIRCLE
  5
21E
100
AcDbEntity
  8
0
100
AcDbCircle
 62
7
  6
CONTINUOUS
 10
20.2068232291
 20
1.1717972817
 40
0.1005522074
  0
LINE
  5
21F
100
AcDbEntity
  8
0
100
AcDbLine
 62
7
  6
CONTINUOUS
 10
20.2077290681
 20
1.3756110529
 11
20.2071171714
 21
1.2379342989
  0
LINE
  5
220
100
AcDbEntity
  8
0
100
AcDbLine
 62
7
  6
CONTINUOUS
 10
20.2077290681
 20
1.2016899681
 11
20.2074674401
 21
1.1428236749
  0
LINE
  5
221
100
AcDbEntity
  8
0
100
AcDbLine
 62
7
  6
CONTINUOUS
 10
20.208634907
 20
1.101141841
 11
20.2080230104
 21
0.963465087
  0
LINE
  5
222
100
AcDbEntity
  8
0
100
AcDbLine
 62
7
  6
CONTINUOUS
 10
20.0066328138
 20
1.1745147986
 11
20.1443095678
 21
1.1739029019
  0
LINE
  5
223
100
AcDbEntity
  8
0
100
AcDbLine
 62
7
  6
CONTINUOUS
 10
20.1832714155
 20
1.1727031207
 11
20.238153505
 21
1.172335442
  0
LINE
  5
224
100
AcDbEntity
  8
0
100
AcDbLine
 62
7
  6
CONTINUOUS
 10
20.2756669918
 20
1.1717972817
 11
20.407916871
 21
1.1712095044
  0
CIRCLE
  5
225
100
AcDbEntity
  8
0
100
AcDbCircle
 62
7
  6
CONTINUOUS
 10
20.7509457401
 20
1.1693297793
 40
0.1722024983
  0
CIRCLE
  5
226
100
AcDbEntity
  8
0
100
AcDbCircle
 62
7
  6
CONTINUOUS
 10
20.7509457401
 20
1.1693297793
 40
0.0985164967
  0
LINE
  5
227
100
AcDbEntity
  8
0
100
AcDbLine
 62
7
  6
CONTINUOUS
 10
20.7169767782
 20
1.170462078
 11
20.7825395137
 21
1.1682766535
  0
LINE
  5
228
100
AcDbEntity
  8
0
100
AcDbLine
 62
7
  6
CONTINUOUS
 10
20.8177513651
 20
1.1693297793
 11
20.947965719
 21
1.1693297793
  0
LINE
  5
229
100
AcDbEntity
  8
0
100
AcDbLine
 62
7
  6
CONTINUOUS
 10
20.6875370113
 20
1.170462078
 11
20.5573226574
 21
1.170462078
  0
LINE
  5
22A
100
AcDbEntity
  8
0
100
AcDbLine
 62
7
  6
CONTINUOUS
 10
20.7486811426
 20
1.1987695462
 11
20.7486811426
 21
1.1432869085
  0
LINE
  5
22B
100
AcDbEntity
  8
0
100
AcDbLine
 62
7
  6
CONTINUOUS
 10
20.7498134414
 20
1.1059210505
 11
20.7498134414
 21
0.9757066966
  0
LINE
  5
22C
100
AcDbEntity
  8
0
100
AcDbLine
 62
7
  6
CONTINUOUS
 10
20.7486811426
 20
1.2338708068
 11
20.7486811426
 21
1.3640851607
  0
LINE
  5
22D
100
AcDbEntity
  8
0
100
AcDbLine
 62
7
  6
CONTINUOUS
 10
21.0702539817
 20
1.2701043662
 11
21.4790138229
 21
1.3448360823
  0
LINE
  5
22E
100
AcDbEntity
  8
0
100
AcDbLine
 62
7
  6
CONTINUOUS
 10
21.4790138229
 20
1.3448360823
 11
21.4790138229
 21
0.9779712941
  0
LINE
  5
22F
100
AcDbEntity
  8
0
100
AcDbLine
 62
7
  6
CONTINUOUS
 10
21.4790138229
 20
0.9779712941
 11
21.069121683
 21
1.0617614
  0
LINE
  5
230
100
AcDbEntity
  8
0
100
AcDbLine
 62
7
  6
CONTINUOUS
 10
21.0702539817
 20
1.2701043662
 11
21.069121683
 21
1.0617614
  0
LINE
  5
231
100
AcDbEntity
  8
0
100
AcDbLine
 62
7
  6
CONTINUOUS
 10
21.4790138229
 20
1.1693297793
 11
21.3159628059
 21
1.1693297793
  0
LINE
  5
232
100
AcDbEntity
  8
0
100
AcDbLine
 62
7
  6
CONTINUOUS
 10
21.2876553377
 20
1.1693297793
 11
21.2502894796
 21
1.1693297793
  0
LINE
  5
233
100
AcDbEntity
  8
0
100
AcDbLine
 62
7
  6
CONTINUOUS
 10
21.2208497126
 20
1.1659328831
 11
21.0713862804
 21
1.1659328831
  0
LINE
  5
234
100
AcDbEntity
  8
0
100
AcDbLine
 62
7
  6
CONTINUOUS
 10
20.4796138713
 20
1.5284908897
 11
20.4766766948
 21
0.9294458646
  0
ENDBLK
  5
235
100
AcDbEntity
  8
0
  6
BYBLOCK
 62
0
100
AcDbBlockEnd
  0
BLOCK
  5
236
100
AcDbEntity
  8
0
100
AcDbBlockBegin
  2
*T1
 70
1
 10
0.0
 20
0.0
  3
*T1
  1

  0
LINE
  5
237
100
AcDbEntity
  8
0
100
AcDbLine
 62
2
  6
CONTINUOUS
 10
9.275
 20
0.0
 11
-0.0
 21
0.0
  0
LINE
  5
238
100
AcDbEntity
  8
0
100
AcDbLine
 62
2
  6
CONTINUOUS
 10
9.275
 20
0.0
 11
9.275
 21
1.25
  0
LINE
  5
239
100
AcDbEntity
  8
0
100
AcDbLine
 62
2
  6
CONTINUOUS
 10
9.275
 20
0.625
 11
-0.0
 21
0.625
  0
LINE
  5
23A
100
AcDbEntity
  8
0
100
AcDbLine
 62
2
  6
CONTINUOUS
 10
9.275
 20
1.25
 11
-0.0
 21
1.25
  0
LINE
  5
23B
100
AcDbEntity
  8
0
100
AcDbLine
 62
2
  6
CONTINUOUS
 10
6.8
 20
0.0
 11
6.8
 21
1.25
  0
LINE
  5
23C
100
AcDbEntity
  8
0
100
AcDbLine
 62
2
  6
CONTINUOUS
 10
6.4
 20
0.0
 11
6.4
 21
0.625
  0
LINE
  5
23D
100
AcDbEntity
  8
0
100
AcDbLine
 62
2
  6
CONTINUOUS
 10
5.9
 20
0.0
 11
5.9
 21
0.625
  0
LINE
  5
23E
100
AcDbEntity
  8
0
100
AcDbLine
 62
2
  6
CONTINUOUS
 10
5.2
 20
0.0
 11
5.2
 21
0.625
  0
LINE
  5
23F
100
AcDbEntity
  8
0
100
AcDbLine
 62
2
  6
CONTINUOUS
 10
4.1
 20
0.0
 11
4.1
 21
1.25
  0
LINE
  5
240
100
AcDbEntity
  8
0
100
AcDbLine
 62
2
  6
CONTINUOUS
 10
-0.0
 20
0.0
 11
-0.0
 21
1.25
  0
MTEXT
  5
241
100
AcDbEntity
  8
0
100
AcDbMText
 62
2
  6
CONTINUOUS
  7
STANDARD
 71
2
 72
1
 10
6.6
 20
0.325
 30
0.0
 11
1.0
 21
0.0
 31
0.0
 44
0.9
  1
2
 40
0.125
 41
0.2
  0
MTEXT
  5
242
100
AcDbEntity
  8
0
100
AcDbMText
 62
2
  6
CONTINUOUS
  7
STANDARD
 71
2
 72
1
 10
6.15
 20
0.325
 30
0.0
 11
1.0
 21
0.0
 31
0.0
 44
0.9
  1
C
 40
0.125
 41
0.2
  0
MTEXT
  5
243
100
AcDbEntity
  8
0
100
AcDbMText
 62
2
  6
CONTINUOUS
  7
STANDARD
 71
2
 72
1
 10
5.55
 20
0.325
 30
0.0
 11
1.0
 21
0.0
 31
0.0
 44
0.9
  1
1.000
 40
0.125
 41
1.0
  0
MTEXT
  5
244
100
AcDbEntity
  8
0
100
AcDbMText
 62
2
  6
CONTINUOUS
  7
STANDARD
 71
2
 72
1
 10
4.65
 20
0.325
 30
0.0
 11
1.0
 21
0.0
 31
0.0
 44
0.9
  1
Apr-16-21
 40
0.125
 41
1.8
  0
MTEXT
  5
245
100
AcDbEntity
  8
0
100
AcDbMText
 62
2
  6
CONTINUOUS
  7
STANDARD
 71
2
 72
1
 10
2.05
 20
0.4625
 30
0.0
 11
1.0
 21
0.0
 31
0.0
 44
0.9
  1
T-2A Line mount\P2 cylinder sequence, with reverse checks
 40
0.125
 41
8.0
  0
MTEXT
  5
246
100
AcDbEntity
  8
0
100
AcDbMText
 62
2
  6
CONTINUOUS
  7
STANDARD
 71
1
 72
1
 10
6.45
 20
0.5625
 30
0.0
 11
1.0
 21
0.0
 31
0.0
 44
0.9
  1
SHEET
 40
0.06
 41
0.48
  0
MTEXT
  5
247
100
AcDbEntity
  8
0
100
AcDbMText
 62
2
  6
CONTINUOUS
  7
STANDARD
 71
1
 72
1
 10
5.95
 20
0.5625
 30
0.0
 11
1.0
 21
0.0
 31
0.0
 44
0.9
  1
DWG SIZE
 40
0.06
 41
0.768
  0
MTEXT
  5
248
100
AcDbEntity
  8
0
100
AcDbMText
 62
2
  6
CONTINUOUS
  7
STANDARD
 71
1
 72
1
 10
5.25
 20
0.5625
 30
0.0
 11
1.0
 21
0.0
 31
0.0
 44
0.9
  1
SCALE
 40
0.06
 41
0.48
  0
MTEXT
  5
249
100
AcDbEntity
  8
0
100
AcDbMText
 62
2
  6
CONTINUOUS
  7
STANDARD
 71
1
 72
1
 10
4.15
 20
0.5625
 30
0.0
 11
1.0
 21
0.0
 31
0.0
 44
0.9
  1
DATE
 40
0.06
 41
0.384
  0
MTEXT
  5
24A
100
AcDbEntity
  8
0
100
AcDbMText
 62
2
  6
CONTINUOUS
  7
STANDARD
 71
1
 72
1
 10
0.05
 20
0.5625
 30
0.0
 11
1.0
 21
0.0
 31
0.0
 44
0.9
  1
DESCRIPTION
 40
0.06
 41
1.056
  0
MTEXT
  5
24B
100
AcDbEntity
  8
0
100
AcDbMText
 62
2
  6
CONTINUOUS
  7
STANDARD
 71
2
 72
1
 10
5.45
 20
1.0375
 30
0.0
 11
1.0
 21
0.0
 31
0.0
 44
0.9
  1
ALL DIMENSIONS IN INCH\PVIEWS ARE THIRD ANGLE
 40
0.12
 41
4.224
  0
MTEXT
  5
24C
100
AcDbEntity
  8
0
100
AcDbMText
 62
2
  6
CONTINUOUS
  7
STANDARD
 71
2
 72
1
 10
2.05
 20
0.95
 30
0.0
 11
1.0
 21
0.0
 31
0.0
 44
0.9
  1
B8B
 40
0.125
 41
0.6
  0
MTEXT
  5
24D
100
AcDbEntity
  8
0
100
AcDbMText
 62
2
  6
CONTINUOUS
  7
STANDARD
 71
1
 72
1
 10
0.05
 20
1.1875
 30
0.0
 11
1.0
 21
0.0
 31
0.0
 44
0.9
  1
MODEL
 40
0.06
 41
0.48
  0
ENDBLK
  5
24E
100
AcDbEntity
  8
0
  6
BYBLOCK
 62
0
100
AcDbBlockEnd
  0
BLOCK
  5
24F
100
AcDbEntity
  8
0
100
AcDbBlockBegin
  2
*T2
 70
1
 10
0.0
 20
0.0
  3
*T2
  1

  0
LINE
  5
250
100
AcDbEntity
  8
0
100
AcDbLine
 62
2
  6
CONTINUOUS
 10
0.0
 20
0.0
 11
9.055
 21
0.0
  0
LINE
  5
251
100
AcDbEntity
  8
0
100
AcDbLine
 62
2
  6
CONTINUOUS
 10
0.0
 20
0.0
 11
0.0
 21
-2.594
  0
LINE
  5
252
100
AcDbEntity
  8
0
100
AcDbLine
 62
2
  6
CONTINUOUS
 10
0.0
 20
-0.344
 11
9.055
 21
-0.344
  0
LINE
  5
253
100
AcDbEntity
  8
0
100
AcDbLine
 62
2
  6
CONTINUOUS
 10
0.0
 20
-0.594
 11
9.055
 21
-0.594
  0
LINE
  5
254
100
AcDbEntity
  8
0
100
AcDbLine
 62
2
  6
CONTINUOUS
 10
0.0
 20
-0.844
 11
9.055
 21
-0.844
  0
LINE
  5
255
100
AcDbEntity
  8
0
100
AcDbLine
 62
2
  6
CONTINUOUS
 10
0.0
 20
-1.094
 11
9.055
 21
-1.094
  0
LINE
  5
256
100
AcDbEntity
  8
0
100
AcDbLine
 62
2
  6
CONTINUOUS
 10
0.0
 20
-1.344
 11
9.055
 21
-1.344
  0
LINE
  5
257
100
AcDbEntity
  8
0
100
AcDbLine
 62
2
  6
CONTINUOUS
 10
0.0
 20
-1.594
 11
9.055
 21
-1.594
  0
LINE
  5
258
100
AcDbEntity
  8
0
100
AcDbLine
 62
2
  6
CONTINUOUS
 10
0.0
 20
-1.844
 11
9.055
 21
-1.844
  0
LINE
  5
259
100
AcDbEntity
  8
0
100
AcDbLine
 62
2
  6
CONTINUOUS
 10
0.0
 20
-2.094
 11
9.055
 21
-2.094
  0
LINE
  5
25A
100
AcDbEntity
  8
0
100
AcDbLine
 62
2
  6
CONTINUOUS
 10
0.0
 20
-2.344
 11
9.055
 21
-2.344
  0
LINE
  5
25B
100
AcDbEntity
  8
0
100
AcDbLine
 62
2
  6
CONTINUOUS
 10
0.0
 20
-2.594
 11
9.055
 21
-2.594
  0
LINE
  5
25C
100
AcDbEntity
  8
0
100
AcDbLine
 62
2
  6
CONTINUOUS
 10
3.055
 20
0.0
 11
3.055
 21
-2.594
  0
LINE
  5
25D
100
AcDbEntity
  8
0
100
AcDbLine
 62
2
  6
CONTINUOUS
 10
9.055
 20
0.0
 11
9.055
 21
-2.594
  0
MTEXT
  5
25E
100
AcDbEntity
  8
0
100
AcDbMText
 62
2
  6
CONTINUOUS
  7
STANDARD
 71
2
 72
1
 10
1.5275
 20
-0.0995
 30
0.0
 11
1.0
 21
0.0
 31
0.0
 44
0.9
  1
Technical Data
 40
0.145
 41
3.248
  0
MTEXT
  5
25F
100
AcDbEntity
  8
0
100
AcDbMText
 62
2
  6
CONTINUOUS
  7
STANDARD
 71
2
 72
1
 10
4.555
 20
-0.0995
 30
0.0
 11
1.0
 21
0.0
 31
0.0
 44
0.9
  1
U.S. Units
 40
0.145
 41
2.32
  0
MTEXT
  5
260
100
AcDbEntity
  8
0
100
AcDbMText
 62
2
  6
CONTINUOUS
  7
STANDARD
 71
2
 72
1
 10
7.555
 20
-0.0995
 30
0.0
 11
1.0
 21
0.0
 31
0.0
 44
0.9
  1
Metric Units
 40
0.145
 41
2.784
  0
MTEXT
  5
261
100
AcDbEntity
  8
0
100
AcDbMText
 62
2
  6
CONTINUOUS
  7
STANDARD
 71
2
 72
1
 10
1.5275
 20
-0.4065
 30
0.0
 11
1.0
 21
0.0
 31
0.0
 44
0.9
  1
Cavity
 40
0.125
 41
1.2
  0
MTEXT
  5
262
100
AcDbEntity
  8
0
100
AcDbMText
 62
2
  6
CONTINUOUS
  7
STANDARD
 71
2
 72
1
 10
6.055
 20
-0.4065
 30
0.0
 11
1.0
 21
0.0
 31
0.0
 44
0.9
  1
T-2A
 40
0.125
 41
0.8
  0
MTEXT
  5
263
100
AcDbEntity
  8
0
100
AcDbMText
 62
2
  6
CONTINUOUS
  7
STANDARD
 71
2
 72
1
 10
1.5275
 20
-0.6565
 30
0.0
 11
1.0
 21
0.0
 31
0.0
 44
0.9
  1
Body Features
 40
0.125
 41
2.6
  0
MTEXT
  5
264
100
AcDbEntity
  8
0
100
AcDbMText
 62
2
  6
CONTINUOUS
  7
STANDARD
 71
2
 72
1
 10
6.055
 20
-0.6565
 30
0.0
 11
1.0
 21
0.0
 31
0.0
 44
0.9
  1
2 cylinder sequence, with reverse checks
 40
0.125
 41
8.0
  0
MTEXT
  5
265
100
AcDbEntity
  8
0
100
AcDbMText
 62
2
  6
CONTINUOUS
  7
STANDARD
 71
2
 72
1
 10
1.5275
 20
-0.9065
 30
0.0
 11
1.0
 21
0.0
 31
0.0
 44
0.9
  1
Body Type
 40
0.125
 41
1.8
  0
MTEXT
  5
266
100
AcDbEntity
  8
0
100
AcDbMText
 62
2
  6
CONTINUOUS
  7
STANDARD
 71
2
 72
1
 10
6.055
 20
-0.9065
 30
0.0
 11
1.0
 21
0.0
 31
0.0
 44
0.9
  1
Line mount
 40
0.125
 41
2.0
  0
MTEXT
  5
267
100
AcDbEntity
  8
0
100
AcDbMText
 62
2
  6
CONTINUOUS
  7
STANDARD
 71
2
 72
1
 10
1.5275
 20
-1.1565
 30
0.0
 11
1.0
 21
0.0
 31
0.0
 44
0.9
  1
Interface
 40
0.125
 41
1.8
  0
MTEXT
  5
268
100
AcDbEntity
  8
0
100
AcDbMText
 62
2
  6
CONTINUOUS
  7
STANDARD
 71
2
 72
1
 10
6.055
 20
-1.1565
 30
0.0
 11
1.0
 21
0.0
 31
0.0
 44
0.9
  1
None
 40
0.125
 41
0.8
  0
MTEXT
  5
269
100
AcDbEntity
  8
0
100
AcDbMText
 62
2
  6
CONTINUOUS
  7
STANDARD
 71
2
 72
1
 10
1.5275
 20
-1.4065
 30
0.0
 11
1.0
 21
0.0
 31
0.0
 44
0.9
  1
Open Cavity Quantity
 40
0.125
 41
4.0
  0
MTEXT
  5
26A
100
AcDbEntity
  8
0
100
AcDbMText
 62
2
  6
CONTINUOUS
  7
STANDARD
 71
2
 72
1
 10
6.055
 20
-1.4065
 30
0.0
 11
1.0
 21
0.0
 31
0.0
 44
0.9
  1
2
 40
0.125
 41
0.2
  0
MTEXT
  5
26B
100
AcDbEntity
  8
0
100
AcDbMText
 62
2
  6
CONTINUOUS
  7
STANDARD
 71
2
 72
1
 10
1.5275
 20
-1.6565
 30
0.0
 11
1.0
 21
0.0
 31
0.0
 44
0.9
  1
Weight
 40
0.125
 41
1.2
  0
MTEXT
  5
26C
100
AcDbEntity
  8
0
100
AcDbMText
 62
2
  6
CONTINUOUS
  7
STANDARD
 71
2
 72
1
 10
4.555
 20
-1.6565
 30
0.0
 11
1.0
 21
0.0
 31
0.0
 44
0.9
  1
3.736 lb.
 40
0.125
 41
1.8
  0
MTEXT
  5
26D
100
AcDbEntity
  8
0
100
AcDbMText
 62
2
  6
CONTINUOUS
  7
STANDARD
 71
2
 72
1
 10
7.555
 20
-1.6565
 30
0.0
 11
1.0
 21
0.0
 31
0.0
 44
0.9
  1
1,695 kg.
 40
0.125
 41
1.8
  0
MTEXT
  5
26E
100
AcDbEntity
  8
0
100
AcDbMText
 62
2
  6
CONTINUOUS
  7
STANDARD
 71
2
 72
1
 10
1.5275
 20
-1.9065
 30
0.0
 11
1.0
 21
0.0
 31
0.0
 44
0.9
  1
Mounting Hole Diameter
 40
0.125
 41
4.4
  0
MTEXT
  5
26F
100
AcDbEntity
  8
0
100
AcDbMText
 62
2
  6
CONTINUOUS
  7
STANDARD
 71
2
 72
1
 10
4.555
 20
-1.9065
 30
0.0
 11
1.0
 21
0.0
 31
0.0
 44
0.9
  1
.34 in.
 40
0.125
 41
1.4
  0
MTEXT
  5
270
100
AcDbEntity
  8
0
100
AcDbMText
 62
2
  6
CONTINUOUS
  7
STANDARD
 71
2
 72
1
 10
7.555
 20
-1.9065
 30
0.0
 11
1.0
 21
0.0
 31
0.0
 44
0.9
  1
8.6 mm
 40
0.125
 41
1.2
  0
MTEXT
  5
271
100
AcDbEntity
  8
0
100
AcDbMText
 62
2
  6
CONTINUOUS
  7
STANDARD
 71
2
 72
1
 10
1.5275
 20
-2.1565
 30
0.0
 11
1.0
 21
0.0
 31
0.0
 44
0.9
  1
Mounting Hole Depth
 40
0.125
 41
3.8
  0
MTEXT
  5
272
100
AcDbEntity
  8
0
100
AcDbMText
 62
2
  6
CONTINUOUS
  7
STANDARD
 71
2
 72
1
 10
6.055
 20
-2.1565
 30
0.0
 11
1.0
 21
0.0
 31
0.0
 44
0.9
  1
Through
 40
0.125
 41
1.4
  0
MTEXT
  5
273
100
AcDbEntity
  8
0
100
AcDbMText
 62
2
  6
CONTINUOUS
  7
STANDARD
 71
2
 72
1
 10
1.5275
 20
-2.4065
 30
0.0
 11
1.0
 21
0.0
 31
0.0
 44
0.9
  1
Mounting Hole Quantity
 40
0.125
 41
4.4
  0
MTEXT
  5
274
100
AcDbEntity
  8
0
100
AcDbMText
 62
2
  6
CONTINUOUS
  7
STANDARD
 71
2
 72
1
 10
6.055
 20
-2.4065
 30
0.0
 11
1.0
 21
0.0
 31
0.0
 44
0.9
  1
2
 40
0.125
 41
0.2
  0
ENDBLK
  5
275
100
AcDbEntity
  8
0
  6
BYBLOCK
 62
0
100
AcDbBlockEnd
  0
BLOCK
  5
276
100
AcDbEntity
  8
0
100
AcDbBlockBegin
  2
*T3
 70
1
 10
0.0
 20
0.0
  3
*T3
  1

  0
LINE
  5
277
100
AcDbEntity
  8
0
100
AcDbLine
 62
2
  6
CONTINUOUS
 10
0.0
 20
0.0
 11
4.6
 21
0.0
  0
LINE
  5
278
100
AcDbEntity
  8
0
100
AcDbLine
 62
2
  6
CONTINUOUS
 10
0.0
 20
0.0
 11
0.0
 21
-0.93775
  0
LINE
  5
279
100
AcDbEntity
  8
0
100
AcDbLine
 62
2
  6
CONTINUOUS
 10
0.0
 20
-0.34375
 11
4.6
 21
-0.34375
  0
LINE
  5
27A
100
AcDbEntity
  8
0
100
AcDbLine
 62
2
  6
CONTINUOUS
 10
0.0
 20
-0.68775
 11
4.6
 21
-0.68775
  0
LINE
  5
27B
100
AcDbEntity
  8
0
100
AcDbLine
 62
2
  6
CONTINUOUS
 10
0.0
 20
-0.93775
 11
4.6
 21
-0.93775
  0
LINE
  5
27C
100
AcDbEntity
  8
0
100
AcDbLine
 62
2
  6
CONTINUOUS
 10
1.3
 20
-0.34375
 11
1.3
 21
-0.93775
  0
LINE
  5
27D
100
AcDbEntity
  8
0
100
AcDbLine
 62
2
  6
CONTINUOUS
 10
3.3
 20
-0.34375
 11
3.3
 21
-0.93775
  0
LINE
  5
27E
100
AcDbEntity
  8
0
100
AcDbLine
 62
2
  6
CONTINUOUS
 10
4.6
 20
0.0
 11
4.6
 21
-0.93775
  0
MTEXT
  5
27F
100
AcDbEntity
  8
0
100
AcDbMText
 62
2
  6
CONTINUOUS
  7
STANDARD
 71
2
 72
1
 10
2.3
 20
-0.099375
 30
0.0
 11
1.0
 21
0.0
 31
0.0
 44
0.9
  1
Port Headings
 40
0.145
 41
3.016
  0
MTEXT
  5
280
100
AcDbEntity
  8
0
100
AcDbMText
 62
2
  6
CONTINUOUS
  7
STANDARD
 71
2
 72
1
 10
0.65
 20
-0.44325
 30
0.0
 11
1.0
 21
0.0
 31
0.0
 44
0.9
  1
Product
 40
0.145
 41
1.624
  0
MTEXT
  5
281
100
AcDbEntity
  8
0
100
AcDbMText
 62
2
  6
CONTINUOUS
  7
STANDARD
 71
2
 72
1
 10
2.3
 20
-0.44325
 30
0.0
 11
1.0
 21
0.0
 31
0.0
 44
0.9
  1
Port
 40
0.145
 41
0.928
  0
MTEXT
  5
282
100
AcDbEntity
  8
0
100
AcDbMText
 62
2
  6
CONTINUOUS
  7
STANDARD
 71
2
 72
1
 10
3.95
 20
-0.44325
 30
0.0
 11
1.0
 21
0.0
 31
0.0
 44
0.9
  1
Size
 40
0.145
 41
0.928
  0
MTEXT
  5
283
100
AcDbEntity
  8
0
100
AcDbMText
 62
2
  6
CONTINUOUS
  7
STANDARD
 71
2
 72
1
 10
0.65
 20
-0.75025
 30
0.0
 11
1.0
 21
0.0
 31
0.0
 44
0.9
  1
B8B
 40
0.125
 41
0.6
  0
MTEXT
  5
284
100
AcDbEntity
  8
0
100
AcDbMText
 62
2
  6
CONTINUOUS
  7
STANDARD
 71
2
 72
1
 10
2.3
 20
-0.75025
 30
0.0
 11
1.0
 21
0.0
 31
0.0
 44
0.9
  1
All Ports
 40
0.125
 41
1.8
  0
MTEXT
  5
285
100
AcDbEntity
  8
0
100
AcDbMText
 62
2
  6
CONTINUOUS
  7
STANDARD
 71
2
 72
1
 10
3.95
 20
-0.75025
 30
0.0
 11
1.0
 21
0.0
 31
0.0
 44
0.9
  1
3/8" NPTF
 40
0.125
 41
1.8
  0
ENDBLK
  5
286
100
AcDbEntity
  8
0
  6
BYBLOCK
 62
0
100
AcDbBlockEnd
  0
ENDSEC
  0
SECTION
  2
ENTITIES
  0
IMAGE
  5
287
100
AcDbEntity
  8
0
100
AcDbRasterImage
 62
7
  6
CONTINUOUS
 10
19.2297077316
 20
0.3094318264
 30
0.0
 11
0.0066666667
 21
0.0
 31
0.0
 12
0.0
 22
0.0066666667
 32
0.0
 13
369.0
 23
92.0
340
       427
 70
9
280
0
281
50
282
50
283
0
360
       421
 71
1
 91
2
 14
-0.5
 24
-0.5
 14
368.5
 24
91.5
  0
INSERT
  5
288
100
AcDbEntity
  8
0
100
AcDbBlockReference
 62
2
  6
CONTINUOUS
  2
SUN_FIRST_THIRD_ANGLE_BL0
 10
20.4816717061
 20
1.2289683772
  0
ACAD_TABLE
  5
289
100
AcDbEntity
  8
0
 62
2
  6
CONTINUOUS
100
AcDbBlockReference
  2
*T1
 10
12.42375
 20
0.30125
 30
0.0
100
AcDbTable
342
       429
343
20F
 11
1.0
 21
0.0
 31
0.0
 90
6
 91
4
 92
6
 93
20
 94
0
 95
0
 96
0
 70
1
 41
0.0
141
0.525
141
0.1
141
0.525
141
0.1
142
4.1
142
1.1
142
0.7
142
0.5
142
0.4
142
2.475
171
1
172
0
173
0
174
0
175
1
176
1
 91
33
178
0
145
0.0
301
CELL_VALUE
 90
4
  1
T-2A Line mount\P2 cylinder sequence, with reverse checks
304
ACVALUE_END
170
2
140
0.125
171
1
172
0
173
0
174
0
175
1
176
1
 91
33
178
0
145
0.0
301
CELL_VALUE
 90
4
  1
Apr-16-21
304
ACVALUE_END
170
5
140
0.125
171
1
172
0
173
0
174
0
175
1
176
1
 91
33
178
0
145
0.0
301
CELL_VALUE
 90
4
  1
1.000
304
ACVALUE_END
170
5
140
0.125
171
1
172
0
173
0
174
0
175
1
176
1
 91
33
178
0
145
0.0
301
CELL_VALUE
 90
4
  1
C
304
ACVALUE_END
170
5
140
0.125
171
1
172
0
173
0
174
0
175
1
176
1
 91
33
178
0
145
0.0
301
CELL_VALUE
 90
4
  1
2
304
ACVALUE_END
170
5
140
0.125
171
1
172
0
173
0
174
0
175
1
176
1
 91
33
178
0
145
0.0
301
CELL_VALUE
 90
4
  1
 
304
ACVALUE_END
170
1
140
0.125
171
1
172
0
173
0
174
0
175
1
176
1
 91
33
178
0
145
0.0
301
CELL_VALUE
 90
4
  1
DESCRIPTION
304
ACVALUE_END
170
1
140
0.06
171
1
172
0
173
0
174
0
175
1
176
1
 91
33
178
0
145
0.0
301
CELL_VALUE
 90
4
  1
DATE
304
ACVALUE_END
170
1
140
0.06
171
1
172
0
173
0
174
0
175
1
176
1
 91
33
178
0
145
0.0
301
CELL_VALUE
 90
4
  1
SCALE
304
ACVALUE_END
170
1
140
0.06
171
1
172
0
173
0
174
0
175
1
176
1
 91
33
178
0
145
0.0
301
CELL_VALUE
 90
4
  1
DWG SIZE
304
ACVALUE_END
170
1
140
0.06
171
1
172
0
173
0
174
0
175
1
176
1
 91
33
178
0
145
0.0
301
CELL_VALUE
 90
4
  1
SHEET
304
ACVALUE_END
170
1
140
0.06
171
1
172
0
173
0
174
0
175
1
176
1
 91
33
178
0
145
0.0
301
CELL_VALUE
 90
4
  1
 
304
ACVALUE_END
170
1
140
0.125
171
1
172
0
173
0
174
0
175
1
176
1
 91
33
178
0
145
0.0
301
CELL_VALUE
 90
4
  1
B8B
304
ACVALUE_END
170
5
140
0.125
171
1
172
0
173
0
174
0
175
4
176
1
 91
33
178
0
145
0.0
301
CELL_VALUE
 90
4
  1
ALL DIMENSIONS IN INCH\PVIEWS ARE THIRD ANGLE
304
ACVALUE_END
170
5
140
0.12
171
1
172
0
173
1
174
0
175
1
176
1
 91
1
178
0
145
0.0
170
1
171
1
172
0
173
1
174
0
175
1
176
1
 91
1
178
0
145
0.0
170
1
171
1
172
0
173
1
174
0
175
1
176
1
 91
1
178
0
145
0.0
170
5
171
1
172
0
173
0
174
0
175
1
176
1
 91
33
178
0
145
0.0
301
CELL_VALUE
 90
4
  1
 
304
ACVALUE_END
170
1
140
0.125
171
1
172
0
173
0
174
0
175
1
176
1
 91
33
178
0
145
0.0
301
CELL_VALUE
 90
4
  1
MODEL
304
ACVALUE_END
170
1
140
0.06
171
1
172
0
173
0
174
0
175
1
176
1
 91
33
178
0
145
0.0
301
CELL_VALUE
 90
4
  1
 
304
ACVALUE_END
170
1
140
0.125
171
1
172
0
173
0
174
0
175
1
176
1
 91
33
178
0
145
0.0
301
CELL_VALUE
 90
4
  1
 
304
ACVALUE_END
170
1
140
0.125
171
1
172
0
173
0
174
0
175
1
176
1
 91
33
178
0
145
0.0
301
CELL_VALUE
 90
4
  1
 
304
ACVALUE_END
170
1
140
0.125
171
1
172
0
173
0
174
0
175
1
176
1
 91
33
178
0
145
0.0
301
CELL_VALUE
 90
4
  1
 
304
ACVALUE_END
170
1
140
0.125
171
1
172
0
173
0
174
0
175
1
176
1
 91
33
178
0
145
0.0
301
CELL_VALUE
 90
4
  1
 
304
ACVALUE_END
170
1
140
0.125
  0
ACAD_TABLE
  5
28A
100
AcDbEntity
  8
0
 62
2
  6
CONTINUOUS
100
AcDbBlockReference
  2
*T2
 10
12.4237499994
 20
16.47875
 30
0.0
100
AcDbTable
342
       428
343
210
 11
1.0
 21
0.0
 31
0.0
 90
22
 91
10
 92
3
 93
16
 94
0
 95
0
 96
0
 41
0.028
141
0.344
141
0.25
141
0.25
141
0.25
141
0.25
141
0.25
141
0.25
141
0.25
141
0.25
141
0.25
142
3.055
142
3.0
142
3.0
171
1
172
0
173
0
174
0
175
1
176
1
 91
33
178
0
145
0.0
301
CELL_VALUE
 90
4
  1
Technical Data
304
ACVALUE_END
170
5
140
0.145
171
1
172
0
173
0
174
0
175
1
176
1
 91
33
178
0
145
0.0
301
CELL_VALUE
 90
4
  1
U.S. Units
304
ACVALUE_END
170
5
140
0.145
171
1
172
0
173
0
174
0
175
1
176
1
 91
33
178
0
145
0.0
301
CELL_VALUE
 90
4
  1
Metric Units
304
ACVALUE_END
170
5
140
0.145
171
1
172
0
173
0
174
0
175
1
176
1
 91
33
178
0
145
0.0
301
CELL_VALUE
 90
4
  1
Cavity
304
ACVALUE_END
170
5
140
0.125
171
1
172
0
173
0
174
0
175
2
176
1
 91
33
178
0
145
0.0
301
CELL_VALUE
 90
4
  1
T-2A
304
ACVALUE_END
170
5
140
0.125
171
1
172
0
173
1
174
0
175
1
176
1
 91
1
178
0
145
0.0
170
1
171
1
172
0
173
0
174
0
175
1
176
1
 91
33
178
0
145
0.0
301
CELL_VALUE
 90
4
  1
Body Features
304
ACVALUE_END
170
5
140
0.125
171
1
172
0
173
0
174
0
175
2
176
1
 91
33
178
0
145
0.0
301
CELL_VALUE
 90
4
  1
2 cylinder sequence, with reverse checks
304
ACVALUE_END
170
5
140
0.125
171
1
172
0
173
1
174
0
175
1
176
1
 91
1
178
0
145
0.0
170
1
171
1
172
0
173
0
174
0
175
1
176
1
 91
33
178
0
145
0.0
301
CELL_VALUE
 90
4
  1
Body Type
304
ACVALUE_END
170
5
140
0.125
171
1
172
0
173
0
174
0
175
2
176
1
 91
33
178
0
145
0.0
301
CELL_VALUE
 90
4
  1
Line mount
304
ACVALUE_END
170
5
140
0.125
171
1
172
0
173
1
174
0
175
1
176
1
 91
1
178
0
145
0.0
170
1
171
1
172
0
173
0
174
0
175
1
176
1
 91
33
178
0
145
0.0
301
CELL_VALUE
 90
4
  1
Interface
304
ACVALUE_END
170
5
140
0.125
171
1
172
0
173
0
174
0
175
2
176
1
 91
33
178
0
145
0.0
301
CELL_VALUE
 90
4
  1
None
304
ACVALUE_END
170
5
140
0.125
171
1
172
0
173
1
174
0
175
1
176
1
 91
1
178
0
145
0.0
170
1
171
1
172
0
173
0
174
0
175
1
176
1
 91
33
178
0
145
0.0
301
CELL_VALUE
 90
4
  1
Open Cavity Quantity
304
ACVALUE_END
170
5
140
0.125
171
1
172
0
173
0
174
0
175
2
176
1
 91
33
178
0
145
0.0
301
CELL_VALUE
 90
4
  1
2
304
ACVALUE_END
170
5
140
0.125
171
1
172
0
173
1
174
0
175
1
176
1
 91
1
178
0
145
0.0
170
1
171
1
172
0
173
0
174
0
175
1
176
1
 91
33
178
0
145
0.0
301
CELL_VALUE
 90
4
  1
Weight
304
ACVALUE_END
170
5
140
0.125
171
1
172
0
173
0
174
0
175
1
176
1
 91
33
178
0
145
0.0
301
CELL_VALUE
 90
4
  1
3.736 lb.
304
ACVALUE_END
170
5
140
0.125
171
1
172
0
173
0
174
0
175
1
176
1
 91
33
178
0
145
0.0
301
CELL_VALUE
 90
4
  1
1,695 kg.
304
ACVALUE_END
170
5
140
0.125
171
1
172
0
173
0
174
0
175
1
176
1
 91
33
178
0
145
0.0
301
CELL_VALUE
 90
4
  1
Mounting Hole Diameter
304
ACVALUE_END
170
5
140
0.125
171
1
172
0
173
0
174
0
175
1
176
1
 91
33
178
0
145
0.0
301
CELL_VALUE
 90
4
  1
.34 in.
304
ACVALUE_END
170
5
140
0.125
171
1
172
0
173
0
174
0
175
1
176
1
 91
33
178
0
145
0.0
301
CELL_VALUE
 90
4
  1
8.6 mm
304
ACVALUE_END
170
5
140
0.125
171
1
172
0
173
0
174
0
175
1
176
1
 91
33
178
0
145
0.0
301
CELL_VALUE
 90
4
  1
Mounting Hole Depth
304
ACVALUE_END
170
5
140
0.125
171
1
172
0
173
0
174
0
175
2
176
1
 91
33
178
0
145
0.0
301
CELL_VALUE
 90
4
  1
Through
304
ACVALUE_END
170
5
140
0.125
171
1
172
0
173
1
174
0
175
1
176
1
 91
1
178
0
145
0.0
170
1
171
1
172
0
173
0
174
0
175
1
176
1
 91
33
178
0
145
0.0
301
CELL_VALUE
 90
4
  1
Mounting Hole Quantity
304
ACVALUE_END
170
5
140
0.125
171
1
172
0
173
0
174
0
175
2
176
1
 91
33
178
0
145
0.0
301
CELL_VALUE
 90
4
  1
2
304
ACVALUE_END
170
5
140
0.125
171
1
172
0
173
1
174
0
175
1
176
1
 91
1
178
0
145
0.0
170
1
  0
ACAD_TABLE
  5
28B
100
AcDbEntity
  8
0
 62
2
  6
CONTINUOUS
100
AcDbBlockReference
  2
*T3
 10
0.52125
 20
1.459
 30
0.0
100
AcDbTable
342
       428
343
211
 11
1.0
 21
0.0
 31
0.0
 90
22
 91
3
 92
3
 93
16
 94
0
 95
0
 96
0
 41
0.05
141
0.34375
141
0.344
141
0.25
142
1.3
142
2.0
142
1.3
171
1
172
0
173
0
174
0
175
3
176
1
 91
33
178
0
145
0.0
301
CELL_VALUE
 90
4
  1
Port Headings
304
ACVALUE_END
170
5
140
0.145
171
1
172
0
173
1
174
0
175
1
176
1
 91
1
178
0
145
0.0
170
1
171
1
172
0
173
1
174
0
175
1
176
1
 91
1
178
0
145
0.0
170
1
171
1
172
0
173
0
174
0
175
1
176
1
 91
33
178
0
145
0.0
301
CELL_VALUE
 90
4
  1
Product
304
ACVALUE_END
170
5
140
0.145
171
1
172
0
173
0
174
0
175
1
176
1
 91
33
178
0
145
0.0
301
CELL_VALUE
 90
4
  1
Port
304
ACVALUE_END
170
5
140
0.145
171
1
172
0
173
0
174
0
175
1
176
1
 91
33
178
0
145
0.0
301
CELL_VALUE
 90
4
  1
Size
304
ACVALUE_END
170
5
140
0.145
171
1
172
0
173
0
174
0
175
1
176
1
 91
33
178
0
145
0.0
301
CELL_VALUE
 90
4
  1
B8B
304
ACVALUE_END
170
5
140
0.125
171
1
172
0
173
0
174
0
175
1
176
1
 91
33
178
0
145
0.0
301
CELL_VALUE
 90
4
  1
All Ports
304
ACVALUE_END
170
5
140
0.125
171
1
172
0
173
0
174
0
175
1
176
1
 91
33
178
0
145
0.0
301
CELL_VALUE
 90
4
  1
3/8" NPTF
304
ACVALUE_END
170
5
140
0.125
  0
MTEXT
  5
28C
100
AcDbEntity
  8
0
100
AcDbMText
 62
2
  6
CONTINUOUS
  7
STANDARD
 71
1
 72
1
 10
0.52125
 20
5.75995
 30
0.0
 11
1.0
 21
0.0
 31
0.0
 44
0.6
  3
Notes\P \P1. Important: Carefully consider\P   the maximum system pressure. The\P   pressure rating of the manifold is\P   dependent on the manifold material,\P   with the port type/size a secondary\P   consideration. Manifolds\P   constructed of alu
  1
minum are not\P   rated for pressures higher than\P   3000 psi (210 bar), regardless of\P   the port type/size specified.
 40
0.1
 41
3.04
  0
LINE
  5
28D
100
AcDbEntity
  8
0
100
AcDbLine
 62
7
  6
CONTINUOUS
 10
0.30125
 20
0.30125
 11
0.30125
 21
16.69875
  0
LINE
  5
28E
100
AcDbEntity
  8
0
100
AcDbLine
 62
7
  6
CONTINUOUS
 10
0.30125
 20
0.30125
 11
21.69875
 21
0.30125
  0
LINE
  5
28F
100
AcDbEntity
  8
0
100
AcDbLine
 62
7
  6
CONTINUOUS
 10
0.30125
 20
16.69875
 11
21.69875
 21
16.69875
  0
LINE
  5
290
100
AcDbEntity
  8
0
100
AcDbLine
 62
7
  6
CONTINUOUS
 10
21.69875
 20
0.30125
 11
21.69875
 21
16.69875
  0
LINE
  5
291
100
AcDbEntity
  8
0
100
AcDbLine
 62
7
  6
CONTINUOUS
 10
9.7403995803
 20
11.2332821796
 11
9.7596175115
 21
11.2427754696
  0
LINE
  5
292
100
AcDbEntity
  8
0
100
AcDbLine
 62
7
  6
CONTINUOUS
 10
9.6321994056
 20
10.8152688517
 11
9.1628829275
 21
10.3619439179
  0
LINE
  5
293
100
AcDbEntity
  8
0
100
AcDbLine
 62
7
  6
CONTINUOUS
 10
9.1628829275
 20
6.1360181775
 11
12.060660578
 21
5.9350566149
  0
LINE
  5
294
100
AcDbEntity
  8
0
100
AcDbLine
 62
7
  6
CONTINUOUS
 10
11.1892884474
 20
5.7667178031
 11
11.2085063368
 21
5.7572245337
  0
LINE
  5
295
100
AcDbEntity
  8
0
100
AcDbLine
 62
7
  6
CONTINUOUS
 10
10.7277774352
 20
10.6294893361
 11
10.7620536635
 21
10.6464211366
  0
LINE
  5
296
100
AcDbEntity
  8
0
100
AcDbLine
 62
4
  6
CONTINUOUS
 10
11.2748798298
 20
6.3179654987
 11
11.2603909419
 21
6.3189703065
  0
LINE
  5
297
100
AcDbEntity
  8
0
100
AcDbLine
 62
4
  6
CONTINUOUS
 10
11.4777242608
 20
6.3425352253
 11
11.5211909246
 21
6.3395208019
  0
LINE
  5
298
100
AcDbEntity
  8
0
100
AcDbLine
 62
4
  6
CONTINUOUS
 10
11.2603909419
 20
6.4348814099
 11
11.2748798298
 21
6.4338766021
  0
LINE
  5
299
100
AcDbEntity
  8
0
100
AcDbLine
 62
4
  6
CONTINUOUS
 10
9.8115021742
 20
6.7855369727
 11
9.7970132862
 21
6.7962010394
  0
LINE
  5
29A
100
AcDbEntity
  8
0
100
AcDbLine
 62
7
  6
CONTINUOUS
 10
9.1628829275
 20
10.3619439179
 11
9.1628829275
 21
6.1360181775
  0
LINE
  5
29B
100
AcDbEntity
  8
0
100
AcDbLine
 62
4
  6
CONTINUOUS
 10
9.7825243983
 20
9.9557834244
 11
9.7970132862
 21
9.9740971362
  0
LINE
  5
29C
100
AcDbEntity
  8
0
100
AcDbLine
 62
4
  6
CONTINUOUS
 10
9.7970132862
 20
9.9740971362
 11
9.8115021742
 21
9.9827515847
  0
LINE
  5
29D
100
AcDbEntity
  8
0
100
AcDbLine
 62
4
  6
CONTINUOUS
 10
9.9129243897
 20
9.9660586739
 11
9.9274132776
 21
9.9747131224
  0
LINE
  5
29E
100
AcDbEntity
  8
0
100
AcDbLine
 62
4
  6
CONTINUOUS
 10
9.84047995
 20
9.8744901246
 11
9.8259910621
 21
9.8658356735
  0
LINE
  5
29F
100
AcDbEntity
  8
0
100
AcDbLine
 62
4
  6
CONTINUOUS
 10
9.8259910621
 20
6.7845321649
 11
9.8115021742
 21
6.7855369727
  0
LINE
  5
2A0
100
AcDbEntity
  8
0
100
AcDbLine
 62
4
  6
CONTINUOUS
 10
10.0143466052
 20
6.7714696636
 11
10.0650577129
 21
6.7679528364
  0
LINE
  5
2A1
100
AcDbEntity
  8
0
100
AcDbLine
 62
4
  6
CONTINUOUS
 10
9.8259910621
 20
6.9004432684
 11
9.84047995
 21
6.8897792042
  0
LINE
  5
2A2
100
AcDbEntity
  8
0
100
AcDbLine
 62
4
  6
CONTINUOUS
 10
9.7970132862
 20
6.7962010394
 11
9.7825243983
 21
6.8165243641
  0
LINE
  5
2A3
100
AcDbEntity
  8
0
100
AcDbLine
 62
4
  6
CONTINUOUS
 10
9.84047995
 20
6.8897792042
 11
9.847724394
 21
6.8796175371
  0
LINE
  5
2A4
100
AcDbEntity
  8
0
100
AcDbLine
 62
4
  6
CONTINUOUS
 10
9.847724394
 20
9.8836469796
 11
9.84047995
 21
9.8744901246
  0
LINE
  5
2A5
100
AcDbEntity
  8
0
100
AcDbLine
 62
4
  6
CONTINUOUS
 10
9.9056799457
 20
9.9569018145
 11
9.9129243897
 21
9.9660586739
  0
LINE
  5
2A6
100
AcDbEntity
  8
0
100
AcDbLine
 62
4
  6
CONTINUOUS
 10
9.9274132776
 20
9.9070983109
 11
9.9129243897
 21
9.8887846026
  0
LINE
  5
2A7
100
AcDbEntity
  8
0
100
AcDbLine
 62
4
  6
CONTINUOUS
 10
9.9636354974
 20
9.9335640707
 11
9.9563910534
 21
9.9244072114
  0
LINE
  5
2A8
100
AcDbEntity
  8
0
100
AcDbLine
 62
4
  6
CONTINUOUS
 10
10.0650577129
 20
9.916871153
 11
10.0723021569
 21
9.9260280123
  0
LINE
  5
2A9
100
AcDbEntity
  8
0
100
AcDbLine
 62
4
  6
CONTINUOUS
 10
10.0650577129
 20
9.8492563449
 11
10.0795466008
 21
9.867570055
  0
LINE
  5
2AA
100
AcDbEntity
  8
0
100
AcDbLine
 62
4
  6
CONTINUOUS
 10
10.8886392589
 20
10.55589657
 11
10.8925215412
 21
10.5596465671
  0
LINE
  5
2AB
100
AcDbEntity
  8
0
100
AcDbLine
 62
4
  6
CONTINUOUS
 10
10.9449323535
 20
10.6102715271
 11
10.960461483
 21
10.6252715153
  0
LINE
  5
2AC
100
AcDbEntity
  8
0
100
AcDbLine
 62
4
  6
CONTINUOUS
 10
9.9563910534
 20
9.9244072114
 11
9.9274132776
 21
9.9070983109
  0
LINE
  5
2AD
100
AcDbEntity
  8
0
100
AcDbLine
 62
4
  6
CONTINUOUS
 10
10.0143466052
 20
6.8390844717
 11
10.0650577129
 21
6.8355676444
  0
LINE
  5
2AE
100
AcDbEntity
  8
0
100
AcDbLine
 62
4
  6
CONTINUOUS
 10
10.0650577129
 20
6.8838639398
 11
10.0143466052
 21
6.8873807671
  0
LINE
  5
2AF
100
AcDbEntity
  8
0
100
AcDbLine
 62
4
  6
CONTINUOUS
 10
9.8115021742
 20
6.9014480761
 11
9.8259910621
 21
6.9004432684
  0
LINE
  5
2B0
100
AcDbEntity
  8
0
100
AcDbLine
 62
4
  6
CONTINUOUS
 10
11.2603909419
 20
6.3189703065
 11
11.2459020539
 21
6.3296343732
  0
LINE
  5
2B1
100
AcDbEntity
  8
0
100
AcDbLine
 62
4
  6
CONTINUOUS
 10
10.0795466008
 20
6.8152443205
 11
10.0650577129
 21
6.8355676444
  0
LINE
  5
2B2
100
AcDbEntity
  8
0
100
AcDbLine
 62
4
  6
CONTINUOUS
 10
10.0723021569
 20
6.8737022796
 11
10.0650577129
 21
6.8838639398
  0
LINE
  5
2B3
100
AcDbEntity
  8
0
100
AcDbLine
 62
4
  6
CONTINUOUS
 10
9.7825243983
 20
6.8165243641
 11
9.7752799543
 21
6.8460045439
  0
LINE
  5
2B4
100
AcDbEntity
  8
0
100
AcDbLine
 62
7
  6
CONTINUOUS
 10
9.6321994056
 20
10.7121990264
 11
9.6321994056
 21
11.0966024677
  0
LINE
  5
2B5
100
AcDbEntity
  8
0
100
AcDbLine
 62
7
  6
CONTINUOUS
 10
9.6466474538
 20
10.6982433073
 11
9.6466474538
 21
11.0826467487
  0
LINE
  5
2B6
100
AcDbEntity
  8
0
100
AcDbLine
 62
4
  6
CONTINUOUS
 10
9.7752799543
 20
9.9273080525
 11
9.7825243983
 21
9.9557834244
  0
LINE
  5
2B7
100
AcDbEntity
  8
0
100
AcDbLine
 62
4
  6
CONTINUOUS
 10
9.9129243897
 20
9.8887846026
 11
9.9056799457
 21
9.8603092306
  0
LINE
  5
2B8
100
AcDbEntity
  8
0
100
AcDbLine
 62
4
  6
CONTINUOUS
 10
11.0028879052
 20
10.606252296
 11
11.0125936111
 21
10.6156272886
  0
LINE
  5
2B9
100
AcDbEntity
  8
0
100
AcDbLine
 62
4
  6
CONTINUOUS
 10
11.0552058215
 20
10.6367875272
 11
11.0668526687
 21
10.6480375183
  0
LINE
  5
2BA
100
AcDbEntity
  8
0
100
AcDbLine
 62
4
  6
CONTINUOUS
 10
11.0084326447
 20
10.5516081047
 11
11.0045503623
 21
10.5478581077
  0
LINE
  5
2BB
100
AcDbEntity
  8
0
100
AcDbLine
 62
4
  6
CONTINUOUS
 10
11.2748798298
 20
6.4338766021
 11
11.2893687177
 21
6.423212538
  0
LINE
  5
2BC
100
AcDbEntity
  8
0
100
AcDbLine
 62
7
  6
CONTINUOUS
 10
9.7132266219
 20
10.6021216501
 11
9.7132266219
 21
10.6602925361
  0
LINE
  5
2BD
100
AcDbEntity
  8
0
100
AcDbLine
 62
4
  6
CONTINUOUS
 10
9.9346577215
 20
6.8929072099
 11
9.9346577215
 21
6.7769961065
  0
LINE
  5
2BE
100
AcDbEntity
  8
0
100
AcDbLine
 62
4
  6
CONTINUOUS
 10
9.9636354974
 20
9.9528825834
 11
9.9636354974
 21
9.9335640707
  0
LINE
  5
2BF
100
AcDbEntity
  8
0
100
AcDbLine
 62
4
  6
CONTINUOUS
 10
10.0143466052
 20
9.9686842756
 11
10.0143466052
 21
9.8527731722
  0
LINE
  5
2C0
100
AcDbEntity
  8
0
100
AcDbLine
 62
4
  6
CONTINUOUS
 10
10.0143466052
 20
6.8873807671
 11
10.0143466052
 21
6.7714696636
  0
LINE
  5
2C1
100
AcDbEntity
  8
0
100
AcDbLine
 62
7
  6
CONTINUOUS
 10
10.0603341719
 20
10.5911734417
 11
10.0603341719
 21
10.9755768831
  0
LINE
  5
2C2
100
AcDbEntity
  8
0
100
AcDbLine
 62
4
  6
CONTINUOUS
 10
10.0723021569
 20
6.8447245037
 11
10.0723021569
 21
6.8737022796
  0
LINE
  5
2C3
100
AcDbEntity
  8
0
100
AcDbLine
 62
4
  6
CONTINUOUS
 10
10.0723021569
 20
9.9260280123
 11
10.0723021569
 21
9.9550057882
  0
LINE
  5
2C4
100
AcDbEntity
  8
0
100
AcDbLine
 62
4
  6
CONTINUOUS
 10
10.0795466008
 20
6.7862665464
 11
10.0795466008
 21
6.8152443205
  0
LINE
  5
2C5
100
AcDbEntity
  8
0
100
AcDbLine
 62
4
  6
CONTINUOUS
 10
10.0795466008
 20
9.867570055
 11
10.0795466008
 21
9.8965478291
  0
LINE
  5
2C6
100
AcDbEntity
  8
0
100
AcDbLine
 62
7
  6
CONTINUOUS
 10
10.1142549805
 20
10.5874340209
 11
10.1142549805
 21
10.9718374623
  0
LINE
  5
2C7
100
AcDbEntity
  8
0
100
AcDbLine
 62
4
  6
CONTINUOUS
 10
11.2459020539
 20
6.3296343732
 11
11.231413166
 21
6.3499576979
  0
LINE
  5
2C8
100
AcDbEntity
  8
0
100
AcDbLine
 62
4
  6
CONTINUOUS
 10
11.2893687177
 20
6.423212538
 11
11.2966131617
 21
6.4130508709
  0
LINE
  5
2C9
100
AcDbEntity
  8
0
100
AcDbLine
 62
4
  6
CONTINUOUS
 10
9.7752799543
 20
6.8460045439
 11
9.7825243983
 21
6.8744799159
  0
LINE
  5
2CA
100
AcDbEntity
  8
0
100
AcDbLine
 62
4
  6
CONTINUOUS
 10
11.2459020539
 20
9.5123602387
 11
11.2603909419
 21
9.5210146872
  0
LINE
  5
2CB
100
AcDbEntity
  8
0
100
AcDbLine
 62
4
  6
CONTINUOUS
 10
11.3618131574
 20
9.5043217764
 11
11.3763020453
 21
9.5129762249
  0
LINE
  5
2CC
100
AcDbEntity
  8
0
100
AcDbLine
 62
4
  6
CONTINUOUS
 10
9.7825243983
 20
9.8978278727
 11
9.7752799543
 21
9.9273080525
  0
LINE
  5
2CD
100
AcDbEntity
  8
0
100
AcDbLine
 62
4
  6
CONTINUOUS
 10
11.231413166
 20
9.494046527
 11
11.2459020539
 21
9.5123602387
  0
LINE
  5
2CE
100
AcDbEntity
  8
0
100
AcDbLine
 62
7
  6
CONTINUOUS
 10
12.8371170725
 20
10.9109817808
 11
12.060660578
 21
10.1609823553
  0
LINE
  5
2CF
100
AcDbEntity
  8
0
100
AcDbLine
 62
7
  6
CONTINUOUS
 10
12.4701021983
 20
10.7354726322
 11
12.4686775786
 21
10.7341223093
  0
LINE
  5
2D0
100
AcDbEntity
  8
0
100
AcDbLine
 62
4
  6
CONTINUOUS
 10
11.2893687177
 20
9.4127532271
 11
11.2748798298
 21
9.404098776
  0
LINE
  5
2D1
100
AcDbEntity
  8
0
100
AcDbLine
 62
4
  6
CONTINUOUS
 10
11.4052798212
 20
9.4626703139
 11
11.3763020453
 21
9.4453614134
  0
LINE
  5
2D2
100
AcDbEntity
  8
0
100
AcDbLine
 62
7
  6
CONTINUOUS
 10
10.6793613881
 20
10.6266243528
 11
10.6793613881
 21
11.0110277941
  0
LINE
  5
2D3
100
AcDbEntity
  8
0
100
AcDbLine
 62
7
  6
CONTINUOUS
 10
10.7188341486
 20
10.636840651
 11
10.7188341486
 21
11.0212440923
  0
LINE
  5
2D4
100
AcDbEntity
  8
0
100
AcDbLine
 62
7
  6
CONTINUOUS
 10
10.7892266219
 20
10.6022089912
 11
10.7892266219
 21
10.6652926114
  0
LINE
  5
2D5
100
AcDbEntity
  8
0
100
AcDbLine
 62
4
  6
CONTINUOUS
 10
11.2966131617
 20
9.4219100821
 11
11.2893687177
 21
9.4127532271
  0
LINE
  5
2D6
100
AcDbEntity
  8
0
100
AcDbLine
 62
4
  6
CONTINUOUS
 10
11.3545687134
 20
9.495164917
 11
11.3618131574
 21
9.5043217764
  0
LINE
  5
2D7
100
AcDbEntity
  8
0
100
AcDbLine
 62
4
  6
CONTINUOUS
 10
11.3763020453
 20
9.4453614134
 11
11.3618131574
 21
9.4270477051
  0
LINE
  5
2D8
100
AcDbEntity
  8
0
100
AcDbLine
 62
4
  6
CONTINUOUS
 10
11.4125242651
 20
9.4718271733
 11
11.4052798212
 21
9.4626703139
  0
LINE
  5
2D9
100
AcDbEntity
  8
0
100
AcDbLine
 62
4
  6
CONTINUOUS
 10
11.231413166
 20
6.3499576979
 11
11.224168722
 21
6.3794378777
  0
LINE
  5
2DA
100
AcDbEntity
  8
0
100
AcDbLine
 62
7
  6
CONTINUOUS
 10
10.8702538381
 20
10.7831008484
 11
10.8702538381
 21
11.1675042898
  0
LINE
  5
2DB
100
AcDbEntity
  8
0
100
AcDbLine
 62
4
  6
CONTINUOUS
 10
11.224168722
 20
9.465571155
 11
11.231413166
 21
9.494046527
  0
LINE
  5
2DC
100
AcDbEntity
  8
0
100
AcDbLine
 62
7
  6
CONTINUOUS
 10
11.3966355837
 20
9.0945412814
 11
11.405690883
 21
9.1032880294
  0
LINE
  5
2DD
100
AcDbEntity
  8
0
100
AcDbLine
 62
4
  6
CONTINUOUS
 10
12.5581103683
 20
8.2204578308
 11
12.5270521092
 21
8.2235753107
  0
LINE
  5
2DE
100
AcDbEntity
  8
0
100
AcDbLine
 62
4
  6
CONTINUOUS
 10
12.4071080706
 20
8.3064230039
 11
12.3775287756
 21
8.3109690397
  0
LINE
  5
2DF
100
AcDbEntity
  8
0
100
AcDbLine
 62
4
  6
CONTINUOUS
 10
9.7970132862
 20
9.877504548
 11
9.7825243983
 21
9.8978278727
  0
LINE
  5
2E0
100
AcDbEntity
  8
0
100
AcDbLine
 62
4
  6
CONTINUOUS
 10
9.84047995
 20
9.9710827128
 11
9.847724394
 21
9.9609210457
  0
LINE
  5
2E1
100
AcDbEntity
  8
0
100
AcDbLine
 62
4
  6
CONTINUOUS
 10
9.9563910534
 20
9.9630442505
 11
9.9636354974
 21
9.9528825834
  0
LINE
  5
2E2
100
AcDbEntity
  8
0
100
AcDbLine
 62
4
  6
CONTINUOUS
 10
11.4994575927
 20
6.4183020814
 11
11.5356798125
 21
6.2998789585
  0
LINE
  5
2E3
100
AcDbEntity
  8
0
100
AcDbLine
 62
7
  6
CONTINUOUS
 10
11.0810881703
 20
6.0029901921
 11
11.0810881703
 21
5.9033974648
  0
LINE
  5
2E4
100
AcDbEntity
  8
0
100
AcDbLine
 62
7
  6
CONTINUOUS
 10
11.2325081098
 20
5.9924891836
 11
11.2325081098
 21
5.7571372847
  0
LINE
  5
2E5
100
AcDbEntity
  8
0
100
AcDbLine
 62
4
  6
CONTINUOUS
 10
11.3618131574
 20
9.4270477051
 11
11.3545687134
 21
9.3985723332
  0
LINE
  5
2E6
100
AcDbEntity
  8
0
100
AcDbLine
 62
4
  6
CONTINUOUS
 10
11.4632353729
 20
9.3910362747
 11
11.4994575927
 21
9.5044353587
  0
LINE
  5
2E7
100
AcDbEntity
  8
0
100
AcDbLine
 62
4
  6
CONTINUOUS
 10
9.7825243983
 20
6.8744799159
 11
9.7970132862
 21
6.8927936276
  0
LINE
  5
2E8
100
AcDbEntity
  8
0
100
AcDbLine
 62
4
  6
CONTINUOUS
 10
9.847724394
 20
6.802343471
 11
9.84047995
 21
6.793186616
  0
LINE
  5
2E9
100
AcDbEntity
  8
0
100
AcDbLine
 62
4
  6
CONTINUOUS
 10
10.0795466008
 20
9.8965478291
 11
10.0650577129
 21
9.916871153
  0
LINE
  5
2EA
100
AcDbEntity
  8
0
100
AcDbLine
 62
4
  6
CONTINUOUS
 10
10.0723021569
 20
9.9550057882
 11
10.0650577129
 21
9.9651674484
  0
LINE
  5
2EB
100
AcDbEntity
  8
0
100
AcDbLine
 62
7
  6
CONTINUOUS
 10
11.2719808877
 20
5.9897517372
 11
11.2719808877
 21
5.7469209909
  0
LINE
  5
2EC
100
AcDbEntity
  8
0
100
AcDbLine
 62
4
  6
CONTINUOUS
 10
11.3835464893
 20
6.4263405437
 11
11.3835464893
 21
6.3104294403
  0
LINE
  5
2ED
100
AcDbEntity
  8
0
100
AcDbLine
 62
4
  6
CONTINUOUS
 10
11.4125242651
 20
9.4911456859
 11
11.4125242651
 21
9.4718271733
  0
LINE
  5
2EE
100
AcDbEntity
  8
0
100
AcDbLine
 62
4
  6
CONTINUOUS
 10
10.0650577129
 20
6.8355676444
 11
10.0723021569
 21
6.8447245037
  0
LINE
  5
2EF
100
AcDbEntity
  8
0
100
AcDbLine
 62
4
  6
CONTINUOUS
 10
10.0650577129
 20
6.7679528364
 11
10.0795466008
 21
6.7862665464
  0
LINE
  5
2F0
100
AcDbEntity
  8
0
100
AcDbLine
 62
4
  6
CONTINUOUS
 10
9.8115021742
 20
9.8668404813
 11
9.7970132862
 21
9.877504548
  0
LINE
  5
2F1
100
AcDbEntity
  8
0
100
AcDbLine
 62
4
  6
CONTINUOUS
 10
11.231413166
 20
9.4360909752
 11
11.224168722
 21
9.465571155
  0
LINE
  5
2F2
100
AcDbEntity
  8
0
100
AcDbLine
 62
4
  6
CONTINUOUS
 10
12.3974947998
 20
8.9180895893
 11
12.3908394582
 21
8.9116610226
  0
LINE
  5
2F3
100
AcDbEntity
  8
0
100
AcDbLine
 62
4
  6
CONTINUOUS
 10
12.3686549879
 20
8.7246452015
 11
12.3708734357
 21
8.7240282801
  0
LINE
  5
2F4
100
AcDbEntity
  8
0
100
AcDbLine
 62
4
  6
CONTINUOUS
 10
9.8259910621
 20
9.9817467769
 11
9.84047995
 21
9.9710827128
  0
LINE
  5
2F5
100
AcDbEntity
  8
0
100
AcDbLine
 62
4
  6
CONTINUOUS
 10
9.9419021655
 20
9.9737083146
 11
9.9563910534
 21
9.9630442505
  0
LINE
  5
2F6
100
AcDbEntity
  8
0
100
AcDbLine
 62
7
  6
CONTINUOUS
 10
11.8370873623
 20
5.95056147
 11
11.8370873623
 21
5.7077307238
  0
LINE
  5
2F7
100
AcDbEntity
  8
0
100
AcDbLine
 62
7
  6
CONTINUOUS
 10
11.8910081646
 20
5.9468220497
 11
11.8910081646
 21
5.7114701508
  0
LINE
  5
2F8
100
AcDbEntity
  8
0
100
AcDbLine
 62
4
  6
CONTINUOUS
 10
11.224168722
 20
6.3794378777
 11
11.231413166
 21
6.4079132496
  0
LINE
  5
2F9
100
AcDbEntity
  8
0
100
AcDbLine
 62
4
  6
CONTINUOUS
 10
12.3864025644
 20
8.8576992037
 11
12.3797472235
 21
8.8512706378
  0
LINE
  5
2FA
100
AcDbEntity
  8
0
100
AcDbLine
 62
4
  6
CONTINUOUS
 10
12.3974947998
 20
8.7938991529
 11
12.3797472235
 21
8.7767563096
  0
LINE
  5
2FB
100
AcDbEntity
  8
0
100
AcDbLine
 62
4
  6
CONTINUOUS
 10
12.399713247
 20
8.7518854002
 11
12.3775287756
 21
8.7304568452
  0
LINE
  5
2FC
100
AcDbEntity
  8
0
100
AcDbLine
 62
4
  6
CONTINUOUS
 10
12.3708734357
 20
8.7240282801
 11
12.3686549879
 21
8.7218854239
  0
LINE
  5
2FD
100
AcDbEntity
  8
0
100
AcDbLine
 62
4
  6
CONTINUOUS
 10
12.5581103683
 20
8.8855668006
 11
12.5270521092
 21
8.8555668242
  0
LINE
  5
2FE
100
AcDbEntity
  8
0
100
AcDbLine
 62
4
  6
CONTINUOUS
 10
12.5314890031
 20
8.8129360938
 11
12.5536734739
 21
8.8343646484
  0
LINE
  5
2FF
100
AcDbEntity
  8
0
100
AcDbLine
 62
4
  6
CONTINUOUS
 10
12.3974947998
 20
8.6752282718
 11
12.3686549879
 21
8.647371151
  0
LINE
  5
300
100
AcDbEntity
  8
0
100
AcDbLine
 62
4
  6
CONTINUOUS
 10
12.399713247
 20
8.644253685
 11
12.3775287756
 21
8.62282513
  0
LINE
  5
301
100
AcDbEntity
  8
0
100
AcDbLine
 62
4
  6
CONTINUOUS
 10
12.5581103683
 20
8.7806948077
 11
12.5270521092
 21
8.7506948314
  0
LINE
  5
302
100
AcDbEntity
  8
0
100
AcDbLine
 62
4
  6
CONTINUOUS
 10
12.3775287756
 20
8.5731489112
 11
12.3974947998
 21
8.5924346107
  0
LINE
  5
303
100
AcDbEntity
  8
0
100
AcDbLine
 62
4
  6
CONTINUOUS
 10
12.5314890031
 20
8.7218630997
 11
12.5536734739
 21
8.7432916543
  0
LINE
  5
304
100
AcDbEntity
  8
0
100
AcDbLine
 62
4
  6
CONTINUOUS
 10
9.7970132862
 20
6.8927936276
 11
9.8115021742
 21
6.9014480761
  0
LINE
  5
305
100
AcDbEntity
  8
0
100
AcDbLine
 62
4
  6
CONTINUOUS
 10
9.84047995
 20
6.793186616
 11
9.8259910621
 21
6.7845321649
  0
LINE
  5
306
100
AcDbEntity
  8
0
100
AcDbLine
 62
4
  6
CONTINUOUS
 10
11.2748798298
 20
9.404098776
 11
11.2603909419
 21
9.4051035838
  0
LINE
  5
307
100
AcDbEntity
  8
0
100
AcDbLine
 62
4
  6
CONTINUOUS
 10
11.3545687134
 20
9.3985723332
 11
11.4125242651
 21
9.394553102
  0
LINE
  5
308
100
AcDbEntity
  8
0
100
AcDbLine
 62
4
  6
CONTINUOUS
 10
11.2603909419
 20
9.4051035838
 11
11.2459020539
 21
9.4157676505
  0
LINE
  5
309
100
AcDbEntity
  8
0
100
AcDbLine
 62
4
  6
CONTINUOUS
 10
11.2459020539
 20
9.4157676505
 11
11.231413166
 21
9.4360909752
  0
LINE
  5
30A
100
AcDbEntity
  8
0
100
AcDbLine
 62
4
  6
CONTINUOUS
 10
11.2893687177
 20
9.5093458153
 11
11.2966131617
 21
9.4991841482
  0
LINE
  5
30B
100
AcDbEntity
  8
0
100
AcDbLine
 62
4
  6
CONTINUOUS
 10
11.4052798212
 20
9.501307353
 11
11.4125242651
 21
9.4911456859
  0
LINE
  5
30C
100
AcDbEntity
  8
0
100
AcDbLine
 62
4
  6
CONTINUOUS
 10
11.4994575927
 20
9.5044353587
 11
11.5356798125
 21
9.3860122358
  0
LINE
  5
30D
100
AcDbEntity
  8
0
100
AcDbLine
 62
7
  6
CONTINUOUS
 10
12.060660578
 20
5.9350566149
 11
12.060660578
 21
10.1609823553
  0
LINE
  5
30E
100
AcDbEntity
  8
0
100
AcDbLine
 62
4
  6
CONTINUOUS
 10
11.4632353729
 20
6.3049029974
 11
11.4994575927
 21
6.4183020814
  0
LINE
  5
30F
100
AcDbEntity
  8
0
100
AcDbLine
 62
4
  6
CONTINUOUS
 10
12.399713247
 20
8.5614600239
 11
12.3819656695
 21
8.5443171795
  0
LINE
  5
310
100
AcDbEntity
  8
0
100
AcDbLine
 62
4
  6
CONTINUOUS
 10
12.5536734739
 20
8.6853361026
 11
12.5314890031
 21
8.663907548
  0
LINE
  5
311
100
AcDbEntity
  8
0
100
AcDbLine
 62
4
  6
CONTINUOUS
 10
12.3974947998
 20
8.5096410049
 11
12.3908394582
 21
8.5032124382
  0
LINE
  5
312
100
AcDbEntity
  8
0
100
AcDbLine
 62
4
  6
CONTINUOUS
 10
12.4786899626
 20
8.5742705526
 11
12.4853453039
 21
8.580699119
  0
LINE
  5
313
100
AcDbEntity
  8
0
100
AcDbLine
 62
4
  6
CONTINUOUS
 10
12.4631608331
 20
8.5509912038
 11
12.4698161749
 21
8.5574197707
  0
LINE
  5
314
100
AcDbEntity
  8
0
100
AcDbLine
 62
4
  6
CONTINUOUS
 10
12.3797472235
 20
8.4566208863
 11
12.3841841174
 21
8.460906597
  0
LINE
  5
315
100
AcDbEntity
  8
0
100
AcDbLine
 62
4
  6
CONTINUOUS
 10
12.5536734739
 20
8.5887435532
 11
12.5314890031
 21
8.5673149986
  0
LINE
  5
316
100
AcDbEntity
  8
0
100
AcDbLine
 62
4
  6
CONTINUOUS
 10
12.4897821983
 20
8.5270292784
 11
12.4587239392
 21
8.4970293021
  0
LINE
  5
317
100
AcDbEntity
  8
0
100
AcDbLine
 62
4
  6
CONTINUOUS
 10
12.399713247
 20
8.4372695875
 11
12.3775287756
 21
8.4158410325
  0
LINE
  5
318
100
AcDbEntity
  8
0
100
AcDbLine
 62
4
  6
CONTINUOUS
 10
12.4764715157
 20
8.4810546894
 11
12.4853453039
 21
8.4896261112
  0
LINE
  5
319
100
AcDbEntity
  8
0
100
AcDbLine
 62
4
  6
CONTINUOUS
 10
12.3686549879
 20
8.3741521136
 11
12.399713247
 21
8.4041520899
  0
LINE
  5
31A
100
AcDbEntity
  8
0
100
AcDbLine
 62
4
  6
CONTINUOUS
 10
12.4631608331
 20
8.4626779874
 11
12.4698161749
 21
8.4691065543
  0
LINE
  5
31B
100
AcDbEntity
  8
0
100
AcDbLine
 62
4
  6
CONTINUOUS
 10
12.4698161749
 20
8.4221901477
 11
12.4631608331
 21
8.4157615809
  0
LINE
  5
31C
100
AcDbEntity
  8
0
100
AcDbLine
 62
4
  6
CONTINUOUS
 10
12.3974947998
 20
8.3523330709
 11
12.3797472235
 21
8.3351902276
  0
LINE
  5
31D
100
AcDbEntity
  8
0
100
AcDbLine
 62
4
  6
CONTINUOUS
 10
12.4853453039
 20
8.4316705594
 11
12.4764715157
 21
8.4230991377
  0
LINE
  5
31E
100
AcDbEntity
  8
0
100
AcDbLine
 62
4
  6
CONTINUOUS
 10
12.4786899626
 20
8.3921245369
 11
12.4853453039
 21
8.3985531033
  0
LINE
  5
31F
100
AcDbEntity
  8
0
100
AcDbLine
 62
4
  6
CONTINUOUS
 10
12.4631608331
 20
8.3688451847
 11
12.4698161749
 21
8.3752737515
  0
LINE
  5
320
100
AcDbEntity
  8
0
100
AcDbLine
 62
4
  6
CONTINUOUS
 10
12.5581103683
 20
8.4191625816
 11
12.5270521092
 21
8.3891626052
  0
LINE
  5
321
100
AcDbEntity
  8
0
100
AcDbLine
 62
4
  6
CONTINUOUS
 10
12.4897821983
 20
8.3448832627
 11
12.4587239392
 21
8.3148832863
  0
LINE
  5
322
100
AcDbEntity
  8
0
100
AcDbLine
 62
4
  6
CONTINUOUS
 10
11.4777242608
 20
9.4286685026
 11
11.5211909246
 21
9.4256540792
  0
LINE
  5
323
100
AcDbEntity
  8
0
100
AcDbLine
 62
4
  6
CONTINUOUS
 10
11.2603909419
 20
9.5210146872
 11
11.2748798298
 21
9.5200098794
  0
LINE
  5
324
100
AcDbEntity
  8
0
100
AcDbLine
 62
4
  6
CONTINUOUS
 10
11.3763020453
 20
9.5129762249
 11
11.3907909332
 21
9.5119714171
  0
LINE
  5
325
100
AcDbEntity
  8
0
100
AcDbLine
 62
4
  6
CONTINUOUS
 10
11.2748798298
 20
9.5200098794
 11
11.2893687177
 21
9.5093458153
  0
LINE
  5
326
100
AcDbEntity
  8
0
100
AcDbLine
 62
4
  6
CONTINUOUS
 10
11.3907909332
 20
9.5119714171
 11
11.4052798212
 21
9.501307353
  0
LINE
  5
327
100
AcDbEntity
  8
0
100
AcDbLine
 62
4
  6
CONTINUOUS
 10
12.3730918818
 20
7.8099214729
 11
12.3686549879
 21
7.8221944921
  0
LINE
  5
328
100
AcDbEntity
  8
0
100
AcDbLine
 62
4
  6
CONTINUOUS
 10
12.399713247
 20
7.8770325623
 11
12.3952763526
 21
7.8893055793
  0
LINE
  5
329
100
AcDbEntity
  8
0
100
AcDbLine
 62
4
  6
CONTINUOUS
 10
12.399713247
 20
7.9681055771
 11
12.3952763526
 21
7.9803785871
  0
LINE
  5
32A
100
AcDbEntity
  8
0
100
AcDbLine
 62
7
  6
CONTINUOUS
 10
12.3046946997
 20
6.1707754894
 11
12.3046946997
 21
5.8185400637
  0
LINE
  5
32B
100
AcDbEntity
  8
0
100
AcDbLine
 62
7
  6
CONTINUOUS
 10
12.319142724
 20
6.1847312101
 11
12.319142724
 21
5.8324957844
  0
LINE
  5
32C
100
AcDbEntity
  8
0
100
AcDbLine
 62
4
  6
CONTINUOUS
 10
12.3686549879
 20
7.8221944921
 11
12.3686549879
 21
7.85531195
  0
LINE
  5
32D
100
AcDbEntity
  8
0
100
AcDbLine
 62
4
  6
CONTINUOUS
 10
12.3686549879
 20
8.7218854239
 11
12.3686549879
 21
8.7246452015
  0
LINE
  5
32E
100
AcDbEntity
  8
0
100
AcDbLine
 62
4
  6
CONTINUOUS
 10
12.3893604936
 20
8.9019531194
 11
12.387881529
 21
8.8674071069
  0
LINE
  5
32F
100
AcDbEntity
  8
0
100
AcDbLine
 62
4
  6
CONTINUOUS
 10
12.3908394582
 20
8.9116610226
 11
12.3893604936
 21
8.9019531194
  0
LINE
  5
330
100
AcDbEntity
  8
0
100
AcDbLine
 62
4
  6
CONTINUOUS
 10
12.387881529
 20
8.8674071069
 11
12.3864025644
 21
8.8576992037
  0
LINE
  5
331
100
AcDbEntity
  8
0
100
AcDbLine
 62
4
  6
CONTINUOUS
 10
12.3775287756
 20
8.8905245568
 11
12.3797472235
 21
8.900946746
  0
LINE
  5
332
100
AcDbEntity
  8
0
100
AcDbLine
 62
4
  6
CONTINUOUS
 10
12.3974947998
 20
8.868413481
 11
12.399713247
 21
8.8788356695
  0
LINE
  5
333
100
AcDbEntity
  8
0
100
AcDbLine
 62
4
  6
CONTINUOUS
 10
12.399713247
 20
8.8043213414
 11
12.3974947998
 21
8.7938991529
  0
LINE
  5
334
100
AcDbEntity
  8
0
100
AcDbLine
 62
4
  6
CONTINUOUS
 10
12.399713247
 20
8.6856505156
 11
12.3974947998
 21
8.6752282718
  0
LINE
  5
335
100
AcDbEntity
  8
0
100
AcDbLine
 62
4
  6
CONTINUOUS
 10
12.3974947998
 20
8.5924346107
 11
12.399713247
 21
8.6028568545
  0
LINE
  5
336
100
AcDbEntity
  8
0
100
AcDbLine
 62
4
  6
CONTINUOUS
 10
12.3775287756
 20
8.4489584748
 11
12.3797472235
 21
8.4566208863
  0
LINE
  5
337
100
AcDbEntity
  8
0
100
AcDbLine
 62
4
  6
CONTINUOUS
 10
12.3819656695
 20
8.5443171795
 11
12.3775287756
 21
8.5317521359
  0
LINE
  5
338
100
AcDbEntity
  8
0
100
AcDbLine
 62
4
  6
CONTINUOUS
 10
12.3775287756
 20
8.2612928762
 11
12.399713247
 21
8.3075595406
  0
LINE
  5
339
100
AcDbEntity
  8
0
100
AcDbLine
 62
4
  6
CONTINUOUS
 10
12.3797472235
 20
8.2303182624
 11
12.399713247
 21
8.2496039612
  0
LINE
  5
33A
100
AcDbEntity
  8
0
100
AcDbLine
 62
4
  6
CONTINUOUS
 10
12.5581103683
 20
8.3529276693
 11
12.5270521092
 21
8.3229276929
  0
LINE
  5
33B
100
AcDbEntity
  8
0
100
AcDbLine
 62
4
  6
CONTINUOUS
 10
12.399713247
 20
8.1999277701
 11
12.3686549879
 21
8.1699277938
  0
LINE
  5
33C
100
AcDbEntity
  8
0
100
AcDbLine
 62
4
  6
CONTINUOUS
 10
12.399713247
 20
8.0757373061
 11
12.3686549879
 21
8.0457373297
  0
LINE
  5
33D
100
AcDbEntity
  8
0
100
AcDbLine
 62
4
  6
CONTINUOUS
 10
12.5314890031
 20
8.1478271655
 11
12.5536734739
 21
8.1692557201
  0
LINE
  5
33E
100
AcDbEntity
  8
0
100
AcDbLine
 62
4
  6
CONTINUOUS
 10
12.399713247
 20
8.0177817544
 11
12.3686549879
 21
7.987781778
  0
LINE
  5
33F
100
AcDbEntity
  8
0
100
AcDbLine
 62
4
  6
CONTINUOUS
 10
12.3952763526
 20
7.9803785871
 11
12.3686549879
 21
7.9546643219
  0
LINE
  5
340
100
AcDbEntity
  8
0
100
AcDbLine
 62
4
  6
CONTINUOUS
 10
12.5581103683
 20
8.1155858864
 11
12.5270521092
 21
8.08558591
  0
LINE
  5
341
100
AcDbEntity
  8
0
100
AcDbLine
 62
4
  6
CONTINUOUS
 10
9.8259910621
 20
9.8658356735
 11
9.8115021742
 21
9.8668404813
  0
LINE
  5
342
100
AcDbEntity
  8
0
100
AcDbLine
 62
4
  6
CONTINUOUS
 10
9.9056799457
 20
9.8603092306
 11
9.9636354974
 21
9.8562899995
  0
LINE
  5
343
100
AcDbEntity
  8
0
100
AcDbLine
 62
4
  6
CONTINUOUS
 10
10.0143466052
 20
9.8527731722
 11
10.0650577129
 21
9.8492563449
  0
LINE
  5
344
100
AcDbEntity
  8
0
100
AcDbLine
 62
4
  6
CONTINUOUS
 10
10.0143466052
 20
9.9203879802
 11
10.0650577129
 21
9.916871153
  0
LINE
  5
345
100
AcDbEntity
  8
0
100
AcDbLine
 62
7
  6
CONTINUOUS
 10
9.7746758086
 20
10.6294893361
 11
9.7289434369
 21
10.652080252
  0
LINE
  5
346
100
AcDbEntity
  8
0
100
AcDbLine
 62
4
  6
CONTINUOUS
 10
12.4631608331
 20
8.4157615809
 11
12.4587239392
 21
8.4225150223
  0
LINE
  5
347
100
AcDbEntity
  8
0
100
AcDbLine
 62
4
  6
CONTINUOUS
 10
12.4698161749
 20
8.3752737515
 11
12.4742530688
 21
8.3630007341
  0
LINE
  5
348
100
AcDbEntity
  8
0
100
AcDbLine
 62
4
  6
CONTINUOUS
 10
12.5536734739
 20
8.1692557201
 11
12.5581103683
 21
8.1569827031
  0
LINE
  5
349
100
AcDbEntity
  8
0
100
AcDbLine
 62
4
  6
CONTINUOUS
 10
12.4853453039
 20
8.3985531033
 11
12.4897821983
 21
8.3862800863
  0
LINE
  5
34A
100
AcDbEntity
  8
0
100
AcDbLine
 62
4
  6
CONTINUOUS
 10
12.4764715157
 20
8.4230991377
 11
12.4720346209
 21
8.4353721542
  0
LINE
  5
34B
100
AcDbEntity
  8
0
100
AcDbLine
 62
4
  6
CONTINUOUS
 10
12.3797472235
 20
8.3351902276
 11
12.3775287756
 21
8.3496060926
  0
LINE
  5
34C
100
AcDbEntity
  8
0
100
AcDbLine
 62
4
  6
CONTINUOUS
 10
12.3908394582
 20
8.5032124382
 11
12.3886210113
 21
8.5176283041
  0
LINE
  5
34D
100
AcDbEntity
  8
0
100
AcDbLine
 62
4
  6
CONTINUOUS
 10
12.3775287756
 20
8.5317521359
 11
12.3775287756
 21
8.4903553054
  0
LINE
  5
34E
100
AcDbEntity
  8
0
100
AcDbLine
 62
4
  6
CONTINUOUS
 10
12.3775287756
 20
8.1784992151
 11
12.3775287756
 21
8.2198960456
  0
LINE
  5
34F
100
AcDbEntity
  8
0
100
AcDbLine
 62
4
  6
CONTINUOUS
 10
12.3775287756
 20
8.3496060926
 11
12.3775287756
 21
8.3827235349
  0
LINE
  5
350
100
AcDbEntity
  8
0
100
AcDbLine
 62
4
  6
CONTINUOUS
 10
12.3775287756
 20
8.4158410325
 11
12.3775287756
 21
8.4489584748
  0
LINE
  5
351
100
AcDbEntity
  8
0
100
AcDbLine
 62
4
  6
CONTINUOUS
 10
12.3775287756
 20
8.7828927863
 11
12.3775287756
 21
8.8160103392
  0
LINE
  5
352
100
AcDbEntity
  8
0
100
AcDbLine
 62
4
  6
CONTINUOUS
 10
12.3775287756
 20
8.8574071145
 11
12.3775287756
 21
8.8905245568
  0
LINE
  5
353
100
AcDbEntity
  8
0
100
AcDbLine
 62
4
  6
CONTINUOUS
 10
12.3886210113
 20
8.5176283041
 11
12.3886210113
 21
8.5507457464
  0
LINE
  5
354
100
AcDbEntity
  8
0
100
AcDbLine
 62
4
  6
CONTINUOUS
 10
12.399713247
 20
8.8374388943
 11
12.399713247
 21
8.8043213414
  0
LINE
  5
355
100
AcDbEntity
  8
0
100
AcDbLine
 62
4
  6
CONTINUOUS
 10
12.399713247
 20
8.7022092367
 11
12.399713247
 21
8.6856505156
  0
LINE
  5
356
100
AcDbEntity
  8
0
100
AcDbLine
 62
4
  6
CONTINUOUS
 10
12.399713247
 20
8.5614600239
 11
12.399713247
 21
8.5283425816
  0
LINE
  5
357
100
AcDbEntity
  8
0
100
AcDbLine
 62
4
  6
CONTINUOUS
 10
12.399713247
 20
8.4041520899
 11
12.399713247
 21
8.3710346476
  0
LINE
  5
358
100
AcDbEntity
  8
0
100
AcDbLine
 62
4
  6
CONTINUOUS
 10
12.399713247
 20
7.8439151035
 11
12.399713247
 21
7.8770325623
  0
LINE
  5
359
100
AcDbEntity
  8
0
100
AcDbLine
 62
4
  6
CONTINUOUS
 10
12.399713247
 20
7.9432674746
 11
12.399713247
 21
7.9681055771
  0
LINE
  5
35A
100
AcDbEntity
  8
0
100
AcDbLine
 62
4
  6
CONTINUOUS
 10
12.399713247
 20
8.6028568545
 11
12.399713247
 21
8.644253685
  0
LINE
  5
35B
100
AcDbEntity
  8
0
100
AcDbLine
 62
4
  6
CONTINUOUS
 10
12.399713247
 20
8.8788356695
 11
12.399713247
 21
8.9119531119
  0
LINE
  5
35C
100
AcDbEntity
  8
0
100
AcDbLine
 62
4
  6
CONTINUOUS
 10
12.4071080706
 20
8.2898642827
 11
12.4071080706
 21
8.3064230039
  0
LINE
  5
35D
100
AcDbEntity
  8
0
100
AcDbLine
 62
4
  6
CONTINUOUS
 10
12.4587239392
 20
8.3148832863
 11
12.4587239392
 21
8.3397213802
  0
LINE
  5
35E
100
AcDbEntity
  8
0
100
AcDbLine
 62
4
  6
CONTINUOUS
 10
12.4587239392
 20
8.4225150223
 11
12.4587239392
 21
8.4473531247
  0
LINE
  5
35F
100
AcDbEntity
  8
0
100
AcDbLine
 62
4
  6
CONTINUOUS
 10
12.4587239392
 20
8.4970293021
 11
12.4587239392
 21
8.5218673976
  0
LINE
  5
360
100
AcDbEntity
  8
0
100
AcDbLine
 62
4
  6
CONTINUOUS
 10
12.4720346209
 20
8.4353721542
 11
12.4720346209
 21
8.4602102567
  0
LINE
  5
361
100
AcDbEntity
  8
0
100
AcDbLine
 62
4
  6
CONTINUOUS
 10
12.4742530688
 20
8.3298832745
 11
12.4742530688
 21
8.3712800981
  0
LINE
  5
362
100
AcDbEntity
  8
0
100
AcDbLine
 62
4
  6
CONTINUOUS
 10
12.4742530688
 20
8.5120292902
 11
12.4742530688
 21
8.5534261208
  0
LINE
  5
363
100
AcDbEntity
  8
0
100
AcDbLine
 62
4
  6
CONTINUOUS
 10
12.4897821983
 20
8.568426109
 11
12.4897821983
 21
8.5270292784
  0
LINE
  5
364
100
AcDbEntity
  8
0
100
AcDbLine
 62
4
  6
CONTINUOUS
 10
12.4897821983
 20
8.4773531011
 11
12.4897821983
 21
8.4525149986
  0
LINE
  5
365
100
AcDbEntity
  8
0
100
AcDbLine
 62
4
  6
CONTINUOUS
 10
12.4897821983
 20
8.3862800863
 11
12.4897821983
 21
8.3448832627
  0
LINE
  5
366
100
AcDbEntity
  8
0
100
AcDbLine
 62
4
  6
CONTINUOUS
 10
12.5270521092
 20
8.08558591
 11
12.5270521092
 21
8.1269827268
  0
LINE
  5
367
100
AcDbEntity
  8
0
100
AcDbLine
 62
4
  6
CONTINUOUS
 10
12.5270521092
 20
8.2898102229
 11
12.5270521092
 21
8.3560451352
  0
LINE
  5
368
100
AcDbEntity
  8
0
100
AcDbLine
 62
4
  6
CONTINUOUS
 10
12.5270521092
 20
8.3891626052
 11
12.5270521092
 21
8.4388387963
  0
LINE
  5
369
100
AcDbEntity
  8
0
100
AcDbLine
 62
4
  6
CONTINUOUS
 10
12.5270521092
 20
8.5795880092
 11
12.5270521092
 21
8.6127054515
  0
LINE
  5
36A
100
AcDbEntity
  8
0
100
AcDbLine
 62
4
  6
CONTINUOUS
 10
12.5270521092
 20
8.6761805585
 11
12.5270521092
 21
8.7010186679
  0
LINE
  5
36B
100
AcDbEntity
  8
0
100
AcDbLine
 62
4
  6
CONTINUOUS
 10
12.5270521092
 20
8.7506948314
 11
12.5270521092
 21
8.7920916619
  0
LINE
  5
36C
100
AcDbEntity
  8
0
100
AcDbLine
 62
4
  6
CONTINUOUS
 10
12.5270521092
 20
8.8555668242
 11
12.5270521092
 21
8.9052429877
  0
LINE
  5
36D
100
AcDbEntity
  8
0
100
AcDbLine
 62
4
  6
CONTINUOUS
 10
12.5403627909
 20
8.9015413985
 11
12.5403627909
 21
8.8684239562
  0
LINE
  5
36E
100
AcDbEntity
  8
0
100
AcDbLine
 62
4
  6
CONTINUOUS
 10
12.5403627909
 20
8.4351372071
 11
12.5403627909
 21
8.4020197372
  0
LINE
  5
36F
100
AcDbEntity
  8
0
100
AcDbLine
 62
4
  6
CONTINUOUS
 10
12.5492365796
 20
8.2229255607
 11
12.5492365796
 21
8.2670821689
  0
LINE
  5
370
100
AcDbEntity
  8
0
100
AcDbLine
 62
4
  6
CONTINUOUS
 10
12.5581103683
 20
8.8220916383
 11
12.5581103683
 21
8.7806948077
  0
LINE
  5
371
100
AcDbEntity
  8
0
100
AcDbLine
 62
4
  6
CONTINUOUS
 10
12.5581103683
 20
8.7310186442
 11
12.5581103683
 21
8.7061805349
  0
LINE
  5
372
100
AcDbEntity
  8
0
100
AcDbLine
 62
4
  6
CONTINUOUS
 10
12.5581103683
 20
8.6427054278
 11
12.5581103683
 21
8.6095879855
  0
LINE
  5
373
100
AcDbEntity
  8
0
100
AcDbLine
 62
4
  6
CONTINUOUS
 10
12.5581103683
 20
8.1569827031
 11
12.5581103683
 21
8.1155858864
  0
LINE
  5
374
100
AcDbEntity
  8
0
100
AcDbLine
 62
4
  6
CONTINUOUS
 10
12.5581103683
 20
8.4191625816
 11
12.5581103683
 21
8.4688387727
  0
LINE
  5
375
100
AcDbEntity
  8
0
100
AcDbLine
 62
4
  6
CONTINUOUS
 10
12.5581103683
 20
8.8855668006
 11
12.5581103683
 21
8.9352429641
  0
LINE
  5
376
100
AcDbEntity
  8
0
100
AcDbLine
 62
4
  6
CONTINUOUS
 10
12.4587239392
 20
8.5218673976
 11
12.4594634225
 21
8.5308610442
  0
LINE
  5
377
100
AcDbEntity
  8
0
100
AcDbLine
 62
4
  6
CONTINUOUS
 10
12.4587239392
 20
8.3397213802
 11
12.4594634225
 21
8.3487150319
  0
LINE
  5
378
100
AcDbEntity
  8
0
100
AcDbLine
 62
4
  6
CONTINUOUS
 10
12.399713247
 20
8.5283425816
 11
12.3974947998
 21
8.5096410049
  0
LINE
  5
379
100
AcDbEntity
  8
0
100
AcDbLine
 62
4
  6
CONTINUOUS
 10
12.399713247
 20
8.3710346476
 11
12.3974947998
 21
8.3523330709
  0
LINE
  5
37A
100
AcDbEntity
  8
0
100
AcDbLine
 62
4
  6
CONTINUOUS
 10
12.5388838262
 20
8.9497889918
 11
12.5447996857
 21
8.9996598818
  0
LINE
  5
37B
100
AcDbEntity
  8
0
100
AcDbLine
 62
4
  6
CONTINUOUS
 10
12.5447996857
 20
8.0364938343
 11
12.5507155447
 21
8.0863647273
  0
LINE
  5
37C
100
AcDbEntity
  8
0
100
AcDbLine
 62
4
  6
CONTINUOUS
 10
12.4720346209
 20
8.4353721542
 11
12.4698161749
 21
8.4221901477
  0
LINE
  5
37D
100
AcDbEntity
  8
0
100
AcDbLine
 62
4
  6
CONTINUOUS
 10
12.4594634225
 20
8.5308610442
 11
12.4631608331
 21
8.5509912038
  0
LINE
  5
37E
100
AcDbEntity
  8
0
100
AcDbLine
 62
4
  6
CONTINUOUS
 10
12.4594634225
 20
8.3487150319
 11
12.4631608331
 21
8.3688451847
  0
LINE
  5
37F
100
AcDbEntity
  8
0
100
AcDbLine
 62
4
  6
CONTINUOUS
 10
12.3908394582
 20
7.8850198682
 11
12.3775287756
 21
7.8142071836
  0
LINE
  5
380
100
AcDbEntity
  8
0
100
AcDbLine
 62
4
  6
CONTINUOUS
 10
12.3775287756
 20
8.2198960456
 11
12.3797472235
 21
8.2303182624
  0
LINE
  5
381
100
AcDbEntity
  8
0
100
AcDbLine
 62
4
  6
CONTINUOUS
 10
12.4742530688
 20
8.5534261208
 11
12.4786899626
 21
8.5742705526
  0
LINE
  5
382
100
AcDbEntity
  8
0
100
AcDbLine
 62
4
  6
CONTINUOUS
 10
12.5270521092
 20
8.7920916619
 11
12.5314890031
 21
8.8129360938
  0
LINE
  5
383
100
AcDbEntity
  8
0
100
AcDbLine
 62
4
  6
CONTINUOUS
 10
12.4720346209
 20
8.4602102567
 11
12.4764715157
 21
8.4810546894
  0
LINE
  5
384
100
AcDbEntity
  8
0
100
AcDbLine
 62
4
  6
CONTINUOUS
 10
12.5270521092
 20
8.7010186679
 11
12.5314890031
 21
8.7218630997
  0
LINE
  5
385
100
AcDbEntity
  8
0
100
AcDbLine
 62
4
  6
CONTINUOUS
 10
12.4897821983
 20
8.4525149986
 11
12.4853453039
 21
8.4316705594
  0
LINE
  5
386
100
AcDbEntity
  8
0
100
AcDbLine
 62
4
  6
CONTINUOUS
 10
12.4742530688
 20
8.3712800981
 11
12.4786899626
 21
8.3921245369
  0
LINE
  5
387
100
AcDbEntity
  8
0
100
AcDbLine
 62
4
  6
CONTINUOUS
 10
12.3686549879
 20
7.85531195
 11
12.3708734357
 21
7.8657341702
  0
LINE
  5
388
100
AcDbEntity
  8
0
100
AcDbLine
 62
4
  6
CONTINUOUS
 10
12.5581103683
 20
8.7061805349
 11
12.5536734739
 21
8.6853361026
  0
LINE
  5
389
100
AcDbEntity
  8
0
100
AcDbLine
 62
4
  6
CONTINUOUS
 10
12.3952763526
 20
7.9224230354
 11
12.399713247
 21
7.9432674746
  0
LINE
  5
38A
100
AcDbEntity
  8
0
100
AcDbLine
 62
4
  6
CONTINUOUS
 10
12.5581103683
 20
8.6095879855
 11
12.5536734739
 21
8.5887435532
  0
LINE
  5
38B
100
AcDbEntity
  8
0
100
AcDbLine
 62
4
  6
CONTINUOUS
 10
12.3974947998
 20
7.8334928831
 11
12.399713247
 21
7.8439151035
  0
LINE
  5
38C
100
AcDbEntity
  8
0
100
AcDbLine
 62
4
  6
CONTINUOUS
 10
12.5270521092
 20
8.1269827268
 11
12.5314890031
 21
8.1478271655
  0
LINE
  5
38D
100
AcDbEntity
  8
0
100
AcDbLine
 62
4
  6
CONTINUOUS
 10
12.4587239392
 20
8.4473531247
 11
12.4631608331
 21
8.4626779874
  0
LINE
  5
38E
100
AcDbEntity
  8
0
100
AcDbLine
 62
4
  6
CONTINUOUS
 10
12.3686549879
 20
7.987781778
 11
12.399713247
 21
8.0757373061
  0
LINE
  5
38F
100
AcDbEntity
  8
0
100
AcDbLine
 62
4
  6
CONTINUOUS
 10
12.5270521092
 20
8.2235753107
 11
12.5581103683
 21
8.286692757
  0
LINE
  5
390
100
AcDbEntity
  8
0
100
AcDbLine
 62
4
  6
CONTINUOUS
 10
11.231413166
 20
6.4079132496
 11
11.2459020539
 21
6.4262269614
  0
LINE
  5
391
100
AcDbEntity
  8
0
100
AcDbLine
 62
4
  6
CONTINUOUS
 10
11.2966131617
 20
6.3357768048
 11
11.2893687177
 21
6.3266199498
  0
LINE
  5
392
100
AcDbEntity
  8
0
100
AcDbLine
 62
4
  6
CONTINUOUS
 10
12.3686549879
 20
7.8967087702
 11
12.3952763526
 21
7.9224230354
  0
LINE
  5
393
100
AcDbEntity
  8
0
100
AcDbLine
 62
4
  6
CONTINUOUS
 10
12.3952763526
 20
7.8893055793
 11
12.3908394582
 21
7.8850198682
  0
LINE
  5
394
100
AcDbEntity
  8
0
100
AcDbLine
 62
4
  6
CONTINUOUS
 10
12.3775287756
 20
7.8142071836
 11
12.3730918818
 21
7.8099214729
  0
LINE
  5
395
100
AcDbEntity
  8
0
100
AcDbLine
 62
4
  6
CONTINUOUS
 10
10.0650577129
 20
9.9651674484
 11
10.0143466052
 21
9.9686842756
  0
LINE
  5
396
100
AcDbEntity
  8
0
100
AcDbLine
 62
4
  6
CONTINUOUS
 10
9.8115021742
 20
9.9827515847
 11
9.8259910621
 21
9.9817467769
  0
LINE
  5
397
100
AcDbEntity
  8
0
100
AcDbLine
 62
4
  6
CONTINUOUS
 10
9.9274132776
 20
9.9747131224
 11
9.9419021655
 21
9.9737083146
  0
LINE
  5
398
100
AcDbEntity
  8
0
100
AcDbLine
 62
4
  6
CONTINUOUS
 10
10.8944162328
 20
10.5514767013
 11
10.8886392589
 21
10.55589657
  0
LINE
  5
399
100
AcDbEntity
  8
0
100
AcDbLine
 62
4
  6
CONTINUOUS
 10
12.3797472235
 20
8.7767563096
 11
12.3775287756
 21
8.7828927863
  0
LINE
  5
39A
100
AcDbEntity
  8
0
100
AcDbLine
 62
4
  6
CONTINUOUS
 10
12.4853453039
 20
8.4896261112
 11
12.4897821983
 21
8.4773531011
  0
LINE
  5
39B
100
AcDbEntity
  8
0
100
AcDbLine
 62
4
  6
CONTINUOUS
 10
12.4698161749
 20
8.5574197707
 11
12.4742530688
 21
8.5451467464
  0
LINE
  5
39C
100
AcDbEntity
  8
0
100
AcDbLine
 62
4
  6
CONTINUOUS
 10
12.3797472235
 20
8.8512706378
 11
12.3775287756
 21
8.8574071145
  0
LINE
  5
39D
100
AcDbEntity
  8
0
100
AcDbLine
 62
4
  6
CONTINUOUS
 10
12.4853453039
 20
8.580699119
 11
12.4897821983
 21
8.568426109
  0
LINE
  5
39E
100
AcDbEntity
  8
0
100
AcDbLine
 62
4
  6
CONTINUOUS
 10
12.399713247
 20
8.9119531119
 11
12.3974947998
 21
8.9180895893
  0
LINE
  5
39F
100
AcDbEntity
  8
0
100
AcDbLine
 62
4
  6
CONTINUOUS
 10
12.5314890031
 20
8.5673149986
 11
12.5270521092
 21
8.5795880092
  0
LINE
  5
3A0
100
AcDbEntity
  8
0
100
AcDbLine
 62
4
  6
CONTINUOUS
 10
12.5314890031
 20
8.663907548
 11
12.5270521092
 21
8.6761805585
  0
LINE
  5
3A1
100
AcDbEntity
  8
0
100
AcDbLine
 62
4
  6
CONTINUOUS
 10
12.5536734739
 20
8.7432916543
 11
12.5581103683
 21
8.7310186442
  0
LINE
  5
3A2
100
AcDbEntity
  8
0
100
AcDbLine
 62
4
  6
CONTINUOUS
 10
12.5536734739
 20
8.8343646484
 11
12.5581103683
 21
8.8220916383
  0
LINE
  5
3A3
100
AcDbEntity
  8
0
100
AcDbLine
 62
4
  6
CONTINUOUS
 10
12.4698161749
 20
8.4691065543
 11
12.4720346209
 21
8.4602102567
  0
LINE
  5
3A4
100
AcDbEntity
  8
0
100
AcDbLine
 62
4
  6
CONTINUOUS
 10
12.5388838262
 20
8.0749361642
 11
12.5447996857
 21
8.0364938343
  0
LINE
  5
3A5
100
AcDbEntity
  8
0
100
AcDbLine
 62
7
  6
CONTINUOUS
 10
12.060660578
 20
10.1609823553
 11
9.1628829275
 21
10.3619439179
  0
LINE
  5
3A6
100
AcDbEntity
  8
0
100
AcDbLine
 62
4
  6
CONTINUOUS
 10
11.0026556682
 20
10.5560279737
 11
11.0084326447
 21
10.5516081047
  0
LINE
  5
3A7
100
AcDbEntity
  8
0
100
AcDbLine
 62
4
  6
CONTINUOUS
 10
12.5447996857
 20
8.9996598818
 11
12.5507155447
 21
8.9612175549
  0
LINE
  5
3A8
100
AcDbEntity
  8
0
100
AcDbLine
 62
7
  6
CONTINUOUS
 10
12.8371170725
 20
6.6850560404
 11
12.8371170725
 21
10.9109817808
  0
LINE
  5
3A9
100
AcDbEntity
  8
0
100
AcDbLine
 62
4
  6
CONTINUOUS
 10
11.2459020539
 20
6.4262269614
 11
11.2603909419
 21
6.4348814099
  0
LINE
  5
3AA
100
AcDbEntity
  8
0
100
AcDbLine
 62
4
  6
CONTINUOUS
 10
11.2893687177
 20
6.3266199498
 11
11.2748798298
 21
6.3179654987
  0
LINE
  5
3AB
100
AcDbEntity
  8
0
100
AcDbLine
 62
4
  6
CONTINUOUS
 10
11.0045503623
 20
10.5478581077
 11
10.991008821
 21
10.5447779825
  0
LINE
  5
3AC
100
AcDbEntity
  8
0
100
AcDbLine
 62
4
  6
CONTINUOUS
 10
10.8925215412
 20
10.5596465671
 11
10.9060630799
 21
10.5627266924
  0
LINE
  5
3AD
100
AcDbEntity
  8
0
100
AcDbLine
 62
4
  6
CONTINUOUS
 10
10.991008821
 20
10.5447779825
 11
10.9678080217
 21
10.5423677292
  0
LINE
  5
3AE
100
AcDbEntity
  8
0
100
AcDbLine
 62
4
  6
CONTINUOUS
 10
10.9678080217
 20
10.5423677292
 11
10.9368891046
 21
10.5425023462
  0
LINE
  5
3AF
100
AcDbEntity
  8
0
100
AcDbLine
 62
4
  6
CONTINUOUS
 10
10.9368891046
 20
10.5425023462
 11
10.9098524699
 21
10.5463869603
  0
LINE
  5
3B0
100
AcDbEntity
  8
0
100
AcDbLine
 62
4
  6
CONTINUOUS
 10
11.0297851978
 20
10.5722330885
 11
10.9294032239
 21
10.595271539
  0
LINE
  5
3B1
100
AcDbEntity
  8
0
100
AcDbLine
 62
4
  6
CONTINUOUS
 10
10.9098524699
 20
10.5463869603
 11
10.8944162328
 21
10.5514767013
  0
LINE
  5
3B2
100
AcDbEntity
  8
0
100
AcDbLine
 62
4
  6
CONTINUOUS
 10
10.9949375504
 20
10.5585728441
 11
11.0026556682
 21
10.5560279737
  0
LINE
  5
3B3
100
AcDbEntity
  8
0
100
AcDbLine
 62
4
  6
CONTINUOUS
 10
10.9060630799
 20
10.5627266924
 11
10.9176634844
 21
10.5639318187
  0
LINE
  5
3B4
100
AcDbEntity
  8
0
100
AcDbLine
 62
4
  6
CONTINUOUS
 10
10.9138740944
 20
10.5802715508
 11
11.0453143273
 21
10.5872330766
  0
LINE
  5
3B5
100
AcDbEntity
  8
0
100
AcDbLine
 62
4
  6
CONTINUOUS
 10
10.9837551773
 20
10.6477714976
 11
11.1093719867
 21
10.6491080279
  0
LINE
  5
3B6
100
AcDbEntity
  8
0
100
AcDbLine
 62
4
  6
CONTINUOUS
 10
11.0608434569
 20
10.6022330648
 11
10.9449323535
 21
10.6102715271
  0
LINE
  5
3B7
100
AcDbEntity
  8
0
100
AcDbLine
 62
4
  6
CONTINUOUS
 10
11.0899605748
 20
10.6303580426
 11
10.9837551773
 21
10.6477714976
  0
LINE
  5
3B8
100
AcDbEntity
  8
0
100
AcDbLine
 62
7
  6
CONTINUOUS
 10
10.7735098068
 20
11.2276230641
 11
10.7428357322
 21
11.2427754696
  0
LINE
  5
3B9
100
AcDbEntity
  8
0
100
AcDbLine
 62
7
  6
CONTINUOUS
 10
12.8371170725
 20
6.6850560404
 11
12.060660578
 21
5.9350566149
  0
LINE
  5
3BA
100
AcDbEntity
  8
0
100
AcDbLine
 62
7
  6
CONTINUOUS
 10
12.8371170725
 20
10.9109817808
 11
10.8702538381
 21
11.0473842094
  0
LINE
  5
3BB
100
AcDbEntity
  8
0
100
AcDbLine
 62
7
  6
CONTINUOUS
 10
12.222398568
 20
5.7723769075
 11
12.1917245575
 21
5.7572245337
  0
ARC
  5
3BC
100
AcDbEntity
  8
0
100
AcDbCircle
 62
7
  6
CONTINUOUS
 10
10.2436735502
 20
12.8478576681
 40
2.2641254892
100
AcDbArc
 50
266.0354973614
 51
266.723157899
  0
ARC
  5
3BD
100
AcDbEntity
  8
0
100
AcDbCircle
 62
7
  6
CONTINUOUS
 10
10.2429599546
 20
13.220983762
 40
2.2528257917
100
AcDbArc
 50
266.0337727607
 51
266.7248824998
  0
ARC
  5
3BE
100
AcDbEntity
  8
0
100
AcDbCircle
 62
7
  6
CONTINUOUS
 10
11.7111549697
 20
7.9142436085
 40
2.2101036351
100
AcDbArc
 50
273.2665005552
 51
274.6677615151
  0
ARC
  5
3BF
100
AcDbEntity
  8
0
100
AcDbCircle
 62
7
  6
CONTINUOUS
 10
10.2377639228
 20
13.1472606121
 40
2.1789198093
100
AcDbArc
 50
265.329224888
 51
266.0359887124
  0
ARC
  5
3C0
100
AcDbEntity
  8
0
100
AcDbCircle
 62
7
  6
CONTINUOUS
 10
10.2377639227
 20
12.7628571706
 40
2.1789198091
100
AcDbArc
 50
265.329224888
 51
266.0359887124
  0
ARC
  5
3C1
100
AcDbEntity
  8
0
100
AcDbCircle
 62
7
  6
CONTINUOUS
 10
11.4911803962
 20
6.6752077245
 40
0.9538158545
100
AcDbArc
 50
254.2644742826
 51
256.7139235525
  0
ARC
  5
3C2
100
AcDbEntity
  8
0
100
AcDbCircle
 62
7
  6
CONTINUOUS
 10
10.4601619503
 20
11.5549099656
 40
0.9538147475
100
AcDbArc
 50
283.286087793
 51
285.7355389587
  0
ARC
  5
3C3
100
AcDbEntity
  8
0
100
AcDbCircle
 62
7
  6
CONTINUOUS
 10
10.4601619503
 20
11.9393134069
 40
0.9538147475
100
AcDbArc
 50
283.286087793
 51
285.7355389587
  0
ARC
  5
3C4
100
AcDbEntity
  8
0
100
AcDbCircle
 62
7
  6
CONTINUOUS
 10
11.8835175664
 20
6.4572721087
 40
0.7641475746
100
AcDbArc
 50
293.7608747297
 51
296.3085175792
  0
ARC
  5
3C5
100
AcDbEntity
  8
0
100
AcDbCircle
 62
7
  6
CONTINUOUS
 10
10.1463926741
 20
9.4874162376
 40
0.2401045355
100
AcDbArc
 50
266.0780200404
 51
276.696045984
  0
ARC
  5
3C6
100
AcDbEntity
  8
0
100
AcDbCircle
 62
7
  6
CONTINUOUS
 10
11.5952815001
 20
7.2136021842
 40
0.2401045014
100
AcDbArc
 50
266.0780193168
 51
276.6960512703
  0
ARC
  5
3C7
100
AcDbEntity
  8
0
100
AcDbCircle
 62
7
  6
CONTINUOUS
 10
11.634459107
 20
9.0448128575
 40
0.2202029524
100
AcDbArc
 50
266.0354818171
 51
267.6355960546
  0
SPLINE
  5
3C8
100
AcDbEntity
  8
0
100
AcDbSpline
 62
7
  6
CONTINUOUS
 70
0
 71
3
 72
9
 73
5
 74
0
 42
0.0000001
 43
0.0000001
 44
0.0000000001
 40
0.0
 40
0.0
 40
0.0
 40
0.0
 40
0.2426666479
 40
1.0
 40
1.0
 40
1.0
 40
1.0
 10
12.319142724
 20
5.8324957844
 30
0.0
 10
12.3186350962
 20
5.8319020115
 30
0.0
 10
12.3165114004
 20
5.829482427
 30
0.0
 10
12.314265992
 20
5.8271705322
 30
0.0
 10
12.3125124573
 20
5.8254767477
 30
0.0
  0
SPLINE
  5
3C9
100
AcDbEntity
  8
0
100
AcDbSpline
 62
7
  6
CONTINUOUS
 70
0
 71
3
 72
9
 73
5
 74
0
 42
0.0000001
 43
0.0000001
 44
0.0000000001
 40
0.0
 40
0.0
 40
0.0
 40
0.0
 40
0.2426770998
 40
1.0
 40
1.0
 40
1.0
 40
1.0
 10
12.3125124573
 20
5.8254767477
 30
0.0
 10
12.3119042669
 20
5.8248892808
 30
0.0
 10
12.3093712155
 20
5.8224963996
 30
0.0
 10
12.3067355017
 20
5.8202129301
 30
0.0
 10
12.3046946997
 20
5.8185400637
 30
0.0
  0
SPLINE
  5
3CA
100
AcDbEntity
  8
0
100
AcDbSpline
 62
7
  6
CONTINUOUS
 70
0
 71
3
 72
9
 73
5
 74
0
 42
0.0000001
 43
0.0000001
 44
0.0000000001
 40
0.0
 40
0.0
 40
0.0
 40
0.0
 40
0.504378312
 40
1.0
 40
1.0
 40
1.0
 40
1.0
 10
12.3046946997
 20
5.8185400637
 30
0.0
 10
12.2911909494
 20
5.81013121
 30
0.0
 10
12.264078112
 20
5.793996554
 30
0.0
 10
12.2362053155
 20
5.7791993592
 30
0.0
 10
12.2221911776
 20
5.7722745169
 30
0.0
  0
SPLINE
  5
3CB
100
AcDbEntity
  8
0
100
AcDbSpline
 62
7
  6
CONTINUOUS
 70
0
 71
3
 72
47
 73
43
 74
0
 42
0.0000001
 43
0.0000001
 44
0.0000000001
 40
0.0
 40
0.0
 40
0.0
 40
0.0
 40
0.0099874638
 40
0.0204476834
 40
0.0313771515
 40
0.0427708334
 40
0.0546218702
 40
0.0669225517
 40
0.0796641282
 40
0.0928362942
 40
0.1204271347
 40
0.1495984091
 40
0.1802407165
 40
0.2122338314
 40
0.2454489836
 40
0.2797497839
 40
0.3149929168
 40
0.3510298084
 40
0.3877071885
 40
0.4248680172
 40
0.4623527228
 40
0.4999997959
 40
0.5376468789
 40
0.575131606
 40
0.6122924455
 40
0.6489698269
 40
0.6850067267
 40
0.7202498875
 40
0.7545507276
 40
0.7877659112
 40
0.8197590481
 40
0.8504013805
 40
0.8795726993
 40
0.9071635849
 40
0.9203357726
 40
0.933077377
 40
0.9453780958
 40
0.9572291635
 40
0.968622847
 40
0.9795522717
 40
0.9900124597
 40
1.0
 40
1.0
 40
1.0
 40
1.0
 10
12.191728443
 20
5.7572264883
 30
0.0
 10
12.1887379086
 20
5.7557492106
 30
0.0
 10
12.1825642022
 20
5.7528272948
 30
0.0
 10
12.1729620038
 20
5.7486278511
 30
0.0
 10
12.1628138257
 20
5.7445150163
 30
0.0
 10
12.1521313777
 20
5.7404938066
 30
0.0
 10
12.140927002
 20
5.7365685013
 30
0.0
 10
12.1292135014
 20
5.7327437822
 30
0.0
 10
12.1170042455
 20
5.7290242114
 30
0.0
 10
12.0998164166
 20
5.7241346796
 30
0.0
 10
12.0771861043
 20
5.7183391981
 30
0.0
 10
12.048694826
 20
5.7119705259
 30
0.0
 10
12.018594777
 20
5.706115002
 30
0.0
 10
11.9870247708
 20
5.7007996603
 30
0.0
 10
11.9541301128
 20
5.6960495039
 30
0.0
 10
11.9200624617
 20
5.6918869718
 30
0.0
 10
11.8849790032
 20
5.6883312438
 30
0.0
 10
11.8490416823
 20
5.6853990734
 30
0.0
 10
11.8124164214
 20
5.6831042888
 30
0.0
 10
11.7752723889
 20
5.6814573413
 30
0.0
 10
11.737781165
 20
5.6804661053
 30
0.0
 10
11.7001159247
 20
5.6801352487
 30
0.0
 10
11.6624506771
 20
5.6804660886
 30
0.0
 10
11.6249594387
 20
5.6814573086
 30
0.0
 10
11.5878153942
 20
5.6831042393
 30
0.0
 10
11.5511901255
 20
5.6853990078
 30
0.0
 10
11.5152527908
 20
5.6883311613
 30
0.0
 10
11.4801693052
 20
5.6918868748
 30
0.0
 10
11.446101619
 20
5.6960493922
 30
0.0
 10
11.4132069277
 20
5.7007995352
 30
0.0
 10
11.3816368923
 20
5.7061148611
 30
0.0
 10
11.3515368094
 20
5.7119703707
 30
0.0
 10
11.3230454898
 20
5.7183390334
 30
0.0
 10
11.3004151358
 20
5.7241345014
 30
0.0
 10
11.2832272713
 20
5.7290240237
 30
0.0
 10
11.2710179846
 20
5.732743593
 30
0.0
 10
11.2593044525
 20
5.7365683193
 30
0.0
 10
11.2481000531
 20
5.7404936272
 30
0.0
 10
11.2374176023
 20
5.7445148186
 30
0.0
 10
11.2272694303
 20
5.7486276024
 30
0.0
 10
11.2176672143
 20
5.7528270077
 30
0.0
 10
11.2114934931
 20
5.7557489284
 30
0.0
 10
11.2085029401
 20
5.757226226
 30
0.0
  0
SPLINE
  5
3CC
100
AcDbEntity
  8
0
100
AcDbSpline
 62
7
  6
CONTINUOUS
 70
0
 71
3
 72
23
 73
19
 74
0
 42
0.0000001
 43
0.0000001
 44
0.0000000001
 40
0.0
 40
0.0
 40
0.0
 40
0.0
 40
0.0436203086
 40
0.0892268542
 40
0.137068591
 40
0.187353676
 40
0.2402538462
 40
0.2958872461
 40
0.3543311569
 40
0.4156094827
 40
0.4797102731
 40
0.5465788188
 40
0.6161346312
 40
0.6882694307
 40
0.7628606873
 40
0.8397744221
 40
0.9188692703
 40
1.0
 40
1.0
 40
1.0
 40
1.0
 10
11.1894966806
 20
5.7666149762
 30
0.0
 10
11.187186745
 20
5.7677555447
 30
0.0
 10
11.1825496212
 20
5.7702706412
 30
0.0
 10
11.1757223318
 20
5.7746316933
 30
0.0
 10
11.1688859429
 20
5.7796739798
 30
0.0
 10
11.1620443932
 20
5.7854049121
 30
0.0
 10
11.155203295
 20
5.7918285629
 30
0.0
 10
11.1483657545
 20
5.7989401353
 30
0.0
 10
11.1415374953
 20
5.8067309473
 30
0.0
 10
11.1347212512
 20
5.8151843498
 30
0.0
 10
11.1279220827
 20
5.8242802557
 30
0.0
 10
11.1211422325
 20
5.8339926376
 30
0.0
 10
11.1143855656
 20
5.8442931857
 30
0.0
 10
11.1076536786
 20
5.8551501398
 30
0.0
 10
11.1009489616
 20
5.8665309933
 30
0.0
 10
11.0942723124
 20
5.8784020758
 30
0.0
 10
11.0876248199
 20
5.8907299148
 30
0.0
 10
11.0832657019
 20
5.8991293319
 30
0.0
 10
11.0810881703
 20
5.9033974648
 30
0.0
  0
SPLINE
  5
3CD
100
AcDbEntity
  8
0
100
AcDbSpline
 62
7
  6
CONTINUOUS
 70
0
 71
3
 72
21
 73
17
 74
0
 42
0.0000001
 43
0.0000001
 44
0.0000000001
 40
0.0
 40
0.0
 40
0.0
 40
0.0
 40
0.160124744
 40
0.3114752345
 40
0.3836160248
 40
0.4532783744
 40
0.5203787288
 40
0.584844395
 40
0.646608007
 40
0.7056114935
 40
0.7618098199
 40
0.8151661722
 40
0.8656589506
 40
0.913283941
 40
0.9580521289
 40
1.0
 40
1.0
 40
1.0
 40
1.0
 10
11.4922621124
 20
7.2521936576
 30
0.0
 10
11.4842217652
 20
7.2535847774
 30
0.0
 10
11.4686185783
 20
7.2565108127
 30
0.0
 10
11.4495254918
 20
7.2607257138
 30
0.0
 10
11.435031162
 20
7.2643460299
 30
0.0
 10
11.4247541139
 20
7.2671254065
 30
0.0
 10
11.4149124457
 20
7.27000823
 30
0.0
 10
11.4055215555
 20
7.272989618
 30
0.0
 10
11.3965962186
 20
7.2760649632
 30
0.0
 10
11.3881504853
 20
7.2792295821
 30
0.0
 10
11.3801974397
 20
7.2824780966
 30
0.0
 10
11.372749539
 20
7.2858056789
 30
0.0
 10
11.3658183811
 20
7.289207162
 30
0.0
 10
11.3594143782
 20
7.2926769883
 30
0.0
 10
11.3535477768
 20
7.2962101092
 30
0.0
 10
11.3498828059
 20
7.2986838203
 30
0.0
 10
11.3481482777
 20
7.2999331585
 30
0.0
  0
SPLINE
  5
3CE
100
AcDbEntity
  8
0
100
AcDbSpline
 62
7
  6
CONTINUOUS
 70
0
 71
3
 72
21
 73
17
 74
0
 42
0.0000001
 43
0.0000001
 44
0.0000000001
 40
0.0
 40
0.0
 40
0.0
 40
0.0
 40
0.1230212981
 40
0.1847065752
 40
0.2465215318
 40
0.3084771567
 40
0.3705832678
 40
0.432847904
 40
0.4952752623
 40
0.5578663069
 40
0.6206183946
 40
0.6835249868
 40
0.7465773451
 40
0.8097643485
 40
0.8730733734
 40
1.0
 40
1.0
 40
1.0
 40
1.0
 10
11.8370873623
 20
5.7077307238
 30
0.0
 10
11.8140081813
 20
5.7031833677
 30
0.0
 10
11.7791757398
 20
5.6972109613
 30
0.0
 10
11.7324045248
 20
5.6913008139
 30
0.0
 10
11.6970932162
 20
5.6879735999
 30
0.0
 10
11.6616087734
 20
5.6858391923
 30
0.0
 10
11.6259840523
 20
5.684968456
 30
0.0
 10
11.5902608408
 20
5.6854173512
 30
0.0
 10
11.5544872191
 20
5.6872193499
 30
0.0
 10
11.5187146929
 20
5.6903826359
 30
0.0
 10
11.482994753
 20
5.6948915864
 30
0.0
 10
11.4473751396
 20
5.7007058282
 30
0.0
 10
11.4118970001
 20
5.7077635423
 30
0.0
 10
11.3765928094
 20
5.715989232
 30
0.0
 10
11.3297488832
 20
5.728408784
 30
0.0
 10
11.2949884735
 20
5.7391965784
 30
0.0
 10
11.2719808877
 20
5.7469209909
 30
0.0
  0
SPLINE
  5
3CF
100
AcDbEntity
  8
0
100
AcDbSpline
 62
7
  6
CONTINUOUS
 70
0
 71
3
 72
11
 73
7
 74
0
 42
0.0000001
 43
0.0000001
 44
0.0000000001
 40
0.0
 40
0.0
 40
0.0
 40
0.0
 40
0.2465919593
 40
0.494712682
 40
0.7454424776
 40
1.0
 40
1.0
 40
1.0
 40
1.0
 10
11.2325081098
 20
5.7571372847
 30
0.0
 10
11.230565697
 20
5.75708245
 30
0.0
 10
11.2266643872
 20
5.7570897965
 30
0.0
 10
11.220798696
 20
5.7574733183
 30
0.0
 10
11.214908624
 20
5.7582516007
 30
0.0
 10
11.2110021669
 20
5.7590411486
 30
0.0
 10
11.2090507218
 20
5.7595056099
 30
0.0
  0
SPLINE
  5
3D0
100
AcDbEntity
  8
0
100
AcDbSpline
 62
7
  6
CONTINUOUS
 70
0
 71
3
 72
10
 73
6
 74
0
 42
0.0000001
 43
0.0000001
 44
0.0000000001
 40
0.0
 40
0.0
 40
0.0
 40
0.0
 40
0.2418255986
 40
0.4885199497
 40
1.0
 40
1.0
 40
1.0
 40
1.0
 10
11.2090507218
 20
5.7595056099
 30
0.0
 10
11.2074162043
 20
5.7598946397
 30
0.0
 10
11.204135894
 20
5.7607755002
 30
0.0
 10
11.1975369937
 20
5.7629578055
 30
0.0
 10
11.1926831153
 20
5.7650416219
 30
0.0
 10
11.1894966806
 20
5.7666149762
 30
0.0
  0
LINE
  5
3D1
100
AcDbEntity
  8
0
100
AcDbLine
 62
7
  6
CONTINUOUS
 10
12.1914082193
 20
5.7578974869
 11
12.1906791053
 21
5.7575775993
  0
SPLINE
  5
3D2
100
AcDbEntity
  8
0
100
AcDbSpline
 62
7
  6
CONTINUOUS
 70
0
 71
3
 72
15
 73
11
 74
0
 42
0.0000001
 43
0.0000001
 44
0.0000000001
 40
0.0
 40
0.0
 40
0.0
 40
0.0
 40
0.1321602046
 40
0.2618009952
 40
0.3890353631
 40
0.5141096583
 40
0.6373677171
 40
0.75919507
 40
0.8799649792
 40
1.0
 40
1.0
 40
1.0
 40
1.0
 10
12.1906791053
 20
5.7575775993
 30
0.0
 10
12.1782980019
 20
5.7521538572
 30
0.0
 10
12.1534572381
 20
5.742106868
 30
0.0
 10
12.1156631749
 20
5.7295734306
 30
0.0
 10
12.0777924055
 20
5.7198561411
 30
0.0
 10
12.0399660298
 20
5.7129876369
 30
0.0
 10
12.0022986439
 20
5.7088878084
 30
0.0
 10
11.964883062
 20
5.7073811205
 30
0.0
 10
11.9277822253
 20
5.7082279682
 30
0.0
 10
11.9032178059
 20
5.7101873182
 30
0.0
 10
11.8910081646
 20
5.7114701508
 30
0.0
  0
SPLINE
  5
3D3
100
AcDbEntity
  8
0
100
AcDbSpline
 62
7
  6
CONTINUOUS
 70
0
 71
3
 72
18
 73
14
 74
0
 42
0.0000001
 43
0.0000001
 44
0.0000000001
 40
0.0
 40
0.0
 40
0.0
 40
0.0
 40
0.147631949
 40
0.2900241339
 40
0.4265001466
 40
0.5564263134
 40
0.6792220644
 40
0.7377829561
 40
0.7943714775
 40
0.8489325156
 40
0.9014188018
 40
0.951787131
 40
1.0
 40
1.0
 40
1.0
 40
1.0
 10
11.5221566231
 20
7.229649066
 30
0.0
 10
11.5125825116
 20
7.2307569538
 30
0.0
 10
11.4937972822
 20
7.2331410539
 30
0.0
 10
11.4662642871
 20
7.2373067834
 30
0.0
 10
11.4399856619
 20
7.2419806988
 30
0.0
 10
11.4151024574
 20
7.2471375745
 30
0.0
 10
11.3953387709
 20
7.2518856241
 30
0.0
 10
11.3803374875
 20
7.2559218366
 30
0.0
 10
11.3696946191
 20
7.2590037408
 30
0.0
 10
11.3594954881
 20
7.2621844211
 30
0.0
 10
11.3497535893
 20
7.2654593492
 30
0.0
 10
11.3404820318
 20
7.2688241011
 30
0.0
 10
11.3344904867
 20
7.2711762816
 30
0.0
 10
11.3315776497
 20
7.2723688873
 30
0.0
  0
SPLINE
  5
3D4
100
AcDbEntity
  8
0
100
AcDbSpline
 62
7
  6
CONTINUOUS
 70
0
 71
3
 72
17
 73
13
 74
0
 42
0.0000001
 43
0.0000001
 44
0.0000000001
 40
0.0
 40
0.0
 40
0.0
 40
0.0
 40
0.1450237819
 40
0.2856212013
 40
0.4210904692
 40
0.550767358
 40
0.6740309493
 40
0.7903141502
 40
0.8456801422
 40
0.8991166952
 40
0.9505716732
 40
1.0
 40
1.0
 40
1.0
 40
1.0
 10
11.545352653
 20
7.2072965542
 30
0.0
 10
11.534939144
 20
7.2082787776
 30
0.0
 10
11.5144497693
 20
7.2104319368
 30
0.0
 10
11.4843229897
 20
7.2142956916
 30
0.0
 10
11.455393295
 20
7.2187269199
 30
0.0
 10
11.4278209075
 20
7.2237005672
 30
0.0
 10
11.4017585742
 20
7.229188839
 30
0.0
 10
11.3810928636
 20
7.2342443601
 30
0.0
 10
11.3654370446
 20
7.2385421309
 30
0.0
 10
11.3543527149
 20
7.2418215964
 30
0.0
 10
11.3437485013
 20
7.2452054801
 30
0.0
 10
11.3368684868
 20
7.2475760456
 30
0.0
 10
11.3335130225
 20
7.2487801813
 30
0.0
  0
SPLINE
  5
3D5
100
AcDbEntity
  8
0
100
AcDbSpline
 62
7
  6
CONTINUOUS
 70
0
 71
3
 72
29
 73
25
 74
0
 42
0.0000001
 43
0.0000001
 44
0.0000000001
 40
0.0
 40
0.0
 40
0.0
 40
0.0
 40
0.070984318
 40
0.1429825523
 40
0.2155057028
 40
0.2880809331
 40
0.3602234383
 40
0.4314560192
 40
0.5013085085
 40
0.5693229079
 40
0.6350576048
 40
0.6980916372
 40
0.728471958
 40
0.7580314442
 40
0.7867250902
 40
0.8145108681
 40
0.8413490867
 40
0.8672023195
 40
0.8920371672
 40
0.9158224349
 40
0.9385315725
 40
0.9601419631
 40
0.9806353258
 40
1.0
 40
1.0
 40
1.0
 40
1.0
 10
10.3948710734
 20
11.3148598004
 30
0.0
 10
10.3796529449
 20
11.3159151812
 30
0.0
 10
10.3489733168
 20
11.3176813497
 30
0.0
 10
10.3026856139
 20
11.3193061545
 30
0.0
 10
10.2560313483
 20
11.3199186516
 30
0.0
 10
10.2093438834
 20
11.3195150248
 30
0.0
 10
10.1629535779
 20
11.3180977795
 30
0.0
 10
10.1171905763
 20
11.3156772736
 30
0.0
 10
10.0723798112
 20
11.312270965
 30
0.0
 10
10.0288393539
 20
11.3079035529
 30
0.0
 10
9.9868785121
 20
11.3026065008
 30
0.0
 10
9.9530721512
 20
11.2973878947
 30
0.0
 10
9.9270529124
 20
11.2927561658
 30
0.0
 10
9.908355131
 20
11.2891182369
 30
0.0
 10
9.8902670474
 20
11.2852797817
 30
0.0
 10
9.8728207333
 20
11.2812477749
 30
0.0
 10
9.8560471216
 20
11.2770295798
 30
0.0
 10
9.8399759891
 20
11.2726323278
 30
0.0
 10
9.8246357186
 20
11.2680644363
 30
0.0
 10
9.8100534759
 20
11.263333573
 30
0.0
 10
9.7962549732
 20
11.2584484415
 30
0.0
 10
9.7832643496
 20
11.253417811
 30
0.0
 10
9.771104771
 20
11.2482502822
 30
0.0
 10
9.7633452112
 20
11.2446168944
 30
0.0
 10
9.7596141149
 20
11.2427737772
 30
0.0
  0
SPLINE
  5
3D6
100
AcDbEntity
  8
0
100
AcDbSpline
 62
7
  6
CONTINUOUS
 70
0
 71
3
 72
9
 73
5
 74
0
 42
0.0000001
 43
0.0000001
 44
0.0000000001
 40
0.0
 40
0.0
 40
0.0
 40
0.0
 40
0.4802028106
 40
1.0
 40
1.0
 40
1.0
 40
1.0
 10
9.6321994056
 20
10.7121990264
 30
0.0
 10
9.6342908285
 20
10.7097526913
 30
0.0
 10
9.6389196482
 20
10.7048891015
 30
0.0
 10
9.6439531178
 20
10.7004518788
 30
0.0
 10
9.6466474538
 20
10.6982433073
 30
0.0
  0
SPLINE
  5
3D7
100
AcDbEntity
  8
0
100
AcDbSpline
 62
7
  6
CONTINUOUS
 70
0
 71
3
 72
9
 73
5
 74
0
 42
0.0000001
 43
0.0000001
 44
0.0000000001
 40
0.0
 40
0.0
 40
0.0
 40
0.0
 40
0.4802028106
 40
1.0
 40
1.0
 40
1.0
 40
1.0
 10
10.8702538381
 20
11.1675042898
 30
0.0
 10
10.8681624152
 20
11.1699506249
 30
0.0
 10
10.8635335955
 20
11.1748142146
 30
0.0
 10
10.858500126
 20
11.1792514374
 30
0.0
 10
10.8558057899
 20
11.1814600088
 30
0.0
  0
SPLINE
  5
3D8
100
AcDbEntity
  8
0
100
AcDbSpline
 62
7
  6
CONTINUOUS
 70
0
 71
3
 72
9
 73
5
 74
0
 42
0.0000001
 43
0.0000001
 44
0.0000000001
 40
0.0
 40
0.0
 40
0.0
 40
0.0
 40
0.5043782952
 40
1.0
 40
1.0
 40
1.0
 40
1.0
 10
10.8558057899
 20
11.1814600088
 30
0.0
 10
10.8423020642
 20
11.189868842
 30
0.0
 10
10.8151892761
 20
11.20600346
 30
0.0
 10
10.7873165329
 20
11.2208006231
 30
0.0
 10
10.7733024219
 20
11.2277254521
 30
0.0
  0
SPLINE
  5
3D9
100
AcDbEntity
  8
0
100
AcDbSpline
 62
7
  6
CONTINUOUS
 70
0
 71
3
 72
9
 73
5
 74
0
 42
0.0000001
 43
0.0000001
 44
0.0000000001
 40
0.0
 40
0.0
 40
0.0
 40
0.0
 40
0.5043782952
 40
1.0
 40
1.0
 40
1.0
 40
1.0
 10
9.6466474538
 20
10.6982433073
 30
0.0
 10
9.6601511796
 20
10.6898344741
 30
0.0
 10
9.6872639676
 20
10.6736998561
 30
0.0
 10
9.7151367109
 20
10.658902693
 30
0.0
 10
9.7291508219
 20
10.6519778641
 30
0.0
  0
SPLINE
  5
3DA
100
AcDbEntity
  8
0
100
AcDbSpline
 62
7
  6
CONTINUOUS
 70
0
 71
3
 72
23
 73
19
 74
0
 42
0.0000001
 43
0.0000001
 44
0.0000000001
 40
0.0
 40
0.0
 40
0.0
 40
0.0
 40
0.0436202716
 40
0.0892267831
 40
0.1370684894
 40
0.1873535484
 40
0.2402536978
 40
0.2958870825
 40
0.3543309839
 40
0.4156093066
 40
0.4797101
 40
0.5465786547
 40
0.6161344819
 40
0.6882693018
 40
0.7628605839
 40
0.8397743489
 40
0.9188692317
 40
1.0
 40
1.0
 40
1.0
 40
1.0
 10
10.76184544
 20
10.6463183145
 30
0.0
 10
10.7641553733
 20
10.6474588819
 30
0.0
 10
10.7687924923
 20
10.6499739763
 30
0.0
 10
10.7756197746
 20
10.6543350259
 30
0.0
 10
10.7824561564
 20
10.6593773106
 30
0.0
 10
10.7892976989
 20
10.665108242
 30
0.0
 10
10.7961387901
 20
10.6715318927
 30
0.0
 10
10.8029763235
 20
10.6786434658
 30
0.0
 10
10.8098045756
 20
10.6864342795
 30
0.0
 10
10.8166208127
 20
10.6948876845
 30
0.0
 10
10.8234199742
 20
10.7039835938
 30
0.0
 10
10.8301998174
 20
10.7136959801
 30
0.0
 10
10.8369564774
 20
10.7239965334
 30
0.0
 10
10.8436883575
 20
10.7348534933
 30
0.0
 10
10.8503930675
 20
10.7462343535
 30
0.0
 10
10.8570697098
 20
10.7581054433
 30
0.0
 10
10.8637171954
 20
10.7704332903
 30
0.0
 10
10.8680763089
 20
10.7788327128
 30
0.0
 10
10.8702538381
 20
10.7831008484
 30
0.0
  0
SPLINE
  5
3DB
100
AcDbEntity
  8
0
100
AcDbSpline
 62
7
  6
CONTINUOUS
 70
0
 71
3
 72
23
 73
19
 74
0
 42
0.0000001
 43
0.0000001
 44
0.0000000001
 40
0.0
 40
0.0
 40
0.0
 40
0.0
 40
0.0436202716
 40
0.0892267831
 40
0.1370684894
 40
0.1873535484
 40
0.2402536978
 40
0.2958870825
 40
0.3543309839
 40
0.4156093066
 40
0.4797101
 40
0.5465786547
 40
0.6161344819
 40
0.6882693018
 40
0.7628605839
 40
0.8397743489
 40
0.9188692317
 40
1.0
 40
1.0
 40
1.0
 40
1.0
 10
9.7406078037
 20
11.2333850017
 30
0.0
 10
9.7382978705
 20
11.2322444343
 30
0.0
 10
9.7336607514
 20
11.2297293398
 30
0.0
 10
9.7268334691
 20
11.2253682903
 30
0.0
 10
9.7199970874
 20
11.2203260055
 30
0.0
 10
9.7131555448
 20
11.2145950742
 30
0.0
 10
9.7063144537
 20
11.2081714235
 30
0.0
 10
9.6994769203
 20
11.2010598503
 30
0.0
 10
9.6926486682
 20
11.1932690367
 30
0.0
 10
9.6858324311
 20
11.1848156316
 30
0.0
 10
9.6790332696
 20
11.1757197223
 30
0.0
 10
9.6722534263
 20
11.166007336
 30
0.0
 10
9.6654967664
 20
11.1557067828
 30
0.0
 10
9.6587648863
 20
11.1448498228
 30
0.0
 10
9.6520601762
 20
11.1334689626
 30
0.0
 10
9.6453835339
 20
11.1215978728
 30
0.0
 10
9.6387360483
 20
11.1092700259
 30
0.0
 10
9.6343769349
 20
11.1008706034
 30
0.0
 10
9.6321994056
 20
11.0966024677
 30
0.0
  0
SPLINE
  5
3DC
100
AcDbEntity
  8
0
100
AcDbSpline
 62
7
  6
CONTINUOUS
 70
0
 71
3
 72
23
 73
19
 74
0
 42
0.0000001
 43
0.0000001
 44
0.0000000001
 40
0.0
 40
0.0
 40
0.0
 40
0.0
 40
0.0430692708
 40
0.0891859059
 40
0.1383039462
 40
0.1903539308
 40
0.2452509344
 40
0.3028923159
 40
0.36316428
 40
0.4259386958
 40
0.4910792536
 40
0.558438617
 40
0.6278623889
 40
0.6991843849
 40
0.7722354743
 40
0.8468474017
 40
0.9228412057
 40
1.0
 40
1.0
 40
1.0
 40
1.0
 10
10.7428396506
 20
11.2427735195
 30
0.0
 10
10.738241917
 20
11.2450447563
 30
0.0
 10
10.7285992726
 20
11.2495036377
 30
0.0
 10
10.7133655002
 20
11.2557680025
 30
0.0
 10
10.6969027651
 20
11.2618217366
 30
0.0
 10
10.6792547634
 20
11.2676491851
 30
0.0
 10
10.6604676413
 20
11.273234108
 30
0.0
 10
10.6405911012
 20
11.2785621925
 30
0.0
 10
10.6196777127
 20
11.283618434
 30
0.0
 10
10.5977829954
 20
11.2883899162
 30
0.0
 10
10.5749650315
 20
11.2928631631
 30
0.0
 10
10.5512844081
 20
11.2970267664
 30
0.0
 10
10.5268043312
 20
11.3008688679
 30
0.0
 10
10.5015902572
 20
11.3043798189
 30
0.0
 10
10.4757086547
 20
11.3075496755
 30
0.0
 10
10.4492272616
 20
11.3103704158
 30
0.0
 10
10.4222191845
 20
11.3128336988
 30
0.0
 10
10.4040361203
 20
11.3142242022
 30
0.0
 10
10.3948710734
 20
11.3148598004
 30
0.0
  0
SPLINE
  5
3DD
100
AcDbEntity
  8
0
100
AcDbSpline
 62
7
  6
CONTINUOUS
 70
0
 71
3
 72
56
 73
52
 74
0
 42
0.0000001
 43
0.0000001
 44
0.0000000001
 40
0.0
 40
0.0
 40
0.0
 40
0.0
 40
0.0460140365
 40
0.0926138763
 40
0.1395821546
 40
0.1867221822
 40
0.2338288136
 40
0.280695969
 40
0.3271205498
 40
0.3729016883
 40
0.4178419215
 40
0.4617486806
 40
0.5044357275
 40
0.5457237503
 40
0.5854421779
 40
0.623430808
 40
0.6595404895
 40
0.6936358272
 40
0.7098908177
 40
0.7255987191
 40
0.7407472814
 40
0.7553261698
 40
0.7693260262
 40
0.7827391099
 40
0.795560201
 40
0.8077857039
 40
0.8194143239
 40
0.8304482927
 40
0.8408926824
 40
0.8507562508
 40
0.8600531092
 40
0.8688025169
 40
0.8770301158
 40
0.8847700999
 40
0.8920656216
 40
0.8989701892
 40
0.9055493464
 40
0.9118801083
 40
0.9180498998
 40
0.9241540552
 40
0.93029114
 40
0.9365581198
 40
0.9430454648
 40
0.9498338051
 40
0.9533640988
 40
0.9569946791
 40
0.964581397
 40
0.9726423977
 40
0.9812148065
 40
0.9903269582
 40
1.0
 40
1.0
 40
1.0
 40
1.0
 10
10.1075821704
 20
11.037360013
 30
0.0
 10
10.1198800578
 20
11.0365071516
 30
0.0
 10
10.1446492631
 20
11.0350255378
 30
0.0
 10
10.18201387
 20
11.0334744897
 30
0.0
 10
10.2197019337
 20
11.0325857931
 30
0.0
 10
10.2575355307
 20
11.0323634304
 30
0.0
 10
10.2953400883
 20
11.032808196
 30
0.0
 10
10.3329392365
 20
11.0339182282
 30
0.0
 10
10.3701576459
 20
11.035688359
 30
0.0
 10
10.4068220921
 20
11.0381100051
 30
0.0
 10
10.4427618129
 20
11.0411719267
 30
0.0
 10
10.4778094752
 20
11.0448597754
 30
0.0
 10
10.5118019829
 20
11.0491559037
 30
0.0
 10
10.5445811968
 20
11.0540402534
 30
0.0
 10
10.5759947313
 20
11.0594897885
 30
0.0
 10
10.6058968764
 20
11.0654784828
 30
0.0
 10
10.6341486313
 20
11.0719783806
 30
0.0
 10
10.6565510124
 20
11.0778853386
 30
0.0
 10
10.673534848
 20
11.0828631547
 30
0.0
 10
10.6855771584
 20
11.0866453172
 30
0.0
 10
10.6971134843
 20
11.0905315378
 30
0.0
 10
10.7081305949
 20
11.0945170176
 30
0.0
 10
10.7186157101
 20
11.0985972026
 30
0.0
 10
10.7285566297
 20
11.1027675882
 30
0.0
 10
10.7379420633
 20
11.1070229967
 30
0.0
 10
10.746761226
 20
11.1113585901
 30
0.0
 10
10.7550038815
 20
11.1157697065
 30
0.0
 10
10.7626608645
 20
11.1202509753
 30
0.0
 10
10.7697235367
 20
11.1247974238
 30
0.0
 10
10.7761837066
 20
11.1294044523
 30
0.0
 10
10.7820344123
 20
11.1340667844
 30
0.0
 10
10.7872691562
 20
11.138779666
 30
0.0
 10
10.7918815445
 20
11.1435389515
 30
0.0
 10
10.7958663848
 20
11.1483399056
 30
0.0
 10
10.7992185188
 20
11.1531783289
 30
0.0
 10
10.8019320145
 20
11.1580503791
 30
0.0
 10
10.8040018824
 20
11.1629510199
 30
0.0
 10
10.8054228984
 20
11.1678745347
 30
0.0
 10
10.8061894045
 20
11.172813742
 30
0.0
 10
10.8062988593
 20
11.1777594268
 30
0.0
 10
10.8057510433
 20
11.1827018582
 30
0.0
 10
10.8045474041
 20
11.1876315479
 30
0.0
 10
10.8026930563
 20
11.1925403312
 30
0.0
 10
10.8006369493
 20
11.196556078
 30
0.0
 10
10.7986887088
 20
11.1997464837
 30
0.0
 10
10.7964695236
 20
11.2030169956
 30
0.0
 10
10.7932782962
 20
11.2070867288
 30
0.0
 10
10.7888744919
 20
11.211860203
 30
0.0
 10
10.78384625
 20
11.2165891014
 30
0.0
 10
10.7782000691
 20
11.2212686521
 30
0.0
 10
10.7741509297
 20
11.2242618371
 30
0.0
 10
10.772030706
 20
11.2257519159
 30
0.0
  0
SPLINE
  5
3DE
100
AcDbEntity
  8
0
100
AcDbSpline
 62
7
  6
CONTINUOUS
 70
0
 71
3
 72
11
 73
7
 74
0
 42
0.0000001
 43
0.0000001
 44
0.0000000001
 40
0.0
 40
0.0
 40
0.0
 40
0.0
 40
0.2310152257
 40
0.4746103058
 40
0.7309143418
 40
1.0
 40
1.0
 40
1.0
 40
1.0
 10
10.772030706
 20
11.2257519159
 30
0.0
 10
10.7698998398
 20
11.2272494742
 30
0.0
 10
10.7654474021
 20
11.2302208705
 30
0.0
 10
10.7584050222
 20
11.2345036179
 30
0.0
 10
10.7508306031
 20
11.2387251627
 30
0.0
 10
10.7455595617
 20
11.2414299092
 30
0.0
 10
10.7428396506
 20
11.2427735195
 30
0.0
  0
SPLINE
  5
3DF
100
AcDbEntity
  8
0
100
AcDbSpline
 62
7
  6
CONTINUOUS
 70
0
 71
3
 72
9
 73
5
 74
0
 42
0.0000001
 43
0.0000001
 44
0.0000000001
 40
0.0
 40
0.0
 40
0.0
 40
0.0
 40
0.4802028106
 40
1.0
 40
1.0
 40
1.0
 40
1.0
 10
9.6321994056
 20
11.0966024677
 30
0.0
 10
9.6342908285
 20
11.0941561326
 30
0.0
 10
9.6389196482
 20
11.0892925428
 30
0.0
 10
9.6439531178
 20
11.0848553201
 30
0.0
 10
9.6466474538
 20
11.0826467487
 30
0.0
  0
SPLINE
  5
3E0
100
AcDbEntity
  8
0
100
AcDbSpline
 62
7
  6
CONTINUOUS
 70
0
 71
3
 72
24
 73
20
 74
0
 42
0.0000001
 43
0.0000001
 44
0.0000000001
 40
0.0
 40
0.0
 40
0.0
 40
0.0
 40
0.0904093868
 40
0.1775325331
 40
0.2610553835
 40
0.3406844661
 40
0.41616279
 40
0.4872998029
 40
0.521207684
 40
0.5540039824
 40
0.6162843266
 40
0.6743126111
 40
0.7283969377
 40
0.7789824074
 40
0.826623815
 40
0.8719379797
 40
0.9155549124
 40
0.9580698186
 40
1.0
 40
1.0
 40
1.0
 40
1.0
 10
10.7188341486
 20
11.0212440923
 30
0.0
 10
10.721869677
 20
11.0271939765
 30
0.0
 10
10.7279436489
 20
11.0388203
 30
0.0
 10
10.737269133
 20
11.0557050714
 30
0.0
 10
10.7466493982
 20
11.0716426717
 30
0.0
 10
10.7560814115
 20
11.0865419593
 30
0.0
 10
10.765560275
 20
11.1003150115
 30
0.0
 10
10.7736161167
 20
11.1109520178
 30
0.0
 10
10.7800930116
 20
11.1188124357
 30
0.0
 10
10.7863655668
 20
11.1259877476
 30
0.0
 10
10.7942047561
 20
11.1341550605
 30
0.0
 10
10.8037912658
 20
11.1427827718
 30
0.0
 10
10.8133799684
 20
11.1500576804
 30
0.0
 10
10.822958778
 20
11.1559975473
 30
0.0
 10
10.8325143376
 20
11.1606426318
 30
0.0
 10
10.8420329257
 20
11.164051121
 30
0.0
 10
10.8515013996
 20
11.1662973393
 30
0.0
 10
10.8609074904
 20
11.1674676225
 30
0.0
 10
10.8671572505
 20
11.1675917067
 30
0.0
 10
10.8702538381
 20
11.1675042898
 30
0.0
  0
SPLINE
  5
3E1
100
AcDbEntity
  8
0
100
AcDbSpline
 62
7
  6
CONTINUOUS
 70
0
 71
3
 72
15
 73
11
 74
0
 42
0.0000001
 43
0.0000001
 44
0.0000000001
 40
0.0
 40
0.0
 40
0.0
 40
0.0
 40
0.1193884442
 40
0.2394118209
 40
0.3604965246
 40
0.4831212753
 40
0.6078106285
 40
0.735130254
 40
0.8656619472
 40
1.0
 40
1.0
 40
1.0
 40
1.0
 10
10.7188341486
 20
10.636840651
 30
0.0
 10
10.7206039042
 20
10.6367906906
 30
0.0
 10
10.7241564312
 20
10.6367878591
 30
0.0
 10
10.7294967235
 20
10.6370910907
 30
0.0
 10
10.7348574171
 20
10.6377186343
 30
0.0
 10
10.7402375853
 20
10.6386872079
 30
0.0
 10
10.7456364051
 20
10.6400132231
 30
0.0
 10
10.7510525748
 20
10.6417131458
 30
0.0
 10
10.7564845344
 20
10.6438014492
 30
0.0
 10
10.760059171
 20
10.6454363149
 30
0.0
 10
10.76184544
 20
10.6463183145
 30
0.0
  0
SPLINE
  5
3E2
100
AcDbEntity
  8
0
100
AcDbSpline
 62
7
  6
CONTINUOUS
 70
0
 71
3
 72
23
 73
19
 74
0
 42
0.0000001
 43
0.0000001
 44
0.0000000001
 40
0.0
 40
0.0
 40
0.0
 40
0.0
 40
0.0584073816
 40
0.1170342823
 40
0.175946792
 40
0.235225456
 40
0.2949566682
 40
0.3552310086
 40
0.416138202
 40
0.4777588108
 40
0.540158822
 40
0.6033849084
 40
0.6674605222
 40
0.7323867869
 40
0.7981446078
 40
0.8646981496
 40
0.9320021535
 40
1.0
 40
1.0
 40
1.0
 40
1.0
 10
9.6466474538
 20
11.0826467487
 30
0.0
 10
9.6550944866
 20
11.0835342552
 30
0.0
 10
9.6720529391
 20
11.0850190719
 30
0.0
 10
9.6976139928
 20
11.0862842097
 30
0.0
 10
9.7233335403
 20
11.0865018345
 30
0.0
 10
9.7491993288
 20
11.0855841582
 30
0.0
 10
9.7751930299
 20
11.0834511346
 30
0.0
 10
9.8012890929
 20
11.0800357446
 30
0.0
 10
9.8274555137
 20
11.0752873754
 30
0.0
 10
9.8536557277
 20
11.0691789832
 30
0.0
 10
9.8798512221
 20
11.0617093892
 30
0.0
 10
9.9060037085
 20
11.0529013322
 30
0.0
 10
9.9320783252
 20
11.0428017093
 30
0.0
 10
9.958045863
 20
11.0314775891
 30
0.0
 10
9.9838829586
 20
11.0190087146
 30
0.0
 10
10.0095734099
 20
11.0054836632
 30
0.0
 10
10.035106971
 20
10.9909951991
 30
0.0
 10
10.0519403795
 20
10.9808037369
 30
0.0
 10
10.0603341719
 20
10.9755768831
 30
0.0
  0
SPLINE
  5
3E3
100
AcDbEntity
  8
0
100
AcDbSpline
 62
7
  6
CONTINUOUS
 70
0
 71
3
 72
23
 73
19
 74
0
 42
0.0000001
 43
0.0000001
 44
0.0000000001
 40
0.0
 40
0.0
 40
0.0
 40
0.0
 40
0.0430699451
 40
0.0891871423
 40
0.1383056318
 40
0.190355986
 40
0.2452532918
 40
0.3028948794
 40
0.3631669336
 40
0.4259413274
 40
0.4910817656
 40
0.5584409459
 40
0.6278644901
 40
0.6991861904
 40
0.7722368997
 40
0.8468483862
 40
0.9228417141
 40
1.0
 40
1.0
 40
1.0
 40
1.0
 10
9.7746761802
 20
10.6294891665
 30
0.0
 10
9.7791331276
 20
10.6272875661
 30
0.0
 10
9.7884804775
 20
10.6229653959
 30
0.0
 10
9.8032476822
 20
10.6168930932
 30
0.0
 10
9.8192061444
 20
10.6110249654
 30
0.0
 10
9.8363135147
 20
10.6053761873
 30
0.0
 10
9.8545250633
 20
10.5999624977
 30
0.0
 10
9.8737926082
 20
10.5947977716
 30
0.0
 10
9.894065187
 20
10.589896556
 30
0.0
 10
9.9152889816
 20
10.5852713699
 30
0.0
 10
9.9374076961
 20
10.5809352737
 30
0.0
 10
9.9603626083
 20
10.5768993261
 30
0.0
 10
9.9840924531
 20
10.5731750201
 30
0.0
 10
10.0085337777
 20
10.5697717087
 30
0.0
 10
10.033622149
 20
10.566699032
 30
0.0
 10
10.0592919088
 20
10.5639647655
 30
0.0
 10
10.085472197
 20
10.5615769931
 30
0.0
 10
10.1030979526
 20
10.5602291109
 30
0.0
 10
10.1119820905
 20
10.5596129938
 30
0.0
  0
SPLINE
  5
3E4
100
AcDbEntity
  8
0
100
AcDbSpline
 62
7
  6
CONTINUOUS
 70
0
 71
3
 72
21
 73
17
 74
0
 42
0.0000001
 43
0.0000001
 44
0.0000000001
 40
0.0
 40
0.0
 40
0.0
 40
0.0
 40
0.1331620508
 40
0.198721389
 40
0.2635863969
 40
0.3277657689
 40
0.3912790145
 40
0.4541586317
 40
0.5164459921
 40
0.5781920281
 40
0.6394524084
 40
0.7002861096
 40
0.7607522371
 40
0.8209070106
 40
0.8808048208
 40
1.0
 40
1.0
 40
1.0
 40
1.0
 10
9.7291508219
 20
10.6519778641
 30
0.0
 10
9.7427458073
 20
10.6452601387
 30
0.0
 10
9.7633263373
 20
10.6358042504
 30
0.0
 10
9.7911923989
 20
10.6246355113
 30
0.0
 10
9.8120418858
 20
10.6171104072
 30
0.0
 10
9.8329300125
 20
10.6104214806
 30
0.0
 10
9.853839577
 20
10.6045909916
 30
0.0
 10
9.8747502828
 20
10.5996265763
 30
0.0
 10
9.8956433375
 20
10.5955307924
 30
0.0
 10
9.916499418
 20
10.592290926
 30
0.0
 10
9.937301638
 20
10.5898885895
 30
0.0
 10
9.9580348571
 20
10.5882943968
 30
0.0
 10
9.9786866011
 20
10.5874735312
 30
0.0
 10
9.9992477504
 20
10.5873857658
 30
0.0
 10
10.0264845935
 20
10.5881865194
 30
0.0
 10
10.0468348385
 20
10.5897551039
 30
0.0
 10
10.0603341719
 20
10.5911734417
 30
0.0
  0
SPLINE
  5
3E5
100
AcDbEntity
  8
0
100
AcDbSpline
 62
7
  6
CONTINUOUS
 70
0
 71
3
 72
21
 73
17
 74
0
 42
0.0000001
 43
0.0000001
 44
0.0000000001
 40
0.0
 40
0.0
 40
0.0
 40
0.0
 40
0.1269266306
 40
0.1902356571
 40
0.2534226618
 40
0.3164750211
 40
0.379381614
 40
0.442133702
 40
0.5047247465
 40
0.5671521045
 40
0.6294167402
 40
0.6915228504
 40
0.7534784743
 40
0.8152934295
 40
0.8769787052
 40
1.0
 40
1.0
 40
1.0
 40
1.0
 10
10.1142549805
 20
10.9718374623
 30
0.0
 10
10.1372625635
 20
10.9795618774
 30
0.0
 10
10.172022969
 20
10.9903496757
 30
0.0
 10
10.2188668897
 20
11.0027692332
 30
0.0
 10
10.2541710763
 20
11.0109949269
 30
0.0
 10
10.2896492116
 20
11.018052645
 30
0.0
 10
10.3252688207
 20
11.0238668909
 30
0.0
 10
10.3609887564
 20
11.0283758456
 30
0.0
 10
10.3967612784
 20
11.0315391356
 30
0.0
 10
10.4325348959
 20
11.0333411385
 30
0.0
 10
10.4682581031
 20
11.0337900377
 30
0.0
 10
10.5038828199
 20
11.0329193055
 30
0.0
 10
10.5393672585
 20
11.0307849019
 30
0.0
 10
10.574678563
 20
11.027457692
 30
0.0
 10
10.6214497724
 20
11.02154755
 30
0.0
 10
10.6562822098
 20
11.0155751476
 30
0.0
 10
10.6793613881
 20
11.0110277941
 30
0.0
  0
SPLINE
  5
3E6
100
AcDbEntity
  8
0
100
AcDbSpline
 62
7
  6
CONTINUOUS
 70
0
 71
3
 72
29
 73
25
 74
0
 42
0.0000001
 43
0.0000001
 44
0.0000000001
 40
0.0
 40
0.0
 40
0.0
 40
0.0
 40
0.0193649952
 40
0.0398586582
 40
0.0614693309
 40
0.0841787293
 40
0.1079642341
 40
0.1327992914
 40
0.1586527009
 40
0.1854910601
 40
0.2132769506
 40
0.2419706946
 40
0.2715302662
 40
0.301910651
 40
0.3649447207
 40
0.4306793292
 40
0.4986935923
 40
0.5685459112
 40
0.6397782272
 40
0.7119204072
 40
0.7844953224
 40
0.8570181404
 40
0.9290160173
 40
1.0
 40
1.0
 40
1.0
 40
1.0
 10
10.7277767968
 20
10.6294890347
 30
0.0
 10
10.7241599246
 20
10.6277024112
 30
0.0
 10
10.7166379316
 20
10.6241803913
 30
0.0
 10
10.7048506574
 20
10.6191712518
 30
0.0
 10
10.692257818
 20
10.6142948165
 30
0.0
 10
10.6788818693
 20
10.6095594217
 30
0.0
 10
10.6647462117
 20
10.6049735692
 30
0.0
 10
10.6498757714
 20
10.6005456962
 30
0.0
 10
10.6342968842
 20
10.5962832351
 30
0.0
 10
10.618037063
 20
10.5921943449
 30
0.0
 10
10.601125168
 20
10.5882859378
 30
0.0
 10
10.5835911793
 20
10.584565151
 30
0.0
 10
10.5654661849
 20
10.5810387437
 30
0.0
 10
10.5402440539
 20
10.5765490054
 30
0.0
 10
10.5074734144
 20
10.5714903885
 30
0.0
 10
10.4667981706
 20
10.5663557346
 30
0.0
 10
10.4245917538
 20
10.5621222293
 30
0.0
 10
10.3811539885
 20
10.5588203663
 30
0.0
 10
10.3367932025
 20
10.5564740918
 30
0.0
 10
10.2918243637
 20
10.5551003242
 30
0.0
 10
10.2465674852
 20
10.5547091064
 30
0.0
 10
10.2013427962
 20
10.5553028632
 30
0.0
 10
10.1564734437
 20
10.5568778988
 30
0.0
 10
10.126733905
 20
10.558589952
 30
0.0
 10
10.1119820905
 20
10.5596129938
 30
0.0
  0
SPLINE
  5
3E7
100
AcDbEntity
  8
0
100
AcDbSpline
 62
7
  6
CONTINUOUS
 70
0
 71
3
 72
21
 73
17
 74
0
 42
0.0000001
 43
0.0000001
 44
0.0000000001
 40
0.0
 40
0.0
 40
0.0
 40
0.0
 40
0.1230212948
 40
0.1847065705
 40
0.2465215258
 40
0.3084771496
 40
0.3705832599
 40
0.4328478955
 40
0.4952752535
 40
0.5578662981
 40
0.6206183861
 40
0.683524979
 40
0.7465773382
 40
0.8097643429
 40
0.8730733694
 40
1.0
 40
1.0
 40
1.0
 40
1.0
 10
10.1142549805
 20
10.5874340209
 30
0.0
 10
10.1373341588
 20
10.5828866674
 30
0.0
 10
10.1721665963
 20
10.5769142651
 30
0.0
 10
10.2189378057
 20
10.5710041231
 30
0.0
 10
10.2542491101
 20
10.5676769131
 30
0.0
 10
10.2897335487
 20
10.5655425096
 30
0.0
 10
10.3253582655
 20
10.5646717773
 30
0.0
 10
10.3610814728
 20
10.5651206766
 30
0.0
 10
10.3968550903
 20
10.5669226794
 30
0.0
 10
10.4326276123
 20
10.5700859694
 30
0.0
 10
10.468347548
 20
10.5745949241
 30
0.0
 10
10.5039671571
 20
10.58040917
 30
0.0
 10
10.5394452924
 20
10.5874668881
 30
0.0
 10
10.574749479
 20
10.5956925819
 30
0.0
 10
10.6215933997
 20
10.6081121393
 30
0.0
 10
10.6563538052
 20
10.6188999376
 30
0.0
 10
10.6793613881
 20
10.6266243528
 30
0.0
  0
SPLINE
  5
3E8
100
AcDbEntity
  8
0
100
AcDbSpline
 62
7
  6
CONTINUOUS
 70
0
 71
3
 72
9
 73
5
 74
0
 42
0.0000001
 43
0.0000001
 44
0.0000000001
 40
0.0
 40
0.0
 40
0.0
 40
0.0
 40
0.5151645244
 40
1.0
 40
1.0
 40
1.0
 40
1.0
 10
9.7596141149
 20
11.2427737772
 30
0.0
 10
9.7562769682
 20
11.2411252665
 30
0.0
 10
9.7498582231
 20
11.237803686
 30
0.0
 10
9.7435885534
 20
11.2342069531
 30
0.0
 10
9.7405951093
 20
11.2323875606
 30
0.0
  0
SPLINE
  5
3E9
100
AcDbEntity
  8
0
100
AcDbSpline
 62
7
  6
CONTINUOUS
 70
0
 71
3
 72
55
 73
51
 74
0
 42
0.0000001
 43
0.0000001
 44
0.0000000001
 40
0.0
 40
0.0
 40
0.0
 40
0.0
 40
0.0126039668
 40
0.0246626451
 40
0.0361845815
 40
0.0471813629
 40
0.0576675083
 40
0.0676611077
 40
0.0771851246
 40
0.0862675479
 40
0.0949416347
 40
0.1032466857
 40
0.1112290233
 40
0.118941678
 40
0.1264439865
 40
0.1338010228
 40
0.1410823646
 40
0.1483598643
 40
0.1557054861
 40
0.1631891608
 40
0.1708765213
 40
0.1788275498
 40
0.1870959619
 40
0.195728829
 40
0.2047661593
 40
0.2142418107
 40
0.2241843014
 40
0.2346171506
 40
0.2455588974
 40
0.2570244016
 40
0.2690255426
 40
0.281571226
 40
0.294667253
 40
0.3083174627
 40
0.337285222
 40
0.3684733057
 40
0.4018562187
 40
0.4373894698
 40
0.4750146658
 40
0.514659581
 40
0.5562421653
 40
0.5996694007
 40
0.6448409651
 40
0.6916481552
 40
0.7399765684
 40
0.7897029257
 40
0.8407002665
 40
0.8928422091
 40
0.9459958947
 40
1.0
 40
1.0
 40
1.0
 40
1.0
 10
9.7405951093
 20
11.2323875606
 30
0.0
 10
9.7386981504
 20
11.2312346035
 30
0.0
 10
9.7350221812
 20
11.2289186956
 30
0.0
 10
9.7297542066
 20
11.2253296353
 30
0.0
 10
9.724858281
 20
11.2217050368
 30
0.0
 10
9.7203377293
 20
11.2180474969
 30
0.0
 10
9.7161956985
 20
11.2143594083
 30
0.0
 10
9.7124353617
 20
11.2106429372
 30
0.0
 10
9.7090593299
 20
11.2069005167
 30
0.0
 10
9.7060699322
 20
11.2031345341
 30
0.0
 10
9.7034695678
 20
11.1993472321
 30
0.0
 10
9.7012608699
 20
11.1955407158
 30
0.0
 10
9.6994458525
 20
11.1917175209
 30
0.0
 10
9.6980264179
 20
11.1878802958
 30
0.0
 10
9.697004588
 20
11.1840319041
 30
0.0
 10
9.6963824517
 20
11.1801755953
 30
0.0
 10
9.6961607959
 20
11.1763151723
 30
0.0
 10
9.6963398533
 20
11.1724545416
 30
0.0
 10
9.6969194235
 20
11.1685976104
 30
0.0
 10
9.6978988455
 20
11.1647482134
 30
0.0
 10
9.6992761031
 20
11.1609096611
 30
0.0
 10
9.7010491554
 20
11.1570848499
 30
0.0
 10
9.703216077
 20
11.1532764322
 30
0.0
 10
9.7057749244
 20
11.1494869866
 30
0.0
 10
9.708723075
 20
11.1457186312
 30
0.0
 10
9.7120581116
 20
11.141973597
 30
0.0
 10
9.7157776986
 20
11.1382542412
 30
0.0
 10
9.7198792972
 20
11.1345630354
 30
0.0
 10
9.7243597568
 20
11.1309021317
 30
0.0
 10
9.7292159143
 20
11.1272739217
 30
0.0
 10
9.7344445335
 20
11.1236809274
 30
0.0
 10
9.7400420439
 20
11.1201257151
 30
0.0
 10
9.7460043547
 20
11.1166104734
 30
0.0
 10
9.7546062598
 20
11.1118862425
 30
0.0
 10
9.7662635252
 20
11.1061196756
 30
0.0
 10
9.7813674634
 20
11.0995283354
 30
0.0
 10
9.7978104273
 20
11.0931540608
 30
0.0
 10
9.8155459195
 20
11.0870144709
 30
0.0
 10
9.8345243613
 20
11.0811276985
 30
0.0
 10
9.8546920393
 20
11.0755101196
 30
0.0
 10
9.8759918539
 20
11.0701785067
 30
0.0
 10
9.898363217
 20
11.0651476542
 30
0.0
 10
9.9217425139
 20
11.0604326475
 30
0.0
 10
9.9460632065
 20
11.0560465169
 30
0.0
 10
9.971255795
 20
11.052002553
 30
0.0
 10
9.9972480273
 20
11.0483117809
 30
0.0
 10
10.0239662585
 20
11.044985304
 30
0.0
 10
10.0513354866
 20
11.0420322307
 30
0.0
 10
10.0792750169
 20
11.039461867
 30
0.0
 10
10.0980935607
 20
11.0380180503
 30
0.0
 10
10.1075821704
 20
11.037360013
 30
0.0
  0
SPLINE
  5
3EA
100
AcDbEntity
  8
0
100
AcDbSpline
 62
7
  6
CONTINUOUS
 70
0
 71
3
 72
42
 73
38
 74
0
 42
0.0000001
 43
0.0000001
 44
0.0000000001
 40
0.0
 40
0.0
 40
0.0
 40
0.0
 40
0.0840368756
 40
0.1695054183
 40
0.2553485112
 40
0.3405012145
 40
0.4239098766
 40
0.4646393716
 40
0.5045513825
 40
0.5435248581
 40
0.581442655
 40
0.6181922027
 40
0.6536660794
 40
0.6877626471
 40
0.7203867856
 40
0.7514508298
 40
0.7808755442
 40
0.8085912582
 40
0.834539382
 40
0.8586744864
 40
0.8809670915
 40
0.8914197167
 40
0.9014099692
 40
0.9109406788
 40
0.9200167536
 40
0.9286452964
 40
0.9368364686
 40
0.9446034904
 40
0.9519634435
 40
0.95893799
 40
0.965553732
 40
0.9718433269
 40
0.9778458183
 40
0.9836070648
 40
0.9891798495
 40
0.9946229739
 40
1.0
 40
1.0
 40
1.0
 40
1.0
 10
12.0808484469
 20
6.1960380708
 30
0.0
 10
12.0808484469
 20
6.2024931229
 30
0.0
 10
12.0810510122
 20
6.215513944
 30
0.0
 10
12.0819300586
 20
6.2351106677
 30
0.0
 10
12.0833767488
 20
6.2547598194
 30
0.0
 10
12.0853719742
 20
6.2742017119
 30
0.0
 10
12.0874858877
 20
6.2901409668
 30
0.0
 10
12.0894376637
 20
6.3025904012
 30
0.0
 10
12.0910084297
 20
6.3116434634
 30
0.0
 10
12.0926923833
 20
6.3204563826
 30
0.0
 10
12.0944839566
 20
6.3290000487
 30
0.0
 10
12.0963771719
 20
6.3372462342
 30
0.0
 10
12.098365723
 20
6.3451677183
 30
0.0
 10
12.1004429828
 20
6.3527383667
 30
0.0
 10
12.1026020335
 20
6.3599332286
 30
0.0
 10
12.1048356732
 20
6.3667286362
 30
0.0
 10
12.1071364513
 20
6.3731023029
 30
0.0
 10
12.1094967049
 20
6.3790333756
 30
0.0
 10
12.1119086125
 20
6.3845026243
 30
0.0
 10
12.1143642033
 20
6.3894922198
 30
0.0
 10
12.116483443
 20
6.3933156015
 30
0.0
 10
12.1182004586
 20
6.3961138785
 30
0.0
 10
12.1194664046
 20
6.3980374445
 30
0.0
 10
12.1207372448
 20
6.3998296869
 30
0.0
 10
12.1220119658
 20
6.4014891796
 30
0.0
 10
12.1232896155
 20
6.4030145553
 30
0.0
 10
12.1245691636
 20
6.4044046257
 30
0.0
 10
12.125849678
 20
6.4056582571
 30
0.0
 10
12.1271302471
 20
6.4067744041
 30
0.0
 10
12.1284099312
 20
6.4077521706
 30
0.0
 10
12.1296879183
 20
6.4085906059
 30
0.0
 10
12.1309633157
 20
6.4092888961
 30
0.0
 10
12.1322352543
 20
6.4098462078
 30
0.0
 10
12.13350278
 20
6.410261639
 30
0.0
 10
12.1347648122
 20
6.4105344832
 30
0.0
 10
12.1360198467
 20
6.4106640014
 30
0.0
 10
12.1368530797
 20
6.4106544643
 30
0.0
 10
12.1372651107
 20
6.4106258867
 30
0.0
  0
SPLINE
  5
3EB
100
AcDbEntity
  8
0
100
AcDbSpline
 62
7
  6
CONTINUOUS
 70
0
 71
3
 72
42
 73
38
 74
0
 42
0.0000001
 43
0.0000001
 44
0.0000000001
 40
0.0
 40
0.0
 40
0.0
 40
0.0
 40
0.0840368756
 40
0.1695054183
 40
0.2553485112
 40
0.3405012145
 40
0.4239098766
 40
0.4646393716
 40
0.5045513825
 40
0.5435248581
 40
0.581442655
 40
0.6181922027
 40
0.6536660794
 40
0.6877626471
 40
0.7203867856
 40
0.7514508298
 40
0.7808755442
 40
0.8085912582
 40
0.834539382
 40
0.8586744864
 40
0.8809670915
 40
0.8914197167
 40
0.9014099692
 40
0.9109406788
 40
0.9200167536
 40
0.9286452964
 40
0.9368364686
 40
0.9446034904
 40
0.9519634435
 40
0.95893799
 40
0.965553732
 40
0.9718433269
 40
0.9778458183
 40
0.9836070648
 40
0.9891798495
 40
0.9946229739
 40
1.0
 40
1.0
 40
1.0
 40
1.0
 10
12.0808484469
 20
9.9390008695
 30
0.0
 10
12.0808484469
 20
9.9454559215
 30
0.0
 10
12.0810510122
 20
9.9584767426
 30
0.0
 10
12.0819300586
 20
9.9780734663
 30
0.0
 10
12.0833767488
 20
9.997722618
 30
0.0
 10
12.0853719742
 20
10.0171645105
 30
0.0
 10
12.0874858877
 20
10.0331037654
 30
0.0
 10
12.0894376637
 20
10.0455531999
 30
0.0
 10
12.0910084297
 20
10.054606262
 30
0.0
 10
12.0926923833
 20
10.0634191813
 30
0.0
 10
12.0944839566
 20
10.0719628474
 30
0.0
 10
12.0963771719
 20
10.0802090328
 30
0.0
 10
12.098365723
 20
10.088130517
 30
0.0
 10
12.1004429828
 20
10.0957011653
 30
0.0
 10
12.1026020335
 20
10.1028960273
 30
0.0
 10
12.1048356732
 20
10.1096914349
 30
0.0
 10
12.1071364513
 20
10.1160651015
 30
0.0
 10
12.1094967049
 20
10.1219961742
 30
0.0
 10
12.1119086125
 20
10.1274654229
 30
0.0
 10
12.1143642033
 20
10.1324550185
 30
0.0
 10
12.116483443
 20
10.1362784002
 30
0.0
 10
12.1182004586
 20
10.1390766772
 30
0.0
 10
12.1194664046
 20
10.1410002431
 30
0.0
 10
12.1207372448
 20
10.1427924855
 30
0.0
 10
12.1220119658
 20
10.1444519783
 30
0.0
 10
12.1232896155
 20
10.1459773539
 30
0.0
 10
12.1245691636
 20
10.1473674243
 30
0.0
 10
12.125849678
 20
10.1486210558
 30
0.0
 10
12.1271302471
 20
10.1497372028
 30
0.0
 10
12.1284099312
 20
10.1507149693
 30
0.0
 10
12.1296879183
 20
10.1515534045
 30
0.0
 10
12.1309633157
 20
10.1522516948
 30
0.0
 10
12.1322352543
 20
10.1528090064
 30
0.0
 10
12.13350278
 20
10.1532244376
 30
0.0
 10
12.1347648122
 20
10.1534972819
 30
0.0
 10
12.1360198467
 20
10.1536268001
 30
0.0
 10
12.1368530797
 20
10.153617263
 30
0.0
 10
12.1372651107
 20
10.1535886853
 30
0.0
  0
SPLINE
  5
3EC
100
AcDbEntity
  8
0
100
AcDbSpline
 62
7
  6
CONTINUOUS
 70
0
 71
3
 72
41
 73
37
 74
0
 42
0.0000001
 43
0.0000001
 44
0.0000000001
 40
0.0
 40
0.0
 40
0.0
 40
0.0
 40
0.0311447316
 40
0.062442512
 40
0.0938874623
 40
0.1254698004
 40
0.157177398
 40
0.1730760315
 40
0.1890002542
 40
0.2209118667
 40
0.2528982324
 40
0.268915512
 40
0.2849437913
 40
0.3170178786
 40
0.3491032351
 40
0.3811777019
 40
0.4132193306
 40
0.4452068069
 40
0.4771198671
 40
0.5089396988
 40
0.5406493218
 40
0.5722339425
 40
0.6036812744
 40
0.6349818182
 40
0.6661290945
 40
0.6971198218
 40
0.7279540332
 40
0.7586351262
 40
0.7891698392
 40
0.8195681519
 40
0.8498431069
 40
0.8800105534
 40
0.9100888147
 40
0.9400982872
 40
0.9700609787
 40
1.0
 40
1.0
 40
1.0
 40
1.0
 10
9.9051858395
 20
7.7634543324
 30
0.0
 10
9.9118137892
 20
7.7629946825
 30
0.0
 10
9.9250735525
 20
7.7615879852
 30
0.0
 10
9.9448024118
 20
7.7580444758
 30
0.0
 10
9.9643200712
 20
7.753081038
 30
0.0
 10
9.9835205787
 20
7.7467246022
 30
0.0
 10
9.9991599476
 20
7.7402998372
 30
0.0
 10
10.0114125911
 20
7.7345028496
 30
0.0
 10
10.0234957021
 20
7.728264688
 30
0.0
 10
10.038213171
 20
7.7196720677
 30
0.0
 10
10.0523217709
 20
7.7100774806
 30
0.0
 10
10.063209703
 20
7.7018253813
 30
0.0
 10
10.0738237786
 20
7.6931942714
 30
0.0
 10
10.0865361278
 20
7.6817269208
 30
0.0
 10
10.1008178857
 20
7.666958605
 30
0.0
 10
10.1140561565
 20
7.6512565178
 30
0.0
 10
10.1261798943
 20
7.6347047203
 30
0.0
 10
10.1371245614
 20
7.6173913065
 30
0.0
 10
10.1468317196
 20
7.5994085542
 30
0.0
 10
10.1552495408
 20
7.5808522743
 30
0.0
 10
10.1623330283
 20
7.5618213512
 30
0.0
 10
10.1680442706
 20
7.5424172109
 30
0.0
 10
10.1723526494
 20
7.5227432929
 30
0.0
 10
10.1752350011
 20
7.5029045023
 30
0.0
 10
10.1766757435
 20
7.483006658
 30
0.0
 10
10.1766669664
 20
7.4631559359
 30
0.0
 10
10.175208482
 20
7.4434583085
 30
0.0
 10
10.1723078371
 20
7.4240189836
 30
0.0
 10
10.1679802859
 20
7.4049418458
 30
0.0
 10
10.1622487182
 20
7.3863288984
 30
0.0
 10
10.1551435639
 20
7.3682797231
 30
0.0
 10
10.1467026109
 20
7.3508909035
 30
0.0
 10
10.1369709368
 20
7.3342556242
 30
0.0
 10
10.1260001921
 20
7.3184626984
 30
0.0
 10
10.1138501291
 20
7.3035977897
 30
0.0
 10
10.1050032589
 20
7.2943557528
 30
0.0
 10
10.1004096318
 20
7.2899186291
 30
0.0
  0
SPLINE
  5
3ED
100
AcDbEntity
  8
0
100
AcDbSpline
 62
7
  6
CONTINUOUS
 70
0
 71
3
 72
35
 73
31
 74
0
 42
0.0000001
 43
0.0000001
 44
0.0000000001
 40
0.0
 40
0.0
 40
0.0
 40
0.0
 40
0.0312064465
 40
0.0622843914
 40
0.0932371984
 40
0.1240740511
 40
0.1548065469
 40
0.1854500846
 40
0.2160227255
 40
0.2465448182
 40
0.2770384021
 40
0.3075266752
 40
0.3380333235
 40
0.3685819593
 40
0.3991956462
 40
0.4298965195
 40
0.4607052788
 40
0.4916406117
 40
0.5539374865
 40
0.6168931359
 40
0.6805215336
 40
0.7447276241
 40
0.7769841517
 40
0.8092804538
 40
0.8415581805
 40
0.8737480007
 40
0.90577153
 40
0.9375445279
 40
0.9689812986
 40
1.0
 40
1.0
 40
1.0
 40
1.0
 10
10.1299699993
 20
9.2478739998
 30
0.0
 10
10.1252860743
 20
9.2481988311
 30
0.0
 10
10.1159545039
 20
9.2491285013
 30
0.0
 10
10.1020974059
 20
9.251363952
 30
0.0
 10
10.0884555511
 20
9.2544253685
 30
0.0
 10
10.0750748277
 20
9.258294713
 30
0.0
 10
10.0619961597
 20
9.2629494776
 30
0.0
 10
10.0492563093
 20
9.2683630275
 30
0.0
 10
10.036887208
 20
9.2745057758
 30
0.0
 10
10.0249160419
 20
9.2813459881
 30
0.0
 10
10.0133653592
 20
9.2888506803
 30
0.0
 10
10.0022534083
 20
9.2969864004
 30
0.0
 10
9.9915946017
 20
9.3057198992
 30
0.0
 10
9.9814000507
 20
9.3150186121
 30
0.0
 10
9.9716780776
 20
9.3248510399
 30
0.0
 10
9.9624348329
 20
9.3351868438
 30
0.0
 10
9.9536746201
 20
9.3459973936
 30
0.0
 10
9.942618921
 20
9.3610399501
 30
0.0
 10
9.9300206818
 20
9.3809173625
 30
0.0
 10
9.9169267375
 20
9.406176161
 30
0.0
 10
9.9058457232
 20
9.432689798
 30
0.0
 10
9.898336102
 20
9.4556036776
 30
0.0
 10
9.8933759419
 20
9.4743343599
 30
0.0
 10
9.8901894819
 20
9.4885541476
 30
0.0
 10
9.8875528713
 20
9.5028756345
 30
0.0
 10
9.8854758825
 20
9.5172475649
 30
0.0
 10
9.8839674382
 20
9.5316139196
 30
0.0
 10
9.8830347633
 20
9.5459157492
 30
0.0
 10
9.8826827226
 20
9.5600922687
 30
0.0
 10
9.882837636
 20
9.5694910179
 30
0.0
 10
9.8830145287
 20
9.5741545921
 30
0.0
  0
SPLINE
  5
3EE
100
AcDbEntity
  8
0
100
AcDbSpline
 62
7
  6
CONTINUOUS
 70
0
 71
3
 72
41
 73
37
 74
0
 42
0.0000001
 43
0.0000001
 44
0.0000000001
 40
0.0
 40
0.0
 40
0.0
 40
0.0
 40
0.0311447316
 40
0.062442512
 40
0.0938874623
 40
0.1254698004
 40
0.157177398
 40
0.1730760315
 40
0.1890002542
 40
0.2209118667
 40
0.2528982324
 40
0.268915512
 40
0.2849437913
 40
0.3170178786
 40
0.3491032351
 40
0.3811777019
 40
0.4132193306
 40
0.4452068069
 40
0.4771198671
 40
0.5089396988
 40
0.5406493218
 40
0.5722339425
 40
0.6036812744
 40
0.6349818182
 40
0.6661290945
 40
0.6971198218
 40
0.7279540332
 40
0.7586351262
 40
0.7891698392
 40
0.8195681519
 40
0.8498431069
 40
0.8800105534
 40
0.9100888147
 40
0.9400982872
 40
0.9700609787
 40
1.0
 40
1.0
 40
1.0
 40
1.0
 10
9.9051858395
 20
9.5735995081
 30
0.0
 10
9.9118137892
 20
9.5731398583
 30
0.0
 10
9.9250735525
 20
9.5717331609
 30
0.0
 10
9.9448024118
 20
9.5681896515
 30
0.0
 10
9.9643200712
 20
9.5632262137
 30
0.0
 10
9.9835205787
 20
9.5568697779
 30
0.0
 10
9.9991599476
 20
9.5504450129
 30
0.0
 10
10.0114125911
 20
9.5446480254
 30
0.0
 10
10.0234957021
 20
9.5384098637
 30
0.0
 10
10.038213171
 20
9.5298172434
 30
0.0
 10
10.0523217709
 20
9.5202226563
 30
0.0
 10
10.063209703
 20
9.5119705571
 30
0.0
 10
10.0738237786
 20
9.5033394471
 30
0.0
 10
10.0865361278
 20
9.4918720965
 30
0.0
 10
10.1008178857
 20
9.4771037807
 30
0.0
 10
10.1140561565
 20
9.4614016935
 30
0.0
 10
10.1261798943
 20
9.444849896
 30
0.0
 10
10.1371245614
 20
9.4275364823
 30
0.0
 10
10.1468317196
 20
9.4095537299
 30
0.0
 10
10.1552495408
 20
9.39099745
 30
0.0
 10
10.1623330283
 20
9.3719665269
 30
0.0
 10
10.1680442706
 20
9.3525623866
 30
0.0
 10
10.1723526494
 20
9.3328884687
 30
0.0
 10
10.1752350011
 20
9.313049678
 30
0.0
 10
10.1766757435
 20
9.2931518337
 30
0.0
 10
10.1766669664
 20
9.2733011116
 30
0.0
 10
10.175208482
 20
9.2536034842
 30
0.0
 10
10.1723078371
 20
9.2341641593
 30
0.0
 10
10.1679802859
 20
9.2150870215
 30
0.0
 10
10.1622487182
 20
9.1964740742
 30
0.0
 10
10.1551435639
 20
9.1784248989
 30
0.0
 10
10.1467026109
 20
9.1610360793
 30
0.0
 10
10.1369709368
 20
9.1444008
 30
0.0
 10
10.1260001921
 20
9.1286078742
 30
0.0
 10
10.1138501291
 20
9.1137429654
 30
0.0
 10
10.1050032589
 20
9.1045009286
 30
0.0
 10
10.1004096318
 20
9.1000638048
 30
0.0
  0
SPLINE
  5
3EF
100
AcDbEntity
  8
0
100
AcDbSpline
 62
7
  6
CONTINUOUS
 70
0
 71
3
 72
34
 73
30
 74
0
 42
0.0000001
 43
0.0000001
 44
0.0000000001
 40
0.0
 40
0.0
 40
0.0
 40
0.0
 40
0.0328886959
 40
0.0655258748
 40
0.0979000864
 40
0.1300078242
 40
0.1618503949
 40
0.1934352592
 40
0.2247747939
 40
0.2558857788
 40
0.2867884442
 40
0.317505749
 40
0.3480625288
 40
0.3784847078
 40
0.4087987865
 40
0.4390317629
 40
0.4692104236
 40
0.4993611069
 40
0.529510335
 40
0.5596841222
 40
0.5899082008
 40
0.6202088903
 40
0.6811344701
 40
0.7426902811
 40
0.7737809945
 40
0.8051181888
 40
0.8686559343
 40
0.9335636806
 40
1.0
 40
1.0
 40
1.0
 40
1.0
 10
11.6192345623
 20
8.8251368382
 30
0.0
 10
11.6150608583
 20
8.8254262855
 30
0.0
 10
11.6067598462
 20
8.8262418186
 30
0.0
 10
11.5944510771
 20
8.8281806531
 30
0.0
 10
11.5823740284
 20
8.8308178546
 30
0.0
 10
11.5705707668
 20
8.8341345164
 30
0.0
 10
11.5590780338
 20
8.8381069526
 30
0.0
 10
11.547927751
 20
8.8427072835
 30
0.0
 10
11.5371464335
 20
8.8479047291
 30
0.0
 10
11.5267553009
 20
8.8536665548
 30
0.0
 10
11.5167704715
 20
8.8599590854
 30
0.0
 10
11.507203361
 20
8.8667485444
 30
0.0
 10
11.4980612277
 20
8.8740018153
 30
0.0
 10
11.4893477414
 20
8.881686972
 30
0.0
 10
11.4810634852
 20
8.8897736734
 30
0.0
 10
11.4732065158
 20
8.8982334739
 30
0.0
 10
11.4657729272
 20
8.9070400385
 30
0.0
 10
11.4587571582
 20
8.9161691553
 30
0.0
 10
11.4521524869
 20
8.9255988916
 30
0.0
 10
11.4459513395
 20
8.9353094972
 30
0.0
 10
11.4401452982
 20
8.9452835629
 30
0.0
 10
11.4329069359
 20
8.9589363644
 30
0.0
 10
11.4247958346
 20
8.9766191585
 30
0.0
 10
11.4179241504
 20
8.9949231917
 30
0.0
 10
11.413110884
 20
9.0099449575
 30
0.0
 10
11.4087041784
 20
9.0253534597
 30
0.0
 10
11.4040095228
 20
9.045142666
 30
0.0
 10
11.3996334259
 20
9.0695549682
 30
0.0
 10
11.3975172137
 20
9.0861361141
 30
0.0
 10
11.3966355837
 20
9.0945412814
 30
0.0
  0
SPLINE
  5
3F0
100
AcDbEntity
  8
0
100
AcDbSpline
 62
7
  6
CONTINUOUS
 70
0
 71
3
 72
41
 73
37
 74
0
 42
0.0000001
 43
0.0000001
 44
0.0000000001
 40
0.0
 40
0.0
 40
0.0
 40
0.0
 40
0.0311447316
 40
0.062442512
 40
0.0938874623
 40
0.1254698004
 40
0.157177398
 40
0.1730760315
 40
0.1890002542
 40
0.2209118667
 40
0.2528982324
 40
0.268915512
 40
0.2849437913
 40
0.3170178786
 40
0.3491032351
 40
0.3811777019
 40
0.4132193306
 40
0.4452068069
 40
0.4771198671
 40
0.5089396988
 40
0.5406493218
 40
0.5722339425
 40
0.6036812744
 40
0.6349818182
 40
0.6661290945
 40
0.6971198218
 40
0.7279540332
 40
0.7586351262
 40
0.7891698392
 40
0.8195681519
 40
0.8498431069
 40
0.8800105534
 40
0.9100888147
 40
0.9400982872
 40
0.9700609787
 40
1.0
 40
1.0
 40
1.0
 40
1.0
 10
11.3540746648
 20
9.1118623764
 30
0.0
 10
11.3607026145
 20
9.1114027265
 30
0.0
 10
11.3739623778
 20
9.1099960292
 30
0.0
 10
11.3936912371
 20
9.1064525197
 30
0.0
 10
11.4132088965
 20
9.1014890819
 30
0.0
 10
11.432409404
 20
9.0951326462
 30
0.0
 10
11.4480487729
 20
9.0887078812
 30
0.0
 10
11.4603014164
 20
9.0829108936
 30
0.0
 10
11.4723845274
 20
9.076672732
 30
0.0
 10
11.4871019963
 20
9.0680801117
 30
0.0
 10
11.5012105962
 20
9.0584855245
 30
0.0
 10
11.5120985283
 20
9.0502334253
 30
0.0
 10
11.5227126039
 20
9.0416023153
 30
0.0
 10
11.5354249531
 20
9.0301349648
 30
0.0
 10
11.549706711
 20
9.0153666489
 30
0.0
 10
11.5629449818
 20
8.9996645618
 30
0.0
 10
11.5750687196
 20
8.9831127643
 30
0.0
 10
11.5860133866
 20
8.9657993505
 30
0.0
 10
11.5957205449
 20
8.9478165982
 30
0.0
 10
11.6041383661
 20
8.9292603182
 30
0.0
 10
11.6112218536
 20
8.9102293951
 30
0.0
 10
11.6169330959
 20
8.8908252549
 30
0.0
 10
11.6212414747
 20
8.8711513369
 30
0.0
 10
11.6241238264
 20
8.8513125463
 30
0.0
 10
11.6255645688
 20
8.831414702
 30
0.0
 10
11.6255557916
 20
8.8115639799
 30
0.0
 10
11.6240973072
 20
8.7918663524
 30
0.0
 10
11.6211966624
 20
8.7724270276
 30
0.0
 10
11.6168691112
 20
8.7533498897
 30
0.0
 10
11.6111375435
 20
8.7347369424
 30
0.0
 10
11.6040323892
 20
8.7166877671
 30
0.0
 10
11.5955914362
 20
8.6992989475
 30
0.0
 10
11.5858597621
 20
8.6826636682
 30
0.0
 10
11.5748890174
 20
8.6668707424
 30
0.0
 10
11.5627389544
 20
8.6520058337
 30
0.0
 10
11.5538920842
 20
8.6427637968
 30
0.0
 10
11.549298457
 20
8.6383266731
 30
0.0
  0
SPLINE
  5
3F1
100
AcDbEntity
  8
0
100
AcDbSpline
 62
7
  6
CONTINUOUS
 70
0
 71
3
 72
35
 73
31
 74
0
 42
0.0000001
 43
0.0000001
 44
0.0000000001
 40
0.0
 40
0.0
 40
0.0
 40
0.0
 40
0.0312064522
 40
0.0622844289
 40
0.0932372755
 40
0.1240741588
 40
0.1548066874
 40
0.1854502814
 40
0.216022958
 40
0.2465450579
 40
0.277038635
 40
0.3075268964
 40
0.3380335378
 40
0.3685821662
 40
0.3991958356
 40
0.4298967121
 40
0.4607054636
 40
0.4916407568
 40
0.5539375539
 40
0.6168931523
 40
0.6805215565
 40
0.7447276254
 40
0.7769841284
 40
0.809280432
 40
0.84155815
 40
0.8737479633
 40
0.9057715013
 40
0.9375444967
 40
0.9689812726
 40
1.0
 40
1.0
 40
1.0
 40
1.0
 10
11.5788588246
 20
6.9740599806
 30
0.0
 10
11.5741749045
 20
6.9743848115
 30
0.0
 10
11.5648433399
 20
6.9753144812
 30
0.0
 10
11.5509862471
 20
6.9775499295
 30
0.0
 10
11.5373443942
 20
6.9806113466
 30
0.0
 10
11.5239636713
 20
6.9844806871
 30
0.0
 10
11.5108850024
 20
6.9891354522
 30
0.0
 10
11.498145149
 20
6.994549
 30
0.0
 10
11.4857760493
 20
7.0006917473
 30
0.0
 10
11.4738048936
 20
7.0075319547
 30
0.0
 10
11.462254225
 20
7.0150366344
 30
0.0
 10
11.4511422882
 20
7.0231723388
 30
0.0
 10
11.4404834949
 20
7.031905821
 30
0.0
 10
11.4302889568
 20
7.041204516
 30
0.0
 10
11.4205669933
 20
7.051036925
 30
0.0
 10
11.411323757
 20
7.0613727091
 30
0.0
 10
11.4025635529
 20
7.0721832354
 30
0.0
 10
11.3915078695
 20
7.0872257517
 30
0.0
 10
11.3789096438
 20
7.1071031084
 30
0.0
 10
11.3658157011
 20
7.1323618478
 30
0.0
 10
11.3547346784
 20
7.1588754323
 30
0.0
 10
11.3472250439
 20
7.1817892702
 30
0.0
 10
11.3422648708
 20
7.2005199175
 30
0.0
 10
11.3390783993
 20
7.2147396794
 30
0.0
 10
11.3364417746
 20
7.2290611435
 30
0.0
 10
11.3343647696
 20
7.2434330526
 30
0.0
 10
11.3328563079
 20
7.2577993875
 30
0.0
 10
11.3319236122
 20
7.2721011999
 30
0.0
 10
11.331571551
 20
7.2862777059
 30
0.0
 10
11.3317264475
 20
7.2956764486
 30
0.0
 10
11.3319033326
 20
7.3003400213
 30
0.0
  0
SPLINE
  5
3F2
100
AcDbEntity
  8
0
100
AcDbSpline
 62
7
  6
CONTINUOUS
 70
0
 71
3
 72
41
 73
37
 74
0
 42
0.0000001
 43
0.0000001
 44
0.0000000001
 40
0.0
 40
0.0
 40
0.0
 40
0.0
 40
0.0311447316
 40
0.062442512
 40
0.0938874623
 40
0.1254698004
 40
0.157177398
 40
0.1730760315
 40
0.1890002542
 40
0.2209118667
 40
0.2528982324
 40
0.268915512
 40
0.2849437913
 40
0.3170178786
 40
0.3491032351
 40
0.3811777019
 40
0.4132193306
 40
0.4452068069
 40
0.4771198671
 40
0.5089396988
 40
0.5406493218
 40
0.5722339425
 40
0.6036812744
 40
0.6349818182
 40
0.6661290945
 40
0.6971198218
 40
0.7279540332
 40
0.7586351262
 40
0.7891698392
 40
0.8195681519
 40
0.8498431069
 40
0.8800105534
 40
0.9100888147
 40
0.9400982872
 40
0.9700609787
 40
1.0
 40
1.0
 40
1.0
 40
1.0
 10
11.3540746648
 20
7.2997854889
 30
0.0
 10
11.3607026145
 20
7.299325839
 30
0.0
 10
11.3739623778
 20
7.2979191417
 30
0.0
 10
11.3936912371
 20
7.2943756323
 30
0.0
 10
11.4132088965
 20
7.2894121944
 30
0.0
 10
11.432409404
 20
7.2830557587
 30
0.0
 10
11.4480487729
 20
7.2766309937
 30
0.0
 10
11.4603014164
 20
7.2708340061
 30
0.0
 10
11.4723845274
 20
7.2645958445
 30
0.0
 10
11.4871019963
 20
7.2560032242
 30
0.0
 10
11.5012105962
 20
7.2464086371
 30
0.0
 10
11.5120985283
 20
7.2381565378
 30
0.0
 10
11.5227126039
 20
7.2295254278
 30
0.0
 10
11.5354249531
 20
7.2180580773
 30
0.0
 10
11.549706711
 20
7.2032897614
 30
0.0
 10
11.5629449818
 20
7.1875876743
 30
0.0
 10
11.5750687196
 20
7.1710358768
 30
0.0
 10
11.5860133866
 20
7.153722463
 30
0.0
 10
11.5957205449
 20
7.1357397107
 30
0.0
 10
11.6041383661
 20
7.1171834307
 30
0.0
 10
11.6112218536
 20
7.0981525076
 30
0.0
 10
11.6169330959
 20
7.0787483674
 30
0.0
 10
11.6212414747
 20
7.0590744494
 30
0.0
 10
11.6241238264
 20
7.0392356588
 30
0.0
 10
11.6255645688
 20
7.0193378145
 30
0.0
 10
11.6255557916
 20
6.9994870924
 30
0.0
 10
11.6240973072
 20
6.979789465
 30
0.0
 10
11.6211966624
 20
6.9603501401
 30
0.0
 10
11.6168691112
 20
6.9412730022
 30
0.0
 10
11.6111375435
 20
6.9226600549
 30
0.0
 10
11.6040323892
 20
6.9046108796
 30
0.0
 10
11.5955914362
 20
6.88722206
 30
0.0
 10
11.5858597621
 20
6.8705867807
 30
0.0
 10
11.5748890174
 20
6.8547938549
 30
0.0
 10
11.5627389544
 20
6.8399289462
 30
0.0
 10
11.5538920842
 20
6.8306869093
 30
0.0
 10
11.549298457
 20
6.8262497856
 30
0.0
  0
SPLINE
  5
3F3
100
AcDbEntity
  8
0
100
AcDbSpline
 62
7
  6
CONTINUOUS
 70
0
 71
3
 72
23
 73
19
 74
0
 42
0.0000001
 43
0.0000001
 44
0.0000000001
 40
0.0
 40
0.0
 40
0.0
 40
0.0
 40
0.0616482066
 40
0.1233194398
 40
0.1850364729
 40
0.2468215638
 40
0.3086962099
 40
0.3706809215
 40
0.4327950013
 40
0.4950563319
 40
0.5574811817
 40
0.6200840805
 40
0.6828775834
 40
0.7458723398
 40
0.8090769807
 40
0.8724966303
 40
0.9361388571
 40
1.0
 40
1.0
 40
1.0
 40
1.0
 10
9.7099620472
 20
7.6941396892
 30
0.0
 10
9.713115439
 20
7.697185646
 30
0.0
 10
9.71958865
 20
7.70311025
 30
0.0
 10
9.7297639884
 20
7.7114642035
 30
0.0
 10
9.7403811867
 20
7.7192659704
 30
0.0
 10
9.7514131337
 20
7.7264955418
 30
0.0
 10
9.7628321114
 20
7.7331348224
 30
0.0
 10
9.7746093086
 20
7.7391670917
 30
0.0
 10
9.7867150565
 20
7.7445771809
 30
0.0
 10
9.7991188592
 20
7.749351463
 30
0.0
 10
9.8117894631
 20
7.7534779477
 30
0.0
 10
9.824694942
 20
7.7569462899
 30
0.0
 10
9.8378027905
 20
7.7597477981
 30
0.0
 10
9.8510800264
 20
7.7618754391
 30
0.0
 10
9.8644931253
 20
7.763323841
 30
0.0
 10
9.8780086074
 20
7.7640895334
 30
0.0
 10
9.8915918002
 20
7.7641704547
 30
0.0
 10
9.9006550837
 20
7.7637685414
 30
0.0
 10
9.9051858395
 20
7.7634543324
 30
0.0
  0
SPLINE
  5
3F4
100
AcDbEntity
  8
0
100
AcDbSpline
 62
7
  6
CONTINUOUS
 70
0
 71
3
 72
23
 73
19
 74
0
 42
0.0000001
 43
0.0000001
 44
0.0000000001
 40
0.0
 40
0.0
 40
0.0
 40
0.0
 40
0.0616482066
 40
0.1233194398
 40
0.1850364729
 40
0.2468215638
 40
0.3086962099
 40
0.3706809215
 40
0.4327950013
 40
0.4950563319
 40
0.5574811817
 40
0.6200840805
 40
0.6828775834
 40
0.7458723398
 40
0.8090769807
 40
0.8724966303
 40
0.9361388571
 40
1.0
 40
1.0
 40
1.0
 40
1.0
 10
9.7099620472
 20
9.5042848649
 30
0.0
 10
9.713115439
 20
9.5073308217
 30
0.0
 10
9.71958865
 20
9.5132554257
 30
0.0
 10
9.7297639884
 20
9.5216093792
 30
0.0
 10
9.7403811867
 20
9.5294111462
 30
0.0
 10
9.7514131337
 20
9.5366407175
 30
0.0
 10
9.7628321114
 20
9.5432799981
 30
0.0
 10
9.7746093086
 20
9.5493122674
 30
0.0
 10
9.7867150565
 20
9.5547223567
 30
0.0
 10
9.7991188592
 20
9.5594966388
 30
0.0
 10
9.8117894631
 20
9.5636231234
 30
0.0
 10
9.824694942
 20
9.5670914656
 30
0.0
 10
9.8378027905
 20
9.5698929738
 30
0.0
 10
9.8510800264
 20
9.5720206149
 30
0.0
 10
9.8644931253
 20
9.5734690168
 30
0.0
 10
9.8780086074
 20
9.5742347091
 30
0.0
 10
9.8915918002
 20
9.5743156304
 30
0.0
 10
9.9006550837
 20
9.5739137171
 30
0.0
 10
9.9051858395
 20
9.5735995081
 30
0.0
  0
SPLINE
  5
3F5
100
AcDbEntity
  8
0
100
AcDbSpline
 62
7
  6
CONTINUOUS
 70
0
 71
3
 72
23
 73
19
 74
0
 42
0.0000001
 43
0.0000001
 44
0.0000000001
 40
0.0
 40
0.0
 40
0.0
 40
0.0
 40
0.0616482066
 40
0.1233194398
 40
0.1850364729
 40
0.2468215638
 40
0.3086962099
 40
0.3706809215
 40
0.4327950013
 40
0.4950563319
 40
0.5574811817
 40
0.6200840805
 40
0.6828775834
 40
0.7458723398
 40
0.8090769807
 40
0.8724966303
 40
0.9361388571
 40
1.0
 40
1.0
 40
1.0
 40
1.0
 10
11.1588508725
 20
9.0425477331
 30
0.0
 10
11.1620042643
 20
9.0455936899
 30
0.0
 10
11.1684774753
 20
9.051518294
 30
0.0
 10
11.1786528137
 20
9.0598722474
 30
0.0
 10
11.189270012
 20
9.0676740144
 30
0.0
 10
11.200301959
 20
9.0749035857
 30
0.0
 10
11.2117209366
 20
9.0815428664
 30
0.0
 10
11.2234981339
 20
9.0875751356
 30
0.0
 10
11.2356038818
 20
9.0929852249
 30
0.0
 10
11.2480076845
 20
9.097759507
 30
0.0
 10
11.2606782884
 20
9.1018859916
 30
0.0
 10
11.2735837672
 20
9.1053543338
 30
0.0
 10
11.2866916158
 20
9.1081558421
 30
0.0
 10
11.2999688517
 20
9.1102834831
 30
0.0
 10
11.3133819506
 20
9.111731885
 30
0.0
 10
11.3268974327
 20
9.1124975774
 30
0.0
 10
11.3404806255
 20
9.1125784986
 30
0.0
 10
11.349543909
 20
9.1121765853
 30
0.0
 10
11.3540746648
 20
9.1118623764
 30
0.0
  0
SPLINE
  5
3F6
100
AcDbEntity
  8
0
100
AcDbSpline
 62
7
  6
CONTINUOUS
 70
0
 71
3
 72
23
 73
19
 74
0
 42
0.0000001
 43
0.0000001
 44
0.0000000001
 40
0.0
 40
0.0
 40
0.0
 40
0.0
 40
0.0616482066
 40
0.1233194398
 40
0.1850364729
 40
0.2468215638
 40
0.3086962099
 40
0.3706809215
 40
0.4327950013
 40
0.4950563319
 40
0.5574811817
 40
0.6200840805
 40
0.6828775834
 40
0.7458723398
 40
0.8090769807
 40
0.8724966303
 40
0.9361388571
 40
1.0
 40
1.0
 40
1.0
 40
1.0
 10
11.1588508725
 20
7.2304708456
 30
0.0
 10
11.1620042643
 20
7.2335168025
 30
0.0
 10
11.1684774753
 20
7.2394414065
 30
0.0
 10
11.1786528137
 20
7.2477953599
 30
0.0
 10
11.189270012
 20
7.2555971269
 30
0.0
 10
11.200301959
 20
7.2628266983
 30
0.0
 10
11.2117209366
 20
7.2694659789
 30
0.0
 10
11.2234981339
 20
7.2754982481
 30
0.0
 10
11.2356038818
 20
7.2809083374
 30
0.0
 10
11.2480076845
 20
7.2856826195
 30
0.0
 10
11.2606782884
 20
7.2898091041
 30
0.0
 10
11.2735837672
 20
7.2932774464
 30
0.0
 10
11.2866916158
 20
7.2960789546
 30
0.0
 10
11.2999688517
 20
7.2982065956
 30
0.0
 10
11.3133819506
 20
7.2996549975
 30
0.0
 10
11.3268974327
 20
7.3004206899
 30
0.0
 10
11.3404806255
 20
7.3005016111
 30
0.0
 10
11.349543909
 20
7.3000996979
 30
0.0
 10
11.3540746648
 20
7.2997854889
 30
0.0
  0
SPLINE
  5
3F7
100
AcDbEntity
  8
0
100
AcDbSpline
 62
7
  6
CONTINUOUS
 70
0
 71
3
 72
18
 73
14
 74
0
 42
0.0000001
 43
0.0000001
 44
0.0000000001
 40
0.0
 40
0.0
 40
0.0
 40
0.0
 40
0.0548626505
 40
0.1099292212
 40
0.1654012836
 40
0.2214755222
 40
0.3361333874
 40
0.4553634688
 40
0.517104949
 40
0.58043661
 40
0.7123312106
 40
0.8519577725
 40
1.0
 40
1.0
 40
1.0
 40
1.0
 10
10.7912266069
 20
10.6139674756
 30
0.0
 10
10.791226605
 20
10.6132048451
 30
0.0
 10
10.7911782043
 20
10.6116763092
 30
0.0
 10
10.7909605872
 20
10.609386003
 30
0.0
 10
10.7905979108
 20
10.6070969719
 30
0.0
 10
10.7899164314
 20
10.6040256005
 30
0.0
 10
10.7886887245
 20
10.6001761124
 30
0.0
 10
10.7870072595
 20
10.5964175041
 30
0.0
 10
10.7853893016
 20
10.5934304337
 30
0.0
 10
10.7835366694
 20
10.5903749068
 30
0.0
 10
10.780846609
 20
10.5865681436
 30
0.0
 10
10.7770961732
 20
10.5820946035
 30
0.0
 10
10.7743067486
 20
10.5792241092
 30
0.0
 10
10.772826599
 20
10.5777943943
 30
0.0
  0
SPLINE
  5
3F8
100
AcDbEntity
  8
0
100
AcDbSpline
 62
7
  6
CONTINUOUS
 70
0
 71
3
 72
55
 73
51
 74
0
 42
0.0000001
 43
0.0000001
 44
0.0000000001
 40
0.0
 40
0.0
 40
0.0
 40
0.0
 40
0.0099874912
 40
0.0204477711
 40
0.0313772774
 40
0.0427708795
 40
0.0546219795
 40
0.0669227579
 40
0.0796642422
 40
0.0928363999
 40
0.1064282967
 40
0.1204280898
 40
0.1348231448
 40
0.1496001092
 40
0.164744899
 40
0.180242823
 40
0.1960785882
 40
0.2122363246
 40
0.2454512648
 40
0.2797517072
 40
0.3149945373
 40
0.3510310754
 40
0.3877080396
 40
0.424868496
 40
0.4623527914
 40
0.4999994618
 40
0.5376461367
 40
0.5751304476
 40
0.6122909297
 40
0.6489679246
 40
0.6850045031
 40
0.7202473889
 40
0.7545478952
 40
0.7877628978
 40
0.803920678
 40
0.8197564729
 40
0.8352544455
 40
0.8503992779
 40
0.8651762785
 40
0.8795713922
 40
0.893571225
 40
0.9071631696
 40
0.9203353878
 40
0.9330769114
 40
0.9453777511
 40
0.9572289063
 40
0.968622552
 40
0.979552129
 40
0.9900124556
 40
1.0
 40
1.0
 40
1.0
 40
1.0
 10
10.8077526837
 20
10.587734808
 30
0.0
 10
10.8043672471
 20
10.5860624644
 30
0.0
 10
10.7973782955
 20
10.5827547042
 30
0.0
 10
10.7865080227
 20
10.5780009357
 30
0.0
 10
10.7750197315
 20
10.5733452096
 30
0.0
 10
10.7629267029
 20
10.5687929984
 30
0.0
 10
10.7502427556
 20
10.564349495
 30
0.0
 10
10.736982454
 20
10.5600198719
 30
0.0
 10
10.7231610359
 20
10.5558091474
 30
0.0
 10
10.7087944126
 20
10.5517221743
 30
0.0
 10
10.6938991251
 20
10.5477637283
 30
0.0
 10
10.6784923461
 20
10.5439383818
 30
0.0
 10
10.6625918443
 20
10.5402505668
 30
0.0
 10
10.6462159621
 20
10.5367045923
 30
0.0
 10
10.6293836033
 20
10.533304539
 30
0.0
 10
10.6121142058
 20
10.530054375
 30
0.0
 10
10.5944276908
 20
10.5269578533
 30
0.0
 10
10.5700932139
 20
10.5230025559
 30
0.0
 10
10.5387807332
 20
10.5184811251
 30
0.0
 10
10.500215014
 20
10.5137689122
 30
0.0
 10
10.4604992569
 20
10.5097437939
 30
0.0
 10
10.4198169523
 20
10.5064245537
 30
0.0
 10
10.3783558939
 20
10.50382671
 30
0.0
 10
10.3363075785
 20
10.5019623854
 30
0.0
 10
10.2938662255
 20
10.5008402857
 30
0.0
 10
10.2512278916
 20
10.5004656574
 30
0.0
 10
10.2085895515
 20
10.5008402458
 30
0.0
 10
10.1661481799
 20
10.5019622963
 30
0.0
 10
10.1240998352
 20
10.5038265723
 30
0.0
 10
10.0826387378
 20
10.5064243783
 30
0.0
 10
10.0419563819
 20
10.5097435797
 30
0.0
 10
10.0022405595
 20
10.5137686521
 30
0.0
 10
9.9636747649
 20
10.5184808172
 30
0.0
 10
9.9323622168
 20
10.5230022298
 30
0.0
 10
9.9080276812
 20
10.5269574867
 30
0.0
 10
9.8903411188
 20
10.5300540052
 30
0.0
 10
9.8730716692
 20
10.5333041395
 30
0.0
 10
9.8562392577
 20
10.5367041757
 30
0.0
 10
9.8398633214
 20
10.5402501452
 30
0.0
 10
9.8239627594
 20
10.5439379258
 30
0.0
 10
9.8085559223
 20
10.5477632682
 30
0.0
 10
9.7936605734
 20
10.5517217002
 30
0.0
 10
9.7792938837
 20
10.5558086441
 30
0.0
 10
9.7654724031
 20
10.5600193726
 30
0.0
 10
9.7522120314
 20
10.56434897
 30
0.0
 10
9.7395280139
 20
10.5687924574
 30
0.0
 10
9.7274349191
 20
10.5733446737
 30
0.0
 10
9.7159465477
 20
10.5780003641
 30
0.0
 10
9.7050762074
 20
10.5827541392
 30
0.0
 10
9.6980872045
 20
10.5860618793
 30
0.0
 10
9.6947017468
 20
10.5877342255
 30
0.0
  0
SPLINE
  5
3F9
100
AcDbEntity
  8
0
100
AcDbSpline
 62
7
  6
CONTINUOUS
 70
0
 71
3
 72
9
 73
5
 74
0
 42
0.0000001
 43
0.0000001
 44
0.0000000001
 40
0.0
 40
0.0
 40
0.0
 40
0.0
 40
0.5155012115
 40
1.0
 40
1.0
 40
1.0
 40
1.0
 10
10.7618182982
 20
10.5684741152
 30
0.0
 10
10.7638003156
 20
10.5699642463
 30
0.0
 10
10.7675700767
 20
10.5729567333
 30
0.0
 10
10.7711503298
 20
10.5761752425
 30
0.0
 10
10.772826599
 20
10.5777943943
 30
0.0
  0
SPLINE
  5
3FA
100
AcDbEntity
  8
0
100
AcDbSpline
 62
7
  6
CONTINUOUS
 70
0
 71
3
 72
22
 73
18
 74
0
 42
0.0000001
 43
0.0000001
 44
0.0000000001
 40
0.0
 40
0.0
 40
0.0
 40
0.0
 40
0.0516094297
 40
0.103526819
 40
0.1560541247
 40
0.2094819429
 40
0.264085209
 40
0.3201191951
 40
0.4373375855
 40
0.4989793834
 40
0.5628550679
 40
0.62911159
 40
0.6978765513
 40
0.7692607614
 40
0.8433582156
 40
0.9202488072
 40
1.0
 40
1.0
 40
1.0
 40
1.0
 10
9.7112266368
 20
10.6139674756
 30
0.0
 10
9.7112266343
 20
10.6130001897
 30
0.0
 10
9.7113046436
 20
10.6110589542
 30
0.0
 10
9.7116553475
 20
10.6081522903
 30
0.0
 10
9.7122394889
 20
10.6052485481
 30
0.0
 10
9.7130565779
 20
10.6023494675
 30
0.0
 10
9.7141061541
 20
10.599456268
 30
0.0
 10
9.7158400458
 20
10.5955504638
 30
0.0
 10
9.718027926
 20
10.5917144522
 30
0.0
 10
9.7206124983
 20
10.5879687403
 30
0.0
 10
9.7228119545
 20
10.5851236233
 30
0.0
 10
9.7252384183
 20
10.582291781
 30
0.0
 10
9.7278909435
 20
10.579473985
 30
0.0
 10
9.73076837
 20
10.5766714883
 30
0.0
 10
9.7338694435
 20
10.5738853366
 30
0.0
 10
9.7371927915
 20
10.5711166927
 30
0.0
 10
9.7395128315
 20
10.5693165855
 30
0.0
 10
9.7407081518
 20
10.5684191283
 30
0.0
  0
SPLINE
  5
3FB
100
AcDbEntity
  8
0
100
AcDbSpline
 62
7
  6
CONTINUOUS
 70
0
 71
3
 72
15
 73
11
 74
0
 42
0.0000001
 43
0.0000001
 44
0.0000000001
 40
0.0
 40
0.0
 40
0.0
 40
0.0
 40
0.068527302
 40
0.1464932328
 40
0.2368098229
 40
0.3426743279
 40
0.4680706563
 40
0.6174209168
 40
0.7942271465
 40
1.0
 40
1.0
 40
1.0
 40
1.0
 10
12.4585585363
 20
10.7313755425
 30
0.0
 10
12.4585585363
 20
10.7311852641
 30
0.0
 10
12.4585428646
 20
10.7307783182
 30
0.0
 10
12.4584632042
 20
10.7301248683
 30
0.0
 10
12.4583097068
 20
10.7293785052
 30
0.0
 10
12.4580649679
 20
10.7285189142
 30
0.0
 10
12.4576980579
 20
10.7275267489
 30
0.0
 10
12.4571802993
 20
10.7263837941
 30
0.0
 10
12.4564856507
 20
10.7250793016
 30
0.0
 10
12.4559290997
 20
10.7241735605
 30
0.0
 10
12.4556167482
 20
10.7236951307
 30
0.0
  0
SPLINE
  5
3FC
100
AcDbEntity
  8
0
100
AcDbSpline
 62
7
  6
CONTINUOUS
 70
0
 71
3
 72
63
 73
59
 74
0
 42
0.0000001
 43
0.0000001
 44
0.0000000001
 40
0.0
 40
0.0
 40
0.0
 40
0.0
 40
0.0077404951
 40
0.0160540231
 40
0.0249601625
 40
0.0344715779
 40
0.0445947918
 40
0.0553316038
 40
0.0666797818
 40
0.0786337195
 40
0.0911849323
 40
0.1043223985
 40
0.1180328871
 40
0.1323012211
 40
0.1471104705
 40
0.1624420942
 40
0.1782761125
 40
0.1945912411
 40
0.2113649863
 40
0.2285737288
 40
0.2461928417
 40
0.2641967748
 40
0.2825591168
 40
0.3012526675
 40
0.3202495285
 40
0.3395211688
 40
0.3787712063
 40
0.4187649048
 40
0.4592577009
 40
0.5000010365
 40
0.5407443622
 40
0.5812371306
 40
0.6212307843
 40
0.6604807551
 40
0.6797523556
 40
0.6987491799
 40
0.7174426839
 40
0.7358049676
 40
0.7538088469
 40
0.7714279092
 40
0.7886365862
 40
0.8054102566
 40
0.8217253206
 40
0.837559275
 40
0.8528908158
 40
0.8676999784
 40
0.88196824
 40
0.8956786521
 40
0.908816022
 40
0.9213671416
 40
0.9333210024
 40
0.9446690929
 40
0.9554058035
 40
0.9655289264
 40
0.9750402472
 40
0.9839463523
 40
0.9922597067
 40
1.0
 40
1.0
 40
1.0
 40
1.0
 10
12.4686777064
 20
10.7341223001
 30
0.0
 10
12.4665299352
 20
10.7321236508
 30
0.0
 10
12.4619064783
 20
10.7281577073
 30
0.0
 10
12.454321809
 20
10.7224934861
 30
0.0
 10
12.4458580275
 20
10.716914663
 30
0.0
 10
12.4365289861
 20
10.7114300438
 30
0.0
 10
12.4263491053
 20
10.7060479803
 30
0.0
 10
12.4153346684
 20
10.7007770559
 30
0.0
 10
12.4035033298
 20
10.6956257489
 30
0.0
 10
12.3908741954
 20
10.6906024669
 30
0.0
 10
12.377467755
 20
10.6857154656
 30
0.0
 10
12.3633058561
 20
10.6809727913
 30
0.0
 10
12.3484116441
 20
10.676382274
 30
0.0
 10
12.3328095016
 20
10.6719515138
 30
0.0
 10
12.3165250094
 20
10.6676878611
 30
0.0
 10
12.29958491
 20
10.6635983697
 30
0.0
 10
12.2820170455
 20
10.6596898146
 30
0.0
 10
12.2638503014
 20
10.6559686791
 30
0.0
 10
12.2451145653
 20
10.6524411384
 30
0.0
 10
12.2258406814
 20
10.6491130267
 30
0.0
 10
12.2060603866
 20
10.6459898568
 30
0.0
 10
12.1858062543
 20
10.6430768105
 30
0.0
 10
12.1651116462
 20
10.640378714
 30
0.0
 10
12.1440106688
 20
10.6379000325
 30
0.0
 10
12.1225380616
 20
10.6356448439
 30
0.0
 10
12.0932820596
 20
10.6329245182
 30
0.0
 10
12.0560441529
 20
10.6301179338
 30
0.0
 10
12.0107211757
 20
10.6277104624
 30
0.0
 10
11.9647912006
 20
10.6262595571
 30
0.0
 10
11.9185568252
 20
10.6257748595
 30
0.0
 10
11.872322461
 20
10.6262596271
 30
0.0
 10
11.8263925196
 20
10.6277106083
 30
0.0
 10
11.7810695986
 20
10.6301181429
 30
0.0
 10
11.7438317541
 20
10.6329247906
 30
0.0
 10
11.7145758112
 20
10.6356451652
 30
0.0
 10
11.6931032535
 20
10.6379003784
 30
0.0
 10
11.672002334
 20
10.6403790933
 30
0.0
 10
11.6513077919
 20
10.6430772302
 30
0.0
 10
11.6310537262
 20
10.6459903062
 30
0.0
 10
11.6112735001
 20
10.6491134983
 30
0.0
 10
11.5919996953
 20
10.6524416433
 30
0.0
 10
11.5732640453
 20
10.6559692212
 30
0.0
 10
11.5550973847
 20
10.6596903801
 30
0.0
 10
11.5375296066
 20
10.6635989548
 30
0.0
 10
11.520589606
 20
10.6676884786
 30
0.0
 10
11.5043052171
 20
10.6719521636
 30
0.0
 10
11.4887031723
 20
10.6763829404
 30
0.0
 10
11.4738090626
 20
10.6809734745
 30
0.0
 10
11.4596472803
 20
10.6857161798
 30
0.0
 10
11.4462409569
 20
10.6906032069
 30
0.0
 10
11.4336119314
 20
10.6956264984
 30
0.0
 10
11.4217807084
 20
10.7007778193
 30
0.0
 10
11.4107664028
 20
10.7060487729
 30
0.0
 10
11.4005866556
 20
10.7114308552
 30
0.0
 10
11.3912577093
 20
10.7169154722
 30
0.0
 10
11.3827940796
 20
10.7224943196
 30
0.0
 10
11.3752095964
 20
10.7281585272
 30
0.0
 10
11.3705862624
 20
10.7321243974
 30
0.0
 10
11.3684385817
 20
10.7341230316
 30
0.0
  0
SPLINE
  5
3FD
100
AcDbEntity
  8
0
100
AcDbSpline
 62
7
  6
CONTINUOUS
 70
0
 71
3
 72
15
 73
11
 74
0
 42
0.0000001
 43
0.0000001
 44
0.0000000001
 40
0.0
 40
0.0
 40
0.0
 40
0.0
 40
0.2070183484
 40
0.3847335518
 40
0.5345488743
 40
0.6601707684
 40
0.7659103235
 40
0.8556379774
 40
0.9326487331
 40
1.0
 40
1.0
 40
1.0
 40
1.0
 10
11.3816640233
 20
10.7234474694
 30
0.0
 10
11.3813341182
 20
10.7239429993
 30
0.0
 10
11.3807460667
 20
10.7248810622
 30
0.0
 10
11.3800110465
 20
10.7262322004
 30
0.0
 10
11.3794636778
 20
10.7274158882
 30
0.0
 10
11.3790769208
 20
10.7284426474
 30
0.0
 10
11.3788189936
 20
10.7293301296
 30
0.0
 10
11.3786576387
 20
10.730097719
 30
0.0
 10
11.3785746571
 20
10.7307665443
 30
0.0
 10
11.3785585363
 20
10.7311818665
 30
0.0
 10
11.3785585363
 20
10.7313755425
 30
0.0
  0
SPLINE
  5
3FE
100
AcDbEntity
  8
0
100
AcDbSpline
 62
7
  6
CONTINUOUS
 70
0
 71
3
 72
33
 73
29
 74
0
 42
0.0000001
 43
0.0000001
 44
0.0000000001
 40
0.0
 40
0.0
 40
0.0
 40
0.0
 40
0.0126611239
 40
0.0256297336
 40
0.0391904263
 40
0.053589189
 40
0.0690270082
 40
0.0856610213
 40
0.103610138
 40
0.1229609819
 40
0.143774814
 40
0.1660916856
 40
0.1899356205
 40
0.2153166451
 40
0.2422342381
 40
0.2706782889
 40
0.3006311593
 40
0.332068398
 40
0.364959691
 40
0.3992697436
 40
0.4349583791
 40
0.4719816771
 40
0.5498339899
 40
0.6324076926
 40
0.7192341191
 40
0.8098063578
 40
0.9035833072
 40
1.0
 40
1.0
 40
1.0
 40
1.0
 10
12.1134654611
 20
6.0674501891
 30
0.0
 10
12.1128827224
 20
6.0674906067
 30
0.0
 10
12.1117076892
 20
6.0676697608
 30
0.0
 10
12.1099800404
 20
6.0682260034
 30
0.0
 10
12.1082824941
 20
6.0690674382
 30
0.0
 10
12.1066184327
 20
6.0701901008
 30
0.0
 10
12.1049894222
 20
6.0715904399
 30
0.0
 10
12.1033969196
 20
6.0732652959
 30
0.0
 10
12.10184251
 20
6.0752117466
 30
0.0
 10
12.1003278958
 20
6.0774266592
 30
0.0
 10
12.0988551249
 20
6.0799066779
 30
0.0
 10
12.0974262038
 20
6.0826479477
 30
0.0
 10
12.0960433725
 20
6.0856462323
 30
0.0
 10
12.0947087233
 20
6.0888967766
 30
0.0
 10
12.0934244581
 20
6.0923944097
 30
0.0
 10
12.0921926264
 20
6.0961334923
 30
0.0
 10
12.0910152772
 20
6.1001079715
 30
0.0
 10
12.0898943525
 20
6.1043113764
 30
0.0
 10
12.0888316988
 20
6.1087368411
 30
0.0
 10
12.0878291162
 20
6.1133771176
 30
0.0
 10
12.08688821
 20
6.1182246007
 30
0.0
 10
12.0856981477
 20
6.1250687667
 30
0.0
 10
12.0843862371
 20
6.1340854027
 30
0.0
 10
12.0831045383
 20
6.1454221612
 30
0.0
 10
12.0820991228
 20
6.1573756517
 30
0.0
 10
12.0813768468
 20
6.1698671738
 30
0.0
 10
12.0809426754
 20
6.1828145603
 30
0.0
 10
12.0808484469
 20
6.1915897524
 30
0.0
 10
12.0808484469
 20
6.1960380708
 30
0.0
  0
SPLINE
  5
3FF
100
AcDbEntity
  8
0
100
AcDbSpline
 62
7
  6
CONTINUOUS
 70
0
 71
3
 72
33
 73
29
 74
0
 42
0.0000001
 43
0.0000001
 44
0.0000000001
 40
0.0
 40
0.0
 40
0.0
 40
0.0
 40
0.0126611239
 40
0.0256297336
 40
0.0391904263
 40
0.053589189
 40
0.0690270082
 40
0.0856610213
 40
0.103610138
 40
0.1229609819
 40
0.143774814
 40
0.1660916856
 40
0.1899356205
 40
0.2153166451
 40
0.2422342381
 40
0.2706782889
 40
0.3006311593
 40
0.332068398
 40
0.364959691
 40
0.3992697436
 40
0.4349583791
 40
0.4719816771
 40
0.5498339899
 40
0.6324076926
 40
0.7192341191
 40
0.8098063578
 40
0.9035833072
 40
1.0
 40
1.0
 40
1.0
 40
1.0
 10
12.1134654611
 20
9.8104129877
 30
0.0
 10
12.1128827224
 20
9.8104534053
 30
0.0
 10
12.1117076892
 20
9.8106325594
 30
0.0
 10
12.1099800404
 20
9.8111888021
 30
0.0
 10
12.1082824941
 20
9.8120302368
 30
0.0
 10
12.1066184327
 20
9.8131528995
 30
0.0
 10
12.1049894222
 20
9.8145532386
 30
0.0
 10
12.1033969196
 20
9.8162280945
 30
0.0
 10
12.10184251
 20
9.8181745453
 30
0.0
 10
12.1003278958
 20
9.8203894578
 30
0.0
 10
12.0988551249
 20
9.8228694765
 30
0.0
 10
12.0974262038
 20
9.8256107464
 30
0.0
 10
12.0960433725
 20
9.828609031
 30
0.0
 10
12.0947087233
 20
9.8318595753
 30
0.0
 10
12.0934244581
 20
9.8353572084
 30
0.0
 10
12.0921926264
 20
9.839096291
 30
0.0
 10
12.0910152772
 20
9.8430707702
 30
0.0
 10
12.0898943525
 20
9.847274175
 30
0.0
 10
12.0888316988
 20
9.8516996397
 30
0.0
 10
12.0878291162
 20
9.8563399163
 30
0.0
 10
12.08688821
 20
9.8611873994
 30
0.0
 10
12.0856981477
 20
9.8680315654
 30
0.0
 10
12.0843862371
 20
9.8770482013
 30
0.0
 10
12.0831045383
 20
9.8883849598
 30
0.0
 10
12.0820991228
 20
9.9003384503
 30
0.0
 10
12.0813768468
 20
9.9128299724
 30
0.0
 10
12.0809426754
 20
9.9257773589
 30
0.0
 10
12.0808484469
 20
9.934552551
 30
0.0
 10
12.0808484469
 20
9.9390008695
 30
0.0
  0
SPLINE
  5
400
100
AcDbEntity
  8
0
100
AcDbSpline
 62
7
  6
CONTINUOUS
 70
0
 71
3
 72
34
 73
30
 74
0
 42
0.0000001
 43
0.0000001
 44
0.0000000001
 40
0.0
 40
0.0
 40
0.0
 40
0.0
 40
0.0429696463
 40
0.0845173468
 40
0.1246630558
 40
0.1634317043
 40
0.2008529654
 40
0.2369620229
 40
0.2718005799
 40
0.3054167879
 40
0.3378664766
 40
0.3692137569
 40
0.4288765476
 40
0.4573909827
 40
0.4851515881
 40
0.5122700561
 40
0.5388670337
 40
0.5650712584
 40
0.5910180111
 40
0.6168469499
 40
0.6426998706
 40
0.6687180987
 40
0.695040106
 40
0.7217991284
 40
0.7491213926
 40
0.8058884085
 40
0.8662005793
 40
0.9307313107
 40
1.0
 40
1.0
 40
1.0
 40
1.0
 10
10.8359980611
 20
10.7226680649
 30
0.0
 10
10.8374955584
 20
10.7216815911
 30
0.0
 10
10.8404156112
 20
10.7197023449
 30
0.0
 10
10.8446372758
 20
10.716660839
 30
0.0
 10
10.8486247567
 20
10.7135980392
 30
0.0
 10
10.8523764884
 20
10.7105151808
 30
0.0
 10
10.8558910133
 20
10.7074134066
 30
0.0
 10
10.8591669194
 20
10.7042938524
 30
0.0
 10
10.8622029735
 20
10.7011576993
 30
0.0
 10
10.8649978799
 20
10.6980061373
 30
0.0
 10
10.8675506791
 20
10.6948400283
 30
0.0
 10
10.8705796741
 20
10.6906704925
 30
0.0
 10
10.8731885036
 20
10.6864035637
 30
0.0
 10
10.8753186413
 20
10.6820563295
 30
0.0
 10
10.8766454148
 20
10.6788360965
 30
0.0
 10
10.8777244474
 20
10.6756087995
 30
0.0
 10
10.8785551029
 20
10.6723756479
 30
0.0
 10
10.879136766
 20
10.6691381033
 30
0.0
 10
10.8794691065
 20
10.6658976766
 30
0.0
 10
10.8795517883
 20
10.6626559211
 30
0.0
 10
10.8793847768
 20
10.6594144409
 30
0.0
 10
10.8789682449
 20
10.6561748062
 30
0.0
 10
10.8783024292
 20
10.6529386057
 30
0.0
 10
10.8773878054
 20
10.6497072017
 30
0.0
 10
10.8758178397
 20
10.6453523804
 30
0.0
 10
10.8731998439
 20
10.6399044696
 30
0.0
 10
10.8691140967
 20
10.6335028079
 30
0.0
 10
10.8640553712
 20
10.6271595782
 30
0.0
 10
10.8601846573
 20
10.6231243982
 30
0.0
 10
10.8581054836
 20
10.6211160705
 30
0.0
  0
SPLINE
  5
401
100
AcDbEntity
  8
0
100
AcDbSpline
 62
7
  6
CONTINUOUS
 70
0
 71
3
 72
11
 73
7
 74
0
 42
0.0000001
 43
0.0000001
 44
0.0000000001
 40
0.0
 40
0.0
 40
0.0
 40
0.0
 40
0.255195361
 40
0.5059667185
 40
0.7537402106
 40
1.0
 40
1.0
 40
1.0
 40
1.0
 10
9.7131417386
 20
10.6257278151
 30
0.0
 10
9.7128261176
 20
10.6247604443
 30
0.0
 10
9.7122704731
 20
10.6228186467
 30
0.0
 10
9.7116684769
 20
10.6198710569
 30
0.0
 10
9.7113070486
 20
10.6169202188
 30
0.0
 10
9.7112266394
 20
10.6149494035
 30
0.0
 10
9.7112266368
 20
10.6139674756
 30
0.0
  0
SPLINE
  5
402
100
AcDbEntity
  8
0
100
AcDbSpline
 62
7
  6
CONTINUOUS
 70
0
 71
3
 72
15
 73
11
 74
0
 42
0.0000001
 43
0.0000001
 44
0.0000000001
 40
0.0
 40
0.0
 40
0.0
 40
0.0
 40
0.1054890436
 40
0.2163111227
 40
0.3326228146
 40
0.4545533816
 40
0.5822020428
 40
0.7156349262
 40
0.8548942457
 40
1.0
 40
1.0
 40
1.0
 40
1.0
 10
10.8581054836
 20
10.6211160705
 30
0.0
 10
10.856571815
 20
10.6196346603
 30
0.0
 10
10.8533407136
 20
10.6166852654
 30
0.0
 10
10.8481534983
 20
10.6124039786
 30
0.0
 10
10.8425125455
 20
10.6081618584
 30
0.0
 10
10.8364224136
 20
10.6039621039
 30
0.0
 10
10.8298874847
 20
10.5998077033
 30
0.0
 10
10.8229126235
 20
10.5957016086
 30
0.0
 10
10.8155030719
 20
10.5916469947
 30
0.0
 10
10.810382424
 20
10.5890338515
 30
0.0
 10
10.8077526837
 20
10.587734808
 30
0.0
  0
SPLINE
  5
403
100
AcDbEntity
  8
0
100
AcDbSpline
 62
7
  6
CONTINUOUS
 70
0
 71
3
 72
96
 73
92
 74
0
 42
0.0000001
 43
0.0000001
 44
0.0000000001
 40
0.0
 40
0.0
 40
0.0
 40
0.0
 40
0.0041939212
 40
0.0085762269
 40
0.0131520052
 40
0.0179255503
 40
0.0229003895
 40
0.0280791136
 40
0.0334634798
 40
0.039054619
 40
0.0448530484
 40
0.0508588136
 40
0.0570714162
 40
0.0634899855
 40
0.0701132151
 40
0.0769394762
 40
0.0911924427
 40
0.1062302232
 40
0.1220294549
 40
0.1385631627
 40
0.1558011854
 40
0.173710526
 40
0.1922556446
 40
0.2113987132
 40
0.2310998404
 40
0.2513172756
 40
0.2720075971
 40
0.2931258893
 40
0.3146259101
 40
0.3364602548
 40
0.358580515
 40
0.380937433
 40
0.4034810543
 40
0.4261608786
 40
0.4489260088
 40
0.4717253002
 40
0.4945075089
 40
0.5172214402
 40
0.5398160978
 40
0.5622408322
 40
0.5844454903
 40
0.6063805658
 40
0.6279973504
 40
0.649248088
 40
0.6700861315
 40
0.6904661036
 40
0.7103440641
 40
0.7296776851
 40
0.7484264339
 40
0.7665517712
 40
0.7840173684
 40
0.8007893512
 40
0.8168365781
 40
0.8321309695
 40
0.8466479033
 40
0.8536084389
 40
0.8603672363
 40
0.8669224108
 40
0.8732724521
 40
0.8794161948
 40
0.8853528766
 40
0.891082198
 40
0.8966043145
 40
0.9019199826
 40
0.9070305141
 40
0.9119379754
 40
0.9166451634
 40
0.9211558052
 40
0.925474617
 40
0.9296074706
 40
0.9335615598
 40
0.9373455271
 40
0.9409697129
 40
0.9444462457
 40
0.9477892864
 40
0.9510150553
 40
0.9541419228
 40
0.9571902809
 40
0.9601823275
 40
0.9631416685
 40
0.9660927703
 40
0.969060322
 40
0.9720685748
 40
0.9751407156
 40
0.9782983924
 40
0.981561316
 40
0.9849471178
 40
0.9884713701
 40
0.9921476423
 40
0.9959874147
 40
1.0
 40
1.0
 40
1.0
 40
1.0
 10
11.3670148743
 20
10.8119719979
 30
0.0
 10
11.3682508477
 20
10.8131658566
 30
0.0
 10
11.3708397722
 20
10.8155442066
 30
0.0
 10
11.3749688098
 20
10.819009413
 30
0.0
 10
11.3794247257
 20
10.8224470765
 30
0.0
 10
11.3842046248
 20
10.8258550696
 30
0.0
 10
11.3893057597
 20
10.8292314883
 30
0.0
 10
11.3947251411
 20
10.832574406
 30
0.0
 10
11.4004595634
 20
10.8358818785
 30
0.0
 10
11.4065056312
 20
10.8391518939
 30
0.0
 10
11.4128597271
 20
10.8423825755
 30
0.0
 10
11.4195180943
 20
10.8455719327
 30
0.0
 10
11.4264767427
 20
10.8487181316
 30
0.0
 10
11.4337315304
 20
10.851819216
 30
0.0
 10
11.4412781148
 20
10.8548734012
 30
0.0
 10
11.451876267
 20
10.8589391856
 30
0.0
 10
11.4658292814
 20
10.8638783431
 30
0.0
 10
11.483428455
 20
10.8695076757
 30
0.0
 10
11.5020740505
 20
10.8749078703
 30
0.0
 10
11.5217213304
 20
10.8800658415
 30
0.0
 10
11.5423233189
 20
10.8849690739
 30
0.0
 10
11.5638306041
 20
10.8896056676
 30
0.0
 10
11.5861915669
 20
10.8939643693
 30
0.0
 10
11.6093524898
 20
10.8980346019
 30
0.0
 10
11.6332577015
 20
10.9018064906
 30
0.0
 10
11.6578497156
 20
10.905270887
 30
0.0
 10
11.6830693737
 20
10.9084193908
 30
0.0
 10
11.7088559915
 20
10.9112443691
 30
0.0
 10
11.7351475072
 20
10.9137389765
 30
0.0
 10
11.7618806342
 20
10.9158971698
 30
0.0
 10
11.7889910154
 20
10.9177137216
 30
0.0
 10
11.8164133806
 20
10.9191842329
 30
0.0
 10
11.8440817042
 20
10.9203051426
 30
0.0
 10
11.8719293656
 20
10.9210737366
 30
0.0
 10
11.8998893096
 20
10.9214881538
 30
0.0
 10
11.9278942095
 20
10.9215473904
 30
0.0
 10
11.9558766292
 20
10.921251302
 30
0.0
 10
11.9837691869
 20
10.9206006056
 30
0.0
 10
12.0115047186
 20
10.9195968774
 30
0.0
 10
12.0390164407
 20
10.9182425482
 30
0.0
 10
12.0662381115
 20
10.9165408977
 30
0.0
 10
12.0931041915
 20
10.914496047
 30
0.0
 10
12.1195500024
 20
10.912112949
 30
0.0
 10
12.1455118843
 20
10.9093973765
 30
0.0
 10
12.1709273497
 20
10.9063559096
 30
0.0
 10
12.1957352376
 20
10.9029959189
 30
0.0
 10
12.2198758635
 20
10.8993255505
 30
0.0
 10
12.2432911672
 20
10.8953537062
 30
0.0
 10
12.265924857
 20
10.8910900216
 30
0.0
 10
12.2877225487
 20
10.8865448426
 30
0.0
 10
12.3086319112
 20
10.8817292006
 30
0.0
 10
12.3286027767
 20
10.876654783
 30
0.0
 10
12.3475873648
 20
10.8713339067
 30
0.0
 10
12.365540102
 20
10.8657794632
 30
0.0
 10
12.3797983353
 20
10.8609014629
 30
0.0
 10
12.3906478774
 20
10.8568825653
 30
0.0
 10
12.3983865007
 20
10.8538607165
 30
0.0
 10
12.405836311
 20
10.8507907025
 30
0.0
 10
12.4129928647
 20
10.8476743688
 30
0.0
 10
12.4198518798
 20
10.8445135831
 30
0.0
 10
12.426409257
 20
10.8413102224
 30
0.0
 10
12.4326611001
 20
10.838066236
 30
0.0
 10
12.4386036691
 20
10.8347834982
 30
0.0
 10
12.4442334632
 20
10.8314640233
 30
0.0
 10
12.4495471148
 20
10.8281096895
 30
0.0
 10
12.4545415167
 20
10.8247225304
 30
0.0
 10
12.4592136919
 20
10.8213044454
 30
0.0
 10
12.463560907
 20
10.8178574304
 30
0.0
 10
12.4675805886
 20
10.8143834124
 30
0.0
 10
12.471270339
 20
10.8108843046
 30
0.0
 10
12.4746279762
 20
10.8073620468
 30
0.0
 10
12.4776513796
 20
10.8038184572
 30
0.0
 10
12.4803386962
 20
10.8002554693
 30
0.0
 10
12.4826880111
 20
10.7966748625
 30
0.0
 10
12.4846976839
 20
10.7930785955
 30
0.0
 10
12.4863659689
 20
10.7894685759
 30
0.0
 10
12.4876913579
 20
10.7858469464
 30
0.0
 10
12.4886723897
 20
10.7822159978
 30
0.0
 10
12.489307842
 20
10.7785782874
 30
0.0
 10
12.4895969049
 20
10.7749366121
 30
0.0
 10
12.4895390574
 20
10.7712939324
 30
0.0
 10
12.4891345168
 20
10.7676532523
 30
0.0
 10
12.4883837212
 20
10.7640175053
 30
0.0
 10
12.4872877952
 20
10.7603893779
 30
0.0
 10
12.4858479149
 20
10.7567713785
 30
0.0
 10
12.4840656686
 20
10.7531657238
 30
0.0
 10
12.4819426307
 20
10.7495744715
 30
0.0
 10
12.4794804482
 20
10.7459995304
 30
0.0
 10
12.4766808345
 20
10.7424427102
 30
0.0
 10
12.4735458186
 20
10.7389061113
 30
0.0
 10
12.4712847309
 20
10.736614871
 30
0.0
 10
12.4701021983
 20
10.7354726322
 30
0.0
  0
SPLINE
  5
404
100
AcDbEntity
  8
0
100
AcDbSpline
 62
7
  6
CONTINUOUS
 70
0
 71
3
 72
28
 73
24
 74
0
 42
0.0000001
 43
0.0000001
 44
0.0000000001
 40
0.0
 40
0.0
 40
0.0
 40
0.0
 40
0.0749525414
 40
0.1455492598
 40
0.2121319828
 40
0.2751267504
 40
0.3350537751
 40
0.3925311517
 40
0.4205831712
 40
0.4482964194
 40
0.4757713564
 40
0.5031112904
 40
0.5304212607
 40
0.5578066529
 40
0.585371914
 40
0.6132193169
 40
0.6414476915
 40
0.6701515776
 40
0.7293157133
 40
0.7913812221
 40
0.8568968201
 40
0.9263175734
 40
1.0
 40
1.0
 40
1.0
 40
1.0
 10
11.3684385817
 20
10.7341230316
 30
0.0
 10
11.3667897281
 20
10.7356574566
 30
0.0
 10
11.363679249
 20
10.7387380369
 30
0.0
 10
11.3594822443
 20
10.7435441863
 30
0.0
 10
11.3559033176
 20
10.748388373
 30
0.0
 10
11.352947754
 20
10.7532665406
 30
0.0
 10
11.3506206159
 20
10.7581738207
 30
0.0
 10
11.3491976343
 20
10.7623183259
 30
0.0
 10
11.3483896085
 20
10.7656259023
 30
0.0
 10
11.347946973
 20
10.7680895624
 30
0.0
 10
11.3476632275
 20
10.7705549724
 30
0.0
 10
11.3475384998
 20
10.77302143
 30
0.0
 10
11.3475728553
 20
10.7754881097
 30
0.0
 10
11.3477662303
 20
10.7779542156
 30
0.0
 10
11.3481185679
 20
10.7804189567
 30
0.0
 10
11.3486297284
 20
10.7828815281
 30
0.0
 10
11.3492994833
 20
10.7853412481
 30
0.0
 10
11.3504145399
 20
10.7886488502
 30
0.0
 10
11.352222477
 20
10.7927867847
 30
0.0
 10
11.3549998863
 20
10.7976733692
 30
0.0
 10
11.3584022578
 20
10.8025277967
 30
0.0
 10
11.3624241481
 20
10.8073450282
 30
0.0
 10
11.365422298
 20
10.8104336872
 30
0.0
 10
11.3670148743
 20
10.8119719979
 30
0.0
  0
SPLINE
  5
405
100
AcDbEntity
  8
0
100
AcDbSpline
 62
7
  6
CONTINUOUS
 70
0
 71
3
 72
41
 73
37
 74
0
 42
0.0000001
 43
0.0000001
 44
0.0000000001
 40
0.0
 40
0.0
 40
0.0
 40
0.0
 40
0.0311447316
 40
0.062442512
 40
0.0938874623
 40
0.1254698004
 40
0.157177398
 40
0.1730760315
 40
0.1890002542
 40
0.2209118667
 40
0.2528982324
 40
0.268915512
 40
0.2849437913
 40
0.3170178786
 40
0.3491032351
 40
0.3811777019
 40
0.4132193306
 40
0.4452068069
 40
0.4771198671
 40
0.5089396988
 40
0.5406493218
 40
0.5722339425
 40
0.6036812744
 40
0.6349818182
 40
0.6661290945
 40
0.6971198218
 40
0.7279540332
 40
0.7586351262
 40
0.7891698392
 40
0.8195681519
 40
0.8498431069
 40
0.8800105534
 40
0.9100888147
 40
0.9400982872
 40
0.9700609787
 40
1.0
 40
1.0
 40
1.0
 40
1.0
 10
11.3540746648
 20
8.5690120298
 30
0.0
 10
11.347446715
 20
8.5694716797
 30
0.0
 10
11.3341869517
 20
8.570878377
 30
0.0
 10
11.3144580924
 20
8.5744218865
 30
0.0
 10
11.294940433
 20
8.5793853243
 30
0.0
 10
11.2757399255
 20
8.58574176
 30
0.0
 10
11.2601005567
 20
8.592166525
 30
0.0
 10
11.2478479131
 20
8.5979635126
 30
0.0
 10
11.2357648021
 20
8.6042016742
 30
0.0
 10
11.2210473332
 20
8.6127942945
 30
0.0
 10
11.2069387333
 20
8.6223888817
 30
0.0
 10
11.1960508013
 20
8.6306409809
 30
0.0
 10
11.1854367257
 20
8.6392720909
 30
0.0
 10
11.1727243764
 20
8.6507394414
 30
0.0
 10
11.1584426185
 20
8.6655077573
 30
0.0
 10
11.1452043477
 20
8.6812098444
 30
0.0
 10
11.1330806099
 20
8.6977616419
 30
0.0
 10
11.1221359429
 20
8.7150750557
 30
0.0
 10
11.1124287846
 20
8.733057808
 30
0.0
 10
11.1040109634
 20
8.751614088
 30
0.0
 10
11.0969274759
 20
8.7706450111
 30
0.0
 10
11.0912162336
 20
8.7900491513
 30
0.0
 10
11.0869078548
 20
8.8097230693
 30
0.0
 10
11.0840255031
 20
8.8295618599
 30
0.0
 10
11.0825847607
 20
8.8494597042
 30
0.0
 10
11.0825935379
 20
8.8693104263
 30
0.0
 10
11.0840520223
 20
8.8890080538
 30
0.0
 10
11.0869526671
 20
8.9084473786
 30
0.0
 10
11.0912802184
 20
8.9275245165
 30
0.0
 10
11.097011786
 20
8.9461374638
 30
0.0
 10
11.1041169403
 20
8.9641866391
 30
0.0
 10
11.1125578933
 20
8.9815754587
 30
0.0
 10
11.1222895675
 20
8.998210738
 30
0.0
 10
11.1332603122
 20
9.0140036638
 30
0.0
 10
11.1454103751
 20
9.0288685725
 30
0.0
 10
11.1542572454
 20
9.0381106094
 30
0.0
 10
11.1588508725
 20
9.0425477331
 30
0.0
  0
SPLINE
  5
406
100
AcDbEntity
  8
0
100
AcDbSpline
 62
7
  6
CONTINUOUS
 70
0
 71
3
 72
69
 73
65
 74
0
 42
0.0000001
 43
0.0000001
 44
0.0000000001
 40
0.0
 40
0.0
 40
0.0
 40
0.0
 40
0.0156749348
 40
0.0314027839
 40
0.0471814364
 40
0.0630099721
 40
0.0788860943
 40
0.0948073732
 40
0.1107709045
 40
0.1267734005
 40
0.1428112328
 40
0.1588804529
 40
0.1749768346
 40
0.1910959109
 40
0.2072330173
 40
0.2233833314
 40
0.2395419155
 40
0.2557037586
 40
0.2718638216
 40
0.2880170822
 40
0.3202749255
 40
0.3524475142
 40
0.3684949934
 40
0.3845082673
 40
0.4004836065
 40
0.4164176212
 40
0.4323072962
 40
0.4481500201
 40
0.4639436125
 40
0.4796863462
 40
0.49537697
 40
0.5110147255
 40
0.5265993589
 40
0.5421311273
 40
0.5576108011
 40
0.5730396628
 40
0.5884195007
 40
0.6037525947
 40
0.6190416973
 40
0.634290009
 40
0.649501151
 40
0.6646791309
 40
0.6798283035
 40
0.6949533259
 40
0.71005911
 40
0.725150772
 40
0.7402335794
 40
0.7553128946
 40
0.7703941172
 40
0.7854826259
 40
0.8005837208
 40
0.8157025686
 40
0.8308441477
 40
0.8460131958
 40
0.8612141607
 40
0.8764511552
 40
0.8917279166
 40
0.907047777
 40
0.9224136185
 40
0.9378278587
 40
0.9532924887
 40
0.9688086929
 40
0.9843780614
 40
1.0
 40
1.0
 40
1.0
 40
1.0
 10
9.8873273401
 20
7.1367051131
 30
0.0
 10
9.8817868954
 20
7.1370893443
 30
0.0
 10
9.8707042759
 20
7.138130915
 30
0.0
 10
9.8541501886
 20
7.1405013711
 30
0.0
 10
9.8376757802
 20
7.1436771542
 30
0.0
 10
9.8213214112
 20
7.1476503293
 30
0.0
 10
9.8051261721
 20
7.1524114594
 30
0.0
 10
9.7891291494
 20
7.1579490002
 30
0.0
 10
9.7733688208
 20
7.1642495927
 30
0.0
 10
9.7578831238
 20
7.1712980377
 30
0.0
 10
9.7427093289
 20
7.1790773436
 30
0.0
 10
9.7278839607
 20
7.1875687758
 30
0.0
 10
9.7134427071
 20
7.1967518868
 30
0.0
 10
9.6994203162
 20
7.2066045422
 30
0.0
 10
9.6858505311
 20
7.2171030127
 30
0.0
 10
9.6727660154
 20
7.228222014
 30
0.0
 10
9.6601982512
 20
7.2399348114
 30
0.0
 10
9.6481775618
 20
7.2522131173
 30
0.0
 10
9.6367326261
 20
7.2650277248
 30
0.0
 10
9.6222862158
 20
7.2827763169
 30
0.0
 10
9.6058017376
 20
7.3061406173
 30
0.0
 10
9.5915550498
 20
7.3308903706
 30
0.0
 10
9.5815969676
 20
7.3513621245
 30
0.0
 10
9.5748697058
 20
7.3670027327
 30
0.0
 10
9.5688951292
 20
7.3829027954
 30
0.0
 10
9.5636874283
 20
7.399024405
 30
0.0
 10
9.5592592105
 20
7.4153286514
 30
0.0
 10
9.5556211475
 20
7.4317763111
 30
0.0
 10
9.5527820371
 20
7.4483277804
 30
0.0
 10
9.5507487642
 20
7.4649432108
 30
0.0
 10
9.5495262637
 20
7.4815825898
 30
0.0
 10
9.5491175012
 20
7.4982058428
 30
0.0
 10
9.5495234977
 20
7.5147729314
 30
0.0
 10
9.5507433184
 20
7.5312439461
 30
0.0
 10
9.5527740823
 20
7.5475791999
 30
0.0
 10
9.5556109358
 20
7.563739327
 30
0.0
 10
9.5592470678
 20
7.5796853817
 30
0.0
 10
9.563673753
 20
7.5953789268
 30
0.0
 10
9.5688803631
 20
7.6107821259
 30
0.0
 10
9.5748543998
 20
7.6258578303
 30
0.0
 10
9.5815814888
 20
7.6405696821
 30
0.0
 10
9.5890454265
 20
7.654882203
 30
0.0
 10
9.5972282401
 20
7.6687608698
 30
0.0
 10
9.6061102223
 20
7.6821721998
 30
0.0
 10
9.6156699852
 20
7.6950838262
 30
0.0
 10
9.6258844778
 20
7.7074646016
 30
0.0
 10
9.6367290615
 20
7.719284666
 30
0.0
 10
9.6481775831
 20
7.7305155067
 30
0.0
 10
9.6602024331
 20
7.741130031
 30
0.0
 10
9.672774616
 20
7.7511026247
 30
0.0
 10
9.6858637935
 20
7.7604092489
 30
0.0
 10
9.6994383808
 20
7.7690274796
 30
0.0
 10
9.7134656293
 20
7.7769365497
 30
0.0
 10
9.7279117037
 20
7.7841174021
 30
0.0
 10
9.7427417638
 20
7.7905527296
 30
0.0
 10
9.757920033
 20
7.7962270549
 30
0.0
 10
9.7734099025
 20
7.8011267425
 30
0.0
 10
9.7891740224
 20
7.8052400144
 30
0.0
 10
9.8051743835
 20
7.8085569876
 30
0.0
 10
9.8213724445
 20
7.8110697037
 30
0.0
 10
9.8377290606
 20
7.8127721109
 30
0.0
 10
9.8542051139
 20
7.8136602725
 30
0.0
 10
9.8707601936
 20
7.8137319309
 30
0.0
 10
9.8818056274
 20
7.8132361636
 30
0.0
 10
9.8873273401
 20
7.8128532316
 30
0.0
  0
SPLINE
  5
407
100
AcDbEntity
  8
0
100
AcDbSpline
 62
7
  6
CONTINUOUS
 70
0
 71
3
 72
33
 73
29
 74
0
 42
0.0000001
 43
0.0000001
 44
0.0000000001
 40
0.0
 40
0.0
 40
0.0
 40
0.0
 40
0.0126611239
 40
0.0256297336
 40
0.0391904263
 40
0.053589189
 40
0.0690270082
 40
0.0856610213
 40
0.103610138
 40
0.1229609819
 40
0.143774814
 40
0.1660916856
 40
0.1899356205
 40
0.2153166451
 40
0.2422342381
 40
0.2706782889
 40
0.3006311593
 40
0.332068398
 40
0.364959691
 40
0.3992697436
 40
0.4349583791
 40
0.4719816771
 40
0.5498339899
 40
0.6324076926
 40
0.7192341191
 40
0.8098063578
 40
0.9035833072
 40
1.0
 40
1.0
 40
1.0
 40
1.0
 10
12.1372651107
 20
6.4106258867
 30
0.0
 10
12.1378478494
 20
6.4105854691
 30
0.0
 10
12.1390228826
 20
6.410406315
 30
0.0
 10
12.1407505314
 20
6.4098500723
 30
0.0
 10
12.1424480778
 20
6.4090086376
 30
0.0
 10
12.1441121391
 20
6.4078859749
 30
0.0
 10
12.1457411496
 20
6.4064856358
 30
0.0
 10
12.1473336522
 20
6.4048107799
 30
0.0
 10
12.1488880618
 20
6.4028643292
 30
0.0
 10
12.150402676
 20
6.4006494166
 30
0.0
 10
12.1518754469
 20
6.3981693979
 30
0.0
 10
12.153304368
 20
6.395428128
 30
0.0
 10
12.1546871993
 20
6.3924298434
 30
0.0
 10
12.1560218485
 20
6.3891792991
 30
0.0
 10
12.1573061137
 20
6.385681666
 30
0.0
 10
12.1585379454
 20
6.3819425834
 30
0.0
 10
12.1597152946
 20
6.3779681042
 30
0.0
 10
12.1608362193
 20
6.3737646994
 30
0.0
 10
12.161898873
 20
6.3693392347
 30
0.0
 10
12.1629014556
 20
6.3646989581
 30
0.0
 10
12.1638423618
 20
6.359851475
 30
0.0
 10
12.1650324241
 20
6.353007309
 30
0.0
 10
12.1663443347
 20
6.3439906731
 30
0.0
 10
12.1676260335
 20
6.3326539146
 30
0.0
 10
12.168631449
 20
6.3207004241
 30
0.0
 10
12.169353725
 20
6.308208902
 30
0.0
 10
12.1697878964
 20
6.2952615155
 30
0.0
 10
12.1698821249
 20
6.2864863234
 30
0.0
 10
12.1698821249
 20
6.2820380049
 30
0.0
  0
SPLINE
  5
408
100
AcDbEntity
  8
0
100
AcDbSpline
 62
7
  6
CONTINUOUS
 70
0
 71
3
 72
69
 73
65
 74
0
 42
0.0000001
 43
0.0000001
 44
0.0000000001
 40
0.0
 40
0.0
 40
0.0
 40
0.0
 40
0.0156749348
 40
0.0314027839
 40
0.0471814364
 40
0.0630099721
 40
0.0788860943
 40
0.0948073732
 40
0.1107709045
 40
0.1267734005
 40
0.1428112328
 40
0.1588804529
 40
0.1749768346
 40
0.1910959109
 40
0.2072330173
 40
0.2233833314
 40
0.2395419155
 40
0.2557037586
 40
0.2718638216
 40
0.2880170822
 40
0.3202749255
 40
0.3524475142
 40
0.3684949934
 40
0.3845082673
 40
0.4004836065
 40
0.4164176212
 40
0.4323072962
 40
0.4481500201
 40
0.4639436125
 40
0.4796863462
 40
0.49537697
 40
0.5110147255
 40
0.5265993589
 40
0.5421311273
 40
0.5576108011
 40
0.5730396628
 40
0.5884195007
 40
0.6037525947
 40
0.6190416973
 40
0.634290009
 40
0.649501151
 40
0.6646791309
 40
0.6798283035
 40
0.6949533259
 40
0.71005911
 40
0.725150772
 40
0.7402335794
 40
0.7553128946
 40
0.7703941172
 40
0.7854826259
 40
0.8005837208
 40
0.8157025686
 40
0.8308441477
 40
0.8460131958
 40
0.8612141607
 40
0.8764511552
 40
0.8917279166
 40
0.907047777
 40
0.9224136185
 40
0.9378278587
 40
0.9532924887
 40
0.9688086929
 40
0.9843780614
 40
1.0
 40
1.0
 40
1.0
 40
1.0
 10
9.8873273401
 20
7.8128532316
 30
0.0
 10
9.8928677848
 20
7.8124690004
 30
0.0
 10
9.9039504043
 20
7.8114274297
 30
0.0
 10
9.9205044916
 20
7.8090569736
 30
0.0
 10
9.9369789
 20
7.8058811905
 30
0.0
 10
9.953333269
 20
7.8019080154
 30
0.0
 10
9.9695285081
 20
7.7971468853
 30
0.0
 10
9.9855255308
 20
7.7916093445
 30
0.0
 10
10.0012858594
 20
7.785308752
 30
0.0
 10
10.0167715564
 20
7.778260307
 30
0.0
 10
10.0319453513
 20
7.7704810011
 30
0.0
 10
10.0467707195
 20
7.7619895689
 30
0.0
 10
10.0612119731
 20
7.7528064579
 30
0.0
 10
10.075234364
 20
7.7429538025
 30
0.0
 10
10.0888041491
 20
7.7324553319
 30
0.0
 10
10.1018886648
 20
7.7213363306
 30
0.0
 10
10.114456429
 20
7.7096235333
 30
0.0
 10
10.1264771184
 20
7.6973452274
 30
0.0
 10
10.1379220541
 20
7.6845306199
 30
0.0
 10
10.1523684644
 20
7.6667820277
 30
0.0
 10
10.1688529426
 20
7.6434177274
 30
0.0
 10
10.1830996304
 20
7.6186679741
 30
0.0
 10
10.1930577126
 20
7.5981962202
 30
0.0
 10
10.1997849744
 20
7.582555612
 30
0.0
 10
10.205759551
 20
7.5666555493
 30
0.0
 10
10.2109672519
 20
7.5505339396
 30
0.0
 10
10.2153954697
 20
7.5342296933
 30
0.0
 10
10.2190335327
 20
7.5177820335
 30
0.0
 10
10.2218726431
 20
7.5012305643
 30
0.0
 10
10.223905916
 20
7.4846151338
 30
0.0
 10
10.2251284165
 20
7.4679757549
 30
0.0
 10
10.225537179
 20
7.4513525019
 30
0.0
 10
10.2251311825
 20
7.4347854133
 30
0.0
 10
10.2239113618
 20
7.4183143986
 30
0.0
 10
10.2218805979
 20
7.4019791448
 30
0.0
 10
10.2190437444
 20
7.3858190177
 30
0.0
 10
10.2154076124
 20
7.369872963
 30
0.0
 10
10.2109809272
 20
7.3541794179
 30
0.0
 10
10.2057743171
 20
7.3387762188
 30
0.0
 10
10.1998002804
 20
7.3237005144
 30
0.0
 10
10.1930731914
 20
7.3089886626
 30
0.0
 10
10.1856092537
 20
7.2946761417
 30
0.0
 10
10.1774264401
 20
7.2807974749
 30
0.0
 10
10.1685444579
 20
7.2673861449
 30
0.0
 10
10.158984695
 20
7.2544745185
 30
0.0
 10
10.1487702024
 20
7.242093743
 30
0.0
 10
10.1379256187
 20
7.2302736787
 30
0.0
 10
10.1264770971
 20
7.219042838
 30
0.0
 10
10.1144522471
 20
7.2084283137
 30
0.0
 10
10.1018800643
 20
7.19845572
 30
0.0
 10
10.0887908867
 20
7.1891490958
 30
0.0
 10
10.0752162994
 20
7.1805308651
 30
0.0
 10
10.0611890509
 20
7.172621795
 30
0.0
 10
10.0467429765
 20
7.1654409426
 30
0.0
 10
10.0319129164
 20
7.1590056151
 30
0.0
 10
10.0167346472
 20
7.1533312897
 30
0.0
 10
10.0012447777
 20
7.1484316021
 30
0.0
 10
9.9854806578
 20
7.1443183303
 30
0.0
 10
9.9694802967
 20
7.1410013571
 30
0.0
 10
9.9532822357
 20
7.138488641
 30
0.0
 10
9.9369256196
 20
7.1367862338
 30
0.0
 10
9.9204495663
 20
7.1358980722
 30
0.0
 10
9.9038944866
 20
7.1358264138
 30
0.0
 10
9.8928490528
 20
7.136322181
 30
0.0
 10
9.8873273401
 20
7.1367051131
 30
0.0
  0
SPLINE
  5
409
100
AcDbEntity
  8
0
100
AcDbSpline
 62
7
  6
CONTINUOUS
 70
0
 71
3
 72
33
 73
29
 74
0
 42
0.0000001
 43
0.0000001
 44
0.0000000001
 40
0.0
 40
0.0
 40
0.0
 40
0.0
 40
0.0126611239
 40
0.0256297336
 40
0.0391904263
 40
0.053589189
 40
0.0690270082
 40
0.0856610213
 40
0.103610138
 40
0.1229609819
 40
0.143774814
 40
0.1660916856
 40
0.1899356205
 40
0.2153166451
 40
0.2422342381
 40
0.2706782889
 40
0.3006311593
 40
0.332068398
 40
0.364959691
 40
0.3992697436
 40
0.4349583791
 40
0.4719816771
 40
0.5498339899
 40
0.6324076926
 40
0.7192341191
 40
0.8098063578
 40
0.9035833072
 40
1.0
 40
1.0
 40
1.0
 40
1.0
 10
12.1372651107
 20
10.1535886853
 30
0.0
 10
12.1378478494
 20
10.1535482677
 30
0.0
 10
12.1390228826
 20
10.1533691136
 30
0.0
 10
12.1407505314
 20
10.152812871
 30
0.0
 10
12.1424480778
 20
10.1519714362
 30
0.0
 10
12.1441121391
 20
10.1508487736
 30
0.0
 10
12.1457411496
 20
10.1494484345
 30
0.0
 10
12.1473336522
 20
10.1477735785
 30
0.0
 10
12.1488880618
 20
10.1458271278
 30
0.0
 10
12.150402676
 20
10.1436122152
 30
0.0
 10
12.1518754469
 20
10.1411321965
 30
0.0
 10
12.153304368
 20
10.1383909267
 30
0.0
 10
12.1546871993
 20
10.1353926421
 30
0.0
 10
12.1560218485
 20
10.1321420978
 30
0.0
 10
12.1573061137
 20
10.1286444647
 30
0.0
 10
12.1585379454
 20
10.1249053821
 30
0.0
 10
12.1597152946
 20
10.1209309029
 30
0.0
 10
12.1608362193
 20
10.116727498
 30
0.0
 10
12.161898873
 20
10.1123020333
 30
0.0
 10
12.1629014556
 20
10.1076617568
 30
0.0
 10
12.1638423618
 20
10.1028142737
 30
0.0
 10
12.1650324241
 20
10.0959701077
 30
0.0
 10
12.1663443347
 20
10.0869534718
 30
0.0
 10
12.1676260335
 20
10.0756167132
 30
0.0
 10
12.168631449
 20
10.0636632227
 30
0.0
 10
12.169353725
 20
10.0511717006
 30
0.0
 10
12.1697878964
 20
10.0382243141
 30
0.0
 10
12.1698821249
 20
10.029449122
 30
0.0
 10
12.1698821249
 20
10.0250008036
 30
0.0
  0
SPLINE
  5
40A
100
AcDbEntity
  8
0
100
AcDbSpline
 62
7
  6
CONTINUOUS
 70
0
 71
3
 72
69
 73
65
 74
0
 42
0.0000001
 43
0.0000001
 44
0.0000000001
 40
0.0
 40
0.0
 40
0.0
 40
0.0
 40
0.0156749348
 40
0.0314027839
 40
0.0471814364
 40
0.0630099721
 40
0.0788860943
 40
0.0948073732
 40
0.1107709045
 40
0.1267734005
 40
0.1428112328
 40
0.1588804529
 40
0.1749768346
 40
0.1910959109
 40
0.2072330173
 40
0.2233833314
 40
0.2395419155
 40
0.2557037586
 40
0.2718638216
 40
0.2880170822
 40
0.3202749255
 40
0.3524475142
 40
0.3684949934
 40
0.3845082673
 40
0.4004836065
 40
0.4164176212
 40
0.4323072962
 40
0.4481500201
 40
0.4639436125
 40
0.4796863462
 40
0.49537697
 40
0.5110147255
 40
0.5265993589
 40
0.5421311273
 40
0.5576108011
 40
0.5730396628
 40
0.5884195007
 40
0.6037525947
 40
0.6190416973
 40
0.634290009
 40
0.649501151
 40
0.6646791309
 40
0.6798283035
 40
0.6949533259
 40
0.71005911
 40
0.725150772
 40
0.7402335794
 40
0.7553128946
 40
0.7703941172
 40
0.7854826259
 40
0.8005837208
 40
0.8157025686
 40
0.8308441477
 40
0.8460131958
 40
0.8612141607
 40
0.8764511552
 40
0.8917279166
 40
0.907047777
 40
0.9224136185
 40
0.9378278587
 40
0.9532924887
 40
0.9688086929
 40
0.9843780614
 40
1.0
 40
1.0
 40
1.0
 40
1.0
 10
9.8873273401
 20
8.9468502888
 30
0.0
 10
9.8817868954
 20
8.94723452
 30
0.0
 10
9.8707042759
 20
8.9482760907
 30
0.0
 10
9.8541501886
 20
8.9506465468
 30
0.0
 10
9.8376757802
 20
8.9538223299
 30
0.0
 10
9.8213214112
 20
8.957795505
 30
0.0
 10
9.8051261721
 20
8.9625566351
 30
0.0
 10
9.7891291494
 20
8.9680941759
 30
0.0
 10
9.7733688208
 20
8.9743947684
 30
0.0
 10
9.7578831238
 20
8.9814432134
 30
0.0
 10
9.7427093289
 20
8.9892225193
 30
0.0
 10
9.7278839607
 20
8.9977139515
 30
0.0
 10
9.7134427071
 20
9.0068970625
 30
0.0
 10
9.6994203162
 20
9.0167497179
 30
0.0
 10
9.6858505311
 20
9.0272481885
 30
0.0
 10
9.6727660154
 20
9.0383671898
 30
0.0
 10
9.6601982512
 20
9.0500799871
 30
0.0
 10
9.6481775618
 20
9.062358293
 30
0.0
 10
9.6367326261
 20
9.0751729005
 30
0.0
 10
9.6222862158
 20
9.0929214927
 30
0.0
 10
9.6058017376
 20
9.116285793
 30
0.0
 10
9.5915550498
 20
9.1410355463
 30
0.0
 10
9.5815969676
 20
9.1615073003
 30
0.0
 10
9.5748697058
 20
9.1771479084
 30
0.0
 10
9.5688951292
 20
9.1930479712
 30
0.0
 10
9.5636874283
 20
9.2091695808
 30
0.0
 10
9.5592592105
 20
9.2254738271
 30
0.0
 10
9.5556211475
 20
9.2419214869
 30
0.0
 10
9.5527820371
 20
9.2584729561
 30
0.0
 10
9.5507487642
 20
9.2750883866
 30
0.0
 10
9.5495262637
 20
9.2917277655
 30
0.0
 10
9.5491175012
 20
9.3083510185
 30
0.0
 10
9.5495234977
 20
9.3249181071
 30
0.0
 10
9.5507433184
 20
9.3413891218
 30
0.0
 10
9.5527740823
 20
9.3577243756
 30
0.0
 10
9.5556109358
 20
9.3738845027
 30
0.0
 10
9.5592470678
 20
9.3898305574
 30
0.0
 10
9.563673753
 20
9.4055241025
 30
0.0
 10
9.5688803631
 20
9.4209273016
 30
0.0
 10
9.5748543998
 20
9.436003006
 30
0.0
 10
9.5815814888
 20
9.4507148578
 30
0.0
 10
9.5890454265
 20
9.4650273787
 30
0.0
 10
9.5972282401
 20
9.4789060455
 30
0.0
 10
9.6061102223
 20
9.4923173755
 30
0.0
 10
9.6156699852
 20
9.5052290019
 30
0.0
 10
9.6258844778
 20
9.5176097774
 30
0.0
 10
9.6367290615
 20
9.5294298417
 30
0.0
 10
9.6481775831
 20
9.5406606824
 30
0.0
 10
9.6602024331
 20
9.5512752067
 30
0.0
 10
9.672774616
 20
9.5612478004
 30
0.0
 10
9.6858637935
 20
9.5705544247
 30
0.0
 10
9.6994383808
 20
9.5791726553
 30
0.0
 10
9.7134656293
 20
9.5870817254
 30
0.0
 10
9.7279117037
 20
9.5942625779
 30
0.0
 10
9.7427417638
 20
9.6006979053
 30
0.0
 10
9.757920033
 20
9.6063722307
 30
0.0
 10
9.7734099025
 20
9.6112719183
 30
0.0
 10
9.7891740224
 20
9.6153851901
 30
0.0
 10
9.8051743835
 20
9.6187021633
 30
0.0
 10
9.8213724445
 20
9.6212148794
 30
0.0
 10
9.8377290606
 20
9.6229172866
 30
0.0
 10
9.8542051139
 20
9.6238054482
 30
0.0
 10
9.8707601936
 20
9.6238771066
 30
0.0
 10
9.8818056274
 20
9.6233813394
 30
0.0
 10
9.8873273401
 20
9.6229984073
 30
0.0
  0
SPLINE
  5
40B
100
AcDbEntity
  8
0
100
AcDbSpline
 62
7
  6
CONTINUOUS
 70
0
 71
3
 72
41
 73
37
 74
0
 42
0.0000001
 43
0.0000001
 44
0.0000000001
 40
0.0
 40
0.0
 40
0.0
 40
0.0
 40
0.0311447316
 40
0.062442512
 40
0.0938874623
 40
0.1254698004
 40
0.157177398
 40
0.1730760315
 40
0.1890002542
 40
0.2209118667
 40
0.2528982324
 40
0.268915512
 40
0.2849437913
 40
0.3170178786
 40
0.3491032351
 40
0.3811777019
 40
0.4132193306
 40
0.4452068069
 40
0.4771198671
 40
0.5089396988
 40
0.5406493218
 40
0.5722339425
 40
0.6036812744
 40
0.6349818182
 40
0.6661290945
 40
0.6971198218
 40
0.7279540332
 40
0.7586351262
 40
0.7891698392
 40
0.8195681519
 40
0.8498431069
 40
0.8800105534
 40
0.9100888147
 40
0.9400982872
 40
0.9700609787
 40
1.0
 40
1.0
 40
1.0
 40
1.0
 10
11.3540746648
 20
6.7569351424
 30
0.0
 10
11.347446715
 20
6.7573947922
 30
0.0
 10
11.3341869517
 20
6.7588014895
 30
0.0
 10
11.3144580924
 20
6.762344999
 30
0.0
 10
11.294940433
 20
6.7673084368
 30
0.0
 10
11.2757399255
 20
6.7736648725
 30
0.0
 10
11.2601005567
 20
6.7800896375
 30
0.0
 10
11.2478479131
 20
6.7858866251
 30
0.0
 10
11.2357648021
 20
6.7921247867
 30
0.0
 10
11.2210473332
 20
6.800717407
 30
0.0
 10
11.2069387333
 20
6.8103119942
 30
0.0
 10
11.1960508013
 20
6.8185640934
 30
0.0
 10
11.1854367257
 20
6.8271952034
 30
0.0
 10
11.1727243764
 20
6.838662554
 30
0.0
 10
11.1584426185
 20
6.8534308698
 30
0.0
 10
11.1452043477
 20
6.8691329569
 30
0.0
 10
11.1330806099
 20
6.8856847545
 30
0.0
 10
11.1221359429
 20
6.9029981682
 30
0.0
 10
11.1124287846
 20
6.9209809206
 30
0.0
 10
11.1040109634
 20
6.9395372005
 30
0.0
 10
11.0969274759
 20
6.9585681236
 30
0.0
 10
11.0912162336
 20
6.9779722638
 30
0.0
 10
11.0869078548
 20
6.9976461818
 30
0.0
 10
11.0840255031
 20
7.0174849725
 30
0.0
 10
11.0825847607
 20
7.0373828168
 30
0.0
 10
11.0825935379
 20
7.0572335388
 30
0.0
 10
11.0840520223
 20
7.0769311663
 30
0.0
 10
11.0869526671
 20
7.0963704912
 30
0.0
 10
11.0912802184
 20
7.115447629
 30
0.0
 10
11.097011786
 20
7.1340605763
 30
0.0
 10
11.1041169403
 20
7.1521097516
 30
0.0
 10
11.1125578933
 20
7.1694985712
 30
0.0
 10
11.1222895675
 20
7.1861338505
 30
0.0
 10
11.1332603122
 20
7.2019267763
 30
0.0
 10
11.1454103751
 20
7.216791685
 30
0.0
 10
11.1542572454
 20
7.2260337219
 30
0.0
 10
11.1588508725
 20
7.2304708456
 30
0.0
  0
SPLINE
  5
40C
100
AcDbEntity
  8
0
100
AcDbSpline
 62
7
  6
CONTINUOUS
 70
0
 71
3
 72
42
 73
38
 74
0
 42
0.0000001
 43
0.0000001
 44
0.0000000001
 40
0.0
 40
0.0
 40
0.0
 40
0.0
 40
0.0840368756
 40
0.1695054183
 40
0.2553485112
 40
0.3405012145
 40
0.4239098766
 40
0.4646393716
 40
0.5045513825
 40
0.5435248581
 40
0.581442655
 40
0.6181922027
 40
0.6536660794
 40
0.6877626471
 40
0.7203867856
 40
0.7514508298
 40
0.7808755442
 40
0.8085912582
 40
0.834539382
 40
0.8586744864
 40
0.8809670915
 40
0.8914197167
 40
0.9014099692
 40
0.9109406788
 40
0.9200167536
 40
0.9286452964
 40
0.9368364686
 40
0.9446034904
 40
0.9519634435
 40
0.95893799
 40
0.965553732
 40
0.9718433269
 40
0.9778458183
 40
0.9836070648
 40
0.9891798495
 40
0.9946229739
 40
1.0
 40
1.0
 40
1.0
 40
1.0
 10
12.1698821249
 20
6.2820380049
 30
0.0
 10
12.1698821249
 20
6.2755829529
 30
0.0
 10
12.1696795596
 20
6.2625621318
 30
0.0
 10
12.1688005132
 20
6.2429654081
 30
0.0
 10
12.167353823
 20
6.2233162564
 30
0.0
 10
12.1653585976
 20
6.2038743639
 30
0.0
 10
12.1632446841
 20
6.187935109
 30
0.0
 10
12.1612929081
 20
6.1754856745
 30
0.0
 10
12.1597221421
 20
6.1664326124
 30
0.0
 10
12.1580381885
 20
6.1576196931
 30
0.0
 10
12.1562466152
 20
6.149076027
 30
0.0
 10
12.1543533999
 20
6.1408298416
 30
0.0
 10
12.1523648488
 20
6.1329083574
 30
0.0
 10
12.150287589
 20
6.1253377091
 30
0.0
 10
12.1481285383
 20
6.1181428471
 30
0.0
 10
12.1458948986
 20
6.1113474395
 30
0.0
 10
12.1435941205
 20
6.1049737729
 30
0.0
 10
12.1412338669
 20
6.0990427002
 30
0.0
 10
12.1388219593
 20
6.0935734515
 30
0.0
 10
12.1363663685
 20
6.0885838559
 30
0.0
 10
12.1342471288
 20
6.0847604742
 30
0.0
 10
12.1325301132
 20
6.0819621972
 30
0.0
 10
12.1312641672
 20
6.0800386313
 30
0.0
 10
12.1299933271
 20
6.0782463889
 30
0.0
 10
12.128718606
 20
6.0765868961
 30
0.0
 10
12.1274409563
 20
6.0750615205
 30
0.0
 10
12.1261614082
 20
6.0736714501
 30
0.0
 10
12.1248808938
 20
6.0724178186
 30
0.0
 10
12.1236003247
 20
6.0713016716
 30
0.0
 10
12.1223206406
 20
6.0703239051
 30
0.0
 10
12.1210426535
 20
6.0694854699
 30
0.0
 10
12.1197672561
 20
6.0687871796
 30
0.0
 10
12.1184953175
 20
6.068229868
 30
0.0
 10
12.1172277918
 20
6.0678144368
 30
0.0
 10
12.1159657596
 20
6.0675415925
 30
0.0
 10
12.1147107251
 20
6.0674120743
 30
0.0
 10
12.1138774921
 20
6.0674216114
 30
0.0
 10
12.1134654611
 20
6.0674501891
 30
0.0
  0
SPLINE
  5
40D
100
AcDbEntity
  8
0
100
AcDbSpline
 62
7
  6
CONTINUOUS
 70
0
 71
3
 72
11
 73
7
 74
0
 42
0.0000001
 43
0.0000001
 44
0.0000000001
 40
0.0
 40
0.0
 40
0.0
 40
0.0
 40
0.2552692464
 40
0.506051994
 40
0.7537940055
 40
1.0
 40
1.0
 40
1.0
 40
1.0
 10
10.7892831028
 20
10.6258145446
 30
0.0
 10
10.7896033613
 20
10.6248402173
 30
0.0
 10
10.790167202
 20
10.6228843658
 30
0.0
 10
10.7907781528
 20
10.6199149369
 30
0.0
 10
10.7911450075
 20
10.6169421855
 30
0.0
 10
10.7912266095
 20
10.6149566732
 30
0.0
 10
10.7912266069
 20
10.6139674756
 30
0.0
  0
SPLINE
  5
40E
100
AcDbEntity
  8
0
100
AcDbSpline
 62
7
  6
CONTINUOUS
 70
0
 71
3
 72
69
 73
65
 74
0
 42
0.0000001
 43
0.0000001
 44
0.0000000001
 40
0.0
 40
0.0
 40
0.0
 40
0.0
 40
0.0156749348
 40
0.0314027839
 40
0.0471814364
 40
0.0630099721
 40
0.0788860943
 40
0.0948073732
 40
0.1107709045
 40
0.1267734005
 40
0.1428112328
 40
0.1588804529
 40
0.1749768346
 40
0.1910959109
 40
0.2072330173
 40
0.2233833314
 40
0.2395419155
 40
0.2557037586
 40
0.2718638216
 40
0.2880170822
 40
0.3202749255
 40
0.3524475142
 40
0.3684949934
 40
0.3845082673
 40
0.4004836065
 40
0.4164176212
 40
0.4323072962
 40
0.4481500201
 40
0.4639436125
 40
0.4796863462
 40
0.49537697
 40
0.5110147255
 40
0.5265993589
 40
0.5421311273
 40
0.5576108011
 40
0.5730396628
 40
0.5884195007
 40
0.6037525947
 40
0.6190416973
 40
0.634290009
 40
0.649501151
 40
0.6646791309
 40
0.6798283035
 40
0.6949533259
 40
0.71005911
 40
0.725150772
 40
0.7402335794
 40
0.7553128946
 40
0.7703941172
 40
0.7854826259
 40
0.8005837208
 40
0.8157025686
 40
0.8308441477
 40
0.8460131958
 40
0.8612141607
 40
0.8764511552
 40
0.8917279166
 40
0.907047777
 40
0.9224136185
 40
0.9378278587
 40
0.9532924887
 40
0.9688086929
 40
0.9843780614
 40
1.0
 40
1.0
 40
1.0
 40
1.0
 10
9.8873273401
 20
9.6229984073
 30
0.0
 10
9.8928677848
 20
9.6226141762
 30
0.0
 10
9.9039504043
 20
9.6215726054
 30
0.0
 10
9.9205044916
 20
9.6192021493
 30
0.0
 10
9.9369789
 20
9.6160263662
 30
0.0
 10
9.953333269
 20
9.6120531911
 30
0.0
 10
9.9695285081
 20
9.607292061
 30
0.0
 10
9.9855255308
 20
9.6017545202
 30
0.0
 10
10.0012858594
 20
9.5954539277
 30
0.0
 10
10.0167715564
 20
9.5884054827
 30
0.0
 10
10.0319453513
 20
9.5806261768
 30
0.0
 10
10.0467707195
 20
9.5721347446
 30
0.0
 10
10.0612119731
 20
9.5629516337
 30
0.0
 10
10.075234364
 20
9.5530989782
 30
0.0
 10
10.0888041491
 20
9.5426005077
 30
0.0
 10
10.1018886648
 20
9.5314815064
 30
0.0
 10
10.114456429
 20
9.519768709
 30
0.0
 10
10.1264771184
 20
9.5074904031
 30
0.0
 10
10.1379220541
 20
9.4946757956
 30
0.0
 10
10.1523684644
 20
9.4769272035
 30
0.0
 10
10.1688529426
 20
9.4535629031
 30
0.0
 10
10.1830996304
 20
9.4288131499
 30
0.0
 10
10.1930577126
 20
9.4083413959
 30
0.0
 10
10.1997849744
 20
9.3927007877
 30
0.0
 10
10.205759551
 20
9.376800725
 30
0.0
 10
10.2109672519
 20
9.3606791154
 30
0.0
 10
10.2153954697
 20
9.344374869
 30
0.0
 10
10.2190335327
 20
9.3279272093
 30
0.0
 10
10.2218726431
 20
9.31137574
 30
0.0
 10
10.223905916
 20
9.2947603096
 30
0.0
 10
10.2251284165
 20
9.2781209306
 30
0.0
 10
10.225537179
 20
9.2614976776
 30
0.0
 10
10.2251311825
 20
9.244930589
 30
0.0
 10
10.2239113618
 20
9.2284595743
 30
0.0
 10
10.2218805979
 20
9.2121243205
 30
0.0
 10
10.2190437444
 20
9.1959641934
 30
0.0
 10
10.2154076124
 20
9.1800181388
 30
0.0
 10
10.2109809272
 20
9.1643245936
 30
0.0
 10
10.2057743171
 20
9.1489213945
 30
0.0
 10
10.1998002804
 20
9.1338456901
 30
0.0
 10
10.1930731914
 20
9.1191338383
 30
0.0
 10
10.1856092537
 20
9.1048213174
 30
0.0
 10
10.1774264401
 20
9.0909426506
 30
0.0
 10
10.1685444579
 20
9.0775313207
 30
0.0
 10
10.158984695
 20
9.0646196942
 30
0.0
 10
10.1487702024
 20
9.0522389188
 30
0.0
 10
10.1379256187
 20
9.0404188544
 30
0.0
 10
10.1264770971
 20
9.0291880137
 30
0.0
 10
10.1144522471
 20
9.0185734895
 30
0.0
 10
10.1018800643
 20
9.0086008957
 30
0.0
 10
10.0887908867
 20
8.9992942715
 30
0.0
 10
10.0752162994
 20
8.9906760408
 30
0.0
 10
10.0611890509
 20
8.9827669708
 30
0.0
 10
10.0467429765
 20
8.9755861183
 30
0.0
 10
10.0319129164
 20
8.9691507909
 30
0.0
 10
10.0167346472
 20
8.9634764655
 30
0.0
 10
10.0012447777
 20
8.9585767779
 30
0.0
 10
9.9854806578
 20
8.9544635061
 30
0.0
 10
9.9694802967
 20
8.9511465328
 30
0.0
 10
9.9532822357
 20
8.9486338167
 30
0.0
 10
9.9369256196
 20
8.9469314095
 30
0.0
 10
9.9204495663
 20
8.946043248
 30
0.0
 10
9.9038944866
 20
8.9459715895
 30
0.0
 10
9.8928490528
 20
8.9464673568
 30
0.0
 10
9.8873273401
 20
8.9468502888
 30
0.0
  0
SPLINE
  5
40F
100
AcDbEntity
  8
0
100
AcDbSpline
 62
7
  6
CONTINUOUS
 70
0
 71
3
 72
42
 73
38
 74
0
 42
0.0000001
 43
0.0000001
 44
0.0000000001
 40
0.0
 40
0.0
 40
0.0
 40
0.0
 40
0.0840368756
 40
0.1695054183
 40
0.2553485112
 40
0.3405012145
 40
0.4239098766
 40
0.4646393716
 40
0.5045513825
 40
0.5435248581
 40
0.581442655
 40
0.6181922027
 40
0.6536660794
 40
0.6877626471
 40
0.7203867856
 40
0.7514508298
 40
0.7808755442
 40
0.8085912582
 40
0.834539382
 40
0.8586744864
 40
0.8809670915
 40
0.8914197167
 40
0.9014099692
 40
0.9109406788
 40
0.9200167536
 40
0.9286452964
 40
0.9368364686
 40
0.9446034904
 40
0.9519634435
 40
0.95893799
 40
0.965553732
 40
0.9718433269
 40
0.9778458183
 40
0.9836070648
 40
0.9891798495
 40
0.9946229739
 40
1.0
 40
1.0
 40
1.0
 40
1.0
 10
12.1698821249
 20
10.0250008036
 30
0.0
 10
12.1698821249
 20
10.0185457515
 30
0.0
 10
12.1696795596
 20
10.0055249304
 30
0.0
 10
12.1688005132
 20
9.9859282067
 30
0.0
 10
12.167353823
 20
9.966279055
 30
0.0
 10
12.1653585976
 20
9.9468371625
 30
0.0
 10
12.1632446841
 20
9.9308979076
 30
0.0
 10
12.1612929081
 20
9.9184484732
 30
0.0
 10
12.1597221421
 20
9.909395411
 30
0.0
 10
12.1580381885
 20
9.9005824918
 30
0.0
 10
12.1562466152
 20
9.8920388257
 30
0.0
 10
12.1543533999
 20
9.8837926402
 30
0.0
 10
12.1523648488
 20
9.8758711561
 30
0.0
 10
12.150287589
 20
9.8683005077
 30
0.0
 10
12.1481285383
 20
9.8611056458
 30
0.0
 10
12.1458948986
 20
9.8543102382
 30
0.0
 10
12.1435941205
 20
9.8479365715
 30
0.0
 10
12.1412338669
 20
9.8420054988
 30
0.0
 10
12.1388219593
 20
9.8365362501
 30
0.0
 10
12.1363663685
 20
9.8315466546
 30
0.0
 10
12.1342471288
 20
9.8277232729
 30
0.0
 10
12.1325301132
 20
9.8249249959
 30
0.0
 10
12.1312641672
 20
9.8230014299
 30
0.0
 10
12.1299933271
 20
9.8212091875
 30
0.0
 10
12.128718606
 20
9.8195496948
 30
0.0
 10
12.1274409563
 20
9.8180243191
 30
0.0
 10
12.1261614082
 20
9.8166342487
 30
0.0
 10
12.1248808938
 20
9.8153806173
 30
0.0
 10
12.1236003247
 20
9.8142644703
 30
0.0
 10
12.1223206406
 20
9.8132867038
 30
0.0
 10
12.1210426535
 20
9.8124482685
 30
0.0
 10
12.1197672561
 20
9.8117499783
 30
0.0
 10
12.1184953175
 20
9.8111926666
 30
0.0
 10
12.1172277918
 20
9.8107772355
 30
0.0
 10
12.1159657596
 20
9.8105043912
 30
0.0
 10
12.1147107251
 20
9.810374873
 30
0.0
 10
12.1138774921
 20
9.8103844101
 30
0.0
 10
12.1134654611
 20
9.8104129877
 30
0.0
  0
SPLINE
  5
410
100
AcDbEntity
  8
0
100
AcDbSpline
 62
7
  6
CONTINUOUS
 70
0
 71
3
 72
23
 73
19
 74
0
 42
0.0000001
 43
0.0000001
 44
0.0000000001
 40
0.0
 40
0.0
 40
0.0
 40
0.0
 40
0.0616482066
 40
0.1233194398
 40
0.1850364729
 40
0.2468215638
 40
0.3086962099
 40
0.3706809215
 40
0.4327950013
 40
0.4950563319
 40
0.5574811817
 40
0.6200840805
 40
0.6828775834
 40
0.7458723398
 40
0.8090769807
 40
0.8724966303
 40
0.9361388571
 40
1.0
 40
1.0
 40
1.0
 40
1.0
 10
10.1004096318
 20
7.2899186291
 30
0.0
 10
10.0972562399
 20
7.2868726723
 30
0.0
 10
10.0907830289
 20
7.2809480683
 30
0.0
 10
10.0806076906
 20
7.2725941148
 30
0.0
 10
10.0699904922
 20
7.2647923478
 30
0.0
 10
10.0589585452
 20
7.2575627765
 30
0.0
 10
10.0475395676
 20
7.2509234958
 30
0.0
 10
10.0357623703
 20
7.2448912266
 30
0.0
 10
10.0236566225
 20
7.2394811373
 30
0.0
 10
10.0112528197
 20
7.2347068552
 30
0.0
 10
9.9985822159
 20
7.2305803706
 30
0.0
 10
9.985676737
 20
7.2271120284
 30
0.0
 10
9.9725688885
 20
7.2243105202
 30
0.0
 10
9.9592916525
 20
7.2221828791
 30
0.0
 10
9.9458785536
 20
7.2207344772
 30
0.0
 10
9.9323630716
 20
7.2199687848
 30
0.0
 10
9.9187798787
 20
7.2198878636
 30
0.0
 10
9.9097165953
 20
7.2202897769
 30
0.0
 10
9.9051858395
 20
7.2206039859
 30
0.0
  0
SPLINE
  5
411
100
AcDbEntity
  8
0
100
AcDbSpline
 62
7
  6
CONTINUOUS
 70
0
 71
3
 72
94
 73
90
 74
0
 42
0.0000001
 43
0.0000001
 44
0.0000000001
 40
0.0
 40
0.0
 40
0.0
 40
0.0
 40
0.0041491716
 40
0.0084809577
 40
0.0130002142
 40
0.0177110432
 40
0.0226168479
 40
0.0277201924
 40
0.0330228096
 40
0.0385258601
 40
0.0442299052
 40
0.0501350675
 40
0.0562409737
 40
0.0625468525
 40
0.069051578
 40
0.0757536478
 40
0.0897419898
 40
0.1044947953
 40
0.1199904887
 40
0.1362040535
 40
0.1531074356
 40
0.1706698734
 40
0.1888581762
 40
0.2076369619
 40
0.2269688663
 40
0.2468147383
 40
0.267133817
 40
0.2878838961
 40
0.3090214799
 40
0.3305019328
 40
0.3522796243
 40
0.3743080704
 40
0.3965400758
 40
0.418927873
 40
0.4414232584
 40
0.4639777285
 40
0.4865426149
 40
0.5090692191
 40
0.5315089498
 40
0.5538134581
 40
0.5759347738
 40
0.597825441
 40
0.6194386558
 40
0.6407284048
 40
0.6616496064
 40
0.6821582587
 40
0.702211586
 40
0.7217681908
 40
0.7407882148
 40
0.7592335089
 40
0.7770678166
 40
0.794256978
 40
0.8107691605
 40
0.8265751166
 40
0.8416484883
 40
0.855966176
 40
0.8695087949
 40
0.8759848324
 40
0.8822618605
 40
0.8883387604
 40
0.8942148525
 40
0.8998898107
 40
0.9053638113
 40
0.9106375199
 40
0.9157121643
 40
0.920589646
 40
0.9252725355
 40
0.9297642824
 40
0.9340692054
 40
0.9381927167
 40
0.9421414009
 40
0.9459231827
 40
0.9495475218
 40
0.9530255068
 40
0.9563700913
 40
0.9595961194
 40
0.9627204437
 40
0.96576184
 40
0.9687408508
 40
0.9716794839
 40
0.9746007448
 40
0.9775280927
 40
0.9804848283
 40
0.9834935044
 40
0.9865754229
 40
0.9897502425
 40
0.9930357107
 40
0.9964476566
 40
1.0
 40
1.0
 40
1.0
 40
1.0
 10
11.3881882518
 20
10.7893302417
 30
0.0
 10
11.3893523607
 20
10.7904546847
 30
0.0
 10
11.3917884869
 20
10.7926949649
 30
0.0
 10
11.3956696346
 20
10.7959609592
 30
0.0
 10
11.3998527232
 20
10.799201622
 30
0.0
 10
11.4043351376
 20
10.8024149956
 30
0.0
 10
11.4091143853
 20
10.8055993742
 30
0.0
 10
11.4141877966
 20
10.8087529882
 30
0.0
 10
11.4195524761
 20
10.8118741166
 30
0.0
 10
11.4252053865
 20
10.8149609034
 30
0.0
 10
11.4311432688
 20
10.8180116593
 30
0.0
 10
11.4373627508
 20
10.8210245881
 30
0.0
 10
11.4438602618
 20
10.8239979961
 30
0.0
 10
11.4506320754
 20
10.8269301618
 30
0.0
 10
11.4576743158
 20
10.8298193983
 30
0.0
 10
11.4675605677
 20
10.8336672311
 30
0.0
 10
11.4805731848
 20
10.8383461687
 30
0.0
 10
11.4969841037
 20
10.8436867845
 30
0.0
 10
11.514368508
 20
10.8488180242
 30
0.0
 10
11.5326863437
 20
10.8537279582
 30
0.0
 10
11.5518955667
 20
10.8584051504
 30
0.0
 10
11.5719519461
 20
10.8628387045
 30
0.0
 10
11.5928092683
 20
10.8670182897
 30
0.0
 10
11.6144194266
 20
10.8709341675
 30
0.0
 10
11.6367325456
 20
10.8745772196
 30
0.0
 10
11.659697103
 20
10.8779389645
 30
0.0
 10
11.6832600549
 20
10.8810115774
 30
0.0
 10
11.7073669617
 20
10.8837879078
 30
0.0
 10
11.7319621168
 20
10.8862614962
 30
0.0
 10
11.7569886762
 20
10.8884265877
 30
0.0
 10
11.7823887907
 20
10.8902781455
 30
0.0
 10
11.8081037412
 20
10.8918118661
 30
0.0
 10
11.8340740762
 20
10.8930241851
 30
0.0
 10
11.8602397519
 20
10.8939122848
 30
0.0
 10
11.8865402709
 20
10.8944741011
 30
0.0
 10
11.9129148228
 20
10.8947083276
 30
0.0
 10
11.9393024244
 20
10.8946144188
 30
0.0
 10
11.9656420619
 20
10.8941925912
 30
0.0
 10
11.9918728328
 20
10.8934438267
 30
0.0
 10
12.0179340886
 20
10.8923698671
 30
0.0
 10
12.0437655745
 20
10.8909732092
 30
0.0
 10
12.06930757
 20
10.8892571
 30
0.0
 10
12.0945010268
 20
10.8872255287
 30
0.0
 10
12.119287706
 20
10.8848832188
 30
0.0
 10
12.1436103154
 20
10.8822356158
 30
0.0
 10
12.1674126446
 20
10.8792888808
 30
0.0
 10
12.190639697
 20
10.8760498715
 30
0.0
 10
12.213237818
 20
10.8725261273
 30
0.0
 10
12.2351548214
 20
10.8687258519
 30
0.0
 10
12.2563401131
 20
10.8646578948
 30
0.0
 10
12.2767448143
 20
10.8603317309
 30
0.0
 10
12.2963218802
 20
10.8557574371
 30
0.0
 10
12.3150262285
 20
10.8509456725
 30
0.0
 10
12.3328148256
 20
10.8459076461
 30
0.0
 10
12.3496468998
 20
10.840655086
 30
0.0
 10
12.3654837064
 20
10.835200196
 30
0.0
 10
12.3780016609
 20
10.8304279566
 30
0.0
 10
12.387481275
 20
10.8265086811
 30
0.0
 10
12.3942136633
 20
10.8235704446
 30
0.0
 10
12.400671181
 20
10.820591202
 30
0.0
 10
12.406850153
 20
10.817572701
 30
0.0
 10
12.4127470227
 20
10.8145166259
 30
0.0
 10
12.4183584303
 20
10.8114247546
 30
0.0
 10
12.4236811754
 20
10.808298844
 30
0.0
 10
12.4287122137
 20
10.8051406357
 30
0.0
 10
12.4334487147
 20
10.8019519606
 30
0.0
 10
12.437887953
 20
10.7987345223
 30
0.0
 10
12.4420274569
 20
10.7954901704
 30
0.0
 10
12.4458648404
 20
10.7922206054
 30
0.0
 10
12.4493979415
 20
10.7889276163
 30
0.0
 10
12.4526247288
 20
10.7856129294
 30
0.0
 10
12.4555432795
 20
10.7822782282
 30
0.0
 10
12.4581518861
 20
10.7789252637
 30
0.0
 10
12.4604487998
 20
10.7755556534
 30
0.0
 10
12.4624325348
 20
10.7721711757
 30
0.0
 10
12.4641015028
 20
10.7687735334
 30
0.0
 10
12.4654543258
 20
10.7653646249
 30
0.0
 10
12.4664896783
 20
10.7619464617
 30
0.0
 10
12.46720636
 20
10.7585212582
 30
0.0
 10
12.4676035796
 20
10.7550914641
 30
0.0
 10
12.4676806714
 20
10.7516596731
 30
0.0
 10
12.4674376699
 20
10.7482285821
 30
0.0
 10
12.4668747927
 20
10.7448008546
 30
0.0
 10
12.465992838
 20
10.7413790083
 30
0.0
 10
12.4647928159
 20
10.7379653637
 30
0.0
 10
12.4632759565
 20
10.7345620755
 30
0.0
 10
12.4614437128
 20
10.7311710022
 30
0.0
 10
12.459297557
 20
10.7277941332
 30
0.0
 10
12.4576924731
 20
10.7255998259
 30
0.0
 10
12.4568417862
 20
10.7245060001
 30
0.0
  0
SPLINE
  5
412
100
AcDbEntity
  8
0
100
AcDbSpline
 62
7
  6
CONTINUOUS
 70
0
 71
3
 72
83
 73
79
 74
0
 42
0.0000001
 43
0.0000001
 44
0.0000000001
 40
0.0
 40
0.0
 40
0.0
 40
0.0
 40
0.0039801392
 40
0.008124085
 40
0.0124359891
 40
0.0169193758
 40
0.0215772403
 40
0.0264119747
 40
0.0314252505
 40
0.0366182358
 40
0.0419916472
 40
0.0475457641
 40
0.0532805491
 40
0.0591955595
 40
0.0715625821
 40
0.0846382708
 40
0.0984095991
 40
0.1128601963
 40
0.127970756
 40
0.1437193797
 40
0.1600818675
 40
0.1770319494
 40
0.194541478
 40
0.2125805882
 40
0.2311178653
 40
0.2501204909
 40
0.2695543707
 40
0.2893842495
 40
0.3095738226
 40
0.3300858587
 40
0.3508823085
 40
0.3719244075
 40
0.4145867424
 40
0.4577530908
 40
0.5010979354
 40
0.5442940129
 40
0.5870155124
 40
0.6080980589
 40
0.6289420781
 40
0.6495086839
 40
0.6697596832
 40
0.6896576862
 40
0.7091662207
 40
0.7282498351
 40
0.746874209
 40
0.765006274
 40
0.7826143539
 40
0.7996683035
 40
0.8161396492
 40
0.8320017558
 40
0.8472300223
 40
0.8618021251
 40
0.8756982738
 40
0.8889015292
 40
0.901398207
 40
0.9131784013
 40
0.918798254
 40
0.9242373564
 40
0.9294958943
 40
0.9345743964
 40
0.9394738952
 40
0.9441958903
 40
0.9487424281
 40
0.9531162232
 40
0.9573206342
 40
0.9613598587
 40
0.9652389652
 40
0.9689640015
 40
0.9725421755
 40
0.9759818813
 40
0.9792929007
 40
0.9824864648
 40
0.985575317
 40
0.9885737931
 40
0.9914977171
 40
0.9943643215
 40
0.9971920038
 40
1.0
 40
1.0
 40
1.0
 40
1.0
 10
11.3969585592
 20
10.7675486238
 30
0.0
 10
11.3980280507
 20
10.7685816734
 30
0.0
 10
11.4002596217
 20
10.770640478
 30
0.0
 10
11.4038026866
 20
10.7736475369
 30
0.0
 10
11.4076059431
 20
10.7766330609
 30
0.0
 10
11.4116673035
 20
10.779595401
 30
0.0
 10
11.4159847473
 20
10.7825332066
 30
0.0
 10
11.4205561935
 20
10.7854450203
 30
0.0
 10
11.4253793542
 20
10.7883294763
 30
0.0
 10
11.4304518285
 20
10.7911851033
 30
0.0
 10
11.4357710784
 20
10.7940104553
 30
0.0
 10
11.4413344198
 20
10.7968041613
 30
0.0
 10
11.4471390967
 20
10.7995647914
 30
0.0
 10
11.455318331
 20
10.8032545625
 30
0.0
 10
11.4661338238
 20
10.8077635364
 30
0.0
 10
11.4798400385
 20
10.8129434849
 30
0.0
 10
11.4944325931
 20
10.8179594517
 30
0.0
 10
11.5098821205
 20
10.8228012491
 30
0.0
 10
11.5261576846
 20
10.8274590408
 30
0.0
 10
11.5432265426
 20
10.8319233519
 30
0.0
 10
11.5610543258
 20
10.8361850906
 30
0.0
 10
11.5796050946
 20
10.8402355737
 30
0.0
 10
11.5988414188
 20
10.8440665429
 30
0.0
 10
11.6187244518
 20
10.8476702004
 30
0.0
 10
11.6392140196
 20
10.8510392105
 30
0.0
 10
11.6602687119
 20
10.8541667136
 30
0.0
 10
11.6818459669
 20
10.85704634
 30
0.0
 10
11.7039021529
 20
10.8596722242
 30
0.0
 10
11.7263926611
 20
10.862039032
 30
0.0
 10
11.7492719861
 20
10.8641419423
 30
0.0
 10
11.7724938829
 20
10.8659767069
 30
0.0
 10
11.8039938578
 20
10.8680699379
 30
0.0
 10
11.8438781294
 20
10.8699843054
 30
0.0
 10
11.8921261949
 20
10.8711582403
 30
0.0
 10
11.940588071
 20
10.8712093487
 30
0.0
 10
11.9888717167
 20
10.8701372414
 30
0.0
 10
12.028808306
 20
10.8683073622
 30
0.0
 10
12.0603677597
 20
10.866281189
 30
0.0
 10
12.0836469115
 20
10.8644956055
 30
0.0
 10
12.1065919855
 20
10.8624411567
 30
0.0
 10
12.1291565991
 20
10.8601219879
 30
0.0
 10
12.1512950965
 20
10.8575428218
 30
0.0
 10
12.1729627068
 20
10.8547089102
 30
0.0
 10
12.1941156154
 20
10.851626022
 30
0.0
 10
12.2147110546
 20
10.8483004318
 30
0.0
 10
12.2347073928
 20
10.8447389039
 30
0.0
 10
12.2540642282
 20
10.8409486925
 30
0.0
 10
12.2727424746
 20
10.8369375228
 30
0.0
 10
12.2907044376
 20
10.8327135663
 30
0.0
 10
12.3079138933
 20
10.8282854266
 30
0.0
 10
12.3243361716
 20
10.8236621148
 30
0.0
 10
12.3399382542
 20
10.8188530471
 30
0.0
 10
12.3546888175
 20
10.8138680067
 30
0.0
 10
12.3685584121
 20
10.8087170997
 30
0.0
 10
12.3815191662
 20
10.8034107604
 30
0.0
 10
12.3916950942
 20
10.7987985382
 30
0.0
 10
12.3993510004
 20
10.7950301397
 30
0.0
 10
12.4047593257
 20
10.7922160952
 30
0.0
 10
12.4099218405
 20
10.7893713386
 30
0.0
 10
12.4148359456
 20
10.7864971975
 30
0.0
 10
12.4194992045
 20
10.7835951521
 30
0.0
 10
12.4239092929
 20
10.7806666277
 30
0.0
 10
12.4280639946
 20
10.7777130276
 30
0.0
 10
12.431961281
 20
10.7747358503
 30
0.0
 10
12.4355991749
 20
10.7717364667
 30
0.0
 10
12.4389758862
 20
10.7687163415
 30
0.0
 10
12.442089731
 20
10.765676897
 30
0.0
 10
12.4449390859
 20
10.7626194931
 30
0.0
 10
12.4475225402
 20
10.7595455895
 30
0.0
 10
12.4498386547
 20
10.7564565135
 30
0.0
 10
12.4518861541
 20
10.7533536797
 30
0.0
 10
12.4536638373
 20
10.7502385037
 30
0.0
 10
12.4551704603
 20
10.7471123904
 30
0.0
 10
12.4564050266
 20
10.7439769043
 30
0.0
 10
12.4573664531
 20
10.7408336565
 30
0.0
 10
12.4580538839
 20
10.7376843359
 30
0.0
 10
12.4584666798
 20
10.7345311595
 30
0.0
 10
12.4585585241
 20
10.7324245848
 30
0.0
 10
12.4585585213
 20
10.7313755425
 30
0.0
  0
SPLINE
  5
413
100
AcDbEntity
  8
0
100
AcDbSpline
 62
7
  6
CONTINUOUS
 70
0
 71
3
 72
41
 73
37
 74
0
 42
0.0000001
 43
0.0000001
 44
0.0000000001
 40
0.0
 40
0.0
 40
0.0
 40
0.0
 40
0.0311447316
 40
0.062442512
 40
0.0938874623
 40
0.1254698004
 40
0.157177398
 40
0.1730760315
 40
0.1890002542
 40
0.2209118667
 40
0.2528982324
 40
0.268915512
 40
0.2849437913
 40
0.3170178786
 40
0.3491032351
 40
0.3811777019
 40
0.4132193306
 40
0.4452068069
 40
0.4771198671
 40
0.5089396988
 40
0.5406493218
 40
0.5722339425
 40
0.6036812744
 40
0.6349818182
 40
0.6661290945
 40
0.6971198218
 40
0.7279540332
 40
0.7586351262
 40
0.7891698392
 40
0.8195681519
 40
0.8498431069
 40
0.8800105534
 40
0.9100888147
 40
0.9400982872
 40
0.9700609787
 40
1.0
 40
1.0
 40
1.0
 40
1.0
 10
9.9051858395
 20
7.2206039859
 30
0.0
 10
9.8985578897
 20
7.2210636357
 30
0.0
 10
9.8852981265
 20
7.2224703331
 30
0.0
 10
9.8655692671
 20
7.2260138425
 30
0.0
 10
9.8460516077
 20
7.2309772803
 30
0.0
 10
9.8268511003
 20
7.237333716
 30
0.0
 10
9.8112117314
 20
7.243758481
 30
0.0
 10
9.7989590878
 20
7.2495554686
 30
0.0
 10
9.7868759768
 20
7.2557936302
 30
0.0
 10
9.772158508
 20
7.2643862506
 30
0.0
 10
9.758049908
 20
7.2739808377
 30
0.0
 10
9.747161976
 20
7.2822329369
 30
0.0
 10
9.7365479004
 20
7.2908640469
 30
0.0
 10
9.7238355511
 20
7.3023313975
 30
0.0
 10
9.7095537932
 20
7.3170997133
 30
0.0
 10
9.6963155225
 20
7.3328018005
 30
0.0
 10
9.6841917847
 20
7.349353598
 30
0.0
 10
9.6732471176
 20
7.3666670117
 30
0.0
 10
9.6635399593
 20
7.3846497641
 30
0.0
 10
9.6551221381
 20
7.403206044
 30
0.0
 10
9.6480386507
 20
7.4222369671
 30
0.0
 10
9.6423274084
 20
7.4416411073
 30
0.0
 10
9.6380190295
 20
7.4613150253
 30
0.0
 10
9.6351366778
 20
7.481153816
 30
0.0
 10
9.6336959354
 20
7.5010516603
 30
0.0
 10
9.6337047126
 20
7.5209023824
 30
0.0
 10
9.635163197
 20
7.5406000098
 30
0.0
 10
9.6380638418
 20
7.5600393347
 30
0.0
 10
9.6423913931
 20
7.5791164725
 30
0.0
 10
9.6481229607
 20
7.5977294198
 30
0.0
 10
9.655228115
 20
7.6157785951
 30
0.0
 10
9.663669068
 20
7.6331674147
 30
0.0
 10
9.6734007422
 20
7.649802694
 30
0.0
 10
9.6843714869
 20
7.6655956198
 30
0.0
 10
9.6965215498
 20
7.6804605286
 30
0.0
 10
9.7053684201
 20
7.6897025654
 30
0.0
 10
9.7099620472
 20
7.6941396892
 30
0.0
  0
SPLINE
  5
414
100
AcDbEntity
  8
0
100
AcDbSpline
 62
7
  6
CONTINUOUS
 70
0
 71
3
 72
23
 73
19
 74
0
 42
0.0000001
 43
0.0000001
 44
0.0000000001
 40
0.0
 40
0.0
 40
0.0
 40
0.0
 40
0.0616482066
 40
0.1233194398
 40
0.1850364729
 40
0.2468215638
 40
0.3086962099
 40
0.3706809215
 40
0.4327950013
 40
0.4950563319
 40
0.5574811817
 40
0.6200840805
 40
0.6828775834
 40
0.7458723398
 40
0.8090769807
 40
0.8724966303
 40
0.9361388571
 40
1.0
 40
1.0
 40
1.0
 40
1.0
 10
10.1004096318
 20
9.1000638048
 30
0.0
 10
10.0972562399
 20
9.097017848
 30
0.0
 10
10.0907830289
 20
9.091093244
 30
0.0
 10
10.0806076906
 20
9.0827392905
 30
0.0
 10
10.0699904922
 20
9.0749375235
 30
0.0
 10
10.0589585452
 20
9.0677079522
 30
0.0
 10
10.0475395676
 20
9.0610686716
 30
0.0
 10
10.0357623703
 20
9.0550364023
 30
0.0
 10
10.0236566225
 20
9.049626313
 30
0.0
 10
10.0112528197
 20
9.0448520309
 30
0.0
 10
9.9985822159
 20
9.0407255463
 30
0.0
 10
9.985676737
 20
9.0372572041
 30
0.0
 10
9.9725688885
 20
9.0344556959
 30
0.0
 10
9.9592916525
 20
9.0323280549
 30
0.0
 10
9.9458785536
 20
9.0308796529
 30
0.0
 10
9.9323630716
 20
9.0301139606
 30
0.0
 10
9.9187798787
 20
9.0300330393
 30
0.0
 10
9.9097165953
 20
9.0304349526
 30
0.0
 10
9.9051858395
 20
9.0307491616
 30
0.0
  0
SPLINE
  5
415
100
AcDbEntity
  8
0
100
AcDbSpline
 62
7
  6
CONTINUOUS
 70
0
 71
3
 72
69
 73
65
 74
0
 42
0.0000001
 43
0.0000001
 44
0.0000000001
 40
0.0
 40
0.0
 40
0.0
 40
0.0
 40
0.0156749348
 40
0.0314027839
 40
0.0471814364
 40
0.0630099721
 40
0.0788860943
 40
0.0948073732
 40
0.1107709045
 40
0.1267734005
 40
0.1428112328
 40
0.1588804529
 40
0.1749768346
 40
0.1910959109
 40
0.2072330173
 40
0.2233833314
 40
0.2395419155
 40
0.2557037586
 40
0.2718638216
 40
0.2880170822
 40
0.3202749255
 40
0.3524475142
 40
0.3684949934
 40
0.3845082673
 40
0.4004836065
 40
0.4164176212
 40
0.4323072962
 40
0.4481500201
 40
0.4639436125
 40
0.4796863462
 40
0.49537697
 40
0.5110147255
 40
0.5265993589
 40
0.5421311273
 40
0.5576108011
 40
0.5730396628
 40
0.5884195007
 40
0.6037525947
 40
0.6190416973
 40
0.634290009
 40
0.649501151
 40
0.6646791309
 40
0.6798283035
 40
0.6949533259
 40
0.71005911
 40
0.725150772
 40
0.7402335794
 40
0.7553128946
 40
0.7703941172
 40
0.7854826259
 40
0.8005837208
 40
0.8157025686
 40
0.8308441477
 40
0.8460131958
 40
0.8612141607
 40
0.8764511552
 40
0.8917279166
 40
0.907047777
 40
0.9224136185
 40
0.9378278587
 40
0.9532924887
 40
0.9688086929
 40
0.9843780614
 40
1.0
 40
1.0
 40
1.0
 40
1.0
 10
11.3362161654
 20
8.4851131571
 30
0.0
 10
11.3306757207
 20
8.4854973882
 30
0.0
 10
11.3195931012
 20
8.4865389589
 30
0.0
 10
11.3030390139
 20
8.4889094151
 30
0.0
 10
11.2865646054
 20
8.4920851982
 30
0.0
 10
11.2702102365
 20
8.4960583733
 30
0.0
 10
11.2540149974
 20
8.5008195034
 30
0.0
 10
11.2380179746
 20
8.5063570441
 30
0.0
 10
11.2222576461
 20
8.5126576367
 30
0.0
 10
11.2067719491
 20
8.5197060817
 30
0.0
 10
11.1915981542
 20
8.5274853876
 30
0.0
 10
11.1767727859
 20
8.5359768198
 30
0.0
 10
11.1623315323
 20
8.5451599307
 30
0.0
 10
11.1483091415
 20
8.5550125862
 30
0.0
 10
11.1347393564
 20
8.5655110567
 30
0.0
 10
11.1216548407
 20
8.576630058
 30
0.0
 10
11.1090870765
 20
8.5883428553
 30
0.0
 10
11.0970663871
 20
8.6006211612
 30
0.0
 10
11.0856214514
 20
8.6134357688
 30
0.0
 10
11.0711750411
 20
8.6311843609
 30
0.0
 10
11.0546905629
 20
8.6545486613
 30
0.0
 10
11.0404438751
 20
8.6792984145
 30
0.0
 10
11.0304857929
 20
8.6997701685
 30
0.0
 10
11.0237585311
 20
8.7154107766
 30
0.0
 10
11.0177839545
 20
8.7313108394
 30
0.0
 10
11.0125762536
 20
8.747432449
 30
0.0
 10
11.0081480358
 20
8.7637366954
 30
0.0
 10
11.0045099728
 20
8.7801843551
 30
0.0
 10
11.0016708623
 20
8.7967358244
 30
0.0
 10
10.9996375894
 20
8.8133512548
 30
0.0
 10
10.998415089
 20
8.8299906338
 30
0.0
 10
10.9980063265
 20
8.8466138868
 30
0.0
 10
10.998412323
 20
8.8631809753
 30
0.0
 10
10.9996321437
 20
8.87965199
 30
0.0
 10
11.0016629075
 20
8.8959872439
 30
0.0
 10
11.0044997611
 20
8.912147371
 30
0.0
 10
11.0081358931
 20
8.9280934256
 30
0.0
 10
11.0125625782
 20
8.9437869707
 30
0.0
 10
11.0177691884
 20
8.9591901699
 30
0.0
 10
11.0237432251
 20
8.9742658742
 30
0.0
 10
11.0304703141
 20
8.9889777261
 30
0.0
 10
11.0379342518
 20
9.003290247
 30
0.0
 10
11.0461170654
 20
9.0171689137
 30
0.0
 10
11.0549990476
 20
9.0305802437
 30
0.0
 10
11.0645588105
 20
9.0434918702
 30
0.0
 10
11.0747733031
 20
9.0558726456
 30
0.0
 10
11.0856178867
 20
9.06769271
 30
0.0
 10
11.0970664084
 20
9.0789235507
 30
0.0
 10
11.1090912584
 20
9.0895380749
 30
0.0
 10
11.1216634412
 20
9.0995106686
 30
0.0
 10
11.1347526188
 20
9.1088172929
 30
0.0
 10
11.1483272061
 20
9.1174355235
 30
0.0
 10
11.1623544546
 20
9.1253445936
 30
0.0
 10
11.1768005289
 20
9.1325254461
 30
0.0
 10
11.1916305891
 20
9.1389607735
 30
0.0
 10
11.2068088583
 20
9.1446350989
 30
0.0
 10
11.2222987278
 20
9.1495347865
 30
0.0
 10
11.2380628477
 20
9.1536480583
 30
0.0
 10
11.2540632088
 20
9.1569650316
 30
0.0
 10
11.2702612697
 20
9.1594777477
 30
0.0
 10
11.2866178859
 20
9.1611801548
 30
0.0
 10
11.3030939392
 20
9.1620683164
 30
0.0
 10
11.3196490189
 20
9.1621399749
 30
0.0
 10
11.3306944527
 20
9.1616442076
 30
0.0
 10
11.3362161654
 20
9.1612612755
 30
0.0
  0
SPLINE
  5
416
100
AcDbEntity
  8
0
100
AcDbSpline
 62
7
  6
CONTINUOUS
 70
0
 71
3
 72
69
 73
65
 74
0
 42
0.0000001
 43
0.0000001
 44
0.0000000001
 40
0.0
 40
0.0
 40
0.0
 40
0.0
 40
0.0156749348
 40
0.0314027839
 40
0.0471814364
 40
0.0630099721
 40
0.0788860943
 40
0.0948073732
 40
0.1107709045
 40
0.1267734005
 40
0.1428112328
 40
0.1588804529
 40
0.1749768346
 40
0.1910959109
 40
0.2072330173
 40
0.2233833314
 40
0.2395419155
 40
0.2557037586
 40
0.2718638216
 40
0.2880170822
 40
0.3202749255
 40
0.3524475142
 40
0.3684949934
 40
0.3845082673
 40
0.4004836065
 40
0.4164176212
 40
0.4323072962
 40
0.4481500201
 40
0.4639436125
 40
0.4796863462
 40
0.49537697
 40
0.5110147255
 40
0.5265993589
 40
0.5421311273
 40
0.5576108011
 40
0.5730396628
 40
0.5884195007
 40
0.6037525947
 40
0.6190416973
 40
0.634290009
 40
0.649501151
 40
0.6646791309
 40
0.6798283035
 40
0.6949533259
 40
0.71005911
 40
0.725150772
 40
0.7402335794
 40
0.7553128946
 40
0.7703941172
 40
0.7854826259
 40
0.8005837208
 40
0.8157025686
 40
0.8308441477
 40
0.8460131958
 40
0.8612141607
 40
0.8764511552
 40
0.8917279166
 40
0.907047777
 40
0.9224136185
 40
0.9378278587
 40
0.9532924887
 40
0.9688086929
 40
0.9843780614
 40
1.0
 40
1.0
 40
1.0
 40
1.0
 10
11.3362161654
 20
9.1612612755
 30
0.0
 10
11.34175661
 20
9.1608770444
 30
0.0
 10
11.3528392296
 20
9.1598354737
 30
0.0
 10
11.3693933169
 20
9.1574650175
 30
0.0
 10
11.3858677253
 20
9.1542892344
 30
0.0
 10
11.4022220943
 20
9.1503160594
 30
0.0
 10
11.4184173334
 20
9.1455549292
 30
0.0
 10
11.4344143561
 20
9.1400173885
 30
0.0
 10
11.4501746847
 20
9.1337167959
 30
0.0
 10
11.4656603817
 20
9.126668351
 30
0.0
 10
11.4808341765
 20
9.118889045
 30
0.0
 10
11.4956595448
 20
9.1103976128
 30
0.0
 10
11.5101007984
 20
9.1012145019
 30
0.0
 10
11.5241231893
 20
9.0913618464
 30
0.0
 10
11.5376929744
 20
9.0808633759
 30
0.0
 10
11.5507774901
 20
9.0697443746
 30
0.0
 10
11.5633452543
 20
9.0580315773
 30
0.0
 10
11.5753659437
 20
9.0457532714
 30
0.0
 10
11.5868108794
 20
9.0329386638
 30
0.0
 10
11.6012572896
 20
9.0151900717
 30
0.0
 10
11.6177417679
 20
8.9918257714
 30
0.0
 10
11.6319884557
 20
8.9670760181
 30
0.0
 10
11.6419465379
 20
8.9466042641
 30
0.0
 10
11.6486737997
 20
8.930963656
 30
0.0
 10
11.6546483763
 20
8.9150635932
 30
0.0
 10
11.6598560772
 20
8.8989419836
 30
0.0
 10
11.664284295
 20
8.8826377372
 30
0.0
 10
11.6679223579
 20
8.8661900775
 30
0.0
 10
11.6707614684
 20
8.8496386083
 30
0.0
 10
11.6727947413
 20
8.8330231778
 30
0.0
 10
11.6740172418
 20
8.8163837988
 30
0.0
 10
11.6744260043
 20
8.7997605458
 30
0.0
 10
11.6740200078
 20
8.7831934573
 30
0.0
 10
11.6728001871
 20
8.7667224426
 30
0.0
 10
11.6707694232
 20
8.7503871888
 30
0.0
 10
11.6679325697
 20
8.7342270616
 30
0.0
 10
11.6642964377
 20
8.718281007
 30
0.0
 10
11.6598697525
 20
8.7025874619
 30
0.0
 10
11.6546631424
 20
8.6871842628
 30
0.0
 10
11.6486891057
 20
8.6721085584
 30
0.0
 10
11.6419620167
 20
8.6573967066
 30
0.0
 10
11.6344980789
 20
8.6430841857
 30
0.0
 10
11.6263152654
 20
8.6292055189
 30
0.0
 10
11.6174332831
 20
8.6157941889
 30
0.0
 10
11.6078735203
 20
8.6028825625
 30
0.0
 10
11.5976590276
 20
8.590501787
 30
0.0
 10
11.586814444
 20
8.5786817227
 30
0.0
 10
11.5753659224
 20
8.5674508819
 30
0.0
 10
11.5633410724
 20
8.5568363577
 30
0.0
 10
11.5507688895
 20
8.546863764
 30
0.0
 10
11.5376797119
 20
8.5375571397
 30
0.0
 10
11.5241051247
 20
8.5289389091
 30
0.0
 10
11.5100778762
 20
8.521029839
 30
0.0
 10
11.4956318018
 20
8.5138489865
 30
0.0
 10
11.4808017417
 20
8.5074136591
 30
0.0
 10
11.4656234725
 20
8.5017393337
 30
0.0
 10
11.450133603
 20
8.4968396461
 30
0.0
 10
11.4343694831
 20
8.4927263743
 30
0.0
 10
11.418369122
 20
8.4894094011
 30
0.0
 10
11.402171061
 20
8.486896685
 30
0.0
 10
11.3858144449
 20
8.4851942778
 30
0.0
 10
11.3693383916
 20
8.4843061162
 30
0.0
 10
11.3527833119
 20
8.4842344578
 30
0.0
 10
11.3417378781
 20
8.484730225
 30
0.0
 10
11.3362161654
 20
8.4851131571
 30
0.0
  0
SPLINE
  5
417
100
AcDbEntity
  8
0
100
AcDbSpline
 62
7
  6
CONTINUOUS
 70
0
 71
3
 72
23
 73
19
 74
0
 42
0.0000001
 43
0.0000001
 44
0.0000000001
 40
0.0
 40
0.0
 40
0.0
 40
0.0
 40
0.0616482066
 40
0.1233194398
 40
0.1850364729
 40
0.2468215638
 40
0.3086962099
 40
0.3706809215
 40
0.4327950013
 40
0.4950563319
 40
0.5574811817
 40
0.6200840805
 40
0.6828775834
 40
0.7458723398
 40
0.8090769807
 40
0.8724966303
 40
0.9361388571
 40
1.0
 40
1.0
 40
1.0
 40
1.0
 10
11.549298457
 20
8.6383266731
 30
0.0
 10
11.5461450652
 20
8.6352807163
 30
0.0
 10
11.5396718542
 20
8.6293561122
 30
0.0
 10
11.5294965158
 20
8.6210021588
 30
0.0
 10
11.5188793175
 20
8.6132003918
 30
0.0
 10
11.5078473705
 20
8.6059708205
 30
0.0
 10
11.4964283929
 20
8.5993315398
 30
0.0
 10
11.4846511956
 20
8.5932992706
 30
0.0
 10
11.4725454478
 20
8.5878891813
 30
0.0
 10
11.460141645
 20
8.5831148992
 30
0.0
 10
11.4474710411
 20
8.5789884146
 30
0.0
 10
11.4345655623
 20
8.5755200724
 30
0.0
 10
11.4214577138
 20
8.5727185641
 30
0.0
 10
11.4081804778
 20
8.5705909231
 30
0.0
 10
11.3947673789
 20
8.5691425212
 30
0.0
 10
11.3812518969
 20
8.5683768288
 30
0.0
 10
11.367668704
 20
8.5682959076
 30
0.0
 10
11.3586054205
 20
8.5686978208
 30
0.0
 10
11.3540746648
 20
8.5690120298
 30
0.0
  0
SPLINE
  5
418
100
AcDbEntity
  8
0
100
AcDbSpline
 62
7
  6
CONTINUOUS
 70
0
 71
3
 72
69
 73
65
 74
0
 42
0.0000001
 43
0.0000001
 44
0.0000000001
 40
0.0
 40
0.0
 40
0.0
 40
0.0
 40
0.0156749348
 40
0.0314027839
 40
0.0471814364
 40
0.0630099721
 40
0.0788860943
 40
0.0948073732
 40
0.1107709045
 40
0.1267734005
 40
0.1428112328
 40
0.1588804529
 40
0.1749768346
 40
0.1910959109
 40
0.2072330173
 40
0.2233833314
 40
0.2395419155
 40
0.2557037586
 40
0.2718638216
 40
0.2880170822
 40
0.3202749255
 40
0.3524475142
 40
0.3684949934
 40
0.3845082673
 40
0.4004836065
 40
0.4164176212
 40
0.4323072962
 40
0.4481500201
 40
0.4639436125
 40
0.4796863462
 40
0.49537697
 40
0.5110147255
 40
0.5265993589
 40
0.5421311273
 40
0.5576108011
 40
0.5730396628
 40
0.5884195007
 40
0.6037525947
 40
0.6190416973
 40
0.634290009
 40
0.649501151
 40
0.6646791309
 40
0.6798283035
 40
0.6949533259
 40
0.71005911
 40
0.725150772
 40
0.7402335794
 40
0.7553128946
 40
0.7703941172
 40
0.7854826259
 40
0.8005837208
 40
0.8157025686
 40
0.8308441477
 40
0.8460131958
 40
0.8612141607
 40
0.8764511552
 40
0.8917279166
 40
0.907047777
 40
0.9224136185
 40
0.9378278587
 40
0.9532924887
 40
0.9688086929
 40
0.9843780614
 40
1.0
 40
1.0
 40
1.0
 40
1.0
 10
11.3362161654
 20
6.6730362696
 30
0.0
 10
11.3306757207
 20
6.6734205007
 30
0.0
 10
11.3195931012
 20
6.6744620715
 30
0.0
 10
11.3030390139
 20
6.6768325276
 30
0.0
 10
11.2865646054
 20
6.6800083107
 30
0.0
 10
11.2702102365
 20
6.6839814858
 30
0.0
 10
11.2540149974
 20
6.6887426159
 30
0.0
 10
11.2380179746
 20
6.6942801567
 30
0.0
 10
11.2222576461
 20
6.7005807492
 30
0.0
 10
11.2067719491
 20
6.7076291942
 30
0.0
 10
11.1915981542
 20
6.7154085001
 30
0.0
 10
11.1767727859
 20
6.7238999323
 30
0.0
 10
11.1623315323
 20
6.7330830433
 30
0.0
 10
11.1483091415
 20
6.7429356987
 30
0.0
 10
11.1347393564
 20
6.7534341692
 30
0.0
 10
11.1216548407
 20
6.7645531705
 30
0.0
 10
11.1090870765
 20
6.7762659679
 30
0.0
 10
11.0970663871
 20
6.7885442738
 30
0.0
 10
11.0856214514
 20
6.8013588813
 30
0.0
 10
11.0711750411
 20
6.8191074734
 30
0.0
 10
11.0546905629
 20
6.8424717738
 30
0.0
 10
11.0404438751
 20
6.867221527
 30
0.0
 10
11.0304857929
 20
6.887693281
 30
0.0
 10
11.0237585311
 20
6.9033338892
 30
0.0
 10
11.0177839545
 20
6.9192339519
 30
0.0
 10
11.0125762536
 20
6.9353555615
 30
0.0
 10
11.0081480358
 20
6.9516598079
 30
0.0
 10
11.0045099728
 20
6.9681074676
 30
0.0
 10
11.0016708623
 20
6.9846589369
 30
0.0
 10
10.9996375894
 20
7.0012743673
 30
0.0
 10
10.998415089
 20
7.0179137463
 30
0.0
 10
10.9980063265
 20
7.0345369993
 30
0.0
 10
10.998412323
 20
7.0511040879
 30
0.0
 10
10.9996321437
 20
7.0675751026
 30
0.0
 10
11.0016629075
 20
7.0839103564
 30
0.0
 10
11.0044997611
 20
7.1000704835
 30
0.0
 10
11.0081358931
 20
7.1160165381
 30
0.0
 10
11.0125625782
 20
7.1317100833
 30
0.0
 10
11.0177691884
 20
7.1471132824
 30
0.0
 10
11.0237432251
 20
7.1621889868
 30
0.0
 10
11.0304703141
 20
7.1769008386
 30
0.0
 10
11.0379342518
 20
7.1912133595
 30
0.0
 10
11.0461170654
 20
7.2050920263
 30
0.0
 10
11.0549990476
 20
7.2185033562
 30
0.0
 10
11.0645588105
 20
7.2314149827
 30
0.0
 10
11.0747733031
 20
7.2437957581
 30
0.0
 10
11.0856178867
 20
7.2556158225
 30
0.0
 10
11.0970664084
 20
7.2668466632
 30
0.0
 10
11.1090912584
 20
7.2774611875
 30
0.0
 10
11.1216634412
 20
7.2874337812
 30
0.0
 10
11.1347526188
 20
7.2967404054
 30
0.0
 10
11.1483272061
 20
7.3053586361
 30
0.0
 10
11.1623544546
 20
7.3132677061
 30
0.0
 10
11.1768005289
 20
7.3204485586
 30
0.0
 10
11.1916305891
 20
7.326883886
 30
0.0
 10
11.2068088583
 20
7.3325582114
 30
0.0
 10
11.2222987278
 20
7.337457899
 30
0.0
 10
11.2380628477
 20
7.3415711709
 30
0.0
 10
11.2540632088
 20
7.3448881441
 30
0.0
 10
11.2702612697
 20
7.3474008602
 30
0.0
 10
11.2866178859
 20
7.3491032674
 30
0.0
 10
11.3030939392
 20
7.349991429
 30
0.0
 10
11.3196490189
 20
7.3500630874
 30
0.0
 10
11.3306944527
 20
7.3495673201
 30
0.0
 10
11.3362161654
 20
7.3491843881
 30
0.0
  0
SPLINE
  5
419
100
AcDbEntity
  8
0
100
AcDbSpline
 62
7
  6
CONTINUOUS
 70
0
 71
3
 72
69
 73
65
 74
0
 42
0.0000001
 43
0.0000001
 44
0.0000000001
 40
0.0
 40
0.0
 40
0.0
 40
0.0
 40
0.0156749348
 40
0.0314027839
 40
0.0471814364
 40
0.0630099721
 40
0.0788860943
 40
0.0948073732
 40
0.1107709045
 40
0.1267734005
 40
0.1428112328
 40
0.1588804529
 40
0.1749768346
 40
0.1910959109
 40
0.2072330173
 40
0.2233833314
 40
0.2395419155
 40
0.2557037586
 40
0.2718638216
 40
0.2880170822
 40
0.3202749255
 40
0.3524475142
 40
0.3684949934
 40
0.3845082673
 40
0.4004836065
 40
0.4164176212
 40
0.4323072962
 40
0.4481500201
 40
0.4639436125
 40
0.4796863462
 40
0.49537697
 40
0.5110147255
 40
0.5265993589
 40
0.5421311273
 40
0.5576108011
 40
0.5730396628
 40
0.5884195007
 40
0.6037525947
 40
0.6190416973
 40
0.634290009
 40
0.649501151
 40
0.6646791309
 40
0.6798283035
 40
0.6949533259
 40
0.71005911
 40
0.725150772
 40
0.7402335794
 40
0.7553128946
 40
0.7703941172
 40
0.7854826259
 40
0.8005837208
 40
0.8157025686
 40
0.8308441477
 40
0.8460131958
 40
0.8612141607
 40
0.8764511552
 40
0.8917279166
 40
0.907047777
 40
0.9224136185
 40
0.9378278587
 40
0.9532924887
 40
0.9688086929
 40
0.9843780614
 40
1.0
 40
1.0
 40
1.0
 40
1.0
 10
11.3362161654
 20
7.3491843881
 30
0.0
 10
11.34175661
 20
7.3488001569
 30
0.0
 10
11.3528392296
 20
7.3477585862
 30
0.0
 10
11.3693933169
 20
7.3453881301
 30
0.0
 10
11.3858677253
 20
7.342212347
 30
0.0
 10
11.4022220943
 20
7.3382391719
 30
0.0
 10
11.4184173334
 20
7.3334780418
 30
0.0
 10
11.4344143561
 20
7.327940501
 30
0.0
 10
11.4501746847
 20
7.3216399085
 30
0.0
 10
11.4656603817
 20
7.3145914635
 30
0.0
 10
11.4808341765
 20
7.3068121576
 30
0.0
 10
11.4956595448
 20
7.2983207254
 30
0.0
 10
11.5101007984
 20
7.2891376144
 30
0.0
 10
11.5241231893
 20
7.279284959
 30
0.0
 10
11.5376929744
 20
7.2687864884
 30
0.0
 10
11.5507774901
 20
7.2576674871
 30
0.0
 10
11.5633452543
 20
7.2459546898
 30
0.0
 10
11.5753659437
 20
7.2336763839
 30
0.0
 10
11.5868108794
 20
7.2208617764
 30
0.0
 10
11.6012572896
 20
7.2031131842
 30
0.0
 10
11.6177417679
 20
7.1797488839
 30
0.0
 10
11.6319884557
 20
7.1549991306
 30
0.0
 10
11.6419465379
 20
7.1345273766
 30
0.0
 10
11.6486737997
 20
7.1188867685
 30
0.0
 10
11.6546483763
 20
7.1029867058
 30
0.0
 10
11.6598560772
 20
7.0868650961
 30
0.0
 10
11.664284295
 20
7.0705608498
 30
0.0
 10
11.6679223579
 20
7.05411319
 30
0.0
 10
11.6707614684
 20
7.0375617208
 30
0.0
 10
11.6727947413
 20
7.0209462903
 30
0.0
 10
11.6740172418
 20
7.0043069114
 30
0.0
 10
11.6744260043
 20
6.9876836584
 30
0.0
 10
11.6740200078
 20
6.9711165698
 30
0.0
 10
11.6728001871
 20
6.9546455551
 30
0.0
 10
11.6707694232
 20
6.9383103013
 30
0.0
 10
11.6679325697
 20
6.9221501742
 30
0.0
 10
11.6642964377
 20
6.9062041195
 30
0.0
 10
11.6598697525
 20
6.8905105744
 30
0.0
 10
11.6546631424
 20
6.8751073753
 30
0.0
 10
11.6486891057
 20
6.8600316709
 30
0.0
 10
11.6419620167
 20
6.8453198191
 30
0.0
 10
11.6344980789
 20
6.8310072982
 30
0.0
 10
11.6263152654
 20
6.8171286314
 30
0.0
 10
11.6174332831
 20
6.8037173014
 30
0.0
 10
11.6078735203
 20
6.790805675
 30
0.0
 10
11.5976590276
 20
6.7784248995
 30
0.0
 10
11.586814444
 20
6.7666048352
 30
0.0
 10
11.5753659224
 20
6.7553739945
 30
0.0
 10
11.5633410724
 20
6.7447594702
 30
0.0
 10
11.5507688895
 20
6.7347868765
 30
0.0
 10
11.5376797119
 20
6.7254802523
 30
0.0
 10
11.5241051247
 20
6.7168620216
 30
0.0
 10
11.5100778762
 20
6.7089529515
 30
0.0
 10
11.4956318018
 20
6.701772099
 30
0.0
 10
11.4808017417
 20
6.6953367716
 30
0.0
 10
11.4656234725
 20
6.6896624462
 30
0.0
 10
11.450133603
 20
6.6847627586
 30
0.0
 10
11.4343694831
 20
6.6806494868
 30
0.0
 10
11.418369122
 20
6.6773325136
 30
0.0
 10
11.402171061
 20
6.6748197975
 30
0.0
 10
11.3858144449
 20
6.6731173903
 30
0.0
 10
11.3693383916
 20
6.6722292287
 30
0.0
 10
11.3527833119
 20
6.6721575703
 30
0.0
 10
11.3417378781
 20
6.6726533375
 30
0.0
 10
11.3362161654
 20
6.6730362696
 30
0.0
  0
SPLINE
  5
41A
100
AcDbEntity
  8
0
100
AcDbSpline
 62
7
  6
CONTINUOUS
 70
0
 71
3
 72
25
 73
21
 74
0
 42
0.0000001
 43
0.0000001
 44
0.0000000001
 40
0.0
 40
0.0
 40
0.0
 40
0.0
 40
0.0758028043
 40
0.1477704043
 40
0.2161637321
 40
0.2491271711
 40
0.2813259245
 40
0.3436215677
 40
0.4035210453
 40
0.4615453422
 40
0.5182747439
 40
0.5743339546
 40
0.6303723199
 40
0.6870399851
 40
0.7449638081
 40
0.8047272018
 40
0.8668557951
 40
0.8989609834
 40
0.931824516
 40
1.0
 40
1.0
 40
1.0
 40
1.0
 10
11.3881882518
 20
10.7893302417
 30
0.0
 10
11.3868506626
 20
10.7880382296
 30
0.0
 10
11.3843132393
 20
10.7854452737
 30
0.0
 10
11.3808523323
 20
10.7814221411
 30
0.0
 10
11.3783130096
 20
10.7780058698
 30
0.0
 10
11.3765184741
 20
10.7752634401
 30
0.0
 10
11.3749154859
 20
10.7725777749
 30
0.0
 10
11.3731843141
 20
10.7692025505
 30
0.0
 10
11.3715432538
 20
10.7650895285
 30
0.0
 10
11.3703643232
 20
10.7609619604
 30
0.0
 10
11.3696498606
 20
10.7568242371
 30
0.0
 10
11.3694016051
 20
10.7526811101
 30
0.0
 10
11.3696200931
 20
10.7485378137
 30
0.0
 10
11.3703048551
 20
10.7443995938
 30
0.0
 10
11.3714542349
 20
10.7402712529
 30
0.0
 10
11.3730658695
 20
10.7361571889
 30
0.0
 10
11.3747731171
 20
10.7327806611
 30
0.0
 10
11.3763570925
 20
10.7300939653
 30
0.0
 10
11.3781318874
 20
10.7273508467
 30
0.0
 10
11.3796029488
 20
10.7253518443
 30
0.0
 10
11.3806407204
 20
10.7240401642
 30
0.0
  0
SPLINE
  5
41B
100
AcDbEntity
  8
0
100
AcDbSpline
 62
7
  6
CONTINUOUS
 70
0
 71
3
 72
23
 73
19
 74
0
 42
0.0000001
 43
0.0000001
 44
0.0000000001
 40
0.0
 40
0.0
 40
0.0
 40
0.0
 40
0.0616482066
 40
0.1233194398
 40
0.1850364729
 40
0.2468215638
 40
0.3086962099
 40
0.3706809215
 40
0.4327950013
 40
0.4950563319
 40
0.5574811817
 40
0.6200840805
 40
0.6828775834
 40
0.7458723398
 40
0.8090769807
 40
0.8724966303
 40
0.9361388571
 40
1.0
 40
1.0
 40
1.0
 40
1.0
 10
11.549298457
 20
6.8262497856
 30
0.0
 10
11.5461450652
 20
6.8232038288
 30
0.0
 10
11.5396718542
 20
6.8172792247
 30
0.0
 10
11.5294965158
 20
6.8089252713
 30
0.0
 10
11.5188793175
 20
6.8011235043
 30
0.0
 10
11.5078473705
 20
6.793893933
 30
0.0
 10
11.4964283929
 20
6.7872546523
 30
0.0
 10
11.4846511956
 20
6.7812223831
 30
0.0
 10
11.4725454478
 20
6.7758122938
 30
0.0
 10
11.460141645
 20
6.7710380117
 30
0.0
 10
11.4474710411
 20
6.7669115271
 30
0.0
 10
11.4345655623
 20
6.7634431849
 30
0.0
 10
11.4214577138
 20
6.7606416766
 30
0.0
 10
11.4081804778
 20
6.7585140356
 30
0.0
 10
11.3947673789
 20
6.7570656337
 30
0.0
 10
11.3812518969
 20
6.7562999413
 30
0.0
 10
11.367668704
 20
6.7562190201
 30
0.0
 10
11.3586054205
 20
6.7566209334
 30
0.0
 10
11.3540746648
 20
6.7569351424
 30
0.0
  0
SPLINE
  5
41C
100
AcDbEntity
  8
0
100
AcDbSpline
 62
7
  6
CONTINUOUS
 70
0
 71
3
 72
18
 73
14
 74
0
 42
0.0000001
 43
0.0000001
 44
0.0000000001
 40
0.0
 40
0.0
 40
0.0
 40
0.0
 40
0.1480422275
 40
0.2876687894
 40
0.41956339
 40
0.482895051
 40
0.5446365312
 40
0.6638666126
 40
0.7785244778
 40
0.8345987164
 40
0.8900707788
 40
0.9451373495
 40
1.0
 40
1.0
 40
1.0
 40
1.0
 10
11.3969585592
 20
10.7675486238
 30
0.0
 10
11.3954784095
 20
10.7661189089
 30
0.0
 10
11.392688985
 20
10.7632484146
 30
0.0
 10
11.3889385492
 20
10.7587748745
 30
0.0
 10
11.3862484887
 20
10.7549681113
 30
0.0
 10
11.3843958566
 20
10.7519125844
 30
0.0
 10
11.3827778987
 20
10.748925514
 30
0.0
 10
11.3810964337
 20
10.7451669057
 30
0.0
 10
11.3798687268
 20
10.7413174176
 30
0.0
 10
11.3791872473
 20
10.7382460462
 30
0.0
 10
11.3788245709
 20
10.7359570151
 30
0.0
 10
11.3786069539
 20
10.7336667089
 30
0.0
 10
11.3785585532
 20
10.732138173
 30
0.0
 10
11.3785585512
 20
10.7313755425
 30
0.0
  0
SPLINE
  5
41D
100
AcDbEntity
  8
0
100
AcDbSpline
 62
7
  6
CONTINUOUS
 70
0
 71
3
 72
38
 73
34
 74
0
 42
0.0000001
 43
0.0000001
 44
0.0000000001
 40
0.0
 40
0.0
 40
0.0
 40
0.0
 40
0.0472573783
 40
0.092953454
 40
0.1370913879
 40
0.1796784752
 40
0.2207257287
 40
0.2602492645
 40
0.2982701596
 40
0.3348154611
 40
0.3699190088
 40
0.4036218055
 40
0.4359736927
 40
0.4670335628
 40
0.4968710837
 40
0.5255673909
 40
0.5798923288
 40
0.6057805681
 40
0.6309831945
 40
0.6556470428
 40
0.6799299421
 40
0.703998014
 40
0.7280222588
 40
0.7521746908
 40
0.7766243925
 40
0.8015337793
 40
0.8270556343
 40
0.8533307894
 40
0.8804865799
 40
0.9086370274
 40
0.9378829928
 40
0.9683127035
 40
1.0
 40
1.0
 40
1.0
 40
1.0
 10
9.6947017468
 20
10.5877342255
 30
0.0
 10
9.692530631
 20
10.588806712
 30
0.0
 10
9.6882826759
 20
10.5909623474
 30
0.0
 10
9.6820937603
 20
10.5942872454
 30
0.0
 10
9.6761979053
 20
10.5976476999
 30
0.0
 10
9.6705981226
 20
10.6010419244
 30
0.0
 10
9.6652972769
 20
10.6044682795
 30
0.0
 10
9.6602980332
 20
10.607924993
 30
0.0
 10
9.6556029331
 20
10.611410372
 30
0.0
 10
9.6512143639
 20
10.6149227108
 30
0.0
 10
9.6471345162
 20
10.6184602588
 30
0.0
 10
9.6433655257
 20
10.622021376
 30
0.0
 10
9.6399092483
 20
10.6256043431
 30
0.0
 10
9.6367676184
 20
10.6292074146
 30
0.0
 10
9.6339420335
 20
10.632829388
 30
0.0
 10
9.6306590002
 20
10.6375928162
 30
0.0
 10
9.6279271063
 20
10.6424833149
 30
0.0
 10
9.6258335936
 20
10.6474676533
 30
0.0
 10
9.6246115232
 20
10.6511565751
 30
0.0
 10
9.6237140266
 20
10.6548531155
 30
0.0
 10
9.623141895
 20
10.6585552202
 30
0.0
 10
9.6228957258
 20
10.6622604497
 30
0.0
 10
9.622975903
 20
10.6659663236
 30
0.0
 10
9.6233822011
 20
10.6696703242
 30
0.0
 10
9.624114283
 20
10.6733699905
 30
0.0
 10
9.6251712986
 20
10.6770630193
 30
0.0
 10
9.6265522673
 20
10.6807472639
 30
0.0
 10
9.6282560283
 20
10.6844207156
 30
0.0
 10
9.6302811874
 20
10.6880815736
 30
0.0
 10
9.632626461
 20
10.6917280489
 30
0.0
 10
9.6352903858
 20
10.6953585837
 30
0.0
 10
9.6382713942
 20
10.6989713557
 30
0.0
 10
9.6404241633
 20
10.7013180769
 30
0.0
 10
9.6415498004
 20
10.7024882956
 30
0.0
  0
SPLINE
  5
41E
100
AcDbEntity
  8
0
100
AcDbSpline
 62
7
  6
CONTINUOUS
 70
0
 71
3
 72
41
 73
37
 74
0
 42
0.0000001
 43
0.0000001
 44
0.0000000001
 40
0.0
 40
0.0
 40
0.0
 40
0.0
 40
0.0311447316
 40
0.062442512
 40
0.0938874623
 40
0.1254698004
 40
0.157177398
 40
0.1730760315
 40
0.1890002542
 40
0.2209118667
 40
0.2528982324
 40
0.268915512
 40
0.2849437913
 40
0.3170178786
 40
0.3491032351
 40
0.3811777019
 40
0.4132193306
 40
0.4452068069
 40
0.4771198671
 40
0.5089396988
 40
0.5406493218
 40
0.5722339425
 40
0.6036812744
 40
0.6349818182
 40
0.6661290945
 40
0.6971198218
 40
0.7279540332
 40
0.7586351262
 40
0.7891698392
 40
0.8195681519
 40
0.8498431069
 40
0.8800105534
 40
0.9100888147
 40
0.9400982872
 40
0.9700609787
 40
1.0
 40
1.0
 40
1.0
 40
1.0
 10
9.9051858395
 20
9.0307491616
 30
0.0
 10
9.8985578897
 20
9.0312088115
 30
0.0
 10
9.8852981265
 20
9.0326155088
 30
0.0
 10
9.8655692671
 20
9.0361590182
 30
0.0
 10
9.8460516077
 20
9.041122456
 30
0.0
 10
9.8268511003
 20
9.0474788918
 30
0.0
 10
9.8112117314
 20
9.0539036568
 30
0.0
 10
9.7989590878
 20
9.0597006443
 30
0.0
 10
9.7868759768
 20
9.065938806
 30
0.0
 10
9.772158508
 20
9.0745314263
 30
0.0
 10
9.758049908
 20
9.0841260134
 30
0.0
 10
9.747161976
 20
9.0923781127
 30
0.0
 10
9.7365479004
 20
9.1010092226
 30
0.0
 10
9.7238355511
 20
9.1124765732
 30
0.0
 10
9.7095537932
 20
9.127244889
 30
0.0
 10
9.6963155225
 20
9.1429469762
 30
0.0
 10
9.6841917847
 20
9.1594987737
 30
0.0
 10
9.6732471176
 20
9.1768121874
 30
0.0
 10
9.6635399593
 20
9.1947949398
 30
0.0
 10
9.6551221381
 20
9.2133512197
 30
0.0
 10
9.6480386507
 20
9.2323821428
 30
0.0
 10
9.6423274084
 20
9.2517862831
 30
0.0
 10
9.6380190295
 20
9.271460201
 30
0.0
 10
9.6351366778
 20
9.2912989917
 30
0.0
 10
9.6336959354
 20
9.311196836
 30
0.0
 10
9.6337047126
 20
9.3310475581
 30
0.0
 10
9.635163197
 20
9.3507451855
 30
0.0
 10
9.6380638418
 20
9.3701845104
 30
0.0
 10
9.6423913931
 20
9.3892616482
 30
0.0
 10
9.6481229607
 20
9.4078745956
 30
0.0
 10
9.655228115
 20
9.4259237709
 30
0.0
 10
9.663669068
 20
9.4433125905
 30
0.0
 10
9.6734007422
 20
9.4599478698
 30
0.0
 10
9.6843714869
 20
9.4757407956
 30
0.0
 10
9.6965215498
 20
9.4906057043
 30
0.0
 10
9.7053684201
 20
9.4998477412
 30
0.0
 10
9.7099620472
 20
9.5042848649
 30
0.0
  0
SPLINE
  5
41F
100
AcDbEntity
  8
0
100
AcDbSpline
 62
4
  6
CONTINUOUS
 70
0
 71
3
 72
295
 73
291
 74
0
 42
0.0000001
 43
0.0000001
 44
0.0000000001
 40
0.0
 40
0.0
 40
0.0
 40
0.0
 40
0.015625
 40
0.0234375
 40
0.03125
 40
0.0390625
 40
0.046875
 40
0.05078125
 40
0.0546875
 40
0.056640625
 40
0.05859375
 40
0.060546875
 40
0.0615234375
 40
0.0620117188
 40
0.0625
 40
0.0629882812
 40
0.0634765625
 40
0.064453125
 40
0.06640625
 40
0.068359375
 40
0.0703125
 40
0.07421875
 40
0.078125
 40
0.0859375
 40
0.09375
 40
0.1015625
 40
0.109375
 40
0.11328125
 40
0.1171875
 40
0.119140625
 40
0.12109375
 40
0.123046875
 40
0.1240234375
 40
0.1245117188
 40
0.125
 40
0.1254882812
 40
0.1259765625
 40
0.126953125
 40
0.12890625
 40
0.130859375
 40
0.1328125
 40
0.13671875
 40
0.140625
 40
0.1484375
 40
0.15625
 40
0.1640625
 40
0.171875
 40
0.17578125
 40
0.1796875
 40
0.181640625
 40
0.18359375
 40
0.185546875
 40
0.1865234375
 40
0.1870117188
 40
0.1875
 40
0.1879882812
 40
0.1884765625
 40
0.189453125
 40
0.19140625
 40
0.193359375
 40
0.1953125
 40
0.19921875
 40
0.203125
 40
0.2109375
 40
0.21875
 40
0.2265625
 40
0.234375
 40
0.23828125
 40
0.2421875
 40
0.24609375
 40
0.248046875
 40
0.2490234375
 40
0.25
 40
0.2509765625
 40
0.251953125
 40
0.25390625
 40
0.2578125
 40
0.26171875
 40
0.265625
 40
0.2734375
 40
0.28125
 40
0.2890625
 40
0.296875
 40
0.30078125
 40
0.3046875
 40
0.30859375
 40
0.310546875
 40
0.3115234375
 40
0.3125
 40
0.3134765625
 40
0.314453125
 40
0.31640625
 40
0.3203125
 40
0.32421875
 40
0.328125
 40
0.3359375
 40
0.34375
 40
0.3515625
 40
0.359375
 40
0.36328125
 40
0.3671875
 40
0.37109375
 40
0.373046875
 40
0.3740234375
 40
0.375
 40
0.3759765625
 40
0.376953125
 40
0.37890625
 40
0.3828125
 40
0.38671875
 40
0.390625
 40
0.3984375
 40
0.40625
 40
0.4140625
 40
0.421875
 40
0.42578125
 40
0.4296875
 40
0.43359375
 40
0.435546875
 40
0.4375
 40
0.439453125
 40
0.44140625
 40
0.4453125
 40
0.44921875
 40
0.453125
 40
0.4609375
 40
0.46875
 40
0.4765625
 40
0.484375
 40
0.48828125
 40
0.4921875
 40
0.49609375
 40
0.498046875
 40
0.4990234375
 40
0.5
 40
0.5009765625
 40
0.501953125
 40
0.50390625
 40
0.5078125
 40
0.51171875
 40
0.515625
 40
0.5234375
 40
0.53125
 40
0.5390625
 40
0.546875
 40
0.55078125
 40
0.5546875
 40
0.556640625
 40
0.55859375
 40
0.560546875
 40
0.5615234375
 40
0.5625
 40
0.5634765625
 40
0.564453125
 40
0.56640625
 40
0.568359375
 40
0.5703125
 40
0.57421875
 40
0.578125
 40
0.5859375
 40
0.59375
 40
0.6015625
 40
0.609375
 40
0.61328125
 40
0.6171875
 40
0.619140625
 40
0.62109375
 40
0.623046875
 40
0.6240234375
 40
0.6245117188
 40
0.625
 40
0.6254882812
 40
0.6259765625
 40
0.626953125
 40
0.62890625
 40
0.630859375
 40
0.6328125
 40
0.63671875
 40
0.640625
 40
0.6484375
 40
0.65625
 40
0.6640625
 40
0.671875
 40
0.67578125
 40
0.6796875
 40
0.681640625
 40
0.68359375
 40
0.685546875
 40
0.6865234375
 40
0.6870117188
 40
0.6875
 40
0.6879882812
 40
0.6884765625
 40
0.689453125
 40
0.69140625
 40
0.693359375
 40
0.6953125
 40
0.69921875
 40
0.703125
 40
0.7109375
 40
0.71875
 40
0.7265625
 40
0.734375
 40
0.73828125
 40
0.7421875
 40
0.744140625
 40
0.74609375
 40
0.748046875
 40
0.7490234375
 40
0.7495117188
 40
0.75
 40
0.7504882812
 40
0.7509765625
 40
0.751953125
 40
0.75390625
 40
0.755859375
 40
0.7578125
 40
0.76171875
 40
0.765625
 40
0.7734375
 40
0.78125
 40
0.7890625
 40
0.796875
 40
0.80078125
 40
0.8046875
 40
0.806640625
 40
0.80859375
 40
0.810546875
 40
0.8115234375
 40
0.8120117188
 40
0.8125
 40
0.8129882812
 40
0.8134765625
 40
0.814453125
 40
0.81640625
 40
0.818359375
 40
0.8203125
 40
0.82421875
 40
0.828125
 40
0.8359375
 40
0.84375
 40
0.8515625
 40
0.85546875
 40
0.859375
 40
0.86328125
 40
0.8671875
 40
0.869140625
 40
0.87109375
 40
0.873046875
 40
0.8740234375
 40
0.8745117188
 40
0.875
 40
0.8754882812
 40
0.8759765625
 40
0.876953125
 40
0.87890625
 40
0.880859375
 40
0.8828125
 40
0.88671875
 40
0.890625
 40
0.89453125
 40
0.8984375
 40
0.90625
 40
0.9140625
 40
0.91796875
 40
0.921875
 40
0.92578125
 40
0.9296875
 40
0.931640625
 40
0.93359375
 40
0.9345703125
 40
0.935546875
 40
0.9365234375
 40
0.9370117188
 40
0.9375
 40
0.9379882812
 40
0.9384765625
 40
0.939453125
 40
0.9404296875
 40
0.94140625
 40
0.943359375
 40
0.9453125
 40
0.94921875
 40
0.953125
 40
0.95703125
 40
0.9609375
 40
0.96875
 40
0.9765625
 40
0.984375
 40
1.0
 40
1.0
 40
1.0
 40
1.0
 10
12.3841841174
 20
7.7439688233
 30
0.0
 10
12.3850236516
 20
7.7450869628
 30
0.0
 10
12.3862829528
 20
7.7467641717
 30
0.0
 10
12.3879620211
 20
7.7490004512
 30
0.0
 10
12.3892213225
 20
7.7506776585
 30
0.0
 10
12.3904806233
 20
7.7523548747
 30
0.0
 10
12.3915300422
 20
7.7537525272
 30
0.0
 10
12.3923695739
 20
7.754870711
 30
0.0
 10
12.3928942891
 20
7.7555694353
 30
0.0
 10
12.3933140432
 20
7.7561287367
 30
0.0
 10
12.3936289081
 20
7.7565473313
 30
0.0
 10
12.3938911387
 20
7.756898964
 30
0.0
 10
12.3940750078
 20
7.7571396044
 30
0.0
 10
12.3941795954
 20
7.7572857049
 30
0.0
 10
12.3942593896
 20
7.7573710774
 30
0.0
 10
12.3943340102
 20
7.7575489654
 30
0.0
 10
12.3944353089
 20
7.757753879
 30
0.0
 10
12.3946117409
 20
7.7581275133
 30
0.0
 10
12.3948642261
 20
7.7586534157
 30
0.0
 10
12.3951670203
 20
7.7592878634
 30
0.0
 10
12.3955708115
 20
7.7601326183
 30
0.0
 10
12.3960755281
 20
7.7611889644
 30
0.0
 10
12.3968830871
 20
7.7628788932
 30
0.0
 10
12.3978925315
 20
7.7649913818
 30
0.0
 10
12.399103867
 20
7.7675263329
 30
0.0
 10
12.400315201
 20
7.7700613008
 30
0.0
 10
12.4013246491
 20
7.7721737475
 30
0.0
 10
12.4021322008
 20
7.7738637601
 30
0.0
 10
12.402636936
 20
7.7749198932
 30
0.0
 10
12.4030406889
 20
7.7757650854
 30
0.0
 10
12.4033436002
 20
7.7763981973
 30
0.0
 10
12.4035957188
 20
7.7769282788
 30
0.0
 10
12.4037728054
 20
7.7772944528
 30
0.0
 10
12.4038730552
 20
7.7775113196
 30
0.0
 10
12.4039508978
 20
7.7776524913
 30
0.0
 10
12.4040185904
 20
7.7778757642
 30
0.0
 10
12.4041123876
 20
7.7781448236
 30
0.0
 10
12.4042748832
 20
7.7786290205
 30
0.0
 10
12.4045078822
 20
7.7793137545
 30
0.0
 10
12.4047871118
 20
7.7801384211
 30
0.0
 10
12.405159547
 20
7.7812369337
 30
0.0
 10
12.4056250467
 20
7.7826104316
 30
0.0
 10
12.406369871
 20
7.7848078286
 30
0.0
 10
12.4073008928
 20
7.7875546437
 30
0.0
 10
12.4084181229
 20
7.7908507905
 30
0.0
 10
12.4095353508
 20
7.7941469526
 30
0.0
 10
12.4104663781
 20
7.7968937296
 30
0.0
 10
12.4112111913
 20
7.7990912028
 30
0.0
 10
12.4116767193
 20
7.800464507
 30
0.0
 10
12.4120490964
 20
7.8015634171
 30
0.0
 10
12.4123285032
 20
7.8023868694
 30
0.0
 10
12.4125609479
 20
7.8030754029
 30
0.0
 10
12.412724433
 20
7.8035528169
 30
0.0
 10
12.4128166447
 20
7.8038327441
 30
0.0
 10
12.4128892073
 20
7.8040226346
 30
0.0
 10
12.412948759
 20
7.8042891852
 30
0.0
 10
12.4130326996
 20
7.8046178462
 30
0.0
 10
12.4131774811
 20
7.8052054614
 30
0.0
 10
12.4133854173
 20
7.8060383983
 30
0.0
 10
12.4136344675
 20
7.8070407105
 30
0.0
 10
12.4139666998
 20
7.8083761529
 30
0.0
 10
12.4143819336
 20
7.8100457895
 30
0.0
 10
12.4150463393
 20
7.8127170213
 30
0.0
 10
12.4158768345
 20
7.8160561277
 30
0.0
 10
12.416873439
 20
7.8200630156
 30
0.0
 10
12.4178700214
 20
7.824069956
 30
0.0
 10
12.418700572
 20
7.8274089309
 30
0.0
 10
12.4193648668
 20
7.8300804257
 30
0.0
 10
12.4198634856
 20
7.8320831876
 30
0.0
 10
12.4202777365
 20
7.8337548885
 30
0.0
 10
12.4205701941
 20
7.8349197165
 30
0.0
 10
12.4207334374
 20
7.8355937057
 30
0.0
 10
12.4208667868
 20
7.8360756101
 30
0.0
 10
12.420958406
 20
7.8366476783
 30
0.0
 10
12.421095121
 20
7.8373789858
 30
0.0
 10
12.4213275902
 20
7.8386734271
 30
0.0
 10
12.4216632348
 20
7.840514968
 30
0.0
 10
12.4220644905
 20
7.8427280963
 30
0.0
 10
12.4226000286
 20
7.8456777884
 30
0.0
 10
12.4232692679
 20
7.8493652985
 30
0.0
 10
12.4240724391
 20
7.8537901328
 30
0.0
 10
12.4248755672
 20
7.8582150464
 30
0.0
 10
12.4255449144
 20
7.8619023584
 30
0.0
 10
12.4260802367
 20
7.8648524467
 30
0.0
 10
12.4264821504
 20
7.8670643663
 30
0.0
 10
12.4268157368
 20
7.8689096887
 30
0.0
 10
12.4270518801
 20
7.8701973795
 30
0.0
 10
12.4271827082
 20
7.8709395029
 30
0.0
 10
12.42729241
 20
7.8714783482
 30
0.0
 10
12.4273578441
 20
7.8720850323
 30
0.0
 10
12.4274605307
 20
7.8728702816
 30
0.0
 10
12.4276330378
 20
7.8742554928
 30
0.0
 10
12.4278832379
 20
7.876228602
 30
0.0
 10
12.428181868
 20
7.8785988002
 30
0.0
 10
12.428580604
 20
7.8817582026
 30
0.0
 10
12.4290788296
 20
7.8857077521
 30
0.0
 10
12.4296767898
 20
7.8904470808
 30
0.0
 10
12.4302747032
 20
7.8951864579
 30
0.0
 10
12.4307730459
 20
7.8991358862
 30
0.0
 10
12.4311715476
 20
7.9022955311
 30
0.0
 10
12.4314708926
 20
7.9046649893
 30
0.0
 10
12.4317188562
 20
7.9066404136
 30
0.0
 10
12.4318953558
 20
7.9080214919
 30
0.0
 10
12.4319916454
 20
7.9088133632
 30
0.0
 10
12.4320767287
 20
7.9093997068
 30
0.0
 10
12.4321126313
 20
7.9100149479
 30
0.0
 10
12.4321776562
 20
7.9108251896
 30
0.0
 10
12.432283457
 20
7.912247809
 30
0.0
 10
12.4324387797
 20
7.9142776671
 30
0.0
 10
12.4326233784
 20
7.9167145478
 30
0.0
 10
12.4328701342
 20
7.9199633549
 30
0.0
 10
12.433178369
 20
7.9240244893
 30
0.0
 10
12.4335483224
 20
7.9288977992
 30
0.0
 10
12.4339183251
 20
7.9337711136
 30
0.0
 10
12.4342264368
 20
7.9378322368
 30
0.0
 10
12.4344734387
 20
7.9410810663
 30
0.0
 10
12.4346572867
 20
7.9435178788
 30
0.0
 10
12.4348149582
 20
7.9455479502
 30
0.0
 10
12.4349310813
 20
7.9471733658
 30
0.0
 10
12.4350455371
 20
7.9483887152
 30
0.0
 10
12.4350555463
 20
7.9496182347
 30
0.0
 10
12.4351053764
 20
7.9512526442
 30
0.0
 10
12.4351551464
 20
7.9532973543
 30
0.0
 10
12.4352202284
 20
7.9557502794
 30
0.0
 10
12.4353051329
 20
7.9590211005
 30
0.0
 10
12.4354119043
 20
7.9631095377
 30
0.0
 10
12.4355397619
 20
7.9680157093
 30
0.0
 10
12.4356676663
 20
7.9729218356
 30
0.0
 10
12.4357743208
 20
7.9770103859
 30
0.0
 10
12.4358594589
 20
7.9802809807
 30
0.0
 10
12.4359238287
 20
7.9827345962
 30
0.0
 10
12.4359758267
 20
7.9847771467
 30
0.0
 10
12.4360154507
 20
7.9862111102
 30
0.0
 10
12.4360330569
 20
7.9870239942
 30
0.0
 10
12.4360604481
 20
7.9876520344
 30
0.0
 10
12.4360336112
 20
7.9882098277
 30
0.0
 10
12.4360167441
 20
7.9889780551
 30
0.0
 10
12.4359784136
 20
7.9903110366
 30
0.0
 10
12.4359282632
 20
7.9922212645
 30
0.0
 10
12.4358661106
 20
7.9945109832
 30
0.0
 10
12.4357839294
 20
7.9975648339
 30
0.0
 10
12.4356809668
 20
8.0013818416
 30
0.0
 10
12.4355575112
 20
8.005962379
 30
0.0
 10
12.4354340354
 20
8.0105428931
 30
0.0
 10
12.4353311232
 20
8.0143599588
 30
0.0
 10
12.4352488413
 20
8.0174136936
 30
0.0
 10
12.4351973032
 20
8.019322087
 30
0.0
 10
12.4351563293
 20
8.0208492391
 30
0.0
 10
12.4351248965
 20
8.0219934057
 30
0.0
 10
12.4351009368
 20
8.0229506872
 30
0.0
 10
12.4350767577
 20
8.0237079686
 30
0.0
 10
12.4350723169
 20
8.0242992756
 30
0.0
 10
12.4350156079
 20
8.0248014708
 30
0.0
 10
12.4349582537
 20
8.0255021923
 30
0.0
 10
12.4348802969
 20
8.0263674144
 30
0.0
 10
12.4347894299
 20
8.0274102522
 30
0.0
 10
12.4346673375
 20
8.028799106
 30
0.0
 10
12.4345150426
 20
8.0305357199
 30
0.0
 10
12.4342711916
 20
8.0333139966
 30
0.0
 10
12.4339664392
 20
8.0367869469
 30
0.0
 10
12.4336007106
 20
8.040954444
 30
0.0
 10
12.4332349866
 20
8.0451219473
 30
0.0
 10
12.4329302224
 20
8.0485948823
 30
0.0
 10
12.432686395
 20
8.0513731897
 30
0.0
 10
12.4325340402
 20
8.0531097255
 30
0.0
 10
12.4324120707
 20
8.0544987396
 30
0.0
 10
12.4323208282
 20
8.0555410876
 30
0.0
 10
12.4322440464
 20
8.056407842
 30
0.0
 10
12.4321917638
 20
8.0570182379
 30
0.0
 10
12.4321596011
 20
8.0573613086
 30
0.0
 10
12.4321419215
 20
8.0576347444
 30
0.0
 10
12.4320996158
 20
8.0578465127
 30
0.0
 10
12.4320517981
 20
8.0581503807
 30
0.0
 10
12.431964115
 20
8.0586721276
 30
0.0
 10
12.4318409458
 20
8.0594227201
 30
0.0
 10
12.4316922471
 20
8.0603211883
 30
0.0
 10
12.431494295
 20
8.0615199292
 30
0.0
 10
12.4312467478
 20
8.0630180871
 30
0.0
 10
12.4308507321
 20
8.0654152898
 30
0.0
 10
12.4303556918
 20
8.0684117413
 30
0.0
 10
12.4297616529
 20
8.072007507
 30
0.0
 10
12.4291676094
 20
8.0756032599
 30
0.0
 10
12.4286725807
 20
8.0785997434
 30
0.0
 10
12.4282765418
 20
8.0809968821
 30
0.0
 10
12.4280290538
 20
8.0824952027
 30
0.0
 10
12.4278309801
 20
8.0836936098
 30
0.0
 10
12.4276826527
 20
8.0845930978
 30
0.0
 10
12.4275583219
 20
8.0853404996
 30
0.0
 10
12.4274727124
 20
8.0858679424
 30
0.0
 10
12.4274215723
 20
8.0861626842
 30
0.0
 10
12.4273894719
 20
8.0864024852
 30
0.0
 10
12.427333463
 20
8.0865706347
 30
0.0
 10
12.4272671241
 20
8.086819827
 30
0.0
 10
12.4271471454
 20
8.0872442688
 30
0.0
 10
12.4269777786
 20
8.0878567023
 30
0.0
 10
12.426773669
 20
8.0885890165
 30
0.0
 10
12.4265018266
 20
8.0895663457
 30
0.0
 10
12.4261619195
 20
8.0907876956
 30
0.0
 10
12.4256181264
 20
8.0927420296
 30
0.0
 10
12.4249383649
 20
8.0951848868
 30
0.0
 10
12.4241226601
 20
8.0981163435
 30
0.0
 10
12.4233069514
 20
8.1010477843
 30
0.0
 10
12.4226271999
 20
8.1034906814
 30
0.0
 10
12.4220833869
 20
8.1054449355
 30
0.0
 10
12.4217435303
 20
8.1066664883
 30
0.0
 10
12.4214715842
 20
8.1076434009
 30
0.0
 10
12.4212677912
 20
8.108376988
 30
0.0
 10
12.4210974339
 20
8.108985439
 30
0.0
 10
12.4209792235
 20
8.1094169902
 30
0.0
 10
12.4209100513
 20
8.1096547914
 30
0.0
 10
12.4208627451
 20
8.1098579307
 30
0.0
 10
12.420797959
 20
8.1099663161
 30
0.0
 10
12.4207176746
 20
8.1101438811
 30
0.0
 10
12.4205743362
 20
8.1104392207
 30
0.0
 10
12.4203710523
 20
8.1108691853
 30
0.0
 10
12.4201264759
 20
8.1113816969
 30
0.0
 10
12.419800596
 20
8.1120662492
 30
0.0
 10
12.4193931702
 20
8.1129215274
 30
0.0
 10
12.4187413313
 20
8.114290203
 30
0.0
 10
12.4179265181
 20
8.116000968
 30
0.0
 10
12.4169487489
 20
8.1180539223
 30
0.0
 10
12.4159709765
 20
8.1201068583
 30
0.0
 10
12.415156171
 20
8.1218176692
 30
0.0
 10
12.4145043167
 20
8.1231862529
 30
0.0
 10
12.4140969302
 20
8.1240417649
 30
0.0
 10
12.4137709695
 20
8.1247258373
 30
0.0
 10
12.4135266402
 20
8.125239815
 30
0.0
 10
12.4133225833
 20
8.1256651924
 30
0.0
 10
12.4131806247
 20
8.1259687209
 30
0.0
 10
12.4130981295
 20
8.1261331653
 30
0.0
 10
12.4130401345
 20
8.126281853
 30
0.0
 10
12.4129673221
 20
8.1263336234
 30
0.0
 10
12.4128754073
 20
8.1264364564
 30
0.0
 10
12.4127121484
 20
8.1266006635
 30
0.0
 10
12.4124801804
 20
8.1268434796
 30
0.0
 10
12.4122012799
 20
8.1271313343
 30
0.0
 10
12.4118296007
 20
8.1275163716
 30
0.0
 10
12.4113649374
 20
8.1279972468
 30
0.0
 10
12.410621512
 20
8.1287668826
 30
0.0
 10
12.409692218
 20
8.1297288466
 30
0.0
 10
12.4085770703
 20
8.1308832375
 30
0.0
 10
12.4076477797
 20
8.1318452241
 30
0.0
 10
12.4069043469
 20
8.1326148102
 30
0.0
 10
12.4063467736
 20
8.1331920129
 30
0.0
 10
12.4057891952
 20
8.1337691648
 30
0.0
 10
12.4053245625
 20
8.134250283
 30
0.0
 10
12.4049528206
 20
8.1346348231
 30
0.0
 10
12.4046741118
 20
8.1349241967
 30
0.0
 10
12.4044415442
 20
8.1351622604
 30
0.0
 10
12.4042793556
 20
8.1353349514
 30
0.0
 10
12.4041857259
 20
8.135424191
 30
0.0
 10
12.4041181814
 20
8.1355177159
 30
0.0
 10
12.4040404009
 20
8.1355095808
 30
0.0
 10
12.403940264
 20
8.1355341942
 30
0.0
 10
12.403763361
 20
8.1355607462
 30
0.0
 10
12.403511512
 20
8.1356073151
 30
0.0
 10
12.403208921
 20
8.1356595007
 30
0.0
 10
12.4028055963
 20
8.1357303729
 30
0.0
 10
12.4023013959
 20
8.13581852
 30
0.0
 10
12.4016963745
 20
8.1359244865
 30
0.0
 10
12.401091348
 20
8.1360304022
 30
0.0
 10
12.4002846478
 20
8.1361716409
 30
0.0
 10
12.3992762719
 20
8.1363481833
 30
0.0
 10
12.3982678962
 20
8.1365247272
 30
0.0
 10
12.3974611957
 20
8.1366659633
 30
0.0
 10
12.3968561701
 20
8.1367718867
 30
0.0
 10
12.3962511455
 20
8.1368778243
 30
0.0
 10
12.3957469551
 20
8.1369660615
 30
0.0
 10
12.39534361
 20
8.13703675
 30
0.0
 10
12.3950915028
 20
8.1370807055
 30
0.0
 10
12.3948898549
 20
8.1371163847
 30
0.0
 10
12.3947385153
 20
8.1371417346
 30
0.0
 10
12.3946127286
 20
8.1371673436
 30
0.0
 10
12.3945113602
 20
8.1371777737
 30
0.0
 10
12.3944373531
 20
8.1372130771
 30
0.0
 10
12.3943556386
 20
8.1371434856
 30
0.0
 10
12.3942493782
 20
8.1370873382
 30
0.0
 10
12.394115629
 20
8.1370045824
 30
0.0
 10
12.3939555254
 20
8.1369106565
 30
0.0
 10
12.3937419157
 20
8.1367835426
 30
0.0
 10
12.393474951
 20
8.1366252936
 30
0.0
 10
12.393047781
 20
8.1363717356
 30
0.0
 10
12.3925138275
 20
8.1360549115
 30
0.0
 10
12.3918730794
 20
8.1356746697
 30
0.0
 10
12.3912323324
 20
8.135294442
 30
0.0
 10
12.3903780027
 20
8.1347874669
 30
0.0
 10
12.3893100907
 20
8.1341537496
 30
0.0
 10
12.3880285962
 20
8.1333932882
 30
0.0
 10
12.386319937
 20
8.1323793399
 30
0.0
 10
12.3850384425
 20
8.1316188786
 30
0.0
 10
12.3841841129
 20
8.1311119044
 30
0.0
  0
SPLINE
  5
420
100
AcDbEntity
  8
0
100
AcDbSpline
 62
4
  6
CONTINUOUS
 70
0
 71
3
 72
295
 73
291
 74
0
 42
0.0000001
 43
0.0000001
 44
0.0000000001
 40
0.0
 40
0.0
 40
0.0
 40
0.0
 40
0.015625
 40
0.0234375
 40
0.03125
 40
0.0390625
 40
0.046875
 40
0.05078125
 40
0.0546875
 40
0.056640625
 40
0.05859375
 40
0.060546875
 40
0.0615234375
 40
0.0620117188
 40
0.0625
 40
0.0629882812
 40
0.0634765625
 40
0.064453125
 40
0.06640625
 40
0.068359375
 40
0.0703125
 40
0.07421875
 40
0.078125
 40
0.0859375
 40
0.09375
 40
0.1015625
 40
0.109375
 40
0.11328125
 40
0.1171875
 40
0.119140625
 40
0.12109375
 40
0.123046875
 40
0.1240234375
 40
0.1245117188
 40
0.125
 40
0.1254882812
 40
0.1259765625
 40
0.126953125
 40
0.12890625
 40
0.130859375
 40
0.1328125
 40
0.13671875
 40
0.140625
 40
0.1484375
 40
0.15625
 40
0.1640625
 40
0.171875
 40
0.17578125
 40
0.1796875
 40
0.181640625
 40
0.18359375
 40
0.185546875
 40
0.1865234375
 40
0.1870117188
 40
0.1875
 40
0.1879882812
 40
0.1884765625
 40
0.189453125
 40
0.19140625
 40
0.193359375
 40
0.1953125
 40
0.19921875
 40
0.203125
 40
0.2109375
 40
0.21875
 40
0.2265625
 40
0.234375
 40
0.23828125
 40
0.2421875
 40
0.24609375
 40
0.248046875
 40
0.2490234375
 40
0.25
 40
0.2509765625
 40
0.251953125
 40
0.25390625
 40
0.2578125
 40
0.26171875
 40
0.265625
 40
0.2734375
 40
0.28125
 40
0.2890625
 40
0.296875
 40
0.30078125
 40
0.3046875
 40
0.30859375
 40
0.310546875
 40
0.3115234375
 40
0.3125
 40
0.3134765625
 40
0.314453125
 40
0.31640625
 40
0.3203125
 40
0.32421875
 40
0.328125
 40
0.3359375
 40
0.34375
 40
0.3515625
 40
0.359375
 40
0.36328125
 40
0.3671875
 40
0.37109375
 40
0.373046875
 40
0.3740234375
 40
0.375
 40
0.3759765625
 40
0.376953125
 40
0.37890625
 40
0.3828125
 40
0.38671875
 40
0.390625
 40
0.3984375
 40
0.40625
 40
0.4140625
 40
0.421875
 40
0.42578125
 40
0.4296875
 40
0.43359375
 40
0.435546875
 40
0.4375
 40
0.439453125
 40
0.44140625
 40
0.4453125
 40
0.44921875
 40
0.453125
 40
0.4609375
 40
0.46875
 40
0.4765625
 40
0.484375
 40
0.48828125
 40
0.4921875
 40
0.49609375
 40
0.498046875
 40
0.4990234375
 40
0.5
 40
0.5009765625
 40
0.501953125
 40
0.50390625
 40
0.5078125
 40
0.51171875
 40
0.515625
 40
0.5234375
 40
0.53125
 40
0.5390625
 40
0.546875
 40
0.55078125
 40
0.5546875
 40
0.556640625
 40
0.55859375
 40
0.560546875
 40
0.5615234375
 40
0.5625
 40
0.5634765625
 40
0.564453125
 40
0.56640625
 40
0.568359375
 40
0.5703125
 40
0.57421875
 40
0.578125
 40
0.5859375
 40
0.59375
 40
0.6015625
 40
0.609375
 40
0.61328125
 40
0.6171875
 40
0.619140625
 40
0.62109375
 40
0.623046875
 40
0.6240234375
 40
0.6245117188
 40
0.625
 40
0.6254882812
 40
0.6259765625
 40
0.626953125
 40
0.62890625
 40
0.630859375
 40
0.6328125
 40
0.63671875
 40
0.640625
 40
0.6484375
 40
0.65625
 40
0.6640625
 40
0.671875
 40
0.67578125
 40
0.6796875
 40
0.681640625
 40
0.68359375
 40
0.685546875
 40
0.6865234375
 40
0.6870117188
 40
0.6875
 40
0.6879882812
 40
0.6884765625
 40
0.689453125
 40
0.69140625
 40
0.693359375
 40
0.6953125
 40
0.69921875
 40
0.703125
 40
0.7109375
 40
0.71875
 40
0.7265625
 40
0.734375
 40
0.73828125
 40
0.7421875
 40
0.744140625
 40
0.74609375
 40
0.748046875
 40
0.7490234375
 40
0.7495117188
 40
0.75
 40
0.7504882812
 40
0.7509765625
 40
0.751953125
 40
0.75390625
 40
0.755859375
 40
0.7578125
 40
0.76171875
 40
0.765625
 40
0.7734375
 40
0.78125
 40
0.7890625
 40
0.796875
 40
0.80078125
 40
0.8046875
 40
0.806640625
 40
0.80859375
 40
0.810546875
 40
0.8115234375
 40
0.8120117188
 40
0.8125
 40
0.8129882812
 40
0.8134765625
 40
0.814453125
 40
0.81640625
 40
0.818359375
 40
0.8203125
 40
0.82421875
 40
0.828125
 40
0.8359375
 40
0.84375
 40
0.8515625
 40
0.85546875
 40
0.859375
 40
0.86328125
 40
0.8671875
 40
0.869140625
 40
0.87109375
 40
0.873046875
 40
0.8740234375
 40
0.8745117188
 40
0.875
 40
0.8754882812
 40
0.8759765625
 40
0.876953125
 40
0.87890625
 40
0.880859375
 40
0.8828125
 40
0.88671875
 40
0.890625
 40
0.89453125
 40
0.8984375
 40
0.90625
 40
0.9140625
 40
0.91796875
 40
0.921875
 40
0.92578125
 40
0.9296875
 40
0.931640625
 40
0.93359375
 40
0.9345703125
 40
0.935546875
 40
0.9365234375
 40
0.9370117188
 40
0.9375
 40
0.9379882812
 40
0.9384765625
 40
0.939453125
 40
0.9404296875
 40
0.94140625
 40
0.943359375
 40
0.9453125
 40
0.94921875
 40
0.953125
 40
0.95703125
 40
0.9609375
 40
0.96875
 40
0.9765625
 40
0.984375
 40
1.0
 40
1.0
 40
1.0
 40
1.0
 10
12.3841841174
 20
8.1311119088
 30
0.0
 10
12.3833445832
 20
8.1299937694
 30
0.0
 10
12.382085282
 20
8.1283165604
 30
0.0
 10
12.3804062137
 20
8.1260802809
 30
0.0
 10
12.3791469124
 20
8.1244030736
 30
0.0
 10
12.3778876115
 20
8.1227258575
 30
0.0
 10
12.3768381926
 20
8.1213282049
 30
0.0
 10
12.3759986609
 20
8.1202100212
 30
0.0
 10
12.3754739457
 20
8.1195112969
 30
0.0
 10
12.3750541916
 20
8.1189519955
 30
0.0
 10
12.3747393267
 20
8.1185334009
 30
0.0
 10
12.3744770961
 20
8.1181817682
 30
0.0
 10
12.374293227
 20
8.1179411278
 30
0.0
 10
12.3741886394
 20
8.1177950273
 30
0.0
 10
12.3741088452
 20
8.1177096548
 30
0.0
 10
12.3740342246
 20
8.1175317667
 30
0.0
 10
12.3739329259
 20
8.1173268531
 30
0.0
 10
12.3737564939
 20
8.1169532189
 30
0.0
 10
12.3735040087
 20
8.1164273164
 30
0.0
 10
12.3732012145
 20
8.1157928688
 30
0.0
 10
12.3727974233
 20
8.1149481138
 30
0.0
 10
12.3722927068
 20
8.1138917677
 30
0.0
 10
12.3714851477
 20
8.112201839
 30
0.0
 10
12.3704757033
 20
8.1100893503
 30
0.0
 10
12.3692643678
 20
8.1075543992
 30
0.0
 10
12.3680530338
 20
8.1050194314
 30
0.0
 10
12.3670435857
 20
8.1029069846
 30
0.0
 10
12.366236034
 20
8.101216972
 30
0.0
 10
12.3657312988
 20
8.1001608389
 30
0.0
 10
12.3653275459
 20
8.0993156468
 30
0.0
 10
12.3650246346
 20
8.0986825349
 30
0.0
 10
12.3647725161
 20
8.0981524534
 30
0.0
 10
12.3645954294
 20
8.0977862794
 30
0.0
 10
12.3644951797
 20
8.0975694126
 30
0.0
 10
12.364417337
 20
8.0974282409
 30
0.0
 10
12.3643496444
 20
8.0972049679
 30
0.0
 10
12.3642558472
 20
8.0969359085
 30
0.0
 10
12.3640933516
 20
8.0964517117
 30
0.0
 10
12.3638603526
 20
8.0957669777
 30
0.0
 10
12.363581123
 20
8.094942311
 30
0.0
 10
12.3632086879
 20
8.0938437984
 30
0.0
 10
12.3627431881
 20
8.0924703005
 30
0.0
 10
12.3619983639
 20
8.0902729036
 30
0.0
 10
12.3610673421
 20
8.0875260884
 30
0.0
 10
12.3599501119
 20
8.0842299416
 30
0.0
 10
12.358832884
 20
8.0809337796
 30
0.0
 10
12.3579018567
 20
8.0781870026
 30
0.0
 10
12.3571570435
 20
8.0759895294
 30
0.0
 10
12.3566915156
 20
8.0746162252
 30
0.0
 10
12.3563191384
 20
8.0735173151
 30
0.0
 10
12.3560397316
 20
8.0726938628
 30
0.0
 10
12.355807287
 20
8.0720053293
 30
0.0
 10
12.3556438018
 20
8.0715279153
 30
0.0
 10
12.3555515901
 20
8.071247988
 30
0.0
 10
12.3554790275
 20
8.0710580976
 30
0.0
 10
12.3554194758
 20
8.0707915469
 30
0.0
 10
12.3553355352
 20
8.070462886
 30
0.0
 10
12.3551907537
 20
8.0698752707
 30
0.0
 10
12.3549828175
 20
8.0690423339
 30
0.0
 10
12.3547337673
 20
8.0680400217
 30
0.0
 10
12.354401535
 20
8.0667045792
 30
0.0
 10
12.3539863013
 20
8.0650349426
 30
0.0
 10
12.3533218955
 20
8.0623637108
 30
0.0
 10
12.3524914003
 20
8.0590246044
 30
0.0
 10
12.3514947958
 20
8.0550177166
 30
0.0
 10
12.3504982134
 20
8.0510107761
 30
0.0
 10
12.3496676629
 20
8.0476718012
 30
0.0
 10
12.349003368
 20
8.0450003065
 30
0.0
 10
12.3485047492
 20
8.0429975446
 30
0.0
 10
12.3480904983
 20
8.0413258437
 30
0.0
 10
12.3477980407
 20
8.0401610157
 30
0.0
 10
12.3476347974
 20
8.0394870264
 30
0.0
 10
12.347501448
 20
8.0390051221
 30
0.0
 10
12.3474098288
 20
8.0384330539
 30
0.0
 10
12.3472731138
 20
8.0377017464
 30
0.0
 10
12.3470406446
 20
8.0364073051
 30
0.0
 10
12.346705
 20
8.0345657642
 30
0.0
 10
12.3463037443
 20
8.0323526358
 30
0.0
 10
12.3457682062
 20
8.0294029438
 30
0.0
 10
12.3450989669
 20
8.0257154337
 30
0.0
 10
12.3442957957
 20
8.0212905993
 30
0.0
 10
12.3434926676
 20
8.0168656858
 30
0.0
 10
12.3428233204
 20
8.0131783738
 30
0.0
 10
12.3422879981
 20
8.0102282855
 30
0.0
 10
12.3418860844
 20
8.0080163659
 30
0.0
 10
12.341552498
 20
8.0061710435
 30
0.0
 10
12.3413163547
 20
8.0048833526
 30
0.0
 10
12.3411855266
 20
8.0041412293
 30
0.0
 10
12.3410758248
 20
8.003602384
 30
0.0
 10
12.3410103907
 20
8.0029956998
 30
0.0
 10
12.3409077041
 20
8.0022104505
 30
0.0
 10
12.340735197
 20
8.0008252393
 30
0.0
 10
12.3404849969
 20
7.9988521302
 30
0.0
 10
12.3401863668
 20
7.9964819319
 30
0.0
 10
12.3397876308
 20
7.9933225296
 30
0.0
 10
12.3392894052
 20
7.9893729801
 30
0.0
 10
12.338691445
 20
7.9846336514
 30
0.0
 10
12.3380935317
 20
7.9798942742
 30
0.0
 10
12.3375951889
 20
7.975944846
 30
0.0
 10
12.3371966872
 20
7.972785201
 30
0.0
 10
12.3368973422
 20
7.9704157429
 30
0.0
 10
12.3366493787
 20
7.9684403185
 30
0.0
 10
12.336472879
 20
7.9670592402
 30
0.0
 10
12.3363765894
 20
7.966267369
 30
0.0
 10
12.3362915061
 20
7.9656810254
 30
0.0
 10
12.3362556035
 20
7.9650657843
 30
0.0
 10
12.3361905786
 20
7.9642555425
 30
0.0
 10
12.3360847778
 20
7.9628329232
 30
0.0
 10
12.3359294551
 20
7.9608030651
 30
0.0
 10
12.3357448564
 20
7.9583661844
 30
0.0
 10
12.3354981006
 20
7.9551173772
 30
0.0
 10
12.3351898658
 20
7.9510562429
 30
0.0
 10
12.3348199124
 20
7.9461829329
 30
0.0
 10
12.3344499097
 20
7.9413096185
 30
0.0
 10
12.3341417981
 20
7.9372484954
 30
0.0
 10
12.3338947961
 20
7.9339996658
 30
0.0
 10
12.3337109482
 20
7.9315628533
 30
0.0
 10
12.3335532766
 20
7.929532782
 30
0.0
 10
12.3334371535
 20
7.9279073663
 30
0.0
 10
12.3333226977
 20
7.9266920169
 30
0.0
 10
12.3333126885
 20
7.9254624975
 30
0.0
 10
12.3332628584
 20
7.923828088
 30
0.0
 10
12.3332130884
 20
7.9217833779
 30
0.0
 10
12.3331480064
 20
7.9193304527
 30
0.0
 10
12.3330631019
 20
7.9160596316
 30
0.0
 10
12.3329563306
 20
7.9119711945
 30
0.0
 10
12.3328284729
 20
7.9070650229
 30
0.0
 10
12.3327005685
 20
7.9021588965
 30
0.0
 10
12.332593914
 20
7.8980703462
 30
0.0
 10
12.3325087759
 20
7.8947997515
 30
0.0
 10
12.3324444062
 20
7.892346136
 30
0.0
 10
12.3323924081
 20
7.8903035854
 30
0.0
 10
12.3323527841
 20
7.888869622
 30
0.0
 10
12.3323351779
 20
7.888056738
 30
0.0
 10
12.3323077867
 20
7.8874286978
 30
0.0
 10
12.3323346236
 20
7.8868709044
 30
0.0
 10
12.3323514907
 20
7.8861026771
 30
0.0
 10
12.3323898213
 20
7.8847696956
 30
0.0
 10
12.3324399716
 20
7.8828594677
 30
0.0
 10
12.3325021242
 20
7.8805697489
 30
0.0
 10
12.3325843054
 20
7.8775158983
 30
0.0
 10
12.332687268
 20
7.8736988905
 30
0.0
 10
12.3328107236
 20
7.8691183532
 30
0.0
 10
12.3329341994
 20
7.864537839
 30
0.0
 10
12.3330371117
 20
7.8607207733
 30
0.0
 10
12.3331193935
 20
7.8576670386
 30
0.0
 10
12.3331709316
 20
7.8557586451
 30
0.0
 10
12.3332119055
 20
7.854231493
 30
0.0
 10
12.3332433384
 20
7.8530873265
 30
0.0
 10
12.333267298
 20
7.8521300449
 30
0.0
 10
12.3332914771
 20
7.8513727635
 30
0.0
 10
12.3332959179
 20
7.8507814566
 30
0.0
 10
12.333352627
 20
7.8502792613
 30
0.0
 10
12.3334099811
 20
7.8495785398
 30
0.0
 10
12.3334879379
 20
7.8487133177
 30
0.0
 10
12.3335788049
 20
7.8476704799
 30
0.0
 10
12.3337008973
 20
7.8462816262
 30
0.0
 10
12.3338531922
 20
7.8445450123
 30
0.0
 10
12.3340970432
 20
7.8417667356
 30
0.0
 10
12.3344017956
 20
7.8382937852
 30
0.0
 10
12.3347675243
 20
7.8341262881
 30
0.0
 10
12.3351332482
 20
7.8299587849
 30
0.0
 10
12.3354380124
 20
7.8264858499
 30
0.0
 10
12.3356818398
 20
7.8237075424
 30
0.0
 10
12.3358341946
 20
7.8219710067
 30
0.0
 10
12.3359561641
 20
7.8205819926
 30
0.0
 10
12.3360474066
 20
7.8195396446
 30
0.0
 10
12.3361241884
 20
7.8186728901
 30
0.0
 10
12.336176471
 20
7.8180624943
 30
0.0
 10
12.3362086337
 20
7.8177194235
 30
0.0
 10
12.3362263134
 20
7.8174459878
 30
0.0
 10
12.336268619
 20
7.8172342195
 30
0.0
 10
12.3363164367
 20
7.8169303515
 30
0.0
 10
12.3364041198
 20
7.8164086045
 30
0.0
 10
12.336527289
 20
7.8156580121
 30
0.0
 10
12.3366759877
 20
7.8147595439
 30
0.0
 10
12.3368739398
 20
7.813560803
 30
0.0
 10
12.337121487
 20
7.812062645
 30
0.0
 10
12.3375175027
 20
7.8096654424
 30
0.0
 10
12.338012543
 20
7.8066689909
 30
0.0
 10
12.3386065819
 20
7.8030732252
 30
0.0
 10
12.3392006254
 20
7.7994774722
 30
0.0
 10
12.3396956541
 20
7.7964809888
 30
0.0
 10
12.340091693
 20
7.7940838501
 30
0.0
 10
12.3403391811
 20
7.7925855295
 30
0.0
 10
12.3405372547
 20
7.7913871224
 30
0.0
 10
12.3406855821
 20
7.7904876344
 30
0.0
 10
12.3408099129
 20
7.7897402326
 30
0.0
 10
12.3408955224
 20
7.7892127898
 30
0.0
 10
12.3409466625
 20
7.788918048
 30
0.0
 10
12.3409787629
 20
7.788678247
 30
0.0
 10
12.3410347718
 20
7.7885100974
 30
0.0
 10
12.3411011107
 20
7.7882609052
 30
0.0
 10
12.3412210894
 20
7.7878364633
 30
0.0
 10
12.3413904562
 20
7.7872240299
 30
0.0
 10
12.3415945658
 20
7.7864917156
 30
0.0
 10
12.3418664082
 20
7.7855143864
 30
0.0
 10
12.3422063153
 20
7.7842930366
 30
0.0
 10
12.3427501084
 20
7.7823387026
 30
0.0
 10
12.3434298699
 20
7.7798958454
 30
0.0
 10
12.3442455747
 20
7.7769643887
 30
0.0
 10
12.3450612834
 20
7.7740329479
 30
0.0
 10
12.345741035
 20
7.7715900508
 30
0.0
 10
12.346284848
 20
7.7696357966
 30
0.0
 10
12.3466247045
 20
7.7684142438
 30
0.0
 10
12.3468966506
 20
7.7674373313
 30
0.0
 10
12.3471004436
 20
7.7667037441
 30
0.0
 10
12.3472708009
 20
7.7660952932
 30
0.0
 10
12.3473890114
 20
7.7656637419
 30
0.0
 10
12.3474581835
 20
7.7654259408
 30
0.0
 10
12.3475054897
 20
7.7652228014
 30
0.0
 10
12.3475702759
 20
7.7651144161
 30
0.0
 10
12.3476505602
 20
7.7649368511
 30
0.0
 10
12.3477938986
 20
7.7646415114
 30
0.0
 10
12.3479971825
 20
7.7642115468
 30
0.0
 10
12.3482417589
 20
7.7636990353
 30
0.0
 10
12.3485676388
 20
7.763014483
 30
0.0
 10
12.3489750646
 20
7.7621592047
 30
0.0
 10
12.3496269035
 20
7.7607905291
 30
0.0
 10
12.3504417167
 20
7.7590797642
 30
0.0
 10
12.351419486
 20
7.7570268098
 30
0.0
 10
12.3523972583
 20
7.7549738739
 30
0.0
 10
12.3532120638
 20
7.7532630629
 30
0.0
 10
12.3538639181
 20
7.7518944793
 30
0.0
 10
12.3542713046
 20
7.7510389672
 30
0.0
 10
12.3545972653
 20
7.7503548948
 30
0.0
 10
12.3548415947
 20
7.7498409172
 30
0.0
 10
12.3550456515
 20
7.7494155397
 30
0.0
 10
12.3551876101
 20
7.7491120112
 30
0.0
 10
12.3552701053
 20
7.7489475668
 30
0.0
 10
12.3553281003
 20
7.7487988791
 30
0.0
 10
12.3554009128
 20
7.7487471087
 30
0.0
 10
12.3554928275
 20
7.7486442757
 30
0.0
 10
12.3556560864
 20
7.7484800687
 30
0.0
 10
12.3558880544
 20
7.7482372525
 30
0.0
 10
12.356166955
 20
7.7479493979
 30
0.0
 10
12.3565386341
 20
7.7475643605
 30
0.0
 10
12.3570032974
 20
7.7470834854
 30
0.0
 10
12.3577467228
 20
7.7463138496
 30
0.0
 10
12.3586760169
 20
7.7453518855
 30
0.0
 10
12.3597911645
 20
7.7441974947
 30
0.0
 10
12.3607204551
 20
7.743235508
 30
0.0
 10
12.3614638879
 20
7.7424659219
 30
0.0
 10
12.3620214612
 20
7.7418887192
 30
0.0
 10
12.3625790396
 20
7.7413115673
 30
0.0
 10
12.3630436723
 20
7.7408304491
 30
0.0
 10
12.3634154142
 20
7.7404459091
 30
0.0
 10
12.363694123
 20
7.7401565354
 30
0.0
 10
12.3639266907
 20
7.7399184717
 30
0.0
 10
12.3640888792
 20
7.7397457808
 30
0.0
 10
12.3641825089
 20
7.7396565411
 30
0.0
 10
12.3642500534
 20
7.7395630163
 30
0.0
 10
12.3643278339
 20
7.7395711513
 30
0.0
 10
12.3644279708
 20
7.7395465379
 30
0.0
 10
12.3646048739
 20
7.739519986
 30
0.0
 10
12.3648567228
 20
7.739473417
 30
0.0
 10
12.3651593138
 20
7.7394212315
 30
0.0
 10
12.3655626385
 20
7.7393503592
 30
0.0
 10
12.3660668389
 20
7.7392622121
 30
0.0
 10
12.3666718603
 20
7.7391562456
 30
0.0
 10
12.3672768868
 20
7.7390503299
 30
0.0
 10
12.368083587
 20
7.7389090913
 30
0.0
 10
12.3690919629
 20
7.7387325489
 30
0.0
 10
12.3701003386
 20
7.7385560049
 30
0.0
 10
12.3709070391
 20
7.7384147688
 30
0.0
 10
12.3715120647
 20
7.7383088454
 30
0.0
 10
12.3721170894
 20
7.7382029079
 30
0.0
 10
12.3726212798
 20
7.7381146707
 30
0.0
 10
12.3730246248
 20
7.7380439822
 30
0.0
 10
12.373276732
 20
7.7380000267
 30
0.0
 10
12.37347838
 20
7.7379643474
 30
0.0
 10
12.3736297195
 20
7.7379389976
 30
0.0
 10
12.3737555062
 20
7.7379133886
 30
0.0
 10
12.3738568746
 20
7.7379029585
 30
0.0
 10
12.3739308817
 20
7.7378676551
 30
0.0
 10
12.3740125962
 20
7.7379372465
 30
0.0
 10
12.3741188566
 20
7.737993394
 30
0.0
 10
12.3742526058
 20
7.7380761497
 30
0.0
 10
12.3744127094
 20
7.7381700756
 30
0.0
 10
12.3746263191
 20
7.7382971896
 30
0.0
 10
12.3748932838
 20
7.7384554386
 30
0.0
 10
12.3753204539
 20
7.7387089966
 30
0.0
 10
12.3758544073
 20
7.7390258207
 30
0.0
 10
12.3764951554
 20
7.7394060625
 30
0.0
 10
12.3771359024
 20
7.7397862901
 30
0.0
 10
12.3779902321
 20
7.7402932653
 30
0.0
 10
12.3790581441
 20
7.7409269825
 30
0.0
 10
12.3803396386
 20
7.7416874439
 30
0.0
 10
12.3820482978
 20
7.7427013923
 30
0.0
 10
12.3833297923
 20
7.7434618535
 30
0.0
 10
12.3841841219
 20
7.7439688277
 30
0.0
  0
ENDSEC
  0
SECTION
  2
OBJECTS
  0
DICTIONARY
  5
C
100
AcDbDictionary
280
0
281
1
  3
ACAD_GROUP
350
D
  3
ACAD_MLINESTYLE
350
17
  3
ACAD_LAYOUT
350
1A
  3
ACAD_PLOTSETTINGS
350
19
  3
ACAD_PLOTSTYLENAME
350
E
  3
ACAD_IMAGE_DICT
350
       422
  3
ACAD_IMAGE_VARS
350
       423
  3
ACAD_TABLESTYLE
350
       424
  0
IMAGEDEF_REACTOR
  5
421
100
AcDbRasterImageDefReactor
 90
2
330
287
  0
DICTIONARY
  5
D
102
{ACAD_REACTORS
330
C
102
}
100
AcDbDictionary
280
0
281
1
  0
ACDBDICTIONARYWDFLT
  5
E
102
{ACAD_REACTORS
330
C
102
}
100
AcDbDictionary
281
1
  3
Normal
350
F
100
AcDbDictionaryWithDefault
340
F
  0
DICTIONARY
  5
422
330
C
100
AcDbDictionary
281
1
  3
B8B_assy_2_img_1
350
       427
  0
RASTERVARIABLES
  5
423
330
C
100
AcDbRasterVariables
 90
0
 70
0
 71
1
 72
5
  0
DICTIONARY
  5
17
102
{ACAD_REACTORS
330
C
102
}
100
AcDbDictionary
280
0
281
1
  3
Standard
350
18
  0
DICTIONARY
  5
424
330
C
100
AcDbDictionary
281
1
  3
Standard
350
       428
  3
Standard1
350
       429
  0
DICTIONARY
  5
19
102
{ACAD_REACTORS
330
C
102
}
100
AcDbDictionary
281
1
  0
DICTIONARY
  5
1A
102
{ACAD_REACTORS
330
C
102
}
100
AcDbDictionary
281
1
  3
Model
350
425
  3
Layout1
350
426
  0
ACDBPLACEHOLDER
  5
F
102
{ACAD_REACTORS
330
E
102
}
  0
MLINESTYLE
  5
18
102
{ACAD_REACTORS
330
17
102
}
100
AcDbMlineStyle
  2
STANDARD
 70
0
  3

 62
256
 51
90.0
 52
90.0
 71
2
 49
0.5
 62
256
  6
BYLAYER
 49
-0.5
 62
256
  6
BYLAYER
  0
LAYOUT
  5
425
102
{ACAD_REACTORS
330
1A
102
}
100
AcDbPlotSettings
  1

  2
none_device
  4
ANSI_C_(22.00_x_17.00_Inches)
  6

 40
0.0
 41
0.0
 42
0.0
 43
0.0
 44
558.8
 45
431.8
 46
0.0
 47
0.0
 48
0.0
 49
0.0
140
0.0
141
0.0
142
1.0
143
1.0
 70
1024
 72
0
 73
0
 74
0
  7

 75
0
147
1.0
148
0.0
149
0.0
100
AcDbLayout
  1
Model
 70
0
 71
0
 10
0.0
 20
0.0
 11
22.0
 21
17.0
 12
0.0
 22
0.0
 32
0.0
 14
0.0
 24
0.0
 34
0.0
 15
0.0
 25
0.0
 35
0.0
146
0.0
 13
0.0
 23
0.0
 33
0.0
 16
1.0
 26
0.0
 36
0.0
 17
0.0
 27
1.0
 37
0.0
 76
0
330
20C
345
0
346
0
  0
LAYOUT
  5
426
102
{ACAD_REACTORS
330
1A
102
}
100
AcDbPlotSettings
  1

  2
none_device
  4
ANSI_C_(22.00_x_17.00_Inches)
  6

 40
0.0
 41
0.0
 42
0.0
 43
0.0
 44
558.8
 45
431.8
 46
0.0
 47
0.0
 48
0.0
 49
0.0
140
0.0
141
0.0
142
1.0
143
1.0
 70
0
 72
0
 73
0
 74
0
  7

 75
0
147
1.0
148
0.0
149
0.0
100
AcDbLayout
  1
Layout1
 70
0
 71
1
 10
0.0
 20
0.0
 11
22.0
 21
17.0
 12
0.0
 22
0.0
 32
0.0
 14
0.0
 24
0.0
 34
0.0
 15
0.0
 25
0.0
 35
0.0
146
0.0
 13
0.0
 23
0.0
 33
0.0
 16
1.0
 26
0.0
 36
0.0
 17
0.0
 27
1.0
 37
0.0
 76
0
330
20D
345
0
346
0
  0
IMAGEDEF
  5
427
102
{ACAD_REACTORS
330
422
330
421
102
}
100
AcDbRasterImageDef
 90
0
  1
B8B_assy_2_img_1.png
 10
369.0
 20
92.0
 11
0.0066666667
 21
0.0066666667
280
1
281
0
  0
TABLESTYLE
  5
428
102
{ACAD_REACTORS
330
424
330
28A
330
28B
102
}
330
424
100
AcDbTableStyle
  3
Standard
 70
0
 71
0
 40
0.06
 41
0.06
280
1
281
1
  7
Standard
140
0.18
170
1
 62
0
 63
7
283
0
  7
Standard
140
0.18
170
1
 62
0
 63
7
283
0
  7
Standard
140
0.18
170
1
 62
0
 63
7
283
0
  0
TABLESTYLE
  5
429
102
{ACAD_REACTORS
330
424
330
289
102
}
330
424
100
AcDbTableStyle
  3
Standard1
 70
1
 71
0
 40
0.06
 41
0.06
280
1
281
1
  7
Standard
140
0.18
170
1
 62
0
 63
7
283
0
  7
Standard
140
0.18
170
1
 62
0
 63
7
283
0
  7
Standard
140
0.18
170
1
 62
0
 63
7
283
0
  0
ENDSEC
  0
EOF
