999
DXF file: B7W_assy_2.dxf
999
Pro/ENGINEER 2014200 by Parametric Technology Corporation
  0
SECTION
  2
HEADER
  9
$ACADVER
  1
AC1021
  9
$DWGCODEPAGE
  3
ANSI_1252
  9
$EXTMAX
 10
22.0
 20
17.0
 30
0.0
  9
$EXTMIN
 10
0.0
 20
0.0
 30
0.0
  9
$LIMMIN
 10
0.0
 20
0.0
  9
$LIMMAX
 10
22.0
 20
17.0
  9
$VIEWCTR
 10
11.0
 20
8.5
  9
$VIEWSIZE
 40
17.0
  9
$CLAYER
  8
0
  9
$LTSCALE
 40
1.21
  9
$CELTYPE
  6
BYLAYER
  9
$DIMSCALE
 40
1.0
  9
$DIMASZ
 40
0.1875
  9
$DIMEXO
 40
0.0625
  9
$DIMDLI
 40
0.836
  9
$DIMEXE
 40
0.125
  9
$DIMCEN
 40
0.198
  9
$DIMLFAC
 40
1.0
  9
$DIMBLK
  1
_FILLED
  9
$DIMTXT
 40
0.1
  9
$DIMTOL
 70
0
  9
$DIMLIM
 70
0
  9
$DIMTFAC
 40
1.0
  9
$DIMGAP
 40
0.09
  9
$DIMDSEP
 70
46
  9
$AUNITS
 70
0
  9
$PDMODE
 70
3
  9
$PDSIZE
 40
0.3125
  9
$HANDSEED
  5
3C8
  9
$TILEMODE
 70
1
  9
$MEASUREMENT
 70
0
  9
$INSUNITS
 70
1
  0
ENDSEC
  0
SECTION
  2
CLASSES
  0
CLASS
  1
ACDBDICTIONARYWDFLT
  2
AcDbDictionaryWithDefault
  3
AutoCAD 2000
 90
0
 91
1
280
0
281
0
  0
CLASS
  1
ACDBPLACEHOLDER
  2
AcDbPlaceHolder
  3
AutoCAD 2000
 90
0
 91
1
280
0
281
0
  0
CLASS
  1
LAYOUT
  2
AcDbLayout
  3
AutoCAD 2000
 90
0
 91
0
280
0
281
0
  0
CLASS
  1
RASTERVARIABLES
  2
AcDbRasterVariables
  3
ISM
 90
0
 91
1
280
0
281
0
  0
CLASS
  1
IMAGEDEF
  2
AcDbRasterImageDef
  3
ISM
 90
0
 91
1
280
0
281
0
  0
CLASS
  1
IMAGEDEF_REACTOR
  2
AcDbRasterImageDefReactor
  3
ISM
 90
0
 91
1
280
0
281
0
  0
CLASS
  1
IMAGE
  2
AcDbRasterImage
  3
ISM
 90
127
 91
1
280
0
281
1
  0
CLASS
  1
TABLESTYLE
  2
AcDbTableStyle
  3
ObjectDBX Classes
 90
2047
 91
1
280
0
281
0
  0
CLASS
  1
ACAD_TABLE
  2
AcDbTable
  3
ObjectDBX Classes
 90
1025
 91
3
280
0
281
1
  0
ENDSEC
  0
SECTION
  2
TABLES
  0
TABLE
  2
VPORT
  5
8
100
AcDbSymbolTable
 70
2
  0
VPORT
  5
1F4
100
AcDbSymbolTableRecord
100
AcDbViewportTableRecord
  2
*ACTIVE
 70
0
 10
0.0
 20
0.0
 11
1.0
 21
1.0
 12
11.0
 22
8.5
 13
0.0
 23
0.0
 14
1.0
 24
1.0
 15
0.0
 25
0.0
 16
0.0
 26
0.0
 36
1.0
 17
0.0
 27
0.0
 37
0.0
 40
17.0
 41
1.2941176471
 42
50.0
 43
0.0
 44
0.0
 50
0.0
 51
0.0
 71
0
 72
100
 73
1
 74
1
 75
0
 76
0
 77
0
 78
0
  0
ENDTAB
  0
TABLE
  2
LTYPE
  5
5
100
AcDbSymbolTable
 70
6
  0
LTYPE
  5
14
100
AcDbSymbolTableRecord
100
AcDbLinetypeTableRecord
  2
BYBLOCK
 70
0
  3

 72
65
 73
0
 40
0.0
  0
LTYPE
  5
15
100
AcDbSymbolTableRecord
100
AcDbLinetypeTableRecord
  2
BYLAYER
 70
0
  3

 72
65
 73
0
 40
0.0
  0
LTYPE
  5
16
100
AcDbSymbolTableRecord
100
AcDbLinetypeTableRecord
  2
CONTINUOUS
 70
64
  3
Solid line
 72
65
 73
0
 40
0.0
  0
LTYPE
  5
1F5
100
AcDbSymbolTableRecord
100
AcDbLinetypeTableRecord
  2
CENTER
 70
64
  3
____ _ ____ _ ____ _ ____ _ ____ _ ____ _ ____
 72
65
 73
4
 40
0.6
 49
0.375
 74
0
 49
-0.075
 74
0
 49
0.075
 74
0
 49
-0.075
 74
0
  0
LTYPE
  5
1F6
100
AcDbSymbolTableRecord
100
AcDbLinetypeTableRecord
  2
HIDDEN
 70
64
  3
- - - - - - - - - - - - - - - - - - - -
 72
65
 73
2
 40
0.2
 49
0.1
 74
0
 49
-0.1
 74
0
  0
LTYPE
  5
1F7
100
AcDbSymbolTableRecord
100
AcDbLinetypeTableRecord
  2
PHANTOM
 70
64
  3
_____ _ _ _____ _ _ _____ _ _ _____
 72
65
 73
6
 40
0.8
 49
0.45
 74
0
 49
-0.05
 74
0
 49
0.1
 74
0
 49
-0.05
 74
0
 49
0.1
 74
0
 49
-0.05
 74
0
  0
LTYPE
  5
1F8
100
AcDbSymbolTableRecord
100
AcDbLinetypeTableRecord
  2
DOT
 70
64
  3
. . . . . . . . . . . . . . . . . . . .
 72
65
 73
2
 40
0.2
 49
0.1
 74
0
 49
-0.1
 74
0
  0
LTYPE
  5
1F9
100
AcDbSymbolTableRecord
100
AcDbLinetypeTableRecord
  2
DASHED
 70
64
  3
- - - - - - - - - - - - - - - - - - - -
 72
65
 73
2
 40
0.2
 49
0.1
 74
0
 49
-0.1
 74
0
  0
ENDTAB
  0
TABLE
  2
LAYER
  5
2
100
AcDbSymbolTable
 70
36
  0
LAYER
  5
10
100
AcDbSymbolTableRecord
100
AcDbLayerTableRecord
  2
0
 70
0
 62
7
  6
CONTINUOUS
370
-3
390
F
  0
LAYER
  5
1FA
100
AcDbSymbolTableRecord
100
AcDbLayerTableRecord
  2
DEFAULT_1
 70
0
 62
7
  6
CENTER
370
-3
390
F
  0
LAYER
  5
1FB
100
AcDbSymbolTableRecord
100
AcDbLayerTableRecord
  2
DEFAULT_2
 70
0
 62
8
  6
HIDDEN
370
-3
390
F
  0
LAYER
  5
1FC
100
AcDbSymbolTableRecord
100
AcDbLayerTableRecord
  2
DEFAULT_3
 70
0
 62
7
  6
PHANTOM
370
-3
390
F
  0
LAYER
  5
1FD
100
AcDbSymbolTableRecord
100
AcDbLayerTableRecord
  2
01___PRT_ALL_DTM_PLN
 70
0
 62
7
  6
CONTINUOUS
370
-3
390
F
  0
LAYER
  5
1FE
100
AcDbSymbolTableRecord
100
AcDbLayerTableRecord
  2
01___PRT_DEF_DTM_PLN
 70
0
 62
7
  6
CONTINUOUS
370
-3
390
F
  0
LAYER
  5
1FF
100
AcDbSymbolTableRecord
100
AcDbLayerTableRecord
  2
02___PRT_ALL_AXES
 70
0
 62
7
  6
CONTINUOUS
370
-3
390
F
  0
LAYER
  5
200
100
AcDbSymbolTableRecord
100
AcDbLayerTableRecord
  2
03___PRT_ALL_CURVES
 70
0
 62
7
  6
CONTINUOUS
370
-3
390
F
  0
LAYER
  5
201
100
AcDbSymbolTableRecord
100
AcDbLayerTableRecord
  2
04___PRT_ALL_DTM_PNT
 70
0
 62
7
  6
CONTINUOUS
370
-3
390
F
  0
LAYER
  5
202
100
AcDbSymbolTableRecord
100
AcDbLayerTableRecord
  2
05___PRT_ALL_DTM_CSYS
 70
0
 62
7
  6
CONTINUOUS
370
-3
390
F
  0
LAYER
  5
203
100
AcDbSymbolTableRecord
100
AcDbLayerTableRecord
  2
05___PRT_DEF_DTM_CSYS
 70
0
 62
7
  6
CONTINUOUS
370
-3
390
F
  0
LAYER
  5
204
100
AcDbSymbolTableRecord
100
AcDbLayerTableRecord
  2
06___PRT_ALL_SURFS
 70
0
 62
7
  6
CONTINUOUS
370
-3
390
F
  0
LAYER
  5
205
100
AcDbSymbolTableRecord
100
AcDbLayerTableRecord
  2
DATUM_PLANES
 70
0
 62
7
  6
CONTINUOUS
370
-3
390
F
  0
LAYER
  5
206
100
AcDbSymbolTableRecord
100
AcDbLayerTableRecord
  2
PORT_AREAS
 70
0
 62
7
  6
CONTINUOUS
370
-3
390
F
  0
LAYER
  5
207
100
AcDbSymbolTableRecord
100
AcDbLayerTableRecord
  2
SUNNBOMCOSMETIC
 70
0
 62
7
  6
CONTINUOUS
370
-3
390
F
  0
LAYER
  5
208
100
AcDbSymbolTableRecord
100
AcDbLayerTableRecord
  2
SUNNBOMSTAMPING
 70
0
 62
7
  6
CONTINUOUS
370
-3
390
F
  0
LAYER
  5
209
100
AcDbSymbolTableRecord
100
AcDbLayerTableRecord
  2
THREADS
 70
0
 62
7
  6
CONTINUOUS
370
-3
390
F
  0
ENDTAB
  0
TABLE
  2
STYLE
  5
3
100
AcDbSymbolTable
 70
1
  0
STYLE
  5
11
100
AcDbSymbolTableRecord
100
AcDbTextStyleTableRecord
  2
STANDARD
 70
0
 40
0.0
 41
0.8
 50
0.0
 71
0
 42
0.2
  3
txt
  4

  0
STYLE
  5
20A
100
AcDbSymbolTableRecord
100
AcDbTextStyleTableRecord
  2
TEXTSTYLE_1
 70
0
 40
0.0
 41
0.8
 50
0.0
 71
0
 42
0.2
  3
gdt
  4

  0
ENDTAB
  0
TABLE
  2
VIEW
  5
6
100
AcDbSymbolTable
 70
0
  0
ENDTAB
  0
TABLE
  2
UCS
  5
7
100
AcDbSymbolTable
 70
0
  0
ENDTAB
  0
TABLE
  2
APPID
  5
9
100
AcDbSymbolTable
 70
1
  0
APPID
  5
20B
100
AcDbSymbolTableRecord
100
AcDbRegAppTableRecord
  2
ACAD
 70
0
  0
ENDTAB
  0
TABLE
  2
BLOCK_RECORD
  5
1
100
AcDbSymbolTable
 70
0
  0
BLOCK_RECORD
  5
20C
100
AcDbSymbolTableRecord
100
AcDbBlockTableRecord
  2
*Model_Space
  0
BLOCK_RECORD
  5
20D
100
AcDbSymbolTableRecord
100
AcDbBlockTableRecord
  2
*Paper_Space
  0
BLOCK_RECORD
  5
20E
100
AcDbSymbolTableRecord
100
AcDbBlockTableRecord
  2
SUN_FIRST_THIRD_ANGLE_BL0
  0
BLOCK_RECORD
  5
20F
100
AcDbSymbolTableRecord
100
AcDbBlockTableRecord
  2
*T1
  0
BLOCK_RECORD
  5
210
100
AcDbSymbolTableRecord
100
AcDbBlockTableRecord
  2
*T2
  0
BLOCK_RECORD
  5
211
100
AcDbSymbolTableRecord
100
AcDbBlockTableRecord
  2
*T3
  0
ENDTAB
  0
TABLE
  2
DIMSTYLE
  5
A
100
AcDbSymbolTable
 70
1
100
AcDbDimStyleTable
 71
0
  0
DIMSTYLE
105
212
100
AcDbSymbolTableRecord
100
AcDbDimStyleTableRecord
  2
STANDARD
 70
0
  3

  4

 40
1.0
 41
0.1875
 42
0.0625
 43
0.38
 44
0.125
 45
0.0
 46
0.0
 47
0.001
 48
0.001
140
0.1
141
0.09
142
0.0
143
25.4
144
1.0
145
0.0
146
1.0
147
0.09
 71
0.0
 72
0.0
 73
1
 74
1
 75
0
 76
0
 77
0
 78
4
170
0
171
2
172
0
173
0
174
0
175
0
176
0
177
0
178
0
270
2
271
3
272
3
273
2
274
2
275
0
280
0
281
0
282
0
283
1
284
4
285
0
286
0
287
3
288
0
340
11
278
46
  0
ENDTAB
  0
ENDSEC
  0
SECTION
  2
BLOCKS
  0
BLOCK
  5
20
100
AcDbEntity
  8
0
100
AcDbBlockBegin
  2
*Model_Space
 70
0
 10
0.0
 20
0.0
 30
0.0
  3
*Model_Space
  1

  0
ENDBLK
  5
21
100
AcDbEntity
  8
0
100
AcDbBlockEnd
  0
BLOCK
  5
1C
100
AcDbEntity
  8
0
100
AcDbBlockBegin
  2
*Paper_Space
 70
0
 10
0.0
 20
0.0
 30
0.0
  3
*Paper_Space
  1

  0
ENDBLK
  5
1D
100
AcDbEntity
  8
0
100
AcDbBlockEnd
  0
BLOCK
  5
213
100
AcDbEntity
  8
0
100
AcDbBlockBegin
 62
2
  6
CONTINUOUS
  2
SUN_FIRST_THIRD_ANGLE_BL0
 70
64
 10
20.4816717061
 20
1.2289683772
  3
SUN_FIRST_THIRD_ANGLE_BL0
  1

  0
TEXT
  5
214
100
AcDbEntity
  8
0
100
AcDbText
 62
2
  6
CONTINUOUS
 10
19.4750896608
 20
1.4136269581
  7
STANDARD
 40
0.08
  1
FIRST ANGLE
 41
0.8
 72
0
100
AcDbText
  0
TEXT
  5
215
100
AcDbEntity
  8
0
100
AcDbText
 62
2
  6
CONTINUOUS
 10
20.7842537513
 20
1.4047600029
  7
STANDARD
 40
0.08
  1
THIRD ANGLE
 41
0.8
 72
0
100
AcDbText
  0
LINE
  5
216
100
AcDbEntity
  8
0
100
AcDbLine
 62
7
  6
CONTINUOUS
 10
19.4767170086
 20
1.1727031207
 11
19.6334271527
 21
1.1717972817
  0
LINE
  5
217
100
AcDbEntity
  8
0
100
AcDbLine
 62
7
  6
CONTINUOUS
 10
19.6596964832
 20
1.1717972817
 11
19.6950230232
 21
1.171593082
  0
LINE
  5
218
100
AcDbEntity
  8
0
100
AcDbLine
 62
7
  6
CONTINUOUS
 10
19.7194818561
 20
1.1708914427
 11
19.8852396156
 21
1.1699333054
  0
LINE
  5
219
100
AcDbEntity
  8
0
100
AcDbLine
 62
7
  6
CONTINUOUS
 10
19.4758111696
 20
1.2723454088
 11
19.88525039
 21
1.3511534004
  0
LINE
  5
21A
100
AcDbEntity
  8
0
100
AcDbLine
 62
7
  6
CONTINUOUS
 10
19.88525039
 20
1.3511534004
 11
19.8831348489
 21
0.9851647912
  0
LINE
  5
21B
100
AcDbEntity
  8
0
100
AcDbLine
 62
7
  6
CONTINUOUS
 10
19.8831348489
 20
0.9851647912
 11
19.4767170086
 21
1.0658141206
  0
LINE
  5
21C
100
AcDbEntity
  8
0
100
AcDbLine
 62
7
  6
CONTINUOUS
 10
19.4767170086
 20
1.0658141206
 11
19.4779056764
 21
1.2714536432
  0
CIRCLE
  5
21D
100
AcDbEntity
  8
0
100
AcDbCircle
 62
7
  6
CONTINUOUS
 10
20.2068232291
 20
1.1717972817
 40
0.175742101
  0
CIRCLE
  5
21E
100
AcDbEntity
  8
0
100
AcDbCircle
 62
7
  6
CONTINUOUS
 10
20.2068232291
 20
1.1717972817
 40
0.1005522074
  0
LINE
  5
21F
100
AcDbEntity
  8
0
100
AcDbLine
 62
7
  6
CONTINUOUS
 10
20.2077290681
 20
1.3756110529
 11
20.2071171714
 21
1.2379342989
  0
LINE
  5
220
100
AcDbEntity
  8
0
100
AcDbLine
 62
7
  6
CONTINUOUS
 10
20.2077290681
 20
1.2016899681
 11
20.2074674401
 21
1.1428236749
  0
LINE
  5
221
100
AcDbEntity
  8
0
100
AcDbLine
 62
7
  6
CONTINUOUS
 10
20.208634907
 20
1.101141841
 11
20.2080230104
 21
0.963465087
  0
LINE
  5
222
100
AcDbEntity
  8
0
100
AcDbLine
 62
7
  6
CONTINUOUS
 10
20.0066328138
 20
1.1745147986
 11
20.1443095678
 21
1.1739029019
  0
LINE
  5
223
100
AcDbEntity
  8
0
100
AcDbLine
 62
7
  6
CONTINUOUS
 10
20.1832714155
 20
1.1727031207
 11
20.238153505
 21
1.172335442
  0
LINE
  5
224
100
AcDbEntity
  8
0
100
AcDbLine
 62
7
  6
CONTINUOUS
 10
20.2756669918
 20
1.1717972817
 11
20.407916871
 21
1.1712095044
  0
CIRCLE
  5
225
100
AcDbEntity
  8
0
100
AcDbCircle
 62
7
  6
CONTINUOUS
 10
20.7509457401
 20
1.1693297793
 40
0.1722024983
  0
CIRCLE
  5
226
100
AcDbEntity
  8
0
100
AcDbCircle
 62
7
  6
CONTINUOUS
 10
20.7509457401
 20
1.1693297793
 40
0.0985164967
  0
LINE
  5
227
100
AcDbEntity
  8
0
100
AcDbLine
 62
7
  6
CONTINUOUS
 10
20.7169767782
 20
1.170462078
 11
20.7825395137
 21
1.1682766535
  0
LINE
  5
228
100
AcDbEntity
  8
0
100
AcDbLine
 62
7
  6
CONTINUOUS
 10
20.8177513651
 20
1.1693297793
 11
20.947965719
 21
1.1693297793
  0
LINE
  5
229
100
AcDbEntity
  8
0
100
AcDbLine
 62
7
  6
CONTINUOUS
 10
20.6875370113
 20
1.170462078
 11
20.5573226574
 21
1.170462078
  0
LINE
  5
22A
100
AcDbEntity
  8
0
100
AcDbLine
 62
7
  6
CONTINUOUS
 10
20.7486811426
 20
1.1987695462
 11
20.7486811426
 21
1.1432869085
  0
LINE
  5
22B
100
AcDbEntity
  8
0
100
AcDbLine
 62
7
  6
CONTINUOUS
 10
20.7498134414
 20
1.1059210505
 11
20.7498134414
 21
0.9757066966
  0
LINE
  5
22C
100
AcDbEntity
  8
0
100
AcDbLine
 62
7
  6
CONTINUOUS
 10
20.7486811426
 20
1.2338708068
 11
20.7486811426
 21
1.3640851607
  0
LINE
  5
22D
100
AcDbEntity
  8
0
100
AcDbLine
 62
7
  6
CONTINUOUS
 10
21.0702539817
 20
1.2701043662
 11
21.4790138229
 21
1.3448360823
  0
LINE
  5
22E
100
AcDbEntity
  8
0
100
AcDbLine
 62
7
  6
CONTINUOUS
 10
21.4790138229
 20
1.3448360823
 11
21.4790138229
 21
0.9779712941
  0
LINE
  5
22F
100
AcDbEntity
  8
0
100
AcDbLine
 62
7
  6
CONTINUOUS
 10
21.4790138229
 20
0.9779712941
 11
21.069121683
 21
1.0617614
  0
LINE
  5
230
100
AcDbEntity
  8
0
100
AcDbLine
 62
7
  6
CONTINUOUS
 10
21.0702539817
 20
1.2701043662
 11
21.069121683
 21
1.0617614
  0
LINE
  5
231
100
AcDbEntity
  8
0
100
AcDbLine
 62
7
  6
CONTINUOUS
 10
21.4790138229
 20
1.1693297793
 11
21.3159628059
 21
1.1693297793
  0
LINE
  5
232
100
AcDbEntity
  8
0
100
AcDbLine
 62
7
  6
CONTINUOUS
 10
21.2876553377
 20
1.1693297793
 11
21.2502894796
 21
1.1693297793
  0
LINE
  5
233
100
AcDbEntity
  8
0
100
AcDbLine
 62
7
  6
CONTINUOUS
 10
21.2208497126
 20
1.1659328831
 11
21.0713862804
 21
1.1659328831
  0
LINE
  5
234
100
AcDbEntity
  8
0
100
AcDbLine
 62
7
  6
CONTINUOUS
 10
20.4796138713
 20
1.5284908897
 11
20.4766766948
 21
0.9294458646
  0
ENDBLK
  5
235
100
AcDbEntity
  8
0
  6
BYBLOCK
 62
0
100
AcDbBlockEnd
  0
BLOCK
  5
236
100
AcDbEntity
  8
0
100
AcDbBlockBegin
  2
*T1
 70
1
 10
0.0
 20
0.0
  3
*T1
  1

  0
LINE
  5
237
100
AcDbEntity
  8
0
100
AcDbLine
 62
2
  6
CONTINUOUS
 10
9.275
 20
0.0
 11
-0.0
 21
0.0
  0
LINE
  5
238
100
AcDbEntity
  8
0
100
AcDbLine
 62
2
  6
CONTINUOUS
 10
9.275
 20
0.0
 11
9.275
 21
1.25
  0
LINE
  5
239
100
AcDbEntity
  8
0
100
AcDbLine
 62
2
  6
CONTINUOUS
 10
9.275
 20
0.625
 11
-0.0
 21
0.625
  0
LINE
  5
23A
100
AcDbEntity
  8
0
100
AcDbLine
 62
2
  6
CONTINUOUS
 10
9.275
 20
1.25
 11
-0.0
 21
1.25
  0
LINE
  5
23B
100
AcDbEntity
  8
0
100
AcDbLine
 62
2
  6
CONTINUOUS
 10
6.8
 20
0.0
 11
6.8
 21
1.25
  0
LINE
  5
23C
100
AcDbEntity
  8
0
100
AcDbLine
 62
2
  6
CONTINUOUS
 10
6.4
 20
0.0
 11
6.4
 21
0.625
  0
LINE
  5
23D
100
AcDbEntity
  8
0
100
AcDbLine
 62
2
  6
CONTINUOUS
 10
5.9
 20
0.0
 11
5.9
 21
0.625
  0
LINE
  5
23E
100
AcDbEntity
  8
0
100
AcDbLine
 62
2
  6
CONTINUOUS
 10
5.2
 20
0.0
 11
5.2
 21
0.625
  0
LINE
  5
23F
100
AcDbEntity
  8
0
100
AcDbLine
 62
2
  6
CONTINUOUS
 10
4.1
 20
0.0
 11
4.1
 21
1.25
  0
LINE
  5
240
100
AcDbEntity
  8
0
100
AcDbLine
 62
2
  6
CONTINUOUS
 10
-0.0
 20
0.0
 11
-0.0
 21
1.25
  0
MTEXT
  5
241
100
AcDbEntity
  8
0
100
AcDbMText
 62
2
  6
CONTINUOUS
  7
STANDARD
 71
2
 72
1
 10
6.6
 20
0.325
 30
0.0
 11
1.0
 21
0.0
 31
0.0
 44
0.9
  1
2
 40
0.125
 41
0.2
  0
MTEXT
  5
242
100
AcDbEntity
  8
0
100
AcDbMText
 62
2
  6
CONTINUOUS
  7
STANDARD
 71
2
 72
1
 10
6.15
 20
0.325
 30
0.0
 11
1.0
 21
0.0
 31
0.0
 44
0.9
  1
C
 40
0.125
 41
0.2
  0
MTEXT
  5
243
100
AcDbEntity
  8
0
100
AcDbMText
 62
2
  6
CONTINUOUS
  7
STANDARD
 71
2
 72
1
 10
5.55
 20
0.325
 30
0.0
 11
1.0
 21
0.0
 31
0.0
 44
0.9
  1
1.000
 40
0.125
 41
1.0
  0
MTEXT
  5
244
100
AcDbEntity
  8
0
100
AcDbMText
 62
2
  6
CONTINUOUS
  7
STANDARD
 71
2
 72
1
 10
4.65
 20
0.325
 30
0.0
 11
1.0
 21
0.0
 31
0.0
 44
0.9
  1
Sep-13-19
 40
0.125
 41
1.8
  0
MTEXT
  5
245
100
AcDbEntity
  8
0
100
AcDbMText
 62
2
  6
CONTINUOUS
  7
STANDARD
 71
2
 72
1
 10
2.05
 20
0.4625
 30
0.0
 11
1.0
 21
0.0
 31
0.0
 44
0.9
  1
T-2A Line mount\PThrough port 1 with reverse flow check
 40
0.125
 41
7.6
  0
MTEXT
  5
246
100
AcDbEntity
  8
0
100
AcDbMText
 62
2
  6
CONTINUOUS
  7
STANDARD
 71
1
 72
1
 10
6.45
 20
0.5625
 30
0.0
 11
1.0
 21
0.0
 31
0.0
 44
0.9
  1
SHEET
 40
0.06
 41
0.48
  0
MTEXT
  5
247
100
AcDbEntity
  8
0
100
AcDbMText
 62
2
  6
CONTINUOUS
  7
STANDARD
 71
1
 72
1
 10
5.95
 20
0.5625
 30
0.0
 11
1.0
 21
0.0
 31
0.0
 44
0.9
  1
DWG SIZE
 40
0.06
 41
0.768
  0
MTEXT
  5
248
100
AcDbEntity
  8
0
100
AcDbMText
 62
2
  6
CONTINUOUS
  7
STANDARD
 71
1
 72
1
 10
5.25
 20
0.5625
 30
0.0
 11
1.0
 21
0.0
 31
0.0
 44
0.9
  1
SCALE
 40
0.06
 41
0.48
  0
MTEXT
  5
249
100
AcDbEntity
  8
0
100
AcDbMText
 62
2
  6
CONTINUOUS
  7
STANDARD
 71
1
 72
1
 10
4.15
 20
0.5625
 30
0.0
 11
1.0
 21
0.0
 31
0.0
 44
0.9
  1
DATE
 40
0.06
 41
0.384
  0
MTEXT
  5
24A
100
AcDbEntity
  8
0
100
AcDbMText
 62
2
  6
CONTINUOUS
  7
STANDARD
 71
1
 72
1
 10
0.05
 20
0.5625
 30
0.0
 11
1.0
 21
0.0
 31
0.0
 44
0.9
  1
DESCRIPTION
 40
0.06
 41
1.056
  0
MTEXT
  5
24B
100
AcDbEntity
  8
0
100
AcDbMText
 62
2
  6
CONTINUOUS
  7
STANDARD
 71
2
 72
1
 10
5.45
 20
1.0375
 30
0.0
 11
1.0
 21
0.0
 31
0.0
 44
0.9
  1
ALL DIMENSIONS IN INCH\PVIEWS ARE THIRD ANGLE
 40
0.12
 41
4.224
  0
MTEXT
  5
24C
100
AcDbEntity
  8
0
100
AcDbMText
 62
2
  6
CONTINUOUS
  7
STANDARD
 71
2
 72
1
 10
2.05
 20
0.95
 30
0.0
 11
1.0
 21
0.0
 31
0.0
 44
0.9
  1
B7W
 40
0.125
 41
0.6
  0
MTEXT
  5
24D
100
AcDbEntity
  8
0
100
AcDbMText
 62
2
  6
CONTINUOUS
  7
STANDARD
 71
1
 72
1
 10
0.05
 20
1.1875
 30
0.0
 11
1.0
 21
0.0
 31
0.0
 44
0.9
  1
MODEL
 40
0.06
 41
0.48
  0
ENDBLK
  5
24E
100
AcDbEntity
  8
0
  6
BYBLOCK
 62
0
100
AcDbBlockEnd
  0
BLOCK
  5
24F
100
AcDbEntity
  8
0
100
AcDbBlockBegin
  2
*T2
 70
1
 10
0.0
 20
0.0
  3
*T2
  1

  0
LINE
  5
250
100
AcDbEntity
  8
0
100
AcDbLine
 62
2
  6
CONTINUOUS
 10
0.0
 20
0.0
 11
9.055
 21
0.0
  0
LINE
  5
251
100
AcDbEntity
  8
0
100
AcDbLine
 62
2
  6
CONTINUOUS
 10
0.0
 20
0.0
 11
0.0
 21
-2.594
  0
LINE
  5
252
100
AcDbEntity
  8
0
100
AcDbLine
 62
2
  6
CONTINUOUS
 10
0.0
 20
-0.344
 11
9.055
 21
-0.344
  0
LINE
  5
253
100
AcDbEntity
  8
0
100
AcDbLine
 62
2
  6
CONTINUOUS
 10
0.0
 20
-0.594
 11
9.055
 21
-0.594
  0
LINE
  5
254
100
AcDbEntity
  8
0
100
AcDbLine
 62
2
  6
CONTINUOUS
 10
0.0
 20
-0.844
 11
9.055
 21
-0.844
  0
LINE
  5
255
100
AcDbEntity
  8
0
100
AcDbLine
 62
2
  6
CONTINUOUS
 10
0.0
 20
-1.094
 11
9.055
 21
-1.094
  0
LINE
  5
256
100
AcDbEntity
  8
0
100
AcDbLine
 62
2
  6
CONTINUOUS
 10
0.0
 20
-1.344
 11
9.055
 21
-1.344
  0
LINE
  5
257
100
AcDbEntity
  8
0
100
AcDbLine
 62
2
  6
CONTINUOUS
 10
0.0
 20
-1.594
 11
9.055
 21
-1.594
  0
LINE
  5
258
100
AcDbEntity
  8
0
100
AcDbLine
 62
2
  6
CONTINUOUS
 10
0.0
 20
-1.844
 11
9.055
 21
-1.844
  0
LINE
  5
259
100
AcDbEntity
  8
0
100
AcDbLine
 62
2
  6
CONTINUOUS
 10
0.0
 20
-2.094
 11
9.055
 21
-2.094
  0
LINE
  5
25A
100
AcDbEntity
  8
0
100
AcDbLine
 62
2
  6
CONTINUOUS
 10
0.0
 20
-2.344
 11
9.055
 21
-2.344
  0
LINE
  5
25B
100
AcDbEntity
  8
0
100
AcDbLine
 62
2
  6
CONTINUOUS
 10
0.0
 20
-2.594
 11
9.055
 21
-2.594
  0
LINE
  5
25C
100
AcDbEntity
  8
0
100
AcDbLine
 62
2
  6
CONTINUOUS
 10
3.055
 20
0.0
 11
3.055
 21
-2.594
  0
LINE
  5
25D
100
AcDbEntity
  8
0
100
AcDbLine
 62
2
  6
CONTINUOUS
 10
9.055
 20
0.0
 11
9.055
 21
-2.594
  0
MTEXT
  5
25E
100
AcDbEntity
  8
0
100
AcDbMText
 62
2
  6
CONTINUOUS
  7
STANDARD
 71
2
 72
1
 10
1.5275
 20
-0.0995
 30
0.0
 11
1.0
 21
0.0
 31
0.0
 44
0.9
  1
Technical Data
 40
0.145
 41
3.248
  0
MTEXT
  5
25F
100
AcDbEntity
  8
0
100
AcDbMText
 62
2
  6
CONTINUOUS
  7
STANDARD
 71
2
 72
1
 10
4.555
 20
-0.0995
 30
0.0
 11
1.0
 21
0.0
 31
0.0
 44
0.9
  1
U.S. Units
 40
0.145
 41
2.32
  0
MTEXT
  5
260
100
AcDbEntity
  8
0
100
AcDbMText
 62
2
  6
CONTINUOUS
  7
STANDARD
 71
2
 72
1
 10
7.555
 20
-0.0995
 30
0.0
 11
1.0
 21
0.0
 31
0.0
 44
0.9
  1
Metric Units
 40
0.145
 41
2.784
  0
MTEXT
  5
261
100
AcDbEntity
  8
0
100
AcDbMText
 62
2
  6
CONTINUOUS
  7
STANDARD
 71
2
 72
1
 10
1.5275
 20
-0.4065
 30
0.0
 11
1.0
 21
0.0
 31
0.0
 44
0.9
  1
Cavity
 40
0.125
 41
1.2
  0
MTEXT
  5
262
100
AcDbEntity
  8
0
100
AcDbMText
 62
2
  6
CONTINUOUS
  7
STANDARD
 71
2
 72
1
 10
6.055
 20
-0.4065
 30
0.0
 11
1.0
 21
0.0
 31
0.0
 44
0.9
  1
T-2A
 40
0.125
 41
0.8
  0
MTEXT
  5
263
100
AcDbEntity
  8
0
100
AcDbMText
 62
2
  6
CONTINUOUS
  7
STANDARD
 71
2
 72
1
 10
1.5275
 20
-0.6565
 30
0.0
 11
1.0
 21
0.0
 31
0.0
 44
0.9
  1
Body Features
 40
0.125
 41
2.6
  0
MTEXT
  5
264
100
AcDbEntity
  8
0
100
AcDbMText
 62
2
  6
CONTINUOUS
  7
STANDARD
 71
2
 72
1
 10
6.055
 20
-0.6565
 30
0.0
 11
1.0
 21
0.0
 31
0.0
 44
0.9
  1
Through port 1 with reverse flow check
 40
0.125
 41
7.6
  0
MTEXT
  5
265
100
AcDbEntity
  8
0
100
AcDbMText
 62
2
  6
CONTINUOUS
  7
STANDARD
 71
2
 72
1
 10
1.5275
 20
-0.9065
 30
0.0
 11
1.0
 21
0.0
 31
0.0
 44
0.9
  1
Body Type
 40
0.125
 41
1.8
  0
MTEXT
  5
266
100
AcDbEntity
  8
0
100
AcDbMText
 62
2
  6
CONTINUOUS
  7
STANDARD
 71
2
 72
1
 10
6.055
 20
-0.9065
 30
0.0
 11
1.0
 21
0.0
 31
0.0
 44
0.9
  1
Line mount
 40
0.125
 41
2.0
  0
MTEXT
  5
267
100
AcDbEntity
  8
0
100
AcDbMText
 62
2
  6
CONTINUOUS
  7
STANDARD
 71
2
 72
1
 10
1.5275
 20
-1.1565
 30
0.0
 11
1.0
 21
0.0
 31
0.0
 44
0.9
  1
Interface
 40
0.125
 41
1.8
  0
MTEXT
  5
268
100
AcDbEntity
  8
0
100
AcDbMText
 62
2
  6
CONTINUOUS
  7
STANDARD
 71
2
 72
1
 10
6.055
 20
-1.1565
 30
0.0
 11
1.0
 21
0.0
 31
0.0
 44
0.9
  1
None
 40
0.125
 41
0.8
  0
MTEXT
  5
269
100
AcDbEntity
  8
0
100
AcDbMText
 62
2
  6
CONTINUOUS
  7
STANDARD
 71
2
 72
1
 10
1.5275
 20
-1.4065
 30
0.0
 11
1.0
 21
0.0
 31
0.0
 44
0.9
  1
Open Cavity Quantity
 40
0.125
 41
4.0
  0
MTEXT
  5
26A
100
AcDbEntity
  8
0
100
AcDbMText
 62
2
  6
CONTINUOUS
  7
STANDARD
 71
2
 72
1
 10
6.055
 20
-1.4065
 30
0.0
 11
1.0
 21
0.0
 31
0.0
 44
0.9
  1
1
 40
0.125
 41
0.2
  0
MTEXT
  5
26B
100
AcDbEntity
  8
0
100
AcDbMText
 62
2
  6
CONTINUOUS
  7
STANDARD
 71
2
 72
1
 10
1.5275
 20
-1.6565
 30
0.0
 11
1.0
 21
0.0
 31
0.0
 44
0.9
  1
Weight
 40
0.125
 41
1.2
  0
MTEXT
  5
26C
100
AcDbEntity
  8
0
100
AcDbMText
 62
2
  6
CONTINUOUS
  7
STANDARD
 71
2
 72
1
 10
4.555
 20
-1.6565
 30
0.0
 11
1.0
 21
0.0
 31
0.0
 44
0.9
  1
2.988 lb.
 40
0.125
 41
1.8
  0
MTEXT
  5
26D
100
AcDbEntity
  8
0
100
AcDbMText
 62
2
  6
CONTINUOUS
  7
STANDARD
 71
2
 72
1
 10
7.555
 20
-1.6565
 30
0.0
 11
1.0
 21
0.0
 31
0.0
 44
0.9
  1
1,355 kg.
 40
0.125
 41
1.8
  0
MTEXT
  5
26E
100
AcDbEntity
  8
0
100
AcDbMText
 62
2
  6
CONTINUOUS
  7
STANDARD
 71
2
 72
1
 10
1.5275
 20
-1.9065
 30
0.0
 11
1.0
 21
0.0
 31
0.0
 44
0.9
  1
Mounting Hole Thread
 40
0.125
 41
4.0
  0
MTEXT
  5
26F
100
AcDbEntity
  8
0
100
AcDbMText
 62
2
  6
CONTINUOUS
  7
STANDARD
 71
2
 72
1
 10
6.055
 20
-1.9065
 30
0.0
 11
1.0
 21
0.0
 31
0.0
 44
0.9
  1
M10x1.5 - 6H
 40
0.125
 41
2.4
  0
MTEXT
  5
270
100
AcDbEntity
  8
0
100
AcDbMText
 62
2
  6
CONTINUOUS
  7
STANDARD
 71
2
 72
1
 10
1.5275
 20
-2.1565
 30
0.0
 11
1.0
 21
0.0
 31
0.0
 44
0.9
  1
Mounting Hole Depth
 40
0.125
 41
3.8
  0
MTEXT
  5
271
100
AcDbEntity
  8
0
100
AcDbMText
 62
2
  6
CONTINUOUS
  7
STANDARD
 71
2
 72
1
 10
4.555
 20
-2.1565
 30
0.0
 11
1.0
 21
0.0
 31
0.0
 44
0.9
  1
.62 in.
 40
0.125
 41
1.4
  0
MTEXT
  5
272
100
AcDbEntity
  8
0
100
AcDbMText
 62
2
  6
CONTINUOUS
  7
STANDARD
 71
2
 72
1
 10
7.555
 20
-2.1565
 30
0.0
 11
1.0
 21
0.0
 31
0.0
 44
0.9
  1
15,7 mm
 40
0.125
 41
1.4
  0
MTEXT
  5
273
100
AcDbEntity
  8
0
100
AcDbMText
 62
2
  6
CONTINUOUS
  7
STANDARD
 71
2
 72
1
 10
1.5275
 20
-2.4065
 30
0.0
 11
1.0
 21
0.0
 31
0.0
 44
0.9
  1
Mounting Hole Quantity
 40
0.125
 41
4.4
  0
MTEXT
  5
274
100
AcDbEntity
  8
0
100
AcDbMText
 62
2
  6
CONTINUOUS
  7
STANDARD
 71
2
 72
1
 10
6.055
 20
-2.4065
 30
0.0
 11
1.0
 21
0.0
 31
0.0
 44
0.9
  1
2
 40
0.125
 41
0.2
  0
ENDBLK
  5
275
100
AcDbEntity
  8
0
  6
BYBLOCK
 62
0
100
AcDbBlockEnd
  0
BLOCK
  5
276
100
AcDbEntity
  8
0
100
AcDbBlockBegin
  2
*T3
 70
1
 10
0.0
 20
0.0
  3
*T3
  1

  0
LINE
  5
277
100
AcDbEntity
  8
0
100
AcDbLine
 62
2
  6
CONTINUOUS
 10
0.0
 20
0.0
 11
4.6
 21
0.0
  0
LINE
  5
278
100
AcDbEntity
  8
0
100
AcDbLine
 62
2
  6
CONTINUOUS
 10
0.0
 20
0.0
 11
0.0
 21
-1.43775
  0
LINE
  5
279
100
AcDbEntity
  8
0
100
AcDbLine
 62
2
  6
CONTINUOUS
 10
0.0
 20
-0.34375
 11
4.6
 21
-0.34375
  0
LINE
  5
27A
100
AcDbEntity
  8
0
100
AcDbLine
 62
2
  6
CONTINUOUS
 10
0.0
 20
-0.68775
 11
4.6
 21
-0.68775
  0
LINE
  5
27B
100
AcDbEntity
  8
0
100
AcDbLine
 62
2
  6
CONTINUOUS
 10
0.0
 20
-0.93775
 11
4.6
 21
-0.93775
  0
LINE
  5
27C
100
AcDbEntity
  8
0
100
AcDbLine
 62
2
  6
CONTINUOUS
 10
0.0
 20
-1.18775
 11
4.6
 21
-1.18775
  0
LINE
  5
27D
100
AcDbEntity
  8
0
100
AcDbLine
 62
2
  6
CONTINUOUS
 10
0.0
 20
-1.43775
 11
4.6
 21
-1.43775
  0
LINE
  5
27E
100
AcDbEntity
  8
0
100
AcDbLine
 62
2
  6
CONTINUOUS
 10
1.3
 20
-0.34375
 11
1.3
 21
-1.43775
  0
LINE
  5
27F
100
AcDbEntity
  8
0
100
AcDbLine
 62
2
  6
CONTINUOUS
 10
3.3
 20
-0.34375
 11
3.3
 21
-1.43775
  0
LINE
  5
280
100
AcDbEntity
  8
0
100
AcDbLine
 62
2
  6
CONTINUOUS
 10
4.6
 20
0.0
 11
4.6
 21
-1.43775
  0
MTEXT
  5
281
100
AcDbEntity
  8
0
100
AcDbMText
 62
2
  6
CONTINUOUS
  7
STANDARD
 71
2
 72
1
 10
2.3
 20
-0.099375
 30
0.0
 11
1.0
 21
0.0
 31
0.0
 44
0.9
  1
Port Headings
 40
0.145
 41
3.016
  0
MTEXT
  5
282
100
AcDbEntity
  8
0
100
AcDbMText
 62
2
  6
CONTINUOUS
  7
STANDARD
 71
2
 72
1
 10
0.65
 20
-0.44325
 30
0.0
 11
1.0
 21
0.0
 31
0.0
 44
0.9
  1
Product
 40
0.145
 41
1.624
  0
MTEXT
  5
283
100
AcDbEntity
  8
0
100
AcDbMText
 62
2
  6
CONTINUOUS
  7
STANDARD
 71
2
 72
1
 10
2.3
 20
-0.44325
 30
0.0
 11
1.0
 21
0.0
 31
0.0
 44
0.9
  1
Port
 40
0.145
 41
0.928
  0
MTEXT
  5
284
100
AcDbEntity
  8
0
100
AcDbMText
 62
2
  6
CONTINUOUS
  7
STANDARD
 71
2
 72
1
 10
3.95
 20
-0.44325
 30
0.0
 11
1.0
 21
0.0
 31
0.0
 44
0.9
  1
Size
 40
0.145
 41
0.928
  0
MTEXT
  5
285
100
AcDbEntity
  8
0
100
AcDbMText
 62
2
  6
CONTINUOUS
  7
STANDARD
 71
2
 72
1
 10
0.65
 20
-0.75025
 30
0.0
 11
1.0
 21
0.0
 31
0.0
 44
0.9
  1
B7W
 40
0.125
 41
0.6
  0
MTEXT
  5
286
100
AcDbEntity
  8
0
100
AcDbMText
 62
2
  6
CONTINUOUS
  7
STANDARD
 71
2
 72
1
 10
2.3
 20
-0.75025
 30
0.0
 11
1.0
 21
0.0
 31
0.0
 44
0.9
  1
Ports 1 &  2
 40
0.125
 41
2.4
  0
MTEXT
  5
287
100
AcDbEntity
  8
0
100
AcDbMText
 62
2
  6
CONTINUOUS
  7
STANDARD
 71
2
 72
1
 10
3.95
 20
-0.75025
 30
0.0
 11
1.0
 21
0.0
 31
0.0
 44
0.9
  1
3/4" BSPP
 40
0.125
 41
1.8
  0
MTEXT
  5
288
100
AcDbEntity
  8
0
100
AcDbMText
 62
2
  6
CONTINUOUS
  7
STANDARD
 71
2
 72
1
 10
0.65
 20
-1.00025
 30
0.0
 11
1.0
 21
0.0
 31
0.0
 44
0.9
  1
B7W
 40
0.125
 41
0.6
  0
MTEXT
  5
289
100
AcDbEntity
  8
0
100
AcDbMText
 62
2
  6
CONTINUOUS
  7
STANDARD
 71
2
 72
1
 10
2.3
 20
-1.00025
 30
0.0
 11
1.0
 21
0.0
 31
0.0
 44
0.9
  1
Port 3
 40
0.125
 41
1.2
  0
MTEXT
  5
28A
100
AcDbEntity
  8
0
100
AcDbMText
 62
2
  6
CONTINUOUS
  7
STANDARD
 71
2
 72
1
 10
3.95
 20
-1.00025
 30
0.0
 11
1.0
 21
0.0
 31
0.0
 44
0.9
  1
1/4" BSPP
 40
0.125
 41
1.8
  0
MTEXT
  5
28B
100
AcDbEntity
  8
0
100
AcDbMText
 62
2
  6
CONTINUOUS
  7
STANDARD
 71
2
 72
1
 10
0.65
 20
-1.25025
 30
0.0
 11
1.0
 21
0.0
 31
0.0
 44
0.9
  1
B7W
 40
0.125
 41
0.6
  0
MTEXT
  5
28C
100
AcDbEntity
  8
0
100
AcDbMText
 62
2
  6
CONTINUOUS
  7
STANDARD
 71
2
 72
1
 10
2.3
 20
-1.25025
 30
0.0
 11
1.0
 21
0.0
 31
0.0
 44
0.9
  1
Gage Port
 40
0.125
 41
1.8
  0
MTEXT
  5
28D
100
AcDbEntity
  8
0
100
AcDbMText
 62
2
  6
CONTINUOUS
  7
STANDARD
 71
2
 72
1
 10
3.95
 20
-1.25025
 30
0.0
 11
1.0
 21
0.0
 31
0.0
 44
0.9
  1
1/4" BSPP
 40
0.125
 41
1.8
  0
ENDBLK
  5
28E
100
AcDbEntity
  8
0
  6
BYBLOCK
 62
0
100
AcDbBlockEnd
  0
ENDSEC
  0
SECTION
  2
ENTITIES
  0
IMAGE
  5
28F
100
AcDbEntity
  8
0
100
AcDbRasterImage
 62
7
  6
CONTINUOUS
 10
19.2297077316
 20
0.3094318264
 30
0.0
 11
0.0066666667
 21
0.0
 31
0.0
 12
0.0
 22
0.0066666667
 32
0.0
 13
369.0
 23
92.0
340
       3C5
 70
9
280
0
281
50
282
50
283
0
360
       3BF
 71
1
 91
2
 14
-0.5
 24
-0.5
 14
368.5
 24
91.5
  0
INSERT
  5
290
100
AcDbEntity
  8
0
100
AcDbBlockReference
 62
2
  6
CONTINUOUS
  2
SUN_FIRST_THIRD_ANGLE_BL0
 10
20.4816717061
 20
1.2289683772
  0
ACAD_TABLE
  5
291
100
AcDbEntity
  8
0
 62
2
  6
CONTINUOUS
100
AcDbBlockReference
  2
*T1
 10
12.42375
 20
0.30125
 30
0.0
100
AcDbTable
342
       3C7
343
20F
 11
1.0
 21
0.0
 31
0.0
 90
6
 91
4
 92
6
 93
20
 94
0
 95
0
 96
0
 70
1
 41
0.0
141
0.525
141
0.1
141
0.525
141
0.1
142
4.1
142
1.1
142
0.7
142
0.5
142
0.4
142
2.475
171
1
172
0
173
0
174
0
175
1
176
1
 91
33
178
0
145
0.0
301
CELL_VALUE
 90
4
  1
T-2A Line mount\PThrough port 1 with reverse flow check
304
ACVALUE_END
170
2
140
0.125
171
1
172
0
173
0
174
0
175
1
176
1
 91
33
178
0
145
0.0
301
CELL_VALUE
 90
4
  1
Sep-13-19
304
ACVALUE_END
170
5
140
0.125
171
1
172
0
173
0
174
0
175
1
176
1
 91
33
178
0
145
0.0
301
CELL_VALUE
 90
4
  1
1.000
304
ACVALUE_END
170
5
140
0.125
171
1
172
0
173
0
174
0
175
1
176
1
 91
33
178
0
145
0.0
301
CELL_VALUE
 90
4
  1
C
304
ACVALUE_END
170
5
140
0.125
171
1
172
0
173
0
174
0
175
1
176
1
 91
33
178
0
145
0.0
301
CELL_VALUE
 90
4
  1
2
304
ACVALUE_END
170
5
140
0.125
171
1
172
0
173
0
174
0
175
1
176
1
 91
33
178
0
145
0.0
301
CELL_VALUE
 90
4
  1
 
304
ACVALUE_END
170
1
140
0.125
171
1
172
0
173
0
174
0
175
1
176
1
 91
33
178
0
145
0.0
301
CELL_VALUE
 90
4
  1
DESCRIPTION
304
ACVALUE_END
170
1
140
0.06
171
1
172
0
173
0
174
0
175
1
176
1
 91
33
178
0
145
0.0
301
CELL_VALUE
 90
4
  1
DATE
304
ACVALUE_END
170
1
140
0.06
171
1
172
0
173
0
174
0
175
1
176
1
 91
33
178
0
145
0.0
301
CELL_VALUE
 90
4
  1
SCALE
304
ACVALUE_END
170
1
140
0.06
171
1
172
0
173
0
174
0
175
1
176
1
 91
33
178
0
145
0.0
301
CELL_VALUE
 90
4
  1
DWG SIZE
304
ACVALUE_END
170
1
140
0.06
171
1
172
0
173
0
174
0
175
1
176
1
 91
33
178
0
145
0.0
301
CELL_VALUE
 90
4
  1
SHEET
304
ACVALUE_END
170
1
140
0.06
171
1
172
0
173
0
174
0
175
1
176
1
 91
33
178
0
145
0.0
301
CELL_VALUE
 90
4
  1
 
304
ACVALUE_END
170
1
140
0.125
171
1
172
0
173
0
174
0
175
1
176
1
 91
33
178
0
145
0.0
301
CELL_VALUE
 90
4
  1
B7W
304
ACVALUE_END
170
5
140
0.125
171
1
172
0
173
0
174
0
175
4
176
1
 91
33
178
0
145
0.0
301
CELL_VALUE
 90
4
  1
ALL DIMENSIONS IN INCH\PVIEWS ARE THIRD ANGLE
304
ACVALUE_END
170
5
140
0.12
171
1
172
0
173
1
174
0
175
1
176
1
 91
1
178
0
145
0.0
170
1
171
1
172
0
173
1
174
0
175
1
176
1
 91
1
178
0
145
0.0
170
1
171
1
172
0
173
1
174
0
175
1
176
1
 91
1
178
0
145
0.0
170
5
171
1
172
0
173
0
174
0
175
1
176
1
 91
33
178
0
145
0.0
301
CELL_VALUE
 90
4
  1
 
304
ACVALUE_END
170
1
140
0.125
171
1
172
0
173
0
174
0
175
1
176
1
 91
33
178
0
145
0.0
301
CELL_VALUE
 90
4
  1
MODEL
304
ACVALUE_END
170
1
140
0.06
171
1
172
0
173
0
174
0
175
1
176
1
 91
33
178
0
145
0.0
301
CELL_VALUE
 90
4
  1
 
304
ACVALUE_END
170
1
140
0.125
171
1
172
0
173
0
174
0
175
1
176
1
 91
33
178
0
145
0.0
301
CELL_VALUE
 90
4
  1
 
304
ACVALUE_END
170
1
140
0.125
171
1
172
0
173
0
174
0
175
1
176
1
 91
33
178
0
145
0.0
301
CELL_VALUE
 90
4
  1
 
304
ACVALUE_END
170
1
140
0.125
171
1
172
0
173
0
174
0
175
1
176
1
 91
33
178
0
145
0.0
301
CELL_VALUE
 90
4
  1
 
304
ACVALUE_END
170
1
140
0.125
171
1
172
0
173
0
174
0
175
1
176
1
 91
33
178
0
145
0.0
301
CELL_VALUE
 90
4
  1
 
304
ACVALUE_END
170
1
140
0.125
  0
ACAD_TABLE
  5
292
100
AcDbEntity
  8
0
 62
2
  6
CONTINUOUS
100
AcDbBlockReference
  2
*T2
 10
12.4237499994
 20
16.47875
 30
0.0
100
AcDbTable
342
       3C6
343
210
 11
1.0
 21
0.0
 31
0.0
 90
22
 91
10
 92
3
 93
16
 94
0
 95
0
 96
0
 41
0.028
141
0.344
141
0.25
141
0.25
141
0.25
141
0.25
141
0.25
141
0.25
141
0.25
141
0.25
141
0.25
142
3.055
142
3.0
142
3.0
171
1
172
0
173
0
174
0
175
1
176
1
 91
33
178
0
145
0.0
301
CELL_VALUE
 90
4
  1
Technical Data
304
ACVALUE_END
170
5
140
0.145
171
1
172
0
173
0
174
0
175
1
176
1
 91
33
178
0
145
0.0
301
CELL_VALUE
 90
4
  1
U.S. Units
304
ACVALUE_END
170
5
140
0.145
171
1
172
0
173
0
174
0
175
1
176
1
 91
33
178
0
145
0.0
301
CELL_VALUE
 90
4
  1
Metric Units
304
ACVALUE_END
170
5
140
0.145
171
1
172
0
173
0
174
0
175
1
176
1
 91
33
178
0
145
0.0
301
CELL_VALUE
 90
4
  1
Cavity
304
ACVALUE_END
170
5
140
0.125
171
1
172
0
173
0
174
0
175
2
176
1
 91
33
178
0
145
0.0
301
CELL_VALUE
 90
4
  1
T-2A
304
ACVALUE_END
170
5
140
0.125
171
1
172
0
173
1
174
0
175
1
176
1
 91
1
178
0
145
0.0
170
1
171
1
172
0
173
0
174
0
175
1
176
1
 91
33
178
0
145
0.0
301
CELL_VALUE
 90
4
  1
Body Features
304
ACVALUE_END
170
5
140
0.125
171
1
172
0
173
0
174
0
175
2
176
1
 91
33
178
0
145
0.0
301
CELL_VALUE
 90
4
  1
Through port 1 with reverse flow check
304
ACVALUE_END
170
5
140
0.125
171
1
172
0
173
1
174
0
175
1
176
1
 91
1
178
0
145
0.0
170
1
171
1
172
0
173
0
174
0
175
1
176
1
 91
33
178
0
145
0.0
301
CELL_VALUE
 90
4
  1
Body Type
304
ACVALUE_END
170
5
140
0.125
171
1
172
0
173
0
174
0
175
2
176
1
 91
33
178
0
145
0.0
301
CELL_VALUE
 90
4
  1
Line mount
304
ACVALUE_END
170
5
140
0.125
171
1
172
0
173
1
174
0
175
1
176
1
 91
1
178
0
145
0.0
170
1
171
1
172
0
173
0
174
0
175
1
176
1
 91
33
178
0
145
0.0
301
CELL_VALUE
 90
4
  1
Interface
304
ACVALUE_END
170
5
140
0.125
171
1
172
0
173
0
174
0
175
2
176
1
 91
33
178
0
145
0.0
301
CELL_VALUE
 90
4
  1
None
304
ACVALUE_END
170
5
140
0.125
171
1
172
0
173
1
174
0
175
1
176
1
 91
1
178
0
145
0.0
170
1
171
1
172
0
173
0
174
0
175
1
176
1
 91
33
178
0
145
0.0
301
CELL_VALUE
 90
4
  1
Open Cavity Quantity
304
ACVALUE_END
170
5
140
0.125
171
1
172
0
173
0
174
0
175
2
176
1
 91
33
178
0
145
0.0
301
CELL_VALUE
 90
4
  1
1
304
ACVALUE_END
170
5
140
0.125
171
1
172
0
173
1
174
0
175
1
176
1
 91
1
178
0
145
0.0
170
1
171
1
172
0
173
0
174
0
175
1
176
1
 91
33
178
0
145
0.0
301
CELL_VALUE
 90
4
  1
Weight
304
ACVALUE_END
170
5
140
0.125
171
1
172
0
173
0
174
0
175
1
176
1
 91
33
178
0
145
0.0
301
CELL_VALUE
 90
4
  1
2.988 lb.
304
ACVALUE_END
170
5
140
0.125
171
1
172
0
173
0
174
0
175
1
176
1
 91
33
178
0
145
0.0
301
CELL_VALUE
 90
4
  1
1,355 kg.
304
ACVALUE_END
170
5
140
0.125
171
1
172
0
173
0
174
0
175
1
176
1
 91
33
178
0
145
0.0
301
CELL_VALUE
 90
4
  1
Mounting Hole Thread
304
ACVALUE_END
170
5
140
0.125
171
1
172
0
173
0
174
0
175
2
176
1
 91
33
178
0
145
0.0
301
CELL_VALUE
 90
4
  1
M10x1.5 - 6H
304
ACVALUE_END
170
5
140
0.125
171
1
172
0
173
1
174
0
175
1
176
1
 91
1
178
0
145
0.0
170
1
171
1
172
0
173
0
174
0
175
1
176
1
 91
33
178
0
145
0.0
301
CELL_VALUE
 90
4
  1
Mounting Hole Depth
304
ACVALUE_END
170
5
140
0.125
171
1
172
0
173
0
174
0
175
1
176
1
 91
33
178
0
145
0.0
301
CELL_VALUE
 90
4
  1
.62 in.
304
ACVALUE_END
170
5
140
0.125
171
1
172
0
173
0
174
0
175
1
176
1
 91
33
178
0
145
0.0
301
CELL_VALUE
 90
4
  1
15,7 mm
304
ACVALUE_END
170
5
140
0.125
171
1
172
0
173
0
174
0
175
1
176
1
 91
33
178
0
145
0.0
301
CELL_VALUE
 90
4
  1
Mounting Hole Quantity
304
ACVALUE_END
170
5
140
0.125
171
1
172
0
173
0
174
0
175
2
176
1
 91
33
178
0
145
0.0
301
CELL_VALUE
 90
4
  1
2
304
ACVALUE_END
170
5
140
0.125
171
1
172
0
173
1
174
0
175
1
176
1
 91
1
178
0
145
0.0
170
1
  0
ACAD_TABLE
  5
293
100
AcDbEntity
  8
0
 62
2
  6
CONTINUOUS
100
AcDbBlockReference
  2
*T3
 10
0.52125
 20
1.959
 30
0.0
100
AcDbTable
342
       3C6
343
211
 11
1.0
 21
0.0
 31
0.0
 90
22
 91
5
 92
3
 93
16
 94
0
 95
0
 96
0
 41
0.05
141
0.34375
141
0.344
141
0.25
141
0.25
141
0.25
142
1.3
142
2.0
142
1.3
171
1
172
0
173
0
174
0
175
3
176
1
 91
33
178
0
145
0.0
301
CELL_VALUE
 90
4
  1
Port Headings
304
ACVALUE_END
170
5
140
0.145
171
1
172
0
173
1
174
0
175
1
176
1
 91
1
178
0
145
0.0
170
1
171
1
172
0
173
1
174
0
175
1
176
1
 91
1
178
0
145
0.0
170
1
171
1
172
0
173
0
174
0
175
1
176
1
 91
33
178
0
145
0.0
301
CELL_VALUE
 90
4
  1
Product
304
ACVALUE_END
170
5
140
0.145
171
1
172
0
173
0
174
0
175
1
176
1
 91
33
178
0
145
0.0
301
CELL_VALUE
 90
4
  1
Port
304
ACVALUE_END
170
5
140
0.145
171
1
172
0
173
0
174
0
175
1
176
1
 91
33
178
0
145
0.0
301
CELL_VALUE
 90
4
  1
Size
304
ACVALUE_END
170
5
140
0.145
171
1
172
0
173
0
174
0
175
1
176
1
 91
33
178
0
145
0.0
301
CELL_VALUE
 90
4
  1
B7W
304
ACVALUE_END
170
5
140
0.125
171
1
172
0
173
0
174
0
175
1
176
1
 91
33
178
0
145
0.0
301
CELL_VALUE
 90
4
  1
Ports 1 &  2
304
ACVALUE_END
170
5
140
0.125
171
1
172
0
173
0
174
0
175
1
176
1
 91
33
178
0
145
0.0
301
CELL_VALUE
 90
4
  1
3/4" BSPP
304
ACVALUE_END
170
5
140
0.125
171
1
172
0
173
0
174
0
175
1
176
1
 91
33
178
0
145
0.0
301
CELL_VALUE
 90
4
  1
B7W
304
ACVALUE_END
170
5
140
0.125
171
1
172
0
173
0
174
0
175
1
176
1
 91
33
178
0
145
0.0
301
CELL_VALUE
 90
4
  1
Port 3
304
ACVALUE_END
170
5
140
0.125
171
1
172
0
173
0
174
0
175
1
176
1
 91
33
178
0
145
0.0
301
CELL_VALUE
 90
4
  1
1/4" BSPP
304
ACVALUE_END
170
5
140
0.125
171
1
172
0
173
0
174
0
175
1
176
1
 91
33
178
0
145
0.0
301
CELL_VALUE
 90
4
  1
B7W
304
ACVALUE_END
170
5
140
0.125
171
1
172
0
173
0
174
0
175
1
176
1
 91
33
178
0
145
0.0
301
CELL_VALUE
 90
4
  1
Gage Port
304
ACVALUE_END
170
5
140
0.125
171
1
172
0
173
0
174
0
175
1
176
1
 91
33
178
0
145
0.0
301
CELL_VALUE
 90
4
  1
1/4" BSPP
304
ACVALUE_END
170
5
140
0.125
  0
MTEXT
  5
294
100
AcDbEntity
  8
0
100
AcDbMText
 62
2
  6
CONTINUOUS
  7
STANDARD
 71
1
 72
1
 10
0.52125
 20
5.75995
 30
0.0
 11
1.0
 21
0.0
 31
0.0
 44
0.6
  3
Notes\P \P1. Important: Carefully consider\P   the maximum system pressure. The\P   pressure rating of the manifold is\P   dependent on the manifold material,\P   with the port type/size a secondary\P   consideration. Manifolds\P   constructed of alu
  1
minum are not\P   rated for pressures higher than\P   3000 psi (210 bar), regardless of\P   the port type/size specified.
 40
0.1
 41
3.04
  0
LINE
  5
295
100
AcDbEntity
  8
0
100
AcDbLine
 62
7
  6
CONTINUOUS
 10
0.30125
 20
0.30125
 11
0.30125
 21
16.69875
  0
LINE
  5
296
100
AcDbEntity
  8
0
100
AcDbLine
 62
7
  6
CONTINUOUS
 10
0.30125
 20
0.30125
 11
21.69875
 21
0.30125
  0
LINE
  5
297
100
AcDbEntity
  8
0
100
AcDbLine
 62
7
  6
CONTINUOUS
 10
0.30125
 20
16.69875
 11
21.69875
 21
16.69875
  0
LINE
  5
298
100
AcDbEntity
  8
0
100
AcDbLine
 62
7
  6
CONTINUOUS
 10
21.69875
 20
0.30125
 11
21.69875
 21
16.69875
  0
LINE
  5
299
100
AcDbEntity
  8
0
100
AcDbLine
 62
7
  6
CONTINUOUS
 10
9.1952352814
 20
10.3113915045
 11
9.906987068
 21
10.9988909778
  0
LINE
  5
29A
100
AcDbEntity
  8
0
100
AcDbLine
 62
7
  6
CONTINUOUS
 10
12.093012932
 20
6.2467264078
 11
9.1952352814
 21
6.4476879704
  0
LINE
  5
29B
100
AcDbEntity
  8
0
100
AcDbLine
 62
7
  6
CONTINUOUS
 10
10.9606797533
 20
6.0930435321
 11
10.9913538314
 21
6.0778911248
  0
LINE
  5
29C
100
AcDbEntity
  8
0
100
AcDbLine
 62
7
  6
CONTINUOUS
 10
9.1952352814
 20
6.4476879704
 11
9.1952352814
 21
10.3113915045
  0
LINE
  5
29D
100
AcDbEntity
  8
0
100
AcDbLine
 62
4
  6
CONTINUOUS
 10
9.6472885844
 20
9.4029808875
 11
9.6400441405
 21
9.3938240351
  0
LINE
  5
29E
100
AcDbEntity
  8
0
100
AcDbLine
 62
4
  6
CONTINUOUS
 10
9.6545330284
 20
9.3445229319
 11
9.6400441405
 21
9.3262092227
  0
LINE
  5
29F
100
AcDbEntity
  8
0
100
AcDbLine
 62
4
  6
CONTINUOUS
 10
9.5965774767
 20
9.4258162343
 11
9.6110663646
 21
9.4344706829
  0
LINE
  5
2A0
100
AcDbEntity
  8
0
100
AcDbLine
 62
4
  6
CONTINUOUS
 10
9.6400441405
 20
9.3938240351
 11
9.6255552525
 21
9.3851695797
  0
LINE
  5
2A1
100
AcDbEntity
  8
0
100
AcDbLine
 62
4
  6
CONTINUOUS
 10
9.6472885844
 20
9.4126401438
 11
9.6472885844
 21
9.4029808875
  0
LINE
  5
2A2
100
AcDbEntity
  8
0
100
AcDbLine
 62
4
  6
CONTINUOUS
 10
9.6545330284
 20
9.3541821917
 11
9.6545330284
 21
9.3445229319
  0
LINE
  5
2A3
100
AcDbEntity
  8
0
100
AcDbLine
 62
4
  6
CONTINUOUS
 10
9.6400441405
 20
9.3262092227
 11
9.6255552525
 21
9.3175547716
  0
LINE
  5
2A4
100
AcDbEntity
  8
0
100
AcDbLine
 62
4
  6
CONTINUOUS
 10
10.8262701541
 20
9.8166001735
 11
10.8428288839
 21
9.8320105498
  0
LINE
  5
2A5
100
AcDbEntity
  8
0
100
AcDbLine
 62
4
  6
CONTINUOUS
 10
11.3451103419
 20
9.7557803887
 11
11.3616690631
 21
9.762911405
  0
LINE
  5
2A6
100
AcDbEntity
  8
0
100
AcDbLine
 62
4
  6
CONTINUOUS
 10
11.9022425688
 20
7.2857697007
 11
11.8877536809
 21
7.2867745085
  0
LINE
  5
2A7
100
AcDbEntity
  8
0
100
AcDbLine
 62
4
  6
CONTINUOUS
 10
11.8949981249
 20
7.3442276563
 11
11.9239759007
 21
7.3422180407
  0
LINE
  5
2A8
100
AcDbEntity
  8
0
100
AcDbLine
 62
4
  6
CONTINUOUS
 10
11.8877536809
 20
7.4026856119
 11
11.9022425688
 21
7.4016808041
  0
LINE
  5
2A9
100
AcDbEntity
  8
0
100
AcDbLine
 62
4
  6
CONTINUOUS
 10
10.8676669778
 20
9.7143769187
 11
10.8842257058
 21
9.7297872968
  0
LINE
  5
2AA
100
AcDbEntity
  8
0
100
AcDbLine
 62
4
  6
CONTINUOUS
 10
10.9587399925
 20
9.7080609837
 11
10.9752987137
 21
9.7234713623
  0
LINE
  5
2AB
100
AcDbEntity
  8
0
100
AcDbLine
 62
4
  6
CONTINUOUS
 10
11.5024182759
 20
9.7034742263
 11
11.5189769971
 21
9.7106052391
  0
LINE
  5
2AC
100
AcDbEntity
  8
0
100
AcDbLine
 62
4
  6
CONTINUOUS
 10
10.9311421149
 20
9.1905827707
 11
10.8869855033
 21
9.1715667346
  0
LINE
  5
2AD
100
AcDbEntity
  8
0
100
AcDbLine
 62
4
  6
CONTINUOUS
 10
9.5965774767
 20
9.3292236461
 11
9.5893330327
 21
9.3393853089
  0
LINE
  5
2AE
100
AcDbEntity
  8
0
100
AcDbLine
 62
4
  6
CONTINUOUS
 10
9.6400441405
 20
9.3745055156
 11
9.6545330284
 21
9.3541821917
  0
LINE
  5
2AF
100
AcDbEntity
  8
0
100
AcDbLine
 62
4
  6
CONTINUOUS
 10
10.5765092981
 20
8.2064739397
 11
10.5765092981
 21
8.0905628362
  0
LINE
  5
2B0
100
AcDbEntity
  8
0
100
AcDbLine
 62
7
  6
CONTINUOUS
 10
12.093012932
 20
10.1104299418
 11
12.8047647186
 21
10.7979294152
  0
LINE
  5
2B1
100
AcDbEntity
  8
0
100
AcDbLine
 62
4
  6
CONTINUOUS
 10
11.2774955095
 20
9.4243272933
 11
11.2609367814
 21
9.4089169169
  0
LINE
  5
2B2
100
AcDbEntity
  8
0
100
AcDbLine
 62
4
  6
CONTINUOUS
 10
11.0111759673
 20
9.1298366388
 11
10.9946172392
 21
9.1144262607
  0
LINE
  5
2B3
100
AcDbEntity
  8
0
100
AcDbLine
 62
4
  6
CONTINUOUS
 10
11.2857748735
 20
9.3657975675
 11
11.2692161454
 21
9.3503871894
  0
LINE
  5
2B4
100
AcDbEntity
  8
0
100
AcDbLine
 62
4
  6
CONTINUOUS
 10
11.8877536809
 20
7.2867745085
 11
11.873264793
 21
7.2974385752
  0
LINE
  5
2B5
100
AcDbEntity
  8
0
100
AcDbLine
 62
4
  6
CONTINUOUS
 10
9.6400441405
 20
9.422801811
 11
9.6472885844
 21
9.4126401438
  0
LINE
  5
2B6
100
AcDbEntity
  8
0
100
AcDbLine
 62
4
  6
CONTINUOUS
 10
11.7866764239
 20
9.7251576769
 11
11.7949557569
 21
9.7328628707
  0
LINE
  5
2B7
100
AcDbEntity
  8
0
100
AcDbLine
 62
4
  6
CONTINUOUS
 10
11.8611907521
 20
9.7199900907
 11
11.869470085
 21
9.7276952845
  0
LINE
  5
2B8
100
AcDbEntity
  8
0
100
AcDbLine
 62
4
  6
CONTINUOUS
 10
11.9025875273
 20
9.6426049348
 11
11.9108668603
 21
9.650310126
  0
LINE
  5
2B9
100
AcDbEntity
  8
0
100
AcDbLine
 62
4
  6
CONTINUOUS
 10
11.4306638004
 20
9.1835387043
 11
11.4472225216
 21
9.1989490811
  0
LINE
  5
2BA
100
AcDbEntity
  8
0
100
AcDbLine
 62
4
  6
CONTINUOUS
 10
11.8501515507
 20
9.1047709423
 11
11.8059949425
 21
9.0857549077
  0
LINE
  5
2BB
100
AcDbEntity
  8
0
100
AcDbLine
 62
4
  6
CONTINUOUS
 10
11.9022425688
 20
7.4016808041
 11
11.9167314568
 21
7.39101674
  0
LINE
  5
2BC
100
AcDbEntity
  8
0
100
AcDbLine
 62
4
  6
CONTINUOUS
 10
10.8262701541
 20
9.8000414454
 11
10.8262701541
 21
9.8166001735
  0
LINE
  5
2BD
100
AcDbEntity
  8
0
100
AcDbLine
 62
7
  6
CONTINUOUS
 10
10.8639357255
 20
6.3319632015
 11
10.8639357255
 21
6.1531623047
  0
LINE
  5
2BE
100
AcDbEntity
  8
0
100
AcDbLine
 62
7
  6
CONTINUOUS
 10
10.8783837737
 20
6.330961226
 11
10.8783837737
 21
6.1392065857
  0
LINE
  5
2BF
100
AcDbEntity
  8
0
100
AcDbLine
 62
4
  6
CONTINUOUS
 10
10.8842257058
 20
9.7297872968
 11
10.8842257058
 21
9.7463460266
  0
LINE
  5
2C0
100
AcDbEntity
  8
0
100
AcDbLine
 62
4
  6
CONTINUOUS
 10
10.917343162
 20
9.8268429671
 11
10.917343162
 21
9.7274905934
  0
LINE
  5
2C1
100
AcDbEntity
  8
0
100
AcDbLine
 62
4
  6
CONTINUOUS
 10
10.9532204225
 20
9.1172971397
 11
10.9532204225
 21
9.2332082431
  0
LINE
  5
2C2
100
AcDbEntity
  8
0
100
AcDbLine
 62
4
  6
CONTINUOUS
 10
10.9752987137
 20
9.7234713623
 11
10.9752987137
 21
9.8228237359
  0
LINE
  5
2C3
100
AcDbEntity
  8
0
100
AcDbLine
 62
7
  6
CONTINUOUS
 10
10.9869629418
 20
7.3094633033
 11
10.9869629418
 21
7.1759053252
  0
LINE
  5
2C4
100
AcDbEntity
  8
0
100
AcDbLine
 62
4
  6
CONTINUOUS
 10
11.0084161698
 20
9.7046159291
 11
11.0084161698
 21
9.8205270325
  0
LINE
  5
2C5
100
AcDbEntity
  8
0
100
AcDbLine
 62
4
  6
CONTINUOUS
 10
11.0111759673
 20
9.2126302843
 11
11.0111759673
 21
9.1298366388
  0
LINE
  5
2C6
100
AcDbEntity
  8
0
100
AcDbLine
 62
4
  6
CONTINUOUS
 10
11.0580923669
 20
9.1100242456
 11
11.0912098231
 21
9.2236386456
  0
LINE
  5
2C7
100
AcDbEntity
  8
0
100
AcDbLine
 62
4
  6
CONTINUOUS
 10
11.2899145678
 20
9.657496067
 11
11.3230320102
 21
9.7655908937
  0
LINE
  5
2C8
100
AcDbEntity
  8
0
100
AcDbLine
 62
4
  6
CONTINUOUS
 10
11.5272563498
 20
9.1768399882
 11
11.543815071
 21
9.1922503651
  0
LINE
  5
2C9
100
AcDbEntity
  8
0
100
AcDbLine
 62
4
  6
CONTINUOUS
 10
11.5852119015
 20
9.0900271115
 11
11.5686531803
 21
9.0746167329
  0
LINE
  5
2CA
100
AcDbEntity
  8
0
100
AcDbLine
 62
4
  6
CONTINUOUS
 10
9.6110663646
 20
9.3185595794
 11
9.5965774767
 21
9.3292236461
  0
LINE
  5
2CB
100
AcDbEntity
  8
0
100
AcDbLine
 62
4
  6
CONTINUOUS
 10
9.6255552525
 20
9.3851695797
 11
9.6400441405
 21
9.3745055156
  0
LINE
  5
2CC
100
AcDbEntity
  8
0
100
AcDbLine
 62
4
  6
CONTINUOUS
 10
9.6255552525
 20
9.4334658751
 11
9.6400441405
 21
9.422801811
  0
LINE
  5
2CD
100
AcDbEntity
  8
0
100
AcDbLine
 62
4
  6
CONTINUOUS
 10
11.873264793
 20
7.2974385752
 11
11.858775905
 21
7.3177618999
  0
LINE
  5
2CE
100
AcDbEntity
  8
0
100
AcDbLine
 62
4
  6
CONTINUOUS
 10
11.0663717216
 20
9.7005966979
 11
11.0663717216
 21
9.8165078013
  0
LINE
  5
2CF
100
AcDbEntity
  8
0
100
AcDbLine
 62
4
  6
CONTINUOUS
 10
11.1905621856
 20
9.69198406
 11
11.1905621856
 21
9.8078951634
  0
LINE
  5
2D0
100
AcDbEntity
  8
0
100
AcDbLine
 62
4
  6
CONTINUOUS
 10
11.1905622054
 20
9.1008374311
 11
11.1905622054
 21
9.2167485345
  0
LINE
  5
2D1
100
AcDbEntity
  8
0
100
AcDbLine
 62
4
  6
CONTINUOUS
 10
11.2278193218
 20
9.3532580689
 11
11.2278193218
 21
9.4691691723
  0
LINE
  5
2D2
100
AcDbEntity
  8
0
100
AcDbLine
 62
4
  6
CONTINUOUS
 10
11.3768478814
 20
9.4588340066
 11
11.3437304252
 21
9.3452196065
  0
LINE
  5
2D3
100
AcDbEntity
  8
0
100
AcDbLine
 62
4
  6
CONTINUOUS
 10
11.4348034331
 20
9.338903672
 11
11.4596415286
 21
9.4199747915
  0
LINE
  5
2D4
100
AcDbEntity
  8
0
100
AcDbLine
 62
4
  6
CONTINUOUS
 10
11.6762848956
 20
9.0837111779
 11
11.6597261744
 21
9.0683007993
  0
LINE
  5
2D5
100
AcDbEntity
  8
0
100
AcDbLine
 62
4
  6
CONTINUOUS
 10
11.858775905
 20
8.8439247964
 11
11.873264793
 21
8.852579245
  0
LINE
  5
2D6
100
AcDbEntity
  8
0
100
AcDbLine
 62
4
  6
CONTINUOUS
 10
11.9022425688
 20
8.802273334
 11
11.873264793
 21
8.7849644335
  0
LINE
  5
2D7
100
AcDbEntity
  8
0
100
AcDbLine
 62
4
  6
CONTINUOUS
 10
11.9167314568
 20
7.39101674
 11
11.9239759007
 21
7.3808550729
  0
LINE
  5
2D8
100
AcDbEntity
  8
0
100
AcDbLine
 62
4
  6
CONTINUOUS
 10
11.2402383767
 20
9.7630532842
 11
11.2402383767
 21
9.6885390044
  0
LINE
  5
2D9
100
AcDbEntity
  8
0
100
AcDbLine
 62
4
  6
CONTINUOUS
 10
11.2567971177
 20
9.0962440243
 11
11.2567971177
 21
9.2121551278
  0
LINE
  5
2DA
100
AcDbEntity
  8
0
100
AcDbLine
 62
4
  6
CONTINUOUS
 10
11.2774955095
 20
9.4491653889
 11
11.2774955095
 21
9.4243272933
  0
LINE
  5
2DB
100
AcDbEntity
  8
0
100
AcDbLine
 62
4
  6
CONTINUOUS
 10
11.2857748735
 20
9.3906356613
 11
11.2857748735
 21
9.3657975675
  0
LINE
  5
2DC
100
AcDbEntity
  8
0
100
AcDbLine
 62
7
  6
CONTINUOUS
 10
11.2920704918
 20
6.3022719546
 11
11.2920704918
 21
6.0321367201
  0
LINE
  5
2DD
100
AcDbEntity
  8
0
100
AcDbLine
 62
4
  6
CONTINUOUS
 10
11.3188923296
 20
9.4380151422
 11
11.3188923296
 21
9.4628532377
  0
LINE
  5
2DE
100
AcDbEntity
  8
0
100
AcDbLine
 62
4
  6
CONTINUOUS
 10
11.3451103419
 20
9.6895454738
 11
11.3451103419
 21
9.7557803887
  0
LINE
  5
2DF
100
AcDbEntity
  8
0
100
AcDbLine
 62
7
  6
CONTINUOUS
 10
11.3459913004
 20
6.2985325339
 11
11.3459913004
 21
6.0283972993
  0
LINE
  5
2E0
100
AcDbEntity
  8
0
100
AcDbLine
 62
4
  6
CONTINUOUS
 10
11.3947865054
 20
9.7937321587
 11
11.3947865054
 21
9.6778210553
  0
LINE
  5
2E1
100
AcDbEntity
  8
0
100
AcDbLine
 62
4
  6
CONTINUOUS
 10
11.427904003
 20
9.675524349
 11
11.427904003
 21
9.7583179963
  0
LINE
  5
2E2
100
AcDbEntity
  8
0
100
AcDbLine
 62
4
  6
CONTINUOUS
 10
11.4306638004
 20
9.1007450587
 11
11.4306638004
 21
9.1835387043
  0
LINE
  5
2E3
100
AcDbEntity
  8
0
100
AcDbLine
 62
4
  6
CONTINUOUS
 10
11.4844796104
 20
9.3354586174
 11
11.5093177198
 21
9.4496471921
  0
LINE
  5
2E4
100
AcDbEntity
  8
0
100
AcDbLine
 62
4
  6
CONTINUOUS
 10
11.7452795934
 20
9.7694253805
 11
11.7425198157
 21
9.7613374043
  0
LINE
  5
2E5
100
AcDbEntity
  8
0
100
AcDbLine
 62
7
  6
CONTINUOUS
 10
12.4192629044
 20
9.5157627342
 11
12.4179791963
 21
9.5145455321
  0
LINE
  5
2E6
100
AcDbEntity
  8
0
100
AcDbLine
 62
4
  6
CONTINUOUS
 10
11.8515314611
 20
8.7381753532
 11
11.9094870128
 21
8.7341561221
  0
LINE
  5
2E7
100
AcDbEntity
  8
0
100
AcDbLine
 62
4
  6
CONTINUOUS
 10
11.873264793
 20
8.852579245
 11
11.8877536809
 21
8.8515744372
  0
LINE
  5
2E8
100
AcDbEntity
  8
0
100
AcDbLine
 62
4
  6
CONTINUOUS
 10
11.0912098231
 20
9.2236386456
 11
11.1243272931
 21
9.1054308379
  0
LINE
  5
2E9
100
AcDbEntity
  8
0
100
AcDbLine
 62
4
  6
CONTINUOUS
 10
11.4665410006
 20
9.7473591439
 11
11.4665410006
 21
9.7308004159
  0
LINE
  5
2EA
100
AcDbEntity
  8
0
100
AcDbLine
 62
4
  6
CONTINUOUS
 10
11.5024182759
 20
9.6786361316
 11
11.5024182759
 21
9.7034742263
  0
LINE
  5
2EB
100
AcDbEntity
  8
0
100
AcDbLine
 62
4
  6
CONTINUOUS
 10
11.5272563498
 20
9.0940463427
 11
11.5272563498
 21
9.1768399882
  0
LINE
  5
2EC
100
AcDbEntity
  8
0
100
AcDbLine
 62
4
  6
CONTINUOUS
 10
11.5520944394
 20
9.666911713
 11
11.5520944394
 21
9.7331466322
  0
LINE
  5
2ED
100
AcDbEntity
  8
0
100
AcDbLine
 62
4
  6
CONTINUOUS
 10
11.5852118817
 20
9.7474086579
 11
11.5852118817
 21
9.6728943755
  0
LINE
  5
2EE
100
AcDbEntity
  8
0
100
AcDbLine
 62
4
  6
CONTINUOUS
 10
11.5852119015
 20
9.1728207571
 11
11.5852119015
 21
9.0900271115
  0
LINE
  5
2EF
100
AcDbEntity
  8
0
100
AcDbLine
 62
4
  6
CONTINUOUS
 10
11.6183293438
 20
9.0711716793
 11
11.6183293438
 21
9.1870827827
  0
LINE
  5
2F0
100
AcDbEntity
  8
0
100
AcDbLine
 62
4
  6
CONTINUOUS
 10
11.6348881005
 20
9.6611699531
 11
11.6348881005
 21
9.7439636004
  0
LINE
  5
2F1
100
AcDbEntity
  8
0
100
AcDbLine
 62
4
  6
CONTINUOUS
 10
11.8515314611
 20
8.8347679371
 11
11.858775905
 21
8.8439247964
  0
LINE
  5
2F2
100
AcDbEntity
  8
0
100
AcDbLine
 62
4
  6
CONTINUOUS
 10
11.873264793
 20
8.7849644335
 11
11.858775905
 21
8.7666507252
  0
LINE
  5
2F3
100
AcDbEntity
  8
0
100
AcDbLine
 62
4
  6
CONTINUOUS
 10
11.9094870128
 20
8.8114301933
 11
11.9022425688
 21
8.802273334
  0
LINE
  5
2F4
100
AcDbEntity
  8
0
100
AcDbLine
 62
4
  6
CONTINUOUS
 10
11.6597261744
 20
9.0683007993
 11
11.6183293438
 21
9.0711716793
  0
LINE
  5
2F5
100
AcDbEntity
  8
0
100
AcDbLine
 62
4
  6
CONTINUOUS
 10
11.5686531803
 20
9.0746167329
 11
11.543815071
 21
9.0763392617
  0
LINE
  5
2F6
100
AcDbEntity
  8
0
100
AcDbLine
 62
4
  6
CONTINUOUS
 10
11.4803399639
 20
9.0807412753
 11
11.4472225216
 21
9.0830379777
  0
LINE
  5
2F7
100
AcDbEntity
  8
0
100
AcDbLine
 62
4
  6
CONTINUOUS
 10
10.9946172392
 20
9.1144262607
 11
10.9532204225
 21
9.1172971397
  0
LINE
  5
2F8
100
AcDbEntity
  8
0
100
AcDbLine
 62
4
  6
CONTINUOUS
 10
11.2567971177
 20
9.0962440243
 11
11.3064733088
 21
9.0927989688
  0
LINE
  5
2F9
100
AcDbEntity
  8
0
100
AcDbLine
 62
4
  6
CONTINUOUS
 10
11.7232013367
 20
9.0638987819
 11
11.7728775002
 21
9.0604537282
  0
LINE
  5
2FA
100
AcDbEntity
  8
0
100
AcDbLine
 62
4
  6
CONTINUOUS
 10
10.8869855033
 20
9.1715667346
 11
10.9311421149
 21
9.1464261573
  0
LINE
  5
2FB
100
AcDbEntity
  8
0
100
AcDbLine
 62
4
  6
CONTINUOUS
 10
10.9946172392
 20
9.2303373641
 11
11.0111759673
 21
9.2126302843
  0
LINE
  5
2FC
100
AcDbEntity
  8
0
100
AcDbLine
 62
4
  6
CONTINUOUS
 10
11.0084161698
 20
9.8205270325
 11
11.0663717216
 21
9.7005966979
  0
LINE
  5
2FD
100
AcDbEntity
  8
0
100
AcDbLine
 62
4
  6
CONTINUOUS
 10
11.2733558467
 20
9.7690359474
 11
11.2981939561
 21
9.6845197713
  0
LINE
  5
2FE
100
AcDbEntity
  8
0
100
AcDbLine
 62
4
  6
CONTINUOUS
 10
11.858775905
 20
7.3177618999
 11
11.8515314611
 21
7.3472420797
  0
LINE
  5
2FF
100
AcDbEntity
  8
0
100
AcDbLine
 62
4
  6
CONTINUOUS
 10
11.4099653375
 20
9.4565373032
 11
11.4348034331
 21
9.338903672
  0
LINE
  5
300
100
AcDbEntity
  8
0
100
AcDbLine
 62
4
  6
CONTINUOUS
 10
11.6680055428
 20
9.6671526156
 11
11.6680055428
 21
9.7747843541
  0
LINE
  5
301
100
AcDbEntity
  8
0
100
AcDbLine
 62
4
  6
CONTINUOUS
 10
11.6762848956
 20
9.1665048235
 11
11.6762848956
 21
9.0837111779
  0
LINE
  5
302
100
AcDbEntity
  8
0
100
AcDbLine
 62
4
  6
CONTINUOUS
 10
11.7232013367
 20
9.0638987819
 11
11.7232013367
 21
9.1798098853
  0
LINE
  5
303
100
AcDbEntity
  8
0
100
AcDbLine
 62
4
  6
CONTINUOUS
 10
11.7425198157
 20
9.6537056683
 11
11.7425198157
 21
9.7364993156
  0
LINE
  5
304
100
AcDbEntity
  8
0
100
AcDbLine
 62
4
  6
CONTINUOUS
 10
11.7425198157
 20
9.7613374043
 11
11.7425198157
 21
9.7696167717
  0
LINE
  5
305
100
AcDbEntity
  8
0
100
AcDbLine
 62
4
  6
CONTINUOUS
 10
11.7866764239
 20
9.658922762
 11
11.7866764239
 21
9.7251576769
  0
LINE
  5
306
100
AcDbEntity
  8
0
100
AcDbLine
 62
4
  6
CONTINUOUS
 10
11.858775905
 20
8.7666507252
 11
11.8515314611
 21
8.7381753532
  0
LINE
  5
307
100
AcDbEntity
  8
0
100
AcDbLine
 62
4
  6
CONTINUOUS
 10
11.069131519
 20
9.1423761374
 11
11.1132881272
 21
9.1393138662
  0
LINE
  5
308
100
AcDbEntity
  8
0
100
AcDbLine
 62
4
  6
CONTINUOUS
 10
11.756318779
 20
9.1278369987
 11
11.7232013367
 21
9.1301337011
  0
LINE
  5
309
100
AcDbEntity
  8
0
100
AcDbLine
 62
4
  6
CONTINUOUS
 10
11.2899145876
 20
9.1601822392
 11
11.2567971177
 21
9.1624789435
  0
LINE
  5
30A
100
AcDbEntity
  8
0
100
AcDbLine
 62
4
  6
CONTINUOUS
 10
9.6255552525
 20
9.3175547716
 11
9.6110663646
 21
9.3185595794
  0
LINE
  5
30B
100
AcDbEntity
  8
0
100
AcDbLine
 62
4
  6
CONTINUOUS
 10
10.9532204225
 20
9.2332082431
 11
10.9946172392
 21
9.2303373641
  0
LINE
  5
30C
100
AcDbEntity
  8
0
100
AcDbLine
 62
4
  6
CONTINUOUS
 10
11.1574447354
 20
9.2190452389
 11
11.2236796477
 21
9.2144518321
  0
LINE
  5
30D
100
AcDbEntity
  8
0
100
AcDbLine
 62
4
  6
CONTINUOUS
 10
11.2567971177
 20
9.2121551278
 11
11.3064733088
 21
9.2087100722
  0
LINE
  5
30E
100
AcDbEntity
  8
0
100
AcDbLine
 62
4
  6
CONTINUOUS
 10
11.4472225216
 20
9.1989490811
 11
11.4803399639
 21
9.1966523787
  0
LINE
  5
30F
100
AcDbEntity
  8
0
100
AcDbLine
 62
4
  6
CONTINUOUS
 10
11.543815071
 20
9.1922503651
 11
11.5686531803
 21
9.1905278364
  0
LINE
  5
310
100
AcDbEntity
  8
0
100
AcDbLine
 62
4
  6
CONTINUOUS
 10
11.6183293438
 20
9.1870827827
 11
11.6597261744
 21
9.1842119028
  0
LINE
  5
311
100
AcDbEntity
  8
0
100
AcDbLine
 62
4
  6
CONTINUOUS
 10
11.7232013367
 20
9.1798098853
 11
11.7728775002
 21
9.1763648317
  0
LINE
  5
312
100
AcDbEntity
  8
0
100
AcDbLine
 62
4
  6
CONTINUOUS
 10
9.6110663646
 20
9.3861743875
 11
9.6255552525
 21
9.3851695797
  0
LINE
  5
313
100
AcDbEntity
  8
0
100
AcDbLine
 62
4
  6
CONTINUOUS
 10
9.6110663646
 20
9.4344706829
 11
9.6255552525
 21
9.4334658751
  0
LINE
  5
314
100
AcDbEntity
  8
0
100
AcDbLine
 62
4
  6
CONTINUOUS
 10
11.8877536809
 20
8.8515744372
 11
11.9022425688
 21
8.8409103731
  0
LINE
  5
315
100
AcDbEntity
  8
0
100
AcDbLine
 62
4
  6
CONTINUOUS
 10
10.8842257058
 20
9.7463460266
 11
10.8262701541
 21
9.8000414454
  0
LINE
  5
316
100
AcDbEntity
  8
0
100
AcDbLine
 62
4
  6
CONTINUOUS
 10
10.8262701541
 20
9.7255271631
 11
10.834549519
 21
9.7166736223
  0
LINE
  5
317
100
AcDbEntity
  8
0
100
AcDbLine
 62
4
  6
CONTINUOUS
 10
11.4472225216
 20
9.0830379777
 11
11.4306638004
 21
9.1007450587
  0
LINE
  5
318
100
AcDbEntity
  8
0
100
AcDbLine
 62
4
  6
CONTINUOUS
 10
10.917343162
 20
9.7274905934
 11
10.9339018901
 21
9.7097835119
  0
LINE
  5
319
100
AcDbEntity
  8
0
100
AcDbLine
 62
4
  6
CONTINUOUS
 10
11.543815071
 20
9.0763392617
 11
11.5272563498
 21
9.0940463427
  0
LINE
  5
31A
100
AcDbEntity
  8
0
100
AcDbLine
 62
4
  6
CONTINUOUS
 10
11.2692161454
 20
9.4083427411
 11
11.2857748735
 21
9.3906356613
  0
LINE
  5
31B
100
AcDbEntity
  8
0
100
AcDbLine
 62
4
  6
CONTINUOUS
 10
10.8759463418
 20
9.8297138463
 11
10.8842257058
 21
9.8208603029
  0
LINE
  5
31C
100
AcDbEntity
  8
0
100
AcDbLine
 62
4
  6
CONTINUOUS
 10
11.4596415286
 20
9.4199747915
 11
11.4844796104
 21
9.3354586174
  0
LINE
  5
31D
100
AcDbEntity
  8
0
100
AcDbLine
 62
4
  6
CONTINUOUS
 10
11.8611907521
 20
9.6951519986
 11
11.8611907521
 21
9.7199900907
  0
LINE
  5
31E
100
AcDbEntity
  8
0
100
AcDbLine
 62
4
  6
CONTINUOUS
 10
11.9094870128
 20
8.830748706
 11
11.9094870128
 21
8.8114301933
  0
LINE
  5
31F
100
AcDbEntity
  8
0
100
AcDbLine
 62
4
  6
CONTINUOUS
 10
11.9108668603
 20
9.650310126
 11
11.9108668603
 21
9.6751482207
  0
LINE
  5
320
100
AcDbEntity
  8
0
100
AcDbLine
 62
7
  6
CONTINUOUS
 10
11.911097708
 20
6.2593422714
 11
11.911097708
 21
6.0675876311
  0
LINE
  5
321
100
AcDbEntity
  8
0
100
AcDbLine
 62
4
  6
CONTINUOUS
 10
11.9239759007
 20
7.3422180407
 11
11.9239759007
 21
7.3035810068
  0
LINE
  5
322
100
AcDbEntity
  8
0
100
AcDbLine
 62
7
  6
CONTINUOUS
 10
11.9505704684
 20
6.2566048261
 11
11.9505704684
 21
6.0778039294
  0
LINE
  5
323
100
AcDbEntity
  8
0
100
AcDbLine
 62
7
  6
CONTINUOUS
 10
11.0054935671
 20
7.3442271647
 11
11.0051001192
 21
7.3438610202
  0
LINE
  5
324
100
AcDbEntity
  8
0
100
AcDbLine
 62
4
  6
CONTINUOUS
 10
11.2692161454
 20
9.3503871894
 11
11.2278193218
 21
9.3532580689
  0
LINE
  5
325
100
AcDbEntity
  8
0
100
AcDbLine
 62
4
  6
CONTINUOUS
 10
11.2278193218
 20
9.4112136206
 11
11.2692161454
 21
9.4083427411
  0
LINE
  5
326
100
AcDbEntity
  8
0
100
AcDbLine
 62
4
  6
CONTINUOUS
 10
11.2278193218
 20
9.4691691723
 11
11.2526574156
 21
9.4674466446
  0
LINE
  5
327
100
AcDbEntity
  8
0
100
AcDbLine
 62
4
  6
CONTINUOUS
 10
11.3188923296
 20
9.4628532377
 11
11.3768478814
 21
9.4588340066
  0
LINE
  5
328
100
AcDbEntity
  8
0
100
AcDbLine
 62
4
  6
CONTINUOUS
 10
11.2526574156
 20
9.4674466446
 11
11.2609367814
 21
9.4641126772
  0
LINE
  5
329
100
AcDbEntity
  8
0
100
AcDbLine
 62
4
  6
CONTINUOUS
 10
11.8059949425
 20
9.1299115211
 11
11.8501515507
 21
9.1047709423
  0
LINE
  5
32A
100
AcDbEntity
  8
0
100
AcDbLine
 62
4
  6
CONTINUOUS
 10
11.2609367814
 20
9.4641126772
 11
11.2774955095
 21
9.4491653889
  0
LINE
  5
32B
100
AcDbEntity
  8
0
100
AcDbLine
 62
4
  6
CONTINUOUS
 10
11.5686531803
 20
9.1905278364
 11
11.5852119015
 21
9.1728207571
  0
LINE
  5
32C
100
AcDbEntity
  8
0
100
AcDbLine
 62
4
  6
CONTINUOUS
 10
11.6597261744
 20
9.1842119028
 11
11.6762848956
 21
9.1665048235
  0
LINE
  5
32D
100
AcDbEntity
  8
0
100
AcDbLine
 62
4
  6
CONTINUOUS
 10
11.2319590161
 20
9.7719068273
 11
11.2402383767
 21
9.7630532842
  0
LINE
  5
32E
100
AcDbEntity
  8
0
100
AcDbLine
 62
4
  6
CONTINUOUS
 10
11.9022425688
 20
8.8409103731
 11
11.9094870128
 21
8.830748706
  0
LINE
  5
32F
100
AcDbEntity
  8
0
100
AcDbLine
 62
4
  6
CONTINUOUS
 10
11.5520944394
 20
9.7331466322
 11
11.5438151064
 21
9.750279534
  0
LINE
  5
330
100
AcDbEntity
  8
0
100
AcDbLine
 62
7
  6
CONTINUOUS
 10
12.093012932
 20
10.1104299418
 11
12.093012932
 21
6.2467264078
  0
LINE
  5
331
100
AcDbEntity
  8
0
100
AcDbLine
 62
7
  6
CONTINUOUS
 10
12.101990158
 20
6.2553977428
 11
12.101990158
 21
6.2240641268
  0
LINE
  5
332
100
AcDbEntity
  8
0
100
AcDbLine
 62
4
  6
CONTINUOUS
 10
11.8515314611
 20
7.3472420797
 11
11.858775905
 21
7.3757174516
  0
LINE
  5
333
100
AcDbEntity
  8
0
100
AcDbLine
 62
4
  6
CONTINUOUS
 10
11.2733558467
 20
9.6586444182
 11
11.2899145678
 21
9.657496067
  0
LINE
  5
334
100
AcDbEntity
  8
0
100
AcDbLine
 62
4
  6
CONTINUOUS
 10
11.8280733097
 20
9.6477725134
 11
11.7949557569
 21
9.6500692234
  0
LINE
  5
335
100
AcDbEntity
  8
0
100
AcDbLine
 62
4
  6
CONTINUOUS
 10
11.6928436522
 20
9.657150722
 11
11.676284931
 21
9.6582990732
  0
LINE
  5
336
100
AcDbEntity
  8
0
100
AcDbLine
 62
4
  6
CONTINUOUS
 10
11.5520944394
 20
9.666911713
 11
11.5189769971
 21
9.6692084154
  0
LINE
  5
337
100
AcDbEntity
  8
0
100
AcDbLine
 62
4
  6
CONTINUOUS
 10
11.3947865054
 20
9.6778210553
 11
11.3616690631
 21
9.6801177577
  0
LINE
  5
338
100
AcDbEntity
  8
0
100
AcDbLine
 62
4
  6
CONTINUOUS
 10
10.834549519
 20
9.7166736223
 11
10.8676669778
 21
9.7143769187
  0
LINE
  5
339
100
AcDbEntity
  8
0
100
AcDbLine
 62
4
  6
CONTINUOUS
 10
10.9339018901
 20
9.7097835119
 11
10.9587399925
 21
9.7080609837
  0
LINE
  5
33A
100
AcDbEntity
  8
0
100
AcDbLine
 62
4
  6
CONTINUOUS
 10
11.5934912699
 20
9.6640408331
 11
11.6348881005
 21
9.6611699531
  0
LINE
  5
33B
100
AcDbEntity
  8
0
100
AcDbLine
 62
4
  6
CONTINUOUS
 10
11.869470085
 20
9.6449016372
 11
11.9025875273
 21
9.6426049348
  0
LINE
  5
33C
100
AcDbEntity
  8
0
100
AcDbLine
 62
4
  6
CONTINUOUS
 10
11.5189769971
 20
9.7106052391
 11
11.5520944394
 21
9.7083085367
  0
LINE
  5
33D
100
AcDbEntity
  8
0
100
AcDbLine
 62
4
  6
CONTINUOUS
 10
11.3616690631
 20
9.6801177577
 11
11.3451103419
 21
9.6895454738
  0
LINE
  5
33E
100
AcDbEntity
  8
0
100
AcDbLine
 62
4
  6
CONTINUOUS
 10
11.5852118817
 20
9.6728943755
 11
11.5934912699
 21
9.6640408331
  0
LINE
  5
33F
100
AcDbEntity
  8
0
100
AcDbLine
 62
4
  6
CONTINUOUS
 10
11.4610214453
 20
9.7560212939
 11
11.4665410006
 21
9.7473591439
  0
LINE
  5
340
100
AcDbEntity
  8
0
100
AcDbLine
 62
4
  6
CONTINUOUS
 10
11.858775905
 20
7.3757174516
 11
11.873264793
 21
7.3940311634
  0
LINE
  5
341
100
AcDbEntity
  8
0
100
AcDbLine
 62
4
  6
CONTINUOUS
 10
11.873264793
 20
7.3940311634
 11
11.8877536809
 21
7.4026856119
  0
LINE
  5
342
100
AcDbEntity
  8
0
100
AcDbLine
 62
4
  6
CONTINUOUS
 10
11.5438151064
 20
9.750279534
 11
11.5024182759
 21
9.7531504139
  0
LINE
  5
343
100
AcDbEntity
  8
0
100
AcDbLine
 62
4
  6
CONTINUOUS
 10
11.1905621856
 20
9.7747777073
 11
11.2319590161
 21
9.7719068273
  0
LINE
  5
344
100
AcDbEntity
  8
0
100
AcDbLine
 62
4
  6
CONTINUOUS
 10
11.3616690631
 20
9.762911405
 11
11.3947865054
 21
9.7606147026
  0
LINE
  5
345
100
AcDbEntity
  8
0
100
AcDbLine
 62
4
  6
CONTINUOUS
 10
11.427904003
 20
9.7583179963
 11
11.4610214453
 21
9.7560212939
  0
LINE
  5
346
100
AcDbEntity
  8
0
100
AcDbLine
 62
4
  6
CONTINUOUS
 10
11.7949557569
 20
9.7328628707
 11
11.8280733097
 21
9.7305661606
  0
LINE
  5
347
100
AcDbEntity
  8
0
100
AcDbLine
 62
4
  6
CONTINUOUS
 10
11.869470085
 20
9.7276952845
 11
11.9025875273
 21
9.7253985821
  0
LINE
  5
348
100
AcDbEntity
  8
0
100
AcDbLine
 62
4
  6
CONTINUOUS
 10
10.8428288839
 20
9.8320105498
 11
10.8759463418
 21
9.8297138463
  0
LINE
  5
349
100
AcDbEntity
  8
0
100
AcDbLine
 62
4
  6
CONTINUOUS
 10
11.7425198157
 20
9.7696167717
 11
11.7452795934
 21
9.7694253805
  0
LINE
  5
34A
100
AcDbEntity
  8
0
100
AcDbLine
 62
4
  6
CONTINUOUS
 10
11.9025875273
 20
9.6812419704
 11
11.869470085
 21
9.6890582489
  0
LINE
  5
34B
100
AcDbEntity
  8
0
100
AcDbLine
 62
4
  6
CONTINUOUS
 10
11.5189769971
 20
9.6692084154
 11
11.5024182759
 21
9.6786361316
  0
LINE
  5
34C
100
AcDbEntity
  8
0
100
AcDbLine
 62
4
  6
CONTINUOUS
 10
11.676284931
 20
9.6582990732
 11
11.6680055428
 21
9.6671526156
  0
LINE
  5
34D
100
AcDbEntity
  8
0
100
AcDbLine
 62
4
  6
CONTINUOUS
 10
11.7949557569
 20
9.6500692234
 11
11.7866764239
 21
9.658922762
  0
LINE
  5
34E
100
AcDbEntity
  8
0
100
AcDbLine
 62
4
  6
CONTINUOUS
 10
11.8611907521
 20
9.6537551758
 11
11.869470085
 21
9.6449016372
  0
LINE
  5
34F
100
AcDbEntity
  8
0
100
AcDbLine
 62
4
  6
CONTINUOUS
 10
11.9239759007
 20
7.3035810068
 11
11.9167314568
 21
7.2944241518
  0
LINE
  5
350
100
AcDbEntity
  8
0
100
AcDbLine
 62
7
  6
CONTINUOUS
 10
12.4186274148
 20
7.8151305524
 11
12.4179791963
 21
7.8145159771
  0
LINE
  5
351
100
AcDbEntity
  8
0
100
AcDbLine
 62
4
  6
CONTINUOUS
 10
11.9167314568
 20
7.2944241518
 11
11.9022425688
 21
7.2857697007
  0
LINE
  5
352
100
AcDbEntity
  8
0
100
AcDbLine
 62
4
  6
CONTINUOUS
 10
11.869470085
 20
9.6890582489
 11
11.8611907521
 21
9.6951519986
  0
LINE
  5
353
100
AcDbEntity
  8
0
100
AcDbLine
 62
4
  6
CONTINUOUS
 10
11.9108668603
 20
9.6751482207
 11
11.9025875273
 21
9.6812419704
  0
LINE
  5
354
100
AcDbEntity
  8
0
100
AcDbLine
 62
4
  6
CONTINUOUS
 10
11.9025875273
 20
9.7253985821
 11
11.9108668603
 21
9.7165450409
  0
LINE
  5
355
100
AcDbEntity
  8
0
100
AcDbLine
 62
7
  6
CONTINUOUS
 10
12.8047647186
 20
10.7979294152
 11
12.8047647186
 21
6.9342258811
  0
LINE
  5
356
100
AcDbEntity
  8
0
100
AcDbLine
 62
7
  6
CONTINUOUS
 10
9.1952352814
 20
10.3113915045
 11
12.093012932
 21
10.1104299418
  0
LINE
  5
357
100
AcDbEntity
  8
0
100
AcDbLine
 62
7
  6
CONTINUOUS
 10
12.093012932
 20
6.2467264078
 11
12.8047647186
 21
6.9342258811
  0
LINE
  5
358
100
AcDbEntity
  8
0
100
AcDbLine
 62
7
  6
CONTINUOUS
 10
9.906987068
 20
10.9988909778
 11
12.8047647186
 21
10.7979294152
  0
LINE
  5
359
100
AcDbEntity
  8
0
100
AcDbLine
 62
7
  6
CONTINUOUS
 10
11.993789989
 20
6.0873844177
 11
11.9745720521
 21
6.0778911248
  0
ARC
  5
35A
100
AcDbEntity
  8
0
100
AcDbCircle
 62
7
  6
CONTINUOUS
 10
11.4754098701
 20
8.2888209465
 40
2.2641254892
100
AcDbArc
 50
266.0354973614
 51
266.723157899
  0
ARC
  5
35B
100
AcDbEntity
  8
0
100
AcDbCircle
 62
7
  6
CONTINUOUS
 10
11.4704807006
 20
8.2168073924
 40
2.1919434639
100
AcDbArc
 50
265.3313245689
 51
266.0338890315
  0
ARC
  5
35C
100
AcDbEntity
  8
0
100
AcDbCircle
 62
7
  6
CONTINUOUS
 10
10.30826077
 20
8.786566995
 40
1.166246532
100
AcDbArc
 50
99.1669049312
 51
101.0730251703
  0
ARC
  5
35D
100
AcDbEntity
  8
0
100
AcDbCircle
 62
7
  6
CONTINUOUS
 10
10.4097460157
 20
6.5564431698
 40
1.110406944
100
AcDbArc
 50
82.9310308233
 51
86.0835524947
  0
ARC
  5
35E
100
AcDbEntity
  8
0
100
AcDbCircle
 62
7
  6
CONTINUOUS
 10
11.6918982701
 20
6.9958732439
 40
0.9538147475
100
AcDbArc
 50
283.286087793
 51
285.7355389587
  0
ARC
  5
35F
100
AcDbEntity
  8
0
100
AcDbCircle
 62
7
  6
CONTINUOUS
 10
11.292960393
 20
6.7638065231
 40
0.7485539414
100
AcDbArc
 50
243.6649403382
 51
246.2656701867
  0
ARC
  5
360
100
AcDbEntity
  8
0
100
AcDbCircle
 62
7
  6
CONTINUOUS
 10
10.4692056087
 20
7.3941709791
 40
0.6050958934
100
AcDbArc
 50
134.5119990658
 51
135.0973550493
  0
ARC
  5
361
100
AcDbEntity
  8
0
100
AcDbCircle
 62
7
  6
CONTINUOUS
 10
10.5942264489
 20
7.2647367305
 40
0.6049501018
100
AcDbArc
 50
312.9427873427
 51
313.4057266831
  0
ARC
  5
362
100
AcDbEntity
  8
0
100
AcDbCircle
 62
7
  6
CONTINUOUS
 10
10.9802246547
 20
7.7810928186
 40
0.4500697968
100
AcDbArc
 50
176.9660650203
 51
180.0058039322
  0
ARC
  5
363
100
AcDbEntity
  8
0
100
AcDbCircle
 62
7
  6
CONTINUOUS
 10
10.0882613577
 20
9.6769728983
 40
0.3830600325
100
AcDbArc
 50
312.2850578231
 51
313.2146303283
  0
ARC
  5
364
100
AcDbEntity
  8
0
100
AcDbCircle
 62
7
  6
CONTINUOUS
 10
10.0091062846
 20
9.7589187515
 40
0.3830072798
100
AcDbArc
 50
135.0943684842
 51
135.6727444635
  0
ARC
  5
365
100
AcDbEntity
  8
0
100
AcDbCircle
 62
7
  6
CONTINUOUS
 10
10.2680854013
 20
9.9045116858
 40
0.167344763
100
AcDbArc
 50
266.0419171439
 51
274.6506349887
  0
ARC
  5
366
100
AcDbEntity
  8
0
100
AcDbCircle
 62
7
  6
CONTINUOUS
 10
12.4042405121
 20
7.7802844742
 40
0.0147429476
100
AcDbArc
 50
86.0360464783
 51
92.3934484822
  0
ARC
  5
367
100
AcDbEntity
  8
0
100
AcDbCircle
 62
7
  6
CONTINUOUS
 10
12.3737637157
 20
7.3408236544
 40
0.0147407106
100
AcDbArc
 50
259.7124946645
 51
266.0300348858
  0
SPLINE
  5
368
100
AcDbEntity
  8
0
100
AcDbSpline
 62
7
  6
CONTINUOUS
 70
0
 71
3
 72
23
 73
19
 74
0
 42
0.0000001
 43
0.0000001
 44
0.0000000001
 40
0.0
 40
0.0
 40
0.0
 40
0.0
 40
0.0771587943
 40
0.1531525983
 40
0.2277645257
 40
0.3008156151
 40
0.3721376111
 40
0.441561383
 40
0.5089207464
 40
0.5740613042
 40
0.63683572
 40
0.6971076841
 40
0.7547490656
 40
0.8096460692
 40
0.8616960538
 40
0.9108140941
 40
0.9569307292
 40
1.0
 40
1.0
 40
1.0
 40
1.0
 10
11.3393184903
 20
6.0058067941
 30
0.0
 10
11.3301534433
 20
6.0064423923
 30
0.0
 10
11.3119703791
 20
6.0078328957
 30
0.0
 10
11.2849623021
 20
6.0102961787
 30
0.0
 10
11.258480909
 20
6.013116919
 30
0.0
 10
11.2325993064
 20
6.0162867756
 30
0.0
 10
11.2073852324
 20
6.0197977265
 30
0.0
 10
11.1829051555
 20
6.0236398281
 30
0.0
 10
11.1592245322
 20
6.0278034314
 30
0.0
 10
11.1364065683
 20
6.0322766783
 30
0.0
 10
11.114511851
 20
6.0370481605
 30
0.0
 10
11.0935984624
 20
6.042104402
 30
0.0
 10
11.0737219224
 20
6.0474324864
 30
0.0
 10
11.0549348003
 20
6.0530174093
 30
0.0
 10
11.0372867986
 20
6.0588448579
 30
0.0
 10
11.0208240635
 20
6.064898592
 30
0.0
 10
11.0055902911
 20
6.0711629568
 30
0.0
 10
10.9959476466
 20
6.0756218382
 30
0.0
 10
10.9913499131
 20
6.077893075
 30
0.0
  0
SPLINE
  5
369
100
AcDbEntity
  8
0
100
AcDbSpline
 62
7
  6
CONTINUOUS
 70
0
 71
3
 72
9
 73
5
 74
0
 42
0.0000001
 43
0.0000001
 44
0.0000000001
 40
0.0
 40
0.0
 40
0.0
 40
0.0
 40
0.5197971894
 40
1.0
 40
1.0
 40
1.0
 40
1.0
 10
10.8783837737
 20
6.1392065857
 30
0.0
 10
10.8756894377
 20
6.1414151571
 30
0.0
 10
10.8706559681
 20
6.1458523799
 30
0.0
 10
10.8660271484
 20
6.1507159696
 30
0.0
 10
10.8639357255
 20
6.1531623047
 30
0.0
  0
SPLINE
  5
36A
100
AcDbEntity
  8
0
100
AcDbSpline
 62
7
  6
CONTINUOUS
 70
0
 71
3
 72
23
 73
19
 74
0
 42
0.0000001
 43
0.0000001
 44
0.0000000001
 40
0.0
 40
0.0
 40
0.0
 40
0.0
 40
0.0811307684
 40
0.1602256514
 40
0.2371394166
 40
0.3117306989
 40
0.3838655188
 40
0.453421346
 40
0.5202899008
 40
0.5843906942
 40
0.6456690168
 40
0.7041129182
 40
0.7597463028
 40
0.812646452
 40
0.862931511
 40
0.9107732172
 40
0.9563797285
 40
1.0
 40
1.0
 40
1.0
 40
1.0
 10
12.101990158
 20
6.2240641268
 30
0.0
 10
12.0998126287
 20
6.2197959911
 30
0.0
 10
12.0954535153
 20
6.2113965685
 30
0.0
 10
12.0888060296
 20
6.1990687215
 30
0.0
 10
12.0821293873
 20
6.1871976316
 30
0.0
 10
12.0754246772
 20
6.1758167714
 30
0.0
 10
12.068692797
 20
6.1649598113
 30
0.0
 10
12.061936137
 20
6.154659258
 30
0.0
 10
12.0551562937
 20
6.1449468717
 30
0.0
 10
12.0483571322
 20
6.1358509623
 30
0.0
 10
12.041540895
 20
6.1273975573
 30
0.0
 10
12.0347126429
 20
6.1196067436
 30
0.0
 10
12.0278751094
 20
6.1124951705
 30
0.0
 10
12.0210340182
 20
6.1060715198
 30
0.0
 10
12.0141924756
 20
6.1003405885
 30
0.0
 10
12.0073560938
 20
6.0952983038
 30
0.0
 10
12.0005288115
 20
6.0909372542
 30
0.0
 10
11.9958916924
 20
6.0884221598
 30
0.0
 10
11.9935817591
 20
6.0872815924
 30
0.0
  0
SPLINE
  5
36B
100
AcDbEntity
  8
0
100
AcDbSpline
 62
7
  6
CONTINUOUS
 70
0
 71
3
 72
16
 73
12
 74
0
 42
0.0000001
 43
0.0000001
 44
0.0000000001
 40
0.0
 40
0.0
 40
0.0
 40
0.0
 40
0.1090282894
 40
0.2197802851
 40
0.3338949666
 40
0.4528543284
 40
0.5145826996
 40
0.5779903009
 40
0.7103137802
 40
0.8507463606
 40
1.0
 40
1.0
 40
1.0
 40
1.0
 10
10.9869630968
 20
7.3094630582
 30
0.0
 10
10.986963086
 20
7.3109168636
 30
0.0
 10
10.9871566074
 20
7.3138509819
 30
0.0
 10
10.9880246428
 20
7.3182294411
 30
0.0
 10
10.989467781
 20
7.322592523
 30
0.0
 10
10.9911252253
 20
7.3261661941
 30
0.0
 10
10.9927193668
 20
7.3290051369
 30
0.0
 10
10.9945472203
 20
7.3319125948
 30
0.0
 10
10.9972011632
 20
7.3355330736
 30
0.0
 10
11.0008975746
 20
7.3397829333
 30
0.0
 10
11.0036431828
 20
7.3425052045
 30
0.0
 10
11.0051001108
 20
7.3438609961
 30
0.0
  0
SPLINE
  5
36C
100
AcDbEntity
  8
0
100
AcDbSpline
 62
7
  6
CONTINUOUS
 70
0
 71
3
 72
9
 73
5
 74
0
 42
0.0000001
 43
0.0000001
 44
0.0000000001
 40
0.0
 40
0.0
 40
0.0
 40
0.0
 40
0.4956217049
 40
1.0
 40
1.0
 40
1.0
 40
1.0
 10
10.9608871377
 20
6.0929411444
 30
0.0
 10
10.9468730274
 20
6.0998659732
 30
0.0
 10
10.9190002855
 20
6.1146631356
 30
0.0
 10
10.8918874988
 20
6.1307977529
 30
0.0
 10
10.8783837737
 20
6.1392065857
 30
0.0
  0
SPLINE
  5
36D
100
AcDbEntity
  8
0
100
AcDbSpline
 62
7
  6
CONTINUOUS
 70
0
 71
3
 72
29
 73
25
 74
0
 42
0.0000001
 43
0.0000001
 44
0.0000000001
 40
0.0
 40
0.0
 40
0.0
 40
0.0
 40
0.0193646742
 40
0.0398580369
 40
0.0614684275
 40
0.0841775651
 40
0.1079628328
 40
0.1327976805
 40
0.1586509133
 40
0.1854891319
 40
0.2132749098
 40
0.2419685558
 40
0.271528042
 40
0.3019083628
 40
0.3649423952
 40
0.4306770921
 40
0.4986914915
 40
0.5685439808
 40
0.6397765617
 40
0.7119190669
 40
0.7844942972
 40
0.8570174477
 40
0.929015682
 40
1.0
 40
1.0
 40
1.0
 40
1.0
 10
11.9745754488
 20
6.0778928173
 30
0.0
 10
11.9708443525
 20
6.0760497001
 30
0.0
 10
11.9630847927
 20
6.0724163123
 30
0.0
 10
11.9509252141
 20
6.0672487835
 30
0.0
 10
11.9379345904
 20
6.062218153
 30
0.0
 10
11.9241360877
 20
6.0573330215
 30
0.0
 10
11.909553845
 20
6.0526021582
 30
0.0
 10
11.8942135745
 20
6.0480342667
 30
0.0
 10
11.878142442
 20
6.0436370147
 30
0.0
 10
11.8613688304
 20
6.0394188196
 30
0.0
 10
11.8439225163
 20
6.0353868128
 30
0.0
 10
11.8258344326
 20
6.0315483575
 30
0.0
 10
11.8071366512
 20
6.0279104287
 30
0.0
 10
11.7811174125
 20
6.0232786998
 30
0.0
 10
11.7473110516
 20
6.0180600937
 30
0.0
 10
11.7053502098
 20
6.0127630416
 30
0.0
 10
11.6618097525
 20
6.0083956295
 30
0.0
 10
11.6169989874
 20
6.0049893209
 30
0.0
 10
11.5712359857
 20
6.002568815
 30
0.0
 10
11.5248456802
 20
6.0011515697
 30
0.0
 10
11.4781582153
 20
6.0007479429
 30
0.0
 10
11.4315039497
 20
6.00136044
 30
0.0
 10
11.3852162468
 20
6.0029852448
 30
0.0
 10
11.3545366187
 20
6.0047514133
 30
0.0
 10
11.3393184903
 20
6.0058067941
 30
0.0
  0
SPLINE
  5
36E
100
AcDbEntity
  8
0
100
AcDbSpline
 62
7
  6
CONTINUOUS
 70
0
 71
3
 72
21
 73
17
 74
0
 42
0.0000001
 43
0.0000001
 44
0.0000000001
 40
0.0
 40
0.0
 40
0.0
 40
0.0
 40
0.1269266306
 40
0.1902356571
 40
0.2534226618
 40
0.3164750211
 40
0.379381614
 40
0.442133702
 40
0.5047247465
 40
0.5671521045
 40
0.6294167402
 40
0.6915228504
 40
0.7534784743
 40
0.8152934295
 40
0.8769787052
 40
1.0
 40
1.0
 40
1.0
 40
1.0
 10
11.911097708
 20
6.0675876311
 30
0.0
 10
11.888090125
 20
6.059863216
 30
0.0
 10
11.8533297195
 20
6.0490754177
 30
0.0
 10
11.8064857988
 20
6.0366558602
 30
0.0
 10
11.7711816123
 20
6.0284301665
 30
0.0
 10
11.7357034769
 20
6.0213724483
 30
0.0
 10
11.7000838678
 20
6.0155582025
 30
0.0
 10
11.6643639321
 20
6.0110492478
 30
0.0
 10
11.6285914101
 20
6.0078859578
 30
0.0
 10
11.5928177927
 20
6.0060839549
 30
0.0
 10
11.5570945854
 20
6.0056350556
 30
0.0
 10
11.5214698686
 20
6.0065057879
 30
0.0
 10
11.48598543
 20
6.0086401915
 30
0.0
 10
11.4506741255
 20
6.0119674014
 30
0.0
 10
11.4039029161
 20
6.0178775434
 30
0.0
 10
11.3690704787
 20
6.0238499458
 30
0.0
 10
11.3459913004
 20
6.0283972993
 30
0.0
  0
SPLINE
  5
36F
100
AcDbEntity
  8
0
100
AcDbSpline
 62
7
  6
CONTINUOUS
 70
0
 71
3
 72
15
 73
11
 74
0
 42
0.0000001
 43
0.0000001
 44
0.0000000001
 40
0.0
 40
0.0
 40
0.0
 40
0.0
 40
0.1200350229
 40
0.2408049341
 40
0.3626322888
 40
0.4858903489
 40
0.6109646446
 40
0.7381990118
 40
0.8678398
 40
1.0
 40
1.0
 40
1.0
 40
1.0
 10
11.2920704918
 20
6.0321367201
 30
0.0
 10
11.2798608402
 20
6.0308538856
 30
0.0
 10
11.2552964001
 20
6.0288945323
 30
0.0
 10
11.2181955322
 20
6.0280476813
 30
0.0
 10
11.1807799186
 20
6.0295543679
 30
0.0
 10
11.1431125009
 20
6.0336541974
 30
0.0
 10
11.1052860934
 20
6.040522705
 30
0.0
 10
11.0674152922
 20
6.0502400003
 30
0.0
 10
11.0296211977
 20
6.0627734454
 30
0.0
 10
11.0047804133
 20
6.0728204409
 30
0.0
 10
10.9923992996
 20
6.0782441864
 30
0.0
  0
LINE
  5
370
100
AcDbEntity
  8
0
100
AcDbLine
 62
7
  6
CONTINUOUS
 10
10.9923992996
 20
6.0782441864
 11
10.9916701709
 21
6.0785640804
  0
SPLINE
  5
371
100
AcDbEntity
  8
0
100
AcDbSpline
 62
7
  6
CONTINUOUS
 70
0
 71
3
 72
10
 73
6
 74
0
 42
0.0000001
 43
0.0000001
 44
0.0000000001
 40
0.0
 40
0.0
 40
0.0
 40
0.0
 40
0.5114800979
 40
0.7581744319
 40
1.0
 40
1.0
 40
1.0
 40
1.0
 10
11.9935817591
 20
6.0872815924
 30
0.0
 10
11.9903953157
 20
6.0857082338
 30
0.0
 10
11.9855414235
 20
6.0836244133
 30
0.0
 10
11.9789425038
 20
6.0814421077
 30
0.0
 10
11.975662184
 20
6.0805612487
 30
0.0
 10
11.9740276619
 20
6.0801722202
 30
0.0
  0
SPLINE
  5
372
100
AcDbEntity
  8
0
100
AcDbSpline
 62
7
  6
CONTINUOUS
 70
0
 71
3
 72
11
 73
7
 74
0
 42
0.0000001
 43
0.0000001
 44
0.0000000001
 40
0.0
 40
0.0
 40
0.0
 40
0.0
 40
0.2545574775
 40
0.5052872671
 40
0.7534080087
 40
1.0
 40
1.0
 40
1.0
 40
1.0
 10
11.9740276619
 20
6.0801722202
 30
0.0
 10
11.9720762329
 20
6.0797077654
 30
0.0
 10
11.9681698081
 20
6.0789182288
 30
0.0
 10
11.9622797852
 20
6.0781399576
 30
0.0
 10
11.9564141427
 20
6.0777564414
 30
0.0
 10
11.9525128653
 20
6.0777490953
 30
0.0
 10
11.9505704684
 20
6.0778039294
 30
0.0
  0
SPLINE
  5
373
100
AcDbEntity
  8
0
100
AcDbSpline
 62
7
  6
CONTINUOUS
 70
0
 71
3
 72
16
 73
12
 74
0
 42
0.0000001
 43
0.0000001
 44
0.0000000001
 40
0.0
 40
0.0
 40
0.0
 40
0.0
 40
0.1494785605
 40
0.2900621813
 40
0.4224642848
 40
0.4858851714
 40
0.5476101863
 40
0.6665165136
 40
0.7805259698
 40
0.8911348789
 40
1.0
 40
1.0
 40
1.0
 40
1.0
 10
11.0053390999
 20
7.2748439812
 30
0.0
 10
11.0038633974
 20
7.2762077665
 30
0.0
 10
11.0010823876
 20
7.2789461289
 30
0.0
 10
10.997337387
 20
7.2832224901
 30
0.0
 10
10.9946480875
 20
7.2868663603
 30
0.0
 10
10.9927958372
 20
7.2897928548
 30
0.0
 10
10.9911808132
 20
7.2926497532
 30
0.0
 10
10.9895015059
 20
7.2962462494
 30
0.0
 10
10.9880390305
 20
7.3006381217
 30
0.0
 10
10.9871592814
 20
7.3050457377
 30
0.0
 10
10.9869631076
 20
7.3079996283
 30
0.0
 10
10.9869630968
 20
7.3094630582
 30
0.0
  0
SPLINE
  5
374
100
AcDbEntity
  8
0
100
AcDbSpline
 62
7
  6
CONTINUOUS
 70
0
 71
3
 72
39
 73
35
 74
0
 42
0.0000001
 43
0.0000001
 44
0.0000000001
 40
0.0
 40
0.0
 40
0.0
 40
0.0
 40
0.0311450437
 40
0.0624431125
 40
0.0938883331
 40
0.1254709822
 40
0.157178873
 40
0.1889972474
 40
0.2209091591
 40
0.2528958248
 40
0.2849370022
 40
0.3170113907
 40
0.3490970489
 40
0.3811718181
 40
0.4132137492
 40
0.4452015278
 40
0.4771148901
 40
0.5089350229
 40
0.5406449458
 40
0.5722298665
 40
0.6036774985
 40
0.6349783412
 40
0.6661259148
 40
0.6971169386
 40
0.7279514454
 40
0.7586328312
 40
0.789167835
 40
0.8195664378
 40
0.8498416821
 40
0.8800094162
 40
0.9100879636
 40
0.9400977212
 40
0.9700606965
 40
1.0
 40
1.0
 40
1.0
 40
1.0
 10
10.0404204295
 20
10.1349347226
 30
0.0
 10
10.0507987062
 20
10.1342149866
 30
0.0
 10
10.0715612925
 20
10.1320123321
 30
0.0
 10
10.1024534506
 20
10.1264637723
 30
0.0
 10
10.1330147249
 20
10.118691936
 30
0.0
 10
10.163080072
 20
10.108738582
 30
0.0
 10
10.1924897471
 20
10.0966570394
 30
0.0
 10
10.2210868809
 20
10.0825119672
 30
0.0
 10
10.2487191383
 20
10.066378959
 30
0.0
 10
10.2752392716
 20
10.0483441399
 30
0.0
 10
10.3005059687
 20
10.028503727
 30
0.0
 10
10.324384617
 20
10.006963563
 30
0.0
 10
10.3467479721
 20
9.9838384907
 30
0.0
 10
10.3674768226
 20
9.9592517537
 30
0.0
 10
10.3864606391
 20
9.9333343699
 30
0.0
 10
10.4035981944
 20
9.9062244594
 30
0.0
 10
10.4187980409
 20
9.8780664706
 30
0.0
 10
10.4319789916
 20
9.8490104286
 30
0.0
 10
10.443070588
 20
9.819211167
 30
0.0
 10
10.4520134997
 20
9.7888275139
 30
0.0
 10
10.458759782
 20
9.7580214329
 30
0.0
 10
10.4632731333
 20
9.7269571807
 30
0.0
 10
10.4655291503
 20
9.6958004548
 30
0.0
 10
10.4655154727
 20
9.6647175108
 30
0.0
 10
10.4632318061
 20
9.6338742813
 30
0.0
 10
10.4586899384
 20
9.6034355075
 30
0.0
 10
10.4519137644
 20
9.5735638565
 30
0.0
 10
10.442939155
 20
9.5444190404
 30
0.0
 10
10.4318137566
 20
9.5161569825
 30
0.0
 10
10.418596702
 20
9.4889289311
 30
0.0
 10
10.403358584
 20
9.4628807976
 30
0.0
 10
10.3861803009
 20
9.4381516319
 30
0.0
 10
10.3671553858
 20
9.4148755933
 30
0.0
 10
10.3533027289
 20
9.4004040196
 30
0.0
 10
10.3461098661
 20
9.3934562237
 30
0.0
  0
SPLINE
  5
375
100
AcDbEntity
  8
0
100
AcDbSpline
 62
7
  6
CONTINUOUS
 70
0
 71
3
 72
51
 73
47
 74
0
 42
0.0000001
 43
0.0000001
 44
0.0000000001
 40
0.0
 40
0.0
 40
0.0
 40
0.0
 40
0.0311429623
 40
0.0624390393
 40
0.0938821581
 40
0.1254627405
 40
0.1571685478
 40
0.1889848322
 40
0.2208946479
 40
0.2528792128
 40
0.2849182853
 40
0.3169905665
 40
0.3490741169
 40
0.3811467786
 40
0.413186604
 40
0.4451722806
 40
0.4770835444
 40
0.5089015852
 40
0.5406094235
 40
0.5721922667
 40
0.6036378301
 40
0.6349366131
 40
0.6505313541
 40
0.6660872357
 40
0.6816039492
 40
0.6970813947
 40
0.7125196809
 40
0.727919126
 40
0.7432802612
 40
0.7586038263
 40
0.7738907665
 40
0.789142231
 40
0.8043595683
 40
0.8195443173
 40
0.8346982008
 40
0.8498231194
 40
0.8649211391
 40
0.8799944797
 40
0.8950455049
 40
0.9100767091
 40
0.9250907018
 40
0.9400901927
 40
0.9550779784
 40
0.9700569243
 40
0.9850299475
 40
1.0
 40
1.0
 40
1.0
 40
1.0
 10
10.5233833712
 20
7.9928249601
 30
0.0
 10
10.5397763281
 20
7.9916881047
 30
0.0
 10
10.5725718204
 20
7.9882088888
 30
0.0
 10
10.621367441
 20
7.9794447319
 30
0.0
 10
10.6696404155
 20
7.967168693
 30
0.0
 10
10.7171300196
 20
7.9514468861
 30
0.0
 10
10.7635839957
 20
7.9323635424
 30
0.0
 10
10.8087544949
 20
7.9100207026
 30
0.0
 10
10.8524009406
 20
7.8845378524
 30
0.0
 10
10.8942907023
 20
7.8560509575
 30
0.0
 10
10.9342006393
 20
7.8247120984
 30
0.0
 10
10.9719180722
 20
7.7906883809
 30
0.0
 10
11.007241992
 20
7.7541611963
 30
0.0
 10
11.0399841698
 20
7.7153252792
 30
0.0
 10
11.0699699591
 20
7.6743875267
 30
0.0
 10
11.0970395188
 20
7.6315661415
 30
0.0
 10
11.121048318
 20
7.5870892443
 30
0.0
 10
11.1418681969
 20
7.5411938211
 30
0.0
 10
11.1593878722
 20
7.4941245622
 30
0.0
 10
11.1735135605
 20
7.446131846
 30
0.0
 10
11.1841695081
 20
7.3974732604
 30
0.0
 10
11.1901179306
 20
7.3565294304
 30
0.0
 10
11.1930869541
 20
7.3237066233
 30
0.0
 10
11.1944171216
 20
7.2991132791
 30
0.0
 10
11.1948511706
 20
7.27454999
 30
0.0
 10
11.1943886058
 20
7.2500491551
 30
0.0
 10
11.1930299834
 20
7.2256435966
 30
0.0
 10
11.1907770792
 20
7.2013658811
 30
0.0
 10
11.1876329252
 20
7.1772484357
 30
0.0
 10
11.1836017012
 20
7.153323467
 30
0.0
 10
11.1786887292
 20
7.1296229401
 30
0.0
 10
11.1729005804
 20
7.1061785096
 30
0.0
 10
11.1662449893
 20
7.0830214871
 30
0.0
 10
11.1587308001
 20
7.0601828166
 30
0.0
 10
11.1503680199
 20
7.0376930184
 30
0.0
 10
11.1411678446
 20
7.0155821269
 30
0.0
 10
11.1311425438
 20
6.9938796868
 30
0.0
 10
11.1203054585
 20
6.9726147179
 30
0.0
 10
11.1086710885
 20
6.9518156225
 30
0.0
 10
11.0962549805
 20
6.9315101855
 30
0.0
 10
11.0830736857
 20
6.9117255634
 30
0.0
 10
11.0691448001
 20
6.8924881947
 30
0.0
 10
11.0544869852
 20
6.8738237901
 30
0.0
 10
11.0391197203
 20
6.8557572091
 30
0.0
 10
11.0230638464
 20
6.8383129598
 30
0.0
 10
11.0119139679
 20
6.8271126654
 30
0.0
 10
11.0062327038
 20
6.8216249797
 30
0.0
  0
SPLINE
  5
376
100
AcDbEntity
  8
0
100
AcDbSpline
 62
7
  6
CONTINUOUS
 70
0
 71
3
 72
34
 73
30
 74
0
 42
0.0000001
 43
0.0000001
 44
0.0000000001
 40
0.0
 40
0.0
 40
0.0
 40
0.0
 40
0.0845017631
 40
0.1673004612
 40
0.2480789935
 40
0.3265291774
 40
0.4023563354
 40
0.4391988087
 40
0.4752818393
 40
0.5105731496
 40
0.5450416022
 40
0.5786574517
 40
0.6113923142
 40
0.6432192789
 40
0.6741131428
 40
0.7040503539
 40
0.733009313
 40
0.7609705008
 40
0.7879165715
 40
0.8138327837
 40
0.8387070832
 40
0.8625305056
 40
0.8852976526
 40
0.9070069835
 40
0.9276616105
 40
0.9472699157
 40
0.9658463994
 40
0.9834129555
 40
1.0
 40
1.0
 40
1.0
 40
1.0
 10
10.2324639978
 20
10.4382775687
 30
0.0
 10
10.2193604665
 20
10.4391863017
 30
0.0
 10
10.1934327726
 20
10.4412154358
 30
0.0
 10
10.155048951
 20
10.4449362153
 30
0.0
 10
10.1176784394
 20
10.4492912454
 30
0.0
 10
10.0814783098
 20
10.4542620865
 30
0.0
 10
10.0521388861
 20
10.4589436365
 30
0.0
 10
10.0293733183
 20
10.4629917495
 30
0.0
 10
10.0128486122
 20
10.4661389553
 30
0.0
 10
9.9967269648
 20
10.4694229732
 30
0.0
 10
9.9810252899
 20
10.4728403952
 30
0.0
 10
9.9657600741
 20
10.4763875859
 30
0.0
 10
9.9509473374
 20
10.4800608069
 30
0.0
 10
9.936602623
 20
10.4838562034
 30
0.0
 10
9.9227409682
 20
10.4877697391
 30
0.0
 10
9.9093769035
 20
10.4917973142
 30
0.0
 10
9.896524422
 20
10.4959346757
 30
0.0
 10
9.8841969658
 20
10.5001774462
 30
0.0
 10
9.8724074244
 20
10.5045211965
 30
0.0
 10
9.8611680893
 20
10.5089613268
 30
0.0
 10
9.8504906662
 20
10.5134931934
 30
0.0
 10
9.8403862529
 20
10.5181120743
 30
0.0
 10
9.8308652993
 20
10.5228131238
 30
0.0
 10
9.8219376454
 20
10.5275915178
 30
0.0
 10
9.8136124453
 20
10.5324423446
 30
0.0
 10
9.8058982261
 20
10.5373606554
 30
0.0
 10
9.7988027598
 20
10.5423416938
 30
0.0
 10
9.7923335356
 20
10.5473802623
 30
0.0
 10
9.7883302099
 20
10.5508726379
 30
0.0
 10
9.7864427672
 20
10.5526291091
 30
0.0
  0
SPLINE
  5
377
100
AcDbEntity
  8
0
100
AcDbSpline
 62
7
  6
CONTINUOUS
 70
0
 71
3
 72
18
 73
14
 74
0
 42
0.0000001
 43
0.0000001
 44
0.0000000001
 40
0.0
 40
0.0
 40
0.0
 40
0.0
 40
0.150467608
 40
0.291710008
 40
0.4244359371
 40
0.549562455
 40
0.6682139939
 40
0.7255497488
 40
0.7817912909
 40
0.8371402503
 40
0.8918093826
 40
0.9460201179
 40
1.0
 40
1.0
 40
1.0
 40
1.0
 10
12.4488888253
 20
9.6766093423
 30
0.0
 10
12.4508536533
 20
9.6785072205
 30
0.0
 10
12.4547805194
 20
9.6820681285
 30
0.0
 10
12.4608612399
 20
9.6868136463
 30
0.0
 10
12.4669348182
 20
9.6907825581
 30
0.0
 10
12.4729949662
 20
9.6939683493
 30
0.0
 10
12.4780884539
 20
9.6959885006
 30
0.0
 10
12.482132458
 20
9.6971887536
 30
0.0
 10
12.4851223849
 20
9.6978805624
 30
0.0
 10
12.4881023923
 20
9.6983736322
 30
0.0
 10
12.4910716455
 20
9.6986677887
 30
0.0
 10
12.4940289633
 20
9.6987628786
 30
0.0
 10
12.4959937202
 20
9.6986933873
 30
0.0
 10
12.496971383
 20
9.6986255904
 30
0.0
  0
SPLINE
  5
378
100
AcDbEntity
  8
0
100
AcDbSpline
 62
7
  6
CONTINUOUS
 70
0
 71
3
 72
18
 73
14
 74
0
 42
0.0000001
 43
0.0000001
 44
0.0000000001
 40
0.0
 40
0.0
 40
0.0
 40
0.0
 40
0.1504675778
 40
0.2917143634
 40
0.4244426495
 40
0.4879099663
 40
0.5496093894
 40
0.6682625047
 40
0.7817882978
 40
0.8371380147
 40
0.8918078593
 40
0.9460192908
 40
1.0
 40
1.0
 40
1.0
 40
1.0
 10
12.4488888253
 20
7.9814094167
 30
0.0
 10
12.4501327455
 20
7.9826109514
 30
0.0
 10
12.4526189084
 20
7.9848653845
 30
0.0
 10
12.4564684613
 20
7.9878697025
 30
0.0
 10
12.4597200755
 20
7.989994509
 30
0.0
 10
12.4623129418
 20
7.9914333659
 30
0.0
 10
12.4648295298
 20
7.992668661
 30
0.0
 10
12.4679760624
 20
7.9939168855
 30
0.0
 10
12.4711785668
 20
7.994768687
 30
0.0
 10
12.4737150478
 20
7.9951882852
 30
0.0
 10
12.4755949284
 20
7.9953745236
 30
0.0
 10
12.4774672058
 20
7.9954346578
 30
0.0
 10
12.4787110997
 20
7.9953906484
 30
0.0
 10
12.4793300611
 20
7.9953477206
 30
0.0
  0
SPLINE
  5
379
100
AcDbEntity
  8
0
100
AcDbSpline
 62
7
  6
CONTINUOUS
 70
0
 71
3
 72
30
 73
26
 74
0
 42
0.0000001
 43
0.0000001
 44
0.0000000001
 40
0.0
 40
0.0
 40
0.0
 40
0.0
 40
0.0308185463
 40
0.0616180045
 40
0.0924023207
 40
0.1231822087
 40
0.1539664334
 40
0.1847651261
 40
0.2155888974
 40
0.2464483156
 40
0.2773537999
 40
0.3083153804
 40
0.3393422372
 40
0.3704423961
 40
0.4016225629
 40
0.4328877244
 40
0.4956651359
 40
0.5587883446
 40
0.622208132
 40
0.6858246163
 40
0.7494842736
 40
0.8129824765
 40
0.8760747499
 40
0.9384978636
 40
1.0
 40
1.0
 40
1.0
 40
1.0
 10
10.2565341538
 20
9.7375660708
 30
0.0
 10
10.253454042
 20
9.7377796772
 30
0.0
 10
10.2473062417
 20
9.7383784228
 30
0.0
 10
10.238152451
 20
9.7397884244
 30
0.0
 10
10.2290948647
 20
9.7417050446
 30
0.0
 10
10.2201591267
 20
9.7441206986
 30
0.0
 10
10.2113689722
 20
9.7470262011
 30
0.0
 10
10.2027471104
 20
9.7504103011
 30
0.0
 10
10.1943147512
 20
9.7542602245
 30
0.0
 10
10.1860916711
 20
9.7585618636
 30
0.0
 10
10.1780961514
 20
9.7632999196
 30
0.0
 10
10.1703449936
 20
9.768458103
 30
0.0
 10
10.1628536332
 20
9.7740194301
 30
0.0
 10
10.1556363079
 20
9.779966266
 30
0.0
 10
10.1487058647
 20
9.786280706
 30
0.0
 10
10.1398534107
 20
9.7951756786
 30
0.0
 10
10.1295631581
 20
9.8071272414
 30
0.0
 10
10.1185602893
 20
9.8226079529
 30
0.0
 10
10.1089544595
 20
9.8390891824
 30
0.0
 10
10.1008138773
 20
9.8563993789
 30
0.0
 10
10.0942013788
 20
9.8743568798
 30
0.0
 10
10.0891745114
 20
9.892766436
 30
0.0
 10
10.0857824416
 20
9.9114209881
 30
0.0
 10
10.0840619428
 20
9.9301014443
 30
0.0
 10
10.0840433179
 20
9.9425374636
 30
0.0
 10
10.0843244521
 20
9.9486925455
 30
0.0
  0
SPLINE
  5
37A
100
AcDbEntity
  8
0
100
AcDbSpline
 62
7
  6
CONTINUOUS
 70
0
 71
3
 72
20
 73
16
 74
0
 42
0.0000001
 43
0.0000001
 44
0.0000000001
 40
0.0
 40
0.0
 40
0.0
 40
0.0
 40
0.1257686688
 40
0.1885738303
 40
0.2512965916
 40
0.3764286874
 40
0.5011889932
 40
0.5634702479
 40
0.6257008835
 40
0.6879092294
 40
0.7501300529
 40
0.8124037698
 40
0.8747751639
 40
0.9372914922
 40
1.0
 40
1.0
 40
1.0
 40
1.0
 10
10.370969318
 20
7.4889575047
 30
0.0
 10
10.3672467895
 20
7.5013651255
 30
0.0
 10
10.3625344964
 20
7.5202456424
 30
0.0
 10
10.3580145642
 20
7.5457375636
 30
0.0
 10
10.3546741068
 20
7.5713465388
 30
0.0
 10
10.352698158
 20
7.6035320614
 30
0.0
 10
10.353665534
 20
7.6357191719
 30
0.0
 10
10.356207677
 20
7.6612754043
 30
0.0
 10
10.358996242
 20
7.6803113906
 30
0.0
 10
10.3626673846
 20
7.6991903988
 30
0.0
 10
10.367220383
 20
7.7178811041
 30
0.0
 10
10.3726537556
 20
7.7363526444
 30
0.0
 10
10.3789649752
 20
7.7545753731
 30
0.0
 10
10.3861495295
 20
7.7725195871
 30
0.0
 10
10.3915082076
 20
7.7842579734
 30
0.0
 10
10.3943282041
 20
7.7900687324
 30
0.0
  0
SPLINE
  5
37B
100
AcDbEntity
  8
0
100
AcDbSpline
 62
7
  6
CONTINUOUS
 70
0
 71
3
 72
37
 73
33
 74
0
 42
0.0000001
 43
0.0000001
 44
0.0000000001
 40
0.0
 40
0.0
 40
0.0
 40
0.0
 40
0.0306603439
 40
0.0614196794
 40
0.0922774283
 40
0.1232302442
 40
0.1542744392
 40
0.1854054344
 40
0.2166178905
 40
0.2479057764
 40
0.2792624077
 40
0.3106805153
 40
0.3421523082
 40
0.3736695419
 40
0.4052235914
 40
0.4368055246
 40
0.5000003976
 40
0.5631952683
 40
0.5947771979
 40
0.626331242
 40
0.6578484687
 40
0.6893202534
 40
0.7207383523
 40
0.7520949738
 40
0.783382848
 40
0.8145952923
 40
0.8457262713
 40
0.876770454
 40
0.9077232649
 40
0.9385809315
 40
0.9693405263
 40
1.0
 40
1.0
 40
1.0
 40
1.0
 10
10.5681198541
 20
7.8019610335
 30
0.0
 10
10.568367617
 20
7.7949419616
 30
0.0
 10
10.5692001915
 20
7.7808907589
 30
0.0
 10
10.5714501125
 20
7.7598650936
 30
0.0
 10
10.5746978134
 20
7.7389020543
 30
0.0
 10
10.5789359064
 20
7.7180502158
 30
0.0
 10
10.5841545708
 20
7.6973574058
 30
0.0
 10
10.5903417795
 20
7.6768712098
 30
0.0
 10
10.5974832767
 20
7.6566386936
 30
0.0
 10
10.6055626162
 20
7.6367063525
 30
0.0
 10
10.6145612098
 20
7.6171199833
 30
0.0
 10
10.624458352
 20
7.5979245985
 30
0.0
 10
10.6352313118
 20
7.5791642794
 30
0.0
 10
10.6468552171
 20
7.5608822291
 30
0.0
 10
10.6593036882
 20
7.5431200698
 30
0.0
 10
10.6769633188
 20
7.5201838975
 30
0.0
 10
10.7009489833
 20
7.4930192879
 30
0.0
 10
10.7272662441
 20
7.4681068437
 30
0.0
 10
10.7495767905
 20
7.4496631478
 30
0.0
 10
10.7668969804
 20
7.436606747
 30
0.0
 10
10.7847653163
 20
7.424356404
 30
0.0
 10
10.8031411136
 20
7.4129399219
 30
0.0
 10
10.8219820582
 20
7.4023836552
 30
0.0
 10
10.8412448872
 20
7.3927118576
 30
0.0
 10
10.8608853301
 20
7.3839467776
 30
0.0
 10
10.8808582605
 20
7.3761085792
 30
0.0
 10
10.9011177806
 20
7.3692153054
 30
0.0
 10
10.9216173484
 20
7.363282832
 30
0.0
 10
10.9423098088
 20
7.3583248388
 30
0.0
 10
10.9631477745
 20
7.3543527536
 30
0.0
 10
10.9840827137
 20
7.3513757834
 30
0.0
 10
10.9980964905
 20
7.3500568576
 30
0.0
 10
11.0051025642
 20
7.349566054
 30
0.0
  0
SPLINE
  5
37C
100
AcDbEntity
  8
0
100
AcDbSpline
 62
7
  6
CONTINUOUS
 70
0
 71
3
 72
24
 73
20
 74
0
 42
0.0000001
 43
0.0000001
 44
0.0000000001
 40
0.0
 40
0.0
 40
0.0
 40
0.0
 40
0.0616478687
 40
0.0924817887
 40
0.1233243262
 40
0.1850410161
 40
0.2468257596
 40
0.308700059
 40
0.3706844256
 40
0.4327981575
 40
0.4950591363
 40
0.5574836398
 40
0.620086178
 40
0.6828793696
 40
0.7458737328
 40
0.8090779632
 40
0.8724976716
 40
0.9361384975
 40
1.0
 40
1.0
 40
1.0
 40
1.0
 10
9.7347309929
 20
10.0263984439
 30
0.0
 10
9.7396687108
 20
10.0311679296
 30
0.0
 10
9.7472705805
 20
10.0381256238
 30
0.0
 10
9.7577676908
 20
10.0469826353
 30
0.0
 10
9.7685050584
 20
10.0555595831
 30
0.0
 10
9.7823625796
 20
10.0657424622
 30
0.0
 10
9.7996366857
 20
10.0770627693
 30
0.0
 10
9.817517013
 20
10.0874589208
 30
0.0
 10
9.8359582172
 20
10.0969045336
 30
0.0
 10
9.8549139019
 20
10.1053759059
 30
0.0
 10
9.8743362836
 20
10.1128517211
 30
0.0
 10
9.8941764349
 20
10.119313194
 30
0.0
 10
9.9143843766
 20
10.1247441
 30
0.0
 10
9.9349092012
 20
10.1291308136
 30
0.0
 10
9.9556992504
 20
10.1324623734
 30
0.0
 10
9.9767020788
 20
10.1347303951
 30
0.0
 10
9.9978651173
 20
10.1359293239
 30
0.0
 10
10.0191342648
 20
10.1360560926
 30
0.0
 10
10.0333259006
 20
10.1354267298
 30
0.0
 10
10.0404204295
 20
10.1349347226
 30
0.0
  0
SPLINE
  5
37D
100
AcDbEntity
  8
0
100
AcDbSpline
 62
7
  6
CONTINUOUS
 70
0
 71
3
 72
23
 73
19
 74
0
 42
0.0000001
 43
0.0000001
 44
0.0000000001
 40
0.0
 40
0.0
 40
0.0
 40
0.0
 40
0.0616482107
 40
0.1233194484
 40
0.1850364778
 40
0.246821563
 40
0.3086962115
 40
0.3706809284
 40
0.432795007
 40
0.4950563296
 40
0.557481183
 40
0.6200840897
 40
0.6828775671
 40
0.7458723773
 40
0.8090769738
 40
0.8724964981
 40
0.9361392129
 40
1.0
 40
1.0
 40
1.0
 40
1.0
 10
9.8932017485
 20
9.8944521422
 30
0.0
 10
9.8958389396
 20
9.8969994597
 30
0.0
 10
9.9012524469
 20
9.9019542347
 30
0.0
 10
9.9097620947
 20
9.9089406117
 30
0.0
 10
9.9186412526
 20
9.9154652103
 30
0.0
 10
9.9278672475
 20
9.921511308
 30
0.0
 10
9.9374169194
 20
9.9270637443
 30
0.0
 10
9.9472661857
 20
9.9321085089
 30
0.0
 10
9.9573902141
 20
9.9366329491
 30
0.0
 10
9.9677634945
 20
9.9406256914
 30
0.0
 10
9.9783599048
 20
9.9440766748
 30
0.0
 10
9.989152746
 20
9.9469772316
 30
0.0
 10
10.0001148282
 20
9.9493201272
 30
0.0
 10
10.0112185645
 20
9.951099477
 30
0.0
 10
10.0224359174
 20
9.9523107776
 30
0.0
 10
10.0337389198
 20
9.9529511259
 30
0.0
 10
10.0450985297
 20
9.953018787
 30
0.0
 10
10.0526781521
 20
9.9526826759
 30
0.0
 10
10.0564671972
 20
9.9524199048
 30
0.0
  0
SPLINE
  5
37E
100
AcDbEntity
  8
0
100
AcDbSpline
 62
7
  6
CONTINUOUS
 70
0
 71
3
 72
41
 73
37
 74
0
 42
0.0000001
 43
0.0000001
 44
0.0000000001
 40
0.0
 40
0.0
 40
0.0
 40
0.0
 40
0.0299390141
 40
0.0599016989
 40
0.0899111649
 40
0.1199894198
 40
0.1501568599
 40
0.180431808
 40
0.2108301131
 40
0.2413648182
 40
0.2720459031
 40
0.3028801065
 40
0.3338708259
 40
0.3650180945
 40
0.3963186305
 40
0.4277659543
 40
0.4593505667
 40
0.4910601815
 40
0.5228800053
 40
0.5547930582
 40
0.5867805277
 40
0.6188221494
 40
0.6508966088
 40
0.6829819573
 40
0.7150560361
 40
0.7310843129
 40
0.7471015874
 40
0.7790879444
 40
0.810999549
 40
0.8428176147
 40
0.8745252056
 40
0.9061075368
 40
0.9375524699
 40
0.9532225433
 40
0.9688553077
 40
1.0
 40
1.0
 40
1.0
 40
1.0
 10
10.2197326459
 20
9.556402502
 30
0.0
 10
10.2235743099
 20
9.5601132448
 30
0.0
 10
10.2309729164
 20
9.5678423732
 30
0.0
 10
10.2411340143
 20
9.5802738679
 30
0.0
 10
10.2503088345
 20
9.5934814777
 30
0.0
 10
10.2584474213
 20
9.6073935454
 30
0.0
 10
10.2655065759
 20
9.6219357998
 30
0.0
 10
10.2714486035
 20
9.6370303081
 30
0.0
 10
10.2762419057
 20
9.6525962964
 30
0.0
 10
10.2798610334
 20
9.6685504858
 30
0.0
 10
10.2822868415
 20
9.6848075719
 30
0.0
 10
10.2835065718
 20
9.7012806763
 30
0.0
 10
10.2835139122
 20
9.7178818138
 30
0.0
 10
10.2823090196
 20
9.7345223596
 30
0.0
 10
10.27989851
 20
9.7511135186
 30
0.0
 10
10.276295416
 20
9.7675667946
 30
0.0
 10
10.2715191113
 20
9.7837944563
 30
0.0
 10
10.2655952035
 20
9.7997099985
 30
0.0
 10
10.258555394
 20
9.8152285981
 30
0.0
 10
10.2504373112
 20
9.8302675568
 30
0.0
 10
10.2412842977
 20
9.8447467465
 30
0.0
 10
10.2311452262
 20
9.8585889961
 30
0.0
 10
10.220074069
 20
9.8717206295
 30
0.0
 10
10.2081302495
 20
9.8840713588
 30
0.0
 10
10.19749891
 20
9.8936614661
 30
0.0
 10
10.1886223942
 20
9.9008796986
 30
0.0
 10
10.1795168293
 20
9.9077808618
 30
0.0
 10
10.1677175855
 20
9.9158049522
 30
0.0
 10
10.1529596735
 20
9.9244212787
 30
0.0
 10
10.1376861415
 20
9.9319760991
 30
0.0
 10
10.121978627
 20
9.93842875
 30
0.0
 10
10.105921244
 20
9.9437447185
 30
0.0
 10
10.0923022006
 20
9.9472080571
 30
0.0
 10
10.0813189662
 20
9.949382722
 30
0.0
 10
10.0703182623
 20
9.9511540606
 30
0.0
 10
10.0620101389
 20
9.9520355005
 30
0.0
 10
10.0564671972
 20
9.9524199048
 30
0.0
  0
SPLINE
  5
37F
100
AcDbEntity
  8
0
100
AcDbSpline
 62
7
  6
CONTINUOUS
 70
0
 71
3
 72
27
 73
23
 74
0
 42
0.0000001
 43
0.0000001
 44
0.0000000001
 40
0.0
 40
0.0
 40
0.0
 40
0.0
 40
0.0616468919
 40
0.092480324
 40
0.1233223738
 40
0.1850380873
 40
0.2468218549
 40
0.2777487728
 40
0.3087006876
 40
0.3706840776
 40
0.4327968309
 40
0.4950568274
 40
0.5574803452
 40
0.6200818953
 40
0.6828740866
 40
0.7143476821
 40
0.745872711
 40
0.809075826
 40
0.8724948563
 40
0.9042889874
 40
0.9361391032
 40
1.0
 40
1.0
 40
1.0
 40
1.0
 10
10.0405340386
 20
7.8213879623
 30
0.0
 10
10.048333376
 20
7.8289215519
 30
0.0
 10
10.060340905
 20
7.8399114513
 30
0.0
 10
10.0769214919
 20
7.853901486
 30
0.0
 10
10.093881718
 20
7.8674490545
 30
0.0
 10
10.1157699679
 20
7.8835331673
 30
0.0
 10
10.1385010958
 20
7.8984294952
 30
0.0
 10
10.1571597097
 20
7.9096148119
 30
0.0
 10
10.1761406769
 20
7.9203155314
 30
0.0
 10
10.2004270678
 20
7.9327550946
 30
0.0
 10
10.2303680619
 20
7.9461357391
 30
0.0
 10
10.261046594
 20
7.9579440991
 30
0.0
 10
10.2923850086
 20
7.9681502281
 30
0.0
 10
10.3243039594
 20
7.9767284912
 30
0.0
 10
10.3513005323
 20
7.982498339
 30
0.0
 10
10.3731032262
 20
7.9862822342
 30
0.0
 10
10.3950676655
 20
7.9895142472
 30
0.0
 10
10.4227376992
 20
7.9925023164
 30
0.0
 10
10.4505710546
 20
7.9940790149
 30
0.0
 10
10.4729196715
 20
7.9944958365
 30
0.0
 10
10.495348953
 20
7.9943483841
 30
0.0
 10
10.5121771999
 20
7.9936021107
 30
0.0
 10
10.5233833712
 20
7.9928249601
 30
0.0
  0
SPLINE
  5
380
100
AcDbEntity
  8
0
100
AcDbSpline
 62
7
  6
CONTINUOUS
 70
0
 71
3
 72
23
 73
19
 74
0
 42
0.0000001
 43
0.0000001
 44
0.0000000001
 40
0.0
 40
0.0
 40
0.0
 40
0.0
 40
0.0616482093
 40
0.1233194447
 40
0.1850364761
 40
0.2468215627
 40
0.3086962074
 40
0.3706809212
 40
0.432795002
 40
0.49505633
 40
0.5574811833
 40
0.6200840699
 40
0.6828776109
 40
0.7458723283
 40
0.8090768909
 40
0.8724970111
 40
0.9361380651
 40
1.0
 40
1.0
 40
1.0
 40
1.0
 10
10.2098340481
 20
7.6859986526
 30
0.0
 10
10.2152206333
 20
7.6912017025
 30
0.0
 10
10.226278057
 20
7.7013220434
 30
0.0
 10
10.2436594354
 20
7.7155921234
 30
0.0
 10
10.2617955876
 20
7.7289189664
 30
0.0
 10
10.2806401865
 20
7.7412684227
 30
0.0
 10
10.3001459036
 20
7.7526095595
 30
0.0
 10
10.3202635367
 20
7.7629137923
 30
0.0
 10
10.3409424015
 20
7.7721552104
 30
0.0
 10
10.3621303901
 20
7.780310573
 30
0.0
 10
10.3837741207
 20
7.7873593859
 30
0.0
 10
10.4058190706
 20
7.7932839589
 30
0.0
 10
10.4282097068
 20
7.7980694236
 30
0.0
 10
10.4508896738
 20
7.8017038183
 30
0.0
 10
10.473801768
 20
7.8041780038
 30
0.0
 10
10.49688862
 20
7.8054859019
 30
0.0
 10
10.5200912376
 20
7.8056241944
 30
0.0
 10
10.5355729561
 20
7.8049376143
 30
0.0
 10
10.5433124215
 20
7.8044008806
 30
0.0
  0
SPLINE
  5
381
100
AcDbEntity
  8
0
100
AcDbSpline
 62
7
  6
CONTINUOUS
 70
0
 71
3
 72
42
 73
38
 74
0
 42
0.0000001
 43
0.0000001
 44
0.0000000001
 40
0.0
 40
0.0
 40
0.0
 40
0.0
 40
0.0149707805
 40
0.0299445306
 40
0.0449242042
 40
0.0599127184
 40
0.0749129376
 40
0.0899276594
 40
0.1200056895
 40
0.1501729042
 40
0.1804476258
 40
0.2108457035
 40
0.2413801811
 40
0.2720610377
 40
0.302895011
 40
0.3338854998
 40
0.3650325374
 40
0.3963328406
 40
0.4277799299
 40
0.4593643074
 40
0.491073686
 40
0.5228932718
 40
0.554806086
 40
0.5867933165
 40
0.6188346988
 40
0.6509089188
 40
0.682994028
 40
0.715067868
 40
0.7471084975
 40
0.7790946169
 40
0.8110059833
 40
0.8428238138
 40
0.8745311626
 40
0.9061132744
 40
0.937557951
 40
0.9688554921
 40
1.0
 40
1.0
 40
1.0
 40
1.0
 10
10.8767907948
 20
6.9955142603
 30
0.0
 10
10.8807145463
 20
6.9993043192
 30
0.0
 10
10.888415192
 20
7.0070397717
 30
0.0
 10
10.8995041417
 20
7.0190876009
 30
0.0
 10
10.9101175537
 20
7.0315652244
 30
0.0
 10
10.9202409114
 20
7.0444557102
 30
0.0
 10
10.9298609674
 20
7.0577421247
 30
0.0
 10
10.9420048792
 20
7.0759693978
 30
0.0
 10
10.955868166
 20
7.0996667356
 30
0.0
 10
10.9702863538
 20
7.1293693769
 30
0.0
 10
10.9824234076
 20
7.1602008937
 30
0.0
 10
10.992213965
 20
7.1919951972
 30
0.0
 10
10.9996062259
 20
7.2245824944
 30
0.0
 10
11.0045610642
 20
7.257788454
 30
0.0
 10
11.0070524458
 20
7.2914356465
 30
0.0
 10
11.0070674404
 20
7.3253443543
 30
0.0
 10
11.004606366
 20
7.3593335543
 30
0.0
 10
10.999682772
 20
7.3932218796
 30
0.0
 10
10.9923232711
 20
7.4268285746
 30
0.0
 10
10.9825673973
 20
7.459974433
 30
0.0
 10
10.9704674875
 20
7.4924827701
 30
0.0
 10
10.9560883101
 20
7.5241803375
 30
0.0
 10
10.9395066963
 20
7.5548982154
 30
0.0
 10
10.9208111778
 20
7.584472716
 30
0.0
 10
10.9001015533
 20
7.6127462778
 30
0.0
 10
10.8774882771
 20
7.6395682466
 30
0.0
 10
10.8530918837
 20
7.6647956592
 30
0.0
 10
10.8270424242
 20
7.6882940634
 30
0.0
 10
10.7994787306
 20
7.7099381961
 30
0.0
 10
10.7705476612
 20
7.7296126078
 30
0.0
 10
10.7404033465
 20
7.7472122912
 30
0.0
 10
10.7092064349
 20
7.7626433084
 30
0.0
 10
10.6771231147
 20
7.7758232063
 30
0.0
 10
10.6443245165
 20
7.7866814427
 30
0.0
 10
10.6109848992
 20
7.7951598277
 30
0.0
 10
10.5772843183
 20
7.8012128111
 30
0.0
 10
10.5546341921
 20
7.8036157131
 30
0.0
 10
10.5433124215
 20
7.8044008806
 30
0.0
  0
SPLINE
  5
382
100
AcDbEntity
  8
0
100
AcDbSpline
 62
7
  6
CONTINUOUS
 70
0
 71
3
 72
91
 73
87
 74
0
 42
0.0000001
 43
0.0000001
 44
0.0000000001
 40
0.0
 40
0.0
 40
0.0
 40
0.0
 40
0.0027164146
 40
0.005453202
 40
0.008230252
 40
0.0110665198
 40
0.0139797053
 40
0.0169859824
 40
0.0200999174
 40
0.023334401
 40
0.0267007187
 40
0.0302086385
 40
0.0338665091
 40
0.0376814414
 40
0.0416593691
 40
0.0458052582
 40
0.0501231421
 40
0.0546162891
 40
0.0592872586
 40
0.064137982
 40
0.0691698666
 40
0.0743837897
 40
0.079780237
 40
0.0853592528
 40
0.0911205635
 40
0.0970635488
 40
0.1031872988
 40
0.1094906474
 40
0.1226297881
 40
0.1364673429
 40
0.1509860432
 40
0.166165828
 40
0.1819841602
 40
0.1984162836
 40
0.2154354412
 40
0.2330130641
 40
0.2511189358
 40
0.2697213391
 40
0.2887871904
 40
0.3082821639
 40
0.3281708096
 40
0.3484166635
 40
0.368982358
 40
0.3898297276
 40
0.4109199118
 40
0.4322134566
 40
0.4536704139
 40
0.4752504412
 40
0.4969128994
 40
0.5186169519
 40
0.5403216628
 40
0.5619860952
 40
0.5835694083
 40
0.6050309559
 40
0.6263303839
 40
0.6474277291
 40
0.6682835187
 40
0.688858872
 40
0.7091156002
 40
0.7290163102
 40
0.7485245085
 40
0.7676047097
 40
0.7862225487
 40
0.8043448976
 40
0.8219399925
 40
0.8389775679
 40
0.8554290014
 40
0.8712674776
 40
0.8864681732
 40
0.9010084737
 40
0.9148682315
 40
0.9280300795
 40
0.9343449284
 40
0.9404802779
 40
0.9464349254
 40
0.952207944
 40
0.9577987094
 40
0.9632068925
 40
0.9684325652
 40
0.9734761403
 40
0.9783384919
 40
0.9830209404
 40
0.9875254382
 40
0.9918545985
 40
0.9960115586
 40
1.0
 40
1.0
 40
1.0
 40
1.0
 10
12.4008062676
 20
8.3119561161
 30
0.0
 10
12.399509135
 20
8.3120460669
 30
0.0
 10
12.3969117826
 20
8.3123440357
 30
0.0
 10
12.3930488127
 20
8.3131414041
 30
0.0
 10
12.3892150539
 20
8.3142891183
 30
0.0
 10
12.3854131951
 20
8.3157859565
 30
0.0
 10
12.3816452603
 20
8.3176307195
 30
0.0
 10
12.377913116
 20
8.3198218385
 30
0.0
 10
12.3742185391
 20
8.32235785
 30
0.0
 10
12.3705631347
 20
8.325237088
 30
0.0
 10
12.3669484914
 20
8.3284578902
 30
0.0
 10
12.363376189
 20
8.3320185111
 30
0.0
 10
12.359847738
 20
8.3359170552
 30
0.0
 10
12.3563647731
 20
8.3401515964
 30
0.0
 10
12.3529287944
 20
8.3447199709
 30
0.0
 10
12.3495414614
 20
8.3496199675
 30
0.0
 10
12.3462043075
 20
8.3548491395
 30
0.0
 10
12.342918956
 20
8.3604049322
 30
0.0
 10
12.3396869874
 20
8.3662846042
 30
0.0
 10
12.3365099522
 20
8.3724852457
 30
0.0
 10
12.3333894576
 20
8.379003805
 30
0.0
 10
12.3303269829
 20
8.3858370312
 30
0.0
 10
12.3273241151
 20
8.392981549
 30
0.0
 10
12.324382291
 20
8.4004337863
 30
0.0
 10
12.3215030229
 20
8.40819004
 30
0.0
 10
12.3186877382
 20
8.4162464298
 30
0.0
 10
12.3159378212
 20
8.4245989423
 30
0.0
 10
12.3123100932
 20
8.436287016
 30
0.0
 10
12.3079616043
 20
8.4516148242
 30
0.0
 10
12.3030948934
 20
8.4708741551
 30
0.0
 10
12.2985199665
 20
8.4912071255
 30
0.0
 10
12.2942461066
 20
8.5125729756
 30
0.0
 10
12.2902820121
 20
8.5349290366
 30
0.0
 10
12.2866357492
 20
8.5582305219
 30
0.0
 10
12.2833147385
 20
8.5824307194
 30
0.0
 10
12.2803257397
 20
8.6074810712
 30
0.0
 10
12.2776748371
 20
8.6333312863
 30
0.0
 10
12.2753674273
 20
8.659929445
 30
0.0
 10
12.2734082092
 20
8.6872221082
 30
0.0
 10
12.2718011746
 20
8.7151544272
 30
0.0
 10
12.2705496013
 20
8.7436702557
 30
0.0
 10
12.2696560444
 20
8.7727122649
 30
0.0
 10
12.2691223328
 20
8.8022220604
 30
0.0
 10
12.2689495678
 20
8.8321403024
 30
0.0
 10
12.2691381202
 20
8.8624068259
 30
0.0
 10
12.2696876302
 20
8.8929607629
 30
0.0
 10
12.2705970087
 20
8.9237406644
 30
0.0
 10
12.2718644392
 20
8.9546846251
 30
0.0
 10
12.273487382
 20
8.9857304077
 30
0.0
 10
12.2754625765
 20
9.0168155692
 30
0.0
 10
12.277786051
 20
9.0478775877
 30
0.0
 10
12.2804531301
 20
9.0788539882
 30
0.0
 10
12.2834584447
 20
9.1096824687
 30
0.0
 10
12.2867959424
 20
9.140301026
 30
0.0
 10
12.2904588997
 20
9.1706480802
 30
0.0
 10
12.2944399356
 20
9.2006625992
 30
0.0
 10
12.2987310254
 20
9.2302842232
 30
0.0
 10
12.3033235152
 20
9.259453387
 30
0.0
 10
12.3082081417
 20
9.288111441
 30
0.0
 10
12.3133750502
 20
9.3162007691
 30
0.0
 10
12.3188138142
 20
9.3436649062
 30
0.0
 10
12.324513456
 20
9.3704486523
 30
0.0
 10
12.3304624683
 20
9.3964981862
 30
0.0
 10
12.3366488381
 20
9.4217611764
 30
0.0
 10
12.3430600687
 20
9.4461868913
 30
0.0
 10
12.3496832047
 20
9.4697263063
 30
0.0
 10
12.3565048614
 20
9.4923322045
 30
0.0
 10
12.3635112521
 20
9.5139592854
 30
0.0
 10
12.3706882176
 20
9.5345642386
 30
0.0
 10
12.3780212634
 20
9.5541059326
 30
0.0
 10
12.3854955828
 20
9.5725452016
 30
0.0
 10
12.3919148194
 20
9.5871570171
 30
0.0
 10
12.3971187059
 20
9.5982578335
 30
0.0
 10
12.4009936368
 20
9.6061701204
 30
0.0
 10
12.4048925686
 20
9.6137803444
 30
0.0
 10
12.4088135806
 20
9.6210847066
 30
0.0
 10
12.412754674
 20
9.6280795699
 30
0.0
 10
12.41671393
 20
9.6347614314
 30
0.0
 10
12.4206893207
 20
9.6411269926
 30
0.0
 10
12.4246789343
 20
9.6471730584
 30
0.0
 10
12.4286807258
 20
9.6528966448
 30
0.0
 10
12.4326927614
 20
9.6582949097
 30
0.0
 10
12.4367131015
 20
9.6633652184
 30
0.0
 10
12.4407398576
 20
9.66810512
 30
0.0
 10
12.4447709115
 20
9.6725120433
 30
0.0
 10
12.4475156819
 20
9.6752829875
 30
0.0
 10
12.4488888253
 20
9.6766093423
 30
0.0
  0
SPLINE
  5
383
100
AcDbEntity
  8
0
100
AcDbSpline
 62
7
  6
CONTINUOUS
 70
0
 71
3
 72
70
 73
66
 74
0
 42
0.0000001
 43
0.0000001
 44
0.0000000001
 40
0.0
 40
0.0
 40
0.0
 40
0.0
 40
0.0036899051
 40
0.0075220418
 40
0.0114998956
 40
0.0156263395
 40
0.0199037557
 40
0.0243340015
 40
0.0336576924
 40
0.0436054189
 40
0.0541792962
 40
0.0653772534
 40
0.0771937156
 40
0.0896201506
 40
0.1026454618
 40
0.1162562683
 40
0.1304371962
 40
0.1451710994
 40
0.1604392098
 40
0.1762212694
 40
0.1924956937
 40
0.2092396816
 40
0.2264292867
 40
0.2440395206
 40
0.2620444578
 40
0.2804173044
 40
0.2991304525
 40
0.318155576
 40
0.3374637049
 40
0.3768096073
 40
0.4169264479
 40
0.4575656647
 40
0.4984745241
 40
0.5393981564
 40
0.5800815765
 40
0.6202717029
 40
0.6597193762
 40
0.6790888282
 40
0.6981820735
 40
0.7169699851
 40
0.7354240887
 40
0.753516617
 40
0.7712205693
 40
0.7885098005
 40
0.8053591153
 40
0.8217443254
 40
0.8376423341
 40
0.8530312655
 40
0.8678905668
 40
0.882201107
 40
0.8959453254
 40
0.9091074363
 40
0.9216735959
 40
0.9336321327
 40
0.9449738746
 40
0.9556925405
 40
0.9657852172
 40
0.9705972752
 40
0.9752536194
 40
0.9797551075
 40
0.9841030311
 40
0.9882991542
 40
0.9923456263
 40
0.9962449315
 40
1.0
 40
1.0
 40
1.0
 40
1.0
 10
12.349081849
 20
8.5037960348
 30
0.0
 10
12.3482705791
 20
8.5047935329
 30
0.0
 10
12.3466588133
 20
8.5068614833
 30
0.0
 10
12.3443160117
 20
8.5101134368
 30
0.0
 10
12.3420039374
 20
8.5135718357
 30
0.0
 10
12.3397235397
 20
8.5172351797
 30
0.0
 10
12.3374757296
 20
8.5211020289
 30
0.0
 10
12.3344720488
 20
8.5266213941
 30
0.0
 10
12.3308157108
 20
8.5340309731
 30
0.0
 10
12.3266443024
 20
8.5435606633
 30
0.0
 10
12.3226240528
 20
8.5538592216
 30
0.0
 10
12.3187615541
 20
8.5649097616
 30
0.0
 10
12.3150631476
 20
8.5766943824
 30
0.0
 10
12.3115349852
 20
8.5891937926
 30
0.0
 10
12.308182967
 20
8.6023874773
 30
0.0
 10
12.3050126889
 20
8.6162536952
 30
0.0
 10
12.3020294604
 20
8.6307695504
 30
0.0
 10
12.2992382939
 20
8.6459110442
 30
0.0
 10
12.2966438801
 20
8.6616531088
 30
0.0
 10
12.2942505608
 20
8.6779696515
 30
0.0
 10
12.2920623542
 20
8.6948336137
 30
0.0
 10
12.290082945
 20
8.7122170194
 30
0.0
 10
12.2883156528
 20
8.7300910133
 30
0.0
 10
12.2867634364
 20
8.7484259143
 30
0.0
 10
12.2854289058
 20
8.7671912736
 30
0.0
 10
12.2843143121
 20
8.7863559241
 30
0.0
 10
12.2834215246
 20
8.8058880179
 30
0.0
 10
12.2827520201
 20
8.825755127
 30
0.0
 10
12.2821549489
 20
8.8528164674
 30
0.0
 10
12.281982181
 20
8.8872359766
 30
0.0
 10
12.2826741906
 20
8.9290830035
 30
0.0
 10
12.2842601178
 20
8.9714507022
 30
0.0
 10
12.2867295035
 20
9.0140576108
 30
0.0
 10
12.2900660197
 20
9.0566208449
 30
0.0
 10
12.2942474681
 20
9.0988578161
 30
0.0
 10
12.2992459726
 20
9.1404879404
 30
0.0
 10
12.3040932809
 20
9.174648023
 30
0.0
 10
12.3083621043
 20
9.2014587962
 30
0.0
 10
12.3117262646
 20
9.221122634
 30
0.0
 10
12.3152666796
 20
9.2404313186
 30
0.0
 10
12.318977464
 20
9.2593527965
 30
0.0
 10
12.3228524216
 20
9.2778556309
 30
0.0
 10
12.3268850998
 20
9.2959090866
 30
0.0
 10
12.331068778
 20
9.3134831808
 30
0.0
 10
12.3353964672
 20
9.3305487417
 30
0.0
 10
12.3398609466
 20
9.3470774459
 30
0.0
 10
12.3444547777
 20
9.3630418661
 30
0.0
 10
12.3491702912
 20
9.3784155322
 30
0.0
 10
12.3539996095
 20
9.3931729764
 30
0.0
 10
12.3589346764
 20
9.4072897647
 30
0.0
 10
12.3639672725
 20
9.4207425483
 30
0.0
 10
12.3690889974
 20
9.4335091231
 30
0.0
 10
12.3742913212
 20
9.4455684688
 30
0.0
 10
12.379565606
 20
9.4569007536
 30
0.0
 10
12.3849031444
 20
9.4674874883
 30
0.0
 10
12.3902950919
 20
9.4773112576
 30
0.0
 10
12.3948967264
 20
9.4849660358
 30
0.0
 10
12.3986050169
 20
9.4906857384
 30
0.0
 10
12.4013499849
 20
9.4947064128
 30
0.0
 10
12.4041018654
 20
9.4985247414
 30
0.0
 10
12.4068595923
 20
9.5021391804
 30
0.0
 10
12.4096220463
 20
9.5055483006
 30
0.0
 10
12.4123881748
 20
9.5087506758
 30
0.0
 10
12.4151566752
 20
9.5117448656
 30
0.0
 10
12.4170380808
 20
9.5136364843
 30
0.0
 10
12.4179791963
 20
9.5145455321
 30
0.0
  0
SPLINE
  5
384
100
AcDbEntity
  8
0
100
AcDbSpline
 62
7
  6
CONTINUOUS
 70
0
 71
3
 72
11
 73
7
 74
0
 42
0.0000001
 43
0.0000001
 44
0.0000000001
 40
0.0
 40
0.0
 40
0.0
 40
0.0
 40
0.245573719
 40
0.4929428202
 40
0.7438601116
 40
1.0
 40
1.0
 40
1.0
 40
1.0
 10
12.3413041803
 20
8.5315989975
 30
0.0
 10
12.3404198481
 20
8.5316603208
 30
0.0
 10
12.3386492065
 20
8.5318624136
 30
0.0
 10
12.3360153738
 20
8.5324014191
 30
0.0
 10
12.3334012754
 20
8.533176049
 30
0.0
 10
12.3316935042
 20
8.5338411211
 30
0.0
 10
12.3308457357
 20
8.5342101307
 30
0.0
  0
SPLINE
  5
385
100
AcDbEntity
  8
0
100
AcDbSpline
 62
7
  6
CONTINUOUS
 70
0
 71
3
 72
11
 73
7
 74
0
 42
0.0000001
 43
0.0000001
 44
0.0000000001
 40
0.0
 40
0.0
 40
0.0
 40
0.0
 40
0.245566553
 40
0.4929310987
 40
0.7438502789
 40
1.0
 40
1.0
 40
1.0
 40
1.0
 10
12.4077208827
 20
9.489298736
 30
0.0
 10
12.4068357904
 20
9.489360112
 30
0.0
 10
12.405052657
 20
9.489404328
 30
0.0
 10
12.4023672955
 20
9.4892336432
 30
0.0
 10
12.3996689491
 20
9.488826358
 30
0.0
 10
12.3978841939
 20
9.4884025809
 30
0.0
 10
12.3969928437
 20
9.4881536624
 30
0.0
  0
SPLINE
  5
386
100
AcDbEntity
  8
0
100
AcDbSpline
 62
7
  6
CONTINUOUS
 70
0
 71
3
 72
79
 73
75
 74
0
 42
0.0000001
 43
0.0000001
 44
0.0000000001
 40
0.0
 40
0.0
 40
0.0
 40
0.0
 40
0.0027164347
 40
0.0054532488
 40
0.0082303236
 40
0.0110666256
 40
0.0139798465
 40
0.0169861596
 40
0.02010014
 40
0.0233346673
 40
0.0267010303
 40
0.0302090039
 40
0.0338669236
 40
0.0376819087
 40
0.0416598992
 40
0.0458058334
 40
0.050123788
 40
0.0546169889
 40
0.0592880183
 40
0.0641388147
 40
0.0691707474
 40
0.0743847509
 40
0.0853596772
 40
0.0970635614
 40
0.1094903495
 40
0.122629634
 40
0.1364673293
 40
0.1509861741
 40
0.1661661143
 40
0.1819846001
 40
0.1984168698
 40
0.2154361725
 40
0.2330139498
 40
0.2511199804
 40
0.269722539
 40
0.2887885422
 40
0.3082836705
 40
0.3281724738
 40
0.3484184816
 40
0.3689843266
 40
0.4109214294
 40
0.4536715193
 40
0.4969136093
 40
0.540321979
 40
0.5835693174
 40
0.6263298478
 40
0.6682824923
 40
0.6888579727
 40
0.7091148233
 40
0.7290156552
 40
0.7485239752
 40
0.7676042909
 40
0.7862222357
 40
0.8043446912
 40
0.8219398969
 40
0.8389775799
 40
0.8554291082
 40
0.8712676747
 40
0.8864684624
 40
0.9010088541
 40
0.9148686911
 40
0.9280306123
 40
0.9404804379
 40
0.9522076406
 40
0.9577984259
 40
0.9632066633
 40
0.9684323655
 40
0.9734759744
 40
0.9783383356
 40
0.9830207896
 40
0.9875253575
 40
0.9918546105
 40
0.9960116061
 40
1.0
 40
1.0
 40
1.0
 40
1.0
 10
12.4184475894
 20
7.1174563353
 30
0.0
 10
12.4176263844
 20
7.1175132896
 30
0.0
 10
12.415982017
 20
7.1177019454
 30
0.0
 10
12.4135364116
 20
7.1182068339
 30
0.0
 10
12.4111092811
 20
7.1189334521
 30
0.0
 10
12.4087023638
 20
7.1198811515
 30
0.0
 10
12.406316916
 20
7.1210490948
 30
0.0
 10
12.4039541217
 20
7.1224363082
 30
0.0
 10
12.4016151242
 20
7.1240418888
 30
0.0
 10
12.399300917
 20
7.1258647489
 30
0.0
 10
12.3970125141
 20
7.1279038507
 30
0.0
 10
12.3947509283
 20
7.1301580989
 30
0.0
 10
12.3925170927
 20
7.1326262719
 30
0.0
 10
12.3903120552
 20
7.1353071649
 30
0.0
 10
12.3881367824
 20
7.1381994141
 30
0.0
 10
12.3859922702
 20
7.141301589
 30
0.0
 10
12.3838795701
 20
7.1446121865
 30
0.0
 10
12.3817996324
 20
7.1481295465
 30
0.0
 10
12.3797534997
 20
7.1518519582
 30
0.0
 10
12.3777421691
 20
7.1557775766
 30
0.0
 10
12.3757665701
 20
7.1599044577
 30
0.0
 10
12.3731364524
 20
7.1657733172
 30
0.0
 10
12.3699558283
 20
7.1736078675
 30
0.0
 10
12.3663594194
 20
7.1836224159
 30
0.0
 10
12.362928001
 20
7.1943849934
 30
0.0
 10
12.3596684707
 20
7.2058741669
 30
0.0
 10
12.3565874085
 20
7.2180672309
 30
0.0
 10
12.3536910666
 20
7.230939911
 30
0.0
 10
12.3509853367
 20
7.244466528
 30
0.0
 10
12.3484757139
 20
7.2586200277
 30
0.0
 10
12.3461673039
 20
7.2733720627
 30
0.0
 10
12.3440648064
 20
7.2886930612
 30
0.0
 10
12.3421725086
 20
7.304552287
 30
0.0
 10
12.3404942591
 20
7.3209179
 30
0.0
 10
12.3390334694
 20
7.3377570264
 30
0.0
 10
12.3377931148
 20
7.3550358334
 30
0.0
 10
12.3367757252
 20
7.3727196014
 30
0.0
 10
12.335983384
 20
7.3907727769
 30
0.0
 10
12.3354176771
 20
7.4091590934
 30
0.0
 10
12.3349643135
 20
7.4342314681
 30
0.0
 10
12.3349794338
 20
7.46613031
 30
0.0
 10
12.3359064627
 20
7.5048897382
 30
0.0
 10
12.3377355463
 20
7.5440634481
 30
0.0
 10
12.3404520823
 20
7.5833365947
 30
0.0
 10
12.34403423
 20
7.6223938108
 30
0.0
 10
12.348453157
 20
7.6609211973
 30
0.0
 10
12.3528307409
 20
7.6925291322
 30
0.0
 10
12.3567324514
 20
7.7173112564
 30
0.0
 10
12.3598248981
 20
7.735454462
 30
0.0
 10
12.3630960294
 20
7.7532375916
 30
0.0
 10
12.3665392738
 20
7.7706249232
 30
0.0
 10
12.370147679
 20
7.7875815001
 30
0.0
 10
12.3739139622
 20
7.8040732504
 30
0.0
 10
12.377830511
 20
7.8200670483
 30
0.0
 10
12.3818894136
 20
7.8355307782
 30
0.0
 10
12.3860824712
 20
7.8504333981
 30
0.0
 10
12.3904012164
 20
7.8647450115
 30
0.0
 10
12.3948369139
 20
7.8784369402
 30
0.0
 10
12.3993805987
 20
7.8914817778
 30
0.0
 10
12.4040230929
 20
7.9038534524
 30
0.0
 10
12.4087550344
 20
7.9155272668
 30
0.0
 10
12.4135668926
 20
7.9264800611
 30
0.0
 10
12.418448983
 20
7.9366899709
 30
0.0
 10
12.422631783
 20
7.9446851171
 30
0.0
 10
12.4260125592
 20
7.9506855817
 30
0.0
 10
12.4285191314
 20
7.9549158311
 30
0.0
 10
12.4310359409
 20
7.9589458102
 30
0.0
 10
12.4335617251
 20
7.9627735267
 30
0.0
 10
12.436095213
 20
7.9663970804
 30
0.0
 10
12.4386352106
 20
7.9698146727
 30
0.0
 10
12.4411804649
 20
7.9730246723
 30
0.0
 10
12.4437298114
 20
7.9760254817
 30
0.0
 10
12.4462818386
 20
7.9788154734
 30
0.0
 10
12.4480195146
 20
7.980569727
 30
0.0
 10
12.4488888253
 20
7.9814094167
 30
0.0
  0
SPLINE
  5
387
100
AcDbEntity
  8
0
100
AcDbSpline
 62
7
  6
CONTINUOUS
 70
0
 71
3
 72
57
 73
53
 74
0
 42
0.0000001
 43
0.0000001
 44
0.0000000001
 40
0.0
 40
0.0
 40
0.0
 40
0.0
 40
0.0075208334
 40
0.015624169
 40
0.0243310884
 40
0.0336549213
 40
0.0436027779
 40
0.0541768184
 40
0.0653749137
 40
0.0771915347
 40
0.0896181529
 40
0.1026436114
 40
0.1162546035
 40
0.1304357134
 40
0.1451697967
 40
0.1604381039
 40
0.1762203432
 40
0.1924949794
 40
0.209239168
 40
0.2264289647
 40
0.2620437551
 40
0.2991294646
 40
0.337462511
 40
0.3768088514
 40
0.4169261398
 40
0.457565808
 40
0.4984751161
 40
0.5393991942
 40
0.5800830561
 40
0.6202736121
 40
0.6597217053
 40
0.6981841642
 40
0.7354258772
 40
0.7712219388
 40
0.788511346
 40
0.8053608428
 40
0.8217462248
 40
0.8376443904
 40
0.8530335039
 40
0.867892948
 40
0.8822036339
 40
0.8959480129
 40
0.9091102495
 40
0.9216765524
 40
0.9336352065
 40
0.9449770641
 40
0.9556958668
 40
0.965788648
 40
0.9752564248
 40
0.9841051282
 40
0.9923469789
 40
1.0
 40
1.0
 40
1.0
 40
1.0
 10
12.3832023064
 20
7.3043282928
 30
0.0
 10
12.3823676718
 20
7.3053545237
 30
0.0
 10
12.3807231871
 20
7.3075601105
 30
0.0
 10
12.3784089528
 20
7.3111630459
 30
0.0
 10
12.3761608039
 20
7.3151751218
 30
0.0
 10
12.3739822988
 20
7.3195897573
 30
0.0
 10
12.3718767062
 20
7.3244000804
 30
0.0
 10
12.3698474621
 20
7.3295983937
 30
0.0
 10
12.3678978138
 20
7.3351763028
 30
0.0
 10
12.3660310048
 20
7.3411247417
 30
0.0
 10
12.3642501404
 20
7.3474339823
 30
0.0
 10
12.3625581602
 20
7.3540936592
 30
0.0
 10
12.3609579387
 20
7.3610928072
 30
0.0
 10
12.3594521237
 20
7.3684198672
 30
0.0
 10
12.3580432509
 20
7.3760627237
 30
0.0
 10
12.3567337022
 20
7.384008723
 30
0.0
 10
12.3555256405
 20
7.3922446975
 30
0.0
 10
12.3544211345
 20
7.4007569858
 30
0.0
 10
12.3534219947
 20
7.4095314781
 30
0.0
 10
12.3522184108
 20
7.4217049438
 30
0.0
 10
12.3509989091
 20
7.4374701463
 30
0.0
 10
12.3499937098
 20
7.4569750895
 30
0.0
 10
12.3494371368
 20
7.4771544753
 30
0.0
 10
12.3493330705
 20
7.4978743141
 30
0.0
 10
12.3496823962
 20
7.5189971364
 30
0.0
 10
12.3504829143
 20
7.5403827073
 30
0.0
 10
12.3517293749
 20
7.5618890367
 30
0.0
 10
12.3534135243
 20
7.5833733192
 30
0.0
 10
12.3555241611
 20
7.6046928983
 30
0.0
 10
12.358047212
 20
7.6257062282
 30
0.0
 10
12.360965816
 20
7.646273813
 30
0.0
 10
12.3642604208
 20
7.6662592124
 30
0.0
 10
12.3679089739
 20
7.6855297445
 30
0.0
 10
12.3712615113
 20
7.7010611382
 30
0.0
 10
12.3741101502
 20
7.7130274824
 30
0.0
 10
12.3762946139
 20
7.7216415232
 30
0.0
 10
12.3785481073
 20
7.7299845698
 30
0.0
 10
12.3808669057
 20
7.7380427901
 30
0.0
 10
12.3832471034
 20
7.7458028236
 30
0.0
 10
12.385684766
 20
7.7532518071
 30
0.0
 10
12.3881758001
 20
7.7603774131
 30
0.0
 10
12.3907160518
 20
7.7671678598
 30
0.0
 10
12.3933013116
 20
7.7736119308
 30
0.0
 10
12.3959272356
 20
7.779699021
 30
0.0
 10
12.3985894996
 20
7.7854191205
 30
0.0
 10
12.4012836785
 20
7.7907628786
 30
0.0
 10
12.4040053285
 20
7.7957216059
 30
0.0
 10
12.4067500646
 20
7.800287261
 30
0.0
 10
12.4095133837
 20
7.8044525452
 30
0.0
 10
12.4122911312
 20
7.8082109834
 30
0.0
 10
12.4150788214
 20
7.8115562841
 30
0.0
 10
12.4170110535
 20
7.8135808229
 30
0.0
 10
12.4179791963
 20
7.8145159771
 30
0.0
  0
SPLINE
  5
388
100
AcDbEntity
  8
0
100
AcDbSpline
 62
7
  6
CONTINUOUS
 70
0
 71
3
 72
47
 73
43
 74
0
 42
0.0000001
 43
0.0000001
 44
0.0000000001
 40
0.0
 40
0.0
 40
0.0
 40
0.0
 40
0.0072739452
 40
0.0148703987
 40
0.0227978846
 40
0.031063102
 40
0.0396712776
 40
0.0486261889
 40
0.057930496
 40
0.0675857004
 40
0.077592433
 40
0.0879503969
 40
0.0986585869
 40
0.1097152564
 40
0.1211180537
 40
0.1328640385
 40
0.1449497302
 40
0.1573711835
 40
0.1832025769
 40
0.2103187156
 40
0.2386733848
 40
0.2682151186
 40
0.298887767
 40
0.3306309759
 40
0.3633806034
 40
0.3970690902
 40
0.4316257961
 40
0.4669773119
 40
0.5030477519
 40
0.5397590347
 40
0.577031153
 40
0.6147824366
 40
0.6529298098
 40
0.6913890446
 40
0.7300750129
 40
0.7689019324
 40
0.8077836248
 40
0.8466337296
 40
0.8853660521
 40
0.9238945305
 40
0.9621341655
 40
1.0
 40
1.0
 40
1.0
 40
1.0
 10
11.0061498784
 20
10.5526291091
 30
0.0
 10
11.0047401293
 20
10.5513171839
 30
0.0
 10
11.0017933023
 20
10.5487041516
 30
0.0
 10
10.997107713
 20
10.5448970577
 30
0.0
 10
10.9920652205
 20
10.5411209645
 30
0.0
 10
10.986668933
 20
10.5373780642
 30
0.0
 10
10.9809219208
 20
10.5336705252
 30
0.0
 10
10.9748275854
 20
10.530000419
 30
0.0
 10
10.9683894566
 20
10.5263699481
 30
0.0
 10
10.9616113379
 20
10.522781164
 30
0.0
 10
10.9544971883
 20
10.5192362371
 30
0.0
 10
10.9470512131
 20
10.5157372032
 30
0.0
 10
10.9392777897
 20
10.5122861723
 30
0.0
 10
10.9311815164
 20
10.50888516
 30
0.0
 10
10.922767174
 20
10.5055361987
 30
0.0
 10
10.9140397462
 20
10.5022412822
 30
0.0
 10
10.9050043919
 20
10.4990023345
 30
0.0
 10
10.8923888116
 20
10.4947048643
 30
0.0
 10
10.8758813539
 20
10.4894989656
 30
0.0
 10
10.8551832101
 20
10.4835836174
 30
0.0
 10
10.833394414
 20
10.4779354447
 30
0.0
 10
10.8105666872
 20
10.4725679781
 30
0.0
 10
10.786754065
 20
10.4674940899
 30
0.0
 10
10.7620130401
 20
10.4627259451
 30
0.0
 10
10.7364023352
 20
10.4582749747
 30
0.0
 10
10.7099827775
 20
10.454151846
 30
0.0
 10
10.682817141
 20
10.4503664382
 30
0.0
 10
10.6549699942
 20
10.4469278185
 30
0.0
 10
10.6265075418
 20
10.4438442211
 30
0.0
 10
10.5974974644
 20
10.4411230279
 30
0.0
 10
10.5680087547
 20
10.438770752
 30
0.0
 10
10.5381115517
 20
10.4367930222
 30
0.0
 10
10.5078769714
 20
10.4351945706
 30
0.0
 10
10.4773769373
 20
10.4339792209
 30
0.0
 10
10.4466840077
 20
10.4331498806
 30
0.0
 10
10.4158712006
 20
10.4327085326
 30
0.0
 10
10.3850118263
 20
10.4326562344
 30
0.0
 10
10.3541792891
 20
10.4329931073
 30
0.0
 10
10.323446977
 20
10.4337183527
 30
0.0
 10
10.2928879208
 20
10.4348302253
 30
0.0
 10
10.2625749682
 20
10.4363260778
 30
0.0
 10
10.2424648529
 20
10.4375840071
 30
0.0
 10
10.2324639978
 20
10.4382775687
 30
0.0
  0
SPLINE
  5
389
100
AcDbEntity
  8
0
100
AcDbSpline
 62
7
  6
CONTINUOUS
 70
0
 71
3
 72
29
 73
25
 74
0
 42
0.0000001
 43
0.0000001
 44
0.0000000001
 40
0.0
 40
0.0
 40
0.0
 40
0.0
 40
0.0253057964
 40
0.0510355483
 40
0.0773659571
 40
0.1044085671
 40
0.132217039
 40
0.1607986663
 40
0.1901266714
 40
0.2201512557
 40
0.2508085541
 40
0.2820273818
 40
0.3137339822
 40
0.3458554214
 40
0.3783219245
 40
0.411067649
 40
0.4771537888
 40
0.5436914241
 40
0.6103304542
 40
0.6767889118
 40
0.7428427665
 40
0.8083158241
 40
0.8730688132
 40
1.0
 40
1.0
 40
1.0
 40
1.0
 10
10.5080644928
 20
7.4408216416
 30
0.0
 10
10.5069283366
 20
7.4402604733
 30
0.0
 10
10.5045684673
 20
7.4392627406
 30
0.0
 10
10.5008508208
 20
7.4381497757
 30
0.0
 10
10.4969569118
 20
7.4373922547
 30
0.0
 10
10.4929093625
 20
7.4369682018
 30
0.0
 10
10.488729436
 20
7.4368538063
 30
0.0
 10
10.4844377162
 20
7.437025007
 30
0.0
 10
10.4800535636
 20
7.4374580762
 30
0.0
 10
10.4755949795
 20
7.4381301509
 30
0.0
 10
10.4710784444
 20
7.4390195511
 30
0.0
 10
10.466518871
 20
7.4401059877
 30
0.0
 10
10.4619296063
 20
7.4413706525
 30
0.0
 10
10.457322495
 20
7.4427962647
 30
0.0
 10
10.4527079572
 20
7.4443670681
 30
0.0
 10
10.4465390477
 20
7.4466429163
 30
0.0
 10
10.4388710857
 20
7.4497767353
 30
0.0
 10
10.4297856585
 20
7.453906773
 30
0.0
 10
10.4208272511
 20
7.458346887
 30
0.0
 10
10.4120260068
 20
7.4630388662
 30
0.0
 10
10.4034043762
 20
7.4679356086
 30
0.0
 10
10.3949790958
 20
7.4729989523
 30
0.0
 10
10.3840966003
 20
7.4798845463
 30
0.0
 10
10.3761528606
 20
7.4852791177
 30
0.0
 10
10.370969318
 20
7.4889575047
 30
0.0
  0
SPLINE
  5
38A
100
AcDbEntity
  8
0
100
AcDbSpline
 62
7
  6
CONTINUOUS
 70
0
 71
3
 72
72
 73
68
 74
0
 42
0.0000001
 43
0.0000001
 44
0.0000000001
 40
0.0
 40
0.0
 40
0.0
 40
0.0
 40
0.003856485
 40
0.0078679127
 40
0.0120375239
 40
0.0163680329
 40
0.0208617603
 40
0.025520587
 40
0.0303458644
 40
0.0353384371
 40
0.0458266093
 40
0.056986017
 40
0.0688123989
 40
0.0812977081
 40
0.0944306498
 40
0.1081971486
 40
0.1225807073
 40
0.1375626472
 40
0.1531223159
 40
0.1692373233
 40
0.185883696
 40
0.2030359743
 40
0.220667366
 40
0.2387498794
 40
0.2572544032
 40
0.276150787
 40
0.2954079695
 40
0.3149940623
 40
0.3550209931
 40
0.3959635671
 40
0.4375449048
 40
0.4794825493
 40
0.5214909457
 40
0.5632839296
 40
0.6045772076
 40
0.6450908197
 40
0.6845516832
 40
0.7038048766
 40
0.7226969094
 40
0.7411967227
 40
0.7592741826
 40
0.776900197
 40
0.7940467797
 40
0.8106871466
 40
0.8267958693
 40
0.8423489888
 40
0.8573241237
 40
0.8717006469
 40
0.8854599159
 40
0.8985854501
 40
0.9110631935
 40
0.9228819034
 40
0.9340335787
 40
0.944513974
 40
0.9495026584
 40
0.9543240749
 40
0.9589791162
 40
0.9634690826
 40
0.9677957968
 40
0.9719615502
 40
0.9759692417
 40
0.9798224612
 40
0.983525488
 40
0.9870834786
 40
0.9905025246
 40
0.9937897161
 40
1.0
 40
1.0
 40
1.0
 40
1.0
 10
12.4179791963
 20
7.1335382293
 30
0.0
 10
12.4188045986
 20
7.1343355067
 30
0.0
 10
12.4204546071
 20
7.135997559
 30
0.0
 10
12.422880461
 20
7.1386341209
 30
0.0
 10
12.4253040441
 20
7.141461302
 30
0.0
 10
12.4277241042
 20
7.1444777158
 30
0.0
 10
12.4301396361
 20
7.1476819803
 30
0.0
 10
12.4325495713
 20
7.1510727112
 30
0.0
 10
12.4349528857
 20
7.1546484147
 30
0.0
 10
12.4382005275
 20
7.159744552
 30
0.0
 10
12.4422278292
 20
7.1665758489
 30
0.0
 10
12.446940717
 20
7.1753538094
 30
0.0
 10
12.4516015737
 20
7.1848264395
 30
0.0
 10
12.4562019481
 20
7.1949767123
 30
0.0
 10
12.4607335331
 20
7.2057865155
 30
0.0
 10
12.4651880926
 20
7.2172364139
 30
0.0
 10
12.4695575043
 20
7.2293057951
 30
0.0
 10
12.4738337948
 20
7.2419728724
 30
0.0
 10
12.478009176
 20
7.2552147352
 30
0.0
 10
12.4820760262
 20
7.2690074141
 30
0.0
 10
12.4860269104
 20
7.2833259265
 30
0.0
 10
12.4898546269
 20
7.2981443096
 30
0.0
 10
12.4935521985
 20
7.3134356797
 30
0.0
 10
12.4971128733
 20
7.3291722924
 30
0.0
 10
12.5005301515
 20
7.3453255873
 30
0.0
 10
12.5037978076
 20
7.3618662258
 30
0.0
 10
12.5069099127
 20
7.3787641928
 30
0.0
 10
12.5108728773
 20
7.4018972257
 30
0.0
 10
12.5153880571
 20
7.431480153
 30
0.0
 10
12.5200658943
 20
7.4676494986
 30
0.0
 10
12.5240073872
 20
7.5044783389
 30
0.0
 10
12.5271837782
 20
7.5416992527
 30
0.0
 10
12.5295719617
 20
7.5790421462
 30
0.0
 10
12.5311545903
 20
7.6162359564
 30
0.0
 10
12.5319203544
 20
7.6530107876
 30
0.0
 10
12.5318638227
 20
7.6890996087
 30
0.0
 10
12.5311264097
 20
7.7186209013
 30
0.0
 10
12.5301153859
 20
7.7416926545
 30
0.0
 10
12.5291598644
 20
7.7585220062
 30
0.0
 10
12.5280027285
 20
7.7749879986
 30
0.0
 10
12.5266460717
 20
7.791060757
 30
0.0
 10
12.5250924064
 20
7.8067110987
 30
0.0
 10
12.5233445863
 20
7.8219106218
 30
0.0
 10
12.5214058092
 20
7.8366317454
 30
0.0
 10
12.5192796415
 20
7.8508477751
 30
0.0
 10
12.5169699981
 20
7.8645329521
 30
0.0
 10
12.5144811162
 20
7.8776624919
 30
0.0
 10
12.5118175529
 20
7.8902126421
 30
0.0
 10
12.5089842108
 20
7.9021607409
 30
0.0
 10
12.5059862857
 20
7.9134852617
 30
0.0
 10
12.5028292462
 20
7.9241658283
 30
0.0
 10
12.499518839
 20
7.9341833787
 30
0.0
 10
12.4960610812
 20
7.9435198931
 30
0.0
 10
12.4930139146
 20
7.9508348867
 30
0.0
 10
12.4904997493
 20
7.9563249654
 30
0.0
 10
12.4886122545
 20
7.9601939942
 30
0.0
 10
12.4866926936
 20
7.9638807154
 30
0.0
 10
12.484741862
 20
7.9673834702
 30
0.0
 10
12.4827606737
 20
7.970700716
 30
0.0
 10
12.4807499632
 20
7.97383096
 30
0.0
 10
12.4787105896
 20
7.9767728008
 30
0.0
 10
12.4766434723
 20
7.9795249499
 30
0.0
 10
12.4745494125
 20
7.9820861645
 30
0.0
 10
12.4724293727
 20
7.9844552353
 30
0.0
 10
12.4702839658
 20
7.9866313339
 30
0.0
 10
12.4674454379
 20
7.9892241761
 30
0.0
 10
12.4652003387
 20
7.9909558734
 30
0.0
 10
12.4636640276
 20
7.99198294
 30
0.0
  0
SPLINE
  5
38B
100
AcDbEntity
  8
0
100
AcDbSpline
 62
7
  6
CONTINUOUS
 70
0
 71
3
 72
11
 73
7
 74
0
 42
0.0000001
 43
0.0000001
 44
0.0000000001
 40
0.0
 40
0.0
 40
0.0
 40
0.0
 40
0.2522334086
 40
0.5029320591
 40
0.7521551486
 40
1.0
 40
1.0
 40
1.0
 40
1.0
 10
10.1936411779
 20
9.630934638
 30
0.0
 10
10.2002841097
 20
9.6304739491
 30
0.0
 10
10.2135772853
 20
9.630134184
 30
0.0
 10
10.2334197694
 20
9.6313902965
 30
0.0
 10
10.2529554749
 20
9.6344032001
 30
0.0
 10
10.2657103933
 20
9.6375776456
 30
0.0
 10
10.2719802989
 20
9.639448349
 30
0.0
  0
SPLINE
  5
38C
100
AcDbEntity
  8
0
100
AcDbSpline
 62
7
  6
CONTINUOUS
 70
0
 71
3
 72
11
 73
7
 74
0
 42
0.0000001
 43
0.0000001
 44
0.0000000001
 40
0.0
 40
0.0
 40
0.0
 40
0.0
 40
0.2728481122
 40
0.5296429497
 40
0.7715297145
 40
1.0
 40
1.0
 40
1.0
 40
1.0
 10
12.4179791963
 20
7.1335382293
 30
0.0
 10
12.4167849527
 20
7.1323846785
 30
0.0
 10
12.4143980214
 20
7.1302147803
 30
0.0
 10
12.4107067449
 20
7.1273063675
 30
0.0
 10
12.4070201568
 20
7.1248500765
 30
0.0
 10
12.4045011121
 20
7.1234801453
 30
0.0
 10
12.4032472218
 20
7.1228794897
 30
0.0
  0
SPLINE
  5
38D
100
AcDbEntity
  8
0
100
AcDbSpline
 62
7
  6
CONTINUOUS
 70
0
 71
3
 72
23
 73
19
 74
0
 42
0.0000001
 43
0.0000001
 44
0.0000000001
 40
0.0
 40
0.0
 40
0.0
 40
0.0
 40
0.0755948859
 40
0.1466385672
 40
0.2134651221
 40
0.2765136164
 40
0.3363251986
 40
0.3935455608
 40
0.4489216461
 40
0.5032865974
 40
0.55752443
 40
0.6125256884
 40
0.669141898
 40
0.7281474526
 40
0.7902183824
 40
0.8559226801
 40
0.925726236
 40
1.0
 40
1.0
 40
1.0
 40
1.0
 10
12.4179791963
 20
7.3025752589
 30
0.0
 10
12.4172427005
 20
7.3018638585
 30
0.0
 10
12.4157706557
 20
7.3005276176
 30
0.0
 10
12.4134925291
 20
7.2987424493
 30
0.0
 10
12.4112170456
 20
7.2972431665
 30
0.0
 10
12.4089463515
 20
7.2960320133
 30
0.0
 10
12.4066823076
 20
7.2951112351
 30
0.0
 10
12.4044272726
 20
7.2944829836
 30
0.0
 10
12.4021841679
 20
7.2941495991
 30
0.0
 10
12.3999567589
 20
7.2941125337
 30
0.0
 10
12.3977493223
 20
7.2943724751
 30
0.0
 10
12.3955661182
 20
7.2949284962
 30
0.0
 10
12.3934108905
 20
7.2957788708
 30
0.0
 10
12.391286445
 20
7.2969209818
 30
0.0
 10
12.389194999
 20
7.2983523384
 30
0.0
 10
12.3871381598
 20
7.300070345
 30
0.0
 10
12.3851176787
 20
7.3020725637
 30
0.0
 10
12.3838371068
 20
7.3035477694
 30
0.0
 10
12.3832023064
 20
7.3043282928
 30
0.0
  0
SPLINE
  5
38E
100
AcDbEntity
  8
0
100
AcDbSpline
 62
7
  6
CONTINUOUS
 70
0
 71
3
 72
16
 73
12
 74
0
 42
0.0000001
 43
0.0000001
 44
0.0000000001
 40
0.0
 40
0.0
 40
0.0
 40
0.0
 40
0.1504807822
 40
0.2917477769
 40
0.4244946892
 40
0.4879694907
 40
0.5496756925
 40
0.668341624
 40
0.7818818185
 40
0.8918563437
 40
1.0
 40
1.0
 40
1.0
 40
1.0
 10
12.3890014198
 20
7.333562651
 30
0.0
 10
12.3883370793
 20
7.3329209474
 30
0.0
 10
12.3870092483
 20
7.3317169025
 30
0.0
 10
12.3849532619
 20
7.33011231
 30
0.0
 10
12.38321659
 20
7.328977455
 30
0.0
 10
12.3818317589
 20
7.3282089742
 30
0.0
 10
12.3804877203
 20
7.3275492036
 30
0.0
 10
12.3788070653
 20
7.3268825872
 30
0.0
 10
12.3767722869
 20
7.3263411915
 30
0.0
 10
12.3747489916
 20
7.3260708831
 30
0.0
 10
12.3734053598
 20
7.3260723926
 30
0.0
 10
12.3727431642
 20
7.3261183145
 30
0.0
  0
SPLINE
  5
38F
100
AcDbEntity
  8
0
100
AcDbSpline
 62
7
  6
CONTINUOUS
 70
0
 71
3
 72
95
 73
91
 74
0
 42
0.0000001
 43
0.0000001
 44
0.0000000001
 40
0.0
 40
0.0
 40
0.0
 40
0.0
 40
0.0042067524
 40
0.0086075264
 40
0.0132067984
 40
0.0180082937
 40
0.0230150337
 40
0.0282291753
 40
0.0336520592
 40
0.0392844537
 40
0.0451265343
 40
0.0511780479
 40
0.0574382294
 40
0.0639059483
 40
0.0705796906
 40
0.0774576001
 40
0.0918166241
 40
0.1069629889
 40
0.122872209
 40
0.1395163532
 40
0.1568644406
 40
0.1748827659
 40
0.1935351756
 40
0.2127833077
 40
0.2325868055
 40
0.2529035112
 40
0.2736896465
 40
0.2948999865
 40
0.3164880233
 40
0.338406124
 40
0.3606056844
 40
0.3830372803
 40
0.4056508168
 40
0.4283956754
 40
0.4512208623
 40
0.4740751553
 40
0.4969072499
 40
0.5196659048
 40
0.5423000877
 40
0.5647591214
 40
0.5869928308
 40
0.6089516914
 40
0.63058698
 40
0.6518509241
 40
0.6726968561
 40
0.6930793701
 40
0.7129544846
 40
0.7322798121
 40
0.7510147391
 40
0.769120622
 40
0.7865609974
 40
0.8033018162
 40
0.8193117142
 40
0.8345623301
 40
0.8490286892
 40
0.8559612403
 40
0.8626901816
 40
0.8692135492
 40
0.8755297718
 40
0.8816375758
 40
0.8875361274
 40
0.8932250025
 40
0.89870426
 40
0.9039745234
 40
0.9090369759
 40
0.9138935463
 40
0.9185468765
 40
0.9230005513
 40
0.9272591262
 40
0.9313283338
 40
0.9352152342
 40
0.9389283686
 40
0.9424780221
 40
0.9458763313
 40
0.9491375598
 40
0.9522781467
 40
0.9553168206
 40
0.9582744908
 40
0.9611740191
 40
0.9640398091
 40
0.9668972035
 40
0.9697717872
 40
0.9726886572
 40
0.9756717418
 40
0.9787432814
 40
0.9852254384
 40
0.9886743512
 40
0.992279084
 40
0.9960511993
 40
1.0
 40
1.0
 40
1.0
 40
1.0
 10
12.4179791963
 20
8.5003233544
 30
0.0
 10
12.419112943
 20
8.5014184698
 30
0.0
 10
12.421378924
 20
8.503715443
 30
0.0
 10
12.4247003306
 20
8.5073855899
 30
0.0
 10
12.4280175089
 20
8.5113546402
 30
0.0
 10
12.4313283967
 20
8.5156200406
 30
0.0
 10
12.4346311502
 20
8.5201793456
 30
0.0
 10
12.4379238731
 20
8.5250299119
 30
0.0
 10
12.4412046744
 20
8.5301688792
 30
0.0
 10
12.4444715497
 20
8.5355932328
 30
0.0
 10
12.4477226331
 20
8.5412997363
 30
0.0
 10
12.4509559369
 20
8.5472850384
 30
0.0
 10
12.4541695909
 20
8.5535455732
 30
0.0
 10
12.4573616397
 20
8.5600776318
 30
0.0
 10
12.4605302123
 20
8.5668773317
 30
0.0
 10
12.4647822496
 20
8.5764326059
 30
0.0
 10
12.47001423
 20
8.5890242271
 30
0.0
 10
12.4760826342
 20
8.6049246162
 30
0.0
 10
12.4820132618
 20
8.6217872172
 30
0.0
 10
12.4877918473
 20
8.6395718067
 30
0.0
 10
12.4934044818
 20
8.6582361037
 30
0.0
 10
12.498837654
 20
8.6777356056
 30
0.0
 10
12.5040782856
 20
8.6980237876
 30
0.0
 10
12.5091137649
 20
8.7190522005
 30
0.0
 10
12.5139319766
 20
8.7407705993
 30
0.0
 10
12.5185213327
 20
8.7631270659
 30
0.0
 10
12.5228708012
 20
8.7860681384
 30
0.0
 10
12.5269699293
 20
8.8095389431
 30
0.0
 10
12.5308088693
 20
8.8334833294
 30
0.0
 10
12.5343784012
 20
8.8578440063
 30
0.0
 10
12.5376699544
 20
8.8825626802
 30
0.0
 10
12.5406756285
 20
8.9075801958
 30
0.0
 10
12.5433882108
 20
8.932836678
 30
0.0
 10
12.5458011957
 20
8.9582716763
 30
0.0
 10
12.5479088003
 20
8.9838243106
 30
0.0
 10
12.5497059759
 20
9.0094334183
 30
0.0
 10
12.5511884211
 20
9.0350377015
 30
0.0
 10
12.5523525911
 20
9.0605758739
 30
0.0
 10
12.5531957072
 20
9.0859868079
 30
0.0
 10
12.553715763
 20
9.1112096813
 30
0.0
 10
12.5539115294
 20
9.1361841239
 30
0.0
 10
12.5537825603
 20
9.1608503636
 30
0.0
 10
12.5533291928
 20
9.1851493707
 30
0.0
 10
12.5525525458
 20
9.2090230003
 30
0.0
 10
12.5514545179
 20
9.2324141324
 30
0.0
 10
12.5500377835
 20
9.2552668102
 30
0.0
 10
12.5483057871
 20
9.2775263757
 30
0.0
 10
12.5462627361
 20
9.2991396041
 30
0.0
 10
12.5439135905
 20
9.3200548358
 30
0.0
 10
12.541264055
 20
9.3402221052
 30
0.0
 10
12.5383205644
 20
9.3595932737
 30
0.0
 10
12.5350902633
 20
9.3781221297
 30
0.0
 10
12.5315810006
 20
9.3957645901
 30
0.0
 10
12.5278012622
 20
9.4124785487
 30
0.0
 10
12.5243870987
 20
9.4257824919
 30
0.0
 10
12.5215179127
 20
9.4359244553
 30
0.0
 10
12.5193347383
 20
9.4431662485
 30
0.0
 10
12.5170909802
 20
9.4501473326
 30
0.0
 10
12.5147880158
 20
9.4568635726
 30
0.0
 10
12.5124271758
 20
9.4633109669
 30
0.0
 10
12.5100098994
 20
9.4694856954
 30
0.0
 10
12.5075376143
 20
9.4753840999
 30
0.0
 10
12.5050117666
 20
9.4810026871
 30
0.0
 10
12.5024338881
 20
9.4863381575
 30
0.0
 10
12.4998054237
 20
9.4913873506
 30
0.0
 10
12.4971279741
 20
9.4961473329
 30
0.0
 10
12.4944030025
 20
9.5006152905
 30
0.0
 10
12.4916321125
 20
9.5047886422
 30
0.0
 10
12.4888168093
 20
9.508664938
 30
0.0
 10
12.4859586331
 20
9.5122419111
 30
0.0
 10
12.4830591288
 20
9.5155174727
 30
0.0
 10
12.4801197443
 20
9.5184896097
 30
0.0
 10
12.4771420377
 20
9.5211565388
 30
0.0
 10
12.4741274101
 20
9.5235164244
 30
0.0
 10
12.4710774403
 20
9.5255676595
 30
0.0
 10
12.4679936489
 20
9.5273085353
 30
0.0
 10
12.4648777804
 20
9.5287375015
 30
0.0
 10
12.46173175
 20
9.5298530624
 30
0.0
 10
12.4585577354
 20
9.5306538501
 30
0.0
 10
12.4553582135
 20
9.5311389365
 30
0.0
 10
12.4521358421
 20
9.5313075978
 30
0.0
 10
12.4488933694
 20
9.5311598649
 30
0.0
 10
12.4456335363
 20
9.5306960255
 30
0.0
 10
12.4423586407
 20
9.5299168744
 30
0.0
 10
12.4378964305
 20
9.5284329827
 30
0.0
 10
12.4334809606
 20
9.5263206531
 30
0.0
 10
12.4291531782
 20
9.5236719696
 30
0.0
 10
12.4258337809
 20
9.5213352744
 30
0.0
 10
12.4225113945
 20
9.518691722
 30
0.0
 10
12.4203460381
 20
9.5167708839
 30
0.0
 10
12.4192629047
 20
9.5157628598
 30
0.0
  0
SPLINE
  5
390
100
AcDbEntity
  8
0
100
AcDbSpline
 62
7
  6
CONTINUOUS
 70
0
 71
3
 72
15
 73
11
 74
0
 42
0.0000001
 43
0.0000001
 44
0.0000000001
 40
0.0
 40
0.0
 40
0.0
 40
0.0
 40
0.123344718
 40
0.2470632385
 40
0.3712167202
 40
0.4958577131
 40
0.6210291546
 40
0.7467640908
 40
0.8730833464
 40
1.0
 40
1.0
 40
1.0
 40
1.0
 10
10.979404177
 20
7.1532065216
 30
0.0
 10
10.9709130637
 20
7.1486645687
 30
0.0
 10
10.9535700944
 20
7.1401781134
 30
0.0
 10
10.9266706524
 20
7.1293300912
 30
0.0
 10
10.8989695953
 20
7.120393287
 30
0.0
 10
10.8705966987
 20
7.1134097135
 30
0.0
 10
10.8416827159
 20
7.1084110797
 30
0.0
 10
10.8123609248
 20
7.1054203533
 30
0.0
 10
10.7827683424
 20
7.1044508285
 30
0.0
 10
10.762992655
 20
7.1051534857
 30
0.0
 10
10.7531079788
 20
7.1058389903
 30
0.0
  0
SPLINE
  5
391
100
AcDbEntity
  8
0
100
AcDbSpline
 62
7
  6
CONTINUOUS
 70
0
 71
3
 72
26
 73
22
 74
0
 42
0.0000001
 43
0.0000001
 44
0.0000000001
 40
0.0
 40
0.0
 40
0.0
 40
0.0
 40
0.0638438602
 40
0.0956873811
 40
0.1274760365
 40
0.190887801
 40
0.2540882616
 40
0.3170830351
 40
0.3798800969
 40
0.4424892928
 40
0.5049224116
 40
0.5671930305
 40
0.6293164063
 40
0.6913093243
 40
0.7222651127
 40
0.7531951947
 40
0.8149828305
 40
0.8766978075
 40
0.9075372709
 40
0.9383665281
 40
1.0
 40
1.0
 40
1.0
 40
1.0
 10
10.531665574
 20
6.658187976
 30
0.0
 10
10.5426244015
 20
6.6574279788
 30
0.0
 10
10.5590807351
 20
6.6566891321
 30
0.0
 10
10.5810155131
 20
6.6565144051
 30
0.0
 10
10.6028739787
 20
6.6568793463
 30
0.0
 10
10.6301015618
 20
6.6583451844
 30
0.0
 10
10.6625641126
 20
6.6617209258
 30
0.0
 10
10.694712555
 20
6.6667039565
 30
0.0
 10
10.7264689871
 20
6.673282325
 30
0.0
 10
10.7577570831
 20
6.6814402939
 30
0.0
 10
10.788501418
 20
6.691158268
 30
0.0
 10
10.8186280735
 20
6.7024129924
 30
0.0
 10
10.8480639922
 20
6.7151771517
 30
0.0
 10
10.8719721963
 20
6.7270528079
 30
0.0
 10
10.890678756
 20
6.7372743149
 30
0.0
 10
10.9090819755
 20
6.7479622966
 30
0.0
 10
10.9315307997
 20
6.7622035031
 30
0.0
 10
10.9531904145
 20
6.7775916431
 30
0.0
 10
10.9700014474
 20
6.7905602894
 30
0.0
 10
10.9864550077
 20
6.8039565604
 30
0.0
 10
10.9983941481
 20
6.8144861811
 30
0.0
 10
11.0061604881
 20
6.8217074166
 30
0.0
  0
LINE
  5
392
100
AcDbEntity
  8
0
100
AcDbLine
 62
7
  6
CONTINUOUS
 10
11.0061604881
 20
6.8217074166
 11
11.00635943
 21
6.8218924784
  0
SPLINE
  5
393
100
AcDbEntity
  8
0
100
AcDbSpline
 62
7
  6
CONTINUOUS
 70
0
 71
3
 72
81
 73
77
 74
0
 42
0.0000001
 43
0.0000001
 44
0.0000000001
 40
0.0
 40
0.0
 40
0.0
 40
0.0
 40
0.0042066536
 40
0.0086074826
 40
0.013206919
 40
0.0180085505
 40
0.0230153104
 40
0.0282294501
 40
0.0336523926
 40
0.0392848333
 40
0.0511778128
 40
0.0639052157
 40
0.0774564794
 40
0.0918156453
 40
0.1069621661
 40
0.1228715336
 40
0.1395158258
 40
0.1568640878
 40
0.1748825963
 40
0.1935351826
 40
0.2127834972
 40
0.2325871959
 40
0.2529041003
 40
0.2736904304
 40
0.2949009766
 40
0.3164892323
 40
0.3606063779
 40
0.4056510728
 40
0.451220716
 40
0.4969067191
 40
0.5422991624
 40
0.5869914627
 40
0.6305851112
 40
0.6518492866
 40
0.6726954528
 40
0.6930782061
 40
0.712953547
 40
0.7322790918
 40
0.7510142467
 40
0.7691203625
 40
0.7865609494
 40
0.8033019742
 40
0.8193120872
 40
0.8345629102
 40
0.84902945
 40
0.8626906261
 40
0.8755298107
 40
0.8875356102
 40
0.8987029851
 40
0.9039733389
 40
0.909035865
 40
0.9138925072
 40
0.9185459301
 40
0.9229996585
 40
0.9272583147
 40
0.9313275931
 40
0.9352145436
 40
0.9389277591
 40
0.9424774582
 40
0.9458758264
 40
0.9491371129
 40
0.9522777422
 40
0.955316463
 40
0.9582741763
 40
0.96117374
 40
0.9640395629
 40
0.9668969822
 40
0.9697715908
 40
0.9726884825
 40
0.9756716063
 40
0.9787431632
 40
0.9852252685
 40
0.9886742162
 40
0.9922790857
 40
0.9960512842
 40
1.0
 40
1.0
 40
1.0
 40
1.0
 10
12.4179791963
 20
7.3025752589
 30
0.0
 10
12.4185514484
 20
7.303128012
 30
0.0
 10
12.4196952055
 20
7.304287422
 30
0.0
 10
12.4213717167
 20
7.306139971
 30
0.0
 10
12.4230461455
 20
7.3081434083
 30
0.0
 10
12.4247173647
 20
7.3102964496
 30
0.0
 10
12.4263844743
 20
7.3125978049
 30
0.0
 10
12.4280464974
 20
7.3150461718
 30
0.0
 10
12.4297025117
 20
7.3176401232
 30
0.0
 10
12.4319419424
 20
7.3213585543
 30
0.0
 10
12.434712108
 20
7.3263675784
 30
0.0
 10
12.4379391964
 20
7.3328276684
 30
0.0
 10
12.4411191871
 20
7.3398266484
 30
0.0
 10
12.4442444668
 20
7.3473479598
 30
0.0
 10
12.4473075587
 20
7.3553739111
 30
0.0
 10
12.4503011123
 20
7.3638854739
 30
0.0
 10
12.4532179246
 20
7.3728624393
 30
0.0
 10
12.4560509631
 20
7.3822834465
 30
0.0
 10
12.4587934164
 20
7.3921260358
 30
0.0
 10
12.4614386877
 20
7.4023667162
 30
0.0
 10
12.4639804074
 20
7.4129810364
 30
0.0
 10
12.4664124515
 20
7.423943637
 30
0.0
 10
12.4687289834
 20
7.4352283091
 30
0.0
 10
12.4709244293
 20
7.4468080608
 30
0.0
 10
12.4729935309
 20
7.4586552183
 30
0.0
 10
12.4755958706
 20
7.4748870727
 30
0.0
 10
12.478491014
 20
7.4956352354
 30
0.0
 10
12.4813673316
 20
7.5209571938
 30
0.0
 10
12.4836425608
 20
7.5466381457
 30
0.0
 10
12.4852948504
 20
7.572432535
 30
0.0
 10
12.486308486
 20
7.5980939338
 30
0.0
 10
12.4866738419
 20
7.6233769709
 30
0.0
 10
12.4864337034
 20
7.644097908
 30
0.0
 10
12.4859067283
 20
7.6602992803
 30
0.0
 10
12.4853524786
 20
7.6721062435
 30
0.0
 10
12.4846373816
 20
7.6836414
 30
0.0
 10
12.4837631416
 20
7.6948771806
 30
0.0
 10
12.4827318924
 20
7.705786715
 30
0.0
 10
12.4815461444
 20
7.7163439334
 30
0.0
 10
12.4802087753
 20
7.7265236132
 30
0.0
 10
12.4787230198
 20
7.7363014494
 30
0.0
 10
12.4770924951
 20
7.745654125
 30
0.0
 10
12.4753211639
 20
7.754559369
 30
0.0
 10
12.473413318
 20
7.7629960049
 30
0.0
 10
12.4713735681
 20
7.7709440313
 30
0.0
 10
12.469206857
 20
7.7783846658
 30
0.0
 10
12.4669183876
 20
7.7853004978
 30
0.0
 10
12.4645136139
 20
7.7916752075
 30
0.0
 10
12.4623780879
 20
7.7966156765
 30
0.0
 10
12.4606088976
 20
7.8002776169
 30
0.0
 10
12.4592821354
 20
7.8028262743
 30
0.0
 10
12.4579306616
 20
7.8052289441
 30
0.0
 10
12.4565552225
 20
7.8074842261
 30
0.0
 10
12.4551565678
 20
7.8095907816
 30
0.0
 10
12.4537355256
 20
7.8115474122
 30
0.0
 10
12.4522928372
 20
7.8133529556
 30
0.0
 10
12.4508292633
 20
7.8150063373
 30
0.0
 10
12.4493456036
 20
7.8165066009
 30
0.0
 10
12.4478425566
 20
7.8178527677
 30
0.0
 10
12.4463208976
 20
7.819043973
 30
0.0
 10
12.4447813997
 20
7.8200793908
 30
0.0
 10
12.4432248154
 20
7.8209581263
 30
0.0
 10
12.4416520519
 20
7.821679442
 30
0.0
 10
12.4400640615
 20
7.8222425656
 30
0.0
 10
12.4384619399
 20
7.8226467816
 30
0.0
 10
12.43684695
 20
7.8228916629
 30
0.0
 10
12.4352204237
 20
7.8229768394
 30
0.0
 10
12.4335837535
 20
7.8229022622
 30
0.0
 10
12.4319383083
 20
7.8226681962
 30
0.0
 10
12.4302852719
 20
7.8222749009
 30
0.0
 10
12.4280329321
 20
7.8215259359
 30
0.0
 10
12.4258041806
 20
7.8204597577
 30
0.0
 10
12.4236196653
 20
7.8191228415
 30
0.0
 10
12.4219441391
 20
7.8179433531
 30
0.0
 10
12.4202671177
 20
7.8166089975
 30
0.0
 10
12.4191741268
 20
7.8156394593
 30
0.0
 10
12.4186274151
 20
7.8151306698
 30
0.0
  0
SPLINE
  5
394
100
AcDbEntity
  8
0
100
AcDbSpline
 62
7
  6
CONTINUOUS
 70
0
 71
3
 72
82
 73
78
 74
0
 42
0.0000001
 43
0.0000001
 44
0.0000000001
 40
0.0
 40
0.0
 40
0.0
 40
0.0
 40
0.0039884
 40
0.0081453884
 40
0.0124746242
 40
0.0169791769
 40
0.0216616252
 40
0.0265239851
 40
0.0315675859
 40
0.0367932823
 40
0.0422015086
 40
0.0477922846
 40
0.0595194712
 40
0.0719692824
 40
0.0851311888
 40
0.0989910042
 40
0.1135313725
 40
0.1287321429
 40
0.1445706935
 40
0.1610222007
 40
0.1780598543
 40
0.1956550367
 40
0.2137774734
 40
0.2323953967
 40
0.2514756824
 40
0.2709839717
 40
0.2908847794
 40
0.3111416059
 40
0.3317170565
 40
0.3525729446
 40
0.3736703921
 40
0.4164308614
 40
0.4596781291
 40
0.5030864271
 40
0.5463284421
 40
0.5890784518
 40
0.6101687463
 40
0.6310162279
 40
0.6515820352
 40
0.6718279979
 40
0.6917167499
 40
0.7112118329
 40
0.7302777975
 40
0.7488803131
 40
0.7669862887
 40
0.7845640124
 40
0.8015832729
 40
0.8180155019
 40
0.8338339356
 40
0.8490138157
 40
0.8635326121
 40
0.8773702664
 40
0.8905095049
 40
0.9029362342
 40
0.9146400637
 40
0.9202191345
 40
0.925615608
 40
0.9308295837
 40
0.9358615024
 40
0.9407122641
 40
0.9453832787
 40
0.9498764542
 40
0.9541943802
 40
0.958340302
 40
0.962318263
 40
0.9661332307
 40
0.9697911315
 40
0.97329908
 40
0.9766654313
 40
0.9798999372
 40
0.9830139016
 40
0.9860202023
 40
0.9889334071
 40
0.9917697001
 40
0.9945467646
 40
0.9972835707
 40
1.0
 40
1.0
 40
1.0
 40
1.0
 10
12.3745125315
 20
8.5468044426
 30
0.0
 10
12.3754608742
 20
8.5477204714
 30
0.0
 10
12.3773565257
 20
8.5496342064
 30
0.0
 10
12.3801405588
 20
8.5526778362
 30
0.0
 10
12.3829216592
 20
8.5559514472
 30
0.0
 10
12.3856983
 20
8.5594532629
 30
0.0
 10
12.3884692081
 20
8.5631815493
 30
0.0
 10
12.3912330159
 20
8.5671345233
 30
0.0
 10
12.3939884243
 20
8.5713102178
 30
0.0
 10
12.3967340313
 20
8.5757065659
 30
0.0
 10
12.399468478
 20
8.580321386
 30
0.0
 10
12.4031565996
 20
8.5868673535
 30
0.0
 10
12.4077196592
 20
8.5955893409
 30
0.0
 10
12.4130455783
 20
8.6067274402
 30
0.0
 10
12.41829488
 20
8.6186759588
 30
0.0
 10
12.4234570029
 20
8.6314110419
 30
0.0
 10
12.428521548
 20
8.6449074277
 30
0.0
 10
12.4334782963
 20
8.6591381784
 30
0.0
 10
12.4383172396
 20
8.6740748492
 30
0.0
 10
12.4430285991
 20
8.6896875368
 30
0.0
 10
12.447602851
 20
8.7059449559
 30
0.0
 10
12.4520307462
 20
8.7228144988
 30
0.0
 10
12.4563033438
 20
8.7402623022
 30
0.0
 10
12.4604120144
 20
8.7582533254
 30
0.0
 10
12.4643484604
 20
8.7767514283
 30
0.0
 10
12.46810473
 20
8.7957194441
 30
0.0
 10
12.4716732392
 20
8.8151192493
 30
0.0
 10
12.4750467942
 20
8.8349118449
 30
0.0
 10
12.4782185827
 20
8.8550574291
 30
0.0
 10
12.4811822333
 20
8.8755155269
 30
0.0
 10
12.4848645108
 20
8.903278111
 30
0.0
 10
12.4888993766
 20
8.9384583787
 30
0.0
 10
12.4928072108
 20
8.9810661352
 30
0.0
 10
12.4957706851
 20
9.0239096783
 30
0.0
 10
12.4977660043
 20
9.0666445167
 30
0.0
 10
12.4986126455
 20
9.1020377294
 30
0.0
 10
12.498787136
 20
9.1300343028
 30
0.0
 10
12.4986678099
 20
9.1506972742
 30
0.0
 10
12.4982992163
 20
9.171078128
 30
0.0
 10
12.4976820876
 20
9.1911359132
 30
0.0
 10
12.4968176965
 20
9.2108302923
 30
0.0
 10
12.4957078104
 20
9.2301216764
 30
0.0
 10
12.4943546929
 20
9.2489712885
 30
0.0
 10
12.4927610978
 20
9.2673412439
 30
0.0
 10
12.4909302647
 20
9.2851946321
 30
0.0
 10
12.4888659265
 20
9.3024955969
 30
0.0
 10
12.4865722877
 20
9.3192094088
 30
0.0
 10
12.484054017
 20
9.3353025322
 30
0.0
 10
12.4813162353
 20
9.3507426997
 30
0.0
 10
12.4783645121
 20
9.3654989878
 30
0.0
 10
12.475204858
 20
9.3795418989
 30
0.0
 10
12.471843694
 20
9.392843397
 30
0.0
 10
12.4682878337
 20
9.405377068
 30
0.0
 10
12.4645444581
 20
9.4171178747
 30
0.0
 10
12.4612241034
 20
9.4263640677
 30
0.0
 10
12.4584710808
 20
9.4333383438
 30
0.0
 10
12.4563971206
 20
9.4382726984
 30
0.0
 10
12.4542820599
 20
9.4429920671
 30
0.0
 10
12.4521268915
 20
9.4474941056
 30
0.0
 10
12.4499326835
 20
9.4517765767
 30
0.0
 10
12.4477005492
 20
9.4558373787
 30
0.0
 10
12.4454315185
 20
9.4596744811
 30
0.0
 10
12.4431267384
 20
9.4632860176
 30
0.0
 10
12.4407872845
 20
9.4666702021
 30
0.0
 10
12.4384142383
 20
9.4698253547
 30
0.0
 10
12.4360087456
 20
9.4727499508
 30
0.0
 10
12.4335718331
 20
9.4754424877
 30
0.0
 10
12.4311046305
 20
9.477901635
 30
0.0
 10
12.4286082023
 20
9.4801261056
 30
0.0
 10
12.4260835975
 20
9.4821146486
 30
0.0
 10
12.4235319607
 20
9.4838661694
 30
0.0
 10
12.4209543684
 20
9.4853794823
 30
0.0
 10
12.4183520484
 20
9.4866535625
 30
0.0
 10
12.4157263237
 20
9.4876874109
 30
0.0
 10
12.4130785372
 20
9.4884800542
 30
0.0
 10
12.4104105999
 20
9.4890308117
 30
0.0
 10
12.4086167439
 20
9.4892366132
 30
0.0
 10
12.4077208827
 20
9.489298736
 30
0.0
  0
SPLINE
  5
395
100
AcDbEntity
  8
0
100
AcDbSpline
 62
7
  6
CONTINUOUS
 70
0
 71
3
 72
50
 73
46
 74
0
 42
0.0000001
 43
0.0000001
 44
0.0000000001
 40
0.0
 40
0.0
 40
0.0
 40
0.0
 40
0.0311325572
 40
0.062417036
 40
0.0938475343
 40
0.1254146514
 40
0.1571064119
 40
0.188908375
 40
0.2208039399
 40
0.2527746934
 40
0.2848007784
 40
0.3168612788
 40
0.3489346242
 40
0.3809990008
 40
0.4130327642
 40
0.4450148525
 40
0.4769251913
 40
0.5087450823
 40
0.5404575776
 40
0.5720478257
 40
0.6035033839
 40
0.6348145009
 40
0.6659743442
 40
0.681498779
 40
0.696984265
 40
0.7124308423
 40
0.7278387546
 40
0.7432084514
 40
0.7585405895
 40
0.7738360274
 40
0.7890958223
 40
0.804321229
 40
0.8195136921
 40
0.8346748374
 40
0.8498064675
 40
0.8649105522
 40
0.8799892151
 40
0.8950447254
 40
0.910079486
 40
0.9250960179
 40
0.9400969467
 40
0.95508499
 40
0.9700629396
 40
0.9850336454
 40
1.0
 40
1.0
 40
1.0
 40
1.0
 10
10.531665574
 20
6.658187976
 30
0.0
 10
10.5153973126
 20
6.6593161838
 30
0.0
 10
10.4828514292
 20
6.6627597895
 30
0.0
 10
10.4344221448
 20
6.6714172374
 30
0.0
 10
10.3865037006
 20
6.683534261
 30
0.0
 10
10.3393510052
 20
6.6990466602
 30
0.0
 10
10.2932107405
 20
6.7178725194
 30
0.0
 10
10.2483253709
 20
6.7399127231
 30
0.0
 10
10.2049303705
 20
6.7650512106
 30
0.0
 10
10.1632534821
 20
6.7931557881
 30
0.0
 10
10.123513449
 20
6.8240788021
 30
0.0
 10
10.0859187669
 20
6.8576577382
 30
0.0
 10
10.0506668053
 20
6.8937163323
 30
0.0
 10
10.0179426041
 20
6.932065263
 30
0.0
 10
9.9879179609
 20
6.9725032234
 30
0.0
 10
9.9607506654
 20
7.0148180404
 30
0.0
 10
9.9365834133
 20
7.0587875988
 30
0.0
 10
9.9155433367
 20
7.1041811673
 30
0.0
 10
9.8977411953
 20
7.1507605399
 30
0.0
 10
9.8832707269
 20
7.1982810701
 30
0.0
 10
9.872208407
 20
7.2464937634
 30
0.0
 10
9.8646127246
 20
7.2951436987
 30
0.0
 10
9.8612011616
 20
7.3358936804
 30
0.0
 10
9.8602431651
 20
7.3684501529
 30
0.0
 10
9.8604083878
 20
7.3927892501
 30
0.0
 10
9.8614564468
 20
7.4170449685
 30
0.0
 10
9.8633859747
 20
7.4411858038
 30
0.0
 10
9.8661944713
 20
7.4651798951
 30
0.0
 10
9.8698782095
 20
7.4889957161
 30
0.0
 10
9.8744323876
 20
7.5126019291
 30
0.0
 10
9.879851067
 20
7.5359674723
 30
0.0
 10
9.8861270836
 20
7.5590616168
 30
0.0
 10
9.8932522035
 20
7.5818539788
 30
0.0
 10
9.9012171193
 20
7.6043145512
 30
0.0
 10
9.9100113226
 20
7.6264137925
 30
0.0
 10
9.9196232446
 20
7.6481226295
 30
0.0
 10
9.9300403008
 20
7.6694124708
 30
0.0
 10
9.9412487746
 20
7.6902553052
 30
0.0
 10
9.9532338994
 20
7.7106237191
 30
0.0
 10
9.9659799491
 20
7.7304908819
 30
0.0
 10
9.9794701706
 20
7.7498306441
 30
0.0
 10
9.9936867544
 20
7.768617555
 30
0.0
 10
10.0086111039
 20
7.7868269649
 30
0.0
 10
10.0242232877
 20
7.8044345426
 30
0.0
 10
10.0350779155
 20
7.8157580314
 30
0.0
 10
10.0406117993
 20
7.8213107534
 30
0.0
  0
SPLINE
  5
396
100
AcDbEntity
  8
0
100
AcDbSpline
 62
7
  6
CONTINUOUS
 70
0
 71
3
 72
91
 73
87
 74
0
 42
0.0000001
 43
0.0000001
 44
0.0000000001
 40
0.0
 40
0.0
 40
0.0
 40
0.0
 40
0.0027164146
 40
0.005453202
 40
0.008230252
 40
0.0110665198
 40
0.0139797053
 40
0.0169859824
 40
0.0200999174
 40
0.023334401
 40
0.0267007187
 40
0.0302086385
 40
0.0338665091
 40
0.0376814414
 40
0.0416593691
 40
0.0458052582
 40
0.0501231421
 40
0.0546162891
 40
0.0592872586
 40
0.064137982
 40
0.0691698666
 40
0.0743837897
 40
0.079780237
 40
0.0853592528
 40
0.0911205635
 40
0.0970635488
 40
0.1031872988
 40
0.1094906474
 40
0.1226297881
 40
0.1364673429
 40
0.1509860432
 40
0.166165828
 40
0.1819841602
 40
0.1984162836
 40
0.2154354412
 40
0.2330130641
 40
0.2511189358
 40
0.2697213391
 40
0.2887871904
 40
0.3082821639
 40
0.3281708096
 40
0.3484166635
 40
0.368982358
 40
0.3898297276
 40
0.4109199118
 40
0.4322134566
 40
0.4536704139
 40
0.4752504412
 40
0.4969128994
 40
0.5186169519
 40
0.5403216628
 40
0.5619860952
 40
0.5835694083
 40
0.6050309559
 40
0.6263303839
 40
0.6474277291
 40
0.6682835187
 40
0.688858872
 40
0.7091156002
 40
0.7290163102
 40
0.7485245085
 40
0.7676047097
 40
0.7862225487
 40
0.8043448976
 40
0.8219399925
 40
0.8389775679
 40
0.8554290014
 40
0.8712674776
 40
0.8864681732
 40
0.9010084737
 40
0.9148682315
 40
0.9280300795
 40
0.9343449284
 40
0.9404802779
 40
0.9464349254
 40
0.952207944
 40
0.9577987094
 40
0.9632068925
 40
0.9684325652
 40
0.9734761403
 40
0.9783384919
 40
0.9830209404
 40
0.9875254382
 40
0.9918545985
 40
0.9960115586
 40
1.0
 40
1.0
 40
1.0
 40
1.0
 10
12.496971383
 20
9.6986255904
 30
0.0
 10
12.4982685156
 20
9.6985356396
 30
0.0
 10
12.500865868
 20
9.6982376708
 30
0.0
 10
12.5047288378
 20
9.6974403024
 30
0.0
 10
12.5085625967
 20
9.6962925882
 30
0.0
 10
12.5123644555
 20
9.69479575
 30
0.0
 10
12.5161323903
 20
9.692950987
 30
0.0
 10
12.5198645346
 20
9.690759868
 30
0.0
 10
12.5235591114
 20
9.6882238565
 30
0.0
 10
12.5272145158
 20
9.6853446185
 30
0.0
 10
12.5308291592
 20
9.6821238162
 30
0.0
 10
12.5344014616
 20
9.6785631954
 30
0.0
 10
12.5379299125
 20
9.6746646513
 30
0.0
 10
12.5414128775
 20
9.6704301101
 30
0.0
 10
12.5448488562
 20
9.6658617356
 30
0.0
 10
12.5482361891
 20
9.660961739
 30
0.0
 10
12.5515733431
 20
9.655732567
 30
0.0
 10
12.5548586946
 20
9.6501767742
 30
0.0
 10
12.5580906632
 20
9.6442971023
 30
0.0
 10
12.5612676984
 20
9.6380964608
 30
0.0
 10
12.564388193
 20
9.6315779015
 30
0.0
 10
12.5674506676
 20
9.6247446753
 30
0.0
 10
12.5704535355
 20
9.6176001575
 30
0.0
 10
12.5733953596
 20
9.6101479201
 30
0.0
 10
12.5762746277
 20
9.6023916664
 30
0.0
 10
12.5790899124
 20
9.5943352767
 30
0.0
 10
12.5818398294
 20
9.5859827642
 30
0.0
 10
12.5854675574
 20
9.5742946904
 30
0.0
 10
12.5898160463
 20
9.5589668823
 30
0.0
 10
12.5946827571
 20
9.5397075514
 30
0.0
 10
12.599257684
 20
9.519374581
 30
0.0
 10
12.603531544
 20
9.4980087308
 30
0.0
 10
12.6074956384
 20
9.4756526699
 30
0.0
 10
12.6111419014
 20
9.4523511846
 30
0.0
 10
12.6144629121
 20
9.4281509871
 30
0.0
 10
12.6174519109
 20
9.4031006353
 30
0.0
 10
12.6201028135
 20
9.3772504202
 30
0.0
 10
12.6224102233
 20
9.3506522615
 30
0.0
 10
12.6243694414
 20
9.3233595983
 30
0.0
 10
12.625976476
 20
9.2954272793
 30
0.0
 10
12.6272280492
 20
9.2669114507
 30
0.0
 10
12.6281216062
 20
9.2378694416
 30
0.0
 10
12.6286553177
 20
9.2083596461
 30
0.0
 10
12.6288280827
 20
9.1784414041
 30
0.0
 10
12.6286395304
 20
9.1481748805
 30
0.0
 10
12.6280900203
 20
9.1176209436
 30
0.0
 10
12.6271806419
 20
9.086841042
 30
0.0
 10
12.6259132113
 20
9.0558970814
 30
0.0
 10
12.6242902686
 20
9.0248512988
 30
0.0
 10
12.622315074
 20
8.9937661372
 30
0.0
 10
12.6199915996
 20
8.9627041188
 30
0.0
 10
12.6173245205
 20
8.9317277183
 30
0.0
 10
12.6143192059
 20
8.9008992378
 30
0.0
 10
12.6109817082
 20
8.8702806805
 30
0.0
 10
12.6073187508
 20
8.8399336263
 30
0.0
 10
12.6033377149
 20
8.8099191072
 30
0.0
 10
12.5990466251
 20
8.7802974833
 30
0.0
 10
12.5944541354
 20
8.7511283194
 30
0.0
 10
12.5895695089
 20
8.7224702655
 30
0.0
 10
12.5844026004
 20
8.6943809373
 30
0.0
 10
12.5789638364
 20
8.6669168003
 30
0.0
 10
12.5732641946
 20
8.6401330542
 30
0.0
 10
12.5673151822
 20
8.6140835203
 30
0.0
 10
12.5611288124
 20
8.5888205301
 30
0.0
 10
12.5547175819
 20
8.5643948152
 30
0.0
 10
12.5480944459
 20
8.5408554002
 30
0.0
 10
12.5412727892
 20
8.5182495019
 30
0.0
 10
12.5342663985
 20
8.4966224211
 30
0.0
 10
12.5270894329
 20
8.4760174679
 30
0.0
 10
12.5197563872
 20
8.4564757739
 30
0.0
 10
12.5122820678
 20
8.4380365049
 30
0.0
 10
12.5058628312
 20
8.4234246894
 30
0.0
 10
12.5006589447
 20
8.412323873
 30
0.0
 10
12.4967840137
 20
8.404411586
 30
0.0
 10
12.492885082
 20
8.3968013621
 30
0.0
 10
12.48896407
 20
8.3894969999
 30
0.0
 10
12.4850229766
 20
8.3825021366
 30
0.0
 10
12.4810637206
 20
8.3758202751
 30
0.0
 10
12.4770883299
 20
8.3694547139
 30
0.0
 10
12.4730987163
 20
8.3634086481
 30
0.0
 10
12.4690969248
 20
8.3576850617
 30
0.0
 10
12.4650848891
 20
8.3522867967
 30
0.0
 10
12.4610645491
 20
8.3472164881
 30
0.0
 10
12.4570377929
 20
8.3424765865
 30
0.0
 10
12.4530067391
 20
8.3380696631
 30
0.0
 10
12.4502619687
 20
8.3352987189
 30
0.0
 10
12.4488888253
 20
8.3339723642
 30
0.0
  0
SPLINE
  5
397
100
AcDbEntity
  8
0
100
AcDbSpline
 62
7
  6
CONTINUOUS
 70
0
 71
3
 72
71
 73
67
 74
0
 42
0.0000001
 43
0.0000001
 44
0.0000000001
 40
0.0
 40
0.0
 40
0.0
 40
0.0
 40
0.0156747833
 40
0.0314021865
 40
0.047180646
 40
0.0630088943
 40
0.0788847428
 40
0.0948057522
 40
0.1107690081
 40
0.1267712319
 40
0.1428087904
 40
0.1588777355
 40
0.1749738412
 40
0.1910926417
 40
0.2072294723
 40
0.2233795101
 40
0.2395378174
 40
0.255699384
 40
0.2718591712
 40
0.2880121559
 40
0.3041533744
 40
0.3202779656
 40
0.3363812139
 40
0.352458591
 40
0.3685057963
 40
0.3845187962
 40
0.4004938618
 40
0.416427604
 40
0.4323170075
 40
0.4481594604
 40
0.4639527817
 40
0.4796952457
 40
0.4953856017
 40
0.5110230907
 40
0.5266074578
 40
0.5421389598
 40
0.557618368
 40
0.5730469658
 40
0.588426541
 40
0.6037593729
 40
0.6190482136
 40
0.6342962645
 40
0.6495071467
 40
0.6646848675
 40
0.6798337809
 40
0.6949585438
 40
0.7100640688
 40
0.7251554727
 40
0.7402380227
 40
0.7553170805
 40
0.7703980452
 40
0.7854862953
 40
0.8005871318
 40
0.8157057211
 40
0.8308470414
 40
0.8460158297
 40
0.8612165339
 40
0.8764532676
 40
0.8917297692
 40
0.9070493661
 40
0.9224149487
 40
0.9378289227
 40
0.9532932705
 40
0.9688092857
 40
0.9843782115
 40
1.0
 40
1.0
 40
1.0
 40
1.0
 10
10.531665574
 20
6.8223953762
 30
0.0
 10
10.5233548451
 20
6.8229717273
 30
0.0
 10
10.5067309447
 20
6.8245340557
 30
0.0
 10
10.4818998108
 20
6.8280897811
 30
0.0
 10
10.4571882531
 20
6.8328534132
 30
0.0
 10
10.4326566759
 20
6.8388132123
 30
0.0
 10
10.4083638277
 20
6.8459549112
 30
0.0
 10
10.3843682878
 20
6.8542612033
 30
0.0
 10
10.3607277887
 20
6.8637120804
 30
0.0
 10
10.3374992417
 20
6.874284745
 30
0.0
 10
10.3147385557
 20
6.8859537194
 30
0.0
 10
10.2925005103
 20
6.8986908796
 30
0.0
 10
10.2708386254
 20
6.9124655378
 30
0.0
 10
10.2498050341
 20
6.9272445148
 30
0.0
 10
10.2294503578
 20
6.9429922197
 30
0.0
 10
10.2098235857
 20
6.9596707352
 30
0.0
 10
10.1909719572
 20
6.977239908
 30
0.0
 10
10.1729408496
 20
6.9956574454
 30
0.0
 10
10.155773669
 20
7.0148790159
 30
0.0
 10
10.1395117391
 20
7.03485835
 30
0.0
 10
10.1241942086
 20
7.0555473575
 30
0.0
 10
10.1098579576
 20
7.076896243
 30
0.0
 10
10.0965375093
 20
7.0988536245
 30
0.0
 10
10.0842649473
 20
7.1213666567
 30
0.0
 10
10.0730698387
 20
7.1443811565
 30
0.0
 10
10.0629791636
 20
7.1678417332
 30
0.0
 10
10.0540172493
 20
7.1916919202
 30
0.0
 10
10.0462057035
 20
7.2158743075
 30
0.0
 10
10.03956337
 20
7.2403306833
 30
0.0
 10
10.0341062834
 20
7.2650021727
 30
0.0
 10
10.0298476306
 20
7.2898293786
 30
0.0
 10
10.0267977182
 20
7.3147525233
 30
0.0
 10
10.0249639469
 20
7.3397115909
 30
0.0
 10
10.0243507934
 20
7.3646464717
 30
0.0
 10
10.0249597978
 20
7.3894971051
 30
0.0
 10
10.0267895495
 20
7.4142036251
 30
0.0
 10
10.0298356987
 20
7.4387065044
 30
0.0
 10
10.0340909656
 20
7.4629466973
 30
0.0
 10
10.0395451566
 20
7.4868657815
 30
0.0
 10
10.0461851873
 20
7.5104060989
 30
0.0
 10
10.0539951121
 20
7.5335108943
 30
0.0
 10
10.0629561611
 20
7.5561244532
 30
0.0
 10
10.073046784
 20
7.5781922365
 30
0.0
 10
10.0842426918
 20
7.5996610182
 30
0.0
 10
10.0965169235
 20
7.6204790119
 30
0.0
 10
10.1098399109
 20
7.6405959967
 30
0.0
 10
10.1241795489
 20
7.6599634398
 30
0.0
 10
10.1395012728
 20
7.6785346155
 30
0.0
 10
10.1557681422
 20
7.696264719
 30
0.0
 10
10.1729409297
 20
7.7131109764
 30
0.0
 10
10.1909782172
 20
7.729032749
 30
0.0
 10
10.2098364898
 20
7.7439916408
 30
0.0
 10
10.2294702506
 20
7.7579515851
 30
0.0
 10
10.2498321314
 20
7.770878932
 30
0.0
 10
10.2708730087
 20
7.7827425298
 30
0.0
 10
10.2925421242
 20
7.7935137994
 30
0.0
 10
10.3147872078
 20
7.8031668037
 30
0.0
 10
10.3375546062
 20
7.8116783085
 30
0.0
 10
10.3607894119
 20
7.8190278367
 30
0.0
 10
10.3844355976
 20
7.8251977317
 30
0.0
 10
10.4084361434
 20
7.8301731714
 30
0.0
 10
10.4327332247
 20
7.833942251
 30
0.0
 10
10.4572681764
 20
7.8364958951
 30
0.0
 10
10.4819821956
 20
7.8378281023
 30
0.0
 10
10.506814824
 20
7.8379356309
 30
0.0
 10
10.5233829428
 20
7.8371919564
 30
0.0
 10
10.531665574
 20
7.8366175539
 30
0.0
  0
SPLINE
  5
398
100
AcDbEntity
  8
0
100
AcDbSpline
 62
7
  6
CONTINUOUS
 70
0
 71
3
 72
42
 73
38
 74
0
 42
0.0000001
 43
0.0000001
 44
0.0000000001
 40
0.0
 40
0.0
 40
0.0
 40
0.0
 40
0.0311445079
 40
0.062442049
 40
0.0938867256
 40
0.1254688374
 40
0.1571761862
 40
0.1889940167
 40
0.2209053831
 40
0.2528915025
 40
0.284932132
 40
0.317005972
 40
0.3490910812
 40
0.3811653012
 40
0.4132066835
 40
0.445193914
 40
0.4771067282
 40
0.508926314
 40
0.5406356926
 40
0.5722200701
 40
0.6036671594
 40
0.6349674626
 40
0.6661145002
 40
0.697104989
 40
0.7279389623
 40
0.7586198189
 40
0.7891542965
 40
0.8195523742
 40
0.8498270958
 40
0.8799943105
 40
0.9100723406
 40
0.9250870624
 40
0.9400872816
 40
0.9550757958
 40
0.9700554694
 40
0.9850292195
 40
1.0
 40
1.0
 40
1.0
 40
1.0
 10
10.5433124215
 20
6.8771120324
 30
0.0
 10
10.5319906508
 20
6.8778971998
 30
0.0
 10
10.5093405246
 20
6.8803001018
 30
0.0
 10
10.4756399437
 20
6.8863530852
 30
0.0
 10
10.4423003264
 20
6.8948314703
 30
0.0
 10
10.4095017282
 20
6.9056897067
 30
0.0
 10
10.377418408
 20
6.9188696045
 30
0.0
 10
10.3462214964
 20
6.9343006217
 30
0.0
 10
10.3160771817
 20
6.9519003051
 30
0.0
 10
10.2871461123
 20
6.9715747168
 30
0.0
 10
10.2595824188
 20
6.9932188496
 30
0.0
 10
10.2335329592
 20
7.0167172538
 30
0.0
 10
10.2091365658
 20
7.0419446664
 30
0.0
 10
10.1865232896
 20
7.0687666352
 30
0.0
 10
10.1658136652
 20
7.0970401969
 30
0.0
 10
10.1471181466
 20
7.1266146976
 30
0.0
 10
10.1305365328
 20
7.1573325755
 30
0.0
 10
10.1161573554
 20
7.1890301429
 30
0.0
 10
10.1040574456
 20
7.22153848
 30
0.0
 10
10.0943015718
 20
7.2546843383
 30
0.0
 10
10.0869420709
 20
7.2882910333
 30
0.0
 10
10.0820184769
 20
7.3221793586
 30
0.0
 10
10.0795574025
 20
7.3561685586
 30
0.0
 10
10.0795723971
 20
7.3900772665
 30
0.0
 10
10.0820637787
 20
7.423724459
 30
0.0
 10
10.087018617
 20
7.4569304186
 30
0.0
 10
10.0944108779
 20
7.4895177157
 30
0.0
 10
10.1042014354
 20
7.5213120193
 30
0.0
 10
10.1163384891
 20
7.5521435361
 30
0.0
 10
10.1307566769
 20
7.5818461774
 30
0.0
 10
10.1446199637
 20
7.6055435152
 30
0.0
 10
10.1567638755
 20
7.6237707882
 30
0.0
 10
10.1663839315
 20
7.6370572027
 30
0.0
 10
10.1765072893
 20
7.6499476885
 30
0.0
 10
10.1871207013
 20
7.662425312
 30
0.0
 10
10.1982096509
 20
7.6744731413
 30
0.0
 10
10.2059102966
 20
7.6822085937
 30
0.0
 10
10.2098340481
 20
7.6859986526
 30
0.0
  0
SPLINE
  5
399
100
AcDbEntity
  8
0
100
AcDbSpline
 62
7
  6
CONTINUOUS
 70
0
 71
3
 72
23
 73
19
 74
0
 42
0.0000001
 43
0.0000001
 44
0.0000000001
 40
0.0
 40
0.0
 40
0.0
 40
0.0
 40
0.063833871
 40
0.1274554742
 40
0.1908630517
 40
0.2540624682
 40
0.3170584327
 40
0.3798587562
 40
0.4424728765
 40
0.504912105
 40
0.5671895085
 40
0.6293197654
 40
0.6913190446
 40
0.7532048454
 40
0.8149958319
 40
0.8767116457
 40
0.9383727062
 40
1.0
 40
1.0
 40
1.0
 40
1.0
 10
10.0487026323
 20
9.2929199391
 30
0.0
 10
10.0555497284
 20
9.2924450914
 30
0.0
 10
10.0692463034
 20
9.2918257659
 30
0.0
 10
10.0897758733
 20
9.2918939574
 30
0.0
 10
10.1102100805
 20
9.2929608103
 30
0.0
 10
10.1305002008
 20
9.2950237139
 30
0.0
 10
10.1505989962
 20
9.2980780064
 30
0.0
 10
10.1704592231
 20
9.3021165277
 30
0.0
 10
10.1900343346
 20
9.3071298741
 30
0.0
 10
10.2092784119
 20
9.3131063172
 30
0.0
 10
10.2281463125
 20
9.3200318782
 30
0.0
 10
10.2465937687
 20
9.3278903555
 30
0.0
 10
10.2645774868
 20
9.3366633543
 30
0.0
 10
10.2820552663
 20
9.3463303434
 30
0.0
 10
10.298986056
 20
9.3568686206
 30
0.0
 10
10.3153302633
 20
9.3682536005
 30
0.0
 10
10.3310490026
 20
9.3804581162
 30
0.0
 10
10.3410894847
 20
9.38912427
 30
0.0
 10
10.3459916564
 20
9.3935825638
 30
0.0
  0
SPLINE
  5
39A
100
AcDbEntity
  8
0
100
AcDbSpline
 62
7
  6
CONTINUOUS
 70
0
 71
3
 72
62
 73
58
 74
0
 42
0.0000001
 43
0.0000001
 44
0.0000000001
 40
0.0
 40
0.0
 40
0.0
 40
0.0
 40
0.008143839
 40
0.0169768244
 40
0.0265208545
 40
0.0367896139
 40
0.047788295
 40
0.0595157887
 40
0.0719659619
 40
0.085128237
 40
0.0989884391
 40
0.1135292306
 40
0.1287304142
 40
0.1445694054
 40
0.1610213937
 40
0.1780595198
 40
0.1956551924
 40
0.2137781463
 40
0.232396585
 40
0.251477413
 40
0.2908867022
 40
0.3317193159
 40
0.373673074
 40
0.4164347434
 40
0.4596832312
 40
0.5030927511
 40
0.5463359841
 40
0.5890871939
 40
0.6310253936
 40
0.6718374959
 40
0.7112215222
 40
0.7302880284
 40
0.7488910527
 40
0.7669975458
 40
0.7845757753
 40
0.8015955001
 40
0.8180281944
 40
0.8338470776
 40
0.8490273754
 40
0.8635465947
 40
0.8773846374
 40
0.8905242252
 40
0.9029513207
 40
0.9146554843
 40
0.9256306641
 40
0.9358760454
 40
0.9453970689
 40
0.9542071354
 40
0.9623296369
 40
0.9698006119
 40
0.9766724023
 40
0.9830176447
 40
0.9889330962
 40
0.9917694715
 40
0.9945466125
 40
0.9972834953
 40
1.0
 40
1.0
 40
1.0
 40
1.0
 10
12.3890014198
 20
7.333562651
 30
0.0
 10
12.3899494238
 20
7.3344783526
 30
0.0
 10
12.3918405162
 20
7.336476442
 30
0.0
 10
12.3945578965
 20
7.3398027842
 30
0.0
 10
12.3972635934
 20
7.3435707695
 30
0.0
 10
12.3999523599
 20
7.3477728713
 30
0.0
 10
12.4026192708
 20
7.352401231
 30
0.0
 10
12.4052590763
 20
7.3574468808
 30
0.0
 10
12.4078665547
 20
7.3628999684
 30
0.0
 10
12.4104365276
 20
7.3687497461
 30
0.0
 10
12.4129638199
 20
7.3749846361
 30
0.0
 10
12.4154433288
 20
7.3815922423
 30
0.0
 10
12.4178700766
 20
7.3885593777
 30
0.0
 10
12.420239145
 20
7.3958721215
 30
0.0
 10
12.42254574
 20
7.4035158365
 30
0.0
 10
12.4247852214
 20
7.4114751974
 30
0.0
 10
12.4269530482
 20
7.4197342436
 30
0.0
 10
12.4290448317
 20
7.4282763953
 30
0.0
 10
12.4310563893
 20
7.4370845074
 30
0.0
 10
12.4336539269
 20
7.449291182
 30
0.0
 10
12.4366622665
 20
7.4650842635
 30
0.0
 10
12.4398553533
 20
7.4846035501
 30
0.0
 10
12.4426432327
 20
7.5047326472
 30
0.0
 10
12.445003325
 20
7.5253098469
 30
0.0
 10
12.4469165164
 20
7.5461699537
 30
0.0
 10
12.4483673875
 20
7.5671454091
 30
0.0
 10
12.4493442815
 20
7.5880677301
 30
0.0
 10
12.449839406
 20
7.6087688521
 30
0.0
 10
12.4498489582
 20
7.6290825621
 30
0.0
 10
12.4493730389
 20
7.648845644
 30
0.0
 10
12.4485670216
 20
7.6648927423
 30
0.0
 10
12.4476741586
 20
7.6773318269
 30
0.0
 10
12.4468939385
 20
7.6863254596
 30
0.0
 10
12.4459976011
 20
7.6950661793
 30
0.0
 10
12.4449869396
 20
7.7035364452
 30
0.0
 10
12.4438640047
 20
7.7117192475
 30
0.0
 10
12.4426311041
 20
7.7195981716
 30
0.0
 10
12.4412907343
 20
7.7271574201
 30
0.0
 10
12.4398456137
 20
7.7343818534
 30
0.0
 10
12.4382987064
 20
7.7412570291
 30
0.0
 10
12.4366531372
 20
7.7477692247
 30
0.0
 10
12.4349122375
 20
7.7539054807
 30
0.0
 10
12.4330795504
 20
7.7596536434
 30
0.0
 10
12.4311587301
 20
7.7650023806
 30
0.0
 10
12.4291535887
 20
7.7699412371
 30
0.0
 10
12.4270680599
 20
7.7744606796
 30
0.0
 10
12.4249060444
 20
7.7785520921
 30
0.0
 10
12.4226714212
 20
7.782207824
 30
0.0
 10
12.4203678552
 20
7.7854211681
 30
0.0
 10
12.4179986302
 20
7.7881861317
 30
0.0
 10
12.4155662708
 20
7.7904972378
 30
0.0
 10
12.4130736662
 20
7.7923486348
 30
0.0
 10
12.4109169792
 20
7.7935190306
 30
0.0
 10
12.4091790327
 20
7.7942032498
 30
0.0
 10
12.4078826846
 20
7.7945913362
 30
0.0
 10
12.4065765155
 20
7.794860962
 30
0.0
 10
12.4056982737
 20
7.794961737
 30
0.0
 10
12.4052596753
 20
7.7949921528
 30
0.0
  0
SPLINE
  5
39B
100
AcDbEntity
  8
0
100
AcDbSpline
 62
7
  6
CONTINUOUS
 70
0
 71
3
 72
43
 73
39
 74
0
 42
0.0000001
 43
0.0000001
 44
0.0000000001
 40
0.0
 40
0.0
 40
0.0
 40
0.0
 40
0.0309796012
 40
0.0620951076
 40
0.0933423249
 40
0.1247141897
 40
0.1562019816
 40
0.1877950249
 40
0.2194810082
 40
0.2512461611
 40
0.2830754849
 40
0.3149529918
 40
0.3468619551
 40
0.3787851672
 40
0.4107052036
 40
0.4426046876
 40
0.4744665564
 40
0.5062743224
 40
0.5380123296
 40
0.5696660001
 40
0.6012220684
 40
0.6326688004
 40
0.6639961939
 40
0.6951961574
 40
0.7262626635
 40
0.7571918737
 40
0.7879822304
 40
0.8186345136
 40
0.8339118591
 40
0.8491560589
 40
0.8643678686
 40
0.8795481884
 40
0.9098143317
 40
0.9399686383
 40
0.9550096927
 40
0.9700274083
 40
0.9850235556
 40
1.0
 40
1.0
 40
1.0
 40
1.0
 10
10.7531079788
 20
7.1058389903
 30
0.0
 10
10.743609102
 20
7.1064977397
 30
0.0
 10
10.7246069127
 20
7.1084359151
 30
0.0
 10
10.6962927906
 20
7.1131726937
 30
0.0
 10
10.668218237
 20
7.1197255525
 30
0.0
 10
10.6405031775
 20
7.128066663
 30
0.0
 10
10.6132641079
 20
7.1381606537
 30
0.0
 10
10.5866159745
 20
7.1499648351
 30
0.0
 10
10.5606710908
 20
7.1634293047
 30
0.0
 10
10.5355388351
 20
7.1784971942
 30
0.0
 10
10.5113251414
 20
7.1951048867
 30
0.0
 10
10.4881320725
 20
7.2131822945
 30
0.0
 10
10.4660573929
 20
7.2326531557
 30
0.0
 10
10.4451941609
 20
7.253435353
 30
0.0
 10
10.4256303399
 20
7.2754412571
 30
0.0
 10
10.4074484304
 20
7.2985780933
 30
0.0
 10
10.3907251266
 20
7.3227483294
 30
0.0
 10
10.3755309883
 20
7.3478500793
 30
0.0
 10
10.3619301436
 20
7.3737775292
 30
0.0
 10
10.3499800272
 20
7.4004213845
 30
0.0
 10
10.3397311373
 20
7.4276693244
 30
0.0
 10
10.3312268234
 20
7.4554064718
 30
0.0
 10
10.3245031012
 20
7.4835158653
 30
0.0
 10
10.319588504
 20
7.5118789725
 30
0.0
 10
10.3165039393
 20
7.540376088
 30
0.0
 10
10.3152626475
 20
7.5688871885
 30
0.0
 10
10.315869934
 20
7.5972911209
 30
0.0
 10
10.317917258
 20
7.6208008988
 30
0.0
 10
10.3204755572
 20
7.6394308999
 30
0.0
 10
10.3228491589
 20
7.653288072
 30
0.0
 10
10.3256771289
 20
7.6670292727
 30
0.0
 10
10.3300446795
 20
7.6851569986
 30
0.0
 10
10.3366225242
 20
7.7074622074
 30
0.0
 10
10.3446804533
 20
7.7292311705
 30
0.0
 10
10.3519857027
 20
7.7462383068
 30
0.0
 10
10.3578841839
 20
7.7587702053
 30
0.0
 10
10.3641999074
 20
7.7710744338
 30
0.0
 10
10.3686871869
 20
7.7791223228
 30
0.0
 10
10.3709978651
 20
7.7831033985
 30
0.0
  0
SPLINE
  5
39C
100
AcDbEntity
  8
0
100
AcDbSpline
 62
7
  6
CONTINUOUS
 70
0
 71
3
 72
44
 73
40
 74
0
 42
0.0000001
 43
0.0000001
 44
0.0000000001
 40
0.0
 40
0.0
 40
0.0
 40
0.0
 40
0.0309356917
 40
0.046455021
 40
0.0620066474
 40
0.0932015734
 40
0.1245177386
 40
0.1402206721
 40
0.1559507696
 40
0.1874837352
 40
0.219108955
 40
0.2508138011
 40
0.2825844869
 40
0.3144062726
 40
0.3462636824
 40
0.3781407296
 40
0.4100211466
 40
0.4418886179
 40
0.4737270131
 40
0.5055206183
 40
0.5372543633
 40
0.5689140421
 40
0.6004865251
 40
0.6319599586
 40
0.6633239513
 40
0.6945697435
 40
0.7256903564
 40
0.756680719
 40
0.7875377696
 40
0.8182605288
 40
0.8335737614
 40
0.8488540307
 40
0.8641018122
 40
0.879317717
 40
0.90965299
 40
0.9398712236
 40
0.9549413432
 40
0.9699858786
 40
1.0
 40
1.0
 40
1.0
 40
1.0
 10
10.7490733925
 20
7.0758618801
 30
0.0
 10
10.7393291702
 20
7.0765376442
 30
0.0
 10
10.7247232075
 20
7.0780122342
 30
0.0
 10
10.7053546198
 20
7.0808827772
 30
0.0
 10
10.6860027414
 20
7.0843650472
 30
0.0
 10
10.661956441
 20
7.0898498502
 30
0.0
 10
10.6382441848
 20
7.0968057225
 30
0.0
 10
10.6195031681
 20
7.103240821
 30
0.0
 10
10.6009010036
 20
7.1102630661
 30
0.0
 10
10.5780041023
 20
7.1201098746
 30
0.0
 10
10.5512298366
 20
7.1335747117
 30
0.0
 10
10.5252382493
 20
7.1486455224
 30
0.0
 10
10.5001327045
 20
7.1652624279
 30
0.0
 10
10.4760122383
 20
7.1833597497
 30
0.0
 10
10.4529722186
 20
7.2028658962
 30
0.0
 10
10.4311036863
 20
7.2237037421
 30
0.0
 10
10.4104930777
 20
7.2457909078
 30
0.0
 10
10.3912218642
 20
7.2690400903
 30
0.0
 10
10.3733662388
 20
7.2933594035
 30
0.0
 10
10.3569968149
 20
7.3186527387
 30
0.0
 10
10.3421783498
 20
7.3448201415
 30
0.0
 10
10.3289694898
 20
7.371758203
 30
0.0
 10
10.3174225385
 20
7.3993604646
 30
0.0
 10
10.3075832516
 20
7.4275178364
 30
0.0
 10
10.2994906523
 20
7.4561190163
 30
0.0
 10
10.2931768761
 20
7.4850509511
 30
0.0
 10
10.2886670365
 20
7.514199188
 30
0.0
 10
10.2859791579
 20
7.5434486628
 30
0.0
 10
10.2851239672
 20
7.57268289
 30
0.0
 10
10.2859426864
 20
7.5969649608
 30
0.0
 10
10.2875165918
 20
7.6162635658
 30
0.0
 10
10.2891526616
 20
7.6306472791
 30
0.0
 10
10.2912440049
 20
7.6449408404
 30
0.0
 10
10.2946328297
 20
7.6638388044
 30
0.0
 10
10.2999934828
 20
7.687172209
 30
0.0
 10
10.3068479845
 20
7.7100633891
 30
0.0
 10
10.3132050388
 20
7.7280242178
 30
0.0
 10
10.3201256188
 20
7.7457055346
 30
0.0
 10
10.325965787
 20
7.7586933967
 30
0.0
 10
10.3301376087
 20
7.7672023802
 30
0.0
  0
SPLINE
  5
39D
100
AcDbEntity
  8
0
100
AcDbSpline
 62
7
  6
CONTINUOUS
 70
0
 71
3
 72
79
 73
75
 74
0
 42
0.0000001
 43
0.0000001
 44
0.0000000001
 40
0.0
 40
0.0
 40
0.0
 40
0.0
 40
0.0027164347
 40
0.0054532488
 40
0.0082303236
 40
0.0110666256
 40
0.0139798465
 40
0.0169861596
 40
0.02010014
 40
0.0233346673
 40
0.0267010303
 40
0.0302090039
 40
0.0338669236
 40
0.0376819087
 40
0.0416598992
 40
0.0458058334
 40
0.050123788
 40
0.0546169889
 40
0.0592880183
 40
0.0641388147
 40
0.0691707474
 40
0.0743847509
 40
0.0853596772
 40
0.0970635614
 40
0.1094903495
 40
0.122629634
 40
0.1364673293
 40
0.1509861741
 40
0.1661661143
 40
0.1819846001
 40
0.1984168698
 40
0.2154361725
 40
0.2330139498
 40
0.2511199804
 40
0.269722539
 40
0.2887885422
 40
0.3082836705
 40
0.3281724738
 40
0.3484184816
 40
0.3689843266
 40
0.4109214294
 40
0.4536715193
 40
0.4969136093
 40
0.540321979
 40
0.5835693174
 40
0.6263298478
 40
0.6682824923
 40
0.6888579727
 40
0.7091148233
 40
0.7290156552
 40
0.7485239752
 40
0.7676042909
 40
0.7862222357
 40
0.8043446912
 40
0.8219398969
 40
0.8389775799
 40
0.8554291082
 40
0.8712676747
 40
0.8864684624
 40
0.9010088541
 40
0.9148686911
 40
0.9280306123
 40
0.9404804379
 40
0.9522076406
 40
0.9577984259
 40
0.9632066633
 40
0.9684323655
 40
0.9734759744
 40
0.9783383356
 40
0.9830207896
 40
0.9875253575
 40
0.9918546105
 40
0.9960116061
 40
1.0
 40
1.0
 40
1.0
 40
1.0
 10
12.4793300611
 20
7.9953477206
 30
0.0
 10
12.4801512662
 20
7.9952907663
 30
0.0
 10
12.4817956336
 20
7.9951021105
 30
0.0
 10
12.484241239
 20
7.994597222
 30
0.0
 10
12.4866683694
 20
7.9938706038
 30
0.0
 10
12.4890752868
 20
7.9929229044
 30
0.0
 10
12.4914607346
 20
7.9917549611
 30
0.0
 10
12.4938235289
 20
7.9903677477
 30
0.0
 10
12.4961625263
 20
7.9887621671
 30
0.0
 10
12.4984767336
 20
7.986939307
 30
0.0
 10
12.5007651364
 20
7.9849002052
 30
0.0
 10
12.5030267223
 20
7.982645957
 30
0.0
 10
12.5052605579
 20
7.980177784
 30
0.0
 10
12.5074655954
 20
7.977496891
 30
0.0
 10
12.5096408681
 20
7.9746046418
 30
0.0
 10
12.5117853803
 20
7.9715024669
 30
0.0
 10
12.5138980805
 20
7.9681918694
 30
0.0
 10
12.5159780182
 20
7.9646745094
 30
0.0
 10
12.5180241509
 20
7.9609520977
 30
0.0
 10
12.5200354814
 20
7.9570264794
 30
0.0
 10
12.5220110805
 20
7.9528995982
 30
0.0
 10
12.5246411981
 20
7.9470307387
 30
0.0
 10
12.5278218223
 20
7.9391961884
 30
0.0
 10
12.5314182312
 20
7.9291816401
 30
0.0
 10
12.5348496496
 20
7.9184190625
 30
0.0
 10
12.5381091798
 20
7.906929889
 30
0.0
 10
12.5411902421
 20
7.894736825
 30
0.0
 10
12.5440865839
 20
7.8818641449
 30
0.0
 10
12.5467923139
 20
7.8683375279
 30
0.0
 10
12.5493019367
 20
7.8541840282
 30
0.0
 10
12.5516103466
 20
7.8394319932
 30
0.0
 10
12.5537128441
 20
7.8241109947
 30
0.0
 10
12.5556051419
 20
7.8082517689
 30
0.0
 10
12.5572833915
 20
7.7918861559
 30
0.0
 10
12.5587441811
 20
7.7750470295
 30
0.0
 10
12.5599845357
 20
7.7577682225
 30
0.0
 10
12.5610019254
 20
7.7400844545
 30
0.0
 10
12.5617942666
 20
7.722031279
 30
0.0
 10
12.5623599735
 20
7.7036449625
 30
0.0
 10
12.5628133371
 20
7.6785725878
 30
0.0
 10
12.5627982168
 20
7.6466737459
 30
0.0
 10
12.5618711879
 20
7.6079143177
 30
0.0
 10
12.5600421043
 20
7.5687406078
 30
0.0
 10
12.5573255682
 20
7.5294674612
 30
0.0
 10
12.5537434205
 20
7.4904102451
 30
0.0
 10
12.5493244936
 20
7.4518828586
 30
0.0
 10
12.5449469096
 20
7.4202749237
 30
0.0
 10
12.5410451991
 20
7.3954927995
 30
0.0
 10
12.5379527525
 20
7.377349594
 30
0.0
 10
12.5346816211
 20
7.3595664643
 30
0.0
 10
12.5312383767
 20
7.3421791327
 30
0.0
 10
12.5276299716
 20
7.3252225558
 30
0.0
 10
12.5238636884
 20
7.3087308055
 30
0.0
 10
12.5199471396
 20
7.2927370076
 30
0.0
 10
12.515888237
 20
7.2772732777
 30
0.0
 10
12.5116951794
 20
7.2623706578
 30
0.0
 10
12.5073764342
 20
7.2480590444
 30
0.0
 10
12.5029407366
 20
7.2343671157
 30
0.0
 10
12.4983970519
 20
7.2213222781
 30
0.0
 10
12.4937545576
 20
7.2089506035
 30
0.0
 10
12.4890226162
 20
7.1972767891
 30
0.0
 10
12.484210758
 20
7.1863239948
 30
0.0
 10
12.4793286676
 20
7.176114085
 30
0.0
 10
12.4751458676
 20
7.1681189388
 30
0.0
 10
12.4717650914
 20
7.1621184742
 30
0.0
 10
12.4692585192
 20
7.1578882248
 30
0.0
 10
12.4667417096
 20
7.1538582457
 30
0.0
 10
12.4642159254
 20
7.1500305292
 30
0.0
 10
12.4616824376
 20
7.1464069755
 30
0.0
 10
12.4591424399
 20
7.1429893832
 30
0.0
 10
12.4565971857
 20
7.1397793836
 30
0.0
 10
12.4540478392
 20
7.1367785742
 30
0.0
 10
12.4514958119
 20
7.1339885825
 30
0.0
 10
12.449758136
 20
7.1322343289
 30
0.0
 10
12.4488888253
 20
7.1313946392
 30
0.0
  0
SPLINE
  5
39E
100
AcDbEntity
  8
0
100
AcDbSpline
 62
7
  6
CONTINUOUS
 70
0
 71
3
 72
71
 73
67
 74
0
 42
0.0000001
 43
0.0000001
 44
0.0000000001
 40
0.0
 40
0.0
 40
0.0
 40
0.0
 40
0.0156217885
 40
0.0311907143
 40
0.0467067295
 40
0.0621710773
 40
0.0775850513
 40
0.0929506339
 40
0.1082702308
 40
0.1235467324
 40
0.1387834661
 40
0.1539841703
 40
0.1691529586
 40
0.1842942789
 40
0.1994128682
 40
0.2145137047
 40
0.2296019548
 40
0.2446829195
 40
0.2597619773
 40
0.2748445273
 40
0.2899359312
 40
0.3050414562
 40
0.3201662191
 40
0.3353151325
 40
0.3504928533
 40
0.3657037355
 40
0.3809517864
 40
0.3962406271
 40
0.411573459
 40
0.4269530342
 40
0.442381632
 40
0.4578610402
 40
0.4733925422
 40
0.4889769093
 40
0.5046143983
 40
0.5203047543
 40
0.5360472183
 40
0.5518405396
 40
0.5676829925
 40
0.583572396
 40
0.5995061382
 40
0.6154812038
 40
0.6314942037
 40
0.647541409
 40
0.6636187861
 40
0.6797220344
 40
0.6958466256
 40
0.7119878441
 40
0.7281408288
 40
0.744300616
 40
0.7604621826
 40
0.7766204899
 40
0.7927705277
 40
0.8089073583
 40
0.8250261588
 40
0.8411222645
 40
0.8571912096
 40
0.8732287681
 40
0.8892309919
 40
0.9051942478
 40
0.9211152572
 40
0.9369911057
 40
0.952819354
 40
0.9685978135
 40
0.9843252167
 40
1.0
 40
1.0
 40
1.0
 40
1.0
 10
10.531665574
 20
6.8223953762
 30
0.0
 10
10.5399482053
 20
6.8218209738
 30
0.0
 10
10.5565163241
 20
6.8210772993
 30
0.0
 10
10.5813489525
 20
6.8211848279
 30
0.0
 10
10.6060629717
 20
6.8225170351
 30
0.0
 10
10.6305979234
 20
6.8250706792
 30
0.0
 10
10.6548950047
 20
6.8288397588
 30
0.0
 10
10.6788955505
 20
6.8338151985
 30
0.0
 10
10.7025417362
 20
6.8399850935
 30
0.0
 10
10.7257765419
 20
6.8473346217
 30
0.0
 10
10.7485439403
 20
6.8558461265
 30
0.0
 10
10.7707890239
 20
6.8654991307
 30
0.0
 10
10.7924581393
 20
6.8762704004
 30
0.0
 10
10.8134990167
 20
6.8881339981
 30
0.0
 10
10.8338608975
 20
6.9010613451
 30
0.0
 10
10.8534946582
 20
6.9150212894
 30
0.0
 10
10.8723529309
 20
6.9299801812
 30
0.0
 10
10.8903902184
 20
6.9459019538
 30
0.0
 10
10.9075630059
 20
6.9627482112
 30
0.0
 10
10.9238298753
 20
6.9804783147
 30
0.0
 10
10.9391515992
 20
6.9990494904
 30
0.0
 10
10.9534912372
 20
7.0184169335
 30
0.0
 10
10.9668142246
 20
7.0385339182
 30
0.0
 10
10.9790884563
 20
7.0593519119
 30
0.0
 10
10.9902843641
 20
7.0808206937
 30
0.0
 10
11.000374987
 20
7.102888477
 30
0.0
 10
11.009336036
 20
7.1255020359
 30
0.0
 10
11.0171459608
 20
7.1486068313
 30
0.0
 10
11.0237859914
 20
7.1721471486
 30
0.0
 10
11.0292401825
 20
7.1960662329
 30
0.0
 10
11.0334954494
 20
7.2203064258
 30
0.0
 10
11.0365415986
 20
7.2448093051
 30
0.0
 10
11.0383713503
 20
7.269515825
 30
0.0
 10
11.0389803547
 20
7.2943664585
 30
0.0
 10
11.0383672012
 20
7.3193013392
 30
0.0
 10
11.0365334299
 20
7.3442604069
 30
0.0
 10
11.0334835175
 20
7.3691835515
 30
0.0
 10
11.0292248647
 20
7.3940107575
 30
0.0
 10
11.0237677781
 20
7.4186822469
 30
0.0
 10
11.0171254446
 20
7.4431386227
 30
0.0
 10
11.0093138988
 20
7.46732101
 30
0.0
 10
11.0003519845
 20
7.491171197
 30
0.0
 10
10.9902613094
 20
7.5146317737
 30
0.0
 10
10.9790662008
 20
7.5376462735
 30
0.0
 10
10.9667936388
 20
7.5601593057
 30
0.0
 10
10.9534731905
 20
7.5821166872
 30
0.0
 10
10.9391369395
 20
7.6034655726
 30
0.0
 10
10.923819409
 20
7.6241545802
 30
0.0
 10
10.9075574791
 20
7.6441339142
 30
0.0
 10
10.8903902985
 20
7.6633554848
 30
0.0
 10
10.8723591909
 20
7.6817730222
 30
0.0
 10
10.8535075624
 20
7.699342195
 30
0.0
 10
10.8338807903
 20
7.7160207104
 30
0.0
 10
10.813526114
 20
7.7317684154
 30
0.0
 10
10.7924925227
 20
7.7465473924
 30
0.0
 10
10.7708306378
 20
7.7603220506
 30
0.0
 10
10.7485925924
 20
7.7730592108
 30
0.0
 10
10.7258319064
 20
7.7847281852
 30
0.0
 10
10.7026033593
 20
7.7953008498
 30
0.0
 10
10.6789628603
 20
7.8047517269
 30
0.0
 10
10.6549673204
 20
7.813058019
 30
0.0
 10
10.6306744722
 20
7.8201997178
 30
0.0
 10
10.606142895
 20
7.8261595169
 30
0.0
 10
10.5814313373
 20
7.8309231491
 30
0.0
 10
10.5566002034
 20
7.8344788745
 30
0.0
 10
10.539976303
 20
7.8360412029
 30
0.0
 10
10.531665574
 20
7.8366175539
 30
0.0
  0
SPLINE
  5
39F
100
AcDbEntity
  8
0
100
AcDbSpline
 62
7
  6
CONTINUOUS
 70
0
 71
3
 72
39
 73
35
 74
0
 42
0.0000001
 43
0.0000001
 44
0.0000000001
 40
0.0
 40
0.0
 40
0.0
 40
0.0
 40
0.0311282404
 40
0.0624076484
 40
0.0938325779
 40
0.1253935936
 40
0.1570789327
 40
0.1888743148
 40
0.2207633363
 40
0.2527277962
 40
0.2847480558
 40
0.3168034192
 40
0.3488725279
 40
0.3809337648
 40
0.4129656614
 40
0.4449473016
 40
0.4768587201
 40
0.5086812881
 40
0.5403980792
 40
0.5719942113
 40
0.6034571581
 40
0.6347770267
 40
0.6659467894
 40
0.6969624646
 40
0.7278232429
 40
0.7585315524
 40
0.7890930574
 40
0.8195165821
 40
0.8498139624
 40
0.879999824
 40
0.91009129
 40
0.940107619
 40
0.9700697836
 40
1.0
 40
1.0
 40
1.0
 40
1.0
 10
10.0487026323
 20
9.2929199391
 30
0.0
 10
10.0384489706
 20
9.293631033
 30
0.0
 10
10.0179358223
 20
9.295798144
 30
0.0
 10
9.9874097783
 20
9.301240233
 30
0.0
 10
9.9572028767
 20
9.3088534684
 30
0.0
 10
9.9274743639
 20
9.3185979218
 30
0.0
 10
9.8983784415
 20
9.3304226101
 30
0.0
 10
9.8700666286
 20
9.3442657927
 30
0.0
 10
9.8426861544
 20
9.3600552303
 30
0.0
 10
9.8163794493
 20
9.3777086196
 30
0.0
 10
9.7912833461
 20
9.3971340057
 30
0.0
 10
9.7675284032
 20
9.4182302624
 30
0.0
 10
9.7452381912
 20
9.4408875729
 30
0.0
 10
9.7245286813
 20
9.4649880313
 30
0.0
 10
9.7055076564
 20
9.490406255
 30
0.0
 10
9.6882741588
 20
9.5170100291
 30
0.0
 10
9.6729179668
 20
9.5446609737
 30
0.0
 10
9.659519099
 20
9.5732152444
 30
0.0
 10
9.6481474457
 20
9.6025242993
 30
0.0
 10
9.6388623973
 20
9.6324356535
 30
0.0
 10
9.6317125459
 20
9.6627936627
 30
0.0
 10
9.6267353783
 20
9.6934403087
 30
0.0
 10
9.6239570957
 20
9.7242160239
 30
0.0
 10
9.6233924927
 20
9.7549605131
 30
0.0
 10
9.6250448641
 20
9.7855135751
 30
0.0
 10
9.6289059692
 20
9.8157159264
 30
0.0
 10
9.6349560067
 20
9.8454100366
 30
0.0
 10
9.6431637608
 20
9.8744409496
 30
0.0
 10
9.6534867237
 20
9.9026570788
 30
0.0
 10
9.665871359
 20
9.9299110523
 30
0.0
 10
9.6802531347
 20
9.9560603168
 30
0.0
 10
9.6965575582
 20
9.9809686302
 30
0.0
 10
9.7146979686
 20
10.0045040875
 30
0.0
 10
9.7279601754
 20
10.0192053398
 30
0.0
 10
9.7348589233
 20
10.0262817279
 30
0.0
  0
LINE
  5
3A0
100
AcDbEntity
  8
0
100
AcDbLine
 62
7
  6
CONTINUOUS
 10
9.7348589233
 20
10.0262817279
 11
9.735118037
 21
10.0265472564
  0
SPLINE
  5
3A1
100
AcDbEntity
  8
0
100
AcDbSpline
 62
7
  6
CONTINUOUS
 70
0
 71
3
 72
18
 73
14
 74
0
 42
0.0000001
 43
0.0000001
 44
0.0000000001
 40
0.0
 40
0.0
 40
0.0
 40
0.0
 40
0.1504675778
 40
0.2917143634
 40
0.4244426495
 40
0.4879099663
 40
0.5496093894
 40
0.6682625047
 40
0.7817882978
 40
0.8371380147
 40
0.8918078593
 40
0.9460192908
 40
1.0
 40
1.0
 40
1.0
 40
1.0
 10
12.4488888253
 20
7.1313946392
 30
0.0
 10
12.4476449051
 20
7.1301931045
 30
0.0
 10
12.4451587422
 20
7.1279386714
 30
0.0
 10
12.4413091892
 20
7.1249343534
 30
0.0
 10
12.438057575
 20
7.1228095469
 30
0.0
 10
12.4354647087
 20
7.12137069
 30
0.0
 10
12.4329481207
 20
7.1201353949
 30
0.0
 10
12.4298015882
 20
7.1188871704
 30
0.0
 10
12.4265990838
 20
7.1180353689
 30
0.0
 10
12.4240626027
 20
7.1176157707
 30
0.0
 10
12.4221827222
 20
7.1174295323
 30
0.0
 10
12.4203104448
 20
7.1173693981
 30
0.0
 10
12.4190665508
 20
7.1174134075
 30
0.0
 10
12.4184475894
 20
7.1174563353
 30
0.0
  0
SPLINE
  5
3A2
100
AcDbEntity
  8
0
100
AcDbSpline
 62
7
  6
CONTINUOUS
 70
0
 71
3
 72
64
 73
60
 74
0
 42
0.0000001
 43
0.0000001
 44
0.0000000001
 40
0.0
 40
0.0
 40
0.0
 40
0.0
 40
0.0156754558
 40
0.0314041837
 40
0.0471834478
 40
0.0630126482
 40
0.0788894695
 40
0.0948114161
 40
0.11077563
 40
0.1267788105
 40
0.1588785854
 40
0.1910868578
 40
0.2233671531
 40
0.2556804822
 40
0.2879867022
 40
0.3202459219
 40
0.3524198834
 40
0.3684680486
 40
0.3844820049
 40
0.4004580244
 40
0.41639272
 40
0.4322830741
 40
0.4481264734
 40
0.4639207386
 40
0.4796641448
 40
0.4953554384
 40
0.5109938607
 40
0.5265791593
 40
0.542111591
 40
0.5575919245
 40
0.5730214439
 40
0.588401939
 40
0.6037356884
 40
0.6190254422
 40
0.6342744034
 40
0.6494861952
 40
0.664664824
 40
0.6798146426
 40
0.6949403093
 40
0.7100467381
 40
0.7251390447
 40
0.7402224957
 40
0.755302454
 40
0.7703843205
 40
0.785473473
 40
0.8005752116
 40
0.8156947044
 40
0.8308369306
 40
0.8460066265
 40
0.861208239
 40
0.8764458822
 40
0.891723297
 40
0.9070438144
 40
0.9224103005
 40
0.937825218
 40
0.953290497
 40
0.9688073028
 40
0.9843775434
 40
1.0
 40
1.0
 40
1.0
 40
1.0
 10
10.0487026323
 20
9.4619569688
 30
0.0
 10
10.0445077638
 20
9.4622478839
 30
0.0
 10
10.0361166233
 20
9.4630365194
 30
0.0
 10
10.0235828119
 20
9.4648312687
 30
0.0
 10
10.0111092951
 20
9.467235801
 30
0.0
 10
9.9987267182
 20
9.4702440558
 30
0.0
 10
9.9864645989
 20
9.4738489327
 30
0.0
 10
9.9743526165
 20
9.4780416142
 30
0.0
 10
9.9624195996
 20
9.4828121553
 30
0.0
 10
9.946772892
 20
9.4899337525
 30
0.0
 10
9.9278070229
 20
9.5002234124
 30
0.0
 10
9.9062414562
 20
9.5146491468
 30
0.0
 10
9.8860458972
 20
9.5310302183
 30
0.0
 10
9.8674155126
 20
9.5492085059
 30
0.0
 10
9.8505285788
 20
9.5690100132
 30
0.0
 10
9.8355480046
 20
9.5902433276
 30
0.0
 10
9.8247606935
 20
9.6089830124
 30
0.0
 10
9.8172210664
 20
9.6244829755
 30
0.0
 10
9.8121275758
 20
9.6363251746
 30
0.0
 10
9.8076039727
 20
9.6483637888
 30
0.0
 10
9.8036609763
 20
9.6605701445
 30
0.0
 10
9.8003081839
 20
9.6729147889
 30
0.0
 10
9.7975536656
 20
9.6853680202
 30
0.0
 10
9.7954040563
 20
9.6978998466
 30
0.0
 10
9.7938645637
 20
9.7104800993
 30
0.0
 10
9.79293896
 20
9.7230784868
 30
0.0
 10
9.7926294742
 20
9.735664664
 30
0.0
 10
9.7929368657
 20
9.7482083168
 30
0.0
 10
9.7938604404
 20
9.7606792283
 30
0.0
 10
9.7953980335
 20
9.7730473469
 30
0.0
 10
9.797545934
 20
9.7852828716
 30
0.0
 10
9.80029899
 20
9.7973563168
 30
0.0
 10
9.803650622
 20
9.8092385734
 30
0.0
 10
9.8075927922
 20
9.8209009875
 30
0.0
 10
9.8121159901
 20
9.8323154487
 30
0.0
 10
9.8172093362
 20
9.8434544322
 30
0.0
 10
9.8228606043
 20
9.8542910556
 30
0.0
 10
9.8290561789
 20
9.8647991796
 30
0.0
 10
9.8357811111
 20
9.8749534693
 30
0.0
 10
9.843019202
 20
9.8847294262
 30
0.0
 10
9.8507530347
 20
9.8941034404
 30
0.0
 10
9.8589639399
 20
9.9030529118
 30
0.0
 10
9.8676321036
 20
9.9115562649
 30
0.0
 10
9.8767366294
 20
9.9195929804
 30
0.0
 10
9.8862555748
 20
9.9271436495
 30
0.0
 10
9.896165951
 20
9.9341900941
 30
0.0
 10
9.9064438453
 20
9.9407153375
 30
0.0
 10
9.9170644762
 20
9.9467036352
 30
0.0
 10
9.9280022287
 20
9.9521405452
 30
0.0
 10
9.9392307006
 20
9.9570130095
 30
0.0
 10
9.9507228106
 20
9.9613093054
 30
0.0
 10
9.962450856
 20
9.9650190693
 30
0.0
 10
9.9743865507
 20
9.9681333813
 30
0.0
 10
9.9865011119
 20
9.9706448063
 30
0.0
 10
9.9987653554
 20
9.9725473052
 30
0.0
 10
10.0111496367
 20
9.9738362681
 30
0.0
 10
10.0236243993
 20
9.9745087386
 30
0.0
 10
10.0361589592
 20
9.9745629695
 30
0.0
 10
10.0445219467
 20
9.9741876185
 30
0.0
 10
10.0487026323
 20
9.973897687
 30
0.0
  0
SPLINE
  5
3A3
100
AcDbEntity
  8
0
100
AcDbSpline
 62
7
  6
CONTINUOUS
 70
0
 71
3
 72
51
 73
47
 74
0
 42
0.0000001
 43
0.0000001
 44
0.0000000001
 40
0.0
 40
0.0
 40
0.0
 40
0.0
 40
0.0311429623
 40
0.0624390393
 40
0.0938821581
 40
0.1254627405
 40
0.1571685478
 40
0.1889848322
 40
0.2208946479
 40
0.2528792128
 40
0.2849182853
 40
0.3169905665
 40
0.3490741169
 40
0.3811467786
 40
0.413186604
 40
0.4451722806
 40
0.4770835444
 40
0.5089015852
 40
0.5406094235
 40
0.5721922667
 40
0.6036378301
 40
0.6349366131
 40
0.6505313541
 40
0.6660872357
 40
0.6816039492
 40
0.6970813947
 40
0.7125196809
 40
0.727919126
 40
0.7432802612
 40
0.7586038263
 40
0.7738907665
 40
0.789142231
 40
0.8043595683
 40
0.8195443173
 40
0.8346982008
 40
0.8498231194
 40
0.8649211391
 40
0.8799944797
 40
0.8950455049
 40
0.9100767091
 40
0.9250907018
 40
0.9400901927
 40
0.9550779784
 40
0.9700569243
 40
0.9850299475
 40
1.0
 40
1.0
 40
1.0
 40
1.0
 10
10.5233833712
 20
6.650187982
 30
0.0
 10
10.5069904144
 20
6.6513248374
 30
0.0
 10
10.4741949221
 20
6.6548040533
 30
0.0
 10
10.4253993015
 20
6.6635682101
 30
0.0
 10
10.377126327
 20
6.675844249
 30
0.0
 10
10.3296367229
 20
6.6915660559
 30
0.0
 10
10.2831827468
 20
6.7106493997
 30
0.0
 10
10.2380122476
 20
6.7329922395
 30
0.0
 10
10.1943658019
 20
6.7584750897
 30
0.0
 10
10.1524760402
 20
6.7869619846
 30
0.0
 10
10.1125661032
 20
6.8183008436
 30
0.0
 10
10.0748486703
 20
6.8523245611
 30
0.0
 10
10.0395247505
 20
6.8888517457
 30
0.0
 10
10.0067825726
 20
6.9276876629
 30
0.0
 10
9.9767967833
 20
6.9686254154
 30
0.0
 10
9.9497272237
 20
7.0114468006
 30
0.0
 10
9.9257184245
 20
7.0559236978
 30
0.0
 10
9.9048985456
 20
7.101819121
 30
0.0
 10
9.8873788703
 20
7.1488883799
 30
0.0
 10
9.873253182
 20
7.196881096
 30
0.0
 10
9.8625972344
 20
7.2455396817
 30
0.0
 10
9.8566488119
 20
7.2864835116
 30
0.0
 10
9.8536797883
 20
7.3193063188
 30
0.0
 10
9.8523496209
 20
7.343899663
 30
0.0
 10
9.8519155719
 20
7.368462952
 30
0.0
 10
9.8523781367
 20
7.392963787
 30
0.0
 10
9.8537367591
 20
7.4173693455
 30
0.0
 10
9.8559896632
 20
7.4416470609
 30
0.0
 10
9.8591338173
 20
7.4657645064
 30
0.0
 10
9.8631650413
 20
7.4896894751
 30
0.0
 10
9.8680780132
 20
7.5133900019
 30
0.0
 10
9.8738661621
 20
7.5368344324
 30
0.0
 10
9.8805217532
 20
7.559991455
 30
0.0
 10
9.8880359424
 20
7.5828301255
 30
0.0
 10
9.8963987225
 20
7.6053199237
 30
0.0
 10
9.9055988979
 20
7.6274308152
 30
0.0
 10
9.9156241987
 20
7.6491332553
 30
0.0
 10
9.926461284
 20
7.6703982241
 30
0.0
 10
9.938095654
 20
7.6911973196
 30
0.0
 10
9.950511762
 20
7.7115027565
 30
0.0
 10
9.9636930568
 20
7.7312873786
 30
0.0
 10
9.9776219424
 20
7.7505247474
 30
0.0
 10
9.9922797573
 20
7.769189152
 30
0.0
 10
10.0076470222
 20
7.7872557329
 30
0.0
 10
10.0237028961
 20
7.8046999823
 30
0.0
 10
10.0348527746
 20
7.8159002767
 30
0.0
 10
10.0405340386
 20
7.8213879623
 30
0.0
  0
SPLINE
  5
3A4
100
AcDbEntity
  8
0
100
AcDbSpline
 62
7
  6
CONTINUOUS
 70
0
 71
3
 72
41
 73
37
 74
0
 42
0.0000001
 43
0.0000001
 44
0.0000000001
 40
0.0
 40
0.0
 40
0.0
 40
0.0
 40
0.0311446923
 40
0.0467774567
 40
0.0624475301
 40
0.0938924632
 40
0.1254747944
 40
0.1571823853
 40
0.189000451
 40
0.2209120556
 40
0.2528984126
 40
0.2689156871
 40
0.2849439639
 40
0.3170180427
 40
0.3491033912
 40
0.3811778506
 40
0.4132194723
 40
0.4452069418
 40
0.4771199947
 40
0.5089398185
 40
0.5406494333
 40
0.5722340457
 40
0.6036813695
 40
0.6349819055
 40
0.6661291741
 40
0.6971198935
 40
0.7279540969
 40
0.7586351818
 40
0.7891698869
 40
0.819568192
 40
0.8498431401
 40
0.8800105802
 40
0.9100888351
 40
0.9400983011
 40
0.9700609859
 40
1.0
 40
1.0
 40
1.0
 40
1.0
 10
10.0564671972
 20
9.4984347395
 30
0.0
 10
10.0509242556
 20
9.4988191438
 30
0.0
 10
10.0426161321
 20
9.4997005837
 30
0.0
 10
10.0316154283
 20
9.5014719223
 30
0.0
 10
10.0206321939
 20
9.5036465871
 30
0.0
 10
10.0070131505
 20
9.5071099258
 30
0.0
 10
9.9909557675
 20
9.5124258943
 30
0.0
 10
9.975248253
 20
9.5188785451
 30
0.0
 10
9.959974721
 20
9.5264333656
 30
0.0
 10
9.945216809
 20
9.5350496921
 30
0.0
 10
9.9334175652
 20
9.5430737825
 30
0.0
 10
9.9243120002
 20
9.5499749457
 30
0.0
 10
9.9154354845
 20
9.5571931781
 30
0.0
 10
9.904804145
 20
9.5667832854
 30
0.0
 10
9.8928603255
 20
9.5791340148
 30
0.0
 10
9.8817891683
 20
9.5922656481
 30
0.0
 10
9.8716500968
 20
9.6061078977
 30
0.0
 10
9.8624970832
 20
9.6205870875
 30
0.0
 10
9.8543790004
 20
9.6356260462
 30
0.0
 10
9.847339191
 20
9.6511446457
 30
0.0
 10
9.8414152831
 20
9.667060188
 30
0.0
 10
9.8366389784
 20
9.6832878497
 30
0.0
 10
9.8330358844
 20
9.6997411257
 30
0.0
 10
9.8306253748
 20
9.7163322847
 30
0.0
 10
9.8294204822
 20
9.7329728304
 30
0.0
 10
9.8294278227
 20
9.749573968
 30
0.0
 10
9.830647553
 20
9.7660470724
 30
0.0
 10
9.8330733611
 20
9.7823041584
 30
0.0
 10
9.8366924888
 20
9.7982583479
 30
0.0
 10
9.8414857909
 20
9.8138243362
 30
0.0
 10
9.8474278185
 20
9.8289188445
 30
0.0
 10
9.8544869731
 20
9.8434610989
 30
0.0
 10
9.86262556
 20
9.8573731666
 30
0.0
 10
9.8718003802
 20
9.8705807764
 30
0.0
 10
9.8819614781
 20
9.8830122711
 30
0.0
 10
9.8893600846
 20
9.8907413995
 30
0.0
 10
9.8932017485
 20
9.8944521422
 30
0.0
  0
SPLINE
  5
3A5
100
AcDbEntity
  8
0
100
AcDbSpline
 62
7
  6
CONTINUOUS
 70
0
 71
3
 72
23
 73
19
 74
0
 42
0.0000001
 43
0.0000001
 44
0.0000000001
 40
0.0
 40
0.0
 40
0.0
 40
0.0
 40
0.0638619349
 40
0.1275029889
 40
0.1909231091
 40
0.2541276717
 40
0.3171223891
 40
0.3799159301
 40
0.4425188167
 40
0.50494367
 40
0.567204998
 40
0.6293190788
 40
0.6913037926
 40
0.7531784373
 40
0.8149635239
 40
0.8766805553
 40
0.9383517907
 40
1.0
 40
1.0
 40
1.0
 40
1.0
 10
10.5433124215
 20
6.8771120324
 30
0.0
 10
10.5510518869
 20
6.8765752986
 30
0.0
 10
10.5665336053
 20
6.8758887186
 30
0.0
 10
10.5897362229
 20
6.876027011
 30
0.0
 10
10.612823075
 20
6.8773349091
 30
0.0
 10
10.6357351691
 20
6.8798090946
 30
0.0
 10
10.6584151361
 20
6.8834434894
 30
0.0
 10
10.6808057723
 20
6.8882289541
 30
0.0
 10
10.7028507222
 20
6.8941535271
 30
0.0
 10
10.7244944529
 20
6.90120234
 30
0.0
 10
10.7456824414
 20
6.9093577025
 30
0.0
 10
10.7663613063
 20
6.9185991206
 30
0.0
 10
10.7864789393
 20
6.9289033534
 30
0.0
 10
10.8059846565
 20
6.9402444902
 30
0.0
 10
10.8248292553
 20
6.9525939465
 30
0.0
 10
10.8429654075
 20
6.9659207895
 30
0.0
 10
10.8603467859
 20
6.9801908696
 30
0.0
 10
10.8714042096
 20
6.9903112105
 30
0.0
 10
10.8767907948
 20
6.9955142603
 30
0.0
  0
SPLINE
  5
3A6
100
AcDbEntity
  8
0
100
AcDbSpline
 62
7
  6
CONTINUOUS
 70
0
 71
3
 72
39
 73
35
 74
0
 42
0.0000001
 43
0.0000001
 44
0.0000000001
 40
0.0
 40
0.0
 40
0.0
 40
0.0
 40
0.0309322428
 40
0.0619966082
 40
0.093187476
 40
0.1244996729
 40
0.1559247924
 40
0.187453322
 40
0.2190740309
 40
0.2507743975
 40
0.2825407309
 40
0.3143583925
 40
0.346212009
 40
0.3780856951
 40
0.4099632804
 40
0.4418285392
 40
0.4736654209
 40
0.5054582784
 40
0.5371920931
 40
0.5688526935
 40
0.6004269667
 40
0.6319030566
 40
0.6632705484
 40
0.6945206363
 40
0.7256462722
 40
0.7566422922
 40
0.7875055186
 40
0.8182348347
 40
0.8488312301
 40
0.8792978127
 40
0.9096397849
 40
0.9398643856
 40
0.9699807943
 40
1.0
 40
1.0
 40
1.0
 40
1.0
 10
10.2007390612
 20
9.6836721467
 30
0.0
 10
10.1969432893
 20
9.6839353844
 30
0.0
 10
10.1893499707
 20
9.6847013145
 30
0.0
 10
10.1780313357
 20
9.6865562912
 30
0.0
 10
10.166801914
 20
9.6891127335
 30
0.0
 10
10.1557065252
 20
9.6923603407
 30
0.0
 10
10.1447885702
 20
9.6962864014
 30
0.0
 10
10.1340910342
 20
9.7008753701
 30
0.0
 10
10.1236559464
 20
9.7061091891
 30
0.0
 10
10.1135243241
 20
9.7119672383
 30
0.0
 10
10.1037359867
 20
9.7184264655
 30
0.0
 10
10.0943294021
 20
9.7254614531
 30
0.0
 10
10.0853415369
 20
9.7330445278
 30
0.0
 10
10.0768077148
 20
9.7411458695
 30
0.0
 10
10.0687614786
 20
9.7497336272
 30
0.0
 10
10.0612344592
 20
9.7587740437
 30
0.0
 10
10.0542562533
 20
9.7682315869
 30
0.0
 10
10.0478543069
 20
9.7780690875
 30
0.0
 10
10.0420538098
 20
9.7882478849
 30
0.0
 10
10.0368775917
 20
9.7987279746
 30
0.0
 10
10.0323460316
 20
9.8094681652
 30
0.0
 10
10.0284769839
 20
9.8204262416
 30
0.0
 10
10.0252857061
 20
9.8315591284
 30
0.0
 10
10.0227847997
 20
9.8428230576
 30
0.0
 10
10.0209841595
 20
9.8541737384
 30
0.0
 10
10.0198909335
 20
9.8655665293
 30
0.0
 10
10.0195094939
 20
9.8769566116
 30
0.0
 10
10.0198414159
 20
9.8882991653
 30
0.0
 10
10.0208854613
 20
9.8995495405
 30
0.0
 10
10.0226375982
 20
9.9106634508
 30
0.0
 10
10.0250909807
 20
9.9215970792
 30
0.0
 10
10.0282360906
 20
9.9323075029
 30
0.0
 10
10.0320603366
 20
9.9427519254
 30
0.0
 10
10.0350576816
 20
9.9495215208
 30
0.0
 10
10.0366637692
 20
9.95284652
 30
0.0
  0
SPLINE
  5
3A7
100
AcDbEntity
  8
0
100
AcDbSpline
 62
7
  6
CONTINUOUS
 70
0
 71
3
 72
18
 73
14
 74
0
 42
0.0000001
 43
0.0000001
 44
0.0000000001
 40
0.0
 40
0.0
 40
0.0
 40
0.0
 40
0.150467608
 40
0.291710008
 40
0.4244359371
 40
0.549562455
 40
0.6682139939
 40
0.7255497488
 40
0.7817912909
 40
0.8371402503
 40
0.8918093826
 40
0.9460201179
 40
1.0
 40
1.0
 40
1.0
 40
1.0
 10
12.4488888253
 20
8.3339723642
 30
0.0
 10
12.4469239973
 20
8.332074486
 30
0.0
 10
12.4429971312
 20
8.328513578
 30
0.0
 10
12.4369164107
 20
8.3237680602
 30
0.0
 10
12.4308428324
 20
8.3197991484
 30
0.0
 10
12.4247826844
 20
8.3166133571
 30
0.0
 10
12.4196891967
 20
8.3145932059
 30
0.0
 10
12.4156451925
 20
8.3133929529
 30
0.0
 10
12.4126552657
 20
8.3127011441
 30
0.0
 10
12.4096752583
 20
8.3122080743
 30
0.0
 10
12.4067060051
 20
8.3119139178
 30
0.0
 10
12.4037486873
 20
8.3118188279
 30
0.0
 10
12.4017839304
 20
8.3118883191
 30
0.0
 10
12.4008062676
 20
8.3119561161
 30
0.0
  0
SPLINE
  5
3A8
100
AcDbEntity
  8
0
100
AcDbSpline
 62
7
  6
CONTINUOUS
 70
0
 71
3
 72
39
 73
35
 74
0
 42
0.0000001
 43
0.0000001
 44
0.0000000001
 40
0.0
 40
0.0
 40
0.0
 40
0.0
 40
0.0308544298
 40
0.0618331185
 40
0.0929310259
 40
0.1241439908
 40
0.1554648532
 40
0.1868856145
 40
0.2183967784
 40
0.2499877265
 40
0.2816468024
 40
0.3133614802
 40
0.3451185294
 40
0.3769041833
 40
0.4087043149
 40
0.4405046144
 40
0.4722907692
 40
0.5040486438
 40
0.5357644597
 40
0.5674249717
 40
0.5990176377
 40
0.6305307824
 40
0.6619537534
 40
0.6932770663
 40
0.7244925396
 40
0.7555934169
 40
0.7865744721
 40
0.817432097
 40
0.8481643688
 40
0.8787710966
 40
0.9092538448
 40
0.9396159327
 40
0.9698624089
 40
1.0
 40
1.0
 40
1.0
 40
1.0
 10
10.1936411779
 20
9.630934638
 30
0.0
 10
10.1891663908
 20
9.6312449656
 30
0.0
 10
10.1802149352
 20
9.6321310878
 30
0.0
 10
10.1668637917
 20
9.6342438185
 30
0.0
 10
10.1536057247
 20
9.6371356752
 30
0.0
 10
10.1404875862
 20
9.640796324
 30
0.0
 10
10.1275547791
 20
9.6452131033
 30
0.0
 10
10.1148523787
 20
9.6503705298
 30
0.0
 10
10.1024245568
 20
9.6562506451
 30
0.0
 10
10.0903145552
 20
9.6628329478
 30
0.0
 10
10.0785644989
 20
9.6700945054
 30
0.0
 10
10.0672152587
 20
9.6780100228
 30
0.0
 10
10.0563063114
 20
9.6865519391
 30
0.0
 10
10.0458756043
 20
9.6956905215
 30
0.0
 10
10.0359594238
 20
9.7053939677
 30
0.0
 10
10.0265922712
 20
9.7156285157
 30
0.0
 10
10.0178067437
 20
9.7263585609
 30
0.0
 10
10.0096334192
 20
9.7375467756
 30
0.0
 10
10.0021007436
 20
9.7491542355
 30
0.0
 10
9.9952349417
 20
9.7611405615
 30
0.0
 10
9.9890599248
 20
9.7734640577
 30
0.0
 10
9.9835972091
 20
9.7860818551
 30
0.0
 10
9.9788658405
 20
9.7989500589
 30
0.0
 10
9.9748823287
 20
9.8120238994
 30
0.0
 10
9.9716605901
 20
9.8252578864
 30
0.0
 10
9.9692118862
 20
9.8386059634
 30
0.0
 10
9.9675447939
 20
9.8520216705
 30
0.0
 10
9.9666651764
 20
9.8654583054
 30
0.0
 10
9.9665761592
 20
9.8788690794
 30
0.0
 10
9.9672781251
 20
9.8922072976
 30
0.0
 10
9.9687686844
 20
9.9054264484
 30
0.0
 10
9.9710427782
 20
9.9184806326
 30
0.0
 10
9.9740923305
 20
9.9313237264
 30
0.0
 10
9.9766401956
 20
9.9397311315
 30
0.0
 10
9.9780394728
 20
9.9438830001
 30
0.0
  0
SPLINE
  5
3A9
100
AcDbEntity
  8
0
100
AcDbSpline
 62
7
  6
CONTINUOUS
 70
0
 71
3
 72
15
 73
11
 74
0
 42
0.0000001
 43
0.0000001
 44
0.0000000001
 40
0.0
 40
0.0
 40
0.0
 40
0.0
 40
0.1267199692
 40
0.2529159448
 40
0.3785956854
 40
0.503773015
 40
0.6284699155
 40
0.7527152027
 40
0.8765445718
 40
1.0
 40
1.0
 40
1.0
 40
1.0
 10
10.7490733925
 20
7.0758618801
 30
0.0
 10
10.758280121
 20
7.0752233913
 30
0.0
 10
10.7766981095
 20
7.0744937322
 30
0.0
 10
10.8042808643
 20
7.0750543323
 30
0.0
 10
10.8316686869
 20
7.0772700629
 30
0.0
 10
10.8587627391
 20
7.0811333181
 30
0.0
 10
10.8854666286
 20
7.0866303805
 30
0.0
 10
10.9116853777
 20
7.0937419692
 30
0.0
 10
10.9373241704
 20
7.1024422768
 30
0.0
 10
10.9539953285
 20
7.1092919161
 30
0.0
 10
10.9621998472
 20
7.1129696277
 30
0.0
  0
SPLINE
  5
3AA
100
AcDbEntity
  8
0
100
AcDbSpline
 62
7
  6
CONTINUOUS
 70
0
 71
3
 72
64
 73
60
 74
0
 42
0.0000001
 43
0.0000001
 44
0.0000000001
 40
0.0
 40
0.0
 40
0.0
 40
0.0
 40
0.0082489002
 40
0.0160245789
 40
0.0233634177
 40
0.0303107653
 40
0.0369218447
 40
0.0401226201
 40
0.0432647895
 40
0.0463580889
 40
0.0494127661
 40
0.0524395148
 40
0.0554493543
 40
0.0584535051
 40
0.061463261
 40
0.0644898433
 40
0.0675442735
 40
0.070637248
 40
0.0737790184
 40
0.0802448985
 40
0.0870153095
 40
0.0941506924
 40
0.1017012425
 40
0.1097077351
 40
0.11820258
 40
0.127210955
 40
0.1367519858
 40
0.1468396186
 40
0.157483474
 40
0.1686895566
 40
0.1804607007
 40
0.1927971146
 40
0.2056967011
 40
0.2191553043
 40
0.2331670462
 40
0.2477244302
 40
0.2628185367
 40
0.2784392058
 40
0.2945750541
 40
0.3112136623
 40
0.3283416349
 40
0.3459446259
 40
0.3640074928
 40
0.3825142826
 40
0.4014483037
 40
0.4207922194
 40
0.4606364401
 40
0.5018968388
 40
0.5444143008
 40
0.5880226233
 40
0.6325496135
 40
0.6778181242
 40
0.7236470562
 40
0.7698523647
 40
0.8162480403
 40
0.8626470781
 40
0.9088625236
 40
0.954707991
 40
1.0
 40
1.0
 40
1.0
 40
1.0
 10
9.7864427672
 20
10.5526291091
 30
0.0
 10
9.7846385274
 20
10.554308151
 30
0.0
 10
9.7812323974
 20
10.5576789801
 30
0.0
 10
9.7766288754
 20
10.5629350034
 30
0.0
 10
9.7726923594
 20
10.5682322963
 30
0.0
 10
9.7694285442
 20
10.5735656566
 30
0.0
 10
9.7672501894
 20
10.57808575
 30
0.0
 10
9.7658648264
 20
10.5817016809
 30
0.0
 10
9.765007404
 20
10.5843892574
 30
0.0
 10
9.7643209162
 20
10.5870804828
 30
0.0
 10
9.7638056485
 20
10.5897746485
 30
0.0
 10
9.7634618084
 20
10.5924709168
 30
0.0
 10
9.763289509
 20
10.5951684589
 30
0.0
 10
9.7632888723
 20
10.5978664321
 30
0.0
 10
9.7634598981
 20
10.6005639796
 30
0.0
 10
9.7638024687
 20
10.6032602644
 30
0.0
 10
9.7643164555
 20
10.6059544338
 30
0.0
 10
9.7650017112
 20
10.6086457407
 30
0.0
 10
9.7661540019
 20
10.6122632645
 30
0.0
 10
9.7680408342
 20
10.6167902031
 30
0.0
 10
9.7709638947
 20
10.6221402747
 30
0.0
 10
9.7745622969
 20
10.6274564816
 30
0.0
 10
9.7788305404
 20
10.6327338369
 30
0.0
 10
9.7837633658
 20
10.6379681461
 30
0.0
 10
9.7893552081
 20
10.6431548713
 30
0.0
 10
9.7956000632
 20
10.6482894062
 30
0.0
 10
9.802491436
 20
10.6533668621
 30
0.0
 10
9.8100221451
 20
10.6583822866
 30
0.0
 10
9.8181843414
 20
10.6633306321
 30
0.0
 10
9.8269695015
 20
10.6682067557
 30
0.0
 10
9.8363683602
 20
10.6730055925
 30
0.0
 10
9.8463709857
 20
10.6777220455
 30
0.0
 10
9.856966759
 20
10.6823510679
 30
0.0
 10
9.8681443764
 20
10.6868877308
 30
0.0
 10
9.8798919023
 20
10.6913271172
 30
0.0
 10
9.8921967499
 20
10.6956644486
 30
0.0
 10
9.9050457142
 20
10.6998950517
 30
0.0
 10
9.9184249975
 20
10.7040143147
 30
0.0
 10
9.9323202031
 20
10.7080178059
 30
0.0
 10
9.9467163749
 20
10.7119011788
 30
0.0
 10
9.9615980081
 20
10.7156602075
 30
0.0
 10
9.9769490591
 20
10.7192908459
 30
0.0
 10
9.9927529797
 20
10.7227891355
 30
0.0
 10
10.0089927178
 20
10.7261512815
 30
0.0
 10
10.0256507697
 20
10.7293736828
 30
0.0
 10
10.0486217545
 20
10.7335199497
 30
0.0
 10
10.0782516941
 20
10.7383148846
 30
0.0
 10
10.1148384094
 20
10.7434048815
 30
0.0
 10
10.1526399692
 20
10.7478637885
 30
0.0
 10
10.191493176
 20
10.7516721708
 30
0.0
 10
10.2312304583
 20
10.7548133923
 30
0.0
 10
10.2716803199
 20
10.7572737419
 30
0.0
 10
10.3126681705
 20
10.7590424939
 30
0.0
 10
10.3540170676
 20
10.7601119402
 30
0.0
 10
10.3955485012
 20
10.7604774158
 30
0.0
 10
10.4370831686
 20
10.7601373231
 30
0.0
 10
10.4784417178
 20
10.75909314
 30
0.0
 10
10.5194455315
 20
10.7573494526
 30
0.0
 10
10.5466285276
 20
10.7557135719
 30
0.0
 10
10.5601286478
 20
10.7547773354
 30
0.0
  0
SPLINE
  5
3AB
100
AcDbEntity
  8
0
100
AcDbSpline
 62
7
  6
CONTINUOUS
 70
0
 71
3
 72
52
 73
48
 74
0
 42
0.0000001
 43
0.0000001
 44
0.0000000001
 40
0.0
 40
0.0
 40
0.0
 40
0.0
 40
0.005565761
 40
0.0112552373
 40
0.0171221412
 40
0.0232149299
 40
0.0295762691
 40
0.0362428273
 40
0.0432456368
 40
0.0506104302
 40
0.0583583388
 40
0.0665063161
 40
0.0750678387
 40
0.084053225
 40
0.0934702311
 40
0.1033242329
 40
0.1136187114
 40
0.1243553222
 40
0.1355342953
 40
0.1471544226
 40
0.1592133979
 40
0.171707749
 40
0.1846331351
 40
0.1979842449
 40
0.2117550628
 40
0.2259387456
 40
0.240527867
 40
0.2555142815
 40
0.2866430936
 40
0.3192502
 40
0.3532521284
 40
0.3885586347
 40
0.4250734658
 40
0.4626950345
 40
0.5013170325
 40
0.5408290013
 40
0.5811168715
 40
0.6220634819
 40
0.6635490835
 40
0.7054518331
 40
0.7476482804
 40
0.7900138498
 40
0.8324233217
 40
0.8747513057
 40
0.916872732
 40
0.9586632949
 40
1.0
 40
1.0
 40
1.0
 40
1.0
 10
9.8565546663
 20
10.5110190026
 30
0.0
 10
9.8567125229
 20
10.5123393981
 30
0.0
 10
9.8571769885
 20
10.5149942066
 30
0.0
 10
9.8582988048
 20
10.5189352051
 30
0.0
 10
9.8598493245
 20
10.5228635982
 30
0.0
 10
9.8618259725
 20
10.5267755787
 30
0.0
 10
9.8642263293
 20
10.5306684216
 30
0.0
 10
9.8670476954
 20
10.53453952
 30
0.0
 10
9.8702874817
 20
10.5383862926
 30
0.0
 10
9.8739428219
 20
10.5422062787
 30
0.0
 10
9.8780108125
 20
10.545996834
 30
0.0
 10
9.882488195
 20
10.5497554024
 30
0.0
 10
9.8873715522
 20
10.5534792237
 30
0.0
 10
9.892657075
 20
10.5571656455
 30
0.0
 10
9.8983407301
 20
10.5608118385
 30
0.0
 10
9.9044180918
 20
10.5644151076
 30
0.0
 10
9.9108844808
 20
10.5679726125
 30
0.0
 10
9.9177348422
 20
10.5714816655
 30
0.0
 10
9.9249638559
 20
10.5749394588
 30
0.0
 10
9.9325658479
 20
10.5783433477
 30
0.0
 10
9.9405348765
 20
10.5816905863
 30
0.0
 10
9.9488646678
 20
10.5849785973
 30
0.0
 10
9.9575486827
 20
10.5882047169
 30
0.0
 10
9.9665800701
 20
10.5913664518
 30
0.0
 10
9.9759517195
 20
10.5944612364
 30
0.0
 10
9.9856562249
 20
10.5974866677
 30
0.0
 10
9.9956859413
 20
10.6004403142
 30
0.0
 10
10.0096591681
 20
10.6043289384
 30
0.0
 10
10.0278861505
 20
10.6089808984
 30
0.0
 10
10.0506558822
 20
10.6141731808
 30
0.0
 10
10.0745194982
 20
10.6190269996
 30
0.0
 10
10.0994015183
 20
10.623526852
 30
0.0
 10
10.1252233849
 20
10.6276583362
 30
0.0
 10
10.1519034503
 20
10.6314082448
 30
0.0
 10
10.1793573269
 20
10.6347645927
 30
0.0
 10
10.2074981413
 20
10.637716658
 30
0.0
 10
10.2362368229
 20
10.6402550136
 30
0.0
 10
10.2654823896
 20
10.6423715562
 30
0.0
 10
10.2951422406
 20
10.6440595309
 30
0.0
 10
10.325122453
 20
10.6453135518
 30
0.0
 10
10.3553280822
 20
10.6461296181
 30
0.0
 10
10.3856634643
 20
10.646505127
 30
0.0
 10
10.4160325238
 20
10.6464388803
 30
0.0
 10
10.4463390706
 20
10.6459310902
 30
0.0
 10
10.4764871426
 20
10.6449833741
 30
0.0
 10
10.5063811673
 20
10.6435987617
 30
0.0
 10
10.5262057947
 20
10.6423795108
 30
0.0
 10
10.5360584918
 20
10.641696224
 30
0.0
  0
SPLINE
  5
3AC
100
AcDbEntity
  8
0
100
AcDbSpline
 62
7
  6
CONTINUOUS
 70
0
 71
3
 72
11
 73
7
 74
0
 42
0.0000001
 43
0.0000001
 44
0.0000000001
 40
0.0
 40
0.0
 40
0.0
 40
0.0
 40
0.2396423666
 40
0.4868445104
 40
0.7406335816
 40
1.0
 40
1.0
 40
1.0
 40
1.0
 10
10.1308146459
 20
9.8061241027
 30
0.0
 10
10.1407372404
 20
9.8076629869
 30
0.0
 10
10.1609320219
 20
9.8105573134
 30
0.0
 10
10.1917396022
 20
9.8143095334
 30
0.0
 10
10.2234381268
 20
9.8175289473
 30
0.0
 10
10.244868693
 20
9.8192937777
 30
0.0
 10
10.2557073547
 20
9.8200873147
 30
0.0
  0
SPLINE
  5
3AD
100
AcDbEntity
  8
0
100
AcDbSpline
 62
7
  6
CONTINUOUS
 70
0
 71
3
 72
11
 73
7
 74
0
 42
0.0000001
 43
0.0000001
 44
0.0000000001
 40
0.0
 40
0.0
 40
0.0
 40
0.0
 40
0.2437350976
 40
0.4919857001
 40
0.7442462549
 40
1.0
 40
1.0
 40
1.0
 40
1.0
 10
10.194214898
 20
9.7544870526
 30
0.0
 10
10.2009386628
 20
9.7553190625
 30
0.0
 10
10.2145234841
 20
9.7568971788
 30
0.0
 10
10.2351054159
 20
9.7589921553
 30
0.0
 10
10.2560469523
 20
9.7608335441
 30
0.0
 10
10.2701295454
 20
9.7618828439
 30
0.0
 10
10.2772222847
 20
9.7623652538
 30
0.0
  0
SPLINE
  5
3AE
100
AcDbEntity
  8
0
100
AcDbSpline
 62
7
  6
CONTINUOUS
 70
0
 71
3
 72
37
 73
33
 74
0
 42
0.0000001
 43
0.0000001
 44
0.0000000001
 40
0.0
 40
0.0
 40
0.0
 40
0.0
 40
0.0761060976
 40
0.1515724283
 40
0.226304443
 40
0.3001796768
 40
0.3730351827
 40
0.4446564293
 40
0.4799193585
 40
0.5147614929
 40
0.5491342367
 40
0.5829816735
 40
0.616240755
 40
0.6488407025
 40
0.6807027232
 40
0.7117404426
 40
0.7418612608
 40
0.7709690358
 40
0.7989687715
 40
0.8257740434
 40
0.8513178522
 40
0.8755671106
 40
0.898539924
 40
0.9203229082
 40
0.9308218346
 40
0.9410928966
 40
0.9511693816
 40
0.9610884182
 40
0.9708898787
 40
0.9806150721
 40
0.9903052147
 40
1.0
 40
1.0
 40
1.0
 40
1.0
 10
10.5463969038
 20
7.6584075505
 30
0.0
 10
10.5456335878
 20
7.6527200825
 30
0.0
 10
10.5442078591
 20
7.6413800578
 30
0.0
 10
10.5423520837
 20
7.6244170672
 30
0.0
 10
10.5407695465
 20
7.607595405
 30
0.0
 10
10.5394352721
 20
7.5909498614
 30
0.0
 10
10.5383141179
 20
7.574523855
 30
0.0
 10
10.5375134279
 20
7.5609948975
 30
0.0
 10
10.536922039
 20
7.5503249959
 30
0.0
 10
10.5364946372
 20
7.5424588859
 30
0.0
 10
10.5360694511
 20
7.5346995426
 30
0.0
 10
10.5356324607
 20
7.5270603977
 30
0.0
 10
10.5351678164
 20
7.5195567775
 30
0.0
 10
10.5346573618
 20
7.5122061344
 30
0.0
 10
10.534080457
 20
7.5050283336
 30
0.0
 10
10.5334138526
 20
7.4980459095
 30
0.0
 10
10.5326316736
 20
7.4912842613
 30
0.0
 10
10.5317055171
 20
7.4847717491
 30
0.0
 10
10.5306047715
 20
7.4785396275
 30
0.0
 10
10.5292971869
 20
7.4726217017
 30
0.0
 10
10.5277498398
 20
7.4670537423
 30
0.0
 10
10.5259302244
 20
7.461872298
 30
0.0
 10
10.5238085974
 20
7.4571142165
 30
0.0
 10
10.5217418073
 20
7.4534865011
 30
0.0
 10
10.5199155315
 20
7.4508463639
 30
0.0
 10
10.5184766408
 20
7.449017019
 30
0.0
 10
10.5169517404
 20
7.4473169249
 30
0.0
 10
10.5153410723
 20
7.44574804
 30
0.0
 10
10.513645771
 20
7.4443115905
 30
0.0
 10
10.5118675766
 20
7.4430080362
 30
0.0
 10
10.5100089484
 20
7.4418372472
 30
0.0
 10
10.508719901
 20
7.4411453597
 30
0.0
 10
10.5080644928
 20
7.4408216416
 30
0.0
  0
SPLINE
  5
3AF
100
AcDbEntity
  8
0
100
AcDbSpline
 62
7
  6
CONTINUOUS
 70
0
 71
3
 72
11
 73
7
 74
0
 42
0.0000001
 43
0.0000001
 44
0.0000000001
 40
0.0
 40
0.0
 40
0.0
 40
0.0
 40
0.2474982014
 40
0.4967181228
 40
0.7475860351
 40
1.0
 40
1.0
 40
1.0
 40
1.0
 10
10.5301548602
 20
7.7810472275
 30
0.0
 10
10.5301548602
 20
7.770814593
 30
0.0
 10
10.5308494199
 20
7.7502718038
 30
0.0
 10
10.5339378704
 20
7.7194967578
 30
0.0
 10
10.5390422157
 20
7.6887859094
 30
0.0
 10
10.5437383032
 20
7.6684990961
 30
0.0
 10
10.5463969038
 20
7.6584075505
 30
0.0
  0
SPLINE
  5
3B0
100
AcDbEntity
  8
0
100
AcDbSpline
 62
7
  6
CONTINUOUS
 70
0
 71
3
 72
40
 73
36
 74
0
 42
0.0000001
 43
0.0000001
 44
0.0000000001
 40
0.0
 40
0.0
 40
0.0
 40
0.0
 40
0.0064601002
 40
0.0130084219
 40
0.0196776313
 40
0.0264984394
 40
0.0406995059
 40
0.0558184103
 40
0.0720148568
 40
0.0894126802
 40
0.1081049672
 40
0.1281594136
 40
0.1496229855
 40
0.1725257793
 40
0.1968842409
 40
0.222703578
 40
0.2499795202
 40
0.2786998624
 40
0.3088456524
 40
0.3403920018
 40
0.3733087745
 40
0.4075612728
 40
0.4431106896
 40
0.4799144063
 40
0.5179264222
 40
0.5570976783
 40
0.5973762392
 40
0.6387075157
 40
0.6810345673
 40
0.7242982557
 40
0.7684373158
 40
0.8133888182
 40
0.8590879415
 40
0.9054679337
 40
1.0
 40
1.0
 40
1.0
 40
1.0
 10
10.9360421428
 20
10.5109840034
 30
0.0
 10
10.9359313044
 20
10.511918611
 30
0.0
 10
10.935635842
 20
10.5137927696
 30
0.0
 10
10.9349788876
 20
10.5165857687
 30
0.0
 10
10.9341061717
 20
10.5193742745
 30
0.0
 10
10.9326364037
 20
10.523134198
 30
0.0
 10
10.9302304164
 20
10.5278348015
 30
0.0
 10
10.926530087
 20
10.5333529299
 30
0.0
 10
10.9219871407
 20
10.5388194746
 30
0.0
 10
10.9166105445
 20
10.5442278086
 30
0.0
 10
10.9104090355
 20
10.5495720635
 30
0.0
 10
10.9033921321
 20
10.5548454254
 30
0.0
 10
10.895570398
 20
10.5600407325
 30
0.0
 10
10.886955673
 20
10.5651505148
 30
0.0
 10
10.8775610861
 20
10.5701671226
 30
0.0
 10
10.8674010874
 20
10.5750828357
 30
0.0
 10
10.8564914579
 20
10.5798900013
 30
0.0
 10
10.844849249
 20
10.5845810468
 30
0.0
 10
10.8324927338
 20
10.5891485137
 30
0.0
 10
10.8194413888
 20
10.5935851176
 30
0.0
 10
10.8057158544
 20
10.5978837843
 30
0.0
 10
10.7913378711
 20
10.6020376292
 30
0.0
 10
10.7763302453
 20
10.6060399813
 30
0.0
 10
10.760716823
 20
10.6098844383
 30
0.0
 10
10.744522433
 20
10.6135648405
 30
0.0
 10
10.7277728371
 20
10.6170752749
 30
0.0
 10
10.7104947001
 20
10.6204101105
 30
0.0
 10
10.6927155449
 20
10.6235640139
 30
0.0
 10
10.6744636939
 20
10.6265319258
 30
0.0
 10
10.6557682352
 20
10.629309074
 30
0.0
 10
10.6366589556
 20
10.6318910274
 30
0.0
 10
10.6171663367
 20
10.6342736391
 30
0.0
 10
10.5973214674
 20
10.6364531011
 30
0.0
 10
10.5702632488
 20
10.6391001723
 30
0.0
 10
10.5497976495
 20
10.6407434101
 30
0.0
 10
10.5360584918
 20
10.641696224
 30
0.0
  0
SPLINE
  5
3B1
100
AcDbEntity
  8
0
100
AcDbSpline
 62
7
  6
CONTINUOUS
 70
0
 71
3
 72
11
 73
7
 74
0
 42
0.0000001
 43
0.0000001
 44
0.0000000001
 40
0.0
 40
0.0
 40
0.0
 40
0.0
 40
0.251411357
 40
0.503256678
 40
0.7534681804
 40
1.0
 40
1.0
 40
1.0
 40
1.0
 10
10.3572167803
 20
7.6667268571
 30
0.0
 10
10.3679761885
 20
7.6670443375
 30
0.0
 10
10.3895222799
 20
7.6674147702
 30
0.0
 10
10.4217840107
 20
7.6671883104
 30
0.0
 10
10.4538219126
 20
7.6661837653
 30
0.0
 10
10.4750589354
 20
7.6649892499
 30
0.0
 10
10.4855888197
 20
7.664259
 30
0.0
  0
SPLINE
  5
3B2
100
AcDbEntity
  8
0
100
AcDbSpline
 62
7
  6
CONTINUOUS
 70
0
 71
3
 72
24
 73
20
 74
0
 42
0.0000001
 43
0.0000001
 44
0.0000000001
 40
0.0
 40
0.0
 40
0.0
 40
0.0
 40
0.0616478687
 40
0.0924817887
 40
0.1233243262
 40
0.1850410161
 40
0.2468257596
 40
0.308700059
 40
0.3706844256
 40
0.4327981575
 40
0.4950591363
 40
0.5574836398
 40
0.620086178
 40
0.6828793696
 40
0.7458737328
 40
0.8090779632
 40
0.8724976716
 40
0.9361384975
 40
1.0
 40
1.0
 40
1.0
 40
1.0
 10
10.3461098661
 20
9.3934562237
 30
0.0
 10
10.3411721482
 20
9.388686738
 30
0.0
 10
10.3335702785
 20
9.3817290438
 30
0.0
 10
10.3230731682
 20
9.3728720324
 30
0.0
 10
10.3123358006
 20
9.3642950845
 30
0.0
 10
10.2984782794
 20
9.3541122054
 30
0.0
 10
10.2812041732
 20
9.3427918983
 30
0.0
 10
10.263323846
 20
9.3323957469
 30
0.0
 10
10.2448826417
 20
9.3229501341
 30
0.0
 10
10.2259269571
 20
9.3144787617
 30
0.0
 10
10.2065045753
 20
9.3070029466
 30
0.0
 10
10.1866644241
 20
9.3005414736
 30
0.0
 10
10.1664564824
 20
9.2951105676
 30
0.0
 10
10.1459316577
 20
9.290723854
 30
0.0
 10
10.1251416085
 20
9.2873922943
 30
0.0
 10
10.1041387801
 20
9.2851242725
 30
0.0
 10
10.0829757417
 20
9.2839253438
 30
0.0
 10
10.0617065942
 20
9.283798575
 30
0.0
 10
10.0475149583
 20
9.2844279378
 30
0.0
 10
10.0404204295
 20
9.2849199451
 30
0.0
  0
SPLINE
  5
3B3
100
AcDbEntity
  8
0
100
AcDbSpline
 62
7
  6
CONTINUOUS
 70
0
 71
3
 72
64
 73
60
 74
0
 42
0.0000001
 43
0.0000001
 44
0.0000000001
 40
0.0
 40
0.0
 40
0.0
 40
0.0
 40
0.0156224566
 40
0.0311926972
 40
0.046709503
 40
0.062174782
 40
0.0775896995
 40
0.0929561856
 40
0.108276703
 40
0.1235541178
 40
0.138791761
 40
0.1539933735
 40
0.1691630694
 40
0.1843052956
 40
0.1994247884
 40
0.214526527
 40
0.2296156795
 40
0.244697546
 40
0.2597775043
 40
0.2748609553
 40
0.2899532619
 40
0.3050596907
 40
0.3201853574
 40
0.335335176
 40
0.3505138048
 40
0.3657255966
 40
0.3809745578
 40
0.3962643116
 40
0.411598061
 40
0.4269785561
 40
0.4424080755
 40
0.457888409
 40
0.4734208407
 40
0.4890061393
 40
0.5046445616
 40
0.5203358552
 40
0.5360792614
 40
0.5518735266
 40
0.5677169259
 40
0.58360728
 40
0.5995419756
 40
0.6155179951
 40
0.6315319514
 40
0.6475801166
 40
0.6797540781
 40
0.7120132978
 40
0.7443195178
 40
0.7766328469
 40
0.8089131422
 40
0.8411214146
 40
0.8732211895
 40
0.88922437
 40
0.9051885839
 40
0.9211105305
 40
0.9369873518
 40
0.9528165522
 40
0.9685958163
 40
0.9843245442
 40
1.0
 40
1.0
 40
1.0
 40
1.0
 10
10.0487026323
 20
9.4619569688
 30
0.0
 10
10.0528833178
 20
9.4616670372
 30
0.0
 10
10.0612463054
 20
9.4612916863
 30
0.0
 10
10.0737808652
 20
9.4613459172
 30
0.0
 10
10.0862556279
 20
9.4620183877
 30
0.0
 10
10.0986399092
 20
9.4633073506
 30
0.0
 10
10.1109041527
 20
9.4652098495
 30
0.0
 10
10.1230187139
 20
9.4677212744
 30
0.0
 10
10.1349544086
 20
9.4708355865
 30
0.0
 10
10.146682454
 20
9.4745453503
 30
0.0
 10
10.158174564
 20
9.4788416462
 30
0.0
 10
10.1694030358
 20
9.4837141105
 30
0.0
 10
10.1803407884
 20
9.4891510206
 30
0.0
 10
10.1909614193
 20
9.4951393183
 30
0.0
 10
10.2012393136
 20
9.5016645616
 30
0.0
 10
10.2111496897
 20
9.5087110063
 30
0.0
 10
10.2206686352
 20
9.5162616753
 30
0.0
 10
10.2297731609
 20
9.5242983909
 30
0.0
 10
10.2384413246
 20
9.532801744
 30
0.0
 10
10.2466522299
 20
9.5417512154
 30
0.0
 10
10.2543860626
 20
9.5511252296
 30
0.0
 10
10.2616241534
 20
9.5609011865
 30
0.0
 10
10.2683490857
 20
9.5710554762
 30
0.0
 10
10.2745446603
 20
9.5815636001
 30
0.0
 10
10.2801959284
 20
9.5924002236
 30
0.0
 10
10.2852892745
 20
9.603539207
 30
0.0
 10
10.2898124724
 20
9.6149536682
 30
0.0
 10
10.2937546426
 20
9.6266160824
 30
0.0
 10
10.2971062746
 20
9.638498339
 30
0.0
 10
10.2998593305
 20
9.6505717841
 30
0.0
 10
10.3020072311
 20
9.6628073088
 30
0.0
 10
10.3035448242
 20
9.6751754274
 30
0.0
 10
10.3044683988
 20
9.687646339
 30
0.0
 10
10.3047757904
 20
9.7001899918
 30
0.0
 10
10.3044663046
 20
9.712776169
 30
0.0
 10
10.3035407009
 20
9.7253745565
 30
0.0
 10
10.3020012082
 20
9.7379548092
 30
0.0
 10
10.299851599
 20
9.7504866356
 30
0.0
 10
10.2970970806
 20
9.7629398669
 30
0.0
 10
10.2937442882
 20
9.7752845112
 30
0.0
 10
10.2898012919
 20
9.787490867
 30
0.0
 10
10.2852776888
 20
9.7995294812
 30
0.0
 10
10.2801841982
 20
9.8113716803
 30
0.0
 10
10.272644571
 20
9.8268716434
 30
0.0
 10
10.26185726
 20
9.8456113282
 30
0.0
 10
10.2468766858
 20
9.8668446426
 30
0.0
 10
10.2299897519
 20
9.8866461499
 30
0.0
 10
10.2113593674
 20
9.9048244375
 30
0.0
 10
10.1911638084
 20
9.921205509
 30
0.0
 10
10.1695982417
 20
9.9356312434
 30
0.0
 10
10.1506323726
 20
9.9459209032
 30
0.0
 10
10.1349856649
 20
9.9530425005
 30
0.0
 10
10.1230526481
 20
9.9578130416
 30
0.0
 10
10.1109406656
 20
9.9620057231
 30
0.0
 10
10.0986785464
 20
9.9656106
 30
0.0
 10
10.0862959695
 20
9.9686188547
 30
0.0
 10
10.0738224526
 20
9.971023387
 30
0.0
 10
10.0612886412
 20
9.9728181363
 30
0.0
 10
10.0528975008
 20
9.9736067719
 30
0.0
 10
10.0487026323
 20
9.973897687
 30
0.0
  0
SPLINE
  5
3B4
100
AcDbEntity
  8
0
100
AcDbSpline
 62
7
  6
CONTINUOUS
 70
0
 71
3
 72
15
 73
11
 74
0
 42
0.0000001
 43
0.0000001
 44
0.0000000001
 40
0.0
 40
0.0
 40
0.0
 40
0.0
 40
0.1234663223
 40
0.247305803
 40
0.371559016
 40
0.4962602531
 40
0.6214380999
 40
0.7471110719
 40
0.8732991574
 40
1.0
 40
1.0
 40
1.0
 40
1.0
 10
10.2831051626
 20
9.6977731159
 30
0.0
 10
10.2799282047
 20
9.6963711461
 30
0.0
 10
10.2734753348
 20
9.6937607118
 30
0.0
 10
10.2635577396
 20
9.6904468989
 30
0.0
 10
10.2534212356
 20
9.6877401989
 30
0.0
 10
10.243101624
 20
9.6856501883
 30
0.0
 10
10.2326348184
 20
9.6841840842
 30
0.0
 10
10.2220570797
 20
9.6833468413
 30
0.0
 10
10.2114058556
 20
9.68314146
 30
0.0
 10
10.2042940418
 20
9.6834256079
 30
0.0
 10
10.2007390612
 20
9.6836721467
 30
0.0
  0
SPLINE
  5
3B5
100
AcDbEntity
  8
0
100
AcDbSpline
 62
7
  6
CONTINUOUS
 70
0
 71
3
 72
23
 73
19
 74
0
 42
0.0000001
 43
0.0000001
 44
0.0000000001
 40
0.0
 40
0.0
 40
0.0
 40
0.0
 40
0.0638607871
 40
0.1275035019
 40
0.1909230262
 40
0.2541276227
 40
0.3171224329
 40
0.3799159103
 40
0.442518817
 40
0.5049436704
 40
0.567204993
 40
0.6293190716
 40
0.6913037885
 40
0.753178437
 40
0.8149635222
 40
0.8766805516
 40
0.9383517893
 40
1.0
 40
1.0
 40
1.0
 40
1.0
 10
10.0564671972
 20
9.4984347395
 30
0.0
 10
10.0602562423
 20
9.4981719683
 30
0.0
 10
10.0678358647
 20
9.4978358573
 30
0.0
 10
10.0791954747
 20
9.4979035184
 30
0.0
 10
10.090498477
 20
9.4985438667
 30
0.0
 10
10.10171583
 20
9.4997551673
 30
0.0
 10
10.1128195663
 20
9.5015345171
 30
0.0
 10
10.1237816484
 20
9.5038774127
 30
0.0
 10
10.1345744896
 20
9.5067779695
 30
0.0
 10
10.1451708999
 20
9.5102289529
 30
0.0
 10
10.1555441803
 20
9.5142216952
 30
0.0
 10
10.1656682087
 20
9.5187461354
 30
0.0
 10
10.1755174751
 20
9.5237909
 30
0.0
 10
10.1850671469
 20
9.5293433363
 30
0.0
 10
10.1942931419
 20
9.535389434
 30
0.0
 10
10.2031722997
 20
9.5419140326
 30
0.0
 10
10.2116819476
 20
9.5489004096
 30
0.0
 10
10.2170954548
 20
9.5538551846
 30
0.0
 10
10.2197326459
 20
9.556402502
 30
0.0
  0
SPLINE
  5
3B6
100
AcDbEntity
  8
0
100
AcDbSpline
 62
7
  6
CONTINUOUS
 70
0
 71
3
 72
87
 73
83
 74
0
 42
0.0000001
 43
0.0000001
 44
0.0000000001
 40
0.0
 40
0.0
 40
0.0
 40
0.0
 40
0.0039038403
 40
0.0079674255
 40
0.0121941626
 40
0.016586958
 40
0.0211482667
 40
0.0258799888
 40
0.0307834155
 40
0.0358594358
 40
0.0411085207
 40
0.0465308116
 40
0.0521261289
 40
0.0578939646
 40
0.0638335868
 40
0.0699439698
 40
0.0826715633
 40
0.0960648831
 40
0.1101087144
 40
0.1247852803
 40
0.1400745285
 40
0.155954364
 40
0.1724008446
 40
0.1893883571
 40
0.2068897666
 40
0.2248765477
 40
0.2433189045
 40
0.2621858786
 40
0.281445453
 40
0.3010646557
 40
0.3210096552
 40
0.3412458516
 40
0.361737966
 40
0.3824501265
 40
0.4033459565
 40
0.4243886633
 40
0.4455411225
 40
0.4880250202
 40
0.5304978534
 40
0.5516365071
 40
0.5726599301
 40
0.5935310406
 40
0.6142131006
 40
0.6346698036
 40
0.6548653612
 40
0.6747645885
 40
0.694332992
 40
0.7135368589
 40
0.7323433507
 40
0.7507206031
 40
0.7686378238
 40
0.7860653958
 40
0.8029749885
 40
0.8193396798
 40
0.8351340917
 40
0.8503345481
 40
0.8649192426
 40
0.87886844
 40
0.8921647182
 40
0.9047932652
 40
0.9108535203
 40
0.9167426952
 40
0.9224598427
 40
0.9280042866
 40
0.9333756342
 40
0.9385737642
 40
0.9435989354
 40
0.9484517273
 40
0.9531331656
 40
0.9576447181
 40
0.9619883537
 40
0.9661666481
 40
0.9701827792
 40
0.9740406984
 40
0.9777451463
 40
0.9813017977
 40
0.9847173716
 40
0.9879997065
 40
0.991157939
 40
0.994202535
 40
0.9971454229
 40
1.0
 40
1.0
 40
1.0
 40
1.0
 10
12.4179791963
 20
8.3361159542
 30
0.0
 10
12.4193082179
 20
8.3373996907
 30
0.0
 10
12.4219648997
 20
8.3400779188
 30
0.0
 10
12.425869227
 20
8.3443304362
 30
0.0
 10
12.4297696733
 20
8.3488954603
 30
0.0
 10
12.4336642737
 20
8.353770663
 30
0.0
 10
12.4375513305
 20
8.3589538089
 30
0.0
 10
12.4414290572
 20
8.3644425483
 30
0.0
 10
12.4452957293
 20
8.3702343128
 30
0.0
 10
12.4491494766
 20
8.3763264262
 30
0.0
 10
12.4529885398
 20
8.3827160208
 30
0.0
 10
12.4568111166
 20
8.3894001205
 30
0.0
 10
12.4606154023
 20
8.3963756089
 30
0.0
 10
12.4643996469
 20
8.4036392038
 30
0.0
 10
12.4681620419
 20
8.4111875264
 30
0.0
 10
12.4732158813
 20
8.4217710494
 30
0.0
 10
12.4794550946
 20
8.4356955326
 30
0.0
 10
12.4867291124
 20
8.4532622101
 30
0.0
 10
12.4938745444
 20
8.4718730958
 30
0.0
 10
12.5008778633
 20
8.491493204
 30
0.0
 10
12.5077258064
 20
8.5120858109
 30
0.0
 10
12.5144053953
 20
8.5336122403
 30
0.0
 10
12.5209039745
 20
8.5560320305
 30
0.0
 10
12.5272092284
 20
8.5793029988
 30
0.0
 10
12.5333092093
 20
8.6033813368
 30
0.0
 10
12.5391923597
 20
8.6282216956
 30
0.0
 10
12.5448475339
 20
8.6537772738
 30
0.0
 10
12.5502640216
 20
8.6799999049
 30
0.0
 10
12.5554315712
 20
8.7068401518
 30
0.0
 10
12.5603404022
 20
8.7342474045
 30
0.0
 10
12.5649812253
 20
8.7621699784
 30
0.0
 10
12.5693452601
 20
8.790555213
 30
0.0
 10
12.5734242488
 20
8.8193495691
 30
0.0
 10
12.5772104797
 20
8.8484987334
 30
0.0
 10
12.5806967902
 20
8.8779477064
 30
0.0
 10
12.5838766189
 20
8.9076409699
 30
0.0
 10
12.5877049819
 20
8.9475389214
 30
0.0
 10
12.5916823511
 20
8.9976093041
 30
0.0
 10
12.5945742474
 20
9.0477475508
 30
0.0
 10
12.5962244128
 20
9.0877738561
 30
0.0
 10
12.597124262
 20
9.1175959635
 30
0.0
 10
12.597686633
 20
9.1472101696
 30
0.0
 10
12.5979104525
 20
9.1765606459
 30
0.0
 10
12.5977953217
 20
9.2055920119
 30
0.0
 10
12.5973414781
 20
9.2342495067
 30
0.0
 10
12.5965498024
 20
9.2624790749
 30
0.0
 10
12.595421815
 20
9.2902274721
 30
0.0
 10
12.5939596742
 20
9.3174423647
 30
0.0
 10
12.5921661717
 20
9.3440724324
 30
0.0
 10
12.590044735
 20
9.3700674681
 30
0.0
 10
12.5875994155
 20
9.3953784746
 30
0.0
 10
12.5848348802
 20
9.4199577567
 30
0.0
 10
12.5817564038
 20
9.4437590123
 30
0.0
 10
12.5783698587
 20
9.4667374248
 30
0.0
 10
12.574681703
 20
9.4888497535
 30
0.0
 10
12.5706989765
 20
9.5100544317
 30
0.0
 10
12.5664292757
 20
9.530311628
 30
0.0
 10
12.5618807435
 20
9.5495834148
 30
0.0
 10
12.5570620234
 20
9.5678335542
 30
0.0
 10
12.5527721232
 20
9.582355084
 30
0.0
 10
12.5492021482
 20
9.5934275921
 30
0.0
 10
12.5464996479
 20
9.6013413082
 30
0.0
 10
12.543736604
 20
9.6089749652
 30
0.0
 10
12.5409142918
 20
9.6163249955
 30
0.0
 10
12.538034071
 20
9.6233879632
 30
0.0
 10
12.5350972363
 20
9.6301605523
 30
0.0
 10
12.5321052227
 20
9.6366396197
 30
0.0
 10
12.5290593657
 20
9.6428221298
 30
0.0
 10
12.525961108
 20
9.6487052173
 30
0.0
 10
12.5228118758
 20
9.6542861545
 30
0.0
 10
12.5196130705
 20
9.6595623382
 30
0.0
 10
12.5163662004
 20
9.6645313587
 30
0.0
 10
12.5130726443
 20
9.6691908816
 30
0.0
 10
12.5097339152
 20
9.6735387845
 30
0.0
 10
12.5063514282
 20
9.6775730299
 30
0.0
 10
12.502926619
 20
9.6812917176
 30
0.0
 10
12.4994609648
 20
9.6846931098
 30
0.0
 10
12.4959558201
 20
9.6877754767
 30
0.0
 10
12.4924127145
 20
9.6905372993
 30
0.0
 10
12.4888329559
 20
9.6929770475
 30
0.0
 10
12.4852183856
 20
9.6950931721
 30
0.0
 10
12.4827524323
 20
9.6963039619
 30
0.0
 10
12.4815171609
 20
9.6968513867
 30
0.0
  0
SPLINE
  5
3B7
100
AcDbEntity
  8
0
100
AcDbSpline
 62
7
  6
CONTINUOUS
 70
0
 71
3
 72
15
 73
11
 74
0
 42
0.0000001
 43
0.0000001
 44
0.0000000001
 40
0.0
 40
0.0
 40
0.0
 40
0.0
 40
0.1436988085
 40
0.2813769277
 40
0.4132964992
 40
0.5397819727
 40
0.6612190335
 40
0.7780521533
 40
0.8907882877
 40
1.0
 40
1.0
 40
1.0
 40
1.0
 10
12.4179791963
 20
8.3361159542
 30
0.0
 10
12.4166363275
 20
8.3348188425
 30
0.0
 10
12.413951532
 20
8.3323352909
 30
0.0
 10
12.4098374252
 20
8.3288809762
 30
0.0
 10
12.4057263908
 20
8.3257811371
 30
0.0
 10
12.4016205572
 20
8.3230376797
 30
0.0
 10
12.3975217943
 20
8.3206521817
 30
0.0
 10
12.3934318494
 20
8.3186261402
 30
0.0
 10
12.3893530849
 20
8.3169610674
 30
0.0
 10
12.3866034071
 20
8.316080135
 30
0.0
 10
12.3852352569
 20
8.3157038593
 30
0.0
  0
SPLINE
  5
3B8
100
AcDbEntity
  8
0
100
AcDbSpline
 62
7
  6
CONTINUOUS
 70
0
 71
3
 72
28
 73
24
 74
0
 42
0.0000001
 43
0.0000001
 44
0.0000000001
 40
0.0
 40
0.0
 40
0.0
 40
0.0
 40
0.0755865963
 40
0.1466184767
 40
0.2134342721
 40
0.2764743415
 40
0.3362782293
 40
0.3934901579
 40
0.4213681045
 40
0.4488864282
 40
0.476151598
 40
0.5032733404
 40
0.5303632319
 40
0.5575333204
 40
0.5848945514
 40
0.6125553576
 40
0.6406204677
 40
0.6691896304
 40
0.728186774
 40
0.7902486338
 40
0.8559435843
 40
0.9257367535
 40
1.0
 40
1.0
 40
1.0
 40
1.0
 10
12.4179791963
 20
8.5003233544
 30
0.0
 10
12.4165200605
 20
8.4989139374
 30
0.0
 10
12.413603772
 20
8.4962666369
 30
0.0
 10
12.409090491
 20
8.4927300542
 30
0.0
 10
12.4045825773
 20
8.4897598031
 30
0.0
 10
12.4000839325
 20
8.4873604043
 30
0.0
 10
12.3955989463
 20
8.4855361066
 30
0.0
 10
12.3918428465
 20
8.4844899925
 30
0.0
 10
12.3888665563
 20
8.4839547711
 30
0.0
 10
12.3866608795
 20
8.4837016886
 30
0.0
 10
12.3844636926
 20
8.4835938127
 30
0.0
 10
12.3822756349
 20
8.4836311348
 30
0.0
 10
12.3800974446
 20
8.4838136917
 30
0.0
 10
12.3779298447
 20
8.4841414535
 30
0.0
 10
12.3757735355
 20
8.4846142386
 30
0.0
 10
12.3736292127
 20
8.4852318336
 30
0.0
 10
12.3714974936
 20
8.4859940726
 30
0.0
 10
12.3686427803
 20
8.4872155704
 30
0.0
 10
12.3650973135
 20
8.4891214454
 30
0.0
 10
12.3609541775
 20
8.4919569696
 30
0.0
 10
12.3568792734
 20
8.4953605955
 30
0.0
 10
12.3528764183
 20
8.4993271469
 30
0.0
 10
12.3503394706
 20
8.5022497244
 30
0.0
 10
12.349081849
 20
8.5037960348
 30
0.0
  0
SPLINE
  5
3B9
100
AcDbEntity
  8
0
100
AcDbSpline
 62
7
  6
CONTINUOUS
 70
0
 71
3
 72
39
 73
35
 74
0
 42
0.0000001
 43
0.0000001
 44
0.0000000001
 40
0.0
 40
0.0
 40
0.0
 40
0.0
 40
0.0311450437
 40
0.0624431125
 40
0.0938883331
 40
0.1254709822
 40
0.157178873
 40
0.1889972474
 40
0.2209091591
 40
0.2528958248
 40
0.2849370022
 40
0.3170113907
 40
0.3490970489
 40
0.3811718181
 40
0.4132137492
 40
0.4452015278
 40
0.4771148901
 40
0.5089350229
 40
0.5406449458
 40
0.5722298665
 40
0.6036774985
 40
0.6349783412
 40
0.6661259148
 40
0.6971169386
 40
0.7279514454
 40
0.7586328312
 40
0.789167835
 40
0.8195664378
 40
0.8498416821
 40
0.8800094162
 40
0.9100879636
 40
0.9400977212
 40
0.9700606965
 40
1.0
 40
1.0
 40
1.0
 40
1.0
 10
10.0404204295
 20
9.2849199451
 30
0.0
 10
10.0300421527
 20
9.285639681
 30
0.0
 10
10.0092795664
 20
9.2878423356
 30
0.0
 10
9.9783874084
 20
9.2933908953
 30
0.0
 10
9.9478261341
 20
9.3011627316
 30
0.0
 10
9.9177607869
 20
9.3111160856
 30
0.0
 10
9.8883511119
 20
9.3231976282
 30
0.0
 10
9.8597539781
 20
9.3373427005
 30
0.0
 10
9.8321217207
 20
9.3534757087
 30
0.0
 10
9.8056015873
 20
9.3715105278
 30
0.0
 10
9.7803348902
 20
9.3913509407
 30
0.0
 10
9.756456242
 20
9.4128911046
 30
0.0
 10
9.7340928869
 20
9.436016177
 30
0.0
 10
9.7133640364
 20
9.4606029139
 30
0.0
 10
9.6943802198
 20
9.4865202977
 30
0.0
 10
9.6772426645
 20
9.5136302082
 30
0.0
 10
9.662042818
 20
9.541788197
 30
0.0
 10
9.6488618673
 20
9.570844239
 30
0.0
 10
9.637770271
 20
9.6006435006
 30
0.0
 10
9.6288273593
 20
9.6310271537
 30
0.0
 10
9.622081077
 20
9.6618332348
 30
0.0
 10
9.6175677256
 20
9.6928974869
 30
0.0
 10
9.6153117086
 20
9.7240542129
 30
0.0
 10
9.6153253862
 20
9.7551371569
 30
0.0
 10
9.6176090529
 20
9.7859803863
 30
0.0
 10
9.6221509206
 20
9.8164191602
 30
0.0
 10
9.6289270946
 20
9.8462908111
 30
0.0
 10
9.6379017039
 20
9.8754356273
 30
0.0
 10
9.6490271024
 20
9.9036976851
 30
0.0
 10
9.662244157
 20
9.9309257365
 30
0.0
 10
9.677482275
 20
9.95697387
 30
0.0
 10
9.694660558
 20
9.9817030358
 30
0.0
 10
9.7136854731
 20
10.0049790743
 30
0.0
 10
9.72753813
 20
10.0194506481
 30
0.0
 10
9.7347309929
 20
10.0263984439
 30
0.0
  0
SPLINE
  5
3BA
100
AcDbEntity
  8
0
100
AcDbSpline
 62
7
  6
CONTINUOUS
 70
0
 71
3
 72
18
 73
14
 74
0
 42
0.0000001
 43
0.0000001
 44
0.0000000001
 40
0.0
 40
0.0
 40
0.0
 40
0.0
 40
0.15046785
 40
0.2917141997
 40
0.4244423494
 40
0.4879097388
 40
0.5496092867
 40
0.6682625295
 40
0.7817883371
 40
0.8371380783
 40
0.8918079093
 40
0.9460193322
 40
1.0
 40
1.0
 40
1.0
 40
1.0
 10
12.3745125315
 20
8.5468044426
 30
0.0
 10
12.3731555349
 20
8.5454936845
 30
0.0
 10
12.3704433811
 20
8.5430343187
 30
0.0
 10
12.3662439012
 20
8.5397569079
 30
0.0
 10
12.3626967228
 20
8.5374389476
 30
0.0
 10
12.3598681633
 20
8.5358692923
 30
0.0
 10
12.3571228163
 20
8.5345216943
 30
0.0
 10
12.3536902635
 20
8.5331599858
 30
0.0
 10
12.3501966497
 20
8.5322307403
 30
0.0
 10
12.3474296031
 20
8.5317729743
 30
0.0
 10
12.3453788395
 20
8.5315698014
 30
0.0
 10
12.3433363715
 20
8.5315041808
 30
0.0
 10
12.341979406
 20
8.5315521744
 30
0.0
 10
12.3413041803
 20
8.5315989975
 30
0.0
  0
SPLINE
  5
3BB
100
AcDbEntity
  8
0
100
AcDbSpline
 62
7
  6
CONTINUOUS
 70
0
 71
3
 72
56
 73
52
 74
0
 42
0.0000001
 43
0.0000001
 44
0.0000000001
 40
0.0
 40
0.0
 40
0.0
 40
0.0
 40
0.0528988178
 40
0.1050249547
 40
0.1562613383
 40
0.2064945323
 40
0.2556136803
 40
0.3035116986
 40
0.3500853851
 40
0.3952359925
 40
0.4388696809
 40
0.4808980694
 40
0.5212388384
 40
0.5598164258
 40
0.5965628475
 40
0.6142309653
 40
0.6314197927
 40
0.6481234407
 40
0.6643367593
 40
0.6800553156
 40
0.6952755833
 40
0.7099948626
 40
0.724211563
 40
0.7379250905
 40
0.7511362104
 40
0.7638469421
 40
0.776060981
 40
0.7877836529
 40
0.7990223741
 40
0.8097867189
 40
0.8200889029
 40
0.8299440013
 40
0.8393704435
 40
0.848390382
 40
0.8570301577
 40
0.8732871703
 40
0.8809923201
 40
0.8884716055
 40
0.8957762193
 40
0.9029614893
 40
0.910085848
 40
0.9172093616
 40
0.92439212
 40
0.9316926219
 40
0.9391662991
 40
0.9468644709
 40
0.9631039601
 40
0.9717335158
 40
0.9807424301
 40
0.9901571718
 40
1.0
 40
1.0
 40
1.0
 40
1.0
 10
10.5601286478
 20
10.7547773354
 30
0.0
 10
10.5701277365
 20
10.7540838962
 30
0.0
 10
10.5899708309
 20
10.752572782
 30
0.0
 10
10.6194598741
 20
10.7499117012
 30
0.0
 10
10.6484051982
 20
10.7468776705
 30
0.0
 10
10.6767361648
 20
10.7434781583
 30
0.0
 10
10.7043838439
 20
10.7397214857
 30
0.0
 10
10.7312808894
 20
10.7356168815
 30
0.0
 10
10.7573618424
 20
10.7311744161
 30
0.0
 10
10.7825632422
 20
10.7264049994
 30
0.0
 10
10.8068238128
 20
10.7213203448
 30
0.0
 10
10.8300845912
 20
10.7159329424
 30
0.0
 10
10.8522891692
 20
10.7102560306
 30
0.0
 10
10.8733835508
 20
10.7043035404
 30
0.0
 10
10.8902077239
 20
10.6990593982
 30
0.0
 10
10.9030651562
 20
10.6947272076
 30
0.0
 10
10.9122729655
 20
10.6914608753
 30
0.0
 10
10.9211664137
 20
10.6881368012
 30
0.0
 10
10.9297401208
 20
10.6847570067
 30
0.0
 10
10.937988879
 20
10.6813235228
 30
0.0
 10
10.9459077041
 20
10.6778384786
 30
0.0
 10
10.9534917923
 20
10.6743039373
 30
0.0
 10
10.9607365806
 20
10.6707220999
 30
0.0
 10
10.9676376793
 20
10.6670950624
 30
0.0
 10
10.9741909605
 20
10.6634250781
 30
0.0
 10
10.9803924607
 20
10.6597142706
 30
0.0
 10
10.9862384948
 20
10.6559649202
 30
0.0
 10
10.991725536
 20
10.6521791693
 30
0.0
 10
10.9968503409
 20
10.6483592936
 30
0.0
 10
11.0016098235
 20
10.6445074357
 30
0.0
 10
11.0060011574
 20
10.6406258423
 30
0.0
 10
11.0100217073
 20
10.6367165926
 30
0.0
 10
11.0136689272
 20
10.632782024
 30
0.0
 10
11.0169408908
 20
10.6288236086
 30
0.0
 10
11.0207223675
 20
10.6236244522
 30
0.0
 10
11.0238568518
 20
10.6182707297
 30
0.0
 10
11.0262308891
 20
10.6128005094
 30
0.0
 10
11.0275948481
 20
10.6087577722
 30
0.0
 10
11.0285719413
 20
10.6047055823
 30
0.0
 10
11.0291609064
 20
10.6006466656
 30
0.0
 10
11.0293610039
 20
10.5965843309
 30
0.0
 10
11.0291718033
 20
10.5925219481
 30
0.0
 10
11.0285937178
 20
10.5884628904
 30
0.0
 10
11.0276274765
 20
10.5844104717
 30
0.0
 10
11.0262743257
 20
10.5803674266
 30
0.0
 10
11.0239150473
 20
10.5748970221
 30
0.0
 10
11.0207948155
 20
10.5695424914
 30
0.0
 10
11.0170270722
 20
10.5643424374
 30
0.0
 10
11.0137656392
 20
10.5603833771
 30
0.0
 10
11.0101289746
 20
10.5564481994
 30
0.0
 10
11.007515142
 20
10.5538996358
 30
0.0
 10
11.0061498784
 20
10.5526291091
 30
0.0
  0
SPLINE
  5
3BC
100
AcDbEntity
  8
0
100
AcDbSpline
 62
7
  6
CONTINUOUS
 70
0
 71
3
 72
27
 73
23
 74
0
 42
0.0000001
 43
0.0000001
 44
0.0000000001
 40
0.0
 40
0.0
 40
0.0
 40
0.0
 40
0.0616468919
 40
0.092480324
 40
0.1233223738
 40
0.1850380873
 40
0.2468218549
 40
0.2777487728
 40
0.3087006876
 40
0.3706840776
 40
0.4327968309
 40
0.4950568274
 40
0.5574803452
 40
0.6200818953
 40
0.6828740866
 40
0.7143476821
 40
0.745872711
 40
0.809075826
 40
0.8724948563
 40
0.9042889874
 40
0.9361391032
 40
1.0
 40
1.0
 40
1.0
 40
1.0
 10
11.0062327038
 20
6.8216249797
 30
0.0
 10
10.9984333665
 20
6.8140913902
 30
0.0
 10
10.9864258374
 20
6.8031014908
 30
0.0
 10
10.9698452506
 20
6.789111456
 30
0.0
 10
10.9528850245
 20
6.7755638875
 30
0.0
 10
10.9309967745
 20
6.7594797748
 30
0.0
 10
10.9082656466
 20
6.7445834468
 30
0.0
 10
10.8896070328
 20
6.7333981302
 30
0.0
 10
10.8706260656
 20
6.7226974107
 30
0.0
 10
10.8463396747
 20
6.7102578475
 30
0.0
 10
10.8163986806
 20
6.6968772029
 30
0.0
 10
10.7857201485
 20
6.6850688429
 30
0.0
 10
10.7543817339
 20
6.674862714
 30
0.0
 10
10.7224627831
 20
6.6662844509
 30
0.0
 10
10.6954662102
 20
6.6605146031
 30
0.0
 10
10.6736635163
 20
6.6567307078
 30
0.0
 10
10.6516990769
 20
6.6534986949
 30
0.0
 10
10.6240290433
 20
6.6505106256
 30
0.0
 10
10.5961956878
 20
6.6489339271
 30
0.0
 10
10.573847071
 20
6.6485171055
 30
0.0
 10
10.5514177895
 20
6.648664558
 30
0.0
 10
10.5345895426
 20
6.6494108314
 30
0.0
 10
10.5233833712
 20
6.650187982
 30
0.0
  0
SPLINE
  5
3BD
100
AcDbEntity
  8
0
100
AcDbSpline
 62
4
  6
CONTINUOUS
 70
0
 71
3
 72
377
 73
373
 74
0
 42
0.0000001
 43
0.0000001
 44
0.0000000001
 40
0.0
 40
0.0
 40
0.0
 40
0.0
 40
0.015625
 40
0.0234375
 40
0.03125
 40
0.0390625
 40
0.04296875
 40
0.046875
 40
0.05078125
 40
0.0546875
 40
0.056640625
 40
0.05859375
 40
0.0595703125
 40
0.060546875
 40
0.0615234375
 40
0.0620117188
 40
0.0625
 40
0.0629882812
 40
0.0634765625
 40
0.064453125
 40
0.0654296875
 40
0.06640625
 40
0.068359375
 40
0.0703125
 40
0.07421875
 40
0.078125
 40
0.08203125
 40
0.0859375
 40
0.09375
 40
0.1015625
 40
0.10546875
 40
0.109375
 40
0.11328125
 40
0.1171875
 40
0.119140625
 40
0.12109375
 40
0.1220703125
 40
0.123046875
 40
0.1240234375
 40
0.1245117188
 40
0.125
 40
0.1254882812
 40
0.1259765625
 40
0.126953125
 40
0.1279296875
 40
0.12890625
 40
0.130859375
 40
0.1328125
 40
0.13671875
 40
0.140625
 40
0.14453125
 40
0.1484375
 40
0.15625
 40
0.1640625
 40
0.16796875
 40
0.171875
 40
0.17578125
 40
0.1796875
 40
0.181640625
 40
0.18359375
 40
0.1845703125
 40
0.185546875
 40
0.1865234375
 40
0.1870117188
 40
0.1875
 40
0.1879882812
 40
0.1884765625
 40
0.189453125
 40
0.1904296875
 40
0.19140625
 40
0.193359375
 40
0.1953125
 40
0.19921875
 40
0.203125
 40
0.20703125
 40
0.2109375
 40
0.21875
 40
0.2265625
 40
0.23046875
 40
0.234375
 40
0.23828125
 40
0.2421875
 40
0.244140625
 40
0.24609375
 40
0.2470703125
 40
0.248046875
 40
0.2490234375
 40
0.2495117188
 40
0.25
 40
0.2504882812
 40
0.2509765625
 40
0.251953125
 40
0.2529296875
 40
0.25390625
 40
0.255859375
 40
0.2578125
 40
0.26171875
 40
0.265625
 40
0.26953125
 40
0.2734375
 40
0.28125
 40
0.2890625
 40
0.29296875
 40
0.296875
 40
0.30078125
 40
0.3046875
 40
0.306640625
 40
0.30859375
 40
0.310546875
 40
0.3115234375
 40
0.3120117188
 40
0.3125
 40
0.3129882812
 40
0.3134765625
 40
0.314453125
 40
0.31640625
 40
0.318359375
 40
0.3203125
 40
0.32421875
 40
0.328125
 40
0.33203125
 40
0.3359375
 40
0.34375
 40
0.3515625
 40
0.35546875
 40
0.359375
 40
0.36328125
 40
0.3671875
 40
0.369140625
 40
0.37109375
 40
0.3720703125
 40
0.373046875
 40
0.3740234375
 40
0.3745117188
 40
0.375
 40
0.3754882812
 40
0.3759765625
 40
0.376953125
 40
0.3779296875
 40
0.37890625
 40
0.380859375
 40
0.3828125
 40
0.38671875
 40
0.390625
 40
0.39453125
 40
0.3984375
 40
0.40625
 40
0.4140625
 40
0.41796875
 40
0.421875
 40
0.42578125
 40
0.4296875
 40
0.431640625
 40
0.43359375
 40
0.4345703125
 40
0.435546875
 40
0.4365234375
 40
0.4370117188
 40
0.4375
 40
0.4379882812
 40
0.4384765625
 40
0.439453125
 40
0.4404296875
 40
0.44140625
 40
0.443359375
 40
0.4453125
 40
0.44921875
 40
0.453125
 40
0.45703125
 40
0.4609375
 40
0.46875
 40
0.4765625
 40
0.48046875
 40
0.484375
 40
0.48828125
 40
0.4921875
 40
0.494140625
 40
0.49609375
 40
0.4970703125
 40
0.498046875
 40
0.4990234375
 40
0.4995117188
 40
0.5
 40
0.5004882812
 40
0.5009765625
 40
0.501953125
 40
0.5029296875
 40
0.50390625
 40
0.505859375
 40
0.5078125
 40
0.51171875
 40
0.515625
 40
0.51953125
 40
0.5234375
 40
0.53125
 40
0.5390625
 40
0.54296875
 40
0.546875
 40
0.55078125
 40
0.5546875
 40
0.556640625
 40
0.55859375
 40
0.5595703125
 40
0.560546875
 40
0.5615234375
 40
0.5620117188
 40
0.5625
 40
0.5629882812
 40
0.5634765625
 40
0.564453125
 40
0.5654296875
 40
0.56640625
 40
0.568359375
 40
0.5703125
 40
0.57421875
 40
0.578125
 40
0.58203125
 40
0.5859375
 40
0.59375
 40
0.6015625
 40
0.60546875
 40
0.609375
 40
0.61328125
 40
0.6171875
 40
0.619140625
 40
0.62109375
 40
0.6220703125
 40
0.623046875
 40
0.6240234375
 40
0.6245117188
 40
0.625
 40
0.6254882812
 40
0.6259765625
 40
0.626953125
 40
0.6279296875
 40
0.62890625
 40
0.630859375
 40
0.6328125
 40
0.63671875
 40
0.640625
 40
0.64453125
 40
0.6484375
 40
0.65625
 40
0.6640625
 40
0.66796875
 40
0.671875
 40
0.67578125
 40
0.6796875
 40
0.681640625
 40
0.68359375
 40
0.6845703125
 40
0.685546875
 40
0.6865234375
 40
0.6870117188
 40
0.6872558594
 40
0.6875
 40
0.6877441406
 40
0.6879882812
 40
0.6884765625
 40
0.689453125
 40
0.6904296875
 40
0.69140625
 40
0.693359375
 40
0.6953125
 40
0.69921875
 40
0.703125
 40
0.70703125
 40
0.7109375
 40
0.71875
 40
0.7265625
 40
0.73046875
 40
0.734375
 40
0.73828125
 40
0.7421875
 40
0.744140625
 40
0.74609375
 40
0.7470703125
 40
0.748046875
 40
0.7490234375
 40
0.7495117188
 40
0.7497558594
 40
0.75
 40
0.7502441406
 40
0.7504882812
 40
0.7509765625
 40
0.751953125
 40
0.7529296875
 40
0.75390625
 40
0.755859375
 40
0.7578125
 40
0.76171875
 40
0.765625
 40
0.76953125
 40
0.7734375
 40
0.78125
 40
0.7890625
 40
0.79296875
 40
0.796875
 40
0.80078125
 40
0.8046875
 40
0.806640625
 40
0.80859375
 40
0.8095703125
 40
0.810546875
 40
0.8115234375
 40
0.8120117188
 40
0.8125
 40
0.8129882812
 40
0.8134765625
 40
0.814453125
 40
0.8154296875
 40
0.81640625
 40
0.818359375
 40
0.8203125
 40
0.82421875
 40
0.828125
 40
0.83203125
 40
0.8359375
 40
0.84375
 40
0.8515625
 40
0.85546875
 40
0.859375
 40
0.86328125
 40
0.8671875
 40
0.869140625
 40
0.87109375
 40
0.8720703125
 40
0.873046875
 40
0.8740234375
 40
0.8745117188
 40
0.875
 40
0.8754882812
 40
0.8759765625
 40
0.876953125
 40
0.8779296875
 40
0.87890625
 40
0.880859375
 40
0.8828125
 40
0.88671875
 40
0.890625
 40
0.89453125
 40
0.8984375
 40
0.90625
 40
0.9140625
 40
0.91796875
 40
0.921875
 40
0.92578125
 40
0.9296875
 40
0.931640625
 40
0.93359375
 40
0.9345703125
 40
0.935546875
 40
0.9365234375
 40
0.9370117188
 40
0.9372558594
 40
0.9375
 40
0.9377441406
 40
0.9379882812
 40
0.9384765625
 40
0.939453125
 40
0.9404296875
 40
0.94140625
 40
0.943359375
 40
0.9453125
 40
0.94921875
 40
0.953125
 40
0.95703125
 40
0.9609375
 40
0.96875
 40
0.9765625
 40
0.984375
 40
1.0
 40
1.0
 40
1.0
 40
1.0
 10
10.749603227
 20
9.7805202193
 30
0.0
 10
10.7499104387
 20
9.7773657272
 30
0.0
 10
10.7503712561
 20
9.772633989
 30
0.0
 10
10.7509856795
 20
9.7663250048
 30
0.0
 10
10.7514464969
 20
9.7615932666
 30
0.0
 10
10.7518305119
 20
9.7576501515
 30
0.0
 10
10.7521377226
 20
9.7544956593
 30
0.0
 10
10.7523681342
 20
9.7521297905
 30
0.0
 10
10.7525985325
 20
9.7497639201
 30
0.0
 10
10.7527905721
 20
9.7477923667
 30
0.0
 10
10.752944112
 20
9.7462151122
 30
0.0
 10
10.7530402835
 20
9.745229355
 30
0.0
 10
10.753116742
 20
9.7444406876
 30
0.0
 10
10.7531753965
 20
9.7438493557
 30
0.0
 10
10.7532201058
 20
9.7433560427
 30
0.0
 10
10.7532652246
 20
9.7429625954
 30
0.0
 10
10.7532735113
 20
9.7426642225
 30
0.0
 10
10.7533793319
 20
9.7423783979
 30
0.0
 10
10.7534863563
 20
9.741992915
 30
0.0
 10
10.7536318259
 20
9.7415125654
 30
0.0
 10
10.753801386
 20
9.740935502
 30
0.0
 10
10.7540292138
 20
9.7401663091
 30
0.0
 10
10.7543134002
 20
9.739204741
 30
0.0
 10
10.7547684329
 20
9.7376662751
 30
0.0
 10
10.7553371089
 20
9.7357431778
 30
0.0
 10
10.7560195693
 20
9.7334354675
 30
0.0
 10
10.7567020166
 20
9.7311277555
 30
0.0
 10
10.7576119509
 20
9.7280508067
 30
0.0
 10
10.7587493671
 20
9.7242046205
 30
0.0
 10
10.7598867844
 20
9.7203584345
 30
0.0
 10
10.7607967169
 20
9.7172814853
 30
0.0
 10
10.7614791696
 20
9.7149737745
 30
0.0
 10
10.7621616098
 20
9.7126660595
 30
0.0
 10
10.7627303487
 20
9.7107429769
 30
0.0
 10
10.7631852532
 20
9.7092044811
 30
0.0
 10
10.7634697656
 20
9.7082429888
 30
0.0
 10
10.7636969243
 20
9.7074736403
 30
0.0
 10
10.7638685286
 20
9.7068970524
 30
0.0
 10
10.7640076025
 20
9.7064152153
 30
0.0
 10
10.7641276753
 20
9.7060327671
 30
0.0
 10
10.7641936468
 20
9.7057376748
 30
0.0
 10
10.7643515436
 20
9.7054740964
 30
0.0
 10
10.7645299621
 20
9.7051116503
 30
0.0
 10
10.7647640021
 20
9.7046623695
 30
0.0
 10
10.7650401346
 20
9.7041216159
 30
0.0
 10
10.7654099582
 20
9.7034011758
 30
0.0
 10
10.7658716738
 20
9.7025004323
 30
0.0
 10
10.766610734
 20
9.7010593508
 30
0.0
 10
10.767534451
 20
9.6992579618
 30
0.0
 10
10.7686429579
 20
9.6970963109
 30
0.0
 10
10.7697514523
 20
9.6949346558
 30
0.0
 10
10.7712294492
 20
9.6920524504
 30
0.0
 10
10.7730769437
 20
9.6884496932
 30
0.0
 10
10.7749244393
 20
9.6848469363
 30
0.0
 10
10.7764024345
 20
9.6819647303
 30
0.0
 10
10.7775109341
 20
9.6798030773
 30
0.0
 10
10.7786194216
 20
9.6776414185
 30
0.0
 10
10.7795431987
 20
9.675840054
 30
0.0
 10
10.7802821364
 20
9.6743989226
 30
0.0
 10
10.7807441637
 20
9.6734983062
 30
0.0
 10
10.7811133475
 20
9.6727776051
 30
0.0
 10
10.7813914347
 20
9.6722376488
 30
0.0
 10
10.7816193588
 20
9.6717858736
 30
0.0
 10
10.781810255
 20
9.6714285166
 30
0.0
 10
10.7819300457
 20
9.6711493962
 30
0.0
 10
10.7821390835
 20
9.6709126547
 30
0.0
 10
10.7823866254
 20
9.6705821958
 30
0.0
 10
10.7827067488
 20
9.6701742012
 30
0.0
 10
10.7830863187
 20
9.6696824337
 30
0.0
 10
10.7835940109
 20
9.669027503
 30
0.0
 10
10.7842280787
 20
9.6682085796
 30
0.0
 10
10.7852428932
 20
9.6668984475
 30
0.0
 10
10.7865113063
 20
9.6652607326
 30
0.0
 10
10.788033447
 20
9.6632954961
 30
0.0
 10
10.7895555756
 20
9.6613302538
 30
0.0
 10
10.7915850847
 20
9.6587099328
 30
0.0
 10
10.7941219695
 20
9.6554345307
 30
0.0
 10
10.7966588553
 20
9.6521591293
 30
0.0
 10
10.7986883629
 20
9.6495388072
 30
0.0
 10
10.8002104959
 20
9.6475735682
 30
0.0
 10
10.8017326202
 20
9.6456083193
 30
0.0
 10
10.8030010845
 20
9.6439706427
 30
0.0
 10
10.8040157945
 20
9.6426604324
 30
0.0
 10
10.8046501281
 20
9.6418417082
 30
0.0
 10
10.8051572747
 20
9.6411863688
 30
0.0
 10
10.8055385115
 20
9.64069585
 30
0.0
 10
10.8058534195
 20
9.6402839483
 30
0.0
 10
10.8061116019
 20
9.6399614607
 30
0.0
 10
10.8062881442
 20
9.6397003754
 30
0.0
 10
10.8065299367
 20
9.6395126515
 30
0.0
 10
10.8068295339
 20
9.6392367269
 30
0.0
 10
10.8072118505
 20
9.6389006133
 30
0.0
 10
10.8076672832
 20
9.6384935136
 30
0.0
 10
10.808275696
 20
9.6379520286
 30
0.0
 10
10.8090358116
 20
9.6372747222
 30
0.0
 10
10.8102522203
 20
9.6361912834
 30
0.0
 10
10.8117726544
 20
9.6348368987
 30
0.0
 10
10.8135972082
 20
9.6332116741
 30
0.0
 10
10.8154217532
 20
9.6315864396
 30
0.0
 10
10.817854483
 20
9.6294194636
 30
0.0
 10
10.8208953944
 20
9.6267107429
 30
0.0
 10
10.823936305
 20
9.6240020209
 30
0.0
 10
10.8263690361
 20
9.621835047
 30
0.0
 10
10.8281935771
 20
9.6202098063
 30
0.0
 10
10.8300181458
 20
9.6185846049
 30
0.0
 10
10.8315385336
 20
9.6172301478
 30
0.0
 10
10.8327550367
 20
9.6161468568
 30
0.0
 10
10.8336668872
 20
9.615333638
 30
0.0
 10
10.8344284385
 20
9.614658343
 30
0.0
 10
10.8349582354
 20
9.6141809515
 30
0.0
 10
10.835266112
 20
9.6139154715
 30
0.0
 10
10.8354825527
 20
9.6136957547
 30
0.0
 10
10.8357542925
 20
9.6135548077
 30
0.0
 10
10.8360973234
 20
9.6133394026
 30
0.0
 10
10.8367066144
 20
9.6129752451
 30
0.0
 10
10.8375723317
 20
9.6124483273
 30
0.0
 10
10.8386132035
 20
9.6118188907
 30
0.0
 10
10.84000033
 20
9.6109786412
 30
0.0
 10
10.8417344793
 20
9.6099286728
 30
0.0
 10
10.8438153551
 20
9.6086685634
 30
0.0
 10
10.8458962586
 20
9.6074084934
 30
0.0
 10
10.8486707868
 20
9.6057283864
 30
0.0
 10
10.8521389504
 20
9.6036282572
 30
0.0
 10
10.8556071131
 20
9.6015281268
 30
0.0
 10
10.8583816429
 20
9.5998480216
 30
0.0
 10
10.8604625416
 20
9.5985879459
 30
0.0
 10
10.8625434352
 20
9.5973278581
 30
0.0
 10
10.8642775292
 20
9.5962778225
 30
0.0
 10
10.8656647684
 20
9.59543771
 30
0.0
 10
10.8665318749
 20
9.5949128308
 30
0.0
 10
10.8672253725
 20
9.5944924899
 30
0.0
 10
10.8677460091
 20
9.5941784321
 30
0.0
 10
10.8681782396
 20
9.5939129066
 30
0.0
 10
10.8685276874
 20
9.593709033
 30
0.0
 10
10.868779763
 20
9.5935327737
 30
0.0
 10
10.8690700481
 20
9.5934456572
 30
0.0
 10
10.8694437478
 20
9.5932983631
 30
0.0
 10
10.8699154518
 20
9.593124929
 30
0.0
 10
10.8704795364
 20
9.5929122352
 30
0.0
 10
10.8712323339
 20
9.5926302406
 30
0.0
 10
10.8721730963
 20
9.5922772005
 30
0.0
 10
10.8736784473
 20
9.5917126421
 30
0.0
 10
10.8755600909
 20
9.5910068391
 30
0.0
 10
10.8778180827
 20
9.5901599206
 30
0.0
 10
10.8800760692
 20
9.58931299
 30
0.0
 10
10.8830867197
 20
9.5881837534
 30
0.0
 10
10.8868500323
 20
9.5867722061
 30
0.0
 10
10.8906133452
 20
9.5853606598
 30
0.0
 10
10.8936239951
 20
9.5842314215
 30
0.0
 10
10.8958819835
 20
9.5833844961
 30
0.0
 10
10.8981399681
 20
9.5825375579
 30
0.0
 10
10.900021634
 20
9.5818318161
 30
0.0
 10
10.9015269396
 20
9.5812671329
 30
0.0
 10
10.9024678173
 20
9.5809144104
 30
0.0
 10
10.9032203783
 20
9.580631764
 30
0.0
 10
10.9037851855
 20
9.5804210619
 30
0.0
 10
10.9042546286
 20
9.5802413962
 30
0.0
 10
10.9046329409
 20
9.5801068157
 30
0.0
 10
10.9049091393
 20
9.5799808725
 30
0.0
 10
10.9052141022
 20
9.5799503845
 30
0.0
 10
10.9056106715
 20
9.5798763902
 30
0.0
 10
10.9061098305
 20
9.5797953373
 30
0.0
 10
10.9067073457
 20
9.5796931771
 30
0.0
 10
10.907504548
 20
9.5795586739
 30
0.0
 10
10.9085008745
 20
9.5793899592
 30
0.0
 10
10.9100950955
 20
9.579120343
 30
0.0
 10
10.9120878378
 20
9.5787832105
 30
0.0
 10
10.9144791431
 20
9.5783786996
 30
0.0
 10
10.9168704446
 20
9.5779741758
 30
0.0
 10
10.9200588479
 20
9.5774348152
 30
0.0
 10
10.9240443515
 20
9.5767606129
 30
0.0
 10
10.9280298553
 20
9.5760864117
 30
0.0
 10
10.9312182584
 20
9.5755470493
 30
0.0
 10
10.9336095604
 20
9.5751425311
 30
0.0
 10
10.9360008637
 20
9.5747379992
 30
0.0
 10
10.9379936126
 20
9.574400932
 30
0.0
 10
10.9395878202
 20
9.5741311825
 30
0.0
 10
10.9405841807
 20
9.5739628072
 30
0.0
 10
10.941381313
 20
9.5738276073
 30
0.0
 10
10.9419790422
 20
9.5737275757
 30
0.0
 10
10.9424775318
 20
9.5736398629
 30
0.0
 10
10.9428754668
 20
9.5735794561
 30
0.0
 10
10.9431762589
 20
9.5735074724
 30
0.0
 10
10.9434681159
 20
9.5735373214
 30
0.0
 10
10.9438603796
 20
9.5735415485
 30
0.0
 10
10.9443496384
 20
9.5735590368
 30
0.0
 10
10.9449372074
 20
9.5735747989
 30
0.0
 10
10.9457204726
 20
9.5735976397
 30
0.0
 10
10.9466996088
 20
9.5736255658
 30
0.0
 10
10.9482661963
 20
9.5736705969
 30
0.0
 10
10.950224441
 20
9.5737267659
 30
0.0
 10
10.9525743303
 20
9.5737942201
 30
0.0
 10
10.9549242207
 20
9.5738616605
 30
0.0
 10
10.9580574076
 20
9.5739515858
 30
0.0
 10
10.9619738913
 20
9.5740639908
 30
0.0
 10
10.9658903748
 20
9.5741763969
 30
0.0
 10
10.9690235619
 20
9.5742663203
 30
0.0
 10
10.9713734516
 20
9.5743337665
 30
0.0
 10
10.9737233438
 20
9.5744011992
 30
0.0
 10
10.9756815792
 20
9.5744574348
 30
0.0
 10
10.9772481857
 20
9.5745023301
 30
0.0
 10
10.9782272734
 20
9.5745306016
 30
0.0
 10
10.9790106384
 20
9.5745527335
 30
0.0
 10
10.9795979025
 20
9.5745706612
 30
0.0
 10
10.9800881149
 20
9.5745813741
 30
0.0
 10
10.9804784332
 20
9.5745994243
 30
0.0
 10
10.9807762315
 20
9.5745870586
 30
0.0
 10
10.9810547174
 20
9.5746735662
 30
0.0
 10
10.9814327781
 20
9.5747543719
 30
0.0
 10
10.9819030394
 20
9.5748672288
 30
0.0
 10
10.9824683437
 20
9.574997585
 30
0.0
 10
10.9832217367
 20
9.5751731648
 30
0.0
 10
10.9841635964
 20
9.575392033
 30
0.0
 10
10.9856705058
 20
9.5757425611
 30
0.0
 10
10.9875541652
 20
9.5761806049
 30
0.0
 10
10.9898145467
 20
9.5767063073
 30
0.0
 10
10.9920749309
 20
9.5772319964
 30
0.0
 10
10.9950887755
 20
9.5779329199
 30
0.0
 10
10.9988560816
 20
9.5788090725
 30
0.0
 10
11.0026233874
 20
9.5796852263
 30
0.0
 10
11.0056372326
 20
9.5803861479
 30
0.0
 10
11.0078976151
 20
9.5809118425
 30
0.0
 10
11.0101580027
 20
9.5814375244
 30
0.0
 10
11.0120416432
 20
9.5818756323
 30
0.0
 10
11.0135485912
 20
9.5822260296
 30
0.0
 10
11.0144903525
 20
9.5824452306
 30
0.0
 10
11.0152439475
 20
9.5826201273
 30
0.0
 10
11.0158086346
 20
9.5827525705
 30
0.0
 10
11.0162808269
 20
9.5828588977
 30
0.0
 10
11.016654948
 20
9.5829530251
 30
0.0
 10
11.0169454652
 20
9.5829988492
 30
0.0
 10
11.0171980934
 20
9.5831392262
 30
0.0
 10
11.0175481662
 20
9.583293367
 30
0.0
 10
11.0179812163
 20
9.583497375
 30
0.0
 10
11.01850282
 20
9.5837373341
 30
0.0
 10
11.0191976128
 20
9.5840589737
 30
0.0
 10
11.0200663362
 20
9.5844604431
 30
0.0
 10
11.0214561637
 20
9.5851031184
 30
0.0
 10
11.0231934927
 20
9.5859063513
 30
0.0
 10
11.0252782683
 20
9.5868702784
 30
0.0
 10
11.0273630491
 20
9.5878341928
 30
0.0
 10
11.030142755
 20
9.5891194164
 30
0.0
 10
11.033617388
 20
9.5907259445
 30
0.0
 10
11.0370920209
 20
9.5923324729
 30
0.0
 10
11.039871727
 20
9.593617696
 30
0.0
 10
11.0419565072
 20
9.5945816121
 30
0.0
 10
11.0440412851
 20
9.5955455327
 30
0.0
 10
11.0457786072
 20
9.596348786
 30
0.0
 10
11.0471684487
 20
9.5969914196
 30
0.0
 10
11.0480371365
 20
9.5973929952
 30
0.0
 10
11.0487320023
 20
9.5977144168
 30
0.0
 10
11.049253383
 20
9.597955042
 30
0.0
 10
11.049687131
 20
9.598156966
 30
0.0
 10
11.0499921987
 20
9.5982955593
 30
0.0
 10
11.0501642683
 20
9.5983790549
 30
0.0
 10
11.0502996721
 20
9.5984295649
 30
0.0
 10
11.0504107971
 20
9.5985263724
 30
0.0
 10
11.0505674325
 20
9.5986393
 30
0.0
 10
11.0508375987
 20
9.5988444474
 30
0.0
 10
11.0512256133
 20
9.5991335814
 30
0.0
 10
11.0516903478
 20
9.599482226
 30
0.0
 10
11.0523103022
 20
9.5999464974
 30
0.0
 10
11.0530851396
 20
9.600527038
 30
0.0
 10
11.0543249386
 20
9.6014557904
 30
0.0
 10
11.0558746669
 20
9.6026167695
 30
0.0
 10
11.0577343497
 20
9.6040099279
 30
0.0
 10
11.0595940301
 20
9.6054030907
 30
0.0
 10
11.0620736048
 20
9.6072606396
 30
0.0
 10
11.0651730729
 20
9.6095825762
 30
0.0
 10
11.0682725412
 20
9.6119045125
 30
0.0
 10
11.0707521155
 20
9.613762062
 30
0.0
 10
11.0726117972
 20
9.6151552231
 30
0.0
 10
11.0744714752
 20
9.6165483877
 30
0.0
 10
11.0760212184
 20
9.6177093476
 30
0.0
 10
11.077260987
 20
9.6186381391
 30
0.0
 10
11.0780359016
 20
9.6192185802
 30
0.0
 10
11.0786556977
 20
9.6196830559
 30
0.0
 10
11.0791209158
 20
9.6200310762
 30
0.0
 10
11.0795074175
 20
9.6203221635
 30
0.0
 10
11.0797802844
 20
9.620523824
 30
0.0
 10
11.0799325926
 20
9.6206423385
 30
0.0
 10
11.0800570094
 20
9.6207219848
 30
0.0
 10
11.0801424914
 20
9.6208369494
 30
0.0
 10
11.0802700482
 20
9.620977916
 30
0.0
 10
11.0804869452
 20
9.6212303475
 30
0.0
 10
11.0808001061
 20
9.621587963
 30
0.0
 10
11.0811744832
 20
9.6220183861
 30
0.0
 10
11.0816741472
 20
9.6225918349
 30
0.0
 10
11.082298558
 20
9.6233087995
 30
0.0
 10
11.0832977098
 20
9.624455857
 30
0.0
 10
11.084546617
 20
9.6258897084
 30
0.0
 10
11.0860453197
 20
9.6276103174
 30
0.0
 10
11.0875440186
 20
9.6293309298
 30
0.0
 10
11.0895422851
 20
9.6316250785
 30
0.0
 10
11.0920401179
 20
9.6344927647
 30
0.0
 10
11.0945379504
 20
9.6373604512
 30
0.0
 10
11.0965362174
 20
9.6396545995
 30
0.0
 10
11.0980349148
 20
9.641375213
 30
0.0
 10
11.0995336233
 20
9.6430958181
 30
0.0
 10
11.1007825123
 20
9.6445296815
 30
0.0
 10
11.1017817013
 20
9.6456767147
 30
0.0
 10
11.1024060173
 20
9.6463937412
 30
0.0
 10
11.1029058757
 20
9.6469670629
 30
0.0
 10
11.1032796592
 20
9.6473978744
 30
0.0
 10
11.1035946774
 20
9.6477542746
 30
0.0
 10
11.1038387703
 20
9.6480452472
 30
0.0
 10
11.1040434859
 20
9.6482474849
 30
0.0
 10
11.1041655787
 20
9.6485107635
 30
0.0
 10
11.1043572304
 20
9.6488404793
 30
0.0
 10
11.1045868928
 20
9.6492599397
 30
0.0
 10
11.1048667261
 20
9.6497601608
 30
0.0
 10
11.1052383568
 20
9.650428216
 30
0.0
 10
11.1057034021
 20
9.6512629105
 30
0.0
 10
11.1064471913
 20
9.6525986311
 30
0.0
 10
11.1073770249
 20
9.6542682099
 30
0.0
 10
11.1084927836
 20
9.6562717353
 30
0.0
 10
11.1096085535
 20
9.6582752524
 30
0.0
 10
11.1110962428
 20
9.6609466115
 30
0.0
 10
11.1129558558
 20
9.6642858093
 30
0.0
 10
11.1148154678
 20
9.6676250078
 30
0.0
 10
11.1163031587
 20
9.6702963659
 30
0.0
 10
11.1174189236
 20
9.672299886
 30
0.0
 10
11.1185347009
 20
9.6743034002
 30
0.0
 10
11.1194644767
 20
9.675973014
 30
0.0
 10
11.1202083838
 20
9.6773086631
 30
0.0
 10
11.120673129
 20
9.6781435394
 30
0.0
 10
11.1210453757
 20
9.6788112216
 30
0.0
 10
11.1213233272
 20
9.6793125822
 30
0.0
 10
11.1215588774
 20
9.6797284772
 30
0.0
 10
11.1217385167
 20
9.680065467
 30
0.0
 10
11.1218972945
 20
9.6803065313
 30
0.0
 10
11.1219642797
 20
9.680592171
 30
0.0
 10
11.1220856576
 20
9.6809574531
 30
0.0
 10
11.122226379
 20
9.681419398
 30
0.0
 10
11.1223999534
 20
9.6819714452
 30
0.0
 10
11.1226297412
 20
9.6827083069
 30
0.0
 10
11.1229175392
 20
9.6836291105
 30
0.0
 10
11.1233777012
 20
9.685102549
 30
0.0
 10
11.1239530117
 20
9.6869442948
 30
0.0
 10
11.124643338
 20
9.6891544122
 30
0.0
 10
11.1253336768
 20
9.6913645236
 30
0.0
 10
11.126254124
 20
9.6943113409
 30
0.0
 10
11.1274046846
 20
9.6979948618
 30
0.0
 10
11.1285552448
 20
9.7016783829
 30
0.0
 10
11.1294756926
 20
9.7046251999
 30
0.0
 10
11.1301660297
 20
9.7068353123
 30
0.0
 10
11.1308563621
 20
9.7090454263
 30
0.0
 10
11.1314316536
 20
9.7108871826
 30
0.0
 10
11.1318918543
 20
9.7123605996
 30
0.0
 10
11.1321795538
 20
9.7132814582
 30
0.0
 10
11.1324095439
 20
9.7140182069
 30
0.0
 10
11.1325825005
 20
9.7145705992
 30
0.0
 10
11.1327251547
 20
9.7150314643
 30
0.0
 10
11.13282791
 20
9.7153530138
 30
0.0
 10
11.1328821033
 20
9.7155384054
 30
0.0
 10
11.1329354924
 20
9.7156728036
 30
0.0
 10
11.132940167
 20
9.7158249594
 30
0.0
 10
11.132963392
 20
9.7160216397
 30
0.0
 10
11.1329961188
 20
9.7163687161
 30
0.0
 10
11.1330470104
 20
9.7168630308
 30
0.0
 10
11.1331063087
 20
9.7174568543
 30
0.0
 10
11.1331859919
 20
9.7182483934
 30
0.0
 10
11.133285384
 20
9.7192378944
 30
0.0
 10
11.1334445299
 20
9.7208210529
 30
0.0
 10
11.1336434215
 20
9.7228000159
 30
0.0
 10
11.1338821089
 20
9.7251747651
 30
0.0
 10
11.1341207916
 20
9.727549516
 30
0.0
 10
11.1344390368
 20
9.73071585
 30
0.0
 10
11.1348368428
 20
9.7346737677
 30
0.0
 10
11.1353142103
 20
9.7394232688
 30
0.0
 10
11.1359507001
 20
9.7457559369
 30
0.0
 10
11.1364280675
 20
9.750505438
 30
0.0
 10
11.1367463125
 20
9.7536717721
 30
0.0
  0
SPLINE
  5
3BE
100
AcDbEntity
  8
0
100
AcDbSpline
 62
4
  6
CONTINUOUS
 70
0
 71
3
 72
377
 73
373
 74
0
 42
0.0000001
 43
0.0000001
 44
0.0000000001
 40
0.0
 40
0.0
 40
0.0
 40
0.0
 40
0.015625
 40
0.0234375
 40
0.03125
 40
0.0390625
 40
0.04296875
 40
0.046875
 40
0.05078125
 40
0.0546875
 40
0.056640625
 40
0.05859375
 40
0.0595703125
 40
0.060546875
 40
0.0615234375
 40
0.0620117188
 40
0.0625
 40
0.0629882812
 40
0.0634765625
 40
0.064453125
 40
0.0654296875
 40
0.06640625
 40
0.068359375
 40
0.0703125
 40
0.07421875
 40
0.078125
 40
0.08203125
 40
0.0859375
 40
0.09375
 40
0.1015625
 40
0.10546875
 40
0.109375
 40
0.11328125
 40
0.1171875
 40
0.119140625
 40
0.12109375
 40
0.1220703125
 40
0.123046875
 40
0.1240234375
 40
0.1245117188
 40
0.125
 40
0.1254882812
 40
0.1259765625
 40
0.126953125
 40
0.1279296875
 40
0.12890625
 40
0.130859375
 40
0.1328125
 40
0.13671875
 40
0.140625
 40
0.14453125
 40
0.1484375
 40
0.15625
 40
0.1640625
 40
0.16796875
 40
0.171875
 40
0.17578125
 40
0.1796875
 40
0.181640625
 40
0.18359375
 40
0.1845703125
 40
0.185546875
 40
0.1865234375
 40
0.1870117188
 40
0.1875
 40
0.1879882812
 40
0.1884765625
 40
0.189453125
 40
0.1904296875
 40
0.19140625
 40
0.193359375
 40
0.1953125
 40
0.19921875
 40
0.203125
 40
0.20703125
 40
0.2109375
 40
0.21875
 40
0.2265625
 40
0.23046875
 40
0.234375
 40
0.23828125
 40
0.2421875
 40
0.244140625
 40
0.24609375
 40
0.2470703125
 40
0.248046875
 40
0.2490234375
 40
0.2495117188
 40
0.25
 40
0.2504882812
 40
0.2509765625
 40
0.251953125
 40
0.2529296875
 40
0.25390625
 40
0.255859375
 40
0.2578125
 40
0.26171875
 40
0.265625
 40
0.26953125
 40
0.2734375
 40
0.28125
 40
0.2890625
 40
0.29296875
 40
0.296875
 40
0.30078125
 40
0.3046875
 40
0.306640625
 40
0.30859375
 40
0.310546875
 40
0.3115234375
 40
0.3120117188
 40
0.3125
 40
0.3129882812
 40
0.3134765625
 40
0.314453125
 40
0.31640625
 40
0.318359375
 40
0.3203125
 40
0.32421875
 40
0.328125
 40
0.33203125
 40
0.3359375
 40
0.34375
 40
0.3515625
 40
0.35546875
 40
0.359375
 40
0.36328125
 40
0.3671875
 40
0.369140625
 40
0.37109375
 40
0.3720703125
 40
0.373046875
 40
0.3740234375
 40
0.3745117188
 40
0.375
 40
0.3754882812
 40
0.3759765625
 40
0.376953125
 40
0.3779296875
 40
0.37890625
 40
0.380859375
 40
0.3828125
 40
0.38671875
 40
0.390625
 40
0.39453125
 40
0.3984375
 40
0.40625
 40
0.4140625
 40
0.41796875
 40
0.421875
 40
0.42578125
 40
0.4296875
 40
0.431640625
 40
0.43359375
 40
0.4345703125
 40
0.435546875
 40
0.4365234375
 40
0.4370117188
 40
0.4375
 40
0.4379882812
 40
0.4384765625
 40
0.439453125
 40
0.4404296875
 40
0.44140625
 40
0.443359375
 40
0.4453125
 40
0.44921875
 40
0.453125
 40
0.45703125
 40
0.4609375
 40
0.46875
 40
0.4765625
 40
0.48046875
 40
0.484375
 40
0.48828125
 40
0.4921875
 40
0.494140625
 40
0.49609375
 40
0.4970703125
 40
0.498046875
 40
0.4990234375
 40
0.4995117188
 40
0.5
 40
0.5004882812
 40
0.5009765625
 40
0.501953125
 40
0.5029296875
 40
0.50390625
 40
0.505859375
 40
0.5078125
 40
0.51171875
 40
0.515625
 40
0.51953125
 40
0.5234375
 40
0.53125
 40
0.5390625
 40
0.54296875
 40
0.546875
 40
0.55078125
 40
0.5546875
 40
0.556640625
 40
0.55859375
 40
0.5595703125
 40
0.560546875
 40
0.5615234375
 40
0.5620117188
 40
0.5625
 40
0.5629882812
 40
0.5634765625
 40
0.564453125
 40
0.5654296875
 40
0.56640625
 40
0.568359375
 40
0.5703125
 40
0.57421875
 40
0.578125
 40
0.58203125
 40
0.5859375
 40
0.59375
 40
0.6015625
 40
0.60546875
 40
0.609375
 40
0.61328125
 40
0.6171875
 40
0.619140625
 40
0.62109375
 40
0.6220703125
 40
0.623046875
 40
0.6240234375
 40
0.6245117188
 40
0.625
 40
0.6254882812
 40
0.6259765625
 40
0.626953125
 40
0.6279296875
 40
0.62890625
 40
0.630859375
 40
0.6328125
 40
0.63671875
 40
0.640625
 40
0.64453125
 40
0.6484375
 40
0.65625
 40
0.6640625
 40
0.66796875
 40
0.671875
 40
0.67578125
 40
0.6796875
 40
0.681640625
 40
0.68359375
 40
0.6845703125
 40
0.685546875
 40
0.6865234375
 40
0.6870117188
 40
0.6872558594
 40
0.6875
 40
0.6877441406
 40
0.6879882812
 40
0.6884765625
 40
0.689453125
 40
0.6904296875
 40
0.69140625
 40
0.693359375
 40
0.6953125
 40
0.69921875
 40
0.703125
 40
0.70703125
 40
0.7109375
 40
0.71875
 40
0.7265625
 40
0.73046875
 40
0.734375
 40
0.73828125
 40
0.7421875
 40
0.744140625
 40
0.74609375
 40
0.7470703125
 40
0.748046875
 40
0.7490234375
 40
0.7495117188
 40
0.7497558594
 40
0.75
 40
0.7502441406
 40
0.7504882812
 40
0.7509765625
 40
0.751953125
 40
0.7529296875
 40
0.75390625
 40
0.755859375
 40
0.7578125
 40
0.76171875
 40
0.765625
 40
0.76953125
 40
0.7734375
 40
0.78125
 40
0.7890625
 40
0.79296875
 40
0.796875
 40
0.80078125
 40
0.8046875
 40
0.806640625
 40
0.80859375
 40
0.8095703125
 40
0.810546875
 40
0.8115234375
 40
0.8120117188
 40
0.8125
 40
0.8129882812
 40
0.8134765625
 40
0.814453125
 40
0.8154296875
 40
0.81640625
 40
0.818359375
 40
0.8203125
 40
0.82421875
 40
0.828125
 40
0.83203125
 40
0.8359375
 40
0.84375
 40
0.8515625
 40
0.85546875
 40
0.859375
 40
0.86328125
 40
0.8671875
 40
0.869140625
 40
0.87109375
 40
0.8720703125
 40
0.873046875
 40
0.8740234375
 40
0.8745117188
 40
0.875
 40
0.8754882812
 40
0.8759765625
 40
0.876953125
 40
0.8779296875
 40
0.87890625
 40
0.880859375
 40
0.8828125
 40
0.88671875
 40
0.890625
 40
0.89453125
 40
0.8984375
 40
0.90625
 40
0.9140625
 40
0.91796875
 40
0.921875
 40
0.92578125
 40
0.9296875
 40
0.931640625
 40
0.93359375
 40
0.9345703125
 40
0.935546875
 40
0.9365234375
 40
0.9370117188
 40
0.9372558594
 40
0.9375
 40
0.9377441406
 40
0.9379882812
 40
0.9384765625
 40
0.939453125
 40
0.9404296875
 40
0.94140625
 40
0.943359375
 40
0.9453125
 40
0.94921875
 40
0.953125
 40
0.95703125
 40
0.9609375
 40
0.96875
 40
0.9765625
 40
0.984375
 40
1.0
 40
1.0
 40
1.0
 40
1.0
 10
11.1367463125
 20
9.7536717552
 30
0.0
 10
11.1364391008
 20
9.7568262473
 30
0.0
 10
11.1359782833
 20
9.7615579855
 30
0.0
 10
11.1353638599
 20
9.7678669697
 30
0.0
 10
11.1349030426
 20
9.7725987079
 30
0.0
 10
11.1345190276
 20
9.776541823
 30
0.0
 10
11.1342118168
 20
9.7796963152
 30
0.0
 10
11.1339814053
 20
9.782062184
 30
0.0
 10
11.1337510069
 20
9.7844280544
 30
0.0
 10
11.1335589673
 20
9.7863996078
 30
0.0
 10
11.1334054274
 20
9.7879768623
 30
0.0
 10
11.133309256
 20
9.7889626195
 30
0.0
 10
11.1332327975
 20
9.7897512869
 30
0.0
 10
11.133174143
 20
9.7903426188
 30
0.0
 10
11.1331294337
 20
9.7908359318
 30
0.0
 10
11.1330843149
 20
9.7912293791
 30
0.0
 10
11.1330760282
 20
9.791527752
 30
0.0
 10
11.1329702075
 20
9.7918135767
 30
0.0
 10
11.1328631832
 20
9.7921990595
 30
0.0
 10
11.1327177136
 20
9.7926794092
 30
0.0
 10
11.1325481534
 20
9.7932564725
 30
0.0
 10
11.1323203256
 20
9.7940256654
 30
0.0
 10
11.1320361392
 20
9.7949872335
 30
0.0
 10
11.1315811066
 20
9.7965256995
 30
0.0
 10
11.1310124306
 20
9.7984487967
 30
0.0
 10
11.1303299701
 20
9.800756507
 30
0.0
 10
11.1296475229
 20
9.803064219
 30
0.0
 10
11.1287375885
 20
9.8061411678
 30
0.0
 10
11.1276001724
 20
9.809987354
 30
0.0
 10
11.1264627551
 20
9.81383354
 30
0.0
 10
11.1255528225
 20
9.8169104892
 30
0.0
 10
11.1248703699
 20
9.8192182
 30
0.0
 10
11.1241879296
 20
9.821525915
 30
0.0
 10
11.1236191908
 20
9.8234489976
 30
0.0
 10
11.1231642862
 20
9.8249874934
 30
0.0
 10
11.1228797739
 20
9.8259489857
 30
0.0
 10
11.1226526152
 20
9.8267183342
 30
0.0
 10
11.1224810109
 20
9.8272949221
 30
0.0
 10
11.1223419369
 20
9.8277767592
 30
0.0
 10
11.1222218642
 20
9.8281592074
 30
0.0
 10
11.1221558927
 20
9.8284542997
 30
0.0
 10
11.1219979958
 20
9.8287178781
 30
0.0
 10
11.1218195774
 20
9.8290803242
 30
0.0
 10
11.1215855373
 20
9.829529605
 30
0.0
 10
11.1213094049
 20
9.8300703586
 30
0.0
 10
11.1209395812
 20
9.8307907987
 30
0.0
 10
11.1204778656
 20
9.8316915422
 30
0.0
 10
11.1197388055
 20
9.8331326237
 30
0.0
 10
11.1188150884
 20
9.8349340127
 30
0.0
 10
11.1177065816
 20
9.8370956636
 30
0.0
 10
11.1165980872
 20
9.8392573187
 30
0.0
 10
11.1151200903
 20
9.8421395241
 30
0.0
 10
11.1132725957
 20
9.8457422813
 30
0.0
 10
11.1114251002
 20
9.8493450382
 30
0.0
 10
11.109947105
 20
9.8522272442
 30
0.0
 10
11.1088386054
 20
9.8543888972
 30
0.0
 10
11.1077301179
 20
9.856550556
 30
0.0
 10
11.1068063408
 20
9.8583519205
 30
0.0
 10
11.1060674031
 20
9.8597930519
 30
0.0
 10
11.1056053758
 20
9.8606936683
 30
0.0
 10
11.1052361919
 20
9.8614143694
 30
0.0
 10
11.1049581047
 20
9.8619543257
 30
0.0
 10
11.1047301806
 20
9.8624061009
 30
0.0
 10
11.1045392845
 20
9.8627634579
 30
0.0
 10
11.1044194938
 20
9.8630425783
 30
0.0
 10
11.104210456
 20
9.8632793198
 30
0.0
 10
11.1039629141
 20
9.8636097787
 30
0.0
 10
11.1036427906
 20
9.8640177733
 30
0.0
 10
11.1032632208
 20
9.8645095408
 30
0.0
 10
11.1027555285
 20
9.8651644715
 30
0.0
 10
11.1021214607
 20
9.8659833949
 30
0.0
 10
11.1011066463
 20
9.867293527
 30
0.0
 10
11.0998382332
 20
9.8689312419
 30
0.0
 10
11.0983160925
 20
9.8708964785
 30
0.0
 10
11.0967939638
 20
9.8728617207
 30
0.0
 10
11.0947644548
 20
9.8754820417
 30
0.0
 10
11.0922275699
 20
9.8787574438
 30
0.0
 10
11.0896906842
 20
9.8820328452
 30
0.0
 10
11.0876611766
 20
9.8846531673
 30
0.0
 10
11.0861390435
 20
9.8866184063
 30
0.0
 10
11.0846169193
 20
9.8885836552
 30
0.0
 10
11.083348455
 20
9.8902213318
 30
0.0
 10
11.082333745
 20
9.8915315421
 30
0.0
 10
11.0816994114
 20
9.8923502663
 30
0.0
 10
11.0811922648
 20
9.8930056057
 30
0.0
 10
11.080811028
 20
9.8934961245
 30
0.0
 10
11.08049612
 20
9.8939080262
 30
0.0
 10
11.0802379375
 20
9.8942305138
 30
0.0
 10
11.0800613953
 20
9.8944915991
 30
0.0
 10
11.0798196028
 20
9.894679323
 30
0.0
 10
11.0795200055
 20
9.8949552476
 30
0.0
 10
11.0791376889
 20
9.8952913612
 30
0.0
 10
11.0786822562
 20
9.8956984609
 30
0.0
 10
11.0780738435
 20
9.8962399459
 30
0.0
 10
11.0773137279
 20
9.8969172524
 30
0.0
 10
11.0760973192
 20
9.8980006911
 30
0.0
 10
11.0745768851
 20
9.8993550758
 30
0.0
 10
11.0727523313
 20
9.9009803004
 30
0.0
 10
11.0709277862
 20
9.9026055349
 30
0.0
 10
11.0684950565
 20
9.9047725109
 30
0.0
 10
11.0654541451
 20
9.9074812316
 30
0.0
 10
11.0624132345
 20
9.9101899536
 30
0.0
 10
11.0599805034
 20
9.9123569275
 30
0.0
 10
11.0581559623
 20
9.9139821682
 30
0.0
 10
11.0563313936
 20
9.9156073696
 30
0.0
 10
11.0548110058
 20
9.9169618267
 30
0.0
 10
11.0535945027
 20
9.9180451177
 30
0.0
 10
11.0526826523
 20
9.9188583365
 30
0.0
 10
11.051921101
 20
9.9195336315
 30
0.0
 10
11.0513913041
 20
9.920011023
 30
0.0
 10
11.0510834275
 20
9.920276503
 30
0.0
 10
11.0508669868
 20
9.9204962198
 30
0.0
 10
11.0505952469
 20
9.9206371668
 30
0.0
 10
11.0502522161
 20
9.9208525719
 30
0.0
 10
11.049642925
 20
9.9212167295
 30
0.0
 10
11.0487772078
 20
9.9217436472
 30
0.0
 10
11.047736336
 20
9.9223730838
 30
0.0
 10
11.0463492094
 20
9.9232133333
 30
0.0
 10
11.0446150601
 20
9.9242633017
 30
0.0
 10
11.0425341843
 20
9.9255234111
 30
0.0
 10
11.0404532809
 20
9.9267834811
 30
0.0
 10
11.0376787526
 20
9.9284635881
 30
0.0
 10
11.034210589
 20
9.9305637173
 30
0.0
 10
11.0307424264
 20
9.9326638477
 30
0.0
 10
11.0279678966
 20
9.9343439529
 30
0.0
 10
11.0258869979
 20
9.9356040286
 30
0.0
 10
11.0238061043
 20
9.9368641164
 30
0.0
 10
11.0220720103
 20
9.937914152
 30
0.0
 10
11.020684771
 20
9.9387542645
 30
0.0
 10
11.0198176646
 20
9.9392791437
 30
0.0
 10
11.019124167
 20
9.9396994846
 30
0.0
 10
11.0186035303
 20
9.9400135424
 30
0.0
 10
11.0181712999
 20
9.9402790679
 30
0.0
 10
11.017821852
 20
9.9404829415
 30
0.0
 10
11.0175697765
 20
9.9406592008
 30
0.0
 10
11.0172794914
 20
9.9407463173
 30
0.0
 10
11.0169057917
 20
9.9408936114
 30
0.0
 10
11.0164340877
 20
9.9410670455
 30
0.0
 10
11.0158700031
 20
9.9412797394
 30
0.0
 10
11.0151172056
 20
9.9415617339
 30
0.0
 10
11.0141764431
 20
9.941914774
 30
0.0
 10
11.0126710922
 20
9.9424793324
 30
0.0
 10
11.0107894485
 20
9.9431851354
 30
0.0
 10
11.0085314568
 20
9.9440320539
 30
0.0
 10
11.0062734702
 20
9.9448789845
 30
0.0
 10
11.0032628197
 20
9.9460082211
 30
0.0
 10
10.9994995072
 20
9.9474197684
 30
0.0
 10
10.9957361943
 20
9.9488313147
 30
0.0
 10
10.9927255444
 20
9.949960553
 30
0.0
 10
10.9904675559
 20
9.9508074784
 30
0.0
 10
10.9882095714
 20
9.9516544166
 30
0.0
 10
10.9863279055
 20
9.9523601584
 30
0.0
 10
10.9848225998
 20
9.9529248416
 30
0.0
 10
10.9838817221
 20
9.9532775641
 30
0.0
 10
10.9831291612
 20
9.9535602105
 30
0.0
 10
10.9825643539
 20
9.9537709127
 30
0.0
 10
10.9820949109
 20
9.9539505783
 30
0.0
 10
10.9817165985
 20
9.9540851588
 30
0.0
 10
10.9814404001
 20
9.954211102
 30
0.0
 10
10.9811354373
 20
9.95424159
 30
0.0
 10
10.980738868
 20
9.9543155843
 30
0.0
 10
10.980239709
 20
9.9543966372
 30
0.0
 10
10.9796421938
 20
9.9544987974
 30
0.0
 10
10.9788449914
 20
9.9546333007
 30
0.0
 10
10.977848665
 20
9.9548020153
 30
0.0
 10
10.976254444
 20
9.9550716315
 30
0.0
 10
10.9742617016
 20
9.9554087641
 30
0.0
 10
10.9718703963
 20
9.955813275
 30
0.0
 10
10.9694790949
 20
9.9562177987
 30
0.0
 10
10.9662906916
 20
9.9567571593
 30
0.0
 10
10.9623051879
 20
9.9574313616
 30
0.0
 10
10.9583196841
 20
9.9581055628
 30
0.0
 10
10.955131281
 20
9.9586449252
 30
0.0
 10
10.952739979
 20
9.9590494434
 30
0.0
 10
10.9503486758
 20
9.9594539753
 30
0.0
 10
10.9483559269
 20
9.9597910425
 30
0.0
 10
10.9467617193
 20
9.960060792
 30
0.0
 10
10.9457653587
 20
9.9602291673
 30
0.0
 10
10.9449682264
 20
9.9603643673
 30
0.0
 10
10.9443704973
 20
9.9604643988
 30
0.0
 10
10.9438720077
 20
9.9605521116
 30
0.0
 10
10.9434740727
 20
9.9606125184
 30
0.0
 10
10.9431732805
 20
9.9606845021
 30
0.0
 10
10.9428814236
 20
9.9606546531
 30
0.0
 10
10.9424891599
 20
9.960650426
 30
0.0
 10
10.941999901
 20
9.9606329377
 30
0.0
 10
10.9414123321
 20
9.9606171756
 30
0.0
 10
10.9406290669
 20
9.9605943348
 30
0.0
 10
10.9396499306
 20
9.9605664087
 30
0.0
 10
10.9380833432
 20
9.9605213776
 30
0.0
 10
10.9361250984
 20
9.9604652086
 30
0.0
 10
10.9337752092
 20
9.9603977545
 30
0.0
 10
10.9314253187
 20
9.960330314
 30
0.0
 10
10.9282921319
 20
9.9602403887
 30
0.0
 10
10.9243756482
 20
9.9601279837
 30
0.0
 10
10.9204591646
 20
9.9600155776
 30
0.0
 10
10.9173259775
 20
9.9599256542
 30
0.0
 10
10.9149760879
 20
9.959858208
 30
0.0
 10
10.9126261957
 20
9.9597907753
 30
0.0
 10
10.9106679602
 20
9.9597345397
 30
0.0
 10
10.9091013537
 20
9.9596896444
 30
0.0
 10
10.908122266
 20
9.9596613729
 30
0.0
 10
10.9073389011
 20
9.959639241
 30
0.0
 10
10.9067516369
 20
9.9596213133
 30
0.0
 10
10.9062614245
 20
9.9596106004
 30
0.0
 10
10.9058711062
 20
9.9595925502
 30
0.0
 10
10.905573308
 20
9.9596049159
 30
0.0
 10
10.905294822
 20
9.9595184083
 30
0.0
 10
10.9049167613
 20
9.9594376026
 30
0.0
 10
10.9044465
 20
9.9593247457
 30
0.0
 10
10.9038811958
 20
9.9591943895
 30
0.0
 10
10.9031278028
 20
9.9590188097
 30
0.0
 10
10.902185943
 20
9.9587999415
 30
0.0
 10
10.9006790337
 20
9.9584494134
 30
0.0
 10
10.8987953743
 20
9.9580113696
 30
0.0
 10
10.8965349927
 20
9.9574856672
 30
0.0
 10
10.8942746086
 20
9.9569599781
 30
0.0
 10
10.891260764
 20
9.9562590546
 30
0.0
 10
10.8874934578
 20
9.955382902
 30
0.0
 10
10.883726152
 20
9.9545067482
 30
0.0
 10
10.8807123069
 20
9.9538058266
 30
0.0
 10
10.8784519243
 20
9.953280132
 30
0.0
 10
10.8761915367
 20
9.9527544502
 30
0.0
 10
10.8743078963
 20
9.9523163422
 30
0.0
 10
10.8728009483
 20
9.9519659449
 30
0.0
 10
10.8718591869
 20
9.9517467439
 30
0.0
 10
10.8711055919
 20
9.9515718472
 30
0.0
 10
10.8705409048
 20
9.951439404
 30
0.0
 10
10.8700687125
 20
9.9513330768
 30
0.0
 10
10.8696945914
 20
9.9512389494
 30
0.0
 10
10.8694040743
 20
9.9511931253
 30
0.0
 10
10.869151446
 20
9.9510527483
 30
0.0
 10
10.8688013732
 20
9.9508986075
 30
0.0
 10
10.8683683232
 20
9.9506945995
 30
0.0
 10
10.8678467195
 20
9.9504546404
 30
0.0
 10
10.8671519267
 20
9.9501330008
 30
0.0
 10
10.8662832033
 20
9.9497315314
 30
0.0
 10
10.8648933758
 20
9.9490888561
 30
0.0
 10
10.8631560468
 20
9.9482856232
 30
0.0
 10
10.8610712711
 20
9.9473216961
 30
0.0
 10
10.8589864903
 20
9.9463577817
 30
0.0
 10
10.8562067844
 20
9.9450725581
 30
0.0
 10
10.8527321514
 20
9.94346603
 30
0.0
 10
10.8492575186
 20
9.9418595016
 30
0.0
 10
10.8464778124
 20
9.9405742785
 30
0.0
 10
10.8443930322
 20
9.9396103624
 30
0.0
 10
10.8423082544
 20
9.9386464418
 30
0.0
 10
10.8405709322
 20
9.9378431885
 30
0.0
 10
10.8391810907
 20
9.9372005549
 30
0.0
 10
10.8383124029
 20
9.9367989793
 30
0.0
 10
10.8376175371
 20
9.9364775577
 30
0.0
 10
10.8370961565
 20
9.9362369325
 30
0.0
 10
10.8366624084
 20
9.9360350085
 30
0.0
 10
10.8363573408
 20
9.9358964152
 30
0.0
 10
10.8361852711
 20
9.9358129196
 30
0.0
 10
10.8360498673
 20
9.9357624097
 30
0.0
 10
10.8359387423
 20
9.9356656021
 30
0.0
 10
10.835782107
 20
9.9355526745
 30
0.0
 10
10.8355119408
 20
9.9353475271
 30
0.0
 10
10.8351239262
 20
9.9350583931
 30
0.0
 10
10.8346591917
 20
9.9347097485
 30
0.0
 10
10.8340392372
 20
9.9342454771
 30
0.0
 10
10.8332643998
 20
9.9336649365
 30
0.0
 10
10.8320246009
 20
9.9327361841
 30
0.0
 10
10.8304748725
 20
9.931575205
 30
0.0
 10
10.8286151898
 20
9.9301820466
 30
0.0
 10
10.8267555093
 20
9.9287888838
 30
0.0
 10
10.8242759346
 20
9.9269313349
 30
0.0
 10
10.8211764666
 20
9.9246093983
 30
0.0
 10
10.8180769982
 20
9.922287462
 30
0.0
 10
10.8155974239
 20
9.9204299126
 30
0.0
 10
10.8137377422
 20
9.9190367514
 30
0.0
 10
10.8118780643
 20
9.9176435868
 30
0.0
 10
10.810328321
 20
9.9164826269
 30
0.0
 10
10.8090885524
 20
9.9155538354
 30
0.0
 10
10.8083136379
 20
9.9149733944
 30
0.0
 10
10.8076938417
 20
9.9145089186
 30
0.0
 10
10.8072286237
 20
9.9141608983
 30
0.0
 10
10.806842122
 20
9.913869811
 30
0.0
 10
10.8065692551
 20
9.9136681505
 30
0.0
 10
10.8064169469
 20
9.913549636
 30
0.0
 10
10.8062925301
 20
9.9134699897
 30
0.0
 10
10.8062070481
 20
9.9133550251
 30
0.0
 10
10.8060794912
 20
9.9132140585
 30
0.0
 10
10.8058625943
 20
9.912961627
 30
0.0
 10
10.8055494334
 20
9.9126040115
 30
0.0
 10
10.8051750563
 20
9.9121735884
 30
0.0
 10
10.8046753922
 20
9.9116001396
 30
0.0
 10
10.8040509815
 20
9.910883175
 30
0.0
 10
10.8030518297
 20
9.9097361175
 30
0.0
 10
10.8018029224
 20
9.9083022661
 30
0.0
 10
10.8003042198
 20
9.9065816571
 30
0.0
 10
10.7988055209
 20
9.9048610447
 30
0.0
 10
10.7968072544
 20
9.902566896
 30
0.0
 10
10.7943094216
 20
9.8996992098
 30
0.0
 10
10.7918115891
 20
9.8968315233
 30
0.0
 10
10.789813322
 20
9.894537375
 30
0.0
 10
10.7883146247
 20
9.8928167616
 30
0.0
 10
10.7868159162
 20
9.8910961564
 30
0.0
 10
10.7855670272
 20
9.889662293
 30
0.0
 10
10.7845678382
 20
9.8885152598
 30
0.0
 10
10.7839435221
 20
9.8877982333
 30
0.0
 10
10.7834436637
 20
9.8872249116
 30
0.0
 10
10.7830698803
 20
9.8867941001
 30
0.0
 10
10.782754862
 20
9.8864376999
 30
0.0
 10
10.7825107691
 20
9.8861467273
 30
0.0
 10
10.7823060536
 20
9.8859444896
 30
0.0
 10
10.7821839607
 20
9.885681211
 30
0.0
 10
10.7819923091
 20
9.8853514952
 30
0.0
 10
10.7817626467
 20
9.8849320348
 30
0.0
 10
10.7814828133
 20
9.8844318137
 30
0.0
 10
10.7811111826
 20
9.8837637585
 30
0.0
 10
10.7806461373
 20
9.882929064
 30
0.0
 10
10.7799023482
 20
9.8815933434
 30
0.0
 10
10.7789725145
 20
9.8799237646
 30
0.0
 10
10.7778567558
 20
9.8779202392
 30
0.0
 10
10.7767409859
 20
9.8759167221
 30
0.0
 10
10.7752532967
 20
9.873245363
 30
0.0
 10
10.7733936837
 20
9.8699061652
 30
0.0
 10
10.7715340717
 20
9.8665669667
 30
0.0
 10
10.7700463808
 20
9.8638956086
 30
0.0
 10
10.7689306159
 20
9.8618920885
 30
0.0
 10
10.7678148386
 20
9.8598885743
 30
0.0
 10
10.7668850627
 20
9.8582189605
 30
0.0
 10
10.7661411557
 20
9.8568833114
 30
0.0
 10
10.7656764105
 20
9.8560484351
 30
0.0
 10
10.7653041638
 20
9.8553807529
 30
0.0
 10
10.7650262123
 20
9.8548793923
 30
0.0
 10
10.764790662
 20
9.8544634973
 30
0.0
 10
10.7646110227
 20
9.8541265075
 30
0.0
 10
10.764452245
 20
9.8538854432
 30
0.0
 10
10.7643852598
 20
9.8535998035
 30
0.0
 10
10.7642638818
 20
9.8532345214
 30
0.0
 10
10.7641231605
 20
9.8527725765
 30
0.0
 10
10.7639495861
 20
9.8522205293
 30
0.0
 10
10.7637197982
 20
9.8514836676
 30
0.0
 10
10.7634320002
 20
9.850562864
 30
0.0
 10
10.7629718382
 20
9.8490894255
 30
0.0
 10
10.7623965277
 20
9.8472476797
 30
0.0
 10
10.7617062014
 20
9.8450375623
 30
0.0
 10
10.7610158627
 20
9.8428274509
 30
0.0
 10
10.7600954154
 20
9.8398806336
 30
0.0
 10
10.7589448549
 20
9.8361971127
 30
0.0
 10
10.7577942947
 20
9.8325135916
 30
0.0
 10
10.7568738469
 20
9.8295667746
 30
0.0
 10
10.7561835098
 20
9.8273566623
 30
0.0
 10
10.7554931774
 20
9.8251465482
 30
0.0
 10
10.7549178858
 20
9.8233047919
 30
0.0
 10
10.7544576851
 20
9.8218313749
 30
0.0
 10
10.7541699857
 20
9.8209105163
 30
0.0
 10
10.7539399956
 20
9.8201737676
 30
0.0
 10
10.7537670389
 20
9.8196213753
 30
0.0
 10
10.7536243848
 20
9.8191605102
 30
0.0
 10
10.7535216295
 20
9.8188389607
 30
0.0
 10
10.7534674362
 20
9.8186535691
 30
0.0
 10
10.7534140471
 20
9.8185191709
 30
0.0
 10
10.7534093724
 20
9.8183670152
 30
0.0
 10
10.7533861475
 20
9.8181703348
 30
0.0
 10
10.7533534207
 20
9.8178232584
 30
0.0
 10
10.753302529
 20
9.8173289437
 30
0.0
 10
10.7532432307
 20
9.8167351202
 30
0.0
 10
10.7531635475
 20
9.8159435811
 30
0.0
 10
10.7530641554
 20
9.8149540801
 30
0.0
 10
10.7529050096
 20
9.8133709216
 30
0.0
 10
10.752706118
 20
9.8113919586
 30
0.0
 10
10.7524674306
 20
9.8090172094
 30
0.0
 10
10.7522287479
 20
9.8066424585
 30
0.0
 10
10.7519105026
 20
9.8034761245
 30
0.0
 10
10.7515126966
 20
9.7995182068
 30
0.0
 10
10.7510353292
 20
9.7947687058
 30
0.0
 10
10.7503988393
 20
9.7884360376
 30
0.0
 10
10.7499214719
 20
9.7836865365
 30
0.0
 10
10.749603227
 20
9.7805202024
 30
0.0
  0
ENDSEC
  0
SECTION
  2
OBJECTS
  0
DICTIONARY
  5
C
100
AcDbDictionary
280
0
281
1
  3
ACAD_GROUP
350
D
  3
ACAD_MLINESTYLE
350
17
  3
ACAD_LAYOUT
350
1A
  3
ACAD_PLOTSETTINGS
350
19
  3
ACAD_PLOTSTYLENAME
350
E
  3
ACAD_IMAGE_DICT
350
       3C0
  3
ACAD_IMAGE_VARS
350
       3C1
  3
ACAD_TABLESTYLE
350
       3C2
  0
IMAGEDEF_REACTOR
  5
3BF
100
AcDbRasterImageDefReactor
 90
2
330
28F
  0
DICTIONARY
  5
D
102
{ACAD_REACTORS
330
C
102
}
100
AcDbDictionary
280
0
281
1
  0
ACDBDICTIONARYWDFLT
  5
E
102
{ACAD_REACTORS
330
C
102
}
100
AcDbDictionary
281
1
  3
Normal
350
F
100
AcDbDictionaryWithDefault
340
F
  0
DICTIONARY
  5
3C0
330
C
100
AcDbDictionary
281
1
  3
B7W_assy_2_img_1
350
       3C5
  0
RASTERVARIABLES
  5
3C1
330
C
100
AcDbRasterVariables
 90
0
 70
0
 71
1
 72
5
  0
DICTIONARY
  5
17
102
{ACAD_REACTORS
330
C
102
}
100
AcDbDictionary
280
0
281
1
  3
Standard
350
18
  0
DICTIONARY
  5
3C2
330
C
100
AcDbDictionary
281
1
  3
Standard
350
       3C6
  3
Standard1
350
       3C7
  0
DICTIONARY
  5
19
102
{ACAD_REACTORS
330
C
102
}
100
AcDbDictionary
281
1
  0
DICTIONARY
  5
1A
102
{ACAD_REACTORS
330
C
102
}
100
AcDbDictionary
281
1
  3
Model
350
3C3
  3
Layout1
350
3C4
  0
ACDBPLACEHOLDER
  5
F
102
{ACAD_REACTORS
330
E
102
}
  0
MLINESTYLE
  5
18
102
{ACAD_REACTORS
330
17
102
}
100
AcDbMlineStyle
  2
STANDARD
 70
0
  3

 62
256
 51
90.0
 52
90.0
 71
2
 49
0.5
 62
256
  6
BYLAYER
 49
-0.5
 62
256
  6
BYLAYER
  0
LAYOUT
  5
3C3
102
{ACAD_REACTORS
330
1A
102
}
100
AcDbPlotSettings
  1

  2
none_device
  4
ANSI_C_(22.00_x_17.00_Inches)
  6

 40
0.0
 41
0.0
 42
0.0
 43
0.0
 44
558.8
 45
431.8
 46
0.0
 47
0.0
 48
0.0
 49
0.0
140
0.0
141
0.0
142
1.0
143
1.0
 70
1024
 72
0
 73
0
 74
0
  7

 75
0
147
1.0
148
0.0
149
0.0
100
AcDbLayout
  1
Model
 70
0
 71
0
 10
0.0
 20
0.0
 11
22.0
 21
17.0
 12
0.0
 22
0.0
 32
0.0
 14
0.0
 24
0.0
 34
0.0
 15
0.0
 25
0.0
 35
0.0
146
0.0
 13
0.0
 23
0.0
 33
0.0
 16
1.0
 26
0.0
 36
0.0
 17
0.0
 27
1.0
 37
0.0
 76
0
330
20C
345
0
346
0
  0
LAYOUT
  5
3C4
102
{ACAD_REACTORS
330
1A
102
}
100
AcDbPlotSettings
  1

  2
none_device
  4
ANSI_C_(22.00_x_17.00_Inches)
  6

 40
0.0
 41
0.0
 42
0.0
 43
0.0
 44
558.8
 45
431.8
 46
0.0
 47
0.0
 48
0.0
 49
0.0
140
0.0
141
0.0
142
1.0
143
1.0
 70
0
 72
0
 73
0
 74
0
  7

 75
0
147
1.0
148
0.0
149
0.0
100
AcDbLayout
  1
Layout1
 70
0
 71
1
 10
0.0
 20
0.0
 11
22.0
 21
17.0
 12
0.0
 22
0.0
 32
0.0
 14
0.0
 24
0.0
 34
0.0
 15
0.0
 25
0.0
 35
0.0
146
0.0
 13
0.0
 23
0.0
 33
0.0
 16
1.0
 26
0.0
 36
0.0
 17
0.0
 27
1.0
 37
0.0
 76
0
330
20D
345
0
346
0
  0
IMAGEDEF
  5
3C5
102
{ACAD_REACTORS
330
3C0
330
3BF
102
}
100
AcDbRasterImageDef
 90
0
  1
B7W_assy_2_img_1.png
 10
369.0
 20
92.0
 11
0.0066666667
 21
0.0066666667
280
1
281
0
  0
TABLESTYLE
  5
3C6
102
{ACAD_REACTORS
330
3C2
330
292
330
293
102
}
330
3C2
100
AcDbTableStyle
  3
Standard
 70
0
 71
0
 40
0.06
 41
0.06
280
1
281
1
  7
Standard
140
0.18
170
1
 62
0
 63
7
283
0
  7
Standard
140
0.18
170
1
 62
0
 63
7
283
0
  7
Standard
140
0.18
170
1
 62
0
 63
7
283
0
  0
TABLESTYLE
  5
3C7
102
{ACAD_REACTORS
330
3C2
330
291
102
}
330
3C2
100
AcDbTableStyle
  3
Standard1
 70
1
 71
0
 40
0.06
 41
0.06
280
1
281
1
  7
Standard
140
0.18
170
1
 62
0
 63
7
283
0
  7
Standard
140
0.18
170
1
 62
0
 63
7
283
0
  7
Standard
140
0.18
170
1
 62
0
 63
7
283
0
  0
ENDSEC
  0
EOF
