999
DXF file: B7L_assy_2.dxf
999
Pro/ENGINEER 2014200 by Parametric Technology Corporation
  0
SECTION
  2
HEADER
  9
$ACADVER
  1
AC1021
  9
$DWGCODEPAGE
  3
ANSI_1252
  9
$EXTMAX
 10
22.0
 20
17.0
 30
0.0
  9
$EXTMIN
 10
0.0
 20
0.0
 30
0.0
  9
$LIMMIN
 10
0.0
 20
0.0
  9
$LIMMAX
 10
22.0
 20
17.0
  9
$VIEWCTR
 10
11.0
 20
8.5
  9
$VIEWSIZE
 40
17.0
  9
$CLAYER
  8
0
  9
$LTSCALE
 40
1.21
  9
$CELTYPE
  6
BYLAYER
  9
$DIMSCALE
 40
1.0
  9
$DIMASZ
 40
0.1875
  9
$DIMEXO
 40
0.0625
  9
$DIMDLI
 40
0.836
  9
$DIMEXE
 40
0.125
  9
$DIMCEN
 40
0.198
  9
$DIMLFAC
 40
1.0
  9
$DIMBLK
  1
_FILLED
  9
$DIMTXT
 40
0.1
  9
$DIMTOL
 70
0
  9
$DIMLIM
 70
0
  9
$DIMTFAC
 40
1.0
  9
$DIMGAP
 40
0.09
  9
$DIMDSEP
 70
46
  9
$AUNITS
 70
0
  9
$PDMODE
 70
3
  9
$PDSIZE
 40
0.3125
  9
$HANDSEED
  5
3B0
  9
$TILEMODE
 70
1
  9
$MEASUREMENT
 70
0
  9
$INSUNITS
 70
1
  0
ENDSEC
  0
SECTION
  2
CLASSES
  0
CLASS
  1
ACDBDICTIONARYWDFLT
  2
AcDbDictionaryWithDefault
  3
AutoCAD 2000
 90
0
 91
1
280
0
281
0
  0
CLASS
  1
ACDBPLACEHOLDER
  2
AcDbPlaceHolder
  3
AutoCAD 2000
 90
0
 91
1
280
0
281
0
  0
CLASS
  1
LAYOUT
  2
AcDbLayout
  3
AutoCAD 2000
 90
0
 91
0
280
0
281
0
  0
CLASS
  1
RASTERVARIABLES
  2
AcDbRasterVariables
  3
ISM
 90
0
 91
1
280
0
281
0
  0
CLASS
  1
IMAGEDEF
  2
AcDbRasterImageDef
  3
ISM
 90
0
 91
1
280
0
281
0
  0
CLASS
  1
IMAGEDEF_REACTOR
  2
AcDbRasterImageDefReactor
  3
ISM
 90
0
 91
1
280
0
281
0
  0
CLASS
  1
IMAGE
  2
AcDbRasterImage
  3
ISM
 90
127
 91
1
280
0
281
1
  0
CLASS
  1
TABLESTYLE
  2
AcDbTableStyle
  3
ObjectDBX Classes
 90
2047
 91
1
280
0
281
0
  0
CLASS
  1
ACAD_TABLE
  2
AcDbTable
  3
ObjectDBX Classes
 90
1025
 91
3
280
0
281
1
  0
ENDSEC
  0
SECTION
  2
TABLES
  0
TABLE
  2
VPORT
  5
8
100
AcDbSymbolTable
 70
2
  0
VPORT
  5
1F4
100
AcDbSymbolTableRecord
100
AcDbViewportTableRecord
  2
*ACTIVE
 70
0
 10
0.0
 20
0.0
 11
1.0
 21
1.0
 12
11.0
 22
8.5
 13
0.0
 23
0.0
 14
1.0
 24
1.0
 15
0.0
 25
0.0
 16
0.0
 26
0.0
 36
1.0
 17
0.0
 27
0.0
 37
0.0
 40
17.0
 41
1.2941176471
 42
50.0
 43
0.0
 44
0.0
 50
0.0
 51
0.0
 71
0
 72
100
 73
1
 74
1
 75
0
 76
0
 77
0
 78
0
  0
ENDTAB
  0
TABLE
  2
LTYPE
  5
5
100
AcDbSymbolTable
 70
6
  0
LTYPE
  5
14
100
AcDbSymbolTableRecord
100
AcDbLinetypeTableRecord
  2
BYBLOCK
 70
0
  3

 72
65
 73
0
 40
0.0
  0
LTYPE
  5
15
100
AcDbSymbolTableRecord
100
AcDbLinetypeTableRecord
  2
BYLAYER
 70
0
  3

 72
65
 73
0
 40
0.0
  0
LTYPE
  5
16
100
AcDbSymbolTableRecord
100
AcDbLinetypeTableRecord
  2
CONTINUOUS
 70
64
  3
Solid line
 72
65
 73
0
 40
0.0
  0
LTYPE
  5
1F5
100
AcDbSymbolTableRecord
100
AcDbLinetypeTableRecord
  2
CENTER
 70
64
  3
____ _ ____ _ ____ _ ____ _ ____ _ ____ _ ____
 72
65
 73
4
 40
0.6
 49
0.375
 74
0
 49
-0.075
 74
0
 49
0.075
 74
0
 49
-0.075
 74
0
  0
LTYPE
  5
1F6
100
AcDbSymbolTableRecord
100
AcDbLinetypeTableRecord
  2
HIDDEN
 70
64
  3
- - - - - - - - - - - - - - - - - - - -
 72
65
 73
2
 40
0.2
 49
0.1
 74
0
 49
-0.1
 74
0
  0
LTYPE
  5
1F7
100
AcDbSymbolTableRecord
100
AcDbLinetypeTableRecord
  2
PHANTOM
 70
64
  3
_____ _ _ _____ _ _ _____ _ _ _____
 72
65
 73
6
 40
0.8
 49
0.45
 74
0
 49
-0.05
 74
0
 49
0.1
 74
0
 49
-0.05
 74
0
 49
0.1
 74
0
 49
-0.05
 74
0
  0
LTYPE
  5
1F8
100
AcDbSymbolTableRecord
100
AcDbLinetypeTableRecord
  2
DOT
 70
64
  3
. . . . . . . . . . . . . . . . . . . .
 72
65
 73
2
 40
0.2
 49
0.1
 74
0
 49
-0.1
 74
0
  0
LTYPE
  5
1F9
100
AcDbSymbolTableRecord
100
AcDbLinetypeTableRecord
  2
DASHED
 70
64
  3
- - - - - - - - - - - - - - - - - - - -
 72
65
 73
2
 40
0.2
 49
0.1
 74
0
 49
-0.1
 74
0
  0
ENDTAB
  0
TABLE
  2
LAYER
  5
2
100
AcDbSymbolTable
 70
36
  0
LAYER
  5
10
100
AcDbSymbolTableRecord
100
AcDbLayerTableRecord
  2
0
 70
0
 62
7
  6
CONTINUOUS
370
-3
390
F
  0
LAYER
  5
1FA
100
AcDbSymbolTableRecord
100
AcDbLayerTableRecord
  2
DEFAULT_1
 70
0
 62
7
  6
CENTER
370
-3
390
F
  0
LAYER
  5
1FB
100
AcDbSymbolTableRecord
100
AcDbLayerTableRecord
  2
DEFAULT_2
 70
0
 62
8
  6
HIDDEN
370
-3
390
F
  0
LAYER
  5
1FC
100
AcDbSymbolTableRecord
100
AcDbLayerTableRecord
  2
DEFAULT_3
 70
0
 62
7
  6
PHANTOM
370
-3
390
F
  0
LAYER
  5
1FD
100
AcDbSymbolTableRecord
100
AcDbLayerTableRecord
  2
01___PRT_ALL_DTM_PLN
 70
0
 62
7
  6
CONTINUOUS
370
-3
390
F
  0
LAYER
  5
1FE
100
AcDbSymbolTableRecord
100
AcDbLayerTableRecord
  2
01___PRT_DEF_DTM_PLN
 70
0
 62
7
  6
CONTINUOUS
370
-3
390
F
  0
LAYER
  5
1FF
100
AcDbSymbolTableRecord
100
AcDbLayerTableRecord
  2
02___PRT_ALL_AXES
 70
0
 62
7
  6
CONTINUOUS
370
-3
390
F
  0
LAYER
  5
200
100
AcDbSymbolTableRecord
100
AcDbLayerTableRecord
  2
03___PRT_ALL_CURVES
 70
0
 62
7
  6
CONTINUOUS
370
-3
390
F
  0
LAYER
  5
201
100
AcDbSymbolTableRecord
100
AcDbLayerTableRecord
  2
04___PRT_ALL_DTM_PNT
 70
0
 62
7
  6
CONTINUOUS
370
-3
390
F
  0
LAYER
  5
202
100
AcDbSymbolTableRecord
100
AcDbLayerTableRecord
  2
05___PRT_ALL_DTM_CSYS
 70
0
 62
7
  6
CONTINUOUS
370
-3
390
F
  0
LAYER
  5
203
100
AcDbSymbolTableRecord
100
AcDbLayerTableRecord
  2
05___PRT_DEF_DTM_CSYS
 70
0
 62
7
  6
CONTINUOUS
370
-3
390
F
  0
LAYER
  5
204
100
AcDbSymbolTableRecord
100
AcDbLayerTableRecord
  2
06___PRT_ALL_SURFS
 70
0
 62
7
  6
CONTINUOUS
370
-3
390
F
  0
LAYER
  5
205
100
AcDbSymbolTableRecord
100
AcDbLayerTableRecord
  2
DATUM_PLANES
 70
0
 62
7
  6
CONTINUOUS
370
-3
390
F
  0
LAYER
  5
206
100
AcDbSymbolTableRecord
100
AcDbLayerTableRecord
  2
PORT_AREAS
 70
0
 62
7
  6
CONTINUOUS
370
-3
390
F
  0
LAYER
  5
207
100
AcDbSymbolTableRecord
100
AcDbLayerTableRecord
  2
SUNNBOMCOSMETIC
 70
0
 62
7
  6
CONTINUOUS
370
-3
390
F
  0
LAYER
  5
208
100
AcDbSymbolTableRecord
100
AcDbLayerTableRecord
  2
SUNNBOMSTAMPING
 70
0
 62
7
  6
CONTINUOUS
370
-3
390
F
  0
LAYER
  5
209
100
AcDbSymbolTableRecord
100
AcDbLayerTableRecord
  2
THREADS
 70
0
 62
7
  6
CONTINUOUS
370
-3
390
F
  0
ENDTAB
  0
TABLE
  2
STYLE
  5
3
100
AcDbSymbolTable
 70
1
  0
STYLE
  5
11
100
AcDbSymbolTableRecord
100
AcDbTextStyleTableRecord
  2
STANDARD
 70
0
 40
0.0
 41
0.8
 50
0.0
 71
0
 42
0.2
  3
txt
  4

  0
STYLE
  5
20A
100
AcDbSymbolTableRecord
100
AcDbTextStyleTableRecord
  2
TEXTSTYLE_1
 70
0
 40
0.0
 41
0.8
 50
0.0
 71
0
 42
0.2
  3
gdt
  4

  0
ENDTAB
  0
TABLE
  2
VIEW
  5
6
100
AcDbSymbolTable
 70
0
  0
ENDTAB
  0
TABLE
  2
UCS
  5
7
100
AcDbSymbolTable
 70
0
  0
ENDTAB
  0
TABLE
  2
APPID
  5
9
100
AcDbSymbolTable
 70
1
  0
APPID
  5
20B
100
AcDbSymbolTableRecord
100
AcDbRegAppTableRecord
  2
ACAD
 70
0
  0
ENDTAB
  0
TABLE
  2
BLOCK_RECORD
  5
1
100
AcDbSymbolTable
 70
0
  0
BLOCK_RECORD
  5
20C
100
AcDbSymbolTableRecord
100
AcDbBlockTableRecord
  2
*Model_Space
  0
BLOCK_RECORD
  5
20D
100
AcDbSymbolTableRecord
100
AcDbBlockTableRecord
  2
*Paper_Space
  0
BLOCK_RECORD
  5
20E
100
AcDbSymbolTableRecord
100
AcDbBlockTableRecord
  2
SUN_FIRST_THIRD_ANGLE_BL0
  0
BLOCK_RECORD
  5
20F
100
AcDbSymbolTableRecord
100
AcDbBlockTableRecord
  2
*T1
  0
BLOCK_RECORD
  5
210
100
AcDbSymbolTableRecord
100
AcDbBlockTableRecord
  2
*T2
  0
BLOCK_RECORD
  5
211
100
AcDbSymbolTableRecord
100
AcDbBlockTableRecord
  2
*T3
  0
ENDTAB
  0
TABLE
  2
DIMSTYLE
  5
A
100
AcDbSymbolTable
 70
1
100
AcDbDimStyleTable
 71
0
  0
DIMSTYLE
105
212
100
AcDbSymbolTableRecord
100
AcDbDimStyleTableRecord
  2
STANDARD
 70
0
  3

  4

 40
1.0
 41
0.1875
 42
0.0625
 43
0.38
 44
0.125
 45
0.0
 46
0.0
 47
0.001
 48
0.001
140
0.1
141
0.09
142
0.0
143
25.4
144
1.0
145
0.0
146
1.0
147
0.09
 71
0.0
 72
0.0
 73
1
 74
1
 75
0
 76
0
 77
0
 78
4
170
0
171
2
172
0
173
0
174
0
175
0
176
0
177
0
178
0
270
2
271
3
272
3
273
2
274
2
275
0
280
0
281
0
282
0
283
1
284
4
285
0
286
0
287
3
288
0
340
11
278
46
  0
ENDTAB
  0
ENDSEC
  0
SECTION
  2
BLOCKS
  0
BLOCK
  5
20
100
AcDbEntity
  8
0
100
AcDbBlockBegin
  2
*Model_Space
 70
0
 10
0.0
 20
0.0
 30
0.0
  3
*Model_Space
  1

  0
ENDBLK
  5
21
100
AcDbEntity
  8
0
100
AcDbBlockEnd
  0
BLOCK
  5
1C
100
AcDbEntity
  8
0
100
AcDbBlockBegin
  2
*Paper_Space
 70
0
 10
0.0
 20
0.0
 30
0.0
  3
*Paper_Space
  1

  0
ENDBLK
  5
1D
100
AcDbEntity
  8
0
100
AcDbBlockEnd
  0
BLOCK
  5
213
100
AcDbEntity
  8
0
100
AcDbBlockBegin
 62
2
  6
CONTINUOUS
  2
SUN_FIRST_THIRD_ANGLE_BL0
 70
64
 10
20.4816717061
 20
1.2289683772
  3
SUN_FIRST_THIRD_ANGLE_BL0
  1

  0
TEXT
  5
214
100
AcDbEntity
  8
0
100
AcDbText
 62
2
  6
CONTINUOUS
 10
19.4750896608
 20
1.4136269581
  7
STANDARD
 40
0.08
  1
FIRST ANGLE
 41
0.8
 72
0
100
AcDbText
  0
TEXT
  5
215
100
AcDbEntity
  8
0
100
AcDbText
 62
2
  6
CONTINUOUS
 10
20.7842537513
 20
1.4047600029
  7
STANDARD
 40
0.08
  1
THIRD ANGLE
 41
0.8
 72
0
100
AcDbText
  0
LINE
  5
216
100
AcDbEntity
  8
0
100
AcDbLine
 62
7
  6
CONTINUOUS
 10
19.4767170086
 20
1.1727031207
 11
19.6334271527
 21
1.1717972817
  0
LINE
  5
217
100
AcDbEntity
  8
0
100
AcDbLine
 62
7
  6
CONTINUOUS
 10
19.6596964832
 20
1.1717972817
 11
19.6950230232
 21
1.171593082
  0
LINE
  5
218
100
AcDbEntity
  8
0
100
AcDbLine
 62
7
  6
CONTINUOUS
 10
19.7194818561
 20
1.1708914427
 11
19.8852396156
 21
1.1699333054
  0
LINE
  5
219
100
AcDbEntity
  8
0
100
AcDbLine
 62
7
  6
CONTINUOUS
 10
19.4758111696
 20
1.2723454088
 11
19.88525039
 21
1.3511534004
  0
LINE
  5
21A
100
AcDbEntity
  8
0
100
AcDbLine
 62
7
  6
CONTINUOUS
 10
19.88525039
 20
1.3511534004
 11
19.8831348489
 21
0.9851647912
  0
LINE
  5
21B
100
AcDbEntity
  8
0
100
AcDbLine
 62
7
  6
CONTINUOUS
 10
19.8831348489
 20
0.9851647912
 11
19.4767170086
 21
1.0658141206
  0
LINE
  5
21C
100
AcDbEntity
  8
0
100
AcDbLine
 62
7
  6
CONTINUOUS
 10
19.4767170086
 20
1.0658141206
 11
19.4779056764
 21
1.2714536432
  0
CIRCLE
  5
21D
100
AcDbEntity
  8
0
100
AcDbCircle
 62
7
  6
CONTINUOUS
 10
20.2068232291
 20
1.1717972817
 40
0.175742101
  0
CIRCLE
  5
21E
100
AcDbEntity
  8
0
100
AcDbCircle
 62
7
  6
CONTINUOUS
 10
20.2068232291
 20
1.1717972817
 40
0.1005522074
  0
LINE
  5
21F
100
AcDbEntity
  8
0
100
AcDbLine
 62
7
  6
CONTINUOUS
 10
20.2077290681
 20
1.3756110529
 11
20.2071171714
 21
1.2379342989
  0
LINE
  5
220
100
AcDbEntity
  8
0
100
AcDbLine
 62
7
  6
CONTINUOUS
 10
20.2077290681
 20
1.2016899681
 11
20.2074674401
 21
1.1428236749
  0
LINE
  5
221
100
AcDbEntity
  8
0
100
AcDbLine
 62
7
  6
CONTINUOUS
 10
20.208634907
 20
1.101141841
 11
20.2080230104
 21
0.963465087
  0
LINE
  5
222
100
AcDbEntity
  8
0
100
AcDbLine
 62
7
  6
CONTINUOUS
 10
20.0066328138
 20
1.1745147986
 11
20.1443095678
 21
1.1739029019
  0
LINE
  5
223
100
AcDbEntity
  8
0
100
AcDbLine
 62
7
  6
CONTINUOUS
 10
20.1832714155
 20
1.1727031207
 11
20.238153505
 21
1.172335442
  0
LINE
  5
224
100
AcDbEntity
  8
0
100
AcDbLine
 62
7
  6
CONTINUOUS
 10
20.2756669918
 20
1.1717972817
 11
20.407916871
 21
1.1712095044
  0
CIRCLE
  5
225
100
AcDbEntity
  8
0
100
AcDbCircle
 62
7
  6
CONTINUOUS
 10
20.7509457401
 20
1.1693297793
 40
0.1722024983
  0
CIRCLE
  5
226
100
AcDbEntity
  8
0
100
AcDbCircle
 62
7
  6
CONTINUOUS
 10
20.7509457401
 20
1.1693297793
 40
0.0985164967
  0
LINE
  5
227
100
AcDbEntity
  8
0
100
AcDbLine
 62
7
  6
CONTINUOUS
 10
20.7169767782
 20
1.170462078
 11
20.7825395137
 21
1.1682766535
  0
LINE
  5
228
100
AcDbEntity
  8
0
100
AcDbLine
 62
7
  6
CONTINUOUS
 10
20.8177513651
 20
1.1693297793
 11
20.947965719
 21
1.1693297793
  0
LINE
  5
229
100
AcDbEntity
  8
0
100
AcDbLine
 62
7
  6
CONTINUOUS
 10
20.6875370113
 20
1.170462078
 11
20.5573226574
 21
1.170462078
  0
LINE
  5
22A
100
AcDbEntity
  8
0
100
AcDbLine
 62
7
  6
CONTINUOUS
 10
20.7486811426
 20
1.1987695462
 11
20.7486811426
 21
1.1432869085
  0
LINE
  5
22B
100
AcDbEntity
  8
0
100
AcDbLine
 62
7
  6
CONTINUOUS
 10
20.7498134414
 20
1.1059210505
 11
20.7498134414
 21
0.9757066966
  0
LINE
  5
22C
100
AcDbEntity
  8
0
100
AcDbLine
 62
7
  6
CONTINUOUS
 10
20.7486811426
 20
1.2338708068
 11
20.7486811426
 21
1.3640851607
  0
LINE
  5
22D
100
AcDbEntity
  8
0
100
AcDbLine
 62
7
  6
CONTINUOUS
 10
21.0702539817
 20
1.2701043662
 11
21.4790138229
 21
1.3448360823
  0
LINE
  5
22E
100
AcDbEntity
  8
0
100
AcDbLine
 62
7
  6
CONTINUOUS
 10
21.4790138229
 20
1.3448360823
 11
21.4790138229
 21
0.9779712941
  0
LINE
  5
22F
100
AcDbEntity
  8
0
100
AcDbLine
 62
7
  6
CONTINUOUS
 10
21.4790138229
 20
0.9779712941
 11
21.069121683
 21
1.0617614
  0
LINE
  5
230
100
AcDbEntity
  8
0
100
AcDbLine
 62
7
  6
CONTINUOUS
 10
21.0702539817
 20
1.2701043662
 11
21.069121683
 21
1.0617614
  0
LINE
  5
231
100
AcDbEntity
  8
0
100
AcDbLine
 62
7
  6
CONTINUOUS
 10
21.4790138229
 20
1.1693297793
 11
21.3159628059
 21
1.1693297793
  0
LINE
  5
232
100
AcDbEntity
  8
0
100
AcDbLine
 62
7
  6
CONTINUOUS
 10
21.2876553377
 20
1.1693297793
 11
21.2502894796
 21
1.1693297793
  0
LINE
  5
233
100
AcDbEntity
  8
0
100
AcDbLine
 62
7
  6
CONTINUOUS
 10
21.2208497126
 20
1.1659328831
 11
21.0713862804
 21
1.1659328831
  0
LINE
  5
234
100
AcDbEntity
  8
0
100
AcDbLine
 62
7
  6
CONTINUOUS
 10
20.4796138713
 20
1.5284908897
 11
20.4766766948
 21
0.9294458646
  0
ENDBLK
  5
235
100
AcDbEntity
  8
0
  6
BYBLOCK
 62
0
100
AcDbBlockEnd
  0
BLOCK
  5
236
100
AcDbEntity
  8
0
100
AcDbBlockBegin
  2
*T1
 70
1
 10
0.0
 20
0.0
  3
*T1
  1

  0
LINE
  5
237
100
AcDbEntity
  8
0
100
AcDbLine
 62
2
  6
CONTINUOUS
 10
9.275
 20
0.0
 11
-0.0
 21
0.0
  0
LINE
  5
238
100
AcDbEntity
  8
0
100
AcDbLine
 62
2
  6
CONTINUOUS
 10
9.275
 20
0.0
 11
9.275
 21
1.25
  0
LINE
  5
239
100
AcDbEntity
  8
0
100
AcDbLine
 62
2
  6
CONTINUOUS
 10
9.275
 20
0.625
 11
-0.0
 21
0.625
  0
LINE
  5
23A
100
AcDbEntity
  8
0
100
AcDbLine
 62
2
  6
CONTINUOUS
 10
9.275
 20
1.25
 11
-0.0
 21
1.25
  0
LINE
  5
23B
100
AcDbEntity
  8
0
100
AcDbLine
 62
2
  6
CONTINUOUS
 10
6.8
 20
0.0
 11
6.8
 21
1.25
  0
LINE
  5
23C
100
AcDbEntity
  8
0
100
AcDbLine
 62
2
  6
CONTINUOUS
 10
6.4
 20
0.0
 11
6.4
 21
0.625
  0
LINE
  5
23D
100
AcDbEntity
  8
0
100
AcDbLine
 62
2
  6
CONTINUOUS
 10
5.9
 20
0.0
 11
5.9
 21
0.625
  0
LINE
  5
23E
100
AcDbEntity
  8
0
100
AcDbLine
 62
2
  6
CONTINUOUS
 10
5.2
 20
0.0
 11
5.2
 21
0.625
  0
LINE
  5
23F
100
AcDbEntity
  8
0
100
AcDbLine
 62
2
  6
CONTINUOUS
 10
4.1
 20
0.0
 11
4.1
 21
1.25
  0
LINE
  5
240
100
AcDbEntity
  8
0
100
AcDbLine
 62
2
  6
CONTINUOUS
 10
-0.0
 20
0.0
 11
-0.0
 21
1.25
  0
MTEXT
  5
241
100
AcDbEntity
  8
0
100
AcDbMText
 62
2
  6
CONTINUOUS
  7
STANDARD
 71
2
 72
1
 10
6.6
 20
0.325
 30
0.0
 11
1.0
 21
0.0
 31
0.0
 44
0.9
  1
2
 40
0.125
 41
0.2
  0
MTEXT
  5
242
100
AcDbEntity
  8
0
100
AcDbMText
 62
2
  6
CONTINUOUS
  7
STANDARD
 71
2
 72
1
 10
6.15
 20
0.325
 30
0.0
 11
1.0
 21
0.0
 31
0.0
 44
0.9
  1
C
 40
0.125
 41
0.2
  0
MTEXT
  5
243
100
AcDbEntity
  8
0
100
AcDbMText
 62
2
  6
CONTINUOUS
  7
STANDARD
 71
2
 72
1
 10
5.55
 20
0.325
 30
0.0
 11
1.0
 21
0.0
 31
0.0
 44
0.9
  1
1.000
 40
0.125
 41
1.0
  0
MTEXT
  5
244
100
AcDbEntity
  8
0
100
AcDbMText
 62
2
  6
CONTINUOUS
  7
STANDARD
 71
2
 72
1
 10
4.65
 20
0.325
 30
0.0
 11
1.0
 21
0.0
 31
0.0
 44
0.9
  1
May-21-24
 40
0.125
 41
1.8
  0
MTEXT
  5
245
100
AcDbEntity
  8
0
100
AcDbMText
 62
2
  6
CONTINUOUS
  7
STANDARD
 71
2
 72
1
 10
2.05
 20
0.4625
 30
0.0
 11
1.0
 21
0.0
 31
0.0
 44
0.9
  1
T-2A Line mount\PThrough port 1 with reverse flow check
 40
0.125
 41
7.6
  0
MTEXT
  5
246
100
AcDbEntity
  8
0
100
AcDbMText
 62
2
  6
CONTINUOUS
  7
STANDARD
 71
1
 72
1
 10
6.45
 20
0.5625
 30
0.0
 11
1.0
 21
0.0
 31
0.0
 44
0.9
  1
SHEET
 40
0.06
 41
0.48
  0
MTEXT
  5
247
100
AcDbEntity
  8
0
100
AcDbMText
 62
2
  6
CONTINUOUS
  7
STANDARD
 71
1
 72
1
 10
5.95
 20
0.5625
 30
0.0
 11
1.0
 21
0.0
 31
0.0
 44
0.9
  1
DWG SIZE
 40
0.06
 41
0.768
  0
MTEXT
  5
248
100
AcDbEntity
  8
0
100
AcDbMText
 62
2
  6
CONTINUOUS
  7
STANDARD
 71
1
 72
1
 10
5.25
 20
0.5625
 30
0.0
 11
1.0
 21
0.0
 31
0.0
 44
0.9
  1
SCALE
 40
0.06
 41
0.48
  0
MTEXT
  5
249
100
AcDbEntity
  8
0
100
AcDbMText
 62
2
  6
CONTINUOUS
  7
STANDARD
 71
1
 72
1
 10
4.15
 20
0.5625
 30
0.0
 11
1.0
 21
0.0
 31
0.0
 44
0.9
  1
DATE
 40
0.06
 41
0.384
  0
MTEXT
  5
24A
100
AcDbEntity
  8
0
100
AcDbMText
 62
2
  6
CONTINUOUS
  7
STANDARD
 71
1
 72
1
 10
0.05
 20
0.5625
 30
0.0
 11
1.0
 21
0.0
 31
0.0
 44
0.9
  1
DESCRIPTION
 40
0.06
 41
1.056
  0
MTEXT
  5
24B
100
AcDbEntity
  8
0
100
AcDbMText
 62
2
  6
CONTINUOUS
  7
STANDARD
 71
2
 72
1
 10
5.45
 20
1.0375
 30
0.0
 11
1.0
 21
0.0
 31
0.0
 44
0.9
  1
ALL DIMENSIONS IN INCH\PVIEWS ARE THIRD ANGLE
 40
0.12
 41
4.224
  0
MTEXT
  5
24C
100
AcDbEntity
  8
0
100
AcDbMText
 62
2
  6
CONTINUOUS
  7
STANDARD
 71
2
 72
1
 10
2.05
 20
0.95
 30
0.0
 11
1.0
 21
0.0
 31
0.0
 44
0.9
  1
B7L
 40
0.125
 41
0.6
  0
MTEXT
  5
24D
100
AcDbEntity
  8
0
100
AcDbMText
 62
2
  6
CONTINUOUS
  7
STANDARD
 71
1
 72
1
 10
0.05
 20
1.1875
 30
0.0
 11
1.0
 21
0.0
 31
0.0
 44
0.9
  1
MODEL
 40
0.06
 41
0.48
  0
ENDBLK
  5
24E
100
AcDbEntity
  8
0
  6
BYBLOCK
 62
0
100
AcDbBlockEnd
  0
BLOCK
  5
24F
100
AcDbEntity
  8
0
100
AcDbBlockBegin
  2
*T2
 70
1
 10
0.0
 20
0.0
  3
*T2
  1

  0
LINE
  5
250
100
AcDbEntity
  8
0
100
AcDbLine
 62
2
  6
CONTINUOUS
 10
0.0
 20
0.0
 11
9.055
 21
0.0
  0
LINE
  5
251
100
AcDbEntity
  8
0
100
AcDbLine
 62
2
  6
CONTINUOUS
 10
0.0
 20
0.0
 11
0.0
 21
-2.844
  0
LINE
  5
252
100
AcDbEntity
  8
0
100
AcDbLine
 62
2
  6
CONTINUOUS
 10
0.0
 20
-0.344
 11
9.055
 21
-0.344
  0
LINE
  5
253
100
AcDbEntity
  8
0
100
AcDbLine
 62
2
  6
CONTINUOUS
 10
0.0
 20
-0.594
 11
9.055
 21
-0.594
  0
LINE
  5
254
100
AcDbEntity
  8
0
100
AcDbLine
 62
2
  6
CONTINUOUS
 10
0.0
 20
-0.844
 11
9.055
 21
-0.844
  0
LINE
  5
255
100
AcDbEntity
  8
0
100
AcDbLine
 62
2
  6
CONTINUOUS
 10
0.0
 20
-1.094
 11
9.055
 21
-1.094
  0
LINE
  5
256
100
AcDbEntity
  8
0
100
AcDbLine
 62
2
  6
CONTINUOUS
 10
0.0
 20
-1.344
 11
9.055
 21
-1.344
  0
LINE
  5
257
100
AcDbEntity
  8
0
100
AcDbLine
 62
2
  6
CONTINUOUS
 10
0.0
 20
-1.594
 11
9.055
 21
-1.594
  0
LINE
  5
258
100
AcDbEntity
  8
0
100
AcDbLine
 62
2
  6
CONTINUOUS
 10
0.0
 20
-1.844
 11
9.055
 21
-1.844
  0
LINE
  5
259
100
AcDbEntity
  8
0
100
AcDbLine
 62
2
  6
CONTINUOUS
 10
0.0
 20
-2.094
 11
9.055
 21
-2.094
  0
LINE
  5
25A
100
AcDbEntity
  8
0
100
AcDbLine
 62
2
  6
CONTINUOUS
 10
0.0
 20
-2.344
 11
9.055
 21
-2.344
  0
LINE
  5
25B
100
AcDbEntity
  8
0
100
AcDbLine
 62
2
  6
CONTINUOUS
 10
0.0
 20
-2.594
 11
9.055
 21
-2.594
  0
LINE
  5
25C
100
AcDbEntity
  8
0
100
AcDbLine
 62
2
  6
CONTINUOUS
 10
0.0
 20
-2.844
 11
9.055
 21
-2.844
  0
LINE
  5
25D
100
AcDbEntity
  8
0
100
AcDbLine
 62
2
  6
CONTINUOUS
 10
3.055
 20
0.0
 11
3.055
 21
-2.844
  0
LINE
  5
25E
100
AcDbEntity
  8
0
100
AcDbLine
 62
2
  6
CONTINUOUS
 10
9.055
 20
0.0
 11
9.055
 21
-2.844
  0
MTEXT
  5
25F
100
AcDbEntity
  8
0
100
AcDbMText
 62
2
  6
CONTINUOUS
  7
STANDARD
 71
2
 72
1
 10
1.5275
 20
-0.0995
 30
0.0
 11
1.0
 21
0.0
 31
0.0
 44
0.9
  1
Technical Data
 40
0.145
 41
3.248
  0
MTEXT
  5
260
100
AcDbEntity
  8
0
100
AcDbMText
 62
2
  6
CONTINUOUS
  7
STANDARD
 71
2
 72
1
 10
4.555
 20
-0.0995
 30
0.0
 11
1.0
 21
0.0
 31
0.0
 44
0.9
  1
U.S. Units
 40
0.145
 41
2.32
  0
MTEXT
  5
261
100
AcDbEntity
  8
0
100
AcDbMText
 62
2
  6
CONTINUOUS
  7
STANDARD
 71
2
 72
1
 10
7.555
 20
-0.0995
 30
0.0
 11
1.0
 21
0.0
 31
0.0
 44
0.9
  1
Metric Units
 40
0.145
 41
2.784
  0
MTEXT
  5
262
100
AcDbEntity
  8
0
100
AcDbMText
 62
2
  6
CONTINUOUS
  7
STANDARD
 71
2
 72
1
 10
1.5275
 20
-0.4065
 30
0.0
 11
1.0
 21
0.0
 31
0.0
 44
0.9
  1
Cavity
 40
0.125
 41
1.2
  0
MTEXT
  5
263
100
AcDbEntity
  8
0
100
AcDbMText
 62
2
  6
CONTINUOUS
  7
STANDARD
 71
2
 72
1
 10
6.055
 20
-0.4065
 30
0.0
 11
1.0
 21
0.0
 31
0.0
 44
0.9
  1
T-2A
 40
0.125
 41
0.8
  0
MTEXT
  5
264
100
AcDbEntity
  8
0
100
AcDbMText
 62
2
  6
CONTINUOUS
  7
STANDARD
 71
2
 72
1
 10
1.5275
 20
-0.6565
 30
0.0
 11
1.0
 21
0.0
 31
0.0
 44
0.9
  1
Body Features
 40
0.125
 41
2.6
  0
MTEXT
  5
265
100
AcDbEntity
  8
0
100
AcDbMText
 62
2
  6
CONTINUOUS
  7
STANDARD
 71
2
 72
1
 10
6.055
 20
-0.6565
 30
0.0
 11
1.0
 21
0.0
 31
0.0
 44
0.9
  1
Through port 1 with reverse flow check
 40
0.125
 41
7.6
  0
MTEXT
  5
266
100
AcDbEntity
  8
0
100
AcDbMText
 62
2
  6
CONTINUOUS
  7
STANDARD
 71
2
 72
1
 10
1.5275
 20
-0.9065
 30
0.0
 11
1.0
 21
0.0
 31
0.0
 44
0.9
  1
Body Type
 40
0.125
 41
1.8
  0
MTEXT
  5
267
100
AcDbEntity
  8
0
100
AcDbMText
 62
2
  6
CONTINUOUS
  7
STANDARD
 71
2
 72
1
 10
6.055
 20
-0.9065
 30
0.0
 11
1.0
 21
0.0
 31
0.0
 44
0.9
  1
Line mount
 40
0.125
 41
2.0
  0
MTEXT
  5
268
100
AcDbEntity
  8
0
100
AcDbMText
 62
2
  6
CONTINUOUS
  7
STANDARD
 71
2
 72
1
 10
1.5275
 20
-1.1565
 30
0.0
 11
1.0
 21
0.0
 31
0.0
 44
0.9
  1
Interface
 40
0.125
 41
1.8
  0
MTEXT
  5
269
100
AcDbEntity
  8
0
100
AcDbMText
 62
2
  6
CONTINUOUS
  7
STANDARD
 71
2
 72
1
 10
6.055
 20
-1.1565
 30
0.0
 11
1.0
 21
0.0
 31
0.0
 44
0.9
  1
None
 40
0.125
 41
0.8
  0
MTEXT
  5
26A
100
AcDbEntity
  8
0
100
AcDbMText
 62
2
  6
CONTINUOUS
  7
STANDARD
 71
2
 72
1
 10
1.5275
 20
-1.4065
 30
0.0
 11
1.0
 21
0.0
 31
0.0
 44
0.9
  1
Open Cavity Quantity
 40
0.125
 41
4.0
  0
MTEXT
  5
26B
100
AcDbEntity
  8
0
100
AcDbMText
 62
2
  6
CONTINUOUS
  7
STANDARD
 71
2
 72
1
 10
6.055
 20
-1.4065
 30
0.0
 11
1.0
 21
0.0
 31
0.0
 44
0.9
  1
1
 40
0.125
 41
0.2
  0
MTEXT
  5
26C
100
AcDbEntity
  8
0
100
AcDbMText
 62
2
  6
CONTINUOUS
  7
STANDARD
 71
2
 72
1
 10
1.5275
 20
-1.6565
 30
0.0
 11
1.0
 21
0.0
 31
0.0
 44
0.9
  1
Weight
 40
0.125
 41
1.2
  0
MTEXT
  5
26D
100
AcDbEntity
  8
0
100
AcDbMText
 62
2
  6
CONTINUOUS
  7
STANDARD
 71
2
 72
1
 10
4.555
 20
-1.6565
 30
0.0
 11
1.0
 21
0.0
 31
0.0
 44
0.9
  1
2.968 lb.
 40
0.125
 41
1.8
  0
MTEXT
  5
26E
100
AcDbEntity
  8
0
100
AcDbMText
 62
2
  6
CONTINUOUS
  7
STANDARD
 71
2
 72
1
 10
7.555
 20
-1.6565
 30
0.0
 11
1.0
 21
0.0
 31
0.0
 44
0.9
  1
1,346 kg.
 40
0.125
 41
1.8
  0
MTEXT
  5
26F
100
AcDbEntity
  8
0
100
AcDbMText
 62
2
  6
CONTINUOUS
  7
STANDARD
 71
2
 72
1
 10
1.5275
 20
-1.9065
 30
0.0
 11
1.0
 21
0.0
 31
0.0
 44
0.9
  1
Mounting Hole Thread
 40
0.125
 41
4.0
  0
MTEXT
  5
270
100
AcDbEntity
  8
0
100
AcDbMText
 62
2
  6
CONTINUOUS
  7
STANDARD
 71
2
 72
1
 10
4.555
 20
-1.9065
 30
0.0
 11
1.0
 21
0.0
 31
0.0
 44
0.9
  1
.375-16 UNC - 2B in.
 40
0.125
 41
4.0
  0
MTEXT
  5
271
100
AcDbEntity
  8
0
100
AcDbMText
 62
2
  6
CONTINUOUS
  7
STANDARD
 71
2
 72
1
 10
1.5275
 20
-2.1565
 30
0.0
 11
1.0
 21
0.0
 31
0.0
 44
0.9
  1
Mounting Hole Depth
 40
0.125
 41
3.8
  0
MTEXT
  5
272
100
AcDbEntity
  8
0
100
AcDbMText
 62
2
  6
CONTINUOUS
  7
STANDARD
 71
2
 72
1
 10
4.555
 20
-2.1565
 30
0.0
 11
1.0
 21
0.0
 31
0.0
 44
0.9
  1
.62 in.
 40
0.125
 41
1.4
  0
MTEXT
  5
273
100
AcDbEntity
  8
0
100
AcDbMText
 62
2
  6
CONTINUOUS
  7
STANDARD
 71
2
 72
1
 10
7.555
 20
-2.1565
 30
0.0
 11
1.0
 21
0.0
 31
0.0
 44
0.9
  1
15,7 mm
 40
0.125
 41
1.4
  0
MTEXT
  5
274
100
AcDbEntity
  8
0
100
AcDbMText
 62
2
  6
CONTINUOUS
  7
STANDARD
 71
2
 72
1
 10
1.5275
 20
-2.4065
 30
0.0
 11
1.0
 21
0.0
 31
0.0
 44
0.9
  1
Mounting Hole Quantity
 40
0.125
 41
4.4
  0
MTEXT
  5
275
100
AcDbEntity
  8
0
100
AcDbMText
 62
2
  6
CONTINUOUS
  7
STANDARD
 71
2
 72
1
 10
6.055
 20
-2.4065
 30
0.0
 11
1.0
 21
0.0
 31
0.0
 44
0.9
  1
2
 40
0.125
 41
0.2
  0
MTEXT
  5
276
100
AcDbEntity
  8
0
100
AcDbMText
 62
2
  6
CONTINUOUS
  7
STANDARD
 71
2
 72
1
 10
1.5275
 20
-2.6565
 30
0.0
 11
1.0
 21
0.0
 31
0.0
 44
0.9
  1
Includes integral cartridge(s)
 40
0.125
 41
6.0
  0
MTEXT
  5
277
100
AcDbEntity
  8
0
100
AcDbMText
 62
2
  6
CONTINUOUS
  7
STANDARD
 71
2
 72
1
 10
6.055
 20
-2.6565
 30
0.0
 11
1.0
 21
0.0
 31
0.0
 44
0.9
  1
Yes (see Included Components)
 40
0.125
 41
5.8
  0
ENDBLK
  5
278
100
AcDbEntity
  8
0
  6
BYBLOCK
 62
0
100
AcDbBlockEnd
  0
BLOCK
  5
279
100
AcDbEntity
  8
0
100
AcDbBlockBegin
  2
*T3
 70
1
 10
0.0
 20
0.0
  3
*T3
  1

  0
LINE
  5
27A
100
AcDbEntity
  8
0
100
AcDbLine
 62
2
  6
CONTINUOUS
 10
0.0
 20
0.0
 11
4.6
 21
0.0
  0
LINE
  5
27B
100
AcDbEntity
  8
0
100
AcDbLine
 62
2
  6
CONTINUOUS
 10
0.0
 20
0.0
 11
0.0
 21
-1.68775
  0
LINE
  5
27C
100
AcDbEntity
  8
0
100
AcDbLine
 62
2
  6
CONTINUOUS
 10
0.0
 20
-0.34375
 11
4.6
 21
-0.34375
  0
LINE
  5
27D
100
AcDbEntity
  8
0
100
AcDbLine
 62
2
  6
CONTINUOUS
 10
0.0
 20
-0.68775
 11
4.6
 21
-0.68775
  0
LINE
  5
27E
100
AcDbEntity
  8
0
100
AcDbLine
 62
2
  6
CONTINUOUS
 10
0.0
 20
-0.93775
 11
4.6
 21
-0.93775
  0
LINE
  5
27F
100
AcDbEntity
  8
0
100
AcDbLine
 62
2
  6
CONTINUOUS
 10
0.0
 20
-1.18775
 11
4.6
 21
-1.18775
  0
LINE
  5
280
100
AcDbEntity
  8
0
100
AcDbLine
 62
2
  6
CONTINUOUS
 10
0.0
 20
-1.43775
 11
4.6
 21
-1.43775
  0
LINE
  5
281
100
AcDbEntity
  8
0
100
AcDbLine
 62
2
  6
CONTINUOUS
 10
0.0
 20
-1.68775
 11
4.6
 21
-1.68775
  0
LINE
  5
282
100
AcDbEntity
  8
0
100
AcDbLine
 62
2
  6
CONTINUOUS
 10
1.3
 20
-0.34375
 11
1.3
 21
-1.68775
  0
LINE
  5
283
100
AcDbEntity
  8
0
100
AcDbLine
 62
2
  6
CONTINUOUS
 10
3.3
 20
-0.34375
 11
3.3
 21
-1.68775
  0
LINE
  5
284
100
AcDbEntity
  8
0
100
AcDbLine
 62
2
  6
CONTINUOUS
 10
4.6
 20
0.0
 11
4.6
 21
-1.68775
  0
MTEXT
  5
285
100
AcDbEntity
  8
0
100
AcDbMText
 62
2
  6
CONTINUOUS
  7
STANDARD
 71
2
 72
1
 10
2.3
 20
-0.099375
 30
0.0
 11
1.0
 21
0.0
 31
0.0
 44
0.9
  1
Port Headings
 40
0.145
 41
3.016
  0
MTEXT
  5
286
100
AcDbEntity
  8
0
100
AcDbMText
 62
2
  6
CONTINUOUS
  7
STANDARD
 71
2
 72
1
 10
0.65
 20
-0.44325
 30
0.0
 11
1.0
 21
0.0
 31
0.0
 44
0.9
  1
Product
 40
0.145
 41
1.624
  0
MTEXT
  5
287
100
AcDbEntity
  8
0
100
AcDbMText
 62
2
  6
CONTINUOUS
  7
STANDARD
 71
2
 72
1
 10
2.3
 20
-0.44325
 30
0.0
 11
1.0
 21
0.0
 31
0.0
 44
0.9
  1
Port
 40
0.145
 41
0.928
  0
MTEXT
  5
288
100
AcDbEntity
  8
0
100
AcDbMText
 62
2
  6
CONTINUOUS
  7
STANDARD
 71
2
 72
1
 10
3.95
 20
-0.44325
 30
0.0
 11
1.0
 21
0.0
 31
0.0
 44
0.9
  1
Size
 40
0.145
 41
0.928
  0
MTEXT
  5
289
100
AcDbEntity
  8
0
100
AcDbMText
 62
2
  6
CONTINUOUS
  7
STANDARD
 71
2
 72
1
 10
0.65
 20
-0.75025
 30
0.0
 11
1.0
 21
0.0
 31
0.0
 44
0.9
  1
B7L
 40
0.125
 41
0.6
  0
MTEXT
  5
28A
100
AcDbEntity
  8
0
100
AcDbMText
 62
2
  6
CONTINUOUS
  7
STANDARD
 71
2
 72
1
 10
2.3
 20
-0.75025
 30
0.0
 11
1.0
 21
0.0
 31
0.0
 44
0.9
  1
Ports 1 &  2
 40
0.125
 41
2.4
  0
MTEXT
  5
28B
100
AcDbEntity
  8
0
100
AcDbMText
 62
2
  6
CONTINUOUS
  7
STANDARD
 71
2
 72
1
 10
3.95
 20
-0.75025
 30
0.0
 11
1.0
 21
0.0
 31
0.0
 44
0.9
  1
SAE 12
 40
0.125
 41
1.2
  0
MTEXT
  5
28C
100
AcDbEntity
  8
0
100
AcDbMText
 62
2
  6
CONTINUOUS
  7
STANDARD
 71
2
 72
1
 10
0.65
 20
-1.00025
 30
0.0
 11
1.0
 21
0.0
 31
0.0
 44
0.9
  1
B7L
 40
0.125
 41
0.6
  0
MTEXT
  5
28D
100
AcDbEntity
  8
0
100
AcDbMText
 62
2
  6
CONTINUOUS
  7
STANDARD
 71
2
 72
1
 10
2.3
 20
-1.00025
 30
0.0
 11
1.0
 21
0.0
 31
0.0
 44
0.9
  1
Port 3
 40
0.125
 41
1.2
  0
MTEXT
  5
28E
100
AcDbEntity
  8
0
100
AcDbMText
 62
2
  6
CONTINUOUS
  7
STANDARD
 71
2
 72
1
 10
3.95
 20
-1.00025
 30
0.0
 11
1.0
 21
0.0
 31
0.0
 44
0.9
  1
SAE 6
 40
0.125
 41
1.0
  0
MTEXT
  5
28F
100
AcDbEntity
  8
0
100
AcDbMText
 62
2
  6
CONTINUOUS
  7
STANDARD
 71
2
 72
1
 10
0.65
 20
-1.25025
 30
0.0
 11
1.0
 21
0.0
 31
0.0
 44
0.9
  1
B7L
 40
0.125
 41
0.6
  0
MTEXT
  5
290
100
AcDbEntity
  8
0
100
AcDbMText
 62
2
  6
CONTINUOUS
  7
STANDARD
 71
2
 72
1
 10
2.3
 20
-1.25025
 30
0.0
 11
1.0
 21
0.0
 31
0.0
 44
0.9
  1
Gage Port
 40
0.125
 41
1.8
  0
MTEXT
  5
291
100
AcDbEntity
  8
0
100
AcDbMText
 62
2
  6
CONTINUOUS
  7
STANDARD
 71
2
 72
1
 10
3.95
 20
-1.25025
 30
0.0
 11
1.0
 21
0.0
 31
0.0
 44
0.9
  1
1/4" NPTF
 40
0.125
 41
1.8
  0
MTEXT
  5
292
100
AcDbEntity
  8
0
100
AcDbMText
 62
2
  6
CONTINUOUS
  7
STANDARD
 71
2
 72
1
 10
0.65
 20
-1.50025
 30
0.0
 11
1.0
 21
0.0
 31
0.0
 44
0.9
  1
B7L
 40
0.125
 41
0.6
  0
MTEXT
  5
293
100
AcDbEntity
  8
0
100
AcDbMText
 62
2
  6
CONTINUOUS
  7
STANDARD
 71
2
 72
1
 10
2.3
 20
-1.50025
 30
0.0
 11
1.0
 21
0.0
 31
0.0
 44
0.9
  1
Mtg Holes
 40
0.125
 41
1.8
  0
MTEXT
  5
294
100
AcDbEntity
  8
0
100
AcDbMText
 62
2
  6
CONTINUOUS
  7
STANDARD
 71
2
 72
1
 10
3.95
 20
-1.50025
 30
0.0
 11
1.0
 21
0.0
 31
0.0
 44
0.9
  1
.375 - 16UNC x .62 DP
 40
0.125
 41
4.2
  0
ENDBLK
  5
295
100
AcDbEntity
  8
0
  6
BYBLOCK
 62
0
100
AcDbBlockEnd
  0
ENDSEC
  0
SECTION
  2
ENTITIES
  0
IMAGE
  5
296
100
AcDbEntity
  8
0
100
AcDbRasterImage
 62
7
  6
CONTINUOUS
 10
19.2297077316
 20
0.3094318264
 30
0.0
 11
0.0066666667
 21
0.0
 31
0.0
 12
0.0
 22
0.0066666667
 32
0.0
 13
369.0
 23
92.0
340
       3AD
 70
9
280
0
281
50
282
50
283
0
360
       3A7
 71
1
 91
2
 14
-0.5
 24
-0.5
 14
368.5
 24
91.5
  0
INSERT
  5
297
100
AcDbEntity
  8
0
100
AcDbBlockReference
 62
2
  6
CONTINUOUS
  2
SUN_FIRST_THIRD_ANGLE_BL0
 10
20.4816717061
 20
1.2289683772
  0
ACAD_TABLE
  5
298
100
AcDbEntity
  8
0
 62
2
  6
CONTINUOUS
100
AcDbBlockReference
  2
*T1
 10
12.42375
 20
0.30125
 30
0.0
100
AcDbTable
342
       3AF
343
20F
 11
1.0
 21
0.0
 31
0.0
 90
6
 91
4
 92
6
 93
20
 94
0
 95
0
 96
0
 70
1
 41
0.0
141
0.525
141
0.1
141
0.525
141
0.1
142
4.1
142
1.1
142
0.7
142
0.5
142
0.4
142
2.475
171
1
172
0
173
0
174
0
175
1
176
1
 91
33
178
0
145
0.0
301
CELL_VALUE
 90
4
  1
T-2A Line mount\PThrough port 1 with reverse flow check
304
ACVALUE_END
170
2
140
0.125
171
1
172
0
173
0
174
0
175
1
176
1
 91
33
178
0
145
0.0
301
CELL_VALUE
 90
4
  1
May-21-24
304
ACVALUE_END
170
5
140
0.125
171
1
172
0
173
0
174
0
175
1
176
1
 91
33
178
0
145
0.0
301
CELL_VALUE
 90
4
  1
1.000
304
ACVALUE_END
170
5
140
0.125
171
1
172
0
173
0
174
0
175
1
176
1
 91
33
178
0
145
0.0
301
CELL_VALUE
 90
4
  1
C
304
ACVALUE_END
170
5
140
0.125
171
1
172
0
173
0
174
0
175
1
176
1
 91
33
178
0
145
0.0
301
CELL_VALUE
 90
4
  1
2
304
ACVALUE_END
170
5
140
0.125
171
1
172
0
173
0
174
0
175
1
176
1
 91
33
178
0
145
0.0
301
CELL_VALUE
 90
4
  1
 
304
ACVALUE_END
170
1
140
0.125
171
1
172
0
173
0
174
0
175
1
176
1
 91
33
178
0
145
0.0
301
CELL_VALUE
 90
4
  1
DESCRIPTION
304
ACVALUE_END
170
1
140
0.06
171
1
172
0
173
0
174
0
175
1
176
1
 91
33
178
0
145
0.0
301
CELL_VALUE
 90
4
  1
DATE
304
ACVALUE_END
170
1
140
0.06
171
1
172
0
173
0
174
0
175
1
176
1
 91
33
178
0
145
0.0
301
CELL_VALUE
 90
4
  1
SCALE
304
ACVALUE_END
170
1
140
0.06
171
1
172
0
173
0
174
0
175
1
176
1
 91
33
178
0
145
0.0
301
CELL_VALUE
 90
4
  1
DWG SIZE
304
ACVALUE_END
170
1
140
0.06
171
1
172
0
173
0
174
0
175
1
176
1
 91
33
178
0
145
0.0
301
CELL_VALUE
 90
4
  1
SHEET
304
ACVALUE_END
170
1
140
0.06
171
1
172
0
173
0
174
0
175
1
176
1
 91
33
178
0
145
0.0
301
CELL_VALUE
 90
4
  1
 
304
ACVALUE_END
170
1
140
0.125
171
1
172
0
173
0
174
0
175
1
176
1
 91
33
178
0
145
0.0
301
CELL_VALUE
 90
4
  1
B7L
304
ACVALUE_END
170
5
140
0.125
171
1
172
0
173
0
174
0
175
4
176
1
 91
33
178
0
145
0.0
301
CELL_VALUE
 90
4
  1
ALL DIMENSIONS IN INCH\PVIEWS ARE THIRD ANGLE
304
ACVALUE_END
170
5
140
0.12
171
1
172
0
173
1
174
0
175
1
176
1
 91
1
178
0
145
0.0
170
1
171
1
172
0
173
1
174
0
175
1
176
1
 91
1
178
0
145
0.0
170
1
171
1
172
0
173
1
174
0
175
1
176
1
 91
1
178
0
145
0.0
170
5
171
1
172
0
173
0
174
0
175
1
176
1
 91
33
178
0
145
0.0
301
CELL_VALUE
 90
4
  1
 
304
ACVALUE_END
170
1
140
0.125
171
1
172
0
173
0
174
0
175
1
176
1
 91
33
178
0
145
0.0
301
CELL_VALUE
 90
4
  1
MODEL
304
ACVALUE_END
170
1
140
0.06
171
1
172
0
173
0
174
0
175
1
176
1
 91
33
178
0
145
0.0
301
CELL_VALUE
 90
4
  1
 
304
ACVALUE_END
170
1
140
0.125
171
1
172
0
173
0
174
0
175
1
176
1
 91
33
178
0
145
0.0
301
CELL_VALUE
 90
4
  1
 
304
ACVALUE_END
170
1
140
0.125
171
1
172
0
173
0
174
0
175
1
176
1
 91
33
178
0
145
0.0
301
CELL_VALUE
 90
4
  1
 
304
ACVALUE_END
170
1
140
0.125
171
1
172
0
173
0
174
0
175
1
176
1
 91
33
178
0
145
0.0
301
CELL_VALUE
 90
4
  1
 
304
ACVALUE_END
170
1
140
0.125
171
1
172
0
173
0
174
0
175
1
176
1
 91
33
178
0
145
0.0
301
CELL_VALUE
 90
4
  1
 
304
ACVALUE_END
170
1
140
0.125
  0
ACAD_TABLE
  5
299
100
AcDbEntity
  8
0
 62
2
  6
CONTINUOUS
100
AcDbBlockReference
  2
*T2
 10
12.4237499994
 20
16.47875
 30
0.0
100
AcDbTable
342
       3AE
343
210
 11
1.0
 21
0.0
 31
0.0
 90
22
 91
11
 92
3
 93
16
 94
0
 95
0
 96
0
 41
0.028
141
0.344
141
0.25
141
0.25
141
0.25
141
0.25
141
0.25
141
0.25
141
0.25
141
0.25
141
0.25
141
0.25
142
3.055
142
3.0
142
3.0
171
1
172
0
173
0
174
0
175
1
176
1
 91
33
178
0
145
0.0
301
CELL_VALUE
 90
4
  1
Technical Data
304
ACVALUE_END
170
5
140
0.145
171
1
172
0
173
0
174
0
175
1
176
1
 91
33
178
0
145
0.0
301
CELL_VALUE
 90
4
  1
U.S. Units
304
ACVALUE_END
170
5
140
0.145
171
1
172
0
173
0
174
0
175
1
176
1
 91
33
178
0
145
0.0
301
CELL_VALUE
 90
4
  1
Metric Units
304
ACVALUE_END
170
5
140
0.145
171
1
172
0
173
0
174
0
175
1
176
1
 91
33
178
0
145
0.0
301
CELL_VALUE
 90
4
  1
Cavity
304
ACVALUE_END
170
5
140
0.125
171
1
172
0
173
0
174
0
175
2
176
1
 91
33
178
0
145
0.0
301
CELL_VALUE
 90
4
  1
T-2A
304
ACVALUE_END
170
5
140
0.125
171
1
172
0
173
1
174
0
175
1
176
1
 91
1
178
0
145
0.0
170
1
171
1
172
0
173
0
174
0
175
1
176
1
 91
33
178
0
145
0.0
301
CELL_VALUE
 90
4
  1
Body Features
304
ACVALUE_END
170
5
140
0.125
171
1
172
0
173
0
174
0
175
2
176
1
 91
33
178
0
145
0.0
301
CELL_VALUE
 90
4
  1
Through port 1 with reverse flow check
304
ACVALUE_END
170
5
140
0.125
171
1
172
0
173
1
174
0
175
1
176
1
 91
1
178
0
145
0.0
170
1
171
1
172
0
173
0
174
0
175
1
176
1
 91
33
178
0
145
0.0
301
CELL_VALUE
 90
4
  1
Body Type
304
ACVALUE_END
170
5
140
0.125
171
1
172
0
173
0
174
0
175
2
176
1
 91
33
178
0
145
0.0
301
CELL_VALUE
 90
4
  1
Line mount
304
ACVALUE_END
170
5
140
0.125
171
1
172
0
173
1
174
0
175
1
176
1
 91
1
178
0
145
0.0
170
1
171
1
172
0
173
0
174
0
175
1
176
1
 91
33
178
0
145
0.0
301
CELL_VALUE
 90
4
  1
Interface
304
ACVALUE_END
170
5
140
0.125
171
1
172
0
173
0
174
0
175
2
176
1
 91
33
178
0
145
0.0
301
CELL_VALUE
 90
4
  1
None
304
ACVALUE_END
170
5
140
0.125
171
1
172
0
173
1
174
0
175
1
176
1
 91
1
178
0
145
0.0
170
1
171
1
172
0
173
0
174
0
175
1
176
1
 91
33
178
0
145
0.0
301
CELL_VALUE
 90
4
  1
Open Cavity Quantity
304
ACVALUE_END
170
5
140
0.125
171
1
172
0
173
0
174
0
175
2
176
1
 91
33
178
0
145
0.0
301
CELL_VALUE
 90
4
  1
1
304
ACVALUE_END
170
5
140
0.125
171
1
172
0
173
1
174
0
175
1
176
1
 91
1
178
0
145
0.0
170
1
171
1
172
0
173
0
174
0
175
1
176
1
 91
33
178
0
145
0.0
301
CELL_VALUE
 90
4
  1
Weight
304
ACVALUE_END
170
5
140
0.125
171
1
172
0
173
0
174
0
175
1
176
1
 91
33
178
0
145
0.0
301
CELL_VALUE
 90
4
  1
2.968 lb.
304
ACVALUE_END
170
5
140
0.125
171
1
172
0
173
0
174
0
175
1
176
1
 91
33
178
0
145
0.0
301
CELL_VALUE
 90
4
  1
1,346 kg.
304
ACVALUE_END
170
5
140
0.125
171
1
172
0
173
0
174
0
175
1
176
1
 91
33
178
0
145
0.0
301
CELL_VALUE
 90
4
  1
Mounting Hole Thread
304
ACVALUE_END
170
5
140
0.125
171
1
172
0
173
0
174
0
175
1
176
1
 91
33
178
0
145
0.0
301
CELL_VALUE
 90
4
  1
.375-16 UNC - 2B in.
304
ACVALUE_END
170
5
140
0.125
171
1
172
0
173
0
174
0
175
1
176
1
 91
33
178
0
145
0.0
301
CELL_VALUE
 90
4
  1
 
304
ACVALUE_END
170
5
140
0.125
171
1
172
0
173
0
174
0
175
1
176
1
 91
33
178
0
145
0.0
301
CELL_VALUE
 90
4
  1
Mounting Hole Depth
304
ACVALUE_END
170
5
140
0.125
171
1
172
0
173
0
174
0
175
1
176
1
 91
33
178
0
145
0.0
301
CELL_VALUE
 90
4
  1
.62 in.
304
ACVALUE_END
170
5
140
0.125
171
1
172
0
173
0
174
0
175
1
176
1
 91
33
178
0
145
0.0
301
CELL_VALUE
 90
4
  1
15,7 mm
304
ACVALUE_END
170
5
140
0.125
171
1
172
0
173
0
174
0
175
1
176
1
 91
33
178
0
145
0.0
301
CELL_VALUE
 90
4
  1
Mounting Hole Quantity
304
ACVALUE_END
170
5
140
0.125
171
1
172
0
173
0
174
0
175
2
176
1
 91
33
178
0
145
0.0
301
CELL_VALUE
 90
4
  1
2
304
ACVALUE_END
170
5
140
0.125
171
1
172
0
173
1
174
0
175
1
176
1
 91
1
178
0
145
0.0
170
1
171
1
172
0
173
0
174
0
175
1
176
1
 91
33
178
0
145
0.0
301
CELL_VALUE
 90
4
  1
Includes integral cartridge(s)
304
ACVALUE_END
170
5
140
0.125
171
1
172
0
173
0
174
0
175
2
176
1
 91
33
178
0
145
0.0
301
CELL_VALUE
 90
4
  1
Yes (see Included Components)
304
ACVALUE_END
170
5
140
0.125
171
1
172
0
173
1
174
0
175
1
176
1
 91
1
178
0
145
0.0
170
1
  0
ACAD_TABLE
  5
29A
100
AcDbEntity
  8
0
 62
2
  6
CONTINUOUS
100
AcDbBlockReference
  2
*T3
 10
0.52125
 20
2.209
 30
0.0
100
AcDbTable
342
       3AE
343
211
 11
1.0
 21
0.0
 31
0.0
 90
22
 91
6
 92
3
 93
16
 94
0
 95
0
 96
0
 41
0.05
141
0.34375
141
0.344
141
0.25
141
0.25
141
0.25
141
0.25
142
1.3
142
2.0
142
1.3
171
1
172
0
173
0
174
0
175
3
176
1
 91
33
178
0
145
0.0
301
CELL_VALUE
 90
4
  1
Port Headings
304
ACVALUE_END
170
5
140
0.145
171
1
172
0
173
1
174
0
175
1
176
1
 91
1
178
0
145
0.0
170
1
171
1
172
0
173
1
174
0
175
1
176
1
 91
1
178
0
145
0.0
170
1
171
1
172
0
173
0
174
0
175
1
176
1
 91
33
178
0
145
0.0
301
CELL_VALUE
 90
4
  1
Product
304
ACVALUE_END
170
5
140
0.145
171
1
172
0
173
0
174
0
175
1
176
1
 91
33
178
0
145
0.0
301
CELL_VALUE
 90
4
  1
Port
304
ACVALUE_END
170
5
140
0.145
171
1
172
0
173
0
174
0
175
1
176
1
 91
33
178
0
145
0.0
301
CELL_VALUE
 90
4
  1
Size
304
ACVALUE_END
170
5
140
0.145
171
1
172
0
173
0
174
0
175
1
176
1
 91
33
178
0
145
0.0
301
CELL_VALUE
 90
4
  1
B7L
304
ACVALUE_END
170
5
140
0.125
171
1
172
0
173
0
174
0
175
1
176
1
 91
33
178
0
145
0.0
301
CELL_VALUE
 90
4
  1
Ports 1 &  2
304
ACVALUE_END
170
5
140
0.125
171
1
172
0
173
0
174
0
175
1
176
1
 91
33
178
0
145
0.0
301
CELL_VALUE
 90
4
  1
SAE 12
304
ACVALUE_END
170
5
140
0.125
171
1
172
0
173
0
174
0
175
1
176
1
 91
33
178
0
145
0.0
301
CELL_VALUE
 90
4
  1
B7L
304
ACVALUE_END
170
5
140
0.125
171
1
172
0
173
0
174
0
175
1
176
1
 91
33
178
0
145
0.0
301
CELL_VALUE
 90
4
  1
Port 3
304
ACVALUE_END
170
5
140
0.125
171
1
172
0
173
0
174
0
175
1
176
1
 91
33
178
0
145
0.0
301
CELL_VALUE
 90
4
  1
SAE 6
304
ACVALUE_END
170
5
140
0.125
171
1
172
0
173
0
174
0
175
1
176
1
 91
33
178
0
145
0.0
301
CELL_VALUE
 90
4
  1
B7L
304
ACVALUE_END
170
5
140
0.125
171
1
172
0
173
0
174
0
175
1
176
1
 91
33
178
0
145
0.0
301
CELL_VALUE
 90
4
  1
Gage Port
304
ACVALUE_END
170
5
140
0.125
171
1
172
0
173
0
174
0
175
1
176
1
 91
33
178
0
145
0.0
301
CELL_VALUE
 90
4
  1
1/4" NPTF
304
ACVALUE_END
170
5
140
0.125
171
1
172
0
173
0
174
0
175
1
176
1
 91
33
178
0
145
0.0
301
CELL_VALUE
 90
4
  1
B7L
304
ACVALUE_END
170
5
140
0.125
171
1
172
0
173
0
174
0
175
1
176
1
 91
33
178
0
145
0.0
301
CELL_VALUE
 90
4
  1
Mtg Holes
304
ACVALUE_END
170
5
140
0.125
171
1
172
0
173
0
174
0
175
1
176
1
 91
33
178
0
145
0.0
301
CELL_VALUE
 90
4
  1
.375 - 16UNC x .62 DP
304
ACVALUE_END
170
5
140
0.125
  0
MTEXT
  5
29B
100
AcDbEntity
  8
0
100
AcDbMText
 62
2
  6
CONTINUOUS
  7
STANDARD
 71
1
 72
1
 10
0.52125
 20
5.75995
 30
0.0
 11
1.0
 21
0.0
 31
0.0
 44
0.6
  3
Notes\P \P1. Important: Carefully consider\P   the maximum system pressure. The\P   pressure rating of the manifold is\P   dependent on the manifold material,\P   with the port type/size a secondary\P   consideration. Manifolds\P   constructed of alu
  3
minum are not\P   rated for pressures higher than\P   3000 psi (210 bar), regardless of\P   the port type/size specified.\P2. This drawing is for reference\P   only. It is generated by an\P   automated process and does not fall\P   under Sun's docume
  1
nt control\P   process.
 40
0.1
 41
3.04
  0
LINE
  5
29C
100
AcDbEntity
  8
0
100
AcDbLine
 62
7
  6
CONTINUOUS
 10
0.30125
 20
0.30125
 11
0.30125
 21
16.69875
  0
LINE
  5
29D
100
AcDbEntity
  8
0
100
AcDbLine
 62
7
  6
CONTINUOUS
 10
0.30125
 20
0.30125
 11
21.69875
 21
0.30125
  0
LINE
  5
29E
100
AcDbEntity
  8
0
100
AcDbLine
 62
7
  6
CONTINUOUS
 10
0.30125
 20
16.69875
 11
21.69875
 21
16.69875
  0
LINE
  5
29F
100
AcDbEntity
  8
0
100
AcDbLine
 62
7
  6
CONTINUOUS
 10
21.69875
 20
0.30125
 11
21.69875
 21
16.69875
  0
LINE
  5
2A0
100
AcDbEntity
  8
0
100
AcDbLine
 62
7
  6
CONTINUOUS
 10
9.1952352814
 20
10.3113915045
 11
9.906987068
 21
10.9988909778
  0
LINE
  5
2A1
100
AcDbEntity
  8
0
100
AcDbLine
 62
7
  6
CONTINUOUS
 10
12.093012932
 20
6.2467264078
 11
9.1952352814
 21
6.4476879704
  0
LINE
  5
2A2
100
AcDbEntity
  8
0
100
AcDbLine
 62
7
  6
CONTINUOUS
 10
10.9606797533
 20
6.0930435321
 11
10.9913538314
 21
6.0778911248
  0
LINE
  5
2A3
100
AcDbEntity
  8
0
100
AcDbLine
 62
7
  6
CONTINUOUS
 10
9.1952352814
 20
6.4476879704
 11
9.1952352814
 21
10.3113915045
  0
LINE
  5
2A4
100
AcDbEntity
  8
0
100
AcDbLine
 62
4
  6
CONTINUOUS
 10
9.6492204401
 20
9.4298927197
 11
9.6419759961
 21
9.4207358673
  0
LINE
  5
2A5
100
AcDbEntity
  8
0
100
AcDbLine
 62
4
  6
CONTINUOUS
 10
9.6564648841
 20
9.3714347641
 11
9.6419759961
 21
9.3531210549
  0
LINE
  5
2A6
100
AcDbEntity
  8
0
100
AcDbLine
 62
4
  6
CONTINUOUS
 10
9.5985093324
 20
9.4527280665
 11
9.6129982203
 21
9.461382515
  0
LINE
  5
2A7
100
AcDbEntity
  8
0
100
AcDbLine
 62
4
  6
CONTINUOUS
 10
9.6419759961
 20
9.4207358673
 11
9.6274871082
 21
9.4120814118
  0
LINE
  5
2A8
100
AcDbEntity
  8
0
100
AcDbLine
 62
4
  6
CONTINUOUS
 10
9.6419759961
 20
9.3531210549
 11
9.6274871082
 21
9.3444666038
  0
LINE
  5
2A9
100
AcDbEntity
  8
0
100
AcDbLine
 62
4
  6
CONTINUOUS
 10
9.6492204401
 20
9.439551976
 11
9.6492204401
 21
9.4298927197
  0
LINE
  5
2AA
100
AcDbEntity
  8
0
100
AcDbLine
 62
4
  6
CONTINUOUS
 10
9.6564648841
 20
9.3810940239
 11
9.6564648841
 21
9.3714347641
  0
LINE
  5
2AB
100
AcDbEntity
  8
0
100
AcDbLine
 62
4
  6
CONTINUOUS
 10
11.9022425688
 20
7.2857697007
 11
11.8877536809
 21
7.2867745085
  0
LINE
  5
2AC
100
AcDbEntity
  8
0
100
AcDbLine
 62
4
  6
CONTINUOUS
 10
11.8949981249
 20
7.3442276563
 11
11.9239759007
 21
7.3422180407
  0
LINE
  5
2AD
100
AcDbEntity
  8
0
100
AcDbLine
 62
4
  6
CONTINUOUS
 10
11.8877536809
 20
7.4026856119
 11
11.9022425688
 21
7.4016808041
  0
LINE
  5
2AE
100
AcDbEntity
  8
0
100
AcDbLine
 62
4
  6
CONTINUOUS
 10
10.9311420861
 20
9.1905827727
 11
10.8869854745
 21
9.1715667366
  0
LINE
  5
2AF
100
AcDbEntity
  8
0
100
AcDbLine
 62
7
  6
CONTINUOUS
 10
10.5124138468
 20
7.8859151285
 11
10.531665574
 21
7.8849138481
  0
LINE
  5
2B0
100
AcDbEntity
  8
0
100
AcDbLine
 62
4
  6
CONTINUOUS
 10
9.5985093324
 20
9.3561354783
 11
9.5912648884
 21
9.3662971411
  0
LINE
  5
2B1
100
AcDbEntity
  8
0
100
AcDbLine
 62
4
  6
CONTINUOUS
 10
10.5765092981
 20
8.2257925541
 11
10.5765092981
 21
8.1098814506
  0
LINE
  5
2B2
100
AcDbEntity
  8
0
100
AcDbLine
 62
7
  6
CONTINUOUS
 10
12.093012932
 20
10.1104299418
 11
12.8047647186
 21
10.7979294152
  0
LINE
  5
2B3
100
AcDbEntity
  8
0
100
AcDbLine
 62
4
  6
CONTINUOUS
 10
11.3064732871
 20
9.4223176776
 11
11.289914559
 21
9.4069073012
  0
LINE
  5
2B4
100
AcDbEntity
  8
0
100
AcDbLine
 62
4
  6
CONTINUOUS
 10
11.0111759385
 20
9.1298366408
 11
10.9946172104
 21
9.1144262627
  0
LINE
  5
2B5
100
AcDbEntity
  8
0
100
AcDbLine
 62
4
  6
CONTINUOUS
 10
11.3147526512
 20
9.3637879518
 11
11.2981939231
 21
9.3483775737
  0
LINE
  5
2B6
100
AcDbEntity
  8
0
100
AcDbLine
 62
4
  6
CONTINUOUS
 10
11.8877536809
 20
7.2867745085
 11
11.873264793
 21
7.2974385752
  0
LINE
  5
2B7
100
AcDbEntity
  8
0
100
AcDbLine
 62
4
  6
CONTINUOUS
 10
9.6419759961
 20
9.4014173477
 11
9.6564648841
 21
9.3810940239
  0
LINE
  5
2B8
100
AcDbEntity
  8
0
100
AcDbLine
 62
4
  6
CONTINUOUS
 10
9.6419759961
 20
9.4497136431
 11
9.6492204401
 21
9.439551976
  0
LINE
  5
2B9
100
AcDbEntity
  8
0
100
AcDbLine
 62
4
  6
CONTINUOUS
 10
10.8189567028
 20
9.8336660912
 11
10.8189567028
 21
9.7757105395
  0
LINE
  5
2BA
100
AcDbEntity
  8
0
100
AcDbLine
 62
4
  6
CONTINUOUS
 10
11.4306637717
 20
9.1835387063
 11
11.4472224928
 21
9.1989490831
  0
LINE
  5
2BB
100
AcDbEntity
  8
0
100
AcDbLine
 62
4
  6
CONTINUOUS
 10
11.8501515219
 20
9.1047709443
 11
11.8059949137
 21
9.0857549097
  0
LINE
  5
2BC
100
AcDbEntity
  8
0
100
AcDbLine
 62
4
  6
CONTINUOUS
 10
11.9022425688
 20
7.4016808041
 11
11.9167314568
 21
7.39101674
  0
LINE
  5
2BD
100
AcDbEntity
  8
0
100
AcDbLine
 62
7
  6
CONTINUOUS
 10
10.8639357255
 20
6.3319632015
 11
10.8639357255
 21
6.1531623047
  0
LINE
  5
2BE
100
AcDbEntity
  8
0
100
AcDbLine
 62
4
  6
CONTINUOUS
 10
10.8769122545
 20
9.7716913083
 11
10.8769122545
 21
9.7137357566
  0
LINE
  5
2BF
100
AcDbEntity
  8
0
100
AcDbLine
 62
7
  6
CONTINUOUS
 10
10.8783837737
 20
6.330961226
 11
10.8783837737
 21
6.1392065857
  0
LINE
  5
2C0
100
AcDbEntity
  8
0
100
AcDbLine
 62
4
  6
CONTINUOUS
 10
10.9058900304
 20
9.711726141
 11
10.9058900304
 21
9.8276372444
  0
LINE
  5
2C1
100
AcDbEntity
  8
0
100
AcDbLine
 62
4
  6
CONTINUOUS
 10
10.9532203937
 20
9.1172971416
 11
10.9532203937
 21
9.2332082451
  0
LINE
  5
2C2
100
AcDbEntity
  8
0
100
AcDbLine
 62
4
  6
CONTINUOUS
 10
10.9638455821
 20
9.8236180133
 11
10.9638455821
 21
9.7077069098
  0
LINE
  5
2C3
100
AcDbEntity
  8
0
100
AcDbLine
 62
4
  6
CONTINUOUS
 10
10.992823358
 20
9.8216083977
 11
10.992823358
 21
9.7056972942
  0
LINE
  5
2C4
100
AcDbEntity
  8
0
100
AcDbLine
 62
4
  6
CONTINUOUS
 10
11.0111759385
 20
9.2126302863
 11
11.0111759385
 21
9.1298366408
  0
LINE
  5
2C5
100
AcDbEntity
  8
0
100
AcDbLine
 62
4
  6
CONTINUOUS
 10
11.0580923382
 20
9.1100242476
 11
11.0912097943
 21
9.2236386476
  0
LINE
  5
2C6
100
AcDbEntity
  8
0
100
AcDbLine
 62
4
  6
CONTINUOUS
 10
11.527256321
 20
9.1768399902
 11
11.5438150422
 21
9.1922503671
  0
LINE
  5
2C7
100
AcDbEntity
  8
0
100
AcDbLine
 62
4
  6
CONTINUOUS
 10
11.5852118727
 20
9.0900271135
 11
11.5686531516
 21
9.0746167349
  0
LINE
  5
2C8
100
AcDbEntity
  8
0
100
AcDbLine
 62
4
  6
CONTINUOUS
 10
9.6129982203
 20
9.3454714116
 11
9.5985093324
 21
9.3561354783
  0
LINE
  5
2C9
100
AcDbEntity
  8
0
100
AcDbLine
 62
4
  6
CONTINUOUS
 10
9.6274871082
 20
9.4120814118
 11
9.6419759961
 21
9.4014173477
  0
LINE
  5
2CA
100
AcDbEntity
  8
0
100
AcDbLine
 62
4
  6
CONTINUOUS
 10
9.6274871082
 20
9.4603777072
 11
9.6419759961
 21
9.4497136431
  0
LINE
  5
2CB
100
AcDbEntity
  8
0
100
AcDbLine
 62
4
  6
CONTINUOUS
 10
11.873264793
 20
7.2974385752
 11
11.858775905
 21
7.3177618999
  0
LINE
  5
2CC
100
AcDbEntity
  8
0
100
AcDbLine
 62
7
  6
CONTINUOUS
 10
11.0309629418
 20
7.4875351742
 11
11.0309629418
 21
7.3519640422
  0
LINE
  5
2CD
100
AcDbEntity
  8
0
100
AcDbLine
 62
4
  6
CONTINUOUS
 10
11.0507789097
 20
9.8175891665
 11
11.0507789097
 21
9.7016780631
  0
LINE
  5
2CE
100
AcDbEntity
  8
0
100
AcDbLine
 62
4
  6
CONTINUOUS
 10
11.1666900131
 20
9.6936396008
 11
11.1666900131
 21
9.8095507042
  0
LINE
  5
2CF
100
AcDbEntity
  8
0
100
AcDbLine
 62
4
  6
CONTINUOUS
 10
11.1905621766
 20
9.1008374331
 11
11.1905621766
 21
9.2167485365
  0
LINE
  5
2D0
100
AcDbEntity
  8
0
100
AcDbLine
 62
4
  6
CONTINUOUS
 10
11.2246455648
 20
9.6896203696
 11
11.2246455648
 21
9.7475759213
  0
LINE
  5
2D1
100
AcDbEntity
  8
0
100
AcDbLine
 62
4
  6
CONTINUOUS
 10
11.405825659
 20
9.4568243909
 11
11.3727082029
 21
9.3432099908
  0
LINE
  5
2D2
100
AcDbEntity
  8
0
100
AcDbLine
 62
4
  6
CONTINUOUS
 10
11.6762848668
 20
9.0837111799
 11
11.6597261456
 21
9.0683008013
  0
LINE
  5
2D3
100
AcDbEntity
  8
0
100
AcDbLine
 62
4
  6
CONTINUOUS
 10
11.858775905
 20
8.8439247964
 11
11.873264793
 21
8.852579245
  0
LINE
  5
2D4
100
AcDbEntity
  8
0
100
AcDbLine
 62
4
  6
CONTINUOUS
 10
11.9022425688
 20
8.802273334
 11
11.873264793
 21
8.7849644335
  0
LINE
  5
2D5
100
AcDbEntity
  8
0
100
AcDbLine
 62
4
  6
CONTINUOUS
 10
11.9167314568
 20
7.39101674
 11
11.9239759007
 21
7.3808550729
  0
LINE
  5
2D6
100
AcDbEntity
  8
0
100
AcDbLine
 62
4
  6
CONTINUOUS
 10
11.2567970889
 20
9.0962440263
 11
11.2567970889
 21
9.2121551298
  0
LINE
  5
2D7
100
AcDbEntity
  8
0
100
AcDbLine
 62
4
  6
CONTINUOUS
 10
11.2567970994
 20
9.3512484531
 11
11.2567970994
 21
9.4671595566
  0
LINE
  5
2D8
100
AcDbEntity
  8
0
100
AcDbLine
 62
4
  6
CONTINUOUS
 10
11.2719759331
 20
9.6863379974
 11
11.2719759331
 21
9.7442935491
  0
LINE
  5
2D9
100
AcDbEntity
  8
0
100
AcDbLine
 62
7
  6
CONTINUOUS
 10
11.2920704918
 20
6.3022719546
 11
11.2920704918
 21
6.0321367201
  0
LINE
  5
2DA
100
AcDbEntity
  8
0
100
AcDbLine
 62
4
  6
CONTINUOUS
 10
11.3064732871
 20
9.4471557732
 11
11.3064732871
 21
9.4223176776
  0
LINE
  5
2DB
100
AcDbEntity
  8
0
100
AcDbLine
 62
4
  6
CONTINUOUS
 10
11.3147526512
 20
9.3886260456
 11
11.3147526512
 21
9.3637879518
  0
LINE
  5
2DC
100
AcDbEntity
  8
0
100
AcDbLine
 62
4
  6
CONTINUOUS
 10
11.3299314848
 20
9.740274318
 11
11.3299314848
 21
9.6243632145
  0
LINE
  5
2DD
100
AcDbEntity
  8
0
100
AcDbLine
 62
7
  6
CONTINUOUS
 10
11.3459913004
 20
6.2985325339
 11
11.3459913004
 21
6.0283972993
  0
LINE
  5
2DE
100
AcDbEntity
  8
0
100
AcDbLine
 62
4
  6
CONTINUOUS
 10
11.3478701073
 20
9.4360055265
 11
11.3478701073
 21
9.460843622
  0
LINE
  5
2DF
100
AcDbEntity
  8
0
100
AcDbLine
 62
4
  6
CONTINUOUS
 10
11.3685685193
 20
9.6796392788
 11
11.3685685193
 21
9.7375948305
  0
LINE
  5
2E0
100
AcDbEntity
  8
0
100
AcDbLine
 62
4
  6
CONTINUOUS
 10
11.426524071
 20
9.7915311511
 11
11.426524071
 21
9.6756200476
  0
LINE
  5
2E1
100
AcDbEntity
  8
0
100
AcDbLine
 62
4
  6
CONTINUOUS
 10
11.4306637717
 20
9.1007450607
 11
11.4306637717
 21
9.1835387063
  0
LINE
  5
2E2
100
AcDbEntity
  8
0
100
AcDbLine
 62
4
  6
CONTINUOUS
 10
11.8515314611
 20
8.7381753532
 11
11.9094870128
 21
8.7341561221
  0
LINE
  5
2E3
100
AcDbEntity
  8
0
100
AcDbLine
 62
4
  6
CONTINUOUS
 10
11.873264793
 20
8.852579245
 11
11.8877536809
 21
8.8515744372
  0
LINE
  5
2E4
100
AcDbEntity
  8
0
100
AcDbLine
 62
4
  6
CONTINUOUS
 10
11.0912097943
 20
9.2236386476
 11
11.1243272643
 21
9.1054308399
  0
LINE
  5
2E5
100
AcDbEntity
  8
0
100
AcDbLine
 62
4
  6
CONTINUOUS
 10
11.4389431152
 20
9.4545276875
 11
11.4389431152
 21
9.3386165841
  0
LINE
  5
2E6
100
AcDbEntity
  8
0
100
AcDbLine
 62
4
  6
CONTINUOUS
 10
11.4651611055
 20
9.7308961119
 11
11.4651611055
 21
9.6729405602
  0
LINE
  5
2E7
100
AcDbEntity
  8
0
100
AcDbLine
 62
4
  6
CONTINUOUS
 10
11.527256321
 20
9.0940463447
 11
11.527256321
 21
9.1768399902
  0
LINE
  5
2E8
100
AcDbEntity
  8
0
100
AcDbLine
 62
4
  6
CONTINUOUS
 10
11.5617536917
 20
9.6662418416
 11
11.5617536917
 21
9.7048788761
  0
LINE
  5
2E9
100
AcDbEntity
  8
0
100
AcDbLine
 62
4
  6
CONTINUOUS
 10
11.5852118727
 20
9.1728207591
 11
11.5852118727
 21
9.0900271135
  0
LINE
  5
2EA
100
AcDbEntity
  8
0
100
AcDbLine
 62
4
  6
CONTINUOUS
 10
11.618329315
 20
9.0711716813
 11
11.618329315
 21
9.1870827847
  0
LINE
  5
2EB
100
AcDbEntity
  8
0
100
AcDbLine
 62
4
  6
CONTINUOUS
 10
11.6197092434
 20
9.7201781621
 11
11.6197092434
 21
9.6622226104
  0
LINE
  5
2EC
100
AcDbEntity
  8
0
100
AcDbLine
 62
4
  6
CONTINUOUS
 10
11.8515314611
 20
8.8347679371
 11
11.858775905
 21
8.8439247964
  0
LINE
  5
2ED
100
AcDbEntity
  8
0
100
AcDbLine
 62
4
  6
CONTINUOUS
 10
11.873264793
 20
8.7849644335
 11
11.858775905
 21
8.7666507252
  0
LINE
  5
2EE
100
AcDbEntity
  8
0
100
AcDbLine
 62
4
  6
CONTINUOUS
 10
11.9094870128
 20
8.8114301933
 11
11.9022425688
 21
8.802273334
  0
LINE
  5
2EF
100
AcDbEntity
  8
0
100
AcDbLine
 62
4
  6
CONTINUOUS
 10
11.6597261456
 20
9.0683008013
 11
11.618329315
 21
9.0711716813
  0
LINE
  5
2F0
100
AcDbEntity
  8
0
100
AcDbLine
 62
4
  6
CONTINUOUS
 10
11.5686531516
 20
9.0746167349
 11
11.5438150422
 21
9.0763392637
  0
LINE
  5
2F1
100
AcDbEntity
  8
0
100
AcDbLine
 62
4
  6
CONTINUOUS
 10
11.4803399352
 20
9.0807412773
 11
11.4472224928
 21
9.0830379797
  0
LINE
  5
2F2
100
AcDbEntity
  8
0
100
AcDbLine
 62
4
  6
CONTINUOUS
 10
10.9946172104
 20
9.1144262627
 11
10.9532203937
 21
9.1172971416
  0
LINE
  5
2F3
100
AcDbEntity
  8
0
100
AcDbLine
 62
4
  6
CONTINUOUS
 10
11.2567970889
 20
9.0962440263
 11
11.30647328
 21
9.0927989708
  0
LINE
  5
2F4
100
AcDbEntity
  8
0
100
AcDbLine
 62
4
  6
CONTINUOUS
 10
11.7232013079
 20
9.0638987839
 11
11.7728774714
 21
9.0604537302
  0
LINE
  5
2F5
100
AcDbEntity
  8
0
100
AcDbLine
 62
4
  6
CONTINUOUS
 10
10.8869854745
 20
9.1715667366
 11
10.9311420861
 21
9.1464261593
  0
LINE
  5
2F6
100
AcDbEntity
  8
0
100
AcDbLine
 62
4
  6
CONTINUOUS
 10
10.9946172104
 20
9.2303373661
 11
11.0111759385
 21
9.2126302863
  0
LINE
  5
2F7
100
AcDbEntity
  8
0
100
AcDbLine
 62
4
  6
CONTINUOUS
 10
11.858775905
 20
7.3177618999
 11
11.8515314611
 21
7.3472420797
  0
LINE
  5
2F8
100
AcDbEntity
  8
0
100
AcDbLine
 62
4
  6
CONTINUOUS
 10
11.6583462779
 20
9.7174986747
 11
11.6583462779
 21
9.659543123
  0
LINE
  5
2F9
100
AcDbEntity
  8
0
100
AcDbLine
 62
4
  6
CONTINUOUS
 10
11.6762848668
 20
9.1665048255
 11
11.6762848668
 21
9.0837111799
  0
LINE
  5
2FA
100
AcDbEntity
  8
0
100
AcDbLine
 62
4
  6
CONTINUOUS
 10
11.7163018296
 20
9.6555238918
 11
11.7163018296
 21
9.7134794435
  0
LINE
  5
2FB
100
AcDbEntity
  8
0
100
AcDbLine
 62
4
  6
CONTINUOUS
 10
11.7232013079
 20
9.0638987839
 11
11.7232013079
 21
9.1798098873
  0
LINE
  5
2FC
100
AcDbEntity
  8
0
100
AcDbLine
 62
4
  6
CONTINUOUS
 10
11.7549388641
 20
9.6528444044
 11
11.7549388641
 21
9.7687555078
  0
LINE
  5
2FD
100
AcDbEntity
  8
0
100
AcDbLine
 62
4
  6
CONTINUOUS
 10
11.7935758986
 20
9.6501649169
 11
11.7935758986
 21
9.7081204687
  0
LINE
  5
2FE
100
AcDbEntity
  8
0
100
AcDbLine
 62
4
  6
CONTINUOUS
 10
11.832212933
 20
9.7054409812
 11
11.832212933
 21
9.6474854295
  0
LINE
  5
2FF
100
AcDbEntity
  8
0
100
AcDbLine
 62
4
  6
CONTINUOUS
 10
11.858775905
 20
8.7666507252
 11
11.8515314611
 21
8.7381753532
  0
LINE
  5
300
100
AcDbEntity
  8
0
100
AcDbLine
 62
4
  6
CONTINUOUS
 10
11.0691314902
 20
9.1423761394
 11
11.1132880984
 21
9.1393138682
  0
LINE
  5
301
100
AcDbEntity
  8
0
100
AcDbLine
 62
4
  6
CONTINUOUS
 10
11.7563187502
 20
9.1278370007
 11
11.7232013079
 21
9.1301337031
  0
LINE
  5
302
100
AcDbEntity
  8
0
100
AcDbLine
 62
4
  6
CONTINUOUS
 10
11.2899145588
 20
9.1601822412
 11
11.2567970889
 21
9.1624789455
  0
LINE
  5
303
100
AcDbEntity
  8
0
100
AcDbLine
 62
4
  6
CONTINUOUS
 10
10.9532203937
 20
9.2332082451
 11
10.9946172104
 21
9.2303373661
  0
LINE
  5
304
100
AcDbEntity
  8
0
100
AcDbLine
 62
4
  6
CONTINUOUS
 10
11.1574447066
 20
9.2190452409
 11
11.2236796189
 21
9.2144518341
  0
LINE
  5
305
100
AcDbEntity
  8
0
100
AcDbLine
 62
4
  6
CONTINUOUS
 10
11.2567970889
 20
9.2121551298
 11
11.30647328
 21
9.2087100742
  0
LINE
  5
306
100
AcDbEntity
  8
0
100
AcDbLine
 62
4
  6
CONTINUOUS
 10
11.4472224928
 20
9.1989490831
 11
11.4803399352
 21
9.1966523807
  0
LINE
  5
307
100
AcDbEntity
  8
0
100
AcDbLine
 62
4
  6
CONTINUOUS
 10
11.5438150422
 20
9.1922503671
 11
11.5686531516
 21
9.1905278384
  0
LINE
  5
308
100
AcDbEntity
  8
0
100
AcDbLine
 62
4
  6
CONTINUOUS
 10
11.618329315
 20
9.1870827847
 11
11.6597261456
 21
9.1842119048
  0
LINE
  5
309
100
AcDbEntity
  8
0
100
AcDbLine
 62
4
  6
CONTINUOUS
 10
11.7232013079
 20
9.1798098873
 11
11.7728774714
 21
9.1763648337
  0
LINE
  5
30A
100
AcDbEntity
  8
0
100
AcDbLine
 62
4
  6
CONTINUOUS
 10
9.6274871082
 20
9.3444666038
 11
9.6129982203
 21
9.3454714116
  0
LINE
  5
30B
100
AcDbEntity
  8
0
100
AcDbLine
 62
4
  6
CONTINUOUS
 10
9.6129982203
 20
9.4130862196
 11
9.6274871082
 21
9.4120814118
  0
LINE
  5
30C
100
AcDbEntity
  8
0
100
AcDbLine
 62
4
  6
CONTINUOUS
 10
11.8877536809
 20
8.8515744372
 11
11.9022425688
 21
8.8409103731
  0
LINE
  5
30D
100
AcDbEntity
  8
0
100
AcDbLine
 62
4
  6
CONTINUOUS
 10
11.4472224928
 20
9.0830379797
 11
11.4306637717
 21
9.1007450607
  0
LINE
  5
30E
100
AcDbEntity
  8
0
100
AcDbLine
 62
4
  6
CONTINUOUS
 10
11.5438150422
 20
9.0763392637
 11
11.527256321
 21
9.0940463447
  0
LINE
  5
30F
100
AcDbEntity
  8
0
100
AcDbLine
 62
4
  6
CONTINUOUS
 10
11.2981939231
 20
9.4063331254
 11
11.3147526512
 21
9.3886260456
  0
LINE
  5
310
100
AcDbEntity
  8
0
100
AcDbLine
 62
4
  6
CONTINUOUS
 10
11.9094870128
 20
8.830748706
 11
11.9094870128
 21
8.8114301933
  0
LINE
  5
311
100
AcDbEntity
  8
0
100
AcDbLine
 62
7
  6
CONTINUOUS
 10
11.911097708
 20
6.2593422714
 11
11.911097708
 21
6.0675876311
  0
LINE
  5
312
100
AcDbEntity
  8
0
100
AcDbLine
 62
4
  6
CONTINUOUS
 10
11.9239759007
 20
7.3422180407
 11
11.9239759007
 21
7.3035810068
  0
LINE
  5
313
100
AcDbEntity
  8
0
100
AcDbLine
 62
4
  6
CONTINUOUS
 10
11.9288055192
 20
9.6987422626
 11
11.9288055192
 21
9.6697644868
  0
LINE
  5
314
100
AcDbEntity
  8
0
100
AcDbLine
 62
7
  6
CONTINUOUS
 10
11.9505704684
 20
6.2566048261
 11
11.9505704684
 21
6.0778039294
  0
LINE
  5
315
100
AcDbEntity
  8
0
100
AcDbLine
 62
4
  6
CONTINUOUS
 10
11.986761071
 20
9.6657452556
 11
11.986761071
 21
9.6367674797
  0
LINE
  5
316
100
AcDbEntity
  8
0
100
AcDbLine
 62
7
  6
CONTINUOUS
 10
11.0309629418
 20
7.3679290916
 11
11.0051001192
 21
7.3438610202
  0
LINE
  5
317
100
AcDbEntity
  8
0
100
AcDbLine
 62
4
  6
CONTINUOUS
 10
9.6129982203
 20
9.461382515
 11
9.6274871082
 21
9.4603777072
  0
LINE
  5
318
100
AcDbEntity
  8
0
100
AcDbLine
 62
4
  6
CONTINUOUS
 10
11.2981939231
 20
9.3483775737
 11
11.2567970994
 21
9.3512484531
  0
LINE
  5
319
100
AcDbEntity
  8
0
100
AcDbLine
 62
4
  6
CONTINUOUS
 10
11.4389431152
 20
9.3386165841
 11
11.4803399457
 21
9.3357457041
  0
LINE
  5
31A
100
AcDbEntity
  8
0
100
AcDbLine
 62
4
  6
CONTINUOUS
 10
11.2567970994
 20
9.4092040049
 11
11.2981939231
 21
9.4063331254
  0
LINE
  5
31B
100
AcDbEntity
  8
0
100
AcDbLine
 62
4
  6
CONTINUOUS
 10
11.2567970994
 20
9.4671595566
 11
11.2816351933
 21
9.4654370289
  0
LINE
  5
31C
100
AcDbEntity
  8
0
100
AcDbLine
 62
4
  6
CONTINUOUS
 10
11.3478701073
 20
9.460843622
 11
11.405825659
 21
9.4568243909
  0
LINE
  5
31D
100
AcDbEntity
  8
0
100
AcDbLine
 62
4
  6
CONTINUOUS
 10
11.2816351933
 20
9.4654370289
 11
11.289914559
 21
9.4621030615
  0
LINE
  5
31E
100
AcDbEntity
  8
0
100
AcDbLine
 62
4
  6
CONTINUOUS
 10
11.8059949137
 20
9.129911523
 11
11.8501515219
 21
9.1047709443
  0
LINE
  5
31F
100
AcDbEntity
  8
0
100
AcDbLine
 62
4
  6
CONTINUOUS
 10
11.289914559
 20
9.4621030615
 11
11.3064732871
 21
9.4471557732
  0
LINE
  5
320
100
AcDbEntity
  8
0
100
AcDbLine
 62
4
  6
CONTINUOUS
 10
11.5686531516
 20
9.1905278384
 11
11.5852118727
 21
9.1728207591
  0
LINE
  5
321
100
AcDbEntity
  8
0
100
AcDbLine
 62
4
  6
CONTINUOUS
 10
11.6597261456
 20
9.1842119048
 11
11.6762848668
 21
9.1665048255
  0
LINE
  5
322
100
AcDbEntity
  8
0
100
AcDbLine
 62
4
  6
CONTINUOUS
 10
11.9022425688
 20
8.8409103731
 11
11.9094870128
 21
8.830748706
  0
LINE
  5
323
100
AcDbEntity
  8
0
100
AcDbLine
 62
7
  6
CONTINUOUS
 10
12.093012932
 20
10.1104299418
 11
12.093012932
 21
6.2467264078
  0
LINE
  5
324
100
AcDbEntity
  8
0
100
AcDbLine
 62
7
  6
CONTINUOUS
 10
12.101990158
 20
6.2553977428
 11
12.101990158
 21
6.2240641268
  0
LINE
  5
325
100
AcDbEntity
  8
0
100
AcDbLine
 62
4
  6
CONTINUOUS
 10
11.8515314611
 20
7.3472420797
 11
11.858775905
 21
7.3757174516
  0
LINE
  5
326
100
AcDbEntity
  8
0
100
AcDbLine
 62
4
  6
CONTINUOUS
 10
11.3299314848
 20
9.6243632145
 11
11.2912944504
 21
9.627042702
  0
LINE
  5
327
100
AcDbEntity
  8
0
100
AcDbLine
 62
4
  6
CONTINUOUS
 10
11.986761071
 20
9.6367674797
 11
11.9288055192
 21
9.6407867109
  0
LINE
  5
328
100
AcDbEntity
  8
0
100
AcDbLine
 62
4
  6
CONTINUOUS
 10
11.6197092434
 20
9.6622226104
 11
11.5617536917
 21
9.6662418416
  0
LINE
  5
329
100
AcDbEntity
  8
0
100
AcDbLine
 62
4
  6
CONTINUOUS
 10
11.426524071
 20
9.6756200476
 11
11.3685685193
 21
9.6796392788
  0
LINE
  5
32A
100
AcDbEntity
  8
0
100
AcDbLine
 62
4
  6
CONTINUOUS
 10
11.3299314848
 20
9.6823187662
 11
11.2719759331
 21
9.6863379974
  0
LINE
  5
32B
100
AcDbEntity
  8
0
100
AcDbLine
 62
4
  6
CONTINUOUS
 10
10.9638455821
 20
9.7077069098
 11
10.9058900304
 21
9.711726141
  0
LINE
  5
32C
100
AcDbEntity
  8
0
100
AcDbLine
 62
4
  6
CONTINUOUS
 10
10.8769122545
 20
9.7137357566
 11
10.8189567028
 21
9.7177549877
  0
LINE
  5
32D
100
AcDbEntity
  8
0
100
AcDbLine
 62
4
  6
CONTINUOUS
 10
11.6583462779
 20
9.659543123
 11
11.7163018296
 21
9.6555238918
  0
LINE
  5
32E
100
AcDbEntity
  8
0
100
AcDbLine
 62
4
  6
CONTINUOUS
 10
11.832212933
 20
9.6474854295
 11
11.8901684848
 21
9.6434661983
  0
LINE
  5
32F
100
AcDbEntity
  8
0
100
AcDbLine
 62
4
  6
CONTINUOUS
 10
11.9288055192
 20
9.6697644868
 11
11.986761071
 21
9.6657452556
  0
LINE
  5
330
100
AcDbEntity
  8
0
100
AcDbLine
 62
4
  6
CONTINUOUS
 10
11.5617536917
 20
9.7048788761
 11
11.6197092434
 21
9.7008596449
  0
LINE
  5
331
100
AcDbEntity
  8
0
100
AcDbLine
 62
4
  6
CONTINUOUS
 10
11.6197092434
 20
9.7201781621
 11
11.5810722089
 21
9.7228576496
  0
LINE
  5
332
100
AcDbEntity
  8
0
100
AcDbLine
 62
4
  6
CONTINUOUS
 10
11.2246455648
 20
9.7475759213
 11
11.1666900131
 21
9.7515951525
  0
LINE
  5
333
100
AcDbEntity
  8
0
100
AcDbLine
 62
4
  6
CONTINUOUS
 10
10.8189567028
 20
9.7757105395
 11
10.8769122545
 21
9.7716913083
  0
LINE
  5
334
100
AcDbEntity
  8
0
100
AcDbLine
 62
4
  6
CONTINUOUS
 10
11.3685685193
 20
9.7375948305
 11
11.426524071
 21
9.7335755994
  0
LINE
  5
335
100
AcDbEntity
  8
0
100
AcDbLine
 62
4
  6
CONTINUOUS
 10
11.4651611055
 20
9.7308961119
 11
11.5231166572
 21
9.7268768808
  0
LINE
  5
336
100
AcDbEntity
  8
0
100
AcDbLine
 62
4
  6
CONTINUOUS
 10
11.832212933
 20
9.7054409812
 11
11.8901684848
 21
9.7014217501
  0
LINE
  5
337
100
AcDbEntity
  8
0
100
AcDbLine
 62
4
  6
CONTINUOUS
 10
11.9288055192
 20
9.6987422626
 11
11.986761071
 21
9.6947230315
  0
LINE
  5
338
100
AcDbEntity
  8
0
100
AcDbLine
 62
4
  6
CONTINUOUS
 10
11.858775905
 20
7.3757174516
 11
11.873264793
 21
7.3940311634
  0
LINE
  5
339
100
AcDbEntity
  8
0
100
AcDbLine
 62
4
  6
CONTINUOUS
 10
11.873264793
 20
7.3940311634
 11
11.8877536809
 21
7.4026856119
  0
LINE
  5
33A
100
AcDbEntity
  8
0
100
AcDbLine
 62
4
  6
CONTINUOUS
 10
11.7863314546
 20
9.7376006484
 11
11.8008203425
 21
9.7365958406
  0
LINE
  5
33B
100
AcDbEntity
  8
0
100
AcDbLine
 62
4
  6
CONTINUOUS
 10
10.8769122545
 20
9.82964686
 11
10.8189567028
 21
9.8336660912
  0
LINE
  5
33C
100
AcDbEntity
  8
0
100
AcDbLine
 62
4
  6
CONTINUOUS
 10
10.992823358
 20
9.8216083977
 11
11.0507789097
 21
9.8175891665
  0
LINE
  5
33D
100
AcDbEntity
  8
0
100
AcDbLine
 62
4
  6
CONTINUOUS
 10
11.9239759007
 20
7.3035810068
 11
11.9167314568
 21
7.2944241518
  0
LINE
  5
33E
100
AcDbEntity
  8
0
100
AcDbLine
 62
7
  6
CONTINUOUS
 10
12.4488888253
 20
7.8268612753
 11
12.4495736629
 21
7.8275105878
  0
LINE
  5
33F
100
AcDbEntity
  8
0
100
AcDbLine
 62
4
  6
CONTINUOUS
 10
11.9167314568
 20
7.2944241518
 11
11.9022425688
 21
7.2857697007
  0
LINE
  5
340
100
AcDbEntity
  8
0
100
AcDbLine
 62
7
  6
CONTINUOUS
 10
12.8047647186
 20
10.7979294152
 11
12.8047647186
 21
6.9342258811
  0
LINE
  5
341
100
AcDbEntity
  8
0
100
AcDbLine
 62
7
  6
CONTINUOUS
 10
9.1952352814
 20
10.3113915045
 11
12.093012932
 21
10.1104299418
  0
LINE
  5
342
100
AcDbEntity
  8
0
100
AcDbLine
 62
7
  6
CONTINUOUS
 10
12.093012932
 20
6.2467264078
 11
12.8047647186
 21
6.9342258811
  0
LINE
  5
343
100
AcDbEntity
  8
0
100
AcDbLine
 62
7
  6
CONTINUOUS
 10
9.906987068
 20
10.9988909778
 11
12.8047647186
 21
10.7979294152
  0
LINE
  5
344
100
AcDbEntity
  8
0
100
AcDbLine
 62
7
  6
CONTINUOUS
 10
11.993789989
 20
6.0873844177
 11
11.9745720521
 21
6.0778911248
  0
ARC
  5
345
100
AcDbEntity
  8
0
100
AcDbCircle
 62
7
  6
CONTINUOUS
 10
11.4754098701
 20
8.2888209465
 40
2.2641254892
100
AcDbArc
 50
266.0354973614
 51
266.723157899
  0
ARC
  5
346
100
AcDbEntity
  8
0
100
AcDbCircle
 62
7
  6
CONTINUOUS
 10
11.4704807006
 20
8.2168073924
 40
2.1919434639
100
AcDbArc
 50
265.3313245689
 51
266.0338890315
  0
ARC
  5
347
100
AcDbEntity
  8
0
100
AcDbCircle
 62
7
  6
CONTINUOUS
 10
10.4072702769
 20
6.5280777735
 40
1.1388773303
100
AcDbArc
 50
83.760343923
 51
86.0567602902
  0
ARC
  5
348
100
AcDbEntity
  8
0
100
AcDbCircle
 62
7
  6
CONTINUOUS
 10
11.6918982701
 20
6.9958732439
 40
0.9538147475
100
AcDbArc
 50
283.286087793
 51
285.7355389587
  0
ARC
  5
349
100
AcDbEntity
  8
0
100
AcDbCircle
 62
7
  6
CONTINUOUS
 10
11.292960393
 20
6.7638065231
 40
0.7485539414
100
AcDbArc
 50
243.6649403382
 51
246.2656701867
  0
ARC
  5
34A
100
AcDbEntity
  8
0
100
AcDbCircle
 62
7
  6
CONTINUOUS
 10
10.5976888143
 20
7.2611547263
 40
0.6394682641
100
AcDbArc
 50
312.9754824809
 51
313.594693463
  0
ARC
  5
34B
100
AcDbEntity
  8
0
100
AcDbCircle
 62
7
  6
CONTINUOUS
 10
10.4655822353
 20
7.3979196005
 40
0.6393823478
100
AcDbArc
 50
134.6953537295
 51
135.0388959479
  0
ARC
  5
34C
100
AcDbEntity
  8
0
100
AcDbCircle
 62
7
  6
CONTINUOUS
 10
10.0123264831
 20
9.7555883515
 40
0.3526399243
100
AcDbArc
 50
134.8067633541
 51
135.8778734966
  0
ARC
  5
34D
100
AcDbEntity
  8
0
100
AcDbCircle
 62
7
  6
CONTINUOUS
 10
10.0851331196
 20
9.6802119969
 40
0.3525631215
100
AcDbArc
 50
312.1374009866
 51
312.9143445935
  0
ARC
  5
34E
100
AcDbEntity
  8
0
100
AcDbCircle
 62
7
  6
CONTINUOUS
 10
10.0280413056
 20
9.7232581165
 40
0.2948290206
100
AcDbArc
 50
85.9815027045
 51
98.6610039825
  0
SPLINE
  5
34F
100
AcDbEntity
  8
0
100
AcDbSpline
 62
7
  6
CONTINUOUS
 70
0
 71
3
 72
23
 73
19
 74
0
 42
0.0000001
 43
0.0000001
 44
0.0000000001
 40
0.0
 40
0.0
 40
0.0
 40
0.0
 40
0.0771587943
 40
0.1531525983
 40
0.2277645257
 40
0.3008156151
 40
0.3721376111
 40
0.441561383
 40
0.5089207464
 40
0.5740613042
 40
0.63683572
 40
0.6971076841
 40
0.7547490656
 40
0.8096460692
 40
0.8616960538
 40
0.9108140941
 40
0.9569307292
 40
1.0
 40
1.0
 40
1.0
 40
1.0
 10
11.3393184903
 20
6.0058067941
 30
0.0
 10
11.3301534433
 20
6.0064423923
 30
0.0
 10
11.3119703791
 20
6.0078328957
 30
0.0
 10
11.2849623021
 20
6.0102961787
 30
0.0
 10
11.258480909
 20
6.013116919
 30
0.0
 10
11.2325993064
 20
6.0162867756
 30
0.0
 10
11.2073852324
 20
6.0197977265
 30
0.0
 10
11.1829051555
 20
6.0236398281
 30
0.0
 10
11.1592245322
 20
6.0278034314
 30
0.0
 10
11.1364065683
 20
6.0322766783
 30
0.0
 10
11.114511851
 20
6.0370481605
 30
0.0
 10
11.0935984624
 20
6.042104402
 30
0.0
 10
11.0737219224
 20
6.0474324864
 30
0.0
 10
11.0549348003
 20
6.0530174093
 30
0.0
 10
11.0372867986
 20
6.0588448579
 30
0.0
 10
11.0208240635
 20
6.064898592
 30
0.0
 10
11.0055902911
 20
6.0711629568
 30
0.0
 10
10.9959476466
 20
6.0756218382
 30
0.0
 10
10.9913499131
 20
6.077893075
 30
0.0
  0
SPLINE
  5
350
100
AcDbEntity
  8
0
100
AcDbSpline
 62
7
  6
CONTINUOUS
 70
0
 71
3
 72
9
 73
5
 74
0
 42
0.0000001
 43
0.0000001
 44
0.0000000001
 40
0.0
 40
0.0
 40
0.0
 40
0.0
 40
0.5197971894
 40
1.0
 40
1.0
 40
1.0
 40
1.0
 10
10.8783837737
 20
6.1392065857
 30
0.0
 10
10.8756894377
 20
6.1414151571
 30
0.0
 10
10.8706559681
 20
6.1458523799
 30
0.0
 10
10.8660271484
 20
6.1507159696
 30
0.0
 10
10.8639357255
 20
6.1531623047
 30
0.0
  0
SPLINE
  5
351
100
AcDbEntity
  8
0
100
AcDbSpline
 62
7
  6
CONTINUOUS
 70
0
 71
3
 72
23
 73
19
 74
0
 42
0.0000001
 43
0.0000001
 44
0.0000000001
 40
0.0
 40
0.0
 40
0.0
 40
0.0
 40
0.0811307684
 40
0.1602256514
 40
0.2371394166
 40
0.3117306989
 40
0.3838655188
 40
0.453421346
 40
0.5202899008
 40
0.5843906942
 40
0.6456690168
 40
0.7041129182
 40
0.7597463028
 40
0.812646452
 40
0.862931511
 40
0.9107732172
 40
0.9563797285
 40
1.0
 40
1.0
 40
1.0
 40
1.0
 10
12.101990158
 20
6.2240641268
 30
0.0
 10
12.0998126287
 20
6.2197959911
 30
0.0
 10
12.0954535153
 20
6.2113965685
 30
0.0
 10
12.0888060296
 20
6.1990687215
 30
0.0
 10
12.0821293873
 20
6.1871976316
 30
0.0
 10
12.0754246772
 20
6.1758167714
 30
0.0
 10
12.068692797
 20
6.1649598113
 30
0.0
 10
12.061936137
 20
6.154659258
 30
0.0
 10
12.0551562937
 20
6.1449468717
 30
0.0
 10
12.0483571322
 20
6.1358509623
 30
0.0
 10
12.041540895
 20
6.1273975573
 30
0.0
 10
12.0347126429
 20
6.1196067436
 30
0.0
 10
12.0278751094
 20
6.1124951705
 30
0.0
 10
12.0210340182
 20
6.1060715198
 30
0.0
 10
12.0141924756
 20
6.1003405885
 30
0.0
 10
12.0073560938
 20
6.0952983038
 30
0.0
 10
12.0005288115
 20
6.0909372542
 30
0.0
 10
11.9958916924
 20
6.0884221598
 30
0.0
 10
11.9935817591
 20
6.0872815924
 30
0.0
  0
SPLINE
  5
352
100
AcDbEntity
  8
0
100
AcDbSpline
 62
7
  6
CONTINUOUS
 70
0
 71
3
 72
16
 73
12
 74
0
 42
0.0000001
 43
0.0000001
 44
0.0000000001
 40
0.0
 40
0.0
 40
0.0
 40
0.0
 40
0.1090282894
 40
0.2197802851
 40
0.3338949666
 40
0.4528543284
 40
0.5145826996
 40
0.5779903009
 40
0.7103137802
 40
0.8507463606
 40
1.0
 40
1.0
 40
1.0
 40
1.0
 10
10.9869630968
 20
7.3094630582
 30
0.0
 10
10.986963086
 20
7.3109168636
 30
0.0
 10
10.9871566074
 20
7.3138509819
 30
0.0
 10
10.9880246428
 20
7.3182294411
 30
0.0
 10
10.989467781
 20
7.322592523
 30
0.0
 10
10.9911252253
 20
7.3261661941
 30
0.0
 10
10.9927193668
 20
7.3290051369
 30
0.0
 10
10.9945472203
 20
7.3319125948
 30
0.0
 10
10.9972011632
 20
7.3355330736
 30
0.0
 10
11.0008975746
 20
7.3397829333
 30
0.0
 10
11.0036431828
 20
7.3425052045
 30
0.0
 10
11.0051001108
 20
7.3438609961
 30
0.0
  0
SPLINE
  5
353
100
AcDbEntity
  8
0
100
AcDbSpline
 62
7
  6
CONTINUOUS
 70
0
 71
3
 72
9
 73
5
 74
0
 42
0.0000001
 43
0.0000001
 44
0.0000000001
 40
0.0
 40
0.0
 40
0.0
 40
0.0
 40
0.4956217049
 40
1.0
 40
1.0
 40
1.0
 40
1.0
 10
10.9608871377
 20
6.0929411444
 30
0.0
 10
10.9468730274
 20
6.0998659732
 30
0.0
 10
10.9190002855
 20
6.1146631356
 30
0.0
 10
10.8918874988
 20
6.1307977529
 30
0.0
 10
10.8783837737
 20
6.1392065857
 30
0.0
  0
SPLINE
  5
354
100
AcDbEntity
  8
0
100
AcDbSpline
 62
7
  6
CONTINUOUS
 70
0
 71
3
 72
29
 73
25
 74
0
 42
0.0000001
 43
0.0000001
 44
0.0000000001
 40
0.0
 40
0.0
 40
0.0
 40
0.0
 40
0.0193646742
 40
0.0398580369
 40
0.0614684275
 40
0.0841775651
 40
0.1079628328
 40
0.1327976805
 40
0.1586509133
 40
0.1854891319
 40
0.2132749098
 40
0.2419685558
 40
0.271528042
 40
0.3019083628
 40
0.3649423952
 40
0.4306770921
 40
0.4986914915
 40
0.5685439808
 40
0.6397765617
 40
0.7119190669
 40
0.7844942972
 40
0.8570174477
 40
0.929015682
 40
1.0
 40
1.0
 40
1.0
 40
1.0
 10
11.9745754488
 20
6.0778928173
 30
0.0
 10
11.9708443525
 20
6.0760497001
 30
0.0
 10
11.9630847927
 20
6.0724163123
 30
0.0
 10
11.9509252141
 20
6.0672487835
 30
0.0
 10
11.9379345904
 20
6.062218153
 30
0.0
 10
11.9241360877
 20
6.0573330215
 30
0.0
 10
11.909553845
 20
6.0526021582
 30
0.0
 10
11.8942135745
 20
6.0480342667
 30
0.0
 10
11.878142442
 20
6.0436370147
 30
0.0
 10
11.8613688304
 20
6.0394188196
 30
0.0
 10
11.8439225163
 20
6.0353868128
 30
0.0
 10
11.8258344326
 20
6.0315483575
 30
0.0
 10
11.8071366512
 20
6.0279104287
 30
0.0
 10
11.7811174125
 20
6.0232786998
 30
0.0
 10
11.7473110516
 20
6.0180600937
 30
0.0
 10
11.7053502098
 20
6.0127630416
 30
0.0
 10
11.6618097525
 20
6.0083956295
 30
0.0
 10
11.6169989874
 20
6.0049893209
 30
0.0
 10
11.5712359857
 20
6.002568815
 30
0.0
 10
11.5248456802
 20
6.0011515697
 30
0.0
 10
11.4781582153
 20
6.0007479429
 30
0.0
 10
11.4315039497
 20
6.00136044
 30
0.0
 10
11.3852162468
 20
6.0029852448
 30
0.0
 10
11.3545366187
 20
6.0047514133
 30
0.0
 10
11.3393184903
 20
6.0058067941
 30
0.0
  0
SPLINE
  5
355
100
AcDbEntity
  8
0
100
AcDbSpline
 62
7
  6
CONTINUOUS
 70
0
 71
3
 72
15
 73
11
 74
0
 42
0.0000001
 43
0.0000001
 44
0.0000000001
 40
0.0
 40
0.0
 40
0.0
 40
0.0
 40
0.1533173936
 40
0.2965097887
 40
0.4302861152
 40
0.5555889683
 40
0.6736102278
 40
0.7858173637
 40
0.893958022
 40
1.0
 40
1.0
 40
1.0
 40
1.0
 10
11.0516867245
 20
7.3169471549
 30
0.0
 10
11.0500301645
 20
7.3183139118
 30
0.0
 10
11.0469080822
 20
7.3210590136
 30
0.0
 10
11.0426859775
 20
7.3253690214
 30
0.0
 10
11.0390961637
 20
7.3297226147
 30
0.0
 10
11.0361446265
 20
7.3341148721
 30
0.0
 10
11.0338375725
 20
7.3385413705
 30
0.0
 10
11.0321825991
 20
7.3429974452
 30
0.0
 10
11.0311857477
 20
7.3474741745
 30
0.0
 10
11.0309629083
 20
7.3504788517
 30
0.0
 10
11.0309629568
 20
7.351964244
 30
0.0
  0
SPLINE
  5
356
100
AcDbEntity
  8
0
100
AcDbSpline
 62
7
  6
CONTINUOUS
 70
0
 71
3
 72
21
 73
17
 74
0
 42
0.0000001
 43
0.0000001
 44
0.0000000001
 40
0.0
 40
0.0
 40
0.0
 40
0.0
 40
0.1269266306
 40
0.1902356571
 40
0.2534226618
 40
0.3164750211
 40
0.379381614
 40
0.442133702
 40
0.5047247465
 40
0.5671521045
 40
0.6294167402
 40
0.6915228504
 40
0.7534784743
 40
0.8152934295
 40
0.8769787052
 40
1.0
 40
1.0
 40
1.0
 40
1.0
 10
11.911097708
 20
6.0675876311
 30
0.0
 10
11.888090125
 20
6.059863216
 30
0.0
 10
11.8533297195
 20
6.0490754177
 30
0.0
 10
11.8064857988
 20
6.0366558602
 30
0.0
 10
11.7711816123
 20
6.0284301665
 30
0.0
 10
11.7357034769
 20
6.0213724483
 30
0.0
 10
11.7000838678
 20
6.0155582025
 30
0.0
 10
11.6643639321
 20
6.0110492478
 30
0.0
 10
11.6285914101
 20
6.0078859578
 30
0.0
 10
11.5928177927
 20
6.0060839549
 30
0.0
 10
11.5570945854
 20
6.0056350556
 30
0.0
 10
11.5214698686
 20
6.0065057879
 30
0.0
 10
11.48598543
 20
6.0086401915
 30
0.0
 10
11.4506741255
 20
6.0119674014
 30
0.0
 10
11.4039029161
 20
6.0178775434
 30
0.0
 10
11.3690704787
 20
6.0238499458
 30
0.0
 10
11.3459913004
 20
6.0283972993
 30
0.0
  0
SPLINE
  5
357
100
AcDbEntity
  8
0
100
AcDbSpline
 62
7
  6
CONTINUOUS
 70
0
 71
3
 72
15
 73
11
 74
0
 42
0.0000001
 43
0.0000001
 44
0.0000000001
 40
0.0
 40
0.0
 40
0.0
 40
0.0
 40
0.1200350229
 40
0.2408049341
 40
0.3626322888
 40
0.4858903489
 40
0.6109646446
 40
0.7381990118
 40
0.8678398
 40
1.0
 40
1.0
 40
1.0
 40
1.0
 10
11.2920704918
 20
6.0321367201
 30
0.0
 10
11.2798608402
 20
6.0308538856
 30
0.0
 10
11.2552964001
 20
6.0288945323
 30
0.0
 10
11.2181955322
 20
6.0280476813
 30
0.0
 10
11.1807799186
 20
6.0295543679
 30
0.0
 10
11.1431125009
 20
6.0336541974
 30
0.0
 10
11.1052860934
 20
6.040522705
 30
0.0
 10
11.0674152922
 20
6.0502400003
 30
0.0
 10
11.0296211977
 20
6.0627734454
 30
0.0
 10
11.0047804133
 20
6.0728204409
 30
0.0
 10
10.9923992996
 20
6.0782441864
 30
0.0
  0
LINE
  5
358
100
AcDbEntity
  8
0
100
AcDbLine
 62
7
  6
CONTINUOUS
 10
10.9923992996
 20
6.0782441864
 11
10.9916701709
 21
6.0785640804
  0
SPLINE
  5
359
100
AcDbEntity
  8
0
100
AcDbSpline
 62
7
  6
CONTINUOUS
 70
0
 71
3
 72
10
 73
6
 74
0
 42
0.0000001
 43
0.0000001
 44
0.0000000001
 40
0.0
 40
0.0
 40
0.0
 40
0.0
 40
0.5114800979
 40
0.7581744319
 40
1.0
 40
1.0
 40
1.0
 40
1.0
 10
11.9935817591
 20
6.0872815924
 30
0.0
 10
11.9903953157
 20
6.0857082338
 30
0.0
 10
11.9855414235
 20
6.0836244133
 30
0.0
 10
11.9789425038
 20
6.0814421077
 30
0.0
 10
11.975662184
 20
6.0805612487
 30
0.0
 10
11.9740276619
 20
6.0801722202
 30
0.0
  0
SPLINE
  5
35A
100
AcDbEntity
  8
0
100
AcDbSpline
 62
7
  6
CONTINUOUS
 70
0
 71
3
 72
11
 73
7
 74
0
 42
0.0000001
 43
0.0000001
 44
0.0000000001
 40
0.0
 40
0.0
 40
0.0
 40
0.0
 40
0.2545574775
 40
0.5052872671
 40
0.7534080087
 40
1.0
 40
1.0
 40
1.0
 40
1.0
 10
11.9740276619
 20
6.0801722202
 30
0.0
 10
11.9720762329
 20
6.0797077654
 30
0.0
 10
11.9681698081
 20
6.0789182288
 30
0.0
 10
11.9622797852
 20
6.0781399576
 30
0.0
 10
11.9564141427
 20
6.0777564414
 30
0.0
 10
11.9525128653
 20
6.0777490953
 30
0.0
 10
11.9505704684
 20
6.0778039294
 30
0.0
  0
SPLINE
  5
35B
100
AcDbEntity
  8
0
100
AcDbSpline
 62
7
  6
CONTINUOUS
 70
0
 71
3
 72
23
 73
19
 74
0
 42
0.0000001
 43
0.0000001
 44
0.0000000001
 40
0.0
 40
0.0
 40
0.0
 40
0.0
 40
0.0879016965
 40
0.1719274735
 40
0.2520964921
 40
0.3284421582
 40
0.4010182236
 40
0.4699064749
 40
0.5352142224
 40
0.597079044
 40
0.6556801206
 40
0.7112412391
 40
0.7640338354
 40
0.8143856699
 40
0.8626862159
 40
0.9093821457
 40
0.9549728259
 40
1.0
 40
1.0
 40
1.0
 40
1.0
 10
11.0434878531
 20
7.2499475625
 30
0.0
 10
11.0412283833
 20
7.2510651802
 30
0.0
 10
11.0368398486
 20
7.2533142331
 30
0.0
 10
11.0305129694
 20
7.2568147121
 30
0.0
 10
11.0245956922
 20
7.2603628971
 30
0.0
 10
11.019093394
 20
7.2639557316
 30
0.0
 10
11.0140110632
 20
7.2675903237
 30
0.0
 10
11.0093529718
 20
7.2712633623
 30
0.0
 10
11.0051231508
 20
7.274971799
 30
0.0
 10
11.0013256297
 20
7.2787129404
 30
0.0
 10
10.997963807
 20
7.2824838188
 30
0.0
 10
10.9950406889
 20
7.2862814988
 30
0.0
 10
10.9925595301
 20
7.2901033515
 30
0.0
 10
10.9905236855
 20
7.2939466971
 30
0.0
 10
10.9889357761
 20
7.2978081683
 30
0.0
 10
10.9877986386
 20
7.3016844385
 30
0.0
 10
10.9871153491
 20
7.3055706645
 30
0.0
 10
10.9869631064
 20
7.3081718081
 30
0.0
 10
10.9869630968
 20
7.3094630582
 30
0.0
  0
SPLINE
  5
35C
100
AcDbEntity
  8
0
100
AcDbSpline
 62
7
  6
CONTINUOUS
 70
0
 71
3
 72
39
 73
35
 74
0
 42
0.0000001
 43
0.0000001
 44
0.0000000001
 40
0.0
 40
0.0
 40
0.0
 40
0.0
 40
0.0311450469
 40
0.0624431113
 40
0.09388834
 40
0.1254709884
 40
0.1571788814
 40
0.1889972579
 40
0.2209091718
 40
0.2528958393
 40
0.2849370182
 40
0.3170114084
 40
0.349097068
 40
0.3811718384
 40
0.4132137706
 40
0.4452015496
 40
0.4771149115
 40
0.5089350441
 40
0.5406449673
 40
0.5722298867
 40
0.6036775163
 40
0.6349783575
 40
0.6661259304
 40
0.6971169519
 40
0.7279514552
 40
0.7586328387
 40
0.7891678413
 40
0.8195664421
 40
0.8498416837
 40
0.8800094162
 40
0.9100879631
 40
0.9400977203
 40
0.9700606956
 40
1.0
 40
1.0
 40
1.0
 40
1.0
 10
10.0404204295
 20
10.1011273166
 30
0.0
 10
10.049973172
 20
10.1004648317
 30
0.0
 10
10.0690842076
 20
10.0984373868
 30
0.0
 10
10.0975190641
 20
10.0933301784
 30
0.0
 10
10.1256493552
 20
10.0861765427
 30
0.0
 10
10.1533231687
 20
10.0770149166
 30
0.0
 10
10.1803934651
 20
10.0658943928
 30
0.0
 10
10.2067158474
 20
10.0528744674
 30
0.0
 10
10.2321501001
 20
10.0380247323
 30
0.0
 10
10.2565606959
 20
10.0214244738
 30
0.0
 10
10.2798175645
 20
10.0031622538
 30
0.0
 10
10.3017967791
 20
9.9833354701
 30
0.0
 10
10.3223812274
 20
9.9620498462
 30
0.0
 10
10.3414611955
 20
9.9394188362
 30
0.0
 10
10.3589349494
 20
9.9155630349
 30
0.0
 10
10.3747092746
 20
9.8906095489
 30
0.0
 10
10.3887000144
 20
9.8646913521
 30
0.0
 10
10.4008324647
 20
9.8379465479
 30
0.0
 10
10.4110417751
 20
9.8105176513
 30
0.0
 10
10.419273285
 20
9.7825508399
 30
0.0
 10
10.4254828776
 20
9.7541952031
 30
0.0
 10
10.4296371766
 20
9.7256019391
 30
0.0
 10
10.43171372
 20
9.6969235605
 30
0.0
 10
10.4317010823
 20
9.6683130961
 30
0.0
 10
10.4295989954
 20
9.6399232852
 30
0.0
 10
10.4254183593
 20
9.61190576
 30
0.0
 10
10.4191811624
 20
9.5844102445
 30
0.0
 10
10.4109203845
 20
9.5575837557
 30
0.0
 10
10.4006798724
 20
9.5315698231
 30
0.0
 10
10.3885141086
 20
9.5065076432
 30
0.0
 10
10.3744880612
 20
9.48253152
 30
0.0
 10
10.3586761675
 20
9.4597694583
 30
0.0
 10
10.341164513
 20
9.4383449554
 30
0.0
 10
10.3284137152
 20
9.4250245597
 30
0.0
 10
10.3217929969
 20
9.4186294315
 30
0.0
  0
SPLINE
  5
35D
100
AcDbEntity
  8
0
100
AcDbSpline
 62
7
  6
CONTINUOUS
 70
0
 71
3
 72
52
 73
48
 74
0
 42
0.0000001
 43
0.0000001
 44
0.0000000001
 40
0.0
 40
0.0
 40
0.0
 40
0.0
 40
0.0311427988
 40
0.0624387274
 40
0.0938816846
 40
0.1254621074
 40
0.1571677549
 40
0.1889838786
 40
0.2208935331
 40
0.2528779367
 40
0.2849168473
 40
0.316988967
 40
0.3490723557
 40
0.3811448555
 40
0.41318452
 40
0.4451700353
 40
0.4770811391
 40
0.5088990202
 40
0.5406066992
 40
0.5721893849
 40
0.6036347899
 40
0.6193054315
 40
0.6349384403
 40
0.6505331025
 40
0.6660889062
 40
0.6816055432
 40
0.6970829112
 40
0.7125211194
 40
0.7279204883
 40
0.7432815473
 40
0.7586050352
 40
0.7738918989
 40
0.7891432881
 40
0.8043605493
 40
0.8195452217
 40
0.8346990299
 40
0.8498238734
 40
0.8649218171
 40
0.8799950819
 40
0.8950460323
 40
0.9100771614
 40
0.9250910782
 40
0.9400904939
 40
0.9550782048
 40
0.9700570753
 40
0.9850300227
 40
1.0
 40
1.0
 40
1.0
 40
1.0
 10
10.5233833712
 20
8.0309790325
 30
0.0
 10
10.540708003
 20
8.0297775652
 30
0.0
 10
10.5753673979
 20
8.0261006097
 30
0.0
 10
10.6269362745
 20
8.0168383608
 30
0.0
 10
10.6779527994
 20
8.0038646155
 30
0.0
 10
10.7281414363
 20
7.9872492957
 30
0.0
 10
10.7772355761
 20
7.9670813565
 30
0.0
 10
10.8249733097
 20
7.9434687058
 30
0.0
 10
10.8711003616
 20
7.9165375626
 30
0.0
 10
10.9153708927
 20
7.8864316492
 30
0.0
 10
10.9575490956
 20
7.8533117014
 30
0.0
 10
10.9974101501
 20
7.8173542636
 30
0.0
 10
11.0347417154
 20
7.7787511315
 30
0.0
 10
11.0693447435
 20
7.7377079933
 30
0.0
 10
11.101034794
 20
7.6944436143
 30
0.0
 10
11.1296428277
 20
7.6491885214
 30
0.0
 10
11.1550161676
 20
7.6021838046
 30
0.0
 10
11.1770193596
 20
7.5536800789
 30
0.0
 10
11.1955347779
 20
7.5039352937
 30
0.0
 10
11.2104631953
 20
7.4532163923
 30
0.0
 10
11.2198594749
 20
7.4103078635
 30
0.0
 10
11.2255056146
 20
7.375769254
 30
0.0
 10
11.2287984333
 20
7.3498194189
 30
0.0
 10
11.2311492281
 20
7.3238319376
 30
0.0
 10
11.2325549788
 20
7.2978410986
 30
0.0
 10
11.2330137531
 20
7.2718817116
 30
0.0
 10
11.2325248897
 20
7.2459884103
 30
0.0
 10
11.2310890539
 20
7.2201957793
 30
0.0
 10
11.2287081567
 20
7.1945382579
 30
0.0
 10
11.2253853307
 20
7.1690501143
 30
0.0
 10
11.2211249821
 20
7.1437653936
 30
0.0
 10
11.2159328177
 20
7.1187178621
 30
0.0
 10
11.2098157501
 20
7.093940976
 30
0.0
 10
11.2027818929
 20
7.0694678443
 30
0.0
 10
11.1948406469
 20
7.045331157
 30
0.0
 10
11.186002622
 20
7.0215631537
 30
0.0
 10
11.1762795896
 20
6.9981955972
 30
0.0
 10
11.1656845002
 20
6.9752597227
 30
0.0
 10
11.154231531
 20
6.9527861627
 30
0.0
 10
11.1419359731
 20
6.9308049455
 30
0.0
 10
11.1288142108
 20
6.9093454641
 30
0.0
 10
11.1148837778
 20
6.8884363957
 30
0.0
 10
11.1001632961
 20
6.8681056602
 30
0.0
 10
11.0846724434
 20
6.8483804598
 30
0.0
 10
11.0684317912
 20
6.8292870836
 30
0.0
 10
11.0514634228
 20
6.8108513834
 30
0.0
 10
11.0396798782
 20
6.7990145034
 30
0.0
 10
11.0336757278
 20
6.7932149269
 30
0.0
  0
SPLINE
  5
35E
100
AcDbEntity
  8
0
100
AcDbSpline
 62
7
  6
CONTINUOUS
 70
0
 71
3
 72
34
 73
30
 74
0
 42
0.0000001
 43
0.0000001
 44
0.0000000001
 40
0.0
 40
0.0
 40
0.0
 40
0.0
 40
0.0845017631
 40
0.1673004612
 40
0.2480789935
 40
0.3265291774
 40
0.4023563354
 40
0.4391988087
 40
0.4752818393
 40
0.5105731496
 40
0.5450416022
 40
0.5786574517
 40
0.6113923142
 40
0.6432192789
 40
0.6741131428
 40
0.7040503539
 40
0.733009313
 40
0.7609705008
 40
0.7879165715
 40
0.8138327837
 40
0.8387070832
 40
0.8625305056
 40
0.8852976526
 40
0.9070069835
 40
0.9276616105
 40
0.9472699157
 40
0.9658463994
 40
0.9834129555
 40
1.0
 40
1.0
 40
1.0
 40
1.0
 10
10.2324639978
 20
10.4382775687
 30
0.0
 10
10.2193604665
 20
10.4391863017
 30
0.0
 10
10.1934327726
 20
10.4412154358
 30
0.0
 10
10.155048951
 20
10.4449362153
 30
0.0
 10
10.1176784394
 20
10.4492912454
 30
0.0
 10
10.0814783098
 20
10.4542620865
 30
0.0
 10
10.0521388861
 20
10.4589436365
 30
0.0
 10
10.0293733183
 20
10.4629917495
 30
0.0
 10
10.0128486122
 20
10.4661389553
 30
0.0
 10
9.9967269648
 20
10.4694229732
 30
0.0
 10
9.9810252899
 20
10.4728403952
 30
0.0
 10
9.9657600741
 20
10.4763875859
 30
0.0
 10
9.9509473374
 20
10.4800608069
 30
0.0
 10
9.936602623
 20
10.4838562034
 30
0.0
 10
9.9227409682
 20
10.4877697391
 30
0.0
 10
9.9093769035
 20
10.4917973142
 30
0.0
 10
9.896524422
 20
10.4959346757
 30
0.0
 10
9.8841969658
 20
10.5001774462
 30
0.0
 10
9.8724074244
 20
10.5045211965
 30
0.0
 10
9.8611680893
 20
10.5089613268
 30
0.0
 10
9.8504906662
 20
10.5134931934
 30
0.0
 10
9.8403862529
 20
10.5181120743
 30
0.0
 10
9.8308652993
 20
10.5228131238
 30
0.0
 10
9.8219376454
 20
10.5275915178
 30
0.0
 10
9.8136124453
 20
10.5324423446
 30
0.0
 10
9.8058982261
 20
10.5373606554
 30
0.0
 10
9.7988027598
 20
10.5423416938
 30
0.0
 10
9.7923335356
 20
10.5473802623
 30
0.0
 10
9.7883302099
 20
10.5508726379
 30
0.0
 10
9.7864427672
 20
10.5526291091
 30
0.0
  0
SPLINE
  5
35F
100
AcDbEntity
  8
0
100
AcDbSpline
 62
7
  6
CONTINUOUS
 70
0
 71
3
 72
18
 73
14
 74
0
 42
0.0000001
 43
0.0000001
 44
0.0000000001
 40
0.0
 40
0.0
 40
0.0
 40
0.0
 40
0.1504678859
 40
0.2917100145
 40
0.4244359174
 40
0.549562529
 40
0.668213991
 40
0.7255497453
 40
0.7817912733
 40
0.8371402265
 40
0.8918093735
 40
0.9460201098
 40
1.0
 40
1.0
 40
1.0
 40
1.0
 10
12.4488888253
 20
9.7147634147
 30
0.0
 10
12.4509653309
 20
9.7167691652
 30
0.0
 10
12.4551153847
 20
9.7205324645
 30
0.0
 10
12.4615417154
 20
9.7255476958
 30
0.0
 10
12.4679604935
 20
9.7297421798
 30
0.0
 10
12.4743650777
 20
9.7331090431
 30
0.0
 10
12.4797480673
 20
9.7352439974
 30
0.0
 10
12.4840219161
 20
9.7365124696
 30
0.0
 10
12.4871817812
 20
9.7372435912
 30
0.0
 10
12.4903311631
 20
9.7377646753
 30
0.0
 10
12.4934691779
 20
9.7380755534
 30
0.0
 10
12.4965945803
 20
9.738176039
 30
0.0
 10
12.4986710066
 20
9.7381025878
 30
0.0
 10
12.4997042364
 20
9.7380309364
 30
0.0
  0
SPLINE
  5
360
100
AcDbEntity
  8
0
100
AcDbSpline
 62
7
  6
CONTINUOUS
 70
0
 71
3
 72
33
 73
29
 74
0
 42
0.0000001
 43
0.0000001
 44
0.0000000001
 40
0.0
 40
0.0
 40
0.0
 40
0.0
 40
0.0310504132
 40
0.062078276
 40
0.0930928061
 40
0.1241074372
 40
0.1551353354
 40
0.1861910785
 40
0.2172893186
 40
0.2484444211
 40
0.2796699061
 40
0.3109778119
 40
0.3423781193
 40
0.3738781812
 40
0.4054821788
 40
0.4371906181
 40
0.5008788725
 40
0.5648790198
 40
0.6290187464
 40
0.693040341
 40
0.7566156774
 40
0.7881334074
 40
0.8194042572
 40
0.8810229494
 40
0.9113297315
 40
0.9412654197
 40
0.9708213659
 40
1.0
 40
1.0
 40
1.0
 40
1.0
 10
10.2565341538
 20
9.7375660708
 30
0.0
 10
10.2529256685
 20
9.7378163201
 30
0.0
 10
10.2457254232
 20
9.7385522826
 30
0.0
 10
10.2350247568
 20
9.740358181
 30
0.0
 10
10.224468128
 20
9.7428565244
 30
0.0
 10
10.2140958662
 20
9.746033874
 30
0.0
 10
10.2039450749
 20
9.7498735097
 30
0.0
 10
10.1940505387
 20
9.7543553812
 30
0.0
 10
10.1844441892
 20
9.7594568556
 30
0.0
 10
10.1751551801
 20
9.7651530947
 30
0.0
 10
10.1662099345
 20
9.7714175461
 30
0.0
 10
10.15763234
 20
9.7782223321
 30
0.0
 10
10.149443991
 20
9.7855386144
 30
0.0
 10
10.1416645755
 20
9.7933366731
 30
0.0
 10
10.134311858
 20
9.8015865535
 30
0.0
 10
10.1250879
 20
9.8131616697
 30
0.0
 10
10.114711193
 20
9.8286066304
 30
0.0
 10
10.1042371774
 20
9.8483902466
 30
0.0
 10
10.095821367
 20
9.8691755492
 30
0.0
 10
10.0895599978
 20
9.8906544979
 30
0.0
 10
10.0861939269
 20
9.9089178167
 30
0.0
 10
10.08465702
 20
9.9235639336
 30
0.0
 10
10.0839016929
 20
9.9380418336
 30
0.0
 10
10.0842968121
 20
9.9524218993
 30
0.0
 10
10.0858746235
 20
9.9665358249
 30
0.0
 10
10.0876277669
 20
9.9768550325
 30
0.0
 10
10.0899503277
 20
9.9869257521
 30
0.0
 10
10.0918852734
 20
9.993493808
 30
0.0
 10
10.0929459088
 20
9.9967231975
 30
0.0
  0
SPLINE
  5
361
100
AcDbEntity
  8
0
100
AcDbSpline
 62
7
  6
CONTINUOUS
 70
0
 71
3
 72
23
 73
19
 74
0
 42
0.0000001
 43
0.0000001
 44
0.0000000001
 40
0.0
 40
0.0
 40
0.0
 40
0.0
 40
0.0621202721
 40
0.1243881745
 40
0.1867855844
 40
0.2492930309
 40
0.3118899049
 40
0.3745546765
 40
0.4372651193
 40
0.4999985393
 40
0.5627320076
 40
0.6254425949
 40
0.6881076055
 40
0.7507048104
 40
0.8132126762
 40
0.8756105893
 40
0.9378790738
 40
1.0
 40
1.0
 40
1.0
 40
1.0
 10
10.7386669802
 20
7.810714444
 30
0.0
 10
10.7417606365
 20
7.8026897201
 30
0.0
 10
10.7483647454
 20
7.7867756771
 30
0.0
 10
10.7594738132
 20
7.7634118929
 30
0.0
 10
10.7717681896
 20
7.7405879003
 30
0.0
 10
10.7852127861
 20
7.7183689855
 30
0.0
 10
10.7997696787
 20
7.6968176905
 30
0.0
 10
10.8153976987
 20
7.6759949497
 30
0.0
 10
10.8320526872
 20
7.6559595667
 30
0.0
 10
10.8496875822
 20
7.6367681437
 30
0.0
 10
10.8682525601
 20
7.6184748971
 30
0.0
 10
10.8876951752
 20
7.6011315109
 30
0.0
 10
10.9079605
 20
7.584786992
 30
0.0
 10
10.9289913059
 20
7.5694875227
 30
0.0
 10
10.9507281298
 20
7.5552763708
 30
0.0
 10
10.9731097902
 20
7.5421936193
 30
0.0
 10
10.9960722607
 20
7.5302766058
 30
0.0
 10
11.0117465261
 20
7.5231215867
 30
0.0
 10
11.0196585852
 20
7.5197499725
 30
0.0
  0
SPLINE
  5
362
100
AcDbEntity
  8
0
100
AcDbSpline
 62
7
  6
CONTINUOUS
 70
0
 71
3
 72
23
 73
19
 74
0
 42
0.0000001
 43
0.0000001
 44
0.0000000001
 40
0.0
 40
0.0
 40
0.0
 40
0.0
 40
0.0616482077
 40
0.1233194432
 40
0.1850364764
 40
0.2468215657
 40
0.3086962119
 40
0.3706809253
 40
0.4327950037
 40
0.4950563292
 40
0.5574811795
 40
0.6200840681
 40
0.6828776095
 40
0.745872322
 40
0.8090769221
 40
0.8724969185
 40
0.9361382339
 40
1.0
 40
1.0
 40
1.0
 40
1.0
 10
9.7590478621
 20
10.0012252362
 30
0.0
 10
9.7635927988
 20
10.0056153117
 30
0.0
 10
9.7729224899
 20
10.0141543764
 30
0.0
 10
9.7875880288
 20
10.0261947828
 30
0.0
 10
9.8028904086
 20
10.0374393342
 30
0.0
 10
9.8187905502
 20
10.0478592034
 30
0.0
 10
9.8352485132
 20
10.0574282979
 30
0.0
 10
9.8522227803
 20
10.0661225037
 30
0.0
 10
9.8696705851
 20
10.0739199624
 30
0.0
 10
9.8875479614
 20
10.0808010662
 30
0.0
 10
9.9058098697
 20
10.0867485238
 30
0.0
 10
9.9244103104
 20
10.0917473963
 30
0.0
 10
9.9433024262
 20
10.0957851371
 30
0.0
 10
9.9624386686
 20
10.0988516628
 30
0.0
 10
9.9817707565
 20
10.1009392516
 30
0.0
 10
10.0012503226
 20
10.1020428067
 30
0.0
 10
10.0208275457
 20
10.1021594805
 30
0.0
 10
10.033890267
 20
10.101580185
 30
0.0
 10
10.0404204295
 20
10.1011273166
 30
0.0
  0
SPLINE
  5
363
100
AcDbEntity
  8
0
100
AcDbSpline
 62
7
  6
CONTINUOUS
 70
0
 71
3
 72
23
 73
19
 74
0
 42
0.0000001
 43
0.0000001
 44
0.0000000001
 40
0.0
 40
0.0
 40
0.0
 40
0.0
 40
0.0616482106
 40
0.123319444
 40
0.1850364734
 40
0.2468215626
 40
0.3086962119
 40
0.3706809251
 40
0.4327950031
 40
0.4950563302
 40
0.5574811826
 40
0.6200840855
 40
0.6828775753
 40
0.7458723551
 40
0.8090769809
 40
0.8724965648
 40
0.9361390258
 40
1.0
 40
1.0
 40
1.0
 40
1.0
 10
9.9061578011
 20
9.9347733051
 30
0.0
 10
9.9090194259
 20
9.9375374239
 30
0.0
 10
9.9148936846
 20
9.9429138522
 30
0.0
 10
9.924127545
 20
9.9504948277
 30
0.0
 10
9.9337623694
 20
9.9575747209
 30
0.0
 10
9.9437735563
 20
9.9641353799
 30
0.0
 10
9.9541359761
 20
9.9701603469
 30
0.0
 10
9.9648234727
 20
9.9756344619
 30
0.0
 10
9.975809117
 20
9.9805439695
 30
0.0
 10
9.9870652317
 20
9.9848765158
 30
0.0
 10
9.9985634675
 20
9.9886211893
 30
0.0
 10
10.0102748464
 20
9.9917686105
 30
0.0
 10
10.02216987
 20
9.9943109038
 30
0.0
 10
10.0342186062
 20
9.996241686
 30
0.0
 10
10.0463906317
 20
9.9975560717
 30
0.0
 10
10.0586555809
 20
9.9982509182
 30
0.0
 10
10.0709819658
 20
9.9983243452
 30
0.0
 10
10.079206658
 20
9.997959624
 30
0.0
 10
10.0833181871
 20
9.9976744885
 30
0.0
  0
SPLINE
  5
364
100
AcDbEntity
  8
0
100
AcDbSpline
 62
7
  6
CONTINUOUS
 70
0
 71
3
 72
39
 73
35
 74
0
 42
0.0000001
 43
0.0000001
 44
0.0000000001
 40
0.0
 40
0.0
 40
0.0
 40
0.0
 40
0.0303124987
 40
0.0607375651
 40
0.0912778185
 40
0.1219344716
 40
0.1527073313
 40
0.1835948166
 40
0.2145939938
 40
0.2457006259
 40
0.2769092352
 40
0.3082131775
 40
0.339604728
 40
0.3710751761
 40
0.4026149308
 40
0.434213634
 40
0.4658602797
 40
0.4975433368
 40
0.5292508768
 40
0.5609707045
 40
0.5926904897
 40
0.624397903
 40
0.6560807499
 40
0.6877271043
 40
0.7193254382
 40
0.7508647501
 40
0.7823346866
 40
0.8137256619
 40
0.845028979
 40
0.8762368833
 40
0.9073428745
 40
0.9383410714
 40
0.9692282204
 40
1.0
 40
1.0
 40
1.0
 40
1.0
 10
10.3430655937
 20
9.6426226481
 30
0.0
 10
10.3440708486
 20
9.6479438024
 30
0.0
 10
10.3457849987
 20
9.6586650252
 30
0.0
 10
10.3474575884
 20
9.6748936805
 30
0.0
 10
10.3482316667
 20
9.6912519163
 30
0.0
 10
10.3481048464
 20
9.7076898625
 30
0.0
 10
10.3470775947
 20
9.724158268
 30
0.0
 10
10.3451530536
 20
9.7406075699
 30
0.0
 10
10.3423370733
 20
9.7569883347
 30
0.0
 10
10.3386381727
 20
9.7732513262
 30
0.0
 10
10.3340675187
 20
9.7893476736
 30
0.0
 10
10.3286388901
 20
9.8052290104
 30
0.0
 10
10.322368637
 20
9.8208476205
 30
0.0
 10
10.3152756296
 20
9.8361565774
 30
0.0
 10
10.307381215
 20
9.8511098917
 30
0.0
 10
10.2987091437
 20
9.8656626454
 30
0.0
 10
10.2892854938
 20
9.8797711241
 30
0.0
 10
10.2791385947
 20
9.8933929469
 30
0.0
 10
10.2682989416
 20
9.9064871921
 30
0.0
 10
10.256799106
 20
9.91901452
 30
0.0
 10
10.2446736367
 20
9.9309372876
 30
0.0
 10
10.2319589678
 20
9.9422196735
 30
0.0
 10
10.2186932997
 20
9.952827777
 30
0.0
 10
10.204916484
 20
9.9627297175
 30
0.0
 10
10.190669905
 20
9.9718957297
 30
0.0
 10
10.1759963566
 20
9.980298252
 30
0.0
 10
10.1609399159
 20
9.9879120089
 30
0.0
 10
10.1455458098
 20
9.9947140888
 30
0.0
 10
10.1298602942
 20
10.0006840122
 30
0.0
 10
10.1139304726
 20
10.0058038328
 30
0.0
 10
10.0978042961
 20
10.0100580512
 30
0.0
 10
10.0815299511
 20
10.0134339746
 30
0.0
 10
10.0651571129
 20
10.0159211756
 30
0.0
 10
10.0541867866
 20
10.0169840244
 30
0.0
 10
10.0487026323
 20
10.0173643518
 30
0.0
  0
SPLINE
  5
365
100
AcDbEntity
  8
0
100
AcDbSpline
 62
7
  6
CONTINUOUS
 70
0
 71
3
 72
41
 73
37
 74
0
 42
0.0000001
 43
0.0000001
 44
0.0000000001
 40
0.0
 40
0.0
 40
0.0
 40
0.0
 40
0.0299390146
 40
0.0599016995
 40
0.0899111652
 40
0.1199894195
 40
0.1501568586
 40
0.1804318057
 40
0.21083011
 40
0.2413648144
 40
0.2720458993
 40
0.3028801032
 40
0.3338708238
 40
0.3650180938
 40
0.3963186311
 40
0.4277659558
 40
0.4593505685
 40
0.4910601829
 40
0.5228800058
 40
0.5547930577
 40
0.5867805263
 40
0.6188221477
 40
0.6508966074
 40
0.6829819566
 40
0.7150560361
 40
0.7310843127
 40
0.7471015873
 40
0.7790879447
 40
0.8109995493
 40
0.8428176151
 40
0.8745252057
 40
0.9061075358
 40
0.9375524757
 40
0.953222571
 40
0.9688552894
 40
1.0
 40
1.0
 40
1.0
 40
1.0
 10
10.2604785731
 20
9.5679534713
 30
0.0
 10
10.2646471755
 20
9.5719800342
 30
0.0
 10
10.2726754642
 20
9.5803669467
 30
0.0
 10
10.2837013249
 20
9.5938564519
 30
0.0
 10
10.2936569777
 20
9.6081881149
 30
0.0
 10
10.302488207
 20
9.62328419
 30
0.0
 10
10.310148141
 20
9.6390640822
 30
0.0
 10
10.3165958759
 20
9.6554432277
 30
0.0
 10
10.3217971236
 20
9.6723339789
 30
0.0
 10
10.3257242682
 20
9.68964597
 30
0.0
 10
10.328356534
 20
9.7072866369
 30
0.0
 10
10.3296800754
 20
9.7251617078
 30
0.0
 10
10.3296880411
 20
9.7431757088
 30
0.0
 10
10.3283806007
 20
9.7612324717
 30
0.0
 10
10.3257649357
 20
9.7792356442
 30
0.0
 10
10.3218551893
 20
9.7970891981
 30
0.0
 10
10.3166723853
 20
9.814697936
 30
0.0
 10
10.3102443118
 20
9.8319679909
 30
0.0
 10
10.3026053688
 20
9.8488073214
 30
0.0
 10
10.2937963873
 20
9.8651261918
 30
0.0
 10
10.2838643984
 20
9.8808376554
 30
0.0
 10
10.272862432
 20
9.8958579719
 30
0.0
 10
10.2608490536
 20
9.9101071959
 30
0.0
 10
10.2478887364
 20
9.9235090483
 30
0.0
 10
10.2363526127
 20
9.9339153488
 30
0.0
 10
10.2267206249
 20
9.9417478692
 30
0.0
 10
10.2168401397
 20
9.9492363934
 30
0.0
 10
10.2040366925
 20
9.9579433689
 30
0.0
 10
10.1880227902
 20
9.9672930022
 30
0.0
 10
10.1714493813
 20
9.9754907831
 30
0.0
 10
10.1544050572
 20
9.9824925948
 30
0.0
 10
10.1369810877
 20
9.9882609874
 30
0.0
 10
10.1222029711
 20
9.9920190775
 30
0.0
 10
10.1102849974
 20
9.9943788233
 30
0.0
 10
10.0983480644
 20
9.996300913
 30
0.0
 10
10.0893328719
 20
9.9972573687
 30
0.0
 10
10.0833181871
 20
9.9976744885
 30
0.0
  0
SPLINE
  5
366
100
AcDbEntity
  8
0
100
AcDbSpline
 62
7
  6
CONTINUOUS
 70
0
 71
3
 72
15
 73
11
 74
0
 42
0.0000001
 43
0.0000001
 44
0.0000000001
 40
0.0
 40
0.0
 40
0.0
 40
0.0
 40
0.1255303742
 40
0.2509143141
 40
0.3761442327
 40
0.5012166572
 40
0.6261316822
 40
0.7508913549
 40
0.8755141228
 40
1.0
 40
1.0
 40
1.0
 40
1.0
 10
10.3291074497
 20
9.7484991677
 30
0.0
 10
10.3262148169
 20
9.7473991334
 30
0.0
 10
10.3203742619
 20
9.7453510888
 30
0.0
 10
10.3114697048
 20
9.7427476462
 30
0.0
 10
10.3024497734
 20
9.7406247439
 30
0.0
 10
10.2933401465
 20
9.7389917634
 30
0.0
 10
10.2841668521
 20
9.7378563012
 30
0.0
 10
10.2749561917
 20
9.737223924
 30
0.0
 10
10.2657355287
 20
9.7370984295
 30
0.0
 10
10.2595957874
 20
9.7373537457
 30
0.0
 10
10.2565341538
 20
9.7375660708
 30
0.0
  0
SPLINE
  5
367
100
AcDbEntity
  8
0
100
AcDbSpline
 62
7
  6
CONTINUOUS
 70
0
 71
3
 72
27
 73
23
 74
0
 42
0.0000001
 43
0.0000001
 44
0.0000000001
 40
0.0
 40
0.0
 40
0.0
 40
0.0
 40
0.0616468932
 40
0.0924803257
 40
0.1233223752
 40
0.1850380892
 40
0.2468218571
 40
0.2777487751
 40
0.3087006891
 40
0.3706840788
 40
0.4327968318
 40
0.4950568279
 40
0.5574803451
 40
0.6200818952
 40
0.6828740849
 40
0.7143476807
 40
0.7458727128
 40
0.809075817
 40
0.8724948743
 40
0.9042890081
 40
0.9361390688
 40
1.0
 40
1.0
 40
1.0
 40
1.0
 10
10.0130910147
 20
7.8497980152
 30
0.0
 10
10.0213336299
 20
7.8577597874
 30
0.0
 10
10.0340235892
 20
7.8693743392
 30
0.0
 10
10.0515465632
 20
7.8841594916
 30
0.0
 10
10.0694706964
 20
7.8984771002
 30
0.0
 10
10.0926029849
 20
7.9154753671
 30
0.0
 10
10.1166260305
 20
7.9312183801
 30
0.0
 10
10.1363451313
 20
7.9430394093
 30
0.0
 10
10.1564048726
 20
7.9543483578
 30
0.0
 10
10.1820716005
 20
7.9674949373
 30
0.0
 10
10.2137143051
 20
7.9816361064
 30
0.0
 10
10.2461364717
 20
7.9941156209
 30
0.0
 10
10.2792560265
 20
8.0049018403
 30
0.0
 10
10.3129891145
 20
8.0139676687
 30
0.0
 10
10.341520058
 20
8.0200654635
 30
0.0
 10
10.364561927
 20
8.0240644208
 30
0.0
 10
10.3877747312
 20
8.0274801384
 30
0.0
 10
10.4170174181
 20
8.0306380437
 30
0.0
 10
10.4464327096
 20
8.0323043569
 30
0.0
 10
10.4700515245
 20
8.0327448716
 30
0.0
 10
10.4937555902
 20
8.0325890433
 30
0.0
 10
10.5115402812
 20
8.0318003536
 30
0.0
 10
10.5233833712
 20
8.0309790325
 30
0.0
  0
SPLINE
  5
368
100
AcDbEntity
  8
0
100
AcDbSpline
 62
7
  6
CONTINUOUS
 70
0
 71
3
 72
23
 73
19
 74
0
 42
0.0000001
 43
0.0000001
 44
0.0000000001
 40
0.0
 40
0.0
 40
0.0
 40
0.0
 40
0.0616482093
 40
0.1233194447
 40
0.1850364761
 40
0.2468215627
 40
0.3086962074
 40
0.3706809212
 40
0.432795002
 40
0.49505633
 40
0.5574811833
 40
0.6200840699
 40
0.6828776109
 40
0.7458723283
 40
0.8090768909
 40
0.8724970111
 40
0.9361380651
 40
1.0
 40
1.0
 40
1.0
 40
1.0
 10
10.2393859931
 20
7.7284469242
 30
0.0
 10
10.2448847987
 20
7.733758371
 30
0.0
 10
10.2561725855
 20
7.7440895523
 30
0.0
 10
10.2739160759
 20
7.7586569257
 30
0.0
 10
10.2924300646
 20
7.7722614113
 30
0.0
 10
10.3116672593
 20
7.7848681478
 30
0.0
 10
10.3315793455
 20
7.7964455584
 30
0.0
 10
10.3521160959
 20
7.8069644627
 30
0.0
 10
10.3732257705
 20
7.8163984103
 30
0.0
 10
10.3948551754
 20
7.8247236763
 30
0.0
 10
10.4169498171
 20
7.8319193394
 30
0.0
 10
10.4394540368
 20
7.837967341
 30
0.0
 10
10.4623111447
 20
7.8428525029
 30
0.0
 10
10.4854636109
 20
7.8465626142
 30
0.0
 10
10.5088530404
 20
7.8490883453
 30
0.0
 10
10.5324208685
 20
7.8504234912
 30
0.0
 10
10.556106874
 20
7.8505646648
 30
0.0
 10
10.5719111282
 20
7.849863781
 30
0.0
 10
10.5798118325
 20
7.8493158653
 30
0.0
  0
SPLINE
  5
369
100
AcDbEntity
  8
0
100
AcDbSpline
 62
7
  6
CONTINUOUS
 70
0
 71
3
 72
39
 73
35
 74
0
 42
0.0000001
 43
0.0000001
 44
0.0000000001
 40
0.0
 40
0.0
 40
0.0
 40
0.0
 40
0.0306003572
 40
0.0613041676
 40
0.0921099466
 40
0.1230152472
 40
0.1540166918
 40
0.185110012
 40
0.216290096
 40
0.2475510428
 40
0.2788862212
 40
0.3102883345
 40
0.3417494903
 40
0.3732612729
 40
0.4048148209
 40
0.4364009061
 40
0.4680100156
 40
0.4996324357
 40
0.5312583374
 40
0.5628778611
 40
0.5944812031
 40
0.6260587006
 40
0.6576009162
 40
0.6890987212
 40
0.7205433764
 40
0.7519266118
 40
0.7832407023
 40
0.8144785381
 40
0.8456337035
 40
0.8767004981
 40
0.9076741352
 40
0.9385503764
 40
0.9693266309
 40
1.0
 40
1.0
 40
1.0
 40
1.0
 10
11.0870729437
 20
7.2909893078
 30
0.0
 10
11.0870729359
 20
7.3000916835
 30
0.0
 10
11.0866244663
 20
7.3183303087
 30
0.0
 10
11.0846160383
 20
7.3456658753
 30
0.0
 10
11.081275648
 20
7.372962783
 30
0.0
 10
11.076611397
 20
7.4001544302
 30
0.0
 10
11.07063457
 20
7.4271755788
 30
0.0
 10
11.0633596101
 20
7.4539611106
 30
0.0
 10
11.0548040845
 20
7.4804465613
 30
0.0
 10
11.0449886368
 20
7.5065681721
 30
0.0
 10
11.0339369373
 20
7.5322630696
 30
0.0
 10
11.0216756263
 20
7.5574694087
 30
0.0
 10
11.0082342497
 20
7.5821265225
 30
0.0
 10
10.9936451878
 20
7.6061750665
 30
0.0
 10
10.9779435781
 20
7.629557161
 30
0.0
 10
10.9611672304
 20
7.6522165287
 30
0.0
 10
10.943356538
 20
7.6740986315
 30
0.0
 10
10.9245543836
 20
7.6951508032
 30
0.0
 10
10.9048060307
 20
7.7153223724
 30
0.0
 10
10.8841590163
 20
7.7345647842
 30
0.0
 10
10.8626630369
 20
7.7528317163
 30
0.0
 10
10.8403698296
 20
7.77007919
 30
0.0
 10
10.8173330483
 20
7.7862656755
 30
0.0
 10
10.7936081353
 20
7.8013521913
 30
0.0
 10
10.7692521888
 20
7.8153023975
 30
0.0
 10
10.7443238268
 20
7.8280826845
 30
0.0
 10
10.7188830489
 20
7.8396622572
 30
0.0
 10
10.6929910872
 20
7.8500132091
 30
0.0
 10
10.6667102715
 20
7.8591105708
 30
0.0
 10
10.6401038344
 20
7.8669324238
 30
0.0
 10
10.6132359261
 20
7.8734598229
 30
0.0
 10
10.5861709099
 20
7.8786771205
 30
0.0
 10
10.5589749198
 20
7.88257149
 30
0.0
 10
10.5407678057
 20
7.8842826062
 30
0.0
 10
10.531665574
 20
7.8849138481
 30
0.0
  0
SPLINE
  5
36A
100
AcDbEntity
  8
0
100
AcDbSpline
 62
7
  6
CONTINUOUS
 70
0
 71
3
 72
42
 73
38
 74
0
 42
0.0000001
 43
0.0000001
 44
0.0000000001
 40
0.0
 40
0.0
 40
0.0
 40
0.0
 40
0.0149707805
 40
0.0299445306
 40
0.0449242042
 40
0.0599127184
 40
0.0749129376
 40
0.0899276594
 40
0.1200056895
 40
0.1501729042
 40
0.1804476258
 40
0.2108457035
 40
0.2413801811
 40
0.2720610377
 40
0.302895011
 40
0.3338854998
 40
0.3650325374
 40
0.3963328406
 40
0.4277799299
 40
0.4593643074
 40
0.491073686
 40
0.5228932718
 40
0.554806086
 40
0.5867933165
 40
0.6188346988
 40
0.6509089188
 40
0.682994028
 40
0.715067868
 40
0.7471084975
 40
0.7790946169
 40
0.8110059833
 40
0.8428238138
 40
0.8745311626
 40
0.9061132744
 40
0.937557951
 40
0.9688554921
 40
1.0
 40
1.0
 40
1.0
 40
1.0
 10
10.9202376719
 20
7.0235774404
 30
0.0
 10
10.9242431683
 20
7.0274464589
 30
0.0
 10
10.9321042441
 20
7.0353430666
 30
0.0
 10
10.9434242135
 20
7.0476418923
 30
0.0
 10
10.9542587383
 20
7.0603794663
 30
0.0
 10
10.9645929993
 20
7.0735385038
 30
0.0
 10
10.9744134731
 20
7.0871017187
 30
0.0
 10
10.9868103831
 20
7.1057087266
 30
0.0
 10
11.0009624884
 20
7.1298997589
 30
0.0
 10
11.0156810551
 20
7.1602212052
 30
0.0
 10
11.0280709641
 20
7.1916950453
 30
0.0
 10
11.0380654915
 20
7.2241517302
 30
0.0
 10
11.0456117579
 20
7.2574179294
 30
0.0
 10
11.050669822
 20
7.2913156798
 30
0.0
 10
11.0532131074
 20
7.3256638554
 30
0.0
 10
11.0532284143
 20
7.3602789947
 30
0.0
 10
11.0507160676
 20
7.394976303
 30
0.0
 10
11.0456898987
 20
7.4295706351
 30
0.0
 10
11.0381770748
 20
7.4638774696
 30
0.0
 10
11.0282179537
 20
7.4977138667
 30
0.0
 10
11.0158659624
 20
7.5308994608
 30
0.0
 10
11.0011872189
 20
7.5632573942
 30
0.0
 10
10.9842601547
 20
7.5946152279
 30
0.0
 10
10.9651751462
 20
7.6248058639
 30
0.0
 10
10.9440340712
 20
7.6536684582
 30
0.0
 10
10.9209496851
 20
7.6810492181
 30
0.0
 10
10.8960450336
 20
7.7068022017
 30
0.0
 10
10.8694528769
 20
7.730790156
 30
0.0
 10
10.8413149397
 20
7.7528852082
 30
0.0
 10
10.8117811397
 20
7.7729695035
 30
0.0
 10
10.7810088185
 20
7.790935847
 30
0.0
 10
10.7491619712
 20
7.8066883437
 30
0.0
 10
10.7164102485
 20
7.8201428228
 30
0.0
 10
10.6829283462
 20
7.8312272724
 30
0.0
 10
10.6488941535
 20
7.8398822905
 30
0.0
 10
10.6144914772
 20
7.8460613777
 30
0.0
 10
10.5913694734
 20
7.8485143401
 30
0.0
 10
10.5798118325
 20
7.8493158653
 30
0.0
  0
SPLINE
  5
36B
100
AcDbEntity
  8
0
100
AcDbSpline
 62
7
  6
CONTINUOUS
 70
0
 71
3
 72
23
 73
19
 74
0
 42
0.0000001
 43
0.0000001
 44
0.0000000001
 40
0.0
 40
0.0
 40
0.0
 40
0.0
 40
0.0628226738
 40
0.1253748214
 40
0.1877153664
 40
0.2499071147
 40
0.3120121715
 40
0.3740883746
 40
0.4361867071
 40
0.4983495877
 40
0.5606099231
 40
0.6229908244
 40
0.6855058421
 40
0.7481595627
 40
0.8109489397
 40
0.8738631402
 40
0.9368878927
 40
1.0
 40
1.0
 40
1.0
 40
1.0
 10
10.3939965599
 20
7.8242536438
 30
0.0
 10
10.3903730464
 20
7.8179707192
 30
0.0
 10
10.3834583379
 20
7.8052460549
 30
0.0
 10
10.3740966043
 20
7.7856904133
 30
0.0
 10
10.365780834
 20
7.7657458812
 30
0.0
 10
10.3585187864
 20
7.7454490447
 30
0.0
 10
10.3523145335
 20
7.724836224
 30
0.0
 10
10.347170169
 20
7.7039449294
 30
0.0
 10
10.3430864403
 20
7.6828140286
 30
0.0
 10
10.3400633672
 20
7.6614841884
 30
0.0
 10
10.3381006242
 20
7.6399981528
 30
0.0
 10
10.3371978014
 20
7.6184009677
 30
0.0
 10
10.3373545663
 20
7.5967401465
 30
0.0
 10
10.3385707062
 20
7.5750657107
 30
0.0
 10
10.3408462001
 20
7.5534304557
 30
0.0
 10
10.3441810207
 20
7.5318894197
 30
0.0
 10
10.3485750132
 20
7.5105016512
 30
0.0
 10
10.3522084794
 20
7.4963922826
 30
0.0
 10
10.354201244
 20
7.4893837367
 30
0.0
  0
SPLINE
  5
36C
100
AcDbEntity
  8
0
100
AcDbSpline
 62
7
  6
CONTINUOUS
 70
0
 71
3
 72
39
 73
35
 74
0
 42
0.0000001
 43
0.0000001
 44
0.0000000001
 40
0.0
 40
0.0
 40
0.0
 40
0.0
 40
0.0307310376
 40
0.0615708902
 40
0.0925169318
 40
0.1235654146
 40
0.1547115199
 40
0.1859494179
 40
0.2172723364
 40
0.2486726377
 40
0.2801419019
 40
0.3116710177
 40
0.3432502764
 40
0.3748694719
 40
0.4065180037
 40
0.4381849818
 40
0.4698593351
 40
0.5015299201
 40
0.53318563
 40
0.5648155042
 40
0.5964088361
 40
0.6279552803
 40
0.6594449558
 40
0.6908685473
 40
0.7222174012
 40
0.7534836176
 40
0.7846601354
 40
0.8157408117
 40
0.8467204934
 40
0.8775950798
 40
0.9083615762
 40
0.9390181373
 40
0.9695640993
 40
1.0
 40
1.0
 40
1.0
 40
1.0
 10
10.9893433836
 20
7.3201912806
 30
0.0
 10
10.9814552433
 20
7.3207655414
 30
0.0
 10
10.9656779413
 20
7.3223271216
 30
0.0
 10
10.9421256775
 20
7.3258906109
 30
0.0
 10
10.918705783
 20
7.3306698915
 30
0.0
 10
10.895482737
 20
7.3366518475
 30
0.0
 10
10.8725194081
 20
7.3438201847
 30
0.0
 10
10.849878241
 20
7.352155369
 30
0.0
 10
10.8276207232
 20
7.361634709
 30
0.0
 10
10.8058073169
 20
7.3722324087
 30
0.0
 10
10.7844972681
 20
7.3839196386
 30
0.0
 10
10.7637484554
 20
7.3966646166
 30
0.0
 10
10.7436172317
 20
7.4104326938
 30
0.0
 10
10.7241582725
 20
7.4251864483
 30
0.0
 10
10.7054244284
 20
7.4408857867
 30
0.0
 10
10.6874665827
 20
7.4574880524
 30
0.0
 10
10.6703335133
 20
7.4749481413
 30
0.0
 10
10.6540717617
 20
7.4932186231
 30
0.0
 10
10.6387255071
 20
7.5122498698
 30
0.0
 10
10.6243364465
 20
7.5319901898
 30
0.0
 10
10.6109436826
 20
7.5523859672
 30
0.0
 10
10.598583615
 20
7.5733818055
 30
0.0
 10
10.5872898436
 20
7.5949206787
 30
0.0
 10
10.5770930782
 20
7.6169440852
 30
0.0
 10
10.5680210551
 20
7.6393922062
 30
0.0
 10
10.5600984615
 20
7.6622040665
 30
0.0
 10
10.5533468688
 20
7.685317699
 30
0.0
 10
10.5477846734
 20
7.7086703133
 30
0.0
 10
10.5434270458
 20
7.7321984578
 30
0.0
 10
10.5402858915
 20
7.7558382182
 30
0.0
 10
10.5383698061
 20
7.7795252891
 30
0.0
 10
10.5376840951
 20
7.8031955219
 30
0.0
 10
10.538230592
 20
7.8267837075
 30
0.0
 10
10.5394178239
 20
7.842441808
 30
0.0
 10
10.5402166807
 20
7.8502340244
 30
0.0
  0
SPLINE
  5
36D
100
AcDbEntity
  8
0
100
AcDbSpline
 62
7
  6
CONTINUOUS
 70
0
 71
3
 72
93
 73
89
 74
0
 42
0.0000001
 43
0.0000001
 44
0.0000000001
 40
0.0
 40
0.0
 40
0.0
 40
0.0
 40
0.0027164122
 40
0.0054531986
 40
0.0082302464
 40
0.0110665143
 40
0.0139796987
 40
0.0169859749
 40
0.0200999116
 40
0.0233343924
 40
0.0267007144
 40
0.0302086301
 40
0.0338665055
 40
0.0376814345
 40
0.0416593638
 40
0.0458052537
 40
0.0501231341
 40
0.0546162866
 40
0.0592872492
 40
0.0641379798
 40
0.0691698571
 40
0.0743837847
 40
0.0797802281
 40
0.0853592419
 40
0.0911205549
 40
0.097063532
 40
0.1031872889
 40
0.1094906267
 40
0.1159721353
 40
0.1226301497
 40
0.136467702
 40
0.1509863985
 40
0.166166177
 40
0.1819844989
 40
0.1984166092
 40
0.2154357535
 40
0.2330133648
 40
0.2511192265
 40
0.2697216198
 40
0.2887874599
 40
0.3082824199
 40
0.3281710492
 40
0.3484168852
 40
0.3689825618
 40
0.3898299142
 40
0.4109200821
 40
0.4322136103
 40
0.45367055
 40
0.4752505584
 40
0.496912997
 40
0.5186170297
 40
0.5403217213
 40
0.5619861345
 40
0.5835694282
 40
0.6050309555
 40
0.6263303623
 40
0.6474276864
 40
0.6682834561
 40
0.6888587905
 40
0.7091155008
 40
0.729016193
 40
0.7485243728
 40
0.7676045542
 40
0.7862223725
 40
0.8043447018
 40
0.8219397795
 40
0.8389773394
 40
0.8554287585
 40
0.8712672205
 40
0.8864679016
 40
0.901008187
 40
0.914867929
 40
0.921537231
 40
0.9280301459
 40
0.9343449921
 40
0.9404803324
 40
0.9464349771
 40
0.9522079882
 40
0.9577987496
 40
0.9632069274
 40
0.9684325931
 40
0.9734761642
 40
0.9783385117
 40
0.9830209603
 40
0.9875254509
 40
0.9918545996
 40
0.9960115539
 40
1.0
 40
1.0
 40
1.0
 40
1.0
 10
12.3980734142
 20
8.2725507701
 30
0.0
 10
12.39670256
 20
8.2726458349
 30
0.0
 10
12.3939575871
 20
8.272960734
 30
0.0
 10
12.3898750731
 20
8.2738034489
 30
0.0
 10
12.3858234206
 20
8.2750163844
 30
0.0
 10
12.3818054914
 20
8.2765983161
 30
0.0
 10
12.3778234075
 20
8.2785479281
 30
0.0
 10
12.3738791472
 20
8.2808635833
 30
0.0
 10
12.369974601
 20
8.283543746
 30
0.0
 10
12.3661114316
 20
8.2865866176
 30
0.0
 10
12.3622913709
 20
8.2899904977
 30
0.0
 10
12.3585160214
 20
8.2937534764
 30
0.0
 10
12.3547870521
 20
8.297873614
 30
0.0
 10
12.3511061231
 20
8.3023488207
 30
0.0
 10
12.34747487
 20
8.3071768478
 30
0.0
 10
12.3438950237
 20
8.3123553405
 30
0.0
 10
12.3403681952
 20
8.3178817117
 30
0.0
 10
12.3368961418
 20
8.3237532794
 30
0.0
 10
12.3334804661
 20
8.329967118
 30
0.0
 10
12.3301228906
 20
8.3365201847
 30
0.0
 10
12.3268250253
 20
8.3434092225
 30
0.0
 10
12.3235885141
 20
8.3506308224
 30
0.0
 10
12.3204149733
 20
8.3581813981
 30
0.0
 10
12.3173059528
 20
8.366057185
 30
0.0
 10
12.3142630553
 20
8.3742542676
 30
0.0
 10
12.3112877464
 20
8.3827685426
 30
0.0
 10
12.308381579
 20
8.3915957667
 30
0.0
 10
12.3055459642
 20
8.400731512
 30
0.0
 10
12.302782347
 20
8.4101712228
 30
0.0
 10
12.2991486594
 20
8.4233258707
 30
0.0
 10
12.2948087268
 20
8.4405011393
 30
0.0
 10
12.2899737772
 20
8.4619896012
 30
0.0
 10
12.2854570236
 20
8.4845698146
 30
0.0
 10
12.2812676334
 20
8.5081964632
 30
0.0
 10
12.2774141383
 20
8.5328222797
 30
0.0
 10
12.2739043808
 20
8.5583978823
 30
0.0
 10
12.2707455068
 20
8.5848719608
 30
0.0
 10
12.2679439462
 20
8.6121913644
 30
0.0
 10
12.2655054015
 20
8.6403012215
 30
0.0
 10
12.2634348378
 20
8.6691450535
 30
0.0
 10
12.2617364728
 20
8.698664893
 30
0.0
 10
12.260413769
 20
8.7288014024
 30
0.0
 10
12.2594694276
 20
8.7594939957
 30
0.0
 10
12.2589053832
 20
8.7906809616
 30
0.0
 10
12.2587228005
 20
8.8222995889
 30
0.0
 10
12.2589220726
 20
8.8542862932
 30
0.0
 10
12.2595028186
 20
8.8865767458
 30
0.0
 10
12.260463886
 20
8.9191060045
 30
0.0
 10
12.2618033539
 20
8.9518086451
 30
0.0
 10
12.2635185369
 20
8.9846188936
 30
0.0
 10
12.2656059903
 20
9.0174707591
 30
0.0
 10
12.2680615177
 20
9.0502981665
 30
0.0
 10
12.270880179
 20
9.0830350899
 30
0.0
 10
12.2740563006
 20
9.1156156857
 30
0.0
 10
12.2775834865
 20
9.1479744259
 30
0.0
 10
12.2814546296
 20
9.1800462312
 30
0.0
 10
12.2856619279
 20
9.2117666019
 30
0.0
 10
12.2901968996
 20
9.2430717488
 30
0.0
 10
12.2950504003
 20
9.2738987217
 30
0.0
 10
12.3002126409
 20
9.3041855368
 30
0.0
 10
12.3056732072
 20
9.3338713025
 30
0.0
 10
12.3114210805
 20
9.3628963432
 30
0.0
 10
12.3174446596
 20
9.391202321
 30
0.0
 10
12.3237317829
 20
9.4187323567
 30
0.0
 10
12.3302697525
 20
9.4454311468
 30
0.0
 10
12.3370453611
 20
9.4712450784
 30
0.0
 10
12.3440449183
 20
9.4961223386
 30
0.0
 10
12.351254279
 20
9.5200130311
 30
0.0
 10
12.3586588729
 20
9.5428692612
 30
0.0
 10
12.3662437374
 20
9.5646453199
 30
0.0
 10
12.3739935498
 20
9.5852975149
 30
0.0
 10
12.3806587255
 20
9.6017409814
 30
0.0
 10
12.3860704658
 20
9.6142941363
 30
0.0
 10
12.3901086956
 20
9.623281852
 30
0.0
 10
12.3941763967
 20
9.6319588615
 30
0.0
 10
12.398271546
 20
9.6403208304
 30
0.0
 10
12.4023920685
 20
9.6483635791
 30
0.0
 10
12.4065359327
 20
9.6560830773
 30
0.0
 10
12.4107010135
 20
9.6634754892
 30
0.0
 10
12.414885291
 20
9.6705371089
 30
0.0
 10
12.419086622
 20
9.6772644501
 30
0.0
 10
12.4233029785
 20
9.6836541418
 30
0.0
 10
12.427532215
 20
9.6897030234
 30
0.0
 10
12.4317722701
 20
9.6954080972
 30
0.0
 10
12.4360211033
 20
9.7007665693
 30
0.0
 10
12.440276711
 20
9.7057758569
 30
0.0
 10
12.4445368666
 20
9.7104332442
 30
0.0
 10
12.4474376372
 20
9.7133616746
 30
0.0
 10
12.4488888253
 20
9.7147634147
 30
0.0
  0
SPLINE
  5
36E
100
AcDbEntity
  8
0
100
AcDbSpline
 62
7
  6
CONTINUOUS
 70
0
 71
3
 72
82
 73
78
 74
0
 42
0.0000001
 43
0.0000001
 44
0.0000000001
 40
0.0
 40
0.0
 40
0.0
 40
0.0
 40
0.0027966293
 40
0.00566815
 40
0.0086296718
 40
0.0116947836
 40
0.0181798032
 40
0.0216223831
 40
0.0252084022
 40
0.0289445949
 40
0.0328366681
 40
0.036889395
 40
0.0411066806
 40
0.0454917413
 40
0.0500470892
 40
0.0547746793
 40
0.0596759582
 40
0.0647518695
 40
0.0700029969
 40
0.0754295028
 40
0.0810312336
 40
0.0868077441
 40
0.0927582656
 40
0.105176775
 40
0.118276519
 40
0.1320435316
 40
0.1464610289
 40
0.1615097409
 40
0.1771681695
 40
0.1934128182
 40
0.2102183918
 40
0.2275579589
 40
0.2454030945
 40
0.2637239986
 40
0.2824896246
 40
0.301667796
 40
0.3212253098
 40
0.3411280334
 40
0.3613409949
 40
0.3818284857
 40
0.4025541539
 40
0.4234810938
 40
0.4657882554
 40
0.5084476495
 40
0.5511530548
 40
0.5935978248
 40
0.6354776983
 40
0.6561124088
 40
0.6764943144
 40
0.6965873122
 40
0.7163559803
 40
0.7357656683
 40
0.754782599
 40
0.7733739706
 40
0.7915080503
 40
0.8091542797
 40
0.8262833882
 40
0.8428675276
 40
0.8588804076
 40
0.8742974376
 40
0.8890958988
 40
0.9032551468
 40
0.9167568682
 40
0.9295853677
 40
0.9417279278
 40
0.9475391734
 40
0.9531757863
 40
0.958637221
 40
0.9639232934
 40
0.9690341004
 40
0.9739701145
 40
0.9787322094
 40
0.9833216912
 40
0.9877405035
 40
0.9919911197
 40
0.9960764655
 40
1.0
 40
1.0
 40
1.0
 40
1.0
 10
12.368372658
 20
8.4358745722
 30
0.0
 10
12.3673373398
 20
8.4362406068
 30
0.0
 10
12.3652688157
 20
8.4370696317
 30
0.0
 10
12.3622285723
 20
8.4385728052
 30
0.0
 10
12.3592162292
 20
8.4403490293
 30
0.0
 10
12.3551635698
 20
8.4431315316
 30
0.0
 10
12.3512487557
 20
8.4464253764
 30
0.0
 10
12.3474753111
 20
8.4501578568
 30
0.0
 10
12.3446229559
 20
8.4532798173
 30
0.0
 10
12.3418064496
 20
8.4566664549
 30
0.0
 10
12.3390267495
 20
8.4603164608
 30
0.0
 10
12.3362851827
 20
8.4642280445
 30
0.0
 10
12.3335828989
 20
8.4683993625
 30
0.0
 10
12.330921196
 20
8.4728284862
 30
0.0
 10
12.3283012459
 20
8.4775133117
 30
0.0
 10
12.3257242774
 20
8.4824516437
 30
0.0
 10
12.32319152
 20
8.4876411637
 30
0.0
 10
12.3207041124
 20
8.4930794033
 30
0.0
 10
12.3182632876
 20
8.4987638086
 30
0.0
 10
12.3158701615
 20
8.5046916727
 30
0.0
 10
12.313525886
 20
8.5108601826
 30
0.0
 10
12.3112315812
 20
8.5172664213
 30
0.0
 10
12.3081973376
 20
8.5262491735
 30
0.0
 10
12.3045479213
 20
8.5380569494
 30
0.0
 10
12.3004447172
 20
8.5529290309
 30
0.0
 10
12.296565514
 20
8.5686705791
 30
0.0
 10
12.292917792
 20
8.5852515656
 30
0.0
 10
12.2895086185
 20
8.6026405057
 30
0.0
 10
12.2863445915
 20
8.6208042503
 30
0.0
 10
12.283431836
 20
8.6397081431
 30
0.0
 10
12.2807759951
 20
8.6593160786
 30
0.0
 10
12.2783822159
 20
8.6795905867
 30
0.0
 10
12.2762551424
 20
8.7004929008
 30
0.0
 10
12.274398893
 20
8.7219830334
 30
0.0
 10
12.2728170616
 20
8.7440198579
 30
0.0
 10
12.2715127154
 20
8.7665611944
 30
0.0
 10
12.2704883869
 20
8.7895638926
 30
0.0
 10
12.2697460724
 20
8.8129839103
 30
0.0
 10
12.2692872123
 20
8.8367764017
 30
0.0
 10
12.2691127098
 20
8.8608957908
 30
0.0
 10
12.269222894
 20
8.885295922
 30
0.0
 10
12.2697511443
 20
8.9182597615
 30
0.0
 10
12.2711241071
 20
8.9598208016
 30
0.0
 10
12.273882646
 20
9.0098801546
 30
0.0
 10
12.2777372781
 20
9.0599214223
 30
0.0
 10
12.2826584352
 20
9.1095613858
 30
0.0
 10
12.2876406695
 20
9.1504762002
 30
0.0
 10
12.2921387997
 20
9.1827145043
 30
0.0
 10
12.2957365385
 20
9.2064390429
 30
0.0
 10
12.2995679377
 20
9.2297824215
 30
0.0
 10
12.3036256688
 20
9.252699973
 30
0.0
 10
12.3079019319
 20
9.2751478063
 30
0.0
 10
12.3123885119
 20
9.2970829492
 30
0.0
 10
12.3170767794
 20
9.3184634191
 30
0.0
 10
12.3219577198
 20
9.3392483051
 30
0.0
 10
12.3270219465
 20
9.3593978425
 30
0.0
 10
12.3322597231
 20
9.3788734946
 30
0.0
 10
12.3376609712
 20
9.3976380361
 30
0.0
 10
12.3432152931
 20
9.4156556292
 30
0.0
 10
12.3489120005
 20
9.432891889
 30
0.0
 10
12.3547401333
 20
9.4493139594
 30
0.0
 10
12.3606884887
 20
9.4648905645
 30
0.0
 10
12.3667456413
 20
9.4795921739
 30
0.0
 10
12.372899958
 20
9.4933907764
 30
0.0
 10
12.3781740676
 20
9.5042691835
 30
0.0
 10
12.3824408315
 20
9.512491467
 30
0.0
 10
12.3856109421
 20
9.5183258557
 30
0.0
 10
12.3887965258
 20
9.5239156783
 30
0.0
 10
12.391996045
 20
9.5292583114
 30
0.0
 10
12.3952080135
 20
9.534351205
 30
0.0
 10
12.3984309001
 20
9.5391919422
 30
0.0
 10
12.4016631424
 20
9.5437782444
 30
0.0
 10
12.4049032905
 20
9.5481079347
 30
0.0
 10
12.4081498227
 20
9.5521790366
 30
0.0
 10
12.4114013163
 20
9.5559896348
 30
0.0
 10
12.4146560774
 20
9.5595377571
 30
0.0
 10
12.4168711075
 20
9.5617714947
 30
0.0
 10
12.4179791963
 20
9.5628418263
 30
0.0
  0
SPLINE
  5
36F
100
AcDbEntity
  8
0
100
AcDbSpline
 62
7
  6
CONTINUOUS
 70
0
 71
3
 72
15
 73
11
 74
0
 42
0.0000001
 43
0.0000001
 44
0.0000000001
 40
0.0
 40
0.0
 40
0.0
 40
0.0
 40
0.1084409115
 40
0.2203197468
 40
0.3363915422
 40
0.4573221093
 40
0.5836913596
 40
0.7159974707
 40
0.8546566544
 40
1.0
 40
1.0
 40
1.0
 40
1.0
 10
12.447743617
 20
9.5803703391
 30
0.0
 10
12.4465041674
 20
9.5801173427
 30
0.0
 10
12.4440091572
 20
9.5794829478
 30
0.0
 10
12.4403027729
 20
9.5781800877
 30
0.0
 10
12.4365843766
 20
9.5765148644
 30
0.0
 10
12.4328565907
 20
9.5744890612
 30
0.0
 10
12.4291213407
 20
9.5721043305
 30
0.0
 10
12.4253805995
 20
9.5693624606
 30
0.0
 10
12.4216366495
 20
9.5662655063
 30
0.0
 10
12.4191986842
 20
9.5640197613
 30
0.0
 10
12.4179791963
 20
9.5628418263
 30
0.0
  0
SPLINE
  5
370
100
AcDbEntity
  8
0
100
AcDbSpline
 62
7
  6
CONTINUOUS
 70
0
 71
3
 72
57
 73
53
 74
0
 42
0.0000001
 43
0.0000001
 44
0.0000000001
 40
0.0
 40
0.0
 40
0.0
 40
0.0
 40
0.0075207377
 40
0.015624028
 40
0.0243308638
 40
0.0336546157
 40
0.0436024319
 40
0.0541763732
 40
0.0653744197
 40
0.0771909865
 40
0.0896175199
 40
0.1026429537
 40
0.1162538777
 40
0.130434935
 40
0.1451689949
 40
0.1604372405
 40
0.1762194575
 40
0.1924940617
 40
0.2092382116
 40
0.2264279995
 40
0.2620427455
 40
0.2991284346
 40
0.3374614777
 40
0.3768078268
 40
0.4169251372
 40
0.4575648384
 40
0.4984741894
 40
0.53939832
 40
0.5800822389
 40
0.6202728588
 40
0.6597210285
 40
0.698183566
 40
0.7354253423
 40
0.7712214699
 40
0.7885109314
 40
0.8053604617
 40
0.8217458655
 40
0.8376440888
 40
0.8530332147
 40
0.867892698
 40
0.8822034271
 40
0.8959478125
 40
0.909110096
 40
0.921676418
 40
0.9336350902
 40
0.9449769868
 40
0.9556957896
 40
0.9657885936
 40
0.9752564118
 40
0.9841051077
 40
0.992346922
 40
1.0
 40
1.0
 40
1.0
 40
1.0
 10
12.4121437888
 20
7.2877946134
 30
0.0
 10
12.4112619149
 20
7.2888789151
 30
0.0
 10
12.4095243053
 20
7.2912092867
 30
0.0
 10
12.4070790947
 20
7.2950161311
 30
0.0
 10
12.4047036631
 20
7.2992552487
 30
0.0
 10
12.4024018236
 20
7.3039197224
 30
0.0
 10
12.4001770557
 20
7.3090022929
 30
0.0
 10
12.3980329074
 20
7.3144948029
 30
0.0
 10
12.3959729
 20
7.3203884094
 30
0.0
 10
12.3940004122
 20
7.3266735191
 30
0.0
 10
12.3921187097
 20
7.3333398527
 30
0.0
 10
12.3903309637
 20
7.3403764677
 30
0.0
 10
12.3886401361
 20
7.3477717674
 30
0.0
 10
12.3870490685
 20
7.355513544
 30
0.0
 10
12.3855604472
 20
7.3635889971
 30
0.0
 10
12.3841767426
 20
7.3719847534
 30
0.0
 10
12.3829002954
 20
7.3806869016
 30
0.0
 10
12.3817332557
 20
7.3896810073
 30
0.0
 10
12.3806775391
 20
7.3989521611
 30
0.0
 10
12.3794058219
 20
7.4118146863
 30
0.0
 10
12.378117259
 20
7.4284722591
 30
0.0
 10
12.3770551404
 20
7.4490812628
 30
0.0
 10
12.3764670413
 20
7.4704028959
 30
0.0
 10
12.3763570635
 20
7.4922955828
 30
0.0
 10
12.3767261448
 20
7.514614071
 30
0.0
 10
12.3775719596
 20
7.5372101875
 30
0.0
 10
12.3788889587
 20
7.5599339039
 30
0.0
 10
12.380668423
 20
7.5826343303
 30
0.0
 10
12.3828985254
 20
7.6051607337
 30
0.0
 10
12.385564386
 20
7.6273635574
 30
0.0
 10
12.3886481849
 20
7.6490954097
 30
0.0
 10
12.3921292711
 20
7.670212122
 30
0.0
 10
12.3959843501
 20
7.6905734988
 30
0.0
 10
12.3995266643
 20
7.7069840776
 30
0.0
 10
12.4025365372
 20
7.7196278071
 30
0.0
 10
12.404844654
 20
7.7287294649
 30
0.0
 10
12.4072257158
 20
7.7375447872
 30
0.0
 10
12.4096757538
 20
7.746059164
 30
0.0
 10
12.4121906981
 20
7.7542584694
 30
0.0
 10
12.4147663407
 20
7.7621291208
 30
0.0
 10
12.4173983732
 20
7.7696580905
 30
0.0
 10
12.420082433
 20
7.7768329217
 30
0.0
 10
12.4228140196
 20
7.7836417772
 30
0.0
 10
12.4255885911
 20
7.7900734402
 30
0.0
 10
12.4284015593
 20
7.7961173371
 30
0.0
 10
12.4312482346
 20
7.8017635933
 30
0.0
 10
12.4341239562
 20
7.8070030145
 30
0.0
 10
12.4370240543
 20
7.8118271235
 30
0.0
 10
12.4399437986
 20
7.8162281906
 30
0.0
 10
12.4428787809
 20
7.820199373
 30
0.0
 10
12.4458242603
 20
7.8237340434
 30
0.0
 10
12.4478658733
 20
7.8258731796
 30
0.0
 10
12.4488888253
 20
7.8268612753
 30
0.0
  0
SPLINE
  5
371
100
AcDbEntity
  8
0
100
AcDbSpline
 62
7
  6
CONTINUOUS
 70
0
 71
3
 72
47
 73
43
 74
0
 42
0.0000001
 43
0.0000001
 44
0.0000000001
 40
0.0
 40
0.0
 40
0.0
 40
0.0
 40
0.0072739452
 40
0.0148703987
 40
0.0227978846
 40
0.031063102
 40
0.0396712776
 40
0.0486261889
 40
0.057930496
 40
0.0675857004
 40
0.077592433
 40
0.0879503969
 40
0.0986585869
 40
0.1097152564
 40
0.1211180537
 40
0.1328640385
 40
0.1449497302
 40
0.1573711835
 40
0.1832025769
 40
0.2103187156
 40
0.2386733848
 40
0.2682151186
 40
0.298887767
 40
0.3306309759
 40
0.3633806034
 40
0.3970690902
 40
0.4316257961
 40
0.4669773119
 40
0.5030477519
 40
0.5397590347
 40
0.577031153
 40
0.6147824366
 40
0.6529298098
 40
0.6913890446
 40
0.7300750129
 40
0.7689019324
 40
0.8077836248
 40
0.8466337296
 40
0.8853660521
 40
0.9238945305
 40
0.9621341655
 40
1.0
 40
1.0
 40
1.0
 40
1.0
 10
11.0061498784
 20
10.5526291091
 30
0.0
 10
11.0047401293
 20
10.5513171839
 30
0.0
 10
11.0017933023
 20
10.5487041516
 30
0.0
 10
10.997107713
 20
10.5448970577
 30
0.0
 10
10.9920652205
 20
10.5411209645
 30
0.0
 10
10.986668933
 20
10.5373780642
 30
0.0
 10
10.9809219208
 20
10.5336705252
 30
0.0
 10
10.9748275854
 20
10.530000419
 30
0.0
 10
10.9683894566
 20
10.5263699481
 30
0.0
 10
10.9616113379
 20
10.522781164
 30
0.0
 10
10.9544971883
 20
10.5192362371
 30
0.0
 10
10.9470512131
 20
10.5157372032
 30
0.0
 10
10.9392777897
 20
10.5122861723
 30
0.0
 10
10.9311815164
 20
10.50888516
 30
0.0
 10
10.922767174
 20
10.5055361987
 30
0.0
 10
10.9140397462
 20
10.5022412822
 30
0.0
 10
10.9050043919
 20
10.4990023345
 30
0.0
 10
10.8923888116
 20
10.4947048643
 30
0.0
 10
10.8758813539
 20
10.4894989656
 30
0.0
 10
10.8551832101
 20
10.4835836174
 30
0.0
 10
10.833394414
 20
10.4779354447
 30
0.0
 10
10.8105666872
 20
10.4725679781
 30
0.0
 10
10.786754065
 20
10.4674940899
 30
0.0
 10
10.7620130401
 20
10.4627259451
 30
0.0
 10
10.7364023352
 20
10.4582749747
 30
0.0
 10
10.7099827775
 20
10.454151846
 30
0.0
 10
10.682817141
 20
10.4503664382
 30
0.0
 10
10.6549699942
 20
10.4469278185
 30
0.0
 10
10.6265075418
 20
10.4438442211
 30
0.0
 10
10.5974974644
 20
10.4411230279
 30
0.0
 10
10.5680087547
 20
10.438770752
 30
0.0
 10
10.5381115517
 20
10.4367930222
 30
0.0
 10
10.5078769714
 20
10.4351945706
 30
0.0
 10
10.4773769373
 20
10.4339792209
 30
0.0
 10
10.4466840077
 20
10.4331498806
 30
0.0
 10
10.4158712006
 20
10.4327085326
 30
0.0
 10
10.3850118263
 20
10.4326562344
 30
0.0
 10
10.3541792891
 20
10.4329931073
 30
0.0
 10
10.323446977
 20
10.4337183527
 30
0.0
 10
10.2928879208
 20
10.4348302253
 30
0.0
 10
10.2625749682
 20
10.4363260778
 30
0.0
 10
10.2424648529
 20
10.4375840071
 30
0.0
 10
10.2324639978
 20
10.4382775687
 30
0.0
  0
SPLINE
  5
372
100
AcDbEntity
  8
0
100
AcDbSpline
 62
7
  6
CONTINUOUS
 70
0
 71
3
 72
31
 73
27
 74
0
 42
0.0000001
 43
0.0000001
 44
0.0000000001
 40
0.0
 40
0.0
 40
0.0
 40
0.0
 40
0.0124265054
 40
0.0249476277
 40
0.0504027147
 40
0.0765959866
 40
0.103649048
 40
0.1316032737
 40
0.1604409128
 40
0.190105184
 40
0.2205165047
 40
0.2515843383
 40
0.2832152258
 40
0.3153178177
 40
0.3478056626
 40
0.3805992511
 40
0.4136265557
 40
0.4801248047
 40
0.5468657025
 40
0.613505714
 40
0.6467025803
 40
0.6797804138
 40
0.7454837585
 40
0.8104623134
 40
0.8745973663
 40
1.0
 40
1.0
 40
1.0
 40
1.0
 10
10.495535951
 20
7.4346328032
 30
0.0
 10
10.4949546581
 20
7.4343459989
 30
0.0
 10
10.493767806
 20
7.4338094633
 30
0.0
 10
10.4913054064
 20
7.4328839248
 30
0.0
 10
10.4880675202
 20
7.4320020516
 30
0.0
 10
10.4840051257
 20
7.4313643732
 30
0.0
 10
10.4797717336
 20
7.4311079734
 30
0.0
 10
10.4753950743
 20
7.431199493
 30
0.0
 10
10.4709005873
 20
7.4316057833
 30
0.0
 10
10.4663118867
 20
7.4322952522
 30
0.0
 10
10.4616503354
 20
7.4332382936
 30
0.0
 10
10.456935001
 20
7.4344076272
 30
0.0
 10
10.4521826669
 20
7.4357784136
 30
0.0
 10
10.4474079667
 20
7.4373282486
 30
0.0
 10
10.4426235444
 20
7.439037031
 30
0.0
 10
10.4378402284
 20
7.4408868598
 30
0.0
 10
10.4314622049
 20
7.4435262748
 30
0.0
 10
10.4235552014
 20
7.4470955468
 30
0.0
 10
10.4142079861
 20
7.4517183634
 30
0.0
 10
10.4065392979
 20
7.4558066335
 30
0.0
 10
10.4004885015
 20
7.4591916795
 30
0.0
 10
10.3945241336
 20
7.4626300029
 30
0.0
 10
10.387202273
 20
7.4670313966
 30
0.0
 10
10.3786126316
 20
7.4724631377
 30
0.0
 10
10.3675445844
 20
7.4797961388
 30
0.0
 10
10.3594683498
 20
7.4855047943
 30
0.0
 10
10.354201244
 20
7.4893837367
 30
0.0
  0
SPLINE
  5
373
100
AcDbEntity
  8
0
100
AcDbSpline
 62
7
  6
CONTINUOUS
 70
0
 71
3
 72
52
 73
48
 74
0
 42
0.0000001
 43
0.0000001
 44
0.0000000001
 40
0.0
 40
0.0
 40
0.0
 40
0.0
 40
0.0083982624
 40
0.0173602451
 40
0.0268933214
 40
0.036999984
 40
0.0476793272
 40
0.0589274137
 40
0.0707378428
 40
0.0831019066
 40
0.0960089657
 40
0.1094466825
 40
0.1234010925
 40
0.1378569326
 40
0.1682041467
 40
0.2003432216
 40
0.2341119049
 40
0.2693344256
 40
0.3058235339
 40
0.3433823407
 40
0.3818060356
 40
0.4208835296
 40
0.4603990544
 40
0.5001337373
 40
0.5398671611
 40
0.579378918
 40
0.6184501634
 40
0.6568651752
 40
0.694412928
 40
0.7308886922
 40
0.7660956783
 40
0.7998467552
 40
0.8319662921
 40
0.8473634636
 40
0.8622932382
 40
0.8767377841
 40
0.8906806134
 40
0.9041063485
 40
0.9170011787
 40
0.929352715
 40
0.9411504094
 40
0.9523856067
 40
0.9630519004
 40
0.9731454809
 40
0.9826654707
 40
0.9916146679
 40
1.0
 40
1.0
 40
1.0
 40
1.0
 10
12.3860273935
 20
7.3613629313
 30
0.0
 10
12.3867499905
 20
7.3622483752
 30
0.0
 10
12.3881895355
 20
7.3641233195
 30
0.0
 10
12.3902703917
 20
7.3671354617
 30
0.0
 10
12.3923393674
 20
7.3704336295
 30
0.0
 10
12.3943934924
 20
7.374012983
 30
0.0
 10
12.39642975
 20
7.3778684337
 30
0.0
 10
12.3984452058
 20
7.3819943643
 30
0.0
 10
12.4004368754
 20
7.3863847862
 30
0.0
 10
12.4024018287
 20
7.391033282
 30
0.0
 10
12.4043371622
 20
7.3959330389
 30
0.0
 10
12.4062399827
 20
7.401076862
 30
0.0
 10
12.4081075244
 20
7.4064571844
 30
0.0
 10
12.4105870066
 20
7.4140594242
 30
0.0
 10
12.4135674652
 20
7.4240991101
 30
0.0
 10
12.4169058356
 20
7.4367671977
 30
0.0
 10
12.4200415033
 20
7.45016915
 30
0.0
 10
12.4229557372
 20
7.4642258814
 30
0.0
 10
12.4256311093
 20
7.4788545368
 30
0.0
 10
12.428051652
 20
7.4939687477
 30
0.0
 10
12.4302029339
 20
7.5094792404
 30
0.0
 10
12.4320721455
 20
7.5252943577
 30
0.0
 10
12.4336481728
 20
7.5413206184
 30
0.0
 10
12.4349216609
 20
7.5574632768
 30
0.0
 10
12.4358850684
 20
7.5736268914
 30
0.0
 10
12.4365327118
 20
7.5897158951
 30
0.0
 10
12.4368608004
 20
7.6056351672
 30
0.0
 10
12.4368674599
 20
7.6212906014
 30
0.0
 10
12.436552748
 20
7.6365896752
 30
0.0
 10
12.4359186517
 20
7.6514419916
 30
0.0
 10
12.4349691042
 20
7.6657598854
 30
0.0
 10
12.4337098838
 20
7.6794587625
 30
0.0
 10
12.4323911327
 20
7.6904409277
 30
0.0
 10
12.4311790607
 20
7.698852361
 30
0.0
 10
12.4302105774
 20
7.7048679023
 30
0.0
 10
12.4291712908
 20
7.7106706788
 30
0.0
 10
12.4280627873
 20
7.7162521399
 30
0.0
 10
12.4268866712
 20
7.721604058
 30
0.0
 10
12.4256447453
 20
7.7267185579
 30
0.0
 10
12.4243388185
 20
7.7315881224
 30
0.0
 10
12.4229708624
 20
7.7362056143
 30
0.0
 10
12.4215428902
 20
7.7405642815
 30
0.0
 10
12.4200570059
 20
7.7446577809
 30
0.0
 10
12.4185154117
 20
7.7484801754
 30
0.0
 10
12.4169202758
 20
7.7520260037
 30
0.0
 10
12.4152740063
 20
7.7552900757
 30
0.0
 10
12.4141062434
 20
7.7573413027
 30
0.0
 10
12.4135124234
 20
7.758315734
 30
0.0
  0
SPLINE
  5
374
100
AcDbEntity
  8
0
100
AcDbSpline
 62
7
  6
CONTINUOUS
 70
0
 71
3
 72
23
 73
19
 74
0
 42
0.0000001
 43
0.0000001
 44
0.0000000001
 40
0.0
 40
0.0
 40
0.0
 40
0.0
 40
0.0616482077
 40
0.1233194432
 40
0.1850364764
 40
0.2468215657
 40
0.3086962119
 40
0.3706809253
 40
0.4327950037
 40
0.4950563292
 40
0.5574811795
 40
0.6200840681
 40
0.6828776095
 40
0.745872322
 40
0.8090769221
 40
0.8724969185
 40
0.9361382339
 40
1.0
 40
1.0
 40
1.0
 40
1.0
 10
10.3217929969
 20
9.4186294315
 30
0.0
 10
10.3172480601
 20
9.414239356
 30
0.0
 10
10.3079183691
 20
9.4057002912
 30
0.0
 10
10.2932528301
 20
9.3936598849
 30
0.0
 10
10.2779504503
 20
9.3824153334
 30
0.0
 10
10.2620503088
 20
9.3719954643
 30
0.0
 10
10.2455923458
 20
9.3624263697
 30
0.0
 10
10.2286180787
 20
9.3537321639
 30
0.0
 10
10.2111702739
 20
9.3459347053
 30
0.0
 10
10.1932928976
 20
9.3390536014
 30
0.0
 10
10.1750309892
 20
9.3331061438
 30
0.0
 10
10.1564305485
 20
9.3281072713
 30
0.0
 10
10.1375384328
 20
9.3240695306
 30
0.0
 10
10.1184021904
 20
9.3210030049
 30
0.0
 10
10.0990701024
 20
9.318915416
 30
0.0
 10
10.0795905364
 20
9.3178118609
 30
0.0
 10
10.0600133133
 20
9.3176951871
 30
0.0
 10
10.046950592
 20
9.3182744827
 30
0.0
 10
10.0404204295
 20
9.318727351
 30
0.0
  0
SPLINE
  5
375
100
AcDbEntity
  8
0
100
AcDbSpline
 62
7
  6
CONTINUOUS
 70
0
 71
3
 72
23
 73
19
 74
0
 42
0.0000001
 43
0.0000001
 44
0.0000000001
 40
0.0
 40
0.0
 40
0.0
 40
0.0
 40
0.0638609742
 40
0.1275034352
 40
0.1909230191
 40
0.2541276449
 40
0.3171224247
 40
0.3799159145
 40
0.4425188174
 40
0.5049436698
 40
0.5672049969
 40
0.6293190749
 40
0.6913037881
 40
0.7531784374
 40
0.8149635266
 40
0.876680556
 40
0.9383517894
 40
1.0
 40
1.0
 40
1.0
 40
1.0
 10
10.0833181871
 20
9.5050522879
 30
0.0
 10
10.0874297162
 20
9.5047671524
 30
0.0
 10
10.0956544083
 20
9.5044024313
 30
0.0
 10
10.1079807933
 20
9.5044758582
 30
0.0
 10
10.1202457424
 20
9.5051707047
 30
0.0
 10
10.132417768
 20
9.5064850905
 30
0.0
 10
10.1444665042
 20
9.5084158726
 30
0.0
 10
10.1563615278
 20
9.510958166
 30
0.0
 10
10.1680729067
 20
9.5141055871
 30
0.0
 10
10.1795711424
 20
9.5178502607
 30
0.0
 10
10.1908272572
 20
9.5221828069
 30
0.0
 10
10.2018129015
 20
9.5270923145
 30
0.0
 10
10.2125003981
 20
9.5325664296
 30
0.0
 10
10.2228628179
 20
9.5385913965
 30
0.0
 10
10.2328740048
 20
9.5451520556
 30
0.0
 10
10.2425088292
 20
9.5522319488
 30
0.0
 10
10.2517426895
 20
9.5598129243
 30
0.0
 10
10.2576169483
 20
9.5651893525
 30
0.0
 10
10.2604785731
 20
9.5679534713
 30
0.0
  0
SPLINE
  5
376
100
AcDbEntity
  8
0
100
AcDbSpline
 62
7
  6
CONTINUOUS
 70
0
 71
3
 72
55
 73
51
 74
0
 42
0.0000001
 43
0.0000001
 44
0.0000000001
 40
0.0
 40
0.0
 40
0.0
 40
0.0
 40
0.0094795518
 40
0.0194667834
 40
0.0299598126
 40
0.0409546518
 40
0.0524454519
 40
0.0644248164
 40
0.0768838878
 40
0.089812518
 40
0.1031994446
 40
0.1170322955
 40
0.1312977557
 40
0.1459816338
 40
0.1610688697
 40
0.1765436816
 40
0.1923895625
 40
0.2085893294
 40
0.241978323
 40
0.2765624711
 40
0.3121851601
 40
0.3486832036
 40
0.3858879801
 40
0.4236265552
 40
0.4617227832
 40
0.4999983802
 40
0.5382739916
 40
0.5763702649
 40
0.6141089147
 40
0.6513137892
 40
0.6878119599
 40
0.7234348112
 40
0.7580191451
 40
0.791408338
 40
0.8076082277
 40
0.823454216
 40
0.8389291579
 40
0.8540165267
 40
0.8687005272
 40
0.8829661404
 40
0.8967991292
 40
0.9101861969
 40
0.9231149943
 40
0.9355742074
 40
0.9475537338
 40
0.9590447037
 40
0.97003969
 40
0.9805328971
 40
0.9905202962
 40
1.0
 40
1.0
 40
1.0
 40
1.0
 10
12.3080553982
 20
8.5269394267
 30
0.0
 10
12.3097178698
 20
8.5296016872
 30
0.0
 10
12.3130254315
 20
8.5351357671
 30
0.0
 10
12.3178219814
 20
8.543820621
 30
0.0
 10
12.3225774859
 20
8.5530955455
 30
0.0
 10
12.3272859297
 20
8.562948975
 30
0.0
 10
12.3319415201
 20
8.5733687882
 30
0.0
 10
12.3365384065
 20
8.5843420892
 30
0.0
 10
12.3410708521
 20
8.5958552716
 30
0.0
 10
12.3455332015
 20
8.6078940282
 30
0.0
 10
12.3499198301
 20
8.6204433944
 30
0.0
 10
12.3542252676
 20
8.6334877384
 30
0.0
 10
12.3584441134
 20
8.647010807
 30
0.0
 10
12.3625710562
 20
8.6609957436
 30
0.0
 10
12.366600955
 20
8.6754250979
 30
0.0
 10
12.3705287296
 20
8.6902808621
 30
0.0
 10
12.3743494837
 20
8.705544508
 30
0.0
 10
12.3793449523
 20
8.7266267828
 30
0.0
 10
12.3852744867
 20
8.7538613864
 30
0.0
 10
12.3918214243
 20
8.7875342189
 30
0.0
 10
12.3978364407
 20
8.822351156
 30
0.0
 10
12.4032892886
 20
8.8581383057
 30
0.0
 10
12.4081525404
 20
8.8947170774
 30
0.0
 10
12.4124017773
 20
8.9319048141
 30
0.0
 10
12.4160156766
 20
8.9695158028
 30
0.0
 10
12.4189761213
 20
9.0073621913
 30
0.0
 10
12.4212683086
 20
9.0452549395
 30
0.0
 10
12.4228808144
 20
9.083004773
 30
0.0
 10
12.4238056409
 20
9.1204231358
 30
0.0
 10
12.4240382601
 20
9.157323149
 30
0.0
 10
12.4235776583
 20
9.1935205352
 30
0.0
 10
12.4224263516
 20
9.2288346278
 30
0.0
 10
12.4205902884
 20
9.2630890195
 30
0.0
 10
12.4184769644
 20
9.2908815767
 30
0.0
 10
12.4164395325
 20
9.3124517426
 30
0.0
 10
12.4147623344
 20
9.3280967995
 30
0.0
 10
12.4129228594
 20
9.3433526587
 30
0.0
 10
12.4109233736
 20
9.3582002925
 30
0.0
 10
12.4087664066
 20
9.3726211643
 30
0.0
 10
12.4064546921
 20
9.3865972831
 30
0.0
 10
12.4039911092
 20
9.4001112164
 30
0.0
 10
12.4013787848
 20
9.4131461229
 30
0.0
 10
12.3986210073
 20
9.4256857685
 30
0.0
 10
12.3957212198
 20
9.4377145475
 30
0.0
 10
12.3926831048
 20
9.4492175159
 30
0.0
 10
12.3895104518
 20
9.4601804044
 30
0.0
 10
12.3862072361
 20
9.4705896242
 30
0.0
 10
12.3827775948
 20
9.4804323882
 30
0.0
 10
12.3792258204
 20
9.4896963911
 30
0.0
 10
12.3767138526
 20
9.4956341839
 30
0.0
 10
12.3754347979
 20
9.4985005018
 30
0.0
  0
SPLINE
  5
377
100
AcDbEntity
  8
0
100
AcDbSpline
 62
7
  6
CONTINUOUS
 70
0
 71
3
 72
52
 73
48
 74
0
 42
0.0000001
 43
0.0000001
 44
0.0000000001
 40
0.0
 40
0.0
 40
0.0
 40
0.0
 40
0.0311427988
 40
0.0624387274
 40
0.0938816846
 40
0.1254621074
 40
0.1571677549
 40
0.1889838786
 40
0.2208935331
 40
0.2528779367
 40
0.2849168473
 40
0.316988967
 40
0.3490723557
 40
0.3811448555
 40
0.41318452
 40
0.4451700353
 40
0.4770811391
 40
0.5088990202
 40
0.5406066992
 40
0.5721893849
 40
0.6036347899
 40
0.6193054315
 40
0.6349384403
 40
0.6505331025
 40
0.6660889062
 40
0.6816055432
 40
0.6970829112
 40
0.7125211194
 40
0.7279204883
 40
0.7432815473
 40
0.7586050352
 40
0.7738918989
 40
0.7891432881
 40
0.8043605493
 40
0.8195452217
 40
0.8346990299
 40
0.8498238734
 40
0.8649218171
 40
0.8799950819
 40
0.8950460323
 40
0.9100771614
 40
0.9250910782
 40
0.9400904939
 40
0.9550782048
 40
0.9700570753
 40
0.9850300227
 40
1.0
 40
1.0
 40
1.0
 40
1.0
 10
10.5233833712
 20
6.6120339096
 30
0.0
 10
10.5060587395
 20
6.6132353769
 30
0.0
 10
10.4713993446
 20
6.6169123323
 30
0.0
 10
10.419830468
 20
6.6261745812
 30
0.0
 10
10.3688139431
 20
6.6391483266
 30
0.0
 10
10.3186253061
 20
6.6557636464
 30
0.0
 10
10.2695311664
 20
6.6759315855
 30
0.0
 10
10.2217934328
 20
6.6995442362
 30
0.0
 10
10.1756663809
 20
6.7264753794
 30
0.0
 10
10.1313958498
 20
6.7565812928
 30
0.0
 10
10.0892176468
 20
6.7897012407
 30
0.0
 10
10.0493565923
 20
6.8256586785
 30
0.0
 10
10.0120250271
 20
6.8642618106
 30
0.0
 10
9.977421999
 20
6.9053049488
 30
0.0
 10
9.9457319485
 20
6.9485693278
 30
0.0
 10
9.9171239148
 20
6.9938244206
 30
0.0
 10
9.8917505749
 20
7.0408291374
 30
0.0
 10
9.8697473829
 20
7.0893328631
 30
0.0
 10
9.8512319646
 20
7.1390776483
 30
0.0
 10
9.8363035472
 20
7.1897965497
 30
0.0
 10
9.8269072676
 20
7.2327050786
 30
0.0
 10
9.8212611279
 20
7.2672436881
 30
0.0
 10
9.8179683092
 20
7.2931935232
 30
0.0
 10
9.8156175144
 20
7.3191810045
 30
0.0
 10
9.8142117637
 20
7.3451718434
 30
0.0
 10
9.8137529894
 20
7.3711312305
 30
0.0
 10
9.8142418528
 20
7.3970245318
 30
0.0
 10
9.8156776886
 20
7.4228171627
 30
0.0
 10
9.8180585858
 20
7.4484746842
 30
0.0
 10
9.8213814118
 20
7.4739628278
 30
0.0
 10
9.8256417603
 20
7.4992475485
 30
0.0
 10
9.8308339247
 20
7.52429508
 30
0.0
 10
9.8369509923
 20
7.5490719661
 30
0.0
 10
9.8439848496
 20
7.5735450978
 30
0.0
 10
9.8519260956
 20
7.597681785
 30
0.0
 10
9.8607641204
 20
7.6214497883
 30
0.0
 10
9.8704871529
 20
7.6448173449
 30
0.0
 10
9.8810822423
 20
7.6677532194
 30
0.0
 10
9.8925352115
 20
7.6902267794
 30
0.0
 10
9.9048307694
 20
7.7122079966
 30
0.0
 10
9.9179525317
 20
7.733667478
 30
0.0
 10
9.9318829647
 20
7.7545765464
 30
0.0
 10
9.9466034464
 20
7.7749072819
 30
0.0
 10
9.9620942991
 20
7.7946324823
 30
0.0
 10
9.9783349512
 20
7.8137258585
 30
0.0
 10
9.9953033197
 20
7.8321615586
 30
0.0
 10
10.0070868643
 20
7.8439984386
 30
0.0
 10
10.0130910147
 20
7.8497980152
 30
0.0
  0
SPLINE
  5
378
100
AcDbEntity
  8
0
100
AcDbSpline
 62
7
  6
CONTINUOUS
 70
0
 71
3
 72
41
 73
37
 74
0
 42
0.0000001
 43
0.0000001
 44
0.0000000001
 40
0.0
 40
0.0
 40
0.0
 40
0.0
 40
0.0311447106
 40
0.046777429
 40
0.0624475243
 40
0.0938924642
 40
0.1254747943
 40
0.1571823849
 40
0.1890004507
 40
0.2209120553
 40
0.2528984127
 40
0.2689156873
 40
0.2849439639
 40
0.3170180434
 40
0.3491033926
 40
0.3811778523
 40
0.4132194737
 40
0.4452069423
 40
0.4771199942
 40
0.5089398171
 40
0.5406494315
 40
0.5722340442
 40
0.6036813689
 40
0.6349819062
 40
0.6661291762
 40
0.6971198968
 40
0.7279541007
 40
0.7586351856
 40
0.78916989
 40
0.8195681943
 40
0.8498431414
 40
0.8800105805
 40
0.9100888348
 40
0.9400983005
 40
0.9700609854
 40
1.0
 40
1.0
 40
1.0
 40
1.0
 10
10.0833181871
 20
9.5050522879
 30
0.0
 10
10.0773035022
 20
9.5054694077
 30
0.0
 10
10.0682883098
 20
9.5064258634
 30
0.0
 10
10.0563513767
 20
9.5083479531
 30
0.0
 10
10.044433403
 20
9.510707699
 30
0.0
 10
10.0296552865
 20
9.5144657891
 30
0.0
 10
10.0122313169
 20
9.5202341817
 30
0.0
 10
9.9951869928
 20
9.5272359934
 30
0.0
 10
9.9786135839
 20
9.5354337743
 30
0.0
 10
9.9625996816
 20
9.5447834075
 30
0.0
 10
9.9497962345
 20
9.5534903831
 30
0.0
 10
9.9399157493
 20
9.5609789073
 30
0.0
 10
9.9302837614
 20
9.5688114277
 30
0.0
 10
9.9187476378
 20
9.5792177281
 30
0.0
 10
9.9057873205
 20
9.5926195806
 30
0.0
 10
9.8937739422
 20
9.6068688045
 30
0.0
 10
9.8827719757
 20
9.621889121
 30
0.0
 10
9.8728399868
 20
9.6376005846
 30
0.0
 10
9.8640310054
 20
9.6539194551
 30
0.0
 10
9.8563920624
 20
9.6707587855
 30
0.0
 10
9.8499639888
 20
9.6880288405
 30
0.0
 10
9.8447811849
 20
9.7056375783
 30
0.0
 10
9.8408714385
 20
9.7234911323
 30
0.0
 10
9.8382557735
 20
9.7414943048
 30
0.0
 10
9.8369483331
 20
9.7595510677
 30
0.0
 10
9.8369562987
 20
9.7775650687
 30
0.0
 10
9.8382798402
 20
9.7954401395
 30
0.0
 10
9.8409121059
 20
9.8130808065
 30
0.0
 10
9.8448392506
 20
9.8303927975
 30
0.0
 10
9.8500404983
 20
9.8472835488
 30
0.0
 10
9.8564882331
 20
9.8636626943
 30
0.0
 10
9.8641481672
 20
9.8794425865
 30
0.0
 10
9.8729793965
 20
9.8945386615
 30
0.0
 10
9.8829350492
 20
9.9088703246
 30
0.0
 10
9.8939609099
 20
9.9223598298
 30
0.0
 10
9.9019891987
 20
9.9307467423
 30
0.0
 10
9.9061578011
 20
9.9347733051
 30
0.0
  0
SPLINE
  5
379
100
AcDbEntity
  8
0
100
AcDbSpline
 62
7
  6
CONTINUOUS
 70
0
 71
3
 72
15
 73
11
 74
0
 42
0.0000001
 43
0.0000001
 44
0.0000000001
 40
0.0
 40
0.0
 40
0.0
 40
0.0
 40
0.1232474087
 40
0.2467809075
 40
0.3707290184
 40
0.4952059792
 40
0.6203079904
 40
0.7461106354
 40
0.8726642791
 40
1.0
 40
1.0
 40
1.0
 40
1.0
 10
10.3295025174
 20
9.7295603349
 30
0.0
 10
10.325434635
 20
9.7263364494
 30
0.0
 10
10.3169762656
 20
9.7202655157
 30
0.0
 10
10.303467337
 20
9.7123935442
 30
0.0
 10
10.2892289098
 20
9.7058067487
 30
0.0
 10
10.2743753619
 20
9.7005582146
 30
0.0
 10
10.2590241589
 20
9.6966888487
 30
0.0
 10
10.2432966313
 20
9.6942290165
 30
0.0
 10
10.22731876
 20
9.6931975034
 30
0.0
 10
10.2166130738
 20
9.6934667365
 30
0.0
 10
10.2112632645
 20
9.6938377471
 30
0.0
  0
SPLINE
  5
37A
100
AcDbEntity
  8
0
100
AcDbSpline
 62
7
  6
CONTINUOUS
 70
0
 71
3
 72
15
 73
11
 74
0
 42
0.0000001
 43
0.0000001
 44
0.0000000001
 40
0.0
 40
0.0
 40
0.0
 40
0.0
 40
0.1265799154
 40
0.2526889465
 40
0.3783232388
 40
0.5034991418
 40
0.6282304073
 40
0.7525390856
 40
0.876451755
 40
1.0
 40
1.0
 40
1.0
 40
1.0
 10
10.2065821195
 20
9.6241161108
 30
0.0
 10
10.2110280578
 20
9.6238077839
 30
0.0
 10
10.2199219011
 20
9.6234314374
 30
0.0
 10
10.233247209
 20
9.6235928684
 30
0.0
 10
10.2464948011
 20
9.6244809422
 30
0.0
 10
10.2596250118
 20
9.6260929407
 30
0.0
 10
10.2725994125
 20
9.628424274
 30
0.0
 10
10.2853798353
 20
9.6314681387
 30
0.0
 10
10.2979281327
 20
9.6352154232
 30
0.0
 10
10.306126829
 20
9.6381798063
 30
0.0
 10
10.3101736145
 20
9.639775101
 30
0.0
  0
SPLINE
  5
37B
100
AcDbEntity
  8
0
100
AcDbSpline
 62
7
  6
CONTINUOUS
 70
0
 71
3
 72
23
 73
19
 74
0
 42
0.0000001
 43
0.0000001
 44
0.0000000001
 40
0.0
 40
0.0
 40
0.0
 40
0.0
 40
0.0638312755
 40
0.1274512562
 40
0.1908576125
 40
0.2540565009
 40
0.317052493
 40
0.3798533106
 40
0.4424683272
 40
0.5049087353
 40
0.5671874865
 40
0.6293191239
 40
0.6913196714
 40
0.7532064813
 40
0.8149980654
 40
0.87671391
 40
0.9383742776
 40
1.0
 40
1.0
 40
1.0
 40
1.0
 10
10.0487026323
 20
9.3267273451
 30
0.0
 10
10.0549855612
 20
9.3262916225
 30
0.0
 10
10.0675536224
 20
9.3257223932
 30
0.0
 10
10.0863918548
 20
9.3257807052
 30
0.0
 10
10.1051431353
 20
9.3267525681
 30
0.0
 10
10.1237629991
 20
9.3286355937
 30
0.0
 10
10.1422083885
 20
9.3314255706
 30
0.0
 10
10.1604362055
 20
9.3351160016
 30
0.0
 10
10.1784039982
 20
9.339698327
 30
0.0
 10
10.1960698801
 20
9.3451619007
 30
0.0
 10
10.2133926666
 20
9.3514940238
 30
0.0
 10
10.2303319638
 20
9.3586799829
 30
0.0
 10
10.246848259
 20
9.3667030688
 30
0.0
 10
10.2629030482
 20
9.3755445954
 30
0.0
 10
10.2784588563
 20
9.3851839327
 30
0.0
 10
10.2934795251
 20
9.3955987416
 30
0.0
 10
10.3079295465
 20
9.406764318
 30
0.0
 10
10.3171626811
 20
9.4146936166
 30
0.0
 10
10.3216715311
 20
9.4187730279
 30
0.0
  0
SPLINE
  5
37C
100
AcDbEntity
  8
0
100
AcDbSpline
 62
7
  6
CONTINUOUS
 70
0
 71
3
 72
39
 73
35
 74
0
 42
0.0000001
 43
0.0000001
 44
0.0000000001
 40
0.0
 40
0.0
 40
0.0
 40
0.0
 40
0.0235301045
 40
0.0484596038
 40
0.0747280694
 40
0.1022675009
 40
0.1310032547
 40
0.1608548154
 40
0.1917364602
 40
0.2235578492
 40
0.2562245648
 40
0.2896386154
 40
0.3236989152
 40
0.3583017461
 40
0.3933412096
 40
0.4287096691
 40
0.4642981885
 40
0.4999969669
 40
0.5356957712
 40
0.5712843683
 40
0.6066529569
 40
0.6416926005
 40
0.6762956618
 40
0.7103562411
 40
0.7437706195
 40
0.7764377097
 40
0.8082595186
 40
0.8391416268
 40
0.8689936923
 40
0.8977299899
 40
0.9252700018
 40
0.9515390813
 40
0.9764692249
 40
1.0
 40
1.0
 40
1.0
 40
1.0
 10
12.2855393775
 20
8.6262949282
 30
0.0
 10
12.2878620969
 20
8.6320182369
 30
0.0
 10
12.2924331613
 20
8.6438922384
 30
0.0
 10
12.2989106609
 20
8.662410832
 30
0.0
 10
12.3051908221
 20
8.6821048338
 30
0.0
 10
12.3112527059
 20
8.7029095408
 30
0.0
 10
12.3170762282
 20
8.7247569018
 30
0.0
 10
12.3226420631
 20
8.7475752194
 30
0.0
 10
12.3279317589
 20
8.7712895689
 30
0.0
 10
12.3329277858
 20
8.7958220156
 30
0.0
 10
12.3376135971
 20
8.8210918963
 30
0.0
 10
12.3419736815
 20
8.8470160906
 30
0.0
 10
12.3459936139
 20
8.8735093019
 30
0.0
 10
12.3496601013
 20
8.9004843433
 30
0.0
 10
12.3529610263
 20
8.9278524287
 30
0.0
 10
12.3558854858
 20
8.9555234684
 30
0.0
 10
12.3584238266
 20
8.9834063682
 30
0.0
 10
12.3605676768
 20
9.0114093318
 30
0.0
 10
12.3623099731
 20
9.0394401651
 30
0.0
 10
12.3636449845
 20
9.0674065814
 30
0.0
 10
12.3645683307
 20
9.0952165074
 30
0.0
 10
12.3650769975
 20
9.1227783881
 30
0.0
 10
12.3651693474
 20
9.1500014908
 30
0.0
 10
12.3648451255
 20
9.176796206
 30
0.0
 10
12.3641054617
 20
9.2030743459
 30
0.0
 10
12.3629528685
 20
9.2287494383
 30
0.0
 10
12.3613912342
 20
9.2537370163
 30
0.0
 10
12.3594258121
 20
9.2779549037
 30
0.0
 10
12.3570632059
 20
9.301323491
 30
0.0
 10
12.3543113473
 20
9.323766022
 30
0.0
 10
12.3511794806
 20
9.3452088169
 30
0.0
 10
12.3476781006
 20
9.3655817011
 30
0.0
 10
12.343819024
 20
9.3848177014
 30
0.0
 10
12.3409308629
 20
9.3972093856
 30
0.0
 10
12.3394204702
 20
9.4031987242
 30
0.0
  0
SPLINE
  5
37D
100
AcDbEntity
  8
0
100
AcDbSpline
 62
7
  6
CONTINUOUS
 70
0
 71
3
 72
41
 73
37
 74
0
 42
0.0000001
 43
0.0000001
 44
0.0000000001
 40
0.0
 40
0.0
 40
0.0
 40
0.0
 40
0.0310889259
 40
0.0623252596
 40
0.093703098
 40
0.1252140873
 40
0.1568472293
 40
0.1885893172
 40
0.2204251214
 40
0.2523377142
 40
0.2843087786
 40
0.3163189488
 40
0.34834816
 40
0.3803760083
 40
0.4123821139
 40
0.4443464844
 40
0.476249874
 40
0.508074132
 40
0.5398025379
 40
0.571420118
 40
0.602913937
 40
0.6342733608
 40
0.6654902846
 40
0.6965593203
 40
0.7274779382
 40
0.7582465579
 40
0.7888685827
 40
0.8193503745
 40
0.8497011655
 40
0.8648336213
 40
0.8799380217
 40
0.9100651611
 40
0.9401043728
 40
0.9550993646
 40
0.9700794672
 40
1.0
 40
1.0
 40
1.0
 40
1.0
 10
10.2112632645
 20
9.6938377471
 30
0.0
 10
10.2070128848
 20
9.6941325119
 30
0.0
 10
10.1985097798
 20
9.6950223924
 30
0.0
 10
10.1858515525
 20
9.6972412009
 30
0.0
 10
10.173318519
 20
9.7003363699
 30
0.0
 10
10.1609732563
 20
9.7042924691
 30
0.0
 10
10.1488763383
 20
9.7090899435
 30
0.0
 10
10.1370873963
 20
9.7147050688
 30
0.0
 10
10.1256644581
 20
9.7211101246
 30
0.0
 10
10.114663766
 20
9.7282735095
 30
0.0
 10
10.1041394766
 20
9.7361599044
 30
0.0
 10
10.0941434038
 20
9.7447304425
 30
0.0
 10
10.0847247648
 20
9.7539429005
 30
0.0
 10
10.0759299407
 20
9.7637519049
 30
0.0
 10
10.0678022499
 20
9.774109153
 30
0.0
 10
10.0603817366
 20
9.7849636491
 30
0.0
 10
10.0537049754
 20
9.7962619526
 30
0.0
 10
10.0478048921
 20
9.8079484388
 30
0.0
 10
10.042710602
 20
9.8199655695
 30
0.0
 10
10.0384472673
 20
9.8322541731
 30
0.0
 10
10.0350359725
 20
9.8447537323
 30
0.0
 10
10.0324936193
 20
9.8574026784
 30
0.0
 10
10.0308328421
 20
9.8701386917
 30
0.0
 10
10.0300619415
 20
9.8828990012
 30
0.0
 10
10.0301848448
 20
9.8956207034
 30
0.0
 10
10.0312010627
 20
9.9082410225
 30
0.0
 10
10.0331057581
 20
9.9206977909
 30
0.0
 10
10.0358894975
 20
9.9329291155
 30
0.0
 10
10.0389341098
 20
9.9428951436
 30
0.0
 10
10.0417937047
 20
9.9506921612
 30
0.0
 10
10.0449265311
 20
9.9583503782
 30
0.0
 10
10.0493585789
 20
9.9676763258
 30
0.0
 10
10.054463828
 20
9.9766343013
 30
0.0
 10
10.0589312139
 20
9.9835420301
 30
0.0
 10
10.0636443928
 20
9.9902640975
 30
0.0
 10
10.0674594012
 20
9.9951018773
 30
0.0
 10
10.0701178172
 20
9.998223839
 30
0.0
  0
SPLINE
  5
37E
100
AcDbEntity
  8
0
100
AcDbSpline
 62
7
  6
CONTINUOUS
 70
0
 71
3
 72
27
 73
23
 74
0
 42
0.0000001
 43
0.0000001
 44
0.0000000001
 40
0.0
 40
0.0
 40
0.0
 40
0.0
 40
0.0616468932
 40
0.0924803257
 40
0.1233223752
 40
0.1850380892
 40
0.2468218571
 40
0.2777487751
 40
0.3087006891
 40
0.3706840788
 40
0.4327968318
 40
0.4950568279
 40
0.5574803451
 40
0.6200818952
 40
0.6828740849
 40
0.7143476807
 40
0.7458727128
 40
0.809075817
 40
0.8724948743
 40
0.9042890081
 40
0.9361390688
 40
1.0
 40
1.0
 40
1.0
 40
1.0
 10
11.0336757278
 20
6.7932149269
 30
0.0
 10
11.0254331125
 20
6.7852531546
 30
0.0
 10
11.0127431533
 20
6.7736386029
 30
0.0
 10
10.9952201792
 20
6.7588534505
 30
0.0
 10
10.977296046
 20
6.7445358419
 30
0.0
 10
10.9541637576
 20
6.727537575
 30
0.0
 10
10.930140712
 20
6.711794562
 30
0.0
 10
10.9104216112
 20
6.6999735328
 30
0.0
 10
10.8903618699
 20
6.6886645842
 30
0.0
 10
10.864695142
 20
6.6755180048
 30
0.0
 10
10.8330524373
 20
6.6613768357
 30
0.0
 10
10.8006302708
 20
6.6488973212
 30
0.0
 10
10.767510716
 20
6.6381111018
 30
0.0
 10
10.7337776279
 20
6.6290452733
 30
0.0
 10
10.7052466844
 20
6.6229474786
 30
0.0
 10
10.6822048155
 20
6.6189485213
 30
0.0
 10
10.6589920113
 20
6.6155328037
 30
0.0
 10
10.6297493244
 20
6.6123748984
 30
0.0
 10
10.6003340329
 20
6.6107085852
 30
0.0
 10
10.576715218
 20
6.6102680705
 30
0.0
 10
10.5530111523
 20
6.6104238988
 30
0.0
 10
10.5352264613
 20
6.6112125885
 30
0.0
 10
10.5233833712
 20
6.6120339096
 30
0.0
  0
SPLINE
  5
37F
100
AcDbEntity
  8
0
100
AcDbSpline
 62
7
  6
CONTINUOUS
 70
0
 71
3
 72
39
 73
35
 74
0
 42
0.0000001
 43
0.0000001
 44
0.0000000001
 40
0.0
 40
0.0
 40
0.0
 40
0.0
 40
0.0311267611
 40
0.0624045274
 40
0.0938276796
 40
0.1253867933
 40
0.1570701524
 40
0.1888635139
 40
0.2207505222
 40
0.252713026
 40
0.2847314385
 40
0.3167851164
 40
0.3488527519
 40
0.3809127749
 40
0.4129437584
 40
0.444924822
 40
0.4768360278
 40
0.5086587626
 40
0.5403761053
 40
0.5719731681
 40
0.603437407
 40
0.6347588966
 40
0.6659305617
 40
0.6969483613
 40
0.7278114164
 40
0.7585220743
 40
0.7890859067
 40
0.8195116376
 40
0.8498109988
 40
0.8799985118
 40
0.9100911955
 40
0.9401082084
 40
0.9700704311
 40
1.0
 40
1.0
 40
1.0
 40
1.0
 10
10.0487026323
 20
9.3267273451
 30
0.0
 10
10.0392745843
 20
9.3273811824
 30
0.0
 10
10.0204131435
 20
9.3293730714
 30
0.0
 10
9.9923446389
 20
9.334373782
 30
0.0
 10
9.9645689625
 20
9.3413687837
 30
0.0
 10
9.9372322354
 20
9.3503214731
 30
0.0
 10
9.9104759511
 20
9.3611850912
 30
0.0
 10
9.8844391545
 20
9.3739030517
 30
0.0
 10
9.8592569644
 20
9.3884091319
 30
0.0
 10
9.8350600971
 20
9.4046278703
 30
0.0
 10
9.811974143
 20
9.422474957
 30
0.0
 10
9.7901189385
 20
9.4418576663
 30
0.0
 10
9.7696079522
 20
9.4626753369
 30
0.0
 10
9.7505476786
 20
9.4848198656
 30
0.0
 10
9.7330370991
 20
9.5081762785
 30
0.0
 10
9.717167186
 20
9.5326233323
 30
0.0
 10
9.7030204307
 20
9.5580341313
 30
0.0
 10
9.6906704253
 20
9.5842767807
 30
0.0
 10
9.6801814562
 20
9.6112150495
 30
0.0
 10
9.6716081706
 20
9.6387090749
 30
0.0
 10
9.6649953158
 20
9.666616088
 30
0.0
 10
9.6603774964
 20
9.6947911407
 30
0.0
 10
9.6577789962
 20
9.7230878479
 30
0.0
 10
9.6572136227
 20
9.7513591347
 30
0.0
 10
9.6586846116
 20
9.7794579975
 30
0.0
 10
9.6621846312
 20
9.8072382631
 30
0.0
 10
9.6676957962
 20
9.8345553413
 30
0.0
 10
9.6751897519
 20
9.861266978
 30
0.0
 10
9.6846277788
 20
9.8872339873
 30
0.0
 10
9.6959610001
 20
9.9123210455
 30
0.0
 10
9.7091304872
 20
9.9363972171
 30
0.0
 10
9.7240681892
 20
9.9593373222
 30
0.0
 10
9.740694898
 20
9.9810201165
 30
0.0
 10
9.7528548515
 20
9.9945694484
 30
0.0
 10
9.7591812699
 20
10.0010927654
 30
0.0
  0
SPLINE
  5
380
100
AcDbEntity
  8
0
100
AcDbSpline
 62
7
  6
CONTINUOUS
 70
0
 71
3
 72
27
 73
23
 74
0
 42
0.0000001
 43
0.0000001
 44
0.0000000001
 40
0.0
 40
0.0
 40
0.0
 40
0.0
 40
0.0638445335
 40
0.0956882081
 40
0.1274770121
 40
0.1908889217
 40
0.2540892333
 40
0.2856142125
 40
0.3170886583
 40
0.3798851792
 40
0.4424936858
 40
0.5049260073
 40
0.5671957706
 40
0.6293182857
 40
0.6913103957
 40
0.7222658254
 40
0.7531955847
 40
0.8149827008
 40
0.876697396
 40
0.9075368349
 40
0.938366149
 40
1.0
 40
1.0
 40
1.0
 40
1.0
 10
10.531665574
 20
6.6200339036
 30
0.0
 10
10.5432612458
 20
6.6192297411
 30
0.0
 10
10.5606739129
 20
6.618448469
 30
0.0
 10
10.5838833154
 20
6.6182653208
 30
0.0
 10
10.6070118715
 20
6.6186538919
 30
0.0
 10
10.6358209359
 20
6.6202091735
 30
0.0
 10
10.6644690562
 20
6.6231944409
 30
0.0
 10
10.6872173524
 20
6.6264356272
 30
0.0
 10
10.7098042414
 20
6.6302365026
 30
0.0
 10
10.7377829929
 20
6.6360421044
 30
0.0
 10
10.770884845
 20
6.6446871928
 30
0.0
 10
10.8034103986
 20
6.6549848205
 30
0.0
 10
10.8352807181
 20
6.6669102013
 30
0.0
 10
10.8664184789
 20
6.6804343387
 30
0.0
 10
10.8917071656
 20
6.693016559
 30
0.0
 10
10.9114926993
 20
6.7038458436
 30
0.0
 10
10.9309565671
 20
6.7151691862
 30
0.0
 10
10.9546976259
 20
6.7302565182
 30
0.0
 10
10.9776016154
 20
6.7465583222
 30
0.0
 10
10.9953769522
 20
6.7602965083
 30
0.0
 10
11.012773207
 20
6.7744875391
 30
0.0
 10
11.0253951291
 20
6.7856414456
 30
0.0
 10
11.0336049573
 20
6.7932906679
 30
0.0
  0
SPLINE
  5
381
100
AcDbEntity
  8
0
100
AcDbSpline
 62
7
  6
CONTINUOUS
 70
0
 71
3
 72
51
 73
47
 74
0
 42
0.0000001
 43
0.0000001
 44
0.0000000001
 40
0.0
 40
0.0
 40
0.0
 40
0.0
 40
0.0311329654
 40
0.0624179306
 40
0.0938489569
 40
0.1254166503
 40
0.1571090179
 40
0.1889116028
 40
0.2208077852
 40
0.2527791333
 40
0.2848057688
 40
0.3168667553
 40
0.3489405035
 40
0.3810051804
 40
0.4130391254
 40
0.4450212641
 40
0.4769315107
 40
0.5087511615
 40
0.5404632671
 40
0.5720529771
 40
0.6035078598
 40
0.6348181745
 40
0.6504193672
 40
0.6659821199
 40
0.6815060693
 40
0.6969910536
 40
0.7124371137
 40
0.7278444988
 40
0.7432136643
 40
0.7585452691
 40
0.7738401761
 40
0.7890994497
 40
0.8043243486
 40
0.8195163207
 40
0.834676999
 40
0.8498081917
 40
0.8649118717
 40
0.8799901687
 40
0.895045358
 40
0.9100798462
 40
0.9250961586
 40
0.9400969268
 40
0.9550848722
 40
0.9700627897
 40
0.9850335335
 40
1.0
 40
1.0
 40
1.0
 40
1.0
 10
10.531665574
 20
6.6200339036
 30
0.0
 10
10.51446565
 20
6.6212267224
 30
0.0
 10
10.4800558893
 20
6.6248680606
 30
0.0
 10
10.4288533834
 20
6.6340235726
 30
0.0
 10
10.3781914174
 20
6.6468382605
 30
0.0
 10
10.3283397111
 20
6.663244121
 30
0.0
 10
10.2795592837
 20
6.6831544913
 30
0.0
 10
10.2321066859
 20
6.7064644501
 30
0.0
 10
10.1862310409
 20
6.7330511152
 30
0.0
 10
10.1421733562
 20
6.7627746402
 30
0.0
 10
10.1001649964
 20
6.7954786436
 30
0.0
 10
10.0604265872
 20
6.8309911813
 30
0.0
 10
10.0231669215
 20
6.8691256727
 30
0.0
 10
9.9885816767
 20
6.9096816843
 30
0.0
 10
9.956852687
 20
6.9524462432
 30
0.0
 10
9.9281467003
 20
6.9971946855
 30
0.0
 10
9.9026147117
 20
7.0436919865
 30
0.0
 10
9.8803911418
 20
7.0916939835
 30
0.0
 10
9.8615929795
 20
7.1409483714
 30
0.0
 10
9.8463194353
 20
7.1911969202
 30
0.0
 10
9.834651246
 20
7.2421737924
 30
0.0
 10
9.8279751318
 20
7.2850964364
 30
0.0
 10
9.8244962921
 20
7.3195250508
 30
0.0
 10
9.8228206489
 20
7.3453319942
 30
0.0
 10
9.8220780355
 20
7.3711179478
 30
0.0
 10
9.8222693792
 20
7.3968493876
 30
0.0
 10
9.823394512
 20
7.4224923343
 30
0.0
 10
9.8254519214
 20
7.4480130648
 30
0.0
 10
9.8284389094
 20
7.4733779803
 30
0.0
 10
9.8323516074
 20
7.4985536857
 30
0.0
 10
9.8371848702
 20
7.5235070361
 30
0.0
 10
9.8429323201
 20
7.5482051853
 30
0.0
 10
9.8495864345
 20
7.5726156087
 30
0.0
 10
9.8571384965
 20
7.5967061536
 30
0.0
 10
9.8655785332
 20
7.6204451096
 30
0.0
 10
9.8748954511
 20
7.6438012154
 30
0.0
 10
9.885077042
 20
7.666743691
 30
0.0
 10
9.8961098789
 20
7.6892423316
 30
0.0
 10
9.907979428
 20
7.711267514
 30
0.0
 10
9.9206701052
 20
7.7327902083
 30
0.0
 10
9.934165207
 20
7.7537820583
 30
0.0
 10
9.9484469399
 20
7.7742154419
 30
0.0
 10
9.9634964917
 20
7.794063409
 30
0.0
 10
9.9792941699
 20
7.813299883
 30
0.0
 10
9.9958187893
 20
7.8318991985
 30
0.0
 10
10.0073070681
 20
7.8438594549
 30
0.0
 10
10.0131638241
 20
7.8497241686
 30
0.0
  0
SPLINE
  5
382
100
AcDbEntity
  8
0
100
AcDbSpline
 62
7
  6
CONTINUOUS
 70
0
 71
3
 72
71
 73
67
 74
0
 42
0.0000001
 43
0.0000001
 44
0.0000000001
 40
0.0
 40
0.0
 40
0.0
 40
0.0
 40
0.0156745484
 40
0.0314011273
 40
0.047178246
 40
0.0630046566
 40
0.0788782438
 40
0.09479664
 40
0.110757019
 40
0.1267561998
 40
0.1427906559
 40
0.1588565536
 40
0.1749497859
 40
0.1910660103
 40
0.2072006867
 40
0.223349117
 40
0.2395064858
 40
0.2556679012
 40
0.271828437
 40
0.2879831743
 40
0.3041272435
 40
0.3202558661
 40
0.336364396
 40
0.352448359
 40
0.3685034926
 40
0.3845257835
 40
0.4005115038
 40
0.4164572457
 40
0.4323599538
 40
0.448216955
 40
0.4640259856
 40
0.4797852154
 40
0.4954932679
 40
0.5111492376
 40
0.5267527029
 40
0.5423037346
 40
0.557802901
 40
0.573251267
 40
0.5886503893
 40
0.6040023052
 40
0.6193095178
 40
0.6345749749
 40
0.6498020432
 40
0.6649944778
 40
0.6801563869
 40
0.6952921916
 40
0.7104065827
 40
0.7255044732
 40
0.7405909475
 40
0.7556712095
 40
0.7707505279
 40
0.7858341811
 40
0.8009274023
 40
0.8160353245
 40
0.8311629277
 40
0.8463149875
 40
0.8614960269
 40
0.8767102707
 40
0.8919616048
 40
0.9072535385
 40
0.9225891726
 40
0.9379711728
 40
0.9534017339
 40
0.9688826367
 40
0.9844149257
 40
1.0
 40
1.0
 40
1.0
 40
1.0
 10
10.531665574
 20
6.7740990821
 30
0.0
 10
10.5226639407
 20
6.7747233475
 30
0.0
 10
10.5046580929
 20
6.776410639
 30
0.0
 10
10.4777607471
 20
6.780240219
 30
0.0
 10
10.4509900801
 20
6.7853639341
 30
0.0
 10
10.4244100864
 20
6.7917694462
 30
0.0
 10
10.398083031
 20
6.7994417499
 30
0.0
 10
10.3720710039
 20
6.8083626645
 30
0.0
 10
10.3464352176
 20
6.8185111712
 30
0.0
 10
10.321236033
 20
6.8298633259
 30
0.0
 10
10.2965327723
 20
6.8423923725
 30
0.0
 10
10.2723835885
 20
6.8560687791
 30
0.0
 10
10.2488453268
 20
6.8708603168
 30
0.0
 10
10.2259733942
 20
6.8867321378
 30
0.0
 10
10.2038216295
 20
6.9036468568
 30
0.0
 10
10.1824421774
 20
6.9215646383
 30
0.0
 10
10.1618853668
 20
6.9404432905
 30
0.0
 10
10.1421995928
 20
6.9602383637
 30
0.0
 10
10.1234312041
 20
6.9809032545
 30
0.0
 10
10.1056243924
 20
7.0023893139
 30
0.0
 10
10.0888210839
 20
7.0246459575
 30
0.0
 10
10.0730608476
 20
7.0476207905
 30
0.0
 10
10.0583808013
 20
7.0712597292
 30
0.0
 10
10.0448155252
 20
7.0955071278
 30
0.0
 10
10.0323969806
 20
7.1203059085
 30
0.0
 10
10.0211544353
 20
7.1455976947
 30
0.0
 10
10.011114394
 20
7.1713229476
 30
0.0
 10
10.0023005375
 20
7.1974211053
 30
0.0
 10
9.9947336578
 20
7.2238307227
 30
0.0
 10
9.9884316149
 20
7.2504896174
 30
0.0
 10
9.9834092964
 20
7.2773350162
 30
0.0
 10
9.9796785815
 20
7.3043037016
 30
0.0
 10
9.9772483125
 20
7.3313321592
 30
0.0
 10
9.9761242732
 20
7.3583567264
 30
0.0
 10
9.976309174
 20
7.3853137413
 30
0.0
 10
9.9778026458
 20
7.4121396921
 30
0.0
 10
9.9806012335
 20
7.4387713659
 30
0.0
 10
9.9846984019
 20
7.4651459993
 30
0.0
 10
9.9900845567
 20
7.4912014251
 30
0.0
 10
9.9967470638
 20
7.5168762187
 30
0.0
 10
10.0046702778
 20
7.5421098434
 30
0.0
 10
10.0138355778
 20
7.5668427929
 30
0.0
 10
10.024221409
 20
7.5910167327
 30
0.0
 10
10.0358033325
 20
7.614574638
 30
0.0
 10
10.0485540812
 20
7.6374609306
 30
0.0
 10
10.0624436161
 20
7.6596216149
 30
0.0
 10
10.0774392048
 20
7.6810044047
 30
0.0
 10
10.0935054982
 20
7.7015588468
 30
0.0
 10
10.110604614
 20
7.7212364427
 30
0.0
 10
10.128696226
 20
7.7399907639
 30
0.0
 10
10.1477376608
 20
7.7577775635
 30
0.0
 10
10.1676839982
 20
7.7745548816
 30
0.0
 10
10.18848818
 20
7.7902831444
 30
0.0
 10
10.2101011172
 20
7.8049252655
 30
0.0
 10
10.2324718111
 20
7.8184467314
 30
0.0
 10
10.2555474777
 20
7.8308156793
 30
0.0
 10
10.2792736735
 20
7.8420029733
 30
0.0
 10
10.3035944255
 20
7.8519822721
 30
0.0
 10
10.3284523644
 20
7.8607300896
 30
0.0
 10
10.3537888624
 20
7.8682258502
 30
0.0
 10
10.379544167
 20
7.8744519362
 30
0.0
 10
10.4056575606
 20
7.8793937201
 30
0.0
 10
10.4320674415
 20
7.8830396473
 30
0.0
 10
10.458711693
 20
7.8853811164
 30
0.0
 10
10.4855269773
 20
7.8864128437
 30
0.0
 10
10.5034474849
 20
7.8862260251
 30
0.0
 10
10.5124138452
 20
7.8859151761
 30
0.0
  0
SPLINE
  5
383
100
AcDbEntity
  8
0
100
AcDbSpline
 62
7
  6
CONTINUOUS
 70
0
 71
3
 72
39
 73
35
 74
0
 42
0.0000001
 43
0.0000001
 44
0.0000000001
 40
0.0
 40
0.0
 40
0.0
 40
0.0
 40
0.0309074395
 40
0.0619441436
 40
0.0931053756
 40
0.1243858146
 40
0.1557776645
 40
0.1872718471
 40
0.218857716
 40
0.2505233719
 40
0.2822557897
 40
0.3140410211
 40
0.3458643883
 40
0.3777106895
 40
0.4095644084
 40
0.441409927
 40
0.4732317396
 40
0.5050146657
 40
0.5367440592
 40
0.5684060132
 40
0.5999875565
 40
0.6314768415
 40
0.66286332
 40
0.6941379046
 40
0.725293114
 40
0.7563231991
 40
0.7872242475
 40
0.8179942639
 40
0.8486332247
 40
0.8791431036
 40
0.9095278666
 40
0.9397934352
 40
0.9699476165
 40
1.0
 40
1.0
 40
1.0
 40
1.0
 10
10.2065821195
 20
9.6241161108
 30
0.0
 10
10.201517192
 20
9.6244673647
 30
0.0
 10
10.1913851035
 20
9.6254833286
 30
0.0
 10
10.1762792026
 20
9.6279319351
 30
0.0
 10
10.1612879278
 20
9.6312993385
 30
0.0
 10
10.1464688426
 20
9.6355725603
 30
0.0
 10
10.1318777929
 20
9.6407354405
 30
0.0
 10
10.117570073
 20
9.6467683274
 30
0.0
 10
10.1035998072
 20
9.6536483513
 30
0.0
 10
10.0900198629
 20
9.6613494172
 30
0.0
 10
10.0768816222
 20
9.6698423436
 30
0.0
 10
10.0642347965
 20
9.6790949571
 30
0.0
 10
10.0521272385
 20
9.6890722191
 30
0.0
 10
10.0406047628
 20
9.6997363562
 30
0.0
 10
10.0297109745
 20
9.7110470025
 30
0.0
 10
10.0194871038
 20
9.7229613508
 30
0.0
 10
10.0099718507
 20
9.7354343131
 30
0.0
 10
10.0012012408
 20
9.7484186914
 30
0.0
 10
9.9932084894
 20
9.7618653546
 30
0.0
 10
9.9860238768
 20
9.7757234233
 30
0.0
 10
9.9796746337
 20
9.7899404602
 30
0.0
 10
9.9741848389
 20
9.8044626668
 30
0.0
 10
9.9695753274
 20
9.8192350854
 30
0.0
 10
9.965863612
 20
9.8342018047
 30
0.0
 10
9.9630638153
 20
9.8493061692
 30
0.0
 10
9.961186616
 20
9.864490992
 30
0.0
 10
9.9602392061
 20
9.8796987688
 30
0.0
 10
9.9602252626
 20
9.8948718952
 30
0.0
 10
9.9611449266
 20
9.9099528772
 30
0.0
 10
9.9629948105
 20
9.9248845719
 30
0.0
 10
9.9657679709
 20
9.9396103153
 30
0.0
 10
9.9694540726
 20
9.9540744635
 30
0.0
 10
9.9740388985
 20
9.9682213922
 30
0.0
 10
9.9776895852
 20
9.9774216811
 30
0.0
 10
9.9796581231
 20
9.9819488458
 30
0.0
  0
SPLINE
  5
384
100
AcDbEntity
  8
0
100
AcDbSpline
 62
7
  6
CONTINUOUS
 70
0
 71
3
 72
61
 73
57
 74
0
 42
0.0000001
 43
0.0000001
 44
0.0000000001
 40
0.0
 40
0.0
 40
0.0
 40
0.0
 40
0.0150612013
 40
0.0301460723
 40
0.0452578688
 40
0.060399639
 40
0.0755742028
 40
0.0907841304
 40
0.1060317223
 40
0.121318997
 40
0.136647679
 40
0.1520191858
 40
0.1674346192
 40
0.1828947631
 40
0.1984000805
 40
0.2139507106
 40
0.22954647
 40
0.2451868606
 40
0.2608710743
 40
0.2765979992
 40
0.2923662298
 40
0.3081740824
 40
0.3240196063
 40
0.3399005969
 40
0.3717526333
 40
0.4037146066
 40
0.4357616105
 40
0.4678665418
 40
0.5000008061
 40
0.5321350587
 40
0.5642399556
 40
0.5962869028
 40
0.6282487988
 40
0.6601007395
 40
0.6759816762
 40
0.6918271422
 40
0.7076349336
 40
0.7234031006
 40
0.7391299592
 40
0.7548141044
 40
0.7704544251
 40
0.786050114
 40
0.8016006726
 40
0.8171059183
 40
0.8325659913
 40
0.8479813551
 40
0.8633527933
 40
0.8786814085
 40
0.8939686193
 40
0.9092161504
 40
0.9244260201
 40
0.93960053
 40
0.9547422508
 40
0.9698540026
 40
0.9849388335
 40
1.0
 40
1.0
 40
1.0
 40
1.0
 10
11.0155242291
 20
7.1610555718
 30
0.0
 10
11.0102000643
 20
7.1579436657
 30
0.0
 10
10.9994022069
 20
7.1519529644
 30
0.0
 10
10.9828073978
 20
7.1436927535
 30
0.0
 10
10.9658309574
 20
7.1361657082
 30
0.0
 10
10.9485034281
 20
7.1293853817
 30
0.0
 10
10.9308554251
 20
7.1233637094
 30
0.0
 10
10.9129182644
 20
7.1181113977
 30
0.0
 10
10.8947237503
 20
7.1136377173
 30
0.0
 10
10.8763041497
 20
7.1099505536
 30
0.0
 10
10.8576921135
 20
7.107056424
 30
0.0
 10
10.8389206305
 20
7.1049604681
 30
0.0
 10
10.8200229779
 20
7.1036663472
 30
0.0
 10
10.8010326479
 20
7.1031763147
 30
0.0
 10
10.7819832915
 20
7.1034912274
 30
0.0
 10
10.7629086654
 20
7.1046105306
 30
0.0
 10
10.7438425655
 20
7.1065321818
 30
0.0
 10
10.724818768
 20
7.1092527456
 30
0.0
 10
10.7058709739
 20
7.1127674022
 30
0.0
 10
10.6870327584
 20
7.1170699144
 30
0.0
 10
10.6683374569
 20
7.1221526201
 30
0.0
 10
10.649818274
 20
7.1280064458
 30
0.0
 10
10.631507662
 20
7.1346212189
 30
0.0
 10
10.6073946817
 20
7.1444478771
 30
0.0
 10
10.5779383175
 20
7.1585768658
 30
0.0
 10
10.5439765463
 20
7.1783351526
 30
0.0
 10
10.5115977093
 20
7.2007768104
 30
0.0
 10
10.4810322143
 20
7.2257425089
 30
0.0
 10
10.4524955097
 20
7.2530557104
 30
0.0
 10
10.4261894658
 20
7.282523412
 30
0.0
 10
10.4022999664
 20
7.3139371681
 30
0.0
 10
10.380995948
 20
7.3470755219
 30
0.0
 10
10.3624286695
 20
7.3817026875
 30
0.0
 10
10.3493308743
 20
7.4116317272
 30
0.0
 10
10.3403473143
 20
7.4360712498
 30
0.0
 10
10.334372266
 20
7.4546004099
 30
0.0
 10
10.3291649402
 20
7.47331159
 30
0.0
 10
10.3247343867
 20
7.492172008
 30
0.0
 10
10.3210885281
 20
7.5111481656
 30
0.0
 10
10.3182338635
 20
7.5302064806
 30
0.0
 10
10.3161754445
 20
7.5493131799
 30
0.0
 10
10.3149169285
 20
7.5684344176
 30
0.0
 10
10.3144605862
 20
7.5875363183
 30
0.0
 10
10.3148072743
 20
7.6065850353
 30
0.0
 10
10.3159563682
 20
7.6255468138
 30
0.0
 10
10.3179058522
 20
7.6443880532
 30
0.0
 10
10.3206523227
 20
7.6630753574
 30
0.0
 10
10.3241909456
 20
7.6815755993
 30
0.0
 10
10.3285154418
 20
7.6998559891
 30
0.0
 10
10.3336181709
 20
7.7178841205
 30
0.0
 10
10.339490141
 20
7.7356280164
 30
0.0
 10
10.3461209609
 20
7.7530562207
 30
0.0
 10
10.3534988521
 20
7.7701378064
 30
0.0
 10
10.3616108281
 20
7.7868425887
 30
0.0
 10
10.3704422917
 20
7.8031405089
 30
0.0
 10
10.3768043091
 20
7.8137238073
 30
0.0
 10
10.3800992149
 20
7.8189366866
 30
0.0
  0
SPLINE
  5
385
100
AcDbEntity
  8
0
100
AcDbSpline
 62
7
  6
CONTINUOUS
 70
0
 71
3
 72
71
 73
67
 74
0
 42
0.0000001
 43
0.0000001
 44
0.0000000001
 40
0.0
 40
0.0
 40
0.0
 40
0.0
 40
0.015673879
 40
0.0313992955
 40
0.047174661
 40
0.0629988604
 40
0.0788698054
 40
0.0947852095
 40
0.1107423301
 40
0.1267380799
 40
0.1427690359
 40
0.1588314746
 40
0.1749214057
 40
0.1910346062
 40
0.2071666579
 40
0.223312984
 40
0.2394688884
 40
0.255629595
 40
0.2717902882
 40
0.2879461525
 40
0.3040924128
 40
0.3202243738
 40
0.3363374595
 40
0.3524272519
 40
0.3684895291
 40
0.3845203018
 40
0.4005158486
 40
0.4164727492
 40
0.4323879154
 40
0.4482586207
 40
0.4640825269
 40
0.4798577083
 40
0.495582673
 40
0.5112563794
 40
0.5268782502
 40
0.5424481824
 40
0.5579665523
 40
0.5734342177
 40
0.5888525145
 40
0.6042232485
 40
0.6195486829
 40
0.6348315199
 40
0.6500748781
 40
0.6652822656
 40
0.6804575476
 40
0.695604911
 40
0.7107288239
 40
0.7258339917
 40
0.7409253102
 40
0.7560078166
 40
0.7710866377
 40
0.786166938
 40
0.8012538671
 40
0.8163525068
 40
0.8314678194
 40
0.8466045978
 40
0.8617674169
 40
0.876960589
 40
0.8921881213
 40
0.9074536789
 40
0.9227605495
 40
0.93811162
 40
0.9535093346
 40
0.9689557135
 40
0.9844522868
 40
1.0
 40
1.0
 40
1.0
 40
1.0
 10
10.5673825728
 20
6.844316086
 30
0.0
 10
10.5590524803
 20
6.8448937799
 30
0.0
 10
10.5423899189
 20
6.8464507265
 30
0.0
 10
10.5174974025
 20
6.8499747957
 30
0.0
 10
10.4927195396
 20
6.8546835538
 30
0.0
 10
10.4681143033
 20
6.8605658649
 30
0.0
 10
10.4437380443
 20
6.8676082816
 30
0.0
 10
10.4196470094
 20
6.8757944689
 30
0.0
 10
10.3958966516
 20
6.8851055674
 30
0.0
 10
10.372541675
 20
6.8955200917
 30
0.0
 10
10.3496358566
 20
6.9070140207
 30
0.0
 10
10.3272319396
 20
6.9195608517
 30
0.0
 10
10.30538151
 20
6.9331316644
 30
0.0
 10
10.2841348802
 20
6.9476951865
 30
0.0
 10
10.2635409731
 20
6.9632178654
 30
0.0
 10
10.2436472117
 20
6.9796639456
 30
0.0
 10
10.2244994089
 20
6.996995548
 30
0.0
 10
10.2061416536
 20
7.0151727484
 30
0.0
 10
10.1886162186
 20
7.0341536815
 30
0.0
 10
10.1719634641
 20
7.0538946356
 30
0.0
 10
10.1562217449
 20
7.0743501524
 30
0.0
 10
10.1414273233
 20
7.0954731308
 30
0.0
 10
10.1276142865
 20
7.1172149349
 30
0.0
 10
10.1148144654
 20
7.139525503
 30
0.0
 10
10.1030573516
 20
7.162353458
 30
0.0
 10
10.0923700424
 20
7.1856462335
 30
0.0
 10
10.0827771769
 20
7.2093501927
 30
0.0
 10
10.0743008805
 20
7.233410751
 30
0.0
 10
10.0669607135
 20
7.2577725
 30
0.0
 10
10.060773627
 20
7.2823793347
 30
0.0
 10
10.0557539186
 20
7.30717458
 30
0.0
 10
10.0519131899
 20
7.3321011203
 30
0.0
 10
10.0492603338
 20
7.3571015338
 30
0.0
 10
10.0478015114
 20
7.3821182231
 30
0.0
 10
10.0475401376
 20
7.4070935465
 30
0.0
 10
10.048476872
 20
7.4319699497
 30
0.0
 10
10.0506096178
 20
7.4566900976
 30
0.0
 10
10.0539335186
 20
7.4811970062
 30
0.0
 10
10.0584409613
 20
7.5054341765
 30
0.0
 10
10.064121607
 20
7.5293457231
 30
0.0
 10
10.0709624109
 20
7.5528765029
 30
0.0
 10
10.0789476517
 20
7.5759722424
 30
0.0
 10
10.0880589657
 20
7.5985796622
 30
0.0
 10
10.0982753898
 20
7.6206466007
 30
0.0
 10
10.1095734004
 20
7.6421221381
 30
0.0
 10
10.1219269636
 20
7.6629567194
 30
0.0
 10
10.135307607
 20
7.6831022639
 30
0.0
 10
10.1496844826
 20
7.7025122786
 30
0.0
 10
10.1650244381
 20
7.7211419657
 30
0.0
 10
10.1812920931
 20
7.7389483279
 30
0.0
 10
10.1984499222
 20
7.7558902672
 30
0.0
 10
10.2164583352
 20
7.7719286881
 30
0.0
 10
10.2352757693
 20
7.787026592
 30
0.0
 10
10.2548587953
 20
7.8011491545
 30
0.0
 10
10.2751622172
 20
7.8142638075
 30
0.0
 10
10.2961391779
 20
7.826340314
 30
0.0
 10
10.3177412682
 20
7.8373508384
 30
0.0
 10
10.3399186409
 20
7.8472700075
 30
0.0
 10
10.3626201211
 20
7.8560749796
 30
0.0
 10
10.3857933298
 20
7.8637454954
 30
0.0
 10
10.4093848047
 20
7.8702639185
 30
0.0
 10
10.4333401425
 20
7.8756152631
 30
0.0
 10
10.4576040479
 20
7.8797872545
 30
0.0
 10
10.4821207759
 20
7.8827703139
 30
0.0
 10
10.5068329898
 20
7.8845576109
 30
0.0
 10
10.5233745301
 20
7.8849486343
 30
0.0
 10
10.5316574158
 20
7.8849449589
 30
0.0
  0
SPLINE
  5
386
100
AcDbEntity
  8
0
100
AcDbSpline
 62
7
  6
CONTINUOUS
 70
0
 71
3
 72
42
 73
38
 74
0
 42
0.0000001
 43
0.0000001
 44
0.0000000001
 40
0.0
 40
0.0
 40
0.0
 40
0.0
 40
0.0311445079
 40
0.062442049
 40
0.0938867256
 40
0.1254688374
 40
0.1571761862
 40
0.1889940167
 40
0.2209053831
 40
0.2528915025
 40
0.284932132
 40
0.317005972
 40
0.3490910812
 40
0.3811653012
 40
0.4132066835
 40
0.445193914
 40
0.4771067282
 40
0.508926314
 40
0.5406356926
 40
0.5722200701
 40
0.6036671594
 40
0.6349674626
 40
0.6661145002
 40
0.697104989
 40
0.7279389623
 40
0.7586198189
 40
0.7891542965
 40
0.8195523742
 40
0.8498270958
 40
0.8799943105
 40
0.9100723406
 40
0.9250870624
 40
0.9400872816
 40
0.9550757958
 40
0.9700554694
 40
0.9850292195
 40
1.0
 40
1.0
 40
1.0
 40
1.0
 10
10.5798118325
 20
6.9027084994
 30
0.0
 10
10.5682541916
 20
6.9035100245
 30
0.0
 10
10.5451321878
 20
6.9059629869
 30
0.0
 10
10.5107295115
 20
6.9121420742
 30
0.0
 10
10.4766953188
 20
6.9207970922
 30
0.0
 10
10.4432134165
 20
6.9318815419
 30
0.0
 10
10.4104616938
 20
6.945336021
 30
0.0
 10
10.3786148465
 20
6.9610885177
 30
0.0
 10
10.3478425253
 20
6.9790548611
 30
0.0
 10
10.3183087253
 20
6.9991391564
 30
0.0
 10
10.2901707881
 20
7.0212342086
 30
0.0
 10
10.2635786314
 20
7.0452221629
 30
0.0
 10
10.2386739799
 20
7.0709751466
 30
0.0
 10
10.2155895938
 20
7.0983559064
 30
0.0
 10
10.1944485188
 20
7.1272185007
 30
0.0
 10
10.1753635103
 20
7.1574091368
 30
0.0
 10
10.1584364462
 20
7.1887669705
 30
0.0
 10
10.1437577026
 20
7.2211249039
 30
0.0
 10
10.1314057113
 20
7.254310498
 30
0.0
 10
10.1214465902
 20
7.288146895
 30
0.0
 10
10.1139337663
 20
7.3224537295
 30
0.0
 10
10.1089075974
 20
7.3570480616
 30
0.0
 10
10.1063952507
 20
7.3917453699
 30
0.0
 10
10.1064105576
 20
7.4263605092
 30
0.0
 10
10.108953843
 20
7.4607086849
 30
0.0
 10
10.1140119071
 20
7.4946064353
 30
0.0
 10
10.1215581735
 20
7.5278726345
 30
0.0
 10
10.1315527009
 20
7.5603293194
 30
0.0
 10
10.1439426099
 20
7.5918031594
 30
0.0
 10
10.1586611766
 20
7.6221246057
 30
0.0
 10
10.1728132819
 20
7.6463156381
 30
0.0
 10
10.1852101919
 20
7.664922646
 30
0.0
 10
10.1950306657
 20
7.6784858608
 30
0.0
 10
10.2053649267
 20
7.6916448984
 30
0.0
 10
10.2161994515
 20
7.7043824724
 30
0.0
 10
10.2275194209
 20
7.7166812981
 30
0.0
 10
10.2353804967
 20
7.7245779058
 30
0.0
 10
10.2393859931
 20
7.7284469242
 30
0.0
  0
SPLINE
  5
387
100
AcDbEntity
  8
0
100
AcDbSpline
 62
7
  6
CONTINUOUS
 70
0
 71
3
 72
15
 73
11
 74
0
 42
0.0000001
 43
0.0000001
 44
0.0000000001
 40
0.0
 40
0.0
 40
0.0
 40
0.0
 40
0.1268344558
 40
0.2531028041
 40
0.3788159293
 40
0.5039912265
 40
0.6286567273
 40
0.7528488616
 40
0.8766124767
 40
1.0
 40
1.0
 40
1.0
 40
1.0
 10
10.7661554354
 20
7.0827026087
 30
0.0
 10
10.7762938017
 20
7.0819995106
 30
0.0
 10
10.7965763487
 20
7.0812433777
 30
0.0
 10
10.8269382187
 20
7.0820763367
 30
0.0
 10
10.8570503343
 20
7.0848752231
 30
0.0
 10
10.8867862219
 20
7.0896288681
 30
0.0
 10
10.9160226937
 20
7.0963176182
 30
0.0
 10
10.9446386783
 20
7.1049141706
 30
0.0
 10
10.972513688
 20
7.1153822091
 30
0.0
 10
10.9905544296
 20
7.12359288
 30
0.0
 10
10.9994077344
 20
7.1279931577
 30
0.0
  0
SPLINE
  5
388
100
AcDbEntity
  8
0
100
AcDbSpline
 62
7
  6
CONTINUOUS
 70
0
 71
3
 72
43
 73
39
 74
0
 42
0.0000001
 43
0.0000001
 44
0.0000000001
 40
0.0
 40
0.0
 40
0.0
 40
0.0
 40
0.0309610509
 40
0.0620561621
 40
0.0932812825
 40
0.1246296133
 40
0.1560927635
 40
0.1876604504
 40
0.2193208125
 40
0.25106057
 40
0.2828652444
 40
0.3147193819
 40
0.3466067901
 40
0.3785107816
 40
0.4104144229
 40
0.4423007858
 40
0.4741531985
 40
0.5059554944
 40
0.5376922553
 40
0.5693490474
 40
0.6009126463
 40
0.6323712477
 40
0.663714662
 40
0.6949344896
 40
0.7260242722
 40
0.7569796195
 40
0.7877983057
 40
0.8184803348
 40
0.8337727485
 40
0.8490320356
 40
0.8642588328
 40
0.8794539094
 40
0.9097485037
 40
0.9399287718
 40
0.9549814668
 40
0.9700097967
 40
0.9850153948
 40
1.0
 40
1.0
 40
1.0
 40
1.0
 10
10.7661554354
 20
7.0827026087
 30
0.0
 10
10.7560194009
 20
7.083405545
 30
0.0
 10
10.7357427145
 20
7.0854647549
 30
0.0
 10
10.7055250299
 20
7.0904798047
 30
0.0
 10
10.6755561511
 20
7.0974073714
 30
0.0
 10
10.645960677
 20
7.1062188216
 30
0.0
 10
10.6168596832
 20
7.1168777891
 30
0.0
 10
10.5883726925
 20
7.1293404004
 30
0.0
 10
10.5606165619
 20
7.143555376
 30
0.0
 10
10.5337051783
 20
7.1594642789
 30
0.0
 10
10.5077489486
 20
7.1770017416
 30
0.0
 10
10.4828543595
 20
7.1960957297
 30
0.0
 10
10.459123544
 20
7.2166678419
 30
0.0
 10
10.4366538677
 20
7.238633631
 30
0.0
 10
10.4155375327
 20
7.2619029482
 30
0.0
 10
10.3958612025
 20
7.2863803097
 30
0.0
 10
10.3777056489
 20
7.3119652857
 30
0.0
 10
10.3611454231
 20
7.3385529082
 30
0.0
 10
10.3462485524
 20
7.3660340988
 30
0.0
 10
10.3330762551
 20
7.394296108
 30
0.0
 10
10.3216826922
 20
7.4232229764
 30
0.0
 10
10.3121147497
 20
7.4526960088
 30
0.0
 10
10.3044118434
 20
7.4825942488
 30
0.0
 10
10.2986057591
 20
7.5127949962
 30
0.0
 10
10.2947205065
 20
7.5431742063
 30
0.0
 10
10.2927722658
 20
7.5736073612
 30
0.0
 10
10.2927691323
 20
7.6039686114
 30
0.0
 10
10.2943898057
 20
7.6291366354
 30
0.0
 10
10.2966578052
 20
7.6491060494
 30
0.0
 10
10.2988395388
 20
7.6639725507
 30
0.0
 10
10.3015015482
 20
7.6787281638
 30
0.0
 10
10.3056829334
 20
7.6982126668
 30
0.0
 10
10.3120936141
 20
7.7222232954
 30
0.0
 10
10.3200739096
 20
7.7457098983
 30
0.0
 10
10.3273718031
 20
7.7640931377
 30
0.0
 10
10.3332919745
 20
7.7776562647
 30
0.0
 10
10.3396569265
 20
7.7909913323
 30
0.0
 10
10.3441956557
 20
7.7997265857
 30
0.0
 10
10.3465367156
 20
7.8040510172
 30
0.0
  0
SPLINE
  5
389
100
AcDbEntity
  8
0
100
AcDbSpline
 62
7
  6
CONTINUOUS
 70
0
 71
3
 72
93
 73
89
 74
0
 42
0.0000001
 43
0.0000001
 44
0.0000000001
 40
0.0
 40
0.0
 40
0.0
 40
0.0
 40
0.0027164122
 40
0.0054531986
 40
0.0082302464
 40
0.0110665143
 40
0.0139796987
 40
0.0169859749
 40
0.0200999116
 40
0.0233343924
 40
0.0267007144
 40
0.0302086301
 40
0.0338665055
 40
0.0376814345
 40
0.0416593638
 40
0.0458052537
 40
0.0501231341
 40
0.0546162866
 40
0.0592872492
 40
0.0641379798
 40
0.0691698571
 40
0.0743837847
 40
0.0797802281
 40
0.0853592419
 40
0.0911205549
 40
0.097063532
 40
0.1031872889
 40
0.1094906267
 40
0.1159721353
 40
0.1226301497
 40
0.136467702
 40
0.1509863985
 40
0.166166177
 40
0.1819844989
 40
0.1984166092
 40
0.2154357535
 40
0.2330133648
 40
0.2511192265
 40
0.2697216198
 40
0.2887874599
 40
0.3082824199
 40
0.3281710492
 40
0.3484168852
 40
0.3689825618
 40
0.3898299142
 40
0.4109200821
 40
0.4322136103
 40
0.45367055
 40
0.4752505584
 40
0.496912997
 40
0.5186170297
 40
0.5403217213
 40
0.5619861345
 40
0.5835694282
 40
0.6050309555
 40
0.6263303623
 40
0.6474276864
 40
0.6682834561
 40
0.6888587905
 40
0.7091155008
 40
0.729016193
 40
0.7485243728
 40
0.7676045542
 40
0.7862223725
 40
0.8043447018
 40
0.8219397795
 40
0.8389773394
 40
0.8554287585
 40
0.8712672205
 40
0.8864679016
 40
0.901008187
 40
0.914867929
 40
0.921537231
 40
0.9280301459
 40
0.9343449921
 40
0.9404803324
 40
0.9464349771
 40
0.9522079882
 40
0.9577987496
 40
0.9632069274
 40
0.9684325931
 40
0.9734761642
 40
0.9783385117
 40
0.9830209603
 40
0.9875254509
 40
0.9918545996
 40
0.9960115539
 40
1.0
 40
1.0
 40
1.0
 40
1.0
 10
12.4997042364
 20
9.7380309364
 30
0.0
 10
12.5010750905
 20
9.7379358716
 30
0.0
 10
12.5038200635
 20
9.7376209724
 30
0.0
 10
12.5079025775
 20
9.7367782575
 30
0.0
 10
12.5119542299
 20
9.7355653221
 30
0.0
 10
12.5159721592
 20
9.7339833904
 30
0.0
 10
12.5199542431
 20
9.7320337784
 30
0.0
 10
12.5238985034
 20
9.7297181231
 30
0.0
 10
12.5278030495
 20
9.7270379605
 30
0.0
 10
12.531666219
 20
9.7239950888
 30
0.0
 10
12.5354862797
 20
9.7205912088
 30
0.0
 10
12.5392616292
 20
9.7168282301
 30
0.0
 10
12.5429905985
 20
9.7127080925
 30
0.0
 10
12.5466715275
 20
9.7082328857
 30
0.0
 10
12.5503027805
 20
9.7034048586
 30
0.0
 10
12.5538826269
 20
9.698226366
 30
0.0
 10
12.5574094553
 20
9.6926999948
 30
0.0
 10
12.5608815088
 20
9.6868284271
 30
0.0
 10
12.5642971845
 20
9.6806145885
 30
0.0
 10
12.56765476
 20
9.6740615218
 30
0.0
 10
12.5709526252
 20
9.6671724839
 30
0.0
 10
12.5741891365
 20
9.659950884
 30
0.0
 10
12.5773626772
 20
9.6524003084
 30
0.0
 10
12.5804716977
 20
9.6445245215
 30
0.0
 10
12.5835145952
 20
9.6363274389
 30
0.0
 10
12.5864899042
 20
9.6278131638
 30
0.0
 10
12.5893960716
 20
9.6189859398
 30
0.0
 10
12.5922316864
 20
9.6098501944
 30
0.0
 10
12.5949953035
 20
9.6004104837
 30
0.0
 10
12.5986289912
 20
9.5872558357
 30
0.0
 10
12.6029689238
 20
9.5700805672
 30
0.0
 10
12.6078038733
 20
9.5485921053
 30
0.0
 10
12.6123206269
 20
9.5260118918
 30
0.0
 10
12.6165100171
 20
9.5023852433
 30
0.0
 10
12.6203635122
 20
9.4777594268
 30
0.0
 10
12.6238732697
 20
9.4521838241
 30
0.0
 10
12.6270321438
 20
9.4257097457
 30
0.0
 10
12.6298337044
 20
9.3983903421
 30
0.0
 10
12.6322722491
 20
9.370280485
 30
0.0
 10
12.6343428128
 20
9.3414366529
 30
0.0
 10
12.6360411778
 20
9.3119168135
 30
0.0
 10
12.6373638815
 20
9.2817803041
 30
0.0
 10
12.638308223
 20
9.2510877108
 30
0.0
 10
12.6388722674
 20
9.2199007448
 30
0.0
 10
12.6390548501
 20
9.1882821175
 30
0.0
 10
12.6388555779
 20
9.1562954133
 30
0.0
 10
12.638274832
 20
9.1240049606
 30
0.0
 10
12.6373137646
 20
9.0914757019
 30
0.0
 10
12.6359742966
 20
9.0587730614
 30
0.0
 10
12.6342591137
 20
9.0259628128
 30
0.0
 10
12.6321716603
 20
8.9931109473
 30
0.0
 10
12.6297161329
 20
8.96028354
 30
0.0
 10
12.6268974716
 20
8.9275466166
 30
0.0
 10
12.62372135
 20
8.8949660208
 30
0.0
 10
12.6201941641
 20
8.8626072806
 30
0.0
 10
12.6163230209
 20
8.8305354753
 30
0.0
 10
12.6121157227
 20
8.7988151046
 30
0.0
 10
12.607580751
 20
8.7675099577
 30
0.0
 10
12.6027272503
 20
8.7366829848
 30
0.0
 10
12.5975650097
 20
8.7063961697
 30
0.0
 10
12.5921044433
 20
8.6767104039
 30
0.0
 10
12.58635657
 20
8.6476853633
 30
0.0
 10
12.580332991
 20
8.6193793855
 30
0.0
 10
12.5740458677
 20
8.5918493498
 30
0.0
 10
12.5675078981
 20
8.5651505596
 30
0.0
 10
12.5607322894
 20
8.5393366281
 30
0.0
 10
12.5537327322
 20
8.5144593679
 30
0.0
 10
12.5465233715
 20
8.4905686753
 30
0.0
 10
12.5391187777
 20
8.4677124452
 30
0.0
 10
12.5315339132
 20
8.4459363866
 30
0.0
 10
12.5237841007
 20
8.4252841916
 30
0.0
 10
12.517118925
 20
8.408840725
 30
0.0
 10
12.5117071848
 20
8.3962875702
 30
0.0
 10
12.507668955
 20
8.3872998545
 30
0.0
 10
12.5036012539
 20
8.378622845
 30
0.0
 10
12.4995061046
 20
8.3702608761
 30
0.0
 10
12.4953855821
 20
8.3622181274
 30
0.0
 10
12.4912417179
 20
8.3544986292
 30
0.0
 10
12.487076637
 20
8.3471062173
 30
0.0
 10
12.4828923596
 20
8.3400445976
 30
0.0
 10
12.4786910286
 20
8.3333172563
 30
0.0
 10
12.4744746721
 20
8.3269275646
 30
0.0
 10
12.4702454356
 20
8.3208786831
 30
0.0
 10
12.4660053804
 20
8.3151736092
 30
0.0
 10
12.4617565473
 20
8.3098151371
 30
0.0
 10
12.4575009396
 20
8.3048058495
 30
0.0
 10
12.453240784
 20
8.3001484623
 30
0.0
 10
12.4503400133
 20
8.2972200319
 30
0.0
 10
12.4488888253
 20
8.2958182918
 30
0.0
  0
SPLINE
  5
38A
100
AcDbEntity
  8
0
100
AcDbSpline
 62
7
  6
CONTINUOUS
 70
0
 71
3
 72
56
 73
52
 74
0
 42
0.0000001
 43
0.0000001
 44
0.0000000001
 40
0.0
 40
0.0
 40
0.0
 40
0.0
 40
0.0313764076
 40
0.0629436503
 40
0.094690367
 40
0.1265987395
 40
0.1586460723
 40
0.1908053732
 40
0.2230462121
 40
0.255335688
 40
0.2876394313
 40
0.3199226415
 40
0.3521511392
 40
0.3842923945
 40
0.4163165303
 40
0.4481972636
 40
0.4799127573
 40
0.495707046
 40
0.5114542649
 40
0.5271532493
 40
0.5428032307
 40
0.5584038412
 40
0.5739551207
 40
0.5894575266
 40
0.6049119302
 40
0.6203196085
 40
0.6356822439
 40
0.6510019127
 40
0.6662810663
 40
0.6815225125
 40
0.6967293991
 40
0.7119051841
 40
0.7270536042
 40
0.7421786458
 40
0.7572845112
 40
0.7723755779
 40
0.7874563573
 40
0.8025314584
 40
0.8176055435
 40
0.8326832823
 40
0.8477693101
 40
0.8628681878
 40
0.8779843577
 40
0.8931221009
 40
0.9082855011
 40
0.9234784107
 40
0.9387044132
 40
0.9539667901
 40
0.969268505
 40
0.9846121665
 40
1.0
 40
1.0
 40
1.0
 40
1.0
 10
10.0487026323
 20
9.418490304
 30
0.0
 10
10.0395612499
 20
9.419124261
 30
0.0
 10
10.021270435
 20
9.4212335709
 30
0.0
 10
9.9941591603
 20
9.4268590303
 30
0.0
 10
9.9675022991
 20
9.4349090021
 30
0.0
 10
9.9415243942
 20
9.4453157838
 30
0.0
 10
9.9164405631
 20
9.4579923655
 30
0.0
 10
9.8924594612
 20
9.4728330177
 30
0.0
 10
9.8697801865
 20
9.4897140147
 30
0.0
 10
9.8485912401
 20
9.5084949655
 30
0.0
 10
9.8290686077
 20
9.5290196024
 30
0.0
 10
9.8113746236
 20
9.5511173801
 30
0.0
 10
9.7956564345
 20
9.5746046942
 30
0.0
 10
9.7820448719
 20
9.5992862971
 30
0.0
 10
9.7706534036
 20
9.6249575696
 30
0.0
 10
9.7615772558
 20
9.6514036887
 30
0.0
 10
9.7559978525
 20
9.6739420487
 30
0.0
 10
9.7527638057
 20
9.6921358235
 30
0.0
 10
9.7509580822
 20
9.7058183956
 30
0.0
 10
9.7497731606
 20
9.7195261179
 30
0.0
 10
9.749211409
 20
9.7332307488
 30
0.0
 10
9.7492740737
 20
9.7469036348
 30
0.0
 10
9.7499610671
 20
9.7605162915
 30
0.0
 10
9.7512709386
 20
9.7740403315
 30
0.0
 10
9.7532009824
 20
9.7874475579
 30
0.0
 10
9.7557472445
 20
9.8007100005
 30
0.0
 10
9.7589044125
 20
9.8137999987
 30
0.0
 10
9.7626659023
 20
9.826690253
 30
0.0
 10
9.7670239187
 20
9.8393538624
 30
0.0
 10
9.7719694116
 20
9.8517643928
 30
0.0
 10
9.7774920412
 20
9.863895961
 30
0.0
 10
9.7835803072
 20
9.8757232489
 30
0.0
 10
9.790221563
 20
9.8872215467
 30
0.0
 10
9.7974019352
 20
9.8983668661
 30
0.0
 10
9.8051064331
 20
9.9091359548
 30
0.0
 10
9.8133190132
 20
9.9195063143
 30
0.0
 10
9.8220225525
 20
9.9294562833
 30
0.0
 10
9.8311988555
 20
9.9389651207
 30
0.0
 10
9.8408287777
 20
9.9480129771
 30
0.0
 10
9.8508922499
 20
9.9565809335
 30
0.0
 10
9.8613682404
 20
9.9646511359
 30
0.0
 10
9.8722348709
 20
9.9722067634
 30
0.0
 10
9.8834694773
 20
9.9792320276
 30
0.0
 10
9.8950486106
 20
9.9857122669
 30
0.0
 10
9.9069480792
 20
9.9916340092
 30
0.0
 10
9.91914305
 20
9.9969849072
 30
0.0
 10
9.9316080942
 20
10.0017537723
 30
0.0
 10
9.9443171549
 20
10.005930708
 30
0.0
 10
9.957243812
 20
10.0095070499
 30
0.0
 10
9.9703607188
 20
10.0124752722
 30
0.0
 10
9.9792018007
 20
10.0140423814
 30
0.0
 10
9.9836438963
 20
10.01472308
 30
0.0
  0
SPLINE
  5
38B
100
AcDbEntity
  8
0
100
AcDbSpline
 62
7
  6
CONTINUOUS
 70
0
 71
3
 72
54
 73
50
 74
0
 42
0.0000001
 43
0.0000001
 44
0.0000000001
 40
0.0
 40
0.0
 40
0.0
 40
0.0
 40
0.0313655538
 40
0.0629183333
 40
0.0946476868
 40
0.126536669
 40
0.1585637765
 40
0.1907033794
 40
0.2229265252
 40
0.2552018195
 40
0.2874963553
 40
0.3197766685
 40
0.3520097054
 40
0.3841637848
 40
0.4162095319
 40
0.4481207573
 40
0.4798752768
 40
0.5114556332
 40
0.5428496965
 40
0.5584785477
 40
0.5740589603
 40
0.5895911023
 40
0.6050755316
 40
0.6205131904
 40
0.6359054108
 40
0.6512539036
 40
0.6665607414
 40
0.6818283516
 40
0.6970594987
 40
0.7122572563
 40
0.727424987
 40
0.7425663186
 40
0.7576851074
 40
0.7727854061
 40
0.7878714347
 40
0.8029475388
 40
0.8180181495
 40
0.8330877489
 40
0.8481608297
 40
0.8632418505
 40
0.8783351995
 40
0.8934451587
 40
0.9085758606
 40
0.9237312531
 40
0.9389150711
 40
0.9541308013
 40
0.9693816476
 40
0.9846705201
 40
1.0
 40
1.0
 40
1.0
 40
1.0
 10
10.0745845154
 20
9.4640216733
 30
0.0
 10
10.0662345427
 20
9.4646007459
 30
0.0
 10
10.0495275146
 20
9.4665124914
 30
0.0
 10
10.0247539187
 20
9.4715859665
 30
0.0
 10
10.0003795969
 20
9.4788333708
 30
0.0
 10
9.9766020625
 20
9.4881961854
 30
0.0
 10
9.9536107092
 20
9.4995990279
 30
0.0
 10
9.9315895046
 20
9.5129504348
 30
0.0
 10
9.9107143695
 20
9.528143389
 30
0.0
 10
9.8911521026
 20
9.5450562167
 30
0.0
 10
9.8730591132
 20
9.5635536829
 30
0.0
 10
9.8565800164
 20
9.5834878346
 30
0.0
 10
9.8418466315
 20
9.6046993428
 30
0.0
 10
9.8289769654
 20
9.6270187166
 30
0.0
 10
9.8180740821
 20
9.6502675702
 30
0.0
 10
9.8092255397
 20
9.6742600159
 30
0.0
 10
9.802502543
 20
9.6988046071
 30
0.0
 10
9.7979592916
 20
9.7237036765
 30
0.0
 10
9.7960175308
 20
9.7446192673
 30
0.0
 10
9.7955872726
 20
9.7613242668
 30
0.0
 10
9.7958244086
 20
9.7737995348
 30
0.0
 10
9.7966205708
 20
9.7862128075
 30
0.0
 10
9.7979741471
 20
9.7985395015
 30
0.0
 10
9.7998825105
 20
9.8107548028
 30
0.0
 10
9.8023417977
 20
9.8228342366
 30
0.0
 10
9.80534709
 20
9.8347535683
 30
0.0
 10
9.8088924365
 20
9.8464888681
 30
0.0
 10
9.8129707041
 20
9.8580165956
 30
0.0
 10
9.8175737066
 20
9.8693136267
 30
0.0
 10
9.8226922783
 20
9.8803572646
 30
0.0
 10
9.8283161422
 20
9.8911253472
 30
0.0
 10
9.834433992
 20
9.9015962778
 30
0.0
 10
9.8410336047
 20
9.9117490104
 30
0.0
 10
9.8481017425
 20
9.921563158
 30
0.0
 10
9.8556241853
 20
9.9310190471
 30
0.0
 10
9.8635858698
 20
9.9400976712
 30
0.0
 10
9.871970833
 20
9.9487807856
 30
0.0
 10
9.8807622025
 20
9.9570509997
 30
0.0
 10
9.8899423484
 20
9.9648916983
 30
0.0
 10
9.8994928667
 20
9.9722871101
 30
0.0
 10
9.909394545
 20
9.9792224421
 30
0.0
 10
9.9196275108
 20
9.9856837764
 30
0.0
 10
9.9301712483
 20
9.9916581043
 30
0.0
 10
9.9410045585
 20
9.997133493
 30
0.0
 10
9.9521056998
 20
10.0020989767
 30
0.0
 10
9.9634523875
 20
10.0065445455
 30
0.0
 10
9.9750219195
 20
10.0104613499
 30
0.0
 10
9.9867907341
 20
10.0138415111
 30
0.0
 10
9.9947436421
 20
10.0157301969
 30
0.0
 10
9.9987444446
 20
10.0165832467
 30
0.0
  0
SPLINE
  5
38C
100
AcDbEntity
  8
0
100
AcDbSpline
 62
7
  6
CONTINUOUS
 70
0
 71
3
 72
82
 73
78
 74
0
 42
0.0000001
 43
0.0000001
 44
0.0000000001
 40
0.0
 40
0.0
 40
0.0
 40
0.0
 40
0.0039487494
 40
0.0077209387
 40
0.0113257743
 40
0.0147747148
 40
0.0212568449
 40
0.0243284112
 40
0.0273115274
 40
0.0302284182
 40
0.033103026
 40
0.0359604446
 40
0.0388262637
 40
0.0417258249
 40
0.0446835346
 40
0.0477222418
 40
0.0508628757
 40
0.0541241481
 40
0.0575225017
 40
0.0610722097
 40
0.0647853977
 40
0.0686723462
 40
0.0727416233
 40
0.0770002464
 40
0.0814539889
 40
0.0861073907
 40
0.0909640092
 40
0.0960265526
 40
0.1012968687
 40
0.1067762051
 40
0.1124651601
 40
0.1244709331
 40
0.1373100719
 40
0.1509712284
 40
0.1654377668
 40
0.1806885598
 40
0.1966986328
 40
0.2134396389
 40
0.230880219
 40
0.2489863053
 40
0.2677214288
 40
0.2870469554
 40
0.3069222823
 40
0.3273050102
 40
0.3481511529
 40
0.3694153102
 40
0.4130089192
 40
0.4577011831
 40
0.5030935905
 40
0.5487795594
 40
0.594349173
 40
0.6393938349
 40
0.6835109575
 40
0.705099191
 40
0.726309728
 40
0.7470960579
 40
0.7674129447
 40
0.7872166181
 40
0.8064649299
 40
0.82511752
 40
0.8431360094
 40
0.8604842466
 40
0.8771285406
 40
0.8930379118
 40
0.9081844141
 40
0.9225435601
 40
0.9360948258
 40
0.9488222316
 40
0.9607151885
 40
0.9663476285
 40
0.9717705667
 40
0.976984726
 40
0.9819914802
 40
0.9867930798
 40
0.9913924833
 40
0.9957933098
 40
1.0
 40
1.0
 40
1.0
 40
1.0
 10
12.4495736632
 20
7.8275106951
 30
0.0
 10
12.4501513249
 20
7.8280482909
 30
0.0
 10
12.4513061842
 20
7.8290727173
 30
0.0
 10
12.4530781284
 20
7.8304826073
 30
0.0
 10
12.4548484911
 20
7.8317288519
 30
0.0
 10
12.4571566502
 20
7.8331414556
 30
0.0
 10
12.4595115648
 20
7.8342679846
 30
0.0
 10
12.4618913938
 20
7.8350593761
 30
0.0
 10
12.4636380043
 20
7.8354749182
 30
0.0
 10
12.4653765844
 20
7.8357222509
 30
0.0
 10
12.4671058983
 20
7.8358010647
 30
0.0
 10
12.4688244912
 20
7.8357110494
 30
0.0
 10
12.4705309012
 20
7.8354523425
 30
0.0
 10
12.4722237081
 20
7.8350252379
 30
0.0
 10
12.4739015808
 20
7.8344302388
 30
0.0
 10
12.4755633839
 20
7.8336681266
 30
0.0
 10
12.4772080605
 20
7.8327396267
 30
0.0
 10
12.4788347102
 20
7.8316456231
 30
0.0
 10
12.4804425111
 20
7.8303870048
 30
0.0
 10
12.482030614
 20
7.8289646222
 30
0.0
 10
12.4835982802
 20
7.8273794666
 30
0.0
 10
12.4851446886
 20
7.8256324926
 30
0.0
 10
12.4866690303
 20
7.823724749
 30
0.0
 10
12.4881705359
 20
7.8216573866
 30
0.0
 10
12.4896483343
 20
7.8194315808
 30
0.0
 10
12.4911016407
 20
7.8170486539
 30
0.0
 10
12.4925296296
 20
7.8145099924
 30
0.0
 10
12.4939314499
 20
7.8118170673
 30
0.0
 10
12.4953063307
 20
7.8089714793
 30
0.0
 10
12.4966534507
 20
7.8059748816
 30
0.0
 10
12.4984437436
 20
7.8017033807
 30
0.0
 10
12.5005981162
 20
7.7959921
 30
0.0
 10
12.5030161304
 20
7.7886849604
 30
0.0
 10
12.5053054879
 20
7.7808231216
 30
0.0
 10
12.5074606878
 20
7.772425218
 30
0.0
 10
12.5094765321
 20
7.7635110392
 30
0.0
 10
12.5113481368
 20
7.7541017351
 30
0.0
 10
12.5130709569
 20
7.7442196649
 30
0.0
 10
12.5146408066
 20
7.7338883653
 30
0.0
 10
12.5160538828
 20
7.7231324799
 30
0.0
 10
12.5173067551
 20
7.7119776875
 30
0.0
 10
12.5183963784
 20
7.7004506325
 30
0.0
 10
12.5193201016
 20
7.6885788627
 30
0.0
 10
12.5200756813
 20
7.6763907725
 30
0.0
 10
12.5206613074
 20
7.6639154907
 30
0.0
 10
12.5212181122
 20
7.6467970571
 30
0.0
 10
12.5214718488
 20
7.6249032319
 30
0.0
 10
12.5210858131
 20
7.5981890728
 30
0.0
 10
12.5200148091
 20
7.5710751335
 30
0.0
 10
12.5182689912
 20
7.5438206749
 30
0.0
 10
12.5158649834
 20
7.5166860732
 30
0.0
 10
12.5128258497
 20
7.4899307849
 30
0.0
 10
12.5097668401
 20
7.4680081879
 30
0.0
 10
12.5070171888
 20
7.4508575426
 30
0.0
 10
12.5048309716
 20
7.4383397833
 30
0.0
 10
12.5025112617
 20
7.4261045644
 30
0.0
 10
12.5000636016
 20
7.4141811333
 30
0.0
 10
12.4974938877
 20
7.4025980058
 30
0.0
 10
12.494808301
 20
7.3913828663
 30
0.0
 10
12.4920133027
 20
7.3805625146
 30
0.0
 10
12.4891156117
 20
7.3701627949
 30
0.0
 10
12.4861222056
 20
7.3602085222
 30
0.0
 10
12.483040295
 20
7.3507234182
 30
0.0
 10
12.4798772987
 20
7.3417300592
 30
0.0
 10
12.4766408189
 20
7.3332498075
 30
0.0
 10
12.4733386313
 20
7.3253027616
 30
0.0
 10
12.4699786447
 20
7.3179076051
 30
0.0
 10
12.466568893
 20
7.3110818429
 30
0.0
 10
12.4636419181
 20
7.3057892906
 30
0.0
 10
12.461275735
 20
7.3018603782
 30
0.0
 10
12.4595259723
 20
7.2991195992
 30
0.0
 10
12.4577698733
 20
7.2965326385
 30
0.0
 10
12.4560083983
 20
7.2941010186
 30
0.0
 10
12.4542425874
 20
7.2918261167
 30
0.0
 10
12.4524733923
 20
7.2897092803
 30
0.0
 10
12.4507019804
 20
7.2877518692
 30
0.0
 10
12.4494934749
 20
7.2865268273
 30
0.0
 10
12.4488888253
 20
7.2859427806
 30
0.0
  0
SPLINE
  5
38D
100
AcDbEntity
  8
0
100
AcDbSpline
 62
7
  6
CONTINUOUS
 70
0
 71
3
 72
39
 73
35
 74
0
 42
0.0000001
 43
0.0000001
 44
0.0000000001
 40
0.0
 40
0.0
 40
0.0
 40
0.0
 40
0.0319479403
 40
0.0637876837
 40
0.0955193006
 40
0.1271452177
 40
0.1586681269
 40
0.1900920686
 40
0.2214219657
 40
0.2526637298
 40
0.2838241651
 40
0.3149109175
 40
0.3459323992
 40
0.3768977061
 40
0.4078165261
 40
0.4386990395
 40
0.4695558126
 40
0.5003976863
 40
0.5312356608
 40
0.5620807777
 40
0.5929440022
 40
0.623836106
 40
0.654767553
 40
0.6857483894
 40
0.7167881389
 40
0.747895706
 40
0.779079286
 40
0.8103462855
 40
0.8417032516
 40
0.8731558129
 40
0.9047086301
 40
0.9363653587
 40
0.9681286229
 40
1.0
 40
1.0
 40
1.0
 40
1.0
 10
10.531665574
 20
6.7740990821
 30
0.0
 10
10.540737042
 20
6.7734699736
 30
0.0
 10
10.5588830812
 20
6.7726554692
 30
0.0
 10
10.5860807386
 20
6.7727732464
 30
0.0
 10
10.6131484787
 20
6.7742323252
 30
0.0
 10
10.6400201119
 20
6.777029183
 30
0.0
 10
10.6666312125
 20
6.7811572281
 30
0.0
 10
10.6929175375
 20
6.7866065291
 30
0.0
 10
10.7188157527
 20
6.7933640429
 30
0.0
 10
10.7442634091
 20
6.8014135346
 30
0.0
 10
10.7691991447
 20
6.8107356636
 30
0.0
 10
10.79356282
 20
6.8213080101
 30
0.0
 10
10.8172956705
 20
6.8331051282
 30
0.0
 10
10.8403404479
 20
6.8460986094
 30
0.0
 10
10.8626415597
 20
6.860257152
 30
0.0
 10
10.8841452047
 20
6.8755466358
 30
0.0
 10
10.9047995047
 20
6.8919302041
 30
0.0
 10
10.9245546319
 20
6.9093683534
 30
0.0
 10
10.9433629303
 20
6.9278190289
 30
0.0
 10
10.9611790327
 20
6.9472377269
 30
0.0
 10
10.9779599704
 20
6.9675776041
 30
0.0
 10
10.9936652835
 20
6.9887895883
 30
0.0
 10
11.0082571169
 20
7.0108225014
 30
0.0
 10
11.0217003096
 20
7.0336231867
 30
0.0
 10
11.0339624799
 20
7.0571366385
 30
0.0
 10
11.0450141029
 20
7.0813061367
 30
0.0
 10
11.0548285805
 20
7.1060733851
 30
0.0
 10
11.0633823047
 20
7.1313786548
 30
0.0
 10
11.0706547132
 20
7.1571609227
 30
0.0
 10
11.0766283364
 20
7.1833580456
 30
0.0
 10
11.081288843
 20
7.2099068119
 30
0.0
 10
11.0846250727
 20
7.2367434616
 30
0.0
 10
11.0866290556
 20
7.2638024688
 30
0.0
 10
11.0870729515
 20
7.2819178437
 30
0.0
 10
11.0870729437
 20
7.2909893078
 30
0.0
  0
SPLINE
  5
38E
100
AcDbEntity
  8
0
100
AcDbSpline
 62
7
  6
CONTINUOUS
 70
0
 71
3
 72
37
 73
33
 74
0
 42
0.0000001
 43
0.0000001
 44
0.0000000001
 40
0.0
 40
0.0
 40
0.0
 40
0.0
 40
0.0639291073
 40
0.1274755898
 40
0.1591172244
 40
0.1906690317
 40
0.2221345099
 40
0.2535176846
 40
0.284823243
 40
0.3160565058
 40
0.3472233673
 40
0.3783302662
 40
0.4093841239
 40
0.440392295
 40
0.4713625174
 40
0.502302838
 40
0.5332215484
 40
0.5641271268
 40
0.5950281588
 40
0.6259332629
 40
0.6568510288
 40
0.6877899424
 40
0.7187583071
 40
0.7497641851
 40
0.7808153331
 40
0.8119191285
 40
0.843082517
 40
0.8743119667
 40
0.905613404
 40
0.9369921735
 40
0.9684530117
 40
1.0
 40
1.0
 40
1.0
 40
1.0
 10
10.0487026323
 20
9.418490304
 30
0.0
 10
10.0573230728
 20
9.4178924744
 30
0.0
 10
10.0745725566
 20
9.417439227
 30
0.0
 10
10.0960688253
 20
9.4187531881
 30
0.0
 10
10.1130659422
 20
9.4209299522
 30
0.0
 10
10.1256767708
 20
9.4231178339
 30
0.0
 10
10.1381430339
 20
9.4258591481
 30
0.0
 10
10.1504415997
 20
9.4291487374
 30
0.0
 10
10.1625493072
 20
9.4329804213
 30
0.0
 10
10.1744434137
 20
9.4373470796
 30
0.0
 10
10.1861015819
 20
9.4422404952
 30
0.0
 10
10.1975019268
 20
9.4476514639
 30
0.0
 10
10.2086230036
 20
9.453569891
 30
0.0
 10
10.2194439259
 20
9.4599846485
 30
0.0
 10
10.2299443844
 20
9.4668836628
 30
0.0
 10
10.240104618
 20
9.4742540304
 30
0.0
 10
10.24990554
 20
9.4820818993
 30
0.0
 10
10.2593287664
 20
9.4903525316
 30
0.0
 10
10.2683565588
 20
9.4990504322
 30
0.0
 10
10.2769719538
 20
9.5081592586
 30
0.0
 10
10.2851588076
 20
9.5176618612
 30
0.0
 10
10.2929017096
 20
9.5275404171
 30
0.0
 10
10.3001861067
 20
9.53777637
 30
0.0
 10
10.3069983703
 20
9.548350453
 30
0.0
 10
10.3133256815
 20
9.5592428212
 30
0.0
 10
10.319156143
 20
9.570433019
 30
0.0
 10
10.3244788711
 20
9.5818999922
 30
0.0
 10
10.3292838576
 20
9.5936222201
 30
0.0
 10
10.3335620561
 20
9.6055776704
 30
0.0
 10
10.3373055238
 20
9.6177439518
 30
0.0
 10
10.3405071757
 20
9.6300978988
 30
0.0
 10
10.3422740295
 20
9.638432631
 30
0.0
 10
10.3430655937
 20
9.6426226481
 30
0.0
  0
SPLINE
  5
38F
100
AcDbEntity
  8
0
100
AcDbSpline
 62
7
  6
CONTINUOUS
 70
0
 71
3
 72
39
 73
35
 74
0
 42
0.0000001
 43
0.0000001
 44
0.0000000001
 40
0.0
 40
0.0
 40
0.0
 40
0.0
 40
0.0319628236
 40
0.0638198239
 40
0.0955706675
 40
0.1272178821
 40
0.1587638803
 40
0.1902124743
 40
0.2215682763
 40
0.2528368354
 40
0.2840245506
 40
0.3151386206
 40
0.3461869785
 40
0.3771782162
 40
0.4081215018
 40
0.4390264898
 40
0.4699032242
 40
0.5007620385
 40
0.5316134496
 40
0.562468051
 40
0.5933364033
 40
0.6242289261
 40
0.6551557915
 40
0.6861268209
 40
0.7171513865
 40
0.7482383195
 40
0.7793958242
 40
0.8106313999
 40
0.841951772
 40
0.8733628313
 40
0.9048695834
 40
0.9364761083
 40
0.9681855308
 40
1.0
 40
1.0
 40
1.0
 40
1.0
 10
10.5673825728
 20
6.844316086
 30
0.0
 10
10.5756951537
 20
6.8437396065
 30
0.0
 10
10.5923230891
 20
6.8429848505
 30
0.0
 10
10.6172470145
 20
6.8430546362
 30
0.0
 10
10.6420567837
 20
6.8443280897
 30
0.0
 10
10.6666941621
 20
6.8468022084
 30
0.0
 10
10.6911025487
 20
6.8504714365
 30
0.0
 10
10.7152254167
 20
6.8553272934
 30
0.0
 10
10.7390070336
 20
6.8613586417
 30
0.0
 10
10.7623924044
 20
6.8685515894
 30
0.0
 10
10.7853274567
 20
6.8768895538
 30
0.0
 10
10.8077591506
 20
6.8863532992
 30
0.0
 10
10.8296356041
 20
6.8969209827
 30
0.0
 10
10.8509062135
 20
6.9085682042
 30
0.0
 10
10.8715217716
 20
6.9212680612
 30
0.0
 10
10.8914345822
 20
6.9349912105
 30
0.0
 10
10.9105985723
 20
6.9497059357
 30
0.0
 10
10.92896941
 20
6.9653782082
 30
0.0
 10
10.9465046001
 20
6.9819717807
 30
0.0
 10
10.9631635836
 20
6.9994482712
 30
0.0
 10
10.9789078318
 20
7.017767252
 30
0.0
 10
10.9937009366
 20
7.0368863447
 30
0.0
 10
11.0075086948
 20
7.0567613194
 30
0.0
 10
11.0202991877
 20
7.077346197
 30
0.0
 10
11.0320428682
 20
7.0985933503
 30
0.0
 10
11.0427126166
 20
7.1204536256
 30
0.0
 10
11.052283802
 20
7.1428764566
 30
0.0
 10
11.0607343389
 20
7.1658099839
 30
0.0
 10
11.0680447366
 20
7.1892011695
 30
0.0
 10
11.0741981437
 20
7.2129959433
 30
0.0
 10
11.0791803829
 20
7.237139241
 30
0.0
 10
11.0829800101
 20
7.2615754535
 30
0.0
 10
11.0855882755
 20
7.286247347
 30
0.0
 10
11.0865274109
 20
7.302788724
 30
0.0
 10
11.0867978339
 20
7.3110781855
 30
0.0
  0
SPLINE
  5
390
100
AcDbEntity
  8
0
100
AcDbSpline
 62
7
  6
CONTINUOUS
 70
0
 71
3
 72
23
 73
19
 74
0
 42
0.0000001
 43
0.0000001
 44
0.0000000001
 40
0.0
 40
0.0
 40
0.0
 40
0.0
 40
0.0638619349
 40
0.1275029889
 40
0.1909231091
 40
0.2541276717
 40
0.3171223891
 40
0.3799159301
 40
0.4425188167
 40
0.50494367
 40
0.567204998
 40
0.6293190788
 40
0.6913037926
 40
0.7531784373
 40
0.8149635239
 40
0.8766805553
 40
0.9383517907
 40
1.0
 40
1.0
 40
1.0
 40
1.0
 10
10.5798118325
 20
6.9027084994
 30
0.0
 10
10.5877125368
 20
6.9021605837
 30
0.0
 10
10.603516791
 20
6.9014596999
 30
0.0
 10
10.6272027965
 20
6.9016008734
 30
0.0
 10
10.6507706246
 20
6.9029360194
 30
0.0
 10
10.6741600541
 20
6.9054617504
 30
0.0
 10
10.6973125203
 20
6.9091718617
 30
0.0
 10
10.7201696282
 20
6.9140570236
 30
0.0
 10
10.7426738479
 20
6.9201050252
 30
0.0
 10
10.7647684896
 20
6.9273006884
 30
0.0
 10
10.7863978945
 20
6.9356259543
 30
0.0
 10
10.8075075691
 20
6.945059902
 30
0.0
 10
10.8280443195
 20
6.9555788063
 30
0.0
 10
10.8479564057
 20
6.9671562168
 30
0.0
 10
10.8671936004
 20
6.9797629534
 30
0.0
 10
10.8857075891
 20
6.993367439
 30
0.0
 10
10.9034510795
 20
7.0079348124
 30
0.0
 10
10.9147388663
 20
7.0182659937
 30
0.0
 10
10.9202376719
 20
7.0235774404
 30
0.0
  0
SPLINE
  5
391
100
AcDbEntity
  8
0
100
AcDbSpline
 62
7
  6
CONTINUOUS
 70
0
 71
3
 72
23
 73
19
 74
0
 42
0.0000001
 43
0.0000001
 44
0.0000000001
 40
0.0
 40
0.0
 40
0.0
 40
0.0
 40
0.0639754078
 40
0.1275828661
 40
0.1908349201
 40
0.253752079
 40
0.3163653287
 40
0.3787144323
 40
0.4408469966
 40
0.5028171359
 40
0.5646838932
 40
0.6265094661
 40
0.688357313
 40
0.7502902113
 40
0.8123683372
 40
0.8746474515
 40
0.9371772607
 40
1.0
 40
1.0
 40
1.0
 40
1.0
 10
10.0745845154
 20
9.4640216733
 30
0.0
 10
10.082294147
 20
9.4634870085
 30
0.0
 10
10.0977210013
 20
9.4630553429
 30
0.0
 10
10.1207637036
 20
9.4643423601
 30
0.0
 10
10.1434903912
 20
9.4675566441
 30
0.0
 10
10.1657417203
 20
9.472676694
 30
0.0
 10
10.1873639559
 20
9.4796674237
 30
0.0
 10
10.2082070139
 20
9.4884807787
 30
0.0
 10
10.2281262859
 20
9.4990559912
 30
0.0
 10
10.2469834376
 20
9.511320008
 30
0.0
 10
10.2646475133
 20
9.5251878999
 30
0.0
 10
10.2809958648
 20
9.540563493
 30
0.0
 10
10.2959150022
 20
9.5573400759
 30
0.0
 10
10.3093014217
 20
9.5754012148
 30
0.0
 10
10.3210623685
 20
9.5946212932
 30
0.0
 10
10.3311166496
 20
9.6148673962
 30
0.0
 10
10.339394302
 20
9.6359968754
 30
0.0
 10
10.34368088
 20
9.6505430968
 30
0.0
 10
10.3455122602
 20
9.657907713
 30
0.0
  0
SPLINE
  5
392
100
AcDbEntity
  8
0
100
AcDbSpline
 62
7
  6
CONTINUOUS
 70
0
 71
3
 72
39
 73
35
 74
0
 42
0.0000001
 43
0.0000001
 44
0.0000000001
 40
0.0
 40
0.0
 40
0.0
 40
0.0
 40
0.0311450469
 40
0.0624431113
 40
0.09388834
 40
0.1254709884
 40
0.1571788814
 40
0.1889972579
 40
0.2209091718
 40
0.2528958393
 40
0.2849370182
 40
0.3170114084
 40
0.349097068
 40
0.3811718384
 40
0.4132137706
 40
0.4452015496
 40
0.4771149115
 40
0.5089350441
 40
0.5406449673
 40
0.5722298867
 40
0.6036775163
 40
0.6349783575
 40
0.6661259304
 40
0.6971169519
 40
0.7279514552
 40
0.7586328387
 40
0.7891678413
 40
0.8195664421
 40
0.8498416837
 40
0.8800094162
 40
0.9100879631
 40
0.9400977203
 40
0.9700606956
 40
1.0
 40
1.0
 40
1.0
 40
1.0
 10
10.0404204295
 20
9.318727351
 30
0.0
 10
10.030867687
 20
9.3193898359
 30
0.0
 10
10.0117566514
 20
9.3214172808
 30
0.0
 10
9.9833217948
 20
9.3265244893
 30
0.0
 10
9.9551915038
 20
9.333678125
 30
0.0
 10
9.9275176903
 20
9.3428397511
 30
0.0
 10
9.9004473938
 20
9.3539602748
 30
0.0
 10
9.8741250116
 20
9.3669802002
 30
0.0
 10
9.8486907588
 20
9.3818299354
 30
0.0
 10
9.8242801631
 20
9.3984301938
 30
0.0
 10
9.8010232944
 20
9.4166924138
 30
0.0
 10
9.7790440798
 20
9.4365191976
 30
0.0
 10
9.7584596316
 20
9.4578048214
 30
0.0
 10
9.7393796635
 20
9.4804358315
 30
0.0
 10
9.7219059096
 20
9.5042916328
 30
0.0
 10
9.7061315843
 20
9.5292451187
 30
0.0
 10
9.6921408445
 20
9.5551633156
 30
0.0
 10
9.6800083943
 20
9.5819081197
 30
0.0
 10
9.6697990839
 20
9.6093370163
 30
0.0
 10
9.661567574
 20
9.6373038278
 30
0.0
 10
9.6553579814
 20
9.6656594645
 30
0.0
 10
9.6512036824
 20
9.6942527286
 30
0.0
 10
9.649127139
 20
9.7229311071
 30
0.0
 10
9.6491397767
 20
9.7515415715
 30
0.0
 10
9.6512418635
 20
9.7799313825
 30
0.0
 10
9.6554224997
 20
9.8079489077
 30
0.0
 10
9.6616596966
 20
9.8354444231
 30
0.0
 10
9.6699204745
 20
9.862270912
 30
0.0
 10
9.6801609865
 20
9.8882848446
 30
0.0
 10
9.6923267503
 20
9.9133470244
 30
0.0
 10
9.7063527978
 20
9.9373231477
 30
0.0
 10
9.7221646915
 20
9.9600852094
 30
0.0
 10
9.739676346
 20
9.9815097122
 30
0.0
 10
9.7524271437
 20
9.9948301079
 30
0.0
 10
9.7590478621
 20
10.0012252362
 30
0.0
  0
SPLINE
  5
393
100
AcDbEntity
  8
0
100
AcDbSpline
 62
7
  6
CONTINUOUS
 70
0
 71
3
 72
56
 73
52
 74
0
 42
0.0000001
 43
0.0000001
 44
0.0000000001
 40
0.0
 40
0.0
 40
0.0
 40
0.0
 40
0.0528988178
 40
0.1050249547
 40
0.1562613383
 40
0.2064945323
 40
0.2556136803
 40
0.3035116986
 40
0.3500853851
 40
0.3952359925
 40
0.4388696809
 40
0.4808980694
 40
0.5212388384
 40
0.5598164258
 40
0.5965628475
 40
0.6142309653
 40
0.6314197927
 40
0.6481234407
 40
0.6643367593
 40
0.6800553156
 40
0.6952755833
 40
0.7099948626
 40
0.724211563
 40
0.7379250905
 40
0.7511362104
 40
0.7638469421
 40
0.776060981
 40
0.7877836529
 40
0.7990223741
 40
0.8097867189
 40
0.8200889029
 40
0.8299440013
 40
0.8393704435
 40
0.848390382
 40
0.8570301577
 40
0.8732871703
 40
0.8809923201
 40
0.8884716055
 40
0.8957762193
 40
0.9029614893
 40
0.910085848
 40
0.9172093616
 40
0.92439212
 40
0.9316926219
 40
0.9391662991
 40
0.9468644709
 40
0.9631039601
 40
0.9717335158
 40
0.9807424301
 40
0.9901571718
 40
1.0
 40
1.0
 40
1.0
 40
1.0
 10
10.5601286478
 20
10.7547773354
 30
0.0
 10
10.5701277365
 20
10.7540838962
 30
0.0
 10
10.5899708309
 20
10.752572782
 30
0.0
 10
10.6194598741
 20
10.7499117012
 30
0.0
 10
10.6484051982
 20
10.7468776705
 30
0.0
 10
10.6767361648
 20
10.7434781583
 30
0.0
 10
10.7043838439
 20
10.7397214857
 30
0.0
 10
10.7312808894
 20
10.7356168815
 30
0.0
 10
10.7573618424
 20
10.7311744161
 30
0.0
 10
10.7825632422
 20
10.7264049994
 30
0.0
 10
10.8068238128
 20
10.7213203448
 30
0.0
 10
10.8300845912
 20
10.7159329424
 30
0.0
 10
10.8522891692
 20
10.7102560306
 30
0.0
 10
10.8733835508
 20
10.7043035404
 30
0.0
 10
10.8902077239
 20
10.6990593982
 30
0.0
 10
10.9030651562
 20
10.6947272076
 30
0.0
 10
10.9122729655
 20
10.6914608753
 30
0.0
 10
10.9211664137
 20
10.6881368012
 30
0.0
 10
10.9297401208
 20
10.6847570067
 30
0.0
 10
10.937988879
 20
10.6813235228
 30
0.0
 10
10.9459077041
 20
10.6778384786
 30
0.0
 10
10.9534917923
 20
10.6743039373
 30
0.0
 10
10.9607365806
 20
10.6707220999
 30
0.0
 10
10.9676376793
 20
10.6670950624
 30
0.0
 10
10.9741909605
 20
10.6634250781
 30
0.0
 10
10.9803924607
 20
10.6597142706
 30
0.0
 10
10.9862384948
 20
10.6559649202
 30
0.0
 10
10.991725536
 20
10.6521791693
 30
0.0
 10
10.9968503409
 20
10.6483592936
 30
0.0
 10
11.0016098235
 20
10.6445074357
 30
0.0
 10
11.0060011574
 20
10.6406258423
 30
0.0
 10
11.0100217073
 20
10.6367165926
 30
0.0
 10
11.0136689272
 20
10.632782024
 30
0.0
 10
11.0169408908
 20
10.6288236086
 30
0.0
 10
11.0207223675
 20
10.6236244522
 30
0.0
 10
11.0238568518
 20
10.6182707297
 30
0.0
 10
11.0262308891
 20
10.6128005094
 30
0.0
 10
11.0275948481
 20
10.6087577722
 30
0.0
 10
11.0285719413
 20
10.6047055823
 30
0.0
 10
11.0291609064
 20
10.6006466656
 30
0.0
 10
11.0293610039
 20
10.5965843309
 30
0.0
 10
11.0291718033
 20
10.5925219481
 30
0.0
 10
11.0285937178
 20
10.5884628904
 30
0.0
 10
11.0276274765
 20
10.5844104717
 30
0.0
 10
11.0262743257
 20
10.5803674266
 30
0.0
 10
11.0239150473
 20
10.5748970221
 30
0.0
 10
11.0207948155
 20
10.5695424914
 30
0.0
 10
11.0170270722
 20
10.5643424374
 30
0.0
 10
11.0137656392
 20
10.5603833771
 30
0.0
 10
11.0101289746
 20
10.5564481994
 30
0.0
 10
11.007515142
 20
10.5538996358
 30
0.0
 10
11.0061498784
 20
10.5526291091
 30
0.0
  0
SPLINE
  5
394
100
AcDbEntity
  8
0
100
AcDbSpline
 62
7
  6
CONTINUOUS
 70
0
 71
3
 72
15
 73
11
 74
0
 42
0.0000001
 43
0.0000001
 44
0.0000000001
 40
0.0
 40
0.0
 40
0.0
 40
0.0
 40
0.1270520245
 40
0.2535418284
 40
0.3794534433
 40
0.5047815665
 40
0.629519204
 40
0.7536539678
 40
0.8771613279
 40
1.0
 40
1.0
 40
1.0
 40
1.0
 10
10.5310519049
 20
7.6602083676
 30
0.0
 10
10.5290272543
 20
7.6680386108
 30
0.0
 10
10.5253480061
 20
7.683760598
 30
0.0
 10
10.5209700341
 20
7.7075245647
 30
0.0
 10
10.5177713282
 20
7.7313659663
 30
0.0
 10
10.5157714422
 20
7.755225946
 30
0.0
 10
10.5149823223
 20
7.7790436251
 30
0.0
 10
10.5154085627
 20
7.8027549644
 30
0.0
 10
10.5170472987
 20
7.8262917143
 30
0.0
 10
10.5189471423
 20
7.8418663089
 30
0.0
 10
10.5200964822
 20
7.8496009348
 30
0.0
  0
SPLINE
  5
395
100
AcDbEntity
  8
0
100
AcDbSpline
 62
7
  6
CONTINUOUS
 70
0
 71
3
 72
64
 73
60
 74
0
 42
0.0000001
 43
0.0000001
 44
0.0000000001
 40
0.0
 40
0.0
 40
0.0
 40
0.0
 40
0.0082489002
 40
0.0160245789
 40
0.0233634177
 40
0.0303107653
 40
0.0369218447
 40
0.0401226201
 40
0.0432647895
 40
0.0463580889
 40
0.0494127661
 40
0.0524395148
 40
0.0554493543
 40
0.0584535051
 40
0.061463261
 40
0.0644898433
 40
0.0675442735
 40
0.070637248
 40
0.0737790184
 40
0.0802448985
 40
0.0870153095
 40
0.0941506924
 40
0.1017012425
 40
0.1097077351
 40
0.11820258
 40
0.127210955
 40
0.1367519858
 40
0.1468396186
 40
0.157483474
 40
0.1686895566
 40
0.1804607007
 40
0.1927971146
 40
0.2056967011
 40
0.2191553043
 40
0.2331670462
 40
0.2477244302
 40
0.2628185367
 40
0.2784392058
 40
0.2945750541
 40
0.3112136623
 40
0.3283416349
 40
0.3459446259
 40
0.3640074928
 40
0.3825142826
 40
0.4014483037
 40
0.4207922194
 40
0.4606364401
 40
0.5018968388
 40
0.5444143008
 40
0.5880226233
 40
0.6325496135
 40
0.6778181242
 40
0.7236470562
 40
0.7698523647
 40
0.8162480403
 40
0.8626470781
 40
0.9088625236
 40
0.954707991
 40
1.0
 40
1.0
 40
1.0
 40
1.0
 10
9.7864427672
 20
10.5526291091
 30
0.0
 10
9.7846385274
 20
10.554308151
 30
0.0
 10
9.7812323974
 20
10.5576789801
 30
0.0
 10
9.7766288754
 20
10.5629350034
 30
0.0
 10
9.7726923594
 20
10.5682322963
 30
0.0
 10
9.7694285442
 20
10.5735656566
 30
0.0
 10
9.7672501894
 20
10.57808575
 30
0.0
 10
9.7658648264
 20
10.5817016809
 30
0.0
 10
9.765007404
 20
10.5843892574
 30
0.0
 10
9.7643209162
 20
10.5870804828
 30
0.0
 10
9.7638056485
 20
10.5897746485
 30
0.0
 10
9.7634618084
 20
10.5924709168
 30
0.0
 10
9.763289509
 20
10.5951684589
 30
0.0
 10
9.7632888723
 20
10.5978664321
 30
0.0
 10
9.7634598981
 20
10.6005639796
 30
0.0
 10
9.7638024687
 20
10.6032602644
 30
0.0
 10
9.7643164555
 20
10.6059544338
 30
0.0
 10
9.7650017112
 20
10.6086457407
 30
0.0
 10
9.7661540019
 20
10.6122632645
 30
0.0
 10
9.7680408342
 20
10.6167902031
 30
0.0
 10
9.7709638947
 20
10.6221402747
 30
0.0
 10
9.7745622969
 20
10.6274564816
 30
0.0
 10
9.7788305404
 20
10.6327338369
 30
0.0
 10
9.7837633658
 20
10.6379681461
 30
0.0
 10
9.7893552081
 20
10.6431548713
 30
0.0
 10
9.7956000632
 20
10.6482894062
 30
0.0
 10
9.802491436
 20
10.6533668621
 30
0.0
 10
9.8100221451
 20
10.6583822866
 30
0.0
 10
9.8181843414
 20
10.6633306321
 30
0.0
 10
9.8269695015
 20
10.6682067557
 30
0.0
 10
9.8363683602
 20
10.6730055925
 30
0.0
 10
9.8463709857
 20
10.6777220455
 30
0.0
 10
9.856966759
 20
10.6823510679
 30
0.0
 10
9.8681443764
 20
10.6868877308
 30
0.0
 10
9.8798919023
 20
10.6913271172
 30
0.0
 10
9.8921967499
 20
10.6956644486
 30
0.0
 10
9.9050457142
 20
10.6998950517
 30
0.0
 10
9.9184249975
 20
10.7040143147
 30
0.0
 10
9.9323202031
 20
10.7080178059
 30
0.0
 10
9.9467163749
 20
10.7119011788
 30
0.0
 10
9.9615980081
 20
10.7156602075
 30
0.0
 10
9.9769490591
 20
10.7192908459
 30
0.0
 10
9.9927529797
 20
10.7227891355
 30
0.0
 10
10.0089927178
 20
10.7261512815
 30
0.0
 10
10.0256507697
 20
10.7293736828
 30
0.0
 10
10.0486217545
 20
10.7335199497
 30
0.0
 10
10.0782516941
 20
10.7383148846
 30
0.0
 10
10.1148384094
 20
10.7434048815
 30
0.0
 10
10.1526399692
 20
10.7478637885
 30
0.0
 10
10.191493176
 20
10.7516721708
 30
0.0
 10
10.2312304583
 20
10.7548133923
 30
0.0
 10
10.2716803199
 20
10.7572737419
 30
0.0
 10
10.3126681705
 20
10.7590424939
 30
0.0
 10
10.3540170676
 20
10.7601119402
 30
0.0
 10
10.3955485012
 20
10.7604774158
 30
0.0
 10
10.4370831686
 20
10.7601373231
 30
0.0
 10
10.4784417178
 20
10.75909314
 30
0.0
 10
10.5194455315
 20
10.7573494526
 30
0.0
 10
10.5466285276
 20
10.7557135719
 30
0.0
 10
10.5601286478
 20
10.7547773354
 30
0.0
  0
SPLINE
  5
396
100
AcDbEntity
  8
0
100
AcDbSpline
 62
7
  6
CONTINUOUS
 70
0
 71
3
 72
41
 73
37
 74
0
 42
0.0000001
 43
0.0000001
 44
0.0000000001
 40
0.0
 40
0.0
 40
0.0
 40
0.0
 40
0.0749407778
 40
0.1493589885
 40
0.2231807333
 40
0.2963084859
 40
0.3686091541
 40
0.439902806
 40
0.4750989949
 40
0.5099459152
 40
0.5443995048
 40
0.5784081554
 40
0.6119126094
 40
0.6448438483
 40
0.6771226472
 40
0.7086588263
 40
0.7393510174
 40
0.7690876536
 40
0.7977499022
 40
0.8116410686
 40
0.8252192279
 40
0.8384708662
 40
0.8513841183
 40
0.8639493362
 40
0.8761598643
 40
0.8880129804
 40
0.8995107253
 40
0.9214696534
 40
0.9319750409
 40
0.9421978323
 40
0.9521743531
 40
0.9619474829
 40
0.9715651761
 40
0.9810786543
 40
0.9905400495
 40
1.0
 40
1.0
 40
1.0
 40
1.0
 10
10.5310519049
 20
7.6602083676
 30
0.0
 10
10.530262834
 20
7.6544346865
 30
0.0
 10
10.5287890173
 20
7.6429138366
 30
0.0
 10
10.5268768596
 20
7.625664341
 30
0.0
 10
10.5252575965
 20
7.6085265184
 30
0.0
 10
10.5239125751
 20
7.5915302875
 30
0.0
 10
10.5228142975
 20
7.5747134711
 30
0.0
 10
10.5220691337
 20
7.5608305668
 30
0.0
 10
10.5215489929
 20
7.549852605
 30
0.0
 10
10.5211891829
 20
7.5417349624
 30
0.0
 10
10.5208475652
 20
7.5337089687
 30
0.0
 10
10.5205114218
 20
7.525787226
 30
0.0
 10
10.5201662506
 20
7.5179843529
 30
0.0
 10
10.5197946932
 20
7.5103173312
 30
0.0
 10
10.5193766525
 20
7.5028059279
 30
0.0
 10
10.5188888331
 20
7.4954731173
 30
0.0
 10
10.5183044741
 20
7.4883454887
 30
0.0
 10
10.5175931019
 20
7.4814538204
 30
0.0
 10
10.5168587545
 20
7.4758796128
 30
0.0
 10
10.5161669565
 20
7.4715697532
 30
0.0
 10
10.5155985018
 20
7.4684544779
 30
0.0
 10
10.5149700329
 20
7.4654283083
 30
0.0
 10
10.5142764746
 20
7.4624971856
 30
0.0
 10
10.5135127299
 20
7.4596672104
 30
0.0
 10
10.5126738922
 20
7.4569446412
 30
0.0
 10
10.5117550833
 20
7.4543355126
 30
0.0
 10
10.5104379378
 20
7.4510670042
 30
0.0
 10
10.5089283613
 20
7.4479906789
 30
0.0
 10
10.5071988519
 20
7.4451552784
 30
0.0
 10
10.5058237568
 20
7.4432011386
 30
0.0
 10
10.5043506891
 20
7.4413924401
 30
0.0
 10
10.5027794982
 20
7.4397322461
 30
0.0
 10
10.5011109366
 20
7.4382229666
 30
0.0
 10
10.4993470284
 20
7.4368655677
 30
0.0
 10
10.4974906641
 20
7.4356602964
 30
0.0
 10
10.4961956267
 20
7.4349582809
 30
0.0
 10
10.495535951
 20
7.4346328032
 30
0.0
  0
SPLINE
  5
397
100
AcDbEntity
  8
0
100
AcDbSpline
 62
7
  6
CONTINUOUS
 70
0
 71
3
 72
52
 73
48
 74
0
 42
0.0000001
 43
0.0000001
 44
0.0000000001
 40
0.0
 40
0.0
 40
0.0
 40
0.0
 40
0.005565761
 40
0.0112552373
 40
0.0171221412
 40
0.0232149299
 40
0.0295762691
 40
0.0362428273
 40
0.0432456368
 40
0.0506104302
 40
0.0583583388
 40
0.0665063161
 40
0.0750678387
 40
0.084053225
 40
0.0934702311
 40
0.1033242329
 40
0.1136187114
 40
0.1243553222
 40
0.1355342953
 40
0.1471544226
 40
0.1592133979
 40
0.171707749
 40
0.1846331351
 40
0.1979842449
 40
0.2117550628
 40
0.2259387456
 40
0.240527867
 40
0.2555142815
 40
0.2866430936
 40
0.3192502
 40
0.3532521284
 40
0.3885586347
 40
0.4250734658
 40
0.4626950345
 40
0.5013170325
 40
0.5408290013
 40
0.5811168715
 40
0.6220634819
 40
0.6635490835
 40
0.7054518331
 40
0.7476482804
 40
0.7900138498
 40
0.8324233217
 40
0.8747513057
 40
0.916872732
 40
0.9586632949
 40
1.0
 40
1.0
 40
1.0
 40
1.0
 10
9.8565546663
 20
10.5110190026
 30
0.0
 10
9.8567125229
 20
10.5123393981
 30
0.0
 10
9.8571769885
 20
10.5149942066
 30
0.0
 10
9.8582988048
 20
10.5189352051
 30
0.0
 10
9.8598493245
 20
10.5228635982
 30
0.0
 10
9.8618259725
 20
10.5267755787
 30
0.0
 10
9.8642263293
 20
10.5306684216
 30
0.0
 10
9.8670476954
 20
10.53453952
 30
0.0
 10
9.8702874817
 20
10.5383862926
 30
0.0
 10
9.8739428219
 20
10.5422062787
 30
0.0
 10
9.8780108125
 20
10.545996834
 30
0.0
 10
9.882488195
 20
10.5497554024
 30
0.0
 10
9.8873715522
 20
10.5534792237
 30
0.0
 10
9.892657075
 20
10.5571656455
 30
0.0
 10
9.8983407301
 20
10.5608118385
 30
0.0
 10
9.9044180918
 20
10.5644151076
 30
0.0
 10
9.9108844808
 20
10.5679726125
 30
0.0
 10
9.9177348422
 20
10.5714816655
 30
0.0
 10
9.9249638559
 20
10.5749394588
 30
0.0
 10
9.9325658479
 20
10.5783433477
 30
0.0
 10
9.9405348765
 20
10.5816905863
 30
0.0
 10
9.9488646678
 20
10.5849785973
 30
0.0
 10
9.9575486827
 20
10.5882047169
 30
0.0
 10
9.9665800701
 20
10.5913664518
 30
0.0
 10
9.9759517195
 20
10.5944612364
 30
0.0
 10
9.9856562249
 20
10.5974866677
 30
0.0
 10
9.9956859413
 20
10.6004403142
 30
0.0
 10
10.0096591681
 20
10.6043289384
 30
0.0
 10
10.0278861505
 20
10.6089808984
 30
0.0
 10
10.0506558822
 20
10.6141731808
 30
0.0
 10
10.0745194982
 20
10.6190269996
 30
0.0
 10
10.0994015183
 20
10.623526852
 30
0.0
 10
10.1252233849
 20
10.6276583362
 30
0.0
 10
10.1519034503
 20
10.6314082448
 30
0.0
 10
10.1793573269
 20
10.6347645927
 30
0.0
 10
10.2074981413
 20
10.637716658
 30
0.0
 10
10.2362368229
 20
10.6402550136
 30
0.0
 10
10.2654823896
 20
10.6423715562
 30
0.0
 10
10.2951422406
 20
10.6440595309
 30
0.0
 10
10.325122453
 20
10.6453135518
 30
0.0
 10
10.3553280822
 20
10.6461296181
 30
0.0
 10
10.3856634643
 20
10.646505127
 30
0.0
 10
10.4160325238
 20
10.6464388803
 30
0.0
 10
10.4463390706
 20
10.6459310902
 30
0.0
 10
10.4764871426
 20
10.6449833741
 30
0.0
 10
10.5063811673
 20
10.6435987617
 30
0.0
 10
10.5262057947
 20
10.6423795108
 30
0.0
 10
10.5360584918
 20
10.641696224
 30
0.0
  0
SPLINE
  5
398
100
AcDbEntity
  8
0
100
AcDbSpline
 62
7
  6
CONTINUOUS
 70
0
 71
3
 72
11
 73
7
 74
0
 42
0.0000001
 43
0.0000001
 44
0.0000000001
 40
0.0
 40
0.0
 40
0.0
 40
0.0
 40
0.2397903993
 40
0.4867761123
 40
0.7403796237
 40
1.0
 40
1.0
 40
1.0
 40
1.0
 10
10.0847486202
 20
9.956295154
 30
0.0
 10
10.0924389812
 20
9.9577010853
 30
0.0
 10
10.10807877
 20
9.9604021974
 30
0.0
 10
10.1319367231
 20
9.9640787562
 30
0.0
 10
10.1564946817
 20
9.9674334069
 30
0.0
 10
10.1731087633
 20
9.9694275072
 30
0.0
 10
10.1815203163
 20
9.9703712569
 30
0.0
  0
SPLINE
  5
399
100
AcDbEntity
  8
0
100
AcDbSpline
 62
7
  6
CONTINUOUS
 70
0
 71
3
 72
87
 73
83
 74
0
 42
0.0000001
 43
0.0000001
 44
0.0000000001
 40
0.0
 40
0.0
 40
0.0
 40
0.0
 40
0.0039084289
 40
0.0079770649
 40
0.012209333
 40
0.0166081615
 40
0.0211760183
 40
0.0259147969
 40
0.0308257903
 40
0.0359098889
 40
0.0411675583
 40
0.0465989443
 40
0.0522038488
 40
0.0579817665
 40
0.0639319507
 40
0.0700533653
 40
0.0828043962
 40
0.0962228982
 40
0.1102935429
 40
0.1249984271
 40
0.1403173622
 40
0.1562281109
 40
0.1727065847
 40
0.1897270115
 40
0.2072620891
 40
0.2252831195
 40
0.2437601294
 40
0.2626619818
 40
0.2819564806
 40
0.3016104676
 40
0.3215899207
 40
0.3418600477
 40
0.3623853779
 40
0.3831298493
 40
0.4040568971
 40
0.4251295385
 40
0.4463104597
 40
0.4888461201
 40
0.5313626474
 40
0.5525196925
 40
0.5735589817
 40
0.5944432784
 40
0.615135698
 40
0.6355997944
 40
0.6557996462
 40
0.6756999444
 40
0.6952660829
 40
0.7144642521
 40
0.7332615299
 40
0.751625978
 40
0.7695267426
 40
0.7869341603
 40
0.8038198731
 40
0.8201569559
 40
0.8359200517
 40
0.8510855236
 40
0.865631631
 40
0.8795387374
 40
0.8927895593
 40
0.9053694753
 40
0.9114043121
 40
0.917267361
 40
0.9229577427
 40
0.9284748069
 40
0.9338182295
 40
0.9389879506
 40
0.9439842912
 40
0.9488079292
 40
0.9534599641
 40
0.9579419871
 40
0.9622560787
 40
0.9664049576
 40
0.970391968
 40
0.9742212347
 40
0.9778977202
 40
0.981427329
 40
0.9848170563
 40
0.9880750428
 40
0.9912107578
 40
0.994235035
 40
0.9971601841
 40
1.0
 40
1.0
 40
1.0
 40
1.0
 10
12.4179791963
 20
8.2979618818
 30
0.0
 10
12.4193863004
 20
8.2993210401
 30
0.0
 10
12.4221990584
 20
8.3021568276
 30
0.0
 10
12.4263326019
 20
8.3066599192
 30
0.0
 10
12.4304620136
 20
8.3114944404
 30
0.0
 10
12.4345852212
 20
8.3166579181
 30
0.0
 10
12.4387004127
 20
8.322147986
 30
0.0
 10
12.4428056986
 20
8.3279621365
 30
0.0
 10
12.4468992355
 20
8.3340976422
 30
0.0
 10
12.4509790354
 20
8.3405516578
 30
0.0
 10
12.4550432442
 20
8.3473211307
 30
0.0
 10
12.4590899248
 20
8.3544029062
 30
0.0
 10
12.4631171866
 20
8.3617936595
 30
0.0
 10
12.4671231447
 20
8.3694899099
 30
0.0
 10
12.4711058942
 20
8.3774880583
 30
0.0
 10
12.4764556688
 20
8.3887026775
 30
0.0
 10
12.4830599353
 20
8.4034578688
 30
0.0
 10
12.4907590208
 20
8.4220728624
 30
0.0
 10
12.4983215002
 20
8.4417947534
 30
0.0
 10
12.5057330064
 20
8.4625863328
 30
0.0
 10
12.512979455
 20
8.4844085432
 30
0.0
 10
12.5200470641
 20
8.5072202554
 30
0.0
 10
12.5269223897
 20
8.5309784436
 30
0.0
 10
12.5335923575
 20
8.5556382484
 30
0.0
 10
12.5400442842
 20
8.5811530792
 30
0.0
 10
12.5462659029
 20
8.6074747073
 30
0.0
 10
12.5522453868
 20
8.634553362
 30
0.0
 10
12.5579713716
 20
8.6623378268
 30
0.0
 10
12.5634329758
 20
8.6907755379
 30
0.0
 10
12.5686198256
 20
8.7198126833
 30
0.0
 10
12.5735220724
 20
8.7493943079
 30
0.0
 10
12.5781304094
 20
8.779464421
 30
0.0
 10
12.5824360887
 20
8.8099661028
 30
0.0
 10
12.5864309405
 20
8.8408416164
 30
0.0
 10
12.5901073762
 20
8.8720325005
 30
0.0
 10
12.5934584501
 20
8.9034797446
 30
0.0
 10
12.5974896134
 20
8.9457292366
 30
0.0
 10
12.6016710252
 20
8.9987433029
 30
0.0
 10
12.6047008337
 20
9.0518236743
 30
0.0
 10
12.6064206495
 20
9.094191934
 30
0.0
 10
12.607352112
 20
9.1257534393
 30
0.0
 10
12.607925564
 20
9.1570908553
 30
0.0
 10
12.6081399107
 20
9.1881448971
 30
0.0
 10
12.60799477
 20
9.2188567622
 30
0.0
 10
12.6074904355
 20
9.2491683127
 30
0.0
 10
12.6066278858
 20
9.2790221676
 30
0.0
 10
12.6054087819
 20
9.3083618184
 30
0.0
 10
12.6038354687
 20
9.3371317371
 30
0.0
 10
12.6019109649
 20
9.3652774823
 30
0.0
 10
12.5996389593
 20
9.3927458021
 30
0.0
 10
12.5970238039
 20
9.4194847367
 30
0.0
 10
12.5940705061
 20
9.4454437184
 30
0.0
 10
12.5907847186
 20
9.4705736733
 30
0.0
 10
12.5871727352
 20
9.4948271206
 30
0.0
 10
12.5832414738
 20
9.5181582662
 30
0.0
 10
12.5789984623
 20
9.5405231012
 30
0.0
 10
12.574451821
 20
9.5618794676
 30
0.0
 10
12.5696102488
 20
9.5821872419
 30
0.0
 10
12.5644829812
 20
9.601408108
 30
0.0
 10
12.5599194205
 20
9.6166944088
 30
0.0
 10
12.5561225492
 20
9.6283439856
 30
0.0
 10
12.5532490269
 20
9.6366660184
 30
0.0
 10
12.5503115857
 20
9.6446902903
 30
0.0
 10
12.547311532
 20
9.652413028
 30
0.0
 10
12.5442503479
 20
9.6598306162
 30
0.0
 10
12.5411294112
 20
9.6669395623
 30
0.0
 10
12.5379502247
 20
9.6737365479
 30
0.0
 10
12.5347142583
 20
9.680218394
 30
0.0
 10
12.5314229934
 20
9.6863820679
 30
0.0
 10
12.5280779963
 20
9.6922247207
 30
0.0
 10
12.5246807274
 20
9.6977436065
 30
0.0
 10
12.5212327969
 20
9.7029361987
 30
0.0
 10
12.5177356878
 20
9.70780006
 30
0.0
 10
12.5141909722
 20
9.7123329454
 30
0.0
 10
12.5106001914
 20
9.7165327453
 30
0.0
 10
12.5069648343
 20
9.7203974442
 30
0.0
 10
12.5032864891
 20
9.7239252371
 30
0.0
 10
12.4995665891
 20
9.7271143044
 30
0.0
 10
12.4958067532
 20
9.7299630412
 30
0.0
 10
12.4920083928
 20
9.732469854
 30
0.0
 10
12.4881734712
 20
9.7346330926
 30
0.0
 10
12.4855587329
 20
9.7358616112
 30
0.0
 10
12.4842491855
 20
9.7364144272
 30
0.0
  0
SPLINE
  5
39A
100
AcDbEntity
  8
0
100
AcDbSpline
 62
7
  6
CONTINUOUS
 70
0
 71
3
 72
11
 73
7
 74
0
 42
0.0000001
 43
0.0000001
 44
0.0000000001
 40
0.0
 40
0.0
 40
0.0
 40
0.0
 40
0.2386145564
 40
0.4852817721
 40
0.7393159117
 40
1.0
 40
1.0
 40
1.0
 40
1.0
 10
10.0845820832
 20
9.9521185135
 30
0.0
 10
10.0926905518
 20
9.9536580008
 30
0.0
 10
10.1092159148
 20
9.9566080467
 30
0.0
 10
10.134476467
 20
9.9605956602
 30
0.0
 10
10.1605638233
 20
9.9642105675
 30
0.0
 10
10.178240539
 20
9.9663389178
 30
0.0
 10
10.187201311
 20
9.9673413811
 30
0.0
  0
SPLINE
  5
39B
100
AcDbEntity
  8
0
100
AcDbSpline
 62
7
  6
CONTINUOUS
 70
0
 71
3
 72
15
 73
11
 74
0
 42
0.0000001
 43
0.0000001
 44
0.0000000001
 40
0.0
 40
0.0
 40
0.0
 40
0.0
 40
0.1441198229
 40
0.2820526267
 40
0.414077236
 40
0.5405405649
 40
0.6618543905
 40
0.7784944942
 40
0.8910044998
 40
1.0
 40
1.0
 40
1.0
 40
1.0
 10
12.4179791963
 20
8.2979618818
 30
0.0
 10
12.4165252468
 20
8.2965574744
 30
0.0
 10
12.413618423
 20
8.2938713735
 30
0.0
 10
12.4091616867
 20
8.2901432707
 30
0.0
 10
12.4047084075
 20
8.2868088614
 30
0.0
 10
12.4002609928
 20
8.2838702748
 30
0.0
 10
12.3958215278
 20
8.2813293393
 30
0.0
 10
12.3913920289
 20
8.2791877264
 30
0.0
 10
12.386975163
 20
8.2774472415
 30
0.0
 10
12.3839984308
 20
8.2765426985
 30
0.0
 10
12.3825178594
 20
8.276161717
 30
0.0
  0
SPLINE
  5
39C
100
AcDbEntity
  8
0
100
AcDbSpline
 62
7
  6
CONTINUOUS
 70
0
 71
3
 72
13
 73
9
 74
0
 42
0.0000001
 43
0.0000001
 44
0.0000000001
 40
0.0
 40
0.0
 40
0.0
 40
0.0
 40
0.1164741217
 40
0.2356692194
 40
0.3574486278
 40
0.4816706906
 40
0.7368507408
 40
1.0
 40
1.0
 40
1.0
 40
1.0
 10
10.0842715159
 20
9.9311017421
 30
0.0
 10
10.0893271593
 20
9.9320936918
 30
0.0
 10
10.0995711811
 20
9.9340268828
 30
0.0
 10
10.115146959
 20
9.9367473854
 30
0.0
 10
10.1310951827
 20
9.9393195596
 30
0.0
 10
10.1530241489
 20
9.942575845
 30
0.0
 10
10.1812119498
 20
9.9462395847
 30
0.0
 10
10.2040107116
 20
9.9486845241
 30
0.0
 10
10.2155966829
 20
9.9498043928
 30
0.0
  0
SPLINE
  5
39D
100
AcDbEntity
  8
0
100
AcDbSpline
 62
7
  6
CONTINUOUS
 70
0
 71
3
 72
15
 73
11
 74
0
 42
0.0000001
 43
0.0000001
 44
0.0000000001
 40
0.0
 40
0.0
 40
0.0
 40
0.0
 40
0.1171042932
 40
0.2369627593
 40
0.3593345565
 40
0.4839715622
 40
0.6106192002
 40
0.7390172331
 40
0.8689005587
 40
1.0
 40
1.0
 40
1.0
 40
1.0
 10
10.1308146459
 20
9.8061241027
 30
0.0
 10
10.1378904228
 20
9.8072214771
 30
0.0
 10
10.1522268727
 20
9.8093243855
 30
0.0
 10
10.1740132906
 20
9.8121769649
 30
0.0
 10
10.1962970472
 20
9.8147600896
 30
0.0
 10
10.2190282338
 20
9.8170679378
 30
0.0
 10
10.2421560285
 20
9.8190953149
 30
0.0
 10
10.2656287036
 20
9.8208376592
 30
0.0
 10
10.2893937
 20
9.8222910509
 30
0.0
 10
10.3053334087
 20
9.8230621146
 30
0.0
 10
10.3133424119
 20
9.8233994134
 30
0.0
  0
SPLINE
  5
39E
100
AcDbEntity
  8
0
100
AcDbSpline
 62
7
  6
CONTINUOUS
 70
0
 71
3
 72
23
 73
19
 74
0
 42
0.0000001
 43
0.0000001
 44
0.0000000001
 40
0.0
 40
0.0
 40
0.0
 40
0.0
 40
0.0781370857
 40
0.1532319508
 40
0.2254044596
 40
0.2947997439
 40
0.3615916163
 40
0.4259789877
 40
0.4881875989
 40
0.5484708552
 40
0.6071108481
 40
0.6644178291
 40
0.7207261421
 40
0.7763901376
 40
0.831777592
 40
0.8872622863
 40
0.9432158635
 40
1.0
 40
1.0
 40
1.0
 40
1.0
 10
12.4179791963
 20
8.4520270603
 30
0.0
 10
12.4169463438
 20
8.4510294013
 30
0.0
 10
12.4148812547
 20
8.449113302
 30
0.0
 10
12.4117216308
 20
8.446432137
 30
0.0
 10
12.4085641025
 20
8.4440035021
 30
0.0
 10
12.4054100972
 20
8.4418287529
 30
0.0
 10
12.4022609222
 20
8.4399088841
 30
0.0
 10
12.3991177721
 20
8.4382449345
 30
0.0
 10
12.3959819555
 20
8.4368377961
 30
0.0
 10
12.3928548081
 20
8.4356883787
 30
0.0
 10
12.389737726
 20
8.4347975957
 30
0.0
 10
12.3866322434
 20
8.4341660914
 30
0.0
 10
12.3835399502
 20
8.4337945517
 30
0.0
 10
12.3804625733
 20
8.4336833772
 30
0.0
 10
12.3774019219
 20
8.433832716
 30
0.0
 10
12.3743597684
 20
8.4342426277
 30
0.0
 10
12.3713381314
 20
8.4349126042
 30
0.0
 10
12.3693565558
 20
8.4355267173
 30
0.0
 10
12.368372658
 20
8.4358745722
 30
0.0
  0
SPLINE
  5
39F
100
AcDbEntity
  8
0
100
AcDbSpline
 62
7
  6
CONTINUOUS
 70
0
 71
3
 72
11
 73
7
 74
0
 42
0.0000001
 43
0.0000001
 44
0.0000000001
 40
0.0
 40
0.0
 40
0.0
 40
0.0
 40
0.24141469
 40
0.4894046615
 40
0.7427014524
 40
1.0
 40
1.0
 40
1.0
 40
1.0
 10
10.194214898
 20
9.7544870526
 30
0.0
 10
10.2049026606
 20
9.7558095742
 30
0.0
 10
10.226601739
 20
9.7582339404
 30
0.0
 10
10.2596033449
 20
9.7611885986
 30
0.0
 10
10.2933664191
 20
9.7634996487
 30
0.0
 10
10.3161189619
 20
9.7645958902
 30
0.0
 10
10.3275883619
 20
9.7650359955
 30
0.0
  0
SPLINE
  5
3A0
100
AcDbEntity
  8
0
100
AcDbSpline
 62
7
  6
CONTINUOUS
 70
0
 71
3
 72
40
 73
36
 74
0
 42
0.0000001
 43
0.0000001
 44
0.0000000001
 40
0.0
 40
0.0
 40
0.0
 40
0.0
 40
0.0064601002
 40
0.0130084219
 40
0.0196776313
 40
0.0264984394
 40
0.0406995059
 40
0.0558184103
 40
0.0720148568
 40
0.0894126802
 40
0.1081049672
 40
0.1281594136
 40
0.1496229855
 40
0.1725257793
 40
0.1968842409
 40
0.222703578
 40
0.2499795202
 40
0.2786998624
 40
0.3088456524
 40
0.3403920018
 40
0.3733087745
 40
0.4075612728
 40
0.4431106896
 40
0.4799144063
 40
0.5179264222
 40
0.5570976783
 40
0.5973762392
 40
0.6387075157
 40
0.6810345673
 40
0.7242982557
 40
0.7684373158
 40
0.8133888182
 40
0.8590879415
 40
0.9054679337
 40
1.0
 40
1.0
 40
1.0
 40
1.0
 10
10.9360421428
 20
10.5109840034
 30
0.0
 10
10.9359313044
 20
10.511918611
 30
0.0
 10
10.935635842
 20
10.5137927696
 30
0.0
 10
10.9349788876
 20
10.5165857687
 30
0.0
 10
10.9341061717
 20
10.5193742745
 30
0.0
 10
10.9326364037
 20
10.523134198
 30
0.0
 10
10.9302304164
 20
10.5278348015
 30
0.0
 10
10.926530087
 20
10.5333529299
 30
0.0
 10
10.9219871407
 20
10.5388194746
 30
0.0
 10
10.9166105445
 20
10.5442278086
 30
0.0
 10
10.9104090355
 20
10.5495720635
 30
0.0
 10
10.9033921321
 20
10.5548454254
 30
0.0
 10
10.895570398
 20
10.5600407325
 30
0.0
 10
10.886955673
 20
10.5651505148
 30
0.0
 10
10.8775610861
 20
10.5701671226
 30
0.0
 10
10.8674010874
 20
10.5750828357
 30
0.0
 10
10.8564914579
 20
10.5798900013
 30
0.0
 10
10.844849249
 20
10.5845810468
 30
0.0
 10
10.8324927338
 20
10.5891485137
 30
0.0
 10
10.8194413888
 20
10.5935851176
 30
0.0
 10
10.8057158544
 20
10.5978837843
 30
0.0
 10
10.7913378711
 20
10.6020376292
 30
0.0
 10
10.7763302453
 20
10.6060399813
 30
0.0
 10
10.760716823
 20
10.6098844383
 30
0.0
 10
10.744522433
 20
10.6135648405
 30
0.0
 10
10.7277728371
 20
10.6170752749
 30
0.0
 10
10.7104947001
 20
10.6204101105
 30
0.0
 10
10.6927155449
 20
10.6235640139
 30
0.0
 10
10.6744636939
 20
10.6265319258
 30
0.0
 10
10.6557682352
 20
10.629309074
 30
0.0
 10
10.6366589556
 20
10.6318910274
 30
0.0
 10
10.6171663367
 20
10.6342736391
 30
0.0
 10
10.5973214674
 20
10.6364531011
 30
0.0
 10
10.5702632488
 20
10.6391001723
 30
0.0
 10
10.5497976495
 20
10.6407434101
 30
0.0
 10
10.5360584918
 20
10.641696224
 30
0.0
  0
SPLINE
  5
3A1
100
AcDbEntity
  8
0
100
AcDbSpline
 62
7
  6
CONTINUOUS
 70
0
 71
3
 72
18
 73
14
 74
0
 42
0.0000001
 43
0.0000001
 44
0.0000000001
 40
0.0
 40
0.0
 40
0.0
 40
0.0
 40
0.1504678859
 40
0.2917100145
 40
0.4244359174
 40
0.549562529
 40
0.668213991
 40
0.7255497453
 40
0.7817912733
 40
0.8371402265
 40
0.8918093735
 40
0.9460201098
 40
1.0
 40
1.0
 40
1.0
 40
1.0
 10
12.4488888253
 20
8.2958182918
 30
0.0
 10
12.4468123196
 20
8.2938125412
 30
0.0
 10
12.4426622658
 20
8.290049242
 30
0.0
 10
12.4362359352
 20
8.2850340106
 30
0.0
 10
12.429817157
 20
8.2808395267
 30
0.0
 10
12.4234125729
 20
8.2774726634
 30
0.0
 10
12.4180295832
 20
8.275337709
 30
0.0
 10
12.4137557344
 20
8.2740692369
 30
0.0
 10
12.4105958693
 20
8.2733381152
 30
0.0
 10
12.4074464875
 20
8.2728170312
 30
0.0
 10
12.4043084726
 20
8.2725061531
 30
0.0
 10
12.4011830703
 20
8.2724056675
 30
0.0
 10
12.3991066439
 20
8.2724791186
 30
0.0
 10
12.3980734142
 20
8.2725507701
 30
0.0
  0
SPLINE
  5
3A2
100
AcDbEntity
  8
0
100
AcDbSpline
 62
7
  6
CONTINUOUS
 70
0
 71
3
 72
23
 73
19
 74
0
 42
0.0000001
 43
0.0000001
 44
0.0000000001
 40
0.0
 40
0.0
 40
0.0
 40
0.0
 40
0.0755957668
 40
0.1466392768
 40
0.213465616
 40
0.2765144371
 40
0.3363265454
 40
0.3935471053
 40
0.4489233774
 40
0.5032884899
 40
0.5575264287
 40
0.6125277193
 40
0.6691437645
 40
0.7281492125
 40
0.7902196994
 40
0.8559237551
 40
0.9257265947
 40
1.0
 40
1.0
 40
1.0
 40
1.0
 10
12.4488888253
 20
7.2859427806
 30
0.0
 10
12.4481106421
 20
7.2851911133
 30
0.0
 10
12.4465552906
 20
7.283779243
 30
0.0
 10
12.4441482371
 20
7.2818930501
 30
0.0
 10
12.4417439883
 20
7.2803089174
 30
0.0
 10
12.4393447891
 20
7.2790292191
 30
0.0
 10
12.4369526199
 20
7.2780563003
 30
0.0
 10
12.4345699607
 20
7.2773924904
 30
0.0
 10
12.4321999156
 20
7.2770402041
 30
0.0
 10
12.4298464518
 20
7.2770010348
 30
0.0
 10
12.4275140855
 20
7.2772756348
 30
0.0
 10
12.4252073329
 20
7.2778631157
 30
0.0
 10
12.4229301214
 20
7.2787615544
 30
0.0
 10
12.4206854598
 20
7.2799682886
 30
0.0
 10
12.4184756294
 20
7.2814805822
 30
0.0
 10
12.4163024062
 20
7.2832957957
 30
0.0
 10
12.4141675508
 20
7.2854112566
 30
0.0
 10
12.4128145141
 20
7.2869699279
 30
0.0
 10
12.4121437888
 20
7.2877946134
 30
0.0
  0
SPLINE
  5
3A3
100
AcDbEntity
  8
0
100
AcDbSpline
 62
7
  6
CONTINUOUS
 70
0
 71
3
 72
88
 73
84
 74
0
 42
0.0000001
 43
0.0000001
 44
0.0000000001
 40
0.0
 40
0.0
 40
0.0
 40
0.0
 40
0.0040523269
 40
0.0082800598
 40
0.0126870777
 40
0.0172766444
 40
0.0220514725
 40
0.0270136089
 40
0.0321643812
 40
0.0375046455
 40
0.0430347623
 40
0.0487547109
 40
0.0546640903
 40
0.0607621219
 40
0.0670477664
 40
0.073519641
 40
0.0870150308
 40
0.1012329963
 40
0.1161544047
 40
0.131757172
 40
0.1480165974
 40
0.1649056353
 40
0.1823951215
 40
0.2004539796
 40
0.2190493985
 40
0.2381469909
 40
0.2577109372
 40
0.27770412
 40
0.2980882486
 40
0.3188239878
 40
0.3398710778
 40
0.3611884499
 40
0.3827343393
 40
0.4044663967
 40
0.4263417985
 40
0.4703489153
 40
0.5144085889
 40
0.5363495576
 40
0.558173177
 40
0.5798363943
 40
0.6012965629
 40
0.6225115519
 40
0.6434398568
 40
0.6640407136
 40
0.6842742172
 40
0.704101437
 40
0.7234845356
 40
0.7423868934
 40
0.7607732384
 40
0.7786097871
 40
0.7958644011
 40
0.8125067477
 40
0.8285084812
 40
0.8438434541
 40
0.858487963
 40
0.8724210472
 40
0.8856248614
 40
0.8980851272
 40
0.9040333803
 40
0.9097923268
 40
0.9153615046
 40
0.9207407877
 40
0.9259304652
 40
0.9309313071
 40
0.9357445451
 40
0.9403720436
 40
0.9448162601
 40
0.9490804165
 40
0.9531685583
 40
0.9570856492
 40
0.9608377625
 40
0.9644321251
 40
0.9678773605
 40
0.9711835638
 40
0.9774235815
 40
0.9803901822
 40
0.9832753611
 40
0.9860978439
 40
0.9888777739
 40
0.9916363135
 40
0.9943951627
 40
0.9971760103
 40
1.0
 40
1.0
 40
1.0
 40
1.0
 10
12.4179791963
 20
8.4520270603
 30
0.0
 10
12.4191432196
 20
8.4531514205
 30
0.0
 10
12.4214699198
 20
8.4555028596
 30
0.0
 10
12.4248852299
 20
8.45924726
 30
0.0
 10
12.4282967346
 20
8.4632804805
 30
0.0
 10
12.4317025222
 20
8.467600227
 30
0.0
 10
12.4351009365
 20
8.4722042908
 30
0.0
 10
12.4384902339
 20
8.4770903394
 30
0.0
 10
12.4418687304
 20
8.4822558197
 30
0.0
 10
12.4452345955
 20
8.487698066
 30
0.0
 10
12.448586117
 20
8.4934142145
 30
0.0
 10
12.4519215291
 20
8.4994012922
 30
0.0
 10
12.4552390758
 20
8.5056561757
 30
0.0
 10
12.4585370468
 20
8.5121755775
 30
0.0
 10
12.4618136778
 20
8.5189561046
 30
0.0
 10
12.4662133
 20
8.5284734162
 30
0.0
 10
12.4716369443
 20
8.5410050022
 30
0.0
 10
12.4779457299
 20
8.5568223405
 30
0.0
 10
12.4841291582
 20
8.5735889916
 30
0.0
 10
12.4901741332
 20
8.5912697143
 30
0.0
 10
12.4960678436
 20
8.60982749
 30
0.0
 10
12.5017977919
 20
8.6292233385
 30
0.0
 10
12.5073518327
 20
8.6494164873
 30
0.0
 10
12.5127181937
 20
8.6703644464
 30
0.0
 10
12.5178855017
 20
8.6920231142
 30
0.0
 10
12.5228428078
 20
8.7143468735
 30
0.0
 10
12.52757961
 20
8.7372886905
 30
0.0
 10
12.5320858747
 20
8.7608002144
 30
0.0
 10
12.5363520645
 20
8.7848318804
 30
0.0
 10
12.5403691516
 20
8.8093330184
 30
0.0
 10
12.5441286362
 20
8.8342519632
 30
0.0
 10
12.5476225674
 20
8.8595361675
 30
0.0
 10
12.5508435476
 20
8.8851322977
 30
0.0
 10
12.5537847933
 20
8.9109864043
 30
0.0
 10
12.5573319506
 20
8.9457973807
 30
0.0
 10
12.5610223608
 20
8.989553695
 30
0.0
 10
12.5637117873
 20
9.0334091324
 30
0.0
 10
12.5652522952
 20
9.0684502529
 30
0.0
 10
12.5660958879
 20
9.0945671059
 30
0.0
 10
12.5666275644
 20
9.1205000949
 30
0.0
 10
12.566846195
 20
9.146194561
 30
0.0
 10
12.5667513415
 20
9.1715962984
 30
0.0
 10
12.566343222
 20
9.1966517342
 30
0.0
 10
12.5656227207
 20
9.2213080261
 30
0.0
 10
12.56459139
 20
9.2455131811
 30
0.0
 10
12.5632514425
 20
9.2692161652
 30
0.0
 10
12.561605746
 20
9.2923670112
 30
0.0
 10
12.5596578183
 20
9.3149169239
 30
0.0
 10
12.5574118207
 20
9.3368183862
 30
0.0
 10
12.5548725481
 20
9.3580252644
 30
0.0
 10
12.5520454275
 20
9.378492912
 30
0.0
 10
12.5489364999
 20
9.3981782695
 30
0.0
 10
12.5455524063
 20
9.4170399565
 30
0.0
 10
12.5419003732
 20
9.4350383752
 30
0.0
 10
12.5379881932
 20
9.4521357774
 30
0.0
 10
12.533824203
 20
9.4682964669
 30
0.0
 10
12.529417255
 20
9.4834865453
 30
0.0
 10
12.5254917476
 20
9.4954889406
 30
0.0
 10
12.5222264549
 20
9.5045721518
 30
0.0
 10
12.5197605125
 20
9.5110166473
 30
0.0
 10
12.5172409902
 20
9.5171956998
 30
0.0
 10
12.5146691595
 20
9.5231060907
 30
0.0
 10
12.5120463534
 20
9.5287447309
 30
0.0
 10
12.5093739768
 20
9.5341087044
 30
0.0
 10
12.5066533425
 20
9.5391952033
 30
0.0
 10
12.5038859114
 20
9.544001621
 30
0.0
 10
12.5010730341
 20
9.5485254546
 30
0.0
 10
12.4982161412
 20
9.5527643777
 30
0.0
 10
12.4953166556
 20
9.5567162192
 30
0.0
 10
12.4923759424
 20
9.5603788945
 30
0.0
 10
12.4893954328
 20
9.5637505702
 30
0.0
 10
12.4863765714
 20
9.5668293212
 30
0.0
 10
12.4833203231
 20
9.5696138155
 30
0.0
 10
12.4792769615
 20
9.5728682241
 30
0.0
 10
12.4750795822
 20
9.5756178982
 30
0.0
 10
12.4707541818
 20
9.5777750862
 30
0.0
 10
12.4675343261
 20
9.5790644827
 30
0.0
 10
12.4642867815
 20
9.580050758
 30
0.0
 10
12.4610134513
 20
9.580733051
 30
0.0
 10
12.4577166487
 20
9.5811106393
 30
0.0
 10
12.4543986534
 20
9.5811830725
 30
0.0
 10
12.4510621825
 20
9.5809505673
 30
0.0
 10
12.448848646
 20
9.5805958975
 30
0.0
 10
12.447743617
 20
9.5803703391
 30
0.0
  0
SPLINE
  5
3A4
100
AcDbEntity
  8
0
100
AcDbSpline
 62
7
  6
CONTINUOUS
 70
0
 71
3
 72
14
 73
10
 74
0
 42
0.0000001
 43
0.0000001
 44
0.0000000001
 40
0.0
 40
0.0
 40
0.0
 40
0.0
 40
0.2505457945
 40
0.3765046819
 40
0.5024806232
 40
0.6281452197
 40
0.7531688538
 40
0.8772299287
 40
1.0
 40
1.0
 40
1.0
 40
1.0
 10
10.3408216735
 20
7.6661396554
 30
0.0
 10
10.3529081968
 20
7.6666492863
 30
0.0
 10
10.3710831266
 20
7.6671594822
 30
0.0
 10
10.3953445142
 20
7.6673428358
 30
0.0
 10
10.4135766713
 20
7.6672311342
 30
0.0
 10
10.4317603664
 20
7.6668703628
 30
0.0
 10
10.4498449765
 20
7.6662615377
 30
0.0
 10
10.4677796641
 20
7.665406342
 30
0.0
 10
10.4796752373
 20
7.6646691083
 30
0.0
 10
10.4855888197
 20
7.664259
 30
0.0
  0
SPLINE
  5
3A5
100
AcDbEntity
  8
0
100
AcDbSpline
 62
4
  6
CONTINUOUS
 70
0
 71
3
 72
322
 73
318
 74
0
 42
0.0000001
 43
0.0000001
 44
0.0000000001
 40
0.0
 40
0.0
 40
0.0
 40
0.0
 40
0.015625
 40
0.0234375
 40
0.03125
 40
0.0390625
 40
0.046875
 40
0.05078125
 40
0.0546875
 40
0.056640625
 40
0.05859375
 40
0.060546875
 40
0.0615234375
 40
0.0620117188
 40
0.0625
 40
0.0629882812
 40
0.0634765625
 40
0.064453125
 40
0.06640625
 40
0.068359375
 40
0.0703125
 40
0.07421875
 40
0.078125
 40
0.0859375
 40
0.09375
 40
0.1015625
 40
0.109375
 40
0.11328125
 40
0.1171875
 40
0.119140625
 40
0.12109375
 40
0.123046875
 40
0.1240234375
 40
0.1245117188
 40
0.125
 40
0.1254882812
 40
0.1259765625
 40
0.126953125
 40
0.12890625
 40
0.130859375
 40
0.1328125
 40
0.13671875
 40
0.140625
 40
0.1484375
 40
0.15625
 40
0.1640625
 40
0.171875
 40
0.17578125
 40
0.1796875
 40
0.181640625
 40
0.18359375
 40
0.185546875
 40
0.1865234375
 40
0.1870117188
 40
0.1875
 40
0.1879882812
 40
0.1884765625
 40
0.189453125
 40
0.19140625
 40
0.193359375
 40
0.1953125
 40
0.19921875
 40
0.203125
 40
0.2109375
 40
0.21875
 40
0.2265625
 40
0.234375
 40
0.23828125
 40
0.2421875
 40
0.244140625
 40
0.24609375
 40
0.248046875
 40
0.2490234375
 40
0.2495117188
 40
0.25
 40
0.2504882812
 40
0.2509765625
 40
0.251953125
 40
0.25390625
 40
0.255859375
 40
0.2578125
 40
0.26171875
 40
0.265625
 40
0.2734375
 40
0.28125
 40
0.2890625
 40
0.296875
 40
0.30078125
 40
0.3046875
 40
0.306640625
 40
0.30859375
 40
0.310546875
 40
0.3115234375
 40
0.3120117188
 40
0.3125
 40
0.3129882812
 40
0.3134765625
 40
0.314453125
 40
0.31640625
 40
0.318359375
 40
0.3203125
 40
0.32421875
 40
0.328125
 40
0.3359375
 40
0.34375
 40
0.3515625
 40
0.359375
 40
0.36328125
 40
0.3671875
 40
0.369140625
 40
0.37109375
 40
0.373046875
 40
0.3740234375
 40
0.3745117188
 40
0.375
 40
0.3754882812
 40
0.3759765625
 40
0.376953125
 40
0.37890625
 40
0.380859375
 40
0.3828125
 40
0.38671875
 40
0.390625
 40
0.3984375
 40
0.40625
 40
0.4140625
 40
0.421875
 40
0.42578125
 40
0.4296875
 40
0.431640625
 40
0.43359375
 40
0.435546875
 40
0.4365234375
 40
0.4370117188
 40
0.4375
 40
0.4379882812
 40
0.4384765625
 40
0.439453125
 40
0.44140625
 40
0.443359375
 40
0.4453125
 40
0.44921875
 40
0.453125
 40
0.4609375
 40
0.46875
 40
0.4765625
 40
0.48046875
 40
0.484375
 40
0.48828125
 40
0.4921875
 40
0.494140625
 40
0.49609375
 40
0.498046875
 40
0.4990234375
 40
0.4995117188
 40
0.5
 40
0.5004882812
 40
0.5009765625
 40
0.501953125
 40
0.50390625
 40
0.505859375
 40
0.5078125
 40
0.51171875
 40
0.515625
 40
0.5234375
 40
0.53125
 40
0.5390625
 40
0.546875
 40
0.55078125
 40
0.5546875
 40
0.556640625
 40
0.55859375
 40
0.560546875
 40
0.5615234375
 40
0.5620117188
 40
0.5625
 40
0.5629882812
 40
0.5634765625
 40
0.564453125
 40
0.56640625
 40
0.568359375
 40
0.5703125
 40
0.57421875
 40
0.578125
 40
0.5859375
 40
0.59375
 40
0.6015625
 40
0.609375
 40
0.61328125
 40
0.6171875
 40
0.619140625
 40
0.62109375
 40
0.623046875
 40
0.6240234375
 40
0.6245117188
 40
0.625
 40
0.6254882812
 40
0.6259765625
 40
0.626953125
 40
0.62890625
 40
0.630859375
 40
0.6328125
 40
0.63671875
 40
0.640625
 40
0.6484375
 40
0.65625
 40
0.6640625
 40
0.66796875
 40
0.671875
 40
0.67578125
 40
0.6796875
 40
0.681640625
 40
0.68359375
 40
0.685546875
 40
0.6865234375
 40
0.6870117188
 40
0.6875
 40
0.6879882812
 40
0.6884765625
 40
0.689453125
 40
0.69140625
 40
0.693359375
 40
0.6953125
 40
0.69921875
 40
0.703125
 40
0.70703125
 40
0.7109375
 40
0.71875
 40
0.7265625
 40
0.73046875
 40
0.734375
 40
0.73828125
 40
0.7421875
 40
0.744140625
 40
0.74609375
 40
0.748046875
 40
0.7490234375
 40
0.7495117188
 40
0.75
 40
0.7504882812
 40
0.7509765625
 40
0.751953125
 40
0.75390625
 40
0.755859375
 40
0.7578125
 40
0.76171875
 40
0.765625
 40
0.76953125
 40
0.7734375
 40
0.78125
 40
0.7890625
 40
0.79296875
 40
0.796875
 40
0.80078125
 40
0.8046875
 40
0.806640625
 40
0.80859375
 40
0.810546875
 40
0.8115234375
 40
0.8120117188
 40
0.8125
 40
0.8129882812
 40
0.8134765625
 40
0.814453125
 40
0.81640625
 40
0.818359375
 40
0.8203125
 40
0.82421875
 40
0.828125
 40
0.83203125
 40
0.8359375
 40
0.84375
 40
0.8515625
 40
0.859375
 40
0.86328125
 40
0.8671875
 40
0.869140625
 40
0.87109375
 40
0.873046875
 40
0.8740234375
 40
0.8745117188
 40
0.875
 40
0.8754882812
 40
0.8759765625
 40
0.876953125
 40
0.87890625
 40
0.880859375
 40
0.8828125
 40
0.88671875
 40
0.890625
 40
0.8984375
 40
0.90625
 40
0.9140625
 40
0.91796875
 40
0.921875
 40
0.92578125
 40
0.9296875
 40
0.931640625
 40
0.93359375
 40
0.935546875
 40
0.9365234375
 40
0.9370117188
 40
0.9375
 40
0.9379882812
 40
0.9384765625
 40
0.939453125
 40
0.94140625
 40
0.943359375
 40
0.9453125
 40
0.94921875
 40
0.953125
 40
0.95703125
 40
0.9609375
 40
0.96875
 40
0.9765625
 40
0.984375
 40
1.0
 40
1.0
 40
1.0
 40
1.0
 10
10.7610011511
 20
9.7797297706
 30
0.0
 10
10.7612770897
 20
9.7768963945
 30
0.0
 10
10.7616909974
 20
9.7726463302
 30
0.0
 10
10.7622428753
 20
9.766979578
 30
0.0
 10
10.7626567814
 20
9.7627295135
 30
0.0
 10
10.763070696
 20
9.7584794501
 30
0.0
 10
10.7634155987
 20
9.7549377273
 30
0.0
 10
10.7636915793
 20
9.7521043565
 30
0.0
 10
10.7638639341
 20
9.7503334827
 30
0.0
 10
10.7640021227
 20
9.7489168228
 30
0.0
 10
10.7641049297
 20
9.7478542206
 30
0.0
 10
10.7641932567
 20
9.7469690602
 30
0.0
 10
10.7642498762
 20
9.7463487777
 30
0.0
 10
10.7642903642
 20
9.7459953771
 30
0.0
 10
10.7642978168
 20
9.7457273787
 30
0.0
 10
10.7643928558
 20
9.7454706487
 30
0.0
 10
10.7644890234
 20
9.7451244115
 30
0.0
 10
10.7646715509
 20
9.7445203278
 30
0.0
 10
10.7649248627
 20
9.7436563935
 30
0.0
 10
10.7652320222
 20
9.7426200823
 30
0.0
 10
10.7656404557
 20
9.7412381908
 30
0.0
 10
10.7661513784
 20
9.7395108754
 30
0.0
 10
10.7669686418
 20
9.7367471435
 30
0.0
 10
10.7679902946
 20
9.7332924881
 30
0.0
 10
10.7692162445
 20
9.7291468968
 30
0.0
 10
10.7704422107
 20
9.7250013093
 30
0.0
 10
10.7714638226
 20
9.7215466444
 30
0.0
 10
10.7722811677
 20
9.7187829315
 30
0.0
 10
10.7727918829
 20
9.7170555678
 30
0.0
 10
10.7732007423
 20
9.7156737754
 30
0.0
 10
10.7735066004
 20
9.7146371615
 30
0.0
 10
10.773763984
 20
9.7137741742
 30
0.0
 10
10.7739392427
 20
9.7131684
 30
0.0
 10
10.7740470568
 20
9.7128248714
 30
0.0
 10
10.7741063216
 20
9.7125598215
 30
0.0
 10
10.7742481362
 20
9.7123230713
 30
0.0
 10
10.774408428
 20
9.7119975332
 30
0.0
 10
10.7747023545
 20
9.7114324406
 30
0.0
 10
10.7751152355
 20
9.710622761
 30
0.0
 10
10.775613695
 20
9.7096521746
 30
0.0
 10
10.776277259
 20
9.7083577
 30
0.0
 10
10.777107073
 20
9.7067397299
 30
0.0
 10
10.7784345747
 20
9.7041509088
 30
0.0
 10
10.7800940212
 20
9.7009149064
 30
0.0
 10
10.7820853254
 20
9.6970316922
 30
0.0
 10
10.7840766452
 20
9.6931484845
 30
0.0
 10
10.7857360526
 20
9.6899124661
 30
0.0
 10
10.7870636324
 20
9.6873236769
 30
0.0
 10
10.787893248
 20
9.6857056258
 30
0.0
 10
10.7885572194
 20
9.6844113173
 30
0.0
 10
10.7890544343
 20
9.6834402234
 30
0.0
 10
10.7894712091
 20
9.6826321319
 30
0.0
 10
10.7897581847
 20
9.6820642043
 30
0.0
 10
10.7899296136
 20
9.6817432085
 30
0.0
 10
10.7900372187
 20
9.6814925057
 30
0.0
 10
10.7902249685
 20
9.6812798595
 30
0.0
 10
10.7904473463
 20
9.6809830566
 30
0.0
 10
10.7908495322
 20
9.6804698364
 30
0.0
 10
10.7914172741
 20
9.6797334312
 30
0.0
 10
10.7921014789
 20
9.678851129
 30
0.0
 10
10.7930127341
 20
9.6776742427
 30
0.0
 10
10.7941521516
 20
9.6762033003
 30
0.0
 10
10.7959750248
 20
9.6738496999
 30
0.0
 10
10.7982536834
 20
9.6709077315
 30
0.0
 10
10.8009880435
 20
9.6673773541
 30
0.0
 10
10.803722417
 20
9.6638469867
 30
0.0
 10
10.8060010423
 20
9.6609049934
 30
0.0
 10
10.8078239821
 20
9.6585514429
 30
0.0
 10
10.8089632304
 20
9.6570803737
 30
0.0
 10
10.8098748329
 20
9.6559037476
 30
0.0
 10
10.8105579765
 20
9.6550206504
 30
0.0
 10
10.8111290387
 20
9.6542867326
 30
0.0
 10
10.8115252972
 20
9.6537690719
 30
0.0
 10
10.8117571723
 20
9.6534793838
 30
0.0
 10
10.8119157495
 20
9.6532448832
 30
0.0
 10
10.812132922
 20
9.6530762618
 30
0.0
 10
10.8124020467
 20
9.6528284538
 30
0.0
 10
10.8128825377
 20
9.6524054965
 30
0.0
 10
10.8135639748
 20
9.6517956741
 30
0.0
 10
10.8143838303
 20
9.6510662832
 30
0.0
 10
10.8154762266
 20
9.6500929252
 30
0.0
 10
10.8168419769
 20
9.6488765142
 30
0.0
 10
10.8190270348
 20
9.6469300964
 30
0.0
 10
10.8217584064
 20
9.6444971295
 30
0.0
 10
10.8250360301
 20
9.6415775439
 30
0.0
 10
10.8283136642
 20
9.6386579713
 30
0.0
 10
10.8310450098
 20
9.6362249716
 30
0.0
 10
10.8332301197
 20
9.6342786194
 30
0.0
 10
10.8345957379
 20
9.6330620417
 30
0.0
 10
10.8356884053
 20
9.6320890258
 30
0.0
 10
10.8365074327
 20
9.6313585898
 30
0.0
 10
10.8371914608
 20
9.6307520374
 30
0.0
 10
10.8376673263
 20
9.6303232426
 30
0.0
 10
10.8379438622
 20
9.6300847876
 30
0.0
 10
10.83813827
 20
9.6298874371
 30
0.0
 10
10.8383823477
 20
9.629760838
 30
0.0
 10
10.8386904592
 20
9.6295673603
 30
0.0
 10
10.8392377266
 20
9.6292402728
 30
0.0
 10
10.840015317
 20
9.6287669933
 30
0.0
 10
10.8409502318
 20
9.6282016311
 30
0.0
 10
10.8421961539
 20
9.6274469161
 30
0.0
 10
10.8437537726
 20
9.62650383
 30
0.0
 10
10.8462458417
 20
9.6249947203
 30
0.0
 10
10.8493609698
 20
9.6231083926
 30
0.0
 10
10.8530991048
 20
9.620844772
 30
0.0
 10
10.8568372478
 20
9.6185811659
 30
0.0
 10
10.8599523557
 20
9.616694802
 30
0.0
 10
10.8624444652
 20
9.6151857647
 30
0.0
 10
10.8640019814
 20
9.6142424947
 30
0.0
 10
10.8652481138
 20
9.6134881572
 30
0.0
 10
10.8661823862
 20
9.6129216415
 30
0.0
 10
10.8669619864
 20
9.6124519711
 30
0.0
 10
10.8675056658
 20
9.6121184408
 30
0.0
 10
10.8678195263
 20
9.6119352861
 30
0.0
 10
10.8680459452
 20
9.6117769781
 30
0.0
 10
10.8683066766
 20
9.611698721
 30
0.0
 10
10.8686423498
 20
9.6115664556
 30
0.0
 10
10.8692353545
 20
9.6113480007
 30
0.0
 10
10.8700795885
 20
9.6110291208
 30
0.0
 10
10.8710939173
 20
9.6106493762
 30
0.0
 10
10.8724459198
 20
9.6101420333
 30
0.0
 10
10.8741360722
 20
9.6095082027
 30
0.0
 10
10.8768402325
 20
9.6084938792
 30
0.0
 10
10.8802204617
 20
9.607226042
 30
0.0
 10
10.8842767238
 20
9.6057046065
 30
0.0
 10
10.8883329917
 20
9.604183187
 30
0.0
 10
10.8917132064
 20
9.60291531
 30
0.0
 10
10.8944173957
 20
9.6019010661
 30
0.0
 10
10.8961074746
 20
9.6012670333
 30
0.0
 10
10.8974596277
 20
9.6007601053
 30
0.0
 10
10.8984734964
 20
9.6003790927
 30
0.0
 10
10.8993191699
 20
9.6000641801
 30
0.0
 10
10.899909605
 20
9.599838643
 30
0.0
 10
10.9002493953
 20
9.5997177252
 30
0.0
 10
10.9004974805
 20
9.5996046119
 30
0.0
 10
10.9007713964
 20
9.5995772182
 30
0.0
 10
10.9011276076
 20
9.5995107933
 30
0.0
 10
10.9017551751
 20
9.5994084807
 30
0.0
 10
10.9026495053
 20
9.5992550366
 30
0.0
 10
10.9037236411
 20
9.5990740212
 30
0.0
 10
10.9051554939
 20
9.5988315784
 30
0.0
 10
10.9069454223
 20
9.5985288977
 30
0.0
 10
10.909809245
 20
9.5980444002
 30
0.0
 10
10.9133890449
 20
9.5974388498
 30
0.0
 10
10.9176847955
 20
9.5967121592
 30
0.0
 10
10.9212645899
 20
9.5961065888
 30
0.0
 10
10.9241284246
 20
9.5956221353
 30
0.0
 10
10.9262763018
 20
9.5952587835
 30
0.0
 10
10.9284241749
 20
9.5948954773
 30
0.0
 10
10.9302140817
 20
9.5945925797
 30
0.0
 10
10.9316459791
 20
9.5943505806
 30
0.0
 10
10.9327199786
 20
9.59416821
 30
0.0
 10
10.933614735
 20
9.5940190059
 30
0.0
 10
10.9342415418
 20
9.5939091241
 30
0.0
 10
10.9345989719
 20
9.593854827
 30
0.0
 10
10.9348691436
 20
9.5937901809
 30
0.0
 10
10.9351312914
 20
9.5938169814
 30
0.0
 10
10.9354836206
 20
9.5938208178
 30
0.0
 10
10.9360988928
 20
9.5938423933
 30
0.0
 10
10.9369785347
 20
9.5938654455
 30
0.0
 10
10.9380338132
 20
9.5938964339
 30
0.0
 10
10.9394409532
 20
9.5939365902
 30
0.0
 10
10.9411998432
 20
9.5939871832
 30
0.0
 10
10.9440140869
 20
9.5940679098
 30
0.0
 10
10.9475318846
 20
9.5941688948
 30
0.0
 10
10.9517532451
 20
9.5942900417
 30
0.0
 10
10.9559746033
 20
9.5944112059
 30
0.0
 10
10.9594924071
 20
9.5945121476
 30
0.0
 10
10.9623066385
 20
9.5945929607
 30
0.0
 10
10.9640655595
 20
9.5946433339
 30
0.0
 10
10.965472636
 20
9.5946839414
 30
0.0
 10
10.9665281085
 20
9.5947135511
 30
0.0
 10
10.9674071434
 20
9.5947409168
 30
0.0
 10
10.9680234993
 20
9.594754792
 30
0.0
 10
10.9683740921
 20
9.5947709662
 30
0.0
 10
10.9686415736
 20
9.594759869
 30
0.0
 10
10.9688917126
 20
9.5948375608
 30
0.0
 10
10.9692312806
 20
9.5949101792
 30
0.0
 10
10.969822706
 20
9.5950516913
 30
0.0
 10
10.970669073
 20
9.5952463073
 30
0.0
 10
10.9716840827
 20
9.5954830757
 30
0.0
 10
10.9730376492
 20
9.5957976389
 30
0.0
 10
10.974729532
 20
9.5961912292
 30
0.0
 10
10.9774365865
 20
9.5968207578
 30
0.0
 10
10.9808203901
 20
9.597607743
 30
0.0
 10
10.9848809614
 20
9.5985520913
 30
0.0
 10
10.9889415278
 20
9.5994964562
 30
0.0
 10
10.9923253437
 20
9.6002833998
 30
0.0
 10
10.9950323736
 20
9.6009130117
 30
0.0
 10
10.996724319
 20
9.60130639
 30
0.0
 10
10.9980777569
 20
9.6016213882
 30
0.0
 10
10.9990931595
 20
9.6018568279
 30
0.0
 10
10.9999382972
 20
9.602055601
 30
0.0
 10
11.0005319172
 20
9.602189692
 30
0.0
 10
11.0008679689
 20
9.6022742008
 30
0.0
 10
11.0011289087
 20
9.6023153694
 30
0.0
 10
11.001355824
 20
9.6024414473
 30
0.0
 10
11.0016702459
 20
9.6025799339
 30
0.0
 10
11.0022149546
 20
9.6028360847
 30
0.0
 10
11.0029960008
 20
9.6031948
 30
0.0
 10
11.0039320189
 20
9.6036283464
 30
0.0
 10
11.0051804751
 20
9.6042053297
 30
0.0
 10
11.0067408975
 20
9.6049269281
 30
0.0
 10
11.009237656
 20
9.6060812791
 30
0.0
 10
11.0123585757
 20
9.6075242886
 30
0.0
 10
11.0161036913
 20
9.6092558701
 30
0.0
 10
11.0192246191
 20
9.6106988599
 30
0.0
 10
11.0217213599
 20
9.6118532542
 30
0.0
 10
11.0235939211
 20
9.6127190393
 30
0.0
 10
11.0254664605
 20
9.6135848659
 30
0.0
 10
11.0270269779
 20
9.6143062586
 30
0.0
 10
11.0282752397
 20
9.6148836627
 30
0.0
 10
11.0292118517
 20
9.6153159234
 30
0.0
 10
11.0299910398
 20
9.6156786613
 30
0.0
 10
11.0305390655
 20
9.6159276312
 30
0.0
 10
11.0308481727
 20
9.6160776234
 30
0.0
 10
11.031091413
 20
9.6161683598
 30
0.0
 10
11.0312910388
 20
9.6163422655
 30
0.0
 10
11.0315724197
 20
9.6165451294
 30
0.0
 10
11.0320577482
 20
9.6169136577
 30
0.0
 10
11.0327547804
 20
9.6174330602
 30
0.0
 10
11.0335896328
 20
9.6180593679
 30
0.0
 10
11.0347033234
 20
9.6188933882
 30
0.0
 10
11.0360952466
 20
9.6199362762
 30
0.0
 10
11.0377656359
 20
9.6211875864
 30
0.0
 10
11.0394360033
 20
9.6224389382
 30
0.0
 10
11.0416631677
 20
9.6241073926
 30
0.0
 10
11.04444712
 20
9.626192966
 30
0.0
 10
11.0472310749
 20
9.6282785362
 30
0.0
 10
11.0494582352
 20
9.6299469958
 30
0.0
 10
11.0511286147
 20
9.6311983321
 30
0.0
 10
11.0527989591
 20
9.6324497002
 30
0.0
 10
11.0541910218
 20
9.6334924081
 30
0.0
 10
11.0553044279
 20
9.6343267957
 30
0.0
 10
11.056140149
 20
9.6349519818
 30
0.0
 10
11.0568344635
 20
9.6354748932
 30
0.0
 10
11.0573246435
 20
9.6358371576
 30
0.0
 10
11.057598251
 20
9.6360500579
 30
0.0
 10
11.0578217543
 20
9.6361931351
 30
0.0
 10
11.0579753147
 20
9.6363996582
 30
0.0
 10
11.0582044588
 20
9.6366528917
 30
0.0
 10
11.058594094
 20
9.6371063614
 30
0.0
 10
11.0591566585
 20
9.6377487845
 30
0.0
 10
11.0598291922
 20
9.6385219996
 30
0.0
 10
11.0607267924
 20
9.6395521471
 30
0.0
 10
11.0618484877
 20
9.640840108
 30
0.0
 10
11.0631946528
 20
9.6423855426
 30
0.0
 10
11.0645407829
 20
9.6439310089
 30
0.0
 10
11.0663356353
 20
9.6459916194
 30
0.0
 10
11.0685791961
 20
9.6485673868
 30
0.0
 10
11.0708227602
 20
9.6511431516
 30
0.0
 10
11.0726176075
 20
9.6532037663
 30
0.0
 10
11.0739637528
 20
9.6547492202
 30
0.0
 10
11.0753098609
 20
9.6562947014
 30
0.0
 10
11.0764317333
 20
9.6575825171
 30
0.0
 10
11.0773289724
 20
9.6586129608
 30
0.0
 10
11.0780026087
 20
9.6593852713
 30
0.0
 10
11.0785617236
 20
9.6600305247
 30
0.0
 10
11.0789575169
 20
9.6604789418
 30
0.0
 10
11.0791767942
 20
9.6607402707
 30
0.0
 10
11.0793606624
 20
9.6609219273
 30
0.0
 10
11.0794703347
 20
9.6611583992
 30
0.0
 10
11.0796424447
 20
9.6614545748
 30
0.0
 10
11.0799315792
 20
9.6619817907
 30
0.0
 10
11.0803509325
 20
9.6627302988
 30
0.0
 10
11.0808514582
 20
9.663630502
 30
0.0
 10
11.0815197683
 20
9.6648300766
 30
0.0
 10
11.0823548325
 20
9.6663297838
 30
0.0
 10
11.0833570482
 20
9.66812933
 30
0.0
 10
11.0843592268
 20
9.6699289037
 30
0.0
 10
11.0856954777
 20
9.6723283257
 30
0.0
 10
11.0873657886
 20
9.6753276056
 30
0.0
 10
11.0893701555
 20
9.6789267441
 30
0.0
 10
11.0910404855
 20
9.6819260145
 30
0.0
 10
11.0923766945
 20
9.6843254575
 30
0.0
 10
11.0932119503
 20
9.6858250486
 30
0.0
 10
11.0938798682
 20
9.6870248607
 30
0.0
 10
11.094381592
 20
9.6879243385
 30
0.0
 10
11.0947971969
 20
9.6886751164
 30
0.0
 10
11.0950930229
 20
9.6891982802
 30
0.0
 10
11.0952544113
 20
9.6895009483
 30
0.0
 10
11.0953970171
 20
9.6897174774
 30
0.0
 10
11.0954571924
 20
9.6899740357
 30
0.0
 10
11.0955661788
 20
9.6903021507
 30
0.0
 10
11.0957435086
 20
9.6908828575
 30
0.0
 10
11.0960038407
 20
9.6917090375
 30
0.0
 10
11.0963132414
 20
9.6927019092
 30
0.0
 10
11.0967268227
 20
9.6940252298
 30
0.0
 10
11.0972434408
 20
9.6956795545
 30
0.0
 10
11.0980702301
 20
9.6983263769
 30
0.0
 10
11.0991036481
 20
9.7016349381
 30
0.0
 10
11.1003437786
 20
9.7056051975
 30
0.0
 10
11.1013772158
 20
9.7089137496
 30
0.0
 10
11.1022039628
 20
9.7115605921
 30
0.0
 10
11.1028240344
 20
9.7135457199
 30
0.0
 10
11.1034440622
 20
9.7155308637
 30
0.0
 10
11.1039608883
 20
9.7171851004
 30
0.0
 10
11.104374044
 20
9.7185086011
 30
0.0
 10
11.1046847446
 20
9.7195009226
 30
0.0
 10
11.1049410096
 20
9.7203288241
 30
0.0
 10
11.1051255999
 20
9.7209064578
 30
0.0
 10
11.1052229531
 20
9.7212394966
 30
0.0
 10
11.1053188617
 20
9.7214809305
 30
0.0
 10
11.1053272592
 20
9.7217542642
 30
0.0
 10
11.1053689808
 20
9.7221075821
 30
0.0
 10
11.1054277714
 20
9.7227310727
 30
0.0
 10
11.1055191935
 20
9.7236190633
 30
0.0
 10
11.1056257174
 20
9.724685812
 30
0.0
 10
11.105768861
 20
9.7261077384
 30
0.0
 10
11.1059474089
 20
9.7278852855
 30
0.0
 10
11.10616183
 20
9.7300182824
 30
0.0
 10
11.1063762074
 20
9.7321512952
 30
0.0
 10
11.1066620591
 20
9.7349953068
 30
0.0
 10
11.1070193686
 20
9.7385503231
 30
0.0
 10
11.1074481422
 20
9.7428163419
 30
0.0
 10
11.1080198395
 20
9.7485043673
 30
0.0
 10
11.1084486127
 20
9.7527703862
 30
0.0
 10
11.1087344614
 20
9.7556143988
 30
0.0
  0
SPLINE
  5
3A6
100
AcDbEntity
  8
0
100
AcDbSpline
 62
4
  6
CONTINUOUS
 70
0
 71
3
 72
322
 73
318
 74
0
 42
0.0000001
 43
0.0000001
 44
0.0000000001
 40
0.0
 40
0.0
 40
0.0
 40
0.0
 40
0.015625
 40
0.0234375
 40
0.03125
 40
0.0390625
 40
0.046875
 40
0.05078125
 40
0.0546875
 40
0.056640625
 40
0.05859375
 40
0.060546875
 40
0.0615234375
 40
0.0620117188
 40
0.0625
 40
0.0629882812
 40
0.0634765625
 40
0.064453125
 40
0.06640625
 40
0.068359375
 40
0.0703125
 40
0.07421875
 40
0.078125
 40
0.0859375
 40
0.09375
 40
0.1015625
 40
0.109375
 40
0.11328125
 40
0.1171875
 40
0.119140625
 40
0.12109375
 40
0.123046875
 40
0.1240234375
 40
0.1245117188
 40
0.125
 40
0.1254882812
 40
0.1259765625
 40
0.126953125
 40
0.12890625
 40
0.130859375
 40
0.1328125
 40
0.13671875
 40
0.140625
 40
0.1484375
 40
0.15625
 40
0.1640625
 40
0.171875
 40
0.17578125
 40
0.1796875
 40
0.181640625
 40
0.18359375
 40
0.185546875
 40
0.1865234375
 40
0.1870117188
 40
0.1875
 40
0.1879882812
 40
0.1884765625
 40
0.189453125
 40
0.19140625
 40
0.193359375
 40
0.1953125
 40
0.19921875
 40
0.203125
 40
0.2109375
 40
0.21875
 40
0.2265625
 40
0.234375
 40
0.23828125
 40
0.2421875
 40
0.244140625
 40
0.24609375
 40
0.248046875
 40
0.2490234375
 40
0.2495117188
 40
0.25
 40
0.2504882812
 40
0.2509765625
 40
0.251953125
 40
0.25390625
 40
0.255859375
 40
0.2578125
 40
0.26171875
 40
0.265625
 40
0.2734375
 40
0.28125
 40
0.2890625
 40
0.296875
 40
0.30078125
 40
0.3046875
 40
0.306640625
 40
0.30859375
 40
0.310546875
 40
0.3115234375
 40
0.3120117188
 40
0.3125
 40
0.3129882812
 40
0.3134765625
 40
0.314453125
 40
0.31640625
 40
0.318359375
 40
0.3203125
 40
0.32421875
 40
0.328125
 40
0.3359375
 40
0.34375
 40
0.3515625
 40
0.359375
 40
0.36328125
 40
0.3671875
 40
0.369140625
 40
0.37109375
 40
0.373046875
 40
0.3740234375
 40
0.3745117188
 40
0.375
 40
0.3754882812
 40
0.3759765625
 40
0.376953125
 40
0.37890625
 40
0.380859375
 40
0.3828125
 40
0.38671875
 40
0.390625
 40
0.3984375
 40
0.40625
 40
0.4140625
 40
0.421875
 40
0.42578125
 40
0.4296875
 40
0.431640625
 40
0.43359375
 40
0.435546875
 40
0.4365234375
 40
0.4370117188
 40
0.4375
 40
0.4379882812
 40
0.4384765625
 40
0.439453125
 40
0.44140625
 40
0.443359375
 40
0.4453125
 40
0.44921875
 40
0.453125
 40
0.4609375
 40
0.46875
 40
0.4765625
 40
0.48046875
 40
0.484375
 40
0.48828125
 40
0.4921875
 40
0.494140625
 40
0.49609375
 40
0.498046875
 40
0.4990234375
 40
0.4995117188
 40
0.5
 40
0.5004882812
 40
0.5009765625
 40
0.501953125
 40
0.50390625
 40
0.505859375
 40
0.5078125
 40
0.51171875
 40
0.515625
 40
0.5234375
 40
0.53125
 40
0.5390625
 40
0.546875
 40
0.55078125
 40
0.5546875
 40
0.556640625
 40
0.55859375
 40
0.560546875
 40
0.5615234375
 40
0.5620117188
 40
0.5625
 40
0.5629882812
 40
0.5634765625
 40
0.564453125
 40
0.56640625
 40
0.568359375
 40
0.5703125
 40
0.57421875
 40
0.578125
 40
0.5859375
 40
0.59375
 40
0.6015625
 40
0.609375
 40
0.61328125
 40
0.6171875
 40
0.619140625
 40
0.62109375
 40
0.623046875
 40
0.6240234375
 40
0.6245117188
 40
0.625
 40
0.6254882812
 40
0.6259765625
 40
0.626953125
 40
0.62890625
 40
0.630859375
 40
0.6328125
 40
0.63671875
 40
0.640625
 40
0.6484375
 40
0.65625
 40
0.6640625
 40
0.66796875
 40
0.671875
 40
0.67578125
 40
0.6796875
 40
0.681640625
 40
0.68359375
 40
0.685546875
 40
0.6865234375
 40
0.6870117188
 40
0.6875
 40
0.6879882812
 40
0.6884765625
 40
0.689453125
 40
0.69140625
 40
0.693359375
 40
0.6953125
 40
0.69921875
 40
0.703125
 40
0.70703125
 40
0.7109375
 40
0.71875
 40
0.7265625
 40
0.73046875
 40
0.734375
 40
0.73828125
 40
0.7421875
 40
0.744140625
 40
0.74609375
 40
0.748046875
 40
0.7490234375
 40
0.7495117188
 40
0.75
 40
0.7504882812
 40
0.7509765625
 40
0.751953125
 40
0.75390625
 40
0.755859375
 40
0.7578125
 40
0.76171875
 40
0.765625
 40
0.76953125
 40
0.7734375
 40
0.78125
 40
0.7890625
 40
0.79296875
 40
0.796875
 40
0.80078125
 40
0.8046875
 40
0.806640625
 40
0.80859375
 40
0.810546875
 40
0.8115234375
 40
0.8120117188
 40
0.8125
 40
0.8129882812
 40
0.8134765625
 40
0.814453125
 40
0.81640625
 40
0.818359375
 40
0.8203125
 40
0.82421875
 40
0.828125
 40
0.83203125
 40
0.8359375
 40
0.84375
 40
0.8515625
 40
0.859375
 40
0.86328125
 40
0.8671875
 40
0.869140625
 40
0.87109375
 40
0.873046875
 40
0.8740234375
 40
0.8745117188
 40
0.875
 40
0.8754882812
 40
0.8759765625
 40
0.876953125
 40
0.87890625
 40
0.880859375
 40
0.8828125
 40
0.88671875
 40
0.890625
 40
0.8984375
 40
0.90625
 40
0.9140625
 40
0.91796875
 40
0.921875
 40
0.92578125
 40
0.9296875
 40
0.931640625
 40
0.93359375
 40
0.935546875
 40
0.9365234375
 40
0.9370117188
 40
0.9375
 40
0.9379882812
 40
0.9384765625
 40
0.939453125
 40
0.94140625
 40
0.943359375
 40
0.9453125
 40
0.94921875
 40
0.953125
 40
0.95703125
 40
0.9609375
 40
0.96875
 40
0.9765625
 40
0.984375
 40
1.0
 40
1.0
 40
1.0
 40
1.0
 10
11.1087344614
 20
9.7556143836
 30
0.0
 10
11.1084585228
 20
9.7584477598
 30
0.0
 10
11.1080446151
 20
9.7626978241
 30
0.0
 10
11.1074927372
 20
9.7683645763
 30
0.0
 10
11.1070788311
 20
9.7726146407
 30
0.0
 10
11.1066649165
 20
9.7768647041
 30
0.0
 10
11.1063200138
 20
9.780406427
 30
0.0
 10
11.1060440332
 20
9.7832397977
 30
0.0
 10
11.1058716784
 20
9.7850106716
 30
0.0
 10
11.1057334898
 20
9.7864273314
 30
0.0
 10
11.1056306828
 20
9.7874899337
 30
0.0
 10
11.1055423558
 20
9.7883750941
 30
0.0
 10
11.1054857363
 20
9.7889953765
 30
0.0
 10
11.1054452483
 20
9.7893487772
 30
0.0
 10
11.1054377957
 20
9.7896167756
 30
0.0
 10
11.1053427567
 20
9.7898735055
 30
0.0
 10
11.1052465891
 20
9.7902197427
 30
0.0
 10
11.1050640616
 20
9.7908238265
 30
0.0
 10
11.1048107498
 20
9.7916877607
 30
0.0
 10
11.1045035903
 20
9.792724072
 30
0.0
 10
11.1040951568
 20
9.7941059635
 30
0.0
 10
11.1035842341
 20
9.7958332788
 30
0.0
 10
11.1027669707
 20
9.7985970108
 30
0.0
 10
11.1017453179
 20
9.8020516662
 30
0.0
 10
11.100519368
 20
9.8061972575
 30
0.0
 10
11.0992934018
 20
9.8103428449
 30
0.0
 10
11.0982717899
 20
9.8137975098
 30
0.0
 10
11.0974544448
 20
9.8165612228
 30
0.0
 10
11.0969437296
 20
9.8182885864
 30
0.0
 10
11.0965348702
 20
9.8196703788
 30
0.0
 10
11.0962290121
 20
9.8207069928
 30
0.0
 10
11.0959716285
 20
9.82156998
 30
0.0
 10
11.0957963698
 20
9.8221757543
 30
0.0
 10
11.0956885558
 20
9.8225192829
 30
0.0
 10
11.0956292909
 20
9.8227843328
 30
0.0
 10
11.0954874764
 20
9.8230210829
 30
0.0
 10
11.0953271845
 20
9.8233466211
 30
0.0
 10
11.0950332581
 20
9.8239117137
 30
0.0
 10
11.094620377
 20
9.8247213933
 30
0.0
 10
11.0941219176
 20
9.8256919796
 30
0.0
 10
11.0934583536
 20
9.8269864542
 30
0.0
 10
11.0926285395
 20
9.8286044243
 30
0.0
 10
11.0913010378
 20
9.8311932454
 30
0.0
 10
11.0896415913
 20
9.8344292479
 30
0.0
 10
11.0876502871
 20
9.838312462
 30
0.0
 10
11.0856589673
 20
9.8421956698
 30
0.0
 10
11.0839995599
 20
9.8454316882
 30
0.0
 10
11.0826719801
 20
9.8480204774
 30
0.0
 10
11.0818423645
 20
9.8496385285
 30
0.0
 10
11.0811783931
 20
9.8509328369
 30
0.0
 10
11.0806811782
 20
9.8519039308
 30
0.0
 10
11.0802644034
 20
9.8527120224
 30
0.0
 10
11.0799774278
 20
9.8532799499
 30
0.0
 10
11.079805999
 20
9.8536009457
 30
0.0
 10
11.0796983938
 20
9.8538516485
 30
0.0
 10
11.079510644
 20
9.8540642948
 30
0.0
 10
11.0792882663
 20
9.8543610976
 30
0.0
 10
11.0788860803
 20
9.8548743178
 30
0.0
 10
11.0783183385
 20
9.855610723
 30
0.0
 10
11.0776341336
 20
9.8564930252
 30
0.0
 10
11.0767228784
 20
9.8576699116
 30
0.0
 10
11.0755834609
 20
9.859140854
 30
0.0
 10
11.0737605878
 20
9.8614944544
 30
0.0
 10
11.0714819291
 20
9.8644364227
 30
0.0
 10
11.068747569
 20
9.8679668001
 30
0.0
 10
11.0660131955
 20
9.8714971675
 30
0.0
 10
11.0637345702
 20
9.8744391609
 30
0.0
 10
11.0619116304
 20
9.8767927114
 30
0.0
 10
11.0607723822
 20
9.8782637806
 30
0.0
 10
11.0598607796
 20
9.8794404067
 30
0.0
 10
11.059177636
 20
9.8803235039
 30
0.0
 10
11.0586065738
 20
9.8810574217
 30
0.0
 10
11.0582103153
 20
9.8815750823
 30
0.0
 10
11.0579784403
 20
9.8818647704
 30
0.0
 10
11.057819863
 20
9.882099271
 30
0.0
 10
11.0576026905
 20
9.8822678925
 30
0.0
 10
11.0573335658
 20
9.8825157004
 30
0.0
 10
11.0568530748
 20
9.8829386578
 30
0.0
 10
11.0561716377
 20
9.8835484801
 30
0.0
 10
11.0553517823
 20
9.884277871
 30
0.0
 10
11.0542593859
 20
9.885251229
 30
0.0
 10
11.0528936356
 20
9.88646764
 30
0.0
 10
11.0507085777
 20
9.8884140578
 30
0.0
 10
11.0479772061
 20
9.8908470247
 30
0.0
 10
11.0446995824
 20
9.8937666104
 30
0.0
 10
11.0414219483
 20
9.896686183
 30
0.0
 10
11.0386906027
 20
9.8991191826
 30
0.0
 10
11.0365054928
 20
9.9010655349
 30
0.0
 10
11.0351398746
 20
9.9022821125
 30
0.0
 10
11.0340472072
 20
9.9032551285
 30
0.0
 10
11.0332281798
 20
9.9039855645
 30
0.0
 10
11.0325441517
 20
9.9045921169
 30
0.0
 10
11.0320682862
 20
9.9050209116
 30
0.0
 10
11.0317917503
 20
9.9052593667
 30
0.0
 10
11.0315973425
 20
9.9054567172
 30
0.0
 10
11.0313532648
 20
9.9055833163
 30
0.0
 10
11.0310451533
 20
9.9057767939
 30
0.0
 10
11.0304978859
 20
9.9061038815
 30
0.0
 10
11.0297202955
 20
9.9065771609
 30
0.0
 10
11.0287853807
 20
9.9071425231
 30
0.0
 10
11.0275394586
 20
9.9078972382
 30
0.0
 10
11.0259818399
 20
9.9088403242
 30
0.0
 10
11.0234897708
 20
9.9103494339
 30
0.0
 10
11.0203746427
 20
9.9122357616
 30
0.0
 10
11.0166365077
 20
9.9144993822
 30
0.0
 10
11.0128983647
 20
9.9167629884
 30
0.0
 10
11.0097832568
 20
9.9186493522
 30
0.0
 10
11.0072911473
 20
9.9201583896
 30
0.0
 10
11.0057336311
 20
9.9211016596
 30
0.0
 10
11.0044874987
 20
9.921855997
 30
0.0
 10
11.0035532263
 20
9.9224225128
 30
0.0
 10
11.0027736261
 20
9.9228921831
 30
0.0
 10
11.0022299467
 20
9.9232257135
 30
0.0
 10
11.0019160862
 20
9.9234088682
 30
0.0
 10
11.0016896673
 20
9.9235671762
 30
0.0
 10
11.0014289359
 20
9.9236454333
 30
0.0
 10
11.0010932627
 20
9.9237776987
 30
0.0
 10
11.000500258
 20
9.9239961535
 30
0.0
 10
10.999656024
 20
9.9243150334
 30
0.0
 10
10.9986416952
 20
9.924694778
 30
0.0
 10
10.9972896927
 20
9.925202121
 30
0.0
 10
10.9955995403
 20
9.9258359515
 30
0.0
 10
10.99289538
 20
9.9268502751
 30
0.0
 10
10.9895151508
 20
9.9281181122
 30
0.0
 10
10.9854588887
 20
9.9296395477
 30
0.0
 10
10.9814026208
 20
9.9311609673
 30
0.0
 10
10.9780224061
 20
9.9324288442
 30
0.0
 10
10.9753182169
 20
9.9334430882
 30
0.0
 10
10.9736281379
 20
9.934077121
 30
0.0
 10
10.9722759848
 20
9.9345840489
 30
0.0
 10
10.9712621161
 20
9.9349650615
 30
0.0
 10
10.9704164426
 20
9.9352799741
 30
0.0
 10
10.9698260075
 20
9.9355055112
 30
0.0
 10
10.9694862172
 20
9.935626429
 30
0.0
 10
10.969238132
 20
9.9357395424
 30
0.0
 10
10.9689642161
 20
9.9357669361
 30
0.0
 10
10.9686080049
 20
9.9358333609
 30
0.0
 10
10.9679804374
 20
9.9359356735
 30
0.0
 10
10.9670861072
 20
9.9360891176
 30
0.0
 10
10.9660119714
 20
9.9362701331
 30
0.0
 10
10.9645801186
 20
9.9365125759
 30
0.0
 10
10.9627901902
 20
9.9368152566
 30
0.0
 10
10.9599263675
 20
9.937299754
 30
0.0
 10
10.9563465676
 20
9.9379053044
 30
0.0
 10
10.952050817
 20
9.938631995
 30
0.0
 10
10.9484710226
 20
9.9392375655
 30
0.0
 10
10.9456071879
 20
9.9397220189
 30
0.0
 10
10.9434593107
 20
9.9400853708
 30
0.0
 10
10.9413114376
 20
9.940448677
 30
0.0
 10
10.9395215309
 20
9.9407515745
 30
0.0
 10
10.9380896334
 20
9.9409935736
 30
0.0
 10
10.9370156339
 20
9.9411759443
 30
0.0
 10
10.9361208775
 20
9.9413251484
 30
0.0
 10
10.9354940708
 20
9.9414350301
 30
0.0
 10
10.9351366406
 20
9.9414893273
 30
0.0
 10
10.9348664689
 20
9.9415539734
 30
0.0
 10
10.9346043211
 20
9.9415271728
 30
0.0
 10
10.9342519919
 20
9.9415233364
 30
0.0
 10
10.9336367198
 20
9.941501761
 30
0.0
 10
10.9327570778
 20
9.9414787087
 30
0.0
 10
10.9317017993
 20
9.9414477203
 30
0.0
 10
10.9302946593
 20
9.9414075641
 30
0.0
 10
10.9285357693
 20
9.941356971
 30
0.0
 10
10.9257215257
 20
9.9412762445
 30
0.0
 10
10.922203728
 20
9.9411752595
 30
0.0
 10
10.9179823674
 20
9.9410541126
 30
0.0
 10
10.9137610092
 20
9.9409329484
 30
0.0
 10
10.9102432054
 20
9.9408320066
 30
0.0
 10
10.907428974
 20
9.9407511936
 30
0.0
 10
10.905670053
 20
9.9407008204
 30
0.0
 10
10.9042629765
 20
9.9406602129
 30
0.0
 10
10.903207504
 20
9.9406306031
 30
0.0
 10
10.9023284691
 20
9.9406032374
 30
0.0
 10
10.9017121132
 20
9.9405893623
 30
0.0
 10
10.9013615204
 20
9.940573188
 30
0.0
 10
10.9010940389
 20
9.9405842853
 30
0.0
 10
10.9008438999
 20
9.9405065935
 30
0.0
 10
10.9005043319
 20
9.940433975
 30
0.0
 10
10.8999129065
 20
9.940292463
 30
0.0
 10
10.8990665395
 20
9.9400978469
 30
0.0
 10
10.8980515298
 20
9.9398610786
 30
0.0
 10
10.8966979633
 20
9.9395465153
 30
0.0
 10
10.8950060806
 20
9.939152925
 30
0.0
 10
10.892299026
 20
9.9385233965
 30
0.0
 10
10.8889152224
 20
9.9377364113
 30
0.0
 10
10.8848546511
 20
9.936792063
 30
0.0
 10
10.8807940847
 20
9.935847698
 30
0.0
 10
10.8774102688
 20
9.9350607545
 30
0.0
 10
10.8747032389
 20
9.9344311426
 30
0.0
 10
10.8730112935
 20
9.9340377642
 30
0.0
 10
10.8716578556
 20
9.933722766
 30
0.0
 10
10.870642453
 20
9.9334873263
 30
0.0
 10
10.8697973153
 20
9.9332885533
 30
0.0
 10
10.8692036953
 20
9.9331544622
 30
0.0
 10
10.8688676436
 20
9.9330699534
 30
0.0
 10
10.8686067038
 20
9.9330287849
 30
0.0
 10
10.8683797885
 20
9.9329027069
 30
0.0
 10
10.8680653666
 20
9.9327642203
 30
0.0
 10
10.8675206579
 20
9.9325080695
 30
0.0
 10
10.8667396117
 20
9.9321493542
 30
0.0
 10
10.8658035936
 20
9.9317158078
 30
0.0
 10
10.8645551374
 20
9.9311388246
 30
0.0
 10
10.862994715
 20
9.9304172262
 30
0.0
 10
10.8604979566
 20
9.9292628752
 30
0.0
 10
10.8573770368
 20
9.9278198657
 30
0.0
 10
10.8536319212
 20
9.9260882842
 30
0.0
 10
10.8505109934
 20
9.9246452944
 30
0.0
 10
10.8480142526
 20
9.9234909
 30
0.0
 10
10.8461416915
 20
9.9226251149
 30
0.0
 10
10.8442691521
 20
9.9217592884
 30
0.0
 10
10.8427086346
 20
9.9210378957
 30
0.0
 10
10.8414603728
 20
9.9204604915
 30
0.0
 10
10.8405237609
 20
9.9200282308
 30
0.0
 10
10.8397445727
 20
9.919665493
 30
0.0
 10
10.839196547
 20
9.9194165231
 30
0.0
 10
10.8388874398
 20
9.9192665308
 30
0.0
 10
10.8386441995
 20
9.9191757945
 30
0.0
 10
10.8384445737
 20
9.9190018888
 30
0.0
 10
10.8381631928
 20
9.9187990248
 30
0.0
 10
10.8376778643
 20
9.9184304965
 30
0.0
 10
10.8369808322
 20
9.917911094
 30
0.0
 10
10.8361459797
 20
9.9172847863
 30
0.0
 10
10.8350322891
 20
9.916450766
 30
0.0
 10
10.833640366
 20
9.915407878
 30
0.0
 10
10.8319699767
 20
9.9141565678
 30
0.0
 10
10.8302996092
 20
9.9129052161
 30
0.0
 10
10.8280724449
 20
9.9112367616
 30
0.0
 10
10.8252884925
 20
9.9091511882
 30
0.0
 10
10.8225045376
 20
9.9070656181
 30
0.0
 10
10.8202773773
 20
9.9053971585
 30
0.0
 10
10.8186069979
 20
9.9041458221
 30
0.0
 10
10.8169366534
 20
9.9028944541
 30
0.0
 10
10.8155445908
 20
9.9018517462
 30
0.0
 10
10.8144311846
 20
9.9010173586
 30
0.0
 10
10.8135954635
 20
9.9003921724
 30
0.0
 10
10.812901149
 20
9.8998692611
 30
0.0
 10
10.812410969
 20
9.8995069967
 30
0.0
 10
10.8121373615
 20
9.8992940964
 30
0.0
 10
10.8119138582
 20
9.8991510191
 30
0.0
 10
10.8117602978
 20
9.8989444961
 30
0.0
 10
10.8115311537
 20
9.8986912626
 30
0.0
 10
10.8111415185
 20
9.8982377929
 30
0.0
 10
10.810578954
 20
9.8975953698
 30
0.0
 10
10.8099064203
 20
9.8968221547
 30
0.0
 10
10.8090088201
 20
9.8957920072
 30
0.0
 10
10.8078871248
 20
9.8945040462
 30
0.0
 10
10.8065409597
 20
9.8929586117
 30
0.0
 10
10.8051948296
 20
9.8914131454
 30
0.0
 10
10.8033999772
 20
9.8893525348
 30
0.0
 10
10.8011564164
 20
9.8867767674
 30
0.0
 10
10.7989128523
 20
9.8842010027
 30
0.0
 10
10.797118005
 20
9.8821403879
 30
0.0
 10
10.7957718597
 20
9.8805949341
 30
0.0
 10
10.7944257516
 20
9.8790494528
 30
0.0
 10
10.7933038792
 20
9.8777616372
 30
0.0
 10
10.7924066401
 20
9.8767311935
 30
0.0
 10
10.7917330038
 20
9.875958883
 30
0.0
 10
10.7911738889
 20
9.8753136296
 30
0.0
 10
10.7907780956
 20
9.8748652124
 30
0.0
 10
10.7905588183
 20
9.8746038835
 30
0.0
 10
10.7903749501
 20
9.874422227
 30
0.0
 10
10.7902652779
 20
9.8741857551
 30
0.0
 10
10.7900931678
 20
9.8738895794
 30
0.0
 10
10.7898040333
 20
9.8733623636
 30
0.0
 10
10.78938468
 20
9.8726138555
 30
0.0
 10
10.7888841543
 20
9.8717136522
 30
0.0
 10
10.7882158442
 20
9.8705140776
 30
0.0
 10
10.78738078
 20
9.8690143704
 30
0.0
 10
10.7863785644
 20
9.8672148242
 30
0.0
 10
10.7853763857
 20
9.8654152506
 30
0.0
 10
10.7840401348
 20
9.8630158286
 30
0.0
 10
10.7823698239
 20
9.8600165486
 30
0.0
 10
10.780365457
 20
9.8564174101
 30
0.0
 10
10.7786951271
 20
9.8534181397
 30
0.0
 10
10.777358918
 20
9.8510186967
 30
0.0
 10
10.7765236622
 20
9.8495191057
 30
0.0
 10
10.7758557443
 20
9.8483192935
 30
0.0
 10
10.7753540206
 20
9.8474198158
 30
0.0
 10
10.7749384157
 20
9.8466690378
 30
0.0
 10
10.7746425896
 20
9.8461458741
 30
0.0
 10
10.7744812012
 20
9.8458432059
 30
0.0
 10
10.7743385954
 20
9.8456266768
 30
0.0
 10
10.7742784201
 20
9.8453701186
 30
0.0
 10
10.7741694337
 20
9.8450420035
 30
0.0
 10
10.7739921039
 20
9.8444612968
 30
0.0
 10
10.7737317718
 20
9.8436351168
 30
0.0
 10
10.7734223711
 20
9.842642245
 30
0.0
 10
10.7730087899
 20
9.8413189245
 30
0.0
 10
10.7724921718
 20
9.8396645997
 30
0.0
 10
10.7716653824
 20
9.8370177774
 30
0.0
 10
10.7706319644
 20
9.8337092161
 30
0.0
 10
10.7693918339
 20
9.8297389567
 30
0.0
 10
10.7683583967
 20
9.8264304046
 30
0.0
 10
10.7675316497
 20
9.8237835621
 30
0.0
 10
10.7669115782
 20
9.8217984343
 30
0.0
 10
10.7662915503
 20
9.8198132906
 30
0.0
 10
10.7657747242
 20
9.8181590538
 30
0.0
 10
10.7653615685
 20
9.8168355532
 30
0.0
 10
10.7650508679
 20
9.8158432316
 30
0.0
 10
10.764794603
 20
9.8150153302
 30
0.0
 10
10.7646100127
 20
9.8144376965
 30
0.0
 10
10.7645126594
 20
9.8141046576
 30
0.0
 10
10.7644167508
 20
9.8138632238
 30
0.0
 10
10.7644083533
 20
9.8135898901
 30
0.0
 10
10.7643666317
 20
9.8132365721
 30
0.0
 10
10.7643078411
 20
9.8126130815
 30
0.0
 10
10.764216419
 20
9.811725091
 30
0.0
 10
10.7641098951
 20
9.8106583422
 30
0.0
 10
10.7639667516
 20
9.8092364158
 30
0.0
 10
10.7637882036
 20
9.8074588687
 30
0.0
 10
10.7635737825
 20
9.8053258719
 30
0.0
 10
10.7633594051
 20
9.803192859
 30
0.0
 10
10.7630735534
 20
9.8003488475
 30
0.0
 10
10.7627162439
 20
9.7967938311
 30
0.0
 10
10.7622874703
 20
9.7925278123
 30
0.0
 10
10.761715773
 20
9.786839787
 30
0.0
 10
10.7612869998
 20
9.7825737681
 30
0.0
 10
10.7610011511
 20
9.7797297554
 30
0.0
  0
ENDSEC
  0
SECTION
  2
OBJECTS
  0
DICTIONARY
  5
C
100
AcDbDictionary
280
0
281
1
  3
ACAD_GROUP
350
D
  3
ACAD_MLINESTYLE
350
17
  3
ACAD_LAYOUT
350
1A
  3
ACAD_PLOTSETTINGS
350
19
  3
ACAD_PLOTSTYLENAME
350
E
  3
ACAD_IMAGE_DICT
350
       3A8
  3
ACAD_IMAGE_VARS
350
       3A9
  3
ACAD_TABLESTYLE
350
       3AA
  0
IMAGEDEF_REACTOR
  5
3A7
100
AcDbRasterImageDefReactor
 90
2
330
296
  0
DICTIONARY
  5
D
102
{ACAD_REACTORS
330
C
102
}
100
AcDbDictionary
280
0
281
1
  0
ACDBDICTIONARYWDFLT
  5
E
102
{ACAD_REACTORS
330
C
102
}
100
AcDbDictionary
281
1
  3
Normal
350
F
100
AcDbDictionaryWithDefault
340
F
  0
DICTIONARY
  5
3A8
330
C
100
AcDbDictionary
281
1
  3
B7L_assy_2_img_1
350
       3AD
  0
RASTERVARIABLES
  5
3A9
330
C
100
AcDbRasterVariables
 90
0
 70
0
 71
1
 72
5
  0
DICTIONARY
  5
17
102
{ACAD_REACTORS
330
C
102
}
100
AcDbDictionary
280
0
281
1
  3
Standard
350
18
  0
DICTIONARY
  5
3AA
330
C
100
AcDbDictionary
281
1
  3
Standard
350
       3AE
  3
Standard1
350
       3AF
  0
DICTIONARY
  5
19
102
{ACAD_REACTORS
330
C
102
}
100
AcDbDictionary
281
1
  0
DICTIONARY
  5
1A
102
{ACAD_REACTORS
330
C
102
}
100
AcDbDictionary
281
1
  3
Model
350
3AB
  3
Layout1
350
3AC
  0
ACDBPLACEHOLDER
  5
F
102
{ACAD_REACTORS
330
E
102
}
  0
MLINESTYLE
  5
18
102
{ACAD_REACTORS
330
17
102
}
100
AcDbMlineStyle
  2
STANDARD
 70
0
  3

 62
256
 51
90.0
 52
90.0
 71
2
 49
0.5
 62
256
  6
BYLAYER
 49
-0.5
 62
256
  6
BYLAYER
  0
LAYOUT
  5
3AB
102
{ACAD_REACTORS
330
1A
102
}
100
AcDbPlotSettings
  1

  2
none_device
  4
ANSI_C_(22.00_x_17.00_Inches)
  6

 40
0.0
 41
0.0
 42
0.0
 43
0.0
 44
558.8
 45
431.8
 46
0.0
 47
0.0
 48
0.0
 49
0.0
140
0.0
141
0.0
142
1.0
143
1.0
 70
1024
 72
0
 73
0
 74
0
  7

 75
0
147
1.0
148
0.0
149
0.0
100
AcDbLayout
  1
Model
 70
0
 71
0
 10
0.0
 20
0.0
 11
22.0
 21
17.0
 12
0.0
 22
0.0
 32
0.0
 14
0.0
 24
0.0
 34
0.0
 15
0.0
 25
0.0
 35
0.0
146
0.0
 13
0.0
 23
0.0
 33
0.0
 16
1.0
 26
0.0
 36
0.0
 17
0.0
 27
1.0
 37
0.0
 76
0
330
20C
345
0
346
0
  0
LAYOUT
  5
3AC
102
{ACAD_REACTORS
330
1A
102
}
100
AcDbPlotSettings
  1

  2
none_device
  4
ANSI_C_(22.00_x_17.00_Inches)
  6

 40
0.0
 41
0.0
 42
0.0
 43
0.0
 44
558.8
 45
431.8
 46
0.0
 47
0.0
 48
0.0
 49
0.0
140
0.0
141
0.0
142
1.0
143
1.0
 70
0
 72
0
 73
0
 74
0
  7

 75
0
147
1.0
148
0.0
149
0.0
100
AcDbLayout
  1
Layout1
 70
0
 71
1
 10
0.0
 20
0.0
 11
22.0
 21
17.0
 12
0.0
 22
0.0
 32
0.0
 14
0.0
 24
0.0
 34
0.0
 15
0.0
 25
0.0
 35
0.0
146
0.0
 13
0.0
 23
0.0
 33
0.0
 16
1.0
 26
0.0
 36
0.0
 17
0.0
 27
1.0
 37
0.0
 76
0
330
20D
345
0
346
0
  0
IMAGEDEF
  5
3AD
102
{ACAD_REACTORS
330
3A8
330
3A7
102
}
100
AcDbRasterImageDef
 90
0
  1
B7L_assy_2_img_1.png
 10
369.0
 20
92.0
 11
0.0066666667
 21
0.0066666667
280
1
281
0
  0
TABLESTYLE
  5
3AE
102
{ACAD_REACTORS
330
3AA
330
299
330
29A
102
}
330
3AA
100
AcDbTableStyle
  3
Standard
 70
0
 71
0
 40
0.06
 41
0.06
280
1
281
1
  7
Standard
140
0.18
170
1
 62
0
 63
7
283
0
  7
Standard
140
0.18
170
1
 62
0
 63
7
283
0
  7
Standard
140
0.18
170
1
 62
0
 63
7
283
0
  0
TABLESTYLE
  5
3AF
102
{ACAD_REACTORS
330
3AA
330
298
102
}
330
3AA
100
AcDbTableStyle
  3
Standard1
 70
1
 71
0
 40
0.06
 41
0.06
280
1
281
1
  7
Standard
140
0.18
170
1
 62
0
 63
7
283
0
  7
Standard
140
0.18
170
1
 62
0
 63
7
283
0
  7
Standard
140
0.18
170
1
 62
0
 63
7
283
0
  0
ENDSEC
  0
EOF
