999
DXF file: B7J_assy_2.dxf
999
Pro/ENGINEER 2014200 by Parametric Technology Corporation
  0
SECTION
  2
HEADER
  9
$ACADVER
  1
AC1021
  9
$DWGCODEPAGE
  3
ANSI_1252
  9
$EXTMAX
 10
22.0
 20
17.0
 30
0.0
  9
$EXTMIN
 10
0.0
 20
0.0
 30
0.0
  9
$LIMMIN
 10
0.0
 20
0.0
  9
$LIMMAX
 10
22.0
 20
17.0
  9
$VIEWCTR
 10
11.0
 20
8.5
  9
$VIEWSIZE
 40
17.0
  9
$CLAYER
  8
0
  9
$LTSCALE
 40
1.21
  9
$CELTYPE
  6
BYLAYER
  9
$DIMSCALE
 40
1.0
  9
$DIMASZ
 40
0.1875
  9
$DIMEXO
 40
0.0625
  9
$DIMDLI
 40
0.836
  9
$DIMEXE
 40
0.125
  9
$DIMCEN
 40
0.198
  9
$DIMLFAC
 40
1.0
  9
$DIMBLK
  1
_FILLED
  9
$DIMTXT
 40
0.1
  9
$DIMTOL
 70
0
  9
$DIMLIM
 70
0
  9
$DIMTFAC
 40
1.0
  9
$DIMGAP
 40
0.09
  9
$DIMDSEP
 70
46
  9
$AUNITS
 70
0
  9
$PDMODE
 70
3
  9
$PDSIZE
 40
0.3125
  9
$HANDSEED
  5
3AF
  9
$TILEMODE
 70
1
  9
$MEASUREMENT
 70
0
  9
$INSUNITS
 70
1
  0
ENDSEC
  0
SECTION
  2
CLASSES
  0
CLASS
  1
ACDBDICTIONARYWDFLT
  2
AcDbDictionaryWithDefault
  3
AutoCAD 2000
 90
0
 91
1
280
0
281
0
  0
CLASS
  1
ACDBPLACEHOLDER
  2
AcDbPlaceHolder
  3
AutoCAD 2000
 90
0
 91
1
280
0
281
0
  0
CLASS
  1
LAYOUT
  2
AcDbLayout
  3
AutoCAD 2000
 90
0
 91
0
280
0
281
0
  0
CLASS
  1
RASTERVARIABLES
  2
AcDbRasterVariables
  3
ISM
 90
0
 91
1
280
0
281
0
  0
CLASS
  1
IMAGEDEF
  2
AcDbRasterImageDef
  3
ISM
 90
0
 91
1
280
0
281
0
  0
CLASS
  1
IMAGEDEF_REACTOR
  2
AcDbRasterImageDefReactor
  3
ISM
 90
0
 91
1
280
0
281
0
  0
CLASS
  1
IMAGE
  2
AcDbRasterImage
  3
ISM
 90
127
 91
1
280
0
281
1
  0
CLASS
  1
TABLESTYLE
  2
AcDbTableStyle
  3
ObjectDBX Classes
 90
2047
 91
1
280
0
281
0
  0
CLASS
  1
ACAD_TABLE
  2
AcDbTable
  3
ObjectDBX Classes
 90
1025
 91
3
280
0
281
1
  0
ENDSEC
  0
SECTION
  2
TABLES
  0
TABLE
  2
VPORT
  5
8
100
AcDbSymbolTable
 70
2
  0
VPORT
  5
1F4
100
AcDbSymbolTableRecord
100
AcDbViewportTableRecord
  2
*ACTIVE
 70
0
 10
0.0
 20
0.0
 11
1.0
 21
1.0
 12
11.0
 22
8.5
 13
0.0
 23
0.0
 14
1.0
 24
1.0
 15
0.0
 25
0.0
 16
0.0
 26
0.0
 36
1.0
 17
0.0
 27
0.0
 37
0.0
 40
17.0
 41
1.2941176471
 42
50.0
 43
0.0
 44
0.0
 50
0.0
 51
0.0
 71
0
 72
100
 73
1
 74
1
 75
0
 76
0
 77
0
 78
0
  0
ENDTAB
  0
TABLE
  2
LTYPE
  5
5
100
AcDbSymbolTable
 70
6
  0
LTYPE
  5
14
100
AcDbSymbolTableRecord
100
AcDbLinetypeTableRecord
  2
BYBLOCK
 70
0
  3

 72
65
 73
0
 40
0.0
  0
LTYPE
  5
15
100
AcDbSymbolTableRecord
100
AcDbLinetypeTableRecord
  2
BYLAYER
 70
0
  3

 72
65
 73
0
 40
0.0
  0
LTYPE
  5
16
100
AcDbSymbolTableRecord
100
AcDbLinetypeTableRecord
  2
CONTINUOUS
 70
64
  3
Solid line
 72
65
 73
0
 40
0.0
  0
LTYPE
  5
1F5
100
AcDbSymbolTableRecord
100
AcDbLinetypeTableRecord
  2
CENTER
 70
64
  3
____ _ ____ _ ____ _ ____ _ ____ _ ____ _ ____
 72
65
 73
4
 40
0.6
 49
0.375
 74
0
 49
-0.075
 74
0
 49
0.075
 74
0
 49
-0.075
 74
0
  0
LTYPE
  5
1F6
100
AcDbSymbolTableRecord
100
AcDbLinetypeTableRecord
  2
HIDDEN
 70
64
  3
- - - - - - - - - - - - - - - - - - - -
 72
65
 73
2
 40
0.2
 49
0.1
 74
0
 49
-0.1
 74
0
  0
LTYPE
  5
1F7
100
AcDbSymbolTableRecord
100
AcDbLinetypeTableRecord
  2
PHANTOM
 70
64
  3
_____ _ _ _____ _ _ _____ _ _ _____
 72
65
 73
6
 40
0.8
 49
0.45
 74
0
 49
-0.05
 74
0
 49
0.1
 74
0
 49
-0.05
 74
0
 49
0.1
 74
0
 49
-0.05
 74
0
  0
LTYPE
  5
1F8
100
AcDbSymbolTableRecord
100
AcDbLinetypeTableRecord
  2
DOT
 70
64
  3
. . . . . . . . . . . . . . . . . . . .
 72
65
 73
2
 40
0.2
 49
0.1
 74
0
 49
-0.1
 74
0
  0
LTYPE
  5
1F9
100
AcDbSymbolTableRecord
100
AcDbLinetypeTableRecord
  2
DASHED
 70
64
  3
- - - - - - - - - - - - - - - - - - - -
 72
65
 73
2
 40
0.2
 49
0.1
 74
0
 49
-0.1
 74
0
  0
ENDTAB
  0
TABLE
  2
LAYER
  5
2
100
AcDbSymbolTable
 70
36
  0
LAYER
  5
10
100
AcDbSymbolTableRecord
100
AcDbLayerTableRecord
  2
0
 70
0
 62
7
  6
CONTINUOUS
370
-3
390
F
  0
LAYER
  5
1FA
100
AcDbSymbolTableRecord
100
AcDbLayerTableRecord
  2
DEFAULT_1
 70
0
 62
7
  6
CENTER
370
-3
390
F
  0
LAYER
  5
1FB
100
AcDbSymbolTableRecord
100
AcDbLayerTableRecord
  2
DEFAULT_2
 70
0
 62
8
  6
HIDDEN
370
-3
390
F
  0
LAYER
  5
1FC
100
AcDbSymbolTableRecord
100
AcDbLayerTableRecord
  2
DEFAULT_3
 70
0
 62
7
  6
PHANTOM
370
-3
390
F
  0
LAYER
  5
1FD
100
AcDbSymbolTableRecord
100
AcDbLayerTableRecord
  2
01___PRT_ALL_DTM_PLN
 70
0
 62
7
  6
CONTINUOUS
370
-3
390
F
  0
LAYER
  5
1FE
100
AcDbSymbolTableRecord
100
AcDbLayerTableRecord
  2
01___PRT_DEF_DTM_PLN
 70
0
 62
7
  6
CONTINUOUS
370
-3
390
F
  0
LAYER
  5
1FF
100
AcDbSymbolTableRecord
100
AcDbLayerTableRecord
  2
02___PRT_ALL_AXES
 70
0
 62
7
  6
CONTINUOUS
370
-3
390
F
  0
LAYER
  5
200
100
AcDbSymbolTableRecord
100
AcDbLayerTableRecord
  2
03___PRT_ALL_CURVES
 70
0
 62
7
  6
CONTINUOUS
370
-3
390
F
  0
LAYER
  5
201
100
AcDbSymbolTableRecord
100
AcDbLayerTableRecord
  2
04___PRT_ALL_DTM_PNT
 70
0
 62
7
  6
CONTINUOUS
370
-3
390
F
  0
LAYER
  5
202
100
AcDbSymbolTableRecord
100
AcDbLayerTableRecord
  2
05___PRT_ALL_DTM_CSYS
 70
0
 62
7
  6
CONTINUOUS
370
-3
390
F
  0
LAYER
  5
203
100
AcDbSymbolTableRecord
100
AcDbLayerTableRecord
  2
05___PRT_DEF_DTM_CSYS
 70
0
 62
7
  6
CONTINUOUS
370
-3
390
F
  0
LAYER
  5
204
100
AcDbSymbolTableRecord
100
AcDbLayerTableRecord
  2
06___PRT_ALL_SURFS
 70
0
 62
7
  6
CONTINUOUS
370
-3
390
F
  0
LAYER
  5
205
100
AcDbSymbolTableRecord
100
AcDbLayerTableRecord
  2
DATUM_PLANES
 70
0
 62
7
  6
CONTINUOUS
370
-3
390
F
  0
LAYER
  5
206
100
AcDbSymbolTableRecord
100
AcDbLayerTableRecord
  2
PORT_AREAS
 70
0
 62
7
  6
CONTINUOUS
370
-3
390
F
  0
LAYER
  5
207
100
AcDbSymbolTableRecord
100
AcDbLayerTableRecord
  2
SUNNBOMCOSMETIC
 70
0
 62
7
  6
CONTINUOUS
370
-3
390
F
  0
LAYER
  5
208
100
AcDbSymbolTableRecord
100
AcDbLayerTableRecord
  2
SUNNBOMSTAMPING
 70
0
 62
7
  6
CONTINUOUS
370
-3
390
F
  0
LAYER
  5
209
100
AcDbSymbolTableRecord
100
AcDbLayerTableRecord
  2
THREADS
 70
0
 62
7
  6
CONTINUOUS
370
-3
390
F
  0
ENDTAB
  0
TABLE
  2
STYLE
  5
3
100
AcDbSymbolTable
 70
1
  0
STYLE
  5
11
100
AcDbSymbolTableRecord
100
AcDbTextStyleTableRecord
  2
STANDARD
 70
0
 40
0.0
 41
0.8
 50
0.0
 71
0
 42
0.2
  3
txt
  4

  0
STYLE
  5
20A
100
AcDbSymbolTableRecord
100
AcDbTextStyleTableRecord
  2
TEXTSTYLE_1
 70
0
 40
0.0
 41
0.8
 50
0.0
 71
0
 42
0.2
  3
gdt
  4

  0
ENDTAB
  0
TABLE
  2
VIEW
  5
6
100
AcDbSymbolTable
 70
0
  0
ENDTAB
  0
TABLE
  2
UCS
  5
7
100
AcDbSymbolTable
 70
0
  0
ENDTAB
  0
TABLE
  2
APPID
  5
9
100
AcDbSymbolTable
 70
1
  0
APPID
  5
20B
100
AcDbSymbolTableRecord
100
AcDbRegAppTableRecord
  2
ACAD
 70
0
  0
ENDTAB
  0
TABLE
  2
BLOCK_RECORD
  5
1
100
AcDbSymbolTable
 70
0
  0
BLOCK_RECORD
  5
20C
100
AcDbSymbolTableRecord
100
AcDbBlockTableRecord
  2
*Model_Space
  0
BLOCK_RECORD
  5
20D
100
AcDbSymbolTableRecord
100
AcDbBlockTableRecord
  2
*Paper_Space
  0
BLOCK_RECORD
  5
20E
100
AcDbSymbolTableRecord
100
AcDbBlockTableRecord
  2
SUN_FIRST_THIRD_ANGLE_BL0
  0
BLOCK_RECORD
  5
20F
100
AcDbSymbolTableRecord
100
AcDbBlockTableRecord
  2
*T1
  0
BLOCK_RECORD
  5
210
100
AcDbSymbolTableRecord
100
AcDbBlockTableRecord
  2
*T2
  0
BLOCK_RECORD
  5
211
100
AcDbSymbolTableRecord
100
AcDbBlockTableRecord
  2
*T3
  0
ENDTAB
  0
TABLE
  2
DIMSTYLE
  5
A
100
AcDbSymbolTable
 70
1
100
AcDbDimStyleTable
 71
0
  0
DIMSTYLE
105
212
100
AcDbSymbolTableRecord
100
AcDbDimStyleTableRecord
  2
STANDARD
 70
0
  3

  4

 40
1.0
 41
0.1875
 42
0.0625
 43
0.38
 44
0.125
 45
0.0
 46
0.0
 47
0.001
 48
0.001
140
0.1
141
0.09
142
0.0
143
25.4
144
1.0
145
0.0
146
1.0
147
0.09
 71
0.0
 72
0.0
 73
1
 74
1
 75
0
 76
0
 77
0
 78
4
170
0
171
2
172
0
173
0
174
0
175
0
176
0
177
0
178
0
270
2
271
3
272
3
273
2
274
2
275
0
280
0
281
0
282
0
283
1
284
4
285
0
286
0
287
3
288
0
340
11
278
46
  0
ENDTAB
  0
ENDSEC
  0
SECTION
  2
BLOCKS
  0
BLOCK
  5
20
100
AcDbEntity
  8
0
100
AcDbBlockBegin
  2
*Model_Space
 70
0
 10
0.0
 20
0.0
 30
0.0
  3
*Model_Space
  1

  0
ENDBLK
  5
21
100
AcDbEntity
  8
0
100
AcDbBlockEnd
  0
BLOCK
  5
1C
100
AcDbEntity
  8
0
100
AcDbBlockBegin
  2
*Paper_Space
 70
0
 10
0.0
 20
0.0
 30
0.0
  3
*Paper_Space
  1

  0
ENDBLK
  5
1D
100
AcDbEntity
  8
0
100
AcDbBlockEnd
  0
BLOCK
  5
213
100
AcDbEntity
  8
0
100
AcDbBlockBegin
 62
2
  6
CONTINUOUS
  2
SUN_FIRST_THIRD_ANGLE_BL0
 70
64
 10
20.4816717061
 20
1.2289683772
  3
SUN_FIRST_THIRD_ANGLE_BL0
  1

  0
TEXT
  5
214
100
AcDbEntity
  8
0
100
AcDbText
 62
2
  6
CONTINUOUS
 10
19.4750896608
 20
1.4136269581
  7
STANDARD
 40
0.08
  1
FIRST ANGLE
 41
0.8
 72
0
100
AcDbText
  0
TEXT
  5
215
100
AcDbEntity
  8
0
100
AcDbText
 62
2
  6
CONTINUOUS
 10
20.7842537513
 20
1.4047600029
  7
STANDARD
 40
0.08
  1
THIRD ANGLE
 41
0.8
 72
0
100
AcDbText
  0
LINE
  5
216
100
AcDbEntity
  8
0
100
AcDbLine
 62
7
  6
CONTINUOUS
 10
19.4767170086
 20
1.1727031207
 11
19.6334271527
 21
1.1717972817
  0
LINE
  5
217
100
AcDbEntity
  8
0
100
AcDbLine
 62
7
  6
CONTINUOUS
 10
19.6596964832
 20
1.1717972817
 11
19.6950230232
 21
1.171593082
  0
LINE
  5
218
100
AcDbEntity
  8
0
100
AcDbLine
 62
7
  6
CONTINUOUS
 10
19.7194818561
 20
1.1708914427
 11
19.8852396156
 21
1.1699333054
  0
LINE
  5
219
100
AcDbEntity
  8
0
100
AcDbLine
 62
7
  6
CONTINUOUS
 10
19.4758111696
 20
1.2723454088
 11
19.88525039
 21
1.3511534004
  0
LINE
  5
21A
100
AcDbEntity
  8
0
100
AcDbLine
 62
7
  6
CONTINUOUS
 10
19.88525039
 20
1.3511534004
 11
19.8831348489
 21
0.9851647912
  0
LINE
  5
21B
100
AcDbEntity
  8
0
100
AcDbLine
 62
7
  6
CONTINUOUS
 10
19.8831348489
 20
0.9851647912
 11
19.4767170086
 21
1.0658141206
  0
LINE
  5
21C
100
AcDbEntity
  8
0
100
AcDbLine
 62
7
  6
CONTINUOUS
 10
19.4767170086
 20
1.0658141206
 11
19.4779056764
 21
1.2714536432
  0
CIRCLE
  5
21D
100
AcDbEntity
  8
0
100
AcDbCircle
 62
7
  6
CONTINUOUS
 10
20.2068232291
 20
1.1717972817
 40
0.175742101
  0
CIRCLE
  5
21E
100
AcDbEntity
  8
0
100
AcDbCircle
 62
7
  6
CONTINUOUS
 10
20.2068232291
 20
1.1717972817
 40
0.1005522074
  0
LINE
  5
21F
100
AcDbEntity
  8
0
100
AcDbLine
 62
7
  6
CONTINUOUS
 10
20.2077290681
 20
1.3756110529
 11
20.2071171714
 21
1.2379342989
  0
LINE
  5
220
100
AcDbEntity
  8
0
100
AcDbLine
 62
7
  6
CONTINUOUS
 10
20.2077290681
 20
1.2016899681
 11
20.2074674401
 21
1.1428236749
  0
LINE
  5
221
100
AcDbEntity
  8
0
100
AcDbLine
 62
7
  6
CONTINUOUS
 10
20.208634907
 20
1.101141841
 11
20.2080230104
 21
0.963465087
  0
LINE
  5
222
100
AcDbEntity
  8
0
100
AcDbLine
 62
7
  6
CONTINUOUS
 10
20.0066328138
 20
1.1745147986
 11
20.1443095678
 21
1.1739029019
  0
LINE
  5
223
100
AcDbEntity
  8
0
100
AcDbLine
 62
7
  6
CONTINUOUS
 10
20.1832714155
 20
1.1727031207
 11
20.238153505
 21
1.172335442
  0
LINE
  5
224
100
AcDbEntity
  8
0
100
AcDbLine
 62
7
  6
CONTINUOUS
 10
20.2756669918
 20
1.1717972817
 11
20.407916871
 21
1.1712095044
  0
CIRCLE
  5
225
100
AcDbEntity
  8
0
100
AcDbCircle
 62
7
  6
CONTINUOUS
 10
20.7509457401
 20
1.1693297793
 40
0.1722024983
  0
CIRCLE
  5
226
100
AcDbEntity
  8
0
100
AcDbCircle
 62
7
  6
CONTINUOUS
 10
20.7509457401
 20
1.1693297793
 40
0.0985164967
  0
LINE
  5
227
100
AcDbEntity
  8
0
100
AcDbLine
 62
7
  6
CONTINUOUS
 10
20.7169767782
 20
1.170462078
 11
20.7825395137
 21
1.1682766535
  0
LINE
  5
228
100
AcDbEntity
  8
0
100
AcDbLine
 62
7
  6
CONTINUOUS
 10
20.8177513651
 20
1.1693297793
 11
20.947965719
 21
1.1693297793
  0
LINE
  5
229
100
AcDbEntity
  8
0
100
AcDbLine
 62
7
  6
CONTINUOUS
 10
20.6875370113
 20
1.170462078
 11
20.5573226574
 21
1.170462078
  0
LINE
  5
22A
100
AcDbEntity
  8
0
100
AcDbLine
 62
7
  6
CONTINUOUS
 10
20.7486811426
 20
1.1987695462
 11
20.7486811426
 21
1.1432869085
  0
LINE
  5
22B
100
AcDbEntity
  8
0
100
AcDbLine
 62
7
  6
CONTINUOUS
 10
20.7498134414
 20
1.1059210505
 11
20.7498134414
 21
0.9757066966
  0
LINE
  5
22C
100
AcDbEntity
  8
0
100
AcDbLine
 62
7
  6
CONTINUOUS
 10
20.7486811426
 20
1.2338708068
 11
20.7486811426
 21
1.3640851607
  0
LINE
  5
22D
100
AcDbEntity
  8
0
100
AcDbLine
 62
7
  6
CONTINUOUS
 10
21.0702539817
 20
1.2701043662
 11
21.4790138229
 21
1.3448360823
  0
LINE
  5
22E
100
AcDbEntity
  8
0
100
AcDbLine
 62
7
  6
CONTINUOUS
 10
21.4790138229
 20
1.3448360823
 11
21.4790138229
 21
0.9779712941
  0
LINE
  5
22F
100
AcDbEntity
  8
0
100
AcDbLine
 62
7
  6
CONTINUOUS
 10
21.4790138229
 20
0.9779712941
 11
21.069121683
 21
1.0617614
  0
LINE
  5
230
100
AcDbEntity
  8
0
100
AcDbLine
 62
7
  6
CONTINUOUS
 10
21.0702539817
 20
1.2701043662
 11
21.069121683
 21
1.0617614
  0
LINE
  5
231
100
AcDbEntity
  8
0
100
AcDbLine
 62
7
  6
CONTINUOUS
 10
21.4790138229
 20
1.1693297793
 11
21.3159628059
 21
1.1693297793
  0
LINE
  5
232
100
AcDbEntity
  8
0
100
AcDbLine
 62
7
  6
CONTINUOUS
 10
21.2876553377
 20
1.1693297793
 11
21.2502894796
 21
1.1693297793
  0
LINE
  5
233
100
AcDbEntity
  8
0
100
AcDbLine
 62
7
  6
CONTINUOUS
 10
21.2208497126
 20
1.1659328831
 11
21.0713862804
 21
1.1659328831
  0
LINE
  5
234
100
AcDbEntity
  8
0
100
AcDbLine
 62
7
  6
CONTINUOUS
 10
20.4796138713
 20
1.5284908897
 11
20.4766766948
 21
0.9294458646
  0
ENDBLK
  5
235
100
AcDbEntity
  8
0
  6
BYBLOCK
 62
0
100
AcDbBlockEnd
  0
BLOCK
  5
236
100
AcDbEntity
  8
0
100
AcDbBlockBegin
  2
*T1
 70
1
 10
0.0
 20
0.0
  3
*T1
  1

  0
LINE
  5
237
100
AcDbEntity
  8
0
100
AcDbLine
 62
2
  6
CONTINUOUS
 10
9.275
 20
0.0
 11
-0.0
 21
0.0
  0
LINE
  5
238
100
AcDbEntity
  8
0
100
AcDbLine
 62
2
  6
CONTINUOUS
 10
9.275
 20
0.0
 11
9.275
 21
1.25
  0
LINE
  5
239
100
AcDbEntity
  8
0
100
AcDbLine
 62
2
  6
CONTINUOUS
 10
9.275
 20
0.625
 11
-0.0
 21
0.625
  0
LINE
  5
23A
100
AcDbEntity
  8
0
100
AcDbLine
 62
2
  6
CONTINUOUS
 10
9.275
 20
1.25
 11
-0.0
 21
1.25
  0
LINE
  5
23B
100
AcDbEntity
  8
0
100
AcDbLine
 62
2
  6
CONTINUOUS
 10
6.8
 20
0.0
 11
6.8
 21
1.25
  0
LINE
  5
23C
100
AcDbEntity
  8
0
100
AcDbLine
 62
2
  6
CONTINUOUS
 10
6.4
 20
0.0
 11
6.4
 21
0.625
  0
LINE
  5
23D
100
AcDbEntity
  8
0
100
AcDbLine
 62
2
  6
CONTINUOUS
 10
5.9
 20
0.0
 11
5.9
 21
0.625
  0
LINE
  5
23E
100
AcDbEntity
  8
0
100
AcDbLine
 62
2
  6
CONTINUOUS
 10
5.2
 20
0.0
 11
5.2
 21
0.625
  0
LINE
  5
23F
100
AcDbEntity
  8
0
100
AcDbLine
 62
2
  6
CONTINUOUS
 10
4.1
 20
0.0
 11
4.1
 21
1.25
  0
LINE
  5
240
100
AcDbEntity
  8
0
100
AcDbLine
 62
2
  6
CONTINUOUS
 10
-0.0
 20
0.0
 11
-0.0
 21
1.25
  0
MTEXT
  5
241
100
AcDbEntity
  8
0
100
AcDbMText
 62
2
  6
CONTINUOUS
  7
STANDARD
 71
2
 72
1
 10
6.6
 20
0.325
 30
0.0
 11
1.0
 21
0.0
 31
0.0
 44
0.9
  1
2
 40
0.125
 41
0.2
  0
MTEXT
  5
242
100
AcDbEntity
  8
0
100
AcDbMText
 62
2
  6
CONTINUOUS
  7
STANDARD
 71
2
 72
1
 10
6.15
 20
0.325
 30
0.0
 11
1.0
 21
0.0
 31
0.0
 44
0.9
  1
C
 40
0.125
 41
0.2
  0
MTEXT
  5
243
100
AcDbEntity
  8
0
100
AcDbMText
 62
2
  6
CONTINUOUS
  7
STANDARD
 71
2
 72
1
 10
5.55
 20
0.325
 30
0.0
 11
1.0
 21
0.0
 31
0.0
 44
0.9
  1
1.000
 40
0.125
 41
1.0
  0
MTEXT
  5
244
100
AcDbEntity
  8
0
100
AcDbMText
 62
2
  6
CONTINUOUS
  7
STANDARD
 71
2
 72
1
 10
4.65
 20
0.325
 30
0.0
 11
1.0
 21
0.0
 31
0.0
 44
0.9
  1
Apr-13-23
 40
0.125
 41
1.8
  0
MTEXT
  5
245
100
AcDbEntity
  8
0
100
AcDbMText
 62
2
  6
CONTINUOUS
  7
STANDARD
 71
2
 72
1
 10
2.05
 20
0.4625
 30
0.0
 11
1.0
 21
0.0
 31
0.0
 44
0.9
  1
T-2A Line mount\PThrough port 1 with reverse flow check
 40
0.125
 41
7.6
  0
MTEXT
  5
246
100
AcDbEntity
  8
0
100
AcDbMText
 62
2
  6
CONTINUOUS
  7
STANDARD
 71
1
 72
1
 10
6.45
 20
0.5625
 30
0.0
 11
1.0
 21
0.0
 31
0.0
 44
0.9
  1
SHEET
 40
0.06
 41
0.48
  0
MTEXT
  5
247
100
AcDbEntity
  8
0
100
AcDbMText
 62
2
  6
CONTINUOUS
  7
STANDARD
 71
1
 72
1
 10
5.95
 20
0.5625
 30
0.0
 11
1.0
 21
0.0
 31
0.0
 44
0.9
  1
DWG SIZE
 40
0.06
 41
0.768
  0
MTEXT
  5
248
100
AcDbEntity
  8
0
100
AcDbMText
 62
2
  6
CONTINUOUS
  7
STANDARD
 71
1
 72
1
 10
5.25
 20
0.5625
 30
0.0
 11
1.0
 21
0.0
 31
0.0
 44
0.9
  1
SCALE
 40
0.06
 41
0.48
  0
MTEXT
  5
249
100
AcDbEntity
  8
0
100
AcDbMText
 62
2
  6
CONTINUOUS
  7
STANDARD
 71
1
 72
1
 10
4.15
 20
0.5625
 30
0.0
 11
1.0
 21
0.0
 31
0.0
 44
0.9
  1
DATE
 40
0.06
 41
0.384
  0
MTEXT
  5
24A
100
AcDbEntity
  8
0
100
AcDbMText
 62
2
  6
CONTINUOUS
  7
STANDARD
 71
1
 72
1
 10
0.05
 20
0.5625
 30
0.0
 11
1.0
 21
0.0
 31
0.0
 44
0.9
  1
DESCRIPTION
 40
0.06
 41
1.056
  0
MTEXT
  5
24B
100
AcDbEntity
  8
0
100
AcDbMText
 62
2
  6
CONTINUOUS
  7
STANDARD
 71
2
 72
1
 10
5.45
 20
1.0375
 30
0.0
 11
1.0
 21
0.0
 31
0.0
 44
0.9
  1
ALL DIMENSIONS IN INCH\PVIEWS ARE THIRD ANGLE
 40
0.12
 41
4.224
  0
MTEXT
  5
24C
100
AcDbEntity
  8
0
100
AcDbMText
 62
2
  6
CONTINUOUS
  7
STANDARD
 71
2
 72
1
 10
2.05
 20
0.95
 30
0.0
 11
1.0
 21
0.0
 31
0.0
 44
0.9
  1
B7J
 40
0.125
 41
0.6
  0
MTEXT
  5
24D
100
AcDbEntity
  8
0
100
AcDbMText
 62
2
  6
CONTINUOUS
  7
STANDARD
 71
1
 72
1
 10
0.05
 20
1.1875
 30
0.0
 11
1.0
 21
0.0
 31
0.0
 44
0.9
  1
MODEL
 40
0.06
 41
0.48
  0
ENDBLK
  5
24E
100
AcDbEntity
  8
0
  6
BYBLOCK
 62
0
100
AcDbBlockEnd
  0
BLOCK
  5
24F
100
AcDbEntity
  8
0
100
AcDbBlockBegin
  2
*T2
 70
1
 10
0.0
 20
0.0
  3
*T2
  1

  0
LINE
  5
250
100
AcDbEntity
  8
0
100
AcDbLine
 62
2
  6
CONTINUOUS
 10
0.0
 20
0.0
 11
9.055
 21
0.0
  0
LINE
  5
251
100
AcDbEntity
  8
0
100
AcDbLine
 62
2
  6
CONTINUOUS
 10
0.0
 20
0.0
 11
0.0
 21
-3.094
  0
LINE
  5
252
100
AcDbEntity
  8
0
100
AcDbLine
 62
2
  6
CONTINUOUS
 10
0.0
 20
-0.344
 11
9.055
 21
-0.344
  0
LINE
  5
253
100
AcDbEntity
  8
0
100
AcDbLine
 62
2
  6
CONTINUOUS
 10
0.0
 20
-0.594
 11
9.055
 21
-0.594
  0
LINE
  5
254
100
AcDbEntity
  8
0
100
AcDbLine
 62
2
  6
CONTINUOUS
 10
0.0
 20
-0.844
 11
9.055
 21
-0.844
  0
LINE
  5
255
100
AcDbEntity
  8
0
100
AcDbLine
 62
2
  6
CONTINUOUS
 10
0.0
 20
-1.094
 11
9.055
 21
-1.094
  0
LINE
  5
256
100
AcDbEntity
  8
0
100
AcDbLine
 62
2
  6
CONTINUOUS
 10
0.0
 20
-1.344
 11
9.055
 21
-1.344
  0
LINE
  5
257
100
AcDbEntity
  8
0
100
AcDbLine
 62
2
  6
CONTINUOUS
 10
0.0
 20
-1.594
 11
9.055
 21
-1.594
  0
LINE
  5
258
100
AcDbEntity
  8
0
100
AcDbLine
 62
2
  6
CONTINUOUS
 10
0.0
 20
-1.844
 11
9.055
 21
-1.844
  0
LINE
  5
259
100
AcDbEntity
  8
0
100
AcDbLine
 62
2
  6
CONTINUOUS
 10
0.0
 20
-2.094
 11
9.055
 21
-2.094
  0
LINE
  5
25A
100
AcDbEntity
  8
0
100
AcDbLine
 62
2
  6
CONTINUOUS
 10
0.0
 20
-2.344
 11
9.055
 21
-2.344
  0
LINE
  5
25B
100
AcDbEntity
  8
0
100
AcDbLine
 62
2
  6
CONTINUOUS
 10
0.0
 20
-2.594
 11
9.055
 21
-2.594
  0
LINE
  5
25C
100
AcDbEntity
  8
0
100
AcDbLine
 62
2
  6
CONTINUOUS
 10
0.0
 20
-2.844
 11
9.055
 21
-2.844
  0
LINE
  5
25D
100
AcDbEntity
  8
0
100
AcDbLine
 62
2
  6
CONTINUOUS
 10
0.0
 20
-3.094
 11
9.055
 21
-3.094
  0
LINE
  5
25E
100
AcDbEntity
  8
0
100
AcDbLine
 62
2
  6
CONTINUOUS
 10
3.055
 20
0.0
 11
3.055
 21
-3.094
  0
LINE
  5
25F
100
AcDbEntity
  8
0
100
AcDbLine
 62
2
  6
CONTINUOUS
 10
9.055
 20
0.0
 11
9.055
 21
-3.094
  0
MTEXT
  5
260
100
AcDbEntity
  8
0
100
AcDbMText
 62
2
  6
CONTINUOUS
  7
STANDARD
 71
2
 72
1
 10
1.5275
 20
-0.0995
 30
0.0
 11
1.0
 21
0.0
 31
0.0
 44
0.9
  1
Technical Data
 40
0.145
 41
3.248
  0
MTEXT
  5
261
100
AcDbEntity
  8
0
100
AcDbMText
 62
2
  6
CONTINUOUS
  7
STANDARD
 71
2
 72
1
 10
4.555
 20
-0.0995
 30
0.0
 11
1.0
 21
0.0
 31
0.0
 44
0.9
  1
U.S. Units
 40
0.145
 41
2.32
  0
MTEXT
  5
262
100
AcDbEntity
  8
0
100
AcDbMText
 62
2
  6
CONTINUOUS
  7
STANDARD
 71
2
 72
1
 10
7.555
 20
-0.0995
 30
0.0
 11
1.0
 21
0.0
 31
0.0
 44
0.9
  1
Metric Units
 40
0.145
 41
2.784
  0
MTEXT
  5
263
100
AcDbEntity
  8
0
100
AcDbMText
 62
2
  6
CONTINUOUS
  7
STANDARD
 71
2
 72
1
 10
1.5275
 20
-0.4065
 30
0.0
 11
1.0
 21
0.0
 31
0.0
 44
0.9
  1
Cavity
 40
0.125
 41
1.2
  0
MTEXT
  5
264
100
AcDbEntity
  8
0
100
AcDbMText
 62
2
  6
CONTINUOUS
  7
STANDARD
 71
2
 72
1
 10
6.055
 20
-0.4065
 30
0.0
 11
1.0
 21
0.0
 31
0.0
 44
0.9
  1
T-2A
 40
0.125
 41
0.8
  0
MTEXT
  5
265
100
AcDbEntity
  8
0
100
AcDbMText
 62
2
  6
CONTINUOUS
  7
STANDARD
 71
2
 72
1
 10
1.5275
 20
-0.6565
 30
0.0
 11
1.0
 21
0.0
 31
0.0
 44
0.9
  1
Body Features
 40
0.125
 41
2.6
  0
MTEXT
  5
266
100
AcDbEntity
  8
0
100
AcDbMText
 62
2
  6
CONTINUOUS
  7
STANDARD
 71
2
 72
1
 10
6.055
 20
-0.6565
 30
0.0
 11
1.0
 21
0.0
 31
0.0
 44
0.9
  1
Through port 1 with reverse flow check
 40
0.125
 41
7.6
  0
MTEXT
  5
267
100
AcDbEntity
  8
0
100
AcDbMText
 62
2
  6
CONTINUOUS
  7
STANDARD
 71
2
 72
1
 10
1.5275
 20
-0.9065
 30
0.0
 11
1.0
 21
0.0
 31
0.0
 44
0.9
  1
Body Type
 40
0.125
 41
1.8
  0
MTEXT
  5
268
100
AcDbEntity
  8
0
100
AcDbMText
 62
2
  6
CONTINUOUS
  7
STANDARD
 71
2
 72
1
 10
6.055
 20
-0.9065
 30
0.0
 11
1.0
 21
0.0
 31
0.0
 44
0.9
  1
Line mount
 40
0.125
 41
2.0
  0
MTEXT
  5
269
100
AcDbEntity
  8
0
100
AcDbMText
 62
2
  6
CONTINUOUS
  7
STANDARD
 71
2
 72
1
 10
1.5275
 20
-1.1565
 30
0.0
 11
1.0
 21
0.0
 31
0.0
 44
0.9
  1
Interface
 40
0.125
 41
1.8
  0
MTEXT
  5
26A
100
AcDbEntity
  8
0
100
AcDbMText
 62
2
  6
CONTINUOUS
  7
STANDARD
 71
2
 72
1
 10
6.055
 20
-1.1565
 30
0.0
 11
1.0
 21
0.0
 31
0.0
 44
0.9
  1
None
 40
0.125
 41
0.8
  0
MTEXT
  5
26B
100
AcDbEntity
  8
0
100
AcDbMText
 62
2
  6
CONTINUOUS
  7
STANDARD
 71
2
 72
1
 10
1.5275
 20
-1.4065
 30
0.0
 11
1.0
 21
0.0
 31
0.0
 44
0.9
  1
Open Cavity Quantity
 40
0.125
 41
4.0
  0
MTEXT
  5
26C
100
AcDbEntity
  8
0
100
AcDbMText
 62
2
  6
CONTINUOUS
  7
STANDARD
 71
2
 72
1
 10
6.055
 20
-1.4065
 30
0.0
 11
1.0
 21
0.0
 31
0.0
 44
0.9
  1
1
 40
0.125
 41
0.2
  0
MTEXT
  5
26D
100
AcDbEntity
  8
0
100
AcDbMText
 62
2
  6
CONTINUOUS
  7
STANDARD
 71
2
 72
1
 10
1.5275
 20
-1.6565
 30
0.0
 11
1.0
 21
0.0
 31
0.0
 44
0.9
  1
Weight
 40
0.125
 41
1.2
  0
MTEXT
  5
26E
100
AcDbEntity
  8
0
100
AcDbMText
 62
2
  6
CONTINUOUS
  7
STANDARD
 71
2
 72
1
 10
4.555
 20
-1.6565
 30
0.0
 11
1.0
 21
0.0
 31
0.0
 44
0.9
  1
3.096 lb.
 40
0.125
 41
1.8
  0
MTEXT
  5
26F
100
AcDbEntity
  8
0
100
AcDbMText
 62
2
  6
CONTINUOUS
  7
STANDARD
 71
2
 72
1
 10
7.555
 20
-1.6565
 30
0.0
 11
1.0
 21
0.0
 31
0.0
 44
0.9
  1
1,404 kg.
 40
0.125
 41
1.8
  0
MTEXT
  5
270
100
AcDbEntity
  8
0
100
AcDbMText
 62
2
  6
CONTINUOUS
  7
STANDARD
 71
2
 72
1
 10
1.5275
 20
-1.9065
 30
0.0
 11
1.0
 21
0.0
 31
0.0
 44
0.9
  1
Mounting Hole Thread
 40
0.125
 41
4.0
  0
MTEXT
  5
271
100
AcDbEntity
  8
0
100
AcDbMText
 62
2
  6
CONTINUOUS
  7
STANDARD
 71
2
 72
1
 10
4.555
 20
-1.9065
 30
0.0
 11
1.0
 21
0.0
 31
0.0
 44
0.9
  1
.375-16 UNC - 2B in.
 40
0.125
 41
4.0
  0
MTEXT
  5
272
100
AcDbEntity
  8
0
100
AcDbMText
 62
2
  6
CONTINUOUS
  7
STANDARD
 71
2
 72
1
 10
1.5275
 20
-2.1565
 30
0.0
 11
1.0
 21
0.0
 31
0.0
 44
0.9
  1
Mounting Hole Depth
 40
0.125
 41
3.8
  0
MTEXT
  5
273
100
AcDbEntity
  8
0
100
AcDbMText
 62
2
  6
CONTINUOUS
  7
STANDARD
 71
2
 72
1
 10
4.555
 20
-2.1565
 30
0.0
 11
1.0
 21
0.0
 31
0.0
 44
0.9
  1
.62 in.
 40
0.125
 41
1.4
  0
MTEXT
  5
274
100
AcDbEntity
  8
0
100
AcDbMText
 62
2
  6
CONTINUOUS
  7
STANDARD
 71
2
 72
1
 10
7.555
 20
-2.1565
 30
0.0
 11
1.0
 21
0.0
 31
0.0
 44
0.9
  1
15,7 mm
 40
0.125
 41
1.4
  0
MTEXT
  5
275
100
AcDbEntity
  8
0
100
AcDbMText
 62
2
  6
CONTINUOUS
  7
STANDARD
 71
2
 72
1
 10
1.5275
 20
-2.4065
 30
0.0
 11
1.0
 21
0.0
 31
0.0
 44
0.9
  1
Mounting Hole Quantity
 40
0.125
 41
4.4
  0
MTEXT
  5
276
100
AcDbEntity
  8
0
100
AcDbMText
 62
2
  6
CONTINUOUS
  7
STANDARD
 71
2
 72
1
 10
6.055
 20
-2.4065
 30
0.0
 11
1.0
 21
0.0
 31
0.0
 44
0.9
  1
2
 40
0.125
 41
0.2
  0
MTEXT
  5
277
100
AcDbEntity
  8
0
100
AcDbMText
 62
2
  6
CONTINUOUS
  7
STANDARD
 71
2
 72
1
 10
1.5275
 20
-2.6565
 30
0.0
 11
1.0
 21
0.0
 31
0.0
 44
0.9
  1
Includes integral cartridge(s)
 40
0.125
 41
6.0
  0
MTEXT
  5
278
100
AcDbEntity
  8
0
100
AcDbMText
 62
2
  6
CONTINUOUS
  7
STANDARD
 71
2
 72
1
 10
6.055
 20
-2.6565
 30
0.0
 11
1.0
 21
0.0
 31
0.0
 44
0.9
  1
Yes (see Included Components)
 40
0.125
 41
5.8
  0
MTEXT
  5
279
100
AcDbEntity
  8
0
100
AcDbMText
 62
2
  6
CONTINUOUS
  7
STANDARD
 71
2
 72
1
 10
1.5275
 20
-2.9065
 30
0.0
 11
1.0
 21
0.0
 31
0.0
 44
0.9
  1
PDF Drawing
 40
0.125
 41
2.2
  0
MTEXT
  5
27A
100
AcDbEntity
  8
0
100
AcDbMText
 62
2
  6
CONTINUOUS
  7
STANDARD
 71
2
 72
1
 10
6.055
 20
-2.9065
 30
0.0
 11
1.0
 21
0.0
 31
0.0
 44
0.9
  1
PDF Drawing
 40
0.125
 41
2.2
  0
ENDBLK
  5
27B
100
AcDbEntity
  8
0
  6
BYBLOCK
 62
0
100
AcDbBlockEnd
  0
BLOCK
  5
27C
100
AcDbEntity
  8
0
100
AcDbBlockBegin
  2
*T3
 70
1
 10
0.0
 20
0.0
  3
*T3
  1

  0
LINE
  5
27D
100
AcDbEntity
  8
0
100
AcDbLine
 62
2
  6
CONTINUOUS
 10
0.0
 20
0.0
 11
4.6
 21
0.0
  0
LINE
  5
27E
100
AcDbEntity
  8
0
100
AcDbLine
 62
2
  6
CONTINUOUS
 10
0.0
 20
0.0
 11
0.0
 21
-1.68775
  0
LINE
  5
27F
100
AcDbEntity
  8
0
100
AcDbLine
 62
2
  6
CONTINUOUS
 10
0.0
 20
-0.34375
 11
4.6
 21
-0.34375
  0
LINE
  5
280
100
AcDbEntity
  8
0
100
AcDbLine
 62
2
  6
CONTINUOUS
 10
0.0
 20
-0.68775
 11
4.6
 21
-0.68775
  0
LINE
  5
281
100
AcDbEntity
  8
0
100
AcDbLine
 62
2
  6
CONTINUOUS
 10
0.0
 20
-0.93775
 11
4.6
 21
-0.93775
  0
LINE
  5
282
100
AcDbEntity
  8
0
100
AcDbLine
 62
2
  6
CONTINUOUS
 10
0.0
 20
-1.18775
 11
4.6
 21
-1.18775
  0
LINE
  5
283
100
AcDbEntity
  8
0
100
AcDbLine
 62
2
  6
CONTINUOUS
 10
0.0
 20
-1.43775
 11
4.6
 21
-1.43775
  0
LINE
  5
284
100
AcDbEntity
  8
0
100
AcDbLine
 62
2
  6
CONTINUOUS
 10
0.0
 20
-1.68775
 11
4.6
 21
-1.68775
  0
LINE
  5
285
100
AcDbEntity
  8
0
100
AcDbLine
 62
2
  6
CONTINUOUS
 10
1.3
 20
-0.34375
 11
1.3
 21
-1.68775
  0
LINE
  5
286
100
AcDbEntity
  8
0
100
AcDbLine
 62
2
  6
CONTINUOUS
 10
3.3
 20
-0.34375
 11
3.3
 21
-1.68775
  0
LINE
  5
287
100
AcDbEntity
  8
0
100
AcDbLine
 62
2
  6
CONTINUOUS
 10
4.6
 20
0.0
 11
4.6
 21
-1.68775
  0
MTEXT
  5
288
100
AcDbEntity
  8
0
100
AcDbMText
 62
2
  6
CONTINUOUS
  7
STANDARD
 71
2
 72
1
 10
2.3
 20
-0.099375
 30
0.0
 11
1.0
 21
0.0
 31
0.0
 44
0.9
  1
Port Headings
 40
0.145
 41
3.016
  0
MTEXT
  5
289
100
AcDbEntity
  8
0
100
AcDbMText
 62
2
  6
CONTINUOUS
  7
STANDARD
 71
2
 72
1
 10
0.65
 20
-0.44325
 30
0.0
 11
1.0
 21
0.0
 31
0.0
 44
0.9
  1
Product
 40
0.145
 41
1.624
  0
MTEXT
  5
28A
100
AcDbEntity
  8
0
100
AcDbMText
 62
2
  6
CONTINUOUS
  7
STANDARD
 71
2
 72
1
 10
2.3
 20
-0.44325
 30
0.0
 11
1.0
 21
0.0
 31
0.0
 44
0.9
  1
Port
 40
0.145
 41
0.928
  0
MTEXT
  5
28B
100
AcDbEntity
  8
0
100
AcDbMText
 62
2
  6
CONTINUOUS
  7
STANDARD
 71
2
 72
1
 10
3.95
 20
-0.44325
 30
0.0
 11
1.0
 21
0.0
 31
0.0
 44
0.9
  1
Size
 40
0.145
 41
0.928
  0
MTEXT
  5
28C
100
AcDbEntity
  8
0
100
AcDbMText
 62
2
  6
CONTINUOUS
  7
STANDARD
 71
2
 72
1
 10
0.65
 20
-0.75025
 30
0.0
 11
1.0
 21
0.0
 31
0.0
 44
0.9
  1
B7J
 40
0.125
 41
0.6
  0
MTEXT
  5
28D
100
AcDbEntity
  8
0
100
AcDbMText
 62
2
  6
CONTINUOUS
  7
STANDARD
 71
2
 72
1
 10
2.3
 20
-0.75025
 30
0.0
 11
1.0
 21
0.0
 31
0.0
 44
0.9
  1
Ports 1 &  2
 40
0.125
 41
2.4
  0
MTEXT
  5
28E
100
AcDbEntity
  8
0
100
AcDbMText
 62
2
  6
CONTINUOUS
  7
STANDARD
 71
2
 72
1
 10
3.95
 20
-0.75025
 30
0.0
 11
1.0
 21
0.0
 31
0.0
 44
0.9
  1
SAE 8
 40
0.125
 41
1.0
  0
MTEXT
  5
28F
100
AcDbEntity
  8
0
100
AcDbMText
 62
2
  6
CONTINUOUS
  7
STANDARD
 71
2
 72
1
 10
0.65
 20
-1.00025
 30
0.0
 11
1.0
 21
0.0
 31
0.0
 44
0.9
  1
B7J
 40
0.125
 41
0.6
  0
MTEXT
  5
290
100
AcDbEntity
  8
0
100
AcDbMText
 62
2
  6
CONTINUOUS
  7
STANDARD
 71
2
 72
1
 10
2.3
 20
-1.00025
 30
0.0
 11
1.0
 21
0.0
 31
0.0
 44
0.9
  1
Port 3
 40
0.125
 41
1.2
  0
MTEXT
  5
291
100
AcDbEntity
  8
0
100
AcDbMText
 62
2
  6
CONTINUOUS
  7
STANDARD
 71
2
 72
1
 10
3.95
 20
-1.00025
 30
0.0
 11
1.0
 21
0.0
 31
0.0
 44
0.9
  1
SAE 6
 40
0.125
 41
1.0
  0
MTEXT
  5
292
100
AcDbEntity
  8
0
100
AcDbMText
 62
2
  6
CONTINUOUS
  7
STANDARD
 71
2
 72
1
 10
0.65
 20
-1.25025
 30
0.0
 11
1.0
 21
0.0
 31
0.0
 44
0.9
  1
B7J
 40
0.125
 41
0.6
  0
MTEXT
  5
293
100
AcDbEntity
  8
0
100
AcDbMText
 62
2
  6
CONTINUOUS
  7
STANDARD
 71
2
 72
1
 10
2.3
 20
-1.25025
 30
0.0
 11
1.0
 21
0.0
 31
0.0
 44
0.9
  1
Gage Port
 40
0.125
 41
1.8
  0
MTEXT
  5
294
100
AcDbEntity
  8
0
100
AcDbMText
 62
2
  6
CONTINUOUS
  7
STANDARD
 71
2
 72
1
 10
3.95
 20
-1.25025
 30
0.0
 11
1.0
 21
0.0
 31
0.0
 44
0.9
  1
1/4" NPTF
 40
0.125
 41
1.8
  0
MTEXT
  5
295
100
AcDbEntity
  8
0
100
AcDbMText
 62
2
  6
CONTINUOUS
  7
STANDARD
 71
2
 72
1
 10
0.65
 20
-1.50025
 30
0.0
 11
1.0
 21
0.0
 31
0.0
 44
0.9
  1
B7J
 40
0.125
 41
0.6
  0
MTEXT
  5
296
100
AcDbEntity
  8
0
100
AcDbMText
 62
2
  6
CONTINUOUS
  7
STANDARD
 71
2
 72
1
 10
2.3
 20
-1.50025
 30
0.0
 11
1.0
 21
0.0
 31
0.0
 44
0.9
  1
Mounting Holes
 40
0.125
 41
2.8
  0
MTEXT
  5
297
100
AcDbEntity
  8
0
100
AcDbMText
 62
2
  6
CONTINUOUS
  7
STANDARD
 71
2
 72
1
 10
3.95
 20
-1.50025
 30
0.0
 11
1.0
 21
0.0
 31
0.0
 44
0.9
  1
.375 - 16UNC x .62 DP
 40
0.125
 41
4.2
  0
ENDBLK
  5
298
100
AcDbEntity
  8
0
  6
BYBLOCK
 62
0
100
AcDbBlockEnd
  0
ENDSEC
  0
SECTION
  2
ENTITIES
  0
IMAGE
  5
299
100
AcDbEntity
  8
0
100
AcDbRasterImage
 62
7
  6
CONTINUOUS
 10
19.2297077316
 20
0.3094318264
 30
0.0
 11
0.0066666667
 21
0.0
 31
0.0
 12
0.0
 22
0.0066666667
 32
0.0
 13
369.0
 23
92.0
340
       3AC
 70
9
280
0
281
50
282
50
283
0
360
       3A6
 71
1
 91
2
 14
-0.5
 24
-0.5
 14
368.5
 24
91.5
  0
INSERT
  5
29A
100
AcDbEntity
  8
0
100
AcDbBlockReference
 62
2
  6
CONTINUOUS
  2
SUN_FIRST_THIRD_ANGLE_BL0
 10
20.4816717061
 20
1.2289683772
  0
ACAD_TABLE
  5
29B
100
AcDbEntity
  8
0
 62
2
  6
CONTINUOUS
100
AcDbBlockReference
  2
*T1
 10
12.42375
 20
0.30125
 30
0.0
100
AcDbTable
342
       3AE
343
20F
 11
1.0
 21
0.0
 31
0.0
 90
6
 91
4
 92
6
 93
20
 94
0
 95
0
 96
0
 70
1
 41
0.0
141
0.525
141
0.1
141
0.525
141
0.1
142
4.1
142
1.1
142
0.7
142
0.5
142
0.4
142
2.475
171
1
172
0
173
0
174
0
175
1
176
1
 91
33
178
0
145
0.0
301
CELL_VALUE
 90
4
  1
T-2A Line mount\PThrough port 1 with reverse flow check
304
ACVALUE_END
170
2
140
0.125
171
1
172
0
173
0
174
0
175
1
176
1
 91
33
178
0
145
0.0
301
CELL_VALUE
 90
4
  1
Apr-13-23
304
ACVALUE_END
170
5
140
0.125
171
1
172
0
173
0
174
0
175
1
176
1
 91
33
178
0
145
0.0
301
CELL_VALUE
 90
4
  1
1.000
304
ACVALUE_END
170
5
140
0.125
171
1
172
0
173
0
174
0
175
1
176
1
 91
33
178
0
145
0.0
301
CELL_VALUE
 90
4
  1
C
304
ACVALUE_END
170
5
140
0.125
171
1
172
0
173
0
174
0
175
1
176
1
 91
33
178
0
145
0.0
301
CELL_VALUE
 90
4
  1
2
304
ACVALUE_END
170
5
140
0.125
171
1
172
0
173
0
174
0
175
1
176
1
 91
33
178
0
145
0.0
301
CELL_VALUE
 90
4
  1
 
304
ACVALUE_END
170
1
140
0.125
171
1
172
0
173
0
174
0
175
1
176
1
 91
33
178
0
145
0.0
301
CELL_VALUE
 90
4
  1
DESCRIPTION
304
ACVALUE_END
170
1
140
0.06
171
1
172
0
173
0
174
0
175
1
176
1
 91
33
178
0
145
0.0
301
CELL_VALUE
 90
4
  1
DATE
304
ACVALUE_END
170
1
140
0.06
171
1
172
0
173
0
174
0
175
1
176
1
 91
33
178
0
145
0.0
301
CELL_VALUE
 90
4
  1
SCALE
304
ACVALUE_END
170
1
140
0.06
171
1
172
0
173
0
174
0
175
1
176
1
 91
33
178
0
145
0.0
301
CELL_VALUE
 90
4
  1
DWG SIZE
304
ACVALUE_END
170
1
140
0.06
171
1
172
0
173
0
174
0
175
1
176
1
 91
33
178
0
145
0.0
301
CELL_VALUE
 90
4
  1
SHEET
304
ACVALUE_END
170
1
140
0.06
171
1
172
0
173
0
174
0
175
1
176
1
 91
33
178
0
145
0.0
301
CELL_VALUE
 90
4
  1
 
304
ACVALUE_END
170
1
140
0.125
171
1
172
0
173
0
174
0
175
1
176
1
 91
33
178
0
145
0.0
301
CELL_VALUE
 90
4
  1
B7J
304
ACVALUE_END
170
5
140
0.125
171
1
172
0
173
0
174
0
175
4
176
1
 91
33
178
0
145
0.0
301
CELL_VALUE
 90
4
  1
ALL DIMENSIONS IN INCH\PVIEWS ARE THIRD ANGLE
304
ACVALUE_END
170
5
140
0.12
171
1
172
0
173
1
174
0
175
1
176
1
 91
1
178
0
145
0.0
170
1
171
1
172
0
173
1
174
0
175
1
176
1
 91
1
178
0
145
0.0
170
1
171
1
172
0
173
1
174
0
175
1
176
1
 91
1
178
0
145
0.0
170
5
171
1
172
0
173
0
174
0
175
1
176
1
 91
33
178
0
145
0.0
301
CELL_VALUE
 90
4
  1
 
304
ACVALUE_END
170
1
140
0.125
171
1
172
0
173
0
174
0
175
1
176
1
 91
33
178
0
145
0.0
301
CELL_VALUE
 90
4
  1
MODEL
304
ACVALUE_END
170
1
140
0.06
171
1
172
0
173
0
174
0
175
1
176
1
 91
33
178
0
145
0.0
301
CELL_VALUE
 90
4
  1
 
304
ACVALUE_END
170
1
140
0.125
171
1
172
0
173
0
174
0
175
1
176
1
 91
33
178
0
145
0.0
301
CELL_VALUE
 90
4
  1
 
304
ACVALUE_END
170
1
140
0.125
171
1
172
0
173
0
174
0
175
1
176
1
 91
33
178
0
145
0.0
301
CELL_VALUE
 90
4
  1
 
304
ACVALUE_END
170
1
140
0.125
171
1
172
0
173
0
174
0
175
1
176
1
 91
33
178
0
145
0.0
301
CELL_VALUE
 90
4
  1
 
304
ACVALUE_END
170
1
140
0.125
171
1
172
0
173
0
174
0
175
1
176
1
 91
33
178
0
145
0.0
301
CELL_VALUE
 90
4
  1
 
304
ACVALUE_END
170
1
140
0.125
  0
ACAD_TABLE
  5
29C
100
AcDbEntity
  8
0
 62
2
  6
CONTINUOUS
100
AcDbBlockReference
  2
*T2
 10
12.4237499994
 20
16.47875
 30
0.0
100
AcDbTable
342
       3AD
343
210
 11
1.0
 21
0.0
 31
0.0
 90
22
 91
12
 92
3
 93
16
 94
0
 95
0
 96
0
 41
0.028
141
0.344
141
0.25
141
0.25
141
0.25
141
0.25
141
0.25
141
0.25
141
0.25
141
0.25
141
0.25
141
0.25
141
0.25
142
3.055
142
3.0
142
3.0
171
1
172
0
173
0
174
0
175
1
176
1
 91
33
178
0
145
0.0
301
CELL_VALUE
 90
4
  1
Technical Data
304
ACVALUE_END
170
5
140
0.145
171
1
172
0
173
0
174
0
175
1
176
1
 91
33
178
0
145
0.0
301
CELL_VALUE
 90
4
  1
U.S. Units
304
ACVALUE_END
170
5
140
0.145
171
1
172
0
173
0
174
0
175
1
176
1
 91
33
178
0
145
0.0
301
CELL_VALUE
 90
4
  1
Metric Units
304
ACVALUE_END
170
5
140
0.145
171
1
172
0
173
0
174
0
175
1
176
1
 91
33
178
0
145
0.0
301
CELL_VALUE
 90
4
  1
Cavity
304
ACVALUE_END
170
5
140
0.125
171
1
172
0
173
0
174
0
175
2
176
1
 91
33
178
0
145
0.0
301
CELL_VALUE
 90
4
  1
T-2A
304
ACVALUE_END
170
5
140
0.125
171
1
172
0
173
1
174
0
175
1
176
1
 91
1
178
0
145
0.0
170
1
171
1
172
0
173
0
174
0
175
1
176
1
 91
33
178
0
145
0.0
301
CELL_VALUE
 90
4
  1
Body Features
304
ACVALUE_END
170
5
140
0.125
171
1
172
0
173
0
174
0
175
2
176
1
 91
33
178
0
145
0.0
301
CELL_VALUE
 90
4
  1
Through port 1 with reverse flow check
304
ACVALUE_END
170
5
140
0.125
171
1
172
0
173
1
174
0
175
1
176
1
 91
1
178
0
145
0.0
170
1
171
1
172
0
173
0
174
0
175
1
176
1
 91
33
178
0
145
0.0
301
CELL_VALUE
 90
4
  1
Body Type
304
ACVALUE_END
170
5
140
0.125
171
1
172
0
173
0
174
0
175
2
176
1
 91
33
178
0
145
0.0
301
CELL_VALUE
 90
4
  1
Line mount
304
ACVALUE_END
170
5
140
0.125
171
1
172
0
173
1
174
0
175
1
176
1
 91
1
178
0
145
0.0
170
1
171
1
172
0
173
0
174
0
175
1
176
1
 91
33
178
0
145
0.0
301
CELL_VALUE
 90
4
  1
Interface
304
ACVALUE_END
170
5
140
0.125
171
1
172
0
173
0
174
0
175
2
176
1
 91
33
178
0
145
0.0
301
CELL_VALUE
 90
4
  1
None
304
ACVALUE_END
170
5
140
0.125
171
1
172
0
173
1
174
0
175
1
176
1
 91
1
178
0
145
0.0
170
1
171
1
172
0
173
0
174
0
175
1
176
1
 91
33
178
0
145
0.0
301
CELL_VALUE
 90
4
  1
Open Cavity Quantity
304
ACVALUE_END
170
5
140
0.125
171
1
172
0
173
0
174
0
175
2
176
1
 91
33
178
0
145
0.0
301
CELL_VALUE
 90
4
  1
1
304
ACVALUE_END
170
5
140
0.125
171
1
172
0
173
1
174
0
175
1
176
1
 91
1
178
0
145
0.0
170
1
171
1
172
0
173
0
174
0
175
1
176
1
 91
33
178
0
145
0.0
301
CELL_VALUE
 90
4
  1
Weight
304
ACVALUE_END
170
5
140
0.125
171
1
172
0
173
0
174
0
175
1
176
1
 91
33
178
0
145
0.0
301
CELL_VALUE
 90
4
  1
3.096 lb.
304
ACVALUE_END
170
5
140
0.125
171
1
172
0
173
0
174
0
175
1
176
1
 91
33
178
0
145
0.0
301
CELL_VALUE
 90
4
  1
1,404 kg.
304
ACVALUE_END
170
5
140
0.125
171
1
172
0
173
0
174
0
175
1
176
1
 91
33
178
0
145
0.0
301
CELL_VALUE
 90
4
  1
Mounting Hole Thread
304
ACVALUE_END
170
5
140
0.125
171
1
172
0
173
0
174
0
175
1
176
1
 91
33
178
0
145
0.0
301
CELL_VALUE
 90
4
  1
.375-16 UNC - 2B in.
304
ACVALUE_END
170
5
140
0.125
171
1
172
0
173
0
174
0
175
1
176
1
 91
33
178
0
145
0.0
301
CELL_VALUE
 90
4
  1
 
304
ACVALUE_END
170
5
140
0.125
171
1
172
0
173
0
174
0
175
1
176
1
 91
33
178
0
145
0.0
301
CELL_VALUE
 90
4
  1
Mounting Hole Depth
304
ACVALUE_END
170
5
140
0.125
171
1
172
0
173
0
174
0
175
1
176
1
 91
33
178
0
145
0.0
301
CELL_VALUE
 90
4
  1
.62 in.
304
ACVALUE_END
170
5
140
0.125
171
1
172
0
173
0
174
0
175
1
176
1
 91
33
178
0
145
0.0
301
CELL_VALUE
 90
4
  1
15,7 mm
304
ACVALUE_END
170
5
140
0.125
171
1
172
0
173
0
174
0
175
1
176
1
 91
33
178
0
145
0.0
301
CELL_VALUE
 90
4
  1
Mounting Hole Quantity
304
ACVALUE_END
170
5
140
0.125
171
1
172
0
173
0
174
0
175
2
176
1
 91
33
178
0
145
0.0
301
CELL_VALUE
 90
4
  1
2
304
ACVALUE_END
170
5
140
0.125
171
1
172
0
173
1
174
0
175
1
176
1
 91
1
178
0
145
0.0
170
1
171
1
172
0
173
0
174
0
175
1
176
1
 91
33
178
0
145
0.0
301
CELL_VALUE
 90
4
  1
Includes integral cartridge(s)
304
ACVALUE_END
170
5
140
0.125
171
1
172
0
173
0
174
0
175
2
176
1
 91
33
178
0
145
0.0
301
CELL_VALUE
 90
4
  1
Yes (see Included Components)
304
ACVALUE_END
170
5
140
0.125
171
1
172
0
173
1
174
0
175
1
176
1
 91
1
178
0
145
0.0
170
1
171
1
172
0
173
0
174
0
175
1
176
1
 91
33
178
0
145
0.0
301
CELL_VALUE
 90
4
  1
PDF Drawing
304
ACVALUE_END
170
5
140
0.125
171
1
172
0
173
0
174
0
175
2
176
1
 91
33
178
0
145
0.0
301
CELL_VALUE
 90
4
  1
PDF Drawing
304
ACVALUE_END
170
5
140
0.125
171
1
172
0
173
1
174
0
175
1
176
1
 91
1
178
0
145
0.0
170
1
  0
ACAD_TABLE
  5
29D
100
AcDbEntity
  8
0
 62
2
  6
CONTINUOUS
100
AcDbBlockReference
  2
*T3
 10
0.52125
 20
2.209
 30
0.0
100
AcDbTable
342
       3AD
343
211
 11
1.0
 21
0.0
 31
0.0
 90
22
 91
6
 92
3
 93
16
 94
0
 95
0
 96
0
 41
0.05
141
0.34375
141
0.344
141
0.25
141
0.25
141
0.25
141
0.25
142
1.3
142
2.0
142
1.3
171
1
172
0
173
0
174
0
175
3
176
1
 91
33
178
0
145
0.0
301
CELL_VALUE
 90
4
  1
Port Headings
304
ACVALUE_END
170
5
140
0.145
171
1
172
0
173
1
174
0
175
1
176
1
 91
1
178
0
145
0.0
170
1
171
1
172
0
173
1
174
0
175
1
176
1
 91
1
178
0
145
0.0
170
1
171
1
172
0
173
0
174
0
175
1
176
1
 91
33
178
0
145
0.0
301
CELL_VALUE
 90
4
  1
Product
304
ACVALUE_END
170
5
140
0.145
171
1
172
0
173
0
174
0
175
1
176
1
 91
33
178
0
145
0.0
301
CELL_VALUE
 90
4
  1
Port
304
ACVALUE_END
170
5
140
0.145
171
1
172
0
173
0
174
0
175
1
176
1
 91
33
178
0
145
0.0
301
CELL_VALUE
 90
4
  1
Size
304
ACVALUE_END
170
5
140
0.145
171
1
172
0
173
0
174
0
175
1
176
1
 91
33
178
0
145
0.0
301
CELL_VALUE
 90
4
  1
B7J
304
ACVALUE_END
170
5
140
0.125
171
1
172
0
173
0
174
0
175
1
176
1
 91
33
178
0
145
0.0
301
CELL_VALUE
 90
4
  1
Ports 1 &  2
304
ACVALUE_END
170
5
140
0.125
171
1
172
0
173
0
174
0
175
1
176
1
 91
33
178
0
145
0.0
301
CELL_VALUE
 90
4
  1
SAE 8
304
ACVALUE_END
170
5
140
0.125
171
1
172
0
173
0
174
0
175
1
176
1
 91
33
178
0
145
0.0
301
CELL_VALUE
 90
4
  1
B7J
304
ACVALUE_END
170
5
140
0.125
171
1
172
0
173
0
174
0
175
1
176
1
 91
33
178
0
145
0.0
301
CELL_VALUE
 90
4
  1
Port 3
304
ACVALUE_END
170
5
140
0.125
171
1
172
0
173
0
174
0
175
1
176
1
 91
33
178
0
145
0.0
301
CELL_VALUE
 90
4
  1
SAE 6
304
ACVALUE_END
170
5
140
0.125
171
1
172
0
173
0
174
0
175
1
176
1
 91
33
178
0
145
0.0
301
CELL_VALUE
 90
4
  1
B7J
304
ACVALUE_END
170
5
140
0.125
171
1
172
0
173
0
174
0
175
1
176
1
 91
33
178
0
145
0.0
301
CELL_VALUE
 90
4
  1
Gage Port
304
ACVALUE_END
170
5
140
0.125
171
1
172
0
173
0
174
0
175
1
176
1
 91
33
178
0
145
0.0
301
CELL_VALUE
 90
4
  1
1/4" NPTF
304
ACVALUE_END
170
5
140
0.125
171
1
172
0
173
0
174
0
175
1
176
1
 91
33
178
0
145
0.0
301
CELL_VALUE
 90
4
  1
B7J
304
ACVALUE_END
170
5
140
0.125
171
1
172
0
173
0
174
0
175
1
176
1
 91
33
178
0
145
0.0
301
CELL_VALUE
 90
4
  1
Mounting Holes
304
ACVALUE_END
170
5
140
0.125
171
1
172
0
173
0
174
0
175
1
176
1
 91
33
178
0
145
0.0
301
CELL_VALUE
 90
4
  1
.375 - 16UNC x .62 DP
304
ACVALUE_END
170
5
140
0.125
  0
MTEXT
  5
29E
100
AcDbEntity
  8
0
100
AcDbMText
 62
2
  6
CONTINUOUS
  7
STANDARD
 71
1
 72
1
 10
0.52125
 20
5.75995
 30
0.0
 11
1.0
 21
0.0
 31
0.0
 44
0.6
  3
Notes\P \P1. Important: Carefully consider\P   the maximum system pressure. The\P   pressure rating of the manifold is\P   dependent on the manifold material,\P   with the port type/size a secondary\P   consideration. Manifolds\P   constructed of alu
  3
minum are not\P   rated for pressures higher than\P   3000 psi (210 bar), regardless of\P   the port type/size specified.\P2. This drawing is for reference\P   only. It is generated by an\P   automated process and does not fall\P   under Sun's docume
  1
nt control\P   process.
 40
0.1
 41
3.04
  0
LINE
  5
29F
100
AcDbEntity
  8
0
100
AcDbLine
 62
7
  6
CONTINUOUS
 10
0.30125
 20
0.30125
 11
0.30125
 21
16.69875
  0
LINE
  5
2A0
100
AcDbEntity
  8
0
100
AcDbLine
 62
7
  6
CONTINUOUS
 10
0.30125
 20
0.30125
 11
21.69875
 21
0.30125
  0
LINE
  5
2A1
100
AcDbEntity
  8
0
100
AcDbLine
 62
7
  6
CONTINUOUS
 10
0.30125
 20
16.69875
 11
21.69875
 21
16.69875
  0
LINE
  5
2A2
100
AcDbEntity
  8
0
100
AcDbLine
 62
7
  6
CONTINUOUS
 10
21.69875
 20
0.30125
 11
21.69875
 21
16.69875
  0
LINE
  5
2A3
100
AcDbEntity
  8
0
100
AcDbLine
 62
7
  6
CONTINUOUS
 10
9.1952352814
 20
10.3113915045
 11
9.906987068
 21
10.9988909778
  0
LINE
  5
2A4
100
AcDbEntity
  8
0
100
AcDbLine
 62
7
  6
CONTINUOUS
 10
12.093012932
 20
6.2467264078
 11
9.1952352814
 21
6.4476879704
  0
LINE
  5
2A5
100
AcDbEntity
  8
0
100
AcDbLine
 62
7
  6
CONTINUOUS
 10
10.9606797533
 20
6.0930435321
 11
10.9913538314
 21
6.0778911248
  0
LINE
  5
2A6
100
AcDbEntity
  8
0
100
AcDbLine
 62
7
  6
CONTINUOUS
 10
9.1952352814
 20
6.4476879704
 11
9.1952352814
 21
10.3113915045
  0
LINE
  5
2A7
100
AcDbEntity
  8
0
100
AcDbLine
 62
4
  6
CONTINUOUS
 10
9.6144471242
 20
9.3733829037
 11
9.6072026802
 21
9.3642260513
  0
LINE
  5
2A8
100
AcDbEntity
  8
0
100
AcDbLine
 62
4
  6
CONTINUOUS
 10
9.6216915682
 20
9.3149249481
 11
9.6072026802
 21
9.296611239
  0
LINE
  5
2A9
100
AcDbEntity
  8
0
100
AcDbLine
 62
4
  6
CONTINUOUS
 10
9.5637360164
 20
9.3962182505
 11
9.5782249044
 21
9.4048726991
  0
LINE
  5
2AA
100
AcDbEntity
  8
0
100
AcDbLine
 62
4
  6
CONTINUOUS
 10
9.6072026802
 20
9.3642260513
 11
9.5927137923
 21
9.3555715959
  0
LINE
  5
2AB
100
AcDbEntity
  8
0
100
AcDbLine
 62
4
  6
CONTINUOUS
 10
9.6144471242
 20
9.38304216
 11
9.6144471242
 21
9.3733829037
  0
LINE
  5
2AC
100
AcDbEntity
  8
0
100
AcDbLine
 62
4
  6
CONTINUOUS
 10
9.6216915682
 20
9.3245842079
 11
9.6216915682
 21
9.3149249481
  0
LINE
  5
2AD
100
AcDbEntity
  8
0
100
AcDbLine
 62
4
  6
CONTINUOUS
 10
9.6072026802
 20
9.296611239
 11
9.5927137923
 21
9.2879567878
  0
LINE
  5
2AE
100
AcDbEntity
  8
0
100
AcDbLine
 62
4
  6
CONTINUOUS
 10
11.9022425688
 20
7.2857697007
 11
11.8877536809
 21
7.2867745085
  0
LINE
  5
2AF
100
AcDbEntity
  8
0
100
AcDbLine
 62
4
  6
CONTINUOUS
 10
11.8949981249
 20
7.3442276563
 11
11.9239759007
 21
7.3422180407
  0
LINE
  5
2B0
100
AcDbEntity
  8
0
100
AcDbLine
 62
4
  6
CONTINUOUS
 10
11.8877536809
 20
7.4026856119
 11
11.9022425688
 21
7.4016808041
  0
LINE
  5
2B1
100
AcDbEntity
  8
0
100
AcDbLine
 62
7
  6
CONTINUOUS
 10
10.5180539157
 20
7.7228632078
 11
10.531665574
 21
7.7221553367
  0
LINE
  5
2B2
100
AcDbEntity
  8
0
100
AcDbLine
 62
4
  6
CONTINUOUS
 10
10.3398574521
 20
8.0992473827
 11
10.3398574521
 21
7.9833362793
  0
LINE
  5
2B3
100
AcDbEntity
  8
0
100
AcDbLine
 62
4
  6
CONTINUOUS
 10
10.9311420871
 20
9.1905827597
 11
10.8869854745
 21
9.1715667232
  0
LINE
  5
2B4
100
AcDbEntity
  8
0
100
AcDbLine
 62
4
  6
CONTINUOUS
 10
9.5637360164
 20
9.2996256623
 11
9.5564915725
 21
9.3097873251
  0
LINE
  5
2B5
100
AcDbEntity
  8
0
100
AcDbLine
 62
4
  6
CONTINUOUS
 10
9.6072026802
 20
9.3449075318
 11
9.6216915682
 21
9.3245842079
  0
LINE
  5
2B6
100
AcDbEntity
  8
0
100
AcDbLine
 62
4
  6
CONTINUOUS
 10
9.6072026802
 20
9.3932038272
 11
9.6144471242
 21
9.38304216
  0
LINE
  5
2B7
100
AcDbEntity
  8
0
100
AcDbLine
 62
7
  6
CONTINUOUS
 10
12.093012932
 20
10.1104299418
 11
12.8047647186
 21
10.7979294152
  0
LINE
  5
2B8
100
AcDbEntity
  8
0
100
AcDbLine
 62
4
  6
CONTINUOUS
 10
11.306473281
 20
9.4223176709
 11
11.2899145526
 21
9.4069072942
  0
LINE
  5
2B9
100
AcDbEntity
  8
0
100
AcDbLine
 62
4
  6
CONTINUOUS
 10
11.0111759413
 20
9.1298366264
 11
10.9946172128
 21
9.114426248
  0
LINE
  5
2BA
100
AcDbEntity
  8
0
100
AcDbLine
 62
4
  6
CONTINUOUS
 10
11.3147526453
 20
9.3637879438
 11
11.2981939168
 21
9.3483775653
  0
LINE
  5
2BB
100
AcDbEntity
  8
0
100
AcDbLine
 62
4
  6
CONTINUOUS
 10
11.8877536809
 20
7.2867745085
 11
11.873264793
 21
7.2974385752
  0
LINE
  5
2BC
100
AcDbEntity
  8
0
100
AcDbLine
 62
4
  6
CONTINUOUS
 10
10.8189566916
 20
9.8336660932
 11
10.8189566916
 21
9.7757105402
  0
LINE
  5
2BD
100
AcDbEntity
  8
0
100
AcDbLine
 62
4
  6
CONTINUOUS
 10
11.4637812082
 20
9.3368940476
 11
11.4803399435
 21
9.3523044256
  0
LINE
  5
2BE
100
AcDbEntity
  8
0
100
AcDbLine
 62
4
  6
CONTINUOUS
 10
11.4306637838
 20
9.1835386932
 11
11.4472225053
 21
9.1989490704
  0
LINE
  5
2BF
100
AcDbEntity
  8
0
100
AcDbLine
 62
4
  6
CONTINUOUS
 10
11.8501515434
 20
9.1047709294
 11
11.8059949343
 21
9.0857548944
  0
LINE
  5
2C0
100
AcDbEntity
  8
0
100
AcDbLine
 62
4
  6
CONTINUOUS
 10
11.9022425688
 20
7.4016808041
 11
11.9167314568
 21
7.39101674
  0
LINE
  5
2C1
100
AcDbEntity
  8
0
100
AcDbLine
 62
4
  6
CONTINUOUS
 10
9.5782249044
 20
9.2889615956
 11
9.5637360164
 21
9.2996256623
  0
LINE
  5
2C2
100
AcDbEntity
  8
0
100
AcDbLine
 62
7
  6
CONTINUOUS
 10
10.8639357255
 20
6.3319632015
 11
10.8639357255
 21
6.1531623047
  0
LINE
  5
2C3
100
AcDbEntity
  8
0
100
AcDbLine
 62
4
  6
CONTINUOUS
 10
10.8769122446
 20
9.771691309
 11
10.8769122446
 21
9.713735756
  0
LINE
  5
2C4
100
AcDbEntity
  8
0
100
AcDbLine
 62
7
  6
CONTINUOUS
 10
10.8783837737
 20
6.330961226
 11
10.8783837737
 21
6.1392065857
  0
LINE
  5
2C5
100
AcDbEntity
  8
0
100
AcDbLine
 62
4
  6
CONTINUOUS
 10
10.9058900211
 20
9.7117261403
 11
10.9058900211
 21
9.8276372464
  0
LINE
  5
2C6
100
AcDbEntity
  8
0
100
AcDbLine
 62
4
  6
CONTINUOUS
 10
10.9532203952
 20
9.117297127
 11
10.9532203952
 21
9.2332082331
  0
LINE
  5
2C7
100
AcDbEntity
  8
0
100
AcDbLine
 62
4
  6
CONTINUOUS
 10
10.9638455741
 20
9.8236180151
 11
10.9638455741
 21
9.7077069091
  0
LINE
  5
2C8
100
AcDbEntity
  8
0
100
AcDbLine
 62
4
  6
CONTINUOUS
 10
10.9928233506
 20
9.8216083995
 11
10.9928233506
 21
9.7056972935
  0
LINE
  5
2C9
100
AcDbEntity
  8
0
100
AcDbLine
 62
4
  6
CONTINUOUS
 10
11.0111759413
 20
9.2126302738
 11
11.0111759413
 21
9.1298366264
  0
LINE
  5
2CA
100
AcDbEntity
  8
0
100
AcDbLine
 62
4
  6
CONTINUOUS
 10
11.058092342
 20
9.1100242328
 11
11.0912097989
 21
9.2236386354
  0
LINE
  5
2CB
100
AcDbEntity
  8
0
100
AcDbLine
 62
4
  6
CONTINUOUS
 10
11.5272563353
 20
9.176839977
 11
11.5438150568
 21
9.1922503542
  0
LINE
  5
2CC
100
AcDbEntity
  8
0
100
AcDbLine
 62
4
  6
CONTINUOUS
 10
11.5852118883
 20
9.0900270983
 11
11.5686531668
 21
9.0746167194
  0
LINE
  5
2CD
100
AcDbEntity
  8
0
100
AcDbLine
 62
4
  6
CONTINUOUS
 10
9.5927137923
 20
9.3555715959
 11
9.6072026802
 21
9.3449075318
  0
LINE
  5
2CE
100
AcDbEntity
  8
0
100
AcDbLine
 62
4
  6
CONTINUOUS
 10
9.5927137923
 20
9.4038678913
 11
9.6072026802
 21
9.3932038272
  0
LINE
  5
2CF
100
AcDbEntity
  8
0
100
AcDbLine
 62
4
  6
CONTINUOUS
 10
11.873264793
 20
7.2974385752
 11
11.858775905
 21
7.3177618999
  0
LINE
  5
2D0
100
AcDbEntity
  8
0
100
AcDbLine
 62
4
  6
CONTINUOUS
 10
11.0507789036
 20
9.8175891682
 11
11.0507789036
 21
9.7016780622
  0
LINE
  5
2D1
100
AcDbEntity
  8
0
100
AcDbLine
 62
4
  6
CONTINUOUS
 10
11.1666900097
 20
9.6936395997
 11
11.1666900097
 21
9.8095507057
  0
LINE
  5
2D2
100
AcDbEntity
  8
0
100
AcDbLine
 62
4
  6
CONTINUOUS
 10
11.1905621834
 20
9.1008374181
 11
11.1905621834
 21
9.2167485241
  0
LINE
  5
2D3
100
AcDbEntity
  8
0
100
AcDbLine
 62
4
  6
CONTINUOUS
 10
11.2246455627
 20
9.6896203685
 11
11.2246455627
 21
9.7475759215
  0
LINE
  5
2D4
100
AcDbEntity
  8
0
100
AcDbLine
 62
4
  6
CONTINUOUS
 10
11.4058256552
 20
9.4568243849
 11
11.3727081983
 21
9.3432099823
  0
LINE
  5
2D5
100
AcDbEntity
  8
0
100
AcDbLine
 62
4
  6
CONTINUOUS
 10
11.6762848844
 20
9.0837111646
 11
11.6597261629
 21
9.0683007856
  0
LINE
  5
2D6
100
AcDbEntity
  8
0
100
AcDbLine
 62
4
  6
CONTINUOUS
 10
11.858775905
 20
8.8439247964
 11
11.873264793
 21
8.852579245
  0
LINE
  5
2D7
100
AcDbEntity
  8
0
100
AcDbLine
 62
4
  6
CONTINUOUS
 10
11.9022425688
 20
8.802273334
 11
11.873264793
 21
8.7849644335
  0
LINE
  5
2D8
100
AcDbEntity
  8
0
100
AcDbLine
 62
4
  6
CONTINUOUS
 10
11.9167314568
 20
7.39101674
 11
11.9239759007
 21
7.3808550729
  0
LINE
  5
2D9
100
AcDbEntity
  8
0
100
AcDbLine
 62
4
  6
CONTINUOUS
 10
11.2567970971
 20
9.0962440112
 11
11.2567970971
 21
9.2121551173
  0
LINE
  5
2DA
100
AcDbEntity
  8
0
100
AcDbLine
 62
4
  6
CONTINUOUS
 10
11.2567970922
 20
9.3512484448
 11
11.2567970922
 21
9.4671595509
  0
LINE
  5
2DB
100
AcDbEntity
  8
0
100
AcDbLine
 62
4
  6
CONTINUOUS
 10
11.271975931
 20
9.6863379963
 11
11.271975931
 21
9.7442935493
  0
LINE
  5
2DC
100
AcDbEntity
  8
0
100
AcDbLine
 62
7
  6
CONTINUOUS
 10
11.2920704918
 20
6.3022719546
 11
11.2920704918
 21
6.0321367201
  0
LINE
  5
2DD
100
AcDbEntity
  8
0
100
AcDbLine
 62
4
  6
CONTINUOUS
 10
11.306473281
 20
9.447155767
 11
11.306473281
 21
9.4223176709
  0
LINE
  5
2DE
100
AcDbEntity
  8
0
100
AcDbLine
 62
4
  6
CONTINUOUS
 10
11.3147526453
 20
9.3886260382
 11
11.3147526453
 21
9.3637879438
  0
LINE
  5
2DF
100
AcDbEntity
  8
0
100
AcDbLine
 62
4
  6
CONTINUOUS
 10
11.329931484
 20
9.740274318
 11
11.329931484
 21
9.624363212
  0
LINE
  5
2E0
100
AcDbEntity
  8
0
100
AcDbLine
 62
7
  6
CONTINUOUS
 10
11.3459913004
 20
6.2985325339
 11
11.3459913004
 21
6.0283972993
  0
LINE
  5
2E1
100
AcDbEntity
  8
0
100
AcDbLine
 62
4
  6
CONTINUOUS
 10
11.3478701021
 20
9.43600552
 11
11.3478701021
 21
9.4608436162
  0
LINE
  5
2E2
100
AcDbEntity
  8
0
100
AcDbLine
 62
4
  6
CONTINUOUS
 10
11.3685685193
 20
9.6796392775
 11
11.3685685193
 21
9.7375948305
  0
LINE
  5
2E3
100
AcDbEntity
  8
0
100
AcDbLine
 62
4
  6
CONTINUOUS
 10
11.4265240723
 20
9.7915311523
 11
11.4265240723
 21
9.6756200463
  0
LINE
  5
2E4
100
AcDbEntity
  8
0
100
AcDbLine
 62
4
  6
CONTINUOUS
 10
11.4306637838
 20
9.1007450457
 11
11.4306637838
 21
9.1835386932
  0
LINE
  5
2E5
100
AcDbEntity
  8
0
100
AcDbLine
 62
4
  6
CONTINUOUS
 10
11.8515314611
 20
8.7381753532
 11
11.9094870128
 21
8.7341561221
  0
LINE
  5
2E6
100
AcDbEntity
  8
0
100
AcDbLine
 62
4
  6
CONTINUOUS
 10
11.873264793
 20
8.852579245
 11
11.8877536809
 21
8.8515744372
  0
LINE
  5
2E7
100
AcDbEntity
  8
0
100
AcDbLine
 62
4
  6
CONTINUOUS
 10
11.0912097989
 20
9.2236386354
 11
11.1243272696
 21
9.105430825
  0
LINE
  5
2E8
100
AcDbEntity
  8
0
100
AcDbLine
 62
4
  6
CONTINUOUS
 10
11.4651611077
 20
9.7308961118
 11
11.4651611077
 21
9.6729405588
  0
LINE
  5
2E9
100
AcDbEntity
  8
0
100
AcDbLine
 62
4
  6
CONTINUOUS
 10
11.4803399435
 20
9.3523044256
 11
11.4803399435
 21
9.4516568015
  0
LINE
  5
2EA
100
AcDbEntity
  8
0
100
AcDbLine
 62
4
  6
CONTINUOUS
 10
11.5272563353
 20
9.0940463295
 11
11.5272563353
 21
9.176839977
  0
LINE
  5
2EB
100
AcDbEntity
  8
0
100
AcDbLine
 62
4
  6
CONTINUOUS
 10
11.561753696
 20
9.66624184
 11
11.561753696
 21
9.7048788753
  0
LINE
  5
2EC
100
AcDbEntity
  8
0
100
AcDbLine
 62
4
  6
CONTINUOUS
 10
11.5852118883
 20
9.1728207457
 11
11.5852118883
 21
9.0900270983
  0
LINE
  5
2ED
100
AcDbEntity
  8
0
100
AcDbLine
 62
4
  6
CONTINUOUS
 10
11.6183293314
 20
9.0711716656
 11
11.6183293314
 21
9.1870827717
  0
LINE
  5
2EE
100
AcDbEntity
  8
0
100
AcDbLine
 62
4
  6
CONTINUOUS
 10
11.619709249
 20
9.7201781618
 11
11.619709249
 21
9.6622226087
  0
LINE
  5
2EF
100
AcDbEntity
  8
0
100
AcDbLine
 62
4
  6
CONTINUOUS
 10
11.8515314611
 20
8.8347679371
 11
11.858775905
 21
8.8439247964
  0
LINE
  5
2F0
100
AcDbEntity
  8
0
100
AcDbLine
 62
4
  6
CONTINUOUS
 10
11.873264793
 20
8.7849644335
 11
11.858775905
 21
8.7666507252
  0
LINE
  5
2F1
100
AcDbEntity
  8
0
100
AcDbLine
 62
4
  6
CONTINUOUS
 10
11.9094870128
 20
8.8114301933
 11
11.9022425688
 21
8.802273334
  0
LINE
  5
2F2
100
AcDbEntity
  8
0
100
AcDbLine
 62
4
  6
CONTINUOUS
 10
11.6597261629
 20
9.0683007856
 11
11.6183293314
 21
9.0711716656
  0
LINE
  5
2F3
100
AcDbEntity
  8
0
100
AcDbLine
 62
4
  6
CONTINUOUS
 10
11.5686531668
 20
9.0746167194
 11
11.5438150568
 21
9.0763392481
  0
LINE
  5
2F4
100
AcDbEntity
  8
0
100
AcDbLine
 62
4
  6
CONTINUOUS
 10
11.4803399484
 20
9.0807412619
 11
11.4472225053
 21
9.0830379643
  0
LINE
  5
2F5
100
AcDbEntity
  8
0
100
AcDbLine
 62
4
  6
CONTINUOUS
 10
10.9946172128
 20
9.114426248
 11
10.9532203952
 21
9.117297127
  0
LINE
  5
2F6
100
AcDbEntity
  8
0
100
AcDbLine
 62
4
  6
CONTINUOUS
 10
11.2567970971
 20
9.0962440112
 11
11.3064732894
 21
9.0927989556
  0
LINE
  5
2F7
100
AcDbEntity
  8
0
100
AcDbLine
 62
4
  6
CONTINUOUS
 10
11.7232013266
 20
9.0638987681
 11
11.7728774912
 21
9.0604537144
  0
LINE
  5
2F8
100
AcDbEntity
  8
0
100
AcDbLine
 62
4
  6
CONTINUOUS
 10
10.8869854745
 20
9.1715667232
 11
10.9311420871
 21
9.1464261454
  0
LINE
  5
2F9
100
AcDbEntity
  8
0
100
AcDbLine
 62
4
  6
CONTINUOUS
 10
10.9946172128
 20
9.230337354
 11
11.0111759413
 21
9.2126302738
  0
LINE
  5
2FA
100
AcDbEntity
  8
0
100
AcDbLine
 62
4
  6
CONTINUOUS
 10
11.858775905
 20
7.3177618999
 11
11.8515314611
 21
7.3472420797
  0
LINE
  5
2FB
100
AcDbEntity
  8
0
100
AcDbLine
 62
4
  6
CONTINUOUS
 10
11.6583462844
 20
9.7174986743
 11
11.6583462844
 21
9.6595431212
  0
LINE
  5
2FC
100
AcDbEntity
  8
0
100
AcDbLine
 62
4
  6
CONTINUOUS
 10
11.6762848844
 20
9.166504812
 11
11.6762848844
 21
9.0837111646
  0
LINE
  5
2FD
100
AcDbEntity
  8
0
100
AcDbLine
 62
4
  6
CONTINUOUS
 10
11.7163018374
 20
9.65552389
 11
11.7163018374
 21
9.713479443
  0
LINE
  5
2FE
100
AcDbEntity
  8
0
100
AcDbLine
 62
4
  6
CONTINUOUS
 10
11.7232013266
 20
9.0638987681
 11
11.7232013266
 21
9.1798098741
  0
LINE
  5
2FF
100
AcDbEntity
  8
0
100
AcDbLine
 62
4
  6
CONTINUOUS
 10
11.7549388727
 20
9.6528444025
 11
11.7549388727
 21
9.7687555085
  0
LINE
  5
300
100
AcDbEntity
  8
0
100
AcDbLine
 62
4
  6
CONTINUOUS
 10
11.7935759081
 20
9.650164915
 11
11.7935759081
 21
9.708120468
  0
LINE
  5
301
100
AcDbEntity
  8
0
100
AcDbLine
 62
4
  6
CONTINUOUS
 10
11.8322129434
 20
9.7054409805
 11
11.8322129434
 21
9.6474854275
  0
LINE
  5
302
100
AcDbEntity
  8
0
100
AcDbLine
 62
4
  6
CONTINUOUS
 10
11.858775905
 20
8.7666507252
 11
11.8515314611
 21
8.7381753532
  0
LINE
  5
303
100
AcDbEntity
  8
0
100
AcDbLine
 62
4
  6
CONTINUOUS
 10
11.0691314943
 20
9.1423761254
 11
11.1132881035
 21
9.1393138541
  0
LINE
  5
304
100
AcDbEntity
  8
0
100
AcDbLine
 62
4
  6
CONTINUOUS
 10
11.7563187696
 20
9.1278369863
 11
11.7232013266
 21
9.1301336888
  0
LINE
  5
305
100
AcDbEntity
  8
0
100
AcDbLine
 62
4
  6
CONTINUOUS
 10
11.2899145678
 20
9.1601822275
 11
11.2567970971
 21
9.1624789319
  0
LINE
  5
306
100
AcDbEntity
  8
0
100
AcDbLine
 62
4
  6
CONTINUOUS
 10
9.5927137923
 20
9.2879567878
 11
9.5782249044
 21
9.2889615956
  0
LINE
  5
307
100
AcDbEntity
  8
0
100
AcDbLine
 62
4
  6
CONTINUOUS
 10
10.9532203952
 20
9.2332082331
 11
10.9946172128
 21
9.230337354
  0
LINE
  5
308
100
AcDbEntity
  8
0
100
AcDbLine
 62
4
  6
CONTINUOUS
 10
11.1574447127
 20
9.2190452285
 11
11.2236796264
 21
9.2144518217
  0
LINE
  5
309
100
AcDbEntity
  8
0
100
AcDbLine
 62
4
  6
CONTINUOUS
 10
11.2567970971
 20
9.2121551173
 11
11.3064732894
 21
9.2087100616
  0
LINE
  5
30A
100
AcDbEntity
  8
0
100
AcDbLine
 62
4
  6
CONTINUOUS
 10
11.4472225053
 20
9.1989490704
 11
11.4803399484
 21
9.1966523679
  0
LINE
  5
30B
100
AcDbEntity
  8
0
100
AcDbLine
 62
4
  6
CONTINUOUS
 10
11.5438150568
 20
9.1922503542
 11
11.5686531668
 21
9.1905278254
  0
LINE
  5
30C
100
AcDbEntity
  8
0
100
AcDbLine
 62
4
  6
CONTINUOUS
 10
11.6183293314
 20
9.1870827717
 11
11.6597261629
 21
9.1842118917
  0
LINE
  5
30D
100
AcDbEntity
  8
0
100
AcDbLine
 62
4
  6
CONTINUOUS
 10
11.7232013266
 20
9.1798098741
 11
11.7728774912
 21
9.1763648204
  0
LINE
  5
30E
100
AcDbEntity
  8
0
100
AcDbLine
 62
4
  6
CONTINUOUS
 10
9.5782249044
 20
9.3565764037
 11
9.5927137923
 21
9.3555715959
  0
LINE
  5
30F
100
AcDbEntity
  8
0
100
AcDbLine
 62
4
  6
CONTINUOUS
 10
9.5782249044
 20
9.4048726991
 11
9.5927137923
 21
9.4038678913
  0
LINE
  5
310
100
AcDbEntity
  8
0
100
AcDbLine
 62
4
  6
CONTINUOUS
 10
11.8877536809
 20
8.8515744372
 11
11.9022425688
 21
8.8409103731
  0
LINE
  5
311
100
AcDbEntity
  8
0
100
AcDbLine
 62
4
  6
CONTINUOUS
 10
11.4472225053
 20
9.0830379643
 11
11.4306637838
 21
9.1007450457
  0
LINE
  5
312
100
AcDbEntity
  8
0
100
AcDbLine
 62
4
  6
CONTINUOUS
 10
11.5438150568
 20
9.0763392481
 11
11.5272563353
 21
9.0940463295
  0
LINE
  5
313
100
AcDbEntity
  8
0
100
AcDbLine
 62
4
  6
CONTINUOUS
 10
11.2981939168
 20
9.4063331183
 11
11.3147526453
 21
9.3886260382
  0
LINE
  5
314
100
AcDbEntity
  8
0
100
AcDbLine
 62
4
  6
CONTINUOUS
 10
11.9094870128
 20
8.830748706
 11
11.9094870128
 21
8.8114301933
  0
LINE
  5
315
100
AcDbEntity
  8
0
100
AcDbLine
 62
7
  6
CONTINUOUS
 10
11.911097708
 20
6.2593422714
 11
11.911097708
 21
6.0675876311
  0
LINE
  5
316
100
AcDbEntity
  8
0
100
AcDbLine
 62
4
  6
CONTINUOUS
 10
11.9239759007
 20
7.3422180407
 11
11.9239759007
 21
7.3035810068
  0
LINE
  5
317
100
AcDbEntity
  8
0
100
AcDbLine
 62
4
  6
CONTINUOUS
 10
11.9288055318
 20
9.6987422617
 11
11.9288055318
 21
9.6697644852
  0
LINE
  5
318
100
AcDbEntity
  8
0
100
AcDbLine
 62
7
  6
CONTINUOUS
 10
11.9505704684
 20
6.2566048261
 11
11.9505704684
 21
6.0778039294
  0
LINE
  5
319
100
AcDbEntity
  8
0
100
AcDbLine
 62
4
  6
CONTINUOUS
 10
11.9867610848
 20
9.665745254
 11
11.9867610848
 21
9.6367674775
  0
LINE
  5
31A
100
AcDbEntity
  8
0
100
AcDbLine
 62
4
  6
CONTINUOUS
 10
11.2981939168
 20
9.3483775653
 11
11.2567970922
 21
9.3512484448
  0
LINE
  5
31B
100
AcDbEntity
  8
0
100
AcDbLine
 62
4
  6
CONTINUOUS
 10
11.438943112
 20
9.3386165755
 11
11.4637812082
 21
9.3368940476
  0
LINE
  5
31C
100
AcDbEntity
  8
0
100
AcDbLine
 62
4
  6
CONTINUOUS
 10
11.2567970922
 20
9.4092039978
 11
11.2981939168
 21
9.4063331183
  0
LINE
  5
31D
100
AcDbEntity
  8
0
100
AcDbLine
 62
4
  6
CONTINUOUS
 10
11.2567970922
 20
9.4671595509
 11
11.2816351866
 21
9.4654370232
  0
LINE
  5
31E
100
AcDbEntity
  8
0
100
AcDbLine
 62
4
  6
CONTINUOUS
 10
11.3478701021
 20
9.4608436162
 11
11.4058256552
 21
9.4568243849
  0
LINE
  5
31F
100
AcDbEntity
  8
0
100
AcDbLine
 62
4
  6
CONTINUOUS
 10
11.2816351866
 20
9.4654370232
 11
11.2899145526
 21
9.4621030557
  0
LINE
  5
320
100
AcDbEntity
  8
0
100
AcDbLine
 62
4
  6
CONTINUOUS
 10
11.8059949343
 20
9.1299115087
 11
11.8501515434
 21
9.1047709294
  0
LINE
  5
321
100
AcDbEntity
  8
0
100
AcDbLine
 62
4
  6
CONTINUOUS
 10
11.2899145526
 20
9.4621030557
 11
11.306473281
 21
9.447155767
  0
LINE
  5
322
100
AcDbEntity
  8
0
100
AcDbLine
 62
4
  6
CONTINUOUS
 10
11.5686531668
 20
9.1905278254
 11
11.5852118883
 21
9.1728207457
  0
LINE
  5
323
100
AcDbEntity
  8
0
100
AcDbLine
 62
4
  6
CONTINUOUS
 10
11.6597261629
 20
9.1842118917
 11
11.6762848844
 21
9.166504812
  0
LINE
  5
324
100
AcDbEntity
  8
0
100
AcDbLine
 62
4
  6
CONTINUOUS
 10
11.9022425688
 20
8.8409103731
 11
11.9094870128
 21
8.830748706
  0
LINE
  5
325
100
AcDbEntity
  8
0
100
AcDbLine
 62
7
  6
CONTINUOUS
 10
12.093012932
 20
10.1104299418
 11
12.093012932
 21
6.2467264078
  0
LINE
  5
326
100
AcDbEntity
  8
0
100
AcDbLine
 62
7
  6
CONTINUOUS
 10
12.101990158
 20
6.2553977428
 11
12.101990158
 21
6.2240641268
  0
LINE
  5
327
100
AcDbEntity
  8
0
100
AcDbLine
 62
4
  6
CONTINUOUS
 10
11.8515314611
 20
7.3472420797
 11
11.858775905
 21
7.3757174516
  0
LINE
  5
328
100
AcDbEntity
  8
0
100
AcDbLine
 62
4
  6
CONTINUOUS
 10
11.329931484
 20
9.624363212
 11
11.2912944486
 21
9.6270426995
  0
LINE
  5
329
100
AcDbEntity
  8
0
100
AcDbLine
 62
4
  6
CONTINUOUS
 10
11.9867610848
 20
9.6367674775
 11
11.9288055318
 21
9.6407867087
  0
LINE
  5
32A
100
AcDbEntity
  8
0
100
AcDbLine
 62
4
  6
CONTINUOUS
 10
11.619709249
 20
9.6622226087
 11
11.561753696
 21
9.66624184
  0
LINE
  5
32B
100
AcDbEntity
  8
0
100
AcDbLine
 62
4
  6
CONTINUOUS
 10
11.4265240723
 20
9.6756200463
 11
11.3685685193
 21
9.6796392775
  0
LINE
  5
32C
100
AcDbEntity
  8
0
100
AcDbLine
 62
4
  6
CONTINUOUS
 10
11.329931484
 20
9.682318765
 11
11.271975931
 21
9.6863379963
  0
LINE
  5
32D
100
AcDbEntity
  8
0
100
AcDbLine
 62
4
  6
CONTINUOUS
 10
10.9638455741
 20
9.7077069091
 11
10.9058900211
 21
9.7117261403
  0
LINE
  5
32E
100
AcDbEntity
  8
0
100
AcDbLine
 62
4
  6
CONTINUOUS
 10
10.8769122446
 20
9.713735756
 11
10.8189566916
 21
9.7177549872
  0
LINE
  5
32F
100
AcDbEntity
  8
0
100
AcDbLine
 62
4
  6
CONTINUOUS
 10
11.6583462844
 20
9.6595431212
 11
11.7163018374
 21
9.65552389
  0
LINE
  5
330
100
AcDbEntity
  8
0
100
AcDbLine
 62
4
  6
CONTINUOUS
 10
11.8322129434
 20
9.6474854275
 11
11.8901684964
 21
9.6434661962
  0
LINE
  5
331
100
AcDbEntity
  8
0
100
AcDbLine
 62
4
  6
CONTINUOUS
 10
11.9288055318
 20
9.6697644852
 11
11.9867610848
 21
9.665745254
  0
LINE
  5
332
100
AcDbEntity
  8
0
100
AcDbLine
 62
4
  6
CONTINUOUS
 10
11.561753696
 20
9.7048788753
 11
11.619709249
 21
9.7008596441
  0
LINE
  5
333
100
AcDbEntity
  8
0
100
AcDbLine
 62
4
  6
CONTINUOUS
 10
11.619709249
 20
9.7201781618
 11
11.5810722137
 21
9.7228576493
  0
LINE
  5
334
100
AcDbEntity
  8
0
100
AcDbLine
 62
4
  6
CONTINUOUS
 10
11.2246455627
 20
9.7475759215
 11
11.1666900097
 21
9.7515951527
  0
LINE
  5
335
100
AcDbEntity
  8
0
100
AcDbLine
 62
4
  6
CONTINUOUS
 10
10.8189566916
 20
9.7757105402
 11
10.8769122446
 21
9.771691309
  0
LINE
  5
336
100
AcDbEntity
  8
0
100
AcDbLine
 62
4
  6
CONTINUOUS
 10
11.3685685193
 20
9.7375948305
 11
11.4265240723
 21
9.7335755993
  0
LINE
  5
337
100
AcDbEntity
  8
0
100
AcDbLine
 62
4
  6
CONTINUOUS
 10
11.4651611077
 20
9.7308961118
 11
11.5231166607
 21
9.7268768805
  0
LINE
  5
338
100
AcDbEntity
  8
0
100
AcDbLine
 62
4
  6
CONTINUOUS
 10
11.8322129434
 20
9.7054409805
 11
11.8901684964
 21
9.7014217492
  0
LINE
  5
339
100
AcDbEntity
  8
0
100
AcDbLine
 62
4
  6
CONTINUOUS
 10
11.9288055318
 20
9.6987422617
 11
11.9867610848
 21
9.6947230305
  0
LINE
  5
33A
100
AcDbEntity
  8
0
100
AcDbLine
 62
4
  6
CONTINUOUS
 10
11.858775905
 20
7.3757174516
 11
11.873264793
 21
7.3940311634
  0
LINE
  5
33B
100
AcDbEntity
  8
0
100
AcDbLine
 62
4
  6
CONTINUOUS
 10
11.873264793
 20
7.3940311634
 11
11.8877536809
 21
7.4026856119
  0
LINE
  5
33C
100
AcDbEntity
  8
0
100
AcDbLine
 62
4
  6
CONTINUOUS
 10
11.7863314639
 20
9.7376006484
 11
11.8008203522
 21
9.7365958406
  0
LINE
  5
33D
100
AcDbEntity
  8
0
100
AcDbLine
 62
4
  6
CONTINUOUS
 10
10.8769122446
 20
9.829646862
 11
10.8189566916
 21
9.8336660932
  0
LINE
  5
33E
100
AcDbEntity
  8
0
100
AcDbLine
 62
4
  6
CONTINUOUS
 10
10.9928233506
 20
9.8216083995
 11
11.0507789036
 21
9.8175891682
  0
LINE
  5
33F
100
AcDbEntity
  8
0
100
AcDbLine
 62
4
  6
CONTINUOUS
 10
11.9239759007
 20
7.3035810068
 11
11.9167314568
 21
7.2944241518
  0
LINE
  5
340
100
AcDbEntity
  8
0
100
AcDbLine
 62
7
  6
CONTINUOUS
 10
12.4488888253
 20
7.8268612753
 11
12.4495736629
 21
7.8275105878
  0
LINE
  5
341
100
AcDbEntity
  8
0
100
AcDbLine
 62
4
  6
CONTINUOUS
 10
11.9167314568
 20
7.2944241518
 11
11.9022425688
 21
7.2857697007
  0
LINE
  5
342
100
AcDbEntity
  8
0
100
AcDbLine
 62
7
  6
CONTINUOUS
 10
12.8047647186
 20
10.7979294152
 11
12.8047647186
 21
6.9342258811
  0
LINE
  5
343
100
AcDbEntity
  8
0
100
AcDbLine
 62
7
  6
CONTINUOUS
 10
9.1952352814
 20
10.3113915045
 11
12.093012932
 21
10.1104299418
  0
LINE
  5
344
100
AcDbEntity
  8
0
100
AcDbLine
 62
7
  6
CONTINUOUS
 10
12.093012932
 20
6.2467264078
 11
12.8047647186
 21
6.9342258811
  0
LINE
  5
345
100
AcDbEntity
  8
0
100
AcDbLine
 62
7
  6
CONTINUOUS
 10
9.906987068
 20
10.9988909778
 11
12.8047647186
 21
10.7979294152
  0
LINE
  5
346
100
AcDbEntity
  8
0
100
AcDbLine
 62
7
  6
CONTINUOUS
 10
11.993789989
 20
6.0873844177
 11
11.9745720521
 21
6.0778911248
  0
ARC
  5
347
100
AcDbEntity
  8
0
100
AcDbCircle
 62
7
  6
CONTINUOUS
 10
11.4754098701
 20
8.2888209465
 40
2.2641254892
100
AcDbArc
 50
266.0354973614
 51
266.723157899
  0
ARC
  5
348
100
AcDbEntity
  8
0
100
AcDbCircle
 62
7
  6
CONTINUOUS
 10
11.4704807006
 20
8.2168073924
 40
2.1919434639
100
AcDbArc
 50
265.3313245689
 51
266.0338890315
  0
ARC
  5
349
100
AcDbEntity
  8
0
100
AcDbCircle
 62
7
  6
CONTINUOUS
 10
10.4014235092
 20
6.4505476163
 40
1.2166261227
100
AcDbArc
 50
86.0331512621
 51
86.2442389821
  0
ARC
  5
34A
100
AcDbEntity
  8
0
100
AcDbCircle
 62
7
  6
CONTINUOUS
 10
11.6918982701
 20
6.9958732439
 40
0.9538147475
100
AcDbArc
 50
283.286087793
 51
285.7355389587
  0
ARC
  5
34B
100
AcDbEntity
  8
0
100
AcDbCircle
 62
7
  6
CONTINUOUS
 10
11.292960393
 20
6.7638065231
 40
0.7485539414
100
AcDbArc
 50
243.6649403382
 51
246.2656701867
  0
ARC
  5
34C
100
AcDbEntity
  8
0
100
AcDbCircle
 62
7
  6
CONTINUOUS
 10
11.1152491721
 20
7.7780212658
 40
0.4832154867
100
AcDbArc
 50
191.24533121
 51
196.8803877187
  0
ARC
  5
34D
100
AcDbEntity
  8
0
100
AcDbCircle
 62
7
  6
CONTINUOUS
 10
10.4853491672
 20
7.3774581124
 40
0.4488323839
100
AcDbArc
 50
134.661606464
 51
135.4769404793
  0
ARC
  5
34E
100
AcDbEntity
  8
0
100
AcDbCircle
 62
7
  6
CONTINUOUS
 10
10.5780712624
 20
7.2814622736
 40
0.4487037899
100
AcDbArc
 50
312.5378852501
 51
313.1529349343
  0
ARC
  5
34F
100
AcDbEntity
  8
0
100
AcDbCircle
 62
7
  6
CONTINUOUS
 10
10.0123264831
 20
9.7555883515
 40
0.3526399243
100
AcDbArc
 50
134.8067633541
 51
135.8778734966
  0
ARC
  5
350
100
AcDbEntity
  8
0
100
AcDbCircle
 62
7
  6
CONTINUOUS
 10
10.0851331196
 20
9.6802119969
 40
0.3525631215
100
AcDbArc
 50
312.1374009866
 51
312.9143445935
  0
ARC
  5
351
100
AcDbEntity
  8
0
100
AcDbCircle
 62
7
  6
CONTINUOUS
 10
10.0280413056
 20
9.7232581165
 40
0.2948290206
100
AcDbArc
 50
85.9815027045
 51
98.6610039825
  0
SPLINE
  5
352
100
AcDbEntity
  8
0
100
AcDbSpline
 62
7
  6
CONTINUOUS
 70
0
 71
3
 72
23
 73
19
 74
0
 42
0.0000001
 43
0.0000001
 44
0.0000000001
 40
0.0
 40
0.0
 40
0.0
 40
0.0
 40
0.0771587943
 40
0.1531525983
 40
0.2277645257
 40
0.3008156151
 40
0.3721376111
 40
0.441561383
 40
0.5089207464
 40
0.5740613042
 40
0.63683572
 40
0.6971076841
 40
0.7547490656
 40
0.8096460692
 40
0.8616960538
 40
0.9108140941
 40
0.9569307292
 40
1.0
 40
1.0
 40
1.0
 40
1.0
 10
11.3393184903
 20
6.0058067941
 30
0.0
 10
11.3301534433
 20
6.0064423923
 30
0.0
 10
11.3119703791
 20
6.0078328957
 30
0.0
 10
11.2849623021
 20
6.0102961787
 30
0.0
 10
11.258480909
 20
6.013116919
 30
0.0
 10
11.2325993064
 20
6.0162867756
 30
0.0
 10
11.2073852324
 20
6.0197977265
 30
0.0
 10
11.1829051555
 20
6.0236398281
 30
0.0
 10
11.1592245322
 20
6.0278034314
 30
0.0
 10
11.1364065683
 20
6.0322766783
 30
0.0
 10
11.114511851
 20
6.0370481605
 30
0.0
 10
11.0935984624
 20
6.042104402
 30
0.0
 10
11.0737219224
 20
6.0474324864
 30
0.0
 10
11.0549348003
 20
6.0530174093
 30
0.0
 10
11.0372867986
 20
6.0588448579
 30
0.0
 10
11.0208240635
 20
6.064898592
 30
0.0
 10
11.0055902911
 20
6.0711629568
 30
0.0
 10
10.9959476466
 20
6.0756218382
 30
0.0
 10
10.9913499131
 20
6.077893075
 30
0.0
  0
SPLINE
  5
353
100
AcDbEntity
  8
0
100
AcDbSpline
 62
7
  6
CONTINUOUS
 70
0
 71
3
 72
9
 73
5
 74
0
 42
0.0000001
 43
0.0000001
 44
0.0000000001
 40
0.0
 40
0.0
 40
0.0
 40
0.0
 40
0.5197971894
 40
1.0
 40
1.0
 40
1.0
 40
1.0
 10
10.8783837737
 20
6.1392065857
 30
0.0
 10
10.8756894377
 20
6.1414151571
 30
0.0
 10
10.8706559681
 20
6.1458523799
 30
0.0
 10
10.8660271484
 20
6.1507159696
 30
0.0
 10
10.8639357255
 20
6.1531623047
 30
0.0
  0
SPLINE
  5
354
100
AcDbEntity
  8
0
100
AcDbSpline
 62
7
  6
CONTINUOUS
 70
0
 71
3
 72
23
 73
19
 74
0
 42
0.0000001
 43
0.0000001
 44
0.0000000001
 40
0.0
 40
0.0
 40
0.0
 40
0.0
 40
0.0811307684
 40
0.1602256514
 40
0.2371394166
 40
0.3117306989
 40
0.3838655188
 40
0.453421346
 40
0.5202899008
 40
0.5843906942
 40
0.6456690168
 40
0.7041129182
 40
0.7597463028
 40
0.812646452
 40
0.862931511
 40
0.9107732172
 40
0.9563797285
 40
1.0
 40
1.0
 40
1.0
 40
1.0
 10
12.101990158
 20
6.2240641268
 30
0.0
 10
12.0998126287
 20
6.2197959911
 30
0.0
 10
12.0954535153
 20
6.2113965685
 30
0.0
 10
12.0888060296
 20
6.1990687215
 30
0.0
 10
12.0821293873
 20
6.1871976316
 30
0.0
 10
12.0754246772
 20
6.1758167714
 30
0.0
 10
12.068692797
 20
6.1649598113
 30
0.0
 10
12.061936137
 20
6.154659258
 30
0.0
 10
12.0551562937
 20
6.1449468717
 30
0.0
 10
12.0483571322
 20
6.1358509623
 30
0.0
 10
12.041540895
 20
6.1273975573
 30
0.0
 10
12.0347126429
 20
6.1196067436
 30
0.0
 10
12.0278751094
 20
6.1124951705
 30
0.0
 10
12.0210340182
 20
6.1060715198
 30
0.0
 10
12.0141924756
 20
6.1003405885
 30
0.0
 10
12.0073560938
 20
6.0952983038
 30
0.0
 10
12.0005288115
 20
6.0909372542
 30
0.0
 10
11.9958916924
 20
6.0884221598
 30
0.0
 10
11.9935817591
 20
6.0872815924
 30
0.0
  0
SPLINE
  5
355
100
AcDbEntity
  8
0
100
AcDbSpline
 62
7
  6
CONTINUOUS
 70
0
 71
3
 72
9
 73
5
 74
0
 42
0.0000001
 43
0.0000001
 44
0.0000000001
 40
0.0
 40
0.0
 40
0.0
 40
0.0
 40
0.4956217049
 40
1.0
 40
1.0
 40
1.0
 40
1.0
 10
10.9608871377
 20
6.0929411444
 30
0.0
 10
10.9468730274
 20
6.0998659732
 30
0.0
 10
10.9190002855
 20
6.1146631356
 30
0.0
 10
10.8918874988
 20
6.1307977529
 30
0.0
 10
10.8783837737
 20
6.1392065857
 30
0.0
  0
SPLINE
  5
356
100
AcDbEntity
  8
0
100
AcDbSpline
 62
7
  6
CONTINUOUS
 70
0
 71
3
 72
29
 73
25
 74
0
 42
0.0000001
 43
0.0000001
 44
0.0000000001
 40
0.0
 40
0.0
 40
0.0
 40
0.0
 40
0.0193646742
 40
0.0398580369
 40
0.0614684275
 40
0.0841775651
 40
0.1079628328
 40
0.1327976805
 40
0.1586509133
 40
0.1854891319
 40
0.2132749098
 40
0.2419685558
 40
0.271528042
 40
0.3019083628
 40
0.3649423952
 40
0.4306770921
 40
0.4986914915
 40
0.5685439808
 40
0.6397765617
 40
0.7119190669
 40
0.7844942972
 40
0.8570174477
 40
0.929015682
 40
1.0
 40
1.0
 40
1.0
 40
1.0
 10
11.9745754488
 20
6.0778928173
 30
0.0
 10
11.9708443525
 20
6.0760497001
 30
0.0
 10
11.9630847927
 20
6.0724163123
 30
0.0
 10
11.9509252141
 20
6.0672487835
 30
0.0
 10
11.9379345904
 20
6.062218153
 30
0.0
 10
11.9241360877
 20
6.0573330215
 30
0.0
 10
11.909553845
 20
6.0526021582
 30
0.0
 10
11.8942135745
 20
6.0480342667
 30
0.0
 10
11.878142442
 20
6.0436370147
 30
0.0
 10
11.8613688304
 20
6.0394188196
 30
0.0
 10
11.8439225163
 20
6.0353868128
 30
0.0
 10
11.8258344326
 20
6.0315483575
 30
0.0
 10
11.8071366512
 20
6.0279104287
 30
0.0
 10
11.7811174125
 20
6.0232786998
 30
0.0
 10
11.7473110516
 20
6.0180600937
 30
0.0
 10
11.7053502098
 20
6.0127630416
 30
0.0
 10
11.6618097525
 20
6.0083956295
 30
0.0
 10
11.6169989874
 20
6.0049893209
 30
0.0
 10
11.5712359857
 20
6.002568815
 30
0.0
 10
11.5248456802
 20
6.0011515697
 30
0.0
 10
11.4781582153
 20
6.0007479429
 30
0.0
 10
11.4315039497
 20
6.00136044
 30
0.0
 10
11.3852162468
 20
6.0029852448
 30
0.0
 10
11.3545366187
 20
6.0047514133
 30
0.0
 10
11.3393184903
 20
6.0058067941
 30
0.0
  0
SPLINE
  5
357
100
AcDbEntity
  8
0
100
AcDbSpline
 62
7
  6
CONTINUOUS
 70
0
 71
3
 72
21
 73
17
 74
0
 42
0.0000001
 43
0.0000001
 44
0.0000000001
 40
0.0
 40
0.0
 40
0.0
 40
0.0
 40
0.1269266306
 40
0.1902356571
 40
0.2534226618
 40
0.3164750211
 40
0.379381614
 40
0.442133702
 40
0.5047247465
 40
0.5671521045
 40
0.6294167402
 40
0.6915228504
 40
0.7534784743
 40
0.8152934295
 40
0.8769787052
 40
1.0
 40
1.0
 40
1.0
 40
1.0
 10
11.911097708
 20
6.0675876311
 30
0.0
 10
11.888090125
 20
6.059863216
 30
0.0
 10
11.8533297195
 20
6.0490754177
 30
0.0
 10
11.8064857988
 20
6.0366558602
 30
0.0
 10
11.7711816123
 20
6.0284301665
 30
0.0
 10
11.7357034769
 20
6.0213724483
 30
0.0
 10
11.7000838678
 20
6.0155582025
 30
0.0
 10
11.6643639321
 20
6.0110492478
 30
0.0
 10
11.6285914101
 20
6.0078859578
 30
0.0
 10
11.5928177927
 20
6.0060839549
 30
0.0
 10
11.5570945854
 20
6.0056350556
 30
0.0
 10
11.5214698686
 20
6.0065057879
 30
0.0
 10
11.48598543
 20
6.0086401915
 30
0.0
 10
11.4506741255
 20
6.0119674014
 30
0.0
 10
11.4039029161
 20
6.0178775434
 30
0.0
 10
11.3690704787
 20
6.0238499458
 30
0.0
 10
11.3459913004
 20
6.0283972993
 30
0.0
  0
SPLINE
  5
358
100
AcDbEntity
  8
0
100
AcDbSpline
 62
7
  6
CONTINUOUS
 70
0
 71
3
 72
15
 73
11
 74
0
 42
0.0000001
 43
0.0000001
 44
0.0000000001
 40
0.0
 40
0.0
 40
0.0
 40
0.0
 40
0.1200350229
 40
0.2408049341
 40
0.3626322888
 40
0.4858903489
 40
0.6109646446
 40
0.7381990118
 40
0.8678398
 40
1.0
 40
1.0
 40
1.0
 40
1.0
 10
11.2920704918
 20
6.0321367201
 30
0.0
 10
11.2798608402
 20
6.0308538856
 30
0.0
 10
11.2552964001
 20
6.0288945323
 30
0.0
 10
11.2181955322
 20
6.0280476813
 30
0.0
 10
11.1807799186
 20
6.0295543679
 30
0.0
 10
11.1431125009
 20
6.0336541974
 30
0.0
 10
11.1052860934
 20
6.040522705
 30
0.0
 10
11.0674152922
 20
6.0502400003
 30
0.0
 10
11.0296211977
 20
6.0627734454
 30
0.0
 10
11.0047804133
 20
6.0728204409
 30
0.0
 10
10.9923992996
 20
6.0782441864
 30
0.0
  0
LINE
  5
359
100
AcDbEntity
  8
0
100
AcDbLine
 62
7
  6
CONTINUOUS
 10
10.9923992996
 20
6.0782441864
 11
10.9916701709
 21
6.0785640804
  0
SPLINE
  5
35A
100
AcDbEntity
  8
0
100
AcDbSpline
 62
7
  6
CONTINUOUS
 70
0
 71
3
 72
10
 73
6
 74
0
 42
0.0000001
 43
0.0000001
 44
0.0000000001
 40
0.0
 40
0.0
 40
0.0
 40
0.0
 40
0.5114800979
 40
0.7581744319
 40
1.0
 40
1.0
 40
1.0
 40
1.0
 10
11.9935817591
 20
6.0872815924
 30
0.0
 10
11.9903953157
 20
6.0857082338
 30
0.0
 10
11.9855414235
 20
6.0836244133
 30
0.0
 10
11.9789425038
 20
6.0814421077
 30
0.0
 10
11.975662184
 20
6.0805612487
 30
0.0
 10
11.9740276619
 20
6.0801722202
 30
0.0
  0
SPLINE
  5
35B
100
AcDbEntity
  8
0
100
AcDbSpline
 62
7
  6
CONTINUOUS
 70
0
 71
3
 72
11
 73
7
 74
0
 42
0.0000001
 43
0.0000001
 44
0.0000000001
 40
0.0
 40
0.0
 40
0.0
 40
0.0
 40
0.2545574775
 40
0.5052872671
 40
0.7534080087
 40
1.0
 40
1.0
 40
1.0
 40
1.0
 10
11.9740276619
 20
6.0801722202
 30
0.0
 10
11.9720762329
 20
6.0797077654
 30
0.0
 10
11.9681698081
 20
6.0789182288
 30
0.0
 10
11.9622797852
 20
6.0781399576
 30
0.0
 10
11.9564141427
 20
6.0777564414
 30
0.0
 10
11.9525128653
 20
6.0777490953
 30
0.0
 10
11.9505704684
 20
6.0778039294
 30
0.0
  0
SPLINE
  5
35C
100
AcDbEntity
  8
0
100
AcDbSpline
 62
7
  6
CONTINUOUS
 70
0
 71
3
 72
39
 73
35
 74
0
 42
0.0000001
 43
0.0000001
 44
0.0000000001
 40
0.0
 40
0.0
 40
0.0
 40
0.0
 40
0.0311450469
 40
0.0624431113
 40
0.09388834
 40
0.1254709884
 40
0.1571788814
 40
0.1889972579
 40
0.2209091718
 40
0.2528958393
 40
0.2849370182
 40
0.3170114084
 40
0.349097068
 40
0.3811718384
 40
0.4132137706
 40
0.4452015496
 40
0.4771149115
 40
0.5089350441
 40
0.5406449673
 40
0.5722298867
 40
0.6036775163
 40
0.6349783575
 40
0.6661259304
 40
0.6971169519
 40
0.7279514552
 40
0.7586328387
 40
0.7891678413
 40
0.8195664421
 40
0.8498416837
 40
0.8800094162
 40
0.9100879631
 40
0.9400977203
 40
0.9700606956
 40
1.0
 40
1.0
 40
1.0
 40
1.0
 10
10.0404204295
 20
10.1011273166
 30
0.0
 10
10.049973172
 20
10.1004648317
 30
0.0
 10
10.0690842076
 20
10.0984373868
 30
0.0
 10
10.0975190641
 20
10.0933301784
 30
0.0
 10
10.1256493552
 20
10.0861765427
 30
0.0
 10
10.1533231687
 20
10.0770149166
 30
0.0
 10
10.1803934651
 20
10.0658943928
 30
0.0
 10
10.2067158474
 20
10.0528744674
 30
0.0
 10
10.2321501001
 20
10.0380247323
 30
0.0
 10
10.2565606959
 20
10.0214244738
 30
0.0
 10
10.2798175645
 20
10.0031622538
 30
0.0
 10
10.3017967791
 20
9.9833354701
 30
0.0
 10
10.3223812274
 20
9.9620498462
 30
0.0
 10
10.3414611955
 20
9.9394188362
 30
0.0
 10
10.3589349494
 20
9.9155630349
 30
0.0
 10
10.3747092746
 20
9.8906095489
 30
0.0
 10
10.3887000144
 20
9.8646913521
 30
0.0
 10
10.4008324647
 20
9.8379465479
 30
0.0
 10
10.4110417751
 20
9.8105176513
 30
0.0
 10
10.419273285
 20
9.7825508399
 30
0.0
 10
10.4254828776
 20
9.7541952031
 30
0.0
 10
10.4296371766
 20
9.7256019391
 30
0.0
 10
10.43171372
 20
9.6969235605
 30
0.0
 10
10.4317010823
 20
9.6683130961
 30
0.0
 10
10.4295989954
 20
9.6399232852
 30
0.0
 10
10.4254183593
 20
9.61190576
 30
0.0
 10
10.4191811624
 20
9.5844102445
 30
0.0
 10
10.4109203845
 20
9.5575837557
 30
0.0
 10
10.4006798724
 20
9.5315698231
 30
0.0
 10
10.3885141086
 20
9.5065076432
 30
0.0
 10
10.3744880612
 20
9.48253152
 30
0.0
 10
10.3586761675
 20
9.4597694583
 30
0.0
 10
10.341164513
 20
9.4383449554
 30
0.0
 10
10.3284137152
 20
9.4250245597
 30
0.0
 10
10.3217929969
 20
9.4186294315
 30
0.0
  0
SPLINE
  5
35D
100
AcDbEntity
  8
0
100
AcDbSpline
 62
7
  6
CONTINUOUS
 70
0
 71
3
 72
46
 73
42
 74
0
 42
0.0000001
 43
0.0000001
 44
0.0000000001
 40
0.0
 40
0.0
 40
0.0
 40
0.0
 40
0.031143804
 40
0.0624406641
 40
0.0938846266
 40
0.1254660369
 40
0.1571726773
 40
0.188989797
 40
0.2209004514
 40
0.2528858567
 40
0.2849257707
 40
0.3169988946
 40
0.3490832879
 40
0.3811567922
 40
0.4131974593
 40
0.4451839758
 40
0.4770960786
 40
0.5089149549
 40
0.5406236259
 40
0.5722072995
 40
0.6036536882
 40
0.6349532936
 40
0.6660996371
 40
0.6970894354
 40
0.727922722
 40
0.7586028953
 40
0.7891366922
 40
0.8043544294
 40
0.8195395762
 40
0.8346938584
 40
0.8498191748
 40
0.8649175902
 40
0.8799913269
 40
0.8950427481
 40
0.9100743467
 40
0.9250887336
 40
0.940088619
 40
0.9550767983
 40
0.9700561375
 40
0.9850295542
 40
1.0
 40
1.0
 40
1.0
 40
1.0
 10
10.5233833712
 20
7.819441264
 30
0.0
 10
10.5355424732
 20
7.8185980274
 30
0.0
 10
10.5598677588
 20
7.8160174082
 30
0.0
 10
10.5960607656
 20
7.8095167713
 30
0.0
 10
10.631866116
 20
7.800411342
 30
0.0
 10
10.6670904229
 20
7.788750042
 30
0.0
 10
10.7015465655
 20
7.7745954018
 30
0.0
 10
10.7350507461
 20
7.7580231576
 30
0.0
 10
10.7674244593
 20
7.7391218164
 30
0.0
 10
10.7984952172
 20
7.717992338
 30
0.0
 10
10.8280974876
 20
7.6947474788
 30
0.0
 10
10.8560735019
 20
7.6695111698
 30
0.0
 10
10.8822741971
 20
7.6424179869
 30
0.0
 10
10.9065599405
 20
7.6136123512
 30
0.0
 10
10.9288012091
 20
7.583247736
 30
0.0
 10
10.9488793976
 20
7.5514859595
 30
0.0
 10
10.9666873881
 20
7.5184962697
 30
0.0
 10
10.9821300392
 20
7.4844544229
 30
0.0
 10
10.9951248293
 20
7.4495418343
 30
0.0
 10
11.0056022487
 20
7.4139445831
 30
0.0
 10
11.0135060732
 20
7.3778524104
 30
0.0
 10
11.0187938172
 20
7.3414577789
 30
0.0
 10
11.0214369234
 20
7.3049547926
 30
0.0
 10
11.0214208603
 20
7.2685383245
 30
0.0
 10
11.0187451738
 20
7.2324024332
 30
0.0
 10
11.0134241787
 20
7.1967414345
 30
0.0
 10
11.006799866
 20
7.1675404725
 30
0.0
 10
11.0002109652
 20
7.1446159409
 30
0.0
 10
10.9946374363
 20
7.1276756984
 30
0.0
 10
10.9884345772
 20
7.1109944589
 30
0.0
 10
10.9816105527
 20
7.0945942095
 30
0.0
 10
10.9741744951
 20
7.0784969478
 30
0.0
 10
10.9661363656
 20
7.0627241404
 30
0.0
 10
10.9575068422
 20
7.0472968974
 30
0.0
 10
10.9482974619
 20
7.0322358278
 30
0.0
 10
10.9385205596
 20
7.017561037
 30
0.0
 10
10.9281891367
 20
7.0032921656
 30
0.0
 10
10.9173170304
 20
6.9894482911
 30
0.0
 10
10.905918727
 20
6.9760478217
 30
0.0
 10
10.894009659
 20
6.9631089557
 30
0.0
 10
10.8857394923
 20
6.9548014036
 30
0.0
 10
10.8815255473
 20
6.9507310412
 30
0.0
  0
SPLINE
  5
35E
100
AcDbEntity
  8
0
100
AcDbSpline
 62
7
  6
CONTINUOUS
 70
0
 71
3
 72
34
 73
30
 74
0
 42
0.0000001
 43
0.0000001
 44
0.0000000001
 40
0.0
 40
0.0
 40
0.0
 40
0.0
 40
0.0845017631
 40
0.1673004612
 40
0.2480789935
 40
0.3265291774
 40
0.4023563354
 40
0.4391988087
 40
0.4752818393
 40
0.5105731496
 40
0.5450416022
 40
0.5786574517
 40
0.6113923142
 40
0.6432192789
 40
0.6741131428
 40
0.7040503539
 40
0.733009313
 40
0.7609705008
 40
0.7879165715
 40
0.8138327837
 40
0.8387070832
 40
0.8625305056
 40
0.8852976526
 40
0.9070069835
 40
0.9276616105
 40
0.9472699157
 40
0.9658463994
 40
0.9834129555
 40
1.0
 40
1.0
 40
1.0
 40
1.0
 10
10.2324639978
 20
10.4382775687
 30
0.0
 10
10.2193604665
 20
10.4391863017
 30
0.0
 10
10.1934327726
 20
10.4412154358
 30
0.0
 10
10.155048951
 20
10.4449362153
 30
0.0
 10
10.1176784394
 20
10.4492912454
 30
0.0
 10
10.0814783098
 20
10.4542620865
 30
0.0
 10
10.0521388861
 20
10.4589436365
 30
0.0
 10
10.0293733183
 20
10.4629917495
 30
0.0
 10
10.0128486122
 20
10.4661389553
 30
0.0
 10
9.9967269648
 20
10.4694229732
 30
0.0
 10
9.9810252899
 20
10.4728403952
 30
0.0
 10
9.9657600741
 20
10.4763875859
 30
0.0
 10
9.9509473374
 20
10.4800608069
 30
0.0
 10
9.936602623
 20
10.4838562034
 30
0.0
 10
9.9227409682
 20
10.4877697391
 30
0.0
 10
9.9093769035
 20
10.4917973142
 30
0.0
 10
9.896524422
 20
10.4959346757
 30
0.0
 10
9.8841969658
 20
10.5001774462
 30
0.0
 10
9.8724074244
 20
10.5045211965
 30
0.0
 10
9.8611680893
 20
10.5089613268
 30
0.0
 10
9.8504906662
 20
10.5134931934
 30
0.0
 10
9.8403862529
 20
10.5181120743
 30
0.0
 10
9.8308652993
 20
10.5228131238
 30
0.0
 10
9.8219376454
 20
10.5275915178
 30
0.0
 10
9.8136124453
 20
10.5324423446
 30
0.0
 10
9.8058982261
 20
10.5373606554
 30
0.0
 10
9.7988027598
 20
10.5423416938
 30
0.0
 10
9.7923335356
 20
10.5473802623
 30
0.0
 10
9.7883302099
 20
10.5508726379
 30
0.0
 10
9.7864427672
 20
10.5526291091
 30
0.0
  0
SPLINE
  5
35F
100
AcDbEntity
  8
0
100
AcDbSpline
 62
7
  6
CONTINUOUS
 70
0
 71
3
 72
18
 73
14
 74
0
 42
0.0000001
 43
0.0000001
 44
0.0000000001
 40
0.0
 40
0.0
 40
0.0
 40
0.0
 40
0.1504686872
 40
0.2917143508
 40
0.4244422581
 40
0.4879097286
 40
0.549609416
 40
0.6682625881
 40
0.7817882869
 40
0.8371380068
 40
0.8918078217
 40
0.9460192903
 40
1.0
 40
1.0
 40
1.0
 40
1.0
 10
12.4488888253
 20
9.5032256462
 30
0.0
 10
12.4503462
 20
9.5046333621
 30
0.0
 10
12.4532589554
 20
9.5072746404
 30
0.0
 10
12.4577690585
 20
9.5107944498
 30
0.0
 10
12.4615785931
 20
9.5132838526
 30
0.0
 10
12.464616374
 20
9.5149695927
 30
0.0
 10
12.4675647814
 20
9.5164168672
 30
0.0
 10
12.4712512294
 20
9.517879276
 30
0.0
 10
12.4750032482
 20
9.5188772387
 30
0.0
 10
12.4779749596
 20
9.5193688495
 30
0.0
 10
12.4801774104
 20
9.5195870202
 30
0.0
 10
12.4823709497
 20
9.5196574937
 30
0.0
 10
12.4838282842
 20
9.5196059448
 30
0.0
 10
12.484553453
 20
9.5195556516
 30
0.0
  0
SPLINE
  5
360
100
AcDbEntity
  8
0
100
AcDbSpline
 62
7
  6
CONTINUOUS
 70
0
 71
3
 72
33
 73
29
 74
0
 42
0.0000001
 43
0.0000001
 44
0.0000000001
 40
0.0
 40
0.0
 40
0.0
 40
0.0
 40
0.0310504132
 40
0.062078276
 40
0.0930928061
 40
0.1241074372
 40
0.1551353354
 40
0.1861910785
 40
0.2172893186
 40
0.2484444211
 40
0.2796699061
 40
0.3109778119
 40
0.3423781193
 40
0.3738781812
 40
0.4054821788
 40
0.4371906181
 40
0.5008788725
 40
0.5648790198
 40
0.6290187464
 40
0.693040341
 40
0.7566156774
 40
0.7881334074
 40
0.8194042572
 40
0.8810229494
 40
0.9113297315
 40
0.9412654197
 40
0.9708213659
 40
1.0
 40
1.0
 40
1.0
 40
1.0
 10
10.2565341538
 20
9.7375660708
 30
0.0
 10
10.2529256685
 20
9.7378163201
 30
0.0
 10
10.2457254232
 20
9.7385522826
 30
0.0
 10
10.2350247568
 20
9.740358181
 30
0.0
 10
10.224468128
 20
9.7428565244
 30
0.0
 10
10.2140958662
 20
9.746033874
 30
0.0
 10
10.2039450749
 20
9.7498735097
 30
0.0
 10
10.1940505387
 20
9.7543553812
 30
0.0
 10
10.1844441892
 20
9.7594568556
 30
0.0
 10
10.1751551801
 20
9.7651530947
 30
0.0
 10
10.1662099345
 20
9.7714175461
 30
0.0
 10
10.15763234
 20
9.7782223321
 30
0.0
 10
10.149443991
 20
9.7855386144
 30
0.0
 10
10.1416645755
 20
9.7933366731
 30
0.0
 10
10.134311858
 20
9.8015865535
 30
0.0
 10
10.1250879
 20
9.8131616697
 30
0.0
 10
10.114711193
 20
9.8286066304
 30
0.0
 10
10.1042371774
 20
9.8483902466
 30
0.0
 10
10.095821367
 20
9.8691755492
 30
0.0
 10
10.0895599978
 20
9.8906544979
 30
0.0
 10
10.0861939269
 20
9.9089178167
 30
0.0
 10
10.08465702
 20
9.9235639336
 30
0.0
 10
10.0839016929
 20
9.9380418336
 30
0.0
 10
10.0842968121
 20
9.9524218993
 30
0.0
 10
10.0858746235
 20
9.9665358249
 30
0.0
 10
10.0876277669
 20
9.9768550325
 30
0.0
 10
10.0899503277
 20
9.9869257521
 30
0.0
 10
10.0918852734
 20
9.993493808
 30
0.0
 10
10.0929459088
 20
9.9967231975
 30
0.0
  0
SPLINE
  5
361
100
AcDbEntity
  8
0
100
AcDbSpline
 62
7
  6
CONTINUOUS
 70
0
 71
3
 72
19
 73
15
 74
0
 42
0.0000001
 43
0.0000001
 44
0.0000000001
 40
0.0
 40
0.0
 40
0.0
 40
0.0
 40
0.1219248748
 40
0.244975669
 40
0.3689348865
 40
0.4936689918
 40
0.5563213623
 40
0.619149323
 40
0.682154104
 40
0.7453393337
 40
0.8087104826
 40
0.8722738373
 40
0.9360354433
 40
1.0
 40
1.0
 40
1.0
 40
1.0
 10
10.503152848
 20
7.4931075404
 30
0.0
 10
10.4994890895
 20
7.5005831713
 30
0.0
 10
10.4928651801
 20
7.515976914
 30
0.0
 10
10.4851654796
 20
7.5400008126
 30
0.0
 10
10.4797231103
 20
7.5648312472
 30
0.0
 10
10.4771148203
 20
7.5859626272
 30
0.0
 10
10.4761903775
 20
7.6030273332
 30
0.0
 10
10.4760805485
 20
7.6159014799
 30
0.0
 10
10.476555762
 20
7.6288034071
 30
0.0
 10
10.4776151407
 20
7.6417078062
 30
0.0
 10
10.4792567117
 20
7.6545895053
 30
0.0
 10
10.4814772625
 20
7.6674240891
 30
0.0
 10
10.4842720918
 20
7.6801871431
 30
0.0
 10
10.486510758
 20
7.6886195923
 30
0.0
 10
10.4877228192
 20
7.6928156056
 30
0.0
  0
SPLINE
  5
362
100
AcDbEntity
  8
0
100
AcDbSpline
 62
7
  6
CONTINUOUS
 70
0
 71
3
 72
23
 73
19
 74
0
 42
0.0000001
 43
0.0000001
 44
0.0000000001
 40
0.0
 40
0.0
 40
0.0
 40
0.0
 40
0.0616482077
 40
0.1233194432
 40
0.1850364764
 40
0.2468215657
 40
0.3086962119
 40
0.3706809253
 40
0.4327950037
 40
0.4950563292
 40
0.5574811795
 40
0.6200840681
 40
0.6828776095
 40
0.745872322
 40
0.8090769221
 40
0.8724969185
 40
0.9361382339
 40
1.0
 40
1.0
 40
1.0
 40
1.0
 10
9.7590478621
 20
10.0012252362
 30
0.0
 10
9.7635927988
 20
10.0056153117
 30
0.0
 10
9.7729224899
 20
10.0141543764
 30
0.0
 10
9.7875880288
 20
10.0261947828
 30
0.0
 10
9.8028904086
 20
10.0374393342
 30
0.0
 10
9.8187905502
 20
10.0478592034
 30
0.0
 10
9.8352485132
 20
10.0574282979
 30
0.0
 10
9.8522227803
 20
10.0661225037
 30
0.0
 10
9.8696705851
 20
10.0739199624
 30
0.0
 10
9.8875479614
 20
10.0808010662
 30
0.0
 10
9.9058098697
 20
10.0867485238
 30
0.0
 10
9.9244103104
 20
10.0917473963
 30
0.0
 10
9.9433024262
 20
10.0957851371
 30
0.0
 10
9.9624386686
 20
10.0988516628
 30
0.0
 10
9.9817707565
 20
10.1009392516
 30
0.0
 10
10.0012503226
 20
10.1020428067
 30
0.0
 10
10.0208275457
 20
10.1021594805
 30
0.0
 10
10.033890267
 20
10.101580185
 30
0.0
 10
10.0404204295
 20
10.1011273166
 30
0.0
  0
SPLINE
  5
363
100
AcDbEntity
  8
0
100
AcDbSpline
 62
7
  6
CONTINUOUS
 70
0
 71
3
 72
23
 73
19
 74
0
 42
0.0000001
 43
0.0000001
 44
0.0000000001
 40
0.0
 40
0.0
 40
0.0
 40
0.0
 40
0.0616482106
 40
0.123319444
 40
0.1850364734
 40
0.2468215626
 40
0.3086962119
 40
0.3706809251
 40
0.4327950031
 40
0.4950563302
 40
0.5574811826
 40
0.6200840855
 40
0.6828775753
 40
0.7458723551
 40
0.8090769809
 40
0.8724965648
 40
0.9361390258
 40
1.0
 40
1.0
 40
1.0
 40
1.0
 10
9.9061578011
 20
9.9347733051
 30
0.0
 10
9.9090194259
 20
9.9375374239
 30
0.0
 10
9.9148936846
 20
9.9429138522
 30
0.0
 10
9.924127545
 20
9.9504948277
 30
0.0
 10
9.9337623694
 20
9.9575747209
 30
0.0
 10
9.9437735563
 20
9.9641353799
 30
0.0
 10
9.9541359761
 20
9.9701603469
 30
0.0
 10
9.9648234727
 20
9.9756344619
 30
0.0
 10
9.975809117
 20
9.9805439695
 30
0.0
 10
9.9870652317
 20
9.9848765158
 30
0.0
 10
9.9985634675
 20
9.9886211893
 30
0.0
 10
10.0102748464
 20
9.9917686105
 30
0.0
 10
10.02216987
 20
9.9943109038
 30
0.0
 10
10.0342186062
 20
9.996241686
 30
0.0
 10
10.0463906317
 20
9.9975560717
 30
0.0
 10
10.0586555809
 20
9.9982509182
 30
0.0
 10
10.0709819658
 20
9.9983243452
 30
0.0
 10
10.079206658
 20
9.997959624
 30
0.0
 10
10.0833181871
 20
9.9976744885
 30
0.0
  0
SPLINE
  5
364
100
AcDbEntity
  8
0
100
AcDbSpline
 62
7
  6
CONTINUOUS
 70
0
 71
3
 72
39
 73
35
 74
0
 42
0.0000001
 43
0.0000001
 44
0.0000000001
 40
0.0
 40
0.0
 40
0.0
 40
0.0
 40
0.0303124987
 40
0.0607375651
 40
0.0912778185
 40
0.1219344716
 40
0.1527073313
 40
0.1835948166
 40
0.2145939938
 40
0.2457006259
 40
0.2769092352
 40
0.3082131775
 40
0.339604728
 40
0.3710751761
 40
0.4026149308
 40
0.434213634
 40
0.4658602797
 40
0.4975433368
 40
0.5292508768
 40
0.5609707045
 40
0.5926904897
 40
0.624397903
 40
0.6560807499
 40
0.6877271043
 40
0.7193254382
 40
0.7508647501
 40
0.7823346866
 40
0.8137256619
 40
0.845028979
 40
0.8762368833
 40
0.9073428745
 40
0.9383410714
 40
0.9692282204
 40
1.0
 40
1.0
 40
1.0
 40
1.0
 10
10.3430655937
 20
9.6426226481
 30
0.0
 10
10.3440708486
 20
9.6479438024
 30
0.0
 10
10.3457849987
 20
9.6586650252
 30
0.0
 10
10.3474575884
 20
9.6748936805
 30
0.0
 10
10.3482316667
 20
9.6912519163
 30
0.0
 10
10.3481048464
 20
9.7076898625
 30
0.0
 10
10.3470775947
 20
9.724158268
 30
0.0
 10
10.3451530536
 20
9.7406075699
 30
0.0
 10
10.3423370733
 20
9.7569883347
 30
0.0
 10
10.3386381727
 20
9.7732513262
 30
0.0
 10
10.3340675187
 20
9.7893476736
 30
0.0
 10
10.3286388901
 20
9.8052290104
 30
0.0
 10
10.322368637
 20
9.8208476205
 30
0.0
 10
10.3152756296
 20
9.8361565774
 30
0.0
 10
10.307381215
 20
9.8511098917
 30
0.0
 10
10.2987091437
 20
9.8656626454
 30
0.0
 10
10.2892854938
 20
9.8797711241
 30
0.0
 10
10.2791385947
 20
9.8933929469
 30
0.0
 10
10.2682989416
 20
9.9064871921
 30
0.0
 10
10.256799106
 20
9.91901452
 30
0.0
 10
10.2446736367
 20
9.9309372876
 30
0.0
 10
10.2319589678
 20
9.9422196735
 30
0.0
 10
10.2186932997
 20
9.952827777
 30
0.0
 10
10.204916484
 20
9.9627297175
 30
0.0
 10
10.190669905
 20
9.9718957297
 30
0.0
 10
10.1759963566
 20
9.980298252
 30
0.0
 10
10.1609399159
 20
9.9879120089
 30
0.0
 10
10.1455458098
 20
9.9947140888
 30
0.0
 10
10.1298602942
 20
10.0006840122
 30
0.0
 10
10.1139304726
 20
10.0058038328
 30
0.0
 10
10.0978042961
 20
10.0100580512
 30
0.0
 10
10.0815299511
 20
10.0134339746
 30
0.0
 10
10.0651571129
 20
10.0159211756
 30
0.0
 10
10.0541867866
 20
10.0169840244
 30
0.0
 10
10.0487026323
 20
10.0173643518
 30
0.0
  0
SPLINE
  5
365
100
AcDbEntity
  8
0
100
AcDbSpline
 62
7
  6
CONTINUOUS
 70
0
 71
3
 72
41
 73
37
 74
0
 42
0.0000001
 43
0.0000001
 44
0.0000000001
 40
0.0
 40
0.0
 40
0.0
 40
0.0
 40
0.0299390146
 40
0.0599016995
 40
0.0899111652
 40
0.1199894195
 40
0.1501568586
 40
0.1804318057
 40
0.21083011
 40
0.2413648144
 40
0.2720458993
 40
0.3028801032
 40
0.3338708238
 40
0.3650180938
 40
0.3963186311
 40
0.4277659558
 40
0.4593505685
 40
0.4910601829
 40
0.5228800058
 40
0.5547930577
 40
0.5867805263
 40
0.6188221477
 40
0.6508966074
 40
0.6829819566
 40
0.7150560361
 40
0.7310843127
 40
0.7471015873
 40
0.7790879447
 40
0.8109995493
 40
0.8428176151
 40
0.8745252057
 40
0.9061075358
 40
0.9375524757
 40
0.953222571
 40
0.9688552894
 40
1.0
 40
1.0
 40
1.0
 40
1.0
 10
10.2604785731
 20
9.5679534713
 30
0.0
 10
10.2646471755
 20
9.5719800342
 30
0.0
 10
10.2726754642
 20
9.5803669467
 30
0.0
 10
10.2837013249
 20
9.5938564519
 30
0.0
 10
10.2936569777
 20
9.6081881149
 30
0.0
 10
10.302488207
 20
9.62328419
 30
0.0
 10
10.310148141
 20
9.6390640822
 30
0.0
 10
10.3165958759
 20
9.6554432277
 30
0.0
 10
10.3217971236
 20
9.6723339789
 30
0.0
 10
10.3257242682
 20
9.68964597
 30
0.0
 10
10.328356534
 20
9.7072866369
 30
0.0
 10
10.3296800754
 20
9.7251617078
 30
0.0
 10
10.3296880411
 20
9.7431757088
 30
0.0
 10
10.3283806007
 20
9.7612324717
 30
0.0
 10
10.3257649357
 20
9.7792356442
 30
0.0
 10
10.3218551893
 20
9.7970891981
 30
0.0
 10
10.3166723853
 20
9.814697936
 30
0.0
 10
10.3102443118
 20
9.8319679909
 30
0.0
 10
10.3026053688
 20
9.8488073214
 30
0.0
 10
10.2937963873
 20
9.8651261918
 30
0.0
 10
10.2838643984
 20
9.8808376554
 30
0.0
 10
10.272862432
 20
9.8958579719
 30
0.0
 10
10.2608490536
 20
9.9101071959
 30
0.0
 10
10.2478887364
 20
9.9235090483
 30
0.0
 10
10.2363526127
 20
9.9339153488
 30
0.0
 10
10.2267206249
 20
9.9417478692
 30
0.0
 10
10.2168401397
 20
9.9492363934
 30
0.0
 10
10.2040366925
 20
9.9579433689
 30
0.0
 10
10.1880227902
 20
9.9672930022
 30
0.0
 10
10.1714493813
 20
9.9754907831
 30
0.0
 10
10.1544050572
 20
9.9824925948
 30
0.0
 10
10.1369810877
 20
9.9882609874
 30
0.0
 10
10.1222029711
 20
9.9920190775
 30
0.0
 10
10.1102849974
 20
9.9943788233
 30
0.0
 10
10.0983480644
 20
9.996300913
 30
0.0
 10
10.0893328719
 20
9.9972573687
 30
0.0
 10
10.0833181871
 20
9.9976744885
 30
0.0
  0
SPLINE
  5
366
100
AcDbEntity
  8
0
100
AcDbSpline
 62
7
  6
CONTINUOUS
 70
0
 71
3
 72
15
 73
11
 74
0
 42
0.0000001
 43
0.0000001
 44
0.0000000001
 40
0.0
 40
0.0
 40
0.0
 40
0.0
 40
0.1255303742
 40
0.2509143141
 40
0.3761442327
 40
0.5012166572
 40
0.6261316822
 40
0.7508913549
 40
0.8755141228
 40
1.0
 40
1.0
 40
1.0
 40
1.0
 10
10.3291074497
 20
9.7484991677
 30
0.0
 10
10.3262148169
 20
9.7473991334
 30
0.0
 10
10.3203742619
 20
9.7453510888
 30
0.0
 10
10.3114697048
 20
9.7427476462
 30
0.0
 10
10.3024497734
 20
9.7406247439
 30
0.0
 10
10.2933401465
 20
9.7389917634
 30
0.0
 10
10.2841668521
 20
9.7378563012
 30
0.0
 10
10.2749561917
 20
9.737223924
 30
0.0
 10
10.2657355287
 20
9.7370984295
 30
0.0
 10
10.2595957874
 20
9.7373537457
 30
0.0
 10
10.2565341538
 20
9.7375660708
 30
0.0
  0
SPLINE
  5
367
100
AcDbEntity
  8
0
100
AcDbSpline
 62
7
  6
CONTINUOUS
 70
0
 71
3
 72
24
 73
20
 74
0
 42
0.0000001
 43
0.0000001
 44
0.0000000001
 40
0.0
 40
0.0
 40
0.0
 40
0.0
 40
0.0616478686
 40
0.1233187641
 40
0.1850354561
 40
0.2468202038
 40
0.2777476126
 40
0.3087000175
 40
0.3706843912
 40
0.43279813
 40
0.4950591137
 40
0.5574836211
 40
0.6200861608
 40
0.6828793526
 40
0.7458737331
 40
0.8090779103
 40
0.8724977887
 40
0.9361382808
 40
1.0
 40
1.0
 40
1.0
 40
1.0
 10
10.1652411952
 20
7.6922819009
 30
0.0
 10
10.171026171
 20
7.697869764
 30
0.0
 10
10.182901358
 20
7.7087386177
 30
0.0
 10
10.2015683025
 20
7.7240641611
 30
0.0
 10
10.2210455503
 20
7.7383765369
 30
0.0
 10
10.2379059707
 20
7.7494256795
 30
0.0
 10
10.2517455603
 20
7.7577220766
 30
0.0
 10
10.2658242341
 20
7.7656591208
 30
0.0
 10
10.2838381049
 20
7.7748858543
 30
0.0
 10
10.3060461306
 20
7.7848106342
 30
0.0
 10
10.3288012328
 20
7.7935692051
 30
0.0
 10
10.3520457014
 20
7.8011393464
 30
0.0
 10
10.3757210851
 20
7.8075021127
 30
0.0
 10
10.3997677184
 20
7.8126415206
 30
0.0
 10
10.4241250799
 20
7.8165447185
 30
0.0
 10
10.4487317503
 20
7.8192019082
 30
0.0
 10
10.4735260767
 20
7.8206065258
 30
0.0
 10
10.4984447524
 20
7.8207550608
 30
0.0
 10
10.5150714811
 20
7.8200176955
 30
0.0
 10
10.5233833712
 20
7.819441264
 30
0.0
  0
SPLINE
  5
368
100
AcDbEntity
  8
0
100
AcDbSpline
 62
7
  6
CONTINUOUS
 70
0
 71
3
 72
23
 73
19
 74
0
 42
0.0000001
 43
0.0000001
 44
0.0000000001
 40
0.0
 40
0.0
 40
0.0
 40
0.0
 40
0.0616482097
 40
0.123319447
 40
0.1850364789
 40
0.2468215645
 40
0.3086962086
 40
0.3706809238
 40
0.4327950069
 40
0.4950563354
 40
0.5574811816
 40
0.620084074
 40
0.6828775998
 40
0.7458723259
 40
0.8090769666
 40
0.8724967557
 40
0.9361385685
 40
1.0
 40
1.0
 40
1.0
 40
1.0
 10
10.329311523
 20
7.6123203791
 30
0.0
 10
10.3331719197
 20
7.6160492204
 30
0.0
 10
10.3410963818
 20
7.6233021579
 30
0.0
 10
10.3535530465
 20
7.6335290382
 30
0.0
 10
10.3665506242
 20
7.6430799389
 30
0.0
 10
10.3800559206
 20
7.6519303814
 30
0.0
 10
10.3940350144
 20
7.6600582015
 30
0.0
 10
10.4084526491
 20
7.6674429071
 30
0.0
 10
10.4232725073
 20
7.6740659133
 30
0.0
 10
10.4384572357
 20
7.6799105794
 30
0.0
 10
10.4539685745
 20
7.6849622319
 30
0.0
 10
10.4697674511
 20
7.6892081851
 30
0.0
 10
10.4858140708
 20
7.6926377814
 30
0.0
 10
10.5020680546
 20
7.6952424268
 30
0.0
 10
10.5184883693
 20
7.697015569
 30
0.0
 10
10.5350339893
 20
7.6979529218
 30
0.0
 10
10.5516625256
 20
7.6980520019
 30
0.0
 10
10.5627577796
 20
7.6975599699
 30
0.0
 10
10.5683043528
 20
7.6971753137
 30
0.0
  0
SPLINE
  5
369
100
AcDbEntity
  8
0
100
AcDbSpline
 62
7
  6
CONTINUOUS
 70
0
 71
3
 72
37
 73
33
 74
0
 42
0.0000001
 43
0.0000001
 44
0.0000000001
 40
0.0
 40
0.0
 40
0.0
 40
0.0
 40
0.0306013745
 40
0.0613062049
 40
0.0921130058
 40
0.1230193308
 40
0.1540218034
 40
0.1851161559
 40
0.2162972751
 40
0.2475592588
 40
0.2788954764
 40
0.310298632
 40
0.3417608331
 40
0.3732736625
 40
0.404828257
 40
0.4364153889
 40
0.4996324179
 40
0.5628633555
 40
0.5944677459
 40
0.6260462912
 40
0.6575895543
 40
0.6890884048
 40
0.7205341026
 40
0.7519183785
 40
0.7832335064
 40
0.8144723831
 40
0.8456285799
 40
0.8766964031
 40
0.9076711052
 40
0.9385482274
 40
0.9693258185
 40
1.0
 40
1.0
 40
1.0
 40
1.0
 10
10.9243144457
 20
7.3022765086
 30
0.0
 10
10.9243144402
 20
7.3087114929
 30
0.0
 10
10.9239973861
 20
7.3216054084
 30
0.0
 10
10.9225775041
 20
7.3409304651
 30
0.0
 10
10.9202159889
 20
7.3602281911
 30
0.0
 10
10.9169185697
 20
7.3794515032
 30
0.0
 10
10.9126932218
 20
7.3985542821
 30
0.0
 10
10.9075501414
 20
7.4174904885
 30
0.0
 10
10.901501751
 20
7.4362145488
 30
0.0
 10
10.8945626555
 20
7.4546813909
 30
0.0
 10
10.8867495882
 20
7.4728465691
 30
0.0
 10
10.8780813861
 20
7.4906663543
 30
0.0
 10
10.8685789026
 20
7.508097879
 30
0.0
 10
10.8582651142
 20
7.5250990862
 30
0.0
 10
10.8471645463
 20
7.5416294356
 30
0.0
 10
10.8313491721
 20
7.5629910757
 30
0.0
 10
10.8097533372
 20
7.5883150334
 30
0.0
 10
10.7859292486
 20
7.6115601138
 30
0.0
 10
10.7656665572
 20
7.6287788342
 30
0.0
 10
10.7499060145
 20
7.6409722719
 30
0.0
 10
10.7336200731
 20
7.6524153595
 30
0.0
 10
10.7168475724
 20
7.6630808812
 30
0.0
 10
10.6996289766
 20
7.672943057
 30
0.0
 10
10.6820057073
 20
7.6819781629
 30
0.0
 10
10.664020187
 20
7.6901644243
 30
0.0
 10
10.6457156999
 20
7.6974821075
 30
0.0
 10
10.6271363075
 20
7.7039135513
 30
0.0
 10
10.6083267048
 20
7.7094432577
 30
0.0
 10
10.5893322796
 20
7.7140578187
 30
0.0
 10
10.5701984516
 20
7.7177462544
 30
0.0
 10
10.5509720719
 20
7.7204993752
 30
0.0
 10
10.538100413
 20
7.7217090791
 30
0.0
 10
10.531665574
 20
7.7221553367
 30
0.0
  0
SPLINE
  5
36A
100
AcDbEntity
  8
0
100
AcDbSpline
 62
7
  6
CONTINUOUS
 70
0
 71
3
 72
39
 73
35
 74
0
 42
0.0000001
 43
0.0000001
 44
0.0000000001
 40
0.0
 40
0.0
 40
0.0
 40
0.0
 40
0.0299393048
 40
0.0599022805
 40
0.0899120376
 40
0.1199905841
 40
0.1501583161
 40
0.1804335571
 40
0.2108321567
 40
0.2413671582
 40
0.2720485418
 40
0.3028830453
 40
0.333874066
 40
0.3650216372
 40
0.3963224773
 40
0.427770107
 40
0.459355027
 40
0.4910649499
 40
0.5228850821
 40
0.5547984438
 40
0.586786223
 40
0.6188281554
 40
0.6509029263
 40
0.6829885863
 40
0.7150629767
 40
0.747104156
 40
0.7790908247
 40
0.8110027395
 40
0.8428211156
 40
0.8745290113
 40
0.906111652
 40
0.937556897
 40
0.9688549576
 40
1.0
 40
1.0
 40
1.0
 40
1.0
 10
10.8072971825
 20
7.1174732405
 30
0.0
 10
10.8129207217
 20
7.1229051394
 30
0.0
 10
10.8237510296
 20
7.1342192606
 30
0.0
 10
10.8386251411
 20
7.152416859
 30
0.0
 10
10.8520555079
 20
7.1717505571
 30
0.0
 10
10.8639690087
 20
7.1921154587
 30
0.0
 10
10.874302412
 20
7.213402842
 30
0.0
 10
10.8830005378
 20
7.2354986286
 30
0.0
 10
10.8900171278
 20
7.2582845823
 30
0.0
 10
10.8953149185
 20
7.2816387996
 30
0.0
 10
10.8988658839
 20
7.3054364079
 30
0.0
 10
10.9006513574
 20
7.3295502298
 30
0.0
 10
10.9006621024
 20
7.3538514698
 30
0.0
 10
10.8988983486
 20
7.3782103969
 30
0.0
 10
10.895369778
 20
7.4024970309
 30
0.0
 10
10.8900954594
 20
7.4265818269
 30
0.0
 10
10.8831037511
 20
7.4503363589
 30
0.0
 10
10.8744321488
 20
7.4736340006
 30
0.0
 10
10.8641270631
 20
7.4963505865
 30
0.0
 10
10.8522435734
 20
7.518365065
 30
0.0
 10
10.8388451347
 20
7.5395601336
 30
0.0
 10
10.8240032391
 20
7.5598228548
 30
0.0
 10
10.8077970438
 20
7.5790452539
 30
0.0
 10
10.7903129616
 20
7.5971248986
 30
0.0
 10
10.7716441864
 20
7.6139654259
 30
0.0
 10
10.7518902046
 20
7.6294770525
 30
0.0
 10
10.7311562715
 20
7.643577047
 30
0.0
 10
10.7095528538
 20
7.6561901666
 30
0.0
 10
10.6871950647
 20
7.66724906
 30
0.0
 10
10.6642020136
 20
7.6766946326
 30
0.0
 10
10.6406963495
 20
7.6844763757
 30
0.0
 10
10.6168029588
 20
7.6905525556
 30
0.0
 10
10.5926508746
 20
7.6948905356
 30
0.0
 10
10.5764182883
 20
7.6966126104
 30
0.0
 10
10.5683043528
 20
7.6971753137
 30
0.0
  0
SPLINE
  5
36B
100
AcDbEntity
  8
0
100
AcDbSpline
 62
7
  6
CONTINUOUS
 70
0
 71
3
 72
84
 73
80
 74
0
 42
0.0000001
 43
0.0000001
 44
0.0000000001
 40
0.0
 40
0.0
 40
0.0
 40
0.0
 40
0.0027164264
 40
0.0054532293
 40
0.008230295
 40
0.0110665896
 40
0.0139797932
 40
0.0169861044
 40
0.0201000661
 40
0.0233345812
 40
0.0267009392
 40
0.0302088856
 40
0.0338668056
 40
0.037681768
 40
0.0416597414
 40
0.0458056718
 40
0.050123593
 40
0.0546167913
 40
0.0592877975
 40
0.0641385717
 40
0.0691704988
 40
0.074384467
 40
0.0797809628
 40
0.0853600226
 40
0.0911213815
 40
0.0970644148
 40
0.1094911534
 40
0.122630387
 40
0.136468035
 40
0.1509868331
 40
0.1661667198
 40
0.1819851503
 40
0.1984173662
 40
0.2154366132
 40
0.2330143274
 40
0.2511202956
 40
0.2697227959
 40
0.2887887406
 40
0.3082838034
 40
0.3281725359
 40
0.3484184777
 40
0.3689842604
 40
0.3898317162
 40
0.4109219843
 40
0.4536719359
 40
0.4969138893
 40
0.5403221212
 40
0.5835693222
 40
0.6263297187
 40
0.6474271304
 40
0.6682829869
 40
0.6888584043
 40
0.7091151927
 40
0.7290159604
 40
0.748524216
 40
0.7676044742
 40
0.7862223676
 40
0.8043447661
 40
0.8219399096
 40
0.838977535
 40
0.8554290199
 40
0.8712675451
 40
0.8864682815
 40
0.9010086172
 40
0.9148684112
 40
0.9280303001
 40
0.9404800906
 40
0.946434749
 40
0.9522077946
 40
0.957798564
 40
0.9632067735
 40
0.9684324641
 40
0.9734760551
 40
0.9783384155
 40
0.983020862
 40
0.9875253935
 40
0.9918546029
 40
0.9960115831
 40
1.0
 40
1.0
 40
1.0
 40
1.0
 10
12.4132241976
 20
8.4910260549
 30
0.0
 10
12.4122620809
 20
8.4910927813
 30
0.0
 10
12.4103355597
 20
8.4913138407
 30
0.0
 10
12.4074703038
 20
8.4919053211
 30
0.0
 10
12.4046266993
 20
8.4927566259
 30
0.0
 10
12.4018067871
 20
8.4938669575
 30
0.0
 10
12.3990119942
 20
8.4952352642
 30
0.0
 10
12.3962437931
 20
8.4968605525
 30
0.0
 10
12.3935034242
 20
8.4987416021
 30
0.0
 10
12.39079212
 20
8.5008772491
 30
0.0
 10
12.3881110678
 20
8.5032662568
 30
0.0
 10
12.3854613786
 20
8.5059072795
 30
0.0
 10
12.3828442713
 20
8.5087989939
 30
0.0
 10
12.3802608481
 20
8.5119398843
 30
0.0
 10
12.3777123148
 20
8.5153284138
 30
0.0
 10
12.3751998472
 20
8.5189629036
 30
0.0
 10
12.3727245913
 20
8.522841548
 30
0.0
 10
12.3702877839
 20
8.5269624667
 30
0.0
 10
12.3678905401
 20
8.5313236006
 30
0.0
 10
12.3655340711
 20
8.5359228166
 30
0.0
 10
12.36321952
 20
8.5407578323
 30
0.0
 10
12.3609480116
 20
8.5458262459
 30
0.0
 10
12.3587207166
 20
8.5511255532
 30
0.0
 10
12.356538697
 20
8.5566530995
 30
0.0
 10
12.3544030651
 20
8.5624061503
 30
0.0
 10
12.3515767344
 20
8.5704944091
 30
0.0
 10
12.348177936
 20
8.5811549683
 30
0.0
 10
12.3443590898
 20
8.5946154829
 30
0.0
 10
12.3407493459
 20
8.6089007886
 30
0.0
 10
12.3373560187
 20
8.6239822951
 30
0.0
 10
12.3341860067
 20
8.6398299562
 30
0.0
 10
12.3312457527
 20
8.6564120646
 30
0.0
 10
12.3285412399
 20
8.6736954142
 30
0.0
 10
12.3260779734
 20
8.6916453553
 30
0.0
 10
12.3238609693
 20
8.7102258771
 30
0.0
 10
12.3218947439
 20
8.7293996787
 30
0.0
 10
12.3201832966
 20
8.7491282479
 30
0.0
 10
12.3187301104
 20
8.769371944
 30
0.0
 10
12.3175381455
 20
8.7900900838
 30
0.0
 10
12.3166098334
 20
8.8112410233
 30
0.0
 10
12.3159470717
 20
8.8327822446
 30
0.0
 10
12.3155512232
 20
8.854670426
 30
0.0
 10
12.3154230776
 20
8.8768615882
 30
0.0
 10
12.3156104822
 20
8.9069287282
 30
0.0
 10
12.3165197475
 20
8.9449395445
 30
0.0
 10
12.3186626455
 20
8.9908349535
 30
0.0
 10
12.3218453067
 20
9.0368471032
 30
0.0
 10
12.3260421541
 20
9.0826060252
 30
0.0
 10
12.3303754441
 20
9.1203881357
 30
0.0
 10
12.334330059
 20
9.1502039699
 30
0.0
 10
12.3375128925
 20
9.1721750982
 30
0.0
 10
12.3409192605
 20
9.1938105985
 30
0.0
 10
12.3445423218
 20
9.2150669996
 30
0.0
 10
12.3483747564
 20
9.2359015593
 30
0.0
 10
12.3524088319
 20
9.2562723999
 30
0.0
 10
12.3566364057
 20
9.2761385775
 30
0.0
 10
12.3610489439
 20
9.2954601701
 30
0.0
 10
12.3656375382
 20
9.3141983613
 30
0.0
 10
12.3703929159
 20
9.3323155248
 30
0.0
 10
12.3753054677
 20
9.3497752998
 30
0.0
 10
12.3803652659
 20
9.3665426653
 30
0.0
 10
12.385562085
 20
9.3825840126
 30
0.0
 10
12.3908854276
 20
9.397867229
 30
0.0
 10
12.3963245376
 20
9.412361754
 30
0.0
 10
12.4018684399
 20
9.4260387316
 30
0.0
 10
12.407505955
 20
9.4388707959
 30
0.0
 10
12.4123415268
 20
9.4489837691
 30
0.0
 10
12.4162556716
 20
9.4566237846
 30
0.0
 10
12.4191639831
 20
9.4620416227
 30
0.0
 10
12.4220872073
 20
9.4672298801
 30
0.0
 10
12.4250238767
 20
9.4721859922
 30
0.0
 10
12.4279725357
 20
9.4769074878
 30
0.0
 10
12.4309317344
 20
9.4813920049
 30
0.0
 10
12.4338999511
 20
9.4856373333
 30
0.0
 10
12.4368757868
 20
9.4896413561
 30
0.0
 10
12.4398577781
 20
9.4934021473
 30
0.0
 10
12.4428445484
 20
9.4969178615
 30
0.0
 10
12.4458344836
 20
9.5001865902
 30
0.0
 10
12.4478703395
 20
9.5022418644
 30
0.0
 10
12.4488888253
 20
9.5032256462
 30
0.0
  0
SPLINE
  5
36C
100
AcDbEntity
  8
0
100
AcDbSpline
 62
7
  6
CONTINUOUS
 70
0
 71
3
 72
34
 73
30
 74
0
 42
0.0000001
 43
0.0000001
 44
0.0000000001
 40
0.0
 40
0.0
 40
0.0
 40
0.0
 40
0.0148819509
 40
0.0303302131
 40
0.0464801445
 40
0.0634482703
 40
0.0813323293
 40
0.1002132142
 40
0.1201562718
 40
0.1412139358
 40
0.163426908
 40
0.1868265628
 40
0.2114356352
 40
0.2372701815
 40
0.2643398425
 40
0.292649385
 40
0.3221987055
 40
0.3529840207
 40
0.3849977558
 40
0.4182294409
 40
0.452665588
 40
0.4882903313
 40
0.5250853599
 40
0.5630303315
 40
0.6422767177
 40
0.7258324304
 40
0.8134726601
 40
0.9049505928
 40
1.0
 40
1.0
 40
1.0
 40
1.0
 10
12.3829090617
 20
8.60336664
 30
0.0
 10
12.3819283151
 20
8.6037133907
 30
0.0
 10
12.3799673725
 20
8.6045315747
 30
0.0
 10
12.3771081515
 20
8.6060847552
 30
0.0
 10
12.3742865733
 20
8.6079806986
 30
0.0
 10
12.3715051487
 20
8.6102169423
 30
0.0
 10
12.3687654571
 20
8.6127910579
 30
0.0
 10
12.3660694179
 20
8.6157006914
 30
0.0
 10
12.3634187492
 20
8.6189432294
 30
0.0
 10
12.360815436
 20
8.6225160168
 30
0.0
 10
12.3582613122
 20
8.6264160475
 30
0.0
 10
12.3557584424
 20
8.6306401661
 30
0.0
 10
12.3533087189
 20
8.6351848539
 30
0.0
 10
12.3509142145
 20
8.640046387
 30
0.0
 10
12.34857682
 20
8.6452206987
 30
0.0
 10
12.3462985577
 20
8.6507034912
 30
0.0
 10
12.3440812746
 20
8.6564901524
 30
0.0
 10
12.3419269054
 20
8.6625758284
 30
0.0
 10
12.3398372269
 20
8.6689553776
 30
0.0
 10
12.3378140642
 20
8.6756234147
 30
0.0
 10
12.3358591056
 20
8.6825742896
 30
0.0
 10
12.3339740584
 20
8.689802109
 30
0.0
 10
12.3321604881
 20
8.6973007455
 30
0.0
 10
12.3298057249
 20
8.7078040045
 30
0.0
 10
12.3270641465
 20
8.7215680502
 30
0.0
 10
12.3241279236
 20
8.7388278417
 30
0.0
 10
12.3215098723
 20
8.7570028553
 30
0.0
 10
12.3192190708
 20
8.7760311382
 30
0.0
 10
12.3179385598
 20
8.7890073618
 30
0.0
 10
12.3173509946
 20
8.7956252316
 30
0.0
  0
SPLINE
  5
36D
100
AcDbEntity
  8
0
100
AcDbSpline
 62
7
  6
CONTINUOUS
 70
0
 71
3
 72
28
 73
24
 74
0
 42
0.0000001
 43
0.0000001
 44
0.0000000001
 40
0.0
 40
0.0
 40
0.0
 40
0.0
 40
0.0848878963
 40
0.1673256581
 40
0.2471637937
 40
0.3242606722
 40
0.3984834328
 40
0.4697089173
 40
0.5378246066
 40
0.6027298517
 40
0.6643374972
 40
0.7225758717
 40
0.7773910092
 40
0.8035050454
 40
0.8287530063
 40
0.8531345798
 40
0.8766515964
 40
0.8993077886
 40
0.9211094001
 40
0.9420659715
 40
0.9621896964
 40
0.9814951719
 40
1.0
 40
1.0
 40
1.0
 40
1.0
 10
12.3474695926
 20
9.2307506189
 30
0.0
 10
12.3486480954
 20
9.2358604422
 30
0.0
 10
12.3510490641
 20
9.2459148408
 30
0.0
 10
12.3548413552
 20
9.2607057152
 30
0.0
 10
12.3587660231
 20
9.2749635355
 30
0.0
 10
12.3628147558
 20
9.2886583008
 30
0.0
 10
12.3669789878
 20
9.301761281
 30
0.0
 10
12.3712498973
 20
9.3142450096
 30
0.0
 10
12.3756184483
 20
9.326083363
 30
0.0
 10
12.3800754096
 20
9.3372515925
 30
0.0
 10
12.3846113851
 20
9.3477264881
 30
0.0
 10
12.3892168072
 20
9.3574861576
 30
0.0
 10
12.3931657612
 20
9.3651253417
 30
0.0
 10
12.3963590401
 20
9.3708551513
 30
0.0
 10
12.3987265455
 20
9.3748915495
 30
0.0
 10
12.4011041841
 20
9.3787345928
 30
0.0
 10
12.4034906943
 20
9.3823822975
 30
0.0
 10
12.4058848307
 20
9.3858327635
 30
0.0
 10
12.4082854089
 20
9.389084203
 30
0.0
 10
12.4106911902
 20
9.3921349936
 30
0.0
 10
12.4131010259
 20
9.3949835404
 30
0.0
 10
12.4155135107
 20
9.397628228
 30
0.0
 10
12.4171569884
 20
9.399289123
 30
0.0
 10
12.4179791963
 20
9.4000833149
 30
0.0
  0
SPLINE
  5
36E
100
AcDbEntity
  8
0
100
AcDbSpline
 62
7
  6
CONTINUOUS
 70
0
 71
3
 72
15
 73
11
 74
0
 42
0.0000001
 43
0.0000001
 44
0.0000000001
 40
0.0
 40
0.0
 40
0.0
 40
0.0
 40
0.108441253
 40
0.220320597
 40
0.3363918236
 40
0.4573219849
 40
0.5836917571
 40
0.7160000653
 40
0.8546595225
 40
1.0
 40
1.0
 40
1.0
 40
1.0
 10
12.4390208663
 20
9.4124751111
 30
0.0
 10
12.4381446458
 20
9.4122962483
 30
0.0
 10
12.4363808169
 20
9.411847736
 30
0.0
 10
12.433760636
 20
9.4109266307
 30
0.0
 10
12.4311319443
 20
9.4097494226
 30
0.0
 10
12.4284966386
 20
9.4083172583
 30
0.0
 10
12.4258560169
 20
9.4066313798
 30
0.0
 10
12.4232115269
 20
9.4046929948
 30
0.0
 10
12.4205647752
 20
9.4025036259
 30
0.0
 10
12.418841287
 20
9.4009160307
 30
0.0
 10
12.4179791963
 20
9.4000833149
 30
0.0
  0
SPLINE
  5
36F
100
AcDbEntity
  8
0
100
AcDbSpline
 62
7
  6
CONTINUOUS
 70
0
 71
3
 72
57
 73
53
 74
0
 42
0.0000001
 43
0.0000001
 44
0.0000000001
 40
0.0
 40
0.0
 40
0.0
 40
0.0
 40
0.0075207377
 40
0.015624028
 40
0.0243308638
 40
0.0336546157
 40
0.0436024319
 40
0.0541763732
 40
0.0653744197
 40
0.0771909865
 40
0.0896175199
 40
0.1026429537
 40
0.1162538777
 40
0.130434935
 40
0.1451689949
 40
0.1604372405
 40
0.1762194575
 40
0.1924940617
 40
0.2092382116
 40
0.2264279995
 40
0.2620427455
 40
0.2991284346
 40
0.3374614777
 40
0.3768078268
 40
0.4169251372
 40
0.4575648384
 40
0.4984741894
 40
0.53939832
 40
0.5800822389
 40
0.6202728588
 40
0.6597210285
 40
0.698183566
 40
0.7354253423
 40
0.7712214699
 40
0.7885109314
 40
0.8053604617
 40
0.8217458655
 40
0.8376440888
 40
0.8530332147
 40
0.867892698
 40
0.8822034271
 40
0.8959478125
 40
0.909110096
 40
0.921676418
 40
0.9336350902
 40
0.9449769868
 40
0.9556957896
 40
0.9657885936
 40
0.9752564118
 40
0.9841051077
 40
0.992346922
 40
1.0
 40
1.0
 40
1.0
 40
1.0
 10
12.4121437888
 20
7.2877946134
 30
0.0
 10
12.4112619149
 20
7.2888789151
 30
0.0
 10
12.4095243053
 20
7.2912092867
 30
0.0
 10
12.4070790947
 20
7.2950161311
 30
0.0
 10
12.4047036631
 20
7.2992552487
 30
0.0
 10
12.4024018236
 20
7.3039197224
 30
0.0
 10
12.4001770557
 20
7.3090022929
 30
0.0
 10
12.3980329074
 20
7.3144948029
 30
0.0
 10
12.3959729
 20
7.3203884094
 30
0.0
 10
12.3940004122
 20
7.3266735191
 30
0.0
 10
12.3921187097
 20
7.3333398527
 30
0.0
 10
12.3903309637
 20
7.3403764677
 30
0.0
 10
12.3886401361
 20
7.3477717674
 30
0.0
 10
12.3870490685
 20
7.355513544
 30
0.0
 10
12.3855604472
 20
7.3635889971
 30
0.0
 10
12.3841767426
 20
7.3719847534
 30
0.0
 10
12.3829002954
 20
7.3806869016
 30
0.0
 10
12.3817332557
 20
7.3896810073
 30
0.0
 10
12.3806775391
 20
7.3989521611
 30
0.0
 10
12.3794058219
 20
7.4118146863
 30
0.0
 10
12.378117259
 20
7.4284722591
 30
0.0
 10
12.3770551404
 20
7.4490812628
 30
0.0
 10
12.3764670413
 20
7.4704028959
 30
0.0
 10
12.3763570635
 20
7.4922955828
 30
0.0
 10
12.3767261448
 20
7.514614071
 30
0.0
 10
12.3775719596
 20
7.5372101875
 30
0.0
 10
12.3788889587
 20
7.5599339039
 30
0.0
 10
12.380668423
 20
7.5826343303
 30
0.0
 10
12.3828985254
 20
7.6051607337
 30
0.0
 10
12.385564386
 20
7.6273635574
 30
0.0
 10
12.3886481849
 20
7.6490954097
 30
0.0
 10
12.3921292711
 20
7.670212122
 30
0.0
 10
12.3959843501
 20
7.6905734988
 30
0.0
 10
12.3995266643
 20
7.7069840776
 30
0.0
 10
12.4025365372
 20
7.7196278071
 30
0.0
 10
12.404844654
 20
7.7287294649
 30
0.0
 10
12.4072257158
 20
7.7375447872
 30
0.0
 10
12.4096757538
 20
7.746059164
 30
0.0
 10
12.4121906981
 20
7.7542584694
 30
0.0
 10
12.4147663407
 20
7.7621291208
 30
0.0
 10
12.4173983732
 20
7.7696580905
 30
0.0
 10
12.420082433
 20
7.7768329217
 30
0.0
 10
12.4228140196
 20
7.7836417772
 30
0.0
 10
12.4255885911
 20
7.7900734402
 30
0.0
 10
12.4284015593
 20
7.7961173371
 30
0.0
 10
12.4312482346
 20
7.8017635933
 30
0.0
 10
12.4341239562
 20
7.8070030145
 30
0.0
 10
12.4370240543
 20
7.8118271235
 30
0.0
 10
12.4399437986
 20
7.8162281906
 30
0.0
 10
12.4428787809
 20
7.820199373
 30
0.0
 10
12.4458242603
 20
7.8237340434
 30
0.0
 10
12.4478658733
 20
7.8258731796
 30
0.0
 10
12.4488888253
 20
7.8268612753
 30
0.0
  0
SPLINE
  5
370
100
AcDbEntity
  8
0
100
AcDbSpline
 62
7
  6
CONTINUOUS
 70
0
 71
3
 72
47
 73
43
 74
0
 42
0.0000001
 43
0.0000001
 44
0.0000000001
 40
0.0
 40
0.0
 40
0.0
 40
0.0
 40
0.0072739452
 40
0.0148703987
 40
0.0227978846
 40
0.031063102
 40
0.0396712776
 40
0.0486261889
 40
0.057930496
 40
0.0675857004
 40
0.077592433
 40
0.0879503969
 40
0.0986585869
 40
0.1097152564
 40
0.1211180537
 40
0.1328640385
 40
0.1449497302
 40
0.1573711835
 40
0.1832025769
 40
0.2103187156
 40
0.2386733848
 40
0.2682151186
 40
0.298887767
 40
0.3306309759
 40
0.3633806034
 40
0.3970690902
 40
0.4316257961
 40
0.4669773119
 40
0.5030477519
 40
0.5397590347
 40
0.577031153
 40
0.6147824366
 40
0.6529298098
 40
0.6913890446
 40
0.7300750129
 40
0.7689019324
 40
0.8077836248
 40
0.8466337296
 40
0.8853660521
 40
0.9238945305
 40
0.9621341655
 40
1.0
 40
1.0
 40
1.0
 40
1.0
 10
11.0061498784
 20
10.5526291091
 30
0.0
 10
11.0047401293
 20
10.5513171839
 30
0.0
 10
11.0017933023
 20
10.5487041516
 30
0.0
 10
10.997107713
 20
10.5448970577
 30
0.0
 10
10.9920652205
 20
10.5411209645
 30
0.0
 10
10.986668933
 20
10.5373780642
 30
0.0
 10
10.9809219208
 20
10.5336705252
 30
0.0
 10
10.9748275854
 20
10.530000419
 30
0.0
 10
10.9683894566
 20
10.5263699481
 30
0.0
 10
10.9616113379
 20
10.522781164
 30
0.0
 10
10.9544971883
 20
10.5192362371
 30
0.0
 10
10.9470512131
 20
10.5157372032
 30
0.0
 10
10.9392777897
 20
10.5122861723
 30
0.0
 10
10.9311815164
 20
10.50888516
 30
0.0
 10
10.922767174
 20
10.5055361987
 30
0.0
 10
10.9140397462
 20
10.5022412822
 30
0.0
 10
10.9050043919
 20
10.4990023345
 30
0.0
 10
10.8923888116
 20
10.4947048643
 30
0.0
 10
10.8758813539
 20
10.4894989656
 30
0.0
 10
10.8551832101
 20
10.4835836174
 30
0.0
 10
10.833394414
 20
10.4779354447
 30
0.0
 10
10.8105666872
 20
10.4725679781
 30
0.0
 10
10.786754065
 20
10.4674940899
 30
0.0
 10
10.7620130401
 20
10.4627259451
 30
0.0
 10
10.7364023352
 20
10.4582749747
 30
0.0
 10
10.7099827775
 20
10.454151846
 30
0.0
 10
10.682817141
 20
10.4503664382
 30
0.0
 10
10.6549699942
 20
10.4469278185
 30
0.0
 10
10.6265075418
 20
10.4438442211
 30
0.0
 10
10.5974974644
 20
10.4411230279
 30
0.0
 10
10.5680087547
 20
10.438770752
 30
0.0
 10
10.5381115517
 20
10.4367930222
 30
0.0
 10
10.5078769714
 20
10.4351945706
 30
0.0
 10
10.4773769373
 20
10.4339792209
 30
0.0
 10
10.4466840077
 20
10.4331498806
 30
0.0
 10
10.4158712006
 20
10.4327085326
 30
0.0
 10
10.3850118263
 20
10.4326562344
 30
0.0
 10
10.3541792891
 20
10.4329931073
 30
0.0
 10
10.323446977
 20
10.4337183527
 30
0.0
 10
10.2928879208
 20
10.4348302253
 30
0.0
 10
10.2625749682
 20
10.4363260778
 30
0.0
 10
10.2424648529
 20
10.4375840071
 30
0.0
 10
10.2324639978
 20
10.4382775687
 30
0.0
  0
SPLINE
  5
371
100
AcDbEntity
  8
0
100
AcDbSpline
 62
7
  6
CONTINUOUS
 70
0
 71
3
 72
22
 73
18
 74
0
 42
0.0000001
 43
0.0000001
 44
0.0000000001
 40
0.0
 40
0.0
 40
0.0
 40
0.0
 40
0.0562710993
 40
0.1132126811
 40
0.1710436936
 40
0.2299028841
 40
0.2898556707
 40
0.3509049999
 40
0.413003828
 40
0.4760674696
 40
0.539984773
 40
0.6046276276
 40
0.6698586547
 40
0.7355371797
 40
0.8015235894
 40
0.8676827017
 40
1.0
 40
1.0
 40
1.0
 40
1.0
 10
10.5996372494
 20
7.4860568514
 30
0.0
 10
10.5979634565
 20
7.4852307974
 30
0.0
 10
10.5945158694
 20
7.4837264
 30
0.0
 10
10.5891287966
 20
7.4819253921
 30
0.0
 10
10.5835282986
 20
7.4805554842
 30
0.0
 10
10.5777421257
 20
7.4796002889
 30
0.0
 10
10.5717978938
 20
7.4790409957
 30
0.0
 10
10.5657234164
 20
7.4788574916
 30
0.0
 10
10.5595459334
 20
7.4790287353
 30
0.0
 10
10.553291747
 20
7.4795332312
 30
0.0
 10
10.546985857
 20
7.4803493904
 30
0.0
 10
10.540651719
 20
7.481455847
 30
0.0
 10
10.5343110685
 20
7.4828317184
 30
0.0
 10
10.5279838988
 20
7.4844568013
 30
0.0
 10
10.5216882488
 20
7.4863117568
 30
0.0
 10
10.5133586264
 20
7.489066847
 30
0.0
 10
10.5072060006
 20
7.4914236746
 30
0.0
 10
10.503152848
 20
7.4931075404
 30
0.0
  0
SPLINE
  5
372
100
AcDbEntity
  8
0
100
AcDbSpline
 62
7
  6
CONTINUOUS
 70
0
 71
3
 72
37
 73
33
 74
0
 42
0.0000001
 43
0.0000001
 44
0.0000000001
 40
0.0
 40
0.0
 40
0.0
 40
0.0
 40
0.0639291073
 40
0.1274755898
 40
0.1591172244
 40
0.1906690317
 40
0.2221345099
 40
0.2535176846
 40
0.284823243
 40
0.3160565058
 40
0.3472233673
 40
0.3783302662
 40
0.4093841239
 40
0.440392295
 40
0.4713625174
 40
0.502302838
 40
0.5332215484
 40
0.5641271268
 40
0.5950281588
 40
0.6259332629
 40
0.6568510288
 40
0.6877899424
 40
0.7187583071
 40
0.7497641851
 40
0.7808153331
 40
0.8119191285
 40
0.843082517
 40
0.8743119667
 40
0.905613404
 40
0.9369921735
 40
0.9684530117
 40
1.0
 40
1.0
 40
1.0
 40
1.0
 10
10.0487026323
 20
9.418490304
 30
0.0
 10
10.0573230728
 20
9.4178924744
 30
0.0
 10
10.0745725566
 20
9.417439227
 30
0.0
 10
10.0960688253
 20
9.4187531881
 30
0.0
 10
10.1130659422
 20
9.4209299522
 30
0.0
 10
10.1256767708
 20
9.4231178339
 30
0.0
 10
10.1381430339
 20
9.4258591481
 30
0.0
 10
10.1504415997
 20
9.4291487374
 30
0.0
 10
10.1625493072
 20
9.4329804213
 30
0.0
 10
10.1744434137
 20
9.4373470796
 30
0.0
 10
10.1861015819
 20
9.4422404952
 30
0.0
 10
10.1975019268
 20
9.4476514639
 30
0.0
 10
10.2086230036
 20
9.453569891
 30
0.0
 10
10.2194439259
 20
9.4599846485
 30
0.0
 10
10.2299443844
 20
9.4668836628
 30
0.0
 10
10.240104618
 20
9.4742540304
 30
0.0
 10
10.24990554
 20
9.4820818993
 30
0.0
 10
10.2593287664
 20
9.4903525316
 30
0.0
 10
10.2683565588
 20
9.4990504322
 30
0.0
 10
10.2769719538
 20
9.5081592586
 30
0.0
 10
10.2851588076
 20
9.5176618612
 30
0.0
 10
10.2929017096
 20
9.5275404171
 30
0.0
 10
10.3001861067
 20
9.53777637
 30
0.0
 10
10.3069983703
 20
9.548350453
 30
0.0
 10
10.3133256815
 20
9.5592428212
 30
0.0
 10
10.319156143
 20
9.570433019
 30
0.0
 10
10.3244788711
 20
9.5818999922
 30
0.0
 10
10.3292838576
 20
9.5936222201
 30
0.0
 10
10.3335620561
 20
9.6055776704
 30
0.0
 10
10.3373055238
 20
9.6177439518
 30
0.0
 10
10.3405071757
 20
9.6300978988
 30
0.0
 10
10.3422740295
 20
9.638432631
 30
0.0
 10
10.3430655937
 20
9.6426226481
 30
0.0
  0
SPLINE
  5
373
100
AcDbEntity
  8
0
100
AcDbSpline
 62
7
  6
CONTINUOUS
 70
0
 71
3
 72
18
 73
14
 74
0
 42
0.0000001
 43
0.0000001
 44
0.0000000001
 40
0.0
 40
0.0
 40
0.0
 40
0.0
 40
0.1504686872
 40
0.2917143508
 40
0.4244422581
 40
0.4879097286
 40
0.549609416
 40
0.6682625881
 40
0.7817882869
 40
0.8371380068
 40
0.8918078217
 40
0.9460192903
 40
1.0
 40
1.0
 40
1.0
 40
1.0
 10
12.4488888253
 20
8.5073560603
 30
0.0
 10
12.4474314506
 20
8.5059483444
 30
0.0
 10
12.4445186952
 20
8.503307066
 30
0.0
 10
12.440008592
 20
8.4997872567
 30
0.0
 10
12.4361990575
 20
8.4972978539
 30
0.0
 10
12.4331612766
 20
8.4956121137
 30
0.0
 10
12.4302128692
 20
8.4941648393
 30
0.0
 10
12.4265264211
 20
8.4927024304
 30
0.0
 10
12.4227744024
 20
8.4917044678
 30
0.0
 10
12.419802691
 20
8.491212857
 30
0.0
 10
12.4176002401
 20
8.4909946863
 30
0.0
 10
12.4154067009
 20
8.4909242128
 30
0.0
 10
12.4139493664
 20
8.4909757617
 30
0.0
 10
12.4132241976
 20
8.4910260549
 30
0.0
  0
SPLINE
  5
374
100
AcDbEntity
  8
0
100
AcDbSpline
 62
7
  6
CONTINUOUS
 70
0
 71
3
 72
23
 73
19
 74
0
 42
0.0000001
 43
0.0000001
 44
0.0000000001
 40
0.0
 40
0.0
 40
0.0
 40
0.0
 40
0.0616482077
 40
0.1233194432
 40
0.1850364764
 40
0.2468215657
 40
0.3086962119
 40
0.3706809253
 40
0.4327950037
 40
0.4950563292
 40
0.5574811795
 40
0.6200840681
 40
0.6828776095
 40
0.745872322
 40
0.8090769221
 40
0.8724969185
 40
0.9361382339
 40
1.0
 40
1.0
 40
1.0
 40
1.0
 10
10.3217929969
 20
9.4186294315
 30
0.0
 10
10.3172480601
 20
9.414239356
 30
0.0
 10
10.3079183691
 20
9.4057002912
 30
0.0
 10
10.2932528301
 20
9.3936598849
 30
0.0
 10
10.2779504503
 20
9.3824153334
 30
0.0
 10
10.2620503088
 20
9.3719954643
 30
0.0
 10
10.2455923458
 20
9.3624263697
 30
0.0
 10
10.2286180787
 20
9.3537321639
 30
0.0
 10
10.2111702739
 20
9.3459347053
 30
0.0
 10
10.1932928976
 20
9.3390536014
 30
0.0
 10
10.1750309892
 20
9.3331061438
 30
0.0
 10
10.1564305485
 20
9.3281072713
 30
0.0
 10
10.1375384328
 20
9.3240695306
 30
0.0
 10
10.1184021904
 20
9.3210030049
 30
0.0
 10
10.0990701024
 20
9.318915416
 30
0.0
 10
10.0795905364
 20
9.3178118609
 30
0.0
 10
10.0600133133
 20
9.3176951871
 30
0.0
 10
10.046950592
 20
9.3182744827
 30
0.0
 10
10.0404204295
 20
9.318727351
 30
0.0
  0
SPLINE
  5
375
100
AcDbEntity
  8
0
100
AcDbSpline
 62
7
  6
CONTINUOUS
 70
0
 71
3
 72
23
 73
19
 74
0
 42
0.0000001
 43
0.0000001
 44
0.0000000001
 40
0.0
 40
0.0
 40
0.0
 40
0.0
 40
0.0639754078
 40
0.1275828661
 40
0.1908349201
 40
0.253752079
 40
0.3163653287
 40
0.3787144323
 40
0.4408469966
 40
0.5028171359
 40
0.5646838932
 40
0.6265094661
 40
0.688357313
 40
0.7502902113
 40
0.8123683372
 40
0.8746474515
 40
0.9371772607
 40
1.0
 40
1.0
 40
1.0
 40
1.0
 10
10.0745845154
 20
9.4640216733
 30
0.0
 10
10.082294147
 20
9.4634870085
 30
0.0
 10
10.0977210013
 20
9.4630553429
 30
0.0
 10
10.1207637036
 20
9.4643423601
 30
0.0
 10
10.1434903912
 20
9.4675566441
 30
0.0
 10
10.1657417203
 20
9.472676694
 30
0.0
 10
10.1873639559
 20
9.4796674237
 30
0.0
 10
10.2082070139
 20
9.4884807787
 30
0.0
 10
10.2281262859
 20
9.4990559912
 30
0.0
 10
10.2469834376
 20
9.511320008
 30
0.0
 10
10.2646475133
 20
9.5251878999
 30
0.0
 10
10.2809958648
 20
9.540563493
 30
0.0
 10
10.2959150022
 20
9.5573400759
 30
0.0
 10
10.3093014217
 20
9.5754012148
 30
0.0
 10
10.3210623685
 20
9.5946212932
 30
0.0
 10
10.3311166496
 20
9.6148673962
 30
0.0
 10
10.339394302
 20
9.6359968754
 30
0.0
 10
10.34368088
 20
9.6505430968
 30
0.0
 10
10.3455122602
 20
9.657907713
 30
0.0
  0
SPLINE
  5
376
100
AcDbEntity
  8
0
100
AcDbSpline
 62
7
  6
CONTINUOUS
 70
0
 71
3
 72
15
 73
11
 74
0
 42
0.0000001
 43
0.0000001
 44
0.0000000001
 40
0.0
 40
0.0
 40
0.0
 40
0.0
 40
0.1232474087
 40
0.2467809075
 40
0.3707290184
 40
0.4952059792
 40
0.6203079904
 40
0.7461106354
 40
0.8726642791
 40
1.0
 40
1.0
 40
1.0
 40
1.0
 10
10.3295025174
 20
9.7295603349
 30
0.0
 10
10.325434635
 20
9.7263364494
 30
0.0
 10
10.3169762656
 20
9.7202655157
 30
0.0
 10
10.303467337
 20
9.7123935442
 30
0.0
 10
10.2892289098
 20
9.7058067487
 30
0.0
 10
10.2743753619
 20
9.7005582146
 30
0.0
 10
10.2590241589
 20
9.6966888487
 30
0.0
 10
10.2432966313
 20
9.6942290165
 30
0.0
 10
10.22731876
 20
9.6931975034
 30
0.0
 10
10.2166130738
 20
9.6934667365
 30
0.0
 10
10.2112632645
 20
9.6938377471
 30
0.0
  0
SPLINE
  5
377
100
AcDbEntity
  8
0
100
AcDbSpline
 62
7
  6
CONTINUOUS
 70
0
 71
3
 72
23
 73
19
 74
0
 42
0.0000001
 43
0.0000001
 44
0.0000000001
 40
0.0
 40
0.0
 40
0.0
 40
0.0
 40
0.0638609742
 40
0.1275034352
 40
0.1909230191
 40
0.2541276449
 40
0.3171224247
 40
0.3799159145
 40
0.4425188174
 40
0.5049436698
 40
0.5672049969
 40
0.6293190749
 40
0.6913037881
 40
0.7531784374
 40
0.8149635266
 40
0.876680556
 40
0.9383517894
 40
1.0
 40
1.0
 40
1.0
 40
1.0
 10
10.0833181871
 20
9.5050522879
 30
0.0
 10
10.0874297162
 20
9.5047671524
 30
0.0
 10
10.0956544083
 20
9.5044024313
 30
0.0
 10
10.1079807933
 20
9.5044758582
 30
0.0
 10
10.1202457424
 20
9.5051707047
 30
0.0
 10
10.132417768
 20
9.5064850905
 30
0.0
 10
10.1444665042
 20
9.5084158726
 30
0.0
 10
10.1563615278
 20
9.510958166
 30
0.0
 10
10.1680729067
 20
9.5141055871
 30
0.0
 10
10.1795711424
 20
9.5178502607
 30
0.0
 10
10.1908272572
 20
9.5221828069
 30
0.0
 10
10.2018129015
 20
9.5270923145
 30
0.0
 10
10.2125003981
 20
9.5325664296
 30
0.0
 10
10.2228628179
 20
9.5385913965
 30
0.0
 10
10.2328740048
 20
9.5451520556
 30
0.0
 10
10.2425088292
 20
9.5522319488
 30
0.0
 10
10.2517426895
 20
9.5598129243
 30
0.0
 10
10.2576169483
 20
9.5651893525
 30
0.0
 10
10.2604785731
 20
9.5679534713
 30
0.0
  0
SPLINE
  5
378
100
AcDbEntity
  8
0
100
AcDbSpline
 62
7
  6
CONTINUOUS
 70
0
 71
3
 72
24
 73
20
 74
0
 42
0.0000001
 43
0.0000001
 44
0.0000000001
 40
0.0
 40
0.0
 40
0.0
 40
0.0
 40
0.0616478686
 40
0.1233187641
 40
0.1850354561
 40
0.2468202038
 40
0.2777476126
 40
0.3087000175
 40
0.3706843912
 40
0.43279813
 40
0.4950591137
 40
0.5574836211
 40
0.6200861608
 40
0.6828793526
 40
0.7458737331
 40
0.8090779103
 40
0.8724977887
 40
0.9361382808
 40
1.0
 40
1.0
 40
1.0
 40
1.0
 10
10.8815255473
 20
6.9507310412
 30
0.0
 10
10.8757405715
 20
6.9451431781
 30
0.0
 10
10.8638653845
 20
6.9342743243
 30
0.0
 10
10.8451984399
 20
6.9189487809
 30
0.0
 10
10.8257211922
 20
6.9046364051
 30
0.0
 10
10.8088607718
 20
6.8935872626
 30
0.0
 10
10.7950211821
 20
6.8852908654
 30
0.0
 10
10.7809425084
 20
6.8773538213
 30
0.0
 10
10.7629286376
 20
6.8681270877
 30
0.0
 10
10.7407206119
 20
6.8582023079
 30
0.0
 10
10.7179655097
 20
6.8494437369
 30
0.0
 10
10.694721041
 20
6.8418735957
 30
0.0
 10
10.6710456574
 20
6.8355108294
 30
0.0
 10
10.6469990241
 20
6.8303714214
 30
0.0
 10
10.6226416626
 20
6.8264682235
 30
0.0
 10
10.5980349922
 20
6.8238110339
 30
0.0
 10
10.5732406658
 20
6.8224064163
 30
0.0
 10
10.5483219901
 20
6.8222578813
 30
0.0
 10
10.5316952614
 20
6.8229952465
 30
0.0
 10
10.5233833712
 20
6.8235716781
 30
0.0
  0
SPLINE
  5
379
100
AcDbEntity
  8
0
100
AcDbSpline
 62
7
  6
CONTINUOUS
 70
0
 71
3
 72
23
 73
19
 74
0
 42
0.0000001
 43
0.0000001
 44
0.0000000001
 40
0.0
 40
0.0
 40
0.0
 40
0.0
 40
0.0755957668
 40
0.1466392768
 40
0.213465616
 40
0.2765144371
 40
0.3363265454
 40
0.3935471053
 40
0.4489233774
 40
0.5032884899
 40
0.5575264287
 40
0.6125277193
 40
0.6691437645
 40
0.7281492125
 40
0.7902196994
 40
0.8559237551
 40
0.9257265947
 40
1.0
 40
1.0
 40
1.0
 40
1.0
 10
12.4488888253
 20
7.2859427806
 30
0.0
 10
12.4481106421
 20
7.2851911133
 30
0.0
 10
12.4465552906
 20
7.283779243
 30
0.0
 10
12.4441482371
 20
7.2818930501
 30
0.0
 10
12.4417439883
 20
7.2803089174
 30
0.0
 10
12.4393447891
 20
7.2790292191
 30
0.0
 10
12.4369526199
 20
7.2780563003
 30
0.0
 10
12.4345699607
 20
7.2773924904
 30
0.0
 10
12.4321999156
 20
7.2770402041
 30
0.0
 10
12.4298464518
 20
7.2770010348
 30
0.0
 10
12.4275140855
 20
7.2772756348
 30
0.0
 10
12.4252073329
 20
7.2778631157
 30
0.0
 10
12.4229301214
 20
7.2787615544
 30
0.0
 10
12.4206854598
 20
7.2799682886
 30
0.0
 10
12.4184756294
 20
7.2814805822
 30
0.0
 10
12.4163024062
 20
7.2832957957
 30
0.0
 10
12.4141675508
 20
7.2854112566
 30
0.0
 10
12.4128145141
 20
7.2869699279
 30
0.0
 10
12.4121437888
 20
7.2877946134
 30
0.0
  0
SPLINE
  5
37A
100
AcDbEntity
  8
0
100
AcDbSpline
 62
7
  6
CONTINUOUS
 70
0
 71
3
 72
15
 73
11
 74
0
 42
0.0000001
 43
0.0000001
 44
0.0000000001
 40
0.0
 40
0.0
 40
0.0
 40
0.0
 40
0.1265799154
 40
0.2526889465
 40
0.3783232388
 40
0.5034991418
 40
0.6282304073
 40
0.7525390856
 40
0.876451755
 40
1.0
 40
1.0
 40
1.0
 40
1.0
 10
10.2065821195
 20
9.6241161108
 30
0.0
 10
10.2110280578
 20
9.6238077839
 30
0.0
 10
10.2199219011
 20
9.6234314374
 30
0.0
 10
10.233247209
 20
9.6235928684
 30
0.0
 10
10.2464948011
 20
9.6244809422
 30
0.0
 10
10.2596250118
 20
9.6260929407
 30
0.0
 10
10.2725994125
 20
9.628424274
 30
0.0
 10
10.2853798353
 20
9.6314681387
 30
0.0
 10
10.2979281327
 20
9.6352154232
 30
0.0
 10
10.306126829
 20
9.6381798063
 30
0.0
 10
10.3101736145
 20
9.639775101
 30
0.0
  0
SPLINE
  5
37B
100
AcDbEntity
  8
0
100
AcDbSpline
 62
7
  6
CONTINUOUS
 70
0
 71
3
 72
52
 73
48
 74
0
 42
0.0000001
 43
0.0000001
 44
0.0000000001
 40
0.0
 40
0.0
 40
0.0
 40
0.0
 40
0.0083982624
 40
0.0173602451
 40
0.0268933214
 40
0.036999984
 40
0.0476793272
 40
0.0589274137
 40
0.0707378428
 40
0.0831019066
 40
0.0960089657
 40
0.1094466825
 40
0.1234010925
 40
0.1378569326
 40
0.1682041467
 40
0.2003432216
 40
0.2341119049
 40
0.2693344256
 40
0.3058235339
 40
0.3433823407
 40
0.3818060356
 40
0.4208835296
 40
0.4603990544
 40
0.5001337373
 40
0.5398671611
 40
0.579378918
 40
0.6184501634
 40
0.6568651752
 40
0.694412928
 40
0.7308886922
 40
0.7660956783
 40
0.7998467552
 40
0.8319662921
 40
0.8473634636
 40
0.8622932382
 40
0.8767377841
 40
0.8906806134
 40
0.9041063485
 40
0.9170011787
 40
0.929352715
 40
0.9411504094
 40
0.9523856067
 40
0.9630519004
 40
0.9731454809
 40
0.9826654707
 40
0.9916146679
 40
1.0
 40
1.0
 40
1.0
 40
1.0
 10
12.3860273935
 20
7.3613629313
 30
0.0
 10
12.3867499905
 20
7.3622483752
 30
0.0
 10
12.3881895355
 20
7.3641233195
 30
0.0
 10
12.3902703917
 20
7.3671354617
 30
0.0
 10
12.3923393674
 20
7.3704336295
 30
0.0
 10
12.3943934924
 20
7.374012983
 30
0.0
 10
12.39642975
 20
7.3778684337
 30
0.0
 10
12.3984452058
 20
7.3819943643
 30
0.0
 10
12.4004368754
 20
7.3863847862
 30
0.0
 10
12.4024018287
 20
7.391033282
 30
0.0
 10
12.4043371622
 20
7.3959330389
 30
0.0
 10
12.4062399827
 20
7.401076862
 30
0.0
 10
12.4081075244
 20
7.4064571844
 30
0.0
 10
12.4105870066
 20
7.4140594242
 30
0.0
 10
12.4135674652
 20
7.4240991101
 30
0.0
 10
12.4169058356
 20
7.4367671977
 30
0.0
 10
12.4200415033
 20
7.45016915
 30
0.0
 10
12.4229557372
 20
7.4642258814
 30
0.0
 10
12.4256311093
 20
7.4788545368
 30
0.0
 10
12.428051652
 20
7.4939687477
 30
0.0
 10
12.4302029339
 20
7.5094792404
 30
0.0
 10
12.4320721455
 20
7.5252943577
 30
0.0
 10
12.4336481728
 20
7.5413206184
 30
0.0
 10
12.4349216609
 20
7.5574632768
 30
0.0
 10
12.4358850684
 20
7.5736268914
 30
0.0
 10
12.4365327118
 20
7.5897158951
 30
0.0
 10
12.4368608004
 20
7.6056351672
 30
0.0
 10
12.4368674599
 20
7.6212906014
 30
0.0
 10
12.436552748
 20
7.6365896752
 30
0.0
 10
12.4359186517
 20
7.6514419916
 30
0.0
 10
12.4349691042
 20
7.6657598854
 30
0.0
 10
12.4337098838
 20
7.6794587625
 30
0.0
 10
12.4323911327
 20
7.6904409277
 30
0.0
 10
12.4311790607
 20
7.698852361
 30
0.0
 10
12.4302105774
 20
7.7048679023
 30
0.0
 10
12.4291712908
 20
7.7106706788
 30
0.0
 10
12.4280627873
 20
7.7162521399
 30
0.0
 10
12.4268866712
 20
7.721604058
 30
0.0
 10
12.4256447453
 20
7.7267185579
 30
0.0
 10
12.4243388185
 20
7.7315881224
 30
0.0
 10
12.4229708624
 20
7.7362056143
 30
0.0
 10
12.4215428902
 20
7.7405642815
 30
0.0
 10
12.4200570059
 20
7.7446577809
 30
0.0
 10
12.4185154117
 20
7.7484801754
 30
0.0
 10
12.4169202758
 20
7.7520260037
 30
0.0
 10
12.4152740063
 20
7.7552900757
 30
0.0
 10
12.4141062434
 20
7.7573413027
 30
0.0
 10
12.4135124234
 20
7.758315734
 30
0.0
  0
SPLINE
  5
37C
100
AcDbEntity
  8
0
100
AcDbSpline
 62
7
  6
CONTINUOUS
 70
0
 71
3
 72
23
 73
19
 74
0
 42
0.0000001
 43
0.0000001
 44
0.0000000001
 40
0.0
 40
0.0
 40
0.0
 40
0.0
 40
0.0638312755
 40
0.1274512562
 40
0.1908576125
 40
0.2540565009
 40
0.317052493
 40
0.3798533106
 40
0.4424683272
 40
0.5049087353
 40
0.5671874865
 40
0.6293191239
 40
0.6913196714
 40
0.7532064813
 40
0.8149980654
 40
0.87671391
 40
0.9383742776
 40
1.0
 40
1.0
 40
1.0
 40
1.0
 10
10.0487026323
 20
9.3267273451
 30
0.0
 10
10.0549855612
 20
9.3262916225
 30
0.0
 10
10.0675536224
 20
9.3257223932
 30
0.0
 10
10.0863918548
 20
9.3257807052
 30
0.0
 10
10.1051431353
 20
9.3267525681
 30
0.0
 10
10.1237629991
 20
9.3286355937
 30
0.0
 10
10.1422083885
 20
9.3314255706
 30
0.0
 10
10.1604362055
 20
9.3351160016
 30
0.0
 10
10.1784039982
 20
9.339698327
 30
0.0
 10
10.1960698801
 20
9.3451619007
 30
0.0
 10
10.2133926666
 20
9.3514940238
 30
0.0
 10
10.2303319638
 20
9.3586799829
 30
0.0
 10
10.246848259
 20
9.3667030688
 30
0.0
 10
10.2629030482
 20
9.3755445954
 30
0.0
 10
10.2784588563
 20
9.3851839327
 30
0.0
 10
10.2934795251
 20
9.3955987416
 30
0.0
 10
10.3079295465
 20
9.406764318
 30
0.0
 10
10.3171626811
 20
9.4146936166
 30
0.0
 10
10.3216715311
 20
9.4187730279
 30
0.0
  0
SPLINE
  5
37D
100
AcDbEntity
  8
0
100
AcDbSpline
 62
7
  6
CONTINUOUS
 70
0
 71
3
 72
15
 73
11
 74
0
 42
0.0000001
 43
0.0000001
 44
0.0000000001
 40
0.0
 40
0.0
 40
0.0
 40
0.0
 40
0.1233762387
 40
0.2471283196
 40
0.3713107598
 40
0.4959702627
 40
0.6211447934
 40
0.7468635485
 40
0.8731450243
 40
1.0
 40
1.0
 40
1.0
 40
1.0
 10
10.8722063666
 20
7.2095378925
 30
0.0
 10
10.8660776475
 20
7.2064348665
 30
0.0
 10
10.8535818973
 20
7.2006428352
 30
0.0
 10
10.8342567251
 20
7.1932535073
 30
0.0
 10
10.8144028102
 20
7.1871803429
 30
0.0
 10
10.7941060373
 20
7.1824497053
 30
0.0
 10
10.7734527657
 20
7.1790814342
 30
0.0
 10
10.752530888
 20
7.1770898283
 30
0.0
 10
10.7314307041
 20
7.1764830708
 30
0.0
 10
10.7173339973
 20
7.1770024743
 30
0.0
 10
10.7102877325
 20
7.1774911344
 30
0.0
  0
SPLINE
  5
37E
100
AcDbEntity
  8
0
100
AcDbSpline
 62
7
  6
CONTINUOUS
 70
0
 71
3
 72
24
 73
20
 74
0
 42
0.0000001
 43
0.0000001
 44
0.0000000001
 40
0.0
 40
0.0
 40
0.0
 40
0.0
 40
0.0638380291
 40
0.1274619253
 40
0.1908713034
 40
0.2540712293
 40
0.3170667966
 40
0.3798659069
 40
0.4424781371
 40
0.5049150004
 40
0.5671897585
 40
0.6293173206
 40
0.6913141017
 40
0.7531978622
 40
0.8149875332
 40
0.8767030249
 40
0.9075420066
 40
0.9383702517
 40
1.0
 40
1.0
 40
1.0
 40
1.0
 10
10.531665574
 20
6.8315716721
 30
0.0
 10
10.539730189
 20
6.8310123892
 30
0.0
 10
10.5558621631
 20
6.8302849906
 30
0.0
 10
10.580041741
 20
6.8303746977
 30
0.0
 10
10.6041077628
 20
6.8316468471
 30
0.0
 10
10.6280023276
 20
6.8340983824
 30
0.0
 10
10.6516691352
 20
6.8377236468
 30
0.0
 10
10.6750519938
 20
6.8425140536
 30
0.0
 10
10.6980955106
 20
6.848458334
 30
0.0
 10
10.7207450481
 20
6.855542449
 30
0.0
 10
10.742946904
 20
6.8637496595
 30
0.0
 10
10.7646484376
 20
6.8730605542
 30
0.0
 10
10.7857981608
 20
6.8834530815
 30
0.0
 10
10.8063459928
 20
6.8949026974
 30
0.0
 10
10.8262428889
 20
6.9073820528
 30
0.0
 10
10.8422467625
 20
6.9186184867
 30
0.0
 10
10.8546749444
 20
6.9280899457
 30
0.0
 10
10.8668435847
 20
6.9378747714
 30
0.0
 10
10.8756793499
 20
6.9455673107
 30
0.0
 10
10.8814298277
 20
6.9508436535
 30
0.0
  0
SPLINE
  5
37F
100
AcDbEntity
  8
0
100
AcDbSpline
 62
7
  6
CONTINUOUS
 70
0
 71
3
 72
39
 73
35
 74
0
 42
0.0000001
 43
0.0000001
 44
0.0000000001
 40
0.0
 40
0.0
 40
0.0
 40
0.0
 40
0.0311267611
 40
0.0624045274
 40
0.0938276796
 40
0.1253867933
 40
0.1570701524
 40
0.1888635139
 40
0.2207505222
 40
0.252713026
 40
0.2847314385
 40
0.3167851164
 40
0.3488527519
 40
0.3809127749
 40
0.4129437584
 40
0.444924822
 40
0.4768360278
 40
0.5086587626
 40
0.5403761053
 40
0.5719731681
 40
0.603437407
 40
0.6347588966
 40
0.6659305617
 40
0.6969483613
 40
0.7278114164
 40
0.7585220743
 40
0.7890859067
 40
0.8195116376
 40
0.8498109988
 40
0.8799985118
 40
0.9100911955
 40
0.9401082084
 40
0.9700704311
 40
1.0
 40
1.0
 40
1.0
 40
1.0
 10
10.0487026323
 20
9.3267273451
 30
0.0
 10
10.0392745843
 20
9.3273811824
 30
0.0
 10
10.0204131435
 20
9.3293730714
 30
0.0
 10
9.9923446389
 20
9.334373782
 30
0.0
 10
9.9645689625
 20
9.3413687837
 30
0.0
 10
9.9372322354
 20
9.3503214731
 30
0.0
 10
9.9104759511
 20
9.3611850912
 30
0.0
 10
9.8844391545
 20
9.3739030517
 30
0.0
 10
9.8592569644
 20
9.3884091319
 30
0.0
 10
9.8350600971
 20
9.4046278703
 30
0.0
 10
9.811974143
 20
9.422474957
 30
0.0
 10
9.7901189385
 20
9.4418576663
 30
0.0
 10
9.7696079522
 20
9.4626753369
 30
0.0
 10
9.7505476786
 20
9.4848198656
 30
0.0
 10
9.7330370991
 20
9.5081762785
 30
0.0
 10
9.717167186
 20
9.5326233323
 30
0.0
 10
9.7030204307
 20
9.5580341313
 30
0.0
 10
9.6906704253
 20
9.5842767807
 30
0.0
 10
9.6801814562
 20
9.6112150495
 30
0.0
 10
9.6716081706
 20
9.6387090749
 30
0.0
 10
9.6649953158
 20
9.666616088
 30
0.0
 10
9.6603774964
 20
9.6947911407
 30
0.0
 10
9.6577789962
 20
9.7230878479
 30
0.0
 10
9.6572136227
 20
9.7513591347
 30
0.0
 10
9.6586846116
 20
9.7794579975
 30
0.0
 10
9.6621846312
 20
9.8072382631
 30
0.0
 10
9.6676957962
 20
9.8345553413
 30
0.0
 10
9.6751897519
 20
9.861266978
 30
0.0
 10
9.6846277788
 20
9.8872339873
 30
0.0
 10
9.6959610001
 20
9.9123210455
 30
0.0
 10
9.7091304872
 20
9.9363972171
 30
0.0
 10
9.7240681892
 20
9.9593373222
 30
0.0
 10
9.740694898
 20
9.9810201165
 30
0.0
 10
9.7528548515
 20
9.9945694484
 30
0.0
 10
9.7591812699
 20
10.0010927654
 30
0.0
  0
SPLINE
  5
380
100
AcDbEntity
  8
0
100
AcDbSpline
 62
7
  6
CONTINUOUS
 70
0
 71
3
 72
39
 73
35
 74
0
 42
0.0000001
 43
0.0000001
 44
0.0000000001
 40
0.0
 40
0.0
 40
0.0
 40
0.0
 40
0.0311307081
 40
0.0624128798
 40
0.0938407755
 40
0.1254049786
 40
0.1570936328
 40
0.1888923967
 40
0.2207847878
 40
0.2527525213
 40
0.2847758699
 40
0.3168340499
 40
0.3489056181
 40
0.3809688786
 40
0.4130022923
 40
0.4449848844
 40
0.476896645
 40
0.5087189177
 40
0.5404347666
 40
0.5720293193
 40
0.603490084
 40
0.6348072235
 40
0.6659737854
 40
0.6969858869
 40
0.7278428407
 40
0.7585472141
 40
0.7891048236
 40
0.8195246605
 40
0.8498187361
 40
0.8800018533
 40
0.9100913103
 40
0.9401065329
 40
0.9700686463
 40
1.0
 40
1.0
 40
1.0
 40
1.0
 10
10.531665574
 20
6.8315716721
 30
0.0
 10
10.5196311677
 20
6.8324062611
 30
0.0
 10
10.4955554864
 20
6.8349512959
 30
0.0
 10
10.4597288255
 20
6.841345326
 30
0.0
 10
10.4242780518
 20
6.8502919317
 30
0.0
 10
10.3893907342
 20
6.8617440279
 30
0.0
 10
10.3552484591
 20
6.8756414842
 30
0.0
 10
10.3220296416
 20
6.8919114317
 30
0.0
 10
10.289907652
 20
6.9104687111
 30
0.0
 10
10.2590501991
 20
6.9312162792
 30
0.0
 10
10.229618329
 20
6.954045639
 30
0.0
 10
10.2017656737
 20
6.9788375008
 30
0.0
 10
10.17563767
 20
7.0054624001
 30
0.0
 10
10.1513707413
 20
7.0337812927
 30
0.0
 10
10.1290916097
 20
7.0636463094
 30
0.0
 10
10.1089166957
 20
7.0949015591
 30
0.0
 10
10.0909514872
 20
7.1273839007
 30
0.0
 10
10.075289917
 20
7.1609237504
 30
0.0
 10
10.0620139715
 20
7.1953460165
 30
0.0
 10
10.0511932734
 20
7.2304709894
 30
0.0
 10
10.0428846099
 20
7.2661152315
 30
0.0
 10
10.037131687
 20
7.3020925525
 30
0.0
 10
10.0339649493
 20
7.338214973
 30
0.0
 10
10.0334013571
 20
7.3742936772
 30
0.0
 10
10.0354442181
 20
7.4101399968
 30
0.0
 10
10.0400832662
 20
7.4455663958
 30
0.0
 10
10.0472946898
 20
7.480387427
 30
0.0
 10
10.0570411202
 20
7.5144207305
 30
0.0
 10
10.0692718741
 20
7.5474879725
 30
0.0
 10
10.0839232969
 20
7.579415827
 30
0.0
 10
10.1009187836
 20
7.6100366904
 30
0.0
 10
10.1201699654
 20
7.6391904642
 30
0.0
 10
10.1415741733
 20
7.6667222011
 30
0.0
 10
10.1572130425
 20
7.6839083012
 30
0.0
 10
10.1653459054
 20
7.6921777038
 30
0.0
  0
SPLINE
  5
381
100
AcDbEntity
  8
0
100
AcDbSpline
 62
7
  6
CONTINUOUS
 70
0
 71
3
 72
81
 73
77
 74
0
 42
0.0000001
 43
0.0000001
 44
0.0000000001
 40
0.0
 40
0.0
 40
0.0
 40
0.0
 40
0.0040522865
 40
0.0082800484
 40
0.0126871457
 40
0.0172767791
 40
0.0220516215
 40
0.0270137632
 40
0.0321645704
 40
0.0375048598
 40
0.0430350297
 40
0.0487550092
 40
0.0607619383
 40
0.0735190645
 40
0.0870145279
 40
0.1012325854
 40
0.1161540985
 40
0.1317569687
 40
0.1480164937
 40
0.1649056383
 40
0.1823952403
 40
0.2004542135
 40
0.2190497475
 40
0.238147463
 40
0.25771154
 40
0.2777048484
 40
0.2980890993
 40
0.3188249655
 40
0.33987219
 40
0.382734923
 40
0.4263418904
 40
0.4703492636
 40
0.5144091862
 40
0.5581732688
 40
0.6012961061
 40
0.6225111972
 40
0.6434396023
 40
0.6640405611
 40
0.6842741604
 40
0.7041014642
 40
0.7234846422
 40
0.7423870779
 40
0.7607734935
 40
0.7786101014
 40
0.7958647727
 40
0.8125071769
 40
0.8285089587
 40
0.843843959
 40
0.8584884905
 40
0.8724216053
 40
0.8856254483
 40
0.8980857219
 40
0.9097923109
 40
0.9153614976
 40
0.9207407701
 40
0.9259304498
 40
0.9309312886
 40
0.9357445188
 40
0.9403720135
 40
0.944816225
 40
0.9490803694
 40
0.953168509
 40
0.9570855896
 40
0.9608376901
 40
0.9644320552
 40
0.9678772734
 40
0.9711834766
 40
0.9774234799
 40
0.9803900894
 40
0.983275264
 40
0.986097755
 40
0.9888776956
 40
0.9916362485
 40
0.9943951135
 40
0.9971759837
 40
1.0
 40
1.0
 40
1.0
 40
1.0
 10
12.4179791963
 20
8.6147855716
 30
0.0
 10
12.4188020986
 20
8.6155804343
 30
0.0
 10
12.4204469624
 20
8.6172427934
 30
0.0
 10
12.4228614381
 20
8.6198899274
 30
0.0
 10
12.4252732577
 20
8.6227412547
 30
0.0
 10
12.427681013
 20
8.6257951559
 30
0.0
 10
12.4300835525
 20
8.6290500322
 30
0.0
 10
12.4324796343
 20
8.6325042566
 30
0.0
 10
12.4348680713
 20
8.6361560362
 30
0.0
 10
12.4372476144
 20
8.6400034661
 30
0.0
 10
12.4396169996
 20
8.6440445567
 30
0.0
 10
12.4428128159
 20
8.6497811821
 30
0.0
 10
12.4467648388
 20
8.6574296203
 30
0.0
 10
12.4513737036
 20
8.6672012663
 30
0.0
 10
12.4559129521
 20
8.6776891965
 30
0.0
 10
12.4603729941
 20
8.6888714552
 30
0.0
 10
12.4647444106
 20
8.7007247649
 30
0.0
 10
12.4690179495
 20
8.7132243047
 30
0.0
 10
12.4731845538
 20
8.7263438735
 30
0.0
 10
12.4772353831
 20
8.7400559274
 30
0.0
 10
12.4811618494
 20
8.7543316407
 30
0.0
 10
12.4849556364
 20
8.7691409719
 30
0.0
 10
12.4886087033
 20
8.784452743
 30
0.0
 10
12.492113305
 20
8.8002347083
 30
0.0
 10
12.4954620139
 20
8.8164536156
 30
0.0
 10
12.4986477486
 20
8.8330752796
 30
0.0
 10
12.5016637578
 20
8.8500646529
 30
0.0
 10
12.504503683
 20
8.8673859447
 30
0.0
 10
12.5080688599
 20
8.891017585
 30
0.0
 10
12.5120351195
 20
8.9211165114
 30
0.0
 10
12.515979866
 20
8.9577462829
 30
0.0
 10
12.5191045883
 20
8.9947943561
 30
0.0
 10
12.5213829371
 20
9.0319485251
 30
0.0
 10
12.5227956847
 20
9.0688956948
 30
0.0
 10
12.5232444801
 20
9.0994166485
 30
0.0
 10
12.5231546329
 20
9.1234907146
 30
0.0
 10
12.522866082
 20
9.1412038496
 30
0.0
 10
12.5223567135
 20
9.1586347829
 30
0.0
 10
12.5216275944
 20
9.1757467848
 30
0.0
 10
12.5206802921
 20
9.1925037666
 30
0.0
 10
12.5195168395
 20
9.2088704074
 30
0.0
 10
12.5181397253
 20
9.2248122124
 30
0.0
 10
12.5165518872
 20
9.2402955868
 30
0.0
 10
12.514756712
 20
9.2552879157
 30
0.0
 10
12.5127580436
 20
9.2697576392
 30
0.0
 10
12.5105601529
 20
9.2836743164
 30
0.0
 10
12.5081677313
 20
9.2970086888
 30
0.0
 10
12.5055858792
 20
9.3097327542
 30
0.0
 10
12.5028201162
 20
9.3218198504
 30
0.0
 10
12.4998763408
 20
9.333244689
 30
0.0
 10
12.4967608097
 20
9.3439835062
 30
0.0
 10
12.4934801126
 20
9.3540138266
 30
0.0
 10
12.490567881
 20
9.3618908578
 30
0.0
 10
12.4881526865
 20
9.3678141991
 30
0.0
 10
12.4863344778
 20
9.3719925634
 30
0.0
 10
12.4844802699
 20
9.3759788112
 30
0.0
 10
12.4825910055
 20
9.3797708807
 30
0.0
 10
12.4806676236
 20
9.383366784
 30
0.0
 10
12.4787111629
 20
9.3867646841
 30
0.0
 10
12.4767225756
 20
9.3899628094
 30
0.0
 10
12.4747028601
 20
9.3929595081
 30
0.0
 10
12.4726530491
 20
9.3957532612
 30
0.0
 10
12.4705740834
 20
9.3983425798
 30
0.0
 10
12.4684669733
 20
9.4007261647
 30
0.0
 10
12.4663327819
 20
9.4029026922
 30
0.0
 10
12.4641721173
 20
9.4048711512
 30
0.0
 10
12.4613136465
 20
9.407171852
 30
0.0
 10
12.4583462432
 20
9.4091156599
 30
0.0
 10
12.4552883911
 20
9.4106406973
 30
0.0
 10
12.4530120676
 20
9.4115521655
 30
0.0
 10
12.4507161958
 20
9.4122493964
 30
0.0
 10
12.4484020861
 20
9.4127317195
 30
0.0
 10
12.4460713802
 20
9.4129985739
 30
0.0
 10
12.4437256972
 20
9.4130497909
 30
0.0
 10
12.4413669529
 20
9.4128853374
 30
0.0
 10
12.4398020764
 20
9.4126345794
 30
0.0
 10
12.4390208663
 20
9.4124751111
 30
0.0
  0
SPLINE
  5
382
100
AcDbEntity
  8
0
100
AcDbSpline
 62
7
  6
CONTINUOUS
 70
0
 71
3
 72
71
 73
67
 74
0
 42
0.0000001
 43
0.0000001
 44
0.0000000001
 40
0.0
 40
0.0
 40
0.0
 40
0.0
 40
0.015674438
 40
0.0314011795
 40
0.0471782227
 40
0.0630046481
 40
0.0788782334
 40
0.094796625
 40
0.1107570037
 40
0.1267561806
 40
0.1427906335
 40
0.1588565284
 40
0.1749497586
 40
0.1910659807
 40
0.2072006544
 40
0.2233490822
 40
0.2395064489
 40
0.2556678624
 40
0.2718283957
 40
0.2879831303
 40
0.3041271973
 40
0.3202558188
 40
0.3363643478
 40
0.3524483094
 40
0.3685034413
 40
0.3845257307
 40
0.4005114503
 40
0.4164571916
 40
0.4323598989
 40
0.4482168993
 40
0.4640259299
 40
0.4797851604
 40
0.4954932135
 40
0.5111491828
 40
0.5267526473
 40
0.5423036788
 40
0.557802846
 40
0.5732512131
 40
0.5886503358
 40
0.6040022517
 40
0.6193094643
 40
0.6345749218
 40
0.6498019903
 40
0.6649944245
 40
0.6801563324
 40
0.6952921361
 40
0.7104065266
 40
0.7255044166
 40
0.7405908899
 40
0.7556711499
 40
0.7707504656
 40
0.7858341159
 40
0.8009273343
 40
0.8160352534
 40
0.8311628528
 40
0.8463149082
 40
0.861495943
 40
0.8767101824
 40
0.8919615123
 40
0.9072534399
 40
0.9225890703
 40
0.9379710563
 40
0.9534016237
 40
0.9688825129
 40
0.9844147556
 40
1.0
 40
1.0
 40
1.0
 40
1.0
 10
10.531665574
 20
6.9368575934
 30
0.0
 10
10.5253018634
 20
6.9372989183
 30
0.0
 10
10.5125725088
 20
6.9384917773
 30
0.0
 10
10.4935572835
 20
6.9411990891
 30
0.0
 10
10.4746315727
 20
6.9448213561
 30
0.0
 10
10.4558407155
 20
6.9493497379
 30
0.0
 10
10.4372286486
 20
6.9547737064
 30
0.0
 10
10.4188393032
 20
6.9610804
 30
0.0
 10
10.400715944
 20
6.9682549448
 30
0.0
 10
10.3829012396
 20
6.9762804095
 30
0.0
 10
10.3654371256
 20
6.985137871
 30
0.0
 10
10.3483647149
 20
6.994806461
 30
0.0
 10
10.3317242046
 20
7.0052634111
 30
0.0
 10
10.3155547611
 20
7.0164840766
 30
0.0
 10
10.2998944404
 20
7.0284420196
 30
0.0
 10
10.284780105
 20
7.041109078
 30
0.0
 10
10.2702473373
 20
7.0544554278
 30
0.0
 10
10.2563303619
 20
7.0684496563
 30
0.0
 10
10.2430619386
 20
7.0830588086
 30
0.0
 10
10.230473298
 20
7.098248483
 30
0.0
 10
10.2185940803
 20
7.1139829211
 30
0.0
 10
10.2074522628
 20
7.1302250864
 30
0.0
 10
10.1970741016
 20
7.1469367536
 30
0.0
 10
10.1874840402
 20
7.1640785796
 30
0.0
 10
10.1787046616
 20
7.1816102058
 30
0.0
 10
10.1707566534
 20
7.1994903625
 30
0.0
 10
10.1636587544
 20
7.2176769599
 30
0.0
 10
10.1574277182
 20
7.2361271885
 30
0.0
 10
10.1520782444
 20
7.2547976081
 30
0.0
 10
10.1476229469
 20
7.2736442553
 30
0.0
 10
10.144072349
 20
7.2926227533
 30
0.0
 10
10.141434852
 20
7.3116884114
 30
0.0
 10
10.1397167224
 20
7.330796329
 30
0.0
 10
10.1389220501
 20
7.3499014978
 30
0.0
 10
10.1390527334
 20
7.3689589109
 30
0.0
 10
10.1401085052
 20
7.3879236702
 30
0.0
 10
10.1420869248
 20
7.4067510887
 30
0.0
 10
10.1449833897
 20
7.4253967936
 30
0.0
 10
10.1487911235
 20
7.4438168323
 30
0.0
 10
10.1535011781
 20
7.4619677834
 30
0.0
 10
10.1591024896
 20
7.479806852
 30
0.0
 10
10.1655818952
 20
7.4972919706
 30
0.0
 10
10.1729241678
 20
7.514381895
 30
0.0
 10
10.1811120355
 20
7.5310363072
 30
0.0
 10
10.1901262032
 20
7.5472159248
 30
0.0
 10
10.1999454336
 20
7.5628825781
 30
0.0
 10
10.2105465899
 20
7.5779993024
 30
0.0
 10
10.2219046929
 20
7.5925304222
 30
0.0
 10
10.2339929698
 20
7.606441642
 30
0.0
 10
10.2467828971
 20
7.6197001501
 30
0.0
 10
10.2602443019
 20
7.6322746715
 30
0.0
 10
10.2743454284
 20
7.6441355438
 30
0.0
 10
10.289053014
 20
7.6552547855
 30
0.0
 10
10.3043323634
 20
7.6656061652
 30
0.0
 10
10.3201474137
 20
7.6751652951
 30
0.0
 10
10.3364608467
 20
7.6839096549
 30
0.0
 10
10.3532341751
 20
7.6918186461
 30
0.0
 10
10.3704278329
 20
7.698873639
 30
0.0
 10
10.3880012669
 20
7.7050580144
 30
0.0
 10
10.4059130229
 20
7.710357245
 30
0.0
 10
10.4241208539
 20
7.7147588791
 30
0.0
 10
10.4425818423
 20
7.7182525929
 30
0.0
 10
10.4612524365
 20
7.7208301845
 30
0.0
 10
10.4800887116
 20
7.722485573
 30
0.0
 10
10.4990459698
 20
7.7232150477
 30
0.0
 10
10.5117150243
 20
7.723083005
 30
0.0
 10
10.5180539134
 20
7.7228632743
 30
0.0
  0
SPLINE
  5
383
100
AcDbEntity
  8
0
100
AcDbSpline
 62
7
  6
CONTINUOUS
 70
0
 71
3
 72
84
 73
80
 74
0
 42
0.0000001
 43
0.0000001
 44
0.0000000001
 40
0.0
 40
0.0
 40
0.0
 40
0.0
 40
0.0027164264
 40
0.0054532293
 40
0.008230295
 40
0.0110665896
 40
0.0139797932
 40
0.0169861044
 40
0.0201000661
 40
0.0233345812
 40
0.0267009392
 40
0.0302088856
 40
0.0338668056
 40
0.037681768
 40
0.0416597414
 40
0.0458056718
 40
0.050123593
 40
0.0546167913
 40
0.0592877975
 40
0.0641385717
 40
0.0691704988
 40
0.074384467
 40
0.0797809628
 40
0.0853600226
 40
0.0911213815
 40
0.0970644148
 40
0.1094911534
 40
0.122630387
 40
0.136468035
 40
0.1509868331
 40
0.1661667198
 40
0.1819851503
 40
0.1984173662
 40
0.2154366132
 40
0.2330143274
 40
0.2511202956
 40
0.2697227959
 40
0.2887887406
 40
0.3082838034
 40
0.3281725359
 40
0.3484184777
 40
0.3689842604
 40
0.3898317162
 40
0.4109219843
 40
0.4536719359
 40
0.4969138893
 40
0.5403221212
 40
0.5835693222
 40
0.6263297187
 40
0.6474271304
 40
0.6682829869
 40
0.6888584043
 40
0.7091151927
 40
0.7290159604
 40
0.748524216
 40
0.7676044742
 40
0.7862223676
 40
0.8043447661
 40
0.8219399096
 40
0.838977535
 40
0.8554290199
 40
0.8712675451
 40
0.8864682815
 40
0.9010086172
 40
0.9148684112
 40
0.9280303001
 40
0.9404800906
 40
0.946434749
 40
0.9522077946
 40
0.957798564
 40
0.9632067735
 40
0.9684324641
 40
0.9734760551
 40
0.9783384155
 40
0.983020862
 40
0.9875253935
 40
0.9918546029
 40
0.9960115831
 40
1.0
 40
1.0
 40
1.0
 40
1.0
 10
12.484553453
 20
9.5195556516
 30
0.0
 10
12.4855155697
 20
9.5194889251
 30
0.0
 10
12.4874420909
 20
9.5192678658
 30
0.0
 10
12.4903073468
 20
9.5186763853
 30
0.0
 10
12.4931509513
 20
9.5178250805
 30
0.0
 10
12.4959708635
 20
9.5167147489
 30
0.0
 10
12.4987656564
 20
9.5153464423
 30
0.0
 10
12.5015338575
 20
9.5137211539
 30
0.0
 10
12.5042742264
 20
9.5118401043
 30
0.0
 10
12.5069855306
 20
9.5097044573
 30
0.0
 10
12.5096665827
 20
9.5073154496
 30
0.0
 10
12.512316272
 20
9.504674427
 30
0.0
 10
12.5149333792
 20
9.5017827126
 30
0.0
 10
12.5175168024
 20
9.4986418222
 30
0.0
 10
12.5200653357
 20
9.4952532926
 30
0.0
 10
12.5225778034
 20
9.4916188029
 30
0.0
 10
12.5250530593
 20
9.4877401584
 30
0.0
 10
12.5274898666
 20
9.4836192397
 30
0.0
 10
12.5298871105
 20
9.4792581059
 30
0.0
 10
12.5322435795
 20
9.4746588898
 30
0.0
 10
12.5345581306
 20
9.4698238742
 30
0.0
 10
12.536829639
 20
9.4647554606
 30
0.0
 10
12.5390569339
 20
9.4594561532
 30
0.0
 10
12.5412389536
 20
9.453928607
 30
0.0
 10
12.5433745855
 20
9.4481755561
 30
0.0
 10
12.5462009162
 20
9.4400872974
 30
0.0
 10
12.5495997146
 20
9.4294267381
 30
0.0
 10
12.5534185608
 20
9.4159662236
 30
0.0
 10
12.5570283047
 20
9.4016809178
 30
0.0
 10
12.5604216318
 20
9.3865994114
 30
0.0
 10
12.5635916439
 20
9.3707517503
 30
0.0
 10
12.5665318979
 20
9.3541696418
 30
0.0
 10
12.5692364107
 20
9.3368862923
 30
0.0
 10
12.5716996771
 20
9.3189363511
 30
0.0
 10
12.5739166813
 20
9.3003558294
 30
0.0
 10
12.5758829066
 20
9.2811820278
 30
0.0
 10
12.577594354
 20
9.2614534586
 30
0.0
 10
12.5790475401
 20
9.2412097624
 30
0.0
 10
12.5802395051
 20
9.2204916227
 30
0.0
 10
12.5811678171
 20
9.1993406831
 30
0.0
 10
12.5818305789
 20
9.1777994618
 30
0.0
 10
12.5822264274
 20
9.1559112805
 30
0.0
 10
12.5823545729
 20
9.1337201183
 30
0.0
 10
12.5821671684
 20
9.1036529783
 30
0.0
 10
12.5812579031
 20
9.065642162
 30
0.0
 10
12.579115005
 20
9.019746753
 30
0.0
 10
12.5759323439
 20
8.9737346032
 30
0.0
 10
12.5717354965
 20
8.9279756813
 30
0.0
 10
12.5674022065
 20
8.8901935708
 30
0.0
 10
12.5634475915
 20
8.8603777366
 30
0.0
 10
12.5602647581
 20
8.8384066082
 30
0.0
 10
12.55685839
 20
8.816771108
 30
0.0
 10
12.5532353287
 20
8.7955147069
 30
0.0
 10
12.5494028942
 20
8.7746801471
 30
0.0
 10
12.5453688186
 20
8.7543093066
 30
0.0
 10
12.5411412449
 20
8.734443129
 30
0.0
 10
12.5367287067
 20
8.7151215364
 30
0.0
 10
12.5321401123
 20
8.6963833452
 30
0.0
 10
12.5273847346
 20
8.6782661817
 30
0.0
 10
12.5224721829
 20
8.6608064067
 30
0.0
 10
12.5174123847
 20
8.6440390412
 30
0.0
 10
12.5122155656
 20
8.6279976939
 30
0.0
 10
12.506892223
 20
8.6127144775
 30
0.0
 10
12.5014531129
 20
8.5982199525
 30
0.0
 10
12.4959092107
 20
8.5845429749
 30
0.0
 10
12.4902716955
 20
8.5717109105
 30
0.0
 10
12.4854361237
 20
8.5615979373
 30
0.0
 10
12.4815219789
 20
8.5539579219
 30
0.0
 10
12.4786136675
 20
8.5485400838
 30
0.0
 10
12.4756904433
 20
8.5433518263
 30
0.0
 10
12.4727537738
 20
8.5383957143
 30
0.0
 10
12.4698051148
 20
8.5336742186
 30
0.0
 10
12.4668459162
 20
8.5291897016
 30
0.0
 10
12.4638776995
 20
8.5249443732
 30
0.0
 10
12.4609018638
 20
8.5209403504
 30
0.0
 10
12.4579198725
 20
8.5171795592
 30
0.0
 10
12.4549331022
 20
8.5136638449
 30
0.0
 10
12.451943167
 20
8.5103951163
 30
0.0
 10
12.4499073111
 20
8.508339842
 30
0.0
 10
12.4488888253
 20
8.5073560603
 30
0.0
  0
SPLINE
  5
384
100
AcDbEntity
  8
0
100
AcDbSpline
 62
7
  6
CONTINUOUS
 70
0
 71
3
 72
71
 73
67
 74
0
 42
0.0000001
 43
0.0000001
 44
0.0000000001
 40
0.0
 40
0.0
 40
0.0
 40
0.0
 40
0.0156735421
 40
0.0313988053
 40
0.0471736305
 40
0.0629972634
 40
0.0788675388
 40
0.0947821781
 40
0.1107384785
 40
0.1267333628
 40
0.1427634377
 40
0.158825004
 40
0.1749140967
 40
0.1910265207
 40
0.2071578863
 40
0.2233036451
 40
0.239459128
 40
0.2556195859
 40
0.2717802296
 40
0.2879362682
 40
0.3040829472
 40
0.3202155903
 40
0.3363296391
 40
0.3524206901
 40
0.3684845311
 40
0.3845171779
 40
0.4005149113
 40
0.4164743096
 40
0.4323922779
 40
0.448266077
 40
0.464093353
 40
0.4798721602
 40
0.4956009812
 40
0.5112787427
 40
0.5269048314
 40
0.5424791058
 40
0.5580019
 40
0.5734740249
 40
0.5888967647
 40
0.6042718723
 40
0.6196015567
 40
0.6348884637
 40
0.6501356541
 40
0.665346578
 40
0.6805250452
 40
0.6956751885
 40
0.7108014235
 40
0.7259084054
 40
0.7410009846
 40
0.7560841584
 40
0.7711630199
 40
0.786242705
 40
0.8013283409
 40
0.8164249947
 40
0.8315376225
 40
0.8466710184
 40
0.8618297659
 40
0.8770181934
 40
0.8922403339
 40
0.9074998859
 40
0.9228001795
 40
0.9381441482
 40
0.9535342813
 40
0.9689726915
 40
0.9844609166
 40
1.0
 40
1.0
 40
1.0
 40
1.0
 10
10.5596180078
 20
6.9918100313
 30
0.0
 10
10.5537874737
 20
6.9922143802
 30
0.0
 10
10.5421246352
 20
6.9933034441
 30
0.0
 10
10.52470104
 20
6.9957668326
 30
0.0
 10
10.5073572388
 20
6.9990573867
 30
0.0
 10
10.4901337033
 20
7.0031672558
 30
0.0
 10
10.4730695959
 20
7.0080871735
 30
0.0
 10
10.4562041189
 20
7.0138057741
 30
0.0
 10
10.4395758814
 20
7.0203099172
 30
0.0
 10
10.4232229808
 20
7.0275846788
 30
0.0
 10
10.4071828821
 20
7.0356133734
 30
0.0
 10
10.3914923409
 20
7.0443776076
 30
0.0
 10
10.3761872908
 20
7.0538572642
 30
0.0
 10
10.3613027861
 20
7.0640306037
 30
0.0
 10
10.3468729228
 20
7.0748743098
 30
0.0
 10
10.3329307693
 20
7.0863635478
 30
0.0
 10
10.319508265
 20
7.098471987
 30
0.0
 10
10.3066361457
 20
7.1111718674
 30
0.0
 10
10.2943438995
 20
7.1244340915
 30
0.0
 10
10.2826596961
 20
7.1382282824
 30
0.0
 10
10.2716103255
 20
7.1525228513
 30
0.0
 10
10.261221091
 20
7.167285037
 30
0.0
 10
10.251515796
 20
7.1824810186
 30
0.0
 10
10.2425166876
 20
7.1980759882
 30
0.0
 10
10.2342444167
 20
7.2140342319
 30
0.0
 10
10.2267179515
 20
7.2303191902
 30
0.0
 10
10.219954537
 20
7.2468935481
 30
0.0
 10
10.2139696894
 20
7.2637193362
 30
0.0
 10
10.2087771556
 20
7.2807580101
 30
0.0
 10
10.2043888813
 20
7.2979705355
 30
0.0
 10
10.2008149296
 20
7.3153174661
 30
0.0
 10
10.1980635138
 20
7.3327590508
 30
0.0
 10
10.1961409748
 20
7.3502553198
 30
0.0
 10
10.1950517769
 20
7.3677661737
 30
0.0
 10
10.1947984509
 20
7.3852514709
 30
0.0
 10
10.1953815943
 20
7.4026711258
 30
0.0
 10
10.1967999077
 20
7.4199851995
 30
0.0
 10
10.1990501886
 20
7.4371539874
 30
0.0
 10
10.2021273368
 20
7.4541381076
 30
0.0
 10
10.2060243096
 20
7.4708986036
 30
0.0
 10
10.2107321986
 20
7.4873970265
 30
0.0
 10
10.2162402426
 20
7.5035955201
 30
0.0
 10
10.2225358613
 20
7.5194569023
 30
0.0
 10
10.2296046369
 20
7.5349447668
 30
0.0
 10
10.2374303581
 20
7.5500235707
 30
0.0
 10
10.2459950906
 20
7.5646586995
 30
0.0
 10
10.2552792091
 20
7.5788165475
 30
0.0
 10
10.2652614383
 20
7.592464595
 30
0.0
 10
10.2759188575
 20
7.605571519
 30
0.0
 10
10.2872270068
 20
7.6181072322
 30
0.0
 10
10.299159936
 20
7.6300429537
 30
0.0
 10
10.3116902704
 20
7.6413512658
 30
0.0
 10
10.3247892392
 20
7.6520062142
 30
0.0
 10
10.3384267551
 20
7.6619833629
 30
0.0
 10
10.3525715077
 20
7.6712598226
 30
0.0
 10
10.3671910283
 20
7.6798143061
 30
0.0
 10
10.3822517606
 20
7.6876271795
 30
0.0
 10
10.3977191155
 20
7.6946805567
 30
0.0
 10
10.4135575845
 20
7.7009582847
 30
0.0
 10
10.4297308162
 20
7.7064459871
 30
0.0
 10
10.4462016984
 20
7.711131084
 30
0.0
 10
10.4629324375
 20
7.7150028599
 30
0.0
 10
10.4798846139
 20
7.7180525089
 30
0.0
 10
10.4970194721
 20
7.7202730437
 30
0.0
 10
10.5142971411
 20
7.7216594241
 30
0.0
 10
10.5258665287
 20
7.7220248747
 30
0.0
 10
10.5316607637
 20
7.7220685371
 30
0.0
  0
SPLINE
  5
385
100
AcDbEntity
  8
0
100
AcDbSpline
 62
7
  6
CONTINUOUS
 70
0
 71
3
 72
39
 73
35
 74
0
 42
0.0000001
 43
0.0000001
 44
0.0000000001
 40
0.0
 40
0.0
 40
0.0
 40
0.0
 40
0.0311450424
 40
0.062443103
 40
0.093888348
 40
0.1254709887
 40
0.1571788844
 40
0.1889972605
 40
0.2209091753
 40
0.252895844
 40
0.2849370233
 40
0.3170114137
 40
0.3490970737
 40
0.3811718446
 40
0.413213777
 40
0.4452015562
 40
0.4771149179
 40
0.5089350501
 40
0.540644973
 40
0.572229893
 40
0.6036775227
 40
0.6349783628
 40
0.666125934
 40
0.6971169547
 40
0.7279514582
 40
0.7586328418
 40
0.7891678433
 40
0.8195664429
 40
0.8498416839
 40
0.8800094159
 40
0.9100879624
 40
0.9400977195
 40
0.9700606952
 40
1.0
 40
1.0
 40
1.0
 40
1.0
 10
10.5683043528
 20
7.0326183059
 30
0.0
 10
10.5601904172
 20
7.0331810092
 30
0.0
 10
10.5439578309
 20
7.0349030839
 30
0.0
 10
10.5198057467
 20
7.039241064
 30
0.0
 10
10.495912356
 20
7.0453172439
 30
0.0
 10
10.4724066919
 20
7.0530989869
 30
0.0
 10
10.4494136408
 20
7.0625445596
 30
0.0
 10
10.4270558517
 20
7.073603453
 30
0.0
 10
10.405452434
 20
7.0862165726
 30
0.0
 10
10.3847185009
 20
7.1003165671
 30
0.0
 10
10.3649645191
 20
7.1158281936
 30
0.0
 10
10.3462957439
 20
7.132668721
 30
0.0
 10
10.3288116617
 20
7.1507483656
 30
0.0
 10
10.3126054664
 20
7.1699707648
 30
0.0
 10
10.2977635708
 20
7.190233486
 30
0.0
 10
10.2843651321
 20
7.2114285546
 30
0.0
 10
10.2724816424
 20
7.2334430331
 30
0.0
 10
10.2621765567
 20
7.256159619
 30
0.0
 10
10.2535049544
 20
7.2794572607
 30
0.0
 10
10.2465132461
 20
7.3032117927
 30
0.0
 10
10.2412389276
 20
7.3272965886
 30
0.0
 10
10.2377103569
 20
7.3515832227
 30
0.0
 10
10.2359466031
 20
7.3759421498
 30
0.0
 10
10.2359573481
 20
7.4002433898
 30
0.0
 10
10.2377428216
 20
7.4243572117
 30
0.0
 10
10.241293787
 20
7.4481548199
 30
0.0
 10
10.2465915777
 20
7.4715090373
 30
0.0
 10
10.2536081677
 20
7.4942949909
 30
0.0
 10
10.2623062935
 20
7.5163907776
 30
0.0
 10
10.2726396968
 20
7.5376781609
 30
0.0
 10
10.2845531976
 20
7.5580430624
 30
0.0
 10
10.2979835644
 20
7.5773767606
 30
0.0
 10
10.3128576759
 20
7.5955743589
 30
0.0
 10
10.3236879838
 20
7.6068884802
 30
0.0
 10
10.329311523
 20
7.6123203791
 30
0.0
  0
SPLINE
  5
386
100
AcDbEntity
  8
0
100
AcDbSpline
 62
7
  6
CONTINUOUS
 70
0
 71
3
 72
46
 73
42
 74
0
 42
0.0000001
 43
0.0000001
 44
0.0000000001
 40
0.0
 40
0.0
 40
0.0
 40
0.0
 40
0.031143804
 40
0.0624406641
 40
0.0938846266
 40
0.1254660369
 40
0.1571726773
 40
0.188989797
 40
0.2209004514
 40
0.2528858567
 40
0.2849257707
 40
0.3169988946
 40
0.3490832879
 40
0.3811567922
 40
0.4131974593
 40
0.4451839758
 40
0.4770960786
 40
0.5089149549
 40
0.5406236259
 40
0.5722072995
 40
0.6036536882
 40
0.6349532936
 40
0.6660996371
 40
0.6970894354
 40
0.727922722
 40
0.7586028953
 40
0.7891366922
 40
0.8043544294
 40
0.8195395762
 40
0.8346938584
 40
0.8498191748
 40
0.8649175902
 40
0.8799913269
 40
0.8950427481
 40
0.9100743467
 40
0.9250887336
 40
0.940088619
 40
0.9550767983
 40
0.9700561375
 40
0.9850295542
 40
1.0
 40
1.0
 40
1.0
 40
1.0
 10
10.5233833712
 20
6.8235716781
 30
0.0
 10
10.5112242693
 20
6.8244149147
 30
0.0
 10
10.4868989837
 20
6.8269955338
 30
0.0
 10
10.4507059769
 20
6.8334961708
 30
0.0
 10
10.4149006264
 20
6.8426016
 30
0.0
 10
10.3796763196
 20
6.8542629
 30
0.0
 10
10.345220177
 20
6.8684175403
 30
0.0
 10
10.3117159964
 20
6.8849897844
 30
0.0
 10
10.2793422832
 20
6.9038911256
 30
0.0
 10
10.2482715253
 20
6.9250206041
 30
0.0
 10
10.2186692549
 20
6.9482654632
 30
0.0
 10
10.1906932406
 20
6.9735017722
 30
0.0
 10
10.1644925454
 20
7.0005949552
 30
0.0
 10
10.140206802
 20
7.0294005908
 30
0.0
 10
10.1179655334
 20
7.0597652061
 30
0.0
 10
10.0978873449
 20
7.0915269826
 30
0.0
 10
10.0800793544
 20
7.1245166724
 30
0.0
 10
10.0646367033
 20
7.1585585192
 30
0.0
 10
10.0516419131
 20
7.1934711078
 30
0.0
 10
10.0411644938
 20
7.2290683589
 30
0.0
 10
10.0332606692
 20
7.2651605317
 30
0.0
 10
10.0279729253
 20
7.3015551631
 30
0.0
 10
10.0253298191
 20
7.3380581494
 30
0.0
 10
10.0253458822
 20
7.3744746176
 30
0.0
 10
10.0280215687
 20
7.4106105089
 30
0.0
 10
10.0333425638
 20
7.4462715076
 30
0.0
 10
10.0399668765
 20
7.4754724695
 30
0.0
 10
10.0465557772
 20
7.4983970011
 30
0.0
 10
10.0521293062
 20
7.5153372436
 30
0.0
 10
10.0583321652
 20
7.5320184832
 30
0.0
 10
10.0651561897
 20
7.5484187325
 30
0.0
 10
10.0725922474
 20
7.5645159942
 30
0.0
 10
10.0806303769
 20
7.5802888016
 30
0.0
 10
10.0892599002
 20
7.5957160447
 30
0.0
 10
10.0984692805
 20
7.6107771143
 30
0.0
 10
10.1082461829
 20
7.6254519051
 30
0.0
 10
10.1185776058
 20
7.6397207764
 30
0.0
 10
10.1294497121
 20
7.653564651
 30
0.0
 10
10.1408480155
 20
7.6669651204
 30
0.0
 10
10.1527570835
 20
7.6799039863
 30
0.0
 10
10.1610272501
 20
7.6882115384
 30
0.0
 10
10.1652411952
 20
7.6922819009
 30
0.0
  0
SPLINE
  5
387
100
AcDbEntity
  8
0
100
AcDbSpline
 62
7
  6
CONTINUOUS
 70
0
 71
3
 72
50
 73
46
 74
0
 42
0.0000001
 43
0.0000001
 44
0.0000000001
 40
0.0
 40
0.0
 40
0.0
 40
0.0
 40
0.0101522501
 40
0.0207684544
 40
0.0318439842
 40
0.0433727777
 40
0.0553476471
 40
0.0677601982
 40
0.0806011518
 40
0.0938602082
 40
0.1075263314
 40
0.12158763
 40
0.1508441915
 40
0.1815224091
 40
0.2135047527
 40
0.246665651
 40
0.2808725584
 40
0.3159869335
 40
0.3518651593
 40
0.3883594265
 40
0.4253185915
 40
0.4625890211
 40
0.5000154259
 40
0.5374416904
 40
0.5747117003
 40
0.6116701693
 40
0.648163468
 40
0.6840404586
 40
0.7191533381
 40
0.7533584977
 40
0.7865174054
 40
0.8184975266
 40
0.8491733024
 40
0.8639853075
 40
0.8784279002
 40
0.8924878
 40
0.9061524881
 40
0.9194100695
 40
0.9322494996
 40
0.9446605113
 40
0.9566337837
 40
0.9681609847
 40
0.9792348614
 40
0.9898494302
 40
1.0
 40
1.0
 40
1.0
 40
1.0
 10
12.3361936213
 20
8.6815684611
 30
0.0
 10
12.3372758411
 20
8.6835709745
 30
0.0
 10
12.3394276691
 20
8.6877012988
 30
0.0
 10
12.3425544181
 20
8.6941208015
 30
0.0
 10
12.3456492285
 20
8.7008965821
 30
0.0
 10
12.3487086749
 20
8.7080210817
 30
0.0
 10
12.3517293092
 20
8.71548647
 30
0.0
 10
12.3547078245
 20
8.7232844736
 30
0.0
 10
12.3576408427
 20
8.7314064719
 30
0.0
 10
12.3605251427
 20
8.7398434521
 30
0.0
 10
12.3633574859
 20
8.7485860721
 30
0.0
 10
12.367110118
 20
8.7607993584
 30
0.0
 10
12.3716366679
 20
8.7767629747
 30
0.0
 10
12.3767439281
 20
8.7967309415
 30
0.0
 10
12.381572911
 20
8.8176672844
 30
0.0
 10
12.3861019786
 20
8.8394790077
 30
0.0
 10
12.390310817
 20
8.8620693485
 30
0.0
 10
12.3941805747
 20
8.885337967
 30
0.0
 10
12.3976939306
 20
8.9091814821
 30
0.0
 10
12.4008351724
 20
8.933493921
 30
0.0
 10
12.4035902638
 20
8.9581672048
 30
0.0
 10
12.4059469056
 20
8.9830916337
 30
0.0
 10
12.4078945901
 20
9.008156381
 30
0.0
 10
12.4094246473
 20
9.0332499904
 30
0.0
 10
12.4105302831
 20
9.0582608758
 30
0.0
 10
12.4112066102
 20
9.0830778224
 30
0.0
 10
12.4114506706
 20
9.1075904856
 30
0.0
 10
12.4112614505
 20
9.1316898855
 30
0.0
 10
12.4106398881
 20
9.1552689023
 30
0.0
 10
12.4095888672
 20
9.1782227449
 30
0.0
 10
12.4081132282
 20
9.2004494843
 30
0.0
 10
12.4062196776
 20
9.2218503174
 30
0.0
 10
12.4042788407
 20
9.2391126325
 30
0.0
 10
12.4025149041
 20
9.2524337005
 30
0.0
 10
12.4011086903
 20
9.2620432352
 30
0.0
 10
12.3996053519
 20
9.271377604
 30
0.0
 10
12.398006603
 20
9.2804264512
 30
0.0
 10
12.3963141927
 20
9.2891797302
 30
0.0
 10
12.3945300531
 20
9.297627731
 30
0.0
 10
12.3926561551
 20
9.3057610873
 30
0.0
 10
12.3906946075
 20
9.3135707935
 30
0.0
 10
12.3886476079
 20
9.321048204
 30
0.0
 10
12.3865174145
 20
9.3281850822
 30
0.0
 10
12.3843064629
 20
9.3349734815
 30
0.0
 10
12.3827451569
 20
9.3393604333
 30
0.0
 10
12.3819496238
 20
9.3414927259
 30
0.0
  0
SPLINE
  5
388
100
AcDbEntity
  8
0
100
AcDbSpline
 62
7
  6
CONTINUOUS
 70
0
 71
3
 72
42
 73
38
 74
0
 42
0.0000001
 43
0.0000001
 44
0.0000000001
 40
0.0
 40
0.0
 40
0.0
 40
0.0
 40
0.0309658318
 40
0.0465015685
 40
0.0620701848
 40
0.093301014
 40
0.1246554393
 40
0.1561249637
 40
0.1876992077
 40
0.219366198
 40
0.2511125309
 40
0.2829235978
 40
0.3147838109
 40
0.3466768435
 40
0.3785858771
 40
0.4104938542
 40
0.4423837328
 40
0.4742387418
 40
0.5060426325
 40
0.5377799254
 40
0.5694361486
 40
0.6009980645
 40
0.6324538836
 40
0.6637934604
 40
0.6950084693
 40
0.7260925569
 40
0.7570414681
 40
0.787853142
 40
0.818527774
 40
0.8490678436
 40
0.8642908848
 40
0.8794822545
 40
0.9097696749
 40
0.9399433574
 40
0.9549930838
 40
0.9700186911
 40
1.0
 40
1.0
 40
1.0
 40
1.0
 10
10.7102877325
 20
7.1774911344
 30
0.0
 10
10.7033132957
 20
7.1779748133
 30
0.0
 10
10.6928591223
 20
7.1790377048
 30
0.0
 10
10.6789988593
 20
7.1811165509
 30
0.0
 10
10.665151843
 20
7.1836429295
 30
0.0
 10
10.6479502253
 20
7.1876289814
 30
0.0
 10
10.6275900006
 20
7.1937074539
 30
0.0
 10
10.6075720098
 20
7.2010612373
 30
0.0
 10
10.5879794631
 20
7.2096597677
 30
0.0
 10
10.5688931712
 20
7.2194674417
 30
0.0
 10
10.5503920176
 20
7.2304436554
 30
0.0
 10
10.5325524184
 20
7.2425429966
 30
0.0
 10
10.5154480695
 20
7.2557154269
 30
0.0
 10
10.499149628
 20
7.2699064884
 30
0.0
 10
10.4837244278
 20
7.2850575271
 30
0.0
 10
10.4692362022
 20
7.3011059339
 30
0.0
 10
10.4557448232
 20
7.3179854012
 30
0.0
 10
10.4433060556
 20
7.3356261947
 30
0.0
 10
10.4319713281
 20
7.3539554393
 30
0.0
 10
10.4217875223
 20
7.3728974175
 30
0.0
 10
10.4127967794
 20
7.3923738792
 30
0.0
 10
10.4050363266
 20
7.4123043619
 30
0.0
 10
10.3985383235
 20
7.43260652
 30
0.0
 10
10.3933297283
 20
7.4531964618
 30
0.0
 10
10.3894321843
 20
7.4739890889
 30
0.0
 10
10.3868619323
 20
7.494898461
 30
0.0
 10
10.3856297267
 20
7.5158380821
 30
0.0
 10
10.3857408371
 20
7.5367214998
 30
0.0
 10
10.3871948374
 20
7.557461752
 30
0.0
 10
10.3895235943
 20
7.5745749184
 30
0.0
 10
10.3920509282
 20
7.5881048137
 30
0.0
 10
10.3950115195
 20
7.6014881605
 30
0.0
 10
10.399528645
 20
7.6179740674
 30
0.0
 10
10.4051275247
 20
7.6340910144
 30
0.0
 10
10.4102359872
 20
7.6467003725
 30
0.0
 10
10.4157496459
 20
7.6590897531
 30
0.0
 10
10.420352047
 20
7.6681605186
 30
0.0
 10
10.423619099
 20
7.6740888012
 30
0.0
  0
SPLINE
  5
389
100
AcDbEntity
  8
0
100
AcDbSpline
 62
7
  6
CONTINUOUS
 70
0
 71
3
 72
42
 73
38
 74
0
 42
0.0000001
 43
0.0000001
 44
0.0000000001
 40
0.0
 40
0.0
 40
0.0
 40
0.0
 40
0.0309451204
 40
0.0464697458
 40
0.0620266701
 40
0.0932328405
 40
0.1245610316
 40
0.1560030586
 40
0.1875489888
 40
0.2191873357
 40
0.2509052347
 40
0.2826886469
 40
0.3145225721
 40
0.3463912729
 40
0.3782785061
 40
0.4101677601
 40
0.4420424936
 40
0.4738863762
 40
0.5056835254
 40
0.5374187402
 40
0.5690777269
 40
0.6006473159
 40
0.6321156655
 40
0.6634724516
 40
0.6947090386
 40
0.7258186301
 40
0.7567963959
 40
0.7876395715
 40
0.818347529
 40
0.8489218152
 40
0.864161907
 40
0.879370158
 40
0.9096904203
 40
0.9398945491
 40
0.9549581541
 40
0.9699965961
 40
1.0
 40
1.0
 40
1.0
 40
1.0
 10
10.7097329301
 20
7.1692278294
 30
0.0
 10
10.7027009009
 20
7.1697155023
 30
0.0
 10
10.6921603243
 20
7.1707819898
 30
0.0
 10
10.6781835985
 20
7.1728611328
 30
0.0
 10
10.6642193488
 20
7.1753847473
 30
0.0
 10
10.6468688296
 20
7.1793618375
 30
0.0
 10
10.6263241074
 20
7.1854215468
 30
0.0
 10
10.606114174
 20
7.1927493223
 30
0.0
 10
10.586320519
 20
7.2013156126
 30
0.0
 10
10.5670223301
 20
7.2110860187
 30
0.0
 10
10.5482969716
 20
7.2220213041
 30
0.0
 10
10.5302194634
 20
7.2340775853
 30
0.0
 10
10.512862241
 20
7.2472064986
 30
0.0
 10
10.4962948523
 20
7.2613553951
 30
0.0
 10
10.4805836857
 20
7.2764675505
 30
0.0
 10
10.4657917046
 20
7.2924823906
 30
0.0
 10
10.4519781976
 20
7.3093357324
 30
0.0
 10
10.4391985425
 20
7.32696004
 30
0.0
 10
10.4275039859
 20
7.3452846921
 30
0.0
 10
10.4169414385
 20
7.3642362637
 30
0.0
 10
10.4075532884
 20
7.3837388168
 30
0.0
 10
10.3993772318
 20
7.4037142027
 30
0.0
 10
10.3924461212
 20
7.4240823714
 30
0.0
 10
10.3867878342
 20
7.4447616906
 30
0.0
 10
10.3824251599
 20
7.4656692648
 30
0.0
 10
10.3793757085
 20
7.4867212818
 30
0.0
 10
10.3776518273
 20
7.5078332808
 30
0.0
 10
10.3772605902
 20
7.5289207269
 30
0.0
 10
10.3782036091
 20
7.5498984608
 30
0.0
 10
10.3801006735
 20
7.5672389415
 30
0.0
 10
10.3822807748
 20
7.5809692509
 30
0.0
 10
10.3848939527
 20
7.5945648588
 30
0.0
 10
10.3889757449
 20
7.6113394011
 30
0.0
 10
10.3941397846
 20
7.6277786419
 30
0.0
 10
10.3989028201
 20
7.6406659429
 30
0.0
 10
10.4040732207
 20
7.653345323
 30
0.0
 10
10.4084207049
 20
7.6626497744
 30
0.0
 10
10.4115198641
 20
7.6687411076
 30
0.0
  0
SPLINE
  5
38A
100
AcDbEntity
  8
0
100
AcDbSpline
 62
7
  6
CONTINUOUS
 70
0
 71
3
 72
17
 73
13
 74
0
 42
0.0000001
 43
0.0000001
 44
0.0000000001
 40
0.0
 40
0.0
 40
0.0
 40
0.0
 40
0.0518670346
 40
0.1054493025
 40
0.1606880158
 40
0.2175287126
 40
0.3357695262
 40
0.4596577196
 40
0.5886346549
 40
0.7221055973
 40
0.8594436406
 40
1.0
 40
1.0
 40
1.0
 40
1.0
 10
10.6528539741
 20
7.6377077329
 30
0.0
 10
10.6500353685
 20
7.6385191542
 30
0.0
 10
10.6442886786
 20
7.6401127769
 30
0.0
 10
10.6354895611
 20
7.6423832385
 30
0.0
 10
10.6263798343
 20
7.6445703527
 30
0.0
 10
10.6136678318
 20
7.6474088187
 30
0.0
 10
10.5970850326
 20
7.650715616
 30
0.0
 10
10.5763980526
 20
7.6542591632
 30
0.0
 10
10.5547769898
 20
7.6574096942
 30
0.0
 10
10.5323339742
 20
7.6601506464
 30
0.0
 10
10.5091852892
 20
7.6624676103
 30
0.0
 10
10.4935182269
 20
7.6637090937
 30
0.0
 10
10.4855888197
 20
7.664259
 30
0.0
  0
SPLINE
  5
38B
100
AcDbEntity
  8
0
100
AcDbSpline
 62
7
  6
CONTINUOUS
 70
0
 71
3
 72
56
 73
52
 74
0
 42
0.0000001
 43
0.0000001
 44
0.0000000001
 40
0.0
 40
0.0
 40
0.0
 40
0.0
 40
0.0313764076
 40
0.0629436503
 40
0.094690367
 40
0.1265987395
 40
0.1586460723
 40
0.1908053732
 40
0.2230462121
 40
0.255335688
 40
0.2876394313
 40
0.3199226415
 40
0.3521511392
 40
0.3842923945
 40
0.4163165303
 40
0.4481972636
 40
0.4799127573
 40
0.495707046
 40
0.5114542649
 40
0.5271532493
 40
0.5428032307
 40
0.5584038412
 40
0.5739551207
 40
0.5894575266
 40
0.6049119302
 40
0.6203196085
 40
0.6356822439
 40
0.6510019127
 40
0.6662810663
 40
0.6815225125
 40
0.6967293991
 40
0.7119051841
 40
0.7270536042
 40
0.7421786458
 40
0.7572845112
 40
0.7723755779
 40
0.7874563573
 40
0.8025314584
 40
0.8176055435
 40
0.8326832823
 40
0.8477693101
 40
0.8628681878
 40
0.8779843577
 40
0.8931221009
 40
0.9082855011
 40
0.9234784107
 40
0.9387044132
 40
0.9539667901
 40
0.969268505
 40
0.9846121665
 40
1.0
 40
1.0
 40
1.0
 40
1.0
 10
10.0487026323
 20
9.418490304
 30
0.0
 10
10.0395612499
 20
9.419124261
 30
0.0
 10
10.021270435
 20
9.4212335709
 30
0.0
 10
9.9941591603
 20
9.4268590303
 30
0.0
 10
9.9675022991
 20
9.4349090021
 30
0.0
 10
9.9415243942
 20
9.4453157838
 30
0.0
 10
9.9164405631
 20
9.4579923655
 30
0.0
 10
9.8924594612
 20
9.4728330177
 30
0.0
 10
9.8697801865
 20
9.4897140147
 30
0.0
 10
9.8485912401
 20
9.5084949655
 30
0.0
 10
9.8290686077
 20
9.5290196024
 30
0.0
 10
9.8113746236
 20
9.5511173801
 30
0.0
 10
9.7956564345
 20
9.5746046942
 30
0.0
 10
9.7820448719
 20
9.5992862971
 30
0.0
 10
9.7706534036
 20
9.6249575696
 30
0.0
 10
9.7615772558
 20
9.6514036887
 30
0.0
 10
9.7559978525
 20
9.6739420487
 30
0.0
 10
9.7527638057
 20
9.6921358235
 30
0.0
 10
9.7509580822
 20
9.7058183956
 30
0.0
 10
9.7497731606
 20
9.7195261179
 30
0.0
 10
9.749211409
 20
9.7332307488
 30
0.0
 10
9.7492740737
 20
9.7469036348
 30
0.0
 10
9.7499610671
 20
9.7605162915
 30
0.0
 10
9.7512709386
 20
9.7740403315
 30
0.0
 10
9.7532009824
 20
9.7874475579
 30
0.0
 10
9.7557472445
 20
9.8007100005
 30
0.0
 10
9.7589044125
 20
9.8137999987
 30
0.0
 10
9.7626659023
 20
9.826690253
 30
0.0
 10
9.7670239187
 20
9.8393538624
 30
0.0
 10
9.7719694116
 20
9.8517643928
 30
0.0
 10
9.7774920412
 20
9.863895961
 30
0.0
 10
9.7835803072
 20
9.8757232489
 30
0.0
 10
9.790221563
 20
9.8872215467
 30
0.0
 10
9.7974019352
 20
9.8983668661
 30
0.0
 10
9.8051064331
 20
9.9091359548
 30
0.0
 10
9.8133190132
 20
9.9195063143
 30
0.0
 10
9.8220225525
 20
9.9294562833
 30
0.0
 10
9.8311988555
 20
9.9389651207
 30
0.0
 10
9.8408287777
 20
9.9480129771
 30
0.0
 10
9.8508922499
 20
9.9565809335
 30
0.0
 10
9.8613682404
 20
9.9646511359
 30
0.0
 10
9.8722348709
 20
9.9722067634
 30
0.0
 10
9.8834694773
 20
9.9792320276
 30
0.0
 10
9.8950486106
 20
9.9857122669
 30
0.0
 10
9.9069480792
 20
9.9916340092
 30
0.0
 10
9.91914305
 20
9.9969849072
 30
0.0
 10
9.9316080942
 20
10.0017537723
 30
0.0
 10
9.9443171549
 20
10.005930708
 30
0.0
 10
9.957243812
 20
10.0095070499
 30
0.0
 10
9.9703607188
 20
10.0124752722
 30
0.0
 10
9.9792018007
 20
10.0140423814
 30
0.0
 10
9.9836438963
 20
10.01472308
 30
0.0
  0
SPLINE
  5
38C
100
AcDbEntity
  8
0
100
AcDbSpline
 62
7
  6
CONTINUOUS
 70
0
 71
3
 72
82
 73
78
 74
0
 42
0.0000001
 43
0.0000001
 44
0.0000000001
 40
0.0
 40
0.0
 40
0.0
 40
0.0
 40
0.0039487494
 40
0.0077209387
 40
0.0113257743
 40
0.0147747148
 40
0.0212568449
 40
0.0243284112
 40
0.0273115274
 40
0.0302284182
 40
0.033103026
 40
0.0359604446
 40
0.0388262637
 40
0.0417258249
 40
0.0446835346
 40
0.0477222418
 40
0.0508628757
 40
0.0541241481
 40
0.0575225017
 40
0.0610722097
 40
0.0647853977
 40
0.0686723462
 40
0.0727416233
 40
0.0770002464
 40
0.0814539889
 40
0.0861073907
 40
0.0909640092
 40
0.0960265526
 40
0.1012968687
 40
0.1067762051
 40
0.1124651601
 40
0.1244709331
 40
0.1373100719
 40
0.1509712284
 40
0.1654377668
 40
0.1806885598
 40
0.1966986328
 40
0.2134396389
 40
0.230880219
 40
0.2489863053
 40
0.2677214288
 40
0.2870469554
 40
0.3069222823
 40
0.3273050102
 40
0.3481511529
 40
0.3694153102
 40
0.4130089192
 40
0.4577011831
 40
0.5030935905
 40
0.5487795594
 40
0.594349173
 40
0.6393938349
 40
0.6835109575
 40
0.705099191
 40
0.726309728
 40
0.7470960579
 40
0.7674129447
 40
0.7872166181
 40
0.8064649299
 40
0.82511752
 40
0.8431360094
 40
0.8604842466
 40
0.8771285406
 40
0.8930379118
 40
0.9081844141
 40
0.9225435601
 40
0.9360948258
 40
0.9488222316
 40
0.9607151885
 40
0.9663476285
 40
0.9717705667
 40
0.976984726
 40
0.9819914802
 40
0.9867930798
 40
0.9913924833
 40
0.9957933098
 40
1.0
 40
1.0
 40
1.0
 40
1.0
 10
12.4495736632
 20
7.8275106951
 30
0.0
 10
12.4501513249
 20
7.8280482909
 30
0.0
 10
12.4513061842
 20
7.8290727173
 30
0.0
 10
12.4530781284
 20
7.8304826073
 30
0.0
 10
12.4548484911
 20
7.8317288519
 30
0.0
 10
12.4571566502
 20
7.8331414556
 30
0.0
 10
12.4595115648
 20
7.8342679846
 30
0.0
 10
12.4618913938
 20
7.8350593761
 30
0.0
 10
12.4636380043
 20
7.8354749182
 30
0.0
 10
12.4653765844
 20
7.8357222509
 30
0.0
 10
12.4671058983
 20
7.8358010647
 30
0.0
 10
12.4688244912
 20
7.8357110494
 30
0.0
 10
12.4705309012
 20
7.8354523425
 30
0.0
 10
12.4722237081
 20
7.8350252379
 30
0.0
 10
12.4739015808
 20
7.8344302388
 30
0.0
 10
12.4755633839
 20
7.8336681266
 30
0.0
 10
12.4772080605
 20
7.8327396267
 30
0.0
 10
12.4788347102
 20
7.8316456231
 30
0.0
 10
12.4804425111
 20
7.8303870048
 30
0.0
 10
12.482030614
 20
7.8289646222
 30
0.0
 10
12.4835982802
 20
7.8273794666
 30
0.0
 10
12.4851446886
 20
7.8256324926
 30
0.0
 10
12.4866690303
 20
7.823724749
 30
0.0
 10
12.4881705359
 20
7.8216573866
 30
0.0
 10
12.4896483343
 20
7.8194315808
 30
0.0
 10
12.4911016407
 20
7.8170486539
 30
0.0
 10
12.4925296296
 20
7.8145099924
 30
0.0
 10
12.4939314499
 20
7.8118170673
 30
0.0
 10
12.4953063307
 20
7.8089714793
 30
0.0
 10
12.4966534507
 20
7.8059748816
 30
0.0
 10
12.4984437436
 20
7.8017033807
 30
0.0
 10
12.5005981162
 20
7.7959921
 30
0.0
 10
12.5030161304
 20
7.7886849604
 30
0.0
 10
12.5053054879
 20
7.7808231216
 30
0.0
 10
12.5074606878
 20
7.772425218
 30
0.0
 10
12.5094765321
 20
7.7635110392
 30
0.0
 10
12.5113481368
 20
7.7541017351
 30
0.0
 10
12.5130709569
 20
7.7442196649
 30
0.0
 10
12.5146408066
 20
7.7338883653
 30
0.0
 10
12.5160538828
 20
7.7231324799
 30
0.0
 10
12.5173067551
 20
7.7119776875
 30
0.0
 10
12.5183963784
 20
7.7004506325
 30
0.0
 10
12.5193201016
 20
7.6885788627
 30
0.0
 10
12.5200756813
 20
7.6763907725
 30
0.0
 10
12.5206613074
 20
7.6639154907
 30
0.0
 10
12.5212181122
 20
7.6467970571
 30
0.0
 10
12.5214718488
 20
7.6249032319
 30
0.0
 10
12.5210858131
 20
7.5981890728
 30
0.0
 10
12.5200148091
 20
7.5710751335
 30
0.0
 10
12.5182689912
 20
7.5438206749
 30
0.0
 10
12.5158649834
 20
7.5166860732
 30
0.0
 10
12.5128258497
 20
7.4899307849
 30
0.0
 10
12.5097668401
 20
7.4680081879
 30
0.0
 10
12.5070171888
 20
7.4508575426
 30
0.0
 10
12.5048309716
 20
7.4383397833
 30
0.0
 10
12.5025112617
 20
7.4261045644
 30
0.0
 10
12.5000636016
 20
7.4141811333
 30
0.0
 10
12.4974938877
 20
7.4025980058
 30
0.0
 10
12.494808301
 20
7.3913828663
 30
0.0
 10
12.4920133027
 20
7.3805625146
 30
0.0
 10
12.4891156117
 20
7.3701627949
 30
0.0
 10
12.4861222056
 20
7.3602085222
 30
0.0
 10
12.483040295
 20
7.3507234182
 30
0.0
 10
12.4798772987
 20
7.3417300592
 30
0.0
 10
12.4766408189
 20
7.3332498075
 30
0.0
 10
12.4733386313
 20
7.3253027616
 30
0.0
 10
12.4699786447
 20
7.3179076051
 30
0.0
 10
12.466568893
 20
7.3110818429
 30
0.0
 10
12.4636419181
 20
7.3057892906
 30
0.0
 10
12.461275735
 20
7.3018603782
 30
0.0
 10
12.4595259723
 20
7.2991195992
 30
0.0
 10
12.4577698733
 20
7.2965326385
 30
0.0
 10
12.4560083983
 20
7.2941010186
 30
0.0
 10
12.4542425874
 20
7.2918261167
 30
0.0
 10
12.4524733923
 20
7.2897092803
 30
0.0
 10
12.4507019804
 20
7.2877518692
 30
0.0
 10
12.4494934749
 20
7.2865268273
 30
0.0
 10
12.4488888253
 20
7.2859427806
 30
0.0
  0
SPLINE
  5
38D
100
AcDbEntity
  8
0
100
AcDbSpline
 62
7
  6
CONTINUOUS
 70
0
 71
3
 72
54
 73
50
 74
0
 42
0.0000001
 43
0.0000001
 44
0.0000000001
 40
0.0
 40
0.0
 40
0.0
 40
0.0
 40
0.0313655538
 40
0.0629183333
 40
0.0946476868
 40
0.126536669
 40
0.1585637765
 40
0.1907033794
 40
0.2229265252
 40
0.2552018195
 40
0.2874963553
 40
0.3197766685
 40
0.3520097054
 40
0.3841637848
 40
0.4162095319
 40
0.4481207573
 40
0.4798752768
 40
0.5114556332
 40
0.5428496965
 40
0.5584785477
 40
0.5740589603
 40
0.5895911023
 40
0.6050755316
 40
0.6205131904
 40
0.6359054108
 40
0.6512539036
 40
0.6665607414
 40
0.6818283516
 40
0.6970594987
 40
0.7122572563
 40
0.727424987
 40
0.7425663186
 40
0.7576851074
 40
0.7727854061
 40
0.7878714347
 40
0.8029475388
 40
0.8180181495
 40
0.8330877489
 40
0.8481608297
 40
0.8632418505
 40
0.8783351995
 40
0.8934451587
 40
0.9085758606
 40
0.9237312531
 40
0.9389150711
 40
0.9541308013
 40
0.9693816476
 40
0.9846705201
 40
1.0
 40
1.0
 40
1.0
 40
1.0
 10
10.0745845154
 20
9.4640216733
 30
0.0
 10
10.0662345427
 20
9.4646007459
 30
0.0
 10
10.0495275146
 20
9.4665124914
 30
0.0
 10
10.0247539187
 20
9.4715859665
 30
0.0
 10
10.0003795969
 20
9.4788333708
 30
0.0
 10
9.9766020625
 20
9.4881961854
 30
0.0
 10
9.9536107092
 20
9.4995990279
 30
0.0
 10
9.9315895046
 20
9.5129504348
 30
0.0
 10
9.9107143695
 20
9.528143389
 30
0.0
 10
9.8911521026
 20
9.5450562167
 30
0.0
 10
9.8730591132
 20
9.5635536829
 30
0.0
 10
9.8565800164
 20
9.5834878346
 30
0.0
 10
9.8418466315
 20
9.6046993428
 30
0.0
 10
9.8289769654
 20
9.6270187166
 30
0.0
 10
9.8180740821
 20
9.6502675702
 30
0.0
 10
9.8092255397
 20
9.6742600159
 30
0.0
 10
9.802502543
 20
9.6988046071
 30
0.0
 10
9.7979592916
 20
9.7237036765
 30
0.0
 10
9.7960175308
 20
9.7446192673
 30
0.0
 10
9.7955872726
 20
9.7613242668
 30
0.0
 10
9.7958244086
 20
9.7737995348
 30
0.0
 10
9.7966205708
 20
9.7862128075
 30
0.0
 10
9.7979741471
 20
9.7985395015
 30
0.0
 10
9.7998825105
 20
9.8107548028
 30
0.0
 10
9.8023417977
 20
9.8228342366
 30
0.0
 10
9.80534709
 20
9.8347535683
 30
0.0
 10
9.8088924365
 20
9.8464888681
 30
0.0
 10
9.8129707041
 20
9.8580165956
 30
0.0
 10
9.8175737066
 20
9.8693136267
 30
0.0
 10
9.8226922783
 20
9.8803572646
 30
0.0
 10
9.8283161422
 20
9.8911253472
 30
0.0
 10
9.834433992
 20
9.9015962778
 30
0.0
 10
9.8410336047
 20
9.9117490104
 30
0.0
 10
9.8481017425
 20
9.921563158
 30
0.0
 10
9.8556241853
 20
9.9310190471
 30
0.0
 10
9.8635858698
 20
9.9400976712
 30
0.0
 10
9.871970833
 20
9.9487807856
 30
0.0
 10
9.8807622025
 20
9.9570509997
 30
0.0
 10
9.8899423484
 20
9.9648916983
 30
0.0
 10
9.8994928667
 20
9.9722871101
 30
0.0
 10
9.909394545
 20
9.9792224421
 30
0.0
 10
9.9196275108
 20
9.9856837764
 30
0.0
 10
9.9301712483
 20
9.9916581043
 30
0.0
 10
9.9410045585
 20
9.997133493
 30
0.0
 10
9.9521056998
 20
10.0020989767
 30
0.0
 10
9.9634523875
 20
10.0065445455
 30
0.0
 10
9.9750219195
 20
10.0104613499
 30
0.0
 10
9.9867907341
 20
10.0138415111
 30
0.0
 10
9.9947436421
 20
10.0157301969
 30
0.0
 10
9.9987444446
 20
10.0165832467
 30
0.0
  0
SPLINE
  5
38E
100
AcDbEntity
  8
0
100
AcDbSpline
 62
7
  6
CONTINUOUS
 70
0
 71
3
 72
41
 73
37
 74
0
 42
0.0000001
 43
0.0000001
 44
0.0000000001
 40
0.0
 40
0.0
 40
0.0
 40
0.0
 40
0.0311447106
 40
0.046777429
 40
0.0624475243
 40
0.0938924642
 40
0.1254747943
 40
0.1571823849
 40
0.1890004507
 40
0.2209120553
 40
0.2528984127
 40
0.2689156873
 40
0.2849439639
 40
0.3170180434
 40
0.3491033926
 40
0.3811778523
 40
0.4132194737
 40
0.4452069423
 40
0.4771199942
 40
0.5089398171
 40
0.5406494315
 40
0.5722340442
 40
0.6036813689
 40
0.6349819062
 40
0.6661291762
 40
0.6971198968
 40
0.7279541007
 40
0.7586351856
 40
0.78916989
 40
0.8195681943
 40
0.8498431414
 40
0.8800105805
 40
0.9100888348
 40
0.9400983005
 40
0.9700609854
 40
1.0
 40
1.0
 40
1.0
 40
1.0
 10
10.0833181871
 20
9.5050522879
 30
0.0
 10
10.0773035022
 20
9.5054694077
 30
0.0
 10
10.0682883098
 20
9.5064258634
 30
0.0
 10
10.0563513767
 20
9.5083479531
 30
0.0
 10
10.044433403
 20
9.510707699
 30
0.0
 10
10.0296552865
 20
9.5144657891
 30
0.0
 10
10.0122313169
 20
9.5202341817
 30
0.0
 10
9.9951869928
 20
9.5272359934
 30
0.0
 10
9.9786135839
 20
9.5354337743
 30
0.0
 10
9.9625996816
 20
9.5447834075
 30
0.0
 10
9.9497962345
 20
9.5534903831
 30
0.0
 10
9.9399157493
 20
9.5609789073
 30
0.0
 10
9.9302837614
 20
9.5688114277
 30
0.0
 10
9.9187476378
 20
9.5792177281
 30
0.0
 10
9.9057873205
 20
9.5926195806
 30
0.0
 10
9.8937739422
 20
9.6068688045
 30
0.0
 10
9.8827719757
 20
9.621889121
 30
0.0
 10
9.8728399868
 20
9.6376005846
 30
0.0
 10
9.8640310054
 20
9.6539194551
 30
0.0
 10
9.8563920624
 20
9.6707587855
 30
0.0
 10
9.8499639888
 20
9.6880288405
 30
0.0
 10
9.8447811849
 20
9.7056375783
 30
0.0
 10
9.8408714385
 20
9.7234911323
 30
0.0
 10
9.8382557735
 20
9.7414943048
 30
0.0
 10
9.8369483331
 20
9.7595510677
 30
0.0
 10
9.8369562987
 20
9.7775650687
 30
0.0
 10
9.8382798402
 20
9.7954401395
 30
0.0
 10
9.8409121059
 20
9.8130808065
 30
0.0
 10
9.8448392506
 20
9.8303927975
 30
0.0
 10
9.8500404983
 20
9.8472835488
 30
0.0
 10
9.8564882331
 20
9.8636626943
 30
0.0
 10
9.8641481672
 20
9.8794425865
 30
0.0
 10
9.8729793965
 20
9.8945386615
 30
0.0
 10
9.8829350492
 20
9.9088703246
 30
0.0
 10
9.8939609099
 20
9.9223598298
 30
0.0
 10
9.9019891987
 20
9.9307467423
 30
0.0
 10
9.9061578011
 20
9.9347733051
 30
0.0
  0
SPLINE
  5
38F
100
AcDbEntity
  8
0
100
AcDbSpline
 62
7
  6
CONTINUOUS
 70
0
 71
3
 72
37
 73
33
 74
0
 42
0.0000001
 43
0.0000001
 44
0.0000000001
 40
0.0
 40
0.0
 40
0.0
 40
0.0
 40
0.0249317419
 40
0.0510253018
 40
0.0782241447
 40
0.1064670771
 40
0.135688735
 40
0.165820028
 40
0.1967885241
 40
0.2285188036
 40
0.2609327903
 40
0.2939500612
 40
0.3274881614
 40
0.3614629114
 40
0.3957886989
 40
0.4303787676
 40
0.499999231
 40
0.5696197162
 40
0.6042098187
 40
0.6385356557
 40
0.6725104634
 40
0.7060486275
 40
0.7390659724
 40
0.7714800518
 40
0.8032104457
 40
0.8341790667
 40
0.8643104827
 40
0.8935322651
 40
0.9217753332
 40
0.9489743357
 40
0.9750680764
 40
1.0
 40
1.0
 40
1.0
 40
1.0
 10
12.3213661705
 20
8.7590531518
 30
0.0
 10
12.3227788066
 20
8.7630792215
 30
0.0
 10
12.3255576134
 20
8.771358709
 30
0.0
 10
12.3295090634
 20
8.7841503333
 30
0.0
 10
12.333330826
 20
8.7975714689
 30
0.0
 10
12.3370124518
 20
8.8115858014
 30
0.0
 10
12.3405439293
 20
8.82615554
 30
0.0
 10
12.3439156425
 20
8.84124132
 30
0.0
 10
12.3471184178
 20
8.8568023771
 30
0.0
 10
12.3501435425
 20
8.8727966432
 30
0.0
 10
12.3529827889
 20
8.8891808669
 30
0.0
 10
12.3556284409
 20
8.9059107286
 30
0.0
 10
12.3580733152
 20
8.9229409674
 30
0.0
 10
12.360310766
 20
8.9402254949
 30
0.0
 10
12.3623347469
 20
8.957717571
 30
0.0
 10
12.3647463979
 20
8.9813036594
 30
0.0
 10
12.3671890213
 20
9.0109554616
 30
0.0
 10
12.3688628656
 20
9.0406605852
 30
0.0
 10
12.3697300954
 20
9.0643537992
 30
0.0
 10
12.3701400745
 20
9.0819578327
 30
0.0
 10
12.3703099734
 20
9.0993857766
 30
0.0
 10
12.3702393309
 20
9.1165905029
 30
0.0
 10
12.3699283701
 20
9.1335254486
 30
0.0
 10
12.3693779608
 20
9.1501447975
 30
0.0
 10
12.3685896278
 20
9.1664035892
 30
0.0
 10
12.3675655445
 20
9.182257847
 30
0.0
 10
12.3663085293
 20
9.1976646991
 30
0.0
 10
12.3648220445
 20
9.2125825054
 30
0.0
 10
12.3631101824
 20
9.2269709554
 30
0.0
 10
12.3611776456
 20
9.240791242
 30
0.0
 10
12.3590297706
 20
9.2540059548
 30
0.0
 10
12.357420458
 20
9.262589828
 30
0.0
 10
12.3565771006
 20
9.2667723859
 30
0.0
  0
SPLINE
  5
390
100
AcDbEntity
  8
0
100
AcDbSpline
 62
7
  6
CONTINUOUS
 70
0
 71
3
 72
41
 73
37
 74
0
 42
0.0000001
 43
0.0000001
 44
0.0000000001
 40
0.0
 40
0.0
 40
0.0
 40
0.0
 40
0.0310889259
 40
0.0623252596
 40
0.093703098
 40
0.1252140873
 40
0.1568472293
 40
0.1885893172
 40
0.2204251214
 40
0.2523377142
 40
0.2843087786
 40
0.3163189488
 40
0.34834816
 40
0.3803760083
 40
0.4123821139
 40
0.4443464844
 40
0.476249874
 40
0.508074132
 40
0.5398025379
 40
0.571420118
 40
0.602913937
 40
0.6342733608
 40
0.6654902846
 40
0.6965593203
 40
0.7274779382
 40
0.7582465579
 40
0.7888685827
 40
0.8193503745
 40
0.8497011655
 40
0.8648336213
 40
0.8799380217
 40
0.9100651611
 40
0.9401043728
 40
0.9550993646
 40
0.9700794672
 40
1.0
 40
1.0
 40
1.0
 40
1.0
 10
10.2112632645
 20
9.6938377471
 30
0.0
 10
10.2070128848
 20
9.6941325119
 30
0.0
 10
10.1985097798
 20
9.6950223924
 30
0.0
 10
10.1858515525
 20
9.6972412009
 30
0.0
 10
10.173318519
 20
9.7003363699
 30
0.0
 10
10.1609732563
 20
9.7042924691
 30
0.0
 10
10.1488763383
 20
9.7090899435
 30
0.0
 10
10.1370873963
 20
9.7147050688
 30
0.0
 10
10.1256644581
 20
9.7211101246
 30
0.0
 10
10.114663766
 20
9.7282735095
 30
0.0
 10
10.1041394766
 20
9.7361599044
 30
0.0
 10
10.0941434038
 20
9.7447304425
 30
0.0
 10
10.0847247648
 20
9.7539429005
 30
0.0
 10
10.0759299407
 20
9.7637519049
 30
0.0
 10
10.0678022499
 20
9.774109153
 30
0.0
 10
10.0603817366
 20
9.7849636491
 30
0.0
 10
10.0537049754
 20
9.7962619526
 30
0.0
 10
10.0478048921
 20
9.8079484388
 30
0.0
 10
10.042710602
 20
9.8199655695
 30
0.0
 10
10.0384472673
 20
9.8322541731
 30
0.0
 10
10.0350359725
 20
9.8447537323
 30
0.0
 10
10.0324936193
 20
9.8574026784
 30
0.0
 10
10.0308328421
 20
9.8701386917
 30
0.0
 10
10.0300619415
 20
9.8828990012
 30
0.0
 10
10.0301848448
 20
9.8956207034
 30
0.0
 10
10.0312010627
 20
9.9082410225
 30
0.0
 10
10.0331057581
 20
9.9206977909
 30
0.0
 10
10.0358894975
 20
9.9329291155
 30
0.0
 10
10.0389341098
 20
9.9428951436
 30
0.0
 10
10.0417937047
 20
9.9506921612
 30
0.0
 10
10.0449265311
 20
9.9583503782
 30
0.0
 10
10.0493585789
 20
9.9676763258
 30
0.0
 10
10.054463828
 20
9.9766343013
 30
0.0
 10
10.0589312139
 20
9.9835420301
 30
0.0
 10
10.0636443928
 20
9.9902640975
 30
0.0
 10
10.0674594012
 20
9.9951018773
 30
0.0
 10
10.0701178172
 20
9.998223839
 30
0.0
  0
SPLINE
  5
391
100
AcDbEntity
  8
0
100
AcDbSpline
 62
7
  6
CONTINUOUS
 70
0
 71
3
 72
39
 73
35
 74
0
 42
0.0000001
 43
0.0000001
 44
0.0000000001
 40
0.0
 40
0.0
 40
0.0
 40
0.0
 40
0.0319477248
 40
0.0637877967
 40
0.095519264
 40
0.1271452216
 40
0.1586681299
 40
0.1900920684
 40
0.2214219681
 40
0.2526637292
 40
0.283824164
 40
0.3149109166
 40
0.3459323993
 40
0.3768977066
 40
0.4078165263
 40
0.4386990394
 40
0.4695558129
 40
0.5003976877
 40
0.5312356628
 40
0.5620807792
 40
0.5929440024
 40
0.6238361052
 40
0.6547675522
 40
0.6857483898
 40
0.7167881405
 40
0.7478957077
 40
0.7790792872
 40
0.8103462864
 40
0.8417032531
 40
0.8731558151
 40
0.9047086318
 40
0.936365359
 40
0.9681286223
 40
1.0
 40
1.0
 40
1.0
 40
1.0
 10
10.531665574
 20
6.9368575934
 30
0.0
 10
10.5380786641
 20
6.9364128441
 30
0.0
 10
10.5509071479
 20
6.9358370412
 30
0.0
 10
10.570134702
 20
6.9359202758
 30
0.0
 10
10.5892704601
 20
6.936951809
 30
0.0
 10
10.608267516
 20
6.9389290419
 30
0.0
 10
10.6270804156
 20
6.9418473854
 30
0.0
 10
10.6456637031
 20
6.9456998091
 30
0.0
 10
10.6639726116
 20
6.9504770884
 30
0.0
 10
10.6819629952
 20
6.9561677369
 30
0.0
 10
10.699591476
 20
6.9627580743
 30
0.0
 10
10.7168155394
 20
6.9702322535
 30
0.0
 10
10.733593636
 20
6.9785722977
 30
0.0
 10
10.7498852886
 20
6.9877581297
 30
0.0
 10
10.7656512025
 20
6.9977676073
 30
0.0
 10
10.7808533454
 20
7.0085766059
 30
0.0
 10
10.7954550419
 20
7.0201590709
 30
0.0
 10
10.8094210614
 20
7.032487081
 30
0.0
 10
10.822717703
 20
7.0455309145
 30
0.0
 10
10.8353129043
 20
7.0592590968
 30
0.0
 10
10.8471762966
 20
7.0736385053
 30
0.0
 10
10.8582792774
 20
7.0886344495
 30
0.0
 10
10.8685950803
 20
7.1042107538
 30
0.0
 10
10.8780988329
 20
7.1203298478
 30
0.0
 10
10.8867676463
 20
7.1369528404
 30
0.0
 10
10.8945806584
 20
7.1540396269
 30
0.0
 10
10.9015190684
 20
7.1715489938
 30
0.0
 10
10.9075661855
 20
7.189438717
 30
0.0
 10
10.9127074622
 20
7.2076656597
 30
0.0
 10
10.9169305449
 20
7.2261858887
 30
0.0
 10
10.9202253171
 20
7.2449547122
 30
0.0
 10
10.9225838911
 20
7.2639270553
 30
0.0
 10
10.9240006306
 20
7.2830565955
 30
0.0
 10
10.9243144512
 20
7.2958633778
 30
0.0
 10
10.9243144457
 20
7.3022765086
 30
0.0
  0
SPLINE
  5
392
100
AcDbEntity
  8
0
100
AcDbSpline
 62
7
  6
CONTINUOUS
 70
0
 71
3
 72
39
 73
35
 74
0
 42
0.0000001
 43
0.0000001
 44
0.0000000001
 40
0.0
 40
0.0
 40
0.0
 40
0.0
 40
0.0309074395
 40
0.0619441436
 40
0.0931053756
 40
0.1243858146
 40
0.1557776645
 40
0.1872718471
 40
0.218857716
 40
0.2505233719
 40
0.2822557897
 40
0.3140410211
 40
0.3458643883
 40
0.3777106895
 40
0.4095644084
 40
0.441409927
 40
0.4732317396
 40
0.5050146657
 40
0.5367440592
 40
0.5684060132
 40
0.5999875565
 40
0.6314768415
 40
0.66286332
 40
0.6941379046
 40
0.725293114
 40
0.7563231991
 40
0.7872242475
 40
0.8179942639
 40
0.8486332247
 40
0.8791431036
 40
0.9095278666
 40
0.9397934352
 40
0.9699476165
 40
1.0
 40
1.0
 40
1.0
 40
1.0
 10
10.2065821195
 20
9.6241161108
 30
0.0
 10
10.201517192
 20
9.6244673647
 30
0.0
 10
10.1913851035
 20
9.6254833286
 30
0.0
 10
10.1762792026
 20
9.6279319351
 30
0.0
 10
10.1612879278
 20
9.6312993385
 30
0.0
 10
10.1464688426
 20
9.6355725603
 30
0.0
 10
10.1318777929
 20
9.6407354405
 30
0.0
 10
10.117570073
 20
9.6467683274
 30
0.0
 10
10.1035998072
 20
9.6536483513
 30
0.0
 10
10.0900198629
 20
9.6613494172
 30
0.0
 10
10.0768816222
 20
9.6698423436
 30
0.0
 10
10.0642347965
 20
9.6790949571
 30
0.0
 10
10.0521272385
 20
9.6890722191
 30
0.0
 10
10.0406047628
 20
9.6997363562
 30
0.0
 10
10.0297109745
 20
9.7110470025
 30
0.0
 10
10.0194871038
 20
9.7229613508
 30
0.0
 10
10.0099718507
 20
9.7354343131
 30
0.0
 10
10.0012012408
 20
9.7484186914
 30
0.0
 10
9.9932084894
 20
9.7618653546
 30
0.0
 10
9.9860238768
 20
9.7757234233
 30
0.0
 10
9.9796746337
 20
9.7899404602
 30
0.0
 10
9.9741848389
 20
9.8044626668
 30
0.0
 10
9.9695753274
 20
9.8192350854
 30
0.0
 10
9.965863612
 20
9.8342018047
 30
0.0
 10
9.9630638153
 20
9.8493061692
 30
0.0
 10
9.961186616
 20
9.864490992
 30
0.0
 10
9.9602392061
 20
9.8796987688
 30
0.0
 10
9.9602252626
 20
9.8948718952
 30
0.0
 10
9.9611449266
 20
9.9099528772
 30
0.0
 10
9.9629948105
 20
9.9248845719
 30
0.0
 10
9.9657679709
 20
9.9396103153
 30
0.0
 10
9.9694540726
 20
9.9540744635
 30
0.0
 10
9.9740388985
 20
9.9682213922
 30
0.0
 10
9.9776895852
 20
9.9774216811
 30
0.0
 10
9.9796581231
 20
9.9819488458
 30
0.0
  0
SPLINE
  5
393
100
AcDbEntity
  8
0
100
AcDbSpline
 62
7
  6
CONTINUOUS
 70
0
 71
3
 72
39
 73
35
 74
0
 42
0.0000001
 43
0.0000001
 44
0.0000000001
 40
0.0
 40
0.0
 40
0.0
 40
0.0
 40
0.0319665592
 40
0.0638285699
 40
0.0955844695
 40
0.1272374831
 40
0.15878978
 40
0.1902450849
 40
0.221607974
 40
0.2528838743
 40
0.2840790832
 40
0.3152006726
 40
0.3462564439
 40
0.3772548524
 40
0.4082049243
 40
0.439116168
 40
0.4699984827
 40
0.5008620615
 40
0.5317172883
 40
0.5625746306
 40
0.5934445327
 40
0.6243373117
 40
0.6552630554
 40
0.6862315196
 40
0.7172520298
 40
0.7483333884
 40
0.7794837941
 40
0.8107107654
 40
0.8420210697
 40
0.8734206605
 40
0.9049146278
 40
0.9365071617
 40
0.9682015191
 40
1.0
 40
1.0
 40
1.0
 40
1.0
 10
10.5596180078
 20
6.9918100313
 30
0.0
 10
10.5654169866
 20
6.9914078707
 30
0.0
 10
10.577016977
 20
6.9908797204
 30
0.0
 10
10.5944046957
 20
6.9909209483
 30
0.0
 10
10.6117137648
 20
6.9917969734
 30
0.0
 10
10.6289039146
 20
6.9935056565
 30
0.0
 10
10.6459362099
 20
6.9960432778
 30
0.0
 10
10.662771638
 20
6.9994040316
 30
0.0
 10
10.6793717701
 20
7.0035802642
 30
0.0
 10
10.6956986774
 20
7.0085624766
 30
0.0
 10
10.711715048
 20
7.0143393272
 30
0.0
 10
10.7273842693
 20
7.0208976704
 30
0.0
 10
10.7426705351
 20
7.0282225248
 30
0.0
 10
10.7575389072
 20
7.0362971705
 30
0.0
 10
10.7719553955
 20
7.0451031787
 30
0.0
 10
10.7858870274
 20
7.0546204616
 30
0.0
 10
10.7993019538
 20
7.0648272725
 30
0.0
 10
10.812169518
 20
7.0757002744
 30
0.0
 10
10.8244603055
 20
7.0872146197
 30
0.0
 10
10.836146212
 20
7.0993440009
 30
0.0
 10
10.8472005141
 20
7.1120607015
 30
0.0
 10
10.8575979694
 20
7.1253356305
 30
0.0
 10
10.867314829
 20
7.1391384353
 30
0.0
 10
10.8763288963
 20
7.1534375626
 30
0.0
 10
10.8846195663
 20
7.1682003348
 30
0.0
 10
10.892167924
 20
7.1833929953
 30
0.0
 10
10.8989567628
 20
7.1989808075
 30
0.0
 10
10.9049706012
 20
7.2149281455
 30
0.0
 10
10.9101957169
 20
7.231198568
 30
0.0
 10
10.9146201942
 20
7.2477549083
 30
0.0
 10
10.9182339876
 20
7.2645592948
 30
0.0
 10
10.9210288884
 20
7.2815734798
 30
0.0
 10
10.9229985382
 20
7.298758082
 30
0.0
 10
10.92375725
 20
7.3102841787
 30
0.0
 10
10.9239985606
 20
7.3160614843
 30
0.0
  0
SPLINE
  5
394
100
AcDbEntity
  8
0
100
AcDbSpline
 62
7
  6
CONTINUOUS
 70
0
 71
3
 72
56
 73
52
 74
0
 42
0.0000001
 43
0.0000001
 44
0.0000000001
 40
0.0
 40
0.0
 40
0.0
 40
0.0
 40
0.0528988178
 40
0.1050249547
 40
0.1562613383
 40
0.2064945323
 40
0.2556136803
 40
0.3035116986
 40
0.3500853851
 40
0.3952359925
 40
0.4388696809
 40
0.4808980694
 40
0.5212388384
 40
0.5598164258
 40
0.5965628475
 40
0.6142309653
 40
0.6314197927
 40
0.6481234407
 40
0.6643367593
 40
0.6800553156
 40
0.6952755833
 40
0.7099948626
 40
0.724211563
 40
0.7379250905
 40
0.7511362104
 40
0.7638469421
 40
0.776060981
 40
0.7877836529
 40
0.7990223741
 40
0.8097867189
 40
0.8200889029
 40
0.8299440013
 40
0.8393704435
 40
0.848390382
 40
0.8570301577
 40
0.8732871703
 40
0.8809923201
 40
0.8884716055
 40
0.8957762193
 40
0.9029614893
 40
0.910085848
 40
0.9172093616
 40
0.92439212
 40
0.9316926219
 40
0.9391662991
 40
0.9468644709
 40
0.9631039601
 40
0.9717335158
 40
0.9807424301
 40
0.9901571718
 40
1.0
 40
1.0
 40
1.0
 40
1.0
 10
10.5601286478
 20
10.7547773354
 30
0.0
 10
10.5701277365
 20
10.7540838962
 30
0.0
 10
10.5899708309
 20
10.752572782
 30
0.0
 10
10.6194598741
 20
10.7499117012
 30
0.0
 10
10.6484051982
 20
10.7468776705
 30
0.0
 10
10.6767361648
 20
10.7434781583
 30
0.0
 10
10.7043838439
 20
10.7397214857
 30
0.0
 10
10.7312808894
 20
10.7356168815
 30
0.0
 10
10.7573618424
 20
10.7311744161
 30
0.0
 10
10.7825632422
 20
10.7264049994
 30
0.0
 10
10.8068238128
 20
10.7213203448
 30
0.0
 10
10.8300845912
 20
10.7159329424
 30
0.0
 10
10.8522891692
 20
10.7102560306
 30
0.0
 10
10.8733835508
 20
10.7043035404
 30
0.0
 10
10.8902077239
 20
10.6990593982
 30
0.0
 10
10.9030651562
 20
10.6947272076
 30
0.0
 10
10.9122729655
 20
10.6914608753
 30
0.0
 10
10.9211664137
 20
10.6881368012
 30
0.0
 10
10.9297401208
 20
10.6847570067
 30
0.0
 10
10.937988879
 20
10.6813235228
 30
0.0
 10
10.9459077041
 20
10.6778384786
 30
0.0
 10
10.9534917923
 20
10.6743039373
 30
0.0
 10
10.9607365806
 20
10.6707220999
 30
0.0
 10
10.9676376793
 20
10.6670950624
 30
0.0
 10
10.9741909605
 20
10.6634250781
 30
0.0
 10
10.9803924607
 20
10.6597142706
 30
0.0
 10
10.9862384948
 20
10.6559649202
 30
0.0
 10
10.991725536
 20
10.6521791693
 30
0.0
 10
10.9968503409
 20
10.6483592936
 30
0.0
 10
11.0016098235
 20
10.6445074357
 30
0.0
 10
11.0060011574
 20
10.6406258423
 30
0.0
 10
11.0100217073
 20
10.6367165926
 30
0.0
 10
11.0136689272
 20
10.632782024
 30
0.0
 10
11.0169408908
 20
10.6288236086
 30
0.0
 10
11.0207223675
 20
10.6236244522
 30
0.0
 10
11.0238568518
 20
10.6182707297
 30
0.0
 10
11.0262308891
 20
10.6128005094
 30
0.0
 10
11.0275948481
 20
10.6087577722
 30
0.0
 10
11.0285719413
 20
10.6047055823
 30
0.0
 10
11.0291609064
 20
10.6006466656
 30
0.0
 10
11.0293610039
 20
10.5965843309
 30
0.0
 10
11.0291718033
 20
10.5925219481
 30
0.0
 10
11.0285937178
 20
10.5884628904
 30
0.0
 10
11.0276274765
 20
10.5844104717
 30
0.0
 10
11.0262743257
 20
10.5803674266
 30
0.0
 10
11.0239150473
 20
10.5748970221
 30
0.0
 10
11.0207948155
 20
10.5695424914
 30
0.0
 10
11.0170270722
 20
10.5643424374
 30
0.0
 10
11.0137656392
 20
10.5603833771
 30
0.0
 10
11.0101289746
 20
10.5564481994
 30
0.0
 10
11.007515142
 20
10.5538996358
 30
0.0
 10
11.0061498784
 20
10.5526291091
 30
0.0
  0
SPLINE
  5
395
100
AcDbEntity
  8
0
100
AcDbSpline
 62
7
  6
CONTINUOUS
 70
0
 71
3
 72
23
 73
19
 74
0
 42
0.0000001
 43
0.0000001
 44
0.0000000001
 40
0.0
 40
0.0
 40
0.0
 40
0.0
 40
0.0638614315
 40
0.1275032443
 40
0.1909230334
 40
0.2541276741
 40
0.3171224002
 40
0.379915926
 40
0.4425188184
 40
0.5049436646
 40
0.5672049931
 40
0.6293190762
 40
0.6913037914
 40
0.7531784355
 40
0.8149635211
 40
0.876680553
 40
0.9383517903
 40
1.0
 40
1.0
 40
1.0
 40
1.0
 10
10.5683043528
 20
7.0326183059
 30
0.0
 10
10.5738509259
 20
7.0322336497
 30
0.0
 10
10.58494618
 20
7.0317416176
 30
0.0
 10
10.6015747162
 20
7.0318406978
 30
0.0
 10
10.6181203362
 20
7.0327780506
 30
0.0
 10
10.6345406509
 20
7.0345511928
 30
0.0
 10
10.6507946347
 20
7.0371558382
 30
0.0
 10
10.6668412544
 20
7.0405854345
 30
0.0
 10
10.682640131
 20
7.0448313877
 30
0.0
 10
10.6981514698
 20
7.0498830401
 30
0.0
 10
10.7133361982
 20
7.0557277063
 30
0.0
 10
10.7281560564
 20
7.0623507125
 30
0.0
 10
10.7425736911
 20
7.0697354181
 30
0.0
 10
10.7565527849
 20
7.0778632382
 30
0.0
 10
10.7700580813
 20
7.0867136806
 30
0.0
 10
10.783055659
 20
7.0962645814
 30
0.0
 10
10.7955123237
 20
7.1064914617
 30
0.0
 10
10.8034367858
 20
7.1137443992
 30
0.0
 10
10.8072971825
 20
7.1174732405
 30
0.0
  0
SPLINE
  5
396
100
AcDbEntity
  8
0
100
AcDbSpline
 62
7
  6
CONTINUOUS
 70
0
 71
3
 72
17
 73
13
 74
0
 42
0.0000001
 43
0.0000001
 44
0.0000000001
 40
0.0
 40
0.0
 40
0.0
 40
0.0
 40
0.1267572045
 40
0.2529763298
 40
0.3786643496
 40
0.4413217935
 40
0.5038529906
 40
0.6285348491
 40
0.7527569829
 40
0.8147154753
 40
0.8765741787
 40
1.0
 40
1.0
 40
1.0
 40
1.0
 10
10.7097329301
 20
7.1692278294
 30
0.0
 10
10.7165173179
 20
7.1687573305
 30
0.0
 10
10.7300897507
 20
7.1682310301
 30
0.0
 10
10.7504122845
 20
7.1686958027
 30
0.0
 10
10.7672401574
 20
7.1701298808
 30
0.0
 10
10.780584672
 20
7.1719025871
 30
0.0
 10
10.7938136231
 20
7.1740852672
 30
0.0
 10
10.8101640661
 20
7.177584877
 30
0.0
 10
10.8262292661
 20
7.1821095123
 30
0.0
 10
10.8388521454
 20
7.1863299145
 30
0.0
 10
10.8512923114
 20
7.1909388743
 30
0.0
 10
10.8604443776
 20
7.1948427066
 30
0.0
 10
10.8664477385
 20
7.1976373227
 30
0.0
  0
SPLINE
  5
397
100
AcDbEntity
  8
0
100
AcDbSpline
 62
7
  6
CONTINUOUS
 70
0
 71
3
 72
64
 73
60
 74
0
 42
0.0000001
 43
0.0000001
 44
0.0000000001
 40
0.0
 40
0.0
 40
0.0
 40
0.0
 40
0.0082489002
 40
0.0160245789
 40
0.0233634177
 40
0.0303107653
 40
0.0369218447
 40
0.0401226201
 40
0.0432647895
 40
0.0463580889
 40
0.0494127661
 40
0.0524395148
 40
0.0554493543
 40
0.0584535051
 40
0.061463261
 40
0.0644898433
 40
0.0675442735
 40
0.070637248
 40
0.0737790184
 40
0.0802448985
 40
0.0870153095
 40
0.0941506924
 40
0.1017012425
 40
0.1097077351
 40
0.11820258
 40
0.127210955
 40
0.1367519858
 40
0.1468396186
 40
0.157483474
 40
0.1686895566
 40
0.1804607007
 40
0.1927971146
 40
0.2056967011
 40
0.2191553043
 40
0.2331670462
 40
0.2477244302
 40
0.2628185367
 40
0.2784392058
 40
0.2945750541
 40
0.3112136623
 40
0.3283416349
 40
0.3459446259
 40
0.3640074928
 40
0.3825142826
 40
0.4014483037
 40
0.4207922194
 40
0.4606364401
 40
0.5018968388
 40
0.5444143008
 40
0.5880226233
 40
0.6325496135
 40
0.6778181242
 40
0.7236470562
 40
0.7698523647
 40
0.8162480403
 40
0.8626470781
 40
0.9088625236
 40
0.954707991
 40
1.0
 40
1.0
 40
1.0
 40
1.0
 10
9.7864427672
 20
10.5526291091
 30
0.0
 10
9.7846385274
 20
10.554308151
 30
0.0
 10
9.7812323974
 20
10.5576789801
 30
0.0
 10
9.7766288754
 20
10.5629350034
 30
0.0
 10
9.7726923594
 20
10.5682322963
 30
0.0
 10
9.7694285442
 20
10.5735656566
 30
0.0
 10
9.7672501894
 20
10.57808575
 30
0.0
 10
9.7658648264
 20
10.5817016809
 30
0.0
 10
9.765007404
 20
10.5843892574
 30
0.0
 10
9.7643209162
 20
10.5870804828
 30
0.0
 10
9.7638056485
 20
10.5897746485
 30
0.0
 10
9.7634618084
 20
10.5924709168
 30
0.0
 10
9.763289509
 20
10.5951684589
 30
0.0
 10
9.7632888723
 20
10.5978664321
 30
0.0
 10
9.7634598981
 20
10.6005639796
 30
0.0
 10
9.7638024687
 20
10.6032602644
 30
0.0
 10
9.7643164555
 20
10.6059544338
 30
0.0
 10
9.7650017112
 20
10.6086457407
 30
0.0
 10
9.7661540019
 20
10.6122632645
 30
0.0
 10
9.7680408342
 20
10.6167902031
 30
0.0
 10
9.7709638947
 20
10.6221402747
 30
0.0
 10
9.7745622969
 20
10.6274564816
 30
0.0
 10
9.7788305404
 20
10.6327338369
 30
0.0
 10
9.7837633658
 20
10.6379681461
 30
0.0
 10
9.7893552081
 20
10.6431548713
 30
0.0
 10
9.7956000632
 20
10.6482894062
 30
0.0
 10
9.802491436
 20
10.6533668621
 30
0.0
 10
9.8100221451
 20
10.6583822866
 30
0.0
 10
9.8181843414
 20
10.6633306321
 30
0.0
 10
9.8269695015
 20
10.6682067557
 30
0.0
 10
9.8363683602
 20
10.6730055925
 30
0.0
 10
9.8463709857
 20
10.6777220455
 30
0.0
 10
9.856966759
 20
10.6823510679
 30
0.0
 10
9.8681443764
 20
10.6868877308
 30
0.0
 10
9.8798919023
 20
10.6913271172
 30
0.0
 10
9.8921967499
 20
10.6956644486
 30
0.0
 10
9.9050457142
 20
10.6998950517
 30
0.0
 10
9.9184249975
 20
10.7040143147
 30
0.0
 10
9.9323202031
 20
10.7080178059
 30
0.0
 10
9.9467163749
 20
10.7119011788
 30
0.0
 10
9.9615980081
 20
10.7156602075
 30
0.0
 10
9.9769490591
 20
10.7192908459
 30
0.0
 10
9.9927529797
 20
10.7227891355
 30
0.0
 10
10.0089927178
 20
10.7261512815
 30
0.0
 10
10.0256507697
 20
10.7293736828
 30
0.0
 10
10.0486217545
 20
10.7335199497
 30
0.0
 10
10.0782516941
 20
10.7383148846
 30
0.0
 10
10.1148384094
 20
10.7434048815
 30
0.0
 10
10.1526399692
 20
10.7478637885
 30
0.0
 10
10.191493176
 20
10.7516721708
 30
0.0
 10
10.2312304583
 20
10.7548133923
 30
0.0
 10
10.2716803199
 20
10.7572737419
 30
0.0
 10
10.3126681705
 20
10.7590424939
 30
0.0
 10
10.3540170676
 20
10.7601119402
 30
0.0
 10
10.3955485012
 20
10.7604774158
 30
0.0
 10
10.4370831686
 20
10.7601373231
 30
0.0
 10
10.4784417178
 20
10.75909314
 30
0.0
 10
10.5194455315
 20
10.7573494526
 30
0.0
 10
10.5466285276
 20
10.7557135719
 30
0.0
 10
10.5601286478
 20
10.7547773354
 30
0.0
  0
SPLINE
  5
398
100
AcDbEntity
  8
0
100
AcDbSpline
 62
7
  6
CONTINUOUS
 70
0
 71
3
 72
52
 73
48
 74
0
 42
0.0000001
 43
0.0000001
 44
0.0000000001
 40
0.0
 40
0.0
 40
0.0
 40
0.0
 40
0.005565761
 40
0.0112552373
 40
0.0171221412
 40
0.0232149299
 40
0.0295762691
 40
0.0362428273
 40
0.0432456368
 40
0.0506104302
 40
0.0583583388
 40
0.0665063161
 40
0.0750678387
 40
0.084053225
 40
0.0934702311
 40
0.1033242329
 40
0.1136187114
 40
0.1243553222
 40
0.1355342953
 40
0.1471544226
 40
0.1592133979
 40
0.171707749
 40
0.1846331351
 40
0.1979842449
 40
0.2117550628
 40
0.2259387456
 40
0.240527867
 40
0.2555142815
 40
0.2866430936
 40
0.3192502
 40
0.3532521284
 40
0.3885586347
 40
0.4250734658
 40
0.4626950345
 40
0.5013170325
 40
0.5408290013
 40
0.5811168715
 40
0.6220634819
 40
0.6635490835
 40
0.7054518331
 40
0.7476482804
 40
0.7900138498
 40
0.8324233217
 40
0.8747513057
 40
0.916872732
 40
0.9586632949
 40
1.0
 40
1.0
 40
1.0
 40
1.0
 10
9.8565546663
 20
10.5110190026
 30
0.0
 10
9.8567125229
 20
10.5123393981
 30
0.0
 10
9.8571769885
 20
10.5149942066
 30
0.0
 10
9.8582988048
 20
10.5189352051
 30
0.0
 10
9.8598493245
 20
10.5228635982
 30
0.0
 10
9.8618259725
 20
10.5267755787
 30
0.0
 10
9.8642263293
 20
10.5306684216
 30
0.0
 10
9.8670476954
 20
10.53453952
 30
0.0
 10
9.8702874817
 20
10.5383862926
 30
0.0
 10
9.8739428219
 20
10.5422062787
 30
0.0
 10
9.8780108125
 20
10.545996834
 30
0.0
 10
9.882488195
 20
10.5497554024
 30
0.0
 10
9.8873715522
 20
10.5534792237
 30
0.0
 10
9.892657075
 20
10.5571656455
 30
0.0
 10
9.8983407301
 20
10.5608118385
 30
0.0
 10
9.9044180918
 20
10.5644151076
 30
0.0
 10
9.9108844808
 20
10.5679726125
 30
0.0
 10
9.9177348422
 20
10.5714816655
 30
0.0
 10
9.9249638559
 20
10.5749394588
 30
0.0
 10
9.9325658479
 20
10.5783433477
 30
0.0
 10
9.9405348765
 20
10.5816905863
 30
0.0
 10
9.9488646678
 20
10.5849785973
 30
0.0
 10
9.9575486827
 20
10.5882047169
 30
0.0
 10
9.9665800701
 20
10.5913664518
 30
0.0
 10
9.9759517195
 20
10.5944612364
 30
0.0
 10
9.9856562249
 20
10.5974866677
 30
0.0
 10
9.9956859413
 20
10.6004403142
 30
0.0
 10
10.0096591681
 20
10.6043289384
 30
0.0
 10
10.0278861505
 20
10.6089808984
 30
0.0
 10
10.0506558822
 20
10.6141731808
 30
0.0
 10
10.0745194982
 20
10.6190269996
 30
0.0
 10
10.0994015183
 20
10.623526852
 30
0.0
 10
10.1252233849
 20
10.6276583362
 30
0.0
 10
10.1519034503
 20
10.6314082448
 30
0.0
 10
10.1793573269
 20
10.6347645927
 30
0.0
 10
10.2074981413
 20
10.637716658
 30
0.0
 10
10.2362368229
 20
10.6402550136
 30
0.0
 10
10.2654823896
 20
10.6423715562
 30
0.0
 10
10.2951422406
 20
10.6440595309
 30
0.0
 10
10.325122453
 20
10.6453135518
 30
0.0
 10
10.3553280822
 20
10.6461296181
 30
0.0
 10
10.3856634643
 20
10.646505127
 30
0.0
 10
10.4160325238
 20
10.6464388803
 30
0.0
 10
10.4463390706
 20
10.6459310902
 30
0.0
 10
10.4764871426
 20
10.6449833741
 30
0.0
 10
10.5063811673
 20
10.6435987617
 30
0.0
 10
10.5262057947
 20
10.6423795108
 30
0.0
 10
10.5360584918
 20
10.641696224
 30
0.0
  0
SPLINE
  5
399
100
AcDbEntity
  8
0
100
AcDbSpline
 62
7
  6
CONTINUOUS
 70
0
 71
3
 72
11
 73
7
 74
0
 42
0.0000001
 43
0.0000001
 44
0.0000000001
 40
0.0
 40
0.0
 40
0.0
 40
0.0
 40
0.2397903993
 40
0.4867761123
 40
0.7403796237
 40
1.0
 40
1.0
 40
1.0
 40
1.0
 10
10.0847486202
 20
9.956295154
 30
0.0
 10
10.0924389812
 20
9.9577010853
 30
0.0
 10
10.10807877
 20
9.9604021974
 30
0.0
 10
10.1319367231
 20
9.9640787562
 30
0.0
 10
10.1564946817
 20
9.9674334069
 30
0.0
 10
10.1731087633
 20
9.9694275072
 30
0.0
 10
10.1815203163
 20
9.9703712569
 30
0.0
  0
SPLINE
  5
39A
100
AcDbEntity
  8
0
100
AcDbSpline
 62
7
  6
CONTINUOUS
 70
0
 71
3
 72
11
 73
7
 74
0
 42
0.0000001
 43
0.0000001
 44
0.0000000001
 40
0.0
 40
0.0
 40
0.0
 40
0.0
 40
0.2386145564
 40
0.4852817721
 40
0.7393159117
 40
1.0
 40
1.0
 40
1.0
 40
1.0
 10
10.0845820832
 20
9.9521185135
 30
0.0
 10
10.0926905518
 20
9.9536580008
 30
0.0
 10
10.1092159148
 20
9.9566080467
 30
0.0
 10
10.134476467
 20
9.9605956602
 30
0.0
 10
10.1605638233
 20
9.9642105675
 30
0.0
 10
10.178240539
 20
9.9663389178
 30
0.0
 10
10.187201311
 20
9.9673413811
 30
0.0
  0
SPLINE
  5
39B
100
AcDbEntity
  8
0
100
AcDbSpline
 62
7
  6
CONTINUOUS
 70
0
 71
3
 72
13
 73
9
 74
0
 42
0.0000001
 43
0.0000001
 44
0.0000000001
 40
0.0
 40
0.0
 40
0.0
 40
0.0
 40
0.1164741217
 40
0.2356692194
 40
0.3574486278
 40
0.4816706906
 40
0.7368507408
 40
1.0
 40
1.0
 40
1.0
 40
1.0
 10
10.0842715159
 20
9.9311017421
 30
0.0
 10
10.0893271593
 20
9.9320936918
 30
0.0
 10
10.0995711811
 20
9.9340268828
 30
0.0
 10
10.115146959
 20
9.9367473854
 30
0.0
 10
10.1310951827
 20
9.9393195596
 30
0.0
 10
10.1530241489
 20
9.942575845
 30
0.0
 10
10.1812119498
 20
9.9462395847
 30
0.0
 10
10.2040107116
 20
9.9486845241
 30
0.0
 10
10.2155966829
 20
9.9498043928
 30
0.0
  0
SPLINE
  5
39C
100
AcDbEntity
  8
0
100
AcDbSpline
 62
7
  6
CONTINUOUS
 70
0
 71
3
 72
15
 73
11
 74
0
 42
0.0000001
 43
0.0000001
 44
0.0000000001
 40
0.0
 40
0.0
 40
0.0
 40
0.0
 40
0.1171042932
 40
0.2369627593
 40
0.3593345565
 40
0.4839715622
 40
0.6106192002
 40
0.7390172331
 40
0.8689005587
 40
1.0
 40
1.0
 40
1.0
 40
1.0
 10
10.1308146459
 20
9.8061241027
 30
0.0
 10
10.1378904228
 20
9.8072214771
 30
0.0
 10
10.1522268727
 20
9.8093243855
 30
0.0
 10
10.1740132906
 20
9.8121769649
 30
0.0
 10
10.1962970472
 20
9.8147600896
 30
0.0
 10
10.2190282338
 20
9.8170679378
 30
0.0
 10
10.2421560285
 20
9.8190953149
 30
0.0
 10
10.2656287036
 20
9.8208376592
 30
0.0
 10
10.2893937
 20
9.8222910509
 30
0.0
 10
10.3053334087
 20
9.8230621146
 30
0.0
 10
10.3133424119
 20
9.8233994134
 30
0.0
  0
SPLINE
  5
39D
100
AcDbEntity
  8
0
100
AcDbSpline
 62
7
  6
CONTINUOUS
 70
0
 71
3
 72
35
 73
31
 74
0
 42
0.0000001
 43
0.0000001
 44
0.0000000001
 40
0.0
 40
0.0
 40
0.0
 40
0.0
 40
0.0809974466
 40
0.1601521913
 40
0.237271846
 40
0.3121478439
 40
0.3486763731
 40
0.3845615951
 40
0.4197760708
 40
0.4542933125
 40
0.4880882138
 40
0.5211379221
 40
0.5534226545
 40
0.5849265981
 40
0.6156390563
 40
0.6455555251
 40
0.6746788925
 40
0.7030206171
 40
0.7306017673
 40
0.7574539536
 40
0.7836199153
 40
0.809153664
 40
0.8341201406
 40
0.8585942531
 40
0.8826590206
 40
0.9064034868
 40
0.9299197436
 40
0.9532996959
 40
0.9766322672
 40
1.0
 40
1.0
 40
1.0
 40
1.0
 10
10.6528539741
 20
7.6377077329
 30
0.0
 10
10.6522441854
 20
7.6332445975
 30
0.0
 10
10.6510641353
 20
7.6244163613
 30
0.0
 10
10.6493515361
 20
7.6113323118
 30
0.0
 10
10.6476684433
 20
7.5985877457
 30
0.0
 10
10.6462343616
 20
7.5882015183
 30
0.0
 10
10.6450414578
 20
7.5800973948
 30
0.0
 10
10.6441243923
 20
7.5741823439
 30
0.0
 10
10.6431690867
 20
7.5683866488
 30
0.0
 10
10.6421667181
 20
7.5627168781
 30
0.0
 10
10.6411081396
 20
7.5571797973
 30
0.0
 10
10.639984054
 20
7.5517823293
 30
0.0
 10
10.6387850223
 20
7.5465315302
 30
0.0
 10
10.6375015721
 20
7.5414345489
 30
0.0
 10
10.6361243438
 20
7.5364985706
 30
0.0
 10
10.6346441175
 20
7.5317307858
 30
0.0
 10
10.6330520835
 20
7.5271382914
 30
0.0
 10
10.6313398657
 20
7.5227280562
 30
0.0
 10
10.6294996694
 20
7.5185068609
 30
0.0
 10
10.6275246308
 20
7.5144811293
 30
0.0
 10
10.6254086277
 20
7.5106570041
 30
0.0
 10
10.6231467503
 20
7.5070401194
 30
0.0
 10
10.6207353621
 20
7.5036355087
 30
0.0
 10
10.6181719413
 20
7.5004477354
 30
0.0
 10
10.615455709
 20
7.4974803794
 30
0.0
 10
10.6125871403
 20
7.4947363332
 30
0.0
 10
10.6095682396
 20
7.4922175601
 30
0.0
 10
10.6064025057
 20
7.4899247692
 30
0.0
 10
10.6030947729
 20
7.4878580456
 30
0.0
 10
10.6008026288
 20
7.486631992
 30
0.0
 10
10.5996372494
 20
7.4860568514
 30
0.0
  0
SPLINE
  5
39E
100
AcDbEntity
  8
0
100
AcDbSpline
 62
7
  6
CONTINUOUS
 70
0
 71
3
 72
11
 73
7
 74
0
 42
0.0000001
 43
0.0000001
 44
0.0000000001
 40
0.0
 40
0.0
 40
0.0
 40
0.0
 40
0.24141469
 40
0.4894046615
 40
0.7427014524
 40
1.0
 40
1.0
 40
1.0
 40
1.0
 10
10.194214898
 20
9.7544870526
 30
0.0
 10
10.2049026606
 20
9.7558095742
 30
0.0
 10
10.226601739
 20
9.7582339404
 30
0.0
 10
10.2596033449
 20
9.7611885986
 30
0.0
 10
10.2933664191
 20
9.7634996487
 30
0.0
 10
10.3161189619
 20
9.7645958902
 30
0.0
 10
10.3275883619
 20
9.7650359955
 30
0.0
  0
SPLINE
  5
39F
100
AcDbEntity
  8
0
100
AcDbSpline
 62
7
  6
CONTINUOUS
 70
0
 71
3
 72
40
 73
36
 74
0
 42
0.0000001
 43
0.0000001
 44
0.0000000001
 40
0.0
 40
0.0
 40
0.0
 40
0.0
 40
0.0064601002
 40
0.0130084219
 40
0.0196776313
 40
0.0264984394
 40
0.0406995059
 40
0.0558184103
 40
0.0720148568
 40
0.0894126802
 40
0.1081049672
 40
0.1281594136
 40
0.1496229855
 40
0.1725257793
 40
0.1968842409
 40
0.222703578
 40
0.2499795202
 40
0.2786998624
 40
0.3088456524
 40
0.3403920018
 40
0.3733087745
 40
0.4075612728
 40
0.4431106896
 40
0.4799144063
 40
0.5179264222
 40
0.5570976783
 40
0.5973762392
 40
0.6387075157
 40
0.6810345673
 40
0.7242982557
 40
0.7684373158
 40
0.8133888182
 40
0.8590879415
 40
0.9054679337
 40
1.0
 40
1.0
 40
1.0
 40
1.0
 10
10.9360421428
 20
10.5109840034
 30
0.0
 10
10.9359313044
 20
10.511918611
 30
0.0
 10
10.935635842
 20
10.5137927696
 30
0.0
 10
10.9349788876
 20
10.5165857687
 30
0.0
 10
10.9341061717
 20
10.5193742745
 30
0.0
 10
10.9326364037
 20
10.523134198
 30
0.0
 10
10.9302304164
 20
10.5278348015
 30
0.0
 10
10.926530087
 20
10.5333529299
 30
0.0
 10
10.9219871407
 20
10.5388194746
 30
0.0
 10
10.9166105445
 20
10.5442278086
 30
0.0
 10
10.9104090355
 20
10.5495720635
 30
0.0
 10
10.9033921321
 20
10.5548454254
 30
0.0
 10
10.895570398
 20
10.5600407325
 30
0.0
 10
10.886955673
 20
10.5651505148
 30
0.0
 10
10.8775610861
 20
10.5701671226
 30
0.0
 10
10.8674010874
 20
10.5750828357
 30
0.0
 10
10.8564914579
 20
10.5798900013
 30
0.0
 10
10.844849249
 20
10.5845810468
 30
0.0
 10
10.8324927338
 20
10.5891485137
 30
0.0
 10
10.8194413888
 20
10.5935851176
 30
0.0
 10
10.8057158544
 20
10.5978837843
 30
0.0
 10
10.7913378711
 20
10.6020376292
 30
0.0
 10
10.7763302453
 20
10.6060399813
 30
0.0
 10
10.760716823
 20
10.6098844383
 30
0.0
 10
10.744522433
 20
10.6135648405
 30
0.0
 10
10.7277728371
 20
10.6170752749
 30
0.0
 10
10.7104947001
 20
10.6204101105
 30
0.0
 10
10.6927155449
 20
10.6235640139
 30
0.0
 10
10.6744636939
 20
10.6265319258
 30
0.0
 10
10.6557682352
 20
10.629309074
 30
0.0
 10
10.6366589556
 20
10.6318910274
 30
0.0
 10
10.6171663367
 20
10.6342736391
 30
0.0
 10
10.5973214674
 20
10.6364531011
 30
0.0
 10
10.5702632488
 20
10.6391001723
 30
0.0
 10
10.5497976495
 20
10.6407434101
 30
0.0
 10
10.5360584918
 20
10.641696224
 30
0.0
  0
SPLINE
  5
3A0
100
AcDbEntity
  8
0
100
AcDbSpline
 62
7
  6
CONTINUOUS
 70
0
 71
3
 72
77
 73
73
 74
0
 42
0.0000001
 43
0.0000001
 44
0.0000000001
 40
0.0
 40
0.0
 40
0.0
 40
0.0
 40
0.0038751036
 40
0.0079070341
 40
0.0120990969
 40
0.0164540837
 40
0.0209743724
 40
0.0256618645
 40
0.0305178689
 40
0.0355432507
 40
0.0407385243
 40
0.0461038218
 40
0.0573431626
 40
0.0692573345
 40
0.0818379425
 40
0.0950733262
 40
0.1089489711
 40
0.1234478595
 40
0.1385507703
 40
0.1542365072
 40
0.1704820789
 40
0.1872628512
 40
0.204552713
 40
0.2223242053
 40
0.24054863
 40
0.2591961422
 40
0.2782358666
 40
0.2976359974
 40
0.317363884
 40
0.3373861085
 40
0.3576685789
 40
0.3988743982
 40
0.4406990373
 40
0.4828539945
 40
0.5250478679
 40
0.5669889141
 40
0.6083876051
 40
0.6287946713
 40
0.648959908
 40
0.6688488984
 40
0.6884278576
 40
0.7076637196
 40
0.7265242144
 40
0.7449779537
 40
0.7629945327
 40
0.7805446372
 40
0.7976001314
 40
0.814134164
 40
0.8301212946
 40
0.8455376482
 40
0.8603610495
 40
0.8745711913
 40
0.8881498444
 40
0.9010811325
 40
0.9133518291
 40
0.9249517306
 40
0.9358741509
 40
0.9410806535
 40
0.9461172528
 40
0.9509844382
 40
0.9556830474
 40
0.9602143989
 40
0.9645802373
 40
0.9687828553
 40
0.9728251642
 40
0.9767106988
 40
0.9804438007
 40
0.9840296349
 40
0.9874743079
 40
0.9907850236
 40
0.993970111
 40
1.0
 40
1.0
 40
1.0
 40
1.0
 10
12.4179791963
 20
8.5094996503
 30
0.0
 10
12.4189536594
 20
8.5104409095
 30
0.0
 10
12.4209016219
 20
8.5124037163
 30
0.0
 10
12.4237650792
 20
8.515518525
 30
0.0
 10
12.4266257851
 20
8.5188599984
 30
0.0
 10
12.4294822802
 20
8.5224264711
 30
0.0
 10
12.4323333621
 20
8.5262163108
 30
0.0
 10
12.435177742
 20
8.5302278573
 30
0.0
 10
12.4380141869
 20
8.5344592856
 30
0.0
 10
12.4408413933
 20
8.5389086651
 30
0.0
 10
12.4436580565
 20
8.543573981
 30
0.0
 10
12.4474568109
 20
8.5501821463
 30
0.0
 10
12.4521606783
 20
8.5589766907
 30
0.0
 10
12.4576589162
 20
8.5701977245
 30
0.0
 10
12.4630847541
 20
8.5822237165
 30
0.0
 10
12.4684281817
 20
8.5950326476
 30
0.0
 10
12.4736793447
 20
8.6086012191
 30
0.0
 10
12.4788285375
 20
8.6229045964
 30
0.0
 10
12.4838662279
 20
8.6379165717
 30
0.0
 10
12.4887830809
 20
8.6536095963
 30
0.0
 10
12.4935699823
 20
8.6699548356
 30
0.0
 10
12.4982180717
 20
8.6869222221
 30
0.0
 10
12.5027187389
 20
8.7044805261
 30
0.0
 10
12.5070636465
 20
8.7225974205
 30
0.0
 10
12.5112447417
 20
8.7412395364
 30
0.0
 10
12.5152542902
 20
8.7603725206
 30
0.0
 10
12.5190848729
 20
8.7799611066
 30
0.0
 10
12.5227294023
 20
8.7999691889
 30
0.0
 10
12.5261811223
 20
8.8203598754
 30
0.0
 10
12.5294336774
 20
8.8410955952
 30
0.0
 10
12.5335181065
 20
8.8692998422
 30
0.0
 10
12.5380760092
 20
8.9051350352
 30
0.0
 10
12.5426380502
 20
8.9486676641
 30
0.0
 10
12.5462870307
 20
8.9926330058
 30
0.0
 10
12.5489960061
 20
9.0367070285
 30
0.0
 10
12.5507450339
 20
9.0805648965
 30
0.0
 10
12.5513951949
 20
9.1168346024
 30
0.0
 10
12.5514186979
 20
9.1454940333
 30
0.0
 10
12.5511904237
 20
9.1666319412
 30
0.0
 10
12.5507168425
 20
9.1874761731
 30
0.0
 10
12.5499988257
 20
9.2079883218
 30
0.0
 10
12.5490377296
 20
9.2281305587
 30
0.0
 10
12.5478353498
 20
9.2478657505
 30
0.0
 10
12.5463939269
 20
9.2671575129
 30
0.0
 10
12.5447161471
 20
9.2859702882
 30
0.0
 10
12.5428051476
 20
9.3042694141
 30
0.0
 10
12.5406644938
 20
9.3220211845
 30
0.0
 10
12.5382981755
 20
9.3391929086
 30
0.0
 10
12.535710598
 20
9.355752981
 30
0.0
 10
12.5329065947
 20
9.3716709494
 30
0.0
 10
12.5298913962
 20
9.386917572
 30
0.0
 10
12.5266706218
 20
9.4014648671
 30
0.0
 10
12.5232502594
 20
9.415286186
 30
0.0
 10
12.519636674
 20
9.428356256
 30
0.0
 10
12.5158365668
 20
9.4406513379
 30
0.0
 10
12.5118569585
 20
9.4521489343
 30
0.0
 10
12.5083432271
 20
9.4611875047
 30
0.0
 10
12.5054394107
 20
9.4679944832
 30
0.0
 10
12.5032560661
 20
9.4728056472
 30
0.0
 10
12.5010334501
 20
9.4774023665
 30
0.0
 10
12.4987724952
 20
9.4817825387
 30
0.0
 10
12.4964742803
 20
9.4859441934
 30
0.0
 10
12.4941398019
 20
9.4898854332
 30
0.0
 10
12.4917700896
 20
9.4936044682
 30
0.0
 10
12.4893662267
 20
9.4970996407
 30
0.0
 10
12.4869291957
 20
9.5003693377
 30
0.0
 10
12.4844600897
 20
9.5034120955
 30
0.0
 10
12.4819599101
 20
9.5062265466
 30
0.0
 10
12.4794297643
 20
9.5088112813
 30
0.0
 10
12.476870349
 20
9.5111653871
 30
0.0
 10
12.4734834126
 20
9.5139434088
 30
0.0
 10
12.4708084243
 20
9.5157607615
 30
0.0
 10
12.4689832158
 20
9.5168157778
 30
0.0
  0
SPLINE
  5
3A1
100
AcDbEntity
  8
0
100
AcDbSpline
 62
7
  6
CONTINUOUS
 70
0
 71
3
 72
11
 73
7
 74
0
 42
0.0000001
 43
0.0000001
 44
0.0000000001
 40
0.0
 40
0.0
 40
0.0
 40
0.0
 40
0.2763737481
 40
0.5339427918
 40
0.7744057202
 40
1.0
 40
1.0
 40
1.0
 40
1.0
 10
12.4179791963
 20
8.5094996503
 30
0.0
 10
12.4163603087
 20
8.5079359249
 30
0.0
 10
12.4131252691
 20
8.5050226364
 30
0.0
 10
12.408096313
 20
8.5012029291
 30
0.0
 10
12.4030745956
 20
8.4981002373
 30
0.0
 10
12.3996363864
 20
8.4964679641
 30
0.0
 10
12.3979297715
 20
8.4957875909
 30
0.0
  0
SPLINE
  5
3A2
100
AcDbEntity
  8
0
100
AcDbSpline
 62
7
  6
CONTINUOUS
 70
0
 71
3
 72
19
 73
15
 74
0
 42
0.0000001
 43
0.0000001
 44
0.0000000001
 40
0.0
 40
0.0
 40
0.0
 40
0.0
 40
0.1532264237
 40
0.2947793451
 40
0.4259267176
 40
0.5483709416
 40
0.6070239617
 40
0.6643434169
 40
0.7206640972
 40
0.7763402773
 40
0.8317399435
 40
0.8872369341
 40
0.94320306
 40
1.0
 40
1.0
 40
1.0
 40
1.0
 10
12.4179791963
 20
8.6147855716
 30
0.0
 10
12.41654761
 20
8.6134027654
 30
0.0
 10
12.4136872388
 20
8.6108484772
 30
0.0
 10
12.4092193855
 20
8.6075688034
 30
0.0
 10
12.4047575227
 20
8.6050073094
 30
0.0
 10
12.4009938282
 20
8.6034566668
 30
0.0
 10
12.3980134766
 20
8.6026050306
 30
0.0
 10
12.3958179437
 20
8.6021586065
 30
0.0
 10
12.3936318163
 20
8.6018959475
 30
0.0
 10
12.3914562107
 20
8.6018173785
 30
0.0
 10
12.3892924404
 20
8.6019230245
 30
0.0
 10
12.3871417361
 20
8.6022128051
 30
0.0
 10
12.3850055464
 20
8.6026865191
 30
0.0
 10
12.3836046452
 20
8.603120711
 30
0.0
 10
12.3829090617
 20
8.60336664
 30
0.0
  0
SPLINE
  5
3A3
100
AcDbEntity
  8
0
100
AcDbSpline
 62
7
  6
CONTINUOUS
 70
0
 71
3
 72
39
 73
35
 74
0
 42
0.0000001
 43
0.0000001
 44
0.0000000001
 40
0.0
 40
0.0
 40
0.0
 40
0.0
 40
0.0311450469
 40
0.0624431113
 40
0.09388834
 40
0.1254709884
 40
0.1571788814
 40
0.1889972579
 40
0.2209091718
 40
0.2528958393
 40
0.2849370182
 40
0.3170114084
 40
0.349097068
 40
0.3811718384
 40
0.4132137706
 40
0.4452015496
 40
0.4771149115
 40
0.5089350441
 40
0.5406449673
 40
0.5722298867
 40
0.6036775163
 40
0.6349783575
 40
0.6661259304
 40
0.6971169519
 40
0.7279514552
 40
0.7586328387
 40
0.7891678413
 40
0.8195664421
 40
0.8498416837
 40
0.8800094162
 40
0.9100879631
 40
0.9400977203
 40
0.9700606956
 40
1.0
 40
1.0
 40
1.0
 40
1.0
 10
10.0404204295
 20
9.318727351
 30
0.0
 10
10.030867687
 20
9.3193898359
 30
0.0
 10
10.0117566514
 20
9.3214172808
 30
0.0
 10
9.9833217948
 20
9.3265244893
 30
0.0
 10
9.9551915038
 20
9.333678125
 30
0.0
 10
9.9275176903
 20
9.3428397511
 30
0.0
 10
9.9004473938
 20
9.3539602748
 30
0.0
 10
9.8741250116
 20
9.3669802002
 30
0.0
 10
9.8486907588
 20
9.3818299354
 30
0.0
 10
9.8242801631
 20
9.3984301938
 30
0.0
 10
9.8010232944
 20
9.4166924138
 30
0.0
 10
9.7790440798
 20
9.4365191976
 30
0.0
 10
9.7584596316
 20
9.4578048214
 30
0.0
 10
9.7393796635
 20
9.4804358315
 30
0.0
 10
9.7219059096
 20
9.5042916328
 30
0.0
 10
9.7061315843
 20
9.5292451187
 30
0.0
 10
9.6921408445
 20
9.5551633156
 30
0.0
 10
9.6800083943
 20
9.5819081197
 30
0.0
 10
9.6697990839
 20
9.6093370163
 30
0.0
 10
9.661567574
 20
9.6373038278
 30
0.0
 10
9.6553579814
 20
9.6656594645
 30
0.0
 10
9.6512036824
 20
9.6942527286
 30
0.0
 10
9.649127139
 20
9.7229311071
 30
0.0
 10
9.6491397767
 20
9.7515415715
 30
0.0
 10
9.6512418635
 20
9.7799313825
 30
0.0
 10
9.6554224997
 20
9.8079489077
 30
0.0
 10
9.6616596966
 20
9.8354444231
 30
0.0
 10
9.6699204745
 20
9.862270912
 30
0.0
 10
9.6801609865
 20
9.8882848446
 30
0.0
 10
9.6923267503
 20
9.9133470244
 30
0.0
 10
9.7063527978
 20
9.9373231477
 30
0.0
 10
9.7221646915
 20
9.9600852094
 30
0.0
 10
9.739676346
 20
9.9815097122
 30
0.0
 10
9.7524271437
 20
9.9948301079
 30
0.0
 10
9.7590478621
 20
10.0012252362
 30
0.0
  0
SPLINE
  5
3A4
100
AcDbEntity
  8
0
100
AcDbSpline
 62
4
  6
CONTINUOUS
 70
0
 71
3
 72
322
 73
318
 74
0
 42
0.0000001
 43
0.0000001
 44
0.0000000001
 40
0.0
 40
0.0
 40
0.0
 40
0.0
 40
0.015625
 40
0.0234375
 40
0.03125
 40
0.0390625
 40
0.046875
 40
0.05078125
 40
0.0546875
 40
0.056640625
 40
0.05859375
 40
0.060546875
 40
0.0615234375
 40
0.0620117188
 40
0.0625
 40
0.0629882812
 40
0.0634765625
 40
0.064453125
 40
0.06640625
 40
0.068359375
 40
0.0703125
 40
0.07421875
 40
0.078125
 40
0.0859375
 40
0.09375
 40
0.1015625
 40
0.109375
 40
0.11328125
 40
0.1171875
 40
0.119140625
 40
0.12109375
 40
0.123046875
 40
0.1240234375
 40
0.1245117188
 40
0.125
 40
0.1254882812
 40
0.1259765625
 40
0.126953125
 40
0.12890625
 40
0.130859375
 40
0.1328125
 40
0.13671875
 40
0.140625
 40
0.1484375
 40
0.15625
 40
0.1640625
 40
0.171875
 40
0.17578125
 40
0.1796875
 40
0.181640625
 40
0.18359375
 40
0.185546875
 40
0.1865234375
 40
0.1870117188
 40
0.1875
 40
0.1879882812
 40
0.1884765625
 40
0.189453125
 40
0.19140625
 40
0.193359375
 40
0.1953125
 40
0.19921875
 40
0.203125
 40
0.2109375
 40
0.21875
 40
0.2265625
 40
0.234375
 40
0.23828125
 40
0.2421875
 40
0.244140625
 40
0.24609375
 40
0.248046875
 40
0.2490234375
 40
0.2495117188
 40
0.25
 40
0.2504882812
 40
0.2509765625
 40
0.251953125
 40
0.25390625
 40
0.255859375
 40
0.2578125
 40
0.26171875
 40
0.265625
 40
0.2734375
 40
0.28125
 40
0.2890625
 40
0.296875
 40
0.30078125
 40
0.3046875
 40
0.306640625
 40
0.30859375
 40
0.310546875
 40
0.3115234375
 40
0.3120117188
 40
0.3125
 40
0.3129882812
 40
0.3134765625
 40
0.314453125
 40
0.31640625
 40
0.318359375
 40
0.3203125
 40
0.32421875
 40
0.328125
 40
0.3359375
 40
0.34375
 40
0.3515625
 40
0.359375
 40
0.36328125
 40
0.3671875
 40
0.369140625
 40
0.37109375
 40
0.373046875
 40
0.3740234375
 40
0.3745117188
 40
0.375
 40
0.3754882812
 40
0.3759765625
 40
0.376953125
 40
0.37890625
 40
0.380859375
 40
0.3828125
 40
0.38671875
 40
0.390625
 40
0.3984375
 40
0.40625
 40
0.4140625
 40
0.421875
 40
0.42578125
 40
0.4296875
 40
0.431640625
 40
0.43359375
 40
0.435546875
 40
0.4365234375
 40
0.4370117188
 40
0.4375
 40
0.4379882812
 40
0.4384765625
 40
0.439453125
 40
0.44140625
 40
0.443359375
 40
0.4453125
 40
0.44921875
 40
0.453125
 40
0.4609375
 40
0.46875
 40
0.4765625
 40
0.48046875
 40
0.484375
 40
0.48828125
 40
0.4921875
 40
0.494140625
 40
0.49609375
 40
0.498046875
 40
0.4990234375
 40
0.4995117188
 40
0.5
 40
0.5004882812
 40
0.5009765625
 40
0.501953125
 40
0.50390625
 40
0.505859375
 40
0.5078125
 40
0.51171875
 40
0.515625
 40
0.5234375
 40
0.53125
 40
0.5390625
 40
0.546875
 40
0.55078125
 40
0.5546875
 40
0.556640625
 40
0.55859375
 40
0.560546875
 40
0.5615234375
 40
0.5620117188
 40
0.5625
 40
0.5629882812
 40
0.5634765625
 40
0.564453125
 40
0.56640625
 40
0.568359375
 40
0.5703125
 40
0.57421875
 40
0.578125
 40
0.5859375
 40
0.59375
 40
0.6015625
 40
0.609375
 40
0.61328125
 40
0.6171875
 40
0.619140625
 40
0.62109375
 40
0.623046875
 40
0.6240234375
 40
0.6245117188
 40
0.625
 40
0.6254882812
 40
0.6259765625
 40
0.626953125
 40
0.62890625
 40
0.630859375
 40
0.6328125
 40
0.63671875
 40
0.640625
 40
0.6484375
 40
0.65625
 40
0.6640625
 40
0.66796875
 40
0.671875
 40
0.67578125
 40
0.6796875
 40
0.681640625
 40
0.68359375
 40
0.685546875
 40
0.6865234375
 40
0.6870117188
 40
0.6875
 40
0.6879882812
 40
0.6884765625
 40
0.689453125
 40
0.69140625
 40
0.693359375
 40
0.6953125
 40
0.69921875
 40
0.703125
 40
0.70703125
 40
0.7109375
 40
0.71875
 40
0.7265625
 40
0.73046875
 40
0.734375
 40
0.73828125
 40
0.7421875
 40
0.744140625
 40
0.74609375
 40
0.748046875
 40
0.7490234375
 40
0.7495117188
 40
0.75
 40
0.7504882812
 40
0.7509765625
 40
0.751953125
 40
0.75390625
 40
0.755859375
 40
0.7578125
 40
0.76171875
 40
0.765625
 40
0.76953125
 40
0.7734375
 40
0.78125
 40
0.7890625
 40
0.79296875
 40
0.796875
 40
0.80078125
 40
0.8046875
 40
0.806640625
 40
0.80859375
 40
0.810546875
 40
0.8115234375
 40
0.8120117188
 40
0.8125
 40
0.8129882812
 40
0.8134765625
 40
0.814453125
 40
0.81640625
 40
0.818359375
 40
0.8203125
 40
0.82421875
 40
0.828125
 40
0.83203125
 40
0.8359375
 40
0.84375
 40
0.8515625
 40
0.859375
 40
0.86328125
 40
0.8671875
 40
0.869140625
 40
0.87109375
 40
0.873046875
 40
0.8740234375
 40
0.8745117188
 40
0.875
 40
0.8754882812
 40
0.8759765625
 40
0.876953125
 40
0.87890625
 40
0.880859375
 40
0.8828125
 40
0.88671875
 40
0.890625
 40
0.8984375
 40
0.90625
 40
0.9140625
 40
0.91796875
 40
0.921875
 40
0.92578125
 40
0.9296875
 40
0.931640625
 40
0.93359375
 40
0.935546875
 40
0.9365234375
 40
0.9370117188
 40
0.9375
 40
0.9379882812
 40
0.9384765625
 40
0.939453125
 40
0.94140625
 40
0.943359375
 40
0.9453125
 40
0.94921875
 40
0.953125
 40
0.95703125
 40
0.9609375
 40
0.96875
 40
0.9765625
 40
0.984375
 40
1.0
 40
1.0
 40
1.0
 40
1.0
 10
10.7610011386
 20
9.7797297715
 30
0.0
 10
10.7612770772
 20
9.7768963953
 30
0.0
 10
10.7616909849
 20
9.7726463309
 30
0.0
 10
10.7622428628
 20
9.7669795785
 30
0.0
 10
10.7626567689
 20
9.762729514
 30
0.0
 10
10.7630706835
 20
9.7584794505
 30
0.0
 10
10.7634155862
 20
9.7549377276
 30
0.0
 10
10.7636915668
 20
9.7521043568
 30
0.0
 10
10.7638639216
 20
9.7503334829
 30
0.0
 10
10.7640021102
 20
9.748916823
 30
0.0
 10
10.7641049172
 20
9.7478542207
 30
0.0
 10
10.7641932442
 20
9.7469690603
 30
0.0
 10
10.7642498638
 20
9.7463487779
 30
0.0
 10
10.7642903517
 20
9.7459953772
 30
0.0
 10
10.7642978044
 20
9.7457273788
 30
0.0
 10
10.7643928434
 20
9.7454706488
 30
0.0
 10
10.7644890109
 20
9.7451244116
 30
0.0
 10
10.7646715385
 20
9.7445203278
 30
0.0
 10
10.7649248503
 20
9.7436563936
 30
0.0
 10
10.7652320098
 20
9.7426200823
 30
0.0
 10
10.7656404433
 20
9.7412381908
 30
0.0
 10
10.766151366
 20
9.7395108754
 30
0.0
 10
10.7669686294
 20
9.7367471434
 30
0.0
 10
10.7679902823
 20
9.7332924879
 30
0.0
 10
10.7692162321
 20
9.7291468965
 30
0.0
 10
10.7704421984
 20
9.725001309
 30
0.0
 10
10.7714638104
 20
9.721546644
 30
0.0
 10
10.7722811554
 20
9.718782931
 30
0.0
 10
10.7727918707
 20
9.7170555673
 30
0.0
 10
10.7732007301
 20
9.7156737748
 30
0.0
 10
10.7735065882
 20
9.7146371609
 30
0.0
 10
10.7737639718
 20
9.7137741736
 30
0.0
 10
10.7739392305
 20
9.7131683994
 30
0.0
 10
10.7740470445
 20
9.7128248707
 30
0.0
 10
10.7741063093
 20
9.7125598209
 30
0.0
 10
10.7742481239
 20
9.7123230707
 30
0.0
 10
10.7744084158
 20
9.7119975325
 30
0.0
 10
10.7747023422
 20
9.7114324399
 30
0.0
 10
10.7751152233
 20
9.7106227603
 30
0.0
 10
10.7756136828
 20
9.7096521739
 30
0.0
 10
10.7762772468
 20
9.7083576993
 30
0.0
 10
10.7771070608
 20
9.7067397291
 30
0.0
 10
10.7784345626
 20
9.704150908
 30
0.0
 10
10.7800940091
 20
9.7009149055
 30
0.0
 10
10.7820853133
 20
9.6970316913
 30
0.0
 10
10.7840766332
 20
9.6931484834
 30
0.0
 10
10.7857360407
 20
9.6899124649
 30
0.0
 10
10.7870636205
 20
9.6873236757
 30
0.0
 10
10.7878932361
 20
9.6857056245
 30
0.0
 10
10.7885572075
 20
9.6844113161
 30
0.0
 10
10.7890544224
 20
9.6834402221
 30
0.0
 10
10.7894711972
 20
9.6826321306
 30
0.0
 10
10.7897581728
 20
9.682064203
 30
0.0
 10
10.7899296017
 20
9.6817432072
 30
0.0
 10
10.7900372068
 20
9.6814925044
 30
0.0
 10
10.7902249566
 20
9.6812798582
 30
0.0
 10
10.7904473344
 20
9.6809830553
 30
0.0
 10
10.7908495204
 20
9.6804698351
 30
0.0
 10
10.7914172622
 20
9.6797334299
 30
0.0
 10
10.7921014671
 20
9.6788511277
 30
0.0
 10
10.7930127223
 20
9.6776742413
 30
0.0
 10
10.7941521398
 20
9.6762032989
 30
0.0
 10
10.795975013
 20
9.6738496984
 30
0.0
 10
10.7982536717
 20
9.67090773
 30
0.0
 10
10.8009880319
 20
9.6673773525
 30
0.0
 10
10.8037224054
 20
9.663846985
 30
0.0
 10
10.8060010308
 20
9.6609049916
 30
0.0
 10
10.8078239706
 20
9.658551441
 30
0.0
 10
10.8089632189
 20
9.6570803718
 30
0.0
 10
10.8098748214
 20
9.6559037457
 30
0.0
 10
10.8105579651
 20
9.6550206484
 30
0.0
 10
10.8111290273
 20
9.6542867307
 30
0.0
 10
10.8115252858
 20
9.65376907
 30
0.0
 10
10.8117571609
 20
9.6534793819
 30
0.0
 10
10.8119157381
 20
9.6532448813
 30
0.0
 10
10.8121329107
 20
9.6530762598
 30
0.0
 10
10.8124020354
 20
9.6528284519
 30
0.0
 10
10.8128825263
 20
9.6524054945
 30
0.0
 10
10.8135639634
 20
9.6517956721
 30
0.0
 10
10.8143838189
 20
9.6510662812
 30
0.0
 10
10.8154762153
 20
9.6500929232
 30
0.0
 10
10.8168419656
 20
9.6488765122
 30
0.0
 10
10.8190270236
 20
9.6469300943
 30
0.0
 10
10.8217583953
 20
9.6444971274
 30
0.0
 10
10.825036019
 20
9.6415775416
 30
0.0
 10
10.8283136532
 20
9.638657969
 30
0.0
 10
10.8310449989
 20
9.6362249693
 30
0.0
 10
10.8332301088
 20
9.634278617
 30
0.0
 10
10.8345957271
 20
9.6330620393
 30
0.0
 10
10.8356883945
 20
9.6320890233
 30
0.0
 10
10.8365074219
 20
9.6313585873
 30
0.0
 10
10.83719145
 20
9.6307520349
 30
0.0
 10
10.8376673155
 20
9.6303232402
 30
0.0
 10
10.8379438514
 20
9.6300847851
 30
0.0
 10
10.8381382592
 20
9.6298874346
 30
0.0
 10
10.8383823369
 20
9.6297608355
 30
0.0
 10
10.8386904485
 20
9.6295673578
 30
0.0
 10
10.8392377159
 20
9.6292402703
 30
0.0
 10
10.8400153062
 20
9.6287669908
 30
0.0
 10
10.840950221
 20
9.6282016286
 30
0.0
 10
10.8421961432
 20
9.6274469135
 30
0.0
 10
10.8437537619
 20
9.6265038275
 30
0.0
 10
10.8462458311
 20
9.6249947177
 30
0.0
 10
10.8493609592
 20
9.62310839
 30
0.0
 10
10.8530990943
 20
9.6208447693
 30
0.0
 10
10.8568372374
 20
9.6185811632
 30
0.0
 10
10.8599523454
 20
9.6166947992
 30
0.0
 10
10.8624444549
 20
9.6151857619
 30
0.0
 10
10.8640019712
 20
9.6142424918
 30
0.0
 10
10.8652481036
 20
9.6134881544
 30
0.0
 10
10.866182376
 20
9.6129216386
 30
0.0
 10
10.8669619763
 20
9.6124519683
 30
0.0
 10
10.8675056557
 20
9.6121184379
 30
0.0
 10
10.8678195161
 20
9.6119352832
 30
0.0
 10
10.868045935
 20
9.6117769752
 30
0.0
 10
10.8683066664
 20
9.6116987181
 30
0.0
 10
10.8686423397
 20
9.6115664527
 30
0.0
 10
10.8692353444
 20
9.6113479979
 30
0.0
 10
10.8700795785
 20
9.6110291179
 30
0.0
 10
10.8710939072
 20
9.6106493733
 30
0.0
 10
10.8724459098
 20
9.6101420303
 30
0.0
 10
10.8741360622
 20
9.6095081998
 30
0.0
 10
10.8768402226
 20
9.6084938762
 30
0.0
 10
10.8802204519
 20
9.607226039
 30
0.0
 10
10.884276714
 20
9.6057046035
 30
0.0
 10
10.888332982
 20
9.6041831839
 30
0.0
 10
10.8917131968
 20
9.6029153069
 30
0.0
 10
10.8944173861
 20
9.6019010629
 30
0.0
 10
10.8961074651
 20
9.6012670302
 30
0.0
 10
10.8974596183
 20
9.6007601022
 30
0.0
 10
10.898473487
 20
9.6003790896
 30
0.0
 10
10.8993191605
 20
9.600064177
 30
0.0
 10
10.8999095956
 20
9.5998386399
 30
0.0
 10
10.9002493859
 20
9.5997177221
 30
0.0
 10
10.9004974711
 20
9.5996046087
 30
0.0
 10
10.900771387
 20
9.599577215
 30
0.0
 10
10.9011275982
 20
9.5995107902
 30
0.0
 10
10.9017551657
 20
9.5994084776
 30
0.0
 10
10.902649496
 20
9.5992550335
 30
0.0
 10
10.9037236317
 20
9.599074018
 30
0.0
 10
10.9051554846
 20
9.5988315752
 30
0.0
 10
10.9069454131
 20
9.5985288945
 30
0.0
 10
10.9098092358
 20
9.598044397
 30
0.0
 10
10.9133890358
 20
9.5974388466
 30
0.0
 10
10.9176847865
 20
9.596712156
 30
0.0
 10
10.921264581
 20
9.5961065855
 30
0.0
 10
10.9241284157
 20
9.5956221321
 30
0.0
 10
10.9262762929
 20
9.5952587802
 30
0.0
 10
10.9284241661
 20
9.594895474
 30
0.0
 10
10.9302140729
 20
9.5945925765
 30
0.0
 10
10.9316459704
 20
9.5943505773
 30
0.0
 10
10.9327199699
 20
9.5941682067
 30
0.0
 10
10.9336147264
 20
9.5940190026
 30
0.0
 10
10.9342415331
 20
9.5939091209
 30
0.0
 10
10.9345989632
 20
9.5938548237
 30
0.0
 10
10.9348691349
 20
9.5937901776
 30
0.0
 10
10.9351312827
 20
9.5938169781
 30
0.0
 10
10.935483612
 20
9.5938208146
 30
0.0
 10
10.9360988841
 20
9.59384239
 30
0.0
 10
10.9369785261
 20
9.5938654422
 30
0.0
 10
10.9380338047
 20
9.5938964306
 30
0.0
 10
10.9394409447
 20
9.5939365869
 30
0.0
 10
10.9411998348
 20
9.59398718
 30
0.0
 10
10.9440140784
 20
9.5940679065
 30
0.0
 10
10.9475318762
 20
9.5941688915
 30
0.0
 10
10.9517532369
 20
9.5942900384
 30
0.0
 10
10.9559745951
 20
9.5944112026
 30
0.0
 10
10.959492399
 20
9.5945121443
 30
0.0
 10
10.9623066305
 20
9.5945929574
 30
0.0
 10
10.9640655515
 20
9.5946433306
 30
0.0
 10
10.965472628
 20
9.5946839381
 30
0.0
 10
10.9665281006
 20
9.5947135479
 30
0.0
 10
10.9674071355
 20
9.5947409136
 30
0.0
 10
10.9680234914
 20
9.5947547887
 30
0.0
 10
10.9683740842
 20
9.594770963
 30
0.0
 10
10.9686415658
 20
9.5947598657
 30
0.0
 10
10.9688917048
 20
9.5948375575
 30
0.0
 10
10.9692312727
 20
9.594910176
 30
0.0
 10
10.9698226982
 20
9.595051688
 30
0.0
 10
10.9706690652
 20
9.5952463041
 30
0.0
 10
10.9716840749
 20
9.5954830724
 30
0.0
 10
10.9730376414
 20
9.5957976357
 30
0.0
 10
10.9747295242
 20
9.596191226
 30
0.0
 10
10.9774365788
 20
9.5968207545
 30
0.0
 10
10.9808203825
 20
9.5976077398
 30
0.0
 10
10.9848809539
 20
9.5985520881
 30
0.0
 10
10.9889415204
 20
9.5994964531
 30
0.0
 10
10.9923253364
 20
9.6002833966
 30
0.0
 10
10.9950323663
 20
9.6009130085
 30
0.0
 10
10.9967243118
 20
9.6013063869
 30
0.0
 10
10.9980777497
 20
9.6016213851
 30
0.0
 10
10.9990931523
 20
9.6018568248
 30
0.0
 10
10.99993829
 20
9.6020555979
 30
0.0
 10
11.00053191
 20
9.6021896889
 30
0.0
 10
11.0008679617
 20
9.6022741977
 30
0.0
 10
11.0011289016
 20
9.6023153663
 30
0.0
 10
11.0013558169
 20
9.6024414442
 30
0.0
 10
11.0016702388
 20
9.6025799308
 30
0.0
 10
11.0022149475
 20
9.6028360816
 30
0.0
 10
11.0029959937
 20
9.603194797
 30
0.0
 10
11.0039320118
 20
9.6036283434
 30
0.0
 10
11.0051804681
 20
9.6042053266
 30
0.0
 10
11.0067408905
 20
9.604926925
 30
0.0
 10
11.009237649
 20
9.6060812761
 30
0.0
 10
11.0123585688
 20
9.6075242856
 30
0.0
 10
11.0161036845
 20
9.6092558672
 30
0.0
 10
11.0192246124
 20
9.610698857
 30
0.0
 10
11.0217213532
 20
9.6118532514
 30
0.0
 10
11.0235939144
 20
9.6127190364
 30
0.0
 10
11.0254664539
 20
9.6135848631
 30
0.0
 10
11.0270269713
 20
9.6143062557
 30
0.0
 10
11.0282752332
 20
9.6148836599
 30
0.0
 10
11.0292118451
 20
9.6153159206
 30
0.0
 10
11.0299910333
 20
9.6156786585
 30
0.0
 10
11.030539059
 20
9.6159276284
 30
0.0
 10
11.0308481662
 20
9.6160776206
 30
0.0
 10
11.0310914065
 20
9.616168357
 30
0.0
 10
11.0312910323
 20
9.6163422627
 30
0.0
 10
11.0315724132
 20
9.6165451266
 30
0.0
 10
11.0320577417
 20
9.616913655
 30
0.0
 10
11.0327547739
 20
9.6174330574
 30
0.0
 10
11.0335896263
 20
9.6180593652
 30
0.0
 10
11.034703317
 20
9.6188933855
 30
0.0
 10
11.0360952402
 20
9.6199362735
 30
0.0
 10
11.0377656295
 20
9.6211875837
 30
0.0
 10
11.039435997
 20
9.6224389355
 30
0.0
 10
11.0416631614
 20
9.62410739
 30
0.0
 10
11.0444471138
 20
9.6261929635
 30
0.0
 10
11.0472310688
 20
9.6282785337
 30
0.0
 10
11.0494582291
 20
9.6299469933
 30
0.0
 10
11.0511286086
 20
9.6311983297
 30
0.0
 10
11.0527989531
 20
9.6324496977
 30
0.0
 10
11.0541910158
 20
9.6334924057
 30
0.0
 10
11.055304422
 20
9.6343267933
 30
0.0
 10
11.0561401431
 20
9.6349519795
 30
0.0
 10
11.0568344576
 20
9.6354748908
 30
0.0
 10
11.0573246376
 20
9.6358371552
 30
0.0
 10
11.0575982451
 20
9.6360500555
 30
0.0
 10
11.0578217484
 20
9.6361931328
 30
0.0
 10
11.0579753088
 20
9.6363996559
 30
0.0
 10
11.0582044529
 20
9.6366528894
 30
0.0
 10
11.0585940882
 20
9.6371063591
 30
0.0
 10
11.0591566527
 20
9.6377487822
 30
0.0
 10
11.0598291864
 20
9.6385219973
 30
0.0
 10
11.0607267866
 20
9.6395521448
 30
0.0
 10
11.0618484819
 20
9.6408401058
 30
0.0
 10
11.063194647
 20
9.6423855404
 30
0.0
 10
11.0645407771
 20
9.6439310067
 30
0.0
 10
11.0663356296
 20
9.6459916173
 30
0.0
 10
11.0685791905
 20
9.6485673847
 30
0.0
 10
11.0708227546
 20
9.6511431496
 30
0.0
 10
11.072617602
 20
9.6532037644
 30
0.0
 10
11.0739637472
 20
9.6547492182
 30
0.0
 10
11.0753098554
 20
9.6562946995
 30
0.0
 10
11.0764317278
 20
9.6575825152
 30
0.0
 10
11.077328967
 20
9.658612959
 30
0.0
 10
11.0780026033
 20
9.6593852695
 30
0.0
 10
11.0785617182
 20
9.6600305229
 30
0.0
 10
11.0789575115
 20
9.66047894
 30
0.0
 10
11.0791767888
 20
9.6607402689
 30
0.0
 10
11.079360657
 20
9.6609219255
 30
0.0
 10
11.0794703293
 20
9.6611583974
 30
0.0
 10
11.0796424393
 20
9.6614545731
 30
0.0
 10
11.0799315738
 20
9.6619817889
 30
0.0
 10
11.0803509272
 20
9.662730297
 30
0.0
 10
11.0808514528
 20
9.6636305003
 30
0.0
 10
11.0815197629
 20
9.6648300749
 30
0.0
 10
11.0823548271
 20
9.6663297822
 30
0.0
 10
11.0833570428
 20
9.6681293284
 30
0.0
 10
11.0843592215
 20
9.6699289021
 30
0.0
 10
11.0856954724
 20
9.6723283241
 30
0.0
 10
11.0873657834
 20
9.6753276042
 30
0.0
 10
11.0893701503
 20
9.6789267427
 30
0.0
 10
11.0910404803
 20
9.6819260132
 30
0.0
 10
11.0923766894
 20
9.6843254563
 30
0.0
 10
11.0932119453
 20
9.6858250474
 30
0.0
 10
11.0938798631
 20
9.6870248595
 30
0.0
 10
11.0943815869
 20
9.6879243373
 30
0.0
 10
11.0947971918
 20
9.6886751152
 30
0.0
 10
11.0950930179
 20
9.689198279
 30
0.0
 10
11.0952544063
 20
9.6895009472
 30
0.0
 10
11.0953970121
 20
9.6897174763
 30
0.0
 10
11.0954571874
 20
9.6899740345
 30
0.0
 10
11.0955661738
 20
9.6903021496
 30
0.0
 10
11.0957435036
 20
9.6908828564
 30
0.0
 10
11.0960038357
 20
9.6917090364
 30
0.0
 10
11.0963132363
 20
9.6927019081
 30
0.0
 10
11.0967268176
 20
9.6940252287
 30
0.0
 10
11.0972434357
 20
9.6956795535
 30
0.0
 10
11.0980702251
 20
9.6983263759
 30
0.0
 10
11.0991036431
 20
9.7016349373
 30
0.0
 10
11.1003437737
 20
9.7056051967
 30
0.0
 10
11.1013772109
 20
9.7089137489
 30
0.0
 10
11.1022039579
 20
9.7115605915
 30
0.0
 10
11.1028240295
 20
9.7135457193
 30
0.0
 10
11.1034440573
 20
9.7155308631
 30
0.0
 10
11.1039608834
 20
9.7171850999
 30
0.0
 10
11.1043740392
 20
9.7185086006
 30
0.0
 10
11.1046847398
 20
9.7195009222
 30
0.0
 10
11.1049410047
 20
9.7203288236
 30
0.0
 10
11.105125595
 20
9.7209064573
 30
0.0
 10
11.1052229483
 20
9.7212394962
 30
0.0
 10
11.1053188569
 20
9.7214809301
 30
0.0
 10
11.1053272544
 20
9.7217542638
 30
0.0
 10
11.105368976
 20
9.7221075817
 30
0.0
 10
11.1054277666
 20
9.7227310723
 30
0.0
 10
11.1055191887
 20
9.7236190629
 30
0.0
 10
11.1056257126
 20
9.7246858116
 30
0.0
 10
11.1057688561
 20
9.7261077381
 30
0.0
 10
11.1059474041
 20
9.7278852852
 30
0.0
 10
11.1061618252
 20
9.7300182822
 30
0.0
 10
11.1063762026
 20
9.732151295
 30
0.0
 10
11.1066620543
 20
9.7349953066
 30
0.0
 10
11.1070193638
 20
9.7385503231
 30
0.0
 10
11.1074481374
 20
9.742816342
 30
0.0
 10
11.1080198347
 20
9.7485043674
 30
0.0
 10
11.1084486079
 20
9.7527703865
 30
0.0
 10
11.1087344567
 20
9.7556143992
 30
0.0
  0
SPLINE
  5
3A5
100
AcDbEntity
  8
0
100
AcDbSpline
 62
4
  6
CONTINUOUS
 70
0
 71
3
 72
322
 73
318
 74
0
 42
0.0000001
 43
0.0000001
 44
0.0000000001
 40
0.0
 40
0.0
 40
0.0
 40
0.0
 40
0.015625
 40
0.0234375
 40
0.03125
 40
0.0390625
 40
0.046875
 40
0.05078125
 40
0.0546875
 40
0.056640625
 40
0.05859375
 40
0.060546875
 40
0.0615234375
 40
0.0620117188
 40
0.0625
 40
0.0629882812
 40
0.0634765625
 40
0.064453125
 40
0.06640625
 40
0.068359375
 40
0.0703125
 40
0.07421875
 40
0.078125
 40
0.0859375
 40
0.09375
 40
0.1015625
 40
0.109375
 40
0.11328125
 40
0.1171875
 40
0.119140625
 40
0.12109375
 40
0.123046875
 40
0.1240234375
 40
0.1245117188
 40
0.125
 40
0.1254882812
 40
0.1259765625
 40
0.126953125
 40
0.12890625
 40
0.130859375
 40
0.1328125
 40
0.13671875
 40
0.140625
 40
0.1484375
 40
0.15625
 40
0.1640625
 40
0.171875
 40
0.17578125
 40
0.1796875
 40
0.181640625
 40
0.18359375
 40
0.185546875
 40
0.1865234375
 40
0.1870117188
 40
0.1875
 40
0.1879882812
 40
0.1884765625
 40
0.189453125
 40
0.19140625
 40
0.193359375
 40
0.1953125
 40
0.19921875
 40
0.203125
 40
0.2109375
 40
0.21875
 40
0.2265625
 40
0.234375
 40
0.23828125
 40
0.2421875
 40
0.244140625
 40
0.24609375
 40
0.248046875
 40
0.2490234375
 40
0.2495117188
 40
0.25
 40
0.2504882812
 40
0.2509765625
 40
0.251953125
 40
0.25390625
 40
0.255859375
 40
0.2578125
 40
0.26171875
 40
0.265625
 40
0.2734375
 40
0.28125
 40
0.2890625
 40
0.296875
 40
0.30078125
 40
0.3046875
 40
0.306640625
 40
0.30859375
 40
0.310546875
 40
0.3115234375
 40
0.3120117188
 40
0.3125
 40
0.3129882812
 40
0.3134765625
 40
0.314453125
 40
0.31640625
 40
0.318359375
 40
0.3203125
 40
0.32421875
 40
0.328125
 40
0.3359375
 40
0.34375
 40
0.3515625
 40
0.359375
 40
0.36328125
 40
0.3671875
 40
0.369140625
 40
0.37109375
 40
0.373046875
 40
0.3740234375
 40
0.3745117188
 40
0.375
 40
0.3754882812
 40
0.3759765625
 40
0.376953125
 40
0.37890625
 40
0.380859375
 40
0.3828125
 40
0.38671875
 40
0.390625
 40
0.3984375
 40
0.40625
 40
0.4140625
 40
0.421875
 40
0.42578125
 40
0.4296875
 40
0.431640625
 40
0.43359375
 40
0.435546875
 40
0.4365234375
 40
0.4370117188
 40
0.4375
 40
0.4379882812
 40
0.4384765625
 40
0.439453125
 40
0.44140625
 40
0.443359375
 40
0.4453125
 40
0.44921875
 40
0.453125
 40
0.4609375
 40
0.46875
 40
0.4765625
 40
0.48046875
 40
0.484375
 40
0.48828125
 40
0.4921875
 40
0.494140625
 40
0.49609375
 40
0.498046875
 40
0.4990234375
 40
0.4995117188
 40
0.5
 40
0.5004882812
 40
0.5009765625
 40
0.501953125
 40
0.50390625
 40
0.505859375
 40
0.5078125
 40
0.51171875
 40
0.515625
 40
0.5234375
 40
0.53125
 40
0.5390625
 40
0.546875
 40
0.55078125
 40
0.5546875
 40
0.556640625
 40
0.55859375
 40
0.560546875
 40
0.5615234375
 40
0.5620117188
 40
0.5625
 40
0.5629882812
 40
0.5634765625
 40
0.564453125
 40
0.56640625
 40
0.568359375
 40
0.5703125
 40
0.57421875
 40
0.578125
 40
0.5859375
 40
0.59375
 40
0.6015625
 40
0.609375
 40
0.61328125
 40
0.6171875
 40
0.619140625
 40
0.62109375
 40
0.623046875
 40
0.6240234375
 40
0.6245117188
 40
0.625
 40
0.6254882812
 40
0.6259765625
 40
0.626953125
 40
0.62890625
 40
0.630859375
 40
0.6328125
 40
0.63671875
 40
0.640625
 40
0.6484375
 40
0.65625
 40
0.6640625
 40
0.66796875
 40
0.671875
 40
0.67578125
 40
0.6796875
 40
0.681640625
 40
0.68359375
 40
0.685546875
 40
0.6865234375
 40
0.6870117188
 40
0.6875
 40
0.6879882812
 40
0.6884765625
 40
0.689453125
 40
0.69140625
 40
0.693359375
 40
0.6953125
 40
0.69921875
 40
0.703125
 40
0.70703125
 40
0.7109375
 40
0.71875
 40
0.7265625
 40
0.73046875
 40
0.734375
 40
0.73828125
 40
0.7421875
 40
0.744140625
 40
0.74609375
 40
0.748046875
 40
0.7490234375
 40
0.7495117188
 40
0.75
 40
0.7504882812
 40
0.7509765625
 40
0.751953125
 40
0.75390625
 40
0.755859375
 40
0.7578125
 40
0.76171875
 40
0.765625
 40
0.76953125
 40
0.7734375
 40
0.78125
 40
0.7890625
 40
0.79296875
 40
0.796875
 40
0.80078125
 40
0.8046875
 40
0.806640625
 40
0.80859375
 40
0.810546875
 40
0.8115234375
 40
0.8120117188
 40
0.8125
 40
0.8129882812
 40
0.8134765625
 40
0.814453125
 40
0.81640625
 40
0.818359375
 40
0.8203125
 40
0.82421875
 40
0.828125
 40
0.83203125
 40
0.8359375
 40
0.84375
 40
0.8515625
 40
0.859375
 40
0.86328125
 40
0.8671875
 40
0.869140625
 40
0.87109375
 40
0.873046875
 40
0.8740234375
 40
0.8745117188
 40
0.875
 40
0.8754882812
 40
0.8759765625
 40
0.876953125
 40
0.87890625
 40
0.880859375
 40
0.8828125
 40
0.88671875
 40
0.890625
 40
0.8984375
 40
0.90625
 40
0.9140625
 40
0.91796875
 40
0.921875
 40
0.92578125
 40
0.9296875
 40
0.931640625
 40
0.93359375
 40
0.935546875
 40
0.9365234375
 40
0.9370117188
 40
0.9375
 40
0.9379882812
 40
0.9384765625
 40
0.939453125
 40
0.94140625
 40
0.943359375
 40
0.9453125
 40
0.94921875
 40
0.953125
 40
0.95703125
 40
0.9609375
 40
0.96875
 40
0.9765625
 40
0.984375
 40
1.0
 40
1.0
 40
1.0
 40
1.0
 10
11.1087344567
 20
9.755614384
 30
0.0
 10
11.108458518
 20
9.7584477602
 30
0.0
 10
11.1080446103
 20
9.7626978245
 30
0.0
 10
11.1074927325
 20
9.7683645769
 30
0.0
 10
11.1070788263
 20
9.7726146415
 30
0.0
 10
11.1066649117
 20
9.7768647049
 30
0.0
 10
11.106320009
 20
9.7804064279
 30
0.0
 10
11.1060440284
 20
9.7832397987
 30
0.0
 10
11.1058716736
 20
9.7850106726
 30
0.0
 10
11.105733485
 20
9.7864273325
 30
0.0
 10
11.105630678
 20
9.7874899347
 30
0.0
 10
11.105542351
 20
9.7883750951
 30
0.0
 10
11.1054857314
 20
9.7889953776
 30
0.0
 10
11.1054452435
 20
9.7893487782
 30
0.0
 10
11.1054377909
 20
9.7896167767
 30
0.0
 10
11.1053427519
 20
9.7898735066
 30
0.0
 10
11.1052465843
 20
9.7902197438
 30
0.0
 10
11.1050640567
 20
9.7908238276
 30
0.0
 10
11.1048107449
 20
9.7916877619
 30
0.0
 10
11.1045035854
 20
9.7927240731
 30
0.0
 10
11.104095152
 20
9.7941059647
 30
0.0
 10
11.1035842292
 20
9.79583328
 30
0.0
 10
11.1027669658
 20
9.7985970121
 30
0.0
 10
11.101745313
 20
9.8020516676
 30
0.0
 10
11.1005193631
 20
9.8061972589
 30
0.0
 10
11.0992933969
 20
9.8103428465
 30
0.0
 10
11.0982717849
 20
9.8137975114
 30
0.0
 10
11.0974544398
 20
9.8165612245
 30
0.0
 10
11.0969437246
 20
9.8182885881
 30
0.0
 10
11.0965348652
 20
9.8196703806
 30
0.0
 10
11.0962290071
 20
9.8207069946
 30
0.0
 10
11.0959716235
 20
9.8215699818
 30
0.0
 10
11.0957963647
 20
9.8221757561
 30
0.0
 10
11.0956885507
 20
9.8225192847
 30
0.0
 10
11.0956292859
 20
9.8227843346
 30
0.0
 10
11.0954874713
 20
9.8230210848
 30
0.0
 10
11.0953271795
 20
9.8233466229
 30
0.0
 10
11.095033253
 20
9.8239117155
 30
0.0
 10
11.0946203719
 20
9.8247213952
 30
0.0
 10
11.0941219125
 20
9.8256919815
 30
0.0
 10
11.0934583485
 20
9.8269864561
 30
0.0
 10
11.0926285344
 20
9.8286044263
 30
0.0
 10
11.0913010326
 20
9.8311932474
 30
0.0
 10
11.0896415861
 20
9.83442925
 30
0.0
 10
11.0876502819
 20
9.8383124642
 30
0.0
 10
11.0856589621
 20
9.842195672
 30
0.0
 10
11.0839995546
 20
9.8454316905
 30
0.0
 10
11.0826719747
 20
9.8480204798
 30
0.0
 10
11.0818423591
 20
9.8496385309
 30
0.0
 10
11.0811783878
 20
9.8509328394
 30
0.0
 10
11.0806811728
 20
9.8519039333
 30
0.0
 10
11.0802643981
 20
9.8527120249
 30
0.0
 10
11.0799774224
 20
9.8532799524
 30
0.0
 10
11.0798059936
 20
9.8536009483
 30
0.0
 10
11.0796983884
 20
9.853851651
 30
0.0
 10
11.0795106386
 20
9.8540642973
 30
0.0
 10
11.0792882608
 20
9.8543611002
 30
0.0
 10
11.0788860749
 20
9.8548743204
 30
0.0
 10
11.078318333
 20
9.8556107256
 30
0.0
 10
11.0776341281
 20
9.8564930278
 30
0.0
 10
11.076722873
 20
9.8576699142
 30
0.0
 10
11.0755834554
 20
9.8591408566
 30
0.0
 10
11.0737605822
 20
9.8614944571
 30
0.0
 10
11.0714819235
 20
9.8644364255
 30
0.0
 10
11.0687475633
 20
9.867966803
 30
0.0
 10
11.0660131898
 20
9.8714971705
 30
0.0
 10
11.0637345644
 20
9.8744391639
 30
0.0
 10
11.0619116246
 20
9.8767927144
 30
0.0
 10
11.0607723763
 20
9.8782637836
 30
0.0
 10
11.0598607738
 20
9.8794404098
 30
0.0
 10
11.0591776301
 20
9.880323507
 30
0.0
 10
11.0586065679
 20
9.8810574248
 30
0.0
 10
11.0582103094
 20
9.8815750855
 30
0.0
 10
11.0579784344
 20
9.8818647736
 30
0.0
 10
11.0578198571
 20
9.8820992742
 30
0.0
 10
11.0576026846
 20
9.8822678956
 30
0.0
 10
11.0573335599
 20
9.8825157036
 30
0.0
 10
11.0568530689
 20
9.882938661
 30
0.0
 10
11.0561716318
 20
9.8835484833
 30
0.0
 10
11.0553517763
 20
9.8842778742
 30
0.0
 10
11.05425938
 20
9.8852512323
 30
0.0
 10
11.0528936297
 20
9.8864676433
 30
0.0
 10
11.0507085716
 20
9.8884140611
 30
0.0
 10
11.0479772
 20
9.8908470281
 30
0.0
 10
11.0446995762
 20
9.8937666138
 30
0.0
 10
11.0414219421
 20
9.8966861865
 30
0.0
 10
11.0386905964
 20
9.8991191862
 30
0.0
 10
11.0365054864
 20
9.9010655384
 30
0.0
 10
11.0351398682
 20
9.9022821161
 30
0.0
 10
11.0340472007
 20
9.9032551321
 30
0.0
 10
11.0332281734
 20
9.9039855681
 30
0.0
 10
11.0325441452
 20
9.9045921206
 30
0.0
 10
11.0320682797
 20
9.9050209153
 30
0.0
 10
11.0317917439
 20
9.9052593704
 30
0.0
 10
11.031597336
 20
9.9054567208
 30
0.0
 10
11.0313532583
 20
9.9055833199
 30
0.0
 10
11.0310451468
 20
9.9057767976
 30
0.0
 10
11.0304978794
 20
9.9061038852
 30
0.0
 10
11.029720289
 20
9.9065771646
 30
0.0
 10
11.0287853742
 20
9.9071425269
 30
0.0
 10
11.0275394521
 20
9.9078972419
 30
0.0
 10
11.0259818333
 20
9.908840328
 30
0.0
 10
11.0234897641
 20
9.9103494377
 30
0.0
 10
11.020374636
 20
9.9122357654
 30
0.0
 10
11.0166365009
 20
9.9144993861
 30
0.0
 10
11.0128983578
 20
9.9167629923
 30
0.0
 10
11.0097832498
 20
9.9186493562
 30
0.0
 10
11.0072911403
 20
9.9201583936
 30
0.0
 10
11.005733624
 20
9.9211016636
 30
0.0
 10
11.0044874916
 20
9.9218560011
 30
0.0
 10
11.0035532192
 20
9.9224225168
 30
0.0
 10
11.0027736189
 20
9.9228921872
 30
0.0
 10
11.0022299396
 20
9.9232257176
 30
0.0
 10
11.0019160791
 20
9.9234088723
 30
0.0
 10
11.0016896602
 20
9.9235671803
 30
0.0
 10
11.0014289288
 20
9.9236454373
 30
0.0
 10
11.0010932555
 20
9.9237777028
 30
0.0
 10
11.0005002509
 20
9.9239961576
 30
0.0
 10
10.9996560168
 20
9.9243150375
 30
0.0
 10
10.998641688
 20
9.9246947821
 30
0.0
 10
10.9972896855
 20
9.9252021251
 30
0.0
 10
10.9955995331
 20
9.9258359557
 30
0.0
 10
10.9928953727
 20
9.9268502792
 30
0.0
 10
10.9895151434
 20
9.9281181164
 30
0.0
 10
10.9854588812
 20
9.9296395519
 30
0.0
 10
10.9814026132
 20
9.9311609715
 30
0.0
 10
10.9780223984
 20
9.9324288485
 30
0.0
 10
10.9753182091
 20
9.9334430925
 30
0.0
 10
10.9736281301
 20
9.9340771253
 30
0.0
 10
10.972275977
 20
9.9345840532
 30
0.0
 10
10.9712621082
 20
9.9349650658
 30
0.0
 10
10.9704164348
 20
9.9352799785
 30
0.0
 10
10.9698259997
 20
9.9355055156
 30
0.0
 10
10.9694862094
 20
9.9356264334
 30
0.0
 10
10.9692381241
 20
9.9357395467
 30
0.0
 10
10.9689642082
 20
9.9357669404
 30
0.0
 10
10.968607997
 20
9.9358333653
 30
0.0
 10
10.9679804295
 20
9.9359356779
 30
0.0
 10
10.9670860993
 20
9.936089122
 30
0.0
 10
10.9660119635
 20
9.9362701375
 30
0.0
 10
10.9645801106
 20
9.9365125803
 30
0.0
 10
10.9627901822
 20
9.9368152609
 30
0.0
 10
10.9599263594
 20
9.9372997584
 30
0.0
 10
10.9563465594
 20
9.9379053089
 30
0.0
 10
10.9520508088
 20
9.9386319995
 30
0.0
 10
10.9484710143
 20
9.9392375699
 30
0.0
 10
10.9456071795
 20
9.9397220233
 30
0.0
 10
10.9434593023
 20
9.9400853752
 30
0.0
 10
10.9413114291
 20
9.9404486814
 30
0.0
 10
10.9395215223
 20
9.940751579
 30
0.0
 10
10.9380896249
 20
9.9409935781
 30
0.0
 10
10.9370156253
 20
9.9411759488
 30
0.0
 10
10.9361208689
 20
9.9413251528
 30
0.0
 10
10.9354940621
 20
9.9414350346
 30
0.0
 10
10.935136632
 20
9.9414893318
 30
0.0
 10
10.9348664603
 20
9.9415539779
 30
0.0
 10
10.9346043125
 20
9.9415271773
 30
0.0
 10
10.9342519832
 20
9.9415233409
 30
0.0
 10
10.9336367111
 20
9.9415017654
 30
0.0
 10
10.9327570691
 20
9.9414787132
 30
0.0
 10
10.9317017906
 20
9.9414477248
 30
0.0
 10
10.9302946506
 20
9.9414075686
 30
0.0
 10
10.9285357605
 20
9.9413569755
 30
0.0
 10
10.9257215168
 20
9.9412762489
 30
0.0
 10
10.922203719
 20
9.941175264
 30
0.0
 10
10.9179823584
 20
9.941054117
 30
0.0
 10
10.9137610001
 20
9.9409329528
 30
0.0
 10
10.9102431962
 20
9.9408320111
 30
0.0
 10
10.9074289647
 20
9.9407511981
 30
0.0
 10
10.9056700437
 20
9.9407008248
 30
0.0
 10
10.9042629672
 20
9.9406602173
 30
0.0
 10
10.9032074946
 20
9.9406306076
 30
0.0
 10
10.9023284598
 20
9.9406032419
 30
0.0
 10
10.9017121039
 20
9.9405893667
 30
0.0
 10
10.901361511
 20
9.9405731925
 30
0.0
 10
10.9010940295
 20
9.9405842898
 30
0.0
 10
10.9008438905
 20
9.9405065979
 30
0.0
 10
10.9005043225
 20
9.9404339795
 30
0.0
 10
10.8999128971
 20
9.9402924674
 30
0.0
 10
10.8990665301
 20
9.9400978514
 30
0.0
 10
10.8980515204
 20
9.939861083
 30
0.0
 10
10.8966979538
 20
9.9395465198
 30
0.0
 10
10.895006071
 20
9.9391529295
 30
0.0
 10
10.8922990164
 20
9.9385234009
 30
0.0
 10
10.8889152128
 20
9.9377364157
 30
0.0
 10
10.8848546413
 20
9.9367920674
 30
0.0
 10
10.8807940748
 20
9.9358477024
 30
0.0
 10
10.8774102589
 20
9.9350607588
 30
0.0
 10
10.8747032289
 20
9.9344311469
 30
0.0
 10
10.8730112835
 20
9.9340377685
 30
0.0
 10
10.8716578455
 20
9.9337227703
 30
0.0
 10
10.8706424429
 20
9.9334873306
 30
0.0
 10
10.8697973052
 20
9.9332885576
 30
0.0
 10
10.8692036852
 20
9.9331544665
 30
0.0
 10
10.8688676335
 20
9.9330699577
 30
0.0
 10
10.8686066937
 20
9.9330287892
 30
0.0
 10
10.8683797784
 20
9.9329027112
 30
0.0
 10
10.8680653565
 20
9.9327642246
 30
0.0
 10
10.8675206478
 20
9.9325080738
 30
0.0
 10
10.8667396015
 20
9.9321493585
 30
0.0
 10
10.8658035835
 20
9.9317158121
 30
0.0
 10
10.8645551272
 20
9.9311388288
 30
0.0
 10
10.8629947048
 20
9.9304172304
 30
0.0
 10
10.8604979463
 20
9.9292628794
 30
0.0
 10
10.8573770264
 20
9.9278198699
 30
0.0
 10
10.8536319108
 20
9.9260882883
 30
0.0
 10
10.8505109829
 20
9.9246452985
 30
0.0
 10
10.8480142421
 20
9.9234909041
 30
0.0
 10
10.8461416808
 20
9.922625119
 30
0.0
 10
10.8442691414
 20
9.9217592924
 30
0.0
 10
10.8427086239
 20
9.9210378997
 30
0.0
 10
10.8414603621
 20
9.9204604955
 30
0.0
 10
10.8405237501
 20
9.9200282348
 30
0.0
 10
10.839744562
 20
9.919665497
 30
0.0
 10
10.8391965363
 20
9.9194165271
 30
0.0
 10
10.8388874291
 20
9.9192665348
 30
0.0
 10
10.8386441887
 20
9.9191757985
 30
0.0
 10
10.838444563
 20
9.9190018927
 30
0.0
 10
10.838163182
 20
9.9187990288
 30
0.0
 10
10.8376778535
 20
9.9184305005
 30
0.0
 10
10.8369808213
 20
9.917911098
 30
0.0
 10
10.8361459689
 20
9.9172847903
 30
0.0
 10
10.8350322782
 20
9.9164507699
 30
0.0
 10
10.8336403551
 20
9.9154078819
 30
0.0
 10
10.8319699657
 20
9.9141565717
 30
0.0
 10
10.8302995982
 20
9.9129052199
 30
0.0
 10
10.8280724338
 20
9.9112367655
 30
0.0
 10
10.8252884814
 20
9.909151192
 30
0.0
 10
10.8225045265
 20
9.9070656218
 30
0.0
 10
10.8202773661
 20
9.9053971621
 30
0.0
 10
10.8186069866
 20
9.9041458258
 30
0.0
 10
10.8169366421
 20
9.9028944577
 30
0.0
 10
10.8155445794
 20
9.9018517498
 30
0.0
 10
10.8144311732
 20
9.9010173622
 30
0.0
 10
10.8135954522
 20
9.900392176
 30
0.0
 10
10.8129011377
 20
9.8998692646
 30
0.0
 10
10.8124109576
 20
9.8995070002
 30
0.0
 10
10.8121373501
 20
9.8992940999
 30
0.0
 10
10.8119138469
 20
9.8991510227
 30
0.0
 10
10.8117602864
 20
9.8989444996
 30
0.0
 10
10.8115311423
 20
9.8986912661
 30
0.0
 10
10.8111415071
 20
9.8982377964
 30
0.0
 10
10.8105789426
 20
9.8975953733
 30
0.0
 10
10.8099064088
 20
9.8968221582
 30
0.0
 10
10.8090088087
 20
9.8957920106
 30
0.0
 10
10.8078871133
 20
9.8945040497
 30
0.0
 10
10.8065409482
 20
9.8929586151
 30
0.0
 10
10.8051948181
 20
9.8914131488
 30
0.0
 10
10.8033999657
 20
9.8893525381
 30
0.0
 10
10.8011564047
 20
9.8867767707
 30
0.0
 10
10.7989128407
 20
9.8842010059
 30
0.0
 10
10.7971179933
 20
9.8821403911
 30
0.0
 10
10.795771848
 20
9.8805949372
 30
0.0
 10
10.7944257398
 20
9.8790494559
 30
0.0
 10
10.7933038674
 20
9.8777616402
 30
0.0
 10
10.7924066283
 20
9.8767311965
 30
0.0
 10
10.791732992
 20
9.875958886
 30
0.0
 10
10.7911738771
 20
9.8753136326
 30
0.0
 10
10.7907780837
 20
9.8748652154
 30
0.0
 10
10.7905588065
 20
9.8746038865
 30
0.0
 10
10.7903749382
 20
9.87442223
 30
0.0
 10
10.790265266
 20
9.8741857581
 30
0.0
 10
10.7900931559
 20
9.8738895824
 30
0.0
 10
10.7898040215
 20
9.8733623665
 30
0.0
 10
10.7893846681
 20
9.8726138584
 30
0.0
 10
10.7888841424
 20
9.8717136552
 30
0.0
 10
10.7882158323
 20
9.8705140805
 30
0.0
 10
10.7873807681
 20
9.8690143733
 30
0.0
 10
10.7863785524
 20
9.867214827
 30
0.0
 10
10.7853763737
 20
9.8654152534
 30
0.0
 10
10.7840401228
 20
9.8630158313
 30
0.0
 10
10.7823698119
 20
9.8600165513
 30
0.0
 10
10.7803654449
 20
9.8564174127
 30
0.0
 10
10.7786951149
 20
9.8534181422
 30
0.0
 10
10.7773589059
 20
9.8510186992
 30
0.0
 10
10.77652365
 20
9.8495191081
 30
0.0
 10
10.7758557321
 20
9.8483192959
 30
0.0
 10
10.7753540084
 20
9.8474198182
 30
0.0
 10
10.7749384035
 20
9.8466690402
 30
0.0
 10
10.7746425774
 20
9.8461458764
 30
0.0
 10
10.774481189
 20
9.8458432083
 30
0.0
 10
10.7743385832
 20
9.8456266791
 30
0.0
 10
10.7742784079
 20
9.8453701209
 30
0.0
 10
10.7741694215
 20
9.8450420059
 30
0.0
 10
10.7739920917
 20
9.8444612991
 30
0.0
 10
10.7737317596
 20
9.8436351191
 30
0.0
 10
10.7734223589
 20
9.8426422473
 30
0.0
 10
10.7730087776
 20
9.8413189267
 30
0.0
 10
10.7724921595
 20
9.8396646019
 30
0.0
 10
10.7716653702
 20
9.8370177795
 30
0.0
 10
10.7706319521
 20
9.8337092182
 30
0.0
 10
10.7693918216
 20
9.8297389587
 30
0.0
 10
10.7683583843
 20
9.8264304065
 30
0.0
 10
10.7675316373
 20
9.823783564
 30
0.0
 10
10.7669115658
 20
9.8217984361
 30
0.0
 10
10.7662915379
 20
9.8198132924
 30
0.0
 10
10.7657747118
 20
9.8181590556
 30
0.0
 10
10.7653615561
 20
9.8168355549
 30
0.0
 10
10.7650508555
 20
9.8158432333
 30
0.0
 10
10.7647945905
 20
9.8150153319
 30
0.0
 10
10.7646100002
 20
9.8144376981
 30
0.0
 10
10.7645126469
 20
9.8141046593
 30
0.0
 10
10.7644167384
 20
9.8138632254
 30
0.0
 10
10.7644083408
 20
9.8135898917
 30
0.0
 10
10.7643666193
 20
9.8132365738
 30
0.0
 10
10.7643078286
 20
9.8126130831
 30
0.0
 10
10.7642164065
 20
9.8117250926
 30
0.0
 10
10.7641098827
 20
9.8106583438
 30
0.0
 10
10.7639667391
 20
9.8092364174
 30
0.0
 10
10.7637881911
 20
9.8074588702
 30
0.0
 10
10.76357377
 20
9.8053258733
 30
0.0
 10
10.7633593927
 20
9.8031928604
 30
0.0
 10
10.7630735409
 20
9.8003488488
 30
0.0
 10
10.7627162314
 20
9.7967938324
 30
0.0
 10
10.7622874578
 20
9.7925278135
 30
0.0
 10
10.7617157605
 20
9.786839788
 30
0.0
 10
10.7612869873
 20
9.782573769
 30
0.0
 10
10.7610011386
 20
9.7797297563
 30
0.0
  0
ENDSEC
  0
SECTION
  2
OBJECTS
  0
DICTIONARY
  5
C
100
AcDbDictionary
280
0
281
1
  3
ACAD_GROUP
350
D
  3
ACAD_MLINESTYLE
350
17
  3
ACAD_LAYOUT
350
1A
  3
ACAD_PLOTSETTINGS
350
19
  3
ACAD_PLOTSTYLENAME
350
E
  3
ACAD_IMAGE_DICT
350
       3A7
  3
ACAD_IMAGE_VARS
350
       3A8
  3
ACAD_TABLESTYLE
350
       3A9
  0
IMAGEDEF_REACTOR
  5
3A6
100
AcDbRasterImageDefReactor
 90
2
330
299
  0
DICTIONARY
  5
D
102
{ACAD_REACTORS
330
C
102
}
100
AcDbDictionary
280
0
281
1
  0
ACDBDICTIONARYWDFLT
  5
E
102
{ACAD_REACTORS
330
C
102
}
100
AcDbDictionary
281
1
  3
Normal
350
F
100
AcDbDictionaryWithDefault
340
F
  0
DICTIONARY
  5
3A7
330
C
100
AcDbDictionary
281
1
  3
B7J_assy_2_img_1
350
       3AC
  0
RASTERVARIABLES
  5
3A8
330
C
100
AcDbRasterVariables
 90
0
 70
0
 71
1
 72
5
  0
DICTIONARY
  5
17
102
{ACAD_REACTORS
330
C
102
}
100
AcDbDictionary
280
0
281
1
  3
Standard
350
18
  0
DICTIONARY
  5
3A9
330
C
100
AcDbDictionary
281
1
  3
Standard
350
       3AD
  3
Standard1
350
       3AE
  0
DICTIONARY
  5
19
102
{ACAD_REACTORS
330
C
102
}
100
AcDbDictionary
281
1
  0
DICTIONARY
  5
1A
102
{ACAD_REACTORS
330
C
102
}
100
AcDbDictionary
281
1
  3
Model
350
3AA
  3
Layout1
350
3AB
  0
ACDBPLACEHOLDER
  5
F
102
{ACAD_REACTORS
330
E
102
}
  0
MLINESTYLE
  5
18
102
{ACAD_REACTORS
330
17
102
}
100
AcDbMlineStyle
  2
STANDARD
 70
0
  3

 62
256
 51
90.0
 52
90.0
 71
2
 49
0.5
 62
256
  6
BYLAYER
 49
-0.5
 62
256
  6
BYLAYER
  0
LAYOUT
  5
3AA
102
{ACAD_REACTORS
330
1A
102
}
100
AcDbPlotSettings
  1

  2
none_device
  4
ANSI_C_(22.00_x_17.00_Inches)
  6

 40
0.0
 41
0.0
 42
0.0
 43
0.0
 44
558.8
 45
431.8
 46
0.0
 47
0.0
 48
0.0
 49
0.0
140
0.0
141
0.0
142
1.0
143
1.0
 70
1024
 72
0
 73
0
 74
0
  7

 75
0
147
1.0
148
0.0
149
0.0
100
AcDbLayout
  1
Model
 70
0
 71
0
 10
0.0
 20
0.0
 11
22.0
 21
17.0
 12
0.0
 22
0.0
 32
0.0
 14
0.0
 24
0.0
 34
0.0
 15
0.0
 25
0.0
 35
0.0
146
0.0
 13
0.0
 23
0.0
 33
0.0
 16
1.0
 26
0.0
 36
0.0
 17
0.0
 27
1.0
 37
0.0
 76
0
330
20C
345
0
346
0
  0
LAYOUT
  5
3AB
102
{ACAD_REACTORS
330
1A
102
}
100
AcDbPlotSettings
  1

  2
none_device
  4
ANSI_C_(22.00_x_17.00_Inches)
  6

 40
0.0
 41
0.0
 42
0.0
 43
0.0
 44
558.8
 45
431.8
 46
0.0
 47
0.0
 48
0.0
 49
0.0
140
0.0
141
0.0
142
1.0
143
1.0
 70
0
 72
0
 73
0
 74
0
  7

 75
0
147
1.0
148
0.0
149
0.0
100
AcDbLayout
  1
Layout1
 70
0
 71
1
 10
0.0
 20
0.0
 11
22.0
 21
17.0
 12
0.0
 22
0.0
 32
0.0
 14
0.0
 24
0.0
 34
0.0
 15
0.0
 25
0.0
 35
0.0
146
0.0
 13
0.0
 23
0.0
 33
0.0
 16
1.0
 26
0.0
 36
0.0
 17
0.0
 27
1.0
 37
0.0
 76
0
330
20D
345
0
346
0
  0
IMAGEDEF
  5
3AC
102
{ACAD_REACTORS
330
3A7
330
3A6
102
}
100
AcDbRasterImageDef
 90
0
  1
B7J_assy_2_img_1.png
 10
369.0
 20
92.0
 11
0.0066666667
 21
0.0066666667
280
1
281
0
  0
TABLESTYLE
  5
3AD
102
{ACAD_REACTORS
330
3A9
330
29C
330
29D
102
}
330
3A9
100
AcDbTableStyle
  3
Standard
 70
0
 71
0
 40
0.06
 41
0.06
280
1
281
1
  7
Standard
140
0.18
170
1
 62
0
 63
7
283
0
  7
Standard
140
0.18
170
1
 62
0
 63
7
283
0
  7
Standard
140
0.18
170
1
 62
0
 63
7
283
0
  0
TABLESTYLE
  5
3AE
102
{ACAD_REACTORS
330
3A9
330
29B
102
}
330
3A9
100
AcDbTableStyle
  3
Standard1
 70
1
 71
0
 40
0.06
 41
0.06
280
1
281
1
  7
Standard
140
0.18
170
1
 62
0
 63
7
283
0
  7
Standard
140
0.18
170
1
 62
0
 63
7
283
0
  7
Standard
140
0.18
170
1
 62
0
 63
7
283
0
  0
ENDSEC
  0
EOF
