999
DXF file: B7C_assy_2.dxf
999
Pro/ENGINEER 2014200 by Parametric Technology Corporation
  0
SECTION
  2
HEADER
  9
$ACADVER
  1
AC1021
  9
$DWGCODEPAGE
  3
ANSI_1252
  9
$EXTMAX
 10
22.0
 20
17.0
 30
0.0
  9
$EXTMIN
 10
0.0
 20
0.0
 30
0.0
  9
$LIMMIN
 10
0.0
 20
0.0
  9
$LIMMAX
 10
22.0
 20
17.0
  9
$VIEWCTR
 10
11.0
 20
8.5
  9
$VIEWSIZE
 40
17.0
  9
$CLAYER
  8
0
  9
$LTSCALE
 40
1.21
  9
$CELTYPE
  6
BYLAYER
  9
$DIMSCALE
 40
1.0
  9
$DIMASZ
 40
0.1875
  9
$DIMEXO
 40
0.0625
  9
$DIMDLI
 40
0.836
  9
$DIMEXE
 40
0.125
  9
$DIMCEN
 40
0.198
  9
$DIMLFAC
 40
1.0
  9
$DIMBLK
  1
_FILLED
  9
$DIMTXT
 40
0.1
  9
$DIMTOL
 70
0
  9
$DIMLIM
 70
0
  9
$DIMTFAC
 40
1.0
  9
$DIMGAP
 40
0.09
  9
$DIMDSEP
 70
46
  9
$AUNITS
 70
0
  9
$PDMODE
 70
3
  9
$PDSIZE
 40
0.3125
  9
$HANDSEED
  5
384
  9
$TILEMODE
 70
1
  9
$MEASUREMENT
 70
0
  9
$INSUNITS
 70
1
  0
ENDSEC
  0
SECTION
  2
CLASSES
  0
CLASS
  1
ACDBDICTIONARYWDFLT
  2
AcDbDictionaryWithDefault
  3
AutoCAD 2000
 90
0
 91
1
280
0
281
0
  0
CLASS
  1
ACDBPLACEHOLDER
  2
AcDbPlaceHolder
  3
AutoCAD 2000
 90
0
 91
1
280
0
281
0
  0
CLASS
  1
LAYOUT
  2
AcDbLayout
  3
AutoCAD 2000
 90
0
 91
0
280
0
281
0
  0
CLASS
  1
RASTERVARIABLES
  2
AcDbRasterVariables
  3
ISM
 90
0
 91
1
280
0
281
0
  0
CLASS
  1
IMAGEDEF
  2
AcDbRasterImageDef
  3
ISM
 90
0
 91
1
280
0
281
0
  0
CLASS
  1
IMAGEDEF_REACTOR
  2
AcDbRasterImageDefReactor
  3
ISM
 90
0
 91
1
280
0
281
0
  0
CLASS
  1
IMAGE
  2
AcDbRasterImage
  3
ISM
 90
127
 91
1
280
0
281
1
  0
CLASS
  1
TABLESTYLE
  2
AcDbTableStyle
  3
ObjectDBX Classes
 90
2047
 91
1
280
0
281
0
  0
CLASS
  1
ACAD_TABLE
  2
AcDbTable
  3
ObjectDBX Classes
 90
1025
 91
3
280
0
281
1
  0
ENDSEC
  0
SECTION
  2
TABLES
  0
TABLE
  2
VPORT
  5
8
100
AcDbSymbolTable
 70
2
  0
VPORT
  5
1F4
100
AcDbSymbolTableRecord
100
AcDbViewportTableRecord
  2
*ACTIVE
 70
0
 10
0.0
 20
0.0
 11
1.0
 21
1.0
 12
11.0
 22
8.5
 13
0.0
 23
0.0
 14
1.0
 24
1.0
 15
0.0
 25
0.0
 16
0.0
 26
0.0
 36
1.0
 17
0.0
 27
0.0
 37
0.0
 40
17.0
 41
1.2941176471
 42
50.0
 43
0.0
 44
0.0
 50
0.0
 51
0.0
 71
0
 72
100
 73
1
 74
1
 75
0
 76
0
 77
0
 78
0
  0
ENDTAB
  0
TABLE
  2
LTYPE
  5
5
100
AcDbSymbolTable
 70
6
  0
LTYPE
  5
14
100
AcDbSymbolTableRecord
100
AcDbLinetypeTableRecord
  2
BYBLOCK
 70
0
  3

 72
65
 73
0
 40
0.0
  0
LTYPE
  5
15
100
AcDbSymbolTableRecord
100
AcDbLinetypeTableRecord
  2
BYLAYER
 70
0
  3

 72
65
 73
0
 40
0.0
  0
LTYPE
  5
16
100
AcDbSymbolTableRecord
100
AcDbLinetypeTableRecord
  2
CONTINUOUS
 70
64
  3
Solid line
 72
65
 73
0
 40
0.0
  0
LTYPE
  5
1F5
100
AcDbSymbolTableRecord
100
AcDbLinetypeTableRecord
  2
CENTER
 70
64
  3
____ _ ____ _ ____ _ ____ _ ____ _ ____ _ ____
 72
65
 73
4
 40
0.6
 49
0.375
 74
0
 49
-0.075
 74
0
 49
0.075
 74
0
 49
-0.075
 74
0
  0
LTYPE
  5
1F6
100
AcDbSymbolTableRecord
100
AcDbLinetypeTableRecord
  2
HIDDEN
 70
64
  3
- - - - - - - - - - - - - - - - - - - -
 72
65
 73
2
 40
0.2
 49
0.1
 74
0
 49
-0.1
 74
0
  0
LTYPE
  5
1F7
100
AcDbSymbolTableRecord
100
AcDbLinetypeTableRecord
  2
PHANTOM
 70
64
  3
_____ _ _ _____ _ _ _____ _ _ _____
 72
65
 73
6
 40
0.8
 49
0.45
 74
0
 49
-0.05
 74
0
 49
0.1
 74
0
 49
-0.05
 74
0
 49
0.1
 74
0
 49
-0.05
 74
0
  0
LTYPE
  5
1F8
100
AcDbSymbolTableRecord
100
AcDbLinetypeTableRecord
  2
DOT
 70
64
  3
. . . . . . . . . . . . . . . . . . . .
 72
65
 73
2
 40
0.2
 49
0.1
 74
0
 49
-0.1
 74
0
  0
LTYPE
  5
1F9
100
AcDbSymbolTableRecord
100
AcDbLinetypeTableRecord
  2
DASHED
 70
64
  3
- - - - - - - - - - - - - - - - - - - -
 72
65
 73
2
 40
0.2
 49
0.1
 74
0
 49
-0.1
 74
0
  0
ENDTAB
  0
TABLE
  2
LAYER
  5
2
100
AcDbSymbolTable
 70
36
  0
LAYER
  5
10
100
AcDbSymbolTableRecord
100
AcDbLayerTableRecord
  2
0
 70
0
 62
7
  6
CONTINUOUS
370
-3
390
F
  0
LAYER
  5
1FA
100
AcDbSymbolTableRecord
100
AcDbLayerTableRecord
  2
DEFAULT_1
 70
0
 62
7
  6
CENTER
370
-3
390
F
  0
LAYER
  5
1FB
100
AcDbSymbolTableRecord
100
AcDbLayerTableRecord
  2
DEFAULT_2
 70
0
 62
8
  6
HIDDEN
370
-3
390
F
  0
LAYER
  5
1FC
100
AcDbSymbolTableRecord
100
AcDbLayerTableRecord
  2
DEFAULT_3
 70
0
 62
7
  6
PHANTOM
370
-3
390
F
  0
LAYER
  5
1FD
100
AcDbSymbolTableRecord
100
AcDbLayerTableRecord
  2
01___PRT_ALL_DTM_PLN
 70
0
 62
7
  6
CONTINUOUS
370
-3
390
F
  0
LAYER
  5
1FE
100
AcDbSymbolTableRecord
100
AcDbLayerTableRecord
  2
01___PRT_DEF_DTM_PLN
 70
0
 62
7
  6
CONTINUOUS
370
-3
390
F
  0
LAYER
  5
1FF
100
AcDbSymbolTableRecord
100
AcDbLayerTableRecord
  2
02___PRT_ALL_AXES
 70
0
 62
7
  6
CONTINUOUS
370
-3
390
F
  0
LAYER
  5
200
100
AcDbSymbolTableRecord
100
AcDbLayerTableRecord
  2
03___PRT_ALL_CURVES
 70
0
 62
7
  6
CONTINUOUS
370
-3
390
F
  0
LAYER
  5
201
100
AcDbSymbolTableRecord
100
AcDbLayerTableRecord
  2
04___PRT_ALL_DTM_PNT
 70
0
 62
7
  6
CONTINUOUS
370
-3
390
F
  0
LAYER
  5
202
100
AcDbSymbolTableRecord
100
AcDbLayerTableRecord
  2
05___PRT_ALL_DTM_CSYS
 70
0
 62
7
  6
CONTINUOUS
370
-3
390
F
  0
LAYER
  5
203
100
AcDbSymbolTableRecord
100
AcDbLayerTableRecord
  2
05___PRT_DEF_DTM_CSYS
 70
0
 62
7
  6
CONTINUOUS
370
-3
390
F
  0
LAYER
  5
204
100
AcDbSymbolTableRecord
100
AcDbLayerTableRecord
  2
06___PRT_ALL_SURFS
 70
0
 62
7
  6
CONTINUOUS
370
-3
390
F
  0
LAYER
  5
205
100
AcDbSymbolTableRecord
100
AcDbLayerTableRecord
  2
DATUM_PLANES
 70
0
 62
7
  6
CONTINUOUS
370
-3
390
F
  0
LAYER
  5
206
100
AcDbSymbolTableRecord
100
AcDbLayerTableRecord
  2
PORT_AREAS
 70
0
 62
7
  6
CONTINUOUS
370
-3
390
F
  0
LAYER
  5
207
100
AcDbSymbolTableRecord
100
AcDbLayerTableRecord
  2
SUNNBOMCOSMETIC
 70
0
 62
7
  6
CONTINUOUS
370
-3
390
F
  0
LAYER
  5
208
100
AcDbSymbolTableRecord
100
AcDbLayerTableRecord
  2
SUNNBOMSTAMPING
 70
0
 62
7
  6
CONTINUOUS
370
-3
390
F
  0
LAYER
  5
209
100
AcDbSymbolTableRecord
100
AcDbLayerTableRecord
  2
THREADS
 70
0
 62
7
  6
CONTINUOUS
370
-3
390
F
  0
ENDTAB
  0
TABLE
  2
STYLE
  5
3
100
AcDbSymbolTable
 70
1
  0
STYLE
  5
11
100
AcDbSymbolTableRecord
100
AcDbTextStyleTableRecord
  2
STANDARD
 70
0
 40
0.0
 41
0.8
 50
0.0
 71
0
 42
0.2
  3
txt
  4

  0
STYLE
  5
20A
100
AcDbSymbolTableRecord
100
AcDbTextStyleTableRecord
  2
TEXTSTYLE_1
 70
0
 40
0.0
 41
0.8
 50
0.0
 71
0
 42
0.2
  3
gdt
  4

  0
ENDTAB
  0
TABLE
  2
VIEW
  5
6
100
AcDbSymbolTable
 70
0
  0
ENDTAB
  0
TABLE
  2
UCS
  5
7
100
AcDbSymbolTable
 70
0
  0
ENDTAB
  0
TABLE
  2
APPID
  5
9
100
AcDbSymbolTable
 70
1
  0
APPID
  5
20B
100
AcDbSymbolTableRecord
100
AcDbRegAppTableRecord
  2
ACAD
 70
0
  0
ENDTAB
  0
TABLE
  2
BLOCK_RECORD
  5
1
100
AcDbSymbolTable
 70
0
  0
BLOCK_RECORD
  5
20C
100
AcDbSymbolTableRecord
100
AcDbBlockTableRecord
  2
*Model_Space
  0
BLOCK_RECORD
  5
20D
100
AcDbSymbolTableRecord
100
AcDbBlockTableRecord
  2
*Paper_Space
  0
BLOCK_RECORD
  5
20E
100
AcDbSymbolTableRecord
100
AcDbBlockTableRecord
  2
SUN_FIRST_THIRD_ANGLE_BL0
  0
BLOCK_RECORD
  5
20F
100
AcDbSymbolTableRecord
100
AcDbBlockTableRecord
  2
*T1
  0
BLOCK_RECORD
  5
210
100
AcDbSymbolTableRecord
100
AcDbBlockTableRecord
  2
*T2
  0
BLOCK_RECORD
  5
211
100
AcDbSymbolTableRecord
100
AcDbBlockTableRecord
  2
*T3
  0
ENDTAB
  0
TABLE
  2
DIMSTYLE
  5
A
100
AcDbSymbolTable
 70
1
100
AcDbDimStyleTable
 71
0
  0
DIMSTYLE
105
212
100
AcDbSymbolTableRecord
100
AcDbDimStyleTableRecord
  2
STANDARD
 70
0
  3

  4

 40
1.0
 41
0.1875
 42
0.0625
 43
0.38
 44
0.125
 45
0.0
 46
0.0
 47
0.001
 48
0.001
140
0.1
141
0.09
142
0.0
143
25.4
144
1.0
145
0.0
146
1.0
147
0.09
 71
0.0
 72
0.0
 73
1
 74
1
 75
0
 76
0
 77
0
 78
4
170
0
171
2
172
0
173
0
174
0
175
0
176
0
177
0
178
0
270
2
271
3
272
3
273
2
274
2
275
0
280
0
281
0
282
0
283
1
284
4
285
0
286
0
287
3
288
0
340
11
278
46
  0
ENDTAB
  0
ENDSEC
  0
SECTION
  2
BLOCKS
  0
BLOCK
  5
20
100
AcDbEntity
  8
0
100
AcDbBlockBegin
  2
*Model_Space
 70
0
 10
0.0
 20
0.0
 30
0.0
  3
*Model_Space
  1

  0
ENDBLK
  5
21
100
AcDbEntity
  8
0
100
AcDbBlockEnd
  0
BLOCK
  5
1C
100
AcDbEntity
  8
0
100
AcDbBlockBegin
  2
*Paper_Space
 70
0
 10
0.0
 20
0.0
 30
0.0
  3
*Paper_Space
  1

  0
ENDBLK
  5
1D
100
AcDbEntity
  8
0
100
AcDbBlockEnd
  0
BLOCK
  5
213
100
AcDbEntity
  8
0
100
AcDbBlockBegin
 62
2
  6
CONTINUOUS
  2
SUN_FIRST_THIRD_ANGLE_BL0
 70
64
 10
20.4816717061
 20
1.2289683772
  3
SUN_FIRST_THIRD_ANGLE_BL0
  1

  0
TEXT
  5
214
100
AcDbEntity
  8
0
100
AcDbText
 62
2
  6
CONTINUOUS
 10
19.4750896608
 20
1.4136269581
  7
STANDARD
 40
0.08
  1
FIRST ANGLE
 41
0.8
 72
0
100
AcDbText
  0
TEXT
  5
215
100
AcDbEntity
  8
0
100
AcDbText
 62
2
  6
CONTINUOUS
 10
20.7842537513
 20
1.4047600029
  7
STANDARD
 40
0.08
  1
THIRD ANGLE
 41
0.8
 72
0
100
AcDbText
  0
LINE
  5
216
100
AcDbEntity
  8
0
100
AcDbLine
 62
7
  6
CONTINUOUS
 10
19.4767170086
 20
1.1727031207
 11
19.6334271527
 21
1.1717972817
  0
LINE
  5
217
100
AcDbEntity
  8
0
100
AcDbLine
 62
7
  6
CONTINUOUS
 10
19.6596964832
 20
1.1717972817
 11
19.6950230232
 21
1.171593082
  0
LINE
  5
218
100
AcDbEntity
  8
0
100
AcDbLine
 62
7
  6
CONTINUOUS
 10
19.7194818561
 20
1.1708914427
 11
19.8852396156
 21
1.1699333054
  0
LINE
  5
219
100
AcDbEntity
  8
0
100
AcDbLine
 62
7
  6
CONTINUOUS
 10
19.4758111696
 20
1.2723454088
 11
19.88525039
 21
1.3511534004
  0
LINE
  5
21A
100
AcDbEntity
  8
0
100
AcDbLine
 62
7
  6
CONTINUOUS
 10
19.88525039
 20
1.3511534004
 11
19.8831348489
 21
0.9851647912
  0
LINE
  5
21B
100
AcDbEntity
  8
0
100
AcDbLine
 62
7
  6
CONTINUOUS
 10
19.8831348489
 20
0.9851647912
 11
19.4767170086
 21
1.0658141206
  0
LINE
  5
21C
100
AcDbEntity
  8
0
100
AcDbLine
 62
7
  6
CONTINUOUS
 10
19.4767170086
 20
1.0658141206
 11
19.4779056764
 21
1.2714536432
  0
CIRCLE
  5
21D
100
AcDbEntity
  8
0
100
AcDbCircle
 62
7
  6
CONTINUOUS
 10
20.2068232291
 20
1.1717972817
 40
0.175742101
  0
CIRCLE
  5
21E
100
AcDbEntity
  8
0
100
AcDbCircle
 62
7
  6
CONTINUOUS
 10
20.2068232291
 20
1.1717972817
 40
0.1005522074
  0
LINE
  5
21F
100
AcDbEntity
  8
0
100
AcDbLine
 62
7
  6
CONTINUOUS
 10
20.2077290681
 20
1.3756110529
 11
20.2071171714
 21
1.2379342989
  0
LINE
  5
220
100
AcDbEntity
  8
0
100
AcDbLine
 62
7
  6
CONTINUOUS
 10
20.2077290681
 20
1.2016899681
 11
20.2074674401
 21
1.1428236749
  0
LINE
  5
221
100
AcDbEntity
  8
0
100
AcDbLine
 62
7
  6
CONTINUOUS
 10
20.208634907
 20
1.101141841
 11
20.2080230104
 21
0.963465087
  0
LINE
  5
222
100
AcDbEntity
  8
0
100
AcDbLine
 62
7
  6
CONTINUOUS
 10
20.0066328138
 20
1.1745147986
 11
20.1443095678
 21
1.1739029019
  0
LINE
  5
223
100
AcDbEntity
  8
0
100
AcDbLine
 62
7
  6
CONTINUOUS
 10
20.1832714155
 20
1.1727031207
 11
20.238153505
 21
1.172335442
  0
LINE
  5
224
100
AcDbEntity
  8
0
100
AcDbLine
 62
7
  6
CONTINUOUS
 10
20.2756669918
 20
1.1717972817
 11
20.407916871
 21
1.1712095044
  0
CIRCLE
  5
225
100
AcDbEntity
  8
0
100
AcDbCircle
 62
7
  6
CONTINUOUS
 10
20.7509457401
 20
1.1693297793
 40
0.1722024983
  0
CIRCLE
  5
226
100
AcDbEntity
  8
0
100
AcDbCircle
 62
7
  6
CONTINUOUS
 10
20.7509457401
 20
1.1693297793
 40
0.0985164967
  0
LINE
  5
227
100
AcDbEntity
  8
0
100
AcDbLine
 62
7
  6
CONTINUOUS
 10
20.7169767782
 20
1.170462078
 11
20.7825395137
 21
1.1682766535
  0
LINE
  5
228
100
AcDbEntity
  8
0
100
AcDbLine
 62
7
  6
CONTINUOUS
 10
20.8177513651
 20
1.1693297793
 11
20.947965719
 21
1.1693297793
  0
LINE
  5
229
100
AcDbEntity
  8
0
100
AcDbLine
 62
7
  6
CONTINUOUS
 10
20.6875370113
 20
1.170462078
 11
20.5573226574
 21
1.170462078
  0
LINE
  5
22A
100
AcDbEntity
  8
0
100
AcDbLine
 62
7
  6
CONTINUOUS
 10
20.7486811426
 20
1.1987695462
 11
20.7486811426
 21
1.1432869085
  0
LINE
  5
22B
100
AcDbEntity
  8
0
100
AcDbLine
 62
7
  6
CONTINUOUS
 10
20.7498134414
 20
1.1059210505
 11
20.7498134414
 21
0.9757066966
  0
LINE
  5
22C
100
AcDbEntity
  8
0
100
AcDbLine
 62
7
  6
CONTINUOUS
 10
20.7486811426
 20
1.2338708068
 11
20.7486811426
 21
1.3640851607
  0
LINE
  5
22D
100
AcDbEntity
  8
0
100
AcDbLine
 62
7
  6
CONTINUOUS
 10
21.0702539817
 20
1.2701043662
 11
21.4790138229
 21
1.3448360823
  0
LINE
  5
22E
100
AcDbEntity
  8
0
100
AcDbLine
 62
7
  6
CONTINUOUS
 10
21.4790138229
 20
1.3448360823
 11
21.4790138229
 21
0.9779712941
  0
LINE
  5
22F
100
AcDbEntity
  8
0
100
AcDbLine
 62
7
  6
CONTINUOUS
 10
21.4790138229
 20
0.9779712941
 11
21.069121683
 21
1.0617614
  0
LINE
  5
230
100
AcDbEntity
  8
0
100
AcDbLine
 62
7
  6
CONTINUOUS
 10
21.0702539817
 20
1.2701043662
 11
21.069121683
 21
1.0617614
  0
LINE
  5
231
100
AcDbEntity
  8
0
100
AcDbLine
 62
7
  6
CONTINUOUS
 10
21.4790138229
 20
1.1693297793
 11
21.3159628059
 21
1.1693297793
  0
LINE
  5
232
100
AcDbEntity
  8
0
100
AcDbLine
 62
7
  6
CONTINUOUS
 10
21.2876553377
 20
1.1693297793
 11
21.2502894796
 21
1.1693297793
  0
LINE
  5
233
100
AcDbEntity
  8
0
100
AcDbLine
 62
7
  6
CONTINUOUS
 10
21.2208497126
 20
1.1659328831
 11
21.0713862804
 21
1.1659328831
  0
LINE
  5
234
100
AcDbEntity
  8
0
100
AcDbLine
 62
7
  6
CONTINUOUS
 10
20.4796138713
 20
1.5284908897
 11
20.4766766948
 21
0.9294458646
  0
ENDBLK
  5
235
100
AcDbEntity
  8
0
  6
BYBLOCK
 62
0
100
AcDbBlockEnd
  0
BLOCK
  5
236
100
AcDbEntity
  8
0
100
AcDbBlockBegin
  2
*T1
 70
1
 10
0.0
 20
0.0
  3
*T1
  1

  0
LINE
  5
237
100
AcDbEntity
  8
0
100
AcDbLine
 62
2
  6
CONTINUOUS
 10
9.275
 20
0.0
 11
-0.0
 21
0.0
  0
LINE
  5
238
100
AcDbEntity
  8
0
100
AcDbLine
 62
2
  6
CONTINUOUS
 10
9.275
 20
0.0
 11
9.275
 21
1.25
  0
LINE
  5
239
100
AcDbEntity
  8
0
100
AcDbLine
 62
2
  6
CONTINUOUS
 10
9.275
 20
0.625
 11
-0.0
 21
0.625
  0
LINE
  5
23A
100
AcDbEntity
  8
0
100
AcDbLine
 62
2
  6
CONTINUOUS
 10
9.275
 20
1.25
 11
-0.0
 21
1.25
  0
LINE
  5
23B
100
AcDbEntity
  8
0
100
AcDbLine
 62
2
  6
CONTINUOUS
 10
6.8
 20
0.0
 11
6.8
 21
1.25
  0
LINE
  5
23C
100
AcDbEntity
  8
0
100
AcDbLine
 62
2
  6
CONTINUOUS
 10
6.4
 20
0.0
 11
6.4
 21
0.625
  0
LINE
  5
23D
100
AcDbEntity
  8
0
100
AcDbLine
 62
2
  6
CONTINUOUS
 10
5.9
 20
0.0
 11
5.9
 21
0.625
  0
LINE
  5
23E
100
AcDbEntity
  8
0
100
AcDbLine
 62
2
  6
CONTINUOUS
 10
5.2
 20
0.0
 11
5.2
 21
0.625
  0
LINE
  5
23F
100
AcDbEntity
  8
0
100
AcDbLine
 62
2
  6
CONTINUOUS
 10
4.1
 20
0.0
 11
4.1
 21
1.25
  0
LINE
  5
240
100
AcDbEntity
  8
0
100
AcDbLine
 62
2
  6
CONTINUOUS
 10
-0.0
 20
0.0
 11
-0.0
 21
1.25
  0
MTEXT
  5
241
100
AcDbEntity
  8
0
100
AcDbMText
 62
2
  6
CONTINUOUS
  7
STANDARD
 71
2
 72
1
 10
6.6
 20
0.325
 30
0.0
 11
1.0
 21
0.0
 31
0.0
 44
0.9
  1
2
 40
0.125
 41
0.2
  0
MTEXT
  5
242
100
AcDbEntity
  8
0
100
AcDbMText
 62
2
  6
CONTINUOUS
  7
STANDARD
 71
2
 72
1
 10
6.15
 20
0.325
 30
0.0
 11
1.0
 21
0.0
 31
0.0
 44
0.9
  1
C
 40
0.125
 41
0.2
  0
MTEXT
  5
243
100
AcDbEntity
  8
0
100
AcDbMText
 62
2
  6
CONTINUOUS
  7
STANDARD
 71
2
 72
1
 10
5.55
 20
0.325
 30
0.0
 11
1.0
 21
0.0
 31
0.0
 44
0.9
  1
1.000
 40
0.125
 41
1.0
  0
MTEXT
  5
244
100
AcDbEntity
  8
0
100
AcDbMText
 62
2
  6
CONTINUOUS
  7
STANDARD
 71
2
 72
1
 10
4.65
 20
0.325
 30
0.0
 11
1.0
 21
0.0
 31
0.0
 44
0.9
  1
Apr-26-23
 40
0.125
 41
1.8
  0
MTEXT
  5
245
100
AcDbEntity
  8
0
100
AcDbMText
 62
2
  6
CONTINUOUS
  7
STANDARD
 71
2
 72
1
 10
2.05
 20
0.4625
 30
0.0
 11
1.0
 21
0.0
 31
0.0
 44
0.9
  1
T-2A Line mount\PThrough port 1 with reverse flow check
 40
0.125
 41
7.6
  0
MTEXT
  5
246
100
AcDbEntity
  8
0
100
AcDbMText
 62
2
  6
CONTINUOUS
  7
STANDARD
 71
1
 72
1
 10
6.45
 20
0.5625
 30
0.0
 11
1.0
 21
0.0
 31
0.0
 44
0.9
  1
SHEET
 40
0.06
 41
0.48
  0
MTEXT
  5
247
100
AcDbEntity
  8
0
100
AcDbMText
 62
2
  6
CONTINUOUS
  7
STANDARD
 71
1
 72
1
 10
5.95
 20
0.5625
 30
0.0
 11
1.0
 21
0.0
 31
0.0
 44
0.9
  1
DWG SIZE
 40
0.06
 41
0.768
  0
MTEXT
  5
248
100
AcDbEntity
  8
0
100
AcDbMText
 62
2
  6
CONTINUOUS
  7
STANDARD
 71
1
 72
1
 10
5.25
 20
0.5625
 30
0.0
 11
1.0
 21
0.0
 31
0.0
 44
0.9
  1
SCALE
 40
0.06
 41
0.48
  0
MTEXT
  5
249
100
AcDbEntity
  8
0
100
AcDbMText
 62
2
  6
CONTINUOUS
  7
STANDARD
 71
1
 72
1
 10
4.15
 20
0.5625
 30
0.0
 11
1.0
 21
0.0
 31
0.0
 44
0.9
  1
DATE
 40
0.06
 41
0.384
  0
MTEXT
  5
24A
100
AcDbEntity
  8
0
100
AcDbMText
 62
2
  6
CONTINUOUS
  7
STANDARD
 71
1
 72
1
 10
0.05
 20
0.5625
 30
0.0
 11
1.0
 21
0.0
 31
0.0
 44
0.9
  1
DESCRIPTION
 40
0.06
 41
1.056
  0
MTEXT
  5
24B
100
AcDbEntity
  8
0
100
AcDbMText
 62
2
  6
CONTINUOUS
  7
STANDARD
 71
2
 72
1
 10
5.45
 20
1.0375
 30
0.0
 11
1.0
 21
0.0
 31
0.0
 44
0.9
  1
ALL DIMENSIONS IN INCH\PVIEWS ARE THIRD ANGLE
 40
0.12
 41
4.224
  0
MTEXT
  5
24C
100
AcDbEntity
  8
0
100
AcDbMText
 62
2
  6
CONTINUOUS
  7
STANDARD
 71
2
 72
1
 10
2.05
 20
0.95
 30
0.0
 11
1.0
 21
0.0
 31
0.0
 44
0.9
  1
B7C
 40
0.125
 41
0.6
  0
MTEXT
  5
24D
100
AcDbEntity
  8
0
100
AcDbMText
 62
2
  6
CONTINUOUS
  7
STANDARD
 71
1
 72
1
 10
0.05
 20
1.1875
 30
0.0
 11
1.0
 21
0.0
 31
0.0
 44
0.9
  1
MODEL
 40
0.06
 41
0.48
  0
ENDBLK
  5
24E
100
AcDbEntity
  8
0
  6
BYBLOCK
 62
0
100
AcDbBlockEnd
  0
BLOCK
  5
24F
100
AcDbEntity
  8
0
100
AcDbBlockBegin
  2
*T2
 70
1
 10
0.0
 20
0.0
  3
*T2
  1

  0
LINE
  5
250
100
AcDbEntity
  8
0
100
AcDbLine
 62
2
  6
CONTINUOUS
 10
0.0
 20
0.0
 11
9.055
 21
0.0
  0
LINE
  5
251
100
AcDbEntity
  8
0
100
AcDbLine
 62
2
  6
CONTINUOUS
 10
0.0
 20
0.0
 11
0.0
 21
-2.844
  0
LINE
  5
252
100
AcDbEntity
  8
0
100
AcDbLine
 62
2
  6
CONTINUOUS
 10
0.0
 20
-0.344
 11
9.055
 21
-0.344
  0
LINE
  5
253
100
AcDbEntity
  8
0
100
AcDbLine
 62
2
  6
CONTINUOUS
 10
0.0
 20
-0.594
 11
9.055
 21
-0.594
  0
LINE
  5
254
100
AcDbEntity
  8
0
100
AcDbLine
 62
2
  6
CONTINUOUS
 10
0.0
 20
-0.844
 11
9.055
 21
-0.844
  0
LINE
  5
255
100
AcDbEntity
  8
0
100
AcDbLine
 62
2
  6
CONTINUOUS
 10
0.0
 20
-1.094
 11
9.055
 21
-1.094
  0
LINE
  5
256
100
AcDbEntity
  8
0
100
AcDbLine
 62
2
  6
CONTINUOUS
 10
0.0
 20
-1.344
 11
9.055
 21
-1.344
  0
LINE
  5
257
100
AcDbEntity
  8
0
100
AcDbLine
 62
2
  6
CONTINUOUS
 10
0.0
 20
-1.594
 11
9.055
 21
-1.594
  0
LINE
  5
258
100
AcDbEntity
  8
0
100
AcDbLine
 62
2
  6
CONTINUOUS
 10
0.0
 20
-1.844
 11
9.055
 21
-1.844
  0
LINE
  5
259
100
AcDbEntity
  8
0
100
AcDbLine
 62
2
  6
CONTINUOUS
 10
0.0
 20
-2.094
 11
9.055
 21
-2.094
  0
LINE
  5
25A
100
AcDbEntity
  8
0
100
AcDbLine
 62
2
  6
CONTINUOUS
 10
0.0
 20
-2.344
 11
9.055
 21
-2.344
  0
LINE
  5
25B
100
AcDbEntity
  8
0
100
AcDbLine
 62
2
  6
CONTINUOUS
 10
0.0
 20
-2.594
 11
9.055
 21
-2.594
  0
LINE
  5
25C
100
AcDbEntity
  8
0
100
AcDbLine
 62
2
  6
CONTINUOUS
 10
0.0
 20
-2.844
 11
9.055
 21
-2.844
  0
LINE
  5
25D
100
AcDbEntity
  8
0
100
AcDbLine
 62
2
  6
CONTINUOUS
 10
3.055
 20
0.0
 11
3.055
 21
-2.844
  0
LINE
  5
25E
100
AcDbEntity
  8
0
100
AcDbLine
 62
2
  6
CONTINUOUS
 10
9.055
 20
0.0
 11
9.055
 21
-2.844
  0
MTEXT
  5
25F
100
AcDbEntity
  8
0
100
AcDbMText
 62
2
  6
CONTINUOUS
  7
STANDARD
 71
2
 72
1
 10
1.5275
 20
-0.0995
 30
0.0
 11
1.0
 21
0.0
 31
0.0
 44
0.9
  1
Technical Data
 40
0.145
 41
3.248
  0
MTEXT
  5
260
100
AcDbEntity
  8
0
100
AcDbMText
 62
2
  6
CONTINUOUS
  7
STANDARD
 71
2
 72
1
 10
4.555
 20
-0.0995
 30
0.0
 11
1.0
 21
0.0
 31
0.0
 44
0.9
  1
U.S. Units
 40
0.145
 41
2.32
  0
MTEXT
  5
261
100
AcDbEntity
  8
0
100
AcDbMText
 62
2
  6
CONTINUOUS
  7
STANDARD
 71
2
 72
1
 10
7.555
 20
-0.0995
 30
0.0
 11
1.0
 21
0.0
 31
0.0
 44
0.9
  1
Metric Units
 40
0.145
 41
2.784
  0
MTEXT
  5
262
100
AcDbEntity
  8
0
100
AcDbMText
 62
2
  6
CONTINUOUS
  7
STANDARD
 71
2
 72
1
 10
1.5275
 20
-0.4065
 30
0.0
 11
1.0
 21
0.0
 31
0.0
 44
0.9
  1
Cavity
 40
0.125
 41
1.2
  0
MTEXT
  5
263
100
AcDbEntity
  8
0
100
AcDbMText
 62
2
  6
CONTINUOUS
  7
STANDARD
 71
2
 72
1
 10
6.055
 20
-0.4065
 30
0.0
 11
1.0
 21
0.0
 31
0.0
 44
0.9
  1
T-2A
 40
0.125
 41
0.8
  0
MTEXT
  5
264
100
AcDbEntity
  8
0
100
AcDbMText
 62
2
  6
CONTINUOUS
  7
STANDARD
 71
2
 72
1
 10
1.5275
 20
-0.6565
 30
0.0
 11
1.0
 21
0.0
 31
0.0
 44
0.9
  1
Body Features
 40
0.125
 41
2.6
  0
MTEXT
  5
265
100
AcDbEntity
  8
0
100
AcDbMText
 62
2
  6
CONTINUOUS
  7
STANDARD
 71
2
 72
1
 10
6.055
 20
-0.6565
 30
0.0
 11
1.0
 21
0.0
 31
0.0
 44
0.9
  1
Through port 1 with reverse flow check
 40
0.125
 41
7.6
  0
MTEXT
  5
266
100
AcDbEntity
  8
0
100
AcDbMText
 62
2
  6
CONTINUOUS
  7
STANDARD
 71
2
 72
1
 10
1.5275
 20
-0.9065
 30
0.0
 11
1.0
 21
0.0
 31
0.0
 44
0.9
  1
Body Type
 40
0.125
 41
1.8
  0
MTEXT
  5
267
100
AcDbEntity
  8
0
100
AcDbMText
 62
2
  6
CONTINUOUS
  7
STANDARD
 71
2
 72
1
 10
6.055
 20
-0.9065
 30
0.0
 11
1.0
 21
0.0
 31
0.0
 44
0.9
  1
Line mount
 40
0.125
 41
2.0
  0
MTEXT
  5
268
100
AcDbEntity
  8
0
100
AcDbMText
 62
2
  6
CONTINUOUS
  7
STANDARD
 71
2
 72
1
 10
1.5275
 20
-1.1565
 30
0.0
 11
1.0
 21
0.0
 31
0.0
 44
0.9
  1
Interface
 40
0.125
 41
1.8
  0
MTEXT
  5
269
100
AcDbEntity
  8
0
100
AcDbMText
 62
2
  6
CONTINUOUS
  7
STANDARD
 71
2
 72
1
 10
6.055
 20
-1.1565
 30
0.0
 11
1.0
 21
0.0
 31
0.0
 44
0.9
  1
None
 40
0.125
 41
0.8
  0
MTEXT
  5
26A
100
AcDbEntity
  8
0
100
AcDbMText
 62
2
  6
CONTINUOUS
  7
STANDARD
 71
2
 72
1
 10
1.5275
 20
-1.4065
 30
0.0
 11
1.0
 21
0.0
 31
0.0
 44
0.9
  1
Open Cavity Quantity
 40
0.125
 41
4.0
  0
MTEXT
  5
26B
100
AcDbEntity
  8
0
100
AcDbMText
 62
2
  6
CONTINUOUS
  7
STANDARD
 71
2
 72
1
 10
6.055
 20
-1.4065
 30
0.0
 11
1.0
 21
0.0
 31
0.0
 44
0.9
  1
1
 40
0.125
 41
0.2
  0
MTEXT
  5
26C
100
AcDbEntity
  8
0
100
AcDbMText
 62
2
  6
CONTINUOUS
  7
STANDARD
 71
2
 72
1
 10
1.5275
 20
-1.6565
 30
0.0
 11
1.0
 21
0.0
 31
0.0
 44
0.9
  1
Weight
 40
0.125
 41
1.2
  0
MTEXT
  5
26D
100
AcDbEntity
  8
0
100
AcDbMText
 62
2
  6
CONTINUOUS
  7
STANDARD
 71
2
 72
1
 10
4.555
 20
-1.6565
 30
0.0
 11
1.0
 21
0.0
 31
0.0
 44
0.9
  1
3.098 lb.
 40
0.125
 41
1.8
  0
MTEXT
  5
26E
100
AcDbEntity
  8
0
100
AcDbMText
 62
2
  6
CONTINUOUS
  7
STANDARD
 71
2
 72
1
 10
7.555
 20
-1.6565
 30
0.0
 11
1.0
 21
0.0
 31
0.0
 44
0.9
  1
1,405 kg.
 40
0.125
 41
1.8
  0
MTEXT
  5
26F
100
AcDbEntity
  8
0
100
AcDbMText
 62
2
  6
CONTINUOUS
  7
STANDARD
 71
2
 72
1
 10
1.5275
 20
-1.9065
 30
0.0
 11
1.0
 21
0.0
 31
0.0
 44
0.9
  1
Mounting Hole Thread
 40
0.125
 41
4.0
  0
MTEXT
  5
270
100
AcDbEntity
  8
0
100
AcDbMText
 62
2
  6
CONTINUOUS
  7
STANDARD
 71
2
 72
1
 10
4.555
 20
-1.9065
 30
0.0
 11
1.0
 21
0.0
 31
0.0
 44
0.9
  1
.375-16 UNC - 2B in.
 40
0.125
 41
4.0
  0
MTEXT
  5
271
100
AcDbEntity
  8
0
100
AcDbMText
 62
2
  6
CONTINUOUS
  7
STANDARD
 71
2
 72
1
 10
1.5275
 20
-2.1565
 30
0.0
 11
1.0
 21
0.0
 31
0.0
 44
0.9
  1
Mounting Hole Depth
 40
0.125
 41
3.8
  0
MTEXT
  5
272
100
AcDbEntity
  8
0
100
AcDbMText
 62
2
  6
CONTINUOUS
  7
STANDARD
 71
2
 72
1
 10
4.555
 20
-2.1565
 30
0.0
 11
1.0
 21
0.0
 31
0.0
 44
0.9
  1
.62 in.
 40
0.125
 41
1.4
  0
MTEXT
  5
273
100
AcDbEntity
  8
0
100
AcDbMText
 62
2
  6
CONTINUOUS
  7
STANDARD
 71
2
 72
1
 10
7.555
 20
-2.1565
 30
0.0
 11
1.0
 21
0.0
 31
0.0
 44
0.9
  1
15,7 mm
 40
0.125
 41
1.4
  0
MTEXT
  5
274
100
AcDbEntity
  8
0
100
AcDbMText
 62
2
  6
CONTINUOUS
  7
STANDARD
 71
2
 72
1
 10
1.5275
 20
-2.4065
 30
0.0
 11
1.0
 21
0.0
 31
0.0
 44
0.9
  1
Mounting Hole Quantity
 40
0.125
 41
4.4
  0
MTEXT
  5
275
100
AcDbEntity
  8
0
100
AcDbMText
 62
2
  6
CONTINUOUS
  7
STANDARD
 71
2
 72
1
 10
6.055
 20
-2.4065
 30
0.0
 11
1.0
 21
0.0
 31
0.0
 44
0.9
  1
2
 40
0.125
 41
0.2
  0
MTEXT
  5
276
100
AcDbEntity
  8
0
100
AcDbMText
 62
2
  6
CONTINUOUS
  7
STANDARD
 71
2
 72
1
 10
1.5275
 20
-2.6565
 30
0.0
 11
1.0
 21
0.0
 31
0.0
 44
0.9
  1
Includes integral cartridge(s)
 40
0.125
 41
6.0
  0
MTEXT
  5
277
100
AcDbEntity
  8
0
100
AcDbMText
 62
2
  6
CONTINUOUS
  7
STANDARD
 71
2
 72
1
 10
6.055
 20
-2.6565
 30
0.0
 11
1.0
 21
0.0
 31
0.0
 44
0.9
  1
Yes (see Included Components)
 40
0.125
 41
5.8
  0
ENDBLK
  5
278
100
AcDbEntity
  8
0
  6
BYBLOCK
 62
0
100
AcDbBlockEnd
  0
BLOCK
  5
279
100
AcDbEntity
  8
0
100
AcDbBlockBegin
  2
*T3
 70
1
 10
0.0
 20
0.0
  3
*T3
  1

  0
LINE
  5
27A
100
AcDbEntity
  8
0
100
AcDbLine
 62
2
  6
CONTINUOUS
 10
0.0
 20
0.0
 11
4.6
 21
0.0
  0
LINE
  5
27B
100
AcDbEntity
  8
0
100
AcDbLine
 62
2
  6
CONTINUOUS
 10
0.0
 20
0.0
 11
0.0
 21
-1.43775
  0
LINE
  5
27C
100
AcDbEntity
  8
0
100
AcDbLine
 62
2
  6
CONTINUOUS
 10
0.0
 20
-0.34375
 11
4.6
 21
-0.34375
  0
LINE
  5
27D
100
AcDbEntity
  8
0
100
AcDbLine
 62
2
  6
CONTINUOUS
 10
0.0
 20
-0.68775
 11
4.6
 21
-0.68775
  0
LINE
  5
27E
100
AcDbEntity
  8
0
100
AcDbLine
 62
2
  6
CONTINUOUS
 10
0.0
 20
-0.93775
 11
4.6
 21
-0.93775
  0
LINE
  5
27F
100
AcDbEntity
  8
0
100
AcDbLine
 62
2
  6
CONTINUOUS
 10
0.0
 20
-1.18775
 11
4.6
 21
-1.18775
  0
LINE
  5
280
100
AcDbEntity
  8
0
100
AcDbLine
 62
2
  6
CONTINUOUS
 10
0.0
 20
-1.43775
 11
4.6
 21
-1.43775
  0
LINE
  5
281
100
AcDbEntity
  8
0
100
AcDbLine
 62
2
  6
CONTINUOUS
 10
1.3
 20
-0.34375
 11
1.3
 21
-1.43775
  0
LINE
  5
282
100
AcDbEntity
  8
0
100
AcDbLine
 62
2
  6
CONTINUOUS
 10
3.3
 20
-0.34375
 11
3.3
 21
-1.43775
  0
LINE
  5
283
100
AcDbEntity
  8
0
100
AcDbLine
 62
2
  6
CONTINUOUS
 10
4.6
 20
0.0
 11
4.6
 21
-1.43775
  0
MTEXT
  5
284
100
AcDbEntity
  8
0
100
AcDbMText
 62
2
  6
CONTINUOUS
  7
STANDARD
 71
2
 72
1
 10
2.3
 20
-0.099375
 30
0.0
 11
1.0
 21
0.0
 31
0.0
 44
0.9
  1
Port Headings
 40
0.145
 41
3.016
  0
MTEXT
  5
285
100
AcDbEntity
  8
0
100
AcDbMText
 62
2
  6
CONTINUOUS
  7
STANDARD
 71
2
 72
1
 10
0.65
 20
-0.44325
 30
0.0
 11
1.0
 21
0.0
 31
0.0
 44
0.9
  1
Product
 40
0.145
 41
1.624
  0
MTEXT
  5
286
100
AcDbEntity
  8
0
100
AcDbMText
 62
2
  6
CONTINUOUS
  7
STANDARD
 71
2
 72
1
 10
2.3
 20
-0.44325
 30
0.0
 11
1.0
 21
0.0
 31
0.0
 44
0.9
  1
Port
 40
0.145
 41
0.928
  0
MTEXT
  5
287
100
AcDbEntity
  8
0
100
AcDbMText
 62
2
  6
CONTINUOUS
  7
STANDARD
 71
2
 72
1
 10
3.95
 20
-0.44325
 30
0.0
 11
1.0
 21
0.0
 31
0.0
 44
0.9
  1
Size
 40
0.145
 41
0.928
  0
MTEXT
  5
288
100
AcDbEntity
  8
0
100
AcDbMText
 62
2
  6
CONTINUOUS
  7
STANDARD
 71
2
 72
1
 10
0.65
 20
-0.75025
 30
0.0
 11
1.0
 21
0.0
 31
0.0
 44
0.9
  1
B7C
 40
0.125
 41
0.6
  0
MTEXT
  5
289
100
AcDbEntity
  8
0
100
AcDbMText
 62
2
  6
CONTINUOUS
  7
STANDARD
 71
2
 72
1
 10
2.3
 20
-0.75025
 30
0.0
 11
1.0
 21
0.0
 31
0.0
 44
0.9
  1
Ports 1 &  2
 40
0.125
 41
2.4
  0
MTEXT
  5
28A
100
AcDbEntity
  8
0
100
AcDbMText
 62
2
  6
CONTINUOUS
  7
STANDARD
 71
2
 72
1
 10
3.95
 20
-0.75025
 30
0.0
 11
1.0
 21
0.0
 31
0.0
 44
0.9
  1
1/2" NPTF
 40
0.125
 41
1.8
  0
MTEXT
  5
28B
100
AcDbEntity
  8
0
100
AcDbMText
 62
2
  6
CONTINUOUS
  7
STANDARD
 71
2
 72
1
 10
0.65
 20
-1.00025
 30
0.0
 11
1.0
 21
0.0
 31
0.0
 44
0.9
  1
B7C
 40
0.125
 41
0.6
  0
MTEXT
  5
28C
100
AcDbEntity
  8
0
100
AcDbMText
 62
2
  6
CONTINUOUS
  7
STANDARD
 71
2
 72
1
 10
2.3
 20
-1.00025
 30
0.0
 11
1.0
 21
0.0
 31
0.0
 44
0.9
  1
Port 3
 40
0.125
 41
1.2
  0
MTEXT
  5
28D
100
AcDbEntity
  8
0
100
AcDbMText
 62
2
  6
CONTINUOUS
  7
STANDARD
 71
2
 72
1
 10
3.95
 20
-1.00025
 30
0.0
 11
1.0
 21
0.0
 31
0.0
 44
0.9
  1
1/4" NPTF
 40
0.125
 41
1.8
  0
MTEXT
  5
28E
100
AcDbEntity
  8
0
100
AcDbMText
 62
2
  6
CONTINUOUS
  7
STANDARD
 71
2
 72
1
 10
0.65
 20
-1.25025
 30
0.0
 11
1.0
 21
0.0
 31
0.0
 44
0.9
  1
B7C
 40
0.125
 41
0.6
  0
MTEXT
  5
28F
100
AcDbEntity
  8
0
100
AcDbMText
 62
2
  6
CONTINUOUS
  7
STANDARD
 71
2
 72
1
 10
2.3
 20
-1.25025
 30
0.0
 11
1.0
 21
0.0
 31
0.0
 44
0.9
  1
Gage Port
 40
0.125
 41
1.8
  0
MTEXT
  5
290
100
AcDbEntity
  8
0
100
AcDbMText
 62
2
  6
CONTINUOUS
  7
STANDARD
 71
2
 72
1
 10
3.95
 20
-1.25025
 30
0.0
 11
1.0
 21
0.0
 31
0.0
 44
0.9
  1
1/4" NPTF
 40
0.125
 41
1.8
  0
ENDBLK
  5
291
100
AcDbEntity
  8
0
  6
BYBLOCK
 62
0
100
AcDbBlockEnd
  0
ENDSEC
  0
SECTION
  2
ENTITIES
  0
IMAGE
  5
292
100
AcDbEntity
  8
0
100
AcDbRasterImage
 62
7
  6
CONTINUOUS
 10
19.2297077316
 20
0.3094318264
 30
0.0
 11
0.0066666667
 21
0.0
 31
0.0
 12
0.0
 22
0.0066666667
 32
0.0
 13
369.0
 23
92.0
340
       381
 70
9
280
0
281
50
282
50
283
0
360
       37B
 71
1
 91
2
 14
-0.5
 24
-0.5
 14
368.5
 24
91.5
  0
INSERT
  5
293
100
AcDbEntity
  8
0
100
AcDbBlockReference
 62
2
  6
CONTINUOUS
  2
SUN_FIRST_THIRD_ANGLE_BL0
 10
20.4816717061
 20
1.2289683772
  0
ACAD_TABLE
  5
294
100
AcDbEntity
  8
0
 62
2
  6
CONTINUOUS
100
AcDbBlockReference
  2
*T1
 10
12.42375
 20
0.30125
 30
0.0
100
AcDbTable
342
       383
343
20F
 11
1.0
 21
0.0
 31
0.0
 90
6
 91
4
 92
6
 93
20
 94
0
 95
0
 96
0
 70
1
 41
0.0
141
0.525
141
0.1
141
0.525
141
0.1
142
4.1
142
1.1
142
0.7
142
0.5
142
0.4
142
2.475
171
1
172
0
173
0
174
0
175
1
176
1
 91
33
178
0
145
0.0
301
CELL_VALUE
 90
4
  1
T-2A Line mount\PThrough port 1 with reverse flow check
304
ACVALUE_END
170
2
140
0.125
171
1
172
0
173
0
174
0
175
1
176
1
 91
33
178
0
145
0.0
301
CELL_VALUE
 90
4
  1
Apr-26-23
304
ACVALUE_END
170
5
140
0.125
171
1
172
0
173
0
174
0
175
1
176
1
 91
33
178
0
145
0.0
301
CELL_VALUE
 90
4
  1
1.000
304
ACVALUE_END
170
5
140
0.125
171
1
172
0
173
0
174
0
175
1
176
1
 91
33
178
0
145
0.0
301
CELL_VALUE
 90
4
  1
C
304
ACVALUE_END
170
5
140
0.125
171
1
172
0
173
0
174
0
175
1
176
1
 91
33
178
0
145
0.0
301
CELL_VALUE
 90
4
  1
2
304
ACVALUE_END
170
5
140
0.125
171
1
172
0
173
0
174
0
175
1
176
1
 91
33
178
0
145
0.0
301
CELL_VALUE
 90
4
  1
 
304
ACVALUE_END
170
1
140
0.125
171
1
172
0
173
0
174
0
175
1
176
1
 91
33
178
0
145
0.0
301
CELL_VALUE
 90
4
  1
DESCRIPTION
304
ACVALUE_END
170
1
140
0.06
171
1
172
0
173
0
174
0
175
1
176
1
 91
33
178
0
145
0.0
301
CELL_VALUE
 90
4
  1
DATE
304
ACVALUE_END
170
1
140
0.06
171
1
172
0
173
0
174
0
175
1
176
1
 91
33
178
0
145
0.0
301
CELL_VALUE
 90
4
  1
SCALE
304
ACVALUE_END
170
1
140
0.06
171
1
172
0
173
0
174
0
175
1
176
1
 91
33
178
0
145
0.0
301
CELL_VALUE
 90
4
  1
DWG SIZE
304
ACVALUE_END
170
1
140
0.06
171
1
172
0
173
0
174
0
175
1
176
1
 91
33
178
0
145
0.0
301
CELL_VALUE
 90
4
  1
SHEET
304
ACVALUE_END
170
1
140
0.06
171
1
172
0
173
0
174
0
175
1
176
1
 91
33
178
0
145
0.0
301
CELL_VALUE
 90
4
  1
 
304
ACVALUE_END
170
1
140
0.125
171
1
172
0
173
0
174
0
175
1
176
1
 91
33
178
0
145
0.0
301
CELL_VALUE
 90
4
  1
B7C
304
ACVALUE_END
170
5
140
0.125
171
1
172
0
173
0
174
0
175
4
176
1
 91
33
178
0
145
0.0
301
CELL_VALUE
 90
4
  1
ALL DIMENSIONS IN INCH\PVIEWS ARE THIRD ANGLE
304
ACVALUE_END
170
5
140
0.12
171
1
172
0
173
1
174
0
175
1
176
1
 91
1
178
0
145
0.0
170
1
171
1
172
0
173
1
174
0
175
1
176
1
 91
1
178
0
145
0.0
170
1
171
1
172
0
173
1
174
0
175
1
176
1
 91
1
178
0
145
0.0
170
5
171
1
172
0
173
0
174
0
175
1
176
1
 91
33
178
0
145
0.0
301
CELL_VALUE
 90
4
  1
 
304
ACVALUE_END
170
1
140
0.125
171
1
172
0
173
0
174
0
175
1
176
1
 91
33
178
0
145
0.0
301
CELL_VALUE
 90
4
  1
MODEL
304
ACVALUE_END
170
1
140
0.06
171
1
172
0
173
0
174
0
175
1
176
1
 91
33
178
0
145
0.0
301
CELL_VALUE
 90
4
  1
 
304
ACVALUE_END
170
1
140
0.125
171
1
172
0
173
0
174
0
175
1
176
1
 91
33
178
0
145
0.0
301
CELL_VALUE
 90
4
  1
 
304
ACVALUE_END
170
1
140
0.125
171
1
172
0
173
0
174
0
175
1
176
1
 91
33
178
0
145
0.0
301
CELL_VALUE
 90
4
  1
 
304
ACVALUE_END
170
1
140
0.125
171
1
172
0
173
0
174
0
175
1
176
1
 91
33
178
0
145
0.0
301
CELL_VALUE
 90
4
  1
 
304
ACVALUE_END
170
1
140
0.125
171
1
172
0
173
0
174
0
175
1
176
1
 91
33
178
0
145
0.0
301
CELL_VALUE
 90
4
  1
 
304
ACVALUE_END
170
1
140
0.125
  0
ACAD_TABLE
  5
295
100
AcDbEntity
  8
0
 62
2
  6
CONTINUOUS
100
AcDbBlockReference
  2
*T2
 10
12.4237499994
 20
16.47875
 30
0.0
100
AcDbTable
342
       382
343
210
 11
1.0
 21
0.0
 31
0.0
 90
22
 91
11
 92
3
 93
16
 94
0
 95
0
 96
0
 41
0.028
141
0.344
141
0.25
141
0.25
141
0.25
141
0.25
141
0.25
141
0.25
141
0.25
141
0.25
141
0.25
141
0.25
142
3.055
142
3.0
142
3.0
171
1
172
0
173
0
174
0
175
1
176
1
 91
33
178
0
145
0.0
301
CELL_VALUE
 90
4
  1
Technical Data
304
ACVALUE_END
170
5
140
0.145
171
1
172
0
173
0
174
0
175
1
176
1
 91
33
178
0
145
0.0
301
CELL_VALUE
 90
4
  1
U.S. Units
304
ACVALUE_END
170
5
140
0.145
171
1
172
0
173
0
174
0
175
1
176
1
 91
33
178
0
145
0.0
301
CELL_VALUE
 90
4
  1
Metric Units
304
ACVALUE_END
170
5
140
0.145
171
1
172
0
173
0
174
0
175
1
176
1
 91
33
178
0
145
0.0
301
CELL_VALUE
 90
4
  1
Cavity
304
ACVALUE_END
170
5
140
0.125
171
1
172
0
173
0
174
0
175
2
176
1
 91
33
178
0
145
0.0
301
CELL_VALUE
 90
4
  1
T-2A
304
ACVALUE_END
170
5
140
0.125
171
1
172
0
173
1
174
0
175
1
176
1
 91
1
178
0
145
0.0
170
1
171
1
172
0
173
0
174
0
175
1
176
1
 91
33
178
0
145
0.0
301
CELL_VALUE
 90
4
  1
Body Features
304
ACVALUE_END
170
5
140
0.125
171
1
172
0
173
0
174
0
175
2
176
1
 91
33
178
0
145
0.0
301
CELL_VALUE
 90
4
  1
Through port 1 with reverse flow check
304
ACVALUE_END
170
5
140
0.125
171
1
172
0
173
1
174
0
175
1
176
1
 91
1
178
0
145
0.0
170
1
171
1
172
0
173
0
174
0
175
1
176
1
 91
33
178
0
145
0.0
301
CELL_VALUE
 90
4
  1
Body Type
304
ACVALUE_END
170
5
140
0.125
171
1
172
0
173
0
174
0
175
2
176
1
 91
33
178
0
145
0.0
301
CELL_VALUE
 90
4
  1
Line mount
304
ACVALUE_END
170
5
140
0.125
171
1
172
0
173
1
174
0
175
1
176
1
 91
1
178
0
145
0.0
170
1
171
1
172
0
173
0
174
0
175
1
176
1
 91
33
178
0
145
0.0
301
CELL_VALUE
 90
4
  1
Interface
304
ACVALUE_END
170
5
140
0.125
171
1
172
0
173
0
174
0
175
2
176
1
 91
33
178
0
145
0.0
301
CELL_VALUE
 90
4
  1
None
304
ACVALUE_END
170
5
140
0.125
171
1
172
0
173
1
174
0
175
1
176
1
 91
1
178
0
145
0.0
170
1
171
1
172
0
173
0
174
0
175
1
176
1
 91
33
178
0
145
0.0
301
CELL_VALUE
 90
4
  1
Open Cavity Quantity
304
ACVALUE_END
170
5
140
0.125
171
1
172
0
173
0
174
0
175
2
176
1
 91
33
178
0
145
0.0
301
CELL_VALUE
 90
4
  1
1
304
ACVALUE_END
170
5
140
0.125
171
1
172
0
173
1
174
0
175
1
176
1
 91
1
178
0
145
0.0
170
1
171
1
172
0
173
0
174
0
175
1
176
1
 91
33
178
0
145
0.0
301
CELL_VALUE
 90
4
  1
Weight
304
ACVALUE_END
170
5
140
0.125
171
1
172
0
173
0
174
0
175
1
176
1
 91
33
178
0
145
0.0
301
CELL_VALUE
 90
4
  1
3.098 lb.
304
ACVALUE_END
170
5
140
0.125
171
1
172
0
173
0
174
0
175
1
176
1
 91
33
178
0
145
0.0
301
CELL_VALUE
 90
4
  1
1,405 kg.
304
ACVALUE_END
170
5
140
0.125
171
1
172
0
173
0
174
0
175
1
176
1
 91
33
178
0
145
0.0
301
CELL_VALUE
 90
4
  1
Mounting Hole Thread
304
ACVALUE_END
170
5
140
0.125
171
1
172
0
173
0
174
0
175
1
176
1
 91
33
178
0
145
0.0
301
CELL_VALUE
 90
4
  1
.375-16 UNC - 2B in.
304
ACVALUE_END
170
5
140
0.125
171
1
172
0
173
0
174
0
175
1
176
1
 91
33
178
0
145
0.0
301
CELL_VALUE
 90
4
  1
 
304
ACVALUE_END
170
5
140
0.125
171
1
172
0
173
0
174
0
175
1
176
1
 91
33
178
0
145
0.0
301
CELL_VALUE
 90
4
  1
Mounting Hole Depth
304
ACVALUE_END
170
5
140
0.125
171
1
172
0
173
0
174
0
175
1
176
1
 91
33
178
0
145
0.0
301
CELL_VALUE
 90
4
  1
.62 in.
304
ACVALUE_END
170
5
140
0.125
171
1
172
0
173
0
174
0
175
1
176
1
 91
33
178
0
145
0.0
301
CELL_VALUE
 90
4
  1
15,7 mm
304
ACVALUE_END
170
5
140
0.125
171
1
172
0
173
0
174
0
175
1
176
1
 91
33
178
0
145
0.0
301
CELL_VALUE
 90
4
  1
Mounting Hole Quantity
304
ACVALUE_END
170
5
140
0.125
171
1
172
0
173
0
174
0
175
2
176
1
 91
33
178
0
145
0.0
301
CELL_VALUE
 90
4
  1
2
304
ACVALUE_END
170
5
140
0.125
171
1
172
0
173
1
174
0
175
1
176
1
 91
1
178
0
145
0.0
170
1
171
1
172
0
173
0
174
0
175
1
176
1
 91
33
178
0
145
0.0
301
CELL_VALUE
 90
4
  1
Includes integral cartridge(s)
304
ACVALUE_END
170
5
140
0.125
171
1
172
0
173
0
174
0
175
2
176
1
 91
33
178
0
145
0.0
301
CELL_VALUE
 90
4
  1
Yes (see Included Components)
304
ACVALUE_END
170
5
140
0.125
171
1
172
0
173
1
174
0
175
1
176
1
 91
1
178
0
145
0.0
170
1
  0
ACAD_TABLE
  5
296
100
AcDbEntity
  8
0
 62
2
  6
CONTINUOUS
100
AcDbBlockReference
  2
*T3
 10
0.52125
 20
1.959
 30
0.0
100
AcDbTable
342
       382
343
211
 11
1.0
 21
0.0
 31
0.0
 90
22
 91
5
 92
3
 93
16
 94
0
 95
0
 96
0
 41
0.05
141
0.34375
141
0.344
141
0.25
141
0.25
141
0.25
142
1.3
142
2.0
142
1.3
171
1
172
0
173
0
174
0
175
3
176
1
 91
33
178
0
145
0.0
301
CELL_VALUE
 90
4
  1
Port Headings
304
ACVALUE_END
170
5
140
0.145
171
1
172
0
173
1
174
0
175
1
176
1
 91
1
178
0
145
0.0
170
1
171
1
172
0
173
1
174
0
175
1
176
1
 91
1
178
0
145
0.0
170
1
171
1
172
0
173
0
174
0
175
1
176
1
 91
33
178
0
145
0.0
301
CELL_VALUE
 90
4
  1
Product
304
ACVALUE_END
170
5
140
0.145
171
1
172
0
173
0
174
0
175
1
176
1
 91
33
178
0
145
0.0
301
CELL_VALUE
 90
4
  1
Port
304
ACVALUE_END
170
5
140
0.145
171
1
172
0
173
0
174
0
175
1
176
1
 91
33
178
0
145
0.0
301
CELL_VALUE
 90
4
  1
Size
304
ACVALUE_END
170
5
140
0.145
171
1
172
0
173
0
174
0
175
1
176
1
 91
33
178
0
145
0.0
301
CELL_VALUE
 90
4
  1
B7C
304
ACVALUE_END
170
5
140
0.125
171
1
172
0
173
0
174
0
175
1
176
1
 91
33
178
0
145
0.0
301
CELL_VALUE
 90
4
  1
Ports 1 &  2
304
ACVALUE_END
170
5
140
0.125
171
1
172
0
173
0
174
0
175
1
176
1
 91
33
178
0
145
0.0
301
CELL_VALUE
 90
4
  1
1/2" NPTF
304
ACVALUE_END
170
5
140
0.125
171
1
172
0
173
0
174
0
175
1
176
1
 91
33
178
0
145
0.0
301
CELL_VALUE
 90
4
  1
B7C
304
ACVALUE_END
170
5
140
0.125
171
1
172
0
173
0
174
0
175
1
176
1
 91
33
178
0
145
0.0
301
CELL_VALUE
 90
4
  1
Port 3
304
ACVALUE_END
170
5
140
0.125
171
1
172
0
173
0
174
0
175
1
176
1
 91
33
178
0
145
0.0
301
CELL_VALUE
 90
4
  1
1/4" NPTF
304
ACVALUE_END
170
5
140
0.125
171
1
172
0
173
0
174
0
175
1
176
1
 91
33
178
0
145
0.0
301
CELL_VALUE
 90
4
  1
B7C
304
ACVALUE_END
170
5
140
0.125
171
1
172
0
173
0
174
0
175
1
176
1
 91
33
178
0
145
0.0
301
CELL_VALUE
 90
4
  1
Gage Port
304
ACVALUE_END
170
5
140
0.125
171
1
172
0
173
0
174
0
175
1
176
1
 91
33
178
0
145
0.0
301
CELL_VALUE
 90
4
  1
1/4" NPTF
304
ACVALUE_END
170
5
140
0.125
  0
MTEXT
  5
297
100
AcDbEntity
  8
0
100
AcDbMText
 62
2
  6
CONTINUOUS
  7
STANDARD
 71
1
 72
1
 10
0.52125
 20
5.75995
 30
0.0
 11
1.0
 21
0.0
 31
0.0
 44
0.6
  3
Notes\P \P1. Important: Carefully consider\P   the maximum system pressure. The\P   pressure rating of the manifold is\P   dependent on the manifold material,\P   with the port type/size a secondary\P   consideration. Manifolds\P   constructed of alu
  3
minum are not\P   rated for pressures higher than\P   3000 psi (210 bar), regardless of\P   the port type/size specified.\P2. This drawing is for reference\P   only. It is generated by an\P   automated process and does not fall\P   under Sun's docume
  1
nt control\P   process.
 40
0.1
 41
3.04
  0
LINE
  5
298
100
AcDbEntity
  8
0
100
AcDbLine
 62
7
  6
CONTINUOUS
 10
0.30125
 20
0.30125
 11
0.30125
 21
16.69875
  0
LINE
  5
299
100
AcDbEntity
  8
0
100
AcDbLine
 62
7
  6
CONTINUOUS
 10
0.30125
 20
0.30125
 11
21.69875
 21
0.30125
  0
LINE
  5
29A
100
AcDbEntity
  8
0
100
AcDbLine
 62
7
  6
CONTINUOUS
 10
0.30125
 20
16.69875
 11
21.69875
 21
16.69875
  0
LINE
  5
29B
100
AcDbEntity
  8
0
100
AcDbLine
 62
7
  6
CONTINUOUS
 10
21.69875
 20
0.30125
 11
21.69875
 21
16.69875
  0
LINE
  5
29C
100
AcDbEntity
  8
0
100
AcDbLine
 62
7
  6
CONTINUOUS
 10
9.1952352814
 20
10.3113915045
 11
9.906987068
 21
10.9988909778
  0
LINE
  5
29D
100
AcDbEntity
  8
0
100
AcDbLine
 62
7
  6
CONTINUOUS
 10
12.093012932
 20
6.2467264078
 11
9.1952352814
 21
6.4476879704
  0
LINE
  5
29E
100
AcDbEntity
  8
0
100
AcDbLine
 62
7
  6
CONTINUOUS
 10
10.9606797533
 20
6.0930435321
 11
10.9913538314
 21
6.0778911248
  0
LINE
  5
29F
100
AcDbEntity
  8
0
100
AcDbLine
 62
7
  6
CONTINUOUS
 10
9.1952352814
 20
6.4476879704
 11
9.1952352814
 21
10.3113915045
  0
LINE
  5
2A0
100
AcDbEntity
  8
0
100
AcDbLine
 62
4
  6
CONTINUOUS
 10
9.7052441397
 20
9.4569171538
 11
9.6979996958
 21
9.4477603014
  0
LINE
  5
2A1
100
AcDbEntity
  8
0
100
AcDbLine
 62
4
  6
CONTINUOUS
 10
9.7124885837
 20
9.3984591982
 11
9.6979996958
 21
9.3801454891
  0
LINE
  5
2A2
100
AcDbEntity
  8
0
100
AcDbLine
 62
4
  6
CONTINUOUS
 10
9.654533032
 20
9.4797525007
 11
9.6690219199
 21
9.4884069492
  0
LINE
  5
2A3
100
AcDbEntity
  8
0
100
AcDbLine
 62
4
  6
CONTINUOUS
 10
9.6979996958
 20
9.4477603014
 11
9.6835108078
 21
9.439105846
  0
LINE
  5
2A4
100
AcDbEntity
  8
0
100
AcDbLine
 62
4
  6
CONTINUOUS
 10
9.6979996958
 20
9.3801454891
 11
9.6835108078
 21
9.371491038
  0
LINE
  5
2A5
100
AcDbEntity
  8
0
100
AcDbLine
 62
4
  6
CONTINUOUS
 10
9.7052441397
 20
9.4665764102
 11
9.7052441397
 21
9.4569171538
  0
LINE
  5
2A6
100
AcDbEntity
  8
0
100
AcDbLine
 62
4
  6
CONTINUOUS
 10
9.7124885837
 20
9.408118458
 11
9.7124885837
 21
9.3984591982
  0
LINE
  5
2A7
100
AcDbEntity
  8
0
100
AcDbLine
 62
4
  6
CONTINUOUS
 10
11.9022425688
 20
7.2857697007
 11
11.8877536809
 21
7.2867745085
  0
LINE
  5
2A8
100
AcDbEntity
  8
0
100
AcDbLine
 62
4
  6
CONTINUOUS
 10
11.8949981249
 20
7.3442276563
 11
11.9239759007
 21
7.3422180407
  0
LINE
  5
2A9
100
AcDbEntity
  8
0
100
AcDbLine
 62
4
  6
CONTINUOUS
 10
11.8877536809
 20
7.4026856119
 11
11.9022425688
 21
7.4016808041
  0
LINE
  5
2AA
100
AcDbEntity
  8
0
100
AcDbLine
 62
4
  6
CONTINUOUS
 10
10.8345495909
 20
9.1373940323
 11
10.7903929782
 21
9.1183779958
  0
LINE
  5
2AB
100
AcDbEntity
  8
0
100
AcDbLine
 62
4
  6
CONTINUOUS
 10
10.5571907809
 20
7.9392863697
 11
10.5571907809
 21
7.8620123007
  0
LINE
  5
2AC
100
AcDbEntity
  8
0
100
AcDbLine
 62
7
  6
CONTINUOUS
 10
12.093012932
 20
10.1104299418
 11
12.8047647186
 21
10.7979294152
  0
LINE
  5
2AD
100
AcDbEntity
  8
0
100
AcDbLine
 62
4
  6
CONTINUOUS
 10
11.2057411084
 20
9.369416031
 11
11.18918238
 21
9.3540056543
  0
LINE
  5
2AE
100
AcDbEntity
  8
0
100
AcDbLine
 62
4
  6
CONTINUOUS
 10
10.914583445
 20
9.076647899
 11
10.8980247166
 21
9.0612375206
  0
LINE
  5
2AF
100
AcDbEntity
  8
0
100
AcDbLine
 62
4
  6
CONTINUOUS
 10
11.2140204727
 20
9.3108863039
 11
11.1974617442
 21
9.2954759254
  0
LINE
  5
2B0
100
AcDbEntity
  8
0
100
AcDbLine
 62
4
  6
CONTINUOUS
 10
11.3382109395
 20
9.3850673132
 11
11.3547696748
 21
9.4004776894
  0
LINE
  5
2B1
100
AcDbEntity
  8
0
100
AcDbLine
 62
4
  6
CONTINUOUS
 10
11.8877536809
 20
7.2867745085
 11
11.873264793
 21
7.2974385752
  0
LINE
  5
2B2
100
AcDbEntity
  8
0
100
AcDbLine
 62
4
  6
CONTINUOUS
 10
9.654533032
 20
9.3831599124
 11
9.647288588
 21
9.3933215752
  0
LINE
  5
2B3
100
AcDbEntity
  8
0
100
AcDbLine
 62
4
  6
CONTINUOUS
 10
9.6979996958
 20
9.4284417819
 11
9.7124885837
 21
9.408118458
  0
LINE
  5
2B4
100
AcDbEntity
  8
0
100
AcDbLine
 62
4
  6
CONTINUOUS
 10
9.6979996958
 20
9.4767380773
 11
9.7052441397
 21
9.4665764102
  0
LINE
  5
2B5
100
AcDbEntity
  8
0
100
AcDbLine
 62
4
  6
CONTINUOUS
 10
10.7223641954
 20
9.7804773658
 11
10.7223641954
 21
9.7225218128
  0
LINE
  5
2B6
100
AcDbEntity
  8
0
100
AcDbLine
 62
4
  6
CONTINUOUS
 10
10.7803197484
 20
9.7185025816
 11
10.7803197484
 21
9.6605470285
  0
LINE
  5
2B7
100
AcDbEntity
  8
0
100
AcDbLine
 62
4
  6
CONTINUOUS
 10
10.8092975249
 20
9.6585374129
 11
10.8092975249
 21
9.7744485189
  0
LINE
  5
2B8
100
AcDbEntity
  8
0
100
AcDbLine
 62
4
  6
CONTINUOUS
 10
10.9614998457
 20
9.0568355054
 11
10.9946173026
 21
9.170449908
  0
LINE
  5
2B9
100
AcDbEntity
  8
0
100
AcDbLine
 62
4
  6
CONTINUOUS
 10
11.3340712876
 20
9.1303499657
 11
11.3506300091
 21
9.1457603429
  0
LINE
  5
2BA
100
AcDbEntity
  8
0
100
AcDbLine
 62
4
  6
CONTINUOUS
 10
11.7535590472
 20
9.051582202
 11
11.709402438
 21
9.0325661669
  0
LINE
  5
2BB
100
AcDbEntity
  8
0
100
AcDbLine
 62
4
  6
CONTINUOUS
 10
11.9022425688
 20
7.4016808041
 11
11.9167314568
 21
7.39101674
  0
LINE
  5
2BC
100
AcDbEntity
  8
0
100
AcDbLine
 62
4
  6
CONTINUOUS
 10
10.8566278989
 20
9.0641083996
 11
10.8566278989
 21
9.1800195056
  0
LINE
  5
2BD
100
AcDbEntity
  8
0
100
AcDbLine
 62
7
  6
CONTINUOUS
 10
10.8639357255
 20
6.3319632015
 11
10.8639357255
 21
6.1531623047
  0
LINE
  5
2BE
100
AcDbEntity
  8
0
100
AcDbLine
 62
4
  6
CONTINUOUS
 10
10.8672530779
 20
9.7704292877
 11
10.8672530779
 21
9.6545181817
  0
LINE
  5
2BF
100
AcDbEntity
  8
0
100
AcDbLine
 62
7
  6
CONTINUOUS
 10
10.8783837737
 20
6.330961226
 11
10.8783837737
 21
6.1392065857
  0
LINE
  5
2C0
100
AcDbEntity
  8
0
100
AcDbLine
 62
4
  6
CONTINUOUS
 10
10.8962308544
 20
9.7684196721
 11
10.8962308544
 21
9.652508566
  0
LINE
  5
2C1
100
AcDbEntity
  8
0
100
AcDbLine
 62
4
  6
CONTINUOUS
 10
10.914583445
 20
9.1594415464
 11
10.914583445
 21
9.076647899
  0
LINE
  5
2C2
100
AcDbEntity
  8
0
100
AcDbLine
 62
4
  6
CONTINUOUS
 10
10.9541864074
 20
9.7644004408
 11
10.9541864074
 21
9.6484893348
  0
LINE
  5
2C3
100
AcDbEntity
  8
0
100
AcDbLine
 62
4
  6
CONTINUOUS
 10
11.4306638391
 20
9.1236512495
 11
11.4472225606
 21
9.1390616267
  0
LINE
  5
2C4
100
AcDbEntity
  8
0
100
AcDbLine
 62
4
  6
CONTINUOUS
 10
11.4886193921
 20
9.0368383709
 11
11.4720606706
 21
9.0214279919
  0
LINE
  5
2C5
100
AcDbEntity
  8
0
100
AcDbLine
 62
4
  6
CONTINUOUS
 10
11.5796923882
 20
9.0305224371
 11
11.5631336666
 21
9.0151120582
  0
LINE
  5
2C6
100
AcDbEntity
  8
0
100
AcDbLine
 62
4
  6
CONTINUOUS
 10
9.6690219199
 20
9.3724958457
 11
9.654533032
 21
9.3831599124
  0
LINE
  5
2C7
100
AcDbEntity
  8
0
100
AcDbLine
 62
4
  6
CONTINUOUS
 10
9.6835108078
 20
9.439105846
 11
9.6979996958
 21
9.4284417819
  0
LINE
  5
2C8
100
AcDbEntity
  8
0
100
AcDbLine
 62
4
  6
CONTINUOUS
 10
9.6835108078
 20
9.4874021414
 11
9.6979996958
 21
9.4767380773
  0
LINE
  5
2C9
100
AcDbEntity
  8
0
100
AcDbLine
 62
4
  6
CONTINUOUS
 10
11.873264793
 20
7.2974385752
 11
11.858775905
 21
7.3177618999
  0
LINE
  5
2CA
100
AcDbEntity
  8
0
100
AcDbLine
 62
4
  6
CONTINUOUS
 10
11.0700975134
 20
9.6404508723
 11
11.0700975134
 21
9.7563619783
  0
LINE
  5
2CB
100
AcDbEntity
  8
0
100
AcDbLine
 62
4
  6
CONTINUOUS
 10
11.0939696871
 20
9.0476486907
 11
11.0939696871
 21
9.1635597967
  0
LINE
  5
2CC
100
AcDbEntity
  8
0
100
AcDbLine
 62
4
  6
CONTINUOUS
 10
11.1280530664
 20
9.636431641
 11
11.1280530664
 21
9.694387194
  0
LINE
  5
2CD
100
AcDbEntity
  8
0
100
AcDbLine
 62
4
  6
CONTINUOUS
 10
11.1560649197
 20
9.2983468049
 11
11.1560649197
 21
9.414257911
  0
LINE
  5
2CE
100
AcDbEntity
  8
0
100
AcDbLine
 62
4
  6
CONTINUOUS
 10
11.1602046009
 20
9.0430552838
 11
11.1602046009
 21
9.1589663899
  0
LINE
  5
2CF
100
AcDbEntity
  8
0
100
AcDbLine
 62
4
  6
CONTINUOUS
 10
11.1753834347
 20
9.6331492688
 11
11.1753834347
 21
9.6911048219
  0
LINE
  5
2D0
100
AcDbEntity
  8
0
100
AcDbLine
 62
4
  6
CONTINUOUS
 10
11.2057411084
 20
9.3942541271
 11
11.2057411084
 21
9.369416031
  0
LINE
  5
2D1
100
AcDbEntity
  8
0
100
AcDbLine
 62
4
  6
CONTINUOUS
 10
11.2140204727
 20
9.3357243983
 11
11.2140204727
 21
9.3108863039
  0
LINE
  5
2D2
100
AcDbEntity
  8
0
100
AcDbLine
 62
4
  6
CONTINUOUS
 10
11.3050934826
 20
9.403922745
 11
11.2719760257
 21
9.2903083424
  0
LINE
  5
2D3
100
AcDbEntity
  8
0
100
AcDbLine
 62
4
  6
CONTINUOUS
 10
11.858775905
 20
8.8439247964
 11
11.873264793
 21
8.852579245
  0
LINE
  5
2D4
100
AcDbEntity
  8
0
100
AcDbLine
 62
4
  6
CONTINUOUS
 10
11.9022425688
 20
8.802273334
 11
11.873264793
 21
8.7849644335
  0
LINE
  5
2D5
100
AcDbEntity
  8
0
100
AcDbLine
 62
4
  6
CONTINUOUS
 10
11.9167314568
 20
7.39101674
 11
11.9239759007
 21
7.3808550729
  0
LINE
  5
2D6
100
AcDbEntity
  8
0
100
AcDbLine
 62
4
  6
CONTINUOUS
 10
10.9946173026
 20
9.170449908
 11
11.0277347733
 21
9.0522420976
  0
LINE
  5
2D7
100
AcDbEntity
  8
0
100
AcDbLine
 62
4
  6
CONTINUOUS
 10
11.2333389877
 20
9.6870855906
 11
11.2333389877
 21
9.5711744846
  0
LINE
  5
2D8
100
AcDbEntity
  8
0
100
AcDbLine
 62
4
  6
CONTINUOUS
 10
11.2471379296
 20
9.3831038802
 11
11.2471379296
 21
9.4079419763
  0
LINE
  5
2D9
100
AcDbEntity
  8
0
100
AcDbLine
 62
4
  6
CONTINUOUS
 10
11.2719760231
 20
9.6264505501
 11
11.2719760231
 21
9.6844061031
  0
LINE
  5
2DA
100
AcDbEntity
  8
0
100
AcDbLine
 62
7
  6
CONTINUOUS
 10
11.2920704918
 20
6.3022719546
 11
11.2920704918
 21
6.0321367201
  0
LINE
  5
2DB
100
AcDbEntity
  8
0
100
AcDbLine
 62
4
  6
CONTINUOUS
 10
11.3299315761
 20
9.7383424249
 11
11.3299315761
 21
9.6224313188
  0
LINE
  5
2DC
100
AcDbEntity
  8
0
100
AcDbLine
 62
4
  6
CONTINUOUS
 10
11.3340712876
 20
9.0475563183
 11
11.3340712876
 21
9.1303499657
  0
LINE
  5
2DD
100
AcDbEntity
  8
0
100
AcDbLine
 62
4
  6
CONTINUOUS
 10
11.3382109395
 20
9.3022736657
 11
11.3382109395
 21
9.3850673132
  0
LINE
  5
2DE
100
AcDbEntity
  8
0
100
AcDbLine
 62
7
  6
CONTINUOUS
 10
11.3459913004
 20
6.2985325339
 11
11.3459913004
 21
6.0283972993
  0
LINE
  5
2DF
100
AcDbEntity
  8
0
100
AcDbLine
 62
4
  6
CONTINUOUS
 10
11.3685686114
 20
9.6777073843
 11
11.3685686114
 21
9.6197518313
  0
LINE
  5
2E0
100
AcDbEntity
  8
0
100
AcDbLine
 62
4
  6
CONTINUOUS
 10
11.4306638391
 20
9.0408576021
 11
11.4306638391
 21
9.1236512495
  0
LINE
  5
2E1
100
AcDbEntity
  8
0
100
AcDbLine
 62
7
  6
CONTINUOUS
 10
12.4488888253
 20
9.4206389832
 11
12.449940316
 21
9.4216359824
  0
LINE
  5
2E2
100
AcDbEntity
  8
0
100
AcDbLine
 62
4
  6
CONTINUOUS
 10
11.8515314611
 20
8.7381753532
 11
11.9094870128
 21
8.7341561221
  0
LINE
  5
2E3
100
AcDbEntity
  8
0
100
AcDbLine
 62
4
  6
CONTINUOUS
 10
11.873264793
 20
8.852579245
 11
11.8877536809
 21
8.8515744372
  0
LINE
  5
2E4
100
AcDbEntity
  8
0
100
AcDbLine
 62
4
  6
CONTINUOUS
 10
10.7903929782
 20
9.1183779958
 11
10.8345495909
 21
9.093237418
  0
LINE
  5
2E5
100
AcDbEntity
  8
0
100
AcDbLine
 62
4
  6
CONTINUOUS
 10
10.8980247166
 20
9.1771486266
 11
10.914583445
 21
9.1594415464
  0
LINE
  5
2E6
100
AcDbEntity
  8
0
100
AcDbLine
 62
4
  6
CONTINUOUS
 10
11.4651611998
 20
9.6130531126
 11
11.4651611998
 21
9.6516901479
  0
LINE
  5
2E7
100
AcDbEntity
  8
0
100
AcDbLine
 62
4
  6
CONTINUOUS
 10
11.4886193921
 20
9.1196320183
 11
11.4886193921
 21
9.0368383709
  0
LINE
  5
2E8
100
AcDbEntity
  8
0
100
AcDbLine
 62
4
  6
CONTINUOUS
 10
11.5217368352
 20
9.0179829382
 11
11.5217368352
 21
9.1338940442
  0
LINE
  5
2E9
100
AcDbEntity
  8
0
100
AcDbLine
 62
4
  6
CONTINUOUS
 10
11.5231167528
 20
9.6669894343
 11
11.5231167528
 21
9.6090338813
  0
LINE
  5
2EA
100
AcDbEntity
  8
0
100
AcDbLine
 62
4
  6
CONTINUOUS
 10
11.5617537881
 20
9.6643099468
 11
11.5617537881
 21
9.6063543938
  0
LINE
  5
2EB
100
AcDbEntity
  8
0
100
AcDbLine
 62
4
  6
CONTINUOUS
 10
11.5796923882
 20
9.1133160846
 11
11.5796923882
 21
9.0305224371
  0
LINE
  5
2EC
100
AcDbEntity
  8
0
100
AcDbLine
 62
4
  6
CONTINUOUS
 10
11.6197093412
 20
9.6023351626
 11
11.6197093412
 21
9.6602907156
  0
LINE
  5
2ED
100
AcDbEntity
  8
0
100
AcDbLine
 62
4
  6
CONTINUOUS
 10
11.6266088303
 20
9.0107100407
 11
11.6266088303
 21
9.1266211467
  0
LINE
  5
2EE
100
AcDbEntity
  8
0
100
AcDbLine
 62
4
  6
CONTINUOUS
 10
11.8515314611
 20
8.8347679371
 11
11.858775905
 21
8.8439247964
  0
LINE
  5
2EF
100
AcDbEntity
  8
0
100
AcDbLine
 62
4
  6
CONTINUOUS
 10
11.873264793
 20
8.7849644335
 11
11.858775905
 21
8.7666507252
  0
LINE
  5
2F0
100
AcDbEntity
  8
0
100
AcDbLine
 62
4
  6
CONTINUOUS
 10
11.9094870128
 20
8.8114301933
 11
11.9022425688
 21
8.802273334
  0
LINE
  5
2F1
100
AcDbEntity
  8
0
100
AcDbLine
 62
4
  6
CONTINUOUS
 10
11.5631336666
 20
9.0151120582
 11
11.5217368352
 21
9.0179829382
  0
LINE
  5
2F2
100
AcDbEntity
  8
0
100
AcDbLine
 62
4
  6
CONTINUOUS
 10
11.4720606706
 20
9.0214279919
 11
11.4472225606
 21
9.0231505207
  0
LINE
  5
2F3
100
AcDbEntity
  8
0
100
AcDbLine
 62
4
  6
CONTINUOUS
 10
11.3837474522
 20
9.0275525344
 11
11.3506300091
 21
9.0298492369
  0
LINE
  5
2F4
100
AcDbEntity
  8
0
100
AcDbLine
 62
4
  6
CONTINUOUS
 10
10.8980247166
 20
9.0612375206
 11
10.8566278989
 21
9.0641083996
  0
LINE
  5
2F5
100
AcDbEntity
  8
0
100
AcDbLine
 62
4
  6
CONTINUOUS
 10
11.1602046009
 20
9.0430552838
 11
11.2098807931
 21
9.0396102282
  0
LINE
  5
2F6
100
AcDbEntity
  8
0
100
AcDbLine
 62
4
  6
CONTINUOUS
 10
11.6266088303
 20
9.0107100407
 11
11.6762849949
 21
9.0072649869
  0
LINE
  5
2F7
100
AcDbEntity
  8
0
100
AcDbLine
 62
4
  6
CONTINUOUS
 10
10.972538998
 20
9.0891873979
 11
11.0166956072
 21
9.0861251267
  0
LINE
  5
2F8
100
AcDbEntity
  8
0
100
AcDbLine
 62
4
  6
CONTINUOUS
 10
11.6597262734
 20
9.0746482589
 11
11.6266088303
 21
9.0769449613
  0
LINE
  5
2F9
100
AcDbEntity
  8
0
100
AcDbLine
 62
4
  6
CONTINUOUS
 10
11.1933220716
 20
9.1069935001
 11
11.1602046009
 21
9.1092902045
  0
LINE
  5
2FA
100
AcDbEntity
  8
0
100
AcDbLine
 62
4
  6
CONTINUOUS
 10
11.3506300091
 20
9.0298492369
 11
11.3340712876
 21
9.0475563183
  0
LINE
  5
2FB
100
AcDbEntity
  8
0
100
AcDbLine
 62
4
  6
CONTINUOUS
 10
11.858775905
 20
7.3177618999
 11
11.8515314611
 21
7.3472420797
  0
LINE
  5
2FC
100
AcDbEntity
  8
0
100
AcDbLine
 62
4
  6
CONTINUOUS
 10
11.6583463765
 20
9.5996556751
 11
11.6583463765
 21
9.7155667811
  0
LINE
  5
2FD
100
AcDbEntity
  8
0
100
AcDbLine
 62
4
  6
CONTINUOUS
 10
11.6969834118
 20
9.5969761876
 11
11.6969834118
 21
9.6549317406
  0
LINE
  5
2FE
100
AcDbEntity
  8
0
100
AcDbLine
 62
4
  6
CONTINUOUS
 10
11.7356204472
 20
9.6522522531
 11
11.7356204472
 21
9.5942967001
  0
LINE
  5
2FF
100
AcDbEntity
  8
0
100
AcDbLine
 62
4
  6
CONTINUOUS
 10
11.8322130355
 20
9.6455535343
 11
11.8322130355
 21
9.6165757578
  0
LINE
  5
300
100
AcDbEntity
  8
0
100
AcDbLine
 62
4
  6
CONTINUOUS
 10
11.858775905
 20
8.7666507252
 11
11.8515314611
 21
8.7381753532
  0
LINE
  5
301
100
AcDbEntity
  8
0
100
AcDbLine
 62
4
  6
CONTINUOUS
 10
10.8566278989
 20
9.1800195056
 11
10.8980247166
 21
9.1771486266
  0
LINE
  5
302
100
AcDbEntity
  8
0
100
AcDbLine
 62
4
  6
CONTINUOUS
 10
11.0608522164
 20
9.1658565011
 11
11.1270871302
 21
9.1612630942
  0
LINE
  5
303
100
AcDbEntity
  8
0
100
AcDbLine
 62
4
  6
CONTINUOUS
 10
11.1602046009
 20
9.1589663899
 11
11.2098807931
 21
9.1555213342
  0
LINE
  5
304
100
AcDbEntity
  8
0
100
AcDbLine
 62
4
  6
CONTINUOUS
 10
11.3506300091
 20
9.1457603429
 11
11.3837474522
 21
9.1434636405
  0
LINE
  5
305
100
AcDbEntity
  8
0
100
AcDbLine
 62
4
  6
CONTINUOUS
 10
11.4472225606
 20
9.1390616267
 11
11.4720606706
 21
9.137339098
  0
LINE
  5
306
100
AcDbEntity
  8
0
100
AcDbLine
 62
4
  6
CONTINUOUS
 10
11.5217368352
 20
9.1338940442
 11
11.5631336666
 21
9.1310231642
  0
LINE
  5
307
100
AcDbEntity
  8
0
100
AcDbLine
 62
4
  6
CONTINUOUS
 10
11.6266088303
 20
9.1266211467
 11
11.6762849949
 21
9.123176093
  0
LINE
  5
308
100
AcDbEntity
  8
0
100
AcDbLine
 62
4
  6
CONTINUOUS
 10
9.6835108078
 20
9.371491038
 11
9.6690219199
 21
9.3724958457
  0
LINE
  5
309
100
AcDbEntity
  8
0
100
AcDbLine
 62
4
  6
CONTINUOUS
 10
11.3878871317
 20
9.2822698799
 11
11.3547696748
 21
9.2845665834
  0
LINE
  5
30A
100
AcDbEntity
  8
0
100
AcDbLine
 62
4
  6
CONTINUOUS
 10
11.1974617442
 20
9.2954759254
 11
11.1560649197
 21
9.2983468049
  0
LINE
  5
30B
100
AcDbEntity
  8
0
100
AcDbLine
 62
4
  6
CONTINUOUS
 10
9.6690219199
 20
9.4401106538
 11
9.6835108078
 21
9.439105846
  0
LINE
  5
30C
100
AcDbEntity
  8
0
100
AcDbLine
 62
4
  6
CONTINUOUS
 10
11.8877536809
 20
8.8515744372
 11
11.9022425688
 21
8.8409103731
  0
LINE
  5
30D
100
AcDbEntity
  8
0
100
AcDbLine
 62
4
  6
CONTINUOUS
 10
11.18918238
 20
9.4092014158
 11
11.2057411084
 21
9.3942541271
  0
LINE
  5
30E
100
AcDbEntity
  8
0
100
AcDbLine
 62
4
  6
CONTINUOUS
 10
11.4472225606
 20
9.0231505207
 11
11.4306638391
 21
9.0408576021
  0
LINE
  5
30F
100
AcDbEntity
  8
0
100
AcDbLine
 62
4
  6
CONTINUOUS
 10
11.1974617442
 20
9.3534314784
 11
11.2140204727
 21
9.3357243983
  0
LINE
  5
310
100
AcDbEntity
  8
0
100
AcDbLine
 62
4
  6
CONTINUOUS
 10
11.4720606706
 20
9.137339098
 11
11.4886193921
 21
9.1196320183
  0
LINE
  5
311
100
AcDbEntity
  8
0
100
AcDbLine
 62
4
  6
CONTINUOUS
 10
11.3547696748
 20
9.2845665834
 11
11.3382109395
 21
9.3022736657
  0
LINE
  5
312
100
AcDbEntity
  8
0
100
AcDbLine
 62
4
  6
CONTINUOUS
 10
11.5631336666
 20
9.1310231642
 11
11.5796923882
 21
9.1133160846
  0
LINE
  5
313
100
AcDbEntity
  8
0
100
AcDbLine
 62
4
  6
CONTINUOUS
 10
11.8901685885
 20
9.6125565266
 11
11.8901685885
 21
9.5835787501
  0
LINE
  5
314
100
AcDbEntity
  8
0
100
AcDbLine
 62
4
  6
CONTINUOUS
 10
11.9094870128
 20
8.830748706
 11
11.9094870128
 21
8.8114301933
  0
LINE
  5
315
100
AcDbEntity
  8
0
100
AcDbLine
 62
7
  6
CONTINUOUS
 10
11.911097708
 20
6.2593422714
 11
11.911097708
 21
6.0675876311
  0
LINE
  5
316
100
AcDbEntity
  8
0
100
AcDbLine
 62
4
  6
CONTINUOUS
 10
11.9239759007
 20
7.3422180407
 11
11.9239759007
 21
7.3035810068
  0
LINE
  5
317
100
AcDbEntity
  8
0
100
AcDbLine
 62
7
  6
CONTINUOUS
 10
11.9505704684
 20
6.2566048261
 11
11.9505704684
 21
6.0778039294
  0
LINE
  5
318
100
AcDbEntity
  8
0
100
AcDbLine
 62
4
  6
CONTINUOUS
 10
11.1560649197
 20
9.356302358
 11
11.1974617442
 21
9.3534314784
  0
LINE
  5
319
100
AcDbEntity
  8
0
100
AcDbLine
 62
4
  6
CONTINUOUS
 10
9.6690219199
 20
9.4884069492
 11
9.6835108078
 21
9.4874021414
  0
LINE
  5
31A
100
AcDbEntity
  8
0
100
AcDbLine
 62
4
  6
CONTINUOUS
 10
11.1560649197
 20
9.414257911
 11
11.1809030141
 21
9.4125353833
  0
LINE
  5
31B
100
AcDbEntity
  8
0
100
AcDbLine
 62
4
  6
CONTINUOUS
 10
11.2471379296
 20
9.4079419763
 11
11.3050934826
 21
9.403922745
  0
LINE
  5
31C
100
AcDbEntity
  8
0
100
AcDbLine
 62
4
  6
CONTINUOUS
 10
11.3547696748
 20
9.4004776894
 11
11.3878871317
 21
9.398180986
  0
LINE
  5
31D
100
AcDbEntity
  8
0
100
AcDbLine
 62
4
  6
CONTINUOUS
 10
11.1809030141
 20
9.4125353833
 11
11.18918238
 21
9.4092014158
  0
LINE
  5
31E
100
AcDbEntity
  8
0
100
AcDbLine
 62
4
  6
CONTINUOUS
 10
11.709402438
 20
9.0767227813
 11
11.7535590472
 21
9.051582202
  0
LINE
  5
31F
100
AcDbEntity
  8
0
100
AcDbLine
 62
4
  6
CONTINUOUS
 10
11.9022425688
 20
8.8409103731
 11
11.9094870128
 21
8.830748706
  0
LINE
  5
320
100
AcDbEntity
  8
0
100
AcDbLine
 62
7
  6
CONTINUOUS
 10
12.093012932
 20
10.1104299418
 11
12.093012932
 21
6.2467264078
  0
LINE
  5
321
100
AcDbEntity
  8
0
100
AcDbLine
 62
7
  6
CONTINUOUS
 10
12.101990158
 20
6.2553977428
 11
12.101990158
 21
6.2240641268
  0
LINE
  5
322
100
AcDbEntity
  8
0
100
AcDbLine
 62
4
  6
CONTINUOUS
 10
11.8515314611
 20
7.3472420797
 11
11.858775905
 21
7.3757174516
  0
LINE
  5
323
100
AcDbEntity
  8
0
100
AcDbLine
 62
4
  6
CONTINUOUS
 10
11.2333389877
 20
9.5711744846
 11
11.1947019524
 21
9.5738539721
  0
LINE
  5
324
100
AcDbEntity
  8
0
100
AcDbLine
 62
4
  6
CONTINUOUS
 10
11.8901685885
 20
9.5835787501
 11
11.8322130355
 21
9.5875979813
  0
LINE
  5
325
100
AcDbEntity
  8
0
100
AcDbLine
 62
4
  6
CONTINUOUS
 10
11.5231167528
 20
9.6090338813
 11
11.4651611998
 21
9.6130531126
  0
LINE
  5
326
100
AcDbEntity
  8
0
100
AcDbLine
 62
4
  6
CONTINUOUS
 10
11.3299315761
 20
9.6224313188
 11
11.2719760231
 21
9.6264505501
  0
LINE
  5
327
100
AcDbEntity
  8
0
100
AcDbLine
 62
4
  6
CONTINUOUS
 10
11.2333389877
 20
9.6291300376
 11
11.1753834347
 21
9.6331492688
  0
LINE
  5
328
100
AcDbEntity
  8
0
100
AcDbLine
 62
4
  6
CONTINUOUS
 10
10.8672530779
 20
9.6545181817
 11
10.8092975249
 21
9.6585374129
  0
LINE
  5
329
100
AcDbEntity
  8
0
100
AcDbLine
 62
4
  6
CONTINUOUS
 10
10.7803197484
 20
9.6605470285
 11
10.7223641954
 21
9.6645662598
  0
LINE
  5
32A
100
AcDbEntity
  8
0
100
AcDbLine
 62
4
  6
CONTINUOUS
 10
11.5617537881
 20
9.6063543938
 11
11.6197093412
 21
9.6023351626
  0
LINE
  5
32B
100
AcDbEntity
  8
0
100
AcDbLine
 62
4
  6
CONTINUOUS
 10
11.7356204472
 20
9.5942967001
 11
11.7935760002
 21
9.5902774688
  0
LINE
  5
32C
100
AcDbEntity
  8
0
100
AcDbLine
 62
4
  6
CONTINUOUS
 10
11.8322130355
 20
9.6165757578
 11
11.8901685885
 21
9.6125565266
  0
LINE
  5
32D
100
AcDbEntity
  8
0
100
AcDbLine
 62
4
  6
CONTINUOUS
 10
11.4651611998
 20
9.6516901479
 11
11.5231167528
 21
9.6476709167
  0
LINE
  5
32E
100
AcDbEntity
  8
0
100
AcDbLine
 62
4
  6
CONTINUOUS
 10
11.5231167528
 20
9.6669894343
 11
11.4844797175
 21
9.6696689218
  0
LINE
  5
32F
100
AcDbEntity
  8
0
100
AcDbLine
 62
4
  6
CONTINUOUS
 10
11.1280530664
 20
9.694387194
 11
11.0700975134
 21
9.6984064253
  0
LINE
  5
330
100
AcDbEntity
  8
0
100
AcDbLine
 62
4
  6
CONTINUOUS
 10
10.7223641954
 20
9.7225218128
 11
10.7803197484
 21
9.7185025816
  0
LINE
  5
331
100
AcDbEntity
  8
0
100
AcDbLine
 62
4
  6
CONTINUOUS
 10
11.2719760231
 20
9.6844061031
 11
11.3299315761
 21
9.6803868718
  0
LINE
  5
332
100
AcDbEntity
  8
0
100
AcDbLine
 62
4
  6
CONTINUOUS
 10
11.3685686114
 20
9.6777073843
 11
11.4265241645
 21
9.6736881531
  0
LINE
  5
333
100
AcDbEntity
  8
0
100
AcDbLine
 62
4
  6
CONTINUOUS
 10
11.7356204472
 20
9.6522522531
 11
11.7935760002
 21
9.6482330218
  0
LINE
  5
334
100
AcDbEntity
  8
0
100
AcDbLine
 62
4
  6
CONTINUOUS
 10
11.8322130355
 20
9.6455535343
 11
11.8901685885
 21
9.6415343031
  0
LINE
  5
335
100
AcDbEntity
  8
0
100
AcDbLine
 62
4
  6
CONTINUOUS
 10
11.6897389677
 20
9.684411921
 11
11.704227856
 21
9.6834071132
  0
LINE
  5
336
100
AcDbEntity
  8
0
100
AcDbLine
 62
4
  6
CONTINUOUS
 10
10.7803197484
 20
9.7764581346
 11
10.7223641954
 21
9.7804773658
  0
LINE
  5
337
100
AcDbEntity
  8
0
100
AcDbLine
 62
4
  6
CONTINUOUS
 10
10.8962308544
 20
9.7684196721
 11
10.9541864074
 21
9.7644004408
  0
LINE
  5
338
100
AcDbEntity
  8
0
100
AcDbLine
 62
4
  6
CONTINUOUS
 10
11.858775905
 20
7.3757174516
 11
11.873264793
 21
7.3940311634
  0
LINE
  5
339
100
AcDbEntity
  8
0
100
AcDbLine
 62
4
  6
CONTINUOUS
 10
11.873264793
 20
7.3940311634
 11
11.8877536809
 21
7.4026856119
  0
LINE
  5
33A
100
AcDbEntity
  8
0
100
AcDbLine
 62
4
  6
CONTINUOUS
 10
11.9239759007
 20
7.3035810068
 11
11.9167314568
 21
7.2944241518
  0
LINE
  5
33B
100
AcDbEntity
  8
0
100
AcDbLine
 62
7
  6
CONTINUOUS
 10
12.4488888253
 20
7.8268612753
 11
12.4495736629
 21
7.8275105878
  0
LINE
  5
33C
100
AcDbEntity
  8
0
100
AcDbLine
 62
4
  6
CONTINUOUS
 10
11.9167314568
 20
7.2944241518
 11
11.9022425688
 21
7.2857697007
  0
LINE
  5
33D
100
AcDbEntity
  8
0
100
AcDbLine
 62
7
  6
CONTINUOUS
 10
12.8047647186
 20
10.7979294152
 11
12.8047647186
 21
6.9342258811
  0
LINE
  5
33E
100
AcDbEntity
  8
0
100
AcDbLine
 62
7
  6
CONTINUOUS
 10
9.1952352814
 20
10.3113915045
 11
12.093012932
 21
10.1104299418
  0
LINE
  5
33F
100
AcDbEntity
  8
0
100
AcDbLine
 62
7
  6
CONTINUOUS
 10
12.093012932
 20
6.2467264078
 11
12.8047647186
 21
6.9342258811
  0
LINE
  5
340
100
AcDbEntity
  8
0
100
AcDbLine
 62
7
  6
CONTINUOUS
 10
9.906987068
 20
10.9988909778
 11
12.8047647186
 21
10.7979294152
  0
LINE
  5
341
100
AcDbEntity
  8
0
100
AcDbLine
 62
7
  6
CONTINUOUS
 10
11.993789989
 20
6.0873844177
 11
11.9745720521
 21
6.0778911248
  0
ARC
  5
342
100
AcDbEntity
  8
0
100
AcDbCircle
 62
7
  6
CONTINUOUS
 10
11.4754098701
 20
8.2888209465
 40
2.2641254892
100
AcDbArc
 50
266.0354973614
 51
266.723157899
  0
ARC
  5
343
100
AcDbEntity
  8
0
100
AcDbCircle
 62
7
  6
CONTINUOUS
 10
11.4704807006
 20
8.2168073924
 40
2.1919434639
100
AcDbArc
 50
265.3313245689
 51
266.0338890315
  0
ARC
  5
344
100
AcDbEntity
  8
0
100
AcDbCircle
 62
7
  6
CONTINUOUS
 10
10.3750776862
 20
8.2858343079
 40
1.4797473544
100
AcDbArc
 50
94.6017184427
 51
97.0205571565
  0
ARC
  5
345
100
AcDbEntity
  8
0
100
AcDbCircle
 62
7
  6
CONTINUOUS
 10
10.399824296
 20
6.425902689
 40
1.241322644
100
AcDbArc
 50
86.0382071361
 51
87.0260542049
  0
ARC
  5
346
100
AcDbEntity
  8
0
100
AcDbCircle
 62
7
  6
CONTINUOUS
 10
11.6918982701
 20
6.9958732439
 40
0.9538147475
100
AcDbArc
 50
283.286087793
 51
285.7355389587
  0
ARC
  5
347
100
AcDbEntity
  8
0
100
AcDbCircle
 62
7
  6
CONTINUOUS
 10
11.292960393
 20
6.7638065231
 40
0.7485539414
100
AcDbArc
 50
243.6649403382
 51
246.2656701867
  0
ARC
  5
348
100
AcDbEntity
  8
0
100
AcDbCircle
 62
7
  6
CONTINUOUS
 10
11.1144141459
 20
7.7828289964
 40
0.4956198553
100
AcDbArc
 50
194.0999026593
 51
196.584582925
  0
ARC
  5
349
100
AcDbEntity
  8
0
100
AcDbCircle
 62
7
  6
CONTINUOUS
 10
10.2680511451
 20
9.903656146
 40
0.1664889011
100
AcDbArc
 50
266.0333547238
 51
267.4058938215
  0
SPLINE
  5
34A
100
AcDbEntity
  8
0
100
AcDbSpline
 62
7
  6
CONTINUOUS
 70
0
 71
3
 72
23
 73
19
 74
0
 42
0.0000001
 43
0.0000001
 44
0.0000000001
 40
0.0
 40
0.0
 40
0.0
 40
0.0
 40
0.0771587943
 40
0.1531525983
 40
0.2277645257
 40
0.3008156151
 40
0.3721376111
 40
0.441561383
 40
0.5089207464
 40
0.5740613042
 40
0.63683572
 40
0.6971076841
 40
0.7547490656
 40
0.8096460692
 40
0.8616960538
 40
0.9108140941
 40
0.9569307292
 40
1.0
 40
1.0
 40
1.0
 40
1.0
 10
11.3393184903
 20
6.0058067941
 30
0.0
 10
11.3301534433
 20
6.0064423923
 30
0.0
 10
11.3119703791
 20
6.0078328957
 30
0.0
 10
11.2849623021
 20
6.0102961787
 30
0.0
 10
11.258480909
 20
6.013116919
 30
0.0
 10
11.2325993064
 20
6.0162867756
 30
0.0
 10
11.2073852324
 20
6.0197977265
 30
0.0
 10
11.1829051555
 20
6.0236398281
 30
0.0
 10
11.1592245322
 20
6.0278034314
 30
0.0
 10
11.1364065683
 20
6.0322766783
 30
0.0
 10
11.114511851
 20
6.0370481605
 30
0.0
 10
11.0935984624
 20
6.042104402
 30
0.0
 10
11.0737219224
 20
6.0474324864
 30
0.0
 10
11.0549348003
 20
6.0530174093
 30
0.0
 10
11.0372867986
 20
6.0588448579
 30
0.0
 10
11.0208240635
 20
6.064898592
 30
0.0
 10
11.0055902911
 20
6.0711629568
 30
0.0
 10
10.9959476466
 20
6.0756218382
 30
0.0
 10
10.9913499131
 20
6.077893075
 30
0.0
  0
SPLINE
  5
34B
100
AcDbEntity
  8
0
100
AcDbSpline
 62
7
  6
CONTINUOUS
 70
0
 71
3
 72
9
 73
5
 74
0
 42
0.0000001
 43
0.0000001
 44
0.0000000001
 40
0.0
 40
0.0
 40
0.0
 40
0.0
 40
0.5197971894
 40
1.0
 40
1.0
 40
1.0
 40
1.0
 10
10.8783837737
 20
6.1392065857
 30
0.0
 10
10.8756894377
 20
6.1414151571
 30
0.0
 10
10.8706559681
 20
6.1458523799
 30
0.0
 10
10.8660271484
 20
6.1507159696
 30
0.0
 10
10.8639357255
 20
6.1531623047
 30
0.0
  0
SPLINE
  5
34C
100
AcDbEntity
  8
0
100
AcDbSpline
 62
7
  6
CONTINUOUS
 70
0
 71
3
 72
23
 73
19
 74
0
 42
0.0000001
 43
0.0000001
 44
0.0000000001
 40
0.0
 40
0.0
 40
0.0
 40
0.0
 40
0.0811307684
 40
0.1602256514
 40
0.2371394166
 40
0.3117306989
 40
0.3838655188
 40
0.453421346
 40
0.5202899008
 40
0.5843906942
 40
0.6456690168
 40
0.7041129182
 40
0.7597463028
 40
0.812646452
 40
0.862931511
 40
0.9107732172
 40
0.9563797285
 40
1.0
 40
1.0
 40
1.0
 40
1.0
 10
12.101990158
 20
6.2240641268
 30
0.0
 10
12.0998126287
 20
6.2197959911
 30
0.0
 10
12.0954535153
 20
6.2113965685
 30
0.0
 10
12.0888060296
 20
6.1990687215
 30
0.0
 10
12.0821293873
 20
6.1871976316
 30
0.0
 10
12.0754246772
 20
6.1758167714
 30
0.0
 10
12.068692797
 20
6.1649598113
 30
0.0
 10
12.061936137
 20
6.154659258
 30
0.0
 10
12.0551562937
 20
6.1449468717
 30
0.0
 10
12.0483571322
 20
6.1358509623
 30
0.0
 10
12.041540895
 20
6.1273975573
 30
0.0
 10
12.0347126429
 20
6.1196067436
 30
0.0
 10
12.0278751094
 20
6.1124951705
 30
0.0
 10
12.0210340182
 20
6.1060715198
 30
0.0
 10
12.0141924756
 20
6.1003405885
 30
0.0
 10
12.0073560938
 20
6.0952983038
 30
0.0
 10
12.0005288115
 20
6.0909372542
 30
0.0
 10
11.9958916924
 20
6.0884221598
 30
0.0
 10
11.9935817591
 20
6.0872815924
 30
0.0
  0
SPLINE
  5
34D
100
AcDbEntity
  8
0
100
AcDbSpline
 62
7
  6
CONTINUOUS
 70
0
 71
3
 72
9
 73
5
 74
0
 42
0.0000001
 43
0.0000001
 44
0.0000000001
 40
0.0
 40
0.0
 40
0.0
 40
0.0
 40
0.4956217049
 40
1.0
 40
1.0
 40
1.0
 40
1.0
 10
10.9608871377
 20
6.0929411444
 30
0.0
 10
10.9468730274
 20
6.0998659732
 30
0.0
 10
10.9190002855
 20
6.1146631356
 30
0.0
 10
10.8918874988
 20
6.1307977529
 30
0.0
 10
10.8783837737
 20
6.1392065857
 30
0.0
  0
SPLINE
  5
34E
100
AcDbEntity
  8
0
100
AcDbSpline
 62
7
  6
CONTINUOUS
 70
0
 71
3
 72
29
 73
25
 74
0
 42
0.0000001
 43
0.0000001
 44
0.0000000001
 40
0.0
 40
0.0
 40
0.0
 40
0.0
 40
0.0193646742
 40
0.0398580369
 40
0.0614684275
 40
0.0841775651
 40
0.1079628328
 40
0.1327976805
 40
0.1586509133
 40
0.1854891319
 40
0.2132749098
 40
0.2419685558
 40
0.271528042
 40
0.3019083628
 40
0.3649423952
 40
0.4306770921
 40
0.4986914915
 40
0.5685439808
 40
0.6397765617
 40
0.7119190669
 40
0.7844942972
 40
0.8570174477
 40
0.929015682
 40
1.0
 40
1.0
 40
1.0
 40
1.0
 10
11.9745754488
 20
6.0778928173
 30
0.0
 10
11.9708443525
 20
6.0760497001
 30
0.0
 10
11.9630847927
 20
6.0724163123
 30
0.0
 10
11.9509252141
 20
6.0672487835
 30
0.0
 10
11.9379345904
 20
6.062218153
 30
0.0
 10
11.9241360877
 20
6.0573330215
 30
0.0
 10
11.909553845
 20
6.0526021582
 30
0.0
 10
11.8942135745
 20
6.0480342667
 30
0.0
 10
11.878142442
 20
6.0436370147
 30
0.0
 10
11.8613688304
 20
6.0394188196
 30
0.0
 10
11.8439225163
 20
6.0353868128
 30
0.0
 10
11.8258344326
 20
6.0315483575
 30
0.0
 10
11.8071366512
 20
6.0279104287
 30
0.0
 10
11.7811174125
 20
6.0232786998
 30
0.0
 10
11.7473110516
 20
6.0180600937
 30
0.0
 10
11.7053502098
 20
6.0127630416
 30
0.0
 10
11.6618097525
 20
6.0083956295
 30
0.0
 10
11.6169989874
 20
6.0049893209
 30
0.0
 10
11.5712359857
 20
6.002568815
 30
0.0
 10
11.5248456802
 20
6.0011515697
 30
0.0
 10
11.4781582153
 20
6.0007479429
 30
0.0
 10
11.4315039497
 20
6.00136044
 30
0.0
 10
11.3852162468
 20
6.0029852448
 30
0.0
 10
11.3545366187
 20
6.0047514133
 30
0.0
 10
11.3393184903
 20
6.0058067941
 30
0.0
  0
SPLINE
  5
34F
100
AcDbEntity
  8
0
100
AcDbSpline
 62
7
  6
CONTINUOUS
 70
0
 71
3
 72
21
 73
17
 74
0
 42
0.0000001
 43
0.0000001
 44
0.0000000001
 40
0.0
 40
0.0
 40
0.0
 40
0.0
 40
0.1269266306
 40
0.1902356571
 40
0.2534226618
 40
0.3164750211
 40
0.379381614
 40
0.442133702
 40
0.5047247465
 40
0.5671521045
 40
0.6294167402
 40
0.6915228504
 40
0.7534784743
 40
0.8152934295
 40
0.8769787052
 40
1.0
 40
1.0
 40
1.0
 40
1.0
 10
11.911097708
 20
6.0675876311
 30
0.0
 10
11.888090125
 20
6.059863216
 30
0.0
 10
11.8533297195
 20
6.0490754177
 30
0.0
 10
11.8064857988
 20
6.0366558602
 30
0.0
 10
11.7711816123
 20
6.0284301665
 30
0.0
 10
11.7357034769
 20
6.0213724483
 30
0.0
 10
11.7000838678
 20
6.0155582025
 30
0.0
 10
11.6643639321
 20
6.0110492478
 30
0.0
 10
11.6285914101
 20
6.0078859578
 30
0.0
 10
11.5928177927
 20
6.0060839549
 30
0.0
 10
11.5570945854
 20
6.0056350556
 30
0.0
 10
11.5214698686
 20
6.0065057879
 30
0.0
 10
11.48598543
 20
6.0086401915
 30
0.0
 10
11.4506741255
 20
6.0119674014
 30
0.0
 10
11.4039029161
 20
6.0178775434
 30
0.0
 10
11.3690704787
 20
6.0238499458
 30
0.0
 10
11.3459913004
 20
6.0283972993
 30
0.0
  0
SPLINE
  5
350
100
AcDbEntity
  8
0
100
AcDbSpline
 62
7
  6
CONTINUOUS
 70
0
 71
3
 72
15
 73
11
 74
0
 42
0.0000001
 43
0.0000001
 44
0.0000000001
 40
0.0
 40
0.0
 40
0.0
 40
0.0
 40
0.1200350229
 40
0.2408049341
 40
0.3626322888
 40
0.4858903489
 40
0.6109646446
 40
0.7381990118
 40
0.8678398
 40
1.0
 40
1.0
 40
1.0
 40
1.0
 10
11.2920704918
 20
6.0321367201
 30
0.0
 10
11.2798608402
 20
6.0308538856
 30
0.0
 10
11.2552964001
 20
6.0288945323
 30
0.0
 10
11.2181955322
 20
6.0280476813
 30
0.0
 10
11.1807799186
 20
6.0295543679
 30
0.0
 10
11.1431125009
 20
6.0336541974
 30
0.0
 10
11.1052860934
 20
6.040522705
 30
0.0
 10
11.0674152922
 20
6.0502400003
 30
0.0
 10
11.0296211977
 20
6.0627734454
 30
0.0
 10
11.0047804133
 20
6.0728204409
 30
0.0
 10
10.9923992996
 20
6.0782441864
 30
0.0
  0
LINE
  5
351
100
AcDbEntity
  8
0
100
AcDbLine
 62
7
  6
CONTINUOUS
 10
10.9923992996
 20
6.0782441864
 11
10.9916701709
 21
6.0785640804
  0
SPLINE
  5
352
100
AcDbEntity
  8
0
100
AcDbSpline
 62
7
  6
CONTINUOUS
 70
0
 71
3
 72
10
 73
6
 74
0
 42
0.0000001
 43
0.0000001
 44
0.0000000001
 40
0.0
 40
0.0
 40
0.0
 40
0.0
 40
0.5114800979
 40
0.7581744319
 40
1.0
 40
1.0
 40
1.0
 40
1.0
 10
11.9935817591
 20
6.0872815924
 30
0.0
 10
11.9903953157
 20
6.0857082338
 30
0.0
 10
11.9855414235
 20
6.0836244133
 30
0.0
 10
11.9789425038
 20
6.0814421077
 30
0.0
 10
11.975662184
 20
6.0805612487
 30
0.0
 10
11.9740276619
 20
6.0801722202
 30
0.0
  0
SPLINE
  5
353
100
AcDbEntity
  8
0
100
AcDbSpline
 62
7
  6
CONTINUOUS
 70
0
 71
3
 72
11
 73
7
 74
0
 42
0.0000001
 43
0.0000001
 44
0.0000000001
 40
0.0
 40
0.0
 40
0.0
 40
0.0
 40
0.2545574775
 40
0.5052872671
 40
0.7534080087
 40
1.0
 40
1.0
 40
1.0
 40
1.0
 10
11.9740276619
 20
6.0801722202
 30
0.0
 10
11.9720762329
 20
6.0797077654
 30
0.0
 10
11.9681698081
 20
6.0789182288
 30
0.0
 10
11.9622797852
 20
6.0781399576
 30
0.0
 10
11.9564141427
 20
6.0777564414
 30
0.0
 10
11.9525128653
 20
6.0777490953
 30
0.0
 10
11.9505704684
 20
6.0778039294
 30
0.0
  0
SPLINE
  5
354
100
AcDbEntity
  8
0
100
AcDbSpline
 62
7
  6
CONTINUOUS
 70
0
 71
3
 72
34
 73
30
 74
0
 42
0.0000001
 43
0.0000001
 44
0.0000000001
 40
0.0
 40
0.0
 40
0.0
 40
0.0
 40
0.0845017631
 40
0.1673004612
 40
0.2480789935
 40
0.3265291774
 40
0.4023563354
 40
0.4391988087
 40
0.4752818393
 40
0.5105731496
 40
0.5450416022
 40
0.5786574517
 40
0.6113923142
 40
0.6432192789
 40
0.6741131428
 40
0.7040503539
 40
0.733009313
 40
0.7609705008
 40
0.7879165715
 40
0.8138327837
 40
0.8387070832
 40
0.8625305056
 40
0.8852976526
 40
0.9070069835
 40
0.9276616105
 40
0.9472699157
 40
0.9658463994
 40
0.9834129555
 40
1.0
 40
1.0
 40
1.0
 40
1.0
 10
10.2324639978
 20
10.4382775687
 30
0.0
 10
10.2193604665
 20
10.4391863017
 30
0.0
 10
10.1934327726
 20
10.4412154358
 30
0.0
 10
10.155048951
 20
10.4449362153
 30
0.0
 10
10.1176784394
 20
10.4492912454
 30
0.0
 10
10.0814783098
 20
10.4542620865
 30
0.0
 10
10.0521388861
 20
10.4589436365
 30
0.0
 10
10.0293733183
 20
10.4629917495
 30
0.0
 10
10.0128486122
 20
10.4661389553
 30
0.0
 10
9.9967269648
 20
10.4694229732
 30
0.0
 10
9.9810252899
 20
10.4728403952
 30
0.0
 10
9.9657600741
 20
10.4763875859
 30
0.0
 10
9.9509473374
 20
10.4800608069
 30
0.0
 10
9.936602623
 20
10.4838562034
 30
0.0
 10
9.9227409682
 20
10.4877697391
 30
0.0
 10
9.9093769035
 20
10.4917973142
 30
0.0
 10
9.896524422
 20
10.4959346757
 30
0.0
 10
9.8841969658
 20
10.5001774462
 30
0.0
 10
9.8724074244
 20
10.5045211965
 30
0.0
 10
9.8611680893
 20
10.5089613268
 30
0.0
 10
9.8504906662
 20
10.5134931934
 30
0.0
 10
9.8403862529
 20
10.5181120743
 30
0.0
 10
9.8308652993
 20
10.5228131238
 30
0.0
 10
9.8219376454
 20
10.5275915178
 30
0.0
 10
9.8136124453
 20
10.5324423446
 30
0.0
 10
9.8058982261
 20
10.5373606554
 30
0.0
 10
9.7988027598
 20
10.5423416938
 30
0.0
 10
9.7923335356
 20
10.5473802623
 30
0.0
 10
9.7883302099
 20
10.5508726379
 30
0.0
 10
9.7864427672
 20
10.5526291091
 30
0.0
  0
SPLINE
  5
355
100
AcDbEntity
  8
0
100
AcDbSpline
 62
7
  6
CONTINUOUS
 70
0
 71
3
 72
29
 73
25
 74
0
 42
0.0000001
 43
0.0000001
 44
0.0000000001
 40
0.0
 40
0.0
 40
0.0
 40
0.0
 40
0.0307842288
 40
0.0615509776
 40
0.092302206
 40
0.123047449
 40
0.1537942783
 40
0.1845510467
 40
0.2153267738
 40
0.2461305695
 40
0.2769715861
 40
0.3078586338
 40
0.3388001155
 40
0.3698037788
 40
0.4320068522
 40
0.4945243212
 40
0.557369771
 40
0.6205250643
 40
0.6839346734
 40
0.7475015578
 40
0.8110857408
 40
0.8745069826
 40
0.9375539589
 40
1.0
 40
1.0
 40
1.0
 40
1.0
 10
10.2565341538
 20
9.7375660708
 30
0.0
 10
10.2536755668
 20
9.7377643144
 30
0.0
 10
10.2479691598
 20
9.7383085468
 30
0.0
 10
10.2394663226
 20
9.7395659403
 30
0.0
 10
10.2310431656
 20
9.7412603898
 30
0.0
 10
10.2227204048
 20
9.7433861684
 30
0.0
 10
10.2145171795
 20
9.7459362319
 30
0.0
 10
10.20645199
 20
9.7489020755
 30
0.0
 10
10.1985422767
 20
9.7522740286
 30
0.0
 10
10.1908043746
 20
9.7560412697
 30
0.0
 10
10.1832534899
 20
9.7601920146
 30
0.0
 10
10.1759038415
 20
9.7647137366
 30
0.0
 10
10.16876835
 20
9.7695933967
 30
0.0
 10
10.1595475297
 20
9.7765647117
 30
0.0
 10
10.1486110569
 20
9.7861122721
 30
0.0
 10
10.1365380496
 20
9.7987553419
 30
0.0
 10
10.1255661902
 20
9.8124780559
 30
0.0
 10
10.115757999
 20
9.8271536331
 30
0.0
 10
10.1071699187
 20
9.8426508676
 30
0.0
 10
10.0998552205
 20
9.8588313992
 30
0.0
 10
10.0938638903
 20
9.875547919
 30
0.0
 10
10.0892415533
 20
9.89264371
 30
0.0
 10
10.0860275757
 20
9.9099505055
 30
0.0
 10
10.0848365908
 20
9.9215865772
 30
0.0
 10
10.0844880715
 20
9.9273887122
 30
0.0
  0
SPLINE
  5
356
100
AcDbEntity
  8
0
100
AcDbSpline
 62
7
  6
CONTINUOUS
 70
0
 71
3
 72
15
 73
11
 74
0
 42
0.0000001
 43
0.0000001
 44
0.0000000001
 40
0.0
 40
0.0
 40
0.0
 40
0.0
 40
0.1229437192
 40
0.2466443538
 40
0.3709553472
 40
0.4957829599
 40
0.6210847117
 40
0.7468608712
 40
0.873146416
 40
1.0
 40
1.0
 40
1.0
 40
1.0
 10
10.4844487512
 20
7.4916806086
 30
0.0
 10
10.4812499646
 20
7.4987501731
 30
0.0
 10
10.4754332394
 20
7.5132129062
 30
0.0
 10
10.468524522
 20
7.5356095107
 30
0.0
 10
10.4634430351
 20
7.5586128805
 30
0.0
 10
10.4602192486
 20
7.5820502508
 30
0.0
 10
10.4588698014
 20
7.6057620376
 30
0.0
 10
10.4594019368
 20
7.6295983349
 30
0.0
 10
10.461813481
 20
7.6534150423
 30
0.0
 10
10.4646607787
 20
7.6691554224
 30
0.0
 10
10.466388668
 20
7.6769730908
 30
0.0
  0
SPLINE
  5
357
100
AcDbEntity
  8
0
100
AcDbSpline
 62
7
  6
CONTINUOUS
 70
0
 71
3
 72
21
 73
17
 74
0
 42
0.0000001
 43
0.0000001
 44
0.0000000001
 40
0.0
 40
0.0
 40
0.0
 40
0.0
 40
0.0616532248
 40
0.1233294793
 40
0.1850515406
 40
0.2468416599
 40
0.308721339
 40
0.3707111018
 40
0.4328302458
 40
0.4950966345
 40
0.5575265709
 40
0.6201345732
 40
0.6829331473
 40
0.7459331674
 40
0.8725262663
 40
1.0
 40
1.0
 40
1.0
 40
1.0
 10
9.9116873991
 20
9.8789400306
 30
0.0
 10
9.9140552466
 20
9.8812272099
 30
0.0
 10
9.9189159205
 20
9.8856759265
 30
0.0
 10
9.9265564676
 20
9.8919488352
 30
0.0
 10
9.9345288174
 20
9.8978070953
 30
0.0
 10
9.9428125985
 20
9.9032356955
 30
0.0
 10
9.9513869828
 20
9.9082210757
 30
0.0
 10
9.9602303528
 20
9.9127506572
 30
0.0
 10
9.969320447
 20
9.9168130105
 30
0.0
 10
9.9786343305
 20
9.9203979688
 30
0.0
 10
9.9881485596
 20
9.9234965309
 30
0.0
 10
9.9978391063
 20
9.9261008618
 30
0.0
 10
10.0076818337
 20
9.9282044771
 30
0.0
 10
10.0209940398
 20
9.9303378324
 30
0.0
 10
10.0378984222
 20
9.93172382
 30
0.0
 10
10.0514885275
 20
9.931458598
 30
0.0
 10
10.0582789289
 20
9.930987682
 30
0.0
  0
SPLINE
  5
358
100
AcDbEntity
  8
0
100
AcDbSpline
 62
7
  6
CONTINUOUS
 70
0
 71
3
 72
43
 73
39
 74
0
 42
0.0000001
 43
0.0000001
 44
0.0000000001
 40
0.0
 40
0.0
 40
0.0
 40
0.0
 40
0.0149707076
 40
0.029944383
 40
0.0449239838
 40
0.0599124227
 40
0.0899215162
 40
0.1199993976
 40
0.1350733962
 40
0.1501720739
 40
0.1804466459
 40
0.2108445735
 40
0.2413788994
 40
0.2720596037
 40
0.3028934247
 40
0.33388376
 40
0.3650306426
 40
0.3963307906
 40
0.4277777246
 40
0.4593619452
 40
0.4910711664
 40
0.522890595
 40
0.5548032514
 40
0.5867903235
 40
0.6188315474
 40
0.6509056092
 40
0.6829905603
 40
0.7150642423
 40
0.7471047141
 40
0.779090676
 40
0.8110018864
 40
0.8428195596
 40
0.8745267563
 40
0.9061087062
 40
0.9375532196
 40
0.9532230626
 40
0.9688557475
 40
1.0
 40
1.0
 40
1.0
 40
1.0
 10
10.2048704586
 20
9.5754146106
 30
0.0
 10
10.2065952706
 20
9.5770806614
 30
0.0
 10
10.209980358
 20
9.5804810314
 30
0.0
 10
10.2148548613
 20
9.5857770425
 30
0.0
 10
10.2195203763
 20
9.5912620639
 30
0.0
 10
10.2254555329
 20
9.5988194626
 30
0.0
 10
10.2323240117
 20
9.608706754
 30
0.0
 10
10.2384096721
 20
9.6191098421
 30
0.0
 10
10.2427927792
 20
9.6277106353
 30
0.0
 10
10.2468542337
 20
9.6365025961
 30
0.0
 10
10.2513049014
 20
9.6478083309
 30
0.0
 10
10.2556085215
 20
9.6617842949
 30
0.0
 10
10.2588580798
 20
9.6761092016
 30
0.0
 10
10.2610361359
 20
9.6907059667
 30
0.0
 10
10.2621313019
 20
9.7054967172
 30
0.0
 10
10.2621378919
 20
9.7204024175
 30
0.0
 10
10.2610560516
 20
9.7353435034
 30
0.0
 10
10.2588917203
 20
9.7502402456
 30
0.0
 10
10.2556566001
 20
9.7650131864
 30
0.0
 10
10.2513680863
 20
9.779583554
 30
0.0
 10
10.2460491717
 20
9.7938736781
 30
0.0
 10
10.239728321
 20
9.8078073981
 30
0.0
 10
10.2324393184
 20
9.8213104635
 30
0.0
 10
10.224221087
 20
9.8343109247
 30
0.0
 10
10.2151174819
 20
9.8467395114
 30
0.0
 10
10.2051770582
 20
9.8585299975
 30
0.0
 10
10.1944528138
 20
9.8696195502
 30
0.0
 10
10.1830019096
 20
9.8799490612
 30
0.0
 10
10.1708853672
 20
9.8894634589
 30
0.0
 10
10.1581677506
 20
9.8981119989
 30
0.0
 10
10.1449168116
 20
9.9058485337
 30
0.0
 10
10.1312031872
 20
9.9126317509
 30
0.0
 10
10.1170998276
 20
9.9184254209
 30
0.0
 10
10.1026823534
 20
9.9231984718
 30
0.0
 10
10.0904542003
 20
9.9263081119
 30
0.0
 10
10.0805926493
 20
9.9282606783
 30
0.0
 10
10.0707154178
 20
9.9298511139
 30
0.0
 10
10.0632557742
 20
9.9306425366
 30
0.0
 10
10.0582789289
 20
9.930987682
 30
0.0
  0
SPLINE
  5
359
100
AcDbEntity
  8
0
100
AcDbSpline
 62
7
  6
CONTINUOUS
 70
0
 71
3
 72
23
 73
19
 74
0
 42
0.0000001
 43
0.0000001
 44
0.0000000001
 40
0.0
 40
0.0
 40
0.0
 40
0.0
 40
0.0616482097
 40
0.123319447
 40
0.1850364789
 40
0.2468215645
 40
0.3086962086
 40
0.3706809238
 40
0.4327950069
 40
0.4950563354
 40
0.5574811816
 40
0.620084074
 40
0.6828775998
 40
0.7458723259
 40
0.8090769666
 40
0.8724967557
 40
0.9361385685
 40
1.0
 40
1.0
 40
1.0
 40
1.0
 10
10.2994972202
 20
7.5939494345
 30
0.0
 10
10.3034417826
 20
7.5977595732
 30
0.0
 10
10.3115390164
 20
7.6051706416
 30
0.0
 10
10.3242672654
 20
7.6156204917
 30
0.0
 10
10.3375482205
 20
7.6253796243
 30
0.0
 10
10.3513479637
 20
7.634423027
 30
0.0
 10
10.3656318343
 20
7.6427280525
 30
0.0
 10
10.380363807
 20
7.6502737618
 30
0.0
 10
10.3955067725
 20
7.657041165
 30
0.0
 10
10.4110225633
 20
7.6630132584
 30
0.0
 10
10.4268720854
 20
7.6681750487
 30
0.0
 10
10.4430154142
 20
7.6725135735
 30
0.0
 10
10.4594118876
 20
7.676017943
 30
0.0
 10
10.476020246
 20
7.6786793757
 30
0.0
 10
10.4927985618
 20
7.6804911765
 30
0.0
 10
10.5097049148
 20
7.6814489658
 30
0.0
 10
10.5266959918
 20
7.6815502061
 30
0.0
 10
10.5380331482
 20
7.6810474466
 30
0.0
 10
10.5437006495
 20
7.6806544041
 30
0.0
  0
SPLINE
  5
35A
100
AcDbEntity
  8
0
100
AcDbSpline
 62
7
  6
CONTINUOUS
 70
0
 71
3
 72
39
 73
35
 74
0
 42
0.0000001
 43
0.0000001
 44
0.0000000001
 40
0.0
 40
0.0
 40
0.0
 40
0.0
 40
0.0299393048
 40
0.0599022805
 40
0.0899120376
 40
0.1199905841
 40
0.1501583161
 40
0.1804335571
 40
0.2108321567
 40
0.2413671582
 40
0.2720485418
 40
0.3028830453
 40
0.333874066
 40
0.3650216372
 40
0.3963224773
 40
0.427770107
 40
0.459355027
 40
0.4910649499
 40
0.5228850821
 40
0.5547984438
 40
0.586786223
 40
0.6188281554
 40
0.6509029263
 40
0.6829885863
 40
0.7150629767
 40
0.747104156
 40
0.7790908247
 40
0.8110027395
 40
0.8428211156
 40
0.8745290113
 40
0.906111652
 40
0.937556897
 40
0.9688549576
 40
1.0
 40
1.0
 40
1.0
 40
1.0
 10
10.7879040788
 20
7.0883134775
 30
0.0
 10
10.7936502242
 20
7.0938638044
 30
0.0
 10
10.8047166579
 20
7.1054245998
 30
0.0
 10
10.8199150597
 20
7.1240189481
 30
0.0
 10
10.8336382398
 20
7.1437741659
 30
0.0
 10
10.8458114826
 20
7.1645830697
 30
0.0
 10
10.8563701781
 20
7.1863345674
 30
0.0
 10
10.8652579433
 20
7.2089120936
 30
0.0
 10
10.8724275112
 20
7.232194834
 30
0.0
 10
10.8778408061
 20
7.2560582276
 30
0.0
 10
10.8814691908
 20
7.280374679
 30
0.0
 10
10.8832935918
 20
7.3050142383
 30
0.0
 10
10.883304571
 20
7.3298453019
 30
0.0
 10
10.8815023633
 20
7.3547353103
 30
0.0
 10
10.8778968616
 20
7.3795514494
 30
0.0
 10
10.8725075506
 20
7.4041613499
 30
0.0
 10
10.8653634068
 20
7.428433786
 30
0.0
 10
10.8565027435
 20
7.4522393704
 30
0.0
 10
10.8459729829
 20
7.4754512308
 30
0.0
 10
10.8338304055
 20
7.497945676
 30
0.0
 10
10.8201398497
 20
7.5196028465
 30
0.0
 10
10.8049743662
 20
7.5403073421
 30
0.0
 10
10.7884148382
 20
7.5599488342
 30
0.0
 10
10.7705495623
 20
7.5784226572
 30
0.0
 10
10.7514737644
 20
7.5956303472
 30
0.0
 10
10.7312890998
 20
7.6114801633
 30
0.0
 10
10.7101031188
 20
7.6258875704
 30
0.0
 10
10.6880286964
 20
7.6387756854
 30
0.0
 10
10.6651834555
 20
7.6500756884
 30
0.0
 10
10.6416891024
 20
7.6597271965
 30
0.0
 10
10.6176709601
 20
7.6676785997
 30
0.0
 10
10.593256638
 20
7.6738872544
 30
0.0
 10
10.5685779822
 20
7.6783198125
 30
0.0
 10
10.5519914878
 20
7.6800794325
 30
0.0
 10
10.5437006495
 20
7.6806544041
 30
0.0
  0
SPLINE
  5
35B
100
AcDbEntity
  8
0
100
AcDbSpline
 62
7
  6
CONTINUOUS
 70
0
 71
3
 72
61
 73
57
 74
0
 42
0.0000001
 43
0.0000001
 44
0.0000000001
 40
0.0
 40
0.0
 40
0.0
 40
0.0
 40
0.007520736
 40
0.0156240064
 40
0.0243308314
 40
0.0336545627
 40
0.0436023576
 40
0.0541762911
 40
0.065374298
 40
0.0771908404
 40
0.0896173637
 40
0.1026427459
 40
0.1162536401
 40
0.1304346776
 40
0.1451686827
 40
0.1604368921
 40
0.1762190747
 40
0.1924936262
 40
0.2092377338
 40
0.2264274719
 40
0.2440378492
 40
0.2620429285
 40
0.2804159201
 40
0.2991292233
 40
0.337462144
 40
0.3768083795
 40
0.4169255651
 40
0.4575651352
 40
0.4984743559
 40
0.5393983541
 40
0.5800821394
 40
0.6202726307
 40
0.6597206676
 40
0.6981830696
 40
0.7169711587
 40
0.73542544
 40
0.7535181279
 40
0.7712222409
 40
0.788511644
 40
0.8053611137
 40
0.821746466
 40
0.8376446296
 40
0.8530337122
 40
0.8678931419
 40
0.8822038118
 40
0.8959481707
 40
0.9091104
 40
0.921676668
 40
0.9336353219
 40
0.9449771721
 40
0.9556959291
 40
0.9657887028
 40
0.9752565161
 40
0.9841051753
 40
0.9923468585
 40
1.0
 40
1.0
 40
1.0
 40
1.0
 10
12.3924588591
 20
8.5927867073
 30
0.0
 10
12.3911045507
 20
8.5944518906
 30
0.0
 10
12.3884360948
 20
8.5980306959
 30
0.0
 10
12.3846809384
 20
8.6038769259
 30
0.0
 10
12.3810329672
 20
8.610387015
 30
0.0
 10
12.3774979988
 20
8.617550322
 30
0.0
 10
12.3740813893
 20
8.6253557091
 30
0.0
 10
12.3707886099
 20
8.6337906496
 30
0.0
 10
12.3676250147
 20
8.6428415483
 30
0.0
 10
12.3645958415
 20
8.6524936911
 30
0.0
 10
12.3617061053
 20
8.6627312869
 30
0.0
 10
12.3589606222
 20
8.6735375191
 30
0.0
 10
12.3563640015
 20
8.6848945933
 30
0.0
 10
12.3539205937
 20
8.6967837589
 30
0.0
 10
12.3516344841
 20
8.7091853498
 30
0.0
 10
12.3495095173
 20
8.7220788363
 30
0.0
 10
12.3475492707
 20
8.7354428539
 30
0.0
 10
12.3457570195
 20
8.7492552364
 30
0.0
 10
12.344135773
 20
8.7634930667
 30
0.0
 10
12.3426882679
 20
8.7781327144
 30
0.0
 10
12.3414169227
 20
8.7931498721
 30
0.0
 10
12.3403238723
 20
8.8085195918
 30
0.0
 10
12.3394109418
 20
8.8242163675
 30
0.0
 10
12.3384281542
 20
8.8457187324
 30
0.0
 10
12.3376696674
 20
8.8732210519
 30
0.0
 10
12.3375007614
 20
8.906841876
 30
0.0
 10
12.3380675756
 20
8.9411167127
 30
0.0
 10
12.3393665
 20
8.9758178754
 30
0.0
 10
12.3413890441
 20
9.0107150002
 30
0.0
 10
12.3441217934
 20
9.045576358
 30
0.0
 10
12.3475466018
 20
9.080170458
 30
0.0
 10
12.3516405911
 20
9.1142676613
 30
0.0
 10
12.3563764448
 20
9.1476414771
 30
0.0
 10
12.360865645
 20
9.1748740406
 30
0.0
 10
12.3647623116
 20
9.1961260605
 30
0.0
 10
12.3678016295
 20
9.2116236867
 30
0.0
 10
12.3709754085
 20
9.2267784047
 30
0.0
 10
12.3742783684
 20
9.2415650656
 30
0.0
 10
12.3777049923
 20
9.2559591099
 30
0.0
 10
12.3812495795
 20
9.2699366366
 30
0.0
 10
12.3849062099
 20
9.2834744486
 30
0.0
 10
12.3886687736
 20
9.2965500908
 30
0.0
 10
12.3925310011
 20
9.309141877
 30
0.0
 10
12.3964864523
 20
9.3212289405
 30
0.0
 10
12.4005285127
 20
9.3327912781
 30
0.0
 10
12.4046504425
 20
9.3438097696
 30
0.0
 10
12.4088453863
 20
9.3542662172
 30
0.0
 10
12.4131063452
 20
9.3641434037
 30
0.0
 10
12.4174262368
 20
9.3734251088
 30
0.0
 10
12.4217979303
 20
9.3820961347
 30
0.0
 10
12.4262142209
 20
9.3901423761
 30
0.0
 10
12.4306679193
 20
9.3975508458
 30
0.0
 10
12.4351518378
 20
9.4043096146
 30
0.0
 10
12.439659115
 20
9.4104081932
 30
0.0
 10
12.4441825028
 20
9.415836448
 30
0.0
 10
12.4473178458
 20
9.4191215334
 30
0.0
 10
12.4488888253
 20
9.4206389832
 30
0.0
  0
SPLINE
  5
35C
100
AcDbEntity
  8
0
100
AcDbSpline
 62
7
  6
CONTINUOUS
 70
0
 71
3
 72
57
 73
53
 74
0
 42
0.0000001
 43
0.0000001
 44
0.0000000001
 40
0.0
 40
0.0
 40
0.0
 40
0.0
 40
0.0075207377
 40
0.015624028
 40
0.0243308638
 40
0.0336546157
 40
0.0436024319
 40
0.0541763732
 40
0.0653744197
 40
0.0771909865
 40
0.0896175199
 40
0.1026429537
 40
0.1162538777
 40
0.130434935
 40
0.1451689949
 40
0.1604372405
 40
0.1762194575
 40
0.1924940617
 40
0.2092382116
 40
0.2264279995
 40
0.2620427455
 40
0.2991284346
 40
0.3374614777
 40
0.3768078268
 40
0.4169251372
 40
0.4575648384
 40
0.4984741894
 40
0.53939832
 40
0.5800822389
 40
0.6202728588
 40
0.6597210285
 40
0.698183566
 40
0.7354253423
 40
0.7712214699
 40
0.7885109314
 40
0.8053604617
 40
0.8217458655
 40
0.8376440888
 40
0.8530332147
 40
0.867892698
 40
0.8822034271
 40
0.8959478125
 40
0.909110096
 40
0.921676418
 40
0.9336350902
 40
0.9449769868
 40
0.9556957896
 40
0.9657885936
 40
0.9752564118
 40
0.9841051077
 40
0.992346922
 40
1.0
 40
1.0
 40
1.0
 40
1.0
 10
12.4121437888
 20
7.2877946134
 30
0.0
 10
12.4112619149
 20
7.2888789151
 30
0.0
 10
12.4095243053
 20
7.2912092867
 30
0.0
 10
12.4070790947
 20
7.2950161311
 30
0.0
 10
12.4047036631
 20
7.2992552487
 30
0.0
 10
12.4024018236
 20
7.3039197224
 30
0.0
 10
12.4001770557
 20
7.3090022929
 30
0.0
 10
12.3980329074
 20
7.3144948029
 30
0.0
 10
12.3959729
 20
7.3203884094
 30
0.0
 10
12.3940004122
 20
7.3266735191
 30
0.0
 10
12.3921187097
 20
7.3333398527
 30
0.0
 10
12.3903309637
 20
7.3403764677
 30
0.0
 10
12.3886401361
 20
7.3477717674
 30
0.0
 10
12.3870490685
 20
7.355513544
 30
0.0
 10
12.3855604472
 20
7.3635889971
 30
0.0
 10
12.3841767426
 20
7.3719847534
 30
0.0
 10
12.3829002954
 20
7.3806869016
 30
0.0
 10
12.3817332557
 20
7.3896810073
 30
0.0
 10
12.3806775391
 20
7.3989521611
 30
0.0
 10
12.3794058219
 20
7.4118146863
 30
0.0
 10
12.378117259
 20
7.4284722591
 30
0.0
 10
12.3770551404
 20
7.4490812628
 30
0.0
 10
12.3764670413
 20
7.4704028959
 30
0.0
 10
12.3763570635
 20
7.4922955828
 30
0.0
 10
12.3767261448
 20
7.514614071
 30
0.0
 10
12.3775719596
 20
7.5372101875
 30
0.0
 10
12.3788889587
 20
7.5599339039
 30
0.0
 10
12.380668423
 20
7.5826343303
 30
0.0
 10
12.3828985254
 20
7.6051607337
 30
0.0
 10
12.385564386
 20
7.6273635574
 30
0.0
 10
12.3886481849
 20
7.6490954097
 30
0.0
 10
12.3921292711
 20
7.670212122
 30
0.0
 10
12.3959843501
 20
7.6905734988
 30
0.0
 10
12.3995266643
 20
7.7069840776
 30
0.0
 10
12.4025365372
 20
7.7196278071
 30
0.0
 10
12.404844654
 20
7.7287294649
 30
0.0
 10
12.4072257158
 20
7.7375447872
 30
0.0
 10
12.4096757538
 20
7.746059164
 30
0.0
 10
12.4121906981
 20
7.7542584694
 30
0.0
 10
12.4147663407
 20
7.7621291208
 30
0.0
 10
12.4173983732
 20
7.7696580905
 30
0.0
 10
12.420082433
 20
7.7768329217
 30
0.0
 10
12.4228140196
 20
7.7836417772
 30
0.0
 10
12.4255885911
 20
7.7900734402
 30
0.0
 10
12.4284015593
 20
7.7961173371
 30
0.0
 10
12.4312482346
 20
7.8017635933
 30
0.0
 10
12.4341239562
 20
7.8070030145
 30
0.0
 10
12.4370240543
 20
7.8118271235
 30
0.0
 10
12.4399437986
 20
7.8162281906
 30
0.0
 10
12.4428787809
 20
7.820199373
 30
0.0
 10
12.4458242603
 20
7.8237340434
 30
0.0
 10
12.4478658733
 20
7.8258731796
 30
0.0
 10
12.4488888253
 20
7.8268612753
 30
0.0
  0
SPLINE
  5
35D
100
AcDbEntity
  8
0
100
AcDbSpline
 62
7
  6
CONTINUOUS
 70
0
 71
3
 72
47
 73
43
 74
0
 42
0.0000001
 43
0.0000001
 44
0.0000000001
 40
0.0
 40
0.0
 40
0.0
 40
0.0
 40
0.0072739452
 40
0.0148703987
 40
0.0227978846
 40
0.031063102
 40
0.0396712776
 40
0.0486261889
 40
0.057930496
 40
0.0675857004
 40
0.077592433
 40
0.0879503969
 40
0.0986585869
 40
0.1097152564
 40
0.1211180537
 40
0.1328640385
 40
0.1449497302
 40
0.1573711835
 40
0.1832025769
 40
0.2103187156
 40
0.2386733848
 40
0.2682151186
 40
0.298887767
 40
0.3306309759
 40
0.3633806034
 40
0.3970690902
 40
0.4316257961
 40
0.4669773119
 40
0.5030477519
 40
0.5397590347
 40
0.577031153
 40
0.6147824366
 40
0.6529298098
 40
0.6913890446
 40
0.7300750129
 40
0.7689019324
 40
0.8077836248
 40
0.8466337296
 40
0.8853660521
 40
0.9238945305
 40
0.9621341655
 40
1.0
 40
1.0
 40
1.0
 40
1.0
 10
11.0061498784
 20
10.5526291091
 30
0.0
 10
11.0047401293
 20
10.5513171839
 30
0.0
 10
11.0017933023
 20
10.5487041516
 30
0.0
 10
10.997107713
 20
10.5448970577
 30
0.0
 10
10.9920652205
 20
10.5411209645
 30
0.0
 10
10.986668933
 20
10.5373780642
 30
0.0
 10
10.9809219208
 20
10.5336705252
 30
0.0
 10
10.9748275854
 20
10.530000419
 30
0.0
 10
10.9683894566
 20
10.5263699481
 30
0.0
 10
10.9616113379
 20
10.522781164
 30
0.0
 10
10.9544971883
 20
10.5192362371
 30
0.0
 10
10.9470512131
 20
10.5157372032
 30
0.0
 10
10.9392777897
 20
10.5122861723
 30
0.0
 10
10.9311815164
 20
10.50888516
 30
0.0
 10
10.922767174
 20
10.5055361987
 30
0.0
 10
10.9140397462
 20
10.5022412822
 30
0.0
 10
10.9050043919
 20
10.4990023345
 30
0.0
 10
10.8923888116
 20
10.4947048643
 30
0.0
 10
10.8758813539
 20
10.4894989656
 30
0.0
 10
10.8551832101
 20
10.4835836174
 30
0.0
 10
10.833394414
 20
10.4779354447
 30
0.0
 10
10.8105666872
 20
10.4725679781
 30
0.0
 10
10.786754065
 20
10.4674940899
 30
0.0
 10
10.7620130401
 20
10.4627259451
 30
0.0
 10
10.7364023352
 20
10.4582749747
 30
0.0
 10
10.7099827775
 20
10.454151846
 30
0.0
 10
10.682817141
 20
10.4503664382
 30
0.0
 10
10.6549699942
 20
10.4469278185
 30
0.0
 10
10.6265075418
 20
10.4438442211
 30
0.0
 10
10.5974974644
 20
10.4411230279
 30
0.0
 10
10.5680087547
 20
10.438770752
 30
0.0
 10
10.5381115517
 20
10.4367930222
 30
0.0
 10
10.5078769714
 20
10.4351945706
 30
0.0
 10
10.4773769373
 20
10.4339792209
 30
0.0
 10
10.4466840077
 20
10.4331498806
 30
0.0
 10
10.4158712006
 20
10.4327085326
 30
0.0
 10
10.3850118263
 20
10.4326562344
 30
0.0
 10
10.3541792891
 20
10.4329931073
 30
0.0
 10
10.323446977
 20
10.4337183527
 30
0.0
 10
10.2928879208
 20
10.4348302253
 30
0.0
 10
10.2625749682
 20
10.4363260778
 30
0.0
 10
10.2424648529
 20
10.4375840071
 30
0.0
 10
10.2324639978
 20
10.4382775687
 30
0.0
  0
SPLINE
  5
35E
100
AcDbEntity
  8
0
100
AcDbSpline
 62
7
  6
CONTINUOUS
 70
0
 71
3
 72
23
 73
19
 74
0
 42
0.0000001
 43
0.0000001
 44
0.0000000001
 40
0.0
 40
0.0
 40
0.0
 40
0.0
 40
0.0555573827
 40
0.1119012238
 40
0.1693008925
 40
0.2279145764
 40
0.2878017796
 40
0.3489416217
 40
0.4112525831
 40
0.4746108658
 40
0.5388659935
 40
0.6038532382
 40
0.6694029951
 40
0.7353475295
 40
0.8015255183
 40
0.86778511
 40
0.9339862839
 40
1.0
 40
1.0
 40
1.0
 40
1.0
 10
10.5874984172
 20
7.4800604983
 30
0.0
 10
10.5857231328
 20
7.4791843309
 30
0.0
 10
10.5820510596
 20
7.4776086866
 30
0.0
 10
10.5762898317
 20
7.4757899049
 30
0.0
 10
10.5702807631
 20
7.4744823116
 30
0.0
 10
10.5640601803
 20
7.4736617687
 30
0.0
 10
10.5576636932
 20
7.4733010651
 30
0.0
 10
10.5511266493
 20
7.473371639
 30
0.0
 10
10.5444831017
 20
7.4738441927
 30
0.0
 10
10.5377653507
 20
7.474689391
 30
0.0
 10
10.5310035105
 20
7.4758783654
 30
0.0
 10
10.5242252604
 20
7.477383128
 30
0.0
 10
10.5174557255
 20
7.4791768797
 30
0.0
 10
10.5107174738
 20
7.4812342288
 30
0.0
 10
10.5040306022
 20
7.4835313203
 30
0.0
 10
10.497412828
 20
7.4860459355
 30
0.0
 10
10.4908798045
 20
7.4887574646
 30
0.0
 10
10.4865812674
 20
7.4906877361
 30
0.0
 10
10.4844487512
 20
7.4916806086
 30
0.0
  0
SPLINE
  5
35F
100
AcDbEntity
  8
0
100
AcDbSpline
 62
7
  6
CONTINUOUS
 70
0
 71
3
 72
52
 73
48
 74
0
 42
0.0000001
 43
0.0000001
 44
0.0000000001
 40
0.0
 40
0.0
 40
0.0
 40
0.0
 40
0.0083982624
 40
0.0173602451
 40
0.0268933214
 40
0.036999984
 40
0.0476793272
 40
0.0589274137
 40
0.0707378428
 40
0.0831019066
 40
0.0960089657
 40
0.1094466825
 40
0.1234010925
 40
0.1378569326
 40
0.1682041467
 40
0.2003432216
 40
0.2341119049
 40
0.2693344256
 40
0.3058235339
 40
0.3433823407
 40
0.3818060356
 40
0.4208835296
 40
0.4603990544
 40
0.5001337373
 40
0.5398671611
 40
0.579378918
 40
0.6184501634
 40
0.6568651752
 40
0.694412928
 40
0.7308886922
 40
0.7660956783
 40
0.7998467552
 40
0.8319662921
 40
0.8473634636
 40
0.8622932382
 40
0.8767377841
 40
0.8906806134
 40
0.9041063485
 40
0.9170011787
 40
0.929352715
 40
0.9411504094
 40
0.9523856067
 40
0.9630519004
 40
0.9731454809
 40
0.9826654707
 40
0.9916146679
 40
1.0
 40
1.0
 40
1.0
 40
1.0
 10
12.3860273935
 20
7.3613629313
 30
0.0
 10
12.3867499905
 20
7.3622483752
 30
0.0
 10
12.3881895355
 20
7.3641233195
 30
0.0
 10
12.3902703917
 20
7.3671354617
 30
0.0
 10
12.3923393674
 20
7.3704336295
 30
0.0
 10
12.3943934924
 20
7.374012983
 30
0.0
 10
12.39642975
 20
7.3778684337
 30
0.0
 10
12.3984452058
 20
7.3819943643
 30
0.0
 10
12.4004368754
 20
7.3863847862
 30
0.0
 10
12.4024018287
 20
7.391033282
 30
0.0
 10
12.4043371622
 20
7.3959330389
 30
0.0
 10
12.4062399827
 20
7.401076862
 30
0.0
 10
12.4081075244
 20
7.4064571844
 30
0.0
 10
12.4105870066
 20
7.4140594242
 30
0.0
 10
12.4135674652
 20
7.4240991101
 30
0.0
 10
12.4169058356
 20
7.4367671977
 30
0.0
 10
12.4200415033
 20
7.45016915
 30
0.0
 10
12.4229557372
 20
7.4642258814
 30
0.0
 10
12.4256311093
 20
7.4788545368
 30
0.0
 10
12.428051652
 20
7.4939687477
 30
0.0
 10
12.4302029339
 20
7.5094792404
 30
0.0
 10
12.4320721455
 20
7.5252943577
 30
0.0
 10
12.4336481728
 20
7.5413206184
 30
0.0
 10
12.4349216609
 20
7.5574632768
 30
0.0
 10
12.4358850684
 20
7.5736268914
 30
0.0
 10
12.4365327118
 20
7.5897158951
 30
0.0
 10
12.4368608004
 20
7.6056351672
 30
0.0
 10
12.4368674599
 20
7.6212906014
 30
0.0
 10
12.436552748
 20
7.6365896752
 30
0.0
 10
12.4359186517
 20
7.6514419916
 30
0.0
 10
12.4349691042
 20
7.6657598854
 30
0.0
 10
12.4337098838
 20
7.6794587625
 30
0.0
 10
12.4323911327
 20
7.6904409277
 30
0.0
 10
12.4311790607
 20
7.698852361
 30
0.0
 10
12.4302105774
 20
7.7048679023
 30
0.0
 10
12.4291712908
 20
7.7106706788
 30
0.0
 10
12.4280627873
 20
7.7162521399
 30
0.0
 10
12.4268866712
 20
7.721604058
 30
0.0
 10
12.4256447453
 20
7.7267185579
 30
0.0
 10
12.4243388185
 20
7.7315881224
 30
0.0
 10
12.4229708624
 20
7.7362056143
 30
0.0
 10
12.4215428902
 20
7.7405642815
 30
0.0
 10
12.4200570059
 20
7.7446577809
 30
0.0
 10
12.4185154117
 20
7.7484801754
 30
0.0
 10
12.4169202758
 20
7.7520260037
 30
0.0
 10
12.4152740063
 20
7.7552900757
 30
0.0
 10
12.4141062434
 20
7.7573413027
 30
0.0
 10
12.4135124234
 20
7.758315734
 30
0.0
  0
SPLINE
  5
360
100
AcDbEntity
  8
0
100
AcDbSpline
 62
7
  6
CONTINUOUS
 70
0
 71
3
 72
90
 73
86
 74
0
 42
0.0000001
 43
0.0000001
 44
0.0000000001
 40
0.0
 40
0.0
 40
0.0
 40
0.0
 40
0.0039487929
 40
0.0077209328
 40
0.0113256909
 40
0.014774611
 40
0.0212567671
 40
0.0243283197
 40
0.0273114115
 40
0.0302282901
 40
0.0331028812
 40
0.0359602844
 40
0.0388260836
 40
0.0417256248
 40
0.0446833024
 40
0.0477219926
 40
0.05086259
 40
0.0541238321
 40
0.057522161
 40
0.0610718206
 40
0.0647849831
 40
0.0686718871
 40
0.0727411232
 40
0.0769997114
 40
0.081453404
 40
0.0861067629
 40
0.090963339
 40
0.0960258302
 40
0.1012960981
 40
0.1067753909
 40
0.1124642836
 40
0.1183628565
 40
0.1244706949
 40
0.1373097347
 40
0.150970774
 40
0.1654371801
 40
0.1806878485
 40
0.1966978083
 40
0.2134386934
 40
0.2308791355
 40
0.2489850834
 40
0.2677200732
 40
0.2870454637
 40
0.306920646
 40
0.3273032312
 40
0.3481492352
 40
0.3694132512
 40
0.3910486114
 40
0.4130075443
 40
0.4352413271
 40
0.4577004348
 40
0.4803346912
 40
0.5030934194
 40
0.5487790983
 40
0.5943484263
 40
0.6169620331
 40
0.6393936995
 40
0.6615933311
 40
0.6835115034
 40
0.7050996101
 40
0.7263100149
 40
0.7470962106
 40
0.7674129757
 40
0.7872165354
 40
0.806464732
 40
0.8251172056
 40
0.8431355884
 40
0.8604837257
 40
0.877127916
 40
0.8930371817
 40
0.9081835944
 40
0.9225426685
 40
0.9360938546
 40
0.9425615845
 40
0.9488217937
 40
0.9548733175
 40
0.9607154213
 40
0.9663478367
 40
0.9717707364
 40
0.976984892
 40
0.9819916351
 40
0.986793157
 40
0.991392466
 40
0.9957932587
 40
1.0
 40
1.0
 40
1.0
 40
1.0
 10
12.4499403163
 20
9.4216360996
 30
0.0
 10
12.4508274509
 20
9.4224617131
 30
0.0
 10
12.4526009831
 20
9.4240349639
 30
0.0
 10
12.4553221767
 20
9.4262001595
 30
0.0
 10
12.458040929
 20
9.4281140236
 30
0.0
 10
12.461585589
 20
9.4302834138
 30
0.0
 10
12.4652020721
 20
9.4320134843
 30
0.0
 10
12.4688568236
 20
9.4332288736
 30
0.0
 10
12.4715391237
 20
9.4338670135
 30
0.0
 10
12.474209079
 20
9.434246923
 30
0.0
 10
12.4768648185
 20
9.4343679149
 30
0.0
 10
12.4795040905
 20
9.4342297513
 30
0.0
 10
12.4821246555
 20
9.4338324627
 30
0.0
 10
12.4847243141
 20
9.4331765396
 30
0.0
 10
12.4873010743
 20
9.4322628701
 30
0.0
 10
12.4898531053
 20
9.4310924446
 30
0.0
 10
12.4923788833
 20
9.4296665927
 30
0.0
 10
12.4948769541
 20
9.4279865263
 30
0.0
 10
12.4973460631
 20
9.4260536483
 30
0.0
 10
12.4997849687
 20
9.4238693227
 30
0.0
 10
12.5021924337
 20
9.4214349706
 30
0.0
 10
12.5045672947
 20
9.4187521477
 30
0.0
 10
12.5069082515
 20
9.4158224138
 30
0.0
 10
12.5092141299
 20
9.4126475458
 30
0.0
 10
12.5114836211
 20
9.4092293664
 30
0.0
 10
12.5137154851
 20
9.4055698848
 30
0.0
 10
12.5159084693
 20
9.4016712387
 30
0.0
 10
12.5180612734
 20
9.3975356929
 30
0.0
 10
12.5201727075
 20
9.3931656947
 30
0.0
 10
12.5222414737
 20
9.3885637923
 30
0.0
 10
12.5242663979
 20
9.3837327187
 30
0.0
 10
12.526246281
 20
9.3786753126
 30
0.0
 10
12.5288681751
 20
9.3715146878
 30
0.0
 10
12.5320127689
 20
9.3620113309
 30
0.0
 10
12.5355285847
 20
9.3499379845
 30
0.0
 10
12.5388383717
 20
9.3370411802
 30
0.0
 10
12.5419341438
 20
9.3233515799
 30
0.0
 10
12.5448083963
 20
9.3089015795
 30
0.0
 10
12.5474541606
 20
9.2937255506
 30
0.0
 10
12.5498650152
 20
9.2778596366
 30
0.0
 10
12.5520351075
 20
9.2613416793
 30
0.0
 10
12.5539591681
 20
9.2442111095
 30
0.0
 10
12.5556325241
 20
9.226508848
 30
0.0
 10
12.5570511093
 20
9.2082772047
 30
0.0
 10
12.5582114788
 20
9.189559773
 30
0.0
 10
12.5591108126
 20
9.1704013218
 30
0.0
 10
12.5597469208
 20
9.1508476836
 30
0.0
 10
12.5601182486
 20
9.1309456419
 30
0.0
 10
12.5602238788
 20
9.1107428203
 30
0.0
 10
12.5600635356
 20
9.090287564
 30
0.0
 10
12.5596375789
 20
9.0696288392
 30
0.0
 10
12.5589470384
 20
9.0488160551
 30
0.0
 10
12.5576740591
 20
9.0208925972
 30
0.0
 10
12.555436916
 20
8.9859698792
 30
0.0
 10
12.5523527334
 20
8.9511564187
 30
0.0
 10
12.5493830443
 20
8.9235053761
 30
0.0
 10
12.5469212366
 20
8.9030148255
 30
0.0
 10
12.5442253035
 20
8.8827690646
 30
0.0
 10
12.5413016874
 20
8.8628165128
 30
0.0
 10
12.5381574142
 20
8.8432049255
 30
0.0
 10
12.5348000312
 20
8.8239812265
 30
0.0
 10
12.5312376068
 20
8.8051914057
 30
0.0
 10
12.527478704
 20
8.786880404
 30
0.0
 10
12.52353236
 20
8.7690920069
 30
0.0
 10
12.5194080653
 20
8.7518687374
 30
0.0
 10
12.5151157413
 20
8.7352517519
 30
0.0
 10
12.5106657154
 20
8.7192807351
 30
0.0
 10
12.5060686994
 20
8.7039937983
 30
0.0
 10
12.5013357618
 20
8.6894273732
 30
0.0
 10
12.4964782956
 20
8.6756161409
 30
0.0
 10
12.4915079841
 20
8.6625928549
 30
0.0
 10
12.4864367715
 20
8.6503885301
 30
0.0
 10
12.4820716045
 20
8.6407807553
 30
0.0
 10
12.4785304808
 20
8.633534246
 30
0.0
 10
12.4758983429
 20
8.6284065657
 30
0.0
 10
12.4732501078
 20
8.6235043244
 30
0.0
 10
12.4705873209
 20
8.6188304248
 30
0.0
 10
12.4679115928
 20
8.6143876214
 30
0.0
 10
12.4652244574
 20
8.6101785664
 30
0.0
 10
12.462527571
 20
8.6062057222
 30
0.0
 10
12.4598224552
 20
8.6024714398
 30
0.0
 10
12.4571106808
 20
8.5989778669
 30
0.0
 10
12.4543937419
 20
8.5957270217
 30
0.0
 10
12.4516733523
 20
8.5927209966
 30
0.0
 10
12.4498174122
 20
8.5908396695
 30
0.0
 10
12.4488888253
 20
8.5899427233
 30
0.0
  0
SPLINE
  5
361
100
AcDbEntity
  8
0
100
AcDbSpline
 62
7
  6
CONTINUOUS
 70
0
 71
3
 72
82
 73
78
 74
0
 42
0.0000001
 43
0.0000001
 44
0.0000000001
 40
0.0
 40
0.0
 40
0.0
 40
0.0
 40
0.0039487494
 40
0.0077209387
 40
0.0113257743
 40
0.0147747148
 40
0.0212568449
 40
0.0243284112
 40
0.0273115274
 40
0.0302284182
 40
0.033103026
 40
0.0359604446
 40
0.0388262637
 40
0.0417258249
 40
0.0446835346
 40
0.0477222418
 40
0.0508628757
 40
0.0541241481
 40
0.0575225017
 40
0.0610722097
 40
0.0647853977
 40
0.0686723462
 40
0.0727416233
 40
0.0770002464
 40
0.0814539889
 40
0.0861073907
 40
0.0909640092
 40
0.0960265526
 40
0.1012968687
 40
0.1067762051
 40
0.1124651601
 40
0.1244709331
 40
0.1373100719
 40
0.1509712284
 40
0.1654377668
 40
0.1806885598
 40
0.1966986328
 40
0.2134396389
 40
0.230880219
 40
0.2489863053
 40
0.2677214288
 40
0.2870469554
 40
0.3069222823
 40
0.3273050102
 40
0.3481511529
 40
0.3694153102
 40
0.4130089192
 40
0.4577011831
 40
0.5030935905
 40
0.5487795594
 40
0.594349173
 40
0.6393938349
 40
0.6835109575
 40
0.705099191
 40
0.726309728
 40
0.7470960579
 40
0.7674129447
 40
0.7872166181
 40
0.8064649299
 40
0.82511752
 40
0.8431360094
 40
0.8604842466
 40
0.8771285406
 40
0.8930379118
 40
0.9081844141
 40
0.9225435601
 40
0.9360948258
 40
0.9488222316
 40
0.9607151885
 40
0.9663476285
 40
0.9717705667
 40
0.976984726
 40
0.9819914802
 40
0.9867930798
 40
0.9913924833
 40
0.9957933098
 40
1.0
 40
1.0
 40
1.0
 40
1.0
 10
12.4495736632
 20
7.8275106951
 30
0.0
 10
12.4501513249
 20
7.8280482909
 30
0.0
 10
12.4513061842
 20
7.8290727173
 30
0.0
 10
12.4530781284
 20
7.8304826073
 30
0.0
 10
12.4548484911
 20
7.8317288519
 30
0.0
 10
12.4571566502
 20
7.8331414556
 30
0.0
 10
12.4595115648
 20
7.8342679846
 30
0.0
 10
12.4618913938
 20
7.8350593761
 30
0.0
 10
12.4636380043
 20
7.8354749182
 30
0.0
 10
12.4653765844
 20
7.8357222509
 30
0.0
 10
12.4671058983
 20
7.8358010647
 30
0.0
 10
12.4688244912
 20
7.8357110494
 30
0.0
 10
12.4705309012
 20
7.8354523425
 30
0.0
 10
12.4722237081
 20
7.8350252379
 30
0.0
 10
12.4739015808
 20
7.8344302388
 30
0.0
 10
12.4755633839
 20
7.8336681266
 30
0.0
 10
12.4772080605
 20
7.8327396267
 30
0.0
 10
12.4788347102
 20
7.8316456231
 30
0.0
 10
12.4804425111
 20
7.8303870048
 30
0.0
 10
12.482030614
 20
7.8289646222
 30
0.0
 10
12.4835982802
 20
7.8273794666
 30
0.0
 10
12.4851446886
 20
7.8256324926
 30
0.0
 10
12.4866690303
 20
7.823724749
 30
0.0
 10
12.4881705359
 20
7.8216573866
 30
0.0
 10
12.4896483343
 20
7.8194315808
 30
0.0
 10
12.4911016407
 20
7.8170486539
 30
0.0
 10
12.4925296296
 20
7.8145099924
 30
0.0
 10
12.4939314499
 20
7.8118170673
 30
0.0
 10
12.4953063307
 20
7.8089714793
 30
0.0
 10
12.4966534507
 20
7.8059748816
 30
0.0
 10
12.4984437436
 20
7.8017033807
 30
0.0
 10
12.5005981162
 20
7.7959921
 30
0.0
 10
12.5030161304
 20
7.7886849604
 30
0.0
 10
12.5053054879
 20
7.7808231216
 30
0.0
 10
12.5074606878
 20
7.772425218
 30
0.0
 10
12.5094765321
 20
7.7635110392
 30
0.0
 10
12.5113481368
 20
7.7541017351
 30
0.0
 10
12.5130709569
 20
7.7442196649
 30
0.0
 10
12.5146408066
 20
7.7338883653
 30
0.0
 10
12.5160538828
 20
7.7231324799
 30
0.0
 10
12.5173067551
 20
7.7119776875
 30
0.0
 10
12.5183963784
 20
7.7004506325
 30
0.0
 10
12.5193201016
 20
7.6885788627
 30
0.0
 10
12.5200756813
 20
7.6763907725
 30
0.0
 10
12.5206613074
 20
7.6639154907
 30
0.0
 10
12.5212181122
 20
7.6467970571
 30
0.0
 10
12.5214718488
 20
7.6249032319
 30
0.0
 10
12.5210858131
 20
7.5981890728
 30
0.0
 10
12.5200148091
 20
7.5710751335
 30
0.0
 10
12.5182689912
 20
7.5438206749
 30
0.0
 10
12.5158649834
 20
7.5166860732
 30
0.0
 10
12.5128258497
 20
7.4899307849
 30
0.0
 10
12.5097668401
 20
7.4680081879
 30
0.0
 10
12.5070171888
 20
7.4508575426
 30
0.0
 10
12.5048309716
 20
7.4383397833
 30
0.0
 10
12.5025112617
 20
7.4261045644
 30
0.0
 10
12.5000636016
 20
7.4141811333
 30
0.0
 10
12.4974938877
 20
7.4025980058
 30
0.0
 10
12.494808301
 20
7.3913828663
 30
0.0
 10
12.4920133027
 20
7.3805625146
 30
0.0
 10
12.4891156117
 20
7.3701627949
 30
0.0
 10
12.4861222056
 20
7.3602085222
 30
0.0
 10
12.483040295
 20
7.3507234182
 30
0.0
 10
12.4798772987
 20
7.3417300592
 30
0.0
 10
12.4766408189
 20
7.3332498075
 30
0.0
 10
12.4733386313
 20
7.3253027616
 30
0.0
 10
12.4699786447
 20
7.3179076051
 30
0.0
 10
12.466568893
 20
7.3110818429
 30
0.0
 10
12.4636419181
 20
7.3057892906
 30
0.0
 10
12.461275735
 20
7.3018603782
 30
0.0
 10
12.4595259723
 20
7.2991195992
 30
0.0
 10
12.4577698733
 20
7.2965326385
 30
0.0
 10
12.4560083983
 20
7.2941010186
 30
0.0
 10
12.4542425874
 20
7.2918261167
 30
0.0
 10
12.4524733923
 20
7.2897092803
 30
0.0
 10
12.4507019804
 20
7.2877518692
 30
0.0
 10
12.4494934749
 20
7.2865268273
 30
0.0
 10
12.4488888253
 20
7.2859427806
 30
0.0
  0
SPLINE
  5
362
100
AcDbEntity
  8
0
100
AcDbSpline
 62
7
  6
CONTINUOUS
 70
0
 71
3
 72
39
 73
35
 74
0
 42
0.0000001
 43
0.0000001
 44
0.0000000001
 40
0.0
 40
0.0
 40
0.0
 40
0.0
 40
0.0311450424
 40
0.062443103
 40
0.093888348
 40
0.1254709887
 40
0.1571788844
 40
0.1889972605
 40
0.2209091753
 40
0.252895844
 40
0.2849370233
 40
0.3170114137
 40
0.3490970737
 40
0.3811718446
 40
0.413213777
 40
0.4452015562
 40
0.4771149179
 40
0.5089350501
 40
0.540644973
 40
0.572229893
 40
0.6036775227
 40
0.6349783628
 40
0.666125934
 40
0.6971169547
 40
0.7279514582
 40
0.7586328418
 40
0.7891678433
 40
0.8195664429
 40
0.8498416839
 40
0.8800094159
 40
0.9100879624
 40
0.9400977195
 40
0.9700606952
 40
1.0
 40
1.0
 40
1.0
 40
1.0
 10
10.5437006495
 20
7.0016085079
 30
0.0
 10
10.5354098113
 20
7.0021834795
 30
0.0
 10
10.5188233169
 20
7.0039430995
 30
0.0
 10
10.494144661
 20
7.0083756576
 30
0.0
 10
10.4697303389
 20
7.0145843123
 30
0.0
 10
10.4457121967
 20
7.0225357155
 30
0.0
 10
10.4222178436
 20
7.0321872236
 30
0.0
 10
10.3993726026
 20
7.0434872266
 30
0.0
 10
10.3772981802
 20
7.0563753415
 30
0.0
 10
10.3561121992
 20
7.0707827487
 30
0.0
 10
10.3359275346
 20
7.0866325648
 30
0.0
 10
10.3168517367
 20
7.1038402548
 30
0.0
 10
10.2989864609
 20
7.1223140777
 30
0.0
 10
10.2824269328
 20
7.1419555699
 30
0.0
 10
10.2672614493
 20
7.1626600655
 30
0.0
 10
10.2535708935
 20
7.184317236
 30
0.0
 10
10.2414283162
 20
7.2068116812
 30
0.0
 10
10.2308985556
 20
7.2300235416
 30
0.0
 10
10.2220378922
 20
7.253829126
 30
0.0
 10
10.2148937484
 20
7.2781015621
 30
0.0
 10
10.2095044374
 20
7.3027114626
 30
0.0
 10
10.2058989357
 20
7.3275276017
 30
0.0
 10
10.204096728
 20
7.3524176101
 30
0.0
 10
10.2041077073
 20
7.3772486737
 30
0.0
 10
10.2059321082
 20
7.4018882329
 30
0.0
 10
10.2095604929
 20
7.4262046844
 30
0.0
 10
10.2149737878
 20
7.450068078
 30
0.0
 10
10.2221433558
 20
7.4733508184
 30
0.0
 10
10.2310311209
 20
7.4959283446
 30
0.0
 10
10.2415898164
 20
7.5176798423
 30
0.0
 10
10.2537630593
 20
7.5384887461
 30
0.0
 10
10.2674862393
 20
7.5582439639
 30
0.0
 10
10.2826846411
 20
7.5768383122
 30
0.0
 10
10.2937510748
 20
7.5883991076
 30
0.0
 10
10.2994972202
 20
7.5939494345
 30
0.0
  0
SPLINE
  5
363
100
AcDbEntity
  8
0
100
AcDbSpline
 62
7
  6
CONTINUOUS
 70
0
 71
3
 72
15
 73
11
 74
0
 42
0.0000001
 43
0.0000001
 44
0.0000000001
 40
0.0
 40
0.0
 40
0.0
 40
0.0
 40
0.108455343
 40
0.2225092174
 40
0.3417634653
 40
0.4657852108
 40
0.5941145022
 40
0.7262670589
 40
0.8617360465
 40
1.0
 40
1.0
 40
1.0
 40
1.0
 10
10.6394123678
 20
7.6413639768
 30
0.0
 10
10.6339600834
 20
7.6427655107
 30
0.0
 10
10.6227274082
 20
7.6454616032
 30
0.0
 10
10.6053663297
 20
7.6491168889
 30
0.0
 10
10.5871230091
 20
7.6524740067
 30
0.0
 10
10.5680744109
 20
7.6555185319
 30
0.0
 10
10.5483007416
 20
7.6582374698
 30
0.0
 10
10.5278853993
 20
7.660619178
 30
0.0
 10
10.5069145314
 20
7.6626535073
 30
0.0
 10
10.4927484227
 20
7.6637624798
 30
0.0
 10
10.4855888197
 20
7.664259
 30
0.0
  0
SPLINE
  5
364
100
AcDbEntity
  8
0
100
AcDbSpline
 62
7
  6
CONTINUOUS
 70
0
 71
3
 72
23
 73
19
 74
0
 42
0.0000001
 43
0.0000001
 44
0.0000000001
 40
0.0
 40
0.0
 40
0.0
 40
0.0
 40
0.0755957668
 40
0.1466392768
 40
0.213465616
 40
0.2765144371
 40
0.3363265454
 40
0.3935471053
 40
0.4489233774
 40
0.5032884899
 40
0.5575264287
 40
0.6125277193
 40
0.6691437645
 40
0.7281492125
 40
0.7902196994
 40
0.8559237551
 40
0.9257265947
 40
1.0
 40
1.0
 40
1.0
 40
1.0
 10
12.4488888253
 20
7.2859427806
 30
0.0
 10
12.4481106421
 20
7.2851911133
 30
0.0
 10
12.4465552906
 20
7.283779243
 30
0.0
 10
12.4441482371
 20
7.2818930501
 30
0.0
 10
12.4417439883
 20
7.2803089174
 30
0.0
 10
12.4393447891
 20
7.2790292191
 30
0.0
 10
12.4369526199
 20
7.2780563003
 30
0.0
 10
12.4345699607
 20
7.2773924904
 30
0.0
 10
12.4321999156
 20
7.2770402041
 30
0.0
 10
12.4298464518
 20
7.2770010348
 30
0.0
 10
12.4275140855
 20
7.2772756348
 30
0.0
 10
12.4252073329
 20
7.2778631157
 30
0.0
 10
12.4229301214
 20
7.2787615544
 30
0.0
 10
12.4206854598
 20
7.2799682886
 30
0.0
 10
12.4184756294
 20
7.2814805822
 30
0.0
 10
12.4163024062
 20
7.2832957957
 30
0.0
 10
12.4141675508
 20
7.2854112566
 30
0.0
 10
12.4128145141
 20
7.2869699279
 30
0.0
 10
12.4121437888
 20
7.2877946134
 30
0.0
  0
SPLINE
  5
365
100
AcDbEntity
  8
0
100
AcDbSpline
 62
7
  6
CONTINUOUS
 70
0
 71
3
 72
35
 73
31
 74
0
 42
0.0000001
 43
0.0000001
 44
0.0000000001
 40
0.0
 40
0.0
 40
0.0
 40
0.0
 40
0.0808423734
 40
0.1600175746
 40
0.2373313075
 40
0.3125654126
 40
0.3493285829
 40
0.3854808363
 40
0.4209900786
 40
0.4558241642
 40
0.4899512349
 40
0.5233406072
 40
0.5559636082
 40
0.5877945129
 40
0.6188118491
 40
0.6489997523
 40
0.6783494309
 40
0.7068608321
 40
0.7345442598
 40
0.7614218838
 40
0.787529082
 40
0.8129153055
 40
0.8376443122
 40
0.8617935846
 40
0.885452812
 40
0.9087213178
 40
0.9317044594
 40
0.9545096795
 40
0.9772420676
 40
1.0
 40
1.0
 40
1.0
 40
1.0
 10
10.6394123678
 20
7.6413639768
 30
0.0
 10
10.638788175
 20
7.6366714531
 30
0.0
 10
10.6375907432
 20
7.6273780972
 30
0.0
 10
10.6358907801
 20
7.6135851161
 30
0.0
 10
10.6342585509
 20
7.6001147406
 30
0.0
 10
10.6329000306
 20
7.5891128283
 30
0.0
 10
10.6317864273
 20
7.5805094314
 30
0.0
 10
10.6309365939
 20
7.57421754
 30
0.0
 10
10.6300566693
 20
7.5680438395
 30
0.0
 10
10.6291371069
 20
7.5619958038
 30
0.0
 10
10.6281678464
 20
7.5560812349
 30
0.0
 10
10.6271384919
 20
7.5503082299
 30
0.0
 10
10.6260383358
 20
7.5446851544
 30
0.0
 10
10.6248564205
 20
7.5392206115
 30
0.0
 10
10.6235817242
 20
7.5339233771
 30
0.0
 10
10.6222032467
 20
7.5288023436
 30
0.0
 10
10.6207101691
 20
7.5238664461
 30
0.0
 10
10.6190920881
 20
7.5191245567
 30
0.0
 10
10.617339138
 20
7.5145854037
 30
0.0
 10
10.6154421907
 20
7.5102574743
 30
0.0
 10
10.6133932098
 20
7.5061488372
 30
0.0
 10
10.6111853038
 20
7.5022670809
 30
0.0
 10
10.6088129384
 20
7.4986192125
 30
0.0
 10
10.6062723702
 20
7.4952113579
 30
0.0
 10
10.6035615365
 20
7.492048767
 30
0.0
 10
10.6006801972
 20
7.4891356806
 30
0.0
 10
10.5976302583
 20
7.4864749174
 30
0.0
 10
10.5944152883
 20
7.4840679799
 30
0.0
 10
10.5910408744
 20
7.4819151334
 30
0.0
 10
10.5886934292
 20
7.4806502802
 30
0.0
 10
10.5874984172
 20
7.4800604983
 30
0.0
  0
SPLINE
  5
366
100
AcDbEntity
  8
0
100
AcDbSpline
 62
7
  6
CONTINUOUS
 70
0
 71
3
 72
69
 73
65
 74
0
 42
0.0000001
 43
0.0000001
 44
0.0000000001
 40
0.0
 40
0.0
 40
0.0
 40
0.0
 40
0.0156750103
 40
0.031402742
 40
0.0471814409
 40
0.0630099666
 40
0.0788860838
 40
0.0948073637
 40
0.110770892
 40
0.1267733877
 40
0.1428112186
 40
0.1588804363
 40
0.1749768154
 40
0.1910958902
 40
0.2072329957
 40
0.2233833086
 40
0.2395418905
 40
0.2557037313
 40
0.2880085698
 40
0.3202664098
 40
0.3363699321
 40
0.3524475822
 40
0.3684950598
 40
0.3845083316
 40
0.4004836689
 40
0.4164176825
 40
0.4323073564
 40
0.4481500786
 40
0.4639436683
 40
0.4796863997
 40
0.4953770225
 40
0.5110147775
 40
0.5265994095
 40
0.5421311754
 40
0.5576108466
 40
0.5730397068
 40
0.5884195438
 40
0.6037526368
 40
0.6190417375
 40
0.6342900472
 40
0.6495011875
 40
0.664679166
 40
0.679828337
 40
0.6949533576
 40
0.7100591401
 40
0.7251508008
 40
0.740233607
 40
0.7553129206
 40
0.7703941411
 40
0.7854826475
 40
0.800583741
 40
0.815702588
 40
0.8308441662
 40
0.8460132125
 40
0.8612141749
 40
0.8764511671
 40
0.8917279278
 40
0.9070477857
 40
0.9224136294
 40
0.9378278646
 40
0.9532924839
 40
0.9688087341
 40
0.9843779855
 40
1.0
 40
1.0
 40
1.0
 40
1.0
 10
10.5233833712
 20
7.7368546009
 30
0.0
 10
10.5301902368
 20
7.7363825432
 30
0.0
 10
10.5438060115
 20
7.7351029142
 30
0.0
 10
10.5641438912
 20
7.7321906175
 30
0.0
 10
10.5843838489
 20
7.7282889617
 30
0.0
 10
10.6044763714
 20
7.7234076133
 30
0.0
 10
10.6243733744
 20
7.7175582231
 30
0.0
 10
10.644026865
 20
7.7107549773
 30
0.0
 10
10.663389558
 20
7.7030142541
 30
0.0
 10
10.6824148403
 20
7.6943547296
 30
0.0
 10
10.7010569246
 20
7.6847972821
 30
0.0
 10
10.7192709437
 20
7.6743649453
 30
0.0
 10
10.7370130639
 20
7.6630828497
 30
0.0
 10
10.7542405775
 20
7.650978175
 30
0.0
 10
10.7709120431
 20
7.6380800373
 30
0.0
 10
10.7869872426
 20
7.6244196
 30
0.0
 10
10.8024278259
 20
7.6100293483
 30
0.0
 10
10.8221132085
 20
7.5899222808
 30
0.0
 10
10.8449489124
 20
7.5631463953
 30
0.0
 10
10.8652210341
 20
7.5344114189
 30
0.0
 10
10.8797738247
 20
7.5104223379
 30
0.0
 10
10.8898258245
 20
7.4919828274
 30
0.0
 10
10.898995096
 20
7.473132925
 30
0.0
 10
10.9072598552
 20
7.4539175782
 30
0.0
 10
10.9146000947
 20
7.4343831475
 30
0.0
 10
10.9209981289
 20
7.4145766207
 30
0.0
 10
10.9264385135
 20
7.3945456836
 30
0.0
 10
10.9309081232
 20
7.3743385579
 30
0.0
 10
10.9343961597
 20
7.3540038938
 30
0.0
 10
10.936894183
 20
7.3335906518
 30
0.0
 10
10.9383961311
 20
7.3131479871
 30
0.0
 10
10.9388983352
 20
7.2927251323
 30
0.0
 10
10.9383995294
 20
7.2723712803
 30
0.0
 10
10.9369008736
 20
7.2521354643
 30
0.0
 10
10.9344059325
 20
7.2320664395
 30
0.0
 10
10.9309206692
 20
7.2122125667
 30
0.0
 10
10.9264534312
 20
7.1926216965
 30
0.0
 10
10.9210149326
 20
7.1733410544
 30
0.0
 10
10.914618227
 20
7.1544171284
 30
0.0
 10
10.9072786923
 20
7.1358955508
 30
0.0
 10
10.8990139897
 20
7.1178209871
 30
0.0
 10
10.8898440118
 20
7.1002370311
 30
0.0
 10
10.8797908386
 20
7.0831860988
 30
0.0
 10
10.8688786842
 20
7.0667093253
 30
0.0
 10
10.8571338389
 20
7.0508464654
 30
0.0
 10
10.8445846095
 20
7.0356357942
 30
0.0
 10
10.831261261
 20
7.0211140027
 30
0.0
 10
10.8171959271
 20
7.0073161201
 30
0.0
 10
10.8024225339
 20
6.9942754266
 30
0.0
 10
10.7869767176
 20
6.9820233736
 30
0.0
 10
10.770895738
 20
6.9705895062
 30
0.0
 10
10.7542183865
 20
6.9600013946
 30
0.0
 10
10.7369849014
 20
6.9502845501
 30
0.0
 10
10.7192368603
 20
6.9414623747
 30
0.0
 10
10.7010170763
 20
6.9335561083
 30
0.0
 10
10.6823694945
 20
6.9265847787
 30
0.0
 10
10.6633390855
 20
6.9205651557
 30
0.0
 10
10.6439717347
 20
6.9155117128
 30
0.0
 10
10.6243141443
 20
6.9114365939
 30
0.0
 10
10.604413674
 20
6.90834954
 30
0.0
 10
10.5843183887
 20
6.9062579938
 30
0.0
 10
10.5640764131
 20
6.9051668404
 30
0.0
 10
10.543737311
 20
6.905078781
 30
0.0
 10
10.5301672234
 20
6.9056878794
 30
0.0
 10
10.5233833712
 20
6.9061583411
 30
0.0
  0
SPLINE
  5
367
100
AcDbEntity
  8
0
100
AcDbSpline
 62
7
  6
CONTINUOUS
 70
0
 71
3
 72
63
 73
59
 74
0
 42
0.0000001
 43
0.0000001
 44
0.0000000001
 40
0.0
 40
0.0
 40
0.0
 40
0.0
 40
0.0078595227
 40
0.0163502512
 40
0.0254920961
 40
0.0352979256
 40
0.0457733418
 40
0.0569185286
 40
0.0687293124
 40
0.0811976635
 40
0.0943123563
 40
0.1080594403
 40
0.1224224739
 40
0.1373828493
 40
0.152920065
 40
0.1690118274
 40
0.1856342382
 40
0.2027619898
 40
0.2203684189
 40
0.238425628
 40
0.2569046456
 40
0.2757754685
 40
0.3145671825
 40
0.3545446582
 40
0.3954402166
 40
0.4369780715
 40
0.4788768456
 40
0.5208520287
 40
0.5626184569
 40
0.6038927611
 40
0.6443958578
 40
0.6838554109
 40
0.7031116097
 40
0.7220091737
 40
0.7405171262
 40
0.7586053744
 40
0.7762448529
 40
0.7934076225
 40
0.8100669121
 40
0.8261972859
 40
0.8417747841
 40
0.8567769846
 40
0.8711832129
 40
0.8849747653
 40
0.8981350388
 40
0.9106498426
 40
0.922507792
 40
0.9337006293
 40
0.9442237978
 40
0.9540772292
 40
0.9632661749
 40
0.9718024621
 40
0.9797062287
 40
0.983430799
 40
0.9870097402
 40
0.9904489176
 40
0.9937552734
 40
1.0
 40
1.0
 40
1.0
 40
1.0
 10
12.3730636434
 20
8.6710263994
 30
0.0
 10
12.3744067559
 20
8.6723237465
 30
0.0
 10
12.3770867669
 20
8.6751421486
 30
0.0
 10
12.3809464164
 20
8.6798148169
 30
0.0
 10
12.3847910935
 20
8.6850839126
 30
0.0
 10
12.3886140662
 20
8.6909399179
 30
0.0
 10
12.3924089897
 20
8.6973729421
 30
0.0
 10
12.3961691676
 20
8.7043717202
 30
0.0
 10
12.3998879059
 20
8.7119239426
 30
0.0
 10
12.40355854
 20
8.720016204
 30
0.0
 10
12.4071744471
 20
8.7286340645
 30
0.0
 10
12.4107290497
 20
8.737762098
 30
0.0
 10
12.4142159026
 20
8.7473839019
 30
0.0
 10
12.4176286762
 20
8.7574821494
 30
0.0
 10
12.4209611407
 20
8.7680386395
 30
0.0
 10
12.4242072367
 20
8.779034313
 30
0.0
 10
12.4273610701
 20
8.7904492972
 30
0.0
 10
12.4304168841
 20
8.8022629581
 30
0.0
 10
12.4333691208
 20
8.814453926
 30
0.0
 10
12.4362124181
 20
8.8270001299
 30
0.0
 10
12.4389416175
 20
8.8398788786
 30
0.0
 10
12.44245393
 20
8.8576258021
 30
0.0
 10
12.4465135837
 20
8.8804691062
 30
0.0
 10
12.4508141435
 20
8.9085760039
 30
0.0
 10
12.4545557819
 20
8.9374207562
 30
0.0
 10
12.4577112432
 20
8.9667945167
 30
0.0
 10
12.4602575212
 20
8.9964847531
 30
0.0
 10
12.4621761494
 20
9.0262765534
 30
0.0
 10
12.463453252
 20
9.0559542615
 30
0.0
 10
12.4640796765
 20
9.0853031044
 30
0.0
 10
12.4640510374
 20
9.1141105469
 30
0.0
 10
12.4634772679
 20
9.1376797808
 30
0.0
 10
12.4626827685
 20
9.1561034567
 30
0.0
 10
12.4619295577
 20
9.1695451948
 30
0.0
 10
12.4610156433
 20
9.182698819
 30
0.0
 10
12.459942663
 20
9.1955405278
 30
0.0
 10
12.4587125904
 20
9.2080470659
 30
0.0
 10
12.457327693
 20
9.220195799
 30
0.0
 10
12.4557904932
 20
9.2319647424
 30
0.0
 10
12.4541038039
 20
9.2433326106
 30
0.0
 10
12.4522707335
 20
9.2542788601
 30
0.0
 10
12.4502946265
 20
9.2647837188
 30
0.0
 10
12.4481790927
 20
9.2748282334
 30
0.0
 10
12.445928026
 20
9.2843943154
 30
0.0
 10
12.4435455307
 20
9.2934647647
 30
0.0
 10
12.4410359368
 20
9.3020233149
 30
0.0
 10
12.4384038297
 20
9.3100546905
 30
0.0
 10
12.4356539568
 20
9.3175446212
 30
0.0
 10
12.4327912032
 20
9.3244798994
 30
0.0
 10
12.4298206383
 20
9.3308484014
 30
0.0
 10
12.4267472792
 20
9.3366392595
 30
0.0
 10
12.4235762662
 20
9.3418422896
 30
0.0
 10
12.4208037147
 20
9.3457557041
 30
0.0
 10
12.4185359751
 20
9.3485698347
 30
0.0
 10
12.4168480751
 20
9.350485576
 30
0.0
 10
12.4151398387
 20
9.3522476681
 30
0.0
 10
12.4128797772
 20
9.354350585
 30
0.0
 10
12.4110918095
 20
9.3557596031
 30
0.0
 10
12.4098677565
 20
9.3565980952
 30
0.0
  0
SPLINE
  5
368
100
AcDbEntity
  8
0
100
AcDbSpline
 62
7
  6
CONTINUOUS
 70
0
 71
3
 72
64
 73
60
 74
0
 42
0.0000001
 43
0.0000001
 44
0.0000000001
 40
0.0
 40
0.0
 40
0.0
 40
0.0
 40
0.0082489002
 40
0.0160245789
 40
0.0233634177
 40
0.0303107653
 40
0.0369218447
 40
0.0401226201
 40
0.0432647895
 40
0.0463580889
 40
0.0494127661
 40
0.0524395148
 40
0.0554493543
 40
0.0584535051
 40
0.061463261
 40
0.0644898433
 40
0.0675442735
 40
0.070637248
 40
0.0737790184
 40
0.0802448985
 40
0.0870153095
 40
0.0941506924
 40
0.1017012425
 40
0.1097077351
 40
0.11820258
 40
0.127210955
 40
0.1367519858
 40
0.1468396186
 40
0.157483474
 40
0.1686895566
 40
0.1804607007
 40
0.1927971146
 40
0.2056967011
 40
0.2191553043
 40
0.2331670462
 40
0.2477244302
 40
0.2628185367
 40
0.2784392058
 40
0.2945750541
 40
0.3112136623
 40
0.3283416349
 40
0.3459446259
 40
0.3640074928
 40
0.3825142826
 40
0.4014483037
 40
0.4207922194
 40
0.4606364401
 40
0.5018968388
 40
0.5444143008
 40
0.5880226233
 40
0.6325496135
 40
0.6778181242
 40
0.7236470562
 40
0.7698523647
 40
0.8162480403
 40
0.8626470781
 40
0.9088625236
 40
0.954707991
 40
1.0
 40
1.0
 40
1.0
 40
1.0
 10
9.7864427672
 20
10.5526291091
 30
0.0
 10
9.7846385274
 20
10.554308151
 30
0.0
 10
9.7812323974
 20
10.5576789801
 30
0.0
 10
9.7766288754
 20
10.5629350034
 30
0.0
 10
9.7726923594
 20
10.5682322963
 30
0.0
 10
9.7694285442
 20
10.5735656566
 30
0.0
 10
9.7672501894
 20
10.57808575
 30
0.0
 10
9.7658648264
 20
10.5817016809
 30
0.0
 10
9.765007404
 20
10.5843892574
 30
0.0
 10
9.7643209162
 20
10.5870804828
 30
0.0
 10
9.7638056485
 20
10.5897746485
 30
0.0
 10
9.7634618084
 20
10.5924709168
 30
0.0
 10
9.763289509
 20
10.5951684589
 30
0.0
 10
9.7632888723
 20
10.5978664321
 30
0.0
 10
9.7634598981
 20
10.6005639796
 30
0.0
 10
9.7638024687
 20
10.6032602644
 30
0.0
 10
9.7643164555
 20
10.6059544338
 30
0.0
 10
9.7650017112
 20
10.6086457407
 30
0.0
 10
9.7661540019
 20
10.6122632645
 30
0.0
 10
9.7680408342
 20
10.6167902031
 30
0.0
 10
9.7709638947
 20
10.6221402747
 30
0.0
 10
9.7745622969
 20
10.6274564816
 30
0.0
 10
9.7788305404
 20
10.6327338369
 30
0.0
 10
9.7837633658
 20
10.6379681461
 30
0.0
 10
9.7893552081
 20
10.6431548713
 30
0.0
 10
9.7956000632
 20
10.6482894062
 30
0.0
 10
9.802491436
 20
10.6533668621
 30
0.0
 10
9.8100221451
 20
10.6583822866
 30
0.0
 10
9.8181843414
 20
10.6633306321
 30
0.0
 10
9.8269695015
 20
10.6682067557
 30
0.0
 10
9.8363683602
 20
10.6730055925
 30
0.0
 10
9.8463709857
 20
10.6777220455
 30
0.0
 10
9.856966759
 20
10.6823510679
 30
0.0
 10
9.8681443764
 20
10.6868877308
 30
0.0
 10
9.8798919023
 20
10.6913271172
 30
0.0
 10
9.8921967499
 20
10.6956644486
 30
0.0
 10
9.9050457142
 20
10.6998950517
 30
0.0
 10
9.9184249975
 20
10.7040143147
 30
0.0
 10
9.9323202031
 20
10.7080178059
 30
0.0
 10
9.9467163749
 20
10.7119011788
 30
0.0
 10
9.9615980081
 20
10.7156602075
 30
0.0
 10
9.9769490591
 20
10.7192908459
 30
0.0
 10
9.9927529797
 20
10.7227891355
 30
0.0
 10
10.0089927178
 20
10.7261512815
 30
0.0
 10
10.0256507697
 20
10.7293736828
 30
0.0
 10
10.0486217545
 20
10.7335199497
 30
0.0
 10
10.0782516941
 20
10.7383148846
 30
0.0
 10
10.1148384094
 20
10.7434048815
 30
0.0
 10
10.1526399692
 20
10.7478637885
 30
0.0
 10
10.191493176
 20
10.7516721708
 30
0.0
 10
10.2312304583
 20
10.7548133923
 30
0.0
 10
10.2716803199
 20
10.7572737419
 30
0.0
 10
10.3126681705
 20
10.7590424939
 30
0.0
 10
10.3540170676
 20
10.7601119402
 30
0.0
 10
10.3955485012
 20
10.7604774158
 30
0.0
 10
10.4370831686
 20
10.7601373231
 30
0.0
 10
10.4784417178
 20
10.75909314
 30
0.0
 10
10.5194455315
 20
10.7573494526
 30
0.0
 10
10.5466285276
 20
10.7557135719
 30
0.0
 10
10.5601286478
 20
10.7547773354
 30
0.0
  0
SPLINE
  5
369
100
AcDbEntity
  8
0
100
AcDbSpline
 62
7
  6
CONTINUOUS
 70
0
 71
3
 72
66
 73
62
 74
0
 42
0.0000001
 43
0.0000001
 44
0.0000000001
 40
0.0
 40
0.0
 40
0.0
 40
0.0
 40
0.015675267
 40
0.0314036117
 40
0.0471826331
 40
0.0630115707
 40
0.0788881047
 40
0.0948097835
 40
0.1107737216
 40
0.1267766246
 40
0.1428148656
 40
0.1588844947
 40
0.1910922109
 40
0.2233719511
 40
0.2556847221
 40
0.2879903865
 40
0.3202490491
 40
0.3363529832
 40
0.3524310448
 40
0.3684789321
 40
0.3844926123
 40
0.4004683576
 40
0.4164027785
 40
0.4322928578
 40
0.4481359842
 40
0.4639299779
 40
0.4796731125
 40
0.4953641354
 40
0.5110022885
 40
0.5265873183
 40
0.5421194821
 40
0.5575995492
 40
0.5730288029
 40
0.5884090322
 40
0.603742517
 40
0.6190320084
 40
0.6342807071
 40
0.6494922356
 40
0.6646706023
 40
0.6798201611
 40
0.6949455677
 40
0.7100517349
 40
0.7251437807
 40
0.7402269727
 40
0.7553066722
 40
0.7703882778
 40
0.7854771691
 40
0.8005786481
 40
0.8156978816
 40
0.8308398463
 40
0.8460092795
 40
0.8612106301
 40
0.8764480125
 40
0.8917251632
 40
0.9070454147
 40
0.9224116417
 40
0.937826281
 40
0.9532913039
 40
0.9688078709
 40
0.9843777308
 40
1.0
 40
1.0
 40
1.0
 40
1.0
 10
10.0404204295
 20
9.4394680864
 30
0.0
 10
10.0359880926
 20
9.43977547
 30
0.0
 10
10.0271219896
 20
9.4406087351
 30
0.0
 10
10.0138787191
 20
9.442505088
 30
0.0
 10
10.0006991757
 20
9.4450457219
 30
0.0
 10
9.9876156863
 20
9.4482242543
 30
0.0
 10
9.9746594957
 20
9.4520331673
 30
0.0
 10
9.961861882
 20
9.4564632025
 30
0.0
 10
9.949253604
 20
9.4615036783
 30
0.0
 10
9.9368650925
 20
9.4671423888
 30
0.0
 10
9.9247258694
 20
9.473365977
 30
0.0
 10
9.9089025927
 20
9.4824288534
 30
0.0
 10
9.889894537
 20
9.4951433064
 30
0.0
 10
9.8685569747
 20
9.5124509596
 30
0.0
 10
9.8488715861
 20
9.5316586486
 30
0.0
 10
9.83102946
 20
9.5525798814
 30
0.0
 10
9.8178284088
 20
9.5712916272
 30
0.0
 10
9.8083522337
 20
9.5869123348
 30
0.0
 10
9.8018067303
 20
9.5989194746
 30
0.0
 10
9.7958360555
 20
9.6111938299
 30
0.0
 10
9.7904543535
 20
9.6237061506
 30
0.0
 10
9.7856746572
 20
9.6364262422
 30
0.0
 10
9.7815084937
 20
9.6493235152
 30
0.0
 10
9.7779659249
 20
9.6623669178
 30
0.0
 10
9.7750554804
 20
9.6755250456
 30
0.0
 10
9.7727841916
 20
9.6887662208
 30
0.0
 10
9.7711575661
 20
9.7020585643
 30
0.0
 10
9.7701795687
 20
9.7153700678
 30
0.0
 10
9.7698525608
 20
9.7286686701
 30
0.0
 10
9.7701773559
 20
9.741922341
 30
0.0
 10
9.7711532094
 20
9.7550991531
 30
0.0
 10
9.7727778278
 20
9.7681673551
 30
0.0
 10
9.775047311
 20
9.7810954564
 30
0.0
 10
9.7779562112
 20
9.7938523013
 30
0.0
 10
9.7814975517
 20
9.80640714
 30
0.0
 10
9.7856628499
 20
9.818729696
 30
0.0
 10
9.7904420878
 20
9.8307902554
 30
0.0
 10
9.7958237519
 20
9.8425597397
 30
0.0
 10
9.8017948905
 20
9.8540097628
 30
0.0
 10
9.8083411422
 20
9.8651126966
 30
0.0
 10
9.815446745
 20
9.875841749
 30
0.0
 10
9.8230945552
 20
9.8861710491
 30
0.0
 10
9.8312661368
 20
9.8960756794
 30
0.0
 10
9.8399417959
 20
9.9055317391
 30
0.0
 10
9.8491006249
 20
9.9145164006
 30
0.0
 10
9.8587205142
 20
9.9230080086
 30
0.0
 10
9.8687782541
 20
9.93098609
 30
0.0
 10
9.879249585
 20
9.9384314055
 30
0.0
 10
9.8901092584
 20
9.9453259858
 30
0.0
 10
9.9013310648
 20
9.9516532289
 30
0.0
 10
9.9128879261
 20
9.9573979054
 30
0.0
 10
9.9247519671
 20
9.9625461825
 30
0.0
 10
9.9368945805
 20
9.9670856489
 30
0.0
 10
9.94928648
 20
9.9710053894
 30
0.0
 10
9.961897777
 20
9.9742959985
 30
0.0
 10
9.9746980653
 20
9.9769495825
 30
0.0
 10
9.9876565134
 20
9.9789597639
 30
0.0
 10
10.0007417997
 20
9.9803216828
 30
0.0
 10
10.01392266
 20
9.9810322172
 30
0.0
 10
10.0271667229
 20
9.9810895319
 30
0.0
 10
10.0360030782
 20
9.9806929256
 30
0.0
 10
10.0404204295
 20
9.9803865812
 30
0.0
  0
SPLINE
  5
36A
100
AcDbEntity
  8
0
100
AcDbSpline
 62
7
  6
CONTINUOUS
 70
0
 71
3
 72
43
 73
39
 74
0
 42
0.0000001
 43
0.0000001
 44
0.0000000001
 40
0.0
 40
0.0
 40
0.0
 40
0.0
 40
0.0311442525
 40
0.0467769374
 40
0.0624467804
 40
0.0938912938
 40
0.1254732437
 40
0.1571804404
 40
0.1889981136
 40
0.220909324
 40
0.2528952859
 40
0.2849357577
 40
0.3170094397
 40
0.3490943908
 40
0.3811684526
 40
0.4132096765
 40
0.4451967486
 40
0.477109405
 40
0.5089288336
 40
0.5406380548
 40
0.5722222754
 40
0.6036692094
 40
0.6349693574
 40
0.66611624
 40
0.6971065753
 40
0.7279403963
 40
0.7586211006
 40
0.7891554265
 40
0.8195533541
 40
0.8498279261
 40
0.8649266038
 40
0.8800006024
 40
0.9100784838
 40
0.9400875773
 40
0.9550760162
 40
0.970055617
 40
0.9850292924
 40
1.0
 40
1.0
 40
1.0
 40
1.0
 10
10.0582789289
 20
9.5233669592
 30
0.0
 10
10.0533020835
 20
9.5237121046
 30
0.0
 10
10.0458424399
 20
9.5245035273
 30
0.0
 10
10.0359652084
 20
9.526093963
 30
0.0
 10
10.0261036575
 20
9.5280465293
 30
0.0
 10
10.0138755043
 20
9.5311561694
 30
0.0
 10
9.9994580301
 20
9.5359292203
 30
0.0
 10
9.9853546705
 20
9.5417228903
 30
0.0
 10
9.9716410461
 20
9.5485061075
 30
0.0
 10
9.9583901071
 20
9.5562426423
 30
0.0
 10
9.9456724905
 20
9.5648911823
 30
0.0
 10
9.9335559481
 20
9.57440558
 30
0.0
 10
9.9221050439
 20
9.584735091
 30
0.0
 10
9.9113807995
 20
9.5958246437
 30
0.0
 10
9.9014403758
 20
9.6076151298
 30
0.0
 10
9.8923367707
 20
9.6200437165
 30
0.0
 10
9.8841185393
 20
9.6330441777
 30
0.0
 10
9.8768295367
 20
9.6465472431
 30
0.0
 10
9.870508686
 20
9.6604809631
 30
0.0
 10
9.8651897714
 20
9.6747710872
 30
0.0
 10
9.8609012576
 20
9.6893414548
 30
0.0
 10
9.8576661374
 20
9.7041143956
 30
0.0
 10
9.8555018061
 20
9.7190111378
 30
0.0
 10
9.8544199658
 20
9.7339522237
 30
0.0
 10
9.8544265558
 20
9.7488579241
 30
0.0
 10
9.8555217218
 20
9.7636486745
 30
0.0
 10
9.8576997779
 20
9.7782454396
 30
0.0
 10
9.8609493362
 20
9.7925703464
 30
0.0
 10
9.8652529563
 20
9.8065463104
 30
0.0
 10
9.869703624
 20
9.8178520452
 30
0.0
 10
9.8737650785
 20
9.826644006
 30
0.0
 10
9.8781481856
 20
9.8352447991
 30
0.0
 10
9.884233846
 20
9.8456478872
 30
0.0
 10
9.8911023248
 20
9.8555351787
 30
0.0
 10
9.8970374814
 20
9.8630925773
 30
0.0
 10
9.9017029964
 20
9.8685775987
 30
0.0
 10
9.9065774998
 20
9.8738736098
 30
0.0
 10
9.9099625871
 20
9.8772739798
 30
0.0
 10
9.9116873991
 20
9.8789400306
 30
0.0
  0
SPLINE
  5
36B
100
AcDbEntity
  8
0
100
AcDbSpline
 62
7
  6
CONTINUOUS
 70
0
 71
3
 72
52
 73
48
 74
0
 42
0.0000001
 43
0.0000001
 44
0.0000000001
 40
0.0
 40
0.0
 40
0.0
 40
0.0
 40
0.005565761
 40
0.0112552373
 40
0.0171221412
 40
0.0232149299
 40
0.0295762691
 40
0.0362428273
 40
0.0432456368
 40
0.0506104302
 40
0.0583583388
 40
0.0665063161
 40
0.0750678387
 40
0.084053225
 40
0.0934702311
 40
0.1033242329
 40
0.1136187114
 40
0.1243553222
 40
0.1355342953
 40
0.1471544226
 40
0.1592133979
 40
0.171707749
 40
0.1846331351
 40
0.1979842449
 40
0.2117550628
 40
0.2259387456
 40
0.240527867
 40
0.2555142815
 40
0.2866430936
 40
0.3192502
 40
0.3532521284
 40
0.3885586347
 40
0.4250734658
 40
0.4626950345
 40
0.5013170325
 40
0.5408290013
 40
0.5811168715
 40
0.6220634819
 40
0.6635490835
 40
0.7054518331
 40
0.7476482804
 40
0.7900138498
 40
0.8324233217
 40
0.8747513057
 40
0.916872732
 40
0.9586632949
 40
1.0
 40
1.0
 40
1.0
 40
1.0
 10
9.8565546663
 20
10.5110190026
 30
0.0
 10
9.8567125229
 20
10.5123393981
 30
0.0
 10
9.8571769885
 20
10.5149942066
 30
0.0
 10
9.8582988048
 20
10.5189352051
 30
0.0
 10
9.8598493245
 20
10.5228635982
 30
0.0
 10
9.8618259725
 20
10.5267755787
 30
0.0
 10
9.8642263293
 20
10.5306684216
 30
0.0
 10
9.8670476954
 20
10.53453952
 30
0.0
 10
9.8702874817
 20
10.5383862926
 30
0.0
 10
9.8739428219
 20
10.5422062787
 30
0.0
 10
9.8780108125
 20
10.545996834
 30
0.0
 10
9.882488195
 20
10.5497554024
 30
0.0
 10
9.8873715522
 20
10.5534792237
 30
0.0
 10
9.892657075
 20
10.5571656455
 30
0.0
 10
9.8983407301
 20
10.5608118385
 30
0.0
 10
9.9044180918
 20
10.5644151076
 30
0.0
 10
9.9108844808
 20
10.5679726125
 30
0.0
 10
9.9177348422
 20
10.5714816655
 30
0.0
 10
9.9249638559
 20
10.5749394588
 30
0.0
 10
9.9325658479
 20
10.5783433477
 30
0.0
 10
9.9405348765
 20
10.5816905863
 30
0.0
 10
9.9488646678
 20
10.5849785973
 30
0.0
 10
9.9575486827
 20
10.5882047169
 30
0.0
 10
9.9665800701
 20
10.5913664518
 30
0.0
 10
9.9759517195
 20
10.5944612364
 30
0.0
 10
9.9856562249
 20
10.5974866677
 30
0.0
 10
9.9956859413
 20
10.6004403142
 30
0.0
 10
10.0096591681
 20
10.6043289384
 30
0.0
 10
10.0278861505
 20
10.6089808984
 30
0.0
 10
10.0506558822
 20
10.6141731808
 30
0.0
 10
10.0745194982
 20
10.6190269996
 30
0.0
 10
10.0994015183
 20
10.623526852
 30
0.0
 10
10.1252233849
 20
10.6276583362
 30
0.0
 10
10.1519034503
 20
10.6314082448
 30
0.0
 10
10.1793573269
 20
10.6347645927
 30
0.0
 10
10.2074981413
 20
10.637716658
 30
0.0
 10
10.2362368229
 20
10.6402550136
 30
0.0
 10
10.2654823896
 20
10.6423715562
 30
0.0
 10
10.2951422406
 20
10.6440595309
 30
0.0
 10
10.325122453
 20
10.6453135518
 30
0.0
 10
10.3553280822
 20
10.6461296181
 30
0.0
 10
10.3856634643
 20
10.646505127
 30
0.0
 10
10.4160325238
 20
10.6464388803
 30
0.0
 10
10.4463390706
 20
10.6459310902
 30
0.0
 10
10.4764871426
 20
10.6449833741
 30
0.0
 10
10.5063811673
 20
10.6435987617
 30
0.0
 10
10.5262057947
 20
10.6423795108
 30
0.0
 10
10.5360584918
 20
10.641696224
 30
0.0
  0
SPLINE
  5
36C
100
AcDbEntity
  8
0
100
AcDbSpline
 62
7
  6
CONTINUOUS
 70
0
 71
3
 72
11
 73
7
 74
0
 42
0.0000001
 43
0.0000001
 44
0.0000000001
 40
0.0
 40
0.0
 40
0.0
 40
0.0
 40
0.2409648364
 40
0.4884046301
 40
0.7416477448
 40
1.0
 40
1.0
 40
1.0
 40
1.0
 10
10.1308146459
 20
9.8061241027
 30
0.0
 10
10.1390450117
 20
9.807400541
 30
0.0
 10
10.1557519722
 20
9.8098283523
 30
0.0
 10
10.1811827839
 20
9.813062906
 30
0.0
 10
10.2072620551
 20
9.8159319909
 30
0.0
 10
10.2248688285
 20
9.8175803286
 30
0.0
 10
10.2337658782
 20
9.8183437253
 30
0.0
  0
SPLINE
  5
36D
100
AcDbEntity
  8
0
100
AcDbSpline
 62
7
  6
CONTINUOUS
 70
0
 71
3
 72
66
 73
62
 74
0
 42
0.0000001
 43
0.0000001
 44
0.0000000001
 40
0.0
 40
0.0
 40
0.0
 40
0.0
 40
0.015675267
 40
0.0314036117
 40
0.0471826331
 40
0.0630115707
 40
0.0788881047
 40
0.0948097835
 40
0.1107737216
 40
0.1267766246
 40
0.1428148656
 40
0.1588844947
 40
0.1910922109
 40
0.2233719511
 40
0.2556847221
 40
0.2879903865
 40
0.3202490491
 40
0.3363529832
 40
0.3524310448
 40
0.3684789321
 40
0.3844926123
 40
0.4004683576
 40
0.4164027785
 40
0.4322928578
 40
0.4481359842
 40
0.4639299779
 40
0.4796731125
 40
0.4953641354
 40
0.5110022885
 40
0.5265873183
 40
0.5421194821
 40
0.5575995492
 40
0.5730288029
 40
0.5884090322
 40
0.603742517
 40
0.6190320084
 40
0.6342807071
 40
0.6494922356
 40
0.6646706023
 40
0.6798201611
 40
0.6949455677
 40
0.7100517349
 40
0.7251437807
 40
0.7402269727
 40
0.7553066722
 40
0.7703882778
 40
0.7854771691
 40
0.8005786481
 40
0.8156978816
 40
0.8308398463
 40
0.8460092795
 40
0.8612106301
 40
0.8764480125
 40
0.8917251632
 40
0.9070454147
 40
0.9224116417
 40
0.937826281
 40
0.9532913039
 40
0.9688078709
 40
0.9843777308
 40
1.0
 40
1.0
 40
1.0
 40
1.0
 10
10.0404204295
 20
9.9803865812
 30
0.0
 10
10.0448527664
 20
9.9800791976
 30
0.0
 10
10.0537188694
 20
9.9792459326
 30
0.0
 10
10.0669621398
 20
9.9773495796
 30
0.0
 10
10.0801416833
 20
9.9748089457
 30
0.0
 10
10.0932251726
 20
9.9716304133
 30
0.0
 10
10.1061813633
 20
9.9678215003
 30
0.0
 10
10.1189789769
 20
9.9633914651
 30
0.0
 10
10.131587255
 20
9.9583509893
 30
0.0
 10
10.1439757665
 20
9.9527122789
 30
0.0
 10
10.1561149895
 20
9.9464886907
 30
0.0
 10
10.1719382663
 20
9.9374258142
 30
0.0
 10
10.1909463219
 20
9.9247113612
 30
0.0
 10
10.2122838843
 20
9.907403708
 30
0.0
 10
10.2319692728
 20
9.8881960191
 30
0.0
 10
10.249811399
 20
9.8672747863
 30
0.0
 10
10.2630124502
 20
9.8485630405
 30
0.0
 10
10.2724886253
 20
9.8329423329
 30
0.0
 10
10.2790341287
 20
9.8209351931
 30
0.0
 10
10.2850048034
 20
9.8086608377
 30
0.0
 10
10.2903865055
 20
9.7961485171
 30
0.0
 10
10.2951662018
 20
9.7834284254
 30
0.0
 10
10.2993323653
 20
9.7705311525
 30
0.0
 10
10.3028749341
 20
9.7574877499
 30
0.0
 10
10.3057853785
 20
9.7443296221
 30
0.0
 10
10.3080566674
 20
9.7310884469
 30
0.0
 10
10.3096832929
 20
9.7177961034
 30
0.0
 10
10.3106612903
 20
9.7044845998
 30
0.0
 10
10.3109882981
 20
9.6911859975
 30
0.0
 10
10.3106635031
 20
9.6779323267
 30
0.0
 10
10.3096876496
 20
9.6647555146
 30
0.0
 10
10.3080630312
 20
9.6516873126
 30
0.0
 10
10.3057935479
 20
9.6387592113
 30
0.0
 10
10.3028846478
 20
9.6260023663
 30
0.0
 10
10.2993433073
 20
9.6134475277
 30
0.0
 10
10.295178009
 20
9.6011249716
 30
0.0
 10
10.2903987711
 20
9.5890644122
 30
0.0
 10
10.2850171071
 20
9.577294928
 30
0.0
 10
10.2790459684
 20
9.5658449048
 30
0.0
 10
10.2724997167
 20
9.5547419711
 30
0.0
 10
10.2653941139
 20
9.5440129186
 30
0.0
 10
10.2577463037
 20
9.5336836186
 30
0.0
 10
10.2495747221
 20
9.5237789882
 30
0.0
 10
10.240899063
 20
9.5143229285
 30
0.0
 10
10.231740234
 20
9.5053382671
 30
0.0
 10
10.2221203447
 20
9.4968466591
 30
0.0
 10
10.2120626048
 20
9.4888685776
 30
0.0
 10
10.201591274
 20
9.4814232621
 30
0.0
 10
10.1907316005
 20
9.4745286818
 30
0.0
 10
10.1795097941
 20
9.4682014388
 30
0.0
 10
10.1679529328
 20
9.4624567622
 30
0.0
 10
10.1560888919
 20
9.4573084851
 30
0.0
 10
10.1439462784
 20
9.4527690187
 30
0.0
 10
10.1315543789
 20
9.4488492782
 30
0.0
 10
10.118943082
 20
9.4455586692
 30
0.0
 10
10.1061427936
 20
9.4429050851
 30
0.0
 10
10.0931843456
 20
9.4408949037
 30
0.0
 10
10.0800990592
 20
9.4395329848
 30
0.0
 10
10.0669181989
 20
9.4388224504
 30
0.0
 10
10.0536741361
 20
9.4387651357
 30
0.0
 10
10.0448377807
 20
9.4391617421
 30
0.0
 10
10.0404204295
 20
9.4394680864
 30
0.0
  0
SPLINE
  5
36E
100
AcDbEntity
  8
0
100
AcDbSpline
 62
7
  6
CONTINUOUS
 70
0
 71
3
 72
37
 73
33
 74
0
 42
0.0000001
 43
0.0000001
 44
0.0000000001
 40
0.0
 40
0.0
 40
0.0
 40
0.0
 40
0.0308559538
 40
0.0618365658
 40
0.0929360901
 40
0.1241508211
 40
0.1554734406
 40
0.1868959724
 40
0.218408921
 40
0.250001652
 40
0.2816625104
 40
0.3133789656
 40
0.3451377833
 40
0.3769251901
 40
0.4405049243
 40
0.5040280578
 40
0.535745464
 40
0.5674075233
 40
0.5990016881
 40
0.6305162814
 40
0.6619406516
 40
0.6932653169
 40
0.7244820981
 40
0.7555842394
 40
0.7865665172
 40
0.8174253286
 40
0.8481587576
 40
0.8787666207
 40
0.9092504893
 40
0.9396136896
 40
0.9698612806
 40
1.0
 40
1.0
 40
1.0
 40
1.0
 10
10.1978235165
 20
9.6808559466
 30
0.0
 10
10.1942526896
 20
9.6811035842
 30
0.0
 10
10.1871094918
 20
9.6818107436
 30
0.0
 10
10.1764554019
 20
9.6834968122
 30
0.0
 10
10.1658755934
 20
9.685804737
 30
0.0
 10
10.1554075007
 20
9.6887262113
 30
0.0
 10
10.1450873346
 20
9.6922511654
 30
0.0
 10
10.1349510897
 20
9.6963672316
 30
0.0
 10
10.1250340235
 20
9.7010600791
 30
0.0
 10
10.1153706517
 20
9.7063133231
 30
0.0
 10
10.1059945766
 20
9.712108673
 30
0.0
 10
10.096938494
 20
9.7184258613
 30
0.0
 10
10.0882336455
 20
9.7252431835
 30
0.0
 10
10.077137657
 20
9.7349663202
 30
0.0
 10
10.0642971131
 20
9.748244851
 30
0.0
 10
10.0529995729
 20
9.7628486511
 30
0.0
 10
10.0449841744
 20
9.7752038787
 30
0.0
 10
10.0395065829
 20
9.7847698084
 30
0.0
 10
10.0345805692
 20
9.7946045075
 30
0.0
 10
10.0302230441
 20
9.8046740567
 30
0.0
 10
10.0264492679
 20
9.8149433326
 30
0.0
 10
10.0232723931
 20
9.8253766193
 30
0.0
 10
10.0207035264
 20
9.8359375987
 30
0.0
 10
10.0187516629
 20
9.8465895102
 30
0.0
 10
10.0174236367
 20
9.8572952645
 30
0.0
 10
10.0167241147
 20
9.8680175815
 30
0.0
 10
10.0166555822
 20
9.8787191133
 30
0.0
 10
10.0172183366
 20
9.8893625879
 30
0.0
 10
10.0184104672
 20
9.8999108784
 30
0.0
 10
10.0202279275
 20
9.9103273479
 30
0.0
 10
10.02266426
 20
9.9205751797
 30
0.0
 10
10.0246993246
 20
9.9272835261
 30
0.0
 10
10.0258169026
 20
9.9305962962
 30
0.0
  0
SPLINE
  5
36F
100
AcDbEntity
  8
0
100
AcDbSpline
 62
7
  6
CONTINUOUS
 70
0
 71
3
 72
40
 73
36
 74
0
 42
0.0000001
 43
0.0000001
 44
0.0000000001
 40
0.0
 40
0.0
 40
0.0
 40
0.0
 40
0.0064601002
 40
0.0130084219
 40
0.0196776313
 40
0.0264984394
 40
0.0406995059
 40
0.0558184103
 40
0.0720148568
 40
0.0894126802
 40
0.1081049672
 40
0.1281594136
 40
0.1496229855
 40
0.1725257793
 40
0.1968842409
 40
0.222703578
 40
0.2499795202
 40
0.2786998624
 40
0.3088456524
 40
0.3403920018
 40
0.3733087745
 40
0.4075612728
 40
0.4431106896
 40
0.4799144063
 40
0.5179264222
 40
0.5570976783
 40
0.5973762392
 40
0.6387075157
 40
0.6810345673
 40
0.7242982557
 40
0.7684373158
 40
0.8133888182
 40
0.8590879415
 40
0.9054679337
 40
1.0
 40
1.0
 40
1.0
 40
1.0
 10
10.9360421428
 20
10.5109840034
 30
0.0
 10
10.9359313044
 20
10.511918611
 30
0.0
 10
10.935635842
 20
10.5137927696
 30
0.0
 10
10.9349788876
 20
10.5165857687
 30
0.0
 10
10.9341061717
 20
10.5193742745
 30
0.0
 10
10.9326364037
 20
10.523134198
 30
0.0
 10
10.9302304164
 20
10.5278348015
 30
0.0
 10
10.926530087
 20
10.5333529299
 30
0.0
 10
10.9219871407
 20
10.5388194746
 30
0.0
 10
10.9166105445
 20
10.5442278086
 30
0.0
 10
10.9104090355
 20
10.5495720635
 30
0.0
 10
10.9033921321
 20
10.5548454254
 30
0.0
 10
10.895570398
 20
10.5600407325
 30
0.0
 10
10.886955673
 20
10.5651505148
 30
0.0
 10
10.8775610861
 20
10.5701671226
 30
0.0
 10
10.8674010874
 20
10.5750828357
 30
0.0
 10
10.8564914579
 20
10.5798900013
 30
0.0
 10
10.844849249
 20
10.5845810468
 30
0.0
 10
10.8324927338
 20
10.5891485137
 30
0.0
 10
10.8194413888
 20
10.5935851176
 30
0.0
 10
10.8057158544
 20
10.5978837843
 30
0.0
 10
10.7913378711
 20
10.6020376292
 30
0.0
 10
10.7763302453
 20
10.6060399813
 30
0.0
 10
10.760716823
 20
10.6098844383
 30
0.0
 10
10.744522433
 20
10.6135648405
 30
0.0
 10
10.7277728371
 20
10.6170752749
 30
0.0
 10
10.7104947001
 20
10.6204101105
 30
0.0
 10
10.6927155449
 20
10.6235640139
 30
0.0
 10
10.6744636939
 20
10.6265319258
 30
0.0
 10
10.6557682352
 20
10.629309074
 30
0.0
 10
10.6366589556
 20
10.6318910274
 30
0.0
 10
10.6171663367
 20
10.6342736391
 30
0.0
 10
10.5973214674
 20
10.6364531011
 30
0.0
 10
10.5702632488
 20
10.6391001723
 30
0.0
 10
10.5497976495
 20
10.6407434101
 30
0.0
 10
10.5360584918
 20
10.641696224
 30
0.0
  0
SPLINE
  5
370
100
AcDbEntity
  8
0
100
AcDbSpline
 62
7
  6
CONTINUOUS
 70
0
 71
3
 72
23
 73
19
 74
0
 42
0.0000001
 43
0.0000001
 44
0.0000000001
 40
0.0
 40
0.0
 40
0.0
 40
0.0
 40
0.0638614315
 40
0.1275032443
 40
0.1909230334
 40
0.2541276741
 40
0.3171224002
 40
0.379915926
 40
0.4425188184
 40
0.5049436646
 40
0.5672049931
 40
0.6293190762
 40
0.6913037914
 40
0.7531784355
 40
0.8149635211
 40
0.876680553
 40
0.9383517903
 40
1.0
 40
1.0
 40
1.0
 40
1.0
 10
10.5437006495
 20
7.0016085079
 30
0.0
 10
10.5493681508
 20
7.0012154654
 30
0.0
 10
10.5607053072
 20
7.0007127059
 30
0.0
 10
10.5776963843
 20
7.0008139462
 30
0.0
 10
10.5946027372
 20
7.0017717355
 30
0.0
 10
10.611381053
 20
7.0035835363
 30
0.0
 10
10.6279894114
 20
7.006244969
 30
0.0
 10
10.6443858848
 20
7.0097493385
 30
0.0
 10
10.6605292136
 20
7.0140878633
 30
0.0
 10
10.6763787357
 20
7.0192496536
 30
0.0
 10
10.6918945265
 20
7.025221747
 30
0.0
 10
10.707037492
 20
7.0319891502
 30
0.0
 10
10.7217694647
 20
7.0395348595
 30
0.0
 10
10.7360533353
 20
7.047839885
 30
0.0
 10
10.7498530785
 20
7.0568832877
 30
0.0
 10
10.7631340337
 20
7.0666424203
 30
0.0
 10
10.7758622827
 20
7.0770922703
 30
0.0
 10
10.7839595164
 20
7.0845033388
 30
0.0
 10
10.7879040788
 20
7.0883134775
 30
0.0
  0
SPLINE
  5
371
100
AcDbEntity
  8
0
100
AcDbSpline
 62
7
  6
CONTINUOUS
 70
0
 71
3
 72
11
 73
7
 74
0
 42
0.0000001
 43
0.0000001
 44
0.0000000001
 40
0.0
 40
0.0
 40
0.0
 40
0.0
 40
0.2718602354
 40
0.5284195937
 40
0.7706932564
 40
1.0
 40
1.0
 40
1.0
 40
1.0
 10
12.3730636434
 20
8.6710263994
 30
0.0
 10
12.372150829
 20
8.6701446884
 30
0.0
 10
12.3703262777
 20
8.6684817221
 30
0.0
 10
12.367508646
 20
8.6662397349
 30
0.0
 10
12.3646943989
 20
8.6643273928
 30
0.0
 10
12.3627727555
 20
8.663246163
 30
0.0
 10
12.3618156617
 20
8.662766727
 30
0.0
  0
SPLINE
  5
372
100
AcDbEntity
  8
0
100
AcDbSpline
 62
7
  6
CONTINUOUS
 70
0
 71
3
 72
37
 73
33
 74
0
 42
0.0000001
 43
0.0000001
 44
0.0000000001
 40
0.0
 40
0.0
 40
0.0
 40
0.0
 40
0.030823463
 40
0.0617683955
 40
0.0928289583
 40
0.1240020343
 40
0.1552807572
 40
0.1866577369
 40
0.2181241826
 40
0.2496702122
 40
0.2812849931
 40
0.3129568489
 40
0.3446734163
 40
0.3764217924
 40
0.4399378161
 40
0.5034197864
 40
0.535126016
 40
0.5667842818
 40
0.5983823865
 40
0.6299088574
 40
0.6613530882
 40
0.6927054771
 40
0.7239575583
 40
0.7551021148
 40
0.7861332787
 40
0.8170466174
 40
0.8478392093
 40
0.8785097042
 40
0.9090583562
 40
0.9394870374
 40
0.9697992301
 40
1.0
 40
1.0
 40
1.0
 40
1.0
 10
10.1941588154
 20
9.6546168586
 30
0.0
 10
10.1902491673
 20
9.6548879937
 30
0.0
 10
10.1824282347
 20
9.6556559629
 30
0.0
 10
10.1707603928
 20
9.6574742621
 30
0.0
 10
10.1591695395
 20
9.6599554775
 30
0.0
 10
10.1476945316
 20
9.6630911208
 30
0.0
 10
10.1363729285
 20
9.6668709841
 30
0.0
 10
10.1252421295
 20
9.671282516
 30
0.0
 10
10.1143387829
 20
9.6763111536
 30
0.0
 10
10.1036988185
 20
9.6819402795
 30
0.0
 10
10.093357267
 20
9.6881513386
 30
0.0
 10
10.0833482763
 20
9.6949237708
 30
0.0
 10
10.0737045449
 20
9.7022355557
 30
0.0
 10
10.0613765285
 20
9.7126705258
 30
0.0
 10
10.0470388362
 20
9.7269351256
 30
0.0
 10
10.0343128419
 20
9.7426477009
 30
0.0
 10
10.0252007047
 20
9.755962604
 30
0.0
 10
10.0189249812
 20
9.7662846284
 30
0.0
 10
10.0132272526
 20
9.776910362
 30
0.0
 10
10.0081260507
 20
9.7878051128
 30
0.0
 10
10.0036382984
 20
9.7989329088
 30
0.0
 10
9.9997787961
 20
9.8102571054
 30
0.0
 10
9.9965602889
 20
9.8217403764
 30
0.0
 10
9.9939934194
 20
9.833344881
 30
0.0
 10
9.9920866939
 20
9.8450323722
 30
0.0
 10
9.9908464591
 20
9.8567643252
 30
0.0
 10
9.9902768558
 20
9.8685020539
 30
0.0
 10
9.9903797998
 20
9.8802068592
 30
0.0
 10
9.9911549895
 20
9.8918400967
 30
0.0
 10
9.9925999663
 20
9.9033635249
 30
0.0
 10
9.9947098715
 20
9.9147385968
 30
0.0
 10
9.996558821
 20
9.9222125334
 30
0.0
 10
9.9975916377
 20
9.925910893
 30
0.0
  0
SPLINE
  5
373
100
AcDbEntity
  8
0
100
AcDbSpline
 62
7
  6
CONTINUOUS
 70
0
 71
3
 72
56
 73
52
 74
0
 42
0.0000001
 43
0.0000001
 44
0.0000000001
 40
0.0
 40
0.0
 40
0.0
 40
0.0
 40
0.0528988178
 40
0.1050249547
 40
0.1562613383
 40
0.2064945323
 40
0.2556136803
 40
0.3035116986
 40
0.3500853851
 40
0.3952359925
 40
0.4388696809
 40
0.4808980694
 40
0.5212388384
 40
0.5598164258
 40
0.5965628475
 40
0.6142309653
 40
0.6314197927
 40
0.6481234407
 40
0.6643367593
 40
0.6800553156
 40
0.6952755833
 40
0.7099948626
 40
0.724211563
 40
0.7379250905
 40
0.7511362104
 40
0.7638469421
 40
0.776060981
 40
0.7877836529
 40
0.7990223741
 40
0.8097867189
 40
0.8200889029
 40
0.8299440013
 40
0.8393704435
 40
0.848390382
 40
0.8570301577
 40
0.8732871703
 40
0.8809923201
 40
0.8884716055
 40
0.8957762193
 40
0.9029614893
 40
0.910085848
 40
0.9172093616
 40
0.92439212
 40
0.9316926219
 40
0.9391662991
 40
0.9468644709
 40
0.9631039601
 40
0.9717335158
 40
0.9807424301
 40
0.9901571718
 40
1.0
 40
1.0
 40
1.0
 40
1.0
 10
10.5601286478
 20
10.7547773354
 30
0.0
 10
10.5701277365
 20
10.7540838962
 30
0.0
 10
10.5899708309
 20
10.752572782
 30
0.0
 10
10.6194598741
 20
10.7499117012
 30
0.0
 10
10.6484051982
 20
10.7468776705
 30
0.0
 10
10.6767361648
 20
10.7434781583
 30
0.0
 10
10.7043838439
 20
10.7397214857
 30
0.0
 10
10.7312808894
 20
10.7356168815
 30
0.0
 10
10.7573618424
 20
10.7311744161
 30
0.0
 10
10.7825632422
 20
10.7264049994
 30
0.0
 10
10.8068238128
 20
10.7213203448
 30
0.0
 10
10.8300845912
 20
10.7159329424
 30
0.0
 10
10.8522891692
 20
10.7102560306
 30
0.0
 10
10.8733835508
 20
10.7043035404
 30
0.0
 10
10.8902077239
 20
10.6990593982
 30
0.0
 10
10.9030651562
 20
10.6947272076
 30
0.0
 10
10.9122729655
 20
10.6914608753
 30
0.0
 10
10.9211664137
 20
10.6881368012
 30
0.0
 10
10.9297401208
 20
10.6847570067
 30
0.0
 10
10.937988879
 20
10.6813235228
 30
0.0
 10
10.9459077041
 20
10.6778384786
 30
0.0
 10
10.9534917923
 20
10.6743039373
 30
0.0
 10
10.9607365806
 20
10.6707220999
 30
0.0
 10
10.9676376793
 20
10.6670950624
 30
0.0
 10
10.9741909605
 20
10.6634250781
 30
0.0
 10
10.9803924607
 20
10.6597142706
 30
0.0
 10
10.9862384948
 20
10.6559649202
 30
0.0
 10
10.991725536
 20
10.6521791693
 30
0.0
 10
10.9968503409
 20
10.6483592936
 30
0.0
 10
11.0016098235
 20
10.6445074357
 30
0.0
 10
11.0060011574
 20
10.6406258423
 30
0.0
 10
11.0100217073
 20
10.6367165926
 30
0.0
 10
11.0136689272
 20
10.632782024
 30
0.0
 10
11.0169408908
 20
10.6288236086
 30
0.0
 10
11.0207223675
 20
10.6236244522
 30
0.0
 10
11.0238568518
 20
10.6182707297
 30
0.0
 10
11.0262308891
 20
10.6128005094
 30
0.0
 10
11.0275948481
 20
10.6087577722
 30
0.0
 10
11.0285719413
 20
10.6047055823
 30
0.0
 10
11.0291609064
 20
10.6006466656
 30
0.0
 10
11.0293610039
 20
10.5965843309
 30
0.0
 10
11.0291718033
 20
10.5925219481
 30
0.0
 10
11.0285937178
 20
10.5884628904
 30
0.0
 10
11.0276274765
 20
10.5844104717
 30
0.0
 10
11.0262743257
 20
10.5803674266
 30
0.0
 10
11.0239150473
 20
10.5748970221
 30
0.0
 10
11.0207948155
 20
10.5695424914
 30
0.0
 10
11.0170270722
 20
10.5643424374
 30
0.0
 10
11.0137656392
 20
10.5603833771
 30
0.0
 10
11.0101289746
 20
10.5564481994
 30
0.0
 10
11.007515142
 20
10.5538996358
 30
0.0
 10
11.0061498784
 20
10.5526291091
 30
0.0
  0
SPLINE
  5
374
100
AcDbEntity
  8
0
100
AcDbSpline
 62
7
  6
CONTINUOUS
 70
0
 71
3
 72
11
 73
7
 74
0
 42
0.0000001
 43
0.0000001
 44
0.0000000001
 40
0.0
 40
0.0
 40
0.0
 40
0.0
 40
0.2478424992
 40
0.4970647539
 40
0.7477638899
 40
1.0
 40
1.0
 40
1.0
 40
1.0
 10
10.2604042805
 20
9.6876715371
 30
0.0
 10
10.2553961514
 20
9.6861747754
 30
0.0
 10
10.245207628
 20
9.6836346396
 30
0.0
 10
10.2296017381
 20
9.681223244
 30
0.0
 10
10.2137501489
 20
9.6802170614
 30
0.0
 10
10.2031304434
 20
9.6804879099
 30
0.0
 10
10.1978235165
 20
9.6808559466
 30
0.0
  0
SPLINE
  5
375
100
AcDbEntity
  8
0
100
AcDbSpline
 62
7
  6
CONTINUOUS
 70
0
 71
3
 72
21
 73
17
 74
0
 42
0.0000001
 43
0.0000001
 44
0.0000000001
 40
0.0
 40
0.0
 40
0.0
 40
0.0
 40
0.1274737337
 40
0.2540668326
 40
0.3170668527
 40
0.3798654268
 40
0.4424734291
 40
0.5049033655
 40
0.5671697542
 40
0.6292888982
 40
0.691278661
 40
0.7531583401
 40
0.8149484594
 40
0.8766705207
 40
0.9383467752
 40
1.0
 40
1.0
 40
1.0
 40
1.0
 10
10.0582789289
 20
9.5233669592
 30
0.0
 10
10.0650693302
 20
9.5228960433
 30
0.0
 10
10.0786594355
 20
9.5226308212
 30
0.0
 10
10.0955638179
 20
9.5240168088
 30
0.0
 10
10.108876024
 20
9.5261501641
 30
0.0
 10
10.1187187514
 20
9.5282537794
 30
0.0
 10
10.1284092981
 20
9.5308581103
 30
0.0
 10
10.1379235272
 20
9.5339566724
 30
0.0
 10
10.1472374107
 20
9.5375416307
 30
0.0
 10
10.1563275049
 20
9.541603984
 30
0.0
 10
10.1651708749
 20
9.5461335656
 30
0.0
 10
10.1737452592
 20
9.5511189457
 30
0.0
 10
10.1820290403
 20
9.5565475459
 30
0.0
 10
10.1900013901
 20
9.562405806
 30
0.0
 10
10.1976419372
 20
9.5686787147
 30
0.0
 10
10.2025026111
 20
9.5731274313
 30
0.0
 10
10.2048704586
 20
9.5754146106
 30
0.0
  0
SPLINE
  5
376
100
AcDbEntity
  8
0
100
AcDbSpline
 62
7
  6
CONTINUOUS
 70
0
 71
3
 72
23
 73
19
 74
0
 42
0.0000001
 43
0.0000001
 44
0.0000000001
 40
0.0
 40
0.0
 40
0.0
 40
0.0
 40
0.0755970481
 40
0.1466395192
 40
0.2134651039
 40
0.2765141432
 40
0.3363266137
 40
0.3935468688
 40
0.4489231172
 40
0.5032882226
 40
0.5575261408
 40
0.6125274601
 40
0.6691434874
 40
0.7281489695
 40
0.7902195499
 40
0.8559235776
 40
0.9257266248
 40
1.0
 40
1.0
 40
1.0
 40
1.0
 10
12.4488888253
 20
8.5899427233
 30
0.0
 10
12.4476937355
 20
8.5887883551
 30
0.0
 10
12.4453051625
 20
8.5866201041
 30
0.0
 10
12.441608599
 20
8.5837234758
 30
0.0
 10
12.4379163872
 20
8.5812907031
 30
0.0
 10
12.4342318838
 20
8.5793254826
 30
0.0
 10
12.4305582044
 20
8.5778312905
 30
0.0
 10
12.426899092
 20
8.5768119428
 30
0.0
 10
12.4232593886
 20
8.5762708707
 30
0.0
 10
12.4196451324
 20
8.5762107858
 30
0.0
 10
12.4160632724
 20
8.576632445
 30
0.0
 10
12.4125207621
 20
8.5775346975
 30
0.0
 10
12.4090236058
 20
8.5789144343
 30
0.0
 10
12.40557644
 20
8.5807676466
 30
0.0
 10
12.4021827774
 20
8.5830901225
 30
0.0
 10
12.398845305
 20
8.5858777691
 30
0.0
 10
12.3955667953
 20
8.5891265497
 30
0.0
 10
12.393488902
 20
8.591520223
 30
0.0
 10
12.3924588591
 20
8.5927867073
 30
0.0
  0
SPLINE
  5
377
100
AcDbEntity
  8
0
100
AcDbSpline
 62
7
  6
CONTINUOUS
 70
0
 71
3
 72
11
 73
7
 74
0
 42
0.0000001
 43
0.0000001
 44
0.0000000001
 40
0.0
 40
0.0
 40
0.0
 40
0.0
 40
0.2519323955
 40
0.5025493334
 40
0.7518854635
 40
1.0
 40
1.0
 40
1.0
 40
1.0
 10
10.1941588154
 20
9.6546168586
 30
0.0
 10
10.1992734652
 20
9.6542621565
 30
0.0
 10
10.2095068394
 20
9.6539368508
 30
0.0
 10
10.2248074699
 20
9.65461308
 30
0.0
 10
10.2399343129
 20
9.6564505033
 30
0.0
 10
10.2498709169
 20
9.6584481781
 30
0.0
 10
10.2547782919
 20
9.6596366593
 30
0.0
  0
SPLINE
  5
378
100
AcDbEntity
  8
0
100
AcDbSpline
 62
7
  6
CONTINUOUS
 70
0
 71
3
 72
69
 73
65
 74
0
 42
0.0000001
 43
0.0000001
 44
0.0000000001
 40
0.0
 40
0.0
 40
0.0
 40
0.0
 40
0.0156750103
 40
0.031402742
 40
0.0471814409
 40
0.0630099666
 40
0.0788860838
 40
0.0948073637
 40
0.110770892
 40
0.1267733877
 40
0.1428112186
 40
0.1588804363
 40
0.1749768154
 40
0.1910958902
 40
0.2072329957
 40
0.2233833086
 40
0.2395418905
 40
0.2557037313
 40
0.2880085698
 40
0.3202664098
 40
0.3363699321
 40
0.3524475822
 40
0.3684950598
 40
0.3845083316
 40
0.4004836689
 40
0.4164176825
 40
0.4323073564
 40
0.4481500786
 40
0.4639436683
 40
0.4796863997
 40
0.4953770225
 40
0.5110147775
 40
0.5265994095
 40
0.5421311754
 40
0.5576108466
 40
0.5730397068
 40
0.5884195438
 40
0.6037526368
 40
0.6190417375
 40
0.6342900472
 40
0.6495011875
 40
0.664679166
 40
0.679828337
 40
0.6949533576
 40
0.7100591401
 40
0.7251508008
 40
0.740233607
 40
0.7553129206
 40
0.7703941411
 40
0.7854826475
 40
0.800583741
 40
0.815702588
 40
0.8308441662
 40
0.8460132125
 40
0.8612141749
 40
0.8764511671
 40
0.8917279278
 40
0.9070477857
 40
0.9224136294
 40
0.9378278646
 40
0.9532924839
 40
0.9688087341
 40
0.9843779855
 40
1.0
 40
1.0
 40
1.0
 40
1.0
 10
10.5233833712
 20
6.9061583411
 30
0.0
 10
10.5165765057
 20
6.9066303988
 30
0.0
 10
10.502960731
 20
6.9079100279
 30
0.0
 10
10.4826228513
 20
6.9108223246
 30
0.0
 10
10.4623828936
 20
6.9147239804
 30
0.0
 10
10.4422903711
 20
6.9196053287
 30
0.0
 10
10.4223933681
 20
6.925454719
 30
0.0
 10
10.4027398775
 20
6.9322579648
 30
0.0
 10
10.3833771845
 20
6.939998688
 30
0.0
 10
10.3643519022
 20
6.9486582125
 30
0.0
 10
10.3457098179
 20
6.9582156599
 30
0.0
 10
10.3274957988
 20
6.9686479968
 30
0.0
 10
10.3097536786
 20
6.9799300923
 30
0.0
 10
10.292526165
 20
6.9920347671
 30
0.0
 10
10.2758546994
 20
7.0049329047
 30
0.0
 10
10.2597794999
 20
7.0185933421
 30
0.0
 10
10.2443389166
 20
7.0329835938
 30
0.0
 10
10.224653534
 20
7.0530906613
 30
0.0
 10
10.20181783
 20
7.0798665468
 30
0.0
 10
10.1815457084
 20
7.1086015231
 30
0.0
 10
10.1669929178
 20
7.1325906042
 30
0.0
 10
10.1569409179
 20
7.1510301147
 30
0.0
 10
10.1477716465
 20
7.1698800171
 30
0.0
 10
10.1395068873
 20
7.1890953638
 30
0.0
 10
10.1321666478
 20
7.2086297945
 30
0.0
 10
10.1257686136
 20
7.2284363214
 30
0.0
 10
10.120328229
 20
7.2484672585
 30
0.0
 10
10.1158586193
 20
7.2686743841
 30
0.0
 10
10.1123705828
 20
7.2890090482
 30
0.0
 10
10.1098725594
 20
7.3094222903
 30
0.0
 10
10.1083706114
 20
7.329864955
 30
0.0
 10
10.1078684073
 20
7.3502878097
 30
0.0
 10
10.108367213
 20
7.3706416618
 30
0.0
 10
10.1098658689
 20
7.3908774778
 30
0.0
 10
10.11236081
 20
7.4109465025
 30
0.0
 10
10.1158460733
 20
7.4308003753
 30
0.0
 10
10.1203133113
 20
7.4503912456
 30
0.0
 10
10.1257518099
 20
7.4696718876
 30
0.0
 10
10.1321485155
 20
7.4885958137
 30
0.0
 10
10.1394880501
 20
7.5071173912
 30
0.0
 10
10.1477527528
 20
7.5251919549
 30
0.0
 10
10.1569227306
 20
7.5427759109
 30
0.0
 10
10.1669759039
 20
7.5598268433
 30
0.0
 10
10.1778880582
 20
7.5763036168
 30
0.0
 10
10.1896329036
 20
7.5921664766
 30
0.0
 10
10.202182133
 20
7.6073771479
 30
0.0
 10
10.2155054814
 20
7.6218989394
 30
0.0
 10
10.2295708154
 20
7.635696822
 30
0.0
 10
10.2443442086
 20
7.6487375154
 30
0.0
 10
10.2597900248
 20
7.6609895685
 30
0.0
 10
10.2758710045
 20
7.6724234359
 30
0.0
 10
10.292548356
 20
7.6830115475
 30
0.0
 10
10.3097818411
 20
7.6927283919
 30
0.0
 10
10.3275298822
 20
7.7015505674
 30
0.0
 10
10.3457496661
 20
7.7094568338
 30
0.0
 10
10.364397248
 20
7.7164281633
 30
0.0
 10
10.383427657
 20
7.7224477864
 30
0.0
 10
10.4027950078
 20
7.7275012292
 30
0.0
 10
10.4224525982
 20
7.7315763481
 30
0.0
 10
10.4423530685
 20
7.7346634021
 30
0.0
 10
10.4624483538
 20
7.7367549483
 30
0.0
 10
10.4826903294
 20
7.7378461016
 30
0.0
 10
10.5030294315
 20
7.7379341611
 30
0.0
 10
10.5165995191
 20
7.7373250627
 30
0.0
 10
10.5233833712
 20
7.7368546009
 30
0.0
  0
SPLINE
  5
379
100
AcDbEntity
  8
0
100
AcDbSpline
 62
4
  6
CONTINUOUS
 70
0
 71
3
 72
322
 73
318
 74
0
 42
0.0000001
 43
0.0000001
 44
0.0000000001
 40
0.0
 40
0.0
 40
0.0
 40
0.0
 40
0.015625
 40
0.0234375
 40
0.03125
 40
0.0390625
 40
0.046875
 40
0.05078125
 40
0.0546875
 40
0.056640625
 40
0.05859375
 40
0.060546875
 40
0.0615234375
 40
0.0620117188
 40
0.0625
 40
0.0629882812
 40
0.0634765625
 40
0.064453125
 40
0.06640625
 40
0.068359375
 40
0.0703125
 40
0.07421875
 40
0.078125
 40
0.0859375
 40
0.09375
 40
0.1015625
 40
0.109375
 40
0.11328125
 40
0.1171875
 40
0.119140625
 40
0.12109375
 40
0.123046875
 40
0.1240234375
 40
0.1245117188
 40
0.125
 40
0.1254882812
 40
0.1259765625
 40
0.126953125
 40
0.12890625
 40
0.130859375
 40
0.1328125
 40
0.13671875
 40
0.140625
 40
0.1484375
 40
0.15625
 40
0.1640625
 40
0.171875
 40
0.17578125
 40
0.1796875
 40
0.181640625
 40
0.18359375
 40
0.185546875
 40
0.1865234375
 40
0.1870117188
 40
0.1875
 40
0.1879882812
 40
0.1884765625
 40
0.189453125
 40
0.19140625
 40
0.193359375
 40
0.1953125
 40
0.19921875
 40
0.203125
 40
0.2109375
 40
0.21875
 40
0.2265625
 40
0.234375
 40
0.23828125
 40
0.2421875
 40
0.244140625
 40
0.24609375
 40
0.248046875
 40
0.2490234375
 40
0.2495117188
 40
0.25
 40
0.2504882812
 40
0.2509765625
 40
0.251953125
 40
0.25390625
 40
0.255859375
 40
0.2578125
 40
0.26171875
 40
0.265625
 40
0.2734375
 40
0.28125
 40
0.2890625
 40
0.296875
 40
0.30078125
 40
0.3046875
 40
0.306640625
 40
0.30859375
 40
0.310546875
 40
0.3115234375
 40
0.3120117188
 40
0.3125
 40
0.3129882812
 40
0.3134765625
 40
0.314453125
 40
0.31640625
 40
0.318359375
 40
0.3203125
 40
0.32421875
 40
0.328125
 40
0.3359375
 40
0.34375
 40
0.3515625
 40
0.359375
 40
0.36328125
 40
0.3671875
 40
0.369140625
 40
0.37109375
 40
0.373046875
 40
0.3740234375
 40
0.3745117188
 40
0.375
 40
0.3754882812
 40
0.3759765625
 40
0.376953125
 40
0.37890625
 40
0.380859375
 40
0.3828125
 40
0.38671875
 40
0.390625
 40
0.3984375
 40
0.40625
 40
0.4140625
 40
0.421875
 40
0.42578125
 40
0.4296875
 40
0.431640625
 40
0.43359375
 40
0.435546875
 40
0.4365234375
 40
0.4370117188
 40
0.4375
 40
0.4379882812
 40
0.4384765625
 40
0.439453125
 40
0.44140625
 40
0.443359375
 40
0.4453125
 40
0.44921875
 40
0.453125
 40
0.4609375
 40
0.46875
 40
0.4765625
 40
0.48046875
 40
0.484375
 40
0.48828125
 40
0.4921875
 40
0.494140625
 40
0.49609375
 40
0.498046875
 40
0.4990234375
 40
0.4995117188
 40
0.5
 40
0.5004882812
 40
0.5009765625
 40
0.501953125
 40
0.50390625
 40
0.505859375
 40
0.5078125
 40
0.51171875
 40
0.515625
 40
0.5234375
 40
0.53125
 40
0.5390625
 40
0.546875
 40
0.55078125
 40
0.5546875
 40
0.556640625
 40
0.55859375
 40
0.560546875
 40
0.5615234375
 40
0.5620117188
 40
0.5625
 40
0.5629882812
 40
0.5634765625
 40
0.564453125
 40
0.56640625
 40
0.568359375
 40
0.5703125
 40
0.57421875
 40
0.578125
 40
0.5859375
 40
0.59375
 40
0.6015625
 40
0.609375
 40
0.61328125
 40
0.6171875
 40
0.619140625
 40
0.62109375
 40
0.623046875
 40
0.6240234375
 40
0.6245117188
 40
0.625
 40
0.6254882812
 40
0.6259765625
 40
0.626953125
 40
0.62890625
 40
0.630859375
 40
0.6328125
 40
0.63671875
 40
0.640625
 40
0.6484375
 40
0.65625
 40
0.6640625
 40
0.66796875
 40
0.671875
 40
0.67578125
 40
0.6796875
 40
0.681640625
 40
0.68359375
 40
0.685546875
 40
0.6865234375
 40
0.6870117188
 40
0.6875
 40
0.6879882812
 40
0.6884765625
 40
0.689453125
 40
0.69140625
 40
0.693359375
 40
0.6953125
 40
0.69921875
 40
0.703125
 40
0.70703125
 40
0.7109375
 40
0.71875
 40
0.7265625
 40
0.73046875
 40
0.734375
 40
0.73828125
 40
0.7421875
 40
0.744140625
 40
0.74609375
 40
0.748046875
 40
0.7490234375
 40
0.7495117188
 40
0.75
 40
0.7504882812
 40
0.7509765625
 40
0.751953125
 40
0.75390625
 40
0.755859375
 40
0.7578125
 40
0.76171875
 40
0.765625
 40
0.76953125
 40
0.7734375
 40
0.78125
 40
0.7890625
 40
0.79296875
 40
0.796875
 40
0.80078125
 40
0.8046875
 40
0.806640625
 40
0.80859375
 40
0.810546875
 40
0.8115234375
 40
0.8120117188
 40
0.8125
 40
0.8129882812
 40
0.8134765625
 40
0.814453125
 40
0.81640625
 40
0.818359375
 40
0.8203125
 40
0.82421875
 40
0.828125
 40
0.83203125
 40
0.8359375
 40
0.84375
 40
0.8515625
 40
0.859375
 40
0.86328125
 40
0.8671875
 40
0.869140625
 40
0.87109375
 40
0.873046875
 40
0.8740234375
 40
0.8745117188
 40
0.875
 40
0.8754882812
 40
0.8759765625
 40
0.876953125
 40
0.87890625
 40
0.880859375
 40
0.8828125
 40
0.88671875
 40
0.890625
 40
0.8984375
 40
0.90625
 40
0.9140625
 40
0.91796875
 40
0.921875
 40
0.92578125
 40
0.9296875
 40
0.931640625
 40
0.93359375
 40
0.935546875
 40
0.9365234375
 40
0.9370117188
 40
0.9375
 40
0.9379882812
 40
0.9384765625
 40
0.939453125
 40
0.94140625
 40
0.943359375
 40
0.9453125
 40
0.94921875
 40
0.953125
 40
0.95703125
 40
0.9609375
 40
0.96875
 40
0.9765625
 40
0.984375
 40
1.0
 40
1.0
 40
1.0
 40
1.0
 10
10.6644086424
 20
9.7265410441
 30
0.0
 10
10.664684581
 20
9.7237076678
 30
0.0
 10
10.6650984887
 20
9.7194576035
 30
0.0
 10
10.6656503665
 20
9.7137908511
 30
0.0
 10
10.6660642727
 20
9.7095407866
 30
0.0
 10
10.6664781873
 20
9.7052907231
 30
0.0
 10
10.66682309
 20
9.7017490002
 30
0.0
 10
10.6670990706
 20
9.6989156294
 30
0.0
 10
10.6672714254
 20
9.6971447555
 30
0.0
 10
10.667409614
 20
9.6957280956
 30
0.0
 10
10.667512421
 20
9.6946654933
 30
0.0
 10
10.667600748
 20
9.6937803329
 30
0.0
 10
10.6676573676
 20
9.6931600504
 30
0.0
 10
10.6676978555
 20
9.6928066498
 30
0.0
 10
10.6677053081
 20
9.6925386514
 30
0.0
 10
10.6678003471
 20
9.6922819214
 30
0.0
 10
10.6678965147
 20
9.6919356842
 30
0.0
 10
10.6680790423
 20
9.6913316004
 30
0.0
 10
10.6683323541
 20
9.6904676662
 30
0.0
 10
10.6686395136
 20
9.6894313549
 30
0.0
 10
10.669047947
 20
9.6880494634
 30
0.0
 10
10.6695588698
 20
9.686322148
 30
0.0
 10
10.6703761332
 20
9.683558416
 30
0.0
 10
10.671397786
 20
9.6801037605
 30
0.0
 10
10.6726237359
 20
9.6759581691
 30
0.0
 10
10.6738497021
 20
9.6718125816
 30
0.0
 10
10.6748713141
 20
9.6683579166
 30
0.0
 10
10.6756886592
 20
9.6655942035
 30
0.0
 10
10.6761993744
 20
9.6638668399
 30
0.0
 10
10.6766082338
 20
9.6624850474
 30
0.0
 10
10.6769140919
 20
9.6614484335
 30
0.0
 10
10.6771714755
 20
9.6605854462
 30
0.0
 10
10.6773467343
 20
9.6599796719
 30
0.0
 10
10.6774545483
 20
9.6596361433
 30
0.0
 10
10.6775138131
 20
9.6593710934
 30
0.0
 10
10.6776556277
 20
9.6591343433
 30
0.0
 10
10.6778159195
 20
9.6588088051
 30
0.0
 10
10.678109846
 20
9.6582437125
 30
0.0
 10
10.6785227271
 20
9.6574340329
 30
0.0
 10
10.6790211865
 20
9.6564634465
 30
0.0
 10
10.6796847505
 20
9.6551689719
 30
0.0
 10
10.6805145646
 20
9.6535510017
 30
0.0
 10
10.6818420664
 20
9.6509621806
 30
0.0
 10
10.6835015129
 20
9.647726178
 30
0.0
 10
10.6854928171
 20
9.6438429638
 30
0.0
 10
10.6874841369
 20
9.639959756
 30
0.0
 10
10.6891435444
 20
9.6367237375
 30
0.0
 10
10.6904711243
 20
9.6341349482
 30
0.0
 10
10.6913007399
 20
9.6325168971
 30
0.0
 10
10.6919647112
 20
9.6312225886
 30
0.0
 10
10.6924619262
 20
9.6302514947
 30
0.0
 10
10.6928787009
 20
9.6294434032
 30
0.0
 10
10.6931656766
 20
9.6288754756
 30
0.0
 10
10.6933371054
 20
9.6285544798
 30
0.0
 10
10.6934447106
 20
9.628303777
 30
0.0
 10
10.6936324604
 20
9.6280911307
 30
0.0
 10
10.6938548382
 20
9.6277943279
 30
0.0
 10
10.6942570241
 20
9.6272811077
 30
0.0
 10
10.694824766
 20
9.6265447024
 30
0.0
 10
10.6955089709
 20
9.6256624002
 30
0.0
 10
10.696420226
 20
9.6244855139
 30
0.0
 10
10.6975596436
 20
9.6230145714
 30
0.0
 10
10.6993825168
 20
9.620660971
 30
0.0
 10
10.7016611755
 20
9.6177190025
 30
0.0
 10
10.7043955357
 20
9.6141886251
 30
0.0
 10
10.7071299092
 20
9.6106582576
 30
0.0
 10
10.7094085346
 20
9.6077162642
 30
0.0
 10
10.7112314744
 20
9.6053627136
 30
0.0
 10
10.7123707227
 20
9.6038916444
 30
0.0
 10
10.7132823252
 20
9.6027150183
 30
0.0
 10
10.7139654689
 20
9.601831921
 30
0.0
 10
10.7145365311
 20
9.6010980032
 30
0.0
 10
10.7149327896
 20
9.6005803425
 30
0.0
 10
10.7151646646
 20
9.6002906545
 30
0.0
 10
10.7153232419
 20
9.6000561538
 30
0.0
 10
10.7155404144
 20
9.5998875324
 30
0.0
 10
10.7158095391
 20
9.5996397245
 30
0.0
 10
10.7162900301
 20
9.5992167671
 30
0.0
 10
10.7169714672
 20
9.5986069447
 30
0.0
 10
10.7177913227
 20
9.5978775538
 30
0.0
 10
10.7188837191
 20
9.5969041958
 30
0.0
 10
10.7202494694
 20
9.5956877847
 30
0.0
 10
10.7224345274
 20
9.5937413669
 30
0.0
 10
10.725165899
 20
9.5913084
 30
0.0
 10
10.7284435228
 20
9.5883888142
 30
0.0
 10
10.7317211569
 20
9.5854692416
 30
0.0
 10
10.7344525026
 20
9.5830362419
 30
0.0
 10
10.7366376126
 20
9.5810898896
 30
0.0
 10
10.7380032308
 20
9.5798733119
 30
0.0
 10
10.7390958983
 20
9.5789002959
 30
0.0
 10
10.7399149256
 20
9.5781698599
 30
0.0
 10
10.7405989538
 20
9.5775633075
 30
0.0
 10
10.7410748193
 20
9.5771345127
 30
0.0
 10
10.7413513551
 20
9.5768960577
 30
0.0
 10
10.741545763
 20
9.5766987072
 30
0.0
 10
10.7417898407
 20
9.5765721081
 30
0.0
 10
10.7420979522
 20
9.5763786304
 30
0.0
 10
10.7426452196
 20
9.5760515428
 30
0.0
 10
10.74342281
 20
9.5755782634
 30
0.0
 10
10.7443577248
 20
9.5750129012
 30
0.0
 10
10.745603647
 20
9.5742581861
 30
0.0
 10
10.7471612657
 20
9.5733151001
 30
0.0
 10
10.7496533349
 20
9.5718059903
 30
0.0
 10
10.752768463
 20
9.5699196626
 30
0.0
 10
10.7565065981
 20
9.5676560419
 30
0.0
 10
10.7602447412
 20
9.5653924357
 30
0.0
 10
10.7633598492
 20
9.5635060718
 30
0.0
 10
10.7658519587
 20
9.5619970345
 30
0.0
 10
10.767409475
 20
9.5610537644
 30
0.0
 10
10.7686556074
 20
9.560299427
 30
0.0
 10
10.7695898798
 20
9.5597329112
 30
0.0
 10
10.7703694801
 20
9.5592632408
 30
0.0
 10
10.7709131595
 20
9.5589297105
 30
0.0
 10
10.7712270199
 20
9.5587465558
 30
0.0
 10
10.7714534388
 20
9.5585882478
 30
0.0
 10
10.7717141702
 20
9.5585099907
 30
0.0
 10
10.7720498435
 20
9.5583777253
 30
0.0
 10
10.7726428481
 20
9.5581592704
 30
0.0
 10
10.7734870822
 20
9.5578403905
 30
0.0
 10
10.774501411
 20
9.5574606459
 30
0.0
 10
10.7758534135
 20
9.5569533029
 30
0.0
 10
10.7775435659
 20
9.5563194724
 30
0.0
 10
10.7802477263
 20
9.5553051488
 30
0.0
 10
10.7836279556
 20
9.5540373116
 30
0.0
 10
10.7876842178
 20
9.5525158761
 30
0.0
 10
10.7917404858
 20
9.5509944565
 30
0.0
 10
10.7951207006
 20
9.5497265795
 30
0.0
 10
10.7978248899
 20
9.5487123355
 30
0.0
 10
10.7995149689
 20
9.5480783027
 30
0.0
 10
10.800867122
 20
9.5475713748
 30
0.0
 10
10.8018809908
 20
9.5471903622
 30
0.0
 10
10.8027266642
 20
9.5468754496
 30
0.0
 10
10.8033170993
 20
9.5466499124
 30
0.0
 10
10.8036568897
 20
9.5465289946
 30
0.0
 10
10.8039049749
 20
9.5464158813
 30
0.0
 10
10.8041788908
 20
9.5463884876
 30
0.0
 10
10.804535102
 20
9.5463220627
 30
0.0
 10
10.8051626695
 20
9.5462197501
 30
0.0
 10
10.8060569997
 20
9.546066306
 30
0.0
 10
10.8071311355
 20
9.5458852906
 30
0.0
 10
10.8085629884
 20
9.5456428478
 30
0.0
 10
10.8103529168
 20
9.5453401671
 30
0.0
 10
10.8132167396
 20
9.5448556696
 30
0.0
 10
10.8167965396
 20
9.5442501192
 30
0.0
 10
10.8210922902
 20
9.5435234286
 30
0.0
 10
10.8246720847
 20
9.5429178581
 30
0.0
 10
10.8275359195
 20
9.5424334047
 30
0.0
 10
10.8296837967
 20
9.5420700528
 30
0.0
 10
10.8318316699
 20
9.5417067466
 30
0.0
 10
10.8336215767
 20
9.5414038491
 30
0.0
 10
10.8350534741
 20
9.5411618499
 30
0.0
 10
10.8361274737
 20
9.5409794793
 30
0.0
 10
10.8370222301
 20
9.5408302752
 30
0.0
 10
10.8376490369
 20
9.5407203934
 30
0.0
 10
10.838006467
 20
9.5406660963
 30
0.0
 10
10.8382766387
 20
9.5406014502
 30
0.0
 10
10.8385387865
 20
9.5406282507
 30
0.0
 10
10.8388911158
 20
9.5406320871
 30
0.0
 10
10.8395063879
 20
9.5406536626
 30
0.0
 10
10.8403860299
 20
9.5406767148
 30
0.0
 10
10.8414413084
 20
9.5407077032
 30
0.0
 10
10.8428484484
 20
9.5407478595
 30
0.0
 10
10.8446073385
 20
9.5407984525
 30
0.0
 10
10.8474215822
 20
9.5408791791
 30
0.0
 10
10.85093938
 20
9.5409801641
 30
0.0
 10
10.8551607407
 20
9.541101311
 30
0.0
 10
10.8593820989
 20
9.5412224752
 30
0.0
 10
10.8628999028
 20
9.5413234169
 30
0.0
 10
10.8657141343
 20
9.54140423
 30
0.0
 10
10.8674730553
 20
9.5414546032
 30
0.0
 10
10.8688801318
 20
9.5414952107
 30
0.0
 10
10.8699356044
 20
9.5415248205
 30
0.0
 10
10.8708146393
 20
9.5415521862
 30
0.0
 10
10.8714309951
 20
9.5415660613
 30
0.0
 10
10.871781588
 20
9.5415822356
 30
0.0
 10
10.8720490695
 20
9.5415711383
 30
0.0
 10
10.8722992085
 20
9.5416488301
 30
0.0
 10
10.8726387765
 20
9.5417214485
 30
0.0
 10
10.8732302019
 20
9.5418629606
 30
0.0
 10
10.8740765689
 20
9.5420575767
 30
0.0
 10
10.8750915786
 20
9.542294345
 30
0.0
 10
10.8764451452
 20
9.5426089083
 30
0.0
 10
10.878137028
 20
9.5430024986
 30
0.0
 10
10.8808440826
 20
9.5436320271
 30
0.0
 10
10.8842278862
 20
9.5444190124
 30
0.0
 10
10.8882884577
 20
9.5453633607
 30
0.0
 10
10.8923490242
 20
9.5463077256
 30
0.0
 10
10.8957328401
 20
9.5470946692
 30
0.0
 10
10.8984398701
 20
9.5477242811
 30
0.0
 10
10.9001318155
 20
9.5481176595
 30
0.0
 10
10.9014852535
 20
9.5484326577
 30
0.0
 10
10.9025006561
 20
9.5486680974
 30
0.0
 10
10.9033457938
 20
9.5488668705
 30
0.0
 10
10.9039394138
 20
9.5490009615
 30
0.0
 10
10.9042754655
 20
9.5490854703
 30
0.0
 10
10.9045364053
 20
9.5491266389
 30
0.0
 10
10.9047633206
 20
9.5492527168
 30
0.0
 10
10.9050777425
 20
9.5493912034
 30
0.0
 10
10.9056224512
 20
9.5496473542
 30
0.0
 10
10.9064034975
 20
9.5500060695
 30
0.0
 10
10.9073395155
 20
9.5504396159
 30
0.0
 10
10.9085879718
 20
9.5510165992
 30
0.0
 10
10.9101483942
 20
9.5517381976
 30
0.0
 10
10.9126451527
 20
9.5528925486
 30
0.0
 10
10.9157660726
 20
9.5543355582
 30
0.0
 10
10.9195111883
 20
9.5560671397
 30
0.0
 10
10.9226321161
 20
9.5575101296
 30
0.0
 10
10.9251288569
 20
9.5586645239
 30
0.0
 10
10.9270014182
 20
9.559530309
 30
0.0
 10
10.9288739576
 20
9.5603961356
 30
0.0
 10
10.9304344751
 20
9.5611175283
 30
0.0
 10
10.9316827369
 20
9.5616949325
 30
0.0
 10
10.9326193489
 20
9.5621271932
 30
0.0
 10
10.933398537
 20
9.5624899311
 30
0.0
 10
10.9339465628
 20
9.562738901
 30
0.0
 10
10.93425567
 20
9.5628888932
 30
0.0
 10
10.9344989103
 20
9.5629796296
 30
0.0
 10
10.934698536
 20
9.5631535353
 30
0.0
 10
10.934979917
 20
9.5633563992
 30
0.0
 10
10.9354652455
 20
9.5637249276
 30
0.0
 10
10.9361622777
 20
9.56424433
 30
0.0
 10
10.9369971301
 20
9.5648706377
 30
0.0
 10
10.9381108208
 20
9.5657046581
 30
0.0
 10
10.9395027439
 20
9.5667475461
 30
0.0
 10
10.9411731333
 20
9.5679988563
 30
0.0
 10
10.9428435008
 20
9.5692502081
 30
0.0
 10
10.9450706652
 20
9.5709186626
 30
0.0
 10
10.9478546176
 20
9.573004236
 30
0.0
 10
10.9506385725
 20
9.5750898063
 30
0.0
 10
10.9528657329
 20
9.5767582659
 30
0.0
 10
10.9545361124
 20
9.5780096022
 30
0.0
 10
10.9562064569
 20
9.5792609703
 30
0.0
 10
10.9575985196
 20
9.5803036783
 30
0.0
 10
10.9587119258
 20
9.5811380659
 30
0.0
 10
10.9595476468
 20
9.5817632521
 30
0.0
 10
10.9602419613
 20
9.5822861634
 30
0.0
 10
10.9607321414
 20
9.5826484278
 30
0.0
 10
10.9610057489
 20
9.5828613281
 30
0.0
 10
10.9612292521
 20
9.5830044054
 30
0.0
 10
10.9613828126
 20
9.5832109284
 30
0.0
 10
10.9616119567
 20
9.5834641619
 30
0.0
 10
10.9620015919
 20
9.5839176316
 30
0.0
 10
10.9625641564
 20
9.5845600547
 30
0.0
 10
10.9632366902
 20
9.5853332699
 30
0.0
 10
10.9641342904
 20
9.5863634174
 30
0.0
 10
10.9652559857
 20
9.5876513784
 30
0.0
 10
10.9666021508
 20
9.5891968129
 30
0.0
 10
10.9679482809
 20
9.5907422793
 30
0.0
 10
10.9697431333
 20
9.5928028899
 30
0.0
 10
10.9719866943
 20
9.5953786573
 30
0.0
 10
10.9742302583
 20
9.5979544222
 30
0.0
 10
10.9760251057
 20
9.6000150369
 30
0.0
 10
10.977371251
 20
9.6015604908
 30
0.0
 10
10.9787173592
 20
9.6031059721
 30
0.0
 10
10.9798392316
 20
9.6043937878
 30
0.0
 10
10.9807364707
 20
9.6054242315
 30
0.0
 10
10.981410107
 20
9.6061965421
 30
0.0
 10
10.9819692219
 20
9.6068417954
 30
0.0
 10
10.9823650153
 20
9.6072902126
 30
0.0
 10
10.9825842925
 20
9.6075515415
 30
0.0
 10
10.9827681608
 20
9.6077331981
 30
0.0
 10
10.982877833
 20
9.60796967
 30
0.0
 10
10.9830499431
 20
9.6082658456
 30
0.0
 10
10.9833390775
 20
9.6087930615
 30
0.0
 10
10.9837584309
 20
9.6095415696
 30
0.0
 10
10.9842589566
 20
9.6104417729
 30
0.0
 10
10.9849272667
 20
9.6116413475
 30
0.0
 10
10.9857623309
 20
9.6131410547
 30
0.0
 10
10.9867645466
 20
9.614940601
 30
0.0
 10
10.9877667253
 20
9.6167401747
 30
0.0
 10
10.9891029762
 20
9.6191395967
 30
0.0
 10
10.9907732871
 20
9.6221388768
 30
0.0
 10
10.9927776541
 20
9.6257380153
 30
0.0
 10
10.9944479841
 20
9.6287372858
 30
0.0
 10
10.9957841931
 20
9.6311367289
 30
0.0
 10
10.996619449
 20
9.63263632
 30
0.0
 10
10.9972873669
 20
9.6338361321
 30
0.0
 10
10.9977890906
 20
9.6347356099
 30
0.0
 10
10.9982046956
 20
9.6354863878
 30
0.0
 10
10.9985005216
 20
9.6360095516
 30
0.0
 10
10.99866191
 20
9.6363122197
 30
0.0
 10
10.9988045158
 20
9.6365287489
 30
0.0
 10
10.9988646911
 20
9.6367853071
 30
0.0
 10
10.9989736775
 20
9.6371134222
 30
0.0
 10
10.9991510074
 20
9.637694129
 30
0.0
 10
10.9994113394
 20
9.638520309
 30
0.0
 10
10.9997207401
 20
9.6395131807
 30
0.0
 10
11.0001343214
 20
9.6408365013
 30
0.0
 10
11.0006509395
 20
9.6424908261
 30
0.0
 10
11.0014777288
 20
9.6451376485
 30
0.0
 10
11.0025111469
 20
9.6484462098
 30
0.0
 10
11.0037512774
 20
9.6524164693
 30
0.0
 10
11.0047847147
 20
9.6557250215
 30
0.0
 10
11.0056114617
 20
9.6583718641
 30
0.0
 10
11.0062315332
 20
9.6603569919
 30
0.0
 10
11.0068515611
 20
9.6623421357
 30
0.0
 10
11.0073683872
 20
9.6639963725
 30
0.0
 10
11.0077815429
 20
9.6653198732
 30
0.0
 10
11.0080922435
 20
9.6663121947
 30
0.0
 10
11.0083485085
 20
9.6671400962
 30
0.0
 10
11.0085330988
 20
9.6677177299
 30
0.0
 10
11.0086304521
 20
9.6680507688
 30
0.0
 10
11.0087263606
 20
9.6682922026
 30
0.0
 10
11.0087347582
 20
9.6685655363
 30
0.0
 10
11.0087764797
 20
9.6689188543
 30
0.0
 10
11.0088352704
 20
9.6695423449
 30
0.0
 10
11.0089266925
 20
9.6704303355
 30
0.0
 10
11.0090332163
 20
9.6714970842
 30
0.0
 10
11.0091763599
 20
9.6729190107
 30
0.0
 10
11.0093549079
 20
9.6746965578
 30
0.0
 10
11.009569329
 20
9.6768295547
 30
0.0
 10
11.0097837064
 20
9.6789625676
 30
0.0
 10
11.0100695581
 20
9.6818065792
 30
0.0
 10
11.0104268676
 20
9.6853615957
 30
0.0
 10
11.0108556412
 20
9.6896276145
 30
0.0
 10
11.0114273385
 20
9.69531564
 30
0.0
 10
11.0118561117
 20
9.699581659
 30
0.0
 10
11.0121419604
 20
9.7024256718
 30
0.0
  0
SPLINE
  5
37A
100
AcDbEntity
  8
0
100
AcDbSpline
 62
4
  6
CONTINUOUS
 70
0
 71
3
 72
322
 73
318
 74
0
 42
0.0000001
 43
0.0000001
 44
0.0000000001
 40
0.0
 40
0.0
 40
0.0
 40
0.0
 40
0.015625
 40
0.0234375
 40
0.03125
 40
0.0390625
 40
0.046875
 40
0.05078125
 40
0.0546875
 40
0.056640625
 40
0.05859375
 40
0.060546875
 40
0.0615234375
 40
0.0620117188
 40
0.0625
 40
0.0629882812
 40
0.0634765625
 40
0.064453125
 40
0.06640625
 40
0.068359375
 40
0.0703125
 40
0.07421875
 40
0.078125
 40
0.0859375
 40
0.09375
 40
0.1015625
 40
0.109375
 40
0.11328125
 40
0.1171875
 40
0.119140625
 40
0.12109375
 40
0.123046875
 40
0.1240234375
 40
0.1245117188
 40
0.125
 40
0.1254882812
 40
0.1259765625
 40
0.126953125
 40
0.12890625
 40
0.130859375
 40
0.1328125
 40
0.13671875
 40
0.140625
 40
0.1484375
 40
0.15625
 40
0.1640625
 40
0.171875
 40
0.17578125
 40
0.1796875
 40
0.181640625
 40
0.18359375
 40
0.185546875
 40
0.1865234375
 40
0.1870117188
 40
0.1875
 40
0.1879882812
 40
0.1884765625
 40
0.189453125
 40
0.19140625
 40
0.193359375
 40
0.1953125
 40
0.19921875
 40
0.203125
 40
0.2109375
 40
0.21875
 40
0.2265625
 40
0.234375
 40
0.23828125
 40
0.2421875
 40
0.244140625
 40
0.24609375
 40
0.248046875
 40
0.2490234375
 40
0.2495117188
 40
0.25
 40
0.2504882812
 40
0.2509765625
 40
0.251953125
 40
0.25390625
 40
0.255859375
 40
0.2578125
 40
0.26171875
 40
0.265625
 40
0.2734375
 40
0.28125
 40
0.2890625
 40
0.296875
 40
0.30078125
 40
0.3046875
 40
0.306640625
 40
0.30859375
 40
0.310546875
 40
0.3115234375
 40
0.3120117188
 40
0.3125
 40
0.3129882812
 40
0.3134765625
 40
0.314453125
 40
0.31640625
 40
0.318359375
 40
0.3203125
 40
0.32421875
 40
0.328125
 40
0.3359375
 40
0.34375
 40
0.3515625
 40
0.359375
 40
0.36328125
 40
0.3671875
 40
0.369140625
 40
0.37109375
 40
0.373046875
 40
0.3740234375
 40
0.3745117188
 40
0.375
 40
0.3754882812
 40
0.3759765625
 40
0.376953125
 40
0.37890625
 40
0.380859375
 40
0.3828125
 40
0.38671875
 40
0.390625
 40
0.3984375
 40
0.40625
 40
0.4140625
 40
0.421875
 40
0.42578125
 40
0.4296875
 40
0.431640625
 40
0.43359375
 40
0.435546875
 40
0.4365234375
 40
0.4370117188
 40
0.4375
 40
0.4379882812
 40
0.4384765625
 40
0.439453125
 40
0.44140625
 40
0.443359375
 40
0.4453125
 40
0.44921875
 40
0.453125
 40
0.4609375
 40
0.46875
 40
0.4765625
 40
0.48046875
 40
0.484375
 40
0.48828125
 40
0.4921875
 40
0.494140625
 40
0.49609375
 40
0.498046875
 40
0.4990234375
 40
0.4995117188
 40
0.5
 40
0.5004882812
 40
0.5009765625
 40
0.501953125
 40
0.50390625
 40
0.505859375
 40
0.5078125
 40
0.51171875
 40
0.515625
 40
0.5234375
 40
0.53125
 40
0.5390625
 40
0.546875
 40
0.55078125
 40
0.5546875
 40
0.556640625
 40
0.55859375
 40
0.560546875
 40
0.5615234375
 40
0.5620117188
 40
0.5625
 40
0.5629882812
 40
0.5634765625
 40
0.564453125
 40
0.56640625
 40
0.568359375
 40
0.5703125
 40
0.57421875
 40
0.578125
 40
0.5859375
 40
0.59375
 40
0.6015625
 40
0.609375
 40
0.61328125
 40
0.6171875
 40
0.619140625
 40
0.62109375
 40
0.623046875
 40
0.6240234375
 40
0.6245117188
 40
0.625
 40
0.6254882812
 40
0.6259765625
 40
0.626953125
 40
0.62890625
 40
0.630859375
 40
0.6328125
 40
0.63671875
 40
0.640625
 40
0.6484375
 40
0.65625
 40
0.6640625
 40
0.66796875
 40
0.671875
 40
0.67578125
 40
0.6796875
 40
0.681640625
 40
0.68359375
 40
0.685546875
 40
0.6865234375
 40
0.6870117188
 40
0.6875
 40
0.6879882812
 40
0.6884765625
 40
0.689453125
 40
0.69140625
 40
0.693359375
 40
0.6953125
 40
0.69921875
 40
0.703125
 40
0.70703125
 40
0.7109375
 40
0.71875
 40
0.7265625
 40
0.73046875
 40
0.734375
 40
0.73828125
 40
0.7421875
 40
0.744140625
 40
0.74609375
 40
0.748046875
 40
0.7490234375
 40
0.7495117188
 40
0.75
 40
0.7504882812
 40
0.7509765625
 40
0.751953125
 40
0.75390625
 40
0.755859375
 40
0.7578125
 40
0.76171875
 40
0.765625
 40
0.76953125
 40
0.7734375
 40
0.78125
 40
0.7890625
 40
0.79296875
 40
0.796875
 40
0.80078125
 40
0.8046875
 40
0.806640625
 40
0.80859375
 40
0.810546875
 40
0.8115234375
 40
0.8120117188
 40
0.8125
 40
0.8129882812
 40
0.8134765625
 40
0.814453125
 40
0.81640625
 40
0.818359375
 40
0.8203125
 40
0.82421875
 40
0.828125
 40
0.83203125
 40
0.8359375
 40
0.84375
 40
0.8515625
 40
0.859375
 40
0.86328125
 40
0.8671875
 40
0.869140625
 40
0.87109375
 40
0.873046875
 40
0.8740234375
 40
0.8745117188
 40
0.875
 40
0.8754882812
 40
0.8759765625
 40
0.876953125
 40
0.87890625
 40
0.880859375
 40
0.8828125
 40
0.88671875
 40
0.890625
 40
0.8984375
 40
0.90625
 40
0.9140625
 40
0.91796875
 40
0.921875
 40
0.92578125
 40
0.9296875
 40
0.931640625
 40
0.93359375
 40
0.935546875
 40
0.9365234375
 40
0.9370117188
 40
0.9375
 40
0.9379882812
 40
0.9384765625
 40
0.939453125
 40
0.94140625
 40
0.943359375
 40
0.9453125
 40
0.94921875
 40
0.953125
 40
0.95703125
 40
0.9609375
 40
0.96875
 40
0.9765625
 40
0.984375
 40
1.0
 40
1.0
 40
1.0
 40
1.0
 10
11.0121419604
 20
9.7024256566
 30
0.0
 10
11.0118660218
 20
9.7052590328
 30
0.0
 10
11.0114521141
 20
9.7095090971
 30
0.0
 10
11.0109002362
 20
9.7151758495
 30
0.0
 10
11.0104863301
 20
9.719425914
 30
0.0
 10
11.0100724155
 20
9.7236759775
 30
0.0
 10
11.0097275128
 20
9.7272177004
 30
0.0
 10
11.0094515322
 20
9.7300510713
 30
0.0
 10
11.0092791774
 20
9.7318219451
 30
0.0
 10
11.0091409888
 20
9.733238605
 30
0.0
 10
11.0090381818
 20
9.7343012073
 30
0.0
 10
11.0089498548
 20
9.7351863677
 30
0.0
 10
11.0088932352
 20
9.7358066502
 30
0.0
 10
11.0088527473
 20
9.7361600508
 30
0.0
 10
11.0088452946
 20
9.7364280492
 30
0.0
 10
11.0087502556
 20
9.7366847792
 30
0.0
 10
11.0086540881
 20
9.7370310164
 30
0.0
 10
11.0084715605
 20
9.7376351002
 30
0.0
 10
11.0082182487
 20
9.7384990344
 30
0.0
 10
11.0079110892
 20
9.7395353457
 30
0.0
 10
11.0075026558
 20
9.7409172372
 30
0.0
 10
11.006991733
 20
9.7426445526
 30
0.0
 10
11.0061744696
 20
9.7454082847
 30
0.0
 10
11.0051528168
 20
9.7488629401
 30
0.0
 10
11.0039268669
 20
9.7530085315
 30
0.0
 10
11.0027009006
 20
9.7571541191
 30
0.0
 10
11.0016792887
 20
9.760608784
 30
0.0
 10
11.0008619436
 20
9.7633724971
 30
0.0
 10
11.0003512284
 20
9.7650998607
 30
0.0
 10
10.9999423689
 20
9.7664816532
 30
0.0
 10
10.9996365108
 20
9.7675182671
 30
0.0
 10
10.9993791273
 20
9.7683812544
 30
0.0
 10
10.9992038685
 20
9.7689870287
 30
0.0
 10
10.9990960545
 20
9.7693305573
 30
0.0
 10
10.9990367897
 20
9.7695956072
 30
0.0
 10
10.9988949751
 20
9.7698323574
 30
0.0
 10
10.9987346833
 20
9.7701578955
 30
0.0
 10
10.9984407568
 20
9.7707229881
 30
0.0
 10
10.9980278757
 20
9.7715326677
 30
0.0
 10
10.9975294162
 20
9.7725032541
 30
0.0
 10
10.9968658522
 20
9.7737977287
 30
0.0
 10
10.9960360382
 20
9.7754156989
 30
0.0
 10
10.9947085364
 20
9.77800452
 30
0.0
 10
10.9930490899
 20
9.7812405226
 30
0.0
 10
10.9910577857
 20
9.7851237368
 30
0.0
 10
10.9890664658
 20
9.7890069446
 30
0.0
 10
10.9874070584
 20
9.7922429631
 30
0.0
 10
10.9860794785
 20
9.7948317524
 30
0.0
 10
10.9852498629
 20
9.7964498035
 30
0.0
 10
10.9845858915
 20
9.797744112
 30
0.0
 10
10.9840886766
 20
9.7987152059
 30
0.0
 10
10.9836719018
 20
9.7995232975
 30
0.0
 10
10.9833849262
 20
9.800091225
 30
0.0
 10
10.9832134973
 20
9.8004122208
 30
0.0
 10
10.9831058922
 20
9.8006629236
 30
0.0
 10
10.9829181424
 20
9.8008755699
 30
0.0
 10
10.9826957646
 20
9.8011723728
 30
0.0
 10
10.9822935786
 20
9.801685593
 30
0.0
 10
10.9817258368
 20
9.8024219982
 30
0.0
 10
10.9810416319
 20
9.8033043004
 30
0.0
 10
10.9801303767
 20
9.8044811868
 30
0.0
 10
10.9789909592
 20
9.8059521292
 30
0.0
 10
10.977168086
 20
9.8083057296
 30
0.0
 10
10.9748894273
 20
9.8112476981
 30
0.0
 10
10.9721550671
 20
9.8147780756
 30
0.0
 10
10.9694206936
 20
9.8183084431
 30
0.0
 10
10.9671420682
 20
9.8212504364
 30
0.0
 10
10.9653191284
 20
9.823603987
 30
0.0
 10
10.9641798801
 20
9.8250750562
 30
0.0
 10
10.9632682776
 20
9.8262516824
 30
0.0
 10
10.9625851339
 20
9.8271347796
 30
0.0
 10
10.9620140717
 20
9.8278686974
 30
0.0
 10
10.9616178132
 20
9.8283863581
 30
0.0
 10
10.9613859381
 20
9.8286760462
 30
0.0
 10
10.9612273609
 20
9.8289105468
 30
0.0
 10
10.9610101884
 20
9.8290791682
 30
0.0
 10
10.9607410637
 20
9.8293269762
 30
0.0
 10
10.9602605727
 20
9.8297499335
 30
0.0
 10
10.9595791356
 20
9.8303597559
 30
0.0
 10
10.9587592801
 20
9.8310891468
 30
0.0
 10
10.9576668837
 20
9.8320625049
 30
0.0
 10
10.9563011334
 20
9.8332789159
 30
0.0
 10
10.9541160754
 20
9.8352253337
 30
0.0
 10
10.9513847037
 20
9.8376583007
 30
0.0
 10
10.94810708
 20
9.8405778864
 30
0.0
 10
10.9448294458
 20
9.843497459
 30
0.0
 10
10.9420981001
 20
9.8459304588
 30
0.0
 10
10.9399129902
 20
9.847876811
 30
0.0
 10
10.9385473719
 20
9.8490933887
 30
0.0
 10
10.9374547045
 20
9.8500664047
 30
0.0
 10
10.9366356772
 20
9.8507968407
 30
0.0
 10
10.935951649
 20
9.8514033931
 30
0.0
 10
10.9354757835
 20
9.8518321879
 30
0.0
 10
10.9351992476
 20
9.852070643
 30
0.0
 10
10.9350048398
 20
9.8522679934
 30
0.0
 10
10.9347607621
 20
9.8523945925
 30
0.0
 10
10.9344526506
 20
9.8525880702
 30
0.0
 10
10.9339053831
 20
9.8529151578
 30
0.0
 10
10.9331277928
 20
9.8533884372
 30
0.0
 10
10.932192878
 20
9.8539537994
 30
0.0
 10
10.9309469558
 20
9.8547085145
 30
0.0
 10
10.9293893371
 20
9.8556516005
 30
0.0
 10
10.9268972679
 20
9.8571607103
 30
0.0
 10
10.9237821398
 20
9.859047038
 30
0.0
 10
10.9200440047
 20
9.8613106587
 30
0.0
 10
10.9163058616
 20
9.8635742649
 30
0.0
 10
10.9131907536
 20
9.8654606288
 30
0.0
 10
10.9106986441
 20
9.8669696662
 30
0.0
 10
10.9091411278
 20
9.8679129362
 30
0.0
 10
10.9078949954
 20
9.8686672737
 30
0.0
 10
10.906960723
 20
9.8692337894
 30
0.0
 10
10.9061811227
 20
9.8697034598
 30
0.0
 10
10.9056374433
 20
9.8700369902
 30
0.0
 10
10.9053235829
 20
9.8702201448
 30
0.0
 10
10.905097164
 20
9.8703784529
 30
0.0
 10
10.9048364326
 20
9.8704567099
 30
0.0
 10
10.9045007593
 20
9.8705889754
 30
0.0
 10
10.9039077546
 20
9.8708074302
 30
0.0
 10
10.9030635205
 20
9.8711263101
 30
0.0
 10
10.9020491918
 20
9.8715060547
 30
0.0
 10
10.9006971892
 20
9.8720133977
 30
0.0
 10
10.8990070368
 20
9.8726472283
 30
0.0
 10
10.8963028764
 20
9.8736615518
 30
0.0
 10
10.8929226472
 20
9.874929389
 30
0.0
 10
10.888866385
 20
9.8764508245
 30
0.0
 10
10.884810117
 20
9.8779722441
 30
0.0
 10
10.8814299022
 20
9.8792401211
 30
0.0
 10
10.8787257129
 20
9.8802543651
 30
0.0
 10
10.8770356339
 20
9.8808883979
 30
0.0
 10
10.8756834808
 20
9.8813953258
 30
0.0
 10
10.874669612
 20
9.8817763384
 30
0.0
 10
10.8738239385
 20
9.8820912511
 30
0.0
 10
10.8732335034
 20
9.8823167882
 30
0.0
 10
10.8728937131
 20
9.882437706
 30
0.0
 10
10.8726456279
 20
9.8825508193
 30
0.0
 10
10.872371712
 20
9.882578213
 30
0.0
 10
10.8720155008
 20
9.8826446379
 30
0.0
 10
10.8713879333
 20
9.8827469505
 30
0.0
 10
10.870493603
 20
9.8829003946
 30
0.0
 10
10.8694194673
 20
9.88308141
 30
0.0
 10
10.8679876144
 20
9.8833238528
 30
0.0
 10
10.8661976859
 20
9.8836265335
 30
0.0
 10
10.8633338632
 20
9.884111031
 30
0.0
 10
10.8597540632
 20
9.8847165814
 30
0.0
 10
10.8554583125
 20
9.885443272
 30
0.0
 10
10.851878518
 20
9.8860488425
 30
0.0
 10
10.8490146833
 20
9.8865332959
 30
0.0
 10
10.8468668061
 20
9.8868966478
 30
0.0
 10
10.8447189329
 20
9.887259954
 30
0.0
 10
10.8429290261
 20
9.8875628516
 30
0.0
 10
10.8414971286
 20
9.8878048507
 30
0.0
 10
10.8404231291
 20
9.8879872213
 30
0.0
 10
10.8395283726
 20
9.8881364254
 30
0.0
 10
10.8389015659
 20
9.8882463072
 30
0.0
 10
10.8385441358
 20
9.8883006044
 30
0.0
 10
10.8382739641
 20
9.8883652504
 30
0.0
 10
10.8380118163
 20
9.8883384499
 30
0.0
 10
10.837659487
 20
9.8883346135
 30
0.0
 10
10.8370442149
 20
9.888313038
 30
0.0
 10
10.8361645729
 20
9.8882899858
 30
0.0
 10
10.8351092943
 20
9.8882589974
 30
0.0
 10
10.8337021543
 20
9.8882188411
 30
0.0
 10
10.8319432643
 20
9.8881682481
 30
0.0
 10
10.8291290206
 20
9.8880875215
 30
0.0
 10
10.8256112228
 20
9.8879865366
 30
0.0
 10
10.8213898621
 20
9.8878653896
 30
0.0
 10
10.8171685039
 20
9.8877442254
 30
0.0
 10
10.8136507
 20
9.8876432837
 30
0.0
 10
10.8108364685
 20
9.8875624706
 30
0.0
 10
10.8090775475
 20
9.8875120974
 30
0.0
 10
10.807670471
 20
9.8874714899
 30
0.0
 10
10.8066149984
 20
9.8874418802
 30
0.0
 10
10.8057359635
 20
9.8874145145
 30
0.0
 10
10.8051196076
 20
9.8874006393
 30
0.0
 10
10.8047690148
 20
9.8873844651
 30
0.0
 10
10.8045015332
 20
9.8873955623
 30
0.0
 10
10.8042513942
 20
9.8873178705
 30
0.0
 10
10.8039118263
 20
9.8872452521
 30
0.0
 10
10.8033204008
 20
9.88710374
 30
0.0
 10
10.8024740338
 20
9.886909124
 30
0.0
 10
10.8014590241
 20
9.8866723556
 30
0.0
 10
10.8001054576
 20
9.8863577923
 30
0.0
 10
10.7984135748
 20
9.885964202
 30
0.0
 10
10.7957065202
 20
9.8853346735
 30
0.0
 10
10.7923227165
 20
9.8845476883
 30
0.0
 10
10.7882621451
 20
9.88360334
 30
0.0
 10
10.7842015786
 20
9.882658975
 30
0.0
 10
10.7808177627
 20
9.8818720314
 30
0.0
 10
10.7781107327
 20
9.8812424195
 30
0.0
 10
10.7764187873
 20
9.8808490411
 30
0.0
 10
10.7750653493
 20
9.8805340429
 30
0.0
 10
10.7740499467
 20
9.8802986032
 30
0.0
 10
10.773204809
 20
9.8800998302
 30
0.0
 10
10.772611189
 20
9.8799657391
 30
0.0
 10
10.7722751373
 20
9.8798812303
 30
0.0
 10
10.7720141974
 20
9.8798400618
 30
0.0
 10
10.7717872821
 20
9.8797139838
 30
0.0
 10
10.7714728602
 20
9.8795754972
 30
0.0
 10
10.7709281515
 20
9.8793193464
 30
0.0
 10
10.7701471053
 20
9.8789606311
 30
0.0
 10
10.7692110872
 20
9.8785270847
 30
0.0
 10
10.7679626309
 20
9.8779501014
 30
0.0
 10
10.7664022085
 20
9.877228503
 30
0.0
 10
10.76390545
 20
9.876074152
 30
0.0
 10
10.7607845302
 20
9.8746311425
 30
0.0
 10
10.7570394145
 20
9.8728995609
 30
0.0
 10
10.7539184866
 20
9.8714565711
 30
0.0
 10
10.7514217458
 20
9.8703021767
 30
0.0
 10
10.7495491846
 20
9.8694363916
 30
0.0
 10
10.7476766452
 20
9.868570565
 30
0.0
 10
10.7461161277
 20
9.8678491723
 30
0.0
 10
10.7448678658
 20
9.8672717681
 30
0.0
 10
10.7439312539
 20
9.8668395074
 30
0.0
 10
10.7431520657
 20
9.8664767695
 30
0.0
 10
10.74260404
 20
9.8662277996
 30
0.0
 10
10.7422949328
 20
9.8660778074
 30
0.0
 10
10.7420516925
 20
9.8659870711
 30
0.0
 10
10.7418520667
 20
9.8658131653
 30
0.0
 10
10.7415706858
 20
9.8656103014
 30
0.0
 10
10.7410853573
 20
9.8652417731
 30
0.0
 10
10.7403883251
 20
9.8647223706
 30
0.0
 10
10.7395534727
 20
9.8640960629
 30
0.0
 10
10.738439782
 20
9.8632620425
 30
0.0
 10
10.7370478588
 20
9.8622191545
 30
0.0
 10
10.7353774695
 20
9.8609678443
 30
0.0
 10
10.733707102
 20
9.8597164925
 30
0.0
 10
10.7314799376
 20
9.858048038
 30
0.0
 10
10.7286959852
 20
9.8559624646
 30
0.0
 10
10.7259120302
 20
9.8538768943
 30
0.0
 10
10.7236848699
 20
9.8522084347
 30
0.0
 10
10.7220144904
 20
9.8509570984
 30
0.0
 10
10.7203441459
 20
9.8497057303
 30
0.0
 10
10.7189520832
 20
9.8486630224
 30
0.0
 10
10.717838677
 20
9.8478286348
 30
0.0
 10
10.7170029559
 20
9.8472034486
 30
0.0
 10
10.7163086415
 20
9.8466805372
 30
0.0
 10
10.7158184614
 20
9.8463182728
 30
0.0
 10
10.7155448539
 20
9.8461053725
 30
0.0
 10
10.7153213506
 20
9.8459622953
 30
0.0
 10
10.7151677902
 20
9.8457557722
 30
0.0
 10
10.7149386461
 20
9.8455025387
 30
0.0
 10
10.7145490109
 20
9.845049069
 30
0.0
 10
10.7139864463
 20
9.8444066459
 30
0.0
 10
10.7133139126
 20
9.8436334307
 30
0.0
 10
10.7124163124
 20
9.8426032832
 30
0.0
 10
10.7112946171
 20
9.8413153223
 30
0.0
 10
10.709948452
 20
9.8397698877
 30
0.0
 10
10.7086023219
 20
9.8382244213
 30
0.0
 10
10.7068074694
 20
9.8361638107
 30
0.0
 10
10.7045639085
 20
9.8335880433
 30
0.0
 10
10.7023203444
 20
9.8310122785
 30
0.0
 10
10.7005254971
 20
9.8289516637
 30
0.0
 10
10.6991793518
 20
9.8274062098
 30
0.0
 10
10.6978332436
 20
9.8258607285
 30
0.0
 10
10.6967113712
 20
9.8245729128
 30
0.0
 10
10.6958141321
 20
9.8235424691
 30
0.0
 10
10.6951404958
 20
9.8227701586
 30
0.0
 10
10.6945813808
 20
9.8221249052
 30
0.0
 10
10.6941855875
 20
9.821676488
 30
0.0
 10
10.6939663102
 20
9.8214151591
 30
0.0
 10
10.693782442
 20
9.8212335026
 30
0.0
 10
10.6936727698
 20
9.8209970306
 30
0.0
 10
10.6935006597
 20
9.820700855
 30
0.0
 10
10.6932115252
 20
9.8201736391
 30
0.0
 10
10.6927921719
 20
9.819425131
 30
0.0
 10
10.6922916462
 20
9.8185249278
 30
0.0
 10
10.6916233361
 20
9.8173253531
 30
0.0
 10
10.6907882719
 20
9.8158256459
 30
0.0
 10
10.6897860562
 20
9.8140260996
 30
0.0
 10
10.6887838775
 20
9.812226526
 30
0.0
 10
10.6874476266
 20
9.8098271039
 30
0.0
 10
10.6857773156
 20
9.8068278239
 30
0.0
 10
10.6837729487
 20
9.8032286853
 30
0.0
 10
10.6821026187
 20
9.8002294148
 30
0.0
 10
10.6807664096
 20
9.7978299718
 30
0.0
 10
10.6799311538
 20
9.7963303807
 30
0.0
 10
10.6792632359
 20
9.7951305685
 30
0.0
 10
10.6787615121
 20
9.7942310907
 30
0.0
 10
10.6783459072
 20
9.7934803128
 30
0.0
 10
10.6780500811
 20
9.792957149
 30
0.0
 10
10.6778886927
 20
9.7926544809
 30
0.0
 10
10.6777460869
 20
9.7924379517
 30
0.0
 10
10.6776859116
 20
9.7921813935
 30
0.0
 10
10.6775769252
 20
9.7918532784
 30
0.0
 10
10.6773995954
 20
9.7912725717
 30
0.0
 10
10.6771392633
 20
9.7904463917
 30
0.0
 10
10.6768298627
 20
9.7894535199
 30
0.0
 10
10.6764162814
 20
9.7881301993
 30
0.0
 10
10.6758996633
 20
9.7864758745
 30
0.0
 10
10.6750728739
 20
9.7838290521
 30
0.0
 10
10.6740394559
 20
9.7805204908
 30
0.0
 10
10.6727993254
 20
9.7765502313
 30
0.0
 10
10.6717658881
 20
9.7732416791
 30
0.0
 10
10.6709391411
 20
9.7705948366
 30
0.0
 10
10.6703190695
 20
9.7686097087
 30
0.0
 10
10.6696990417
 20
9.7666245649
 30
0.0
 10
10.6691822156
 20
9.7649703281
 30
0.0
 10
10.6687690598
 20
9.7636468274
 30
0.0
 10
10.6684583592
 20
9.7626545059
 30
0.0
 10
10.6682020943
 20
9.7618266044
 30
0.0
 10
10.668017504
 20
9.7612489707
 30
0.0
 10
10.6679201507
 20
9.7609159319
 30
0.0
 10
10.6678242421
 20
9.760674498
 30
0.0
 10
10.6678158446
 20
9.7604011643
 30
0.0
 10
10.667774123
 20
9.7600478463
 30
0.0
 10
10.6677153324
 20
9.7594243557
 30
0.0
 10
10.6676239103
 20
9.7585363652
 30
0.0
 10
10.6675173864
 20
9.7574696164
 30
0.0
 10
10.6673742429
 20
9.7560476899
 30
0.0
 10
10.6671956949
 20
9.7542701428
 30
0.0
 10
10.6669812738
 20
9.7521371459
 30
0.0
 10
10.6667668964
 20
9.750004133
 30
0.0
 10
10.6664810447
 20
9.7471601214
 30
0.0
 10
10.6661237352
 20
9.743605105
 30
0.0
 10
10.6656949616
 20
9.7393390861
 30
0.0
 10
10.6651232643
 20
9.7336510606
 30
0.0
 10
10.6646944911
 20
9.7293850416
 30
0.0
 10
10.6644086424
 20
9.7265410289
 30
0.0
  0
ENDSEC
  0
SECTION
  2
OBJECTS
  0
DICTIONARY
  5
C
100
AcDbDictionary
280
0
281
1
  3
ACAD_GROUP
350
D
  3
ACAD_MLINESTYLE
350
17
  3
ACAD_LAYOUT
350
1A
  3
ACAD_PLOTSETTINGS
350
19
  3
ACAD_PLOTSTYLENAME
350
E
  3
ACAD_IMAGE_DICT
350
       37C
  3
ACAD_IMAGE_VARS
350
       37D
  3
ACAD_TABLESTYLE
350
       37E
  0
IMAGEDEF_REACTOR
  5
37B
100
AcDbRasterImageDefReactor
 90
2
330
292
  0
DICTIONARY
  5
D
102
{ACAD_REACTORS
330
C
102
}
100
AcDbDictionary
280
0
281
1
  0
ACDBDICTIONARYWDFLT
  5
E
102
{ACAD_REACTORS
330
C
102
}
100
AcDbDictionary
281
1
  3
Normal
350
F
100
AcDbDictionaryWithDefault
340
F
  0
DICTIONARY
  5
37C
330
C
100
AcDbDictionary
281
1
  3
B7C_assy_2_img_1
350
       381
  0
RASTERVARIABLES
  5
37D
330
C
100
AcDbRasterVariables
 90
0
 70
0
 71
1
 72
5
  0
DICTIONARY
  5
17
102
{ACAD_REACTORS
330
C
102
}
100
AcDbDictionary
280
0
281
1
  3
Standard
350
18
  0
DICTIONARY
  5
37E
330
C
100
AcDbDictionary
281
1
  3
Standard
350
       382
  3
Standard1
350
       383
  0
DICTIONARY
  5
19
102
{ACAD_REACTORS
330
C
102
}
100
AcDbDictionary
281
1
  0
DICTIONARY
  5
1A
102
{ACAD_REACTORS
330
C
102
}
100
AcDbDictionary
281
1
  3
Model
350
37F
  3
Layout1
350
380
  0
ACDBPLACEHOLDER
  5
F
102
{ACAD_REACTORS
330
E
102
}
  0
MLINESTYLE
  5
18
102
{ACAD_REACTORS
330
17
102
}
100
AcDbMlineStyle
  2
STANDARD
 70
0
  3

 62
256
 51
90.0
 52
90.0
 71
2
 49
0.5
 62
256
  6
BYLAYER
 49
-0.5
 62
256
  6
BYLAYER
  0
LAYOUT
  5
37F
102
{ACAD_REACTORS
330
1A
102
}
100
AcDbPlotSettings
  1

  2
none_device
  4
ANSI_C_(22.00_x_17.00_Inches)
  6

 40
0.0
 41
0.0
 42
0.0
 43
0.0
 44
558.8
 45
431.8
 46
0.0
 47
0.0
 48
0.0
 49
0.0
140
0.0
141
0.0
142
1.0
143
1.0
 70
1024
 72
0
 73
0
 74
0
  7

 75
0
147
1.0
148
0.0
149
0.0
100
AcDbLayout
  1
Model
 70
0
 71
0
 10
0.0
 20
0.0
 11
22.0
 21
17.0
 12
0.0
 22
0.0
 32
0.0
 14
0.0
 24
0.0
 34
0.0
 15
0.0
 25
0.0
 35
0.0
146
0.0
 13
0.0
 23
0.0
 33
0.0
 16
1.0
 26
0.0
 36
0.0
 17
0.0
 27
1.0
 37
0.0
 76
0
330
20C
345
0
346
0
  0
LAYOUT
  5
380
102
{ACAD_REACTORS
330
1A
102
}
100
AcDbPlotSettings
  1

  2
none_device
  4
ANSI_C_(22.00_x_17.00_Inches)
  6

 40
0.0
 41
0.0
 42
0.0
 43
0.0
 44
558.8
 45
431.8
 46
0.0
 47
0.0
 48
0.0
 49
0.0
140
0.0
141
0.0
142
1.0
143
1.0
 70
0
 72
0
 73
0
 74
0
  7

 75
0
147
1.0
148
0.0
149
0.0
100
AcDbLayout
  1
Layout1
 70
0
 71
1
 10
0.0
 20
0.0
 11
22.0
 21
17.0
 12
0.0
 22
0.0
 32
0.0
 14
0.0
 24
0.0
 34
0.0
 15
0.0
 25
0.0
 35
0.0
146
0.0
 13
0.0
 23
0.0
 33
0.0
 16
1.0
 26
0.0
 36
0.0
 17
0.0
 27
1.0
 37
0.0
 76
0
330
20D
345
0
346
0
  0
IMAGEDEF
  5
381
102
{ACAD_REACTORS
330
37C
330
37B
102
}
100
AcDbRasterImageDef
 90
0
  1
B7C_assy_2_img_1.png
 10
369.0
 20
92.0
 11
0.0066666667
 21
0.0066666667
280
1
281
0
  0
TABLESTYLE
  5
382
102
{ACAD_REACTORS
330
37E
330
295
330
296
102
}
330
37E
100
AcDbTableStyle
  3
Standard
 70
0
 71
0
 40
0.06
 41
0.06
280
1
281
1
  7
Standard
140
0.18
170
1
 62
0
 63
7
283
0
  7
Standard
140
0.18
170
1
 62
0
 63
7
283
0
  7
Standard
140
0.18
170
1
 62
0
 63
7
283
0
  0
TABLESTYLE
  5
383
102
{ACAD_REACTORS
330
37E
330
294
102
}
330
37E
100
AcDbTableStyle
  3
Standard1
 70
1
 71
0
 40
0.06
 41
0.06
280
1
281
1
  7
Standard
140
0.18
170
1
 62
0
 63
7
283
0
  7
Standard
140
0.18
170
1
 62
0
 63
7
283
0
  7
Standard
140
0.18
170
1
 62
0
 63
7
283
0
  0
ENDSEC
  0
EOF
