999
DXF file: B6W_assy_2.dxf
999
Pro/ENGINEER 2014200 by Parametric Technology Corporation
  0
SECTION
  2
HEADER
  9
$ACADVER
  1
AC1021
  9
$DWGCODEPAGE
  3
ANSI_1252
  9
$EXTMAX
 10
22.0
 20
17.0
 30
0.0
  9
$EXTMIN
 10
0.0
 20
0.0
 30
0.0
  9
$LIMMIN
 10
0.0
 20
0.0
  9
$LIMMAX
 10
22.0
 20
17.0
  9
$VIEWCTR
 10
11.0
 20
8.5
  9
$VIEWSIZE
 40
17.0
  9
$CLAYER
  8
0
  9
$LTSCALE
 40
1.21
  9
$CELTYPE
  6
BYLAYER
  9
$DIMSCALE
 40
1.0
  9
$DIMASZ
 40
0.1875
  9
$DIMEXO
 40
0.0625
  9
$DIMDLI
 40
0.836
  9
$DIMEXE
 40
0.125
  9
$DIMCEN
 40
0.198
  9
$DIMLFAC
 40
1.0
  9
$DIMBLK
  1
_FILLED
  9
$DIMTXT
 40
0.1
  9
$DIMTOL
 70
0
  9
$DIMLIM
 70
0
  9
$DIMTFAC
 40
1.0
  9
$DIMGAP
 40
0.09
  9
$DIMDSEP
 70
46
  9
$AUNITS
 70
0
  9
$PDMODE
 70
3
  9
$PDSIZE
 40
0.3125
  9
$HANDSEED
  5
3BD
  9
$TILEMODE
 70
1
  9
$MEASUREMENT
 70
0
  9
$INSUNITS
 70
1
  0
ENDSEC
  0
SECTION
  2
CLASSES
  0
CLASS
  1
ACDBDICTIONARYWDFLT
  2
AcDbDictionaryWithDefault
  3
AutoCAD 2000
 90
0
 91
1
280
0
281
0
  0
CLASS
  1
ACDBPLACEHOLDER
  2
AcDbPlaceHolder
  3
AutoCAD 2000
 90
0
 91
1
280
0
281
0
  0
CLASS
  1
LAYOUT
  2
AcDbLayout
  3
AutoCAD 2000
 90
0
 91
0
280
0
281
0
  0
CLASS
  1
RASTERVARIABLES
  2
AcDbRasterVariables
  3
ISM
 90
0
 91
1
280
0
281
0
  0
CLASS
  1
IMAGEDEF
  2
AcDbRasterImageDef
  3
ISM
 90
0
 91
1
280
0
281
0
  0
CLASS
  1
IMAGEDEF_REACTOR
  2
AcDbRasterImageDefReactor
  3
ISM
 90
0
 91
1
280
0
281
0
  0
CLASS
  1
IMAGE
  2
AcDbRasterImage
  3
ISM
 90
127
 91
1
280
0
281
1
  0
CLASS
  1
TABLESTYLE
  2
AcDbTableStyle
  3
ObjectDBX Classes
 90
2047
 91
1
280
0
281
0
  0
CLASS
  1
ACAD_TABLE
  2
AcDbTable
  3
ObjectDBX Classes
 90
1025
 91
3
280
0
281
1
  0
ENDSEC
  0
SECTION
  2
TABLES
  0
TABLE
  2
VPORT
  5
8
100
AcDbSymbolTable
 70
2
  0
VPORT
  5
1F4
100
AcDbSymbolTableRecord
100
AcDbViewportTableRecord
  2
*ACTIVE
 70
0
 10
0.0
 20
0.0
 11
1.0
 21
1.0
 12
11.0
 22
8.5
 13
0.0
 23
0.0
 14
1.0
 24
1.0
 15
0.0
 25
0.0
 16
0.0
 26
0.0
 36
1.0
 17
0.0
 27
0.0
 37
0.0
 40
17.0
 41
1.2941176471
 42
50.0
 43
0.0
 44
0.0
 50
0.0
 51
0.0
 71
0
 72
100
 73
1
 74
1
 75
0
 76
0
 77
0
 78
0
  0
ENDTAB
  0
TABLE
  2
LTYPE
  5
5
100
AcDbSymbolTable
 70
6
  0
LTYPE
  5
14
100
AcDbSymbolTableRecord
100
AcDbLinetypeTableRecord
  2
BYBLOCK
 70
0
  3

 72
65
 73
0
 40
0.0
  0
LTYPE
  5
15
100
AcDbSymbolTableRecord
100
AcDbLinetypeTableRecord
  2
BYLAYER
 70
0
  3

 72
65
 73
0
 40
0.0
  0
LTYPE
  5
16
100
AcDbSymbolTableRecord
100
AcDbLinetypeTableRecord
  2
CONTINUOUS
 70
64
  3
Solid line
 72
65
 73
0
 40
0.0
  0
LTYPE
  5
1F5
100
AcDbSymbolTableRecord
100
AcDbLinetypeTableRecord
  2
CENTER
 70
64
  3
____ _ ____ _ ____ _ ____ _ ____ _ ____ _ ____
 72
65
 73
4
 40
0.6
 49
0.375
 74
0
 49
-0.075
 74
0
 49
0.075
 74
0
 49
-0.075
 74
0
  0
LTYPE
  5
1F6
100
AcDbSymbolTableRecord
100
AcDbLinetypeTableRecord
  2
HIDDEN
 70
64
  3
- - - - - - - - - - - - - - - - - - - -
 72
65
 73
2
 40
0.2
 49
0.1
 74
0
 49
-0.1
 74
0
  0
LTYPE
  5
1F7
100
AcDbSymbolTableRecord
100
AcDbLinetypeTableRecord
  2
PHANTOM
 70
64
  3
_____ _ _ _____ _ _ _____ _ _ _____
 72
65
 73
6
 40
0.8
 49
0.45
 74
0
 49
-0.05
 74
0
 49
0.1
 74
0
 49
-0.05
 74
0
 49
0.1
 74
0
 49
-0.05
 74
0
  0
LTYPE
  5
1F8
100
AcDbSymbolTableRecord
100
AcDbLinetypeTableRecord
  2
DOT
 70
64
  3
. . . . . . . . . . . . . . . . . . . .
 72
65
 73
2
 40
0.2
 49
0.1
 74
0
 49
-0.1
 74
0
  0
LTYPE
  5
1F9
100
AcDbSymbolTableRecord
100
AcDbLinetypeTableRecord
  2
DASHED
 70
64
  3
- - - - - - - - - - - - - - - - - - - -
 72
65
 73
2
 40
0.2
 49
0.1
 74
0
 49
-0.1
 74
0
  0
ENDTAB
  0
TABLE
  2
LAYER
  5
2
100
AcDbSymbolTable
 70
36
  0
LAYER
  5
10
100
AcDbSymbolTableRecord
100
AcDbLayerTableRecord
  2
0
 70
0
 62
7
  6
CONTINUOUS
370
-3
390
F
  0
LAYER
  5
1FA
100
AcDbSymbolTableRecord
100
AcDbLayerTableRecord
  2
DEFAULT_1
 70
0
 62
7
  6
CENTER
370
-3
390
F
  0
LAYER
  5
1FB
100
AcDbSymbolTableRecord
100
AcDbLayerTableRecord
  2
DEFAULT_2
 70
0
 62
8
  6
HIDDEN
370
-3
390
F
  0
LAYER
  5
1FC
100
AcDbSymbolTableRecord
100
AcDbLayerTableRecord
  2
DEFAULT_3
 70
0
 62
7
  6
PHANTOM
370
-3
390
F
  0
LAYER
  5
1FD
100
AcDbSymbolTableRecord
100
AcDbLayerTableRecord
  2
01___PRT_ALL_DTM_PLN
 70
0
 62
7
  6
CONTINUOUS
370
-3
390
F
  0
LAYER
  5
1FE
100
AcDbSymbolTableRecord
100
AcDbLayerTableRecord
  2
01___PRT_DEF_DTM_PLN
 70
0
 62
7
  6
CONTINUOUS
370
-3
390
F
  0
LAYER
  5
1FF
100
AcDbSymbolTableRecord
100
AcDbLayerTableRecord
  2
02___PRT_ALL_AXES
 70
0
 62
7
  6
CONTINUOUS
370
-3
390
F
  0
LAYER
  5
200
100
AcDbSymbolTableRecord
100
AcDbLayerTableRecord
  2
03___PRT_ALL_CURVES
 70
0
 62
7
  6
CONTINUOUS
370
-3
390
F
  0
LAYER
  5
201
100
AcDbSymbolTableRecord
100
AcDbLayerTableRecord
  2
04___PRT_ALL_DTM_PNT
 70
0
 62
7
  6
CONTINUOUS
370
-3
390
F
  0
LAYER
  5
202
100
AcDbSymbolTableRecord
100
AcDbLayerTableRecord
  2
05___PRT_ALL_DTM_CSYS
 70
0
 62
7
  6
CONTINUOUS
370
-3
390
F
  0
LAYER
  5
203
100
AcDbSymbolTableRecord
100
AcDbLayerTableRecord
  2
05___PRT_DEF_DTM_CSYS
 70
0
 62
7
  6
CONTINUOUS
370
-3
390
F
  0
LAYER
  5
204
100
AcDbSymbolTableRecord
100
AcDbLayerTableRecord
  2
06___PRT_ALL_SURFS
 70
0
 62
7
  6
CONTINUOUS
370
-3
390
F
  0
LAYER
  5
205
100
AcDbSymbolTableRecord
100
AcDbLayerTableRecord
  2
DATUM_PLANES
 70
0
 62
7
  6
CONTINUOUS
370
-3
390
F
  0
LAYER
  5
206
100
AcDbSymbolTableRecord
100
AcDbLayerTableRecord
  2
PORT_AREAS
 70
0
 62
7
  6
CONTINUOUS
370
-3
390
F
  0
LAYER
  5
207
100
AcDbSymbolTableRecord
100
AcDbLayerTableRecord
  2
SUNNBOMCOSMETIC
 70
0
 62
7
  6
CONTINUOUS
370
-3
390
F
  0
LAYER
  5
208
100
AcDbSymbolTableRecord
100
AcDbLayerTableRecord
  2
SUNNBOMSTAMPING
 70
0
 62
7
  6
CONTINUOUS
370
-3
390
F
  0
LAYER
  5
209
100
AcDbSymbolTableRecord
100
AcDbLayerTableRecord
  2
THREADS
 70
0
 62
7
  6
CONTINUOUS
370
-3
390
F
  0
ENDTAB
  0
TABLE
  2
STYLE
  5
3
100
AcDbSymbolTable
 70
1
  0
STYLE
  5
11
100
AcDbSymbolTableRecord
100
AcDbTextStyleTableRecord
  2
STANDARD
 70
0
 40
0.0
 41
0.8
 50
0.0
 71
0
 42
0.2
  3
txt
  4

  0
STYLE
  5
20A
100
AcDbSymbolTableRecord
100
AcDbTextStyleTableRecord
  2
TEXTSTYLE_1
 70
0
 40
0.0
 41
0.8
 50
0.0
 71
0
 42
0.2
  3
gdt
  4

  0
ENDTAB
  0
TABLE
  2
VIEW
  5
6
100
AcDbSymbolTable
 70
0
  0
ENDTAB
  0
TABLE
  2
UCS
  5
7
100
AcDbSymbolTable
 70
0
  0
ENDTAB
  0
TABLE
  2
APPID
  5
9
100
AcDbSymbolTable
 70
1
  0
APPID
  5
20B
100
AcDbSymbolTableRecord
100
AcDbRegAppTableRecord
  2
ACAD
 70
0
  0
ENDTAB
  0
TABLE
  2
BLOCK_RECORD
  5
1
100
AcDbSymbolTable
 70
0
  0
BLOCK_RECORD
  5
20C
100
AcDbSymbolTableRecord
100
AcDbBlockTableRecord
  2
*Model_Space
  0
BLOCK_RECORD
  5
20D
100
AcDbSymbolTableRecord
100
AcDbBlockTableRecord
  2
*Paper_Space
  0
BLOCK_RECORD
  5
20E
100
AcDbSymbolTableRecord
100
AcDbBlockTableRecord
  2
SUN_FIRST_THIRD_ANGLE_BL0
  0
BLOCK_RECORD
  5
20F
100
AcDbSymbolTableRecord
100
AcDbBlockTableRecord
  2
*T1
  0
BLOCK_RECORD
  5
210
100
AcDbSymbolTableRecord
100
AcDbBlockTableRecord
  2
*T2
  0
BLOCK_RECORD
  5
211
100
AcDbSymbolTableRecord
100
AcDbBlockTableRecord
  2
*T3
  0
ENDTAB
  0
TABLE
  2
DIMSTYLE
  5
A
100
AcDbSymbolTable
 70
1
100
AcDbDimStyleTable
 71
0
  0
DIMSTYLE
105
212
100
AcDbSymbolTableRecord
100
AcDbDimStyleTableRecord
  2
STANDARD
 70
0
  3

  4

 40
1.0
 41
0.1875
 42
0.0625
 43
0.38
 44
0.125
 45
0.0
 46
0.0
 47
0.001
 48
0.001
140
0.1
141
0.09
142
0.0
143
25.4
144
1.0
145
0.0
146
1.0
147
0.09
 71
0.0
 72
0.0
 73
1
 74
1
 75
0
 76
0
 77
0
 78
4
170
0
171
2
172
0
173
0
174
0
175
0
176
0
177
0
178
0
270
2
271
3
272
3
273
2
274
2
275
0
280
0
281
0
282
0
283
1
284
4
285
0
286
0
287
3
288
0
340
11
278
46
  0
ENDTAB
  0
ENDSEC
  0
SECTION
  2
BLOCKS
  0
BLOCK
  5
20
100
AcDbEntity
  8
0
100
AcDbBlockBegin
  2
*Model_Space
 70
0
 10
0.0
 20
0.0
 30
0.0
  3
*Model_Space
  1

  0
ENDBLK
  5
21
100
AcDbEntity
  8
0
100
AcDbBlockEnd
  0
BLOCK
  5
1C
100
AcDbEntity
  8
0
100
AcDbBlockBegin
  2
*Paper_Space
 70
0
 10
0.0
 20
0.0
 30
0.0
  3
*Paper_Space
  1

  0
ENDBLK
  5
1D
100
AcDbEntity
  8
0
100
AcDbBlockEnd
  0
BLOCK
  5
213
100
AcDbEntity
  8
0
100
AcDbBlockBegin
 62
2
  6
CONTINUOUS
  2
SUN_FIRST_THIRD_ANGLE_BL0
 70
64
 10
20.4816717061
 20
1.2289683772
  3
SUN_FIRST_THIRD_ANGLE_BL0
  1

  0
TEXT
  5
214
100
AcDbEntity
  8
0
100
AcDbText
 62
2
  6
CONTINUOUS
 10
19.4750896608
 20
1.4136269581
  7
STANDARD
 40
0.08
  1
FIRST ANGLE
 41
0.8
 72
0
100
AcDbText
  0
TEXT
  5
215
100
AcDbEntity
  8
0
100
AcDbText
 62
2
  6
CONTINUOUS
 10
20.7842537513
 20
1.4047600029
  7
STANDARD
 40
0.08
  1
THIRD ANGLE
 41
0.8
 72
0
100
AcDbText
  0
LINE
  5
216
100
AcDbEntity
  8
0
100
AcDbLine
 62
7
  6
CONTINUOUS
 10
19.4767170086
 20
1.1727031207
 11
19.6334271527
 21
1.1717972817
  0
LINE
  5
217
100
AcDbEntity
  8
0
100
AcDbLine
 62
7
  6
CONTINUOUS
 10
19.6596964832
 20
1.1717972817
 11
19.6950230232
 21
1.171593082
  0
LINE
  5
218
100
AcDbEntity
  8
0
100
AcDbLine
 62
7
  6
CONTINUOUS
 10
19.7194818561
 20
1.1708914427
 11
19.8852396156
 21
1.1699333054
  0
LINE
  5
219
100
AcDbEntity
  8
0
100
AcDbLine
 62
7
  6
CONTINUOUS
 10
19.4758111696
 20
1.2723454088
 11
19.88525039
 21
1.3511534004
  0
LINE
  5
21A
100
AcDbEntity
  8
0
100
AcDbLine
 62
7
  6
CONTINUOUS
 10
19.88525039
 20
1.3511534004
 11
19.8831348489
 21
0.9851647912
  0
LINE
  5
21B
100
AcDbEntity
  8
0
100
AcDbLine
 62
7
  6
CONTINUOUS
 10
19.8831348489
 20
0.9851647912
 11
19.4767170086
 21
1.0658141206
  0
LINE
  5
21C
100
AcDbEntity
  8
0
100
AcDbLine
 62
7
  6
CONTINUOUS
 10
19.4767170086
 20
1.0658141206
 11
19.4779056764
 21
1.2714536432
  0
CIRCLE
  5
21D
100
AcDbEntity
  8
0
100
AcDbCircle
 62
7
  6
CONTINUOUS
 10
20.2068232291
 20
1.1717972817
 40
0.175742101
  0
CIRCLE
  5
21E
100
AcDbEntity
  8
0
100
AcDbCircle
 62
7
  6
CONTINUOUS
 10
20.2068232291
 20
1.1717972817
 40
0.1005522074
  0
LINE
  5
21F
100
AcDbEntity
  8
0
100
AcDbLine
 62
7
  6
CONTINUOUS
 10
20.2077290681
 20
1.3756110529
 11
20.2071171714
 21
1.2379342989
  0
LINE
  5
220
100
AcDbEntity
  8
0
100
AcDbLine
 62
7
  6
CONTINUOUS
 10
20.2077290681
 20
1.2016899681
 11
20.2074674401
 21
1.1428236749
  0
LINE
  5
221
100
AcDbEntity
  8
0
100
AcDbLine
 62
7
  6
CONTINUOUS
 10
20.208634907
 20
1.101141841
 11
20.2080230104
 21
0.963465087
  0
LINE
  5
222
100
AcDbEntity
  8
0
100
AcDbLine
 62
7
  6
CONTINUOUS
 10
20.0066328138
 20
1.1745147986
 11
20.1443095678
 21
1.1739029019
  0
LINE
  5
223
100
AcDbEntity
  8
0
100
AcDbLine
 62
7
  6
CONTINUOUS
 10
20.1832714155
 20
1.1727031207
 11
20.238153505
 21
1.172335442
  0
LINE
  5
224
100
AcDbEntity
  8
0
100
AcDbLine
 62
7
  6
CONTINUOUS
 10
20.2756669918
 20
1.1717972817
 11
20.407916871
 21
1.1712095044
  0
CIRCLE
  5
225
100
AcDbEntity
  8
0
100
AcDbCircle
 62
7
  6
CONTINUOUS
 10
20.7509457401
 20
1.1693297793
 40
0.1722024983
  0
CIRCLE
  5
226
100
AcDbEntity
  8
0
100
AcDbCircle
 62
7
  6
CONTINUOUS
 10
20.7509457401
 20
1.1693297793
 40
0.0985164967
  0
LINE
  5
227
100
AcDbEntity
  8
0
100
AcDbLine
 62
7
  6
CONTINUOUS
 10
20.7169767782
 20
1.170462078
 11
20.7825395137
 21
1.1682766535
  0
LINE
  5
228
100
AcDbEntity
  8
0
100
AcDbLine
 62
7
  6
CONTINUOUS
 10
20.8177513651
 20
1.1693297793
 11
20.947965719
 21
1.1693297793
  0
LINE
  5
229
100
AcDbEntity
  8
0
100
AcDbLine
 62
7
  6
CONTINUOUS
 10
20.6875370113
 20
1.170462078
 11
20.5573226574
 21
1.170462078
  0
LINE
  5
22A
100
AcDbEntity
  8
0
100
AcDbLine
 62
7
  6
CONTINUOUS
 10
20.7486811426
 20
1.1987695462
 11
20.7486811426
 21
1.1432869085
  0
LINE
  5
22B
100
AcDbEntity
  8
0
100
AcDbLine
 62
7
  6
CONTINUOUS
 10
20.7498134414
 20
1.1059210505
 11
20.7498134414
 21
0.9757066966
  0
LINE
  5
22C
100
AcDbEntity
  8
0
100
AcDbLine
 62
7
  6
CONTINUOUS
 10
20.7486811426
 20
1.2338708068
 11
20.7486811426
 21
1.3640851607
  0
LINE
  5
22D
100
AcDbEntity
  8
0
100
AcDbLine
 62
7
  6
CONTINUOUS
 10
21.0702539817
 20
1.2701043662
 11
21.4790138229
 21
1.3448360823
  0
LINE
  5
22E
100
AcDbEntity
  8
0
100
AcDbLine
 62
7
  6
CONTINUOUS
 10
21.4790138229
 20
1.3448360823
 11
21.4790138229
 21
0.9779712941
  0
LINE
  5
22F
100
AcDbEntity
  8
0
100
AcDbLine
 62
7
  6
CONTINUOUS
 10
21.4790138229
 20
0.9779712941
 11
21.069121683
 21
1.0617614
  0
LINE
  5
230
100
AcDbEntity
  8
0
100
AcDbLine
 62
7
  6
CONTINUOUS
 10
21.0702539817
 20
1.2701043662
 11
21.069121683
 21
1.0617614
  0
LINE
  5
231
100
AcDbEntity
  8
0
100
AcDbLine
 62
7
  6
CONTINUOUS
 10
21.4790138229
 20
1.1693297793
 11
21.3159628059
 21
1.1693297793
  0
LINE
  5
232
100
AcDbEntity
  8
0
100
AcDbLine
 62
7
  6
CONTINUOUS
 10
21.2876553377
 20
1.1693297793
 11
21.2502894796
 21
1.1693297793
  0
LINE
  5
233
100
AcDbEntity
  8
0
100
AcDbLine
 62
7
  6
CONTINUOUS
 10
21.2208497126
 20
1.1659328831
 11
21.0713862804
 21
1.1659328831
  0
LINE
  5
234
100
AcDbEntity
  8
0
100
AcDbLine
 62
7
  6
CONTINUOUS
 10
20.4796138713
 20
1.5284908897
 11
20.4766766948
 21
0.9294458646
  0
ENDBLK
  5
235
100
AcDbEntity
  8
0
  6
BYBLOCK
 62
0
100
AcDbBlockEnd
  0
BLOCK
  5
236
100
AcDbEntity
  8
0
100
AcDbBlockBegin
  2
*T1
 70
1
 10
0.0
 20
0.0
  3
*T1
  1

  0
LINE
  5
237
100
AcDbEntity
  8
0
100
AcDbLine
 62
2
  6
CONTINUOUS
 10
9.275
 20
0.0
 11
-0.0
 21
0.0
  0
LINE
  5
238
100
AcDbEntity
  8
0
100
AcDbLine
 62
2
  6
CONTINUOUS
 10
9.275
 20
0.0
 11
9.275
 21
1.25
  0
LINE
  5
239
100
AcDbEntity
  8
0
100
AcDbLine
 62
2
  6
CONTINUOUS
 10
9.275
 20
0.625
 11
-0.0
 21
0.625
  0
LINE
  5
23A
100
AcDbEntity
  8
0
100
AcDbLine
 62
2
  6
CONTINUOUS
 10
9.275
 20
1.25
 11
-0.0
 21
1.25
  0
LINE
  5
23B
100
AcDbEntity
  8
0
100
AcDbLine
 62
2
  6
CONTINUOUS
 10
6.8
 20
0.0
 11
6.8
 21
1.25
  0
LINE
  5
23C
100
AcDbEntity
  8
0
100
AcDbLine
 62
2
  6
CONTINUOUS
 10
6.4
 20
0.0
 11
6.4
 21
0.625
  0
LINE
  5
23D
100
AcDbEntity
  8
0
100
AcDbLine
 62
2
  6
CONTINUOUS
 10
5.9
 20
0.0
 11
5.9
 21
0.625
  0
LINE
  5
23E
100
AcDbEntity
  8
0
100
AcDbLine
 62
2
  6
CONTINUOUS
 10
5.2
 20
0.0
 11
5.2
 21
0.625
  0
LINE
  5
23F
100
AcDbEntity
  8
0
100
AcDbLine
 62
2
  6
CONTINUOUS
 10
4.1
 20
0.0
 11
4.1
 21
1.25
  0
LINE
  5
240
100
AcDbEntity
  8
0
100
AcDbLine
 62
2
  6
CONTINUOUS
 10
-0.0
 20
0.0
 11
-0.0
 21
1.25
  0
MTEXT
  5
241
100
AcDbEntity
  8
0
100
AcDbMText
 62
2
  6
CONTINUOUS
  7
STANDARD
 71
2
 72
1
 10
6.6
 20
0.325
 30
0.0
 11
1.0
 21
0.0
 31
0.0
 44
0.9
  1
2
 40
0.125
 41
0.2
  0
MTEXT
  5
242
100
AcDbEntity
  8
0
100
AcDbMText
 62
2
  6
CONTINUOUS
  7
STANDARD
 71
2
 72
1
 10
6.15
 20
0.325
 30
0.0
 11
1.0
 21
0.0
 31
0.0
 44
0.9
  1
C
 40
0.125
 41
0.2
  0
MTEXT
  5
243
100
AcDbEntity
  8
0
100
AcDbMText
 62
2
  6
CONTINUOUS
  7
STANDARD
 71
2
 72
1
 10
5.55
 20
0.325
 30
0.0
 11
1.0
 21
0.0
 31
0.0
 44
0.9
  1
1.000
 40
0.125
 41
1.0
  0
MTEXT
  5
244
100
AcDbEntity
  8
0
100
AcDbMText
 62
2
  6
CONTINUOUS
  7
STANDARD
 71
2
 72
1
 10
4.65
 20
0.325
 30
0.0
 11
1.0
 21
0.0
 31
0.0
 44
0.9
  1
Sep-06-22
 40
0.125
 41
1.8
  0
MTEXT
  5
245
100
AcDbEntity
  8
0
100
AcDbMText
 62
2
  6
CONTINUOUS
  7
STANDARD
 71
2
 72
1
 10
2.05
 20
0.4625
 30
0.0
 11
1.0
 21
0.0
 31
0.0
 44
0.9
  1
T-2A Line mount\P(See Technical Data for Body Features)
 40
0.125
 41
7.6
  0
MTEXT
  5
246
100
AcDbEntity
  8
0
100
AcDbMText
 62
2
  6
CONTINUOUS
  7
STANDARD
 71
1
 72
1
 10
6.45
 20
0.5625
 30
0.0
 11
1.0
 21
0.0
 31
0.0
 44
0.9
  1
SHEET
 40
0.06
 41
0.48
  0
MTEXT
  5
247
100
AcDbEntity
  8
0
100
AcDbMText
 62
2
  6
CONTINUOUS
  7
STANDARD
 71
1
 72
1
 10
5.95
 20
0.5625
 30
0.0
 11
1.0
 21
0.0
 31
0.0
 44
0.9
  1
DWG SIZE
 40
0.06
 41
0.768
  0
MTEXT
  5
248
100
AcDbEntity
  8
0
100
AcDbMText
 62
2
  6
CONTINUOUS
  7
STANDARD
 71
1
 72
1
 10
5.25
 20
0.5625
 30
0.0
 11
1.0
 21
0.0
 31
0.0
 44
0.9
  1
SCALE
 40
0.06
 41
0.48
  0
MTEXT
  5
249
100
AcDbEntity
  8
0
100
AcDbMText
 62
2
  6
CONTINUOUS
  7
STANDARD
 71
1
 72
1
 10
4.15
 20
0.5625
 30
0.0
 11
1.0
 21
0.0
 31
0.0
 44
0.9
  1
DATE
 40
0.06
 41
0.384
  0
MTEXT
  5
24A
100
AcDbEntity
  8
0
100
AcDbMText
 62
2
  6
CONTINUOUS
  7
STANDARD
 71
1
 72
1
 10
0.05
 20
0.5625
 30
0.0
 11
1.0
 21
0.0
 31
0.0
 44
0.9
  1
DESCRIPTION
 40
0.06
 41
1.056
  0
MTEXT
  5
24B
100
AcDbEntity
  8
0
100
AcDbMText
 62
2
  6
CONTINUOUS
  7
STANDARD
 71
2
 72
1
 10
5.45
 20
1.0375
 30
0.0
 11
1.0
 21
0.0
 31
0.0
 44
0.9
  1
ALL DIMENSIONS IN INCH\PVIEWS ARE THIRD ANGLE
 40
0.12
 41
4.224
  0
MTEXT
  5
24C
100
AcDbEntity
  8
0
100
AcDbMText
 62
2
  6
CONTINUOUS
  7
STANDARD
 71
2
 72
1
 10
2.05
 20
0.95
 30
0.0
 11
1.0
 21
0.0
 31
0.0
 44
0.9
  1
B6W
 40
0.125
 41
0.6
  0
MTEXT
  5
24D
100
AcDbEntity
  8
0
100
AcDbMText
 62
2
  6
CONTINUOUS
  7
STANDARD
 71
1
 72
1
 10
0.05
 20
1.1875
 30
0.0
 11
1.0
 21
0.0
 31
0.0
 44
0.9
  1
MODEL
 40
0.06
 41
0.48
  0
ENDBLK
  5
24E
100
AcDbEntity
  8
0
  6
BYBLOCK
 62
0
100
AcDbBlockEnd
  0
BLOCK
  5
24F
100
AcDbEntity
  8
0
100
AcDbBlockBegin
  2
*T2
 70
1
 10
0.0
 20
0.0
  3
*T2
  1

  0
LINE
  5
250
100
AcDbEntity
  8
0
100
AcDbLine
 62
2
  6
CONTINUOUS
 10
0.0
 20
0.0
 11
9.055
 21
0.0
  0
LINE
  5
251
100
AcDbEntity
  8
0
100
AcDbLine
 62
2
  6
CONTINUOUS
 10
0.0
 20
0.0
 11
0.0
 21
-2.844
  0
LINE
  5
252
100
AcDbEntity
  8
0
100
AcDbLine
 62
2
  6
CONTINUOUS
 10
0.0
 20
-0.344
 11
9.055
 21
-0.344
  0
LINE
  5
253
100
AcDbEntity
  8
0
100
AcDbLine
 62
2
  6
CONTINUOUS
 10
0.0
 20
-0.594
 11
9.055
 21
-0.594
  0
LINE
  5
254
100
AcDbEntity
  8
0
100
AcDbLine
 62
2
  6
CONTINUOUS
 10
0.0
 20
-0.844
 11
9.055
 21
-0.844
  0
LINE
  5
255
100
AcDbEntity
  8
0
100
AcDbLine
 62
2
  6
CONTINUOUS
 10
0.0
 20
-1.094
 11
9.055
 21
-1.094
  0
LINE
  5
256
100
AcDbEntity
  8
0
100
AcDbLine
 62
2
  6
CONTINUOUS
 10
0.0
 20
-1.344
 11
9.055
 21
-1.344
  0
LINE
  5
257
100
AcDbEntity
  8
0
100
AcDbLine
 62
2
  6
CONTINUOUS
 10
0.0
 20
-1.594
 11
9.055
 21
-1.594
  0
LINE
  5
258
100
AcDbEntity
  8
0
100
AcDbLine
 62
2
  6
CONTINUOUS
 10
0.0
 20
-1.844
 11
9.055
 21
-1.844
  0
LINE
  5
259
100
AcDbEntity
  8
0
100
AcDbLine
 62
2
  6
CONTINUOUS
 10
0.0
 20
-2.094
 11
9.055
 21
-2.094
  0
LINE
  5
25A
100
AcDbEntity
  8
0
100
AcDbLine
 62
2
  6
CONTINUOUS
 10
0.0
 20
-2.344
 11
9.055
 21
-2.344
  0
LINE
  5
25B
100
AcDbEntity
  8
0
100
AcDbLine
 62
2
  6
CONTINUOUS
 10
0.0
 20
-2.594
 11
9.055
 21
-2.594
  0
LINE
  5
25C
100
AcDbEntity
  8
0
100
AcDbLine
 62
2
  6
CONTINUOUS
 10
0.0
 20
-2.844
 11
9.055
 21
-2.844
  0
LINE
  5
25D
100
AcDbEntity
  8
0
100
AcDbLine
 62
2
  6
CONTINUOUS
 10
3.055
 20
0.0
 11
3.055
 21
-2.844
  0
LINE
  5
25E
100
AcDbEntity
  8
0
100
AcDbLine
 62
2
  6
CONTINUOUS
 10
9.055
 20
0.0
 11
9.055
 21
-2.844
  0
MTEXT
  5
25F
100
AcDbEntity
  8
0
100
AcDbMText
 62
2
  6
CONTINUOUS
  7
STANDARD
 71
2
 72
1
 10
1.5275
 20
-0.0995
 30
0.0
 11
1.0
 21
0.0
 31
0.0
 44
0.9
  1
Technical Data
 40
0.145
 41
3.248
  0
MTEXT
  5
260
100
AcDbEntity
  8
0
100
AcDbMText
 62
2
  6
CONTINUOUS
  7
STANDARD
 71
2
 72
1
 10
4.555
 20
-0.0995
 30
0.0
 11
1.0
 21
0.0
 31
0.0
 44
0.9
  1
U.S. Units
 40
0.145
 41
2.32
  0
MTEXT
  5
261
100
AcDbEntity
  8
0
100
AcDbMText
 62
2
  6
CONTINUOUS
  7
STANDARD
 71
2
 72
1
 10
7.555
 20
-0.0995
 30
0.0
 11
1.0
 21
0.0
 31
0.0
 44
0.9
  1
Metric Units
 40
0.145
 41
2.784
  0
MTEXT
  5
262
100
AcDbEntity
  8
0
100
AcDbMText
 62
2
  6
CONTINUOUS
  7
STANDARD
 71
2
 72
1
 10
1.5275
 20
-0.4065
 30
0.0
 11
1.0
 21
0.0
 31
0.0
 44
0.9
  1
Cavity
 40
0.125
 41
1.2
  0
MTEXT
  5
263
100
AcDbEntity
  8
0
100
AcDbMText
 62
2
  6
CONTINUOUS
  7
STANDARD
 71
2
 72
1
 10
6.055
 20
-0.4065
 30
0.0
 11
1.0
 21
0.0
 31
0.0
 44
0.9
  1
T-2A
 40
0.125
 41
0.8
  0
MTEXT
  5
264
100
AcDbEntity
  8
0
100
AcDbMText
 62
2
  6
CONTINUOUS
  7
STANDARD
 71
2
 72
1
 10
1.5275
 20
-0.6565
 30
0.0
 11
1.0
 21
0.0
 31
0.0
 44
0.9
  1
Body Features
 40
0.125
 41
2.6
  0
MTEXT
  5
265
100
AcDbEntity
  8
0
100
AcDbMText
 62
2
  6
CONTINUOUS
  7
STANDARD
 71
2
 72
1
 10
6.055
 20
-0.6565
 30
0.0
 11
1.0
 21
0.0
 31
0.0
 44
0.9
  1
Ninety degree with reverse flow check - sequence
 40
0.125
 41
9.6
  0
MTEXT
  5
266
100
AcDbEntity
  8
0
100
AcDbMText
 62
2
  6
CONTINUOUS
  7
STANDARD
 71
2
 72
1
 10
1.5275
 20
-0.9065
 30
0.0
 11
1.0
 21
0.0
 31
0.0
 44
0.9
  1
Body Type
 40
0.125
 41
1.8
  0
MTEXT
  5
267
100
AcDbEntity
  8
0
100
AcDbMText
 62
2
  6
CONTINUOUS
  7
STANDARD
 71
2
 72
1
 10
6.055
 20
-0.9065
 30
0.0
 11
1.0
 21
0.0
 31
0.0
 44
0.9
  1
Line mount
 40
0.125
 41
2.0
  0
MTEXT
  5
268
100
AcDbEntity
  8
0
100
AcDbMText
 62
2
  6
CONTINUOUS
  7
STANDARD
 71
2
 72
1
 10
1.5275
 20
-1.1565
 30
0.0
 11
1.0
 21
0.0
 31
0.0
 44
0.9
  1
Interface
 40
0.125
 41
1.8
  0
MTEXT
  5
269
100
AcDbEntity
  8
0
100
AcDbMText
 62
2
  6
CONTINUOUS
  7
STANDARD
 71
2
 72
1
 10
6.055
 20
-1.1565
 30
0.0
 11
1.0
 21
0.0
 31
0.0
 44
0.9
  1
None
 40
0.125
 41
0.8
  0
MTEXT
  5
26A
100
AcDbEntity
  8
0
100
AcDbMText
 62
2
  6
CONTINUOUS
  7
STANDARD
 71
2
 72
1
 10
1.5275
 20
-1.4065
 30
0.0
 11
1.0
 21
0.0
 31
0.0
 44
0.9
  1
Open Cavity Quantity
 40
0.125
 41
4.0
  0
MTEXT
  5
26B
100
AcDbEntity
  8
0
100
AcDbMText
 62
2
  6
CONTINUOUS
  7
STANDARD
 71
2
 72
1
 10
6.055
 20
-1.4065
 30
0.0
 11
1.0
 21
0.0
 31
0.0
 44
0.9
  1
1
 40
0.125
 41
0.2
  0
MTEXT
  5
26C
100
AcDbEntity
  8
0
100
AcDbMText
 62
2
  6
CONTINUOUS
  7
STANDARD
 71
2
 72
1
 10
1.5275
 20
-1.6565
 30
0.0
 11
1.0
 21
0.0
 31
0.0
 44
0.9
  1
Weight
 40
0.125
 41
1.2
  0
MTEXT
  5
26D
100
AcDbEntity
  8
0
100
AcDbMText
 62
2
  6
CONTINUOUS
  7
STANDARD
 71
2
 72
1
 10
4.555
 20
-1.6565
 30
0.0
 11
1.0
 21
0.0
 31
0.0
 44
0.9
  1
1.625 lb.
 40
0.125
 41
1.8
  0
MTEXT
  5
26E
100
AcDbEntity
  8
0
100
AcDbMText
 62
2
  6
CONTINUOUS
  7
STANDARD
 71
2
 72
1
 10
7.555
 20
-1.6565
 30
0.0
 11
1.0
 21
0.0
 31
0.0
 44
0.9
  1
0,737 kg.
 40
0.125
 41
1.8
  0
MTEXT
  5
26F
100
AcDbEntity
  8
0
100
AcDbMText
 62
2
  6
CONTINUOUS
  7
STANDARD
 71
2
 72
1
 10
1.5275
 20
-1.9065
 30
0.0
 11
1.0
 21
0.0
 31
0.0
 44
0.9
  1
Mounting Hole Diameter
 40
0.125
 41
4.4
  0
MTEXT
  5
270
100
AcDbEntity
  8
0
100
AcDbMText
 62
2
  6
CONTINUOUS
  7
STANDARD
 71
2
 72
1
 10
4.555
 20
-1.9065
 30
0.0
 11
1.0
 21
0.0
 31
0.0
 44
0.9
  1
.28 in.
 40
0.125
 41
1.4
  0
MTEXT
  5
271
100
AcDbEntity
  8
0
100
AcDbMText
 62
2
  6
CONTINUOUS
  7
STANDARD
 71
2
 72
1
 10
7.555
 20
-1.9065
 30
0.0
 11
1.0
 21
0.0
 31
0.0
 44
0.9
  1
7,1 mm
 40
0.125
 41
1.2
  0
MTEXT
  5
272
100
AcDbEntity
  8
0
100
AcDbMText
 62
2
  6
CONTINUOUS
  7
STANDARD
 71
2
 72
1
 10
1.5275
 20
-2.1565
 30
0.0
 11
1.0
 21
0.0
 31
0.0
 44
0.9
  1
Mounting Hole Depth
 40
0.125
 41
3.8
  0
MTEXT
  5
273
100
AcDbEntity
  8
0
100
AcDbMText
 62
2
  6
CONTINUOUS
  7
STANDARD
 71
2
 72
1
 10
6.055
 20
-2.1565
 30
0.0
 11
1.0
 21
0.0
 31
0.0
 44
0.9
  1
Through
 40
0.125
 41
1.4
  0
MTEXT
  5
274
100
AcDbEntity
  8
0
100
AcDbMText
 62
2
  6
CONTINUOUS
  7
STANDARD
 71
2
 72
1
 10
1.5275
 20
-2.4065
 30
0.0
 11
1.0
 21
0.0
 31
0.0
 44
0.9
  1
Mounting Hole Quantity
 40
0.125
 41
4.4
  0
MTEXT
  5
275
100
AcDbEntity
  8
0
100
AcDbMText
 62
2
  6
CONTINUOUS
  7
STANDARD
 71
2
 72
1
 10
6.055
 20
-2.4065
 30
0.0
 11
1.0
 21
0.0
 31
0.0
 44
0.9
  1
2
 40
0.125
 41
0.2
  0
MTEXT
  5
276
100
AcDbEntity
  8
0
100
AcDbMText
 62
2
  6
CONTINUOUS
  7
STANDARD
 71
2
 72
1
 10
1.5275
 20
-2.6565
 30
0.0
 11
1.0
 21
0.0
 31
0.0
 44
0.9
  1
Includes integral cartridge(s)
 40
0.125
 41
6.0
  0
MTEXT
  5
277
100
AcDbEntity
  8
0
100
AcDbMText
 62
2
  6
CONTINUOUS
  7
STANDARD
 71
2
 72
1
 10
6.055
 20
-2.6565
 30
0.0
 11
1.0
 21
0.0
 31
0.0
 44
0.9
  1
Yes (see Included Components)
 40
0.125
 41
5.8
  0
ENDBLK
  5
278
100
AcDbEntity
  8
0
  6
BYBLOCK
 62
0
100
AcDbBlockEnd
  0
BLOCK
  5
279
100
AcDbEntity
  8
0
100
AcDbBlockBegin
  2
*T3
 70
1
 10
0.0
 20
0.0
  3
*T3
  1

  0
LINE
  5
27A
100
AcDbEntity
  8
0
100
AcDbLine
 62
2
  6
CONTINUOUS
 10
0.0
 20
0.0
 11
4.6
 21
0.0
  0
LINE
  5
27B
100
AcDbEntity
  8
0
100
AcDbLine
 62
2
  6
CONTINUOUS
 10
0.0
 20
0.0
 11
0.0
 21
-1.43775
  0
LINE
  5
27C
100
AcDbEntity
  8
0
100
AcDbLine
 62
2
  6
CONTINUOUS
 10
0.0
 20
-0.34375
 11
4.6
 21
-0.34375
  0
LINE
  5
27D
100
AcDbEntity
  8
0
100
AcDbLine
 62
2
  6
CONTINUOUS
 10
0.0
 20
-0.68775
 11
4.6
 21
-0.68775
  0
LINE
  5
27E
100
AcDbEntity
  8
0
100
AcDbLine
 62
2
  6
CONTINUOUS
 10
0.0
 20
-0.93775
 11
4.6
 21
-0.93775
  0
LINE
  5
27F
100
AcDbEntity
  8
0
100
AcDbLine
 62
2
  6
CONTINUOUS
 10
0.0
 20
-1.18775
 11
4.6
 21
-1.18775
  0
LINE
  5
280
100
AcDbEntity
  8
0
100
AcDbLine
 62
2
  6
CONTINUOUS
 10
0.0
 20
-1.43775
 11
4.6
 21
-1.43775
  0
LINE
  5
281
100
AcDbEntity
  8
0
100
AcDbLine
 62
2
  6
CONTINUOUS
 10
1.3
 20
-0.34375
 11
1.3
 21
-1.43775
  0
LINE
  5
282
100
AcDbEntity
  8
0
100
AcDbLine
 62
2
  6
CONTINUOUS
 10
3.3
 20
-0.34375
 11
3.3
 21
-1.43775
  0
LINE
  5
283
100
AcDbEntity
  8
0
100
AcDbLine
 62
2
  6
CONTINUOUS
 10
4.6
 20
0.0
 11
4.6
 21
-1.43775
  0
MTEXT
  5
284
100
AcDbEntity
  8
0
100
AcDbMText
 62
2
  6
CONTINUOUS
  7
STANDARD
 71
2
 72
1
 10
2.3
 20
-0.099375
 30
0.0
 11
1.0
 21
0.0
 31
0.0
 44
0.9
  1
Port Headings
 40
0.145
 41
3.016
  0
MTEXT
  5
285
100
AcDbEntity
  8
0
100
AcDbMText
 62
2
  6
CONTINUOUS
  7
STANDARD
 71
2
 72
1
 10
0.65
 20
-0.44325
 30
0.0
 11
1.0
 21
0.0
 31
0.0
 44
0.9
  1
Product
 40
0.145
 41
1.624
  0
MTEXT
  5
286
100
AcDbEntity
  8
0
100
AcDbMText
 62
2
  6
CONTINUOUS
  7
STANDARD
 71
2
 72
1
 10
2.3
 20
-0.44325
 30
0.0
 11
1.0
 21
0.0
 31
0.0
 44
0.9
  1
Port
 40
0.145
 41
0.928
  0
MTEXT
  5
287
100
AcDbEntity
  8
0
100
AcDbMText
 62
2
  6
CONTINUOUS
  7
STANDARD
 71
2
 72
1
 10
3.95
 20
-0.44325
 30
0.0
 11
1.0
 21
0.0
 31
0.0
 44
0.9
  1
Size
 40
0.145
 41
0.928
  0
MTEXT
  5
288
100
AcDbEntity
  8
0
100
AcDbMText
 62
2
  6
CONTINUOUS
  7
STANDARD
 71
2
 72
1
 10
0.65
 20
-0.75025
 30
0.0
 11
1.0
 21
0.0
 31
0.0
 44
0.9
  1
B6W
 40
0.125
 41
0.6
  0
MTEXT
  5
289
100
AcDbEntity
  8
0
100
AcDbMText
 62
2
  6
CONTINUOUS
  7
STANDARD
 71
2
 72
1
 10
2.3
 20
-0.75025
 30
0.0
 11
1.0
 21
0.0
 31
0.0
 44
0.9
  1
Ports 1 &  2
 40
0.125
 41
2.4
  0
MTEXT
  5
28A
100
AcDbEntity
  8
0
100
AcDbMText
 62
2
  6
CONTINUOUS
  7
STANDARD
 71
2
 72
1
 10
3.95
 20
-0.75025
 30
0.0
 11
1.0
 21
0.0
 31
0.0
 44
0.9
  1
3/4" BSPP
 40
0.125
 41
1.8
  0
MTEXT
  5
28B
100
AcDbEntity
  8
0
100
AcDbMText
 62
2
  6
CONTINUOUS
  7
STANDARD
 71
2
 72
1
 10
0.65
 20
-1.00025
 30
0.0
 11
1.0
 21
0.0
 31
0.0
 44
0.9
  1
B6W
 40
0.125
 41
0.6
  0
MTEXT
  5
28C
100
AcDbEntity
  8
0
100
AcDbMText
 62
2
  6
CONTINUOUS
  7
STANDARD
 71
2
 72
1
 10
2.3
 20
-1.00025
 30
0.0
 11
1.0
 21
0.0
 31
0.0
 44
0.9
  1
Port 3
 40
0.125
 41
1.2
  0
MTEXT
  5
28D
100
AcDbEntity
  8
0
100
AcDbMText
 62
2
  6
CONTINUOUS
  7
STANDARD
 71
2
 72
1
 10
3.95
 20
-1.00025
 30
0.0
 11
1.0
 21
0.0
 31
0.0
 44
0.9
  1
1/4" BSPP
 40
0.125
 41
1.8
  0
MTEXT
  5
28E
100
AcDbEntity
  8
0
100
AcDbMText
 62
2
  6
CONTINUOUS
  7
STANDARD
 71
2
 72
1
 10
0.65
 20
-1.25025
 30
0.0
 11
1.0
 21
0.0
 31
0.0
 44
0.9
  1
B6W
 40
0.125
 41
0.6
  0
MTEXT
  5
28F
100
AcDbEntity
  8
0
100
AcDbMText
 62
2
  6
CONTINUOUS
  7
STANDARD
 71
2
 72
1
 10
2.3
 20
-1.25025
 30
0.0
 11
1.0
 21
0.0
 31
0.0
 44
0.9
  1
Gage Port
 40
0.125
 41
1.8
  0
MTEXT
  5
290
100
AcDbEntity
  8
0
100
AcDbMText
 62
2
  6
CONTINUOUS
  7
STANDARD
 71
2
 72
1
 10
3.95
 20
-1.25025
 30
0.0
 11
1.0
 21
0.0
 31
0.0
 44
0.9
  1
1/4" BSPP
 40
0.125
 41
1.8
  0
ENDBLK
  5
291
100
AcDbEntity
  8
0
  6
BYBLOCK
 62
0
100
AcDbBlockEnd
  0
ENDSEC
  0
SECTION
  2
ENTITIES
  0
IMAGE
  5
292
100
AcDbEntity
  8
0
100
AcDbRasterImage
 62
7
  6
CONTINUOUS
 10
19.2297077316
 20
0.3094318264
 30
0.0
 11
0.0066666667
 21
0.0
 31
0.0
 12
0.0
 22
0.0066666667
 32
0.0
 13
369.0
 23
92.0
340
       3BA
 70
9
280
0
281
50
282
50
283
0
360
       3B4
 71
1
 91
2
 14
-0.5
 24
-0.5
 14
368.5
 24
91.5
  0
INSERT
  5
293
100
AcDbEntity
  8
0
100
AcDbBlockReference
 62
2
  6
CONTINUOUS
  2
SUN_FIRST_THIRD_ANGLE_BL0
 10
20.4816717061
 20
1.2289683772
  0
ACAD_TABLE
  5
294
100
AcDbEntity
  8
0
 62
2
  6
CONTINUOUS
100
AcDbBlockReference
  2
*T1
 10
12.42375
 20
0.30125
 30
0.0
100
AcDbTable
342
       3BC
343
20F
 11
1.0
 21
0.0
 31
0.0
 90
6
 91
4
 92
6
 93
20
 94
0
 95
0
 96
0
 70
1
 41
0.0
141
0.525
141
0.1
141
0.525
141
0.1
142
4.1
142
1.1
142
0.7
142
0.5
142
0.4
142
2.475
171
1
172
0
173
0
174
0
175
1
176
1
 91
33
178
0
145
0.0
301
CELL_VALUE
 90
4
  1
T-2A Line mount\P(See Technical Data for Body Features)
304
ACVALUE_END
170
2
140
0.125
171
1
172
0
173
0
174
0
175
1
176
1
 91
33
178
0
145
0.0
301
CELL_VALUE
 90
4
  1
Sep-06-22
304
ACVALUE_END
170
5
140
0.125
171
1
172
0
173
0
174
0
175
1
176
1
 91
33
178
0
145
0.0
301
CELL_VALUE
 90
4
  1
1.000
304
ACVALUE_END
170
5
140
0.125
171
1
172
0
173
0
174
0
175
1
176
1
 91
33
178
0
145
0.0
301
CELL_VALUE
 90
4
  1
C
304
ACVALUE_END
170
5
140
0.125
171
1
172
0
173
0
174
0
175
1
176
1
 91
33
178
0
145
0.0
301
CELL_VALUE
 90
4
  1
2
304
ACVALUE_END
170
5
140
0.125
171
1
172
0
173
0
174
0
175
1
176
1
 91
33
178
0
145
0.0
301
CELL_VALUE
 90
4
  1
 
304
ACVALUE_END
170
1
140
0.125
171
1
172
0
173
0
174
0
175
1
176
1
 91
33
178
0
145
0.0
301
CELL_VALUE
 90
4
  1
DESCRIPTION
304
ACVALUE_END
170
1
140
0.06
171
1
172
0
173
0
174
0
175
1
176
1
 91
33
178
0
145
0.0
301
CELL_VALUE
 90
4
  1
DATE
304
ACVALUE_END
170
1
140
0.06
171
1
172
0
173
0
174
0
175
1
176
1
 91
33
178
0
145
0.0
301
CELL_VALUE
 90
4
  1
SCALE
304
ACVALUE_END
170
1
140
0.06
171
1
172
0
173
0
174
0
175
1
176
1
 91
33
178
0
145
0.0
301
CELL_VALUE
 90
4
  1
DWG SIZE
304
ACVALUE_END
170
1
140
0.06
171
1
172
0
173
0
174
0
175
1
176
1
 91
33
178
0
145
0.0
301
CELL_VALUE
 90
4
  1
SHEET
304
ACVALUE_END
170
1
140
0.06
171
1
172
0
173
0
174
0
175
1
176
1
 91
33
178
0
145
0.0
301
CELL_VALUE
 90
4
  1
 
304
ACVALUE_END
170
1
140
0.125
171
1
172
0
173
0
174
0
175
1
176
1
 91
33
178
0
145
0.0
301
CELL_VALUE
 90
4
  1
B6W
304
ACVALUE_END
170
5
140
0.125
171
1
172
0
173
0
174
0
175
4
176
1
 91
33
178
0
145
0.0
301
CELL_VALUE
 90
4
  1
ALL DIMENSIONS IN INCH\PVIEWS ARE THIRD ANGLE
304
ACVALUE_END
170
5
140
0.12
171
1
172
0
173
1
174
0
175
1
176
1
 91
1
178
0
145
0.0
170
1
171
1
172
0
173
1
174
0
175
1
176
1
 91
1
178
0
145
0.0
170
1
171
1
172
0
173
1
174
0
175
1
176
1
 91
1
178
0
145
0.0
170
5
171
1
172
0
173
0
174
0
175
1
176
1
 91
33
178
0
145
0.0
301
CELL_VALUE
 90
4
  1
 
304
ACVALUE_END
170
1
140
0.125
171
1
172
0
173
0
174
0
175
1
176
1
 91
33
178
0
145
0.0
301
CELL_VALUE
 90
4
  1
MODEL
304
ACVALUE_END
170
1
140
0.06
171
1
172
0
173
0
174
0
175
1
176
1
 91
33
178
0
145
0.0
301
CELL_VALUE
 90
4
  1
 
304
ACVALUE_END
170
1
140
0.125
171
1
172
0
173
0
174
0
175
1
176
1
 91
33
178
0
145
0.0
301
CELL_VALUE
 90
4
  1
 
304
ACVALUE_END
170
1
140
0.125
171
1
172
0
173
0
174
0
175
1
176
1
 91
33
178
0
145
0.0
301
CELL_VALUE
 90
4
  1
 
304
ACVALUE_END
170
1
140
0.125
171
1
172
0
173
0
174
0
175
1
176
1
 91
33
178
0
145
0.0
301
CELL_VALUE
 90
4
  1
 
304
ACVALUE_END
170
1
140
0.125
171
1
172
0
173
0
174
0
175
1
176
1
 91
33
178
0
145
0.0
301
CELL_VALUE
 90
4
  1
 
304
ACVALUE_END
170
1
140
0.125
  0
ACAD_TABLE
  5
295
100
AcDbEntity
  8
0
 62
2
  6
CONTINUOUS
100
AcDbBlockReference
  2
*T2
 10
12.4237499994
 20
16.47875
 30
0.0
100
AcDbTable
342
       3BB
343
210
 11
1.0
 21
0.0
 31
0.0
 90
22
 91
11
 92
3
 93
16
 94
0
 95
0
 96
0
 41
0.028
141
0.344
141
0.25
141
0.25
141
0.25
141
0.25
141
0.25
141
0.25
141
0.25
141
0.25
141
0.25
141
0.25
142
3.055
142
3.0
142
3.0
171
1
172
0
173
0
174
0
175
1
176
1
 91
33
178
0
145
0.0
301
CELL_VALUE
 90
4
  1
Technical Data
304
ACVALUE_END
170
5
140
0.145
171
1
172
0
173
0
174
0
175
1
176
1
 91
33
178
0
145
0.0
301
CELL_VALUE
 90
4
  1
U.S. Units
304
ACVALUE_END
170
5
140
0.145
171
1
172
0
173
0
174
0
175
1
176
1
 91
33
178
0
145
0.0
301
CELL_VALUE
 90
4
  1
Metric Units
304
ACVALUE_END
170
5
140
0.145
171
1
172
0
173
0
174
0
175
1
176
1
 91
33
178
0
145
0.0
301
CELL_VALUE
 90
4
  1
Cavity
304
ACVALUE_END
170
5
140
0.125
171
1
172
0
173
0
174
0
175
2
176
1
 91
33
178
0
145
0.0
301
CELL_VALUE
 90
4
  1
T-2A
304
ACVALUE_END
170
5
140
0.125
171
1
172
0
173
1
174
0
175
1
176
1
 91
1
178
0
145
0.0
170
1
171
1
172
0
173
0
174
0
175
1
176
1
 91
33
178
0
145
0.0
301
CELL_VALUE
 90
4
  1
Body Features
304
ACVALUE_END
170
5
140
0.125
171
1
172
0
173
0
174
0
175
2
176
1
 91
33
178
0
145
0.0
301
CELL_VALUE
 90
4
  1
Ninety degree with reverse flow check - sequence
304
ACVALUE_END
170
5
140
0.125
171
1
172
0
173
1
174
0
175
1
176
1
 91
1
178
0
145
0.0
170
1
171
1
172
0
173
0
174
0
175
1
176
1
 91
33
178
0
145
0.0
301
CELL_VALUE
 90
4
  1
Body Type
304
ACVALUE_END
170
5
140
0.125
171
1
172
0
173
0
174
0
175
2
176
1
 91
33
178
0
145
0.0
301
CELL_VALUE
 90
4
  1
Line mount
304
ACVALUE_END
170
5
140
0.125
171
1
172
0
173
1
174
0
175
1
176
1
 91
1
178
0
145
0.0
170
1
171
1
172
0
173
0
174
0
175
1
176
1
 91
33
178
0
145
0.0
301
CELL_VALUE
 90
4
  1
Interface
304
ACVALUE_END
170
5
140
0.125
171
1
172
0
173
0
174
0
175
2
176
1
 91
33
178
0
145
0.0
301
CELL_VALUE
 90
4
  1
None
304
ACVALUE_END
170
5
140
0.125
171
1
172
0
173
1
174
0
175
1
176
1
 91
1
178
0
145
0.0
170
1
171
1
172
0
173
0
174
0
175
1
176
1
 91
33
178
0
145
0.0
301
CELL_VALUE
 90
4
  1
Open Cavity Quantity
304
ACVALUE_END
170
5
140
0.125
171
1
172
0
173
0
174
0
175
2
176
1
 91
33
178
0
145
0.0
301
CELL_VALUE
 90
4
  1
1
304
ACVALUE_END
170
5
140
0.125
171
1
172
0
173
1
174
0
175
1
176
1
 91
1
178
0
145
0.0
170
1
171
1
172
0
173
0
174
0
175
1
176
1
 91
33
178
0
145
0.0
301
CELL_VALUE
 90
4
  1
Weight
304
ACVALUE_END
170
5
140
0.125
171
1
172
0
173
0
174
0
175
1
176
1
 91
33
178
0
145
0.0
301
CELL_VALUE
 90
4
  1
1.625 lb.
304
ACVALUE_END
170
5
140
0.125
171
1
172
0
173
0
174
0
175
1
176
1
 91
33
178
0
145
0.0
301
CELL_VALUE
 90
4
  1
0,737 kg.
304
ACVALUE_END
170
5
140
0.125
171
1
172
0
173
0
174
0
175
1
176
1
 91
33
178
0
145
0.0
301
CELL_VALUE
 90
4
  1
Mounting Hole Diameter
304
ACVALUE_END
170
5
140
0.125
171
1
172
0
173
0
174
0
175
1
176
1
 91
33
178
0
145
0.0
301
CELL_VALUE
 90
4
  1
.28 in.
304
ACVALUE_END
170
5
140
0.125
171
1
172
0
173
0
174
0
175
1
176
1
 91
33
178
0
145
0.0
301
CELL_VALUE
 90
4
  1
7,1 mm
304
ACVALUE_END
170
5
140
0.125
171
1
172
0
173
0
174
0
175
1
176
1
 91
33
178
0
145
0.0
301
CELL_VALUE
 90
4
  1
Mounting Hole Depth
304
ACVALUE_END
170
5
140
0.125
171
1
172
0
173
0
174
0
175
2
176
1
 91
33
178
0
145
0.0
301
CELL_VALUE
 90
4
  1
Through
304
ACVALUE_END
170
5
140
0.125
171
1
172
0
173
1
174
0
175
1
176
1
 91
1
178
0
145
0.0
170
1
171
1
172
0
173
0
174
0
175
1
176
1
 91
33
178
0
145
0.0
301
CELL_VALUE
 90
4
  1
Mounting Hole Quantity
304
ACVALUE_END
170
5
140
0.125
171
1
172
0
173
0
174
0
175
2
176
1
 91
33
178
0
145
0.0
301
CELL_VALUE
 90
4
  1
2
304
ACVALUE_END
170
5
140
0.125
171
1
172
0
173
1
174
0
175
1
176
1
 91
1
178
0
145
0.0
170
1
171
1
172
0
173
0
174
0
175
1
176
1
 91
33
178
0
145
0.0
301
CELL_VALUE
 90
4
  1
Includes integral cartridge(s)
304
ACVALUE_END
170
5
140
0.125
171
1
172
0
173
0
174
0
175
2
176
1
 91
33
178
0
145
0.0
301
CELL_VALUE
 90
4
  1
Yes (see Included Components)
304
ACVALUE_END
170
5
140
0.125
171
1
172
0
173
1
174
0
175
1
176
1
 91
1
178
0
145
0.0
170
1
  0
ACAD_TABLE
  5
296
100
AcDbEntity
  8
0
 62
2
  6
CONTINUOUS
100
AcDbBlockReference
  2
*T3
 10
0.52125
 20
1.959
 30
0.0
100
AcDbTable
342
       3BB
343
211
 11
1.0
 21
0.0
 31
0.0
 90
22
 91
5
 92
3
 93
16
 94
0
 95
0
 96
0
 41
0.05
141
0.34375
141
0.344
141
0.25
141
0.25
141
0.25
142
1.3
142
2.0
142
1.3
171
1
172
0
173
0
174
0
175
3
176
1
 91
33
178
0
145
0.0
301
CELL_VALUE
 90
4
  1
Port Headings
304
ACVALUE_END
170
5
140
0.145
171
1
172
0
173
1
174
0
175
1
176
1
 91
1
178
0
145
0.0
170
1
171
1
172
0
173
1
174
0
175
1
176
1
 91
1
178
0
145
0.0
170
1
171
1
172
0
173
0
174
0
175
1
176
1
 91
33
178
0
145
0.0
301
CELL_VALUE
 90
4
  1
Product
304
ACVALUE_END
170
5
140
0.145
171
1
172
0
173
0
174
0
175
1
176
1
 91
33
178
0
145
0.0
301
CELL_VALUE
 90
4
  1
Port
304
ACVALUE_END
170
5
140
0.145
171
1
172
0
173
0
174
0
175
1
176
1
 91
33
178
0
145
0.0
301
CELL_VALUE
 90
4
  1
Size
304
ACVALUE_END
170
5
140
0.145
171
1
172
0
173
0
174
0
175
1
176
1
 91
33
178
0
145
0.0
301
CELL_VALUE
 90
4
  1
B6W
304
ACVALUE_END
170
5
140
0.125
171
1
172
0
173
0
174
0
175
1
176
1
 91
33
178
0
145
0.0
301
CELL_VALUE
 90
4
  1
Ports 1 &  2
304
ACVALUE_END
170
5
140
0.125
171
1
172
0
173
0
174
0
175
1
176
1
 91
33
178
0
145
0.0
301
CELL_VALUE
 90
4
  1
3/4" BSPP
304
ACVALUE_END
170
5
140
0.125
171
1
172
0
173
0
174
0
175
1
176
1
 91
33
178
0
145
0.0
301
CELL_VALUE
 90
4
  1
B6W
304
ACVALUE_END
170
5
140
0.125
171
1
172
0
173
0
174
0
175
1
176
1
 91
33
178
0
145
0.0
301
CELL_VALUE
 90
4
  1
Port 3
304
ACVALUE_END
170
5
140
0.125
171
1
172
0
173
0
174
0
175
1
176
1
 91
33
178
0
145
0.0
301
CELL_VALUE
 90
4
  1
1/4" BSPP
304
ACVALUE_END
170
5
140
0.125
171
1
172
0
173
0
174
0
175
1
176
1
 91
33
178
0
145
0.0
301
CELL_VALUE
 90
4
  1
B6W
304
ACVALUE_END
170
5
140
0.125
171
1
172
0
173
0
174
0
175
1
176
1
 91
33
178
0
145
0.0
301
CELL_VALUE
 90
4
  1
Gage Port
304
ACVALUE_END
170
5
140
0.125
171
1
172
0
173
0
174
0
175
1
176
1
 91
33
178
0
145
0.0
301
CELL_VALUE
 90
4
  1
1/4" BSPP
304
ACVALUE_END
170
5
140
0.125
  0
MTEXT
  5
297
100
AcDbEntity
  8
0
100
AcDbMText
 62
2
  6
CONTINUOUS
  7
STANDARD
 71
1
 72
1
 10
0.52125
 20
5.75995
 30
0.0
 11
1.0
 21
0.0
 31
0.0
 44
0.6
  3
Notes\P \P1. Important: Carefully consider\P   the maximum system pressure. The\P   pressure rating of the manifold is\P   dependent on the manifold material,\P   with the port type/size a secondary\P   consideration. Manifolds\P   constructed of alu
  1
minum are not\P   rated for pressures higher than\P   3000 psi (210 bar), regardless of\P   the port type/size specified.
 40
0.1
 41
3.04
  0
LINE
  5
298
100
AcDbEntity
  8
0
100
AcDbLine
 62
7
  6
CONTINUOUS
 10
0.30125
 20
0.30125
 11
0.30125
 21
16.69875
  0
LINE
  5
299
100
AcDbEntity
  8
0
100
AcDbLine
 62
7
  6
CONTINUOUS
 10
0.30125
 20
0.30125
 11
21.69875
 21
0.30125
  0
LINE
  5
29A
100
AcDbEntity
  8
0
100
AcDbLine
 62
7
  6
CONTINUOUS
 10
0.30125
 20
16.69875
 11
21.69875
 21
16.69875
  0
LINE
  5
29B
100
AcDbEntity
  8
0
100
AcDbLine
 62
7
  6
CONTINUOUS
 10
21.69875
 20
0.30125
 11
21.69875
 21
16.69875
  0
LINE
  5
29C
100
AcDbEntity
  8
0
100
AcDbLine
 62
7
  6
CONTINUOUS
 10
9.7452252983
 20
10.9883808495
 11
9.3569970511
 21
10.6133811368
  0
LINE
  5
29D
100
AcDbEntity
  8
0
100
AcDbLine
 62
7
  6
CONTINUOUS
 10
10.9606797533
 20
6.1035536604
 11
10.9913538314
 21
6.0884012532
  0
LINE
  5
29E
100
AcDbEntity
  8
0
100
AcDbLine
 62
7
  6
CONTINUOUS
 10
9.3569970511
 20
6.7496776027
 11
12.2547747017
 21
6.5487160401
  0
LINE
  5
29F
100
AcDbEntity
  8
0
100
AcDbLine
 62
7
  6
CONTINUOUS
 10
9.3569970511
 20
6.7496776027
 11
9.3569970511
 21
10.6133811368
  0
LINE
  5
2A0
100
AcDbEntity
  8
0
100
AcDbLine
 62
4
  6
CONTINUOUS
 10
9.5115451926
 20
7.8207966396
 11
9.5115451926
 21
7.7048855362
  0
LINE
  5
2A1
100
AcDbEntity
  8
0
100
AcDbLine
 62
4
  6
CONTINUOUS
 10
12.1238917783
 20
7.3401927696
 11
12.1094028904
 21
7.3411975774
  0
LINE
  5
2A2
100
AcDbEntity
  8
0
100
AcDbLine
 62
4
  6
CONTINUOUS
 10
12.1166473343
 20
7.3986507252
 11
12.1456251102
 21
7.3966411096
  0
LINE
  5
2A3
100
AcDbEntity
  8
0
100
AcDbLine
 62
4
  6
CONTINUOUS
 10
10.2635875112
 20
8.9015354023
 11
10.280146241
 21
8.9169457786
  0
LINE
  5
2A4
100
AcDbEntity
  8
0
100
AcDbLine
 62
4
  6
CONTINUOUS
 10
12.0804251145
 20
10.1057551622
 11
12.0949140025
 21
10.1144096107
  0
LINE
  5
2A5
100
AcDbEntity
  8
0
100
AcDbLine
 62
4
  6
CONTINUOUS
 10
12.1238917783
 20
10.0737629629
 11
12.1094028904
 21
10.0651085075
  0
LINE
  5
2A6
100
AcDbEntity
  8
0
100
AcDbLine
 62
4
  6
CONTINUOUS
 10
12.1094028904
 20
7.4571086808
 11
12.1238917783
 21
7.456103873
  0
LINE
  5
2A7
100
AcDbEntity
  8
0
100
AcDbLine
 62
4
  6
CONTINUOUS
 10
10.2635875112
 20
8.8849766742
 11
10.2635875112
 21
8.9015354023
  0
LINE
  5
2A8
100
AcDbEntity
  8
0
100
AcDbLine
 62
4
  6
CONTINUOUS
 10
10.3215430629
 20
8.8147225256
 11
10.3215430629
 21
8.8312812554
  0
LINE
  5
2A9
100
AcDbEntity
  8
0
100
AcDbLine
 62
4
  6
CONTINUOUS
 10
10.354660519
 20
8.9117781958
 11
10.354660519
 21
8.8124258222
  0
LINE
  5
2AA
100
AcDbEntity
  8
0
100
AcDbLine
 62
4
  6
CONTINUOUS
 10
10.3905377795
 20
8.2022323684
 11
10.3905377795
 21
8.3181434719
  0
LINE
  5
2AB
100
AcDbEntity
  8
0
100
AcDbLine
 62
4
  6
CONTINUOUS
 10
10.4126160707
 20
8.808406591
 11
10.4126160707
 21
8.9077589647
  0
LINE
  5
2AC
100
AcDbEntity
  8
0
100
AcDbLine
 62
4
  6
CONTINUOUS
 10
10.3049843348
 20
8.7993121475
 11
10.3215430629
 21
8.8147225256
  0
LINE
  5
2AD
100
AcDbEntity
  8
0
100
AcDbLine
 62
4
  6
CONTINUOUS
 10
10.3960573496
 20
8.7929962124
 11
10.4126160707
 21
8.808406591
  0
LINE
  5
2AE
100
AcDbEntity
  8
0
100
AcDbLine
 62
4
  6
CONTINUOUS
 10
12.1238917783
 20
10.0061481506
 11
12.1094028904
 21
9.9974936995
  0
LINE
  5
2AF
100
AcDbEntity
  8
0
100
AcDbLine
 62
4
  6
CONTINUOUS
 10
10.4457335269
 20
8.7895511579
 11
10.4457335269
 21
8.9054622613
  0
LINE
  5
2B0
100
AcDbEntity
  8
0
100
AcDbLine
 62
4
  6
CONTINUOUS
 10
10.4484933243
 20
8.2975655131
 11
10.4484933243
 21
8.2147718675
  0
LINE
  5
2B1
100
AcDbEntity
  8
0
100
AcDbLine
 62
4
  6
CONTINUOUS
 10
10.5036890786
 20
8.7855319267
 11
10.5036890786
 21
8.9014430301
  0
LINE
  5
2B2
100
AcDbEntity
  8
0
100
AcDbLine
 62
4
  6
CONTINUOUS
 10
10.6278795624
 20
8.1857726599
 11
10.6278795624
 21
8.3016837633
  0
LINE
  5
2B3
100
AcDbEntity
  8
0
100
AcDbLine
 62
4
  6
CONTINUOUS
 10
10.6278795426
 20
8.7769192888
 11
10.6278795426
 21
8.8928303922
  0
LINE
  5
2B4
100
AcDbEntity
  8
0
100
AcDbLine
 62
4
  6
CONTINUOUS
 10
10.495409724
 20
8.1949594744
 11
10.5285271801
 21
8.3085738744
  0
LINE
  5
2B5
100
AcDbEntity
  8
0
100
AcDbLine
 62
7
  6
CONTINUOUS
 10
12.4442798219
 20
10.6114674757
 11
12.4225881989
 21
10.5905149755
  0
LINE
  5
2B6
100
AcDbEntity
  8
0
100
AcDbLine
 62
7
  6
CONTINUOUS
 10
12.2547747017
 20
10.4124195742
 11
12.4380430137
 21
10.5894431804
  0
LINE
  5
2B7
100
AcDbEntity
  8
0
100
AcDbLine
 62
7
  6
CONTINUOUS
 10
12.4597346368
 20
10.6103956806
 11
12.6430029489
 21
10.7874192869
  0
LINE
  5
2B8
100
AcDbEntity
  8
0
100
AcDbLine
 62
7
  6
CONTINUOUS
 10
12.4340821935
 20
10.4345006336
 11
12.4334340104
 21
10.4338860827
  0
LINE
  5
2B9
100
AcDbEntity
  8
0
100
AcDbLine
 62
4
  6
CONTINUOUS
 10
10.782427699
 20
8.8407156175
 11
10.7989864201
 21
8.8478466338
  0
LINE
  5
2BA
100
AcDbEntity
  8
0
100
AcDbLine
 62
4
  6
CONTINUOUS
 10
10.3243028603
 20
8.2565019634
 11
10.368459472
 21
8.2313613861
  0
LINE
  5
2BB
100
AcDbEntity
  8
0
100
AcDbLine
 62
4
  6
CONTINUOUS
 10
10.4319345963
 20
8.3152725929
 11
10.4484933243
 21
8.2975655131
  0
LINE
  5
2BC
100
AcDbEntity
  8
0
100
AcDbLine
 62
4
  6
CONTINUOUS
 10
10.5285271801
 20
8.3085738744
 11
10.5616446501
 21
8.1903660667
  0
LINE
  5
2BD
100
AcDbEntity
  8
0
100
AcDbLine
 62
4
  6
CONTINUOUS
 10
10.6651366788
 20
8.4381932976
 11
10.6651366788
 21
8.5541044011
  0
LINE
  5
2BE
100
AcDbEntity
  8
0
100
AcDbLine
 62
4
  6
CONTINUOUS
 10
10.6775557338
 20
8.847988513
 11
10.6775557338
 21
8.7734742332
  0
LINE
  5
2BF
100
AcDbEntity
  8
0
100
AcDbLine
 62
4
  6
CONTINUOUS
 10
10.6941144747
 20
8.1811792531
 11
10.6941144747
 21
8.2970903565
  0
LINE
  5
2C0
100
AcDbEntity
  8
0
100
AcDbLine
 62
4
  6
CONTINUOUS
 10
10.7148128665
 20
8.5341006177
 11
10.7148128665
 21
8.5092625221
  0
LINE
  5
2C1
100
AcDbEntity
  8
0
100
AcDbLine
 62
4
  6
CONTINUOUS
 10
10.7230922305
 20
8.4755708901
 11
10.7230922305
 21
8.4507327963
  0
LINE
  5
2C2
100
AcDbEntity
  8
0
100
AcDbLine
 62
4
  6
CONTINUOUS
 10
10.7562096867
 20
8.4898329148
 11
10.7562096867
 21
8.4484360929
  0
LINE
  5
2C3
100
AcDbEntity
  8
0
100
AcDbLine
 62
4
  6
CONTINUOUS
 10
10.782427699
 20
8.7744807026
 11
10.782427699
 21
8.8407156175
  0
LINE
  5
2C4
100
AcDbEntity
  8
0
100
AcDbLine
 62
4
  6
CONTINUOUS
 10
10.8141652384
 20
8.4444168617
 11
10.8141652384
 21
8.4775343196
  0
LINE
  5
2C5
100
AcDbEntity
  8
0
100
AcDbLine
 62
4
  6
CONTINUOUS
 10
10.7272319249
 20
8.7424312958
 11
10.7603493672
 21
8.8505261225
  0
LINE
  5
2C6
100
AcDbEntity
  8
0
100
AcDbLine
 62
4
  6
CONTINUOUS
 10
10.7727684148
 20
8.5218020193
 11
10.7562096867
 21
8.4898329148
  0
LINE
  5
2C7
100
AcDbEntity
  8
0
100
AcDbLine
 62
4
  6
CONTINUOUS
 10
10.7148128665
 20
8.5092625221
 11
10.6982541384
 21
8.4938521457
  0
LINE
  5
2C8
100
AcDbEntity
  8
0
100
AcDbLine
 62
4
  6
CONTINUOUS
 10
10.9397356329
 20
8.788409455
 11
10.9562943541
 21
8.7955404679
  0
LINE
  5
2C9
100
AcDbEntity
  8
0
100
AcDbLine
 62
4
  6
CONTINUOUS
 10
11.0970435314
 20
8.1532360281
 11
11.0556467009
 21
8.1561069081
  0
LINE
  5
2CA
100
AcDbEntity
  8
0
100
AcDbLine
 62
4
  6
CONTINUOUS
 10
11.0059705374
 20
8.1595519617
 11
10.981132428
 21
8.1612744904
  0
LINE
  5
2CB
100
AcDbEntity
  8
0
100
AcDbLine
 62
4
  6
CONTINUOUS
 10
10.917657321
 20
8.1656765041
 11
10.8845398787
 21
8.1679732065
  0
LINE
  5
2CC
100
AcDbEntity
  8
0
100
AcDbLine
 62
4
  6
CONTINUOUS
 10
10.4319345963
 20
8.1993614894
 11
10.3905377795
 21
8.2022323684
  0
LINE
  5
2CD
100
AcDbEntity
  8
0
100
AcDbLine
 62
4
  6
CONTINUOUS
 10
10.6941144747
 20
8.1811792531
 11
10.7437906658
 21
8.1777341976
  0
LINE
  5
2CE
100
AcDbEntity
  8
0
100
AcDbLine
 62
4
  6
CONTINUOUS
 10
11.1605186937
 20
8.1488340107
 11
11.2101948572
 21
8.145388957
  0
LINE
  5
2CF
100
AcDbEntity
  8
0
100
AcDbLine
 62
4
  6
CONTINUOUS
 10
10.506448876
 20
8.2273113662
 11
10.5506054842
 21
8.224249095
  0
LINE
  5
2D0
100
AcDbEntity
  8
0
100
AcDbLine
 62
4
  6
CONTINUOUS
 10
11.1936361361
 20
8.2127722274
 11
11.1605186937
 21
8.2150689299
  0
LINE
  5
2D1
100
AcDbEntity
  8
0
100
AcDbLine
 62
4
  6
CONTINUOUS
 10
10.7272319447
 20
8.245117468
 11
10.6941144747
 21
8.2474141723
  0
LINE
  5
2D2
100
AcDbEntity
  8
0
100
AcDbLine
 62
4
  6
CONTINUOUS
 10
10.3905377795
 20
8.3181434719
 11
10.4319345963
 21
8.3152725929
  0
LINE
  5
2D3
100
AcDbEntity
  8
0
100
AcDbLine
 62
4
  6
CONTINUOUS
 10
10.5947620924
 20
8.3039804677
 11
10.6609970047
 21
8.2993870609
  0
LINE
  5
2D4
100
AcDbEntity
  8
0
100
AcDbLine
 62
4
  6
CONTINUOUS
 10
10.6941144747
 20
8.2970903565
 11
10.7437906658
 21
8.293645301
  0
LINE
  5
2D5
100
AcDbEntity
  8
0
100
AcDbLine
 62
4
  6
CONTINUOUS
 10
10.8845398787
 20
8.2838843099
 11
10.917657321
 21
8.2815876075
  0
LINE
  5
2D6
100
AcDbEntity
  8
0
100
AcDbLine
 62
4
  6
CONTINUOUS
 10
10.981132428
 20
8.2771855939
 11
11.0059705374
 21
8.2754630651
  0
LINE
  5
2D7
100
AcDbEntity
  8
0
100
AcDbLine
 62
4
  6
CONTINUOUS
 10
11.0556467009
 20
8.2720180115
 11
11.0970435314
 21
8.2691471316
  0
LINE
  5
2D8
100
AcDbEntity
  8
0
100
AcDbLine
 62
4
  6
CONTINUOUS
 10
11.1605186937
 20
8.2647451141
 11
11.2101948572
 21
8.2613000605
  0
LINE
  5
2D9
100
AcDbEntity
  8
0
100
AcDbLine
 62
4
  6
CONTINUOUS
 10
12.1094028904
 20
7.3411975774
 11
12.0949140025
 21
7.3518616441
  0
LINE
  5
2DA
100
AcDbEntity
  8
0
100
AcDbLine
 62
4
  6
CONTINUOUS
 10
12.1238917783
 20
7.456103873
 11
12.1383806662
 21
7.4454398089
  0
LINE
  5
2DB
100
AcDbEntity
  8
0
100
AcDbLine
 62
4
  6
CONTINUOUS
 10
10.3215430629
 20
8.8312812554
 11
10.2635875112
 21
8.8849766742
  0
LINE
  5
2DC
100
AcDbEntity
  8
0
100
AcDbLine
 62
4
  6
CONTINUOUS
 10
10.2635875112
 20
8.8104623918
 11
10.2718668761
 21
8.801608851
  0
LINE
  5
2DD
100
AcDbEntity
  8
0
100
AcDbLine
 62
4
  6
CONTINUOUS
 10
10.8845398787
 20
8.1679732065
 11
10.8679811575
 21
8.1856802875
  0
LINE
  5
2DE
100
AcDbEntity
  8
0
100
AcDbLine
 62
4
  6
CONTINUOUS
 10
10.354660519
 20
8.8124258222
 11
10.3712192471
 21
8.7947187407
  0
LINE
  5
2DF
100
AcDbEntity
  8
0
100
AcDbLine
 62
4
  6
CONTINUOUS
 10
10.981132428
 20
8.1612744904
 11
10.9645737068
 21
8.1789815715
  0
LINE
  5
2E0
100
AcDbEntity
  8
0
100
AcDbLine
 62
4
  6
CONTINUOUS
 10
10.7065335025
 20
8.4932779699
 11
10.7230922305
 21
8.4755708901
  0
LINE
  5
2E1
100
AcDbEntity
  8
0
100
AcDbLine
 62
4
  6
CONTINUOUS
 10
10.3132636988
 20
8.9146490751
 11
10.3215430629
 21
8.9057955317
  0
LINE
  5
2E2
100
AcDbEntity
  8
0
100
AcDbLine
 62
4
  6
CONTINUOUS
 10
10.7562096867
 20
8.4484360929
 11
10.7727684148
 21
8.4307290114
  0
LINE
  5
2E3
100
AcDbEntity
  8
0
100
AcDbLine
 62
4
  6
CONTINUOUS
 10
10.4457335269
 20
8.9054622613
 11
10.5036890786
 21
8.7855319267
  0
LINE
  5
2E4
100
AcDbEntity
  8
0
100
AcDbLine
 62
4
  6
CONTINUOUS
 10
10.7106732037
 20
8.8539711761
 11
10.7355113131
 21
8.7694550001
  0
LINE
  5
2E5
100
AcDbEntity
  8
0
100
AcDbLine
 62
4
  6
CONTINUOUS
 10
10.8321038625
 20
8.8786673875
 11
10.8321038625
 21
8.7627562841
  0
LINE
  5
2E6
100
AcDbEntity
  8
0
100
AcDbLine
 62
7
  6
CONTINUOUS
 10
10.8639357255
 20
6.5480758744
 11
10.8639357255
 21
6.163672433
  0
LINE
  5
2E7
100
AcDbEntity
  8
0
100
AcDbLine
 62
4
  6
CONTINUOUS
 10
10.8652213601
 20
8.7604595778
 11
10.8652213601
 21
8.8432532251
  0
LINE
  5
2E8
100
AcDbEntity
  8
0
100
AcDbLine
 62
4
  6
CONTINUOUS
 10
10.8679811575
 20
8.1856802875
 11
10.8679811575
 21
8.2684739331
  0
LINE
  5
2E9
100
AcDbEntity
  8
0
100
AcDbLine
 62
7
  6
CONTINUOUS
 10
10.8783837737
 20
6.5341201553
 11
10.8783837737
 21
6.149716714
  0
LINE
  5
2EA
100
AcDbEntity
  8
0
100
AcDbLine
 62
4
  6
CONTINUOUS
 10
10.9038583577
 20
8.8322943727
 11
10.9038583577
 21
8.8157356446
  0
LINE
  5
2EB
100
AcDbEntity
  8
0
100
AcDbLine
 62
4
  6
CONTINUOUS
 10
10.9397356329
 20
8.7635713603
 11
10.9397356329
 21
8.788409455
  0
LINE
  5
2EC
100
AcDbEntity
  8
0
100
AcDbLine
 62
7
  6
CONTINUOUS
 10
10.9449629418
 20
6.6395517941
 11
10.9449629418
 21
6.637063832
  0
LINE
  5
2ED
100
AcDbEntity
  8
0
100
AcDbLine
 62
4
  6
CONTINUOUS
 10
10.9645737068
 20
8.1789815715
 11
10.9645737068
 21
8.261775217
  0
LINE
  5
2EE
100
AcDbEntity
  8
0
100
AcDbLine
 62
4
  6
CONTINUOUS
 10
10.9894117964
 20
8.7518469418
 11
10.9894117964
 21
8.818081861
  0
LINE
  5
2EF
100
AcDbEntity
  8
0
100
AcDbLine
 62
4
  6
CONTINUOUS
 10
11.0225292388
 20
8.8323438867
 11
11.0225292388
 21
8.7578296043
  0
LINE
  5
2F0
100
AcDbEntity
  8
0
100
AcDbLine
 62
4
  6
CONTINUOUS
 10
11.0225292586
 20
8.2577559859
 11
11.0225292586
 21
8.1749623403
  0
LINE
  5
2F1
100
AcDbEntity
  8
0
100
AcDbLine
 62
4
  6
CONTINUOUS
 10
10.9217969674
 20
8.4203938462
 11
10.9466350768
 21
8.5345824209
  0
LINE
  5
2F2
100
AcDbEntity
  8
0
100
AcDbLine
 62
4
  6
CONTINUOUS
 10
10.8721207901
 20
8.4238389008
 11
10.8969588857
 21
8.5049100203
  0
LINE
  5
2F3
100
AcDbEntity
  8
0
100
AcDbLine
 62
4
  6
CONTINUOUS
 10
12.1311362223
 20
10.0829198154
 11
12.1238917783
 21
10.0737629629
  0
LINE
  5
2F4
100
AcDbEntity
  8
0
100
AcDbLine
 62
4
  6
CONTINUOUS
 10
12.1383806662
 20
10.0244618598
 11
12.1238917783
 21
10.0061481506
  0
LINE
  5
2F5
100
AcDbEntity
  8
0
100
AcDbLine
 62
4
  6
CONTINUOUS
 10
10.7976065172
 20
8.5449175866
 11
10.7727684148
 21
8.5218020193
  0
LINE
  5
2F6
100
AcDbEntity
  8
0
100
AcDbLine
 62
4
  6
CONTINUOUS
 10
10.4484933243
 20
8.2147718675
 11
10.4319345963
 21
8.1993614894
  0
LINE
  5
2F7
100
AcDbEntity
  8
0
100
AcDbLine
 62
4
  6
CONTINUOUS
 10
10.7230922305
 20
8.4507327963
 11
10.7065335025
 21
8.4353224182
  0
LINE
  5
2F8
100
AcDbEntity
  8
0
100
AcDbLine
 62
4
  6
CONTINUOUS
 10
10.7976065172
 20
8.4290064831
 11
10.8141652384
 21
8.4444168617
  0
LINE
  5
2F9
100
AcDbEntity
  8
0
100
AcDbLine
 62
4
  6
CONTINUOUS
 10
11.223993781
 20
8.8100929057
 11
11.2322731139
 21
8.8177980995
  0
LINE
  5
2FA
100
AcDbEntity
  8
0
100
AcDbLine
 62
4
  6
CONTINUOUS
 10
11.2985081091
 20
8.8049253195
 11
11.3067874421
 21
8.8126305133
  0
LINE
  5
2FB
100
AcDbEntity
  8
0
100
AcDbLine
 62
4
  6
CONTINUOUS
 10
10.368459472
 20
8.2755179995
 11
10.3243028603
 21
8.2565019634
  0
LINE
  5
2FC
100
AcDbEntity
  8
0
100
AcDbLine
 62
4
  6
CONTINUOUS
 10
10.7065335025
 20
8.4353224182
 11
10.6651366788
 21
8.4381932976
  0
LINE
  5
2FD
100
AcDbEntity
  8
0
100
AcDbLine
 62
4
  6
CONTINUOUS
 10
10.7727684148
 20
8.4307290114
 11
10.7976065172
 21
8.4290064831
  0
LINE
  5
2FE
100
AcDbEntity
  8
0
100
AcDbLine
 62
4
  6
CONTINUOUS
 10
10.6651366788
 20
8.4961488493
 11
10.7065335025
 21
8.4932779699
  0
LINE
  5
2FF
100
AcDbEntity
  8
0
100
AcDbLine
 62
4
  6
CONTINUOUS
 10
10.7976065172
 20
8.4952414023
 11
10.7617292627
 21
8.4977294984
  0
LINE
  5
300
100
AcDbEntity
  8
0
100
AcDbLine
 62
4
  6
CONTINUOUS
 10
10.6899747727
 20
8.5523818734
 11
10.6982541384
 21
8.549047906
  0
LINE
  5
301
100
AcDbEntity
  8
0
100
AcDbLine
 62
4
  6
CONTINUOUS
 10
11.2433122995
 20
8.2148467498
 11
11.2874689077
 21
8.1897061711
  0
LINE
  5
302
100
AcDbEntity
  8
0
100
AcDbLine
 62
4
  6
CONTINUOUS
 10
10.6982541384
 20
8.549047906
 11
10.7148128665
 21
8.5341006177
  0
LINE
  5
303
100
AcDbEntity
  8
0
100
AcDbLine
 62
4
  6
CONTINUOUS
 10
10.8141652384
 20
8.4775343196
 11
10.7976065172
 21
8.4952414023
  0
LINE
  5
304
100
AcDbEntity
  8
0
100
AcDbLine
 62
4
  6
CONTINUOUS
 10
11.0059705374
 20
8.2754630651
 11
11.0225292586
 21
8.2577559859
  0
LINE
  5
305
100
AcDbEntity
  8
0
100
AcDbLine
 62
4
  6
CONTINUOUS
 10
11.0970435314
 20
8.2691471316
 11
11.1136022526
 21
8.2514400523
  0
LINE
  5
306
100
AcDbEntity
  8
0
100
AcDbLine
 62
4
  6
CONTINUOUS
 10
10.6692763732
 20
8.8568420561
 11
10.6775557338
 21
8.847988513
  0
LINE
  5
307
100
AcDbEntity
  8
0
100
AcDbLine
 62
4
  6
CONTINUOUS
 10
10.8969588857
 20
8.5049100203
 11
10.9217969674
 21
8.4203938462
  0
LINE
  5
308
100
AcDbEntity
  8
0
100
AcDbLine
 62
4
  6
CONTINUOUS
 10
10.8472826946
 20
8.541472532
 11
10.8721207901
 21
8.4238389008
  0
LINE
  5
309
100
AcDbEntity
  8
0
100
AcDbLine
 62
4
  6
CONTINUOUS
 10
11.0556467009
 20
8.1561069081
 11
11.0556467009
 21
8.2720180115
  0
LINE
  5
30A
100
AcDbEntity
  8
0
100
AcDbLine
 62
4
  6
CONTINUOUS
 10
11.0722054575
 20
8.7461051819
 11
11.0722054575
 21
8.8288988292
  0
LINE
  5
30B
100
AcDbEntity
  8
0
100
AcDbLine
 62
4
  6
CONTINUOUS
 10
11.1053228999
 20
8.7520878444
 11
11.1053228999
 21
8.8597195829
  0
LINE
  5
30C
100
AcDbEntity
  8
0
100
AcDbLine
 62
4
  6
CONTINUOUS
 10
11.1136022526
 20
8.2514400523
 11
11.1136022526
 21
8.1686464067
  0
LINE
  5
30D
100
AcDbEntity
  8
0
100
AcDbLine
 62
4
  6
CONTINUOUS
 10
11.1605186937
 20
8.1488340107
 11
11.1605186937
 21
8.2647451141
  0
LINE
  5
30E
100
AcDbEntity
  8
0
100
AcDbLine
 62
4
  6
CONTINUOUS
 10
11.1798371728
 20
8.7386408971
 11
11.1798371728
 21
8.8214345444
  0
LINE
  5
30F
100
AcDbEntity
  8
0
100
AcDbLine
 62
4
  6
CONTINUOUS
 10
11.1798371728
 20
8.846272633
 11
11.1798371728
 21
8.8545520005
  0
LINE
  5
310
100
AcDbEntity
  8
0
100
AcDbLine
 62
4
  6
CONTINUOUS
 10
11.223993781
 20
8.7438579908
 11
11.223993781
 21
8.8100929057
  0
LINE
  5
311
100
AcDbEntity
  8
0
100
AcDbLine
 62
4
  6
CONTINUOUS
 10
11.1825969504
 20
8.8543606093
 11
11.1798371728
 21
8.846272633
  0
LINE
  5
312
100
AcDbEntity
  8
0
100
AcDbLine
 62
4
  6
CONTINUOUS
 10
11.3399048844
 20
8.7275401636
 11
11.3481842173
 21
8.7352453548
  0
LINE
  5
313
100
AcDbEntity
  8
0
100
AcDbLine
 62
4
  6
CONTINUOUS
 10
10.8679811575
 20
8.2684739331
 11
10.8845398787
 21
8.2838843099
  0
LINE
  5
314
100
AcDbEntity
  8
0
100
AcDbLine
 62
4
  6
CONTINUOUS
 10
10.9645737068
 20
8.261775217
 11
10.981132428
 21
8.2771855939
  0
LINE
  5
315
100
AcDbEntity
  8
0
100
AcDbLine
 62
4
  6
CONTINUOUS
 10
10.6651366788
 20
8.5541044011
 11
10.6899747727
 21
8.5523818734
  0
LINE
  5
316
100
AcDbEntity
  8
0
100
AcDbLine
 62
4
  6
CONTINUOUS
 10
10.7106732037
 20
8.743579647
 11
10.7272319249
 21
8.7424312958
  0
LINE
  5
317
100
AcDbEntity
  8
0
100
AcDbLine
 62
4
  6
CONTINUOUS
 10
10.7989864201
 20
8.7650529865
 11
10.782427699
 21
8.7744807026
  0
LINE
  5
318
100
AcDbEntity
  8
0
100
AcDbLine
 62
4
  6
CONTINUOUS
 10
10.9562943541
 20
8.7541436442
 11
10.9397356329
 21
8.7635713603
  0
LINE
  5
319
100
AcDbEntity
  8
0
100
AcDbLine
 62
4
  6
CONTINUOUS
 10
11.0225292388
 20
8.7578296043
 11
11.030808627
 21
8.7489760618
  0
LINE
  5
31A
100
AcDbEntity
  8
0
100
AcDbLine
 62
4
  6
CONTINUOUS
 10
12.0949140025
 20
7.3518616441
 11
12.0804251145
 21
7.3721849688
  0
LINE
  5
31B
100
AcDbEntity
  8
0
100
AcDbLine
 62
4
  6
CONTINUOUS
 10
10.8983388024
 20
8.8409565227
 11
10.9038583577
 21
8.8322943727
  0
LINE
  5
31C
100
AcDbEntity
  8
0
100
AcDbLine
 62
4
  6
CONTINUOUS
 10
10.9894117964
 20
8.818081861
 11
10.9811324635
 21
8.8352147628
  0
LINE
  5
31D
100
AcDbEntity
  8
0
100
AcDbLine
 62
7
  6
CONTINUOUS
 10
11.2920704918
 20
6.4270502897
 11
11.2920704918
 21
6.0426468484
  0
LINE
  5
31E
100
AcDbEntity
  8
0
100
AcDbLine
 62
4
  6
CONTINUOUS
 10
11.2985081091
 20
8.7800872274
 11
11.2985081091
 21
8.8049253195
  0
LINE
  5
31F
100
AcDbEntity
  8
0
100
AcDbLine
 62
7
  6
CONTINUOUS
 10
11.3459913004
 20
6.4233108689
 11
11.3459913004
 21
6.0389074276
  0
LINE
  5
320
100
AcDbEntity
  8
0
100
AcDbLine
 62
4
  6
CONTINUOUS
 10
11.3481842173
 20
8.7352453548
 11
11.3481842173
 21
8.7600834495
  0
LINE
  5
321
100
AcDbEntity
  8
0
100
AcDbLine
 62
7
  6
CONTINUOUS
 10
12.4347176778
 20
9.3687210002
 11
12.4334340104
 21
9.3675038281
  0
LINE
  5
322
100
AcDbEntity
  8
0
100
AcDbLine
 62
4
  6
CONTINUOUS
 10
11.0225292586
 20
8.1749623403
 11
11.0059705374
 21
8.1595519617
  0
LINE
  5
323
100
AcDbEntity
  8
0
100
AcDbLine
 62
4
  6
CONTINUOUS
 10
11.1136022526
 20
8.1686464067
 11
11.0970435314
 21
8.1532360281
  0
LINE
  5
324
100
AcDbEntity
  8
0
100
AcDbLine
 62
4
  6
CONTINUOUS
 10
12.0804251145
 20
8.7824368123
 11
12.0949140025
 21
8.7910912608
  0
LINE
  5
325
100
AcDbEntity
  8
0
100
AcDbLine
 62
4
  6
CONTINUOUS
 10
12.1238917783
 20
8.7407853498
 11
12.0949140025
 21
8.7234764493
  0
LINE
  5
326
100
AcDbEntity
  8
0
100
AcDbLine
 62
4
  6
CONTINUOUS
 10
11.2874689077
 20
8.1897061711
 11
11.2433122995
 21
8.1706901365
  0
LINE
  5
327
100
AcDbEntity
  8
0
100
AcDbLine
 62
4
  6
CONTINUOUS
 10
11.2653906668
 20
8.7327077421
 11
11.2322731139
 21
8.7350044522
  0
LINE
  5
328
100
AcDbEntity
  8
0
100
AcDbLine
 62
4
  6
CONTINUOUS
 10
11.1301610093
 20
8.7420859507
 11
11.1136022881
 21
8.7432343019
  0
LINE
  5
329
100
AcDbEntity
  8
0
100
AcDbLine
 62
4
  6
CONTINUOUS
 10
10.9894117964
 20
8.7518469418
 11
10.9562943541
 21
8.7541436442
  0
LINE
  5
32A
100
AcDbEntity
  8
0
100
AcDbLine
 62
4
  6
CONTINUOUS
 10
10.8321038625
 20
8.7627562841
 11
10.7989864201
 21
8.7650529865
  0
LINE
  5
32B
100
AcDbEntity
  8
0
100
AcDbLine
 62
4
  6
CONTINUOUS
 10
10.2718668761
 20
8.801608851
 11
10.3049843348
 21
8.7993121475
  0
LINE
  5
32C
100
AcDbEntity
  8
0
100
AcDbLine
 62
4
  6
CONTINUOUS
 10
10.3712192471
 20
8.7947187407
 11
10.3960573496
 21
8.7929962124
  0
LINE
  5
32D
100
AcDbEntity
  8
0
100
AcDbLine
 62
4
  6
CONTINUOUS
 10
11.030808627
 20
8.7489760618
 11
11.0722054575
 21
8.7461051819
  0
LINE
  5
32E
100
AcDbEntity
  8
0
100
AcDbLine
 62
4
  6
CONTINUOUS
 10
11.3067874421
 20
8.729836866
 11
11.3399048844
 21
8.7275401636
  0
LINE
  5
32F
100
AcDbEntity
  8
0
100
AcDbLine
 62
4
  6
CONTINUOUS
 10
12.0731806706
 20
8.6766873691
 11
12.1311362223
 21
8.6726681379
  0
LINE
  5
330
100
AcDbEntity
  8
0
100
AcDbLine
 62
4
  6
CONTINUOUS
 10
10.9562943541
 20
8.7955404679
 11
10.9894117964
 21
8.7932437654
  0
LINE
  5
331
100
AcDbEntity
  8
0
100
AcDbLine
 62
4
  6
CONTINUOUS
 10
10.9811324635
 20
8.8352147628
 11
10.9397356329
 21
8.8380856427
  0
LINE
  5
332
100
AcDbEntity
  8
0
100
AcDbLine
 62
4
  6
CONTINUOUS
 10
10.6278795426
 20
8.859712936
 11
10.6692763732
 21
8.8568420561
  0
LINE
  5
333
100
AcDbEntity
  8
0
100
AcDbLine
 62
4
  6
CONTINUOUS
 10
10.7989864201
 20
8.8478466338
 11
10.8321038625
 21
8.8455499314
  0
LINE
  5
334
100
AcDbEntity
  8
0
100
AcDbLine
 62
4
  6
CONTINUOUS
 10
10.8652213601
 20
8.8432532251
 11
10.8983388024
 21
8.8409565227
  0
LINE
  5
335
100
AcDbEntity
  8
0
100
AcDbLine
 62
4
  6
CONTINUOUS
 10
11.2322731139
 20
8.8177980995
 11
11.2653906668
 21
8.8155013894
  0
LINE
  5
336
100
AcDbEntity
  8
0
100
AcDbLine
 62
4
  6
CONTINUOUS
 10
11.3067874421
 20
8.8126305133
 11
11.3399048844
 21
8.8103338109
  0
LINE
  5
337
100
AcDbEntity
  8
0
100
AcDbLine
 62
4
  6
CONTINUOUS
 10
10.280146241
 20
8.9169457786
 11
10.3132636988
 21
8.9146490751
  0
LINE
  5
338
100
AcDbEntity
  8
0
100
AcDbLine
 62
4
  6
CONTINUOUS
 10
11.1798371728
 20
8.8545520005
 11
11.1825969504
 21
8.8543606093
  0
LINE
  5
339
100
AcDbEntity
  8
0
100
AcDbLine
 62
4
  6
CONTINUOUS
 10
12.0949140025
 20
8.7910912608
 11
12.1094028904
 21
8.790086453
  0
LINE
  5
33A
100
AcDbEntity
  8
0
100
AcDbLine
 62
4
  6
CONTINUOUS
 10
11.3399048844
 20
8.7661771992
 11
11.3067874421
 21
8.7739934777
  0
LINE
  5
33B
100
AcDbEntity
  8
0
100
AcDbLine
 62
4
  6
CONTINUOUS
 10
11.3067874421
 20
8.7739934777
 11
11.2985081091
 21
8.7800872274
  0
LINE
  5
33C
100
AcDbEntity
  8
0
100
AcDbLine
 62
4
  6
CONTINUOUS
 10
11.3481842173
 20
8.7600834495
 11
11.3399048844
 21
8.7661771992
  0
LINE
  5
33D
100
AcDbEntity
  8
0
100
AcDbLine
 62
4
  6
CONTINUOUS
 10
11.1136022881
 20
8.7432343019
 11
11.1053228999
 21
8.7520878444
  0
LINE
  5
33E
100
AcDbEntity
  8
0
100
AcDbLine
 62
4
  6
CONTINUOUS
 10
11.2322731139
 20
8.7350044522
 11
11.223993781
 21
8.7438579908
  0
LINE
  5
33F
100
AcDbEntity
  8
0
100
AcDbLine
 62
4
  6
CONTINUOUS
 10
11.2985081091
 20
8.7386904046
 11
11.3067874421
 21
8.729836866
  0
LINE
  5
340
100
AcDbEntity
  8
0
100
AcDbLine
 62
4
  6
CONTINUOUS
 10
12.1383806662
 20
7.4454398089
 11
12.1456251102
 21
7.4352781418
  0
LINE
  5
341
100
AcDbEntity
  8
0
100
AcDbLine
 62
4
  6
CONTINUOUS
 10
11.3399048844
 20
8.8103338109
 11
11.3481842173
 21
8.8014802697
  0
LINE
  5
342
100
AcDbEntity
  8
0
100
AcDbLine
 62
4
  6
CONTINUOUS
 10
12.0731806706
 20
8.773279953
 11
12.0804251145
 21
8.7824368123
  0
LINE
  5
343
100
AcDbEntity
  8
0
100
AcDbLine
 62
4
  6
CONTINUOUS
 10
12.0949140025
 20
8.7234764493
 11
12.0804251145
 21
8.705162741
  0
LINE
  5
344
100
AcDbEntity
  8
0
100
AcDbLine
 62
4
  6
CONTINUOUS
 10
12.1311362223
 20
8.7499422092
 11
12.1238917783
 21
8.7407853498
  0
LINE
  5
345
100
AcDbEntity
  8
0
100
AcDbLine
 62
4
  6
CONTINUOUS
 10
12.0804251145
 20
7.3721849688
 11
12.0731806706
 21
7.4016651486
  0
LINE
  5
346
100
AcDbEntity
  8
0
100
AcDbLine
 62
7
  6
CONTINUOUS
 10
11.911097708
 20
6.4625012007
 11
11.911097708
 21
6.0780977594
  0
LINE
  5
347
100
AcDbEntity
  8
0
100
AcDbLine
 62
7
  6
CONTINUOUS
 10
11.9505704684
 20
6.472717499
 11
11.9505704684
 21
6.0883140577
  0
LINE
  5
348
100
AcDbEntity
  8
0
100
AcDbLine
 62
4
  6
CONTINUOUS
 10
12.0804251145
 20
8.705162741
 11
12.0731806706
 21
8.6766873691
  0
LINE
  5
349
100
AcDbEntity
  8
0
100
AcDbLine
 62
4
  6
CONTINUOUS
 10
12.1094028904
 20
8.790086453
 11
12.1238917783
 21
8.7794223889
  0
LINE
  5
34A
100
AcDbEntity
  8
0
100
AcDbLine
 62
7
  6
CONTINUOUS
 10
12.101990158
 20
6.5593116841
 11
12.101990158
 21
6.2345742551
  0
LINE
  5
34B
100
AcDbEntity
  8
0
100
AcDbLine
 62
4
  6
CONTINUOUS
 10
12.1311362223
 20
10.0925790717
 11
12.1311362223
 21
10.0829198154
  0
LINE
  5
34C
100
AcDbEntity
  8
0
100
AcDbLine
 62
4
  6
CONTINUOUS
 10
12.1311362223
 20
8.7692607218
 11
12.1311362223
 21
8.7499422092
  0
LINE
  5
34D
100
AcDbEntity
  8
0
100
AcDbLine
 62
4
  6
CONTINUOUS
 10
12.1383806662
 20
10.0341211195
 11
12.1383806662
 21
10.0244618598
  0
LINE
  5
34E
100
AcDbEntity
  8
0
100
AcDbLine
 62
4
  6
CONTINUOUS
 10
12.1456251102
 20
7.3966411096
 11
12.1456251102
 21
7.3580040757
  0
LINE
  5
34F
100
AcDbEntity
  8
0
100
AcDbLine
 62
4
  6
CONTINUOUS
 10
12.1238917783
 20
8.7794223889
 11
12.1311362223
 21
8.7692607218
  0
LINE
  5
350
100
AcDbEntity
  8
0
100
AcDbLine
 62
7
  6
CONTINUOUS
 10
12.2547747017
 20
6.5487160401
 11
12.2547747017
 21
10.4124195742
  0
LINE
  5
351
100
AcDbEntity
  8
0
100
AcDbLine
 62
4
  6
CONTINUOUS
 10
12.0731806706
 20
7.4016651486
 11
12.0804251145
 21
7.4301405205
  0
LINE
  5
352
100
AcDbEntity
  8
0
100
AcDbLine
 62
4
  6
CONTINUOUS
 10
12.0804251145
 20
7.4301405205
 11
12.0949140025
 21
7.4484542323
  0
LINE
  5
353
100
AcDbEntity
  8
0
100
AcDbLine
 62
4
  6
CONTINUOUS
 10
12.1456251102
 20
7.3580040757
 11
12.1383806662
 21
7.3488472207
  0
LINE
  5
354
100
AcDbEntity
  8
0
100
AcDbLine
 62
7
  6
CONTINUOUS
 10
12.4340821935
 20
7.7782043964
 11
12.4334340104
 21
7.7775898455
  0
LINE
  5
355
100
AcDbEntity
  8
0
100
AcDbLine
 62
4
  6
CONTINUOUS
 10
12.0949140025
 20
7.4484542323
 11
12.1094028904
 21
7.4571086808
  0
LINE
  5
356
100
AcDbEntity
  8
0
100
AcDbLine
 62
4
  6
CONTINUOUS
 10
12.1383806662
 20
7.3488472207
 11
12.1238917783
 21
7.3401927696
  0
LINE
  5
357
100
AcDbEntity
  8
0
100
AcDbLine
 62
4
  6
CONTINUOUS
 10
12.1094028904
 20
9.9974936995
 11
12.0949140025
 21
9.9984985073
  0
LINE
  5
358
100
AcDbEntity
  8
0
100
AcDbLine
 62
7
  6
CONTINUOUS
 10
12.6430029489
 20
6.9237157528
 11
12.6430029489
 21
10.7874192869
  0
LINE
  5
359
100
AcDbEntity
  8
0
100
AcDbLine
 62
4
  6
CONTINUOUS
 10
12.0949140025
 20
10.0661133153
 11
12.1094028904
 21
10.0651085075
  0
LINE
  5
35A
100
AcDbEntity
  8
0
100
AcDbLine
 62
4
  6
CONTINUOUS
 10
12.0949140025
 20
10.1144096107
 11
12.1094028904
 21
10.1134048029
  0
LINE
  5
35B
100
AcDbEntity
  8
0
100
AcDbLine
 62
4
  6
CONTINUOUS
 10
12.0804251145
 20
10.009162574
 11
12.0731806706
 21
10.0193242368
  0
LINE
  5
35C
100
AcDbEntity
  8
0
100
AcDbLine
 62
7
  6
CONTINUOUS
 10
9.3569970511
 20
10.6133811368
 11
12.2547747017
 21
10.4124195742
  0
LINE
  5
35D
100
AcDbEntity
  8
0
100
AcDbLine
 62
4
  6
CONTINUOUS
 10
12.0949140025
 20
9.9984985073
 11
12.0804251145
 21
10.009162574
  0
LINE
  5
35E
100
AcDbEntity
  8
0
100
AcDbLine
 62
4
  6
CONTINUOUS
 10
12.1094028904
 20
10.0651085075
 11
12.1238917783
 21
10.0544444434
  0
LINE
  5
35F
100
AcDbEntity
  8
0
100
AcDbLine
 62
4
  6
CONTINUOUS
 10
12.1094028904
 20
10.1134048029
 11
12.1238917783
 21
10.1027407388
  0
LINE
  5
360
100
AcDbEntity
  8
0
100
AcDbLine
 62
4
  6
CONTINUOUS
 10
12.1238917783
 20
10.0544444434
 11
12.1383806662
 21
10.0341211195
  0
LINE
  5
361
100
AcDbEntity
  8
0
100
AcDbLine
 62
4
  6
CONTINUOUS
 10
12.1238917783
 20
10.1027407388
 11
12.1311362223
 21
10.0925790717
  0
LINE
  5
362
100
AcDbEntity
  8
0
100
AcDbLine
 62
7
  6
CONTINUOUS
 10
12.4380430137
 20
10.5894431804
 11
12.4225881989
 21
10.5905149755
  0
LINE
  5
363
100
AcDbEntity
  8
0
100
AcDbLine
 62
7
  6
CONTINUOUS
 10
12.4597346368
 20
10.6103956806
 11
12.4442798219
 21
10.6114674757
  0
LINE
  5
364
100
AcDbEntity
  8
0
100
AcDbLine
 62
7
  6
CONTINUOUS
 10
12.2547747017
 20
6.5487160401
 11
12.6430029489
 21
6.9237157528
  0
LINE
  5
365
100
AcDbEntity
  8
0
100
AcDbLine
 62
7
  6
CONTINUOUS
 10
12.6430029489
 20
10.7874192869
 11
9.7452252983
 21
10.9883808495
  0
LINE
  5
366
100
AcDbEntity
  8
0
100
AcDbLine
 62
7
  6
CONTINUOUS
 10
11.993789989
 20
6.097894546
 11
11.9745720521
 21
6.0884012532
  0
ARC
  5
367
100
AcDbEntity
  8
0
100
AcDbCircle
 62
7
  6
CONTINUOUS
 10
11.4754098701
 20
8.2993310748
 40
2.2641254892
100
AcDbArc
 50
266.0354973614
 51
266.723157899
  0
ARC
  5
368
100
AcDbEntity
  8
0
100
AcDbCircle
 62
7
  6
CONTINUOUS
 10
11.4746962744
 20
8.6724571688
 40
2.2528257918
100
AcDbArc
 50
266.0337727607
 51
266.7248824998
  0
ARC
  5
369
100
AcDbEntity
  8
0
100
AcDbCircle
 62
7
  6
CONTINUOUS
 10
11.4704807006
 20
8.2273175207
 40
2.1919434639
100
AcDbArc
 50
265.3313245689
 51
266.0338890315
  0
ARC
  5
36A
100
AcDbEntity
  8
0
100
AcDbCircle
 62
7
  6
CONTINUOUS
 10
11.4704807006
 20
8.6117209619
 40
2.1919434638
100
AcDbArc
 50
265.3313245689
 51
266.0338890315
  0
ARC
  5
36B
100
AcDbEntity
  8
0
100
AcDbCircle
 62
7
  6
CONTINUOUS
 10
11.6918982701
 20
7.3907868136
 40
0.9538147475
100
AcDbArc
 50
283.286087793
 51
285.7355389587
  0
ARC
  5
36C
100
AcDbEntity
  8
0
100
AcDbCircle
 62
7
  6
CONTINUOUS
 10
11.6918982701
 20
7.0063833723
 40
0.9538147475
100
AcDbArc
 50
283.286087793
 51
285.7355389587
  0
ARC
  5
36D
100
AcDbEntity
  8
0
100
AcDbCircle
 62
7
  6
CONTINUOUS
 10
11.292960393
 20
6.7743166515
 40
0.7485539414
100
AcDbArc
 50
243.6649403382
 51
246.2656701867
  0
ARC
  5
36E
100
AcDbEntity
  8
0
100
AcDbCircle
 62
7
  6
CONTINUOUS
 10
12.4196953419
 20
10.3996565651
 40
0.0147409655
100
AcDbArc
 50
86.0355735727
 51
92.3770878316
  0
ARC
  5
36F
100
AcDbEntity
  8
0
100
AcDbCircle
 62
7
  6
CONTINUOUS
 10
12.4196953419
 20
7.7433603278
 40
0.0147409655
100
AcDbArc
 50
86.0355735732
 51
92.3770878313
  0
ARC
  5
370
100
AcDbEntity
  8
0
100
AcDbCircle
 62
7
  6
CONTINUOUS
 10
12.3892185911
 20
9.960193664
 40
0.0147406186
100
AcDbArc
 50
259.8277854465
 51
266.0297713928
  0
ARC
  5
371
100
AcDbEntity
  8
0
100
AcDbCircle
 62
7
  6
CONTINUOUS
 10
12.3892185911
 20
7.3038974268
 40
0.0147406186
100
AcDbArc
 50
259.8277854464
 51
266.0297713929
  0
SPLINE
  5
372
100
AcDbEntity
  8
0
100
AcDbSpline
 62
7
  6
CONTINUOUS
 70
0
 71
3
 72
23
 73
19
 74
0
 42
0.0000001
 43
0.0000001
 44
0.0000000001
 40
0.0
 40
0.0
 40
0.0
 40
0.0
 40
0.0771587943
 40
0.1531525983
 40
0.2277645257
 40
0.3008156151
 40
0.3721376111
 40
0.441561383
 40
0.5089207464
 40
0.5740613042
 40
0.63683572
 40
0.6971076841
 40
0.7547490656
 40
0.8096460692
 40
0.8616960538
 40
0.9108140941
 40
0.9569307292
 40
1.0
 40
1.0
 40
1.0
 40
1.0
 10
11.3393184903
 20
6.0163169224
 30
0.0
 10
11.3301534433
 20
6.0169525206
 30
0.0
 10
11.3119703791
 20
6.018343024
 30
0.0
 10
11.2849623021
 20
6.020806307
 30
0.0
 10
11.258480909
 20
6.0236270473
 30
0.0
 10
11.2325993064
 20
6.0267969039
 30
0.0
 10
11.2073852324
 20
6.0303078549
 30
0.0
 10
11.1829051555
 20
6.0341499564
 30
0.0
 10
11.1592245322
 20
6.0383135597
 30
0.0
 10
11.1364065683
 20
6.0427868066
 30
0.0
 10
11.114511851
 20
6.0475582888
 30
0.0
 10
11.0935984624
 20
6.0526145303
 30
0.0
 10
11.0737219224
 20
6.0579426148
 30
0.0
 10
11.0549348003
 20
6.0635275377
 30
0.0
 10
11.0372867986
 20
6.0693549862
 30
0.0
 10
11.0208240635
 20
6.0754087203
 30
0.0
 10
11.0055902911
 20
6.0816730851
 30
0.0
 10
10.9959476466
 20
6.0861319665
 30
0.0
 10
10.9913499131
 20
6.0884032033
 30
0.0
  0
SPLINE
  5
373
100
AcDbEntity
  8
0
100
AcDbSpline
 62
7
  6
CONTINUOUS
 70
0
 71
3
 72
9
 73
5
 74
0
 42
0.0000001
 43
0.0000001
 44
0.0000000001
 40
0.0
 40
0.0
 40
0.0
 40
0.0
 40
0.5197971894
 40
1.0
 40
1.0
 40
1.0
 40
1.0
 10
10.8783837737
 20
6.149716714
 30
0.0
 10
10.8756894377
 20
6.1519252854
 30
0.0
 10
10.8706559681
 20
6.1563625082
 30
0.0
 10
10.8660271484
 20
6.1612260979
 30
0.0
 10
10.8639357255
 20
6.163672433
 30
0.0
  0
SPLINE
  5
374
100
AcDbEntity
  8
0
100
AcDbSpline
 62
7
  6
CONTINUOUS
 70
0
 71
3
 72
23
 73
19
 74
0
 42
0.0000001
 43
0.0000001
 44
0.0000000001
 40
0.0
 40
0.0
 40
0.0
 40
0.0
 40
0.0811307684
 40
0.1602256514
 40
0.2371394166
 40
0.3117306989
 40
0.3838655188
 40
0.453421346
 40
0.5202899008
 40
0.5843906942
 40
0.6456690168
 40
0.7041129182
 40
0.7597463028
 40
0.812646452
 40
0.862931511
 40
0.9107732172
 40
0.9563797285
 40
1.0
 40
1.0
 40
1.0
 40
1.0
 10
12.101990158
 20
6.2345742551
 30
0.0
 10
12.0998126287
 20
6.2303061194
 30
0.0
 10
12.0954535153
 20
6.2219066968
 30
0.0
 10
12.0888060296
 20
6.2095788498
 30
0.0
 10
12.0821293873
 20
6.1977077599
 30
0.0
 10
12.0754246772
 20
6.1863268997
 30
0.0
 10
12.068692797
 20
6.1754699396
 30
0.0
 10
12.061936137
 20
6.1651693863
 30
0.0
 10
12.0551562937
 20
6.155457
 30
0.0
 10
12.0483571322
 20
6.1463610906
 30
0.0
 10
12.041540895
 20
6.1379076856
 30
0.0
 10
12.0347126429
 20
6.1301168719
 30
0.0
 10
12.0278751094
 20
6.1230052988
 30
0.0
 10
12.0210340182
 20
6.1165816481
 30
0.0
 10
12.0141924756
 20
6.1108507168
 30
0.0
 10
12.0073560938
 20
6.1058084321
 30
0.0
 10
12.0005288115
 20
6.1014473825
 30
0.0
 10
11.9958916924
 20
6.0989322881
 30
0.0
 10
11.9935817591
 20
6.0977917207
 30
0.0
  0
SPLINE
  5
375
100
AcDbEntity
  8
0
100
AcDbSpline
 62
7
  6
CONTINUOUS
 70
0
 71
3
 72
15
 73
11
 74
0
 42
0.0000001
 43
0.0000001
 44
0.0000000001
 40
0.0
 40
0.0
 40
0.0
 40
0.0
 40
0.1401561244
 40
0.2765170404
 40
0.4087947051
 40
0.5367100159
 40
0.6600018539
 40
0.7784345672
 40
0.8918125114
 40
1.0
 40
1.0
 40
1.0
 40
1.0
 10
10.8639357255
 20
6.5480758744
 30
0.0
 10
10.8662690707
 20
6.552649422
 30
0.0
 10
10.8709398929
 20
6.5616385828
 30
0.0
 10
10.8780714198
 20
6.5748078846
 30
0.0
 10
10.8852362255
 20
6.5874463754
 30
0.0
 10
10.892433044
 20
6.5995127395
 30
0.0
 10
10.8996604063
 20
6.6109657083
 30
0.0
 10
10.9069155547
 20
6.6217656868
 30
0.0
 10
10.9141957214
 20
6.6318745847
 30
0.0
 10
10.9191810578
 20
6.6382830241
 30
0.0
 10
10.9216815123
 20
6.6413579509
 30
0.0
  0
SPLINE
  5
376
100
AcDbEntity
  8
0
100
AcDbSpline
 62
7
  6
CONTINUOUS
 70
0
 71
3
 72
9
 73
5
 74
0
 42
0.0000001
 43
0.0000001
 44
0.0000000001
 40
0.0
 40
0.0
 40
0.0
 40
0.0
 40
0.4956217049
 40
1.0
 40
1.0
 40
1.0
 40
1.0
 10
10.9608871377
 20
6.1034512727
 30
0.0
 10
10.9468730274
 20
6.1103761015
 30
0.0
 10
10.9190002855
 20
6.1251732639
 30
0.0
 10
10.8918874988
 20
6.1413078812
 30
0.0
 10
10.8783837737
 20
6.149716714
 30
0.0
  0
SPLINE
  5
377
100
AcDbEntity
  8
0
100
AcDbSpline
 62
7
  6
CONTINUOUS
 70
0
 71
3
 72
29
 73
25
 74
0
 42
0.0000001
 43
0.0000001
 44
0.0000000001
 40
0.0
 40
0.0
 40
0.0
 40
0.0
 40
0.0193646742
 40
0.0398580369
 40
0.0614684275
 40
0.0841775651
 40
0.1079628328
 40
0.1327976805
 40
0.1586509133
 40
0.1854891319
 40
0.2132749098
 40
0.2419685558
 40
0.271528042
 40
0.3019083628
 40
0.3649423952
 40
0.4306770921
 40
0.4986914915
 40
0.5685439808
 40
0.6397765617
 40
0.7119190669
 40
0.7844942972
 40
0.8570174477
 40
0.929015682
 40
1.0
 40
1.0
 40
1.0
 40
1.0
 10
11.9745754488
 20
6.0884029456
 30
0.0
 10
11.9708443525
 20
6.0865598284
 30
0.0
 10
11.9630847927
 20
6.0829264406
 30
0.0
 10
11.9509252141
 20
6.0777589118
 30
0.0
 10
11.9379345904
 20
6.0727282813
 30
0.0
 10
11.9241360877
 20
6.0678431498
 30
0.0
 10
11.909553845
 20
6.0631122865
 30
0.0
 10
11.8942135745
 20
6.058544395
 30
0.0
 10
11.878142442
 20
6.054147143
 30
0.0
 10
11.8613688304
 20
6.0499289479
 30
0.0
 10
11.8439225163
 20
6.0458969411
 30
0.0
 10
11.8258344326
 20
6.0420584859
 30
0.0
 10
11.8071366512
 20
6.038420557
 30
0.0
 10
11.7811174125
 20
6.0337888281
 30
0.0
 10
11.7473110516
 20
6.028570222
 30
0.0
 10
11.7053502098
 20
6.0232731699
 30
0.0
 10
11.6618097525
 20
6.0189057578
 30
0.0
 10
11.6169989874
 20
6.0154994492
 30
0.0
 10
11.5712359857
 20
6.0130789433
 30
0.0
 10
11.5248456802
 20
6.011661698
 30
0.0
 10
11.4781582153
 20
6.0112580713
 30
0.0
 10
11.4315039497
 20
6.0118705683
 30
0.0
 10
11.3852162468
 20
6.0134953731
 30
0.0
 10
11.3545366187
 20
6.0152615416
 30
0.0
 10
11.3393184903
 20
6.0163169224
 30
0.0
  0
SPLINE
  5
378
100
AcDbEntity
  8
0
100
AcDbSpline
 62
7
  6
CONTINUOUS
 70
0
 71
3
 72
9
 73
5
 74
0
 42
0.0000001
 43
0.0000001
 44
0.0000000001
 40
0.0
 40
0.0
 40
0.0
 40
0.0
 40
0.5197971894
 40
1.0
 40
1.0
 40
1.0
 40
1.0
 10
10.8783837737
 20
6.5341201553
 30
0.0
 10
10.8756894377
 20
6.5363287268
 30
0.0
 10
10.8706559681
 20
6.5407659495
 30
0.0
 10
10.8660271484
 20
6.5456295393
 30
0.0
 10
10.8639357255
 20
6.5480758744
 30
0.0
  0
SPLINE
  5
379
100
AcDbEntity
  8
0
100
AcDbSpline
 62
7
  6
CONTINUOUS
 70
0
 71
3
 72
37
 73
33
 74
0
 42
0.0000001
 43
0.0000001
 44
0.0000000001
 40
0.0
 40
0.0
 40
0.0
 40
0.0
 40
0.0958277446
 40
0.1891043955
 40
0.2792420323
 40
0.3657121223
 40
0.4074106414
 40
0.4480037085
 40
0.4874335096
 40
0.5256460838
 40
0.5625900386
 40
0.5982169681
 40
0.6324836442
 40
0.6653495153
 40
0.6967797837
 40
0.7267448195
 40
0.7552199113
 40
0.7821888831
 40
0.8076419355
 40
0.8315793527
 40
0.8540130412
 40
0.8749670977
 40
0.8944840597
 40
0.9126258681
 40
0.9294802521
 40
0.9451669242
 40
0.9598415307
 40
0.9737025679
 40
0.9804061117
 40
0.9869995914
 40
0.9935185798
 40
1.0
 40
1.0
 40
1.0
 40
1.0
 10
11.3437184104
 20
6.502563935
 30
0.0
 10
11.3297063336
 20
6.5035356759
 30
0.0
 10
11.3020754347
 20
6.5057616116
 30
0.0
 10
11.2613633426
 20
6.5100100719
 30
0.0
 10
11.2221304001
 20
6.5151019964
 30
0.0
 10
11.1905168883
 20
6.520076431
 30
0.0
 10
11.1661735605
 20
6.5244703374
 30
0.0
 10
11.1486671394
 20
6.5279135704
 30
0.0
 10
11.1317196552
 20
6.5315389762
 30
0.0
 10
11.1153593145
 20
6.5353402672
 30
0.0
 10
11.0996134096
 20
6.5393109929
 30
0.0
 10
11.084508248
 20
6.5434448239
 30
0.0
 10
11.0700689135
 20
6.547734317
 30
0.0
 10
11.0563194631
 20
6.5521726805
 30
0.0
 10
11.0432826948
 20
6.5567523235
 30
0.0
 10
11.0309801199
 20
6.5614653561
 30
0.0
 10
11.0194321745
 20
6.5663044357
 30
0.0
 10
11.0086576522
 20
6.5712609458
 30
0.0
 10
10.9986742298
 20
6.5763271119
 30
0.0
 10
10.9894981169
 20
6.5814947379
 30
0.0
 10
10.981143795
 20
6.5867551769
 30
0.0
 10
10.9736248952
 20
6.5921010643
 30
0.0
 10
10.9669529118
 20
6.5975239627
 30
0.0
 10
10.9611385265
 20
6.6030168522
 30
0.0
 10
10.9561916984
 20
6.6085731387
 30
0.0
 10
10.9521210011
 20
6.6141864632
 30
0.0
 10
10.9489371618
 20
6.6198504827
 30
0.0
 10
10.9470099685
 20
6.6246622945
 30
0.0
 10
10.9459435423
 20
6.6285007206
 30
0.0
 10
10.9453779915
 20
6.6313526197
 30
0.0
 10
10.9450386317
 20
6.634207209
 30
0.0
 10
10.944963117
 20
6.6361135668
 30
0.0
 10
10.9449631099
 20
6.6370635661
 30
0.0
  0
SPLINE
  5
37A
100
AcDbEntity
  8
0
100
AcDbSpline
 62
7
  6
CONTINUOUS
 70
0
 71
3
 72
28
 73
24
 74
0
 42
0.0000001
 43
0.0000001
 44
0.0000000001
 40
0.0
 40
0.0
 40
0.0
 40
0.0
 40
0.0704896704
 40
0.1419775873
 40
0.2139934931
 40
0.2860849373
 40
0.3577866651
 40
0.4286406128
 40
0.4981951423
 40
0.5660094464
 40
0.6316577212
 40
0.6947330343
 40
0.7548517832
 40
0.7836912796
 40
0.8116607125
 40
0.8387214409
 40
0.8648362812
 40
0.8899716779
 40
0.9140967308
 40
0.9371834886
 40
0.959208764
 40
0.9801523993
 40
1.0
 40
1.0
 40
1.0
 40
1.0
 10
11.3437184104
 20
6.502563935
 30
0.0
 10
11.3582118258
 20
6.5015588133
 30
0.0
 10
11.3874282206
 20
6.4998708859
 30
0.0
 10
11.4315084455
 20
6.4982978882
 30
0.0
 10
11.4759426252
 20
6.4976723198
 30
0.0
 10
11.5204240057
 20
6.4979979376
 30
0.0
 10
11.564648795
 20
6.4992728863
 30
0.0
 10
11.6083130457
 20
6.5014881648
 30
0.0
 10
11.6511174238
 20
6.5046283039
 30
0.0
 10
11.6927684144
 20
6.5086713929
 30
0.0
 10
11.7329806772
 20
6.5135891782
 30
0.0
 10
11.7714784739
 20
6.5193474295
 30
0.0
 10
11.8023253931
 20
6.5248866211
 30
0.0
 10
11.8259339438
 20
6.5297302414
 30
0.0
 10
11.8428054843
 20
6.533496655
 30
0.0
 10
11.8590593006
 20
6.5374400463
 30
0.0
 10
11.8746675565
 20
6.5415541202
 30
0.0
 10
11.8896035729
 20
6.545831496
 30
0.0
 10
11.9038418655
 20
6.5502647327
 30
0.0
 10
11.9173580537
 20
6.5548465608
 30
0.0
 10
11.9301293231
 20
6.5595685673
 30
0.0
 10
11.9421336785
 20
6.5644230456
 30
0.0
 10
11.9498200232
 20
6.5678344022
 30
0.0
 10
11.9535264648
 20
6.569565276
 30
0.0
  0
SPLINE
  5
37B
100
AcDbEntity
  8
0
100
AcDbSpline
 62
7
  6
CONTINUOUS
 70
0
 71
3
 72
15
 73
11
 74
0
 42
0.0000001
 43
0.0000001
 44
0.0000000001
 40
0.0
 40
0.0
 40
0.0
 40
0.0
 40
0.1081874876
 40
0.2215654312
 40
0.3399981441
 40
0.463289982
 40
0.591205293
 40
0.7234829581
 40
0.8598438747
 40
1.0
 40
1.0
 40
1.0
 40
1.0
 10
12.0083162577
 20
6.5659995786
 30
0.0
 10
12.0058158031
 20
6.5629246517
 30
0.0
 10
12.0008304664
 20
6.5565162122
 30
0.0
 10
11.9935502994
 20
6.5464073141
 30
0.0
 10
11.9862951508
 20
6.5356073352
 30
0.0
 10
11.9790677882
 20
6.5241543661
 30
0.0
 10
11.9718709694
 20
6.5120880015
 30
0.0
 10
11.9647061633
 20
6.4994495103
 30
0.0
 10
11.9575746362
 20
6.486280208
 30
0.0
 10
11.9529038138
 20
6.4772910468
 30
0.0
 10
11.9505704684
 20
6.472717499
 30
0.0
  0
SPLINE
  5
37C
100
AcDbEntity
  8
0
100
AcDbSpline
 62
7
  6
CONTINUOUS
 70
0
 71
3
 72
21
 73
17
 74
0
 42
0.0000001
 43
0.0000001
 44
0.0000000001
 40
0.0
 40
0.0
 40
0.0
 40
0.0
 40
0.1269266306
 40
0.1902356571
 40
0.2534226618
 40
0.3164750211
 40
0.379381614
 40
0.442133702
 40
0.5047247465
 40
0.5671521045
 40
0.6294167402
 40
0.6915228504
 40
0.7534784743
 40
0.8152934295
 40
0.8769787052
 40
1.0
 40
1.0
 40
1.0
 40
1.0
 10
11.911097708
 20
6.0780977594
 30
0.0
 10
11.888090125
 20
6.0703733443
 30
0.0
 10
11.8533297195
 20
6.059585546
 30
0.0
 10
11.8064857988
 20
6.0471659885
 30
0.0
 10
11.7711816123
 20
6.0389402948
 30
0.0
 10
11.7357034769
 20
6.0318825766
 30
0.0
 10
11.7000838678
 20
6.0260683308
 30
0.0
 10
11.6643639321
 20
6.0215593761
 30
0.0
 10
11.6285914101
 20
6.0183960861
 30
0.0
 10
11.5928177927
 20
6.0165940832
 30
0.0
 10
11.5570945854
 20
6.0161451839
 30
0.0
 10
11.5214698686
 20
6.0170159162
 30
0.0
 10
11.48598543
 20
6.0191503198
 30
0.0
 10
11.4506741255
 20
6.0224775297
 30
0.0
 10
11.4039029161
 20
6.0283876717
 30
0.0
 10
11.3690704787
 20
6.0343600741
 30
0.0
 10
11.3459913004
 20
6.0389074276
 30
0.0
  0
SPLINE
  5
37D
100
AcDbEntity
  8
0
100
AcDbSpline
 62
7
  6
CONTINUOUS
 70
0
 71
3
 72
21
 73
17
 74
0
 42
0.0000001
 43
0.0000001
 44
0.0000000001
 40
0.0
 40
0.0
 40
0.0
 40
0.0
 40
0.1230212948
 40
0.1847065705
 40
0.2465215258
 40
0.3084771496
 40
0.3705832599
 40
0.4328478955
 40
0.4952752535
 40
0.5578662981
 40
0.6206183861
 40
0.683524979
 40
0.7465773382
 40
0.8097643429
 40
0.8730733694
 40
1.0
 40
1.0
 40
1.0
 40
1.0
 10
11.911097708
 20
6.4625012007
 30
0.0
 10
11.8880185297
 20
6.4670485543
 30
0.0
 10
11.8531860922
 20
6.4730209566
 30
0.0
 10
11.8064148828
 20
6.4789310986
 30
0.0
 10
11.7711035784
 20
6.4822583086
 30
0.0
 10
11.7356191398
 20
6.4843927121
 30
0.0
 10
11.699994423
 20
6.4852634444
 30
0.0
 10
11.6642712157
 20
6.4848145451
 30
0.0
 10
11.6284975982
 20
6.4830125423
 30
0.0
 10
11.5927250763
 20
6.4798492522
 30
0.0
 10
11.5570051406
 20
6.4753402976
 30
0.0
 10
11.5213855314
 20
6.4695260517
 30
0.0
 10
11.4859073961
 20
6.4624683336
 30
0.0
 10
11.4506032095
 20
6.4542426398
 30
0.0
 10
11.4037592889
 20
6.4418230824
 30
0.0
 10
11.3689988834
 20
6.4310352841
 30
0.0
 10
11.3459913004
 20
6.4233108689
 30
0.0
  0
SPLINE
  5
37E
100
AcDbEntity
  8
0
100
AcDbSpline
 62
7
  6
CONTINUOUS
 70
0
 71
3
 72
15
 73
11
 74
0
 42
0.0000001
 43
0.0000001
 44
0.0000000001
 40
0.0
 40
0.0
 40
0.0
 40
0.0
 40
0.1200350229
 40
0.2408049341
 40
0.3626322888
 40
0.4858903489
 40
0.6109646446
 40
0.7381990118
 40
0.8678398
 40
1.0
 40
1.0
 40
1.0
 40
1.0
 10
11.2920704918
 20
6.0426468484
 30
0.0
 10
11.2798608402
 20
6.0413640139
 30
0.0
 10
11.2552964001
 20
6.0394046606
 30
0.0
 10
11.2181955322
 20
6.0385578096
 30
0.0
 10
11.1807799186
 20
6.0400644962
 30
0.0
 10
11.1431125009
 20
6.0441643257
 30
0.0
 10
11.1052860934
 20
6.0510328333
 30
0.0
 10
11.0674152922
 20
6.0607501286
 30
0.0
 10
11.0296211977
 20
6.0732835737
 30
0.0
 10
11.0047804133
 20
6.0833305692
 30
0.0
 10
10.9923992996
 20
6.0887543147
 30
0.0
  0
LINE
  5
37F
100
AcDbEntity
  8
0
100
AcDbLine
 62
7
  6
CONTINUOUS
 10
10.9923992996
 20
6.0887543147
 11
10.9916701709
 21
6.0890742087
  0
SPLINE
  5
380
100
AcDbEntity
  8
0
100
AcDbSpline
 62
7
  6
CONTINUOUS
 70
0
 71
3
 72
23
 73
19
 74
0
 42
0.0000001
 43
0.0000001
 44
0.0000000001
 40
0.0
 40
0.0
 40
0.0
 40
0.0
 40
0.0679978465
 40
0.1353018504
 40
0.2018553923
 40
0.2676132131
 40
0.3325394779
 40
0.3966150916
 40
0.459841178
 40
0.5222411892
 40
0.583861798
 40
0.6447689915
 40
0.7050433319
 40
0.7647745441
 40
0.8240532081
 40
0.8829657177
 40
0.9415926184
 40
1.0
 40
1.0
 40
1.0
 40
1.0
 10
11.2920704918
 20
6.4270502897
 30
0.0
 10
11.2836766993
 20
6.4322771435
 30
0.0
 10
11.2668432909
 20
6.4424686058
 30
0.0
 10
11.2413097298
 20
6.4569570698
 30
0.0
 10
11.2156192785
 20
6.4704821213
 30
0.0
 10
11.1897821829
 20
6.4829509958
 30
0.0
 10
11.1638146451
 20
6.4942751159
 30
0.0
 10
11.1377400283
 20
6.5043747388
 30
0.0
 10
11.1115875419
 20
6.5131827958
 30
0.0
 10
11.0853920476
 20
6.5206523899
 30
0.0
 10
11.0591918335
 20
6.5267607821
 30
0.0
 10
11.0330254127
 20
6.5315091512
 30
0.0
 10
11.0069293498
 20
6.5349245413
 30
0.0
 10
10.9809356486
 20
6.5370575648
 30
0.0
 10
10.9550698602
 20
6.5379752411
 30
0.0
 10
10.9293503127
 20
6.5377576164
 30
0.0
 10
10.903789259
 20
6.5364924786
 30
0.0
 10
10.8868308065
 20
6.5350076618
 30
0.0
 10
10.8783837737
 20
6.5341201553
 30
0.0
  0
SPLINE
  5
381
100
AcDbEntity
  8
0
100
AcDbSpline
 62
7
  6
CONTINUOUS
 70
0
 71
3
 72
10
 73
6
 74
0
 42
0.0000001
 43
0.0000001
 44
0.0000000001
 40
0.0
 40
0.0
 40
0.0
 40
0.0
 40
0.5114800979
 40
0.7581744319
 40
1.0
 40
1.0
 40
1.0
 40
1.0
 10
11.9935817591
 20
6.0977917207
 30
0.0
 10
11.9903953157
 20
6.0962183621
 30
0.0
 10
11.9855414235
 20
6.0941345416
 30
0.0
 10
11.9789425038
 20
6.091952236
 30
0.0
 10
11.975662184
 20
6.091071377
 30
0.0
 10
11.9740276619
 20
6.0906823485
 30
0.0
  0
SPLINE
  5
382
100
AcDbEntity
  8
0
100
AcDbSpline
 62
7
  6
CONTINUOUS
 70
0
 71
3
 72
11
 73
7
 74
0
 42
0.0000001
 43
0.0000001
 44
0.0000000001
 40
0.0
 40
0.0
 40
0.0
 40
0.0
 40
0.2545574775
 40
0.5052872671
 40
0.7534080087
 40
1.0
 40
1.0
 40
1.0
 40
1.0
 10
11.9740276619
 20
6.0906823485
 30
0.0
 10
11.9720762329
 20
6.0902178937
 30
0.0
 10
11.9681698081
 20
6.0894283571
 30
0.0
 10
11.9622797852
 20
6.0886500859
 30
0.0
 10
11.9564141427
 20
6.0882665697
 30
0.0
 10
11.9525128653
 20
6.0882592236
 30
0.0
 10
11.9505704684
 20
6.0883140577
 30
0.0
  0
SPLINE
  5
383
100
AcDbEntity
  8
0
100
AcDbSpline
 62
7
  6
CONTINUOUS
 70
0
 71
3
 72
51
 73
47
 74
0
 42
0.0000001
 43
0.0000001
 44
0.0000000001
 40
0.0
 40
0.0
 40
0.0
 40
0.0
 40
0.0481980747
 40
0.0958298526
 40
0.1428199449
 40
0.1890979835
 40
0.2345930892
 40
0.2792367333
 40
0.3229621329
 40
0.3657045403
 40
0.4074014622
 40
0.4479928299
 40
0.4874212467
 40
0.5256322393
 40
0.5625745011
 40
0.5982001867
 40
0.6324652508
 40
0.6653298673
 40
0.6967589097
 40
0.7267224968
 40
0.7551966901
 40
0.7688701393
 40
0.7821654912
 40
0.7950818118
 40
0.8076188304
 40
0.8197768884
 40
0.8315569804
 40
0.8429609602
 40
0.8539914242
 40
0.8646519776
 40
0.8749472487
 40
0.8848829696
 40
0.8944662496
 40
0.9037055338
 40
0.9126109204
 40
0.9211942686
 40
0.9294693404
 40
0.937452123
 40
0.9451608562
 40
0.9598349789
 40
0.9668568053
 40
0.9737036628
 40
0.9804068766
 40
0.9870000912
 40
0.9935188408
 40
1.0
 40
1.0
 40
1.0
 40
1.0
 10
10.3469930859
 20
10.5696439314
 30
0.0
 10
10.3383862792
 20
10.5702408155
 30
0.0
 10
10.3212802845
 20
10.5715236506
 30
0.0
 10
10.2958102253
 20
10.5737294313
 30
0.0
 10
10.2707100204
 20
10.5762027123
 30
0.0
 10
10.2460219055
 20
10.5789392665
 30
0.0
 10
10.221786964
 20
10.5819345478
 30
0.0
 10
10.1980457883
 20
10.5851835067
 30
0.0
 10
10.1748380401
 20
10.5886806835
 30
0.0
 10
10.152202503
 20
10.5924201991
 30
0.0
 10
10.1301769985
 20
10.596395766
 30
0.0
 10
10.108798319
 20
10.6006007038
 30
0.0
 10
10.0881021626
 20
10.6050279439
 30
0.0
 10
10.0681230662
 20
10.6096700355
 30
0.0
 10
10.048894349
 20
10.6145191706
 30
0.0
 10
10.030448059
 20
10.6195671948
 30
0.0
 10
10.0128149055
 20
10.6248056263
 30
0.0
 10
9.9960242169
 20
10.6302256656
 30
0.0
 10
9.9801037998
 20
10.6358182165
 30
0.0
 10
9.9650801701
 20
10.6415739038
 30
0.0
 10
9.9531727409
 20
10.6465633253
 30
0.0
 10
9.9441224986
 20
10.6506369481
 30
0.0
 10
9.9376662143
 20
10.6536856119
 30
0.0
 10
9.9314521128
 20
10.6567677848
 30
0.0
 10
9.9254827579
 20
10.6598821879
 30
0.0
 10
9.919760623
 20
10.6630275158
 30
0.0
 10
9.9142880941
 20
10.6662025055
 30
0.0
 10
9.9090674124
 20
10.6694057972
 30
0.0
 10
9.904100755
 20
10.6726361204
 30
0.0
 10
9.8993901625
 20
10.6758921346
 30
0.0
 10
9.8949375674
 20
10.6791725042
 30
0.0
 10
9.8907448329
 20
10.6824759488
 30
0.0
 10
9.886813652
 20
10.6858010916
 30
0.0
 10
9.8831456796
 20
10.6891466626
 30
0.0
 10
9.8797424346
 20
10.6925113244
 30
0.0
 10
9.8766053107
 20
10.6958937832
 30
0.0
 10
9.8737357481
 20
10.6992926861
 30
0.0
 10
9.8711347479
 20
10.7027070404
 30
0.0
 10
9.8680774248
 20
10.7072031755
 30
0.0
 10
9.8654907557
 20
10.7118055393
 30
0.0
 10
9.8634414085
 20
10.7164892753
 30
0.0
 10
9.8622005127
 20
10.719959659
 30
0.0
 10
9.8612344812
 20
10.7234368607
 30
0.0
 10
9.8605439083
 20
10.726919484
 30
0.0
 10
9.8601293033
 20
10.7304054887
 30
0.0
 10
9.8600370717
 20
10.7327335181
 30
0.0
 10
9.8600370696
 20
10.7338936487
 30
0.0
  0
SPLINE
  5
384
100
AcDbEntity
  8
0
100
AcDbSpline
 62
7
  6
CONTINUOUS
 70
0
 71
3
 72
41
 73
37
 74
0
 42
0.0000001
 43
0.0000001
 44
0.0000000001
 40
0.0
 40
0.0
 40
0.0
 40
0.0
 40
0.0311444983
 40
0.062442467
 40
0.093887251
 40
0.1254695609
 40
0.157177086
 40
0.1889950997
 40
0.2209066479
 40
0.2528929497
 40
0.284933762
 40
0.3170077852
 40
0.3490930781
 40
0.3811674822
 40
0.4132090489
 40
0.445196464
 40
0.4771094635
 40
0.5089292351
 40
0.540638799
 40
0.5722233621
 40
0.6036706378
 40
0.6349711269
 40
0.6661183495
 40
0.6971090237
 40
0.7279431823
 40
0.7586242225
 40
0.7891588828
 40
0.8195571428
 40
0.8498320452
 40
0.86493089
 40
0.8800050502
 40
0.9100832578
 40
0.9400926753
 40
0.9550812784
 40
0.9700610371
 40
1.0
 40
1.0
 40
1.0
 40
1.0
 10
9.598478522
 20
7.1101248633
 30
0.0
 10
9.6017924695
 20
7.1098950403
 30
0.0
 10
9.6084223375
 20
7.1091916875
 30
0.0
 10
9.6182867544
 20
7.1074199565
 30
0.0
 10
9.6280455289
 20
7.1049382532
 30
0.0
 10
9.6376459225
 20
7.1017599782
 30
0.0
 10
9.6470369573
 20
7.0979021318
 30
0.0
 10
9.6561685322
 20
7.093385366
 30
0.0
 10
9.6649920034
 20
7.0882338119
 30
0.0
 10
9.6734603545
 20
7.0824749777
 30
0.0
 10
9.6815284662
 20
7.0761395912
 30
0.0
 10
9.6891533486
 20
7.0692614418
 30
0.0
 10
9.6962943687
 20
7.0618772
 30
0.0
 10
9.7029134647
 20
7.0540262243
 30
0.0
 10
9.7089753468
 20
7.0457503532
 30
0.0
 10
9.7144476833
 20
7.0370936846
 30
0.0
 10
9.7193012724
 20
7.0281023436
 30
0.0
 10
9.7235101961
 20
7.0188242394
 30
0.0
 10
9.7270519583
 20
7.0093088131
 30
0.0
 10
9.7299076051
 20
6.9996067778
 30
0.0
 10
9.732061826
 20
6.9897698519
 30
0.0
 10
9.7335030379
 20
6.9798504873
 30
0.0
 10
9.7342234484
 20
6.9699015925
 30
0.0
 10
9.7342191025
 20
6.959976257
 30
0.0
 10
9.733489903
 20
6.9501274605
 30
0.0
 10
9.7320396357
 20
6.9404078303
 30
0.0
 10
9.7298758831
 20
6.93086922
 30
0.0
 10
9.7270102591
 20
6.9215629574
 30
0.0
 10
9.7240467091
 20
6.9140347346
 30
0.0
 10
9.7213423258
 20
6.9081803681
 30
0.0
 10
9.7184237537
 20
6.9024533016
 30
0.0
 10
9.7143714944
 20
6.8955261045
 30
0.0
 10
9.7097980341
 20
6.888942425
 30
0.0
 10
9.7058458963
 20
6.8839100158
 30
0.0
 10
9.7017052157
 20
6.879041871
 30
0.0
 10
9.6983878194
 20
6.8755761503
 30
0.0
 10
9.6960910145
 20
6.8733575919
 30
0.0
  0
SPLINE
  5
385
100
AcDbEntity
  8
0
100
AcDbSpline
 62
7
  6
CONTINUOUS
 70
0
 71
3
 72
41
 73
37
 74
0
 42
0.0000001
 43
0.0000001
 44
0.0000000001
 40
0.0
 40
0.0
 40
0.0
 40
0.0
 40
0.0311444983
 40
0.062442467
 40
0.093887251
 40
0.1254695609
 40
0.157177086
 40
0.1889950997
 40
0.2209066479
 40
0.2528929497
 40
0.284933762
 40
0.3170077852
 40
0.3490930781
 40
0.3811674822
 40
0.4132090489
 40
0.445196464
 40
0.4771094635
 40
0.5089292351
 40
0.540638799
 40
0.5722233621
 40
0.6036706378
 40
0.6349711269
 40
0.6661183495
 40
0.6971090237
 40
0.7279431823
 40
0.7586242225
 40
0.7891588828
 40
0.8195571428
 40
0.8498320452
 40
0.86493089
 40
0.8800050502
 40
0.9100832578
 40
0.9400926753
 40
0.9550812784
 40
0.9700610371
 40
1.0
 40
1.0
 40
1.0
 40
1.0
 10
12.0132932308
 20
6.9426568945
 30
0.0
 10
12.0166071783
 20
6.9424270714
 30
0.0
 10
12.0232370463
 20
6.9417237186
 30
0.0
 10
12.0331014632
 20
6.9399519876
 30
0.0
 10
12.0428602377
 20
6.9374702843
 30
0.0
 10
12.0524606313
 20
6.9342920093
 30
0.0
 10
12.0618516661
 20
6.9304341629
 30
0.0
 10
12.070983241
 20
6.9259173971
 30
0.0
 10
12.0798067123
 20
6.9207658431
 30
0.0
 10
12.0882750633
 20
6.9150070088
 30
0.0
 10
12.096343175
 20
6.9086716223
 30
0.0
 10
12.1039680574
 20
6.9017934729
 30
0.0
 10
12.1111090775
 20
6.8944092312
 30
0.0
 10
12.1177281736
 20
6.8865582555
 30
0.0
 10
12.1237900556
 20
6.8782823844
 30
0.0
 10
12.1292623922
 20
6.8696257158
 30
0.0
 10
12.1341159812
 20
6.8606343748
 30
0.0
 10
12.1383249049
 20
6.8513562705
 30
0.0
 10
12.1418666671
 20
6.8418408442
 30
0.0
 10
12.1447223139
 20
6.8321388089
 30
0.0
 10
12.1468765348
 20
6.822301883
 30
0.0
 10
12.1483177467
 20
6.8123825184
 30
0.0
 10
12.1490381572
 20
6.8024336237
 30
0.0
 10
12.1490338113
 20
6.7925082882
 30
0.0
 10
12.1483046118
 20
6.7826594916
 30
0.0
 10
12.1468543446
 20
6.7729398614
 30
0.0
 10
12.1446905919
 20
6.7634012512
 30
0.0
 10
12.1418249679
 20
6.7540949885
 30
0.0
 10
12.1388614179
 20
6.7465667657
 30
0.0
 10
12.1361570346
 20
6.7407123992
 30
0.0
 10
12.1332384625
 20
6.7349853327
 30
0.0
 10
12.1291862032
 20
6.7280581357
 30
0.0
 10
12.1246127429
 20
6.7214744561
 30
0.0
 10
12.1206606051
 20
6.716442047
 30
0.0
 10
12.1165199245
 20
6.7115739022
 30
0.0
 10
12.1132025283
 20
6.7081081815
 30
0.0
 10
12.1109057233
 20
6.7058896231
 30
0.0
  0
SPLINE
  5
386
100
AcDbEntity
  8
0
100
AcDbSpline
 62
7
  6
CONTINUOUS
 70
0
 71
3
 72
18
 73
14
 74
0
 42
0.0000001
 43
0.0000001
 44
0.0000000001
 40
0.0
 40
0.0
 40
0.0
 40
0.0
 40
0.1504678859
 40
0.2917100145
 40
0.4244359174
 40
0.549562529
 40
0.668213991
 40
0.7255497453
 40
0.7817912733
 40
0.8371402265
 40
0.8918093735
 40
0.9460201098
 40
1.0
 40
1.0
 40
1.0
 40
1.0
 10
12.4488888253
 20
9.5306394332
 30
0.0
 10
12.4508536604
 20
9.5325373184
 30
0.0
 10
12.4547805323
 20
9.5360982346
 30
0.0
 10
12.4608612673
 20
9.5408437565
 30
0.0
 10
12.4669348558
 20
9.5448126691
 30
0.0
 10
12.4729950138
 20
9.5479984689
 30
0.0
 10
12.4780885165
 20
9.5500186096
 30
0.0
 10
12.482132526
 20
9.5512188657
 30
0.0
 10
12.4851224596
 20
9.551910669
 30
0.0
 10
12.4881024737
 20
9.5524037302
 30
0.0
 10
12.4910717321
 20
9.5526978899
 30
0.0
 10
12.4940290564
 20
9.5527929716
 30
0.0
 10
12.4959938165
 20
9.5527234705
 30
0.0
 10
12.4969714811
 20
9.5526556723
 30
0.0
  0
SPLINE
  5
387
100
AcDbEntity
  8
0
100
AcDbSpline
 62
7
  6
CONTINUOUS
 70
0
 71
3
 72
18
 73
14
 74
0
 42
0.0000001
 43
0.0000001
 44
0.0000000001
 40
0.0
 40
0.0
 40
0.0
 40
0.0
 40
0.1504683897
 40
0.2917144302
 40
0.4244424337
 40
0.4879098403
 40
0.5496094316
 40
0.6682625858
 40
0.7817882724
 40
0.8371379912
 40
0.8918078094
 40
0.9460192717
 40
1.0
 40
1.0
 40
1.0
 40
1.0
 10
12.4488888253
 20
7.94555508
 30
0.0
 10
12.4501327543
 20
7.9467566232
 30
0.0
 10
12.452618918
 20
7.9490110652
 30
0.0
 10
12.456468483
 20
7.9520153767
 30
0.0
 10
12.4597200906
 20
7.9541401855
 30
0.0
 10
12.4623129653
 20
7.9555790368
 30
0.0
 10
12.4648295585
 20
7.9568143391
 30
0.0
 10
12.4679760983
 20
7.9580625657
 30
0.0
 10
12.4711786093
 20
7.9589143583
 30
0.0
 10
12.4737150924
 20
7.9593339632
 30
0.0
 10
12.4755949782
 20
7.9595201811
 30
0.0
 10
12.4774672583
 20
7.9595803209
 30
0.0
 10
12.4787111553
 20
7.9595363158
 30
0.0
 10
12.4793301179
 20
7.9594933874
 30
0.0
  0
SPLINE
  5
388
100
AcDbEntity
  8
0
100
AcDbSpline
 62
7
  6
CONTINUOUS
 70
0
 71
3
 72
15
 73
11
 74
0
 42
0.0000001
 43
0.0000001
 44
0.0000000001
 40
0.0
 40
0.0
 40
0.0
 40
0.0
 40
0.138076915
 40
0.2711914597
 40
0.3998699381
 40
0.5247120006
 40
0.6463911232
 40
0.7656394292
 40
0.8832373023
 40
1.0
 40
1.0
 40
1.0
 40
1.0
 10
12.4597346368
 20
10.6103956806
 30
0.0
 10
12.4605464777
 20
10.6108899836
 30
0.0
 10
12.4621701613
 20
10.6118140742
 30
0.0
 10
12.4646474788
 20
10.6130185116
 30
0.0
 10
12.4671184381
 20
10.6140136324
 30
0.0
 10
12.4695817071
 20
10.6147985262
 30
0.0
 10
12.4720360383
 20
10.6153726159
 30
0.0
 10
12.4744802179
 20
10.6157352676
 30
0.0
 10
12.4769125733
 20
10.6158861327
 30
0.0
 10
12.4785277732
 20
10.6158452672
 30
0.0
 10
12.4793296108
 20
10.6157896637
 30
0.0
  0
SPLINE
  5
389
100
AcDbEntity
  8
0
100
AcDbSpline
 62
7
  6
CONTINUOUS
 70
0
 71
3
 72
54
 73
50
 74
0
 42
0.0000001
 43
0.0000001
 44
0.0000000001
 40
0.0
 40
0.0
 40
0.0
 40
0.0
 40
0.0055575314
 40
0.0111779514
 40
0.0169218741
 40
0.0228457549
 40
0.0290005166
 40
0.0354309104
 40
0.0421753481
 40
0.0492661819
 40
0.0567302289
 40
0.0645893164
 40
0.0728609992
 40
0.0815590171
 40
0.0906939529
 40
0.1002735511
 40
0.1103032084
 40
0.120786225
 40
0.131724095
 40
0.1431167574
 40
0.1549627059
 40
0.1672592594
 40
0.1800025507
 40
0.1931877841
 40
0.2068091928
 40
0.2208602246
 40
0.2353335436
 40
0.2502211095
 40
0.265514256
 40
0.2812036668
 40
0.2972795185
 40
0.3137313951
 40
0.3477187121
 40
0.383073812
 40
0.4196976091
 40
0.4574851642
 40
0.4963263633
 40
0.5361065441
 40
0.5767070861
 40
0.6180059759
 40
0.6598783548
 40
0.7021970543
 40
0.7448331254
 40
0.7876563595
 40
0.8305358172
 40
0.8733403047
 40
0.9159390443
 40
0.9582017033
 40
1.0
 40
1.0
 40
1.0
 40
1.0
 10
11.1740370469
 20
10.7338939625
 30
0.0
 10
11.1740370497
 20
10.7322686723
 30
0.0
 10
11.1738551107
 20
10.7289968686
 30
0.0
 10
11.1730383923
 20
10.7241066327
 30
0.0
 10
11.1716793252
 20
10.7192272924
 30
0.0
 10
11.1697804555
 20
10.7143645333
 30
0.0
 10
11.1673449804
 20
10.7095222715
 30
0.0
 10
11.1643761374
 20
10.7047042342
 30
0.0
 10
11.160877312
 20
10.6999137298
 30
0.0
 10
11.1568519567
 20
10.6951539633
 30
0.0
 10
11.1523036303
 20
10.6904281835
 30
0.0
 10
11.147236197
 20
10.6857396125
 30
0.0
 10
11.1416537222
 20
10.6810916749
 30
0.0
 10
11.1355607235
 20
10.6764877288
 30
0.0
 10
11.1289620124
 20
10.6719313279
 30
0.0
 10
11.1218628764
 20
10.6674259423
 30
0.0
 10
11.1142689691
 20
10.6629751456
 30
0.0
 10
11.1061863844
 20
10.6585824667
 30
0.0
 10
11.0976216271
 20
10.6542514194
 30
0.0
 10
11.0885815996
 20
10.6499855348
 30
0.0
 10
11.0790736307
 20
10.6457882296
 30
0.0
 10
11.0691054176
 20
10.6416629801
 30
0.0
 10
11.0586850749
 20
10.6376130991
 30
0.0
 10
11.047821073
 20
10.6336419534
 30
0.0
 10
11.0365222737
 20
10.6297527578
 30
0.0
 10
11.0247978905
 20
10.6259487278
 30
0.0
 10
11.0126574976
 20
10.6222329792
 30
0.0
 10
11.0001110157
 20
10.6186085545
 30
0.0
 10
10.9871686985
 20
10.6150784554
 30
0.0
 10
10.9738411381
 20
10.6116455523
 30
0.0
 10
10.9601392215
 20
10.6083126852
 30
0.0
 10
10.9411800915
 20
10.6039587078
 30
0.0
 10
10.9166233903
 20
10.5987987132
 30
0.0
 10
10.8861575908
 20
10.5931120927
 30
0.0
 10
10.8544828304
 20
10.5878846027
 30
0.0
 10
10.8217028493
 20
10.5831335129
 30
0.0
 10
10.7879248593
 20
10.5788745476
 30
0.0
 10
10.7532594432
 20
10.5751217866
 30
0.0
 10
10.7178201078
 20
10.5718876338
 30
0.0
 10
10.6817229258
 20
10.5691827749
 30
0.0
 10
10.6450861434
 20
10.5670161448
 30
0.0
 10
10.6080297899
 20
10.565394897
 30
0.0
 10
10.5706752795
 20
10.564324384
 30
0.0
 10
10.5331450091
 20
10.5638081383
 30
0.0
 10
10.4955619597
 20
10.5638478661
 30
0.0
 10
10.4580492696
 20
10.5644434307
 30
0.0
 10
10.4207298849
 20
10.5655928782
 30
0.0
 10
10.3837261324
 20
10.5672923908
 30
0.0
 10
10.359187634
 20
10.5687982366
 30
0.0
 10
10.3469930859
 20
10.5696439314
 30
0.0
  0
SPLINE
  5
38A
100
AcDbEntity
  8
0
100
AcDbSpline
 62
7
  6
CONTINUOUS
 70
0
 71
3
 72
21
 73
17
 74
0
 42
0.0000001
 43
0.0000001
 44
0.0000000001
 40
0.0
 40
0.0
 40
0.0
 40
0.0
 40
0.061653237
 40
0.123329498
 40
0.1850515502
 40
0.2468416698
 40
0.3087213548
 40
0.370711108
 40
0.4328302426
 40
0.495096636
 40
0.5575265765
 40
0.6201345494
 40
0.682933126
 40
0.7459332432
 40
0.8725261314
 40
1.0
 40
1.0
 40
1.0
 40
1.0
 10
9.5008660294
 20
7.0754669614
 30
0.0
 10
9.5024427362
 20
7.0769899537
 30
0.0
 10
9.5056793233
 20
7.0799523269
 30
0.0
 10
9.5107670282
 20
7.0841293433
 30
0.0
 10
9.5160756442
 20
7.0880302886
 30
0.0
 10
9.5215916321
 20
7.0916451463
 30
0.0
 10
9.5273011564
 20
7.094964828
 30
0.0
 10
9.5331897854
 20
7.0979810145
 30
0.0
 10
9.5392426928
 20
7.1006861118
 30
0.0
 10
9.545444638
 20
7.1030732773
 30
0.0
 10
9.5517799873
 20
7.1051365626
 30
0.0
 10
9.5582327361
 20
7.1068707795
 30
0.0
 10
9.5647868327
 20
7.1082715447
 30
0.0
 10
9.5736511857
 20
7.1096921107
 30
0.0
 10
9.5849075073
 20
7.1106150467
 30
0.0
 10
9.5939569114
 20
7.1104384381
 30
0.0
 10
9.598478522
 20
7.1101248633
 30
0.0
  0
SPLINE
  5
38B
100
AcDbEntity
  8
0
100
AcDbSpline
 62
7
  6
CONTINUOUS
 70
0
 71
3
 72
21
 73
17
 74
0
 42
0.0000001
 43
0.0000001
 44
0.0000000001
 40
0.0
 40
0.0
 40
0.0
 40
0.0
 40
0.061653237
 40
0.123329498
 40
0.1850515502
 40
0.2468416698
 40
0.3087213548
 40
0.370711108
 40
0.4328302426
 40
0.495096636
 40
0.5575265765
 40
0.6201345494
 40
0.682933126
 40
0.7459332432
 40
0.8725261314
 40
1.0
 40
1.0
 40
1.0
 40
1.0
 10
11.9156807382
 20
6.9079989926
 30
0.0
 10
11.917257445
 20
6.9095219848
 30
0.0
 10
11.9204940321
 20
6.9124843581
 30
0.0
 10
11.925581737
 20
6.9166613744
 30
0.0
 10
11.930890353
 20
6.9205623197
 30
0.0
 10
11.9364063409
 20
6.9241771774
 30
0.0
 10
11.9421158652
 20
6.9274968592
 30
0.0
 10
11.9480044942
 20
6.9305130456
 30
0.0
 10
11.9540574016
 20
6.933218143
 30
0.0
 10
11.9602593468
 20
6.9356053085
 30
0.0
 10
11.9665946961
 20
6.9376685938
 30
0.0
 10
11.9730474449
 20
6.9394028106
 30
0.0
 10
11.9796015415
 20
6.9408035758
 30
0.0
 10
11.9884658945
 20
6.9422241419
 30
0.0
 10
11.9997222161
 20
6.9431470778
 30
0.0
 10
12.0087716202
 20
6.9429704692
 30
0.0
 10
12.0132932308
 20
6.9426568945
 30
0.0
  0
SPLINE
  5
38C
100
AcDbEntity
  8
0
100
AcDbSpline
 62
7
  6
CONTINUOUS
 70
0
 71
3
 72
93
 73
89
 74
0
 42
0.0000001
 43
0.0000001
 44
0.0000000001
 40
0.0
 40
0.0
 40
0.0
 40
0.0
 40
0.0027164122
 40
0.0054531986
 40
0.0082302464
 40
0.0110665143
 40
0.0139796987
 40
0.0169859749
 40
0.0200999116
 40
0.0233343924
 40
0.0267007144
 40
0.0302086301
 40
0.0338665055
 40
0.0376814345
 40
0.0416593638
 40
0.0458052537
 40
0.0501231341
 40
0.0546162866
 40
0.0592872492
 40
0.0641379798
 40
0.0691698571
 40
0.0743837847
 40
0.0797802281
 40
0.0853592419
 40
0.0911205549
 40
0.097063532
 40
0.1031872889
 40
0.1094906267
 40
0.1159721353
 40
0.1226301497
 40
0.136467702
 40
0.1509863985
 40
0.166166177
 40
0.1819844989
 40
0.1984166092
 40
0.2154357535
 40
0.2330133648
 40
0.2511192265
 40
0.2697216198
 40
0.2887874599
 40
0.3082824199
 40
0.3281710492
 40
0.3484168852
 40
0.3689825618
 40
0.3898299142
 40
0.4109200821
 40
0.4322136103
 40
0.45367055
 40
0.4752505584
 40
0.496912997
 40
0.5186170297
 40
0.5403217213
 40
0.5619861345
 40
0.5835694282
 40
0.6050309555
 40
0.6263303623
 40
0.6474276864
 40
0.6682834561
 40
0.6888587905
 40
0.7091155008
 40
0.729016193
 40
0.7485243728
 40
0.7676045542
 40
0.7862223725
 40
0.8043447018
 40
0.8219397795
 40
0.8389773394
 40
0.8554287585
 40
0.8712672205
 40
0.8864679016
 40
0.901008187
 40
0.914867929
 40
0.921537231
 40
0.9280301459
 40
0.9343449921
 40
0.9404803324
 40
0.9464349771
 40
0.9522079882
 40
0.9577987496
 40
0.9632069274
 40
0.9684325931
 40
0.9734761642
 40
0.9783385117
 40
0.9830209603
 40
0.9875254509
 40
0.9918545996
 40
0.9960115539
 40
1.0
 40
1.0
 40
1.0
 40
1.0
 10
12.4008061694
 20
8.1659862161
 30
0.0
 10
12.3995090372
 20
8.1660761685
 30
0.0
 10
12.3969116836
 20
8.166374133
 30
0.0
 10
12.3930487194
 20
8.1671715283
 30
0.0
 10
12.389214957
 20
8.1683192344
 30
0.0
 10
12.3854131043
 20
8.1698160929
 30
0.0
 10
12.3816451692
 20
8.1716608585
 30
0.0
 10
12.3779130237
 20
8.1738519822
 30
0.0
 10
12.3742184565
 20
8.1763880109
 30
0.0
 10
12.3705630409
 20
8.1792672427
 30
0.0
 10
12.3669484157
 20
8.1824880686
 30
0.0
 10
12.3633760973
 20
8.1860486815
 30
0.0
 10
12.3598476648
 20
8.1899472461
 30
0.0
 10
12.3563646891
 20
8.1941817848
 30
0.0
 10
12.3529287179
 20
8.1987501699
 30
0.0
 10
12.3495413888
 20
8.2036501731
 30
0.0
 10
12.3462042264
 20
8.2088793467
 30
0.0
 10
12.3429188933
 20
8.2144351527
 30
0.0
 10
12.3396869061
 20
8.220314823
 30
0.0
 10
12.3365098946
 20
8.2265154784
 30
0.0
 10
12.3333893822
 20
8.233034037
 30
0.0
 10
12.3303269243
 20
8.2398672731
 30
0.0
 10
12.3273240505
 20
8.2470117933
 30
0.0
 10
12.3243822271
 20
8.2544640355
 30
0.0
 10
12.3215029708
 20
8.2622202948
 30
0.0
 10
12.3186876683
 20
8.2702766884
 30
0.0
 10
12.315937789
 20
8.2786292013
 30
0.0
 10
12.3132546681
 20
8.2872736438
 30
0.0
 10
12.310639673
 20
8.296205705
 30
0.0
 10
12.3072013981
 20
8.3086529213
 30
0.0
 10
12.3030948587
 20
8.3249045368
 30
0.0
 10
12.2985199234
 20
8.3452373905
 30
0.0
 10
12.2942460722
 20
8.3666032834
 30
0.0
 10
12.2902819794
 20
8.3889593362
 30
0.0
 10
12.2866357178
 20
8.4122608236
 30
0.0
 10
12.2833147083
 20
8.4364610194
 30
0.0
 10
12.2803257125
 20
8.4615113727
 30
0.0
 10
12.2776748144
 20
8.4873615912
 30
0.0
 10
12.27536741
 20
8.5139597542
 30
0.0
 10
12.2734081972
 20
8.5412524203
 30
0.0
 10
12.271801167
 20
8.5691847395
 30
0.0
 10
12.2705495957
 20
8.5977005652
 30
0.0
 10
12.2696560392
 20
8.6267425698
 30
0.0
 10
12.269122328
 20
8.6562523606
 30
0.0
 10
12.2689495643
 20
8.6861705988
 30
0.0
 10
12.2691381199
 20
8.7164371195
 30
0.0
 10
12.2696876345
 20
8.7469910536
 30
0.0
 10
12.2705970175
 20
8.7777709512
 30
0.0
 10
12.2718644515
 20
8.8087149065
 30
0.0
 10
12.2734873951
 20
8.8397606829
 30
0.0
 10
12.2754625893
 20
8.8708458381
 30
0.0
 10
12.2777860631
 20
8.9019078506
 30
0.0
 10
12.2804531422
 20
8.932884245
 30
0.0
 10
12.2834584581
 20
8.9637127189
 30
0.0
 10
12.2867959588
 20
8.9943312682
 30
0.0
 10
12.2904589193
 20
9.0246783134
 30
0.0
 10
12.2944399571
 20
9.0546928235
 30
0.0
 10
12.2987310467
 20
9.0843144397
 30
0.0
 10
12.3033235355
 20
9.1134835971
 30
0.0
 10
12.3082081607
 20
9.1421416454
 30
0.0
 10
12.3133750683
 20
9.1702309677
 30
0.0
 10
12.3188138319
 20
9.1976950974
 30
0.0
 10
12.3245134745
 20
9.2244788341
 30
0.0
 10
12.3304624884
 20
9.2505283573
 30
0.0
 10
12.3366488585
 20
9.2757913377
 30
0.0
 10
12.3430600879
 20
9.3002170456
 30
0.0
 10
12.3496832224
 20
9.3237564545
 30
0.0
 10
12.3565048775
 20
9.3463623515
 30
0.0
 10
12.3635112665
 20
9.3679894174
 30
0.0
 10
12.3706882316
 20
9.3885944014
 30
0.0
 10
12.378021274
 20
9.408135961
 30
0.0
 10
12.3843280093
 20
9.4236951295
 30
0.0
 10
12.3894487166
 20
9.4355731998
 30
0.0
 10
12.3932697781
 20
9.4440775734
 30
0.0
 10
12.3971187261
 20
9.45228795
 30
0.0
 10
12.4009936461
 20
9.4602002282
 30
0.0
 10
12.4048925748
 20
9.4678104533
 30
0.0
 10
12.40881359
 20
9.4751148117
 30
0.0
 10
12.4127546807
 20
9.4821096739
 30
0.0
 10
12.4167139358
 20
9.4887915333
 30
0.0
 10
12.4206893273
 20
9.495157091
 30
0.0
 10
12.4246789362
 20
9.5012031574
 30
0.0
 10
12.4286807325
 20
9.5069267417
 30
0.0
 10
12.4326927656
 20
9.5123250076
 30
0.0
 10
12.4367131047
 20
9.5173953114
 30
0.0
 10
12.4407398539
 20
9.5221352091
 30
0.0
 10
12.4447709066
 20
9.526542131
 30
0.0
 10
12.4475156793
 20
9.529313076
 30
0.0
 10
12.4488888253
 20
9.5306394332
 30
0.0
  0
SPLINE
  5
38D
100
AcDbEntity
  8
0
100
AcDbSpline
 62
7
  6
CONTINUOUS
 70
0
 71
3
 72
71
 73
67
 74
0
 42
0.0000001
 43
0.0000001
 44
0.0000000001
 40
0.0
 40
0.0
 40
0.0
 40
0.0
 40
0.0036899152
 40
0.0075220691
 40
0.011499926
 40
0.015626386
 40
0.0199038143
 40
0.0243340627
 40
0.0289186019
 40
0.033658485
 40
0.0436062375
 40
0.0541801253
 40
0.0653780955
 40
0.0771945817
 40
0.0896210345
 40
0.1026463466
 40
0.1162571635
 40
0.1304381093
 40
0.1451720183
 40
0.1604401227
 40
0.1762221892
 40
0.1924966226
 40
0.2092406043
 40
0.2264301995
 40
0.244040435
 40
0.2620453706
 40
0.2804182021
 40
0.2991313375
 40
0.3181564555
 40
0.3374645722
 40
0.376810439
 40
0.4169272457
 40
0.4575664206
 40
0.4984752342
 40
0.5393988184
 40
0.5800821866
 40
0.6202722586
 40
0.6597198794
 40
0.6790893053
 40
0.6981825172
 40
0.716970402
 40
0.7354244834
 40
0.7535169836
 40
0.771220903
 40
0.7885101112
 40
0.8053594049
 40
0.8217445858
 40
0.8376425662
 40
0.8530314785
 40
0.86789076
 40
0.8822012723
 40
0.8959454692
 40
0.9091075644
 40
0.9216737059
 40
0.9336322201
 40
0.944973947
 40
0.9556926008
 40
0.9657852602
 40
0.9705973117
 40
0.9752536502
 40
0.9797551385
 40
0.9841030552
 40
0.9882991649
 40
0.9923456239
 40
0.9962449249
 40
1.0
 40
1.0
 40
1.0
 40
1.0
 10
12.3645364055
 20
8.3567546443
 30
0.0
 10
12.3637251353
 20
8.3577521472
 30
0.0
 10
12.3621133719
 20
8.3598201128
 30
0.0
 10
12.3597705867
 20
8.3630720928
 30
0.0
 10
12.3574585034
 20
8.3665305013
 30
0.0
 10
12.3551781163
 20
8.370193871
 30
0.0
 10
12.3529303322
 20
8.3740607327
 30
0.0
 10
12.3507160253
 20
8.3781294783
 30
0.0
 10
12.3485361072
 20
8.3823984725
 30
0.0
 10
12.3456296946
 20
8.388452995
 30
0.0
 10
12.3420989
 20
8.3965195906
 30
0.0
 10
12.3380786785
 20
8.4068179973
 30
0.0
 10
12.3342161805
 20
8.4178686128
 30
0.0
 10
12.3305177937
 20
8.4296532484
 30
0.0
 10
12.3269896457
 20
8.4421526867
 30
0.0
 10
12.3236376287
 20
8.4553463853
 30
0.0
 10
12.3204673625
 20
8.4692126214
 30
0.0
 10
12.3174841517
 20
8.4837284972
 30
0.0
 10
12.3146929963
 20
8.4988700042
 30
0.0
 10
12.3120985837
 20
8.5146120766
 30
0.0
 10
12.3097052787
 20
8.5309286302
 30
0.0
 10
12.3075170892
 20
8.5477926035
 30
0.0
 10
12.3055376862
 20
8.5651760128
 30
0.0
 10
12.303770397
 20
8.5830500077
 30
0.0
 10
12.3022181959
 20
8.6013849125
 30
0.0
 10
12.3008836801
 20
8.6201502735
 30
0.0
 10
12.2997690885
 20
8.63931492
 30
0.0
 10
12.298876306
 20
8.6588470087
 30
0.0
 10
12.2982068174
 20
8.678714114
 30
0.0
 10
12.2976097588
 20
8.7057754446
 30
0.0
 10
12.2974369926
 20
8.7401949363
 30
0.0
 10
12.2981290274
 20
8.7820419372
 30
0.0
 10
12.2997149574
 20
8.8244096068
 30
0.0
 10
12.3021843586
 20
8.8670164807
 30
0.0
 10
12.3055208815
 20
8.9095796769
 30
0.0
 10
12.3097023349
 20
8.9518166071
 30
0.0
 10
12.3147008488
 20
8.9934466879
 30
0.0
 10
12.3195481565
 20
9.0276067347
 30
0.0
 10
12.323816978
 20
9.0544174776
 30
0.0
 10
12.3271811465
 20
9.0740812898
 30
0.0
 10
12.3307215595
 20
9.0933899519
 30
0.0
 10
12.3344323391
 20
9.1123114096
 30
0.0
 10
12.3383072971
 20
9.1308142205
 30
0.0
 10
12.3423399801
 20
9.1488676511
 30
0.0
 10
12.3465236534
 20
9.1664417248
 30
0.0
 10
12.3508513374
 20
9.1835072664
 30
0.0
 10
12.3553158182
 20
9.2000359476
 30
0.0
 10
12.3599096497
 20
9.2160003454
 30
0.0
 10
12.3646251571
 20
9.2313739941
 30
0.0
 10
12.3694544701
 20
9.2461314208
 30
0.0
 10
12.3743895388
 20
9.2602481879
 30
0.0
 10
12.3794221311
 20
9.2737009536
 30
0.0
 10
12.3845438497
 20
9.2864675149
 30
0.0
 10
12.3897461689
 20
9.2985268458
 30
0.0
 10
12.3950204538
 20
9.3098591134
 30
0.0
 10
12.4003579862
 20
9.3204458358
 30
0.0
 10
12.4057499278
 20
9.3302695948
 30
0.0
 10
12.4103515598
 20
9.3379243632
 30
0.0
 10
12.4140598452
 20
9.3436440595
 30
0.0
 10
12.4168048156
 20
9.3476647291
 30
0.0
 10
12.419556693
 20
9.3514830564
 30
0.0
 10
12.4223144176
 20
9.3550974901
 30
0.0
 10
12.4250768657
 20
9.3585066019
 30
0.0
 10
12.427842986
 20
9.3617089718
 30
0.0
 10
12.4306114856
 20
9.364703159
 30
0.0
 10
12.432492893
 20
9.3665947784
 30
0.0
 10
12.4334340104
 20
9.3675038281
 30
0.0
  0
SPLINE
  5
38E
100
AcDbEntity
  8
0
100
AcDbSpline
 62
7
  6
CONTINUOUS
 70
0
 71
3
 72
11
 73
7
 74
0
 42
0.0000001
 43
0.0000001
 44
0.0000000001
 40
0.0
 40
0.0
 40
0.0
 40
0.0
 40
0.2455516852
 40
0.4929077312
 40
0.743829734
 40
1.0
 40
1.0
 40
1.0
 40
1.0
 10
12.3567589942
 20
8.3845572894
 30
0.0
 10
12.3558723756
 20
8.3846187715
 30
0.0
 10
12.3540971342
 20
8.3848216089
 30
0.0
 10
12.3514565291
 20
8.3853629253
 30
0.0
 10
12.3488357746
 20
8.3861411016
 30
0.0
 10
12.3471238041
 20
8.3868092782
 30
0.0
 10
12.3462739688
 20
8.387180012
 30
0.0
  0
SPLINE
  5
38F
100
AcDbEntity
  8
0
100
AcDbSpline
 62
7
  6
CONTINUOUS
 70
0
 71
3
 72
11
 73
7
 74
0
 42
0.0000001
 43
0.0000001
 44
0.0000000001
 40
0.0
 40
0.0
 40
0.0
 40
0.0
 40
0.2455372842
 40
0.4928846096
 40
0.7438100304
 40
1.0
 40
1.0
 40
1.0
 40
1.0
 10
12.4231756972
 20
9.3422570359
 30
0.0
 10
12.4222875696
 20
9.3423186226
 30
0.0
 10
12.420498251
 20
9.3423627108
 30
0.0
 10
12.4178035614
 20
9.342190211
 30
0.0
 10
12.4150958131
 20
9.3417794825
 30
0.0
 10
12.4133049667
 20
9.3413523941
 30
0.0
 10
12.4124105845
 20
9.3411015819
 30
0.0
  0
SPLINE
  5
390
100
AcDbEntity
  8
0
100
AcDbSpline
 62
7
  6
CONTINUOUS
 70
0
 71
3
 72
77
 73
73
 74
0
 42
0.0000001
 43
0.0000001
 44
0.0000000001
 40
0.0
 40
0.0
 40
0.0
 40
0.0
 40
0.0026745541
 40
0.0053678621
 40
0.0080982663
 40
0.0108832953
 40
0.0137393847
 40
0.0166816516
 40
0.0197237563
 40
0.0228779157
 40
0.0261548645
 40
0.0295639692
 40
0.0331133378
 40
0.0368098637
 40
0.0406594319
 40
0.0446669638
 40
0.0488365248
 40
0.0531714837
 40
0.0576744915
 40
0.0623476437
 40
0.0671925232
 40
0.0722101991
 40
0.07740138
 40
0.0827663586
 40
0.094016712
 40
0.1059580566
 40
0.1185824106
 40
0.1318782716
 40
0.1458310932
 40
0.1604236913
 40
0.1756365478
 40
0.1914480445
 40
0.2078346547
 40
0.2247711448
 40
0.2422307297
 40
0.2601851997
 40
0.2786050268
 40
0.2974594975
 40
0.3167168236
 40
0.3363442363
 40
0.3563080679
 40
0.3765738575
 40
0.3971064464
 40
0.4388277247
 40
0.4811805659
 40
0.5238672201
 40
0.566586934
 40
0.6090386638
 40
0.650923764
 40
0.6919487005
 40
0.712049322
 40
0.7318285568
 40
0.7512523814
 40
0.7702876116
 40
0.7889020146
 40
0.8070644
 40
0.8247447128
 40
0.8419141398
 40
0.8585452486
 40
0.8746121158
 40
0.8900904548
 40
0.9049577777
 40
0.9191936051
 40
0.9327797063
 40
0.9457003407
 40
0.9579426204
 40
0.9694969506
 40
0.9803574605
 40
0.9855274148
 40
0.9905240848
 40
0.9953480207
 40
1.0
 40
1.0
 40
1.0
 40
1.0
 10
12.418448152
 20
9.7378981923
 30
0.0
 10
12.4176542762
 20
9.7379532432
 30
0.0
 10
12.4160649142
 20
9.7381331546
 30
0.0
 10
12.413700227
 20
9.738610284
 30
0.0
 10
12.4113526853
 20
9.7392946991
 30
0.0
 10
12.4090238199
 20
9.7401857045
 30
0.0
 10
12.4067147788
 20
9.7412826287
 30
0.0
 10
12.4044266882
 20
9.7425846753
 30
0.0
 10
12.4021605181
 20
9.7440909318
 30
0.0
 10
12.3999172688
 20
9.7458005612
 30
0.0
 10
12.3976978288
 20
9.7477125785
 30
0.0
 10
12.3955030985
 20
9.7498260011
 30
0.0
 10
12.3933340156
 20
9.7521398202
 30
0.0
 10
12.3911914303
 20
9.7546528868
 30
0.0
 10
12.3890762886
 20
9.757364056
 30
0.0
 10
12.3869894958
 20
9.7602720626
 30
0.0
 10
12.3849319361
 20
9.7633755496
 30
0.0
 10
12.3829045738
 20
9.7666731153
 30
0.0
 10
12.3809082769
 20
9.7701632162
 30
0.0
 10
12.3789439658
 20
9.77384425
 30
0.0
 10
12.3770125601
 20
9.7777145232
 30
0.0
 10
12.3751149121
 20
9.7817722247
 30
0.0
 10
12.3732519196
 20
9.7860154943
 30
0.0
 10
12.370776024
 20
9.7920132776
 30
0.0
 10
12.3677831431
 20
9.7999680139
 30
0.0
 10
12.3643979086
 20
9.8100748109
 30
0.0
 10
12.3611706323
 20
9.8208698073
 30
0.0
 10
12.3581073996
 20
9.8323328602
 30
0.0
 10
12.3552139949
 20
9.8444427146
 30
0.0
 10
12.3524959056
 20
9.8571767845
 30
0.0
 10
12.3499582972
 20
9.8705112927
 30
0.0
 10
12.3476059975
 20
9.8844212919
 30
0.0
 10
12.3454434694
 20
9.8988807226
 30
0.0
 10
12.3434748233
 20
9.9138624736
 30
0.0
 10
12.3417038042
 20
9.9293384422
 30
0.0
 10
12.3401337862
 20
9.9452795832
 30
0.0
 10
12.3387677477
 20
9.9616559622
 30
0.0
 10
12.3376082843
 20
9.9784368186
 30
0.0
 10
12.3366576037
 20
9.9955906292
 30
0.0
 10
12.3359175219
 20
10.0130851671
 30
0.0
 10
12.3353894515
 20
10.0308875485
 30
0.0
 10
12.3350743788
 20
10.0489643412
 30
0.0
 10
12.3349384704
 20
10.0735171976
 30
0.0
 10
12.3353101422
 20
10.1046424289
 30
0.0
 10
12.3366015482
 20
10.1423394529
 30
0.0
 10
12.3387313776
 20
10.1802960063
 30
0.0
 10
12.3416836353
 20
10.2182269247
 30
0.0
 10
12.3454361298
 20
10.2558474828
 30
0.0
 10
12.3499605627
 20
10.2928750569
 30
0.0
 10
12.3543749862
 20
10.3232082508
 30
0.0
 10
12.3582748336
 20
10.3469630435
 30
0.0
 10
12.3613499503
 20
10.3643386289
 30
0.0
 10
12.3645892333
 20
10.3813617853
 30
0.0
 10
12.3679866073
 20
10.3980005489
 30
0.0
 10
12.3715356523
 20
10.4142236582
 30
0.0
 10
12.3752296701
 20
10.4300006493
 30
0.0
 10
12.3790616885
 20
10.4453018981
 30
0.0
 10
12.3830244804
 20
10.460098681
 30
0.0
 10
12.3871105623
 20
10.4743632391
 30
0.0
 10
12.3913122131
 20
10.4880688332
 30
0.0
 10
12.3956214977
 20
10.5011897888
 30
0.0
 10
12.4000302847
 20
10.5137015479
 30
0.0
 10
12.4045302553
 20
10.5255807299
 30
0.0
 10
12.4091129192
 20
10.5368051925
 30
0.0
 10
12.4137696446
 20
10.5473540514
 30
0.0
 10
12.4184917105
 20
10.5572078195
 30
0.0
 10
12.4232702652
 20
10.5663481106
 30
0.0
 10
12.4273565332
 20
10.5734692273
 30
0.0
 10
12.4306535057
 20
10.5787869756
 30
0.0
 10
12.4330941726
 20
10.5825207885
 30
0.0
 10
12.4355421847
 20
10.5860639802
 30
0.0
 10
12.4372083886
 20
10.588338984
 30
0.0
 10
12.4380430137
 20
10.5894431804
 30
0.0
  0
SPLINE
  5
391
100
AcDbEntity
  8
0
100
AcDbSpline
 62
7
  6
CONTINUOUS
 70
0
 71
3
 72
57
 73
53
 74
0
 42
0.0000001
 43
0.0000001
 44
0.0000000001
 40
0.0
 40
0.0
 40
0.0
 40
0.0
 40
0.0075207525
 40
0.0156240325
 40
0.0243308614
 40
0.0336546301
 40
0.0436024271
 40
0.0541763765
 40
0.0653744283
 40
0.0771909745
 40
0.0896175297
 40
0.1026429528
 40
0.1162538654
 40
0.1304349454
 40
0.1451689843
 40
0.1604372353
 40
0.1762194622
 40
0.1924940453
 40
0.2092382131
 40
0.2264279957
 40
0.2620427487
 40
0.2991284251
 40
0.3374614636
 40
0.3768078207
 40
0.4169251328
 40
0.4575648304
 40
0.4984741812
 40
0.5393983111
 40
0.5800822305
 40
0.6202728557
 40
0.6597210261
 40
0.6981835546
 40
0.7354253343
 40
0.7712214718
 40
0.7885109206
 40
0.8053604621
 40
0.8217458644
 40
0.8376440784
 40
0.8530332192
 40
0.8678926933
 40
0.8822034212
 40
0.895947816
 40
0.9091100893
 40
0.9216764187
 40
0.9336350908
 40
0.9449769803
 40
0.9556957931
 40
0.9657885947
 40
0.9752564015
 40
0.9841051066
 40
0.9923469445
 40
1.0
 40
1.0
 40
1.0
 40
1.0
 10
12.3986574614
 20
9.9236979816
 30
0.0
 10
12.397822829
 20
9.9247241977
 30
0.0
 10
12.3961783153
 20
9.9269297363
 30
0.0
 10
12.3938640893
 20
9.9305326358
 30
0.0
 10
12.3916159084
 20
9.9345446559
 30
0.0
 10
12.3894373959
 20
9.9389592521
 30
0.0
 10
12.3873317967
 20
9.9437695365
 30
0.0
 10
12.3853025206
 20
9.948967807
 30
0.0
 10
12.3833528751
 20
9.9545456846
 30
0.0
 10
12.3814860422
 20
9.9604940889
 30
0.0
 10
12.3797051601
 20
9.9668033002
 30
0.0
 10
12.3780131797
 20
9.9734629519
 30
0.0
 10
12.3764129252
 20
9.9804620737
 30
0.0
 10
12.3749071082
 20
9.9877891137
 30
0.0
 10
12.373498221
 20
9.995431952
 30
0.0
 10
12.3721886471
 20
10.0033779355
 30
0.0
 10
12.3709805882
 20
10.0116138973
 30
0.0
 10
12.3698760542
 20
10.0201261754
 30
0.0
 10
12.3688769065
 20
10.0289006604
 30
0.0
 10
12.3676733095
 20
10.0410741246
 30
0.0
 10
12.3664537852
 20
10.0568393266
 30
0.0
 10
12.3654485567
 20
10.0763442744
 30
0.0
 10
12.3648919609
 20
10.096523676
 30
0.0
 10
12.3647878811
 20
10.1172435417
 30
0.0
 10
12.3651371916
 20
10.138366398
 30
0.0
 10
12.3659376884
 20
10.1597520085
 30
0.0
 10
12.3671841324
 20
10.1812583827
 30
0.0
 10
12.368868275
 20
10.2027427146
 30
0.0
 10
12.3709789071
 20
10.2240623477
 30
0.0
 10
12.3735019486
 20
10.2450757366
 30
0.0
 10
12.3764205433
 20
10.2656433825
 30
0.0
 10
12.3797151487
 20
10.2856288409
 30
0.0
 10
12.3833637056
 20
10.3048994306
 30
0.0
 10
12.3867162439
 20
10.3204308738
 30
0.0
 10
12.3895648844
 20
10.3323972598
 30
0.0
 10
12.3917493448
 20
10.3410113303
 30
0.0
 10
12.3940028511
 20
10.3493544031
 30
0.0
 10
12.3963216428
 20
10.3574126517
 30
0.0
 10
12.398701849
 20
10.3651727109
 30
0.0
 10
12.401139517
 20
10.3726217193
 30
0.0
 10
12.4036305481
 20
10.379747351
 30
0.0
 10
12.4061708134
 20
10.3865378182
 30
0.0
 10
12.408756072
 20
10.3929819122
 30
0.0
 10
12.4113820011
 20
10.3990690233
 30
0.0
 10
12.414044275
 20
10.40478914
 30
0.0
 10
12.4167384534
 20
10.410132917
 30
0.0
 10
12.4194601139
 20
10.4150916577
 30
0.0
 10
12.4222048533
 20
10.4196573295
 30
0.0
 10
12.4249681801
 20
10.4238226259
 30
0.0
 10
12.4277459326
 20
10.4275810703
 30
0.0
 10
12.4305336234
 20
10.4309263817
 30
0.0
 10
12.4324658623
 20
10.4329509234
 30
0.0
 10
12.4334340104
 20
10.4338860827
 30
0.0
  0
SPLINE
  5
392
100
AcDbEntity
  8
0
100
AcDbSpline
 62
7
  6
CONTINUOUS
 70
0
 71
3
 72
82
 73
78
 74
0
 42
0.0000001
 43
0.0000001
 44
0.0000000001
 40
0.0
 40
0.0
 40
0.0
 40
0.0
 40
0.0027164291
 40
0.0054532364
 40
0.0082303053
 40
0.0110666058
 40
0.0139798164
 40
0.016986131
 40
0.0201001037
 40
0.0233346222
 40
0.0267009905
 40
0.0302089475
 40
0.0338668707
 40
0.0376818493
 40
0.0416598249
 40
0.0458057691
 40
0.0501237025
 40
0.0546169039
 40
0.0592879295
 40
0.0641387045
 40
0.069170648
 40
0.0743846285
 40
0.0797811279
 40
0.0853602093
 40
0.0970640744
 40
0.1094908292
 40
0.122630084
 40
0.1364677626
 40
0.1509865887
 40
0.1661664945
 40
0.1819849411
 40
0.1984171777
 40
0.2154364542
 40
0.233014197
 40
0.2511201854
 40
0.2697227022
 40
0.2887886669
 40
0.3082837565
 40
0.3281725155
 40
0.3484184781
 40
0.3689842782
 40
0.3898317536
 40
0.4109220451
 40
0.4536720397
 40
0.4969140311
 40
0.540322302
 40
0.5835695392
 40
0.6263299734
 40
0.6474273998
 40
0.6682832705
 40
0.6888587055
 40
0.7091155138
 40
0.7290162972
 40
0.7485245643
 40
0.7676048337
 40
0.786222742
 40
0.8043451595
 40
0.821940317
 40
0.8389779517
 40
0.8554294454
 40
0.8712679825
 40
0.8864687352
 40
0.9010090829
 40
0.9148688848
 40
0.9280307811
 40
0.9404805813
 40
0.9522077554
 40
0.9577985268
 40
0.9632067444
 40
0.9684324379
 40
0.9734760336
 40
0.9783383943
 40
0.9830208414
 40
0.9875253833
 40
0.9918546059
 40
0.9960115907
 40
1.0
 40
1.0
 40
1.0
 40
1.0
 10
12.4184475327
 20
7.0816019952
 30
0.0
 10
12.4176263276
 20
7.0816589503
 30
0.0
 10
12.4159819634
 20
7.0818476311
 30
0.0
 10
12.4135363568
 20
7.0823525063
 30
0.0
 10
12.411109224
 20
7.0830791252
 30
0.0
 10
12.4087023181
 20
7.0840268515
 30
0.0
 10
12.4063168552
 20
7.0851947696
 30
0.0
 10
12.4039540773
 20
7.086582014
 30
0.0
 10
12.4016150747
 20
7.0881875874
 30
0.0
 10
12.399300859
 20
7.0900104432
 30
0.0
 10
12.3970124794
 20
7.092049571
 30
0.0
 10
12.3947508687
 20
7.0943038002
 30
0.0
 10
12.3925170526
 20
7.0967719932
 30
0.0
 10
12.3903120137
 20
7.0994528865
 30
0.0
 10
12.3881367256
 20
7.10234513
 30
0.0
 10
12.3859922425
 20
7.1054473251
 30
0.0
 10
12.3838795166
 20
7.1087579117
 30
0.0
 10
12.3817995936
 20
7.1122752826
 30
0.0
 10
12.3797534675
 20
7.1159976982
 30
0.0
 10
12.3777421126
 20
7.1199233133
 30
0.0
 10
12.3757665603
 20
7.1240502035
 30
0.0
 10
12.3738277431
 20
7.128376303
 30
0.0
 10
12.3719266344
 20
7.1328994823
 30
0.0
 10
12.3694030259
 20
7.1392925878
 30
0.0
 10
12.3663593884
 20
7.1477682924
 30
0.0
 10
12.3629279694
 20
7.1585307217
 30
0.0
 10
12.359668437
 20
7.1700199386
 30
0.0
 10
12.3565873822
 20
7.1822129993
 30
0.0
 10
12.3536910475
 20
7.1950856913
 30
0.0
 10
12.350985316
 20
7.2086123082
 30
0.0
 10
12.3484756915
 20
7.2227658058
 30
0.0
 10
12.3461672827
 20
7.2375178427
 30
0.0
 10
12.3440647927
 20
7.2528388466
 30
0.0
 10
12.3421724974
 20
7.2686980752
 30
0.0
 10
12.3404942468
 20
7.285063687
 30
0.0
 10
12.3390334574
 20
7.3019028119
 30
0.0
 10
12.3377931054
 20
7.31918162
 30
0.0
 10
12.3367757214
 20
7.3368653877
 30
0.0
 10
12.3359833765
 20
7.3549185671
 30
0.0
 10
12.3354176851
 20
7.3733048643
 30
0.0
 10
12.3350798115
 20
7.3919873033
 30
0.0
 10
12.3349704338
 20
7.4109283492
 30
0.0
 10
12.3351303977
 20
7.4365918588
 30
0.0
 10
12.335906502
 20
7.4690356131
 30
0.0
 10
12.3377355436
 20
7.508209182
 30
0.0
 10
12.3404520855
 20
7.5474823904
 30
0.0
 10
12.3440342637
 20
7.5865394593
 30
0.0
 10
12.3477328984
 20
7.6187879999
 30
0.0
 10
12.3511083268
 20
7.6442370032
 30
0.0
 10
12.3538250055
 20
7.6629902367
 30
0.0
 10
12.3567324766
 20
7.6814570005
 30
0.0
 10
12.3598249018
 20
7.6996001891
 30
0.0
 10
12.3630960397
 20
7.7173833169
 30
0.0
 10
12.3665392876
 20
7.7347706392
 30
0.0
 10
12.3701476933
 20
7.7517272116
 30
0.0
 10
12.3739139716
 20
7.7682189621
 30
0.0
 10
12.3778305175
 20
7.7842127582
 30
0.0
 10
12.3818894235
 20
7.7996764801
 30
0.0
 10
12.386082485
 20
7.8145790916
 30
0.0
 10
12.3904012267
 20
7.8288907034
 30
0.0
 10
12.3948369205
 20
7.8425826337
 30
0.0
 10
12.3993806035
 20
7.8556274682
 30
0.0
 10
12.4040231026
 20
7.8679991338
 30
0.0
 10
12.4087550435
 20
7.8796729431
 30
0.0
 10
12.4135668984
 20
7.8906257381
 30
0.0
 10
12.4184489852
 20
7.9008356498
 30
0.0
 10
12.4226317892
 20
7.9088307922
 30
0.0
 10
12.4260125616
 20
7.914831254
 30
0.0
 10
12.4285191385
 20
7.9190614977
 30
0.0
 10
12.4310359376
 20
7.9230914802
 30
0.0
 10
12.4335617301
 20
7.9269191948
 30
0.0
 10
12.4360952195
 20
7.9305427511
 30
0.0
 10
12.4386352154
 20
7.9339603434
 30
0.0
 10
12.4411804654
 20
7.9371703329
 30
0.0
 10
12.443729799
 20
7.9401711375
 30
0.0
 10
12.4462818276
 20
7.9429611282
 30
0.0
 10
12.4480195094
 20
7.9447153853
 30
0.0
 10
12.4488888253
 20
7.94555508
 30
0.0
  0
SPLINE
  5
393
100
AcDbEntity
  8
0
100
AcDbSpline
 62
7
  6
CONTINUOUS
 70
0
 71
3
 72
57
 73
53
 74
0
 42
0.0000001
 43
0.0000001
 44
0.0000000001
 40
0.0
 40
0.0
 40
0.0
 40
0.0
 40
0.0075207525
 40
0.0156240325
 40
0.0243308614
 40
0.0336546301
 40
0.0436024271
 40
0.0541763765
 40
0.0653744283
 40
0.0771909745
 40
0.0896175297
 40
0.1026429528
 40
0.1162538654
 40
0.1304349454
 40
0.1451689843
 40
0.1604372353
 40
0.1762194622
 40
0.1924940453
 40
0.2092382131
 40
0.2264279957
 40
0.2620427487
 40
0.2991284251
 40
0.3374614636
 40
0.3768078207
 40
0.4169251328
 40
0.4575648304
 40
0.4984741812
 40
0.5393983111
 40
0.5800822305
 40
0.6202728557
 40
0.6597210261
 40
0.6981835546
 40
0.7354253343
 40
0.7712214718
 40
0.7885109206
 40
0.8053604621
 40
0.8217458644
 40
0.8376440784
 40
0.8530332192
 40
0.8678926933
 40
0.8822034212
 40
0.895947816
 40
0.9091100893
 40
0.9216764187
 40
0.9336350908
 40
0.9449769803
 40
0.9556957931
 40
0.9657885947
 40
0.9752564015
 40
0.9841051066
 40
0.9923469445
 40
1.0
 40
1.0
 40
1.0
 40
1.0
 10
12.3986574614
 20
7.2674017443
 30
0.0
 10
12.397822829
 20
7.2684279604
 30
0.0
 10
12.3961783153
 20
7.2706334991
 30
0.0
 10
12.3938640893
 20
7.2742363985
 30
0.0
 10
12.3916159084
 20
7.2782484187
 30
0.0
 10
12.3894373959
 20
7.2826630149
 30
0.0
 10
12.3873317967
 20
7.2874732992
 30
0.0
 10
12.3853025206
 20
7.2926715697
 30
0.0
 10
12.3833528751
 20
7.2982494473
 30
0.0
 10
12.3814860422
 20
7.3041978517
 30
0.0
 10
12.3797051601
 20
7.3105070629
 30
0.0
 10
12.3780131797
 20
7.3171667146
 30
0.0
 10
12.3764129252
 20
7.3241658365
 30
0.0
 10
12.3749071082
 20
7.3314928764
 30
0.0
 10
12.373498221
 20
7.3391357147
 30
0.0
 10
12.3721886471
 20
7.3470816982
 30
0.0
 10
12.3709805882
 20
7.3553176601
 30
0.0
 10
12.3698760542
 20
7.3638299382
 30
0.0
 10
12.3688769065
 20
7.3726044232
 30
0.0
 10
12.3676733095
 20
7.3847778874
 30
0.0
 10
12.3664537852
 20
7.4005430893
 30
0.0
 10
12.3654485567
 20
7.4200480372
 30
0.0
 10
12.3648919609
 20
7.4402274388
 30
0.0
 10
12.3647878811
 20
7.4609473045
 30
0.0
 10
12.3651371916
 20
7.4820701607
 30
0.0
 10
12.3659376884
 20
7.5034557712
 30
0.0
 10
12.3671841324
 20
7.5249621454
 30
0.0
 10
12.368868275
 20
7.5464464773
 30
0.0
 10
12.3709789071
 20
7.5677661104
 30
0.0
 10
12.3735019486
 20
7.5887794993
 30
0.0
 10
12.3764205433
 20
7.6093471453
 30
0.0
 10
12.3797151487
 20
7.6293326036
 30
0.0
 10
12.3833637056
 20
7.6486031934
 30
0.0
 10
12.3867162439
 20
7.6641346366
 30
0.0
 10
12.3895648844
 20
7.6761010226
 30
0.0
 10
12.3917493448
 20
7.684715093
 30
0.0
 10
12.3940028511
 20
7.6930581659
 30
0.0
 10
12.3963216428
 20
7.7011164145
 30
0.0
 10
12.398701849
 20
7.7088764736
 30
0.0
 10
12.401139517
 20
7.716325482
 30
0.0
 10
12.4036305481
 20
7.7234511137
 30
0.0
 10
12.4061708134
 20
7.7302415809
 30
0.0
 10
12.408756072
 20
7.7366856749
 30
0.0
 10
12.4113820011
 20
7.742772786
 30
0.0
 10
12.414044275
 20
7.7484929028
 30
0.0
 10
12.4167384534
 20
7.7538366798
 30
0.0
 10
12.4194601139
 20
7.7587954205
 30
0.0
 10
12.4222048533
 20
7.7633610922
 30
0.0
 10
12.4249681801
 20
7.7675263886
 30
0.0
 10
12.4277459326
 20
7.771284833
 30
0.0
 10
12.4305336234
 20
7.7746301444
 30
0.0
 10
12.4324658623
 20
7.7766546861
 30
0.0
 10
12.4334340104
 20
7.7775898455
 30
0.0
  0
SPLINE
  5
394
100
AcDbEntity
  8
0
100
AcDbSpline
 62
7
  6
CONTINUOUS
 70
0
 71
3
 72
23
 73
19
 74
0
 42
0.0000001
 43
0.0000001
 44
0.0000000001
 40
0.0
 40
0.0
 40
0.0
 40
0.0
 40
0.0755954479
 40
0.1466391714
 40
0.2134657403
 40
0.2765145402
 40
0.3363265376
 40
0.3935471486
 40
0.4489234403
 40
0.5032885643
 40
0.5575265067
 40
0.6125277807
 40
0.6691438784
 40
0.7281492575
 40
0.7902198463
 40
0.8559237775
 40
0.9257267722
 40
1.0
 40
1.0
 40
1.0
 40
1.0
 10
12.4334340104
 20
7.2656491272
 30
0.0
 10
12.4326975189
 20
7.264937731
 30
0.0
 10
12.4312254896
 20
7.2636014998
 30
0.0
 10
12.4289473868
 20
7.2618163496
 30
0.0
 10
12.4266719326
 20
7.260317079
 30
0.0
 10
12.4244012631
 20
7.2591059316
 30
0.0
 10
12.4221372444
 20
7.2581851425
 30
0.0
 10
12.4198822311
 20
7.2575568849
 30
0.0
 10
12.4176391512
 20
7.25722348
 30
0.0
 10
12.4154117657
 20
7.2571863964
 30
0.0
 10
12.4132043502
 20
7.2574463007
 30
0.0
 10
12.4110211692
 20
7.258002292
 30
0.0
 10
12.408865959
 20
7.2588526173
 30
0.0
 10
12.4067415367
 20
7.2599946863
 30
0.0
 10
12.4046501039
 20
7.2614259815
 30
0.0
 10
12.4025932873
 20
7.2631439335
 30
0.0
 10
12.4005728179
 20
7.2651460817
 30
0.0
 10
12.3992922533
 20
7.2666212406
 30
0.0
 10
12.3986574614
 20
7.2674017443
 30
0.0
  0
SPLINE
  5
395
100
AcDbEntity
  8
0
100
AcDbSpline
 62
7
  6
CONTINUOUS
 70
0
 71
3
 72
16
 73
12
 74
0
 42
0.0000001
 43
0.0000001
 44
0.0000000001
 40
0.0
 40
0.0
 40
0.0
 40
0.0
 40
0.1504815401
 40
0.2917481174
 40
0.4244944817
 40
0.4879692635
 40
0.5496755268
 40
0.6683417309
 40
0.7818818905
 40
0.8918563508
 40
1.0
 40
1.0
 40
1.0
 40
1.0
 10
12.4044562339
 20
7.2966365193
 30
0.0
 10
12.4037918901
 20
7.2959948125
 30
0.0
 10
12.4024640591
 20
7.2947907644
 30
0.0
 10
12.400408072
 20
7.2931861744
 30
0.0
 10
12.3986714041
 20
7.2920513246
 30
0.0
 10
12.3972865767
 20
7.2912828434
 30
0.0
 10
12.3959425349
 20
7.2906230751
 30
0.0
 10
12.3942618805
 20
7.2899564521
 30
0.0
 10
12.3922270997
 20
7.2894150593
 30
0.0
 10
12.3902038056
 20
7.2891447521
 30
0.0
 10
12.3888601736
 20
7.2891462565
 30
0.0
 10
12.3881979784
 20
7.2891921833
 30
0.0
  0
SPLINE
  5
396
100
AcDbEntity
  8
0
100
AcDbSpline
 62
7
  6
CONTINUOUS
 70
0
 71
3
 72
91
 73
87
 74
0
 42
0.0000001
 43
0.0000001
 44
0.0000000001
 40
0.0
 40
0.0
 40
0.0
 40
0.0
 40
0.0039450292
 40
0.0080540482
 40
0.0123305982
 40
0.0167777024
 40
0.0213978954
 40
0.0261930985
 40
0.0311646171
 40
0.036313336
 40
0.0416396969
 40
0.0471438142
 40
0.0528254307
 40
0.0586839882
 40
0.0647186604
 40
0.0709283348
 40
0.0773117045
 40
0.0838671964
 40
0.0974870665
 40
0.1117720756
 40
0.1267033128
 40
0.1422594992
 40
0.1584172353
 40
0.1751512067
 40
0.1924343614
 40
0.2102380621
 40
0.2285322295
 40
0.2472854692
 40
0.2664651896
 40
0.2860377121
 40
0.3059683759
 40
0.3262216386
 40
0.3467611735
 40
0.367549968
 40
0.3885504181
 40
0.4097244218
 40
0.4310334707
 40
0.4524387413
 40
0.4739011864
 40
0.4953816259
 40
0.5168408385
 40
0.5382396527
 40
0.5595390367
 40
0.5807001895
 40
0.6016846316
 40
0.6224542971
 40
0.6429716276
 40
0.6631996651
 40
0.6831021458
 40
0.7026435959
 40
0.7217894305
 40
0.7405060541
 40
0.7587609676
 40
0.7765228823
 40
0.7937618356
 40
0.8104493182
 40
0.8265584141
 40
0.8420639572
 40
0.8569427114
 40
0.8711735811
 40
0.8847378653
 40
0.8976195604
 40
0.9038004858
 40
0.9098061879
 40
0.9156356374
 40
0.921288024
 40
0.9267628505
 40
0.9320599224
 40
0.9371793776
 40
0.9421217651
 40
0.9468880134
 40
0.9514795711
 40
0.9558983746
 40
0.9601469828
 40
0.9642286172
 40
0.968147245
 40
0.971907717
 40
0.9755158085
 40
0.9789784172
 40
0.9823036106
 40
0.9855008044
 40
0.9885808447
 40
0.9915560928
 40
0.9944404898
 40
0.997249492
 40
1.0
 40
1.0
 40
1.0
 40
1.0
 10
12.4334340104
 20
8.1890742502
 30
0.0
 10
12.4347845653
 20
8.1903787861
 30
0.0
 10
12.437484238
 20
8.1931022308
 30
0.0
 10
12.4414504324
 20
8.1974299971
 30
0.0
 10
12.4454125421
 20
8.2020801829
 30
0.0
 10
12.4493685351
 20
8.2070503437
 30
0.0
 10
12.4533166186
 20
8.2123381453
 30
0.0
 10
12.4572549357
 20
8.2179410973
 30
0.0
 10
12.4611816581
 20
8.2238565007
 30
0.0
 10
12.4650948282
 20
8.2300815333
 30
0.0
 10
12.4689926234
 20
8.2366131672
 30
0.0
 10
12.4728731206
 20
8.243448278
 30
0.0
 10
12.4767344723
 20
8.2505835579
 30
0.0
 10
12.4805748046
 20
8.2580155611
 30
0.0
 10
12.4843922321
 20
8.2657406991
 30
0.0
 10
12.4881849364
 20
8.2737552174
 30
0.0
 10
12.4919510456
 20
8.282055255
 30
0.0
 10
12.4969990132
 20
8.2936452101
 30
0.0
 10
12.5032191074
 20
8.3088246144
 30
0.0
 10
12.5104566385
 20
8.3278876455
 30
0.0
 10
12.5175453464
 20
8.3479863925
 30
0.0
 10
12.5244713721
 20
8.3690818188
 30
0.0
 10
12.5312211696
 20
8.3911330929
 30
0.0
 10
12.5377815346
 20
8.4140974261
 30
0.0
 10
12.5441396332
 20
8.437930235
 30
0.0
 10
12.5502830324
 20
8.4625852127
 30
0.0
 10
12.5561997204
 20
8.4880144323
 30
0.0
 10
12.5618781313
 20
8.5141684443
 30
0.0
 10
12.5673071676
 20
8.5409963764
 30
0.0
 10
12.5724762211
 20
8.5684460344
 30
0.0
 10
12.5773751937
 20
8.5964640051
 30
0.0
 10
12.5819945167
 20
8.6249957612
 30
0.0
 10
12.5863251725
 20
8.6539857675
 30
0.0
 10
12.5903587088
 20
8.6833775922
 30
0.0
 10
12.5940872546
 20
8.7131140181
 30
0.0
 10
12.5975035355
 20
8.7431371551
 30
0.0
 10
12.600600888
 20
8.7733885524
 30
0.0
 10
12.6033732716
 20
8.8038093128
 30
0.0
 10
12.6058152814
 20
8.8343402076
 30
0.0
 10
12.6079221613
 20
8.8649217923
 30
0.0
 10
12.6096898105
 20
8.8954945237
 30
0.0
 10
12.6111147907
 20
8.9259988766
 30
0.0
 10
12.6121943337
 20
8.9563754592
 30
0.0
 10
12.6129263462
 20
8.9865651291
 30
0.0
 10
12.6133094143
 20
9.0165091086
 30
0.0
 10
12.6133428064
 20
9.0461491003
 30
0.0
 10
12.6130264787
 20
9.0754274019
 30
0.0
 10
12.6123610716
 20
9.1042870192
 30
0.0
 10
12.6113479088
 20
9.1326717778
 30
0.0
 10
12.6099889951
 20
9.1605264322
 30
0.0
 10
12.6082870132
 20
9.1877967746
 30
0.0
 10
12.6062453186
 20
9.2144297418
 30
0.0
 10
12.6038679334
 20
9.2403735221
 30
0.0
 10
12.6011595435
 20
9.2655776597
 30
0.0
 10
12.5981254851
 20
9.2899931556
 30
0.0
 10
12.594771735
 20
9.3135725661
 30
0.0
 10
12.5911048995
 20
9.3362700978
 30
0.0
 10
12.5871322002
 20
9.3580417098
 30
0.0
 10
12.5828614585
 20
9.3788451849
 30
0.0
 10
12.5783010796
 20
9.3986403118
 30
0.0
 10
12.5734600212
 20
9.4173886801
 30
0.0
 10
12.5691424884
 20
9.4323086702
 30
0.0
 10
12.5655451485
 20
9.4436857425
 30
0.0
 10
12.5628200779
 20
9.4518168122
 30
0.0
 10
12.5600321415
 20
9.4596600737
 30
0.0
 10
12.5571826256
 20
9.4672117377
 30
0.0
 10
12.5542729389
 20
9.474468156
 30
0.0
 10
12.5513044923
 20
9.4814258308
 30
0.0
 10
12.5482786854
 20
9.4880814001
 30
0.0
 10
12.5451970252
 20
9.4944316801
 30
0.0
 10
12.5420609188
 20
9.5004736008
 30
0.0
 10
12.5388719207
 20
9.506204292
 30
0.0
 10
12.5356314841
 20
9.5116209959
 30
0.0
 10
12.5323411464
 20
9.5167211369
 30
0.0
 10
12.529002432
 20
9.5215022901
 30
0.0
 10
12.5256168219
 20
9.5259621504
 30
0.0
 10
12.5221858923
 20
9.5300986226
 30
0.0
 10
12.5187110756
 20
9.5339096549
 30
0.0
 10
12.5151939416
 20
9.5373934292
 30
0.0
 10
12.5116359259
 20
9.5405481401
 30
0.0
 10
12.5080385518
 20
9.5433721402
 30
0.0
 10
12.5044033285
 20
9.5458638528
 30
0.0
 10
12.5007318204
 20
9.5480216957
 30
0.0
 10
12.4970256268
 20
9.5498443155
 30
0.0
 10
12.4932868703
 20
9.5513301408
 30
0.0
 10
12.4907519205
 20
9.5521020654
 30
0.0
 10
12.489484246
 20
9.5524290178
 30
0.0
  0
SPLINE
  5
397
100
AcDbEntity
  8
0
100
AcDbSpline
 62
7
  6
CONTINUOUS
 70
0
 71
3
 72
82
 73
78
 74
0
 42
0.0000001
 43
0.0000001
 44
0.0000000001
 40
0.0
 40
0.0
 40
0.0
 40
0.0
 40
0.0042066704
 40
0.0086074962
 40
0.0132069135
 40
0.0180085258
 40
0.0230152793
 40
0.0282294268
 40
0.0336523646
 40
0.0392848013
 40
0.0511777638
 40
0.0639051627
 40
0.0774564198
 40
0.0918155646
 40
0.1069620718
 40
0.1228714352
 40
0.1395157172
 40
0.1568639525
 40
0.1748824481
 40
0.1935350295
 40
0.2127833283
 40
0.2325869988
 40
0.2529038911
 40
0.2736902129
 40
0.2949007378
 40
0.3164889679
 40
0.3606060865
 40
0.4056507364
 40
0.4512203431
 40
0.4969063066
 40
0.542298703
 40
0.5869909704
 40
0.6089500453
 40
0.6305855494
 40
0.6518497144
 40
0.6726958629
 40
0.6930785804
 40
0.7129538992
 40
0.7322794383
 40
0.751014572
 40
0.7691206481
 40
0.7865612195
 40
0.8033022406
 40
0.8193123279
 40
0.8345631126
 40
0.8490296432
 40
0.8626908148
 40
0.8755299705
 40
0.8875357386
 40
0.8987031077
 40
0.9039734433
 40
0.9090359803
 40
0.9138925993
 40
0.9185460171
 40
0.9229997464
 40
0.927258381
 40
0.9313276641
 40
0.9352146052
 40
0.9389278058
 40
0.94247751
 40
0.9458758658
 40
0.9491371456
 40
0.9522777749
 40
0.9553164865
 40
0.9582741976
 40
0.9611737579
 40
0.9640395775
 40
0.9668969949
 40
0.9697716017
 40
0.9726884911
 40
0.9756716096
 40
0.9787431704
 40
0.9852252847
 40
0.9886742265
 40
0.9922790764
 40
0.9960512687
 40
1.0
 40
1.0
 40
1.0
 40
1.0
 10
12.4334340104
 20
7.2656491272
 30
0.0
 10
12.4340062654
 20
7.2662018831
 30
0.0
 10
12.4351500262
 20
7.2673612956
 30
0.0
 10
12.4368265393
 20
7.269213845
 30
0.0
 10
12.438500962
 20
7.2712172809
 30
0.0
 10
12.4401721782
 20
7.2733703174
 30
0.0
 10
12.4418392883
 20
7.2756716721
 30
0.0
 10
12.4435013107
 20
7.2781200426
 30
0.0
 10
12.4451573306
 20
7.2807139941
 30
0.0
 10
12.4473967585
 20
7.2844324267
 30
0.0
 10
12.4501669269
 20
7.2894414507
 30
0.0
 10
12.4533940142
 20
7.2959015442
 30
0.0
 10
12.4565740028
 20
7.3029005276
 30
0.0
 10
12.459699287
 20
7.3104218381
 30
0.0
 10
12.4627623798
 20
7.3184477911
 30
0.0
 10
12.4657559312
 20
7.3269593593
 30
0.0
 10
12.4686727415
 20
7.3359363278
 30
0.0
 10
12.4715057863
 20
7.3453573343
 30
0.0
 10
12.4742482388
 20
7.3551999265
 30
0.0
 10
12.4768935068
 20
7.3654406129
 30
0.0
 10
12.4794352256
 20
7.3760549358
 30
0.0
 10
12.4818672765
 20
7.3870175364
 30
0.0
 10
12.4841838062
 20
7.3983022122
 30
0.0
 10
12.4863792476
 20
7.4098819696
 30
0.0
 10
12.4884483501
 20
7.4217291293
 30
0.0
 10
12.4910506986
 20
7.4379609861
 30
0.0
 10
12.4939458255
 20
7.4587091546
 30
0.0
 10
12.4968221615
 20
7.4840311199
 30
0.0
 10
12.499097368
 20
7.5097120707
 30
0.0
 10
12.5007496868
 20
7.5355064919
 30
0.0
 10
12.5017632592
 20
7.561167791
 30
0.0
 10
12.5020696304
 20
7.5823593389
 30
0.0
 10
12.5019823878
 20
7.5990575244
 30
0.0
 10
12.5017535395
 20
7.6113227461
 30
0.0
 10
12.501361531
 20
7.6233732379
 30
0.0
 10
12.500807296
 20
7.6351801884
 30
0.0
 10
12.5000921857
 20
7.6467153459
 30
0.0
 10
12.4992179461
 20
7.6579511256
 30
0.0
 10
12.4981867024
 20
7.6688606632
 30
0.0
 10
12.4970009531
 20
7.6794178803
 30
0.0
 10
12.4956635736
 20
7.6895975553
 30
0.0
 10
12.4941778199
 20
7.699375391
 30
0.0
 10
12.4925473004
 20
7.7087280693
 30
0.0
 10
12.4907759658
 20
7.7176333096
 30
0.0
 10
12.4888681099
 20
7.7260699386
 30
0.0
 10
12.4868283636
 20
7.7340179647
 30
0.0
 10
12.4846616568
 20
7.7414586007
 30
0.0
 10
12.4823731827
 20
7.7483744268
 30
0.0
 10
12.4799683976
 20
7.7547491261
 30
0.0
 10
12.4778328865
 20
7.7596895969
 30
0.0
 10
12.4760636789
 20
7.7633515308
 30
0.0
 10
12.4747369338
 20
7.7659001942
 30
0.0
 10
12.4733854451
 20
7.7683028554
 30
0.0
 10
12.4720100078
 20
7.7705581354
 30
0.0
 10
12.4706113619
 20
7.7726646945
 30
0.0
 10
12.4691903035
 20
7.7746213126
 30
0.0
 10
12.4677476271
 20
7.776426862
 30
0.0
 10
12.4662840504
 20
7.7780802403
 30
0.0
 10
12.4648003803
 20
7.779580491
 30
0.0
 10
12.4632973468
 20
7.7809266698
 30
0.0
 10
12.4617756784
 20
7.782117863
 30
0.0
 10
12.460236179
 20
7.7831532743
 30
0.0
 10
12.4586796012
 20
7.7840320202
 30
0.0
 10
12.4571068294
 20
7.7847533174
 30
0.0
 10
12.455518843
 20
7.7853164473
 30
0.0
 10
12.4539167201
 20
7.7857206623
 30
0.0
 10
12.4523017281
 20
7.7859655272
 30
0.0
 10
12.4506752022
 20
7.7860507142
 30
0.0
 10
12.4490385312
 20
7.785976127
 30
0.0
 10
12.4473930875
 20
7.7857420542
 30
0.0
 10
12.4457400482
 20
7.7853487657
 30
0.0
 10
12.4434877094
 20
7.7845997843
 30
0.0
 10
12.4412589541
 20
7.7835336062
 30
0.0
 10
12.4390744429
 20
7.7821966837
 30
0.0
 10
12.4373989189
 20
7.781017199
 30
0.0
 10
12.435721899
 20
7.7796828409
 30
0.0
 10
12.4346289075
 20
7.7787132984
 30
0.0
 10
12.4340821938
 20
7.7782045055
 30
0.0
  0
SPLINE
  5
398
100
AcDbEntity
  8
0
100
AcDbSpline
 62
7
  6
CONTINUOUS
 70
0
 71
3
 72
15
 73
11
 74
0
 42
0.0000001
 43
0.0000001
 44
0.0000000001
 40
0.0
 40
0.0
 40
0.0
 40
0.0
 40
0.1474700081
 40
0.2873156145
 40
0.4199872775
 40
0.5460587125
 40
0.6662192858
 40
0.7812808947
 40
0.8921858124
 40
1.0
 40
1.0
 40
1.0
 40
1.0
 10
12.4334340104
 20
8.1890742502
 30
0.0
 10
12.4317776247
 20
8.1874743043
 30
0.0
 10
12.4284666003
 20
8.1844420977
 30
0.0
 10
12.4233664107
 20
8.1803117234
 30
0.0
 10
12.4182713736
 20
8.176727019
 30
0.0
 10
12.4131851543
 20
8.1736915157
 30
0.0
 10
12.4081110698
 20
8.1712083758
 30
0.0
 10
12.4030524231
 20
8.1692808174
 30
0.0
 10
12.3980140608
 20
8.1679120538
 30
0.0
 10
12.3946340611
 20
8.1673680792
 30
0.0
 10
12.3929594588
 20
8.167193796
 30
0.0
  0
SPLINE
  5
399
100
AcDbEntity
  8
0
100
AcDbSpline
 62
7
  6
CONTINUOUS
 70
0
 71
3
 72
63
 73
59
 74
0
 42
0.0000001
 43
0.0000001
 44
0.0000000001
 40
0.0
 40
0.0
 40
0.0
 40
0.0
 40
0.00814383
 40
0.0169767484
 40
0.0265207354
 40
0.036789459
 40
0.0477880958
 40
0.0595155357
 40
0.0719656535
 40
0.0851278824
 40
0.0989880196
 40
0.1135287455
 40
0.1287298773
 40
0.1445687927
 40
0.1610207079
 40
0.1780587756
 40
0.1956543633
 40
0.2137772383
 40
0.2323956117
 40
0.2514763479
 40
0.2908854812
 40
0.3317179125
 40
0.3736714937
 40
0.4164329886
 40
0.4596812912
 40
0.5030906273
 40
0.546333675
 40
0.5890847111
 40
0.6310227339
 40
0.6718346511
 40
0.7112185258
 40
0.7302849348
 40
0.7488878996
 40
0.7669943144
 40
0.7845724514
 40
0.8015921263
 40
0.8180247474
 40
0.8338435456
 40
0.8490238026
 40
0.863542955
 40
0.8773809225
 40
0.8905204779
 40
0.902947514
 40
0.9146516138
 40
0.9256267683
 40
0.9358720989
 40
0.9453930714
 40
0.9542031177
 40
0.962325578
 40
0.969796515
 40
0.9766682872
 40
0.9830134983
 40
0.986019868
 40
0.9889331402
 40
0.9917695051
 40
0.9945466359
 40
0.9972835059
 40
1.0
 40
1.0
 40
1.0
 40
1.0
 10
12.4044562339
 20
7.2966365193
 30
0.0
 10
12.4054042409
 20
7.2975522238
 30
0.0
 10
12.4072953351
 20
7.2995503105
 30
0.0
 10
12.4100127109
 20
7.3028766551
 30
0.0
 10
12.4127184053
 20
7.306644637
 30
0.0
 10
12.4154071766
 20
7.3108467371
 30
0.0
 10
12.4180740832
 20
7.3154751003
 30
0.0
 10
12.42071389
 20
7.3205207483
 30
0.0
 10
12.4233213714
 20
7.325973835
 30
0.0
 10
12.4258913391
 20
7.3318236151
 30
0.0
 10
12.4284186343
 20
7.3380585035
 30
0.0
 10
12.4308981458
 20
7.3446661091
 30
0.0
 10
12.4333248873
 20
7.3516332465
 30
0.0
 10
12.4356939599
 20
7.3589459889
 30
0.0
 10
12.4380005571
 20
7.3665897034
 30
0.0
 10
12.4402400315
 20
7.3745490661
 30
0.0
 10
12.4424078635
 20
7.3828081109
 30
0.0
 10
12.444499649
 20
7.3913502623
 30
0.0
 10
12.4465111988
 20
7.4001583761
 30
0.0
 10
12.4491087462
 20
7.4123650505
 30
0.0
 10
12.4521170744
 20
7.4281581325
 30
0.0
 10
12.455310171
 20
7.4476774175
 30
0.0
 10
12.4580980491
 20
7.4678065142
 30
0.0
 10
12.4604581336
 20
7.4883837152
 30
0.0
 10
12.4623713337
 20
7.5092438216
 30
0.0
 10
12.4638222048
 20
7.5302192761
 30
0.0
 10
12.4647990895
 20
7.551141598
 30
0.0
 10
12.4652942228
 20
7.5718427203
 30
0.0
 10
12.4653037769
 20
7.5921564295
 30
0.0
 10
12.4648278444
 20
7.6119195112
 30
0.0
 10
12.4640218433
 20
7.627966608
 30
0.0
 10
12.4631289658
 20
7.6404056942
 30
0.0
 10
12.4623487572
 20
7.6493993279
 30
0.0
 10
12.461452418
 20
7.6581400474
 30
0.0
 10
12.460441747
 20
7.6666103123
 30
0.0
 10
12.4593188238
 20
7.6747931161
 30
0.0
 10
12.4580859208
 20
7.6826720399
 30
0.0
 10
12.4567455417
 20
7.6902312869
 30
0.0
 10
12.4553004331
 20
7.6974557224
 30
0.0
 10
12.4537535228
 20
7.7043308978
 30
0.0
 10
12.4521079446
 20
7.7108430911
 30
0.0
 10
12.4503670572
 20
7.7169793503
 30
0.0
 10
12.4485343665
 20
7.7227275123
 30
0.0
 10
12.4466135376
 20
7.7280762463
 30
0.0
 10
12.4446084091
 20
7.7330151075
 30
0.0
 10
12.4425228745
 20
7.7375345492
 30
0.0
 10
12.4403608552
 20
7.7416259555
 30
0.0
 10
12.4381262321
 20
7.7452817
 30
0.0
 10
12.4358227005
 20
7.7484950241
 30
0.0
 10
12.4334533386
 20
7.751260039
 30
0.0
 10
12.4310214236
 20
7.7535709665
 30
0.0
 10
12.4289065877
 20
7.75514139
 30
0.0
 10
12.4271934037
 20
7.7561472014
 30
0.0
 10
12.425919323
 20
7.756770979
 30
0.0
 10
12.4246338225
 20
7.7572771401
 30
0.0
 10
12.4233375072
 20
7.7576652053
 30
0.0
 10
12.4220313272
 20
7.7579348285
 30
0.0
 10
12.4211530878
 20
7.7580356016
 30
0.0
 10
12.4207144894
 20
7.7580660207
 30
0.0
  0
SPLINE
  5
39A
100
AcDbEntity
  8
0
100
AcDbSpline
 62
7
  6
CONTINUOUS
 70
0
 71
3
 72
41
 73
37
 74
0
 42
0.0000001
 43
0.0000001
 44
0.0000000001
 40
0.0
 40
0.0
 40
0.0
 40
0.0
 40
0.0311444983
 40
0.062442467
 40
0.093887251
 40
0.1254695609
 40
0.157177086
 40
0.1889950997
 40
0.2209066479
 40
0.2528929497
 40
0.284933762
 40
0.3170077852
 40
0.3490930781
 40
0.3811674822
 40
0.4132090489
 40
0.445196464
 40
0.4771094635
 40
0.5089292351
 40
0.540638799
 40
0.5722233621
 40
0.6036706378
 40
0.6349711269
 40
0.6661183495
 40
0.6971090237
 40
0.7279431823
 40
0.7586242225
 40
0.7891588828
 40
0.8195571428
 40
0.8498320452
 40
0.86493089
 40
0.8800050502
 40
0.9100832578
 40
0.9400926753
 40
0.9550812784
 40
0.9700610371
 40
1.0
 40
1.0
 40
1.0
 40
1.0
 10
12.0132932308
 20
6.6712317212
 30
0.0
 10
12.0099792832
 20
6.6714615442
 30
0.0
 10
12.0033494152
 20
6.672164897
 30
0.0
 10
11.9934849983
 20
6.673936628
 30
0.0
 10
11.9837262238
 20
6.6764183313
 30
0.0
 10
11.9741258303
 20
6.6795966064
 30
0.0
 10
11.9647347955
 20
6.6834544528
 30
0.0
 10
11.9556032205
 20
6.6879712186
 30
0.0
 10
11.9467797493
 20
6.6931227726
 30
0.0
 10
11.9383113982
 20
6.6988816068
 30
0.0
 10
11.9302432865
 20
6.7052169933
 30
0.0
 10
11.9226184042
 20
6.7120951427
 30
0.0
 10
11.915477384
 20
6.7194793845
 30
0.0
 10
11.908858288
 20
6.7273303602
 30
0.0
 10
11.902796406
 20
6.7356062313
 30
0.0
 10
11.8973240694
 20
6.7442628999
 30
0.0
 10
11.8924704803
 20
6.7532542409
 30
0.0
 10
11.8882615567
 20
6.7625323451
 30
0.0
 10
11.8847197944
 20
6.7720477715
 30
0.0
 10
11.8818641477
 20
6.7817498067
 30
0.0
 10
11.8797099267
 20
6.7915867326
 30
0.0
 10
11.8782687148
 20
6.8015060972
 30
0.0
 10
11.8775483044
 20
6.811454992
 30
0.0
 10
11.8775526503
 20
6.8213803275
 30
0.0
 10
11.8782818497
 20
6.831229124
 30
0.0
 10
11.879732117
 20
6.8409487542
 30
0.0
 10
11.8818958696
 20
6.8504873645
 30
0.0
 10
11.8847614936
 20
6.8597936271
 30
0.0
 10
11.8877250436
 20
6.8673218499
 30
0.0
 10
11.8904294269
 20
6.8731762164
 30
0.0
 10
11.893347999
 20
6.8789032829
 30
0.0
 10
11.8974002583
 20
6.88583048
 30
0.0
 10
11.9019737187
 20
6.8924141595
 30
0.0
 10
11.9059258565
 20
6.8974465687
 30
0.0
 10
11.9100665371
 20
6.9023147135
 30
0.0
 10
11.9133839333
 20
6.9057804342
 30
0.0
 10
11.9156807382
 20
6.9079989926
 30
0.0
  0
SPLINE
  5
39B
100
AcDbEntity
  8
0
100
AcDbSpline
 62
7
  6
CONTINUOUS
 70
0
 71
3
 72
29
 73
25
 74
0
 42
0.0000001
 43
0.0000001
 44
0.0000000001
 40
0.0
 40
0.0
 40
0.0
 40
0.0
 40
0.075584778
 40
0.1466145866
 40
0.2134285235
 40
0.2764669505
 40
0.3362692172
 40
0.3651662051
 40
0.3935049689
 40
0.4213821613
 40
0.4488997384
 40
0.4761641868
 40
0.5032852123
 40
0.5303743926
 40
0.557543775
 40
0.5849042952
 40
0.612564409
 40
0.6406288341
 40
0.669197271
 40
0.7281930258
 40
0.7902533667
 40
0.8559468649
 40
0.9257384182
 40
1.0
 40
1.0
 40
1.0
 40
1.0
 10
12.4334340104
 20
8.3532816504
 30
0.0
 10
12.4319748653
 20
8.3518722244
 30
0.0
 10
12.4290585585
 20
8.3492249099
 30
0.0
 10
12.4245452926
 20
8.3456883276
 30
0.0
 10
12.4200372452
 20
8.3427180489
 30
0.0
 10
12.4155389922
 20
8.3403187232
 30
0.0
 10
12.4117580657
 20
8.3387810831
 30
0.0
 10
12.408755038
 20
8.3378540229
 30
0.0
 10
12.4065345746
 20
8.3373111083
 30
0.0
 10
12.4043212172
 20
8.3369130262
 30
0.0
 10
12.4021155754
 20
8.3366599841
 30
0.0
 10
12.3999183686
 20
8.3365521043
 30
0.0
 10
12.3977303049
 20
8.3365894314
 30
0.0
 10
12.3955521062
 20
8.3367720095
 30
0.0
 10
12.3933844987
 20
8.3370997816
 30
0.0
 10
12.3912281795
 20
8.3375725712
 30
0.0
 10
12.3890838495
 20
8.3381901852
 30
0.0
 10
12.3869521258
 20
8.3389524469
 30
0.0
 10
12.3840973947
 20
8.340173953
 30
0.0
 10
12.3805519266
 20
8.3420798781
 30
0.0
 10
12.3764087622
 20
8.344915423
 30
0.0
 10
12.3723338589
 20
8.3483191105
 30
0.0
 10
12.3683309817
 20
8.3522857019
 30
0.0
 10
12.3657940337
 20
8.3552083187
 30
0.0
 10
12.3645364055
 20
8.3567546443
 30
0.0
  0
SPLINE
  5
39C
100
AcDbEntity
  8
0
100
AcDbSpline
 62
7
  6
CONTINUOUS
 70
0
 71
3
 72
51
 73
47
 74
0
 42
0.0000001
 43
0.0000001
 44
0.0000000001
 40
0.0
 40
0.0
 40
0.0
 40
0.0
 40
0.0481980747
 40
0.0958298526
 40
0.1428199449
 40
0.1890979835
 40
0.2345930892
 40
0.2792367333
 40
0.3229621329
 40
0.3657045403
 40
0.4074014622
 40
0.4479928299
 40
0.4874212467
 40
0.5256322393
 40
0.5625745011
 40
0.5982001867
 40
0.6324652508
 40
0.6653298673
 40
0.6967589097
 40
0.7267224968
 40
0.7551966901
 40
0.7688701393
 40
0.7821654912
 40
0.7950818118
 40
0.8076188304
 40
0.8197768884
 40
0.8315569804
 40
0.8429609602
 40
0.8539914242
 40
0.8646519776
 40
0.8749472487
 40
0.8848829696
 40
0.8944662496
 40
0.9037055338
 40
0.9126109204
 40
0.9211942686
 40
0.9294693404
 40
0.937452123
 40
0.9451608562
 40
0.9598349789
 40
0.9668568053
 40
0.9737036628
 40
0.9804068766
 40
0.9870000912
 40
0.9935188408
 40
1.0
 40
1.0
 40
1.0
 40
1.0
 10
10.6870810305
 20
10.8981436798
 30
0.0
 10
10.6956878373
 20
10.8975467957
 30
0.0
 10
10.712793832
 20
10.8962639606
 30
0.0
 10
10.7382638912
 20
10.8940581799
 30
0.0
 10
10.7633640961
 20
10.8915848989
 30
0.0
 10
10.788052211
 20
10.8888483447
 30
0.0
 10
10.8122871525
 20
10.8858530634
 30
0.0
 10
10.8360283282
 20
10.8826041045
 30
0.0
 10
10.8592360764
 20
10.8791069277
 30
0.0
 10
10.8818716135
 20
10.8753674121
 30
0.0
 10
10.903897118
 20
10.8713918452
 30
0.0
 10
10.9252757975
 20
10.8671869074
 30
0.0
 10
10.9459719539
 20
10.8627596673
 30
0.0
 10
10.9659510503
 20
10.8581175757
 30
0.0
 10
10.9851797674
 20
10.8532684406
 30
0.0
 10
11.0036260575
 20
10.8482204164
 30
0.0
 10
11.021259211
 20
10.8429819849
 30
0.0
 10
11.0380498995
 20
10.8375619456
 30
0.0
 10
11.0539703167
 20
10.8319693947
 30
0.0
 10
11.0689939463
 20
10.8262137074
 30
0.0
 10
11.0809013756
 20
10.8212242859
 30
0.0
 10
11.0899516178
 20
10.8171506631
 30
0.0
 10
11.0964079022
 20
10.8141019993
 30
0.0
 10
11.1026220037
 20
10.8110198264
 30
0.0
 10
11.1085913586
 20
10.8079054233
 30
0.0
 10
11.1143134935
 20
10.8047600954
 30
0.0
 10
11.1197860224
 20
10.8015851057
 30
0.0
 10
11.1250067041
 20
10.798381814
 30
0.0
 10
11.1299733615
 20
10.7951514908
 30
0.0
 10
11.134683954
 20
10.7918954766
 30
0.0
 10
11.1391365491
 20
10.788615107
 30
0.0
 10
11.1433292836
 20
10.7853116624
 30
0.0
 10
11.1472604644
 20
10.7819865196
 30
0.0
 10
11.1509284368
 20
10.7786409486
 30
0.0
 10
11.1543316819
 20
10.7752762868
 30
0.0
 10
11.1574688058
 20
10.771893828
 30
0.0
 10
11.1603383684
 20
10.7684949251
 30
0.0
 10
11.1629393686
 20
10.7650805708
 30
0.0
 10
11.1659966916
 20
10.7605844357
 30
0.0
 10
11.1685833608
 20
10.7559820719
 30
0.0
 10
11.170632708
 20
10.7512983359
 30
0.0
 10
11.1718736038
 20
10.7478279522
 30
0.0
 10
11.1728396353
 20
10.7443507505
 30
0.0
 10
11.1735302082
 20
10.7408681273
 30
0.0
 10
11.1739448132
 20
10.7373821225
 30
0.0
 10
11.1740370448
 20
10.7350540931
 30
0.0
 10
11.1740370469
 20
10.7338939625
 30
0.0
  0
SPLINE
  5
39D
100
AcDbEntity
  8
0
100
AcDbSpline
 62
7
  6
CONTINUOUS
 70
0
 71
3
 72
19
 73
15
 74
0
 42
0.0000001
 43
0.0000001
 44
0.0000000001
 40
0.0
 40
0.0
 40
0.0
 40
0.0
 40
0.1504602541
 40
0.2916987487
 40
0.4244197399
 40
0.4878838165
 40
0.5495801819
 40
0.6682271511
 40
0.7255606398
 40
0.7817998923
 40
0.8371467013
 40
0.8918136246
 40
0.9460221895
 40
1.0
 40
1.0
 40
1.0
 40
1.0
 10
12.3899673457
 20
8.3997627386
 30
0.0
 10
12.3886103456
 20
8.3984519772
 30
0.0
 10
12.3858981959
 20
8.3959926091
 30
0.0
 10
12.3816987047
 20
8.3927152026
 30
0.0
 10
12.3781515578
 20
8.3903972463
 30
0.0
 10
12.3753229488
 20
8.3888275862
 30
0.0
 10
12.3725777821
 20
8.3874800149
 30
0.0
 10
12.3698004796
 20
8.3863784829
 30
0.0
 10
12.3670075478
 20
8.3855495753
 30
0.0
 10
12.3649425279
 20
8.3850717996
 30
0.0
 10
12.3628843865
 20
8.3847312487
 30
0.0
 10
12.3608336619
 20
8.3845281073
 30
0.0
 10
12.3587911835
 20
8.3844624745
 30
0.0
 10
12.3574342199
 20
8.3845104663
 30
0.0
 10
12.3567589942
 20
8.3845572894
 30
0.0
  0
SPLINE
  5
39E
100
AcDbEntity
  8
0
100
AcDbSpline
 62
7
  6
CONTINUOUS
 70
0
 71
3
 72
21
 73
17
 74
0
 42
0.0000001
 43
0.0000001
 44
0.0000000001
 40
0.0
 40
0.0
 40
0.0
 40
0.0
 40
0.061653237
 40
0.123329498
 40
0.1850515502
 40
0.2468416698
 40
0.3087213548
 40
0.370711108
 40
0.4328302426
 40
0.495096636
 40
0.5575265765
 40
0.6201345494
 40
0.682933126
 40
0.7459332432
 40
0.8725261314
 40
1.0
 40
1.0
 40
1.0
 40
1.0
 10
9.6960910145
 20
6.8733575919
 30
0.0
 10
9.6945143077
 20
6.8718345997
 30
0.0
 10
9.6912777206
 20
6.8688722264
 30
0.0
 10
9.6861900158
 20
6.8646952101
 30
0.0
 10
9.6808813997
 20
6.8607942648
 30
0.0
 10
9.6753654118
 20
6.8571794071
 30
0.0
 10
9.6696558875
 20
6.8538597254
 30
0.0
 10
9.6637672585
 20
6.8508435389
 30
0.0
 10
9.6577143512
 20
6.8481384415
 30
0.0
 10
9.6515124059
 20
6.845751276
 30
0.0
 10
9.6451770566
 20
6.8436879907
 30
0.0
 10
9.6387243078
 20
6.8419537739
 30
0.0
 10
9.6321702113
 20
6.8405530087
 30
0.0
 10
9.6233058583
 20
6.8391324427
 30
0.0
 10
9.6120495367
 20
6.8382095067
 30
0.0
 10
9.6030001326
 20
6.8383861153
 30
0.0
 10
9.598478522
 20
6.83869969
 30
0.0
  0
SPLINE
  5
39F
100
AcDbEntity
  8
0
100
AcDbSpline
 62
7
  6
CONTINUOUS
 70
0
 71
3
 72
18
 73
14
 74
0
 42
0.0000001
 43
0.0000001
 44
0.0000000001
 40
0.0
 40
0.0
 40
0.0
 40
0.0
 40
0.1504683897
 40
0.2917144302
 40
0.4244424337
 40
0.4879098403
 40
0.5496094316
 40
0.6682625858
 40
0.7817882724
 40
0.8371379912
 40
0.8918078094
 40
0.9460192717
 40
1.0
 40
1.0
 40
1.0
 40
1.0
 10
12.4488888253
 20
7.0955403025
 30
0.0
 10
12.4476448963
 20
7.0943387593
 30
0.0
 10
12.4451587326
 20
7.0920843174
 30
0.0
 10
12.4413091676
 20
7.0890800059
 30
0.0
 10
12.43805756
 20
7.0869551971
 30
0.0
 10
12.4354646853
 20
7.0855163457
 30
0.0
 10
12.432948092
 20
7.0842810435
 30
0.0
 10
12.4298015522
 20
7.0830328169
 30
0.0
 10
12.4265990413
 20
7.0821810243
 30
0.0
 10
12.4240625582
 20
7.0817614194
 30
0.0
 10
12.4221826723
 20
7.0815752015
 30
0.0
 10
12.4203103923
 20
7.0815150617
 30
0.0
 10
12.4190664953
 20
7.0815590667
 30
0.0
 10
12.4184475327
 20
7.0816019952
 30
0.0
  0
SPLINE
  5
3A0
100
AcDbEntity
  8
0
100
AcDbSpline
 62
7
  6
CONTINUOUS
 70
0
 71
3
 72
21
 73
17
 74
0
 42
0.0000001
 43
0.0000001
 44
0.0000000001
 40
0.0
 40
0.0
 40
0.0
 40
0.0
 40
0.061653237
 40
0.123329498
 40
0.1850515502
 40
0.2468416698
 40
0.3087213548
 40
0.370711108
 40
0.4328302426
 40
0.495096636
 40
0.5575265765
 40
0.6201345494
 40
0.682933126
 40
0.7459332432
 40
0.8725261314
 40
1.0
 40
1.0
 40
1.0
 40
1.0
 10
12.1109057233
 20
6.7058896231
 30
0.0
 10
12.1093290165
 20
6.7043666308
 30
0.0
 10
12.1060924295
 20
6.7014042576
 30
0.0
 10
12.1010047246
 20
6.6972272412
 30
0.0
 10
12.0956961085
 20
6.6933262959
 30
0.0
 10
12.0901801206
 20
6.6897114382
 30
0.0
 10
12.0844705964
 20
6.6863917565
 30
0.0
 10
12.0785819673
 20
6.68337557
 30
0.0
 10
12.07252906
 20
6.6806704727
 30
0.0
 10
12.0663271147
 20
6.6782833072
 30
0.0
 10
12.0599917654
 20
6.6762200219
 30
0.0
 10
12.0535390166
 20
6.674485805
 30
0.0
 10
12.0469849201
 20
6.6730850398
 30
0.0
 10
12.0381205671
 20
6.6716644738
 30
0.0
 10
12.0268642455
 20
6.6707415378
 30
0.0
 10
12.0178148414
 20
6.6709181464
 30
0.0
 10
12.0132932308
 20
6.6712317212
 30
0.0
  0
SPLINE
  5
3A1
100
AcDbEntity
  8
0
100
AcDbSpline
 62
7
  6
CONTINUOUS
 70
0
 71
3
 72
93
 73
89
 74
0
 42
0.0000001
 43
0.0000001
 44
0.0000000001
 40
0.0
 40
0.0
 40
0.0
 40
0.0
 40
0.0027164122
 40
0.0054531986
 40
0.0082302464
 40
0.0110665143
 40
0.0139796987
 40
0.0169859749
 40
0.0200999116
 40
0.0233343924
 40
0.0267007144
 40
0.0302086301
 40
0.0338665055
 40
0.0376814345
 40
0.0416593638
 40
0.0458052537
 40
0.0501231341
 40
0.0546162866
 40
0.0592872492
 40
0.0641379798
 40
0.0691698571
 40
0.0743837847
 40
0.0797802281
 40
0.0853592419
 40
0.0911205549
 40
0.097063532
 40
0.1031872889
 40
0.1094906267
 40
0.1159721353
 40
0.1226301497
 40
0.136467702
 40
0.1509863985
 40
0.166166177
 40
0.1819844989
 40
0.1984166092
 40
0.2154357535
 40
0.2330133648
 40
0.2511192265
 40
0.2697216198
 40
0.2887874599
 40
0.3082824199
 40
0.3281710492
 40
0.3484168852
 40
0.3689825618
 40
0.3898299142
 40
0.4109200821
 40
0.4322136103
 40
0.45367055
 40
0.4752505584
 40
0.496912997
 40
0.5186170297
 40
0.5403217213
 40
0.5619861345
 40
0.5835694282
 40
0.6050309555
 40
0.6263303623
 40
0.6474276864
 40
0.6682834561
 40
0.6888587905
 40
0.7091155008
 40
0.729016193
 40
0.7485243728
 40
0.7676045542
 40
0.7862223725
 40
0.8043447018
 40
0.8219397795
 40
0.8389773394
 40
0.8554287585
 40
0.8712672205
 40
0.8864679016
 40
0.901008187
 40
0.914867929
 40
0.921537231
 40
0.9280301459
 40
0.9343449921
 40
0.9404803324
 40
0.9464349771
 40
0.9522079882
 40
0.9577987496
 40
0.9632069274
 40
0.9684325931
 40
0.9734761642
 40
0.9783385117
 40
0.9830209603
 40
0.9875254509
 40
0.9918545996
 40
0.9960115539
 40
1.0
 40
1.0
 40
1.0
 40
1.0
 10
12.4969714811
 20
9.5526556723
 30
0.0
 10
12.4982686134
 20
9.5525657199
 30
0.0
 10
12.5008659669
 20
9.5522677554
 30
0.0
 10
12.5047289312
 20
9.5514703601
 30
0.0
 10
12.5085626935
 20
9.550322654
 30
0.0
 10
12.5123645463
 20
9.5488257955
 30
0.0
 10
12.5161324814
 20
9.5469810299
 30
0.0
 10
12.5198646269
 20
9.5447899062
 30
0.0
 10
12.523559194
 20
9.5422538775
 30
0.0
 10
12.5272146097
 20
9.5393746457
 30
0.0
 10
12.5308292348
 20
9.5361538198
 30
0.0
 10
12.5344015533
 20
9.5325932068
 30
0.0
 10
12.5379299858
 20
9.5286946423
 30
0.0
 10
12.5414129615
 20
9.5244601036
 30
0.0
 10
12.5448489327
 20
9.5198917185
 30
0.0
 10
12.5482362618
 20
9.5149917153
 30
0.0
 10
12.5515734242
 20
9.5097625417
 30
0.0
 10
12.5548587572
 20
9.5042067357
 30
0.0
 10
12.5580907444
 20
9.4983270654
 30
0.0
 10
12.561267756
 20
9.49212641
 30
0.0
 10
12.5643882684
 20
9.4856078514
 30
0.0
 10
12.5674507263
 20
9.4787746153
 30
0.0
 10
12.5704536001
 20
9.4716300951
 30
0.0
 10
12.5733954235
 20
9.4641778529
 30
0.0
 10
12.5762746798
 20
9.4564215936
 30
0.0
 10
12.5790899823
 20
9.4483652
 30
0.0
 10
12.5818398616
 20
9.4400126871
 30
0.0
 10
12.5845229825
 20
9.4313682446
 30
0.0
 10
12.5871379776
 20
9.4224361834
 30
0.0
 10
12.5905762525
 20
9.4099889671
 30
0.0
 10
12.5946827919
 20
9.3937373516
 30
0.0
 10
12.5992577271
 20
9.3734044979
 30
0.0
 10
12.6035315784
 20
9.352038605
 30
0.0
 10
12.6074956712
 20
9.3296825522
 30
0.0
 10
12.6111419327
 20
9.3063810648
 30
0.0
 10
12.6144629422
 20
9.282180869
 30
0.0
 10
12.6174519381
 20
9.2571305157
 30
0.0
 10
12.6201028361
 20
9.2312802972
 30
0.0
 10
12.6224102406
 20
9.2046821342
 30
0.0
 10
12.6243694533
 20
9.1773894681
 30
0.0
 10
12.6259764835
 20
9.1494571489
 30
0.0
 10
12.6272280548
 20
9.1209413232
 30
0.0
 10
12.6281216114
 20
9.0918993186
 30
0.0
 10
12.6286553226
 20
9.0623895278
 30
0.0
 10
12.6288280863
 20
9.0324712896
 30
0.0
 10
12.6286395306
 20
9.0022047689
 30
0.0
 10
12.6280900161
 20
8.9716508348
 30
0.0
 10
12.627180633
 20
8.9408709372
 30
0.0
 10
12.6259131991
 20
8.9099269818
 30
0.0
 10
12.6242902554
 20
8.8788812055
 30
0.0
 10
12.6223150613
 20
8.8477960503
 30
0.0
 10
12.6199915874
 20
8.8167340378
 30
0.0
 10
12.6173245083
 20
8.7857576434
 30
0.0
 10
12.6143191924
 20
8.7549291695
 30
0.0
 10
12.6109816918
 20
8.7243106202
 30
0.0
 10
12.6073187313
 20
8.693963575
 30
0.0
 10
12.6033376935
 20
8.6639490649
 30
0.0
 10
12.5990466038
 20
8.6343274487
 30
0.0
 10
12.5944541151
 20
8.6051582913
 30
0.0
 10
12.5895694899
 20
8.576500243
 30
0.0
 10
12.5844025823
 20
8.5484109207
 30
0.0
 10
12.5789638186
 20
8.520946791
 30
0.0
 10
12.5732641761
 20
8.4941630543
 30
0.0
 10
12.5673151622
 20
8.4681135311
 30
0.0
 10
12.561128792
 20
8.4428505507
 30
0.0
 10
12.5547175626
 20
8.4184248428
 30
0.0
 10
12.5480944282
 20
8.3948854339
 30
0.0
 10
12.5412727731
 20
8.3722795369
 30
0.0
 10
12.5342663841
 20
8.350652471
 30
0.0
 10
12.527089419
 20
8.330047487
 30
0.0
 10
12.5197563766
 20
8.3105059274
 30
0.0
 10
12.5134496413
 20
8.2949467589
 30
0.0
 10
12.508328934
 20
8.2830686886
 30
0.0
 10
12.5045078724
 20
8.274564315
 30
0.0
 10
12.5006589245
 20
8.2663539384
 30
0.0
 10
12.4967840045
 20
8.2584416602
 30
0.0
 10
12.4928850757
 20
8.2508314351
 30
0.0
 10
12.4889640606
 20
8.2435270766
 30
0.0
 10
12.4850229698
 20
8.2365322145
 30
0.0
 10
12.4810637148
 20
8.2298503551
 30
0.0
 10
12.4770883233
 20
8.2234847974
 30
0.0
 10
12.4730987144
 20
8.217438731
 30
0.0
 10
12.4690969181
 20
8.2117151467
 30
0.0
 10
12.465084885
 20
8.2063168808
 30
0.0
 10
12.4610645459
 20
8.201246577
 30
0.0
 10
12.4570377966
 20
8.1965066793
 30
0.0
 10
12.453006744
 20
8.1920997574
 30
0.0
 10
12.4502619712
 20
8.1893288124
 30
0.0
 10
12.4488888253
 20
8.1880024551
 30
0.0
  0
SPLINE
  5
3A2
100
AcDbEntity
  8
0
100
AcDbSpline
 62
7
  6
CONTINUOUS
 70
0
 71
3
 72
41
 73
37
 74
0
 42
0.0000001
 43
0.0000001
 44
0.0000000001
 40
0.0
 40
0.0
 40
0.0
 40
0.0
 40
0.0311444983
 40
0.062442467
 40
0.093887251
 40
0.1254695609
 40
0.157177086
 40
0.1889950997
 40
0.2209066479
 40
0.2528929497
 40
0.284933762
 40
0.3170077852
 40
0.3490930781
 40
0.3811674822
 40
0.4132090489
 40
0.445196464
 40
0.4771094635
 40
0.5089292351
 40
0.540638799
 40
0.5722233621
 40
0.6036706378
 40
0.6349711269
 40
0.6661183495
 40
0.6971090237
 40
0.7279431823
 40
0.7586242225
 40
0.7891588828
 40
0.8195571428
 40
0.8498320452
 40
0.86493089
 40
0.8800050502
 40
0.9100832578
 40
0.9400926753
 40
0.9550812784
 40
0.9700610371
 40
1.0
 40
1.0
 40
1.0
 40
1.0
 10
9.598478522
 20
6.83869969
 30
0.0
 10
9.5951645744
 20
6.8389295131
 30
0.0
 10
9.5885347064
 20
6.8396328659
 30
0.0
 10
9.5786702895
 20
6.8414045969
 30
0.0
 10
9.568911515
 20
6.8438863002
 30
0.0
 10
9.5593111214
 20
6.8470645752
 30
0.0
 10
9.5499200867
 20
6.8509224216
 30
0.0
 10
9.5407885117
 20
6.8554391874
 30
0.0
 10
9.5319650405
 20
6.8605907414
 30
0.0
 10
9.5234966894
 20
6.8663495757
 30
0.0
 10
9.5154285777
 20
6.8726849622
 30
0.0
 10
9.5078036953
 20
6.8795631116
 30
0.0
 10
9.5006626752
 20
6.8869473533
 30
0.0
 10
9.4940435792
 20
6.894798329
 30
0.0
 10
9.4879816972
 20
6.9030742002
 30
0.0
 10
9.4825093606
 20
6.9117308687
 30
0.0
 10
9.4776557715
 20
6.9207222097
 30
0.0
 10
9.4734468479
 20
6.930000314
 30
0.0
 10
9.4699050856
 20
6.9395157403
 30
0.0
 10
9.4670494389
 20
6.9492177756
 30
0.0
 10
9.4648952179
 20
6.9590547015
 30
0.0
 10
9.463454006
 20
6.9689740661
 30
0.0
 10
9.4627335956
 20
6.9789229609
 30
0.0
 10
9.4627379414
 20
6.9888482963
 30
0.0
 10
9.4634671409
 20
6.9986970929
 30
0.0
 10
9.4649174082
 20
7.0084167231
 30
0.0
 10
9.4670811608
 20
7.0179553333
 30
0.0
 10
9.4699467848
 20
7.027261596
 30
0.0
 10
9.4729103348
 20
7.0347898188
 30
0.0
 10
9.4756147181
 20
7.0406441853
 30
0.0
 10
9.4785332902
 20
7.0463712518
 30
0.0
 10
9.4825855495
 20
7.0532984488
 30
0.0
 10
9.4871590099
 20
7.0598821284
 30
0.0
 10
9.4911111477
 20
7.0649145375
 30
0.0
 10
9.4952518283
 20
7.0697826823
 30
0.0
 10
9.4985692245
 20
7.073248403
 30
0.0
 10
9.5008660294
 20
7.0754669614
 30
0.0
  0
SPLINE
  5
3A3
100
AcDbEntity
  8
0
100
AcDbSpline
 62
7
  6
CONTINUOUS
 70
0
 71
3
 72
95
 73
91
 74
0
 42
0.0000001
 43
0.0000001
 44
0.0000000001
 40
0.0
 40
0.0
 40
0.0
 40
0.0
 40
0.0042067637
 40
0.0086075354
 40
0.0132067974
 40
0.0180082889
 40
0.0230150354
 40
0.0282291778
 40
0.0336520634
 40
0.0392844556
 40
0.0451265367
 40
0.0511780526
 40
0.057438232
 40
0.0639059556
 40
0.0705796937
 40
0.0774576093
 40
0.0918166331
 40
0.1069629964
 40
0.1228722166
 40
0.1395163631
 40
0.1568644542
 40
0.1748827838
 40
0.1935351975
 40
0.2127833322
 40
0.2325868303
 40
0.2529035348
 40
0.2736896701
 40
0.2949000124
 40
0.3164880529
 40
0.3384061573
 40
0.3606057208
 40
0.3830373185
 40
0.4056508557
 40
0.4283957148
 40
0.451220903
 40
0.4740751981
 40
0.4969072945
 40
0.5196659502
 40
0.5423001327
 40
0.5647591655
 40
0.5869928748
 40
0.608951737
 40
0.6305870282
 40
0.6518509746
 40
0.6726969069
 40
0.693079418
 40
0.7129545276
 40
0.7322798502
 40
0.7510147751
 40
0.7691206589
 40
0.7865610363
 40
0.8033018566
 40
0.8193117539
 40
0.8345623651
 40
0.849028716
 40
0.8559612685
 40
0.8626902004
 40
0.869213577
 40
0.8755297864
 40
0.8816376004
 40
0.8875361406
 40
0.8932250203
 40
0.898704273
 40
0.9039745323
 40
0.909036988
 40
0.9138935488
 40
0.9185468861
 40
0.9230005507
 40
0.9272591311
 40
0.9313283318
 40
0.9352152324
 40
0.9389283651
 40
0.9424780144
 40
0.9458763257
 40
0.9491375491
 40
0.9522781383
 40
0.955316809
 40
0.9582744799
 40
0.9611740072
 40
0.9640397971
 40
0.9668971915
 40
0.9697717765
 40
0.9726886469
 40
0.9756717331
 40
0.9787432714
 40
0.9852254382
 40
0.9886743534
 40
0.9922790809
 40
0.99605119
 40
1.0
 40
1.0
 40
1.0
 40
1.0
 10
12.4334340104
 20
8.3532816504
 30
0.0
 10
12.4345677603
 20
8.3543767687
 30
0.0
 10
12.4368337446
 20
8.3566737436
 30
0.0
 10
12.4401551511
 20
8.3603438905
 30
0.0
 10
12.4434723232
 20
8.3643129384
 30
0.0
 10
12.4467832113
 20
8.3685783355
 30
0.0
 10
12.4500859631
 20
8.3731376437
 30
0.0
 10
12.4533786927
 20
8.3779882099
 30
0.0
 10
12.4566594897
 20
8.3831271804
 30
0.0
 10
12.4599263673
 20
8.3885515328
 30
0.0
 10
12.4631774506
 20
8.394258037
 30
0.0
 10
12.4664107527
 20
8.4002433407
 30
0.0
 10
12.4696244123
 20
8.4065038751
 30
0.0
 10
12.472816454
 20
8.413035937
 30
0.0
 10
12.4759850351
 20
8.4198356361
 30
0.0
 10
12.4802370638
 20
8.4293909154
 30
0.0
 10
12.4854690501
 20
8.4419825365
 30
0.0
 10
12.4915374546
 20
8.4578829259
 30
0.0
 10
12.4974680835
 20
8.4747455277
 30
0.0
 10
12.5032466693
 20
8.4925301205
 30
0.0
 10
12.5088593037
 20
8.5111944226
 30
0.0
 10
12.5142924754
 20
8.5306939304
 30
0.0
 10
12.5195331063
 20
8.5509821179
 30
0.0
 10
12.5245685851
 20
8.5720105346
 30
0.0
 10
12.5293867975
 20
8.5937289351
 30
0.0
 10
12.5339761557
 20
8.6160854022
 30
0.0
 10
12.5383256258
 20
8.639026476
 30
0.0
 10
12.542424754
 20
8.6624972841
 30
0.0
 10
12.546263693
 20
8.6864416756
 30
0.0
 10
12.549833223
 20
8.7108023579
 30
0.0
 10
12.5531247742
 20
8.7355210366
 30
0.0
 10
12.5561304467
 20
8.7605385557
 30
0.0
 10
12.5588430292
 20
8.7857950404
 30
0.0
 10
12.5612560159
 20
8.8112300408
 30
0.0
 10
12.5633636223
 20
8.8367826777
 30
0.0
 10
12.5651607985
 20
8.8623917886
 30
0.0
 10
12.566643242
 20
8.887996075
 30
0.0
 10
12.5678074091
 20
8.9135342496
 30
0.0
 10
12.5686505218
 20
8.9389451848
 30
0.0
 10
12.5691705748
 20
8.964168059
 30
0.0
 10
12.5693663407
 20
8.9891425032
 30
0.0
 10
12.5692373726
 20
9.0138087457
 30
0.0
 10
12.5687840064
 20
9.0381077564
 30
0.0
 10
12.5680073599
 20
9.0619813892
 30
0.0
 10
12.5669093307
 20
9.0853725223
 30
0.0
 10
12.565492593
 20
9.1082251982
 30
0.0
 10
12.5637605925
 20
9.1304847598
 30
0.0
 10
12.5617175378
 20
9.1520979844
 30
0.0
 10
12.5593683909
 20
9.1730132147
 30
0.0
 10
12.5567188555
 20
9.1931804856
 30
0.0
 10
12.5537753653
 20
9.2125516567
 30
0.0
 10
12.5505450644
 20
9.2310805149
 30
0.0
 10
12.5470358001
 20
9.2487229743
 30
0.0
 10
12.5432560613
 20
9.2654369286
 30
0.0
 10
12.5398418875
 20
9.2787408653
 30
0.0
 10
12.536972711
 20
9.2888828258
 30
0.0
 10
12.5347895209
 20
9.2961246148
 30
0.0
 10
12.5325457823
 20
9.3031057004
 30
0.0
 10
12.5302427942
 20
9.3098219349
 30
0.0
 10
12.527881976
 20
9.3162693317
 30
0.0
 10
12.5254646799
 20
9.3224440542
 30
0.0
 10
12.5229924065
 20
9.3283424591
 30
0.0
 10
12.5204665535
 20
9.3339610427
 30
0.0
 10
12.5178886693
 20
9.3392965081
 30
0.0
 10
12.5152602169
 20
9.3443457036
 30
0.0
 10
12.5125827476
 20
9.3491056752
 30
0.0
 10
12.5098577974
 20
9.3535736406
 30
0.0
 10
12.5070868847
 20
9.3577469786
 30
0.0
 10
12.5042715998
 20
9.3616232826
 30
0.0
 10
12.5014134092
 20
9.3652002442
 30
0.0
 10
12.4985139105
 20
9.3684758063
 30
0.0
 10
12.4955745263
 20
9.3714479417
 30
0.0
 10
12.4925968108
 20
9.3741148582
 30
0.0
 10
12.4895821948
 20
9.3764747553
 30
0.0
 10
12.4865322107
 20
9.3785259684
 30
0.0
 10
12.4834484313
 20
9.3802668614
 30
0.0
 10
12.4803325522
 20
9.3816958051
 30
0.0
 10
12.4771865274
 20
9.3828113772
 30
0.0
 10
12.474012509
 20
9.3836121525
 30
0.0
 10
12.4708129875
 20
9.3840972353
 30
0.0
 10
12.467590615
 20
9.3842658991
 30
0.0
 10
12.4643481425
 20
9.3841181504
 30
0.0
 10
12.4610883068
 20
9.3836543198
 30
0.0
 10
12.4578134143
 20
9.3828751534
 30
0.0
 10
12.4533511978
 20
9.3813912688
 30
0.0
 10
12.4489357299
 20
9.3792789228
 30
0.0
 10
12.4446079468
 20
9.3766302357
 30
0.0
 10
12.4412885541
 20
9.3742935393
 30
0.0
 10
12.4379661681
 20
9.3716499875
 30
0.0
 10
12.4358008132
 20
9.3697291456
 30
0.0
 10
12.4347176781
 20
9.3687211182
 30
0.0
  0
SPLINE
  5
3A4
100
AcDbEntity
  8
0
100
AcDbSpline
 62
7
  6
CONTINUOUS
 70
0
 71
3
 72
18
 73
14
 74
0
 42
0.0000001
 43
0.0000001
 44
0.0000000001
 40
0.0
 40
0.0
 40
0.0
 40
0.0
 40
0.1504678859
 40
0.2917100145
 40
0.4244359174
 40
0.549562529
 40
0.668213991
 40
0.7255497453
 40
0.7817912733
 40
0.8371402265
 40
0.8918093735
 40
0.9460201098
 40
1.0
 40
1.0
 40
1.0
 40
1.0
 10
12.4488888253
 20
8.1880024551
 30
0.0
 10
12.4469239901
 20
8.18610457
 30
0.0
 10
12.4429971183
 20
8.1825436537
 30
0.0
 10
12.4369163833
 20
8.1777981319
 30
0.0
 10
12.4308427947
 20
8.1738292193
 30
0.0
 10
12.4247826368
 20
8.1706434195
 30
0.0
 10
12.419689134
 20
8.1686232788
 30
0.0
 10
12.4156451246
 20
8.1674230227
 30
0.0
 10
12.412655191
 20
8.1667312193
 30
0.0
 10
12.4096751768
 20
8.1662381582
 30
0.0
 10
12.4067059184
 20
8.1659439985
 30
0.0
 10
12.4037485942
 20
8.1658489168
 30
0.0
 10
12.4017838341
 20
8.1659184179
 30
0.0
 10
12.4008061694
 20
8.1659862161
 30
0.0
  0
SPLINE
  5
3A5
100
AcDbEntity
  8
0
100
AcDbSpline
 62
7
  6
CONTINUOUS
 70
0
 71
3
 72
87
 73
83
 74
0
 42
0.0000001
 43
0.0000001
 44
0.0000000001
 40
0.0
 40
0.0
 40
0.0
 40
0.0
 40
0.0029232861
 40
0.0059341477
 40
0.0090500968
 40
0.0122867049
 40
0.0156576223
 40
0.0191746811
 40
0.02284796
 40
0.0266860349
 40
0.0306960434
 40
0.0348839118
 40
0.0392544855
 40
0.0438116134
 40
0.0485583617
 40
0.0534969926
 40
0.0586291593
 40
0.0639559207
 40
0.0694777988
 40
0.0751949045
 40
0.0811068676
 40
0.0872130026
 40
0.1000027298
 40
0.1135526721
 40
0.1278465776
 40
0.1428645525
 40
0.1585835306
 40
0.1749776412
 40
0.1920185085
 40
0.2096755017
 40
0.2279159436
 40
0.2467053097
 40
0.2660074032
 40
0.285784512
 40
0.305997554
 40
0.3266062131
 40
0.347569071
 40
0.3688437434
 40
0.3903870058
 40
0.4121549165
 40
0.4561852689
 40
0.5005743064
 40
0.5449569669
 40
0.588968248
 40
0.6107219237
 40
0.6322478663
 40
0.6535021785
 40
0.6744416874
 40
0.6950240712
 40
0.7152079901
 40
0.7349532115
 40
0.7542207421
 40
0.7729729667
 40
0.7911737958
 40
0.8087888323
 40
0.8257855433
 40
0.8421334463
 40
0.8578043278
 40
0.8727724967
 40
0.8870150928
 40
0.9005124701
 40
0.9132486566
 40
0.919327758
 40
0.9252125636
 40
0.9309024306
 40
0.9363970783
 40
0.9416966292
 40
0.946801723
 40
0.9517134601
 40
0.9564335915
 40
0.960964495
 40
0.9653093089
 40
0.9694720559
 40
0.973457682
 40
0.9772723019
 40
0.980923238
 40
0.9844192517
 40
0.9877706863
 40
0.9909895866
 40
0.9940898952
 40
0.9970874428
 40
1.0
 40
1.0
 40
1.0
 40
1.0
 10
12.4110776171
 20
9.7395839739
 30
0.0
 10
12.4119607181
 20
9.7397771345
 30
0.0
 10
12.4137369203
 20
9.7402483788
 30
0.0
 10
12.4163763229
 20
9.7411871989
 30
0.0
 10
12.419023872
 20
9.7423662288
 30
0.0
 10
12.4216779419
 20
9.7437843913
 30
0.0
 10
12.4243373231
 20
9.7454406609
 30
0.0
 10
12.427000681
 20
9.7473339954
 30
0.0
 10
12.4296667974
 20
9.7494631877
 30
0.0
 10
12.4323343232
 20
9.7518270767
 30
0.0
 10
12.4350019813
 20
9.7544243078
 30
0.0
 10
12.4376684201
 20
9.7572534796
 30
0.0
 10
12.4403322564
 20
9.7603130768
 30
0.0
 10
12.4429921534
 20
9.7636014239
 30
0.0
 10
12.4456466572
 20
9.7671167899
 30
0.0
 10
12.4482944099
 20
9.7708572515
 30
0.0
 10
12.450933966
 20
9.7748208102
 30
0.0
 10
12.4535639048
 20
9.7790053223
 30
0.0
 10
12.4561828323
 20
9.7834085121
 30
0.0
 10
12.4587892741
 20
9.7880280095
 30
0.0
 10
12.4613818858
 20
9.7928612884
 30
0.0
 10
12.4648723185
 20
9.7996931358
 30
0.0
 10
12.4691814699
 20
9.8087565801
 30
0.0
 10
12.4741981755
 20
9.8202790878
 30
0.0
 10
12.4791264036
 20
9.8325850623
 30
0.0
 10
12.4839553051
 20
9.8456476485
 30
0.0
 10
12.4886742467
 20
9.8594384747
 30
0.0
 10
12.4932728221
 20
9.8739274582
 30
0.0
 10
12.4977408872
 20
9.8890829626
 30
0.0
 10
12.5020685828
 20
9.9048718498
 30
0.0
 10
12.5062463664
 20
9.921259564
 30
0.0
 10
12.5102650272
 20
9.9382102144
 30
0.0
 10
12.5141157062
 20
9.9556866615
 30
0.0
 10
12.517789917
 20
9.973650602
 30
0.0
 10
12.5212795629
 20
9.9920626538
 30
0.0
 10
12.5245769559
 20
10.0108824407
 30
0.0
 10
12.5276748404
 20
10.0300686861
 30
0.0
 10
12.5305663909
 20
10.0495792942
 30
0.0
 10
12.5332452718
 20
10.0693714947
 30
0.0
 10
12.5365379702
 20
10.0961795611
 30
0.0
 10
12.5400768248
 20
10.1300724926
 30
0.0
 10
12.5433797129
 20
10.1710100359
 30
0.0
 10
12.5457255454
 20
10.2120076492
 30
0.0
 10
12.5468703773
 20
10.2460533218
 30
0.0
 10
12.5472864627
 20
10.2730439831
 30
0.0
 10
12.5473478654
 20
10.2930005074
 30
0.0
 10
12.5471597735
 20
10.3127044529
 30
0.0
 10
12.5467225942
 20
10.3321126244
 30
0.0
 10
12.5460373149
 20
10.3511824359
 30
0.0
 10
12.5451054686
 20
10.3698720622
 30
0.0
 10
12.5439291336
 20
10.3881405157
 30
0.0
 10
12.5425109283
 20
10.4059477403
 30
0.0
 10
12.5408540067
 20
10.4232546986
 30
0.0
 10
12.5389620499
 20
10.4400234624
 30
0.0
 10
12.5368392652
 20
10.4562173018
 30
0.0
 10
12.5344903749
 20
10.4718007712
 30
0.0
 10
12.5319206014
 20
10.4867397873
 30
0.0
 10
12.5291356567
 20
10.5010017159
 30
0.0
 10
12.5261417263
 20
10.5145554309
 30
0.0
 10
12.5229454531
 20
10.5273714795
 30
0.0
 10
12.5195539117
 20
10.5394218902
 30
0.0
 10
12.5165259973
 20
10.5489467249
 30
0.0
 10
12.5140033623
 20
10.5561566907
 30
0.0
 10
12.5120966452
 20
10.561272463
 30
0.0
 10
12.5101468473
 20
10.5661780225
 30
0.0
 10
12.508155011
 20
10.5708707146
 30
0.0
 10
12.5061221923
 20
10.575347982
 30
0.0
 10
12.5040495396
 20
10.5796074188
 30
0.0
 10
12.5019381102
 20
10.5836467061
 30
0.0
 10
12.4997890746
 20
10.5874636844
 30
0.0
 10
12.49760355
 20
10.5910562984
 30
0.0
 10
12.4953826613
 20
10.5944226116
 30
0.0
 10
12.4931275954
 20
10.5975608462
 30
0.0
 10
12.4908394278
 20
10.6004692792
 30
0.0
 10
12.4885193507
 20
10.6031463781
 30
0.0
 10
12.4861684443
 20
10.6055906491
 30
0.0
 10
12.4837878298
 20
10.6078007165
 30
0.0
 10
12.4813786335
 20
10.6097753124
 30
0.0
 10
12.4789419434
 20
10.6115131271
 30
0.0
 10
12.4764788927
 20
10.6130130642
 30
0.0
 10
12.473990927
 20
10.6142738094
 30
0.0
 10
12.4722952936
 20
10.6149627381
 30
0.0
 10
12.4714466937
 20
10.6152645147
 30
0.0
  0
SPLINE
  5
3A6
100
AcDbEntity
  8
0
100
AcDbSpline
 62
7
  6
CONTINUOUS
 70
0
 71
3
 72
93
 73
89
 74
0
 42
0.0000001
 43
0.0000001
 44
0.0000000001
 40
0.0
 40
0.0
 40
0.0
 40
0.0
 40
0.0028643522
 40
0.0057543921
 40
0.0086950922
 40
0.0117100301
 40
0.0148209371
 40
0.0180473812
 40
0.0214066431
 40
0.024913764
 40
0.0285815941
 40
0.0324210577
 40
0.0364412443
 40
0.0406497062
 40
0.0450525819
 40
0.0496547916
 40
0.0544602208
 40
0.0594717742
 40
0.0646916072
 40
0.0701210912
 40
0.0757610199
 40
0.0816115906
 40
0.0876725038
 40
0.0939430317
 40
0.1004219906
 40
0.1071078897
 40
0.1210921937
 40
0.1358779855
 40
0.1514424705
 40
0.1677591431
 40
0.1847982271
 40
0.2025270413
 40
0.2209103033
 40
0.2399103879
 40
0.2594875562
 40
0.2796001604
 40
0.3002048331
 40
0.3212566627
 40
0.342709364
 40
0.3645154434
 40
0.386626356
 40
0.4089926605
 40
0.43156417
 40
0.4542901034
 40
0.499999171
 40
0.5457082472
 40
0.5684341928
 40
0.5910057213
 40
0.6133720499
 40
0.6354829899
 40
0.6572890995
 40
0.6787418344
 40
0.6997937024
 40
0.7203984209
 40
0.7405110787
 40
0.7600883052
 40
0.7790884485
 40
0.7974717689
 40
0.8152006432
 40
0.8322397912
 40
0.8485565346
 40
0.8641210989
 40
0.878906974
 40
0.8928913587
 40
0.899577282
 40
0.9060562932
 40
0.9123268547
 40
0.9183878094
 40
0.9242384273
 40
0.9298783848
 40
0.9353079241
 40
0.9405277815
 40
0.945539388
 40
0.9503448486
 40
0.9549470995
 40
0.959350018
 40
0.9635585074
 40
0.9675787421
 40
0.9714182261
 40
0.9750860994
 40
0.9785932429
 40
0.9819525349
 40
0.985179005
 40
0.9882899277
 40
0.9913048873
 40
0.9942455955
 40
0.9971356476
 40
1.0
 40
1.0
 40
1.0
 40
1.0
 10
12.4793296108
 20
10.6157896637
 30
0.0
 10
12.4802283804
 20
10.6157273384
 30
0.0
 10
12.4820290367
 20
10.6155129559
 30
0.0
 10
12.4847042158
 20
10.6149255256
 30
0.0
 10
12.4873566977
 20
10.6140723313
 30
0.0
 10
12.4899842389
 20
10.6129545385
 30
0.0
 10
12.4925852196
 20
10.6115733128
 30
0.0
 10
12.4951581168
 20
10.6099300011
 30
0.0
 10
12.497701599
 20
10.6080260026
 30
0.0
 10
12.5002143333
 20
10.6058626847
 30
0.0
 10
12.5026951302
 20
10.6034415769
 30
0.0
 10
12.5051426666
 20
10.6007641527
 30
0.0
 10
12.5075557425
 20
10.5978320979
 30
0.0
 10
12.5099330339
 20
10.5946471254
 30
0.0
 10
12.5122732647
 20
10.5912111262
 30
0.0
 10
12.5145751456
 20
10.5875261204
 30
0.0
 10
12.5168373324
 20
10.5835942535
 30
0.0
 10
12.5190585817
 20
10.5794178607
 30
0.0
 10
12.5212375347
 20
10.574999379
 30
0.0
 10
12.5233729716
 20
10.5703414423
 30
0.0
 10
12.5254635846
 20
10.5654467973
 30
0.0
 10
12.5275081508
 20
10.5603183606
 30
0.0
 10
12.5295054545
 20
10.5549591854
 30
0.0
 10
12.5314542657
 20
10.5493724674
 30
0.0
 10
12.533353481
 20
10.5435615436
 30
0.0
 10
12.5358555384
 20
10.5353966439
 30
0.0
 10
12.5388404217
 20
10.5246491857
 30
0.0
 10
12.5421555053
 20
10.5111024075
 30
0.0
 10
12.5452472849
 20
10.4967517432
 30
0.0
 10
12.5481082326
 20
10.481631615
 30
0.0
 10
12.5507313611
 20
10.4657781688
 30
0.0
 10
12.5531102656
 20
10.4492294274
 30
0.0
 10
12.555239135
 20
10.4320251101
 30
0.0
 10
12.5571127688
 20
10.4142065484
 30
0.0
 10
12.5587265894
 20
10.3958165739
 30
0.0
 10
12.5600766523
 20
10.3768994119
 30
0.0
 10
12.5611596549
 20
10.357500572
 30
0.0
 10
12.5619729467
 20
10.3376667358
 30
0.0
 10
12.5625145337
 20
10.3174456414
 30
0.0
 10
12.5627830807
 20
10.2968859666
 30
0.0
 10
12.5627779168
 20
10.2760372052
 30
0.0
 10
12.5624990266
 20
10.2549495637
 30
0.0
 10
12.5619470874
 20
10.2336737792
 30
0.0
 10
12.5608466716
 20
10.2050699343
 30
0.0
 10
12.5588005484
 20
10.1692225668
 30
0.0
 10
12.5558788746
 20
10.1334359147
 30
0.0
 10
12.5530204136
 20
10.1049539771
 30
0.0
 10
12.550630259
 20
10.0838056546
 30
0.0
 10
12.5479956383
 20
10.0628813598
 30
0.0
 10
12.5451228829
 20
10.0422314391
 30
0.0
 10
12.5420189396
 20
10.0219056165
 30
0.0
 10
12.5386913056
 20
10.001952819
 30
0.0
 10
12.5351480235
 20
9.9824210725
 30
0.0
 10
12.5313976586
 20
9.963357381
 30
0.0
 10
12.5274492801
 20
9.9448076135
 30
0.0
 10
12.5233124388
 20
9.9268163905
 30
0.0
 10
12.518997144
 20
9.9094269727
 30
0.0
 10
12.5145138432
 20
9.8926811504
 30
0.0
 10
12.5098733929
 20
9.8766191404
 30
0.0
 10
12.505087032
 20
9.8612794768
 30
0.0
 10
12.5001663527
 20
9.8466989321
 30
0.0
 10
12.4951232676
 20
9.8329123402
 30
0.0
 10
12.4899699764
 20
9.8199527608
 30
0.0
 10
12.4855301444
 20
9.8097201363
 30
0.0
 10
12.4819249694
 20
9.8019787259
 30
0.0
 10
12.4792418349
 20
9.7964855422
 30
0.0
 10
12.476540502
 20
9.7912212702
 30
0.0
 10
12.4738225585
 20
9.786189054
 30
0.0
 10
12.4710896666
 20
9.7813918853
 30
0.0
 10
12.468343409
 20
9.7768326399
 30
0.0
 10
12.4655854764
 20
9.772514003
 30
0.0
 10
12.4628174451
 20
9.7684385607
 30
0.0
 10
12.4600409886
 20
9.7646087022
 30
0.0
 10
12.457257703
 20
9.7610266986
 30
0.0
 10
12.4544691956
 20
9.7576946631
 30
0.0
 10
12.4516770842
 20
9.7546145363
 30
0.0
 10
12.4488828876
 20
9.7517881747
 30
0.0
 10
12.4460882077
 20
9.7492172063
 30
0.0
 10
12.4432944899
 20
9.7469032426
 30
0.0
 10
12.4405032638
 20
9.7448476746
 30
0.0
 10
12.4377159494
 20
9.7430518849
 30
0.0
 10
12.4349339989
 20
9.7415171495
 30
0.0
 10
12.4321588967
 20
9.7402446607
 30
0.0
 10
12.4293921437
 20
9.7392356657
 30
0.0
 10
12.4266354694
 20
9.7384911742
 30
0.0
 10
12.4238905938
 20
9.7380122881
 30
0.0
 10
12.4211599391
 20
9.7377996591
 30
0.0
 10
12.4193469217
 20
9.7378358676
 30
0.0
 10
12.418448152
 20
9.7378981923
 30
0.0
  0
SPLINE
  5
3A7
100
AcDbEntity
  8
0
100
AcDbSpline
 62
7
  6
CONTINUOUS
 70
0
 71
3
 72
83
 73
79
 74
0
 42
0.0000001
 43
0.0000001
 44
0.0000000001
 40
0.0
 40
0.0
 40
0.0
 40
0.0
 40
0.0039884097
 40
0.0081453951
 40
0.0124746186
 40
0.0169791614
 40
0.0216616097
 40
0.0265239718
 40
0.0315675691
 40
0.0367932644
 40
0.042201484
 40
0.0477922575
 40
0.0535653099
 40
0.0595199779
 40
0.0719697837
 40
0.0851316862
 40
0.098991495
 40
0.1135318501
 40
0.1287326108
 40
0.1445711562
 40
0.1610226585
 40
0.1780603021
 40
0.1956554688
 40
0.2137778955
 40
0.232395813
 40
0.2514760916
 40
0.2709843678
 40
0.29088516
 40
0.3111419767
 40
0.3317174197
 40
0.3525732979
 40
0.3736707312
 40
0.4164311769
 40
0.4596784221
 40
0.5030866968
 40
0.5463286871
 40
0.589078675
 40
0.6101689609
 40
0.6310164291
 40
0.6515822205
 40
0.6718281726
 40
0.6917169195
 40
0.7112119951
 40
0.730277944
 40
0.7488804433
 40
0.7669864122
 40
0.7845641338
 40
0.8015833871
 40
0.8180155988
 40
0.8338340188
 40
0.8490138961
 40
0.8635326921
 40
0.8773703389
 40
0.8905095606
 40
0.9029362808
 40
0.9146401102
 40
0.9202191733
 40
0.9256156542
 40
0.9308296162
 40
0.9358615409
 40
0.9407122971
 40
0.9453833039
 40
0.9498764865
 40
0.9541944013
 40
0.9583403271
 40
0.9623182846
 40
0.9661332455
 40
0.9697911516
 40
0.9732990923
 40
0.9766654451
 40
0.9798999492
 40
0.9830139088
 40
0.9860202118
 40
0.9889334125
 40
0.991769705
 40
0.9945467681
 40
0.997283572
 40
1.0
 40
1.0
 40
1.0
 40
1.0
 10
12.3899673457
 20
8.3997627386
 30
0.0
 10
12.3909156912
 20
8.4006787701
 30
0.0
 10
12.3928113459
 20
8.4025925071
 30
0.0
 10
12.3955953798
 20
8.4056361366
 30
0.0
 10
12.3983764737
 20
8.4089097453
 30
0.0
 10
12.4011531127
 20
8.4124115562
 30
0.0
 10
12.4039240199
 20
8.4161398432
 30
0.0
 10
12.4066878294
 20
8.4200928188
 30
0.0
 10
12.4094432409
 20
8.4242685127
 30
0.0
 10
12.4121888469
 20
8.4286648637
 30
0.0
 10
12.4149232796
 20
8.433279679
 30
0.0
 10
12.4176452005
 20
8.4381106492
 30
0.0
 10
12.4203532312
 20
8.4431553922
 30
0.0
 10
12.423997828
 20
8.4502692854
 30
0.0
 10
12.428500401
 20
8.4596858355
 30
0.0
 10
12.4337496911
 20
8.4716342272
 30
0.0
 10
12.4389118157
 20
8.4843693479
 30
0.0
 10
12.4439763633
 20
8.4978657196
 30
0.0
 10
12.4489331123
 20
8.5120964721
 30
0.0
 10
12.4537720541
 20
8.5270331445
 30
0.0
 10
12.4584834117
 20
8.5426458353
 30
0.0
 10
12.4630576631
 20
8.5589032534
 30
0.0
 10
12.4674855627
 20
8.5757727927
 30
0.0
 10
12.47175816
 20
8.5932205955
 30
0.0
 10
12.4758668285
 20
8.6112116216
 30
0.0
 10
12.4798032719
 20
8.6297097268
 30
0.0
 10
12.4835595427
 20
8.648677741
 30
0.0
 10
12.4871280565
 20
8.6680775432
 30
0.0
 10
12.4905016106
 20
8.6878701391
 30
0.0
 10
12.4936733961
 20
8.7080157258
 30
0.0
 10
12.4966370439
 20
8.7284738247
 30
0.0
 10
12.5003193262
 20
8.7562364077
 30
0.0
 10
12.5043541952
 20
8.7914166743
 30
0.0
 10
12.5082620176
 20
8.8340244321
 30
0.0
 10
12.5112255073
 20
8.8768679741
 30
0.0
 10
12.5132208128
 20
8.9196028133
 30
0.0
 10
12.5140674597
 20
8.9549960266
 30
0.0
 10
12.5142419548
 20
8.9829926008
 30
0.0
 10
12.514122625
 20
9.0036555709
 30
0.0
 10
12.5137540265
 20
9.0240364225
 30
0.0
 10
12.5131368991
 20
9.0440942081
 30
0.0
 10
12.5122725129
 20
9.0637885904
 30
0.0
 10
12.5111626291
 20
9.0830799758
 30
0.0
 10
12.509809507
 20
9.1019295848
 30
0.0
 10
12.5082159075
 20
9.120299537
 30
0.0
 10
12.5063850772
 20
9.1381529269
 30
0.0
 10
12.5043207434
 20
9.1554538964
 30
0.0
 10
12.5020271061
 20
9.1721677089
 30
0.0
 10
12.4995088298
 20
9.1882608276
 30
0.0
 10
12.4967710452
 20
9.2037009918
 30
0.0
 10
12.4938193256
 20
9.2184572833
 30
0.0
 10
12.4906596752
 20
9.2325001996
 30
0.0
 10
12.4872985118
 20
9.2458016971
 30
0.0
 10
12.4837426456
 20
9.2583353624
 30
0.0
 10
12.4799992667
 20
9.2700761657
 30
0.0
 10
12.4766789239
 20
9.2793223631
 30
0.0
 10
12.4739258876
 20
9.2862966378
 30
0.0
 10
12.4718519446
 20
9.2912309978
 30
0.0
 10
12.469736865
 20
9.295950361
 30
0.0
 10
12.4675817108
 20
9.3004524044
 30
0.0
 10
12.4653874992
 20
9.3047348742
 30
0.0
 10
12.4631553554
 20
9.3087956712
 30
0.0
 10
12.4608863424
 20
9.3126327824
 30
0.0
 10
12.4585815444
 20
9.3162443102
 30
0.0
 10
12.4562421024
 20
9.3196285011
 30
0.0
 10
12.4538690549
 20
9.3227836533
 30
0.0
 10
12.451463552
 20
9.325708241
 30
0.0
 10
12.4490266558
 20
9.3284007914
 30
0.0
 10
12.4465594384
 20
9.3308599262
 30
0.0
 10
12.4440630186
 20
9.3330844043
 30
0.0
 10
12.441538414
 20
9.3350729487
 30
0.0
 10
12.4389867692
 20
9.3368244572
 30
0.0
 10
12.4364091878
 20
9.338337788
 30
0.0
 10
12.4338068592
 20
9.3396118532
 30
0.0
 10
12.4311811385
 20
9.3406457085
 30
0.0
 10
12.4285333521
 20
9.3414383552
 30
0.0
 10
12.4258654126
 20
9.3419890992
 30
0.0
 10
12.4240715584
 20
9.342194913
 30
0.0
 10
12.4231756972
 20
9.3422570359
 30
0.0
  0
SPLINE
  5
3A8
100
AcDbEntity
  8
0
100
AcDbSpline
 62
7
  6
CONTINUOUS
 70
0
 71
3
 72
54
 73
50
 74
0
 42
0.0000001
 43
0.0000001
 44
0.0000000001
 40
0.0
 40
0.0
 40
0.0
 40
0.0
 40
0.0055575314
 40
0.0111779514
 40
0.0169218741
 40
0.0228457549
 40
0.0290005166
 40
0.0354309104
 40
0.0421753481
 40
0.0492661819
 40
0.0567302289
 40
0.0645893164
 40
0.0728609992
 40
0.0815590171
 40
0.0906939529
 40
0.1002735511
 40
0.1103032084
 40
0.120786225
 40
0.131724095
 40
0.1431167574
 40
0.1549627059
 40
0.1672592594
 40
0.1800025507
 40
0.1931877841
 40
0.2068091928
 40
0.2208602246
 40
0.2353335436
 40
0.2502211095
 40
0.265514256
 40
0.2812036668
 40
0.2972795185
 40
0.3137313951
 40
0.3477187121
 40
0.383073812
 40
0.4196976091
 40
0.4574851642
 40
0.4963263633
 40
0.5361065441
 40
0.5767070861
 40
0.6180059759
 40
0.6598783548
 40
0.7021970543
 40
0.7448331254
 40
0.7876563595
 40
0.8305358172
 40
0.8733403047
 40
0.9159390443
 40
0.9582017033
 40
1.0
 40
1.0
 40
1.0
 40
1.0
 10
9.8600370696
 20
10.7338936487
 30
0.0
 10
9.8600370667
 20
10.7355189389
 30
0.0
 10
9.8602190057
 20
10.7387907426
 30
0.0
 10
9.8610357242
 20
10.7436809785
 30
0.0
 10
9.8623947913
 20
10.7485603188
 30
0.0
 10
9.864293661
 20
10.753423078
 30
0.0
 10
9.8667291361
 20
10.7582653397
 30
0.0
 10
9.8696979791
 20
10.763083377
 30
0.0
 10
9.8731968044
 20
10.7678738814
 30
0.0
 10
9.8772221598
 20
10.7726336479
 30
0.0
 10
9.8817704862
 20
10.7773594277
 30
0.0
 10
9.8868379195
 20
10.7820479987
 30
0.0
 10
9.8924203942
 20
10.7866959363
 30
0.0
 10
9.898513393
 20
10.7912998824
 30
0.0
 10
9.9051121041
 20
10.7958562833
 30
0.0
 10
9.9122112401
 20
10.8003616689
 30
0.0
 10
9.9198051474
 20
10.8048124656
 30
0.0
 10
9.9278877321
 20
10.8092051446
 30
0.0
 10
9.9364524894
 20
10.8135361918
 30
0.0
 10
9.9454925168
 20
10.8178020764
 30
0.0
 10
9.9550004858
 20
10.8219993816
 30
0.0
 10
9.9649686989
 20
10.8261246311
 30
0.0
 10
9.9753890416
 20
10.8301745121
 30
0.0
 10
9.9862530434
 20
10.8341456578
 30
0.0
 10
9.9975518428
 20
10.8380348534
 30
0.0
 10
10.009276226
 20
10.8418388834
 30
0.0
 10
10.0214166189
 20
10.845554632
 30
0.0
 10
10.0339631008
 20
10.8491790567
 30
0.0
 10
10.046905418
 20
10.8527091558
 30
0.0
 10
10.0602329784
 20
10.8561420589
 30
0.0
 10
10.073934895
 20
10.859474926
 30
0.0
 10
10.0928940249
 20
10.8638289034
 30
0.0
 10
10.1174507262
 20
10.868988898
 30
0.0
 10
10.1479165257
 20
10.8746755185
 30
0.0
 10
10.1795912861
 20
10.8799030085
 30
0.0
 10
10.2123712672
 20
10.8846540983
 30
0.0
 10
10.2461492571
 20
10.8889130636
 30
0.0
 10
10.2808146733
 20
10.8926658247
 30
0.0
 10
10.3162540087
 20
10.8958999774
 30
0.0
 10
10.3523511907
 20
10.8986048363
 30
0.0
 10
10.3889879731
 20
10.9007714664
 30
0.0
 10
10.4260443266
 20
10.9023927142
 30
0.0
 10
10.463398837
 20
10.9034632272
 30
0.0
 10
10.5009291074
 20
10.9039794729
 30
0.0
 10
10.5385121568
 20
10.9039397451
 30
0.0
 10
10.5760248469
 20
10.9033441805
 30
0.0
 10
10.6133442316
 20
10.902194733
 30
0.0
 10
10.650347984
 20
10.9004952204
 30
0.0
 10
10.6748864825
 20
10.8989893746
 30
0.0
 10
10.6870810305
 20
10.8981436798
 30
0.0
  0
SPLINE
  5
3A9
100
AcDbEntity
  8
0
100
AcDbSpline
 62
7
  6
CONTINUOUS
 70
0
 71
3
 72
25
 73
21
 74
0
 42
0.0000001
 43
0.0000001
 44
0.0000000001
 40
0.0
 40
0.0
 40
0.0
 40
0.0
 40
0.0257054242
 40
0.0520240325
 40
0.0789347105
 40
0.1064154302
 40
0.1629940982
 40
0.2215697175
 40
0.2819403967
 40
0.343895048
 40
0.4072146681
 40
0.4716735737
 40
0.537040601
 40
0.6030802691
 40
0.6695539256
 40
0.7362208832
 40
0.8028395237
 40
0.8691686156
 40
0.9349676481
 40
1.0
 40
1.0
 40
1.0
 40
1.0
 10
10.0761823358
 20
10.6078657087
 30
0.0
 10
10.0813057054
 20
10.6090657665
 30
0.0
 10
10.0916918697
 20
10.6114215844
 30
0.0
 10
10.1074962923
 20
10.6147870642
 30
0.0
 10
10.1236984037
 20
10.618023607
 30
0.0
 10
10.1460271972
 20
10.6222033521
 30
0.0
 10
10.1748195797
 20
10.6270704856
 30
0.0
 10
10.2103711726
 20
10.6322948963
 30
0.0
 10
10.247112796
 20
10.6369377206
 30
0.0
 10
10.2849018453
 20
10.6409807725
 30
0.0
 10
10.3235918006
 20
10.6444081895
 30
0.0
 10
10.3630325453
 20
10.6472065442
 30
0.0
 10
10.4030710362
 20
10.6493648727
 30
0.0
 10
10.4435518854
 20
10.6508747206
 30
0.0
 10
10.4843179742
 20
10.6517301729
 30
0.0
 10
10.5252110656
 20
10.6519278763
 30
0.0
 10
10.5660724381
 20
10.651467066
 30
0.0
 10
10.6067434466
 20
10.650349534
 30
0.0
 10
10.6470661792
 20
10.6485796871
 30
0.0
 10
10.6738004551
 20
10.64695805
 30
0.0
 10
10.6870810305
 20
10.6460370389
 30
0.0
  0
SPLINE
  5
3AA
100
AcDbEntity
  8
0
100
AcDbSpline
 62
7
  6
CONTINUOUS
 70
0
 71
3
 72
82
 73
78
 74
0
 42
0.0000001
 43
0.0000001
 44
0.0000000001
 40
0.0
 40
0.0
 40
0.0
 40
0.0
 40
0.0027164291
 40
0.0054532364
 40
0.0082303053
 40
0.0110666058
 40
0.0139798164
 40
0.016986131
 40
0.0201001037
 40
0.0233346222
 40
0.0267009905
 40
0.0302089475
 40
0.0338668707
 40
0.0376818493
 40
0.0416598249
 40
0.0458057691
 40
0.0501237025
 40
0.0546169039
 40
0.0592879295
 40
0.0641387045
 40
0.069170648
 40
0.0743846285
 40
0.0797811279
 40
0.0853602093
 40
0.0970640744
 40
0.1094908292
 40
0.122630084
 40
0.1364677626
 40
0.1509865887
 40
0.1661664945
 40
0.1819849411
 40
0.1984171777
 40
0.2154364542
 40
0.233014197
 40
0.2511201854
 40
0.2697227022
 40
0.2887886669
 40
0.3082837565
 40
0.3281725155
 40
0.3484184781
 40
0.3689842782
 40
0.3898317536
 40
0.4109220451
 40
0.4536720397
 40
0.4969140311
 40
0.540322302
 40
0.5835695392
 40
0.6263299734
 40
0.6474273998
 40
0.6682832705
 40
0.6888587055
 40
0.7091155138
 40
0.7290162972
 40
0.7485245643
 40
0.7676048337
 40
0.786222742
 40
0.8043451595
 40
0.821940317
 40
0.8389779517
 40
0.8554294454
 40
0.8712679825
 40
0.8864687352
 40
0.9010090829
 40
0.9148688848
 40
0.9280307811
 40
0.9404805813
 40
0.9522077554
 40
0.9577985268
 40
0.9632067444
 40
0.9684324379
 40
0.9734760336
 40
0.9783383943
 40
0.9830208414
 40
0.9875253833
 40
0.9918546059
 40
0.9960115907
 40
1.0
 40
1.0
 40
1.0
 40
1.0
 10
12.4793301179
 20
7.9594933874
 30
0.0
 10
12.4801513229
 20
7.9594364322
 30
0.0
 10
12.4817956871
 20
7.9592477515
 30
0.0
 10
12.4842412938
 20
7.9587428763
 30
0.0
 10
12.4866684266
 20
7.9580162573
 30
0.0
 10
12.4890753325
 20
7.9570685311
 30
0.0
 10
12.4914607954
 20
7.9559006129
 30
0.0
 10
12.4938235732
 20
7.9545133686
 30
0.0
 10
12.4961625759
 20
7.9529077952
 30
0.0
 10
12.4984767916
 20
7.9510849393
 30
0.0
 10
12.5007651712
 20
7.9490458116
 30
0.0
 10
12.5030267818
 20
7.9467915824
 30
0.0
 10
12.505260598
 20
7.9443233894
 30
0.0
 10
12.5074656369
 20
7.9416424961
 30
0.0
 10
12.509640925
 20
7.9387502525
 30
0.0
 10
12.511785408
 20
7.9356480575
 30
0.0
 10
12.5138981339
 20
7.9323374709
 30
0.0
 10
12.5159780569
 20
7.9288200999
 30
0.0
 10
12.5180241831
 20
7.9250976844
 30
0.0
 10
12.520035538
 20
7.9211720693
 30
0.0
 10
12.5220110902
 20
7.917045179
 30
0.0
 10
12.5239499075
 20
7.9127190796
 30
0.0
 10
12.5258510161
 20
7.9081959002
 30
0.0
 10
12.5283746247
 20
7.9018027948
 30
0.0
 10
12.5314182622
 20
7.8933270901
 30
0.0
 10
12.5348496812
 20
7.8825646608
 30
0.0
 10
12.5381092135
 20
7.871075444
 30
0.0
 10
12.5411902684
 20
7.8588823833
 30
0.0
 10
12.5440866031
 20
7.8460096912
 30
0.0
 10
12.5467923345
 20
7.8324830744
 30
0.0
 10
12.5493019591
 20
7.8183295767
 30
0.0
 10
12.5516103679
 20
7.8035775398
 30
0.0
 10
12.5537128578
 20
7.788256536
 30
0.0
 10
12.5556051531
 20
7.7723973073
 30
0.0
 10
12.5572834037
 20
7.7560316956
 30
0.0
 10
12.5587441932
 20
7.7391925707
 30
0.0
 10
12.5599845452
 20
7.7219137626
 30
0.0
 10
12.5610019292
 20
7.7042299949
 30
0.0
 10
12.5617942741
 20
7.6861768155
 30
0.0
 10
12.5623599654
 20
7.6677905183
 30
0.0
 10
12.5626978391
 20
7.6491080793
 30
0.0
 10
12.5628072167
 20
7.6301670334
 30
0.0
 10
12.5626472529
 20
7.6045035237
 30
0.0
 10
12.5618711486
 20
7.5720597695
 30
0.0
 10
12.560042107
 20
7.5328862006
 30
0.0
 10
12.5573255651
 20
7.4936129922
 30
0.0
 10
12.5537433868
 20
7.4545559232
 30
0.0
 10
12.5500447521
 20
7.4223073827
 30
0.0
 10
12.5466693238
 20
7.3968583793
 30
0.0
 10
12.5439526451
 20
7.3781051458
 30
0.0
 10
12.541045174
 20
7.3596383821
 30
0.0
 10
12.5379527488
 20
7.3414951935
 30
0.0
 10
12.5346816109
 20
7.3237120656
 30
0.0
 10
12.531238363
 20
7.3063247434
 30
0.0
 10
12.5276299573
 20
7.2893681709
 30
0.0
 10
12.523863679
 20
7.2728764205
 30
0.0
 10
12.519947133
 20
7.2568826243
 30
0.0
 10
12.515888227
 20
7.2414189025
 30
0.0
 10
12.5116951656
 20
7.226516291
 30
0.0
 10
12.5073764239
 20
7.2122046791
 30
0.0
 10
12.5029407301
 20
7.1985127488
 30
0.0
 10
12.4983970471
 20
7.1854679144
 30
0.0
 10
12.4937545479
 20
7.1730962487
 30
0.0
 10
12.4890226071
 20
7.1614224394
 30
0.0
 10
12.4842107521
 20
7.1504696445
 30
0.0
 10
12.4793286653
 20
7.1402597328
 30
0.0
 10
12.4751458613
 20
7.1322645904
 30
0.0
 10
12.471765089
 20
7.1262641285
 30
0.0
 10
12.469258512
 20
7.1220338849
 30
0.0
 10
12.466741713
 20
7.1180039023
 30
0.0
 10
12.4642159204
 20
7.1141761877
 30
0.0
 10
12.461682431
 20
7.1105526314
 30
0.0
 10
12.4591424351
 20
7.1071350392
 30
0.0
 10
12.4565971852
 20
7.1039250497
 30
0.0
 10
12.4540478516
 20
7.1009242451
 30
0.0
 10
12.4514958229
 20
7.0981342544
 30
0.0
 10
12.4497581412
 20
7.0963799973
 30
0.0
 10
12.4488888253
 20
7.0955403025
 30
0.0
  0
SPLINE
  5
3AB
100
AcDbEntity
  8
0
100
AcDbSpline
 62
7
  6
CONTINUOUS
 70
0
 71
3
 72
23
 73
19
 74
0
 42
0.0000001
 43
0.0000001
 44
0.0000000001
 40
0.0
 40
0.0
 40
0.0
 40
0.0
 40
0.0755954479
 40
0.1466391714
 40
0.2134657403
 40
0.2765145402
 40
0.3363265376
 40
0.3935471486
 40
0.4489234403
 40
0.5032885643
 40
0.5575265067
 40
0.6125277807
 40
0.6691438784
 40
0.7281492575
 40
0.7902198463
 40
0.8559237775
 40
0.9257267722
 40
1.0
 40
1.0
 40
1.0
 40
1.0
 10
12.4334340104
 20
9.9219453645
 30
0.0
 10
12.4326975189
 20
9.9212339682
 30
0.0
 10
12.4312254896
 20
9.9198977371
 30
0.0
 10
12.4289473868
 20
9.9181125869
 30
0.0
 10
12.4266719326
 20
9.9166133163
 30
0.0
 10
12.4244012631
 20
9.9154021689
 30
0.0
 10
12.4221372444
 20
9.9144813798
 30
0.0
 10
12.4198822311
 20
9.9138531222
 30
0.0
 10
12.4176391512
 20
9.9135197173
 30
0.0
 10
12.4154117657
 20
9.9134826336
 30
0.0
 10
12.4132043502
 20
9.913742538
 30
0.0
 10
12.4110211692
 20
9.9142985293
 30
0.0
 10
12.408865959
 20
9.9151488545
 30
0.0
 10
12.4067415367
 20
9.9162909235
 30
0.0
 10
12.4046501039
 20
9.9177222188
 30
0.0
 10
12.4025932873
 20
9.9194401708
 30
0.0
 10
12.4005728179
 20
9.921442319
 30
0.0
 10
12.3992922533
 20
9.9229174778
 30
0.0
 10
12.3986574614
 20
9.9236979816
 30
0.0
  0
SPLINE
  5
3AC
100
AcDbEntity
  8
0
100
AcDbSpline
 62
7
  6
CONTINUOUS
 70
0
 71
3
 72
16
 73
12
 74
0
 42
0.0000001
 43
0.0000001
 44
0.0000000001
 40
0.0
 40
0.0
 40
0.0
 40
0.0
 40
0.1504815401
 40
0.2917481174
 40
0.4244944817
 40
0.4879692635
 40
0.5496755268
 40
0.6683417309
 40
0.7818818905
 40
0.8918563508
 40
1.0
 40
1.0
 40
1.0
 40
1.0
 10
12.4044562339
 20
9.9529327566
 30
0.0
 10
12.4037918901
 20
9.9522910497
 30
0.0
 10
12.4024640591
 20
9.9510870017
 30
0.0
 10
12.400408072
 20
9.9494824116
 30
0.0
 10
12.3986714041
 20
9.9483475619
 30
0.0
 10
12.3972865767
 20
9.9475790807
 30
0.0
 10
12.3959425349
 20
9.9469193123
 30
0.0
 10
12.3942618805
 20
9.9462526894
 30
0.0
 10
12.3922270997
 20
9.9457112966
 30
0.0
 10
12.3902038056
 20
9.9454409893
 30
0.0
 10
12.3888601736
 20
9.9454424938
 30
0.0
 10
12.3881979784
 20
9.9454884205
 30
0.0
  0
SPLINE
  5
3AD
100
AcDbEntity
  8
0
100
AcDbSpline
 62
7
  6
CONTINUOUS
 70
0
 71
3
 72
15
 73
11
 74
0
 42
0.0000001
 43
0.0000001
 44
0.0000000001
 40
0.0
 40
0.0
 40
0.0
 40
0.0
 40
0.1107441683
 40
0.2262978529
 40
0.3463182376
 40
0.4704401731
 40
0.5982787006
 40
0.729431992
 40
0.8634818804
 40
1.0
 40
1.0
 40
1.0
 40
1.0
 10
10.9578454321
 20
10.6078765639
 30
0.0
 10
10.9480073567
 20
10.6101805167
 30
0.0
 10
10.9278397851
 20
10.6146177585
 30
0.0
 10
10.8968229292
 20
10.620663391
 30
0.0
 10
10.8644765406
 20
10.6262252461
 30
0.0
 10
10.8309139432
 20
10.6312835788
 30
0.0
 10
10.7962523873
 20
10.6358205139
 30
0.0
 10
10.7606131866
 20
10.6398199811
 30
0.0
 10
10.7241210958
 20
10.6432678696
 30
0.0
 10
10.6995070429
 20
10.645175292
 30
0.0
 10
10.6870810305
 20
10.6460370389
 30
0.0
  0
SPLINE
  5
3AE
100
AcDbEntity
  8
0
100
AcDbSpline
 62
7
  6
CONTINUOUS
 70
0
 71
3
 72
82
 73
78
 74
0
 42
0.0000001
 43
0.0000001
 44
0.0000000001
 40
0.0
 40
0.0
 40
0.0
 40
0.0
 40
0.0042066704
 40
0.0086074962
 40
0.0132069135
 40
0.0180085258
 40
0.0230152793
 40
0.0282294268
 40
0.0336523646
 40
0.0392848013
 40
0.0511777638
 40
0.0639051627
 40
0.0774564198
 40
0.0918155646
 40
0.1069620718
 40
0.1228714352
 40
0.1395157172
 40
0.1568639525
 40
0.1748824481
 40
0.1935350295
 40
0.2127833283
 40
0.2325869988
 40
0.2529038911
 40
0.2736902129
 40
0.2949007378
 40
0.3164889679
 40
0.3606060865
 40
0.4056507364
 40
0.4512203431
 40
0.4969063066
 40
0.542298703
 40
0.5869909704
 40
0.6089500453
 40
0.6305855494
 40
0.6518497144
 40
0.6726958629
 40
0.6930785804
 40
0.7129538992
 40
0.7322794383
 40
0.751014572
 40
0.7691206481
 40
0.7865612195
 40
0.8033022406
 40
0.8193123279
 40
0.8345631126
 40
0.8490296432
 40
0.8626908148
 40
0.8755299705
 40
0.8875357386
 40
0.8987031077
 40
0.9039734433
 40
0.9090359803
 40
0.9138925993
 40
0.9185460171
 40
0.9229997464
 40
0.927258381
 40
0.9313276641
 40
0.9352146052
 40
0.9389278058
 40
0.94247751
 40
0.9458758658
 40
0.9491371456
 40
0.9522777749
 40
0.9553164865
 40
0.9582741976
 40
0.9611737579
 40
0.9640395775
 40
0.9668969949
 40
0.9697716017
 40
0.9726884911
 40
0.9756716096
 40
0.9787431704
 40
0.9852252847
 40
0.9886742265
 40
0.9922790764
 40
0.9960512687
 40
1.0
 40
1.0
 40
1.0
 40
1.0
 10
12.4334340104
 20
9.9219453645
 30
0.0
 10
12.4340062654
 20
9.9224981204
 30
0.0
 10
12.4351500262
 20
9.9236575328
 30
0.0
 10
12.4368265393
 20
9.9255100823
 30
0.0
 10
12.438500962
 20
9.9275135182
 30
0.0
 10
12.4401721782
 20
9.9296665547
 30
0.0
 10
12.4418392883
 20
9.9319679093
 30
0.0
 10
12.4435013107
 20
9.9344162798
 30
0.0
 10
12.4451573306
 20
9.9370102313
 30
0.0
 10
12.4473967585
 20
9.9407286639
 30
0.0
 10
12.4501669269
 20
9.945737688
 30
0.0
 10
12.4533940142
 20
9.9521977815
 30
0.0
 10
12.4565740028
 20
9.9591967648
 30
0.0
 10
12.459699287
 20
9.9667180753
 30
0.0
 10
12.4627623798
 20
9.9747440283
 30
0.0
 10
12.4657559312
 20
9.9832555966
 30
0.0
 10
12.4686727415
 20
9.992232565
 30
0.0
 10
12.4715057863
 20
10.0016535716
 30
0.0
 10
12.4742482388
 20
10.0114961638
 30
0.0
 10
12.4768935068
 20
10.0217368502
 30
0.0
 10
12.4794352256
 20
10.032351173
 30
0.0
 10
12.4818672765
 20
10.0433137736
 30
0.0
 10
12.4841838062
 20
10.0545984494
 30
0.0
 10
12.4863792476
 20
10.0661782068
 30
0.0
 10
12.4884483501
 20
10.0780253665
 30
0.0
 10
12.4910506986
 20
10.0942572234
 30
0.0
 10
12.4939458255
 20
10.1150053919
 30
0.0
 10
12.4968221615
 20
10.1403273572
 30
0.0
 10
12.499097368
 20
10.166008308
 30
0.0
 10
12.5007496868
 20
10.1918027292
 30
0.0
 10
12.5017632592
 20
10.2174640282
 30
0.0
 10
12.5020696304
 20
10.2386555762
 30
0.0
 10
12.5019823878
 20
10.2553537617
 30
0.0
 10
12.5017535395
 20
10.2676189833
 30
0.0
 10
12.501361531
 20
10.2796694751
 30
0.0
 10
12.500807296
 20
10.2914764257
 30
0.0
 10
12.5000921857
 20
10.3030115831
 30
0.0
 10
12.4992179461
 20
10.3142473628
 30
0.0
 10
12.4981867024
 20
10.3251569005
 30
0.0
 10
12.4970009531
 20
10.3357141175
 30
0.0
 10
12.4956635736
 20
10.3458937925
 30
0.0
 10
12.4941778199
 20
10.3556716283
 30
0.0
 10
12.4925473004
 20
10.3650243065
 30
0.0
 10
12.4907759658
 20
10.3739295469
 30
0.0
 10
12.4888681099
 20
10.3823661758
 30
0.0
 10
12.4868283636
 20
10.390314202
 30
0.0
 10
12.4846616568
 20
10.3977548379
 30
0.0
 10
12.4823731827
 20
10.4046706641
 30
0.0
 10
12.4799683976
 20
10.4110453633
 30
0.0
 10
12.4778328865
 20
10.4159858341
 30
0.0
 10
12.4760636789
 20
10.4196477681
 30
0.0
 10
12.4747369338
 20
10.4221964314
 30
0.0
 10
12.4733854451
 20
10.4245990927
 30
0.0
 10
12.4720100078
 20
10.4268543726
 30
0.0
 10
12.4706113619
 20
10.4289609317
 30
0.0
 10
12.4691903035
 20
10.4309175499
 30
0.0
 10
12.4677476271
 20
10.4327230993
 30
0.0
 10
12.4662840504
 20
10.4343764776
 30
0.0
 10
12.4648003803
 20
10.4358767282
 30
0.0
 10
12.4632973468
 20
10.437222907
 30
0.0
 10
12.4617756784
 20
10.4384141003
 30
0.0
 10
12.460236179
 20
10.4394495115
 30
0.0
 10
12.4586796012
 20
10.4403282574
 30
0.0
 10
12.4571068294
 20
10.4410495547
 30
0.0
 10
12.455518843
 20
10.4416126845
 30
0.0
 10
12.4539167201
 20
10.4420168995
 30
0.0
 10
12.4523017281
 20
10.4422617645
 30
0.0
 10
12.4506752022
 20
10.4423469514
 30
0.0
 10
12.4490385312
 20
10.4422723642
 30
0.0
 10
12.4473930875
 20
10.4420382914
 30
0.0
 10
12.4457400482
 20
10.441645003
 30
0.0
 10
12.4434877094
 20
10.4408960216
 30
0.0
 10
12.4412589541
 20
10.4398298435
 30
0.0
 10
12.4390744429
 20
10.4384929209
 30
0.0
 10
12.4373989189
 20
10.4373134363
 30
0.0
 10
12.435721899
 20
10.4359790781
 30
0.0
 10
12.4346289075
 20
10.4350095356
 30
0.0
 10
12.4340821938
 20
10.4345007428
 30
0.0
  0
SPLINE
  5
3AF
100
AcDbEntity
  8
0
100
AcDbSpline
 62
7
  6
CONTINUOUS
 70
0
 71
3
 72
63
 73
59
 74
0
 42
0.0000001
 43
0.0000001
 44
0.0000000001
 40
0.0
 40
0.0
 40
0.0
 40
0.0
 40
0.00814383
 40
0.0169767484
 40
0.0265207354
 40
0.036789459
 40
0.0477880958
 40
0.0595155357
 40
0.0719656535
 40
0.0851278824
 40
0.0989880196
 40
0.1135287455
 40
0.1287298773
 40
0.1445687927
 40
0.1610207079
 40
0.1780587756
 40
0.1956543633
 40
0.2137772383
 40
0.2323956117
 40
0.2514763479
 40
0.2908854812
 40
0.3317179125
 40
0.3736714937
 40
0.4164329886
 40
0.4596812912
 40
0.5030906273
 40
0.546333675
 40
0.5890847111
 40
0.6310227339
 40
0.6718346511
 40
0.7112185258
 40
0.7302849348
 40
0.7488878996
 40
0.7669943144
 40
0.7845724514
 40
0.8015921263
 40
0.8180247474
 40
0.8338435456
 40
0.8490238026
 40
0.863542955
 40
0.8773809225
 40
0.8905204779
 40
0.902947514
 40
0.9146516138
 40
0.9256267683
 40
0.9358720989
 40
0.9453930714
 40
0.9542031177
 40
0.962325578
 40
0.969796515
 40
0.9766682872
 40
0.9830134983
 40
0.986019868
 40
0.9889331402
 40
0.9917695051
 40
0.9945466359
 40
0.9972835059
 40
1.0
 40
1.0
 40
1.0
 40
1.0
 10
12.4044562339
 20
9.9529327566
 30
0.0
 10
12.4054042409
 20
9.9538484611
 30
0.0
 10
12.4072953351
 20
9.9558465477
 30
0.0
 10
12.4100127109
 20
9.9591728924
 30
0.0
 10
12.4127184053
 20
9.9629408743
 30
0.0
 10
12.4154071766
 20
9.9671429743
 30
0.0
 10
12.4180740832
 20
9.9717713376
 30
0.0
 10
12.42071389
 20
9.9768169856
 30
0.0
 10
12.4233213714
 20
9.9822700723
 30
0.0
 10
12.4258913391
 20
9.9881198523
 30
0.0
 10
12.4284186343
 20
9.9943547408
 30
0.0
 10
12.4308981458
 20
10.0009623464
 30
0.0
 10
12.4333248873
 20
10.0079294837
 30
0.0
 10
12.4356939599
 20
10.0152422261
 30
0.0
 10
12.4380005571
 20
10.0228859407
 30
0.0
 10
12.4402400315
 20
10.0308453034
 30
0.0
 10
12.4424078635
 20
10.0391043482
 30
0.0
 10
12.444499649
 20
10.0476464995
 30
0.0
 10
12.4465111988
 20
10.0564546133
 30
0.0
 10
12.4491087462
 20
10.0686612878
 30
0.0
 10
12.4521170744
 20
10.0844543698
 30
0.0
 10
12.455310171
 20
10.1039736547
 30
0.0
 10
12.4580980491
 20
10.1241027514
 30
0.0
 10
12.4604581336
 20
10.1446799525
 30
0.0
 10
12.4623713337
 20
10.1655400588
 30
0.0
 10
12.4638222048
 20
10.1865155133
 30
0.0
 10
12.4647990895
 20
10.2074378352
 30
0.0
 10
12.4652942228
 20
10.2281389575
 30
0.0
 10
12.4653037769
 20
10.2484526667
 30
0.0
 10
12.4648278444
 20
10.2682157484
 30
0.0
 10
12.4640218433
 20
10.2842628452
 30
0.0
 10
12.4631289658
 20
10.2967019315
 30
0.0
 10
12.4623487572
 20
10.3056955652
 30
0.0
 10
12.461452418
 20
10.3144362846
 30
0.0
 10
12.460441747
 20
10.3229065496
 30
0.0
 10
12.4593188238
 20
10.3310893534
 30
0.0
 10
12.4580859208
 20
10.3389682772
 30
0.0
 10
12.4567455417
 20
10.3465275241
 30
0.0
 10
12.4553004331
 20
10.3537519596
 30
0.0
 10
12.4537535228
 20
10.360627135
 30
0.0
 10
12.4521079446
 20
10.3671393283
 30
0.0
 10
12.4503670572
 20
10.3732755875
 30
0.0
 10
12.4485343665
 20
10.3790237496
 30
0.0
 10
12.4466135376
 20
10.3843724836
 30
0.0
 10
12.4446084091
 20
10.3893113448
 30
0.0
 10
12.4425228745
 20
10.3938307865
 30
0.0
 10
12.4403608552
 20
10.3979221927
 30
0.0
 10
12.4381262321
 20
10.4015779372
 30
0.0
 10
12.4358227005
 20
10.4047912614
 30
0.0
 10
12.4334533386
 20
10.4075562763
 30
0.0
 10
12.4310214236
 20
10.4098672037
 30
0.0
 10
12.4289065877
 20
10.4114376273
 30
0.0
 10
12.4271934037
 20
10.4124434387
 30
0.0
 10
12.425919323
 20
10.4130672163
 30
0.0
 10
12.4246338225
 20
10.4135733773
 30
0.0
 10
12.4233375072
 20
10.4139614426
 30
0.0
 10
12.4220313272
 20
10.4142310658
 30
0.0
 10
12.4211530878
 20
10.4143318388
 30
0.0
 10
12.4207144894
 20
10.4143622579
 30
0.0
  0
SPLINE
  5
3B0
100
AcDbEntity
  8
0
100
AcDbSpline
 62
7
  6
CONTINUOUS
 70
0
 71
3
 72
78
 73
74
 74
0
 42
0.0000001
 43
0.0000001
 44
0.0000000001
 40
0.0
 40
0.0
 40
0.0
 40
0.0
 40
0.0039200379
 40
0.0080015516
 40
0.0122479837
 40
0.0166622287
 40
0.02124674
 40
0.0260034681
 40
0.030933738
 40
0.0360384073
 40
0.041317965
 40
0.0467724974
 40
0.0582048983
 40
0.0703310537
 40
0.0831417496
 40
0.0966243555
 40
0.1107632557
 40
0.1255402179
 40
0.1409347078
 40
0.1569241286
 40
0.1734840082
 40
0.1905881611
 40
0.2082088628
 40
0.2263169855
 40
0.2448821136
 40
0.2638726419
 40
0.2832559005
 40
0.3029982599
 40
0.323065224
 40
0.3434215125
 40
0.3640311626
 40
0.4058631755
 40
0.4482640754
 40
0.4909307312
 40
0.533557597
 40
0.5758394908
 40
0.617474365
 40
0.637956694
 40
0.6581668689
 40
0.6780692687
 40
0.6976290081
 40
0.7168120318
 40
0.735585199
 40
0.7539163799
 40
0.7717745712
 40
0.7891300149
 40
0.8059542996
 40
0.8222204846
 40
0.8379032501
 40
0.8529790792
 40
0.8674264233
 40
0.8812259152
 40
0.8943606374
 40
0.9068164771
 40
0.9185825208
 40
0.9296515687
 40
0.9349239697
 40
0.940021519
 40
0.944944684
 40
0.9496943779
 40
0.9542719666
 40
0.958679282
 40
0.962918785
 40
0.9669935308
 40
0.9709073068
 40
0.9746647435
 40
0.9782713374
 40
0.9817336616
 40
0.9882547469
 40
0.991335611
 40
0.9943109876
 40
0.9971941828
 40
1.0
 40
1.0
 40
1.0
 40
1.0
 10
12.4334340104
 20
7.0966120976
 30
0.0
 10
12.4342807817
 20
7.0974300158
 30
0.0
 10
12.4359734541
 20
7.0991368867
 30
0.0
 10
12.4384607399
 20
7.101847944
 30
0.0
 10
12.440945549
 20
7.1047593257
 30
0.0
 10
12.4434265691
 20
7.1078695303
 30
0.0
 10
12.4459027203
 20
7.1111770839
 30
0.0
 10
12.4483728431
 20
7.1146804866
 30
0.0
 10
12.4508358292
 20
7.118378088
 30
0.0
 10
12.4532905066
 20
7.1222681416
 30
0.0
 10
12.4557357012
 20
7.1263488231
 30
0.0
 10
12.4590335717
 20
7.1321322325
 30
0.0
 10
12.4631158616
 20
7.1398328258
 30
0.0
 10
12.4678848015
 20
7.1496615726
 30
0.0
 10
12.4725886536
 20
7.1601995446
 30
0.0
 10
12.4772184269
 20
7.1714267595
 30
0.0
 10
12.4817652743
 20
7.183322063
 30
0.0
 10
12.4862204893
 20
7.1958629031
 30
0.0
 10
12.4905755273
 20
7.2090254782
 30
0.0
 10
12.4948220281
 20
7.2227847682
 30
0.0
 10
12.4989518377
 20
7.2371145861
 30
0.0
 10
12.5029570379
 20
7.2519876281
 30
0.0
 10
12.5068299435
 20
7.2673755397
 30
0.0
 10
12.5105631231
 20
7.2832489763
 30
0.0
 10
12.5141494096
 20
7.299577655
 30
0.0
 10
12.5175819324
 20
7.3163304097
 30
0.0
 10
12.5208541126
 20
7.3334752569
 30
0.0
 10
12.5239596795
 20
7.3509794658
 30
0.0
 10
12.5268926698
 20
7.3688096072
 30
0.0
 10
12.5296474909
 20
7.3869316535
 30
0.0
 10
12.5330928599
 20
7.4115586867
 30
0.0
 10
12.5369111421
 20
7.4428162891
 30
0.0
 10
12.5406863234
 20
7.4807431375
 30
0.0
 10
12.543648025
 20
7.5189816529
 30
0.0
 10
12.5457736201
 20
7.55723996
 30
0.0
 10
12.5470469324
 20
7.5952260247
 30
0.0
 10
12.5473918332
 20
7.6265809404
 30
0.0
 10
12.5472272968
 20
7.6513059503
 30
0.0
 10
12.546887465
 20
7.6695014815
 30
0.0
 10
12.5463312724
 20
7.6874144741
 30
0.0
 10
12.5455597812
 20
7.7050107454
 30
0.0
 10
12.544574497
 20
7.7222566888
 30
0.0
 10
12.5433773254
 20
7.7391193785
 30
0.0
 10
12.5419705767
 20
7.7555666202
 30
0.0
 10
12.5403569677
 20
7.7715670232
 30
0.0
 10
12.5385396236
 20
7.7870900628
 30
0.0
 10
12.5365220569
 20
7.8021061355
 30
0.0
 10
12.5343081635
 20
7.8165866145
 30
0.0
 10
12.5319022144
 20
7.8305039141
 30
0.0
 10
12.5293088657
 20
7.8438315527
 30
0.0
 10
12.5265331276
 20
7.8565442028
 30
0.0
 10
12.5235803553
 20
7.8686177465
 30
0.0
 10
12.5204562287
 20
7.880029312
 30
0.0
 10
12.5171667542
 20
7.8907574317
 30
0.0
 10
12.5137182271
 20
7.9007817837
 30
0.0
 10
12.5106699316
 20
7.908656381
 30
0.0
 10
12.5081489771
 20
7.9145815593
 30
0.0
 10
12.506253337
 20
7.9187655301
 30
0.0
 10
12.5043229343
 20
7.9227599514
 30
0.0
 10
12.5023586627
 20
7.926562952
 30
0.0
 10
12.5003614661
 20
7.9301727524
 30
0.0
 10
12.4983322214
 20
7.9335876367
 30
0.0
 10
12.4962719069
 20
7.9368060297
 30
0.0
 10
12.4941814384
 20
7.9398264107
 30
0.0
 10
12.4920617216
 20
7.9426473719
 30
0.0
 10
12.4899137929
 20
7.9452675572
 30
0.0
 10
12.4877383223
 20
7.9476859032
 30
0.0
 10
12.4848603062
 20
7.9505812919
 30
0.0
 10
12.4818743038
 20
7.9531431341
 30
0.0
 10
12.4787820455
 20
7.9553165286
 30
0.0
 10
12.4764837225
 20
7.9567086608
 30
0.0
 10
12.4741639467
 20
7.9578925795
 30
0.0
 10
12.4725848043
 20
7.9585504247
 30
0.0
 10
12.471794309
 20
7.9588423043
 30
0.0
  0
SPLINE
  5
3B1
100
AcDbEntity
  8
0
100
AcDbSpline
 62
7
  6
CONTINUOUS
 70
0
 71
3
 72
15
 73
11
 74
0
 42
0.0000001
 43
0.0000001
 44
0.0000000001
 40
0.0
 40
0.0
 40
0.0
 40
0.0
 40
0.1453870045
 40
0.2840723358
 40
0.4163886154
 40
0.5427536322
 40
0.6636693082
 40
0.7797200424
 40
0.8915769359
 40
1.0
 40
1.0
 40
1.0
 40
1.0
 10
12.4334340104
 20
7.0966120976
 30
0.0
 10
12.4324985311
 20
7.0957084939
 30
0.0
 10
12.4306283426
 20
7.0939859644
 30
0.0
 10
12.4277561411
 20
7.0916111068
 30
0.0
 10
12.4248864066
 20
7.08950934
 30
0.0
 10
12.4220208974
 20
7.087682272
 30
0.0
 10
12.4191611503
 20
7.0861312625
 30
0.0
 10
12.4163086259
 20
7.0848576152
 30
0.0
 10
12.4134653681
 20
7.0838626536
 30
0.0
 10
12.4115514764
 20
7.0833795692
 30
0.0
 10
12.4106007575
 20
7.0831873994
 30
0.0
  0
SPLINE
  5
3B2
100
AcDbEntity
  8
0
100
AcDbSpline
 62
4
  6
CONTINUOUS
 70
0
 71
3
 72
403
 73
399
 74
0
 42
0.0000001
 43
0.0000001
 44
0.0000000001
 40
0.0
 40
0.0
 40
0.0
 40
0.0
 40
0.015625
 40
0.0234375
 40
0.03125
 40
0.0390625
 40
0.04296875
 40
0.046875
 40
0.05078125
 40
0.0546875
 40
0.056640625
 40
0.05859375
 40
0.0595703125
 40
0.060546875
 40
0.0615234375
 40
0.0620117188
 40
0.0622558594
 40
0.0625
 40
0.0627441406
 40
0.0629882812
 40
0.0634765625
 40
0.064453125
 40
0.0654296875
 40
0.06640625
 40
0.068359375
 40
0.0703125
 40
0.07421875
 40
0.078125
 40
0.08203125
 40
0.0859375
 40
0.09375
 40
0.1015625
 40
0.10546875
 40
0.109375
 40
0.11328125
 40
0.1171875
 40
0.119140625
 40
0.12109375
 40
0.1220703125
 40
0.123046875
 40
0.1240234375
 40
0.1245117188
 40
0.1247558594
 40
0.125
 40
0.1252441406
 40
0.1254882812
 40
0.1259765625
 40
0.126953125
 40
0.1279296875
 40
0.12890625
 40
0.130859375
 40
0.1328125
 40
0.13671875
 40
0.140625
 40
0.14453125
 40
0.1484375
 40
0.15625
 40
0.1640625
 40
0.16796875
 40
0.171875
 40
0.17578125
 40
0.1796875
 40
0.181640625
 40
0.18359375
 40
0.1845703125
 40
0.185546875
 40
0.1865234375
 40
0.1870117188
 40
0.1872558594
 40
0.1875
 40
0.1877441406
 40
0.1879882812
 40
0.1884765625
 40
0.189453125
 40
0.1904296875
 40
0.19140625
 40
0.193359375
 40
0.1953125
 40
0.19921875
 40
0.203125
 40
0.20703125
 40
0.2109375
 40
0.21875
 40
0.2265625
 40
0.23046875
 40
0.234375
 40
0.23828125
 40
0.2421875
 40
0.244140625
 40
0.24609375
 40
0.2470703125
 40
0.248046875
 40
0.2490234375
 40
0.2495117188
 40
0.2497558594
 40
0.25
 40
0.2502441406
 40
0.2504882812
 40
0.2509765625
 40
0.251953125
 40
0.2529296875
 40
0.25390625
 40
0.255859375
 40
0.2578125
 40
0.26171875
 40
0.265625
 40
0.26953125
 40
0.2734375
 40
0.28125
 40
0.2890625
 40
0.29296875
 40
0.296875
 40
0.30078125
 40
0.3046875
 40
0.306640625
 40
0.30859375
 40
0.3095703125
 40
0.310546875
 40
0.3115234375
 40
0.3120117188
 40
0.3122558594
 40
0.3125
 40
0.3127441406
 40
0.3129882812
 40
0.3134765625
 40
0.314453125
 40
0.3154296875
 40
0.31640625
 40
0.318359375
 40
0.3203125
 40
0.32421875
 40
0.328125
 40
0.33203125
 40
0.3359375
 40
0.34375
 40
0.3515625
 40
0.35546875
 40
0.359375
 40
0.36328125
 40
0.3671875
 40
0.369140625
 40
0.37109375
 40
0.3720703125
 40
0.373046875
 40
0.3740234375
 40
0.3745117188
 40
0.3747558594
 40
0.375
 40
0.3752441406
 40
0.3754882812
 40
0.3759765625
 40
0.376953125
 40
0.3779296875
 40
0.37890625
 40
0.380859375
 40
0.3828125
 40
0.38671875
 40
0.390625
 40
0.39453125
 40
0.3984375
 40
0.40625
 40
0.4140625
 40
0.41796875
 40
0.421875
 40
0.42578125
 40
0.4296875
 40
0.431640625
 40
0.43359375
 40
0.4345703125
 40
0.435546875
 40
0.4365234375
 40
0.4370117188
 40
0.4372558594
 40
0.4375
 40
0.4377441406
 40
0.4379882812
 40
0.4384765625
 40
0.439453125
 40
0.4404296875
 40
0.44140625
 40
0.443359375
 40
0.4453125
 40
0.44921875
 40
0.453125
 40
0.45703125
 40
0.4609375
 40
0.46875
 40
0.4765625
 40
0.48046875
 40
0.484375
 40
0.48828125
 40
0.4921875
 40
0.494140625
 40
0.49609375
 40
0.4970703125
 40
0.498046875
 40
0.4990234375
 40
0.4995117188
 40
0.4997558594
 40
0.5
 40
0.5002441406
 40
0.5004882812
 40
0.5009765625
 40
0.501953125
 40
0.5029296875
 40
0.50390625
 40
0.505859375
 40
0.5078125
 40
0.51171875
 40
0.515625
 40
0.51953125
 40
0.5234375
 40
0.53125
 40
0.5390625
 40
0.54296875
 40
0.546875
 40
0.55078125
 40
0.5546875
 40
0.556640625
 40
0.55859375
 40
0.5595703125
 40
0.560546875
 40
0.5615234375
 40
0.5620117188
 40
0.5622558594
 40
0.5625
 40
0.5627441406
 40
0.5629882812
 40
0.5634765625
 40
0.564453125
 40
0.5654296875
 40
0.56640625
 40
0.568359375
 40
0.5703125
 40
0.57421875
 40
0.578125
 40
0.58203125
 40
0.5859375
 40
0.59375
 40
0.6015625
 40
0.60546875
 40
0.609375
 40
0.61328125
 40
0.6171875
 40
0.619140625
 40
0.62109375
 40
0.6220703125
 40
0.623046875
 40
0.6240234375
 40
0.6245117188
 40
0.6247558594
 40
0.625
 40
0.6252441406
 40
0.6254882812
 40
0.6259765625
 40
0.626953125
 40
0.6279296875
 40
0.62890625
 40
0.630859375
 40
0.6328125
 40
0.63671875
 40
0.640625
 40
0.64453125
 40
0.6484375
 40
0.65625
 40
0.6640625
 40
0.66796875
 40
0.671875
 40
0.67578125
 40
0.6796875
 40
0.681640625
 40
0.68359375
 40
0.6845703125
 40
0.685546875
 40
0.6865234375
 40
0.6870117188
 40
0.6872558594
 40
0.6875
 40
0.6877441406
 40
0.6879882812
 40
0.6884765625
 40
0.689453125
 40
0.6904296875
 40
0.69140625
 40
0.693359375
 40
0.6953125
 40
0.69921875
 40
0.703125
 40
0.70703125
 40
0.7109375
 40
0.71875
 40
0.7265625
 40
0.73046875
 40
0.734375
 40
0.73828125
 40
0.7421875
 40
0.744140625
 40
0.74609375
 40
0.7470703125
 40
0.748046875
 40
0.7490234375
 40
0.7495117188
 40
0.7497558594
 40
0.75
 40
0.7502441406
 40
0.7504882812
 40
0.7509765625
 40
0.751953125
 40
0.7529296875
 40
0.75390625
 40
0.755859375
 40
0.7578125
 40
0.76171875
 40
0.765625
 40
0.76953125
 40
0.7734375
 40
0.78125
 40
0.7890625
 40
0.79296875
 40
0.796875
 40
0.80078125
 40
0.8046875
 40
0.806640625
 40
0.80859375
 40
0.8095703125
 40
0.810546875
 40
0.8115234375
 40
0.8120117188
 40
0.8122558594
 40
0.8125
 40
0.8127441406
 40
0.8129882812
 40
0.8134765625
 40
0.814453125
 40
0.8154296875
 40
0.81640625
 40
0.818359375
 40
0.8203125
 40
0.82421875
 40
0.828125
 40
0.83203125
 40
0.8359375
 40
0.84375
 40
0.8515625
 40
0.85546875
 40
0.859375
 40
0.86328125
 40
0.8671875
 40
0.869140625
 40
0.87109375
 40
0.8720703125
 40
0.873046875
 40
0.8740234375
 40
0.8745117188
 40
0.8747558594
 40
0.875
 40
0.8752441406
 40
0.8754882812
 40
0.8759765625
 40
0.876953125
 40
0.8779296875
 40
0.87890625
 40
0.880859375
 40
0.8828125
 40
0.88671875
 40
0.890625
 40
0.89453125
 40
0.8984375
 40
0.90625
 40
0.9140625
 40
0.91796875
 40
0.921875
 40
0.92578125
 40
0.9296875
 40
0.931640625
 40
0.93359375
 40
0.9345703125
 40
0.935546875
 40
0.9365234375
 40
0.9370117188
 40
0.9372558594
 40
0.9375
 40
0.9377441406
 40
0.9379882812
 40
0.9384765625
 40
0.939453125
 40
0.9404296875
 40
0.94140625
 40
0.943359375
 40
0.9453125
 40
0.94921875
 40
0.953125
 40
0.95703125
 40
0.9609375
 40
0.96875
 40
0.9765625
 40
0.984375
 40
1.0
 40
1.0
 40
1.0
 40
1.0
 10
10.186920584
 20
8.8654554481
 30
0.0
 10
10.1872277957
 20
8.862300956
 30
0.0
 10
10.1876886132
 20
8.8575692178
 30
0.0
 10
10.1883030365
 20
8.8512602336
 30
0.0
 10
10.1887638541
 20
8.8465284954
 30
0.0
 10
10.1891478685
 20
8.8425853802
 30
0.0
 10
10.1894550805
 20
8.8394308882
 30
0.0
 10
10.1896854882
 20
8.8370650189
 30
0.0
 10
10.1899159007
 20
8.8346991503
 30
0.0
 10
10.1901078965
 20
8.8327275913
 30
0.0
 10
10.1902615257
 20
8.8311503482
 30
0.0
 10
10.1903574699
 20
8.8301645618
 30
0.0
 10
10.1904343949
 20
8.8293759545
 30
0.0
 10
10.1904916241
 20
8.8287844392
 30
0.0
 10
10.1905407928
 20
8.8282916999
 30
0.0
 10
10.190572311
 20
8.8279464094
 30
0.0
 10
10.1905948493
 20
8.827749683
 30
0.0
 10
10.1905989979
 20
8.8276004972
 30
0.0
 10
10.190651903
 20
8.8274575842
 30
0.0
 10
10.1907054363
 20
8.8272648455
 30
0.0
 10
10.1908070433
 20
8.8269285722
 30
0.0
 10
10.1909480535
 20
8.8264476488
 30
0.0
 10
10.191119039
 20
8.8258707689
 30
0.0
 10
10.1913464002
 20
8.825101516
 30
0.0
 10
10.1916308139
 20
8.8241399771
 30
0.0
 10
10.1920857572
 20
8.8226014996
 30
0.0
 10
10.192654477
 20
8.820678408
 30
0.0
 10
10.1933369234
 20
8.8183706959
 30
0.0
 10
10.1940193744
 20
8.8160629843
 30
0.0
 10
10.1949293075
 20
8.8129860354
 30
0.0
 10
10.1960667244
 20
8.8091398493
 30
0.0
 10
10.197204141
 20
8.8052936631
 30
0.0
 10
10.1981140747
 20
8.8022167143
 30
0.0
 10
10.1987965238
 20
8.7999090024
 30
0.0
 10
10.1994789773
 20
8.7976012919
 30
0.0
 10
10.2000476749
 20
8.7956781951
 30
0.0
 10
10.2005026636
 20
8.7941397282
 30
0.0
 10
10.2007869618
 20
8.7931781625
 30
0.0
 10
10.2010145602
 20
8.7924089647
 30
0.0
 10
10.2011848212
 20
8.7918319163
 30
0.0
 10
10.201328098
 20
8.79135152
 30
0.0
 10
10.2014256587
 20
8.7910143057
 30
0.0
 10
10.2014856752
 20
8.7908230748
 30
0.0
 10
10.2015186659
 20
8.7906755303
 30
0.0
 10
10.2015976094
 20
8.7905437394
 30
0.0
 10
10.2016868385
 20
8.7903625232
 30
0.0
 10
10.2018504576
 20
8.790047955
 30
0.0
 10
10.2020802947
 20
8.7895972333
 30
0.0
 10
10.2023577705
 20
8.7890569403
 30
0.0
 10
10.2027271544
 20
8.7883363494
 30
0.0
 10
10.2031890842
 20
8.7874356794
 30
0.0
 10
10.2039280602
 20
8.785994569
 30
0.0
 10
10.2048518186
 20
8.7841931942
 30
0.0
 10
10.2059603121
 20
8.7820315387
 30
0.0
 10
10.2070688101
 20
8.7798698848
 30
0.0
 10
10.2085468058
 20
8.7769876791
 30
0.0
 10
10.2103943011
 20
8.7733849221
 30
0.0
 10
10.2122417959
 20
8.7697821649
 30
0.0
 10
10.2137197923
 20
8.7668999594
 30
0.0
 10
10.2148282884
 20
8.7647383048
 30
0.0
 10
10.2159367888
 20
8.7625766521
 30
0.0
 10
10.2168605258
 20
8.7607752686
 30
0.0
 10
10.2175995452
 20
8.7593341759
 30
0.0
 10
10.2180613646
 20
8.7584334608
 30
0.0
 10
10.2184309753
 20
8.7577129625
 30
0.0
 10
10.2187077583
 20
8.7571723869
 30
0.0
 10
10.2189397629
 20
8.7567225492
 30
0.0
 10
10.2190995127
 20
8.7564064029
 30
0.0
 10
10.2191949414
 20
8.7562277152
 30
0.0
 10
10.2192548416
 20
8.7560881574
 30
0.0
 10
10.2193593557
 20
8.7559697843
 30
0.0
 10
10.2194831459
 20
8.755804564
 30
0.0
 10
10.2197070295
 20
8.7555188714
 30
0.0
 10
10.2200230724
 20
8.7551089392
 30
0.0
 10
10.2204039465
 20
8.754617791
 30
0.0
 10
10.2209112118
 20
8.7539626576
 30
0.0
 10
10.2215454876
 20
8.753143833
 30
0.0
 10
10.2225602203
 20
8.7518336621
 30
0.0
 10
10.2238286735
 20
8.7501959662
 30
0.0
 10
10.2253508013
 20
8.7482307235
 30
0.0
 10
10.2268729334
 20
8.7462654829
 30
0.0
 10
10.2289024413
 20
8.7436451613
 30
0.0
 10
10.2314393268
 20
8.7403697597
 30
0.0
 10
10.233976212
 20
8.7370943577
 30
0.0
 10
10.2360057205
 20
8.7344740366
 30
0.0
 10
10.237527851
 20
8.7325087947
 30
0.0
 10
10.2390499846
 20
8.7305435565
 30
0.0
 10
10.2403184196
 20
8.7289058469
 30
0.0
 10
10.2413331894
 20
8.7275957038
 30
0.0
 10
10.2419673709
 20
8.7267768086
 30
0.0
 10
10.2424748297
 20
8.7261218201
 30
0.0
 10
10.242855113
 20
8.7256302293
 30
0.0
 10
10.2431730043
 20
8.7252216818
 30
0.0
 10
10.2433935882
 20
8.7249335173
 30
0.0
 10
10.2435226653
 20
8.7247722576
 30
0.0
 10
10.2436109399
 20
8.7246417189
 30
0.0
 10
10.2437318326
 20
8.724547853
 30
0.0
 10
10.2438816454
 20
8.7244099066
 30
0.0
 10
10.2441491187
 20
8.7241744603
 30
0.0
 10
10.244528452
 20
8.7238349925
 30
0.0
 10
10.2449848382
 20
8.7234289649
 30
0.0
 10
10.2455929388
 20
8.722887129
 30
0.0
 10
10.2463532065
 20
8.7222099935
 30
0.0
 10
10.2475695554
 20
8.7211264876
 30
0.0
 10
10.2490900188
 20
8.7197721359
 30
0.0
 10
10.2509145632
 20
8.7181469007
 30
0.0
 10
10.2527391108
 20
8.7165216689
 30
0.0
 10
10.2551718397
 20
8.7143546921
 30
0.0
 10
10.2582127513
 20
8.7116459715
 30
0.0
 10
10.2612536627
 20
8.7089372506
 30
0.0
 10
10.263686392
 20
8.7067702742
 30
0.0
 10
10.2655109383
 20
8.705145041
 30
0.0
 10
10.2673354873
 20
8.7035198115
 30
0.0
 10
10.2688559365
 20
8.7021654419
 30
0.0
 10
10.2700723144
 20
8.7010819724
 30
0.0
 10
10.2708325085
 20
8.7004047442
 30
0.0
 10
10.27144076
 20
8.6998630987
 30
0.0
 10
10.2718966852
 20
8.6994564893
 30
0.0
 10
10.2722774609
 20
8.6991188418
 30
0.0
 10
10.2725423594
 20
8.698880146
 30
0.0
 10
10.2726962976
 20
8.698747406
 30
0.0
 10
10.272804518
 20
8.6986375476
 30
0.0
 10
10.2729403879
 20
8.6985670741
 30
0.0
 10
10.2731119033
 20
8.6984593716
 30
0.0
 10
10.2734165489
 20
8.6982772928
 30
0.0
 10
10.2738494075
 20
8.6980138339
 30
0.0
 10
10.2743698434
 20
8.6976991156
 30
0.0
 10
10.2750634067
 20
8.6972789909
 30
0.0
 10
10.2759304811
 20
8.6967540064
 30
0.0
 10
10.2773177329
 20
8.6959139353
 30
0.0
 10
10.2790518208
 20
8.6948638793
 30
0.0
 10
10.2811327163
 20
8.6936037981
 30
0.0
 10
10.2832136145
 20
8.6923437207
 30
0.0
 10
10.2859881445
 20
8.690663616
 30
0.0
 10
10.2894563073
 20
8.6885634858
 30
0.0
 10
10.29292447
 20
8.6864633552
 30
0.0
 10
10.2956990002
 20
8.6847832511
 30
0.0
 10
10.2977798975
 20
8.683523172
 30
0.0
 10
10.2998607966
 20
8.6822630971
 30
0.0
 10
10.3015948734
 20
8.6812130214
 30
0.0
 10
10.3029821477
 20
8.6803729906
 30
0.0
 10
10.303849165
 20
8.6798479036
 30
0.0
 10
10.3045428454
 20
8.6794279891
 30
0.0
 10
10.3050629237
 20
8.6791126287
 30
0.0
 10
10.3054969012
 20
8.6788511788
 30
0.0
 10
10.3057995494
 20
8.6786655136
 30
0.0
 10
10.305974265
 20
8.6785635575
 30
0.0
 10
10.3061003049
 20
8.6784754327
 30
0.0
 10
10.3062454453
 20
8.6784318696
 30
0.0
 10
10.3064323035
 20
8.6783582418
 30
0.0
 10
10.3067624094
 20
8.6782366353
 30
0.0
 10
10.3072323663
 20
8.6780591255
 30
0.0
 10
10.3077970094
 20
8.6778477343
 30
0.0
 10
10.3085496241
 20
8.6775653134
 30
0.0
 10
10.3094904756
 20
8.6772124811
 30
0.0
 10
10.3109957915
 20
8.676647841
 30
0.0
 10
10.3128774523
 20
8.6759420781
 30
0.0
 10
10.3151354385
 20
8.6750951466
 30
0.0
 10
10.3173934266
 20
8.6742482195
 30
0.0
 10
10.3204040766
 20
8.6731189817
 30
0.0
 10
10.3241673894
 20
8.6717074351
 30
0.0
 10
10.3279307021
 20
8.6702958882
 30
0.0
 10
10.3309413524
 20
8.669166651
 30
0.0
 10
10.3331993397
 20
8.668319722
 30
0.0
 10
10.3354573284
 20
8.6674727975
 30
0.0
 10
10.3373389814
 20
8.6667670129
 30
0.0
 10
10.3388443134
 20
8.6662024171
 30
0.0
 10
10.339785124
 20
8.6658494722
 30
0.0
 10
10.3405378226
 20
8.6655672823
 30
0.0
 10
10.3411022095
 20
8.6653551853
 30
0.0
 10
10.3415729677
 20
8.6651798839
 30
0.0
 10
10.3419016432
 20
8.6650543349
 30
0.0
 10
10.3420907932
 20
8.664987024
 30
0.0
 10
10.342228894
 20
8.6649240576
 30
0.0
 10
10.3423813738
 20
8.6649088084
 30
0.0
 10
10.3425796647
 20
8.6648718319
 30
0.0
 10
10.3429290106
 20
8.6648148779
 30
0.0
 10
10.3434268544
 20
8.6647294607
 30
0.0
 10
10.34402479
 20
8.6646286954
 30
0.0
 10
10.3448218548
 20
8.6644937356
 30
0.0
 10
10.3458182482
 20
8.6643252434
 30
0.0
 10
10.3474124429
 20
8.6640555398
 30
0.0
 10
10.3494051981
 20
8.6637184501
 30
0.0
 10
10.3517964993
 20
8.6633139254
 30
0.0
 10
10.3541878019
 20
8.6629094053
 30
0.0
 10
10.3573762048
 20
8.6623700436
 30
0.0
 10
10.3613617086
 20
8.661695842
 30
0.0
 10
10.3653472124
 20
8.66102164
 30
0.0
 10
10.3685356154
 20
8.6604822789
 30
0.0
 10
10.3709269178
 20
8.6600777568
 30
0.0
 10
10.3733182197
 20
8.6596732396
 30
0.0
 10
10.3753109726
 20
8.6593361267
 30
0.0
 10
10.376905172
 20
8.6590664704
 30
0.0
 10
10.3779015534
 20
8.6588978578
 30
0.0
 10
10.378698643
 20
8.6587631449
 30
0.0
 10
10.3792965027
 20
8.6586616253
 30
0.0
 10
10.3797945838
 20
8.6585785683
 30
0.0
 10
10.3801435062
 20
8.6585174008
 30
0.0
 10
10.3803424756
 20
8.6584871754
 30
0.0
 10
10.3804928712
 20
8.6584511891
 30
0.0
 10
10.3806388002
 20
8.658466108
 30
0.0
 10
10.3808349301
 20
8.6584682437
 30
0.0
 10
10.3811774316
 20
8.658480254
 30
0.0
 10
10.3816670989
 20
8.6584930864
 30
0.0
 10
10.3822545373
 20
8.6585103366
 30
0.0
 10
10.3830378452
 20
8.6585326903
 30
0.0
 10
10.3840169607
 20
8.6585608537
 30
0.0
 10
10.3855835563
 20
8.6586057915
 30
0.0
 10
10.3875417971
 20
8.6586620063
 30
0.0
 10
10.3898916876
 20
8.6587294457
 30
0.0
 10
10.3922415777
 20
8.6587968901
 30
0.0
 10
10.3953747646
 20
8.6588868141
 30
0.0
 10
10.3992912483
 20
8.6589992199
 30
0.0
 10
10.403207732
 20
8.6591116252
 30
0.0
 10
10.4063409188
 20
8.6592015499
 30
0.0
 10
10.4086908092
 20
8.6592689922
 30
0.0
 10
10.4110406987
 20
8.6593364393
 30
0.0
 10
10.4129989427
 20
8.6593926304
 30
0.0
 10
10.4145655316
 20
8.6594376163
 30
0.0
 10
10.4155446643
 20
8.6594656574
 30
0.0
 10
10.4163279368
 20
8.6594882622
 30
0.0
 10
10.4169154832
 20
8.659504745
 30
0.0
 10
10.4174048126
 20
8.6595199786
 30
0.0
 10
10.4177479174
 20
8.6595277024
 30
0.0
 10
10.4179430807
 20
8.6595367061
 30
0.0
 10
10.4180919788
 20
8.6595305286
 30
0.0
 10
10.4182312228
 20
8.659573777
 30
0.0
 10
10.418420249
 20
8.6596142013
 30
0.0
 10
10.4187494758
 20
8.6596929764
 30
0.0
 10
10.4192206201
 20
8.6598013126
 30
0.0
 10
10.4197856422
 20
8.6599331137
 30
0.0
 10
10.4205391275
 20
8.6601082206
 30
0.0
 10
10.4214809423
 20
8.6603273191
 30
0.0
 10
10.4229878693
 20
8.6606777567
 30
0.0
 10
10.42487152
 20
8.6611158449
 30
0.0
 10
10.4271319044
 20
8.6616415331
 30
0.0
 10
10.4293922878
 20
8.662167226
 30
0.0
 10
10.4324061326
 20
8.6628681482
 30
0.0
 10
10.4361734386
 20
8.6637443016
 30
0.0
 10
10.4399407447
 20
8.6646204546
 30
0.0
 10
10.4429545893
 20
8.6653213775
 30
0.0
 10
10.4452149733
 20
8.6658470684
 30
0.0
 10
10.4474753555
 20
8.6663727639
 30
0.0
 10
10.4493590129
 20
8.6668108294
 30
0.0
 10
10.4508659263
 20
8.6671613133
 30
0.0
 10
10.4518077759
 20
8.6673802939
 30
0.0
 10
10.4525611896
 20
8.6675556429
 30
0.0
 10
10.4531264304
 20
8.6676867044
 30
0.0
 10
10.4535968904
 20
8.6677973547
 30
0.0
 10
10.4539273389
 20
8.6678719987
 30
0.0
 10
10.4541144076
 20
8.6679190419
 30
0.0
 10
10.4542596641
 20
8.6679419591
 30
0.0
 10
10.4543859803
 20
8.6680121425
 30
0.0
 10
10.4545610085
 20
8.6680892334
 30
0.0
 10
10.4548642297
 20
8.668231824
 30
0.0
 10
10.4552990121
 20
8.6684315088
 30
0.0
 10
10.4558200621
 20
8.6686728497
 30
0.0
 10
10.4565150361
 20
8.668994037
 30
0.0
 10
10.4573836712
 20
8.6693957268
 30
0.0
 10
10.4587735334
 20
8.6700383155
 30
0.0
 10
10.4605108454
 20
8.6708415908
 30
0.0
 10
10.4625956265
 20
8.6718055043
 30
0.0
 10
10.4646804059
 20
8.6727694223
 30
0.0
 10
10.4674601123
 20
8.6740546448
 30
0.0
 10
10.470934745
 20
8.6756611734
 30
0.0
 10
10.474409378
 20
8.6772677017
 30
0.0
 10
10.4771890841
 20
8.6785529248
 30
0.0
 10
10.4792738643
 20
8.6795168409
 30
0.0
 10
10.4813586421
 20
8.6804807615
 30
0.0
 10
10.4830959643
 20
8.6812840148
 30
0.0
 10
10.4844858058
 20
8.6819266484
 30
0.0
 10
10.4853544936
 20
8.682328224
 30
0.0
 10
10.4860493594
 20
8.6826496456
 30
0.0
 10
10.48657074
 20
8.6828902707
 30
0.0
 10
10.4870044881
 20
8.6830921948
 30
0.0
 10
10.4873095557
 20
8.6832307881
 30
0.0
 10
10.4874816254
 20
8.6833142837
 30
0.0
 10
10.4876170292
 20
8.6833647936
 30
0.0
 10
10.4877281542
 20
8.6834616012
 30
0.0
 10
10.4878847895
 20
8.6835745287
 30
0.0
 10
10.4881549557
 20
8.6837796762
 30
0.0
 10
10.4885429703
 20
8.6840688102
 30
0.0
 10
10.4890077048
 20
8.6844174548
 30
0.0
 10
10.4896276593
 20
8.6848817262
 30
0.0
 10
10.4904024967
 20
8.6854622668
 30
0.0
 10
10.4916422956
 20
8.6863910192
 30
0.0
 10
10.493192024
 20
8.6875519983
 30
0.0
 10
10.4950517067
 20
8.6889451567
 30
0.0
 10
10.4969113872
 20
8.6903383195
 30
0.0
 10
10.4993909619
 20
8.6921958684
 30
0.0
 10
10.5024904299
 20
8.694517805
 30
0.0
 10
10.5055898983
 20
8.6968397413
 30
0.0
 10
10.5080694726
 20
8.6986972907
 30
0.0
 10
10.5099291543
 20
8.7000904519
 30
0.0
 10
10.5117888322
 20
8.7014836164
 30
0.0
 10
10.5133385755
 20
8.7026445764
 30
0.0
 10
10.5145783441
 20
8.7035733679
 30
0.0
 10
10.5153532586
 20
8.7041538089
 30
0.0
 10
10.5159730548
 20
8.7046182847
 30
0.0
 10
10.5164382728
 20
8.704966305
 30
0.0
 10
10.5168247745
 20
8.7052573923
 30
0.0
 10
10.5170976414
 20
8.7054590528
 30
0.0
 10
10.5172499496
 20
8.7055775673
 30
0.0
 10
10.5173743664
 20
8.7056572136
 30
0.0
 10
10.5174598484
 20
8.7057721781
 30
0.0
 10
10.5175874053
 20
8.7059131448
 30
0.0
 10
10.5178043022
 20
8.7061655762
 30
0.0
 10
10.5181174631
 20
8.7065231918
 30
0.0
 10
10.5184918402
 20
8.7069536148
 30
0.0
 10
10.5189915043
 20
8.7075270636
 30
0.0
 10
10.519615915
 20
8.7082440283
 30
0.0
 10
10.5206150668
 20
8.7093910858
 30
0.0
 10
10.5218639741
 20
8.7108249372
 30
0.0
 10
10.5233626767
 20
8.7125455462
 30
0.0
 10
10.5248613756
 20
8.7142661586
 30
0.0
 10
10.5268596421
 20
8.7165603073
 30
0.0
 10
10.5293574748
 20
8.7194279936
 30
0.0
 10
10.5318553078
 20
8.7222956797
 30
0.0
 10
10.5338535738
 20
8.7245898288
 30
0.0
 10
10.5353522743
 20
8.7263104399
 30
0.0
 10
10.5368509709
 20
8.7280310539
 30
0.0
 10
10.538099897
 20
8.7294648898
 30
0.0
 10
10.5390990104
 20
8.7306119789
 30
0.0
 10
10.539723519
 20
8.7313288632
 30
0.0
 10
10.5402229821
 20
8.7319024768
 30
0.0
 10
10.540597973
 20
8.7323323963
 30
0.0
 10
10.5409092136
 20
8.7326915874
 30
0.0
 10
10.5411295386
 20
8.7329412063
 30
0.0
 10
10.5412516029
 20
8.7330866794
 30
0.0
 10
10.5413539562
 20
8.7331878015
 30
0.0
 10
10.5414150071
 20
8.7333194375
 30
0.0
 10
10.541510815
 20
8.7334843086
 30
0.0
 10
10.5416717666
 20
8.7337777921
 30
0.0
 10
10.5419052066
 20
8.7341944616
 30
0.0
 10
10.5421838325
 20
8.7346955748
 30
0.0
 10
10.5425558585
 20
8.735363338
 30
0.0
 10
10.5430207112
 20
8.7361981748
 30
0.0
 10
10.543764576
 20
8.7375338394
 30
0.0
 10
10.5446943726
 20
8.7392034456
 30
0.0
 10
10.5458101432
 20
8.7412069622
 30
0.0
 10
10.5469259099
 20
8.7432104817
 30
0.0
 10
10.5484136002
 20
8.74588184
 30
0.0
 10
10.5502732126
 20
8.7492210383
 30
0.0
 10
10.5521328253
 20
8.7525602363
 30
0.0
 10
10.553620515
 20
8.755231595
 30
0.0
 10
10.5547362834
 20
8.7572351134
 30
0.0
 10
10.5558520475
 20
8.759238634
 30
0.0
 10
10.5567818645
 20
8.7609082278
 30
0.0
 10
10.5575256875
 20
8.7622439178
 30
0.0
 10
10.5579906467
 20
8.7630786901
 30
0.0
 10
10.5583624543
 20
8.7637465856
 30
0.0
 10
10.5586417471
 20
8.7642472948
 30
0.0
 10
10.5588731005
 20
8.7646652279
 30
0.0
 10
10.5590377771
 20
8.7649564557
 30
0.0
 10
10.5591276166
 20
8.765124941
 30
0.0
 10
10.5592070005
 20
8.7652454755
 30
0.0
 10
10.5592404981
 20
8.7653882929
 30
0.0
 10
10.5593011672
 20
8.7655709437
 30
0.0
 10
10.5593998808
 20
8.7658942038
 30
0.0
 10
10.559544799
 20
8.7663541106
 30
0.0
 10
10.559717032
 20
8.7669068092
 30
0.0
 10
10.5599472589
 20
8.7676434577
 30
0.0
 10
10.560234843
 20
8.7685643651
 30
0.0
 10
10.560695089
 20
8.7700377629
 30
0.0
 10
10.5612703583
 20
8.7718795287
 30
0.0
 10
10.5619606979
 20
8.7740896396
 30
0.0
 10
10.5626510331
 20
8.7762997528
 30
0.0
 10
10.5635714815
 20
8.7792465695
 30
0.0
 10
10.5647220415
 20
8.7829300907
 30
0.0
 10
10.5658726018
 20
8.7866136117
 30
0.0
 10
10.5667930496
 20
8.7895604287
 30
0.0
 10
10.5674833867
 20
8.791770541
 30
0.0
 10
10.5681737191
 20
8.793980655
 30
0.0
 10
10.5687490107
 20
8.7958224114
 30
0.0
 10
10.5692092114
 20
8.7972958284
 30
0.0
 10
10.5694969109
 20
8.798216687
 30
0.0
 10
10.5697269009
 20
8.7989534357
 30
0.0
 10
10.5698998576
 20
8.799505828
 30
0.0
 10
10.5700425117
 20
8.7999666931
 30
0.0
 10
10.570145267
 20
8.8002882426
 30
0.0
 10
10.5701994603
 20
8.8004736342
 30
0.0
 10
10.5702528494
 20
8.8006080324
 30
0.0
 10
10.5702575241
 20
8.8007601881
 30
0.0
 10
10.5702807491
 20
8.8009568684
 30
0.0
 10
10.5703134758
 20
8.8013039449
 30
0.0
 10
10.5703643675
 20
8.8017982596
 30
0.0
 10
10.5704236658
 20
8.8023920831
 30
0.0
 10
10.570503349
 20
8.8031836221
 30
0.0
 10
10.5706027411
 20
8.8041731232
 30
0.0
 10
10.5707618869
 20
8.8057562817
 30
0.0
 10
10.5709607785
 20
8.8077352447
 30
0.0
 10
10.5711994659
 20
8.8101099939
 30
0.0
 10
10.5714381486
 20
8.8124847448
 30
0.0
 10
10.5717563939
 20
8.8156510788
 30
0.0
 10
10.5721541999
 20
8.8196089964
 30
0.0
 10
10.5726315673
 20
8.8243584975
 30
0.0
 10
10.5732680572
 20
8.8306911657
 30
0.0
 10
10.5737454246
 20
8.8354406668
 30
0.0
 10
10.5740636695
 20
8.8386070009
 30
0.0
  0
SPLINE
  5
3B3
100
AcDbEntity
  8
0
100
AcDbSpline
 62
4
  6
CONTINUOUS
 70
0
 71
3
 72
403
 73
399
 74
0
 42
0.0000001
 43
0.0000001
 44
0.0000000001
 40
0.0
 40
0.0
 40
0.0
 40
0.0
 40
0.015625
 40
0.0234375
 40
0.03125
 40
0.0390625
 40
0.04296875
 40
0.046875
 40
0.05078125
 40
0.0546875
 40
0.056640625
 40
0.05859375
 40
0.0595703125
 40
0.060546875
 40
0.0615234375
 40
0.0620117188
 40
0.0622558594
 40
0.0625
 40
0.0627441406
 40
0.0629882812
 40
0.0634765625
 40
0.064453125
 40
0.0654296875
 40
0.06640625
 40
0.068359375
 40
0.0703125
 40
0.07421875
 40
0.078125
 40
0.08203125
 40
0.0859375
 40
0.09375
 40
0.1015625
 40
0.10546875
 40
0.109375
 40
0.11328125
 40
0.1171875
 40
0.119140625
 40
0.12109375
 40
0.1220703125
 40
0.123046875
 40
0.1240234375
 40
0.1245117188
 40
0.1247558594
 40
0.125
 40
0.1252441406
 40
0.1254882812
 40
0.1259765625
 40
0.126953125
 40
0.1279296875
 40
0.12890625
 40
0.130859375
 40
0.1328125
 40
0.13671875
 40
0.140625
 40
0.14453125
 40
0.1484375
 40
0.15625
 40
0.1640625
 40
0.16796875
 40
0.171875
 40
0.17578125
 40
0.1796875
 40
0.181640625
 40
0.18359375
 40
0.1845703125
 40
0.185546875
 40
0.1865234375
 40
0.1870117188
 40
0.1872558594
 40
0.1875
 40
0.1877441406
 40
0.1879882812
 40
0.1884765625
 40
0.189453125
 40
0.1904296875
 40
0.19140625
 40
0.193359375
 40
0.1953125
 40
0.19921875
 40
0.203125
 40
0.20703125
 40
0.2109375
 40
0.21875
 40
0.2265625
 40
0.23046875
 40
0.234375
 40
0.23828125
 40
0.2421875
 40
0.244140625
 40
0.24609375
 40
0.2470703125
 40
0.248046875
 40
0.2490234375
 40
0.2495117188
 40
0.2497558594
 40
0.25
 40
0.2502441406
 40
0.2504882812
 40
0.2509765625
 40
0.251953125
 40
0.2529296875
 40
0.25390625
 40
0.255859375
 40
0.2578125
 40
0.26171875
 40
0.265625
 40
0.26953125
 40
0.2734375
 40
0.28125
 40
0.2890625
 40
0.29296875
 40
0.296875
 40
0.30078125
 40
0.3046875
 40
0.306640625
 40
0.30859375
 40
0.3095703125
 40
0.310546875
 40
0.3115234375
 40
0.3120117188
 40
0.3122558594
 40
0.3125
 40
0.3127441406
 40
0.3129882812
 40
0.3134765625
 40
0.314453125
 40
0.3154296875
 40
0.31640625
 40
0.318359375
 40
0.3203125
 40
0.32421875
 40
0.328125
 40
0.33203125
 40
0.3359375
 40
0.34375
 40
0.3515625
 40
0.35546875
 40
0.359375
 40
0.36328125
 40
0.3671875
 40
0.369140625
 40
0.37109375
 40
0.3720703125
 40
0.373046875
 40
0.3740234375
 40
0.3745117188
 40
0.3747558594
 40
0.375
 40
0.3752441406
 40
0.3754882812
 40
0.3759765625
 40
0.376953125
 40
0.3779296875
 40
0.37890625
 40
0.380859375
 40
0.3828125
 40
0.38671875
 40
0.390625
 40
0.39453125
 40
0.3984375
 40
0.40625
 40
0.4140625
 40
0.41796875
 40
0.421875
 40
0.42578125
 40
0.4296875
 40
0.431640625
 40
0.43359375
 40
0.4345703125
 40
0.435546875
 40
0.4365234375
 40
0.4370117188
 40
0.4372558594
 40
0.4375
 40
0.4377441406
 40
0.4379882812
 40
0.4384765625
 40
0.439453125
 40
0.4404296875
 40
0.44140625
 40
0.443359375
 40
0.4453125
 40
0.44921875
 40
0.453125
 40
0.45703125
 40
0.4609375
 40
0.46875
 40
0.4765625
 40
0.48046875
 40
0.484375
 40
0.48828125
 40
0.4921875
 40
0.494140625
 40
0.49609375
 40
0.4970703125
 40
0.498046875
 40
0.4990234375
 40
0.4995117188
 40
0.4997558594
 40
0.5
 40
0.5002441406
 40
0.5004882812
 40
0.5009765625
 40
0.501953125
 40
0.5029296875
 40
0.50390625
 40
0.505859375
 40
0.5078125
 40
0.51171875
 40
0.515625
 40
0.51953125
 40
0.5234375
 40
0.53125
 40
0.5390625
 40
0.54296875
 40
0.546875
 40
0.55078125
 40
0.5546875
 40
0.556640625
 40
0.55859375
 40
0.5595703125
 40
0.560546875
 40
0.5615234375
 40
0.5620117188
 40
0.5622558594
 40
0.5625
 40
0.5627441406
 40
0.5629882812
 40
0.5634765625
 40
0.564453125
 40
0.5654296875
 40
0.56640625
 40
0.568359375
 40
0.5703125
 40
0.57421875
 40
0.578125
 40
0.58203125
 40
0.5859375
 40
0.59375
 40
0.6015625
 40
0.60546875
 40
0.609375
 40
0.61328125
 40
0.6171875
 40
0.619140625
 40
0.62109375
 40
0.6220703125
 40
0.623046875
 40
0.6240234375
 40
0.6245117188
 40
0.6247558594
 40
0.625
 40
0.6252441406
 40
0.6254882812
 40
0.6259765625
 40
0.626953125
 40
0.6279296875
 40
0.62890625
 40
0.630859375
 40
0.6328125
 40
0.63671875
 40
0.640625
 40
0.64453125
 40
0.6484375
 40
0.65625
 40
0.6640625
 40
0.66796875
 40
0.671875
 40
0.67578125
 40
0.6796875
 40
0.681640625
 40
0.68359375
 40
0.6845703125
 40
0.685546875
 40
0.6865234375
 40
0.6870117188
 40
0.6872558594
 40
0.6875
 40
0.6877441406
 40
0.6879882812
 40
0.6884765625
 40
0.689453125
 40
0.6904296875
 40
0.69140625
 40
0.693359375
 40
0.6953125
 40
0.69921875
 40
0.703125
 40
0.70703125
 40
0.7109375
 40
0.71875
 40
0.7265625
 40
0.73046875
 40
0.734375
 40
0.73828125
 40
0.7421875
 40
0.744140625
 40
0.74609375
 40
0.7470703125
 40
0.748046875
 40
0.7490234375
 40
0.7495117188
 40
0.7497558594
 40
0.75
 40
0.7502441406
 40
0.7504882812
 40
0.7509765625
 40
0.751953125
 40
0.7529296875
 40
0.75390625
 40
0.755859375
 40
0.7578125
 40
0.76171875
 40
0.765625
 40
0.76953125
 40
0.7734375
 40
0.78125
 40
0.7890625
 40
0.79296875
 40
0.796875
 40
0.80078125
 40
0.8046875
 40
0.806640625
 40
0.80859375
 40
0.8095703125
 40
0.810546875
 40
0.8115234375
 40
0.8120117188
 40
0.8122558594
 40
0.8125
 40
0.8127441406
 40
0.8129882812
 40
0.8134765625
 40
0.814453125
 40
0.8154296875
 40
0.81640625
 40
0.818359375
 40
0.8203125
 40
0.82421875
 40
0.828125
 40
0.83203125
 40
0.8359375
 40
0.84375
 40
0.8515625
 40
0.85546875
 40
0.859375
 40
0.86328125
 40
0.8671875
 40
0.869140625
 40
0.87109375
 40
0.8720703125
 40
0.873046875
 40
0.8740234375
 40
0.8745117188
 40
0.8747558594
 40
0.875
 40
0.8752441406
 40
0.8754882812
 40
0.8759765625
 40
0.876953125
 40
0.8779296875
 40
0.87890625
 40
0.880859375
 40
0.8828125
 40
0.88671875
 40
0.890625
 40
0.89453125
 40
0.8984375
 40
0.90625
 40
0.9140625
 40
0.91796875
 40
0.921875
 40
0.92578125
 40
0.9296875
 40
0.931640625
 40
0.93359375
 40
0.9345703125
 40
0.935546875
 40
0.9365234375
 40
0.9370117188
 40
0.9372558594
 40
0.9375
 40
0.9377441406
 40
0.9379882812
 40
0.9384765625
 40
0.939453125
 40
0.9404296875
 40
0.94140625
 40
0.943359375
 40
0.9453125
 40
0.94921875
 40
0.953125
 40
0.95703125
 40
0.9609375
 40
0.96875
 40
0.9765625
 40
0.984375
 40
1.0
 40
1.0
 40
1.0
 40
1.0
 10
10.5740636695
 20
8.8386069839
 30
0.0
 10
10.5737564578
 20
8.8417614761
 30
0.0
 10
10.5732956403
 20
8.8464932142
 30
0.0
 10
10.572681217
 20
8.8528021985
 30
0.0
 10
10.5722203995
 20
8.8575339367
 30
0.0
 10
10.5718363851
 20
8.8614770518
 30
0.0
 10
10.5715291731
 20
8.8646315439
 30
0.0
 10
10.5712987653
 20
8.8669974131
 30
0.0
 10
10.5710683529
 20
8.8693632817
 30
0.0
 10
10.5708763571
 20
8.8713348408
 30
0.0
 10
10.5707227279
 20
8.8729120838
 30
0.0
 10
10.5706267837
 20
8.8738978703
 30
0.0
 10
10.5705498587
 20
8.8746864776
 30
0.0
 10
10.5704926295
 20
8.8752779929
 30
0.0
 10
10.5704434608
 20
8.8757707321
 30
0.0
 10
10.5704119425
 20
8.8761160227
 30
0.0
 10
10.5703894042
 20
8.8763127491
 30
0.0
 10
10.5703852556
 20
8.8764619348
 30
0.0
 10
10.5703323506
 20
8.8766048479
 30
0.0
 10
10.5702788173
 20
8.8767975866
 30
0.0
 10
10.5701772103
 20
8.8771338599
 30
0.0
 10
10.5700362001
 20
8.8776147832
 30
0.0
 10
10.5698652146
 20
8.8781916632
 30
0.0
 10
10.5696378533
 20
8.8789609161
 30
0.0
 10
10.5693534397
 20
8.879922455
 30
0.0
 10
10.5688984963
 20
8.8814609324
 30
0.0
 10
10.5683297765
 20
8.883384024
 30
0.0
 10
10.5676473301
 20
8.8856917362
 30
0.0
 10
10.5669648791
 20
8.8879994477
 30
0.0
 10
10.5660549461
 20
8.8910763967
 30
0.0
 10
10.5649175291
 20
8.8949225827
 30
0.0
 10
10.5637801126
 20
8.8987687689
 30
0.0
 10
10.5628701789
 20
8.9018457177
 30
0.0
 10
10.5621877297
 20
8.9041534297
 30
0.0
 10
10.5615052762
 20
8.9064611402
 30
0.0
 10
10.5609365787
 20
8.908384237
 30
0.0
 10
10.5604815899
 20
8.9099227038
 30
0.0
 10
10.5601972918
 20
8.9108842696
 30
0.0
 10
10.5599696934
 20
8.9116534674
 30
0.0
 10
10.5597994324
 20
8.9122305158
 30
0.0
 10
10.5596561555
 20
8.912710912
 30
0.0
 10
10.5595585948
 20
8.9130481264
 30
0.0
 10
10.5594985784
 20
8.9132393573
 30
0.0
 10
10.5594655876
 20
8.9133869017
 30
0.0
 10
10.5593866442
 20
8.9135186927
 30
0.0
 10
10.559297415
 20
8.9136999089
 30
0.0
 10
10.559133796
 20
8.9140144771
 30
0.0
 10
10.5589039588
 20
8.9144651988
 30
0.0
 10
10.5586264831
 20
8.9150054918
 30
0.0
 10
10.5582570991
 20
8.9157260827
 30
0.0
 10
10.5577951693
 20
8.9166267527
 30
0.0
 10
10.5570561933
 20
8.9180678631
 30
0.0
 10
10.556132435
 20
8.9198692379
 30
0.0
 10
10.5550239414
 20
8.9220308933
 30
0.0
 10
10.5539154435
 20
8.9241925473
 30
0.0
 10
10.5524374477
 20
8.927074753
 30
0.0
 10
10.5505899525
 20
8.93067751
 30
0.0
 10
10.5487424576
 20
8.9342802671
 30
0.0
 10
10.5472644613
 20
8.9371624726
 30
0.0
 10
10.5461559652
 20
8.9393241273
 30
0.0
 10
10.5450474648
 20
8.9414857799
 30
0.0
 10
10.5441237277
 20
8.9432871635
 30
0.0
 10
10.5433847083
 20
8.9447282561
 30
0.0
 10
10.542922889
 20
8.9456289712
 30
0.0
 10
10.5425532782
 20
8.9463494696
 30
0.0
 10
10.5422764953
 20
8.9468900452
 30
0.0
 10
10.5420444906
 20
8.9473398828
 30
0.0
 10
10.5418847409
 20
8.9476560292
 30
0.0
 10
10.5417893122
 20
8.9478347168
 30
0.0
 10
10.541729412
 20
8.9479742747
 30
0.0
 10
10.5416248979
 20
8.9480926478
 30
0.0
 10
10.5415011076
 20
8.9482578681
 30
0.0
 10
10.5412772241
 20
8.9485435606
 30
0.0
 10
10.5409611811
 20
8.9489534929
 30
0.0
 10
10.5405803071
 20
8.9494446411
 30
0.0
 10
10.5400730417
 20
8.9500997745
 30
0.0
 10
10.539438766
 20
8.9509185991
 30
0.0
 10
10.5384240332
 20
8.9522287699
 30
0.0
 10
10.5371555801
 20
8.9538664659
 30
0.0
 10
10.5356334523
 20
8.9558317085
 30
0.0
 10
10.5341113202
 20
8.9577969492
 30
0.0
 10
10.5320818122
 20
8.9604172707
 30
0.0
 10
10.5295449267
 20
8.9636926724
 30
0.0
 10
10.5270080416
 20
8.9669680743
 30
0.0
 10
10.5249785331
 20
8.9695883955
 30
0.0
 10
10.5234564026
 20
8.9715536373
 30
0.0
 10
10.5219342689
 20
8.9735188756
 30
0.0
 10
10.5206658339
 20
8.9751565851
 30
0.0
 10
10.5196510642
 20
8.9764667283
 30
0.0
 10
10.5190168826
 20
8.9772856234
 30
0.0
 10
10.5185094239
 20
8.977940612
 30
0.0
 10
10.5181291406
 20
8.9784322028
 30
0.0
 10
10.5178112493
 20
8.9788407503
 30
0.0
 10
10.5175906654
 20
8.9791289148
 30
0.0
 10
10.5174615883
 20
8.9792901745
 30
0.0
 10
10.5173733136
 20
8.9794207131
 30
0.0
 10
10.5172524209
 20
8.979514579
 30
0.0
 10
10.5171026082
 20
8.9796525255
 30
0.0
 10
10.5168351349
 20
8.9798879718
 30
0.0
 10
10.5164558016
 20
8.9802274395
 30
0.0
 10
10.5159994153
 20
8.9806334671
 30
0.0
 10
10.5153913147
 20
8.9811753031
 30
0.0
 10
10.5146310471
 20
8.9818524385
 30
0.0
 10
10.5134146981
 20
8.9829359444
 30
0.0
 10
10.5118942347
 20
8.9842902962
 30
0.0
 10
10.5100696903
 20
8.9859155314
 30
0.0
 10
10.5082451428
 20
8.9875407631
 30
0.0
 10
10.5058124138
 20
8.98970774
 30
0.0
 10
10.5027715022
 20
8.9924164606
 30
0.0
 10
10.4997305909
 20
8.9951251815
 30
0.0
 10
10.4972978615
 20
8.9972921578
 30
0.0
 10
10.4954733152
 20
8.9989173911
 30
0.0
 10
10.4936487663
 20
9.0005426206
 30
0.0
 10
10.492128317
 20
9.0018969902
 30
0.0
 10
10.4909119392
 20
9.0029804596
 30
0.0
 10
10.4901517451
 20
9.0036576879
 30
0.0
 10
10.4895434935
 20
9.0041993334
 30
0.0
 10
10.4890875683
 20
9.0046059428
 30
0.0
 10
10.4887067927
 20
9.0049435903
 30
0.0
 10
10.4884418942
 20
9.005182286
 30
0.0
 10
10.4882879559
 20
9.005315026
 30
0.0
 10
10.4881797355
 20
9.0054248844
 30
0.0
 10
10.4880438656
 20
9.0054953579
 30
0.0
 10
10.4878723502
 20
9.0056030605
 30
0.0
 10
10.4875677047
 20
9.0057851393
 30
0.0
 10
10.4871348461
 20
9.0060485981
 30
0.0
 10
10.4866144102
 20
9.0063633164
 30
0.0
 10
10.4859208468
 20
9.0067834411
 30
0.0
 10
10.4850537724
 20
9.0073084257
 30
0.0
 10
10.4836665206
 20
9.0081484968
 30
0.0
 10
10.4819324328
 20
9.0091985527
 30
0.0
 10
10.4798515372
 20
9.0104586339
 30
0.0
 10
10.477770639
 20
9.0117187114
 30
0.0
 10
10.474996109
 20
9.013398816
 30
0.0
 10
10.4715279462
 20
9.0154989463
 30
0.0
 10
10.4680597836
 20
9.0175990769
 30
0.0
 10
10.4652852533
 20
9.0192791809
 30
0.0
 10
10.4632043561
 20
9.0205392601
 30
0.0
 10
10.461123457
 20
9.021799335
 30
0.0
 10
10.4593893801
 20
9.0228494107
 30
0.0
 10
10.4580021059
 20
9.0236894415
 30
0.0
 10
10.4571350885
 20
9.0242145285
 30
0.0
 10
10.4564414081
 20
9.024634443
 30
0.0
 10
10.4559213298
 20
9.0249498034
 30
0.0
 10
10.4554873524
 20
9.0252112532
 30
0.0
 10
10.4551847042
 20
9.0253969185
 30
0.0
 10
10.4550099885
 20
9.0254988746
 30
0.0
 10
10.4548839487
 20
9.0255869994
 30
0.0
 10
10.4547388082
 20
9.0256305625
 30
0.0
 10
10.4545519501
 20
9.0257041902
 30
0.0
 10
10.4542218442
 20
9.0258257967
 30
0.0
 10
10.4537518872
 20
9.0260033066
 30
0.0
 10
10.4531872442
 20
9.0262146977
 30
0.0
 10
10.4524346295
 20
9.0264971186
 30
0.0
 10
10.451493778
 20
9.026849951
 30
0.0
 10
10.4499884621
 20
9.0274145911
 30
0.0
 10
10.4481068012
 20
9.028120354
 30
0.0
 10
10.445848815
 20
9.0289672854
 30
0.0
 10
10.443590827
 20
9.0298142126
 30
0.0
 10
10.4405801769
 20
9.0309434503
 30
0.0
 10
10.4368168641
 20
9.0323549969
 30
0.0
 10
10.4330535515
 20
9.0337665439
 30
0.0
 10
10.4300429012
 20
9.034895781
 30
0.0
 10
10.4277849139
 20
9.0357427101
 30
0.0
 10
10.4255269251
 20
9.0365896345
 30
0.0
 10
10.4236452722
 20
9.0372954191
 30
0.0
 10
10.4221399402
 20
9.037860015
 30
0.0
 10
10.4211991295
 20
9.0382129599
 30
0.0
 10
10.420446431
 20
9.0384951498
 30
0.0
 10
10.4198820441
 20
9.0387072468
 30
0.0
 10
10.4194112858
 20
9.0388825481
 30
0.0
 10
10.4190826103
 20
9.0390080971
 30
0.0
 10
10.4188934604
 20
9.039075408
 30
0.0
 10
10.4187553596
 20
9.0391383745
 30
0.0
 10
10.4186028797
 20
9.0391536236
 30
0.0
 10
10.4184045889
 20
9.0391906001
 30
0.0
 10
10.418055243
 20
9.0392475541
 30
0.0
 10
10.4175573991
 20
9.0393329714
 30
0.0
 10
10.4169594636
 20
9.0394337366
 30
0.0
 10
10.4161623988
 20
9.0395686965
 30
0.0
 10
10.4151660053
 20
9.0397371887
 30
0.0
 10
10.4135718107
 20
9.0400068923
 30
0.0
 10
10.4115790554
 20
9.040343982
 30
0.0
 10
10.4091877542
 20
9.0407485066
 30
0.0
 10
10.4067964517
 20
9.0411530268
 30
0.0
 10
10.4036080487
 20
9.0416923885
 30
0.0
 10
10.3996225449
 20
9.0423665901
 30
0.0
 10
10.3956370411
 20
9.0430407921
 30
0.0
 10
10.3924486381
 20
9.0435801532
 30
0.0
 10
10.3900573358
 20
9.0439846753
 30
0.0
 10
10.3876660339
 20
9.0443891925
 30
0.0
 10
10.3856732809
 20
9.0447263054
 30
0.0
 10
10.3840790815
 20
9.0449959617
 30
0.0
 10
10.3830827001
 20
9.0451645742
 30
0.0
 10
10.3822856106
 20
9.0452992871
 30
0.0
 10
10.3816877508
 20
9.0454008068
 30
0.0
 10
10.3811896698
 20
9.0454838637
 30
0.0
 10
10.3808407474
 20
9.0455450312
 30
0.0
 10
10.3806417779
 20
9.0455752567
 30
0.0
 10
10.3804913823
 20
9.045611243
 30
0.0
 10
10.3803454534
 20
9.045596324
 30
0.0
 10
10.3801493235
 20
9.0455941884
 30
0.0
 10
10.379806822
 20
9.0455821781
 30
0.0
 10
10.3793171546
 20
9.0455693457
 30
0.0
 10
10.3787297162
 20
9.0455520955
 30
0.0
 10
10.3779464083
 20
9.0455297418
 30
0.0
 10
10.3769672929
 20
9.0455015783
 30
0.0
 10
10.3754006973
 20
9.0454566405
 30
0.0
 10
10.3734424565
 20
9.0454004258
 30
0.0
 10
10.371092566
 20
9.0453329863
 30
0.0
 10
10.3687426759
 20
9.045265542
 30
0.0
 10
10.3656094889
 20
9.0451756179
 30
0.0
 10
10.3616930053
 20
9.0450632122
 30
0.0
 10
10.3577765216
 20
9.0449508069
 30
0.0
 10
10.3546433347
 20
9.0448608822
 30
0.0
 10
10.3522934444
 20
9.0447934398
 30
0.0
 10
10.3499435549
 20
9.0447259928
 30
0.0
 10
10.3479853108
 20
9.0446698017
 30
0.0
 10
10.346418722
 20
9.0446248158
 30
0.0
 10
10.3454395893
 20
9.0445967747
 30
0.0
 10
10.3446563167
 20
9.0445741698
 30
0.0
 10
10.3440687703
 20
9.0445576871
 30
0.0
 10
10.3435794409
 20
9.0445424535
 30
0.0
 10
10.3432363362
 20
9.0445347296
 30
0.0
 10
10.3430411728
 20
9.044525726
 30
0.0
 10
10.3428922748
 20
9.0445319035
 30
0.0
 10
10.3427530307
 20
9.044488655
 30
0.0
 10
10.3425640046
 20
9.0444482308
 30
0.0
 10
10.3422347777
 20
9.0443694557
 30
0.0
 10
10.3417636334
 20
9.0442611194
 30
0.0
 10
10.3411986114
 20
9.0441293184
 30
0.0
 10
10.340445126
 20
9.0439542115
 30
0.0
 10
10.3395033113
 20
9.0437351129
 30
0.0
 10
10.3379963843
 20
9.0433846753
 30
0.0
 10
10.3361127335
 20
9.0429465871
 30
0.0
 10
10.3338523492
 20
9.042420899
 30
0.0
 10
10.3315919658
 20
9.0418952061
 30
0.0
 10
10.3285781209
 20
9.0411942838
 30
0.0
 10
10.324810815
 20
9.0403181305
 30
0.0
 10
10.3210435089
 20
9.0394419775
 30
0.0
 10
10.3180296642
 20
9.0387410546
 30
0.0
 10
10.3157692802
 20
9.0382153636
 30
0.0
 10
10.3135088981
 20
9.0376896682
 30
0.0
 10
10.3116252406
 20
9.0372516027
 30
0.0
 10
10.3101183273
 20
9.0369011188
 30
0.0
 10
10.3091764777
 20
9.0366821381
 30
0.0
 10
10.3084230639
 20
9.0365067891
 30
0.0
 10
10.3078578231
 20
9.0363757277
 30
0.0
 10
10.3073873632
 20
9.0362650774
 30
0.0
 10
10.3070569147
 20
9.0361904333
 30
0.0
 10
10.3068698459
 20
9.0361433901
 30
0.0
 10
10.3067245894
 20
9.036120473
 30
0.0
 10
10.3065982732
 20
9.0360502896
 30
0.0
 10
10.3064232451
 20
9.0359731987
 30
0.0
 10
10.3061200239
 20
9.0358306081
 30
0.0
 10
10.3056852415
 20
9.0356309232
 30
0.0
 10
10.3051641914
 20
9.0353895824
 30
0.0
 10
10.3044692174
 20
9.0350683951
 30
0.0
 10
10.3036005823
 20
9.0346667053
 30
0.0
 10
10.3022107201
 20
9.0340241166
 30
0.0
 10
10.3004734082
 20
9.0332208412
 30
0.0
 10
10.298388627
 20
9.0322569277
 30
0.0
 10
10.2963038477
 20
9.0312930097
 30
0.0
 10
10.2935241413
 20
9.0300077873
 30
0.0
 10
10.2900495085
 20
9.0284012586
 30
0.0
 10
10.2865748756
 20
9.0267947304
 30
0.0
 10
10.2837951695
 20
9.0255095073
 30
0.0
 10
10.2817103893
 20
9.0245455912
 30
0.0
 10
10.2796256114
 20
9.0235816706
 30
0.0
 10
10.2778882893
 20
9.0227784173
 30
0.0
 10
10.2764984478
 20
9.0221357837
 30
0.0
 10
10.27562976
 20
9.0217342081
 30
0.0
 10
10.2749348942
 20
9.0214127864
 30
0.0
 10
10.2744135135
 20
9.0211721613
 30
0.0
 10
10.2739797655
 20
9.0209702372
 30
0.0
 10
10.2736746978
 20
9.020831644
 30
0.0
 10
10.2735026282
 20
9.0207481483
 30
0.0
 10
10.2733672244
 20
9.0206976384
 30
0.0
 10
10.2732560994
 20
9.0206008309
 30
0.0
 10
10.273099464
 20
9.0204879033
 30
0.0
 10
10.2728292978
 20
9.0202827559
 30
0.0
 10
10.2724412832
 20
9.0199936218
 30
0.0
 10
10.2719765487
 20
9.0196449772
 30
0.0
 10
10.2713565943
 20
9.0191807059
 30
0.0
 10
10.2705817569
 20
9.0186001653
 30
0.0
 10
10.269341958
 20
9.0176714129
 30
0.0
 10
10.2677922296
 20
9.0165104338
 30
0.0
 10
10.2659325468
 20
9.0151172754
 30
0.0
 10
10.2640728664
 20
9.0137241126
 30
0.0
 10
10.2615932917
 20
9.0118665637
 30
0.0
 10
10.2584938236
 20
9.0095446271
 30
0.0
 10
10.2553943553
 20
9.0072226907
 30
0.0
 10
10.252914781
 20
9.0053651413
 30
0.0
 10
10.2510550993
 20
9.0039719802
 30
0.0
 10
10.2491954213
 20
9.0025788156
 30
0.0
 10
10.2476456781
 20
9.0014178557
 30
0.0
 10
10.2464059095
 20
9.0004890642
 30
0.0
 10
10.2456309949
 20
8.9999086231
 30
0.0
 10
10.2450111988
 20
8.9994441474
 30
0.0
 10
10.2445459807
 20
8.9990961271
 30
0.0
 10
10.244159479
 20
8.9988050398
 30
0.0
 10
10.2438866121
 20
8.9986033793
 30
0.0
 10
10.2437343039
 20
8.9984848648
 30
0.0
 10
10.2436098871
 20
8.9984052184
 30
0.0
 10
10.2435244051
 20
8.9982902539
 30
0.0
 10
10.2433968483
 20
8.9981492873
 30
0.0
 10
10.2431799513
 20
8.9978968558
 30
0.0
 10
10.2428667904
 20
8.9975392403
 30
0.0
 10
10.2424924133
 20
8.9971088172
 30
0.0
 10
10.2419927493
 20
8.9965353684
 30
0.0
 10
10.2413683385
 20
8.9958184038
 30
0.0
 10
10.2403691868
 20
8.9946713463
 30
0.0
 10
10.2391202795
 20
8.9932374949
 30
0.0
 10
10.2376215768
 20
8.9915168859
 30
0.0
 10
10.2361228779
 20
8.9897962734
 30
0.0
 10
10.2341246114
 20
8.9875021247
 30
0.0
 10
10.2316267787
 20
8.9846344384
 30
0.0
 10
10.2291289457
 20
8.9817667524
 30
0.0
 10
10.2271306797
 20
8.9794726033
 30
0.0
 10
10.2256319792
 20
8.9777519922
 30
0.0
 10
10.2241332826
 20
8.9760313782
 30
0.0
 10
10.2228843565
 20
8.9745975423
 30
0.0
 10
10.2218852432
 20
8.9734504532
 30
0.0
 10
10.2212607346
 20
8.9727335689
 30
0.0
 10
10.2207612714
 20
8.9721599552
 30
0.0
 10
10.2203862806
 20
8.9717300357
 30
0.0
 10
10.2200750399
 20
8.9713708447
 30
0.0
 10
10.219854715
 20
8.9711212258
 30
0.0
 10
10.2197326506
 20
8.9709757527
 30
0.0
 10
10.2196302973
 20
8.9708746306
 30
0.0
 10
10.2195692464
 20
8.9707429945
 30
0.0
 10
10.2194734385
 20
8.9705781234
 30
0.0
 10
10.219312487
 20
8.9702846399
 30
0.0
 10
10.219079047
 20
8.9698679704
 30
0.0
 10
10.218800421
 20
8.9693668573
 30
0.0
 10
10.2184283951
 20
8.9686990941
 30
0.0
 10
10.2179635423
 20
8.9678642573
 30
0.0
 10
10.2172196775
 20
8.9665285927
 30
0.0
 10
10.216289881
 20
8.9648589864
 30
0.0
 10
10.2151741103
 20
8.9628554699
 30
0.0
 10
10.2140583437
 20
8.9608519503
 30
0.0
 10
10.2125706534
 20
8.958180592
 30
0.0
 10
10.210711041
 20
8.9548413938
 30
0.0
 10
10.2088514283
 20
8.9515021957
 30
0.0
 10
10.2073637386
 20
8.9488308371
 30
0.0
 10
10.2062479701
 20
8.9468273186
 30
0.0
 10
10.2051322061
 20
8.9448237981
 30
0.0
 10
10.204202389
 20
8.9431542042
 30
0.0
 10
10.203458566
 20
8.9418185143
 30
0.0
 10
10.2029936069
 20
8.9409837419
 30
0.0
 10
10.2026217993
 20
8.9403158465
 30
0.0
 10
10.2023425064
 20
8.9398151372
 30
0.0
 10
10.202111153
 20
8.9393972042
 30
0.0
 10
10.2019464765
 20
8.9391059763
 30
0.0
 10
10.201856637
 20
8.9389374911
 30
0.0
 10
10.2017772531
 20
8.9388169565
 30
0.0
 10
10.2017437555
 20
8.9386741391
 30
0.0
 10
10.2016830864
 20
8.9384914884
 30
0.0
 10
10.2015843728
 20
8.9381682283
 30
0.0
 10
10.2014394546
 20
8.9377083215
 30
0.0
 10
10.2012672216
 20
8.9371556228
 30
0.0
 10
10.2010369947
 20
8.9364189744
 30
0.0
 10
10.2007494106
 20
8.935498067
 30
0.0
 10
10.2002891645
 20
8.9340246692
 30
0.0
 10
10.1997138952
 20
8.9321829034
 30
0.0
 10
10.1990235557
 20
8.9299727924
 30
0.0
 10
10.1983332205
 20
8.9277626793
 30
0.0
 10
10.197412772
 20
8.9248158626
 30
0.0
 10
10.1962622121
 20
8.9211323414
 30
0.0
 10
10.1951116517
 20
8.9174488203
 30
0.0
 10
10.1941912039
 20
8.9145020033
 30
0.0
 10
10.1935008668
 20
8.912291891
 30
0.0
 10
10.1928105344
 20
8.910081777
 30
0.0
 10
10.1922352429
 20
8.9082400206
 30
0.0
 10
10.1917750422
 20
8.9067666037
 30
0.0
 10
10.1914873427
 20
8.9058457451
 30
0.0
 10
10.1912573526
 20
8.9051089964
 30
0.0
 10
10.191084396
 20
8.9045566041
 30
0.0
 10
10.1909417418
 20
8.9040957389
 30
0.0
 10
10.1908389866
 20
8.9037741895
 30
0.0
 10
10.1907847932
 20
8.9035887979
 30
0.0
 10
10.1907314041
 20
8.9034543997
 30
0.0
 10
10.1907267295
 20
8.9033022439
 30
0.0
 10
10.1907035045
 20
8.9031055636
 30
0.0
 10
10.1906707777
 20
8.9027584872
 30
0.0
 10
10.1906198861
 20
8.9022641725
 30
0.0
 10
10.1905605878
 20
8.901670349
 30
0.0
 10
10.1904809046
 20
8.9008788099
 30
0.0
 10
10.1903815125
 20
8.8998893089
 30
0.0
 10
10.1902223667
 20
8.8983061503
 30
0.0
 10
10.190023475
 20
8.8963271874
 30
0.0
 10
10.1897847876
 20
8.8939524382
 30
0.0
 10
10.1895461049
 20
8.8915776872
 30
0.0
 10
10.1892278597
 20
8.8884113533
 30
0.0
 10
10.1888300537
 20
8.8844534356
 30
0.0
 10
10.1883526862
 20
8.8797039345
 30
0.0
 10
10.1877161964
 20
8.8733712664
 30
0.0
 10
10.187238829
 20
8.8686217653
 30
0.0
 10
10.186920584
 20
8.8654554312
 30
0.0
  0
ENDSEC
  0
SECTION
  2
OBJECTS
  0
DICTIONARY
  5
C
100
AcDbDictionary
280
0
281
1
  3
ACAD_GROUP
350
D
  3
ACAD_MLINESTYLE
350
17
  3
ACAD_LAYOUT
350
1A
  3
ACAD_PLOTSETTINGS
350
19
  3
ACAD_PLOTSTYLENAME
350
E
  3
ACAD_IMAGE_DICT
350
       3B5
  3
ACAD_IMAGE_VARS
350
       3B6
  3
ACAD_TABLESTYLE
350
       3B7
  0
IMAGEDEF_REACTOR
  5
3B4
100
AcDbRasterImageDefReactor
 90
2
330
292
  0
DICTIONARY
  5
D
102
{ACAD_REACTORS
330
C
102
}
100
AcDbDictionary
280
0
281
1
  0
ACDBDICTIONARYWDFLT
  5
E
102
{ACAD_REACTORS
330
C
102
}
100
AcDbDictionary
281
1
  3
Normal
350
F
100
AcDbDictionaryWithDefault
340
F
  0
DICTIONARY
  5
3B5
330
C
100
AcDbDictionary
281
1
  3
B6W_assy_2_img_1
350
       3BA
  0
RASTERVARIABLES
  5
3B6
330
C
100
AcDbRasterVariables
 90
0
 70
0
 71
1
 72
5
  0
DICTIONARY
  5
17
102
{ACAD_REACTORS
330
C
102
}
100
AcDbDictionary
280
0
281
1
  3
Standard
350
18
  0
DICTIONARY
  5
3B7
330
C
100
AcDbDictionary
281
1
  3
Standard
350
       3BB
  3
Standard1
350
       3BC
  0
DICTIONARY
  5
19
102
{ACAD_REACTORS
330
C
102
}
100
AcDbDictionary
281
1
  0
DICTIONARY
  5
1A
102
{ACAD_REACTORS
330
C
102
}
100
AcDbDictionary
281
1
  3
Model
350
3B8
  3
Layout1
350
3B9
  0
ACDBPLACEHOLDER
  5
F
102
{ACAD_REACTORS
330
E
102
}
  0
MLINESTYLE
  5
18
102
{ACAD_REACTORS
330
17
102
}
100
AcDbMlineStyle
  2
STANDARD
 70
0
  3

 62
256
 51
90.0
 52
90.0
 71
2
 49
0.5
 62
256
  6
BYLAYER
 49
-0.5
 62
256
  6
BYLAYER
  0
LAYOUT
  5
3B8
102
{ACAD_REACTORS
330
1A
102
}
100
AcDbPlotSettings
  1

  2
none_device
  4
ANSI_C_(22.00_x_17.00_Inches)
  6

 40
0.0
 41
0.0
 42
0.0
 43
0.0
 44
558.8
 45
431.8
 46
0.0
 47
0.0
 48
0.0
 49
0.0
140
0.0
141
0.0
142
1.0
143
1.0
 70
1024
 72
0
 73
0
 74
0
  7

 75
0
147
1.0
148
0.0
149
0.0
100
AcDbLayout
  1
Model
 70
0
 71
0
 10
0.0
 20
0.0
 11
22.0
 21
17.0
 12
0.0
 22
0.0
 32
0.0
 14
0.0
 24
0.0
 34
0.0
 15
0.0
 25
0.0
 35
0.0
146
0.0
 13
0.0
 23
0.0
 33
0.0
 16
1.0
 26
0.0
 36
0.0
 17
0.0
 27
1.0
 37
0.0
 76
0
330
20C
345
0
346
0
  0
LAYOUT
  5
3B9
102
{ACAD_REACTORS
330
1A
102
}
100
AcDbPlotSettings
  1

  2
none_device
  4
ANSI_C_(22.00_x_17.00_Inches)
  6

 40
0.0
 41
0.0
 42
0.0
 43
0.0
 44
558.8
 45
431.8
 46
0.0
 47
0.0
 48
0.0
 49
0.0
140
0.0
141
0.0
142
1.0
143
1.0
 70
0
 72
0
 73
0
 74
0
  7

 75
0
147
1.0
148
0.0
149
0.0
100
AcDbLayout
  1
Layout1
 70
0
 71
1
 10
0.0
 20
0.0
 11
22.0
 21
17.0
 12
0.0
 22
0.0
 32
0.0
 14
0.0
 24
0.0
 34
0.0
 15
0.0
 25
0.0
 35
0.0
146
0.0
 13
0.0
 23
0.0
 33
0.0
 16
1.0
 26
0.0
 36
0.0
 17
0.0
 27
1.0
 37
0.0
 76
0
330
20D
345
0
346
0
  0
IMAGEDEF
  5
3BA
102
{ACAD_REACTORS
330
3B5
330
3B4
102
}
100
AcDbRasterImageDef
 90
0
  1
B6W_assy_2_img_1.png
 10
369.0
 20
92.0
 11
0.0066666667
 21
0.0066666667
280
1
281
0
  0
TABLESTYLE
  5
3BB
102
{ACAD_REACTORS
330
3B7
330
295
330
296
102
}
330
3B7
100
AcDbTableStyle
  3
Standard
 70
0
 71
0
 40
0.06
 41
0.06
280
1
281
1
  7
Standard
140
0.18
170
1
 62
0
 63
7
283
0
  7
Standard
140
0.18
170
1
 62
0
 63
7
283
0
  7
Standard
140
0.18
170
1
 62
0
 63
7
283
0
  0
TABLESTYLE
  5
3BC
102
{ACAD_REACTORS
330
3B7
330
294
102
}
330
3B7
100
AcDbTableStyle
  3
Standard1
 70
1
 71
0
 40
0.06
 41
0.06
280
1
281
1
  7
Standard
140
0.18
170
1
 62
0
 63
7
283
0
  7
Standard
140
0.18
170
1
 62
0
 63
7
283
0
  7
Standard
140
0.18
170
1
 62
0
 63
7
283
0
  0
ENDSEC
  0
EOF
