999
DXF file: B6U_assy_2.dxf
999
Pro/ENGINEER 2014200 by Parametric Technology Corporation
  0
SECTION
  2
HEADER
  9
$ACADVER
  1
AC1021
  9
$DWGCODEPAGE
  3
ANSI_1252
  9
$EXTMAX
 10
22.0
 20
17.0
 30
0.0
  9
$EXTMIN
 10
0.0
 20
0.0
 30
0.0
  9
$LIMMIN
 10
0.0
 20
0.0
  9
$LIMMAX
 10
22.0
 20
17.0
  9
$VIEWCTR
 10
11.0
 20
8.5
  9
$VIEWSIZE
 40
17.0
  9
$CLAYER
  8
0
  9
$LTSCALE
 40
1.21
  9
$CELTYPE
  6
BYLAYER
  9
$DIMSCALE
 40
1.0
  9
$DIMASZ
 40
0.1875
  9
$DIMEXO
 40
0.0625
  9
$DIMDLI
 40
0.836
  9
$DIMEXE
 40
0.125
  9
$DIMCEN
 40
0.198
  9
$DIMLFAC
 40
1.0
  9
$DIMBLK
  1
_FILLED
  9
$DIMTXT
 40
0.1
  9
$DIMTOL
 70
0
  9
$DIMLIM
 70
0
  9
$DIMTFAC
 40
1.0
  9
$DIMGAP
 40
0.09
  9
$DIMDSEP
 70
46
  9
$AUNITS
 70
0
  9
$PDMODE
 70
3
  9
$PDSIZE
 40
0.3125
  9
$HANDSEED
  5
37A
  9
$TILEMODE
 70
1
  9
$MEASUREMENT
 70
0
  9
$INSUNITS
 70
1
  0
ENDSEC
  0
SECTION
  2
CLASSES
  0
CLASS
  1
ACDBDICTIONARYWDFLT
  2
AcDbDictionaryWithDefault
  3
AutoCAD 2000
 90
0
 91
1
280
0
281
0
  0
CLASS
  1
ACDBPLACEHOLDER
  2
AcDbPlaceHolder
  3
AutoCAD 2000
 90
0
 91
1
280
0
281
0
  0
CLASS
  1
LAYOUT
  2
AcDbLayout
  3
AutoCAD 2000
 90
0
 91
0
280
0
281
0
  0
CLASS
  1
RASTERVARIABLES
  2
AcDbRasterVariables
  3
ISM
 90
0
 91
1
280
0
281
0
  0
CLASS
  1
IMAGEDEF
  2
AcDbRasterImageDef
  3
ISM
 90
0
 91
1
280
0
281
0
  0
CLASS
  1
IMAGEDEF_REACTOR
  2
AcDbRasterImageDefReactor
  3
ISM
 90
0
 91
1
280
0
281
0
  0
CLASS
  1
IMAGE
  2
AcDbRasterImage
  3
ISM
 90
127
 91
1
280
0
281
1
  0
CLASS
  1
TABLESTYLE
  2
AcDbTableStyle
  3
ObjectDBX Classes
 90
2047
 91
1
280
0
281
0
  0
CLASS
  1
ACAD_TABLE
  2
AcDbTable
  3
ObjectDBX Classes
 90
1025
 91
3
280
0
281
1
  0
ENDSEC
  0
SECTION
  2
TABLES
  0
TABLE
  2
VPORT
  5
8
100
AcDbSymbolTable
 70
2
  0
VPORT
  5
1F4
100
AcDbSymbolTableRecord
100
AcDbViewportTableRecord
  2
*ACTIVE
 70
0
 10
0.0
 20
0.0
 11
1.0
 21
1.0
 12
11.0
 22
8.5
 13
0.0
 23
0.0
 14
1.0
 24
1.0
 15
0.0
 25
0.0
 16
0.0
 26
0.0
 36
1.0
 17
0.0
 27
0.0
 37
0.0
 40
17.0
 41
1.2941176471
 42
50.0
 43
0.0
 44
0.0
 50
0.0
 51
0.0
 71
0
 72
100
 73
1
 74
1
 75
0
 76
0
 77
0
 78
0
  0
ENDTAB
  0
TABLE
  2
LTYPE
  5
5
100
AcDbSymbolTable
 70
6
  0
LTYPE
  5
14
100
AcDbSymbolTableRecord
100
AcDbLinetypeTableRecord
  2
BYBLOCK
 70
0
  3

 72
65
 73
0
 40
0.0
  0
LTYPE
  5
15
100
AcDbSymbolTableRecord
100
AcDbLinetypeTableRecord
  2
BYLAYER
 70
0
  3

 72
65
 73
0
 40
0.0
  0
LTYPE
  5
16
100
AcDbSymbolTableRecord
100
AcDbLinetypeTableRecord
  2
CONTINUOUS
 70
64
  3
Solid line
 72
65
 73
0
 40
0.0
  0
LTYPE
  5
1F5
100
AcDbSymbolTableRecord
100
AcDbLinetypeTableRecord
  2
CENTER
 70
64
  3
____ _ ____ _ ____ _ ____ _ ____ _ ____ _ ____
 72
65
 73
4
 40
0.6
 49
0.375
 74
0
 49
-0.075
 74
0
 49
0.075
 74
0
 49
-0.075
 74
0
  0
LTYPE
  5
1F6
100
AcDbSymbolTableRecord
100
AcDbLinetypeTableRecord
  2
HIDDEN
 70
64
  3
- - - - - - - - - - - - - - - - - - - -
 72
65
 73
2
 40
0.2
 49
0.1
 74
0
 49
-0.1
 74
0
  0
LTYPE
  5
1F7
100
AcDbSymbolTableRecord
100
AcDbLinetypeTableRecord
  2
PHANTOM
 70
64
  3
_____ _ _ _____ _ _ _____ _ _ _____
 72
65
 73
6
 40
0.8
 49
0.45
 74
0
 49
-0.05
 74
0
 49
0.1
 74
0
 49
-0.05
 74
0
 49
0.1
 74
0
 49
-0.05
 74
0
  0
LTYPE
  5
1F8
100
AcDbSymbolTableRecord
100
AcDbLinetypeTableRecord
  2
DOT
 70
64
  3
. . . . . . . . . . . . . . . . . . . .
 72
65
 73
2
 40
0.2
 49
0.1
 74
0
 49
-0.1
 74
0
  0
LTYPE
  5
1F9
100
AcDbSymbolTableRecord
100
AcDbLinetypeTableRecord
  2
DASHED
 70
64
  3
- - - - - - - - - - - - - - - - - - - -
 72
65
 73
2
 40
0.2
 49
0.1
 74
0
 49
-0.1
 74
0
  0
ENDTAB
  0
TABLE
  2
LAYER
  5
2
100
AcDbSymbolTable
 70
36
  0
LAYER
  5
10
100
AcDbSymbolTableRecord
100
AcDbLayerTableRecord
  2
0
 70
0
 62
7
  6
CONTINUOUS
370
-3
390
F
  0
LAYER
  5
1FA
100
AcDbSymbolTableRecord
100
AcDbLayerTableRecord
  2
DEFAULT_1
 70
0
 62
7
  6
CENTER
370
-3
390
F
  0
LAYER
  5
1FB
100
AcDbSymbolTableRecord
100
AcDbLayerTableRecord
  2
DEFAULT_2
 70
0
 62
8
  6
HIDDEN
370
-3
390
F
  0
LAYER
  5
1FC
100
AcDbSymbolTableRecord
100
AcDbLayerTableRecord
  2
DEFAULT_3
 70
0
 62
7
  6
PHANTOM
370
-3
390
F
  0
LAYER
  5
1FD
100
AcDbSymbolTableRecord
100
AcDbLayerTableRecord
  2
DATUM_PLANES
 70
0
 62
7
  6
CONTINUOUS
370
-3
390
F
  0
LAYER
  5
1FE
100
AcDbSymbolTableRecord
100
AcDbLayerTableRecord
  2
PORT_AREAS
 70
0
 62
7
  6
CONTINUOUS
370
-3
390
F
  0
LAYER
  5
1FF
100
AcDbSymbolTableRecord
100
AcDbLayerTableRecord
  2
SUNNBOMCOSMETIC
 70
0
 62
7
  6
CONTINUOUS
370
-3
390
F
  0
LAYER
  5
200
100
AcDbSymbolTableRecord
100
AcDbLayerTableRecord
  2
SUNNBOMSTAMPING
 70
0
 62
7
  6
CONTINUOUS
370
-3
390
F
  0
LAYER
  5
201
100
AcDbSymbolTableRecord
100
AcDbLayerTableRecord
  2
THREADS
 70
0
 62
7
  6
CONTINUOUS
370
-3
390
F
  0
ENDTAB
  0
TABLE
  2
STYLE
  5
3
100
AcDbSymbolTable
 70
1
  0
STYLE
  5
11
100
AcDbSymbolTableRecord
100
AcDbTextStyleTableRecord
  2
STANDARD
 70
0
 40
0.0
 41
0.8
 50
0.0
 71
0
 42
0.2
  3
txt
  4

  0
STYLE
  5
202
100
AcDbSymbolTableRecord
100
AcDbTextStyleTableRecord
  2
TEXTSTYLE_1
 70
0
 40
0.0
 41
0.8
 50
0.0
 71
0
 42
0.2
  3
gdt
  4

  0
ENDTAB
  0
TABLE
  2
VIEW
  5
6
100
AcDbSymbolTable
 70
0
  0
ENDTAB
  0
TABLE
  2
UCS
  5
7
100
AcDbSymbolTable
 70
0
  0
ENDTAB
  0
TABLE
  2
APPID
  5
9
100
AcDbSymbolTable
 70
1
  0
APPID
  5
203
100
AcDbSymbolTableRecord
100
AcDbRegAppTableRecord
  2
ACAD
 70
0
  0
ENDTAB
  0
TABLE
  2
BLOCK_RECORD
  5
1
100
AcDbSymbolTable
 70
0
  0
BLOCK_RECORD
  5
204
100
AcDbSymbolTableRecord
100
AcDbBlockTableRecord
  2
*Model_Space
  0
BLOCK_RECORD
  5
205
100
AcDbSymbolTableRecord
100
AcDbBlockTableRecord
  2
*Paper_Space
  0
BLOCK_RECORD
  5
206
100
AcDbSymbolTableRecord
100
AcDbBlockTableRecord
  2
SUN_FIRST_THIRD_ANGLE_BL0
  0
BLOCK_RECORD
  5
207
100
AcDbSymbolTableRecord
100
AcDbBlockTableRecord
  2
*T1
  0
BLOCK_RECORD
  5
208
100
AcDbSymbolTableRecord
100
AcDbBlockTableRecord
  2
*T2
  0
BLOCK_RECORD
  5
209
100
AcDbSymbolTableRecord
100
AcDbBlockTableRecord
  2
*T3
  0
ENDTAB
  0
TABLE
  2
DIMSTYLE
  5
A
100
AcDbSymbolTable
 70
1
100
AcDbDimStyleTable
 71
0
  0
DIMSTYLE
105
20A
100
AcDbSymbolTableRecord
100
AcDbDimStyleTableRecord
  2
STANDARD
 70
0
  3

  4

 40
1.0
 41
0.1875
 42
0.0625
 43
0.38
 44
0.125
 45
0.0
 46
0.0
 47
0.001
 48
0.001
140
0.1
141
0.09
142
0.0
143
25.4
144
1.0
145
0.0
146
1.0
147
0.09
 71
0.0
 72
0.0
 73
1
 74
1
 75
0
 76
0
 77
0
 78
4
170
0
171
2
172
0
173
0
174
0
175
0
176
0
177
0
178
0
270
2
271
3
272
3
273
2
274
2
275
0
280
0
281
0
282
0
283
1
284
4
285
0
286
0
287
3
288
0
340
11
278
46
  0
ENDTAB
  0
ENDSEC
  0
SECTION
  2
BLOCKS
  0
BLOCK
  5
20
100
AcDbEntity
  8
0
100
AcDbBlockBegin
  2
*Model_Space
 70
0
 10
0.0
 20
0.0
 30
0.0
  3
*Model_Space
  1

  0
ENDBLK
  5
21
100
AcDbEntity
  8
0
100
AcDbBlockEnd
  0
BLOCK
  5
1C
100
AcDbEntity
  8
0
100
AcDbBlockBegin
  2
*Paper_Space
 70
0
 10
0.0
 20
0.0
 30
0.0
  3
*Paper_Space
  1

  0
ENDBLK
  5
1D
100
AcDbEntity
  8
0
100
AcDbBlockEnd
  0
BLOCK
  5
20B
100
AcDbEntity
  8
0
100
AcDbBlockBegin
 62
2
  6
CONTINUOUS
  2
SUN_FIRST_THIRD_ANGLE_BL0
 70
64
 10
20.4816717061
 20
1.2289683772
  3
SUN_FIRST_THIRD_ANGLE_BL0
  1

  0
TEXT
  5
20C
100
AcDbEntity
  8
0
100
AcDbText
 62
2
  6
CONTINUOUS
 10
19.4750896608
 20
1.4136269581
  7
STANDARD
 40
0.08
  1
FIRST ANGLE
 41
0.8
 72
0
100
AcDbText
  0
TEXT
  5
20D
100
AcDbEntity
  8
0
100
AcDbText
 62
2
  6
CONTINUOUS
 10
20.7842537513
 20
1.4047600029
  7
STANDARD
 40
0.08
  1
THIRD ANGLE
 41
0.8
 72
0
100
AcDbText
  0
LINE
  5
20E
100
AcDbEntity
  8
0
100
AcDbLine
 62
7
  6
CONTINUOUS
 10
19.4767170086
 20
1.1727031207
 11
19.6334271527
 21
1.1717972817
  0
LINE
  5
20F
100
AcDbEntity
  8
0
100
AcDbLine
 62
7
  6
CONTINUOUS
 10
19.6596964832
 20
1.1717972817
 11
19.6950230232
 21
1.171593082
  0
LINE
  5
210
100
AcDbEntity
  8
0
100
AcDbLine
 62
7
  6
CONTINUOUS
 10
19.7194818561
 20
1.1708914427
 11
19.8852396156
 21
1.1699333054
  0
LINE
  5
211
100
AcDbEntity
  8
0
100
AcDbLine
 62
7
  6
CONTINUOUS
 10
19.4758111696
 20
1.2723454088
 11
19.88525039
 21
1.3511534004
  0
LINE
  5
212
100
AcDbEntity
  8
0
100
AcDbLine
 62
7
  6
CONTINUOUS
 10
19.88525039
 20
1.3511534004
 11
19.8831348489
 21
0.9851647912
  0
LINE
  5
213
100
AcDbEntity
  8
0
100
AcDbLine
 62
7
  6
CONTINUOUS
 10
19.8831348489
 20
0.9851647912
 11
19.4767170086
 21
1.0658141206
  0
LINE
  5
214
100
AcDbEntity
  8
0
100
AcDbLine
 62
7
  6
CONTINUOUS
 10
19.4767170086
 20
1.0658141206
 11
19.4779056764
 21
1.2714536432
  0
CIRCLE
  5
215
100
AcDbEntity
  8
0
100
AcDbCircle
 62
7
  6
CONTINUOUS
 10
20.2068232291
 20
1.1717972817
 40
0.175742101
  0
CIRCLE
  5
216
100
AcDbEntity
  8
0
100
AcDbCircle
 62
7
  6
CONTINUOUS
 10
20.2068232291
 20
1.1717972817
 40
0.1005522074
  0
LINE
  5
217
100
AcDbEntity
  8
0
100
AcDbLine
 62
7
  6
CONTINUOUS
 10
20.2077290681
 20
1.3756110529
 11
20.2071171714
 21
1.2379342989
  0
LINE
  5
218
100
AcDbEntity
  8
0
100
AcDbLine
 62
7
  6
CONTINUOUS
 10
20.2077290681
 20
1.2016899681
 11
20.2074674401
 21
1.1428236749
  0
LINE
  5
219
100
AcDbEntity
  8
0
100
AcDbLine
 62
7
  6
CONTINUOUS
 10
20.208634907
 20
1.101141841
 11
20.2080230104
 21
0.963465087
  0
LINE
  5
21A
100
AcDbEntity
  8
0
100
AcDbLine
 62
7
  6
CONTINUOUS
 10
20.0066328138
 20
1.1745147986
 11
20.1443095678
 21
1.1739029019
  0
LINE
  5
21B
100
AcDbEntity
  8
0
100
AcDbLine
 62
7
  6
CONTINUOUS
 10
20.1832714155
 20
1.1727031207
 11
20.238153505
 21
1.172335442
  0
LINE
  5
21C
100
AcDbEntity
  8
0
100
AcDbLine
 62
7
  6
CONTINUOUS
 10
20.2756669918
 20
1.1717972817
 11
20.407916871
 21
1.1712095044
  0
CIRCLE
  5
21D
100
AcDbEntity
  8
0
100
AcDbCircle
 62
7
  6
CONTINUOUS
 10
20.7509457401
 20
1.1693297793
 40
0.1722024983
  0
CIRCLE
  5
21E
100
AcDbEntity
  8
0
100
AcDbCircle
 62
7
  6
CONTINUOUS
 10
20.7509457401
 20
1.1693297793
 40
0.0985164967
  0
LINE
  5
21F
100
AcDbEntity
  8
0
100
AcDbLine
 62
7
  6
CONTINUOUS
 10
20.7169767782
 20
1.170462078
 11
20.7825395137
 21
1.1682766535
  0
LINE
  5
220
100
AcDbEntity
  8
0
100
AcDbLine
 62
7
  6
CONTINUOUS
 10
20.8177513651
 20
1.1693297793
 11
20.947965719
 21
1.1693297793
  0
LINE
  5
221
100
AcDbEntity
  8
0
100
AcDbLine
 62
7
  6
CONTINUOUS
 10
20.6875370113
 20
1.170462078
 11
20.5573226574
 21
1.170462078
  0
LINE
  5
222
100
AcDbEntity
  8
0
100
AcDbLine
 62
7
  6
CONTINUOUS
 10
20.7486811426
 20
1.1987695462
 11
20.7486811426
 21
1.1432869085
  0
LINE
  5
223
100
AcDbEntity
  8
0
100
AcDbLine
 62
7
  6
CONTINUOUS
 10
20.7498134414
 20
1.1059210505
 11
20.7498134414
 21
0.9757066966
  0
LINE
  5
224
100
AcDbEntity
  8
0
100
AcDbLine
 62
7
  6
CONTINUOUS
 10
20.7486811426
 20
1.2338708068
 11
20.7486811426
 21
1.3640851607
  0
LINE
  5
225
100
AcDbEntity
  8
0
100
AcDbLine
 62
7
  6
CONTINUOUS
 10
21.0702539817
 20
1.2701043662
 11
21.4790138229
 21
1.3448360823
  0
LINE
  5
226
100
AcDbEntity
  8
0
100
AcDbLine
 62
7
  6
CONTINUOUS
 10
21.4790138229
 20
1.3448360823
 11
21.4790138229
 21
0.9779712941
  0
LINE
  5
227
100
AcDbEntity
  8
0
100
AcDbLine
 62
7
  6
CONTINUOUS
 10
21.4790138229
 20
0.9779712941
 11
21.069121683
 21
1.0617614
  0
LINE
  5
228
100
AcDbEntity
  8
0
100
AcDbLine
 62
7
  6
CONTINUOUS
 10
21.0702539817
 20
1.2701043662
 11
21.069121683
 21
1.0617614
  0
LINE
  5
229
100
AcDbEntity
  8
0
100
AcDbLine
 62
7
  6
CONTINUOUS
 10
21.4790138229
 20
1.1693297793
 11
21.3159628059
 21
1.1693297793
  0
LINE
  5
22A
100
AcDbEntity
  8
0
100
AcDbLine
 62
7
  6
CONTINUOUS
 10
21.2876553377
 20
1.1693297793
 11
21.2502894796
 21
1.1693297793
  0
LINE
  5
22B
100
AcDbEntity
  8
0
100
AcDbLine
 62
7
  6
CONTINUOUS
 10
21.2208497126
 20
1.1659328831
 11
21.0713862804
 21
1.1659328831
  0
LINE
  5
22C
100
AcDbEntity
  8
0
100
AcDbLine
 62
7
  6
CONTINUOUS
 10
20.4796138713
 20
1.5284908897
 11
20.4766766948
 21
0.9294458646
  0
ENDBLK
  5
22D
100
AcDbEntity
  8
0
  6
BYBLOCK
 62
0
100
AcDbBlockEnd
  0
BLOCK
  5
22E
100
AcDbEntity
  8
0
100
AcDbBlockBegin
  2
*T1
 70
1
 10
0.0
 20
0.0
  3
*T1
  1

  0
LINE
  5
22F
100
AcDbEntity
  8
0
100
AcDbLine
 62
2
  6
CONTINUOUS
 10
9.275
 20
0.0
 11
-0.0
 21
0.0
  0
LINE
  5
230
100
AcDbEntity
  8
0
100
AcDbLine
 62
2
  6
CONTINUOUS
 10
9.275
 20
0.0
 11
9.275
 21
1.25
  0
LINE
  5
231
100
AcDbEntity
  8
0
100
AcDbLine
 62
2
  6
CONTINUOUS
 10
9.275
 20
0.625
 11
-0.0
 21
0.625
  0
LINE
  5
232
100
AcDbEntity
  8
0
100
AcDbLine
 62
2
  6
CONTINUOUS
 10
9.275
 20
1.25
 11
-0.0
 21
1.25
  0
LINE
  5
233
100
AcDbEntity
  8
0
100
AcDbLine
 62
2
  6
CONTINUOUS
 10
6.8
 20
0.0
 11
6.8
 21
1.25
  0
LINE
  5
234
100
AcDbEntity
  8
0
100
AcDbLine
 62
2
  6
CONTINUOUS
 10
6.4
 20
0.0
 11
6.4
 21
0.625
  0
LINE
  5
235
100
AcDbEntity
  8
0
100
AcDbLine
 62
2
  6
CONTINUOUS
 10
5.9
 20
0.0
 11
5.9
 21
0.625
  0
LINE
  5
236
100
AcDbEntity
  8
0
100
AcDbLine
 62
2
  6
CONTINUOUS
 10
5.2
 20
0.0
 11
5.2
 21
0.625
  0
LINE
  5
237
100
AcDbEntity
  8
0
100
AcDbLine
 62
2
  6
CONTINUOUS
 10
4.1
 20
0.0
 11
4.1
 21
1.25
  0
LINE
  5
238
100
AcDbEntity
  8
0
100
AcDbLine
 62
2
  6
CONTINUOUS
 10
-0.0
 20
0.0
 11
-0.0
 21
1.25
  0
MTEXT
  5
239
100
AcDbEntity
  8
0
100
AcDbMText
 62
2
  6
CONTINUOUS
  7
STANDARD
 71
2
 72
1
 10
6.6
 20
0.325
 30
0.0
 11
1.0
 21
0.0
 31
0.0
 44
0.9
  1
2
 40
0.125
 41
0.2
  0
MTEXT
  5
23A
100
AcDbEntity
  8
0
100
AcDbMText
 62
2
  6
CONTINUOUS
  7
STANDARD
 71
2
 72
1
 10
6.15
 20
0.325
 30
0.0
 11
1.0
 21
0.0
 31
0.0
 44
0.9
  1
C
 40
0.125
 41
0.2
  0
MTEXT
  5
23B
100
AcDbEntity
  8
0
100
AcDbMText
 62
2
  6
CONTINUOUS
  7
STANDARD
 71
2
 72
1
 10
5.55
 20
0.325
 30
0.0
 11
1.0
 21
0.0
 31
0.0
 44
0.9
  1
1.000
 40
0.125
 41
1.0
  0
MTEXT
  5
23C
100
AcDbEntity
  8
0
100
AcDbMText
 62
2
  6
CONTINUOUS
  7
STANDARD
 71
2
 72
1
 10
4.65
 20
0.325
 30
0.0
 11
1.0
 21
0.0
 31
0.0
 44
0.9
  1
Sep-04-23
 40
0.125
 41
1.8
  0
MTEXT
  5
23D
100
AcDbEntity
  8
0
100
AcDbMText
 62
2
  6
CONTINUOUS
  7
STANDARD
 71
2
 72
1
 10
2.05
 20
0.4625
 30
0.0
 11
1.0
 21
0.0
 31
0.0
 44
0.9
  1
T-2A Line mount\P(See Technical Data for Body Features)
 40
0.125
 41
7.6
  0
MTEXT
  5
23E
100
AcDbEntity
  8
0
100
AcDbMText
 62
2
  6
CONTINUOUS
  7
STANDARD
 71
1
 72
1
 10
6.45
 20
0.5625
 30
0.0
 11
1.0
 21
0.0
 31
0.0
 44
0.9
  1
SHEET
 40
0.06
 41
0.48
  0
MTEXT
  5
23F
100
AcDbEntity
  8
0
100
AcDbMText
 62
2
  6
CONTINUOUS
  7
STANDARD
 71
1
 72
1
 10
5.95
 20
0.5625
 30
0.0
 11
1.0
 21
0.0
 31
0.0
 44
0.9
  1
DWG SIZE
 40
0.06
 41
0.768
  0
MTEXT
  5
240
100
AcDbEntity
  8
0
100
AcDbMText
 62
2
  6
CONTINUOUS
  7
STANDARD
 71
1
 72
1
 10
5.25
 20
0.5625
 30
0.0
 11
1.0
 21
0.0
 31
0.0
 44
0.9
  1
SCALE
 40
0.06
 41
0.48
  0
MTEXT
  5
241
100
AcDbEntity
  8
0
100
AcDbMText
 62
2
  6
CONTINUOUS
  7
STANDARD
 71
1
 72
1
 10
4.15
 20
0.5625
 30
0.0
 11
1.0
 21
0.0
 31
0.0
 44
0.9
  1
DATE
 40
0.06
 41
0.384
  0
MTEXT
  5
242
100
AcDbEntity
  8
0
100
AcDbMText
 62
2
  6
CONTINUOUS
  7
STANDARD
 71
1
 72
1
 10
0.05
 20
0.5625
 30
0.0
 11
1.0
 21
0.0
 31
0.0
 44
0.9
  1
DESCRIPTION
 40
0.06
 41
1.056
  0
MTEXT
  5
243
100
AcDbEntity
  8
0
100
AcDbMText
 62
2
  6
CONTINUOUS
  7
STANDARD
 71
2
 72
1
 10
5.45
 20
1.0375
 30
0.0
 11
1.0
 21
0.0
 31
0.0
 44
0.9
  1
ALL DIMENSIONS IN INCH\PVIEWS ARE THIRD ANGLE
 40
0.12
 41
4.224
  0
MTEXT
  5
244
100
AcDbEntity
  8
0
100
AcDbMText
 62
2
  6
CONTINUOUS
  7
STANDARD
 71
2
 72
1
 10
2.05
 20
0.95
 30
0.0
 11
1.0
 21
0.0
 31
0.0
 44
0.9
  1
B6U
 40
0.125
 41
0.6
  0
MTEXT
  5
245
100
AcDbEntity
  8
0
100
AcDbMText
 62
2
  6
CONTINUOUS
  7
STANDARD
 71
1
 72
1
 10
0.05
 20
1.1875
 30
0.0
 11
1.0
 21
0.0
 31
0.0
 44
0.9
  1
MODEL
 40
0.06
 41
0.48
  0
ENDBLK
  5
246
100
AcDbEntity
  8
0
  6
BYBLOCK
 62
0
100
AcDbBlockEnd
  0
BLOCK
  5
247
100
AcDbEntity
  8
0
100
AcDbBlockBegin
  2
*T2
 70
1
 10
0.0
 20
0.0
  3
*T2
  1

  0
LINE
  5
248
100
AcDbEntity
  8
0
100
AcDbLine
 62
2
  6
CONTINUOUS
 10
0.0
 20
0.0
 11
9.055
 21
0.0
  0
LINE
  5
249
100
AcDbEntity
  8
0
100
AcDbLine
 62
2
  6
CONTINUOUS
 10
0.0
 20
0.0
 11
0.0
 21
-2.844
  0
LINE
  5
24A
100
AcDbEntity
  8
0
100
AcDbLine
 62
2
  6
CONTINUOUS
 10
0.0
 20
-0.344
 11
9.055
 21
-0.344
  0
LINE
  5
24B
100
AcDbEntity
  8
0
100
AcDbLine
 62
2
  6
CONTINUOUS
 10
0.0
 20
-0.594
 11
9.055
 21
-0.594
  0
LINE
  5
24C
100
AcDbEntity
  8
0
100
AcDbLine
 62
2
  6
CONTINUOUS
 10
0.0
 20
-0.844
 11
9.055
 21
-0.844
  0
LINE
  5
24D
100
AcDbEntity
  8
0
100
AcDbLine
 62
2
  6
CONTINUOUS
 10
0.0
 20
-1.094
 11
9.055
 21
-1.094
  0
LINE
  5
24E
100
AcDbEntity
  8
0
100
AcDbLine
 62
2
  6
CONTINUOUS
 10
0.0
 20
-1.344
 11
9.055
 21
-1.344
  0
LINE
  5
24F
100
AcDbEntity
  8
0
100
AcDbLine
 62
2
  6
CONTINUOUS
 10
0.0
 20
-1.594
 11
9.055
 21
-1.594
  0
LINE
  5
250
100
AcDbEntity
  8
0
100
AcDbLine
 62
2
  6
CONTINUOUS
 10
0.0
 20
-1.844
 11
9.055
 21
-1.844
  0
LINE
  5
251
100
AcDbEntity
  8
0
100
AcDbLine
 62
2
  6
CONTINUOUS
 10
0.0
 20
-2.094
 11
9.055
 21
-2.094
  0
LINE
  5
252
100
AcDbEntity
  8
0
100
AcDbLine
 62
2
  6
CONTINUOUS
 10
0.0
 20
-2.344
 11
9.055
 21
-2.344
  0
LINE
  5
253
100
AcDbEntity
  8
0
100
AcDbLine
 62
2
  6
CONTINUOUS
 10
0.0
 20
-2.594
 11
9.055
 21
-2.594
  0
LINE
  5
254
100
AcDbEntity
  8
0
100
AcDbLine
 62
2
  6
CONTINUOUS
 10
0.0
 20
-2.844
 11
9.055
 21
-2.844
  0
LINE
  5
255
100
AcDbEntity
  8
0
100
AcDbLine
 62
2
  6
CONTINUOUS
 10
3.055
 20
0.0
 11
3.055
 21
-2.844
  0
LINE
  5
256
100
AcDbEntity
  8
0
100
AcDbLine
 62
2
  6
CONTINUOUS
 10
9.055
 20
0.0
 11
9.055
 21
-2.844
  0
MTEXT
  5
257
100
AcDbEntity
  8
0
100
AcDbMText
 62
2
  6
CONTINUOUS
  7
STANDARD
 71
2
 72
1
 10
1.5275
 20
-0.0995
 30
0.0
 11
1.0
 21
0.0
 31
0.0
 44
0.9
  1
Technical Data
 40
0.145
 41
3.248
  0
MTEXT
  5
258
100
AcDbEntity
  8
0
100
AcDbMText
 62
2
  6
CONTINUOUS
  7
STANDARD
 71
2
 72
1
 10
4.555
 20
-0.0995
 30
0.0
 11
1.0
 21
0.0
 31
0.0
 44
0.9
  1
U.S. Units
 40
0.145
 41
2.32
  0
MTEXT
  5
259
100
AcDbEntity
  8
0
100
AcDbMText
 62
2
  6
CONTINUOUS
  7
STANDARD
 71
2
 72
1
 10
7.555
 20
-0.0995
 30
0.0
 11
1.0
 21
0.0
 31
0.0
 44
0.9
  1
Metric Units
 40
0.145
 41
2.784
  0
MTEXT
  5
25A
100
AcDbEntity
  8
0
100
AcDbMText
 62
2
  6
CONTINUOUS
  7
STANDARD
 71
2
 72
1
 10
1.5275
 20
-0.4065
 30
0.0
 11
1.0
 21
0.0
 31
0.0
 44
0.9
  1
Cavity
 40
0.125
 41
1.2
  0
MTEXT
  5
25B
100
AcDbEntity
  8
0
100
AcDbMText
 62
2
  6
CONTINUOUS
  7
STANDARD
 71
2
 72
1
 10
6.055
 20
-0.4065
 30
0.0
 11
1.0
 21
0.0
 31
0.0
 44
0.9
  1
T-2A
 40
0.125
 41
0.8
  0
MTEXT
  5
25C
100
AcDbEntity
  8
0
100
AcDbMText
 62
2
  6
CONTINUOUS
  7
STANDARD
 71
2
 72
1
 10
1.5275
 20
-0.6565
 30
0.0
 11
1.0
 21
0.0
 31
0.0
 44
0.9
  1
Body Features
 40
0.125
 41
2.6
  0
MTEXT
  5
25D
100
AcDbEntity
  8
0
100
AcDbMText
 62
2
  6
CONTINUOUS
  7
STANDARD
 71
2
 72
1
 10
6.055
 20
-0.6565
 30
0.0
 11
1.0
 21
0.0
 31
0.0
 44
0.9
  1
Ninety degree with reverse flow check - sequence
 40
0.125
 41
9.6
  0
MTEXT
  5
25E
100
AcDbEntity
  8
0
100
AcDbMText
 62
2
  6
CONTINUOUS
  7
STANDARD
 71
2
 72
1
 10
1.5275
 20
-0.9065
 30
0.0
 11
1.0
 21
0.0
 31
0.0
 44
0.9
  1
Body Type
 40
0.125
 41
1.8
  0
MTEXT
  5
25F
100
AcDbEntity
  8
0
100
AcDbMText
 62
2
  6
CONTINUOUS
  7
STANDARD
 71
2
 72
1
 10
6.055
 20
-0.9065
 30
0.0
 11
1.0
 21
0.0
 31
0.0
 44
0.9
  1
Line mount
 40
0.125
 41
2.0
  0
MTEXT
  5
260
100
AcDbEntity
  8
0
100
AcDbMText
 62
2
  6
CONTINUOUS
  7
STANDARD
 71
2
 72
1
 10
1.5275
 20
-1.1565
 30
0.0
 11
1.0
 21
0.0
 31
0.0
 44
0.9
  1
Interface
 40
0.125
 41
1.8
  0
MTEXT
  5
261
100
AcDbEntity
  8
0
100
AcDbMText
 62
2
  6
CONTINUOUS
  7
STANDARD
 71
2
 72
1
 10
6.055
 20
-1.1565
 30
0.0
 11
1.0
 21
0.0
 31
0.0
 44
0.9
  1
None
 40
0.125
 41
0.8
  0
MTEXT
  5
262
100
AcDbEntity
  8
0
100
AcDbMText
 62
2
  6
CONTINUOUS
  7
STANDARD
 71
2
 72
1
 10
1.5275
 20
-1.4065
 30
0.0
 11
1.0
 21
0.0
 31
0.0
 44
0.9
  1
Open Cavity Quantity
 40
0.125
 41
4.0
  0
MTEXT
  5
263
100
AcDbEntity
  8
0
100
AcDbMText
 62
2
  6
CONTINUOUS
  7
STANDARD
 71
2
 72
1
 10
6.055
 20
-1.4065
 30
0.0
 11
1.0
 21
0.0
 31
0.0
 44
0.9
  1
1
 40
0.125
 41
0.2
  0
MTEXT
  5
264
100
AcDbEntity
  8
0
100
AcDbMText
 62
2
  6
CONTINUOUS
  7
STANDARD
 71
2
 72
1
 10
1.5275
 20
-1.6565
 30
0.0
 11
1.0
 21
0.0
 31
0.0
 44
0.9
  1
Weight
 40
0.125
 41
1.2
  0
MTEXT
  5
265
100
AcDbEntity
  8
0
100
AcDbMText
 62
2
  6
CONTINUOUS
  7
STANDARD
 71
2
 72
1
 10
4.555
 20
-1.6565
 30
0.0
 11
1.0
 21
0.0
 31
0.0
 44
0.9
  1
1.702 lb.
 40
0.125
 41
1.8
  0
MTEXT
  5
266
100
AcDbEntity
  8
0
100
AcDbMText
 62
2
  6
CONTINUOUS
  7
STANDARD
 71
2
 72
1
 10
7.555
 20
-1.6565
 30
0.0
 11
1.0
 21
0.0
 31
0.0
 44
0.9
  1
0,772 kg.
 40
0.125
 41
1.8
  0
MTEXT
  5
267
100
AcDbEntity
  8
0
100
AcDbMText
 62
2
  6
CONTINUOUS
  7
STANDARD
 71
2
 72
1
 10
1.5275
 20
-1.9065
 30
0.0
 11
1.0
 21
0.0
 31
0.0
 44
0.9
  1
Mounting Hole Diameter
 40
0.125
 41
4.4
  0
MTEXT
  5
268
100
AcDbEntity
  8
0
100
AcDbMText
 62
2
  6
CONTINUOUS
  7
STANDARD
 71
2
 72
1
 10
4.555
 20
-1.9065
 30
0.0
 11
1.0
 21
0.0
 31
0.0
 44
0.9
  1
.28 in.
 40
0.125
 41
1.4
  0
MTEXT
  5
269
100
AcDbEntity
  8
0
100
AcDbMText
 62
2
  6
CONTINUOUS
  7
STANDARD
 71
2
 72
1
 10
7.555
 20
-1.9065
 30
0.0
 11
1.0
 21
0.0
 31
0.0
 44
0.9
  1
7,1 mm
 40
0.125
 41
1.2
  0
MTEXT
  5
26A
100
AcDbEntity
  8
0
100
AcDbMText
 62
2
  6
CONTINUOUS
  7
STANDARD
 71
2
 72
1
 10
1.5275
 20
-2.1565
 30
0.0
 11
1.0
 21
0.0
 31
0.0
 44
0.9
  1
Mounting Hole Depth
 40
0.125
 41
3.8
  0
MTEXT
  5
26B
100
AcDbEntity
  8
0
100
AcDbMText
 62
2
  6
CONTINUOUS
  7
STANDARD
 71
2
 72
1
 10
6.055
 20
-2.1565
 30
0.0
 11
1.0
 21
0.0
 31
0.0
 44
0.9
  1
Through
 40
0.125
 41
1.4
  0
MTEXT
  5
26C
100
AcDbEntity
  8
0
100
AcDbMText
 62
2
  6
CONTINUOUS
  7
STANDARD
 71
2
 72
1
 10
1.5275
 20
-2.4065
 30
0.0
 11
1.0
 21
0.0
 31
0.0
 44
0.9
  1
Mounting Hole Quantity
 40
0.125
 41
4.4
  0
MTEXT
  5
26D
100
AcDbEntity
  8
0
100
AcDbMText
 62
2
  6
CONTINUOUS
  7
STANDARD
 71
2
 72
1
 10
6.055
 20
-2.4065
 30
0.0
 11
1.0
 21
0.0
 31
0.0
 44
0.9
  1
2
 40
0.125
 41
0.2
  0
MTEXT
  5
26E
100
AcDbEntity
  8
0
100
AcDbMText
 62
2
  6
CONTINUOUS
  7
STANDARD
 71
2
 72
1
 10
1.5275
 20
-2.6565
 30
0.0
 11
1.0
 21
0.0
 31
0.0
 44
0.9
  1
Includes integral cartridge(s)
 40
0.125
 41
6.0
  0
MTEXT
  5
26F
100
AcDbEntity
  8
0
100
AcDbMText
 62
2
  6
CONTINUOUS
  7
STANDARD
 71
2
 72
1
 10
6.055
 20
-2.6565
 30
0.0
 11
1.0
 21
0.0
 31
0.0
 44
0.9
  1
Yes (see Included Components)
 40
0.125
 41
5.8
  0
ENDBLK
  5
270
100
AcDbEntity
  8
0
  6
BYBLOCK
 62
0
100
AcDbBlockEnd
  0
BLOCK
  5
271
100
AcDbEntity
  8
0
100
AcDbBlockBegin
  2
*T3
 70
1
 10
0.0
 20
0.0
  3
*T3
  1

  0
LINE
  5
272
100
AcDbEntity
  8
0
100
AcDbLine
 62
2
  6
CONTINUOUS
 10
0.0
 20
0.0
 11
4.6
 21
0.0
  0
LINE
  5
273
100
AcDbEntity
  8
0
100
AcDbLine
 62
2
  6
CONTINUOUS
 10
0.0
 20
0.0
 11
0.0
 21
-1.43775
  0
LINE
  5
274
100
AcDbEntity
  8
0
100
AcDbLine
 62
2
  6
CONTINUOUS
 10
0.0
 20
-0.34375
 11
4.6
 21
-0.34375
  0
LINE
  5
275
100
AcDbEntity
  8
0
100
AcDbLine
 62
2
  6
CONTINUOUS
 10
0.0
 20
-0.68775
 11
4.6
 21
-0.68775
  0
LINE
  5
276
100
AcDbEntity
  8
0
100
AcDbLine
 62
2
  6
CONTINUOUS
 10
0.0
 20
-0.93775
 11
4.6
 21
-0.93775
  0
LINE
  5
277
100
AcDbEntity
  8
0
100
AcDbLine
 62
2
  6
CONTINUOUS
 10
0.0
 20
-1.18775
 11
4.6
 21
-1.18775
  0
LINE
  5
278
100
AcDbEntity
  8
0
100
AcDbLine
 62
2
  6
CONTINUOUS
 10
0.0
 20
-1.43775
 11
4.6
 21
-1.43775
  0
LINE
  5
279
100
AcDbEntity
  8
0
100
AcDbLine
 62
2
  6
CONTINUOUS
 10
1.3
 20
-0.34375
 11
1.3
 21
-1.43775
  0
LINE
  5
27A
100
AcDbEntity
  8
0
100
AcDbLine
 62
2
  6
CONTINUOUS
 10
3.3
 20
-0.34375
 11
3.3
 21
-1.43775
  0
LINE
  5
27B
100
AcDbEntity
  8
0
100
AcDbLine
 62
2
  6
CONTINUOUS
 10
4.6
 20
0.0
 11
4.6
 21
-1.43775
  0
MTEXT
  5
27C
100
AcDbEntity
  8
0
100
AcDbMText
 62
2
  6
CONTINUOUS
  7
STANDARD
 71
2
 72
1
 10
2.3
 20
-0.099375
 30
0.0
 11
1.0
 21
0.0
 31
0.0
 44
0.9
  1
Port Headings
 40
0.145
 41
3.016
  0
MTEXT
  5
27D
100
AcDbEntity
  8
0
100
AcDbMText
 62
2
  6
CONTINUOUS
  7
STANDARD
 71
2
 72
1
 10
0.65
 20
-0.44325
 30
0.0
 11
1.0
 21
0.0
 31
0.0
 44
0.9
  1
Product
 40
0.145
 41
1.624
  0
MTEXT
  5
27E
100
AcDbEntity
  8
0
100
AcDbMText
 62
2
  6
CONTINUOUS
  7
STANDARD
 71
2
 72
1
 10
2.3
 20
-0.44325
 30
0.0
 11
1.0
 21
0.0
 31
0.0
 44
0.9
  1
Port
 40
0.145
 41
0.928
  0
MTEXT
  5
27F
100
AcDbEntity
  8
0
100
AcDbMText
 62
2
  6
CONTINUOUS
  7
STANDARD
 71
2
 72
1
 10
3.95
 20
-0.44325
 30
0.0
 11
1.0
 21
0.0
 31
0.0
 44
0.9
  1
Size
 40
0.145
 41
0.928
  0
MTEXT
  5
280
100
AcDbEntity
  8
0
100
AcDbMText
 62
2
  6
CONTINUOUS
  7
STANDARD
 71
2
 72
1
 10
0.65
 20
-0.75025
 30
0.0
 11
1.0
 21
0.0
 31
0.0
 44
0.9
  1
B6U
 40
0.125
 41
0.6
  0
MTEXT
  5
281
100
AcDbEntity
  8
0
100
AcDbMText
 62
2
  6
CONTINUOUS
  7
STANDARD
 71
2
 72
1
 10
2.3
 20
-0.75025
 30
0.0
 11
1.0
 21
0.0
 31
0.0
 44
0.9
  1
Ports 1 &  2
 40
0.125
 41
2.4
  0
MTEXT
  5
282
100
AcDbEntity
  8
0
100
AcDbMText
 62
2
  6
CONTINUOUS
  7
STANDARD
 71
2
 72
1
 10
3.95
 20
-0.75025
 30
0.0
 11
1.0
 21
0.0
 31
0.0
 44
0.9
  1
3/8" BSPP
 40
0.125
 41
1.8
  0
MTEXT
  5
283
100
AcDbEntity
  8
0
100
AcDbMText
 62
2
  6
CONTINUOUS
  7
STANDARD
 71
2
 72
1
 10
0.65
 20
-1.00025
 30
0.0
 11
1.0
 21
0.0
 31
0.0
 44
0.9
  1
B6U
 40
0.125
 41
0.6
  0
MTEXT
  5
284
100
AcDbEntity
  8
0
100
AcDbMText
 62
2
  6
CONTINUOUS
  7
STANDARD
 71
2
 72
1
 10
2.3
 20
-1.00025
 30
0.0
 11
1.0
 21
0.0
 31
0.0
 44
0.9
  1
Port 3
 40
0.125
 41
1.2
  0
MTEXT
  5
285
100
AcDbEntity
  8
0
100
AcDbMText
 62
2
  6
CONTINUOUS
  7
STANDARD
 71
2
 72
1
 10
3.95
 20
-1.00025
 30
0.0
 11
1.0
 21
0.0
 31
0.0
 44
0.9
  1
1/4" BSPP
 40
0.125
 41
1.8
  0
MTEXT
  5
286
100
AcDbEntity
  8
0
100
AcDbMText
 62
2
  6
CONTINUOUS
  7
STANDARD
 71
2
 72
1
 10
0.65
 20
-1.25025
 30
0.0
 11
1.0
 21
0.0
 31
0.0
 44
0.9
  1
B6U
 40
0.125
 41
0.6
  0
MTEXT
  5
287
100
AcDbEntity
  8
0
100
AcDbMText
 62
2
  6
CONTINUOUS
  7
STANDARD
 71
2
 72
1
 10
2.3
 20
-1.25025
 30
0.0
 11
1.0
 21
0.0
 31
0.0
 44
0.9
  1
Gage Port
 40
0.125
 41
1.8
  0
MTEXT
  5
288
100
AcDbEntity
  8
0
100
AcDbMText
 62
2
  6
CONTINUOUS
  7
STANDARD
 71
2
 72
1
 10
3.95
 20
-1.25025
 30
0.0
 11
1.0
 21
0.0
 31
0.0
 44
0.9
  1
1/4" BSPP
 40
0.125
 41
1.8
  0
ENDBLK
  5
289
100
AcDbEntity
  8
0
  6
BYBLOCK
 62
0
100
AcDbBlockEnd
  0
ENDSEC
  0
SECTION
  2
ENTITIES
  0
IMAGE
  5
28A
100
AcDbEntity
  8
0
100
AcDbRasterImage
 62
7
  6
CONTINUOUS
 10
19.2297077316
 20
0.3094318264
 30
0.0
 11
0.0066666667
 21
0.0
 31
0.0
 12
0.0
 22
0.0066666667
 32
0.0
 13
369.0
 23
92.0
340
       377
 70
9
280
0
281
50
282
50
283
0
360
       371
 71
1
 91
2
 14
-0.5
 24
-0.5
 14
368.5
 24
91.5
  0
INSERT
  5
28B
100
AcDbEntity
  8
0
100
AcDbBlockReference
 62
2
  6
CONTINUOUS
  2
SUN_FIRST_THIRD_ANGLE_BL0
 10
20.4816717061
 20
1.2289683772
  0
ACAD_TABLE
  5
28C
100
AcDbEntity
  8
0
 62
2
  6
CONTINUOUS
100
AcDbBlockReference
  2
*T1
 10
12.42375
 20
0.30125
 30
0.0
100
AcDbTable
342
       379
343
207
 11
1.0
 21
0.0
 31
0.0
 90
6
 91
4
 92
6
 93
20
 94
0
 95
0
 96
0
 70
1
 41
0.0
141
0.525
141
0.1
141
0.525
141
0.1
142
4.1
142
1.1
142
0.7
142
0.5
142
0.4
142
2.475
171
1
172
0
173
0
174
0
175
1
176
1
 91
33
178
0
145
0.0
301
CELL_VALUE
 90
4
  1
T-2A Line mount\P(See Technical Data for Body Features)
304
ACVALUE_END
170
2
140
0.125
171
1
172
0
173
0
174
0
175
1
176
1
 91
33
178
0
145
0.0
301
CELL_VALUE
 90
4
  1
Sep-04-23
304
ACVALUE_END
170
5
140
0.125
171
1
172
0
173
0
174
0
175
1
176
1
 91
33
178
0
145
0.0
301
CELL_VALUE
 90
4
  1
1.000
304
ACVALUE_END
170
5
140
0.125
171
1
172
0
173
0
174
0
175
1
176
1
 91
33
178
0
145
0.0
301
CELL_VALUE
 90
4
  1
C
304
ACVALUE_END
170
5
140
0.125
171
1
172
0
173
0
174
0
175
1
176
1
 91
33
178
0
145
0.0
301
CELL_VALUE
 90
4
  1
2
304
ACVALUE_END
170
5
140
0.125
171
1
172
0
173
0
174
0
175
1
176
1
 91
33
178
0
145
0.0
301
CELL_VALUE
 90
4
  1
 
304
ACVALUE_END
170
1
140
0.125
171
1
172
0
173
0
174
0
175
1
176
1
 91
33
178
0
145
0.0
301
CELL_VALUE
 90
4
  1
DESCRIPTION
304
ACVALUE_END
170
1
140
0.06
171
1
172
0
173
0
174
0
175
1
176
1
 91
33
178
0
145
0.0
301
CELL_VALUE
 90
4
  1
DATE
304
ACVALUE_END
170
1
140
0.06
171
1
172
0
173
0
174
0
175
1
176
1
 91
33
178
0
145
0.0
301
CELL_VALUE
 90
4
  1
SCALE
304
ACVALUE_END
170
1
140
0.06
171
1
172
0
173
0
174
0
175
1
176
1
 91
33
178
0
145
0.0
301
CELL_VALUE
 90
4
  1
DWG SIZE
304
ACVALUE_END
170
1
140
0.06
171
1
172
0
173
0
174
0
175
1
176
1
 91
33
178
0
145
0.0
301
CELL_VALUE
 90
4
  1
SHEET
304
ACVALUE_END
170
1
140
0.06
171
1
172
0
173
0
174
0
175
1
176
1
 91
33
178
0
145
0.0
301
CELL_VALUE
 90
4
  1
 
304
ACVALUE_END
170
1
140
0.125
171
1
172
0
173
0
174
0
175
1
176
1
 91
33
178
0
145
0.0
301
CELL_VALUE
 90
4
  1
B6U
304
ACVALUE_END
170
5
140
0.125
171
1
172
0
173
0
174
0
175
4
176
1
 91
33
178
0
145
0.0
301
CELL_VALUE
 90
4
  1
ALL DIMENSIONS IN INCH\PVIEWS ARE THIRD ANGLE
304
ACVALUE_END
170
5
140
0.12
171
1
172
0
173
1
174
0
175
1
176
1
 91
1
178
0
145
0.0
170
1
171
1
172
0
173
1
174
0
175
1
176
1
 91
1
178
0
145
0.0
170
1
171
1
172
0
173
1
174
0
175
1
176
1
 91
1
178
0
145
0.0
170
5
171
1
172
0
173
0
174
0
175
1
176
1
 91
33
178
0
145
0.0
301
CELL_VALUE
 90
4
  1
 
304
ACVALUE_END
170
1
140
0.125
171
1
172
0
173
0
174
0
175
1
176
1
 91
33
178
0
145
0.0
301
CELL_VALUE
 90
4
  1
MODEL
304
ACVALUE_END
170
1
140
0.06
171
1
172
0
173
0
174
0
175
1
176
1
 91
33
178
0
145
0.0
301
CELL_VALUE
 90
4
  1
 
304
ACVALUE_END
170
1
140
0.125
171
1
172
0
173
0
174
0
175
1
176
1
 91
33
178
0
145
0.0
301
CELL_VALUE
 90
4
  1
 
304
ACVALUE_END
170
1
140
0.125
171
1
172
0
173
0
174
0
175
1
176
1
 91
33
178
0
145
0.0
301
CELL_VALUE
 90
4
  1
 
304
ACVALUE_END
170
1
140
0.125
171
1
172
0
173
0
174
0
175
1
176
1
 91
33
178
0
145
0.0
301
CELL_VALUE
 90
4
  1
 
304
ACVALUE_END
170
1
140
0.125
171
1
172
0
173
0
174
0
175
1
176
1
 91
33
178
0
145
0.0
301
CELL_VALUE
 90
4
  1
 
304
ACVALUE_END
170
1
140
0.125
  0
ACAD_TABLE
  5
28D
100
AcDbEntity
  8
0
 62
2
  6
CONTINUOUS
100
AcDbBlockReference
  2
*T2
 10
12.4237499994
 20
16.47875
 30
0.0
100
AcDbTable
342
       378
343
208
 11
1.0
 21
0.0
 31
0.0
 90
22
 91
11
 92
3
 93
16
 94
0
 95
0
 96
0
 41
0.028
141
0.344
141
0.25
141
0.25
141
0.25
141
0.25
141
0.25
141
0.25
141
0.25
141
0.25
141
0.25
141
0.25
142
3.055
142
3.0
142
3.0
171
1
172
0
173
0
174
0
175
1
176
1
 91
33
178
0
145
0.0
301
CELL_VALUE
 90
4
  1
Technical Data
304
ACVALUE_END
170
5
140
0.145
171
1
172
0
173
0
174
0
175
1
176
1
 91
33
178
0
145
0.0
301
CELL_VALUE
 90
4
  1
U.S. Units
304
ACVALUE_END
170
5
140
0.145
171
1
172
0
173
0
174
0
175
1
176
1
 91
33
178
0
145
0.0
301
CELL_VALUE
 90
4
  1
Metric Units
304
ACVALUE_END
170
5
140
0.145
171
1
172
0
173
0
174
0
175
1
176
1
 91
33
178
0
145
0.0
301
CELL_VALUE
 90
4
  1
Cavity
304
ACVALUE_END
170
5
140
0.125
171
1
172
0
173
0
174
0
175
2
176
1
 91
33
178
0
145
0.0
301
CELL_VALUE
 90
4
  1
T-2A
304
ACVALUE_END
170
5
140
0.125
171
1
172
0
173
1
174
0
175
1
176
1
 91
1
178
0
145
0.0
170
1
171
1
172
0
173
0
174
0
175
1
176
1
 91
33
178
0
145
0.0
301
CELL_VALUE
 90
4
  1
Body Features
304
ACVALUE_END
170
5
140
0.125
171
1
172
0
173
0
174
0
175
2
176
1
 91
33
178
0
145
0.0
301
CELL_VALUE
 90
4
  1
Ninety degree with reverse flow check - sequence
304
ACVALUE_END
170
5
140
0.125
171
1
172
0
173
1
174
0
175
1
176
1
 91
1
178
0
145
0.0
170
1
171
1
172
0
173
0
174
0
175
1
176
1
 91
33
178
0
145
0.0
301
CELL_VALUE
 90
4
  1
Body Type
304
ACVALUE_END
170
5
140
0.125
171
1
172
0
173
0
174
0
175
2
176
1
 91
33
178
0
145
0.0
301
CELL_VALUE
 90
4
  1
Line mount
304
ACVALUE_END
170
5
140
0.125
171
1
172
0
173
1
174
0
175
1
176
1
 91
1
178
0
145
0.0
170
1
171
1
172
0
173
0
174
0
175
1
176
1
 91
33
178
0
145
0.0
301
CELL_VALUE
 90
4
  1
Interface
304
ACVALUE_END
170
5
140
0.125
171
1
172
0
173
0
174
0
175
2
176
1
 91
33
178
0
145
0.0
301
CELL_VALUE
 90
4
  1
None
304
ACVALUE_END
170
5
140
0.125
171
1
172
0
173
1
174
0
175
1
176
1
 91
1
178
0
145
0.0
170
1
171
1
172
0
173
0
174
0
175
1
176
1
 91
33
178
0
145
0.0
301
CELL_VALUE
 90
4
  1
Open Cavity Quantity
304
ACVALUE_END
170
5
140
0.125
171
1
172
0
173
0
174
0
175
2
176
1
 91
33
178
0
145
0.0
301
CELL_VALUE
 90
4
  1
1
304
ACVALUE_END
170
5
140
0.125
171
1
172
0
173
1
174
0
175
1
176
1
 91
1
178
0
145
0.0
170
1
171
1
172
0
173
0
174
0
175
1
176
1
 91
33
178
0
145
0.0
301
CELL_VALUE
 90
4
  1
Weight
304
ACVALUE_END
170
5
140
0.125
171
1
172
0
173
0
174
0
175
1
176
1
 91
33
178
0
145
0.0
301
CELL_VALUE
 90
4
  1
1.702 lb.
304
ACVALUE_END
170
5
140
0.125
171
1
172
0
173
0
174
0
175
1
176
1
 91
33
178
0
145
0.0
301
CELL_VALUE
 90
4
  1
0,772 kg.
304
ACVALUE_END
170
5
140
0.125
171
1
172
0
173
0
174
0
175
1
176
1
 91
33
178
0
145
0.0
301
CELL_VALUE
 90
4
  1
Mounting Hole Diameter
304
ACVALUE_END
170
5
140
0.125
171
1
172
0
173
0
174
0
175
1
176
1
 91
33
178
0
145
0.0
301
CELL_VALUE
 90
4
  1
.28 in.
304
ACVALUE_END
170
5
140
0.125
171
1
172
0
173
0
174
0
175
1
176
1
 91
33
178
0
145
0.0
301
CELL_VALUE
 90
4
  1
7,1 mm
304
ACVALUE_END
170
5
140
0.125
171
1
172
0
173
0
174
0
175
1
176
1
 91
33
178
0
145
0.0
301
CELL_VALUE
 90
4
  1
Mounting Hole Depth
304
ACVALUE_END
170
5
140
0.125
171
1
172
0
173
0
174
0
175
2
176
1
 91
33
178
0
145
0.0
301
CELL_VALUE
 90
4
  1
Through
304
ACVALUE_END
170
5
140
0.125
171
1
172
0
173
1
174
0
175
1
176
1
 91
1
178
0
145
0.0
170
1
171
1
172
0
173
0
174
0
175
1
176
1
 91
33
178
0
145
0.0
301
CELL_VALUE
 90
4
  1
Mounting Hole Quantity
304
ACVALUE_END
170
5
140
0.125
171
1
172
0
173
0
174
0
175
2
176
1
 91
33
178
0
145
0.0
301
CELL_VALUE
 90
4
  1
2
304
ACVALUE_END
170
5
140
0.125
171
1
172
0
173
1
174
0
175
1
176
1
 91
1
178
0
145
0.0
170
1
171
1
172
0
173
0
174
0
175
1
176
1
 91
33
178
0
145
0.0
301
CELL_VALUE
 90
4
  1
Includes integral cartridge(s)
304
ACVALUE_END
170
5
140
0.125
171
1
172
0
173
0
174
0
175
2
176
1
 91
33
178
0
145
0.0
301
CELL_VALUE
 90
4
  1
Yes (see Included Components)
304
ACVALUE_END
170
5
140
0.125
171
1
172
0
173
1
174
0
175
1
176
1
 91
1
178
0
145
0.0
170
1
  0
ACAD_TABLE
  5
28E
100
AcDbEntity
  8
0
 62
2
  6
CONTINUOUS
100
AcDbBlockReference
  2
*T3
 10
0.52125
 20
1.959
 30
0.0
100
AcDbTable
342
       378
343
209
 11
1.0
 21
0.0
 31
0.0
 90
22
 91
5
 92
3
 93
16
 94
0
 95
0
 96
0
 41
0.05
141
0.34375
141
0.344
141
0.25
141
0.25
141
0.25
142
1.3
142
2.0
142
1.3
171
1
172
0
173
0
174
0
175
3
176
1
 91
33
178
0
145
0.0
301
CELL_VALUE
 90
4
  1
Port Headings
304
ACVALUE_END
170
5
140
0.145
171
1
172
0
173
1
174
0
175
1
176
1
 91
1
178
0
145
0.0
170
1
171
1
172
0
173
1
174
0
175
1
176
1
 91
1
178
0
145
0.0
170
1
171
1
172
0
173
0
174
0
175
1
176
1
 91
33
178
0
145
0.0
301
CELL_VALUE
 90
4
  1
Product
304
ACVALUE_END
170
5
140
0.145
171
1
172
0
173
0
174
0
175
1
176
1
 91
33
178
0
145
0.0
301
CELL_VALUE
 90
4
  1
Port
304
ACVALUE_END
170
5
140
0.145
171
1
172
0
173
0
174
0
175
1
176
1
 91
33
178
0
145
0.0
301
CELL_VALUE
 90
4
  1
Size
304
ACVALUE_END
170
5
140
0.145
171
1
172
0
173
0
174
0
175
1
176
1
 91
33
178
0
145
0.0
301
CELL_VALUE
 90
4
  1
B6U
304
ACVALUE_END
170
5
140
0.125
171
1
172
0
173
0
174
0
175
1
176
1
 91
33
178
0
145
0.0
301
CELL_VALUE
 90
4
  1
Ports 1 &  2
304
ACVALUE_END
170
5
140
0.125
171
1
172
0
173
0
174
0
175
1
176
1
 91
33
178
0
145
0.0
301
CELL_VALUE
 90
4
  1
3/8" BSPP
304
ACVALUE_END
170
5
140
0.125
171
1
172
0
173
0
174
0
175
1
176
1
 91
33
178
0
145
0.0
301
CELL_VALUE
 90
4
  1
B6U
304
ACVALUE_END
170
5
140
0.125
171
1
172
0
173
0
174
0
175
1
176
1
 91
33
178
0
145
0.0
301
CELL_VALUE
 90
4
  1
Port 3
304
ACVALUE_END
170
5
140
0.125
171
1
172
0
173
0
174
0
175
1
176
1
 91
33
178
0
145
0.0
301
CELL_VALUE
 90
4
  1
1/4" BSPP
304
ACVALUE_END
170
5
140
0.125
171
1
172
0
173
0
174
0
175
1
176
1
 91
33
178
0
145
0.0
301
CELL_VALUE
 90
4
  1
B6U
304
ACVALUE_END
170
5
140
0.125
171
1
172
0
173
0
174
0
175
1
176
1
 91
33
178
0
145
0.0
301
CELL_VALUE
 90
4
  1
Gage Port
304
ACVALUE_END
170
5
140
0.125
171
1
172
0
173
0
174
0
175
1
176
1
 91
33
178
0
145
0.0
301
CELL_VALUE
 90
4
  1
1/4" BSPP
304
ACVALUE_END
170
5
140
0.125
  0
MTEXT
  5
28F
100
AcDbEntity
  8
0
100
AcDbMText
 62
2
  6
CONTINUOUS
  7
STANDARD
 71
1
 72
1
 10
0.52125
 20
5.75995
 30
0.0
 11
1.0
 21
0.0
 31
0.0
 44
0.6
  3
Notes\P \P1. Important: Carefully consider\P   the maximum system pressure. The\P   pressure rating of the manifold is\P   dependent on the manifold material,\P   with the port type/size a secondary\P   consideration. Manifolds\P   constructed of alu
  3
minum are not\P   rated for pressures higher than\P   3000 psi (210 bar), regardless of\P   the port type/size specified.\P2. This drawing is for reference\P   only. It is generated by an\P   automated process and does not fall\P   under Sun's docume
  1
nt control\P   process.\P3. Items without balloons are\P   shipped loose.
 40
0.1
 41
3.04
  0
LINE
  5
290
100
AcDbEntity
  8
0
100
AcDbLine
 62
7
  6
CONTINUOUS
 10
0.30125
 20
0.30125
 11
0.30125
 21
16.69875
  0
LINE
  5
291
100
AcDbEntity
  8
0
100
AcDbLine
 62
7
  6
CONTINUOUS
 10
0.30125
 20
0.30125
 11
21.69875
 21
0.30125
  0
LINE
  5
292
100
AcDbEntity
  8
0
100
AcDbLine
 62
7
  6
CONTINUOUS
 10
0.30125
 20
16.69875
 11
21.69875
 21
16.69875
  0
LINE
  5
293
100
AcDbEntity
  8
0
100
AcDbLine
 62
7
  6
CONTINUOUS
 10
21.69875
 20
0.30125
 11
21.69875
 21
16.69875
  0
LINE
  5
294
100
AcDbEntity
  8
0
100
AcDbLine
 62
7
  6
CONTINUOUS
 10
9.7452252983
 20
10.7198324047
 11
9.3569970511
 21
10.344832692
  0
LINE
  5
295
100
AcDbEntity
  8
0
100
AcDbLine
 62
7
  6
CONTINUOUS
 10
9.3569970511
 20
6.4811291579
 11
12.2547747017
 21
6.2801675953
  0
LINE
  5
296
100
AcDbEntity
  8
0
100
AcDbLine
 62
7
  6
CONTINUOUS
 10
9.3569970511
 20
6.4811291579
 11
9.3569970511
 21
10.344832692
  0
LINE
  5
297
100
AcDbEntity
  8
0
100
AcDbLine
 62
4
  6
CONTINUOUS
 10
9.5115451926
 20
7.5522481948
 11
9.5115451926
 21
7.4363370914
  0
LINE
  5
298
100
AcDbEntity
  8
0
100
AcDbLine
 62
4
  6
CONTINUOUS
 10
12.1238917783
 20
7.0716443248
 11
12.1094028904
 21
7.0726491326
  0
LINE
  5
299
100
AcDbEntity
  8
0
100
AcDbLine
 62
4
  6
CONTINUOUS
 10
12.1166473343
 20
7.1301022804
 11
12.1456251102
 21
7.1280926648
  0
LINE
  5
29A
100
AcDbEntity
  8
0
100
AcDbLine
 62
4
  6
CONTINUOUS
 10
12.1094028904
 20
7.188560236
 11
12.1238917783
 21
7.1875554282
  0
LINE
  5
29B
100
AcDbEntity
  8
0
100
AcDbLine
 62
4
  6
CONTINUOUS
 10
10.2562740486
 20
8.6500528772
 11
10.2562740486
 21
8.5920973242
  0
LINE
  5
29C
100
AcDbEntity
  8
0
100
AcDbLine
 62
4
  6
CONTINUOUS
 10
10.3243028315
 20
7.9879535072
 11
10.3684594442
 21
7.9628129294
  0
LINE
  5
29D
100
AcDbEntity
  8
0
100
AcDbLine
 62
4
  6
CONTINUOUS
 10
10.4319345699
 20
8.046724138
 11
10.4484932983
 21
8.0290170578
  0
LINE
  5
29E
100
AcDbEntity
  8
0
100
AcDbLine
 62
4
  6
CONTINUOUS
 10
10.3142296017
 20
8.588078093
 11
10.3142296017
 21
8.53012254
  0
LINE
  5
29F
100
AcDbEntity
  8
0
100
AcDbLine
 62
4
  6
CONTINUOUS
 10
10.3432073782
 20
8.5281129243
 11
10.3432073782
 21
8.6440240304
  0
LINE
  5
2A0
100
AcDbEntity
  8
0
100
AcDbLine
 62
4
  6
CONTINUOUS
 10
10.3905377522
 20
7.933683911
 11
10.3905377522
 21
8.049595017
  0
LINE
  5
2A1
100
AcDbEntity
  8
0
100
AcDbLine
 62
4
  6
CONTINUOUS
 10
10.4011629312
 20
8.6400047991
 11
10.4011629312
 21
8.5240936931
  0
LINE
  5
2A2
100
AcDbEntity
  8
0
100
AcDbLine
 62
4
  6
CONTINUOUS
 10
10.4301407077
 20
8.6379951835
 11
10.4301407077
 21
8.5220840775
  0
LINE
  5
2A3
100
AcDbEntity
  8
0
100
AcDbLine
 62
4
  6
CONTINUOUS
 10
10.4484932983
 20
8.0290170578
 11
10.4484932983
 21
7.9462234104
  0
LINE
  5
2A4
100
AcDbEntity
  8
0
100
AcDbLine
 62
4
  6
CONTINUOUS
 10
12.0804251145
 20
9.8372067174
 11
12.0949140025
 21
9.8458611659
  0
LINE
  5
2A5
100
AcDbEntity
  8
0
100
AcDbLine
 62
4
  6
CONTINUOUS
 10
12.1238917783
 20
9.8052145182
 11
12.1094028904
 21
9.7965600627
  0
LINE
  5
2A6
100
AcDbEntity
  8
0
100
AcDbLine
 62
4
  6
CONTINUOUS
 10
11.0970435199
 20
7.8846875696
 11
11.0556466884
 21
7.8875584496
  0
LINE
  5
2A7
100
AcDbEntity
  8
0
100
AcDbLine
 62
4
  6
CONTINUOUS
 10
11.0059705238
 20
7.8910035034
 11
10.9811324139
 21
7.8927260321
  0
LINE
  5
2A8
100
AcDbEntity
  8
0
100
AcDbLine
 62
4
  6
CONTINUOUS
 10
10.9176573055
 20
7.8971280458
 11
10.8845398624
 21
7.8994247483
  0
LINE
  5
2A9
100
AcDbEntity
  8
0
100
AcDbLine
 62
4
  6
CONTINUOUS
 10
10.4319345699
 20
7.930813032
 11
10.3905377522
 21
7.933683911
  0
LINE
  5
2AA
100
AcDbEntity
  8
0
100
AcDbLine
 62
4
  6
CONTINUOUS
 10
10.6941144542
 20
7.9126307952
 11
10.7437906464
 21
7.9091857396
  0
LINE
  5
2AB
100
AcDbEntity
  8
0
100
AcDbLine
 62
4
  6
CONTINUOUS
 10
11.1605186836
 20
7.8802855521
 11
11.2101948482
 21
7.8768404984
  0
LINE
  5
2AC
100
AcDbEntity
  8
0
100
AcDbLine
 62
4
  6
CONTINUOUS
 10
10.5064488513
 20
7.9587629093
 11
10.5506054605
 21
7.9557006381
  0
LINE
  5
2AD
100
AcDbEntity
  8
0
100
AcDbLine
 62
4
  6
CONTINUOUS
 10
11.1936361267
 20
7.9442237703
 11
11.1605186836
 21
7.9465204728
  0
LINE
  5
2AE
100
AcDbEntity
  8
0
100
AcDbLine
 62
4
  6
CONTINUOUS
 10
10.7272319249
 20
7.9765690115
 11
10.6941144542
 21
7.9788657159
  0
LINE
  5
2AF
100
AcDbEntity
  8
0
100
AcDbLine
 62
4
  6
CONTINUOUS
 10
10.5285271559
 20
8.0400254194
 11
10.5616446266
 21
7.921817609
  0
LINE
  5
2B0
100
AcDbEntity
  8
0
100
AcDbLine
 62
4
  6
CONTINUOUS
 10
10.4880962607
 20
8.6339759522
 11
10.4880962607
 21
8.5180648462
  0
LINE
  5
2B1
100
AcDbEntity
  8
0
100
AcDbLine
 62
4
  6
CONTINUOUS
 10
10.6040073667
 20
8.5100263837
 11
10.6040073667
 21
8.6259374897
  0
LINE
  5
2B2
100
AcDbEntity
  8
0
100
AcDbLine
 62
4
  6
CONTINUOUS
 10
10.6278795404
 20
7.9172242021
 11
10.6278795404
 21
8.0331353081
  0
LINE
  5
2B3
100
AcDbEntity
  8
0
100
AcDbLine
 62
4
  6
CONTINUOUS
 10
12.1238917783
 20
9.7375997058
 11
12.1094028904
 21
9.7289452547
  0
LINE
  5
2B4
100
AcDbEntity
  8
0
100
AcDbLine
 62
4
  6
CONTINUOUS
 10
10.3905377522
 20
8.049595017
 11
10.4319345699
 21
8.046724138
  0
LINE
  5
2B5
100
AcDbEntity
  8
0
100
AcDbLine
 62
4
  6
CONTINUOUS
 10
10.5947620697
 20
8.0354320125
 11
10.6609969835
 21
8.0308386057
  0
LINE
  5
2B6
100
AcDbEntity
  8
0
100
AcDbLine
 62
4
  6
CONTINUOUS
 10
10.6941144542
 20
8.0285419013
 11
10.7437906464
 21
8.0250968456
  0
LINE
  5
2B7
100
AcDbEntity
  8
0
100
AcDbLine
 62
4
  6
CONTINUOUS
 10
10.8845398624
 20
8.0153358543
 11
10.9176573055
 21
8.0130391519
  0
LINE
  5
2B8
100
AcDbEntity
  8
0
100
AcDbLine
 62
4
  6
CONTINUOUS
 10
10.9811324139
 20
8.0086371382
 11
11.0059705238
 21
8.0069146094
  0
LINE
  5
2B9
100
AcDbEntity
  8
0
100
AcDbLine
 62
4
  6
CONTINUOUS
 10
11.0556466884
 20
8.0034695557
 11
11.0970435199
 21
8.0005986756
  0
LINE
  5
2BA
100
AcDbEntity
  8
0
100
AcDbLine
 62
4
  6
CONTINUOUS
 10
11.1605186836
 20
7.9961966581
 11
11.2101948482
 21
7.9927516044
  0
LINE
  5
2BB
100
AcDbEntity
  8
0
100
AcDbLine
 62
4
  6
CONTINUOUS
 10
10.727231914
 20
8.1653385249
 11
10.6858350894
 21
8.1682094044
  0
LINE
  5
2BC
100
AcDbEntity
  8
0
100
AcDbLine
 62
4
  6
CONTINUOUS
 10
10.7934668277
 20
8.160745118
 11
10.8183049308
 21
8.1590225897
  0
LINE
  5
2BD
100
AcDbEntity
  8
0
100
AcDbLine
 62
4
  6
CONTINUOUS
 10
10.8845398445
 20
8.1544291828
 11
10.9093779407
 21
8.152706655
  0
LINE
  5
2BE
100
AcDbEntity
  8
0
100
AcDbLine
 62
4
  6
CONTINUOUS
 10
11.2433122913
 20
7.9462982927
 11
11.2874689005
 21
7.9211577134
  0
LINE
  5
2BF
100
AcDbEntity
  8
0
100
AcDbLine
 62
4
  6
CONTINUOUS
 10
12.1094028904
 20
7.0726491326
 11
12.0949140025
 21
7.0833131993
  0
LINE
  5
2C0
100
AcDbEntity
  8
0
100
AcDbLine
 62
4
  6
CONTINUOUS
 10
12.1238917783
 20
7.1875554282
 11
12.1383806662
 21
7.1768913641
  0
LINE
  5
2C1
100
AcDbEntity
  8
0
100
AcDbLine
 62
4
  6
CONTINUOUS
 10
10.7189525497
 20
8.2790640152
 11
10.7355112782
 21
8.2641167266
  0
LINE
  5
2C2
100
AcDbEntity
  8
0
100
AcDbLine
 62
4
  6
CONTINUOUS
 10
10.8845398624
 20
7.8994247483
 11
10.8679811409
 21
7.9171318297
  0
LINE
  5
2C3
100
AcDbEntity
  8
0
100
AcDbLine
 62
4
  6
CONTINUOUS
 10
10.9811324139
 20
7.8927260321
 11
10.9645736924
 21
7.9104331135
  0
LINE
  5
2C4
100
AcDbEntity
  8
0
100
AcDbLine
 62
4
  6
CONTINUOUS
 10
10.727231914
 20
8.2232940779
 11
10.7437906424
 21
8.2055869977
  0
LINE
  5
2C5
100
AcDbEntity
  8
0
100
AcDbLine
 62
4
  6
CONTINUOUS
 10
10.7769080993
 20
8.1784521999
 11
10.7934668277
 21
8.160745118
  0
LINE
  5
2C6
100
AcDbEntity
  8
0
100
AcDbLine
 62
4
  6
CONTINUOUS
 10
10.6619629197
 20
8.5060071524
 11
10.6619629197
 21
8.5639627055
  0
LINE
  5
2C7
100
AcDbEntity
  8
0
100
AcDbLine
 62
4
  6
CONTINUOUS
 10
10.6858350894
 20
8.1682094044
 11
10.6858350894
 21
8.2841205104
  0
LINE
  5
2C8
100
AcDbEntity
  8
0
100
AcDbLine
 62
4
  6
CONTINUOUS
 10
10.6941144542
 20
7.9126307952
 11
10.6941144542
 21
8.0285419013
  0
LINE
  5
2C9
100
AcDbEntity
  8
0
100
AcDbLine
 62
4
  6
CONTINUOUS
 10
10.709293288
 20
8.5027247803
 11
10.709293288
 21
8.5606803333
  0
LINE
  5
2CA
100
AcDbEntity
  8
0
100
AcDbLine
 62
4
  6
CONTINUOUS
 10
10.7355112782
 20
8.2641167266
 11
10.7355112782
 21
8.2392786305
  0
LINE
  5
2CB
100
AcDbEntity
  8
0
100
AcDbLine
 62
4
  6
CONTINUOUS
 10
10.7437906424
 20
8.2055869977
 11
10.7437906424
 21
8.1807489033
  0
LINE
  5
2CC
100
AcDbEntity
  8
0
100
AcDbLine
 62
4
  6
CONTINUOUS
 10
10.767248841
 20
8.556661102
 11
10.767248841
 21
8.440749996
  0
LINE
  5
2CD
100
AcDbEntity
  8
0
100
AcDbLine
 62
4
  6
CONTINUOUS
 10
10.7769080993
 20
8.2198490227
 11
10.7769080993
 21
8.1784521999
  0
LINE
  5
2CE
100
AcDbEntity
  8
0
100
AcDbLine
 62
4
  6
CONTINUOUS
 10
10.8058858764
 20
8.4960260615
 11
10.8058858764
 21
8.5539816145
  0
LINE
  5
2CF
100
AcDbEntity
  8
0
100
AcDbLine
 62
4
  6
CONTINUOUS
 10
10.8348636523
 20
8.1744329686
 11
10.8348636523
 21
8.2075504272
  0
LINE
  5
2D0
100
AcDbEntity
  8
0
100
AcDbLine
 62
4
  6
CONTINUOUS
 10
10.495409699
 20
7.9264110168
 11
10.5285271559
 21
8.0400254194
  0
LINE
  5
2D1
100
AcDbEntity
  8
0
100
AcDbLine
 62
7
  6
CONTINUOUS
 10
12.4442798219
 20
10.3429190309
 11
12.4225881989
 21
10.3219665307
  0
LINE
  5
2D2
100
AcDbEntity
  8
0
100
AcDbLine
 62
7
  6
CONTINUOUS
 10
12.2547747017
 20
10.1438711294
 11
12.4380430137
 21
10.3208947356
  0
LINE
  5
2D3
100
AcDbEntity
  8
0
100
AcDbLine
 62
7
  6
CONTINUOUS
 10
12.4597346368
 20
10.3418472358
 11
12.6430029489
 21
10.5188708421
  0
LINE
  5
2D4
100
AcDbEntity
  8
0
100
AcDbLine
 62
7
  6
CONTINUOUS
 10
12.4340821935
 20
10.1659521888
 11
12.4334340104
 21
10.1653376379
  0
LINE
  5
2D5
100
AcDbEntity
  8
0
100
AcDbLine
 62
4
  6
CONTINUOUS
 10
10.6858350894
 20
8.2261649574
 11
10.727231914
 21
8.2232940779
  0
LINE
  5
2D6
100
AcDbEntity
  8
0
100
AcDbLine
 62
4
  6
CONTINUOUS
 10
10.8183049308
 20
8.2252575104
 11
10.7824276754
 21
8.2277456065
  0
LINE
  5
2D7
100
AcDbEntity
  8
0
100
AcDbLine
 62
4
  6
CONTINUOUS
 10
10.6858350894
 20
8.2841205104
 11
10.7106731838
 21
8.2823979827
  0
LINE
  5
2D8
100
AcDbEntity
  8
0
100
AcDbLine
 62
4
  6
CONTINUOUS
 10
10.7106731838
 20
8.2823979827
 11
10.7189525497
 21
8.2790640152
  0
LINE
  5
2D9
100
AcDbEntity
  8
0
100
AcDbLine
 62
4
  6
CONTINUOUS
 10
11.0059705238
 20
8.0069146094
 11
11.0225292454
 21
7.9892075297
  0
LINE
  5
2DA
100
AcDbEntity
  8
0
100
AcDbLine
 62
4
  6
CONTINUOUS
 10
10.8679811092
 20
8.1721362652
 11
10.8845398445
 21
8.1544291828
  0
LINE
  5
2DB
100
AcDbEntity
  8
0
100
AcDbLine
 62
4
  6
CONTINUOUS
 10
10.8348636523
 20
8.2075504272
 11
10.8183049308
 21
8.2252575104
  0
LINE
  5
2DC
100
AcDbEntity
  8
0
100
AcDbLine
 62
4
  6
CONTINUOUS
 10
11.0970435199
 20
8.0005986756
 11
11.1136022415
 21
7.982891596
  0
LINE
  5
2DD
100
AcDbEntity
  8
0
100
AcDbLine
 62
4
  6
CONTINUOUS
 10
10.8638414294
 20
8.6079179363
 11
10.8638414294
 21
8.4920068302
  0
LINE
  5
2DE
100
AcDbEntity
  8
0
100
AcDbLine
 62
4
  6
CONTINUOUS
 10
10.8679811092
 20
8.271488641
 11
10.8679811092
 21
8.1721362652
  0
LINE
  5
2DF
100
AcDbEntity
  8
0
100
AcDbLine
 62
4
  6
CONTINUOUS
 10
10.8679811409
 20
7.9171318297
 11
10.8679811409
 21
7.9999254771
  0
LINE
  5
2E0
100
AcDbEntity
  8
0
100
AcDbLine
 62
4
  6
CONTINUOUS
 10
10.9024784647
 20
8.5472828958
 11
10.9024784647
 21
8.4893273427
  0
LINE
  5
2E1
100
AcDbEntity
  8
0
100
AcDbLine
 62
4
  6
CONTINUOUS
 10
10.9259366622
 20
8.1681170339
 11
10.9259366622
 21
8.2674694098
  0
LINE
  5
2E2
100
AcDbEntity
  8
0
100
AcDbLine
 62
4
  6
CONTINUOUS
 10
10.9645736924
 20
7.9104331135
 11
10.9645736924
 21
7.9932267609
  0
LINE
  5
2E3
100
AcDbEntity
  8
0
100
AcDbLine
 62
4
  6
CONTINUOUS
 10
10.9990710531
 20
8.482628624
 11
10.9990710531
 21
8.5212656593
  0
LINE
  5
2E4
100
AcDbEntity
  8
0
100
AcDbLine
 62
4
  6
CONTINUOUS
 10
11.0225292454
 20
7.9892075297
 11
11.0225292454
 21
7.9064138823
  0
LINE
  5
2E5
100
AcDbEntity
  8
0
100
AcDbLine
 62
4
  6
CONTINUOUS
 10
10.7934668277
 20
8.2518181279
 11
10.7769080993
 21
8.2198490227
  0
LINE
  5
2E6
100
AcDbEntity
  8
0
100
AcDbLine
 62
4
  6
CONTINUOUS
 10
10.7355112782
 20
8.2392786305
 11
10.7189525497
 21
8.2238682537
  0
LINE
  5
2E7
100
AcDbEntity
  8
0
100
AcDbLine
 62
4
  6
CONTINUOUS
 10
10.767248841
 20
8.440749996
 11
10.7286118057
 21
8.4434294835
  0
LINE
  5
2E8
100
AcDbEntity
  8
0
100
AcDbLine
 62
4
  6
CONTINUOUS
 10
11.4240784418
 20
8.4531542615
 11
11.3661228888
 21
8.4571734927
  0
LINE
  5
2E9
100
AcDbEntity
  8
0
100
AcDbLine
 62
4
  6
CONTINUOUS
 10
11.0570266061
 20
8.4786093927
 11
10.9990710531
 21
8.482628624
  0
LINE
  5
2EA
100
AcDbEntity
  8
0
100
AcDbLine
 62
4
  6
CONTINUOUS
 10
10.8638414294
 20
8.4920068302
 11
10.8058858764
 21
8.4960260615
  0
LINE
  5
2EB
100
AcDbEntity
  8
0
100
AcDbLine
 62
4
  6
CONTINUOUS
 10
10.767248841
 20
8.498705549
 11
10.709293288
 21
8.5027247803
  0
LINE
  5
2EC
100
AcDbEntity
  8
0
100
AcDbLine
 62
4
  6
CONTINUOUS
 10
10.4011629312
 20
8.5240936931
 11
10.3432073782
 21
8.5281129243
  0
LINE
  5
2ED
100
AcDbEntity
  8
0
100
AcDbLine
 62
4
  6
CONTINUOUS
 10
10.3142296017
 20
8.53012254
 11
10.2562740486
 21
8.5341417712
  0
LINE
  5
2EE
100
AcDbEntity
  8
0
100
AcDbLine
 62
4
  6
CONTINUOUS
 10
11.0956636414
 20
8.4759299052
 11
11.1536191944
 21
8.471910674
  0
LINE
  5
2EF
100
AcDbEntity
  8
0
100
AcDbLine
 62
4
  6
CONTINUOUS
 10
11.2695303005
 20
8.4638722115
 11
11.3274858535
 21
8.4598529802
  0
LINE
  5
2F0
100
AcDbEntity
  8
0
100
AcDbLine
 62
4
  6
CONTINUOUS
 10
12.0731806706
 20
8.4081389243
 11
12.1311362223
 21
8.4041196931
  0
LINE
  5
2F1
100
AcDbEntity
  8
0
100
AcDbLine
 62
4
  6
CONTINUOUS
 10
11.3661228888
 20
8.4861512692
 11
11.4240784418
 21
8.482132038
  0
LINE
  5
2F2
100
AcDbEntity
  8
0
100
AcDbLine
 62
4
  6
CONTINUOUS
 10
10.9990710531
 20
8.5212656593
 11
11.0570266061
 21
8.5172464281
  0
LINE
  5
2F3
100
AcDbEntity
  8
0
100
AcDbLine
 62
4
  6
CONTINUOUS
 10
11.0556466884
 20
7.8875584496
 11
11.0556466884
 21
8.0034695557
  0
LINE
  5
2F4
100
AcDbEntity
  8
0
100
AcDbLine
 62
4
  6
CONTINUOUS
 10
11.0570266061
 20
8.5365649457
 11
11.0570266061
 21
8.4786093927
  0
LINE
  5
2F5
100
AcDbEntity
  8
0
100
AcDbLine
 62
4
  6
CONTINUOUS
 10
11.0956636414
 20
8.5338854582
 11
11.0956636414
 21
8.4759299052
  0
LINE
  5
2F6
100
AcDbEntity
  8
0
100
AcDbLine
 62
4
  6
CONTINUOUS
 10
11.1136022415
 20
7.982891596
 11
11.1136022415
 21
7.9000979486
  0
LINE
  5
2F7
100
AcDbEntity
  8
0
100
AcDbLine
 62
4
  6
CONTINUOUS
 10
11.1536191944
 20
8.471910674
 11
11.1536191944
 21
8.529866227
  0
LINE
  5
2F8
100
AcDbEntity
  8
0
100
AcDbLine
 62
4
  6
CONTINUOUS
 10
11.1605186836
 20
7.8802855521
 11
11.1605186836
 21
7.9961966581
  0
LINE
  5
2F9
100
AcDbEntity
  8
0
100
AcDbLine
 62
4
  6
CONTINUOUS
 10
11.1922562298
 20
8.4692311865
 11
11.1922562298
 21
8.5851422925
  0
LINE
  5
2FA
100
AcDbEntity
  8
0
100
AcDbLine
 62
4
  6
CONTINUOUS
 10
12.1311362223
 20
9.8143713706
 11
12.1238917783
 21
9.8052145182
  0
LINE
  5
2FB
100
AcDbEntity
  8
0
100
AcDbLine
 62
4
  6
CONTINUOUS
 10
12.1383806662
 20
9.755913415
 11
12.1238917783
 21
9.7375997058
  0
LINE
  5
2FC
100
AcDbEntity
  8
0
100
AcDbLine
 62
4
  6
CONTINUOUS
 10
10.4484932983
 20
7.9462234104
 11
10.4319345699
 21
7.930813032
  0
LINE
  5
2FD
100
AcDbEntity
  8
0
100
AcDbLine
 62
4
  6
CONTINUOUS
 10
10.8183049308
 20
8.2749336957
 11
10.7934668277
 21
8.2518181279
  0
LINE
  5
2FE
100
AcDbEntity
  8
0
100
AcDbLine
 62
4
  6
CONTINUOUS
 10
10.7437906424
 20
8.1807489033
 11
10.727231914
 21
8.1653385249
  0
LINE
  5
2FF
100
AcDbEntity
  8
0
100
AcDbLine
 62
4
  6
CONTINUOUS
 10
10.8183049308
 20
8.1590225897
 11
10.8348636523
 21
8.1744329686
  0
LINE
  5
300
100
AcDbEntity
  8
0
100
AcDbLine
 62
4
  6
CONTINUOUS
 10
10.9093779407
 20
8.152706655
 11
10.9259366622
 21
8.1681170339
  0
LINE
  5
301
100
AcDbEntity
  8
0
100
AcDbLine
 62
4
  6
CONTINUOUS
 10
10.3684594442
 20
8.0069695437
 11
10.3243028315
 21
7.9879535072
  0
LINE
  5
302
100
AcDbEntity
  8
0
100
AcDbLine
 62
4
  6
CONTINUOUS
 10
11.0570266061
 20
8.5365649457
 11
11.0183895707
 21
8.5392444333
  0
LINE
  5
303
100
AcDbEntity
  8
0
100
AcDbLine
 62
4
  6
CONTINUOUS
 10
10.6619629197
 20
8.5639627055
 11
10.6040073667
 21
8.5679819367
  0
LINE
  5
304
100
AcDbEntity
  8
0
100
AcDbLine
 62
4
  6
CONTINUOUS
 10
10.2562740486
 20
8.5920973242
 11
10.3142296017
 21
8.588078093
  0
LINE
  5
305
100
AcDbEntity
  8
0
100
AcDbLine
 62
4
  6
CONTINUOUS
 10
10.8058858764
 20
8.5539816145
 11
10.8638414294
 21
8.5499623833
  0
LINE
  5
306
100
AcDbEntity
  8
0
100
AcDbLine
 62
4
  6
CONTINUOUS
 10
10.9024784647
 20
8.5472828958
 11
10.9604340177
 21
8.5432636645
  0
LINE
  5
307
100
AcDbEntity
  8
0
100
AcDbLine
 62
4
  6
CONTINUOUS
 10
11.2695303005
 20
8.5218277645
 11
11.3274858535
 21
8.5178085332
  0
LINE
  5
308
100
AcDbEntity
  8
0
100
AcDbLine
 62
4
  6
CONTINUOUS
 10
11.3661228888
 20
8.5151290457
 11
11.4240784418
 21
8.5111098145
  0
LINE
  5
309
100
AcDbEntity
  8
0
100
AcDbLine
 62
4
  6
CONTINUOUS
 10
11.223648821
 20
8.5539874324
 11
11.2381377092
 21
8.5529826246
  0
LINE
  5
30A
100
AcDbEntity
  8
0
100
AcDbLine
 62
4
  6
CONTINUOUS
 10
10.3142296017
 20
8.646033646
 11
10.2562740486
 21
8.6500528772
  0
LINE
  5
30B
100
AcDbEntity
  8
0
100
AcDbLine
 62
4
  6
CONTINUOUS
 10
10.4301407077
 20
8.6379951835
 11
10.4880962607
 21
8.6339759522
  0
LINE
  5
30C
100
AcDbEntity
  8
0
100
AcDbLine
 62
4
  6
CONTINUOUS
 10
12.0949140025
 20
8.522542816
 11
12.1094028904
 21
8.5215380082
  0
LINE
  5
30D
100
AcDbEntity
  8
0
100
AcDbLine
 62
4
  6
CONTINUOUS
 10
12.0949140025
 20
7.0833131993
 11
12.0804251145
 21
7.103636524
  0
LINE
  5
30E
100
AcDbEntity
  8
0
100
AcDbLine
 62
4
  6
CONTINUOUS
 10
12.1383806662
 20
7.1768913641
 11
12.1456251102
 21
7.166729697
  0
LINE
  5
30F
100
AcDbEntity
  8
0
100
AcDbLine
 62
4
  6
CONTINUOUS
 10
11.2308932651
 20
8.466551699
 11
11.2308932651
 21
8.524507252
  0
LINE
  5
310
100
AcDbEntity
  8
0
100
AcDbLine
 62
4
  6
CONTINUOUS
 10
11.2695303005
 20
8.5218277645
 11
11.2695303005
 21
8.4638722115
  0
LINE
  5
311
100
AcDbEntity
  8
0
100
AcDbLine
 62
4
  6
CONTINUOUS
 10
11.3661228888
 20
8.5151290457
 11
11.3661228888
 21
8.4861512692
  0
LINE
  5
312
100
AcDbEntity
  8
0
100
AcDbLine
 62
4
  6
CONTINUOUS
 10
10.8679811409
 20
7.9999254771
 11
10.8845398624
 21
8.0153358543
  0
LINE
  5
313
100
AcDbEntity
  8
0
100
AcDbLine
 62
4
  6
CONTINUOUS
 10
10.9645736924
 20
7.9932267609
 11
10.9811324139
 21
8.0086371382
  0
LINE
  5
314
100
AcDbEntity
  8
0
100
AcDbLine
 62
4
  6
CONTINUOUS
 10
11.4240784418
 20
8.482132038
 11
11.4240784418
 21
8.4531542615
  0
LINE
  5
315
100
AcDbEntity
  8
0
100
AcDbLine
 62
4
  6
CONTINUOUS
 10
11.0225292454
 20
7.9064138823
 11
11.0059705238
 21
7.8910035034
  0
LINE
  5
316
100
AcDbEntity
  8
0
100
AcDbLine
 62
4
  6
CONTINUOUS
 10
11.1136022415
 20
7.9000979486
 11
11.0970435199
 21
7.8846875696
  0
LINE
  5
317
100
AcDbEntity
  8
0
100
AcDbLine
 62
4
  6
CONTINUOUS
 10
12.0804251145
 20
8.5138883675
 11
12.0949140025
 21
8.522542816
  0
LINE
  5
318
100
AcDbEntity
  8
0
100
AcDbLine
 62
7
  6
CONTINUOUS
 10
12.4342532934
 20
8.9162062678
 11
12.4334340104
 21
8.9154294654
  0
LINE
  5
319
100
AcDbEntity
  8
0
100
AcDbLine
 62
4
  6
CONTINUOUS
 10
12.1238917783
 20
8.4722369051
 11
12.0949140025
 21
8.4549280045
  0
LINE
  5
31A
100
AcDbEntity
  8
0
100
AcDbLine
 62
4
  6
CONTINUOUS
 10
11.2874689005
 20
7.9211577134
 11
11.2433122913
 21
7.9021416783
  0
LINE
  5
31B
100
AcDbEntity
  8
0
100
AcDbLine
 62
4
  6
CONTINUOUS
 10
12.1094028904
 20
8.5215380082
 11
12.1238917783
 21
8.5108739441
  0
LINE
  5
31C
100
AcDbEntity
  8
0
100
AcDbLine
 62
4
  6
CONTINUOUS
 10
12.0804251145
 20
7.103636524
 11
12.0731806706
 21
7.1331167038
  0
LINE
  5
31D
100
AcDbEntity
  8
0
100
AcDbLine
 62
4
  6
CONTINUOUS
 10
12.0731806706
 20
8.5047315082
 11
12.0804251145
 21
8.5138883675
  0
LINE
  5
31E
100
AcDbEntity
  8
0
100
AcDbLine
 62
4
  6
CONTINUOUS
 10
12.0949140025
 20
8.4549280045
 11
12.0804251145
 21
8.4366142963
  0
LINE
  5
31F
100
AcDbEntity
  8
0
100
AcDbLine
 62
4
  6
CONTINUOUS
 10
12.1311362223
 20
8.4813937644
 11
12.1238917783
 21
8.4722369051
  0
LINE
  5
320
100
AcDbEntity
  8
0
100
AcDbLine
 62
4
  6
CONTINUOUS
 10
12.1238917783
 20
8.5108739441
 11
12.1311362223
 21
8.500712277
  0
LINE
  5
321
100
AcDbEntity
  8
0
100
AcDbLine
 62
4
  6
CONTINUOUS
 10
12.0804251145
 20
8.4366142963
 11
12.0731806706
 21
8.4081389243
  0
LINE
  5
322
100
AcDbEntity
  8
0
100
AcDbLine
 62
4
  6
CONTINUOUS
 10
12.1311362223
 20
9.8240306269
 11
12.1311362223
 21
9.8143713706
  0
LINE
  5
323
100
AcDbEntity
  8
0
100
AcDbLine
 62
4
  6
CONTINUOUS
 10
12.1311362223
 20
8.500712277
 11
12.1311362223
 21
8.4813937644
  0
LINE
  5
324
100
AcDbEntity
  8
0
100
AcDbLine
 62
4
  6
CONTINUOUS
 10
12.1383806662
 20
9.7655726747
 11
12.1383806662
 21
9.755913415
  0
LINE
  5
325
100
AcDbEntity
  8
0
100
AcDbLine
 62
4
  6
CONTINUOUS
 10
12.1456251102
 20
7.1280926648
 11
12.1456251102
 21
7.0894556309
  0
LINE
  5
326
100
AcDbEntity
  8
0
100
AcDbLine
 62
7
  6
CONTINUOUS
 10
12.2547747017
 20
6.2801675953
 11
12.2547747017
 21
10.1438711294
  0
LINE
  5
327
100
AcDbEntity
  8
0
100
AcDbLine
 62
4
  6
CONTINUOUS
 10
12.1094028904
 20
9.7289452547
 11
12.0949140025
 21
9.7299500625
  0
LINE
  5
328
100
AcDbEntity
  8
0
100
AcDbLine
 62
4
  6
CONTINUOUS
 10
12.0731806706
 20
7.1331167038
 11
12.0804251145
 21
7.1615920757
  0
LINE
  5
329
100
AcDbEntity
  8
0
100
AcDbLine
 62
4
  6
CONTINUOUS
 10
12.0949140025
 20
9.7975648705
 11
12.1094028904
 21
9.7965600627
  0
LINE
  5
32A
100
AcDbEntity
  8
0
100
AcDbLine
 62
4
  6
CONTINUOUS
 10
12.0949140025
 20
9.8458611659
 11
12.1094028904
 21
9.8448563581
  0
LINE
  5
32B
100
AcDbEntity
  8
0
100
AcDbLine
 62
7
  6
CONTINUOUS
 10
12.6430029489
 20
6.655167308
 11
12.6430029489
 21
10.5188708421
  0
LINE
  5
32C
100
AcDbEntity
  8
0
100
AcDbLine
 62
4
  6
CONTINUOUS
 10
12.0804251145
 20
7.1615920757
 11
12.0949140025
 21
7.1799057875
  0
LINE
  5
32D
100
AcDbEntity
  8
0
100
AcDbLine
 62
4
  6
CONTINUOUS
 10
12.0949140025
 20
9.7299500625
 11
12.0804251145
 21
9.7406141292
  0
LINE
  5
32E
100
AcDbEntity
  8
0
100
AcDbLine
 62
4
  6
CONTINUOUS
 10
12.0804251145
 20
9.7406141292
 11
12.0731806706
 21
9.750775792
  0
LINE
  5
32F
100
AcDbEntity
  8
0
100
AcDbLine
 62
4
  6
CONTINUOUS
 10
12.1238917783
 20
9.7858959986
 11
12.1383806662
 21
9.7655726747
  0
LINE
  5
330
100
AcDbEntity
  8
0
100
AcDbLine
 62
4
  6
CONTINUOUS
 10
12.1456251102
 20
7.0894556309
 11
12.1383806662
 21
7.0802987759
  0
LINE
  5
331
100
AcDbEntity
  8
0
100
AcDbLine
 62
7
  6
CONTINUOUS
 10
12.4340821935
 20
7.5096559516
 11
12.4334340104
 21
7.5090414007
  0
LINE
  5
332
100
AcDbEntity
  8
0
100
AcDbLine
 62
4
  6
CONTINUOUS
 10
12.0949140025
 20
7.1799057875
 11
12.1094028904
 21
7.188560236
  0
LINE
  5
333
100
AcDbEntity
  8
0
100
AcDbLine
 62
4
  6
CONTINUOUS
 10
12.1383806662
 20
7.0802987759
 11
12.1238917783
 21
7.0716443248
  0
LINE
  5
334
100
AcDbEntity
  8
0
100
AcDbLine
 62
7
  6
CONTINUOUS
 10
9.3569970511
 20
10.344832692
 11
12.2547747017
 21
10.1438711294
  0
LINE
  5
335
100
AcDbEntity
  8
0
100
AcDbLine
 62
4
  6
CONTINUOUS
 10
12.1094028904
 20
9.7965600627
 11
12.1238917783
 21
9.7858959986
  0
LINE
  5
336
100
AcDbEntity
  8
0
100
AcDbLine
 62
4
  6
CONTINUOUS
 10
12.1094028904
 20
9.8448563581
 11
12.1238917783
 21
9.834192294
  0
LINE
  5
337
100
AcDbEntity
  8
0
100
AcDbLine
 62
4
  6
CONTINUOUS
 10
12.1238917783
 20
9.834192294
 11
12.1311362223
 21
9.8240306269
  0
LINE
  5
338
100
AcDbEntity
  8
0
100
AcDbLine
 62
7
  6
CONTINUOUS
 10
12.4380430137
 20
10.3208947356
 11
12.4225881989
 21
10.3219665307
  0
LINE
  5
339
100
AcDbEntity
  8
0
100
AcDbLine
 62
7
  6
CONTINUOUS
 10
12.4597346368
 20
10.3418472358
 11
12.4442798219
 21
10.3429190309
  0
LINE
  5
33A
100
AcDbEntity
  8
0
100
AcDbLine
 62
7
  6
CONTINUOUS
 10
12.6430029489
 20
10.5188708421
 11
9.7452252983
 21
10.7198324047
  0
LINE
  5
33B
100
AcDbEntity
  8
0
100
AcDbLine
 62
7
  6
CONTINUOUS
 10
12.2547747017
 20
6.2801675953
 11
12.6430029489
 21
6.655167308
  0
ARC
  5
33C
100
AcDbEntity
  8
0
100
AcDbCircle
 62
7
  6
CONTINUOUS
 10
12.4190766144
 20
8.8744854677
 40
0.0190293568
100
AcDbArc
 50
86.067037459
 51
96.9295312946
  0
ARC
  5
33D
100
AcDbEntity
  8
0
100
AcDbCircle
 62
7
  6
CONTINUOUS
 10
12.3801987082
 20
8.3138862367
 40
0.0190249133
100
AcDbArc
 50
255.2820203462
 51
265.9993597386
  0
ARC
  5
33E
100
AcDbEntity
  8
0
100
AcDbCircle
 62
7
  6
CONTINUOUS
 10
12.4196953419
 20
10.1311081203
 40
0.0147409655
100
AcDbArc
 50
86.0355735727
 51
92.3770878315
  0
ARC
  5
33F
100
AcDbEntity
  8
0
100
AcDbCircle
 62
7
  6
CONTINUOUS
 10
12.4196953419
 20
7.474811883
 40
0.0147409655
100
AcDbArc
 50
86.0355735729
 51
92.3770878314
  0
ARC
  5
340
100
AcDbEntity
  8
0
100
AcDbCircle
 62
7
  6
CONTINUOUS
 10
12.3892185911
 20
9.6916452193
 40
0.0147406186
100
AcDbArc
 50
259.8277854463
 51
266.0297713929
  0
ARC
  5
341
100
AcDbEntity
  8
0
100
AcDbCircle
 62
7
  6
CONTINUOUS
 10
12.3892185911
 20
7.035348982
 40
0.0147406186
100
AcDbArc
 50
259.8277854464
 51
266.0297713929
  0
SPLINE
  5
342
100
AcDbEntity
  8
0
100
AcDbSpline
 62
7
  6
CONTINUOUS
 70
0
 71
3
 72
51
 73
47
 74
0
 42
0.0000001
 43
0.0000001
 44
0.0000000001
 40
0.0
 40
0.0
 40
0.0
 40
0.0
 40
0.0481980747
 40
0.0958298526
 40
0.1428199449
 40
0.1890979835
 40
0.2345930892
 40
0.2792367333
 40
0.3229621329
 40
0.3657045403
 40
0.4074014622
 40
0.4479928299
 40
0.4874212467
 40
0.5256322393
 40
0.5625745011
 40
0.5982001867
 40
0.6324652508
 40
0.6653298673
 40
0.6967589097
 40
0.7267224968
 40
0.7551966901
 40
0.7688701393
 40
0.7821654912
 40
0.7950818118
 40
0.8076188304
 40
0.8197768884
 40
0.8315569804
 40
0.8429609602
 40
0.8539914242
 40
0.8646519776
 40
0.8749472487
 40
0.8848829696
 40
0.8944662496
 40
0.9037055338
 40
0.9126109204
 40
0.9211942686
 40
0.9294693404
 40
0.937452123
 40
0.9451608562
 40
0.9598349789
 40
0.9668568053
 40
0.9737036628
 40
0.9804068766
 40
0.9870000912
 40
0.9935188408
 40
1.0
 40
1.0
 40
1.0
 40
1.0
 10
10.3469930859
 20
10.3010954866
 30
0.0
 10
10.3383862792
 20
10.3016923707
 30
0.0
 10
10.3212802845
 20
10.3029752058
 30
0.0
 10
10.2958102253
 20
10.3051809865
 30
0.0
 10
10.2707100204
 20
10.3076542676
 30
0.0
 10
10.2460219055
 20
10.3103908217
 30
0.0
 10
10.221786964
 20
10.313386103
 30
0.0
 10
10.1980457883
 20
10.3166350619
 30
0.0
 10
10.1748380401
 20
10.3201322387
 30
0.0
 10
10.152202503
 20
10.3238717543
 30
0.0
 10
10.1301769985
 20
10.3278473212
 30
0.0
 10
10.108798319
 20
10.332052259
 30
0.0
 10
10.0881021626
 20
10.3364794991
 30
0.0
 10
10.0681230662
 20
10.3411215907
 30
0.0
 10
10.048894349
 20
10.3459707258
 30
0.0
 10
10.030448059
 20
10.35101875
 30
0.0
 10
10.0128149055
 20
10.3562571815
 30
0.0
 10
9.9960242169
 20
10.3616772208
 30
0.0
 10
9.9801037998
 20
10.3672697717
 30
0.0
 10
9.9650801701
 20
10.373025459
 30
0.0
 10
9.9531727409
 20
10.3780148805
 30
0.0
 10
9.9441224986
 20
10.3820885033
 30
0.0
 10
9.9376662143
 20
10.3851371672
 30
0.0
 10
9.9314521128
 20
10.38821934
 30
0.0
 10
9.9254827579
 20
10.3913337431
 30
0.0
 10
9.919760623
 20
10.394479071
 30
0.0
 10
9.9142880941
 20
10.3976540607
 30
0.0
 10
9.9090674124
 20
10.4008573524
 30
0.0
 10
9.904100755
 20
10.4040876756
 30
0.0
 10
9.8993901625
 20
10.4073436898
 30
0.0
 10
9.8949375674
 20
10.4106240594
 30
0.0
 10
9.8907448329
 20
10.413927504
 30
0.0
 10
9.886813652
 20
10.4172526468
 30
0.0
 10
9.8831456796
 20
10.4205982178
 30
0.0
 10
9.8797424346
 20
10.4239628796
 30
0.0
 10
9.8766053107
 20
10.4273453384
 30
0.0
 10
9.8737357481
 20
10.4307442413
 30
0.0
 10
9.8711347479
 20
10.4341585956
 30
0.0
 10
9.8680774248
 20
10.4386547307
 30
0.0
 10
9.8654907557
 20
10.4432570945
 30
0.0
 10
9.8634414085
 20
10.4479408305
 30
0.0
 10
9.8622005127
 20
10.4514112142
 30
0.0
 10
9.8612344812
 20
10.4548884159
 30
0.0
 10
9.8605439083
 20
10.4583710392
 30
0.0
 10
9.8601293033
 20
10.4618570439
 30
0.0
 10
9.8600370717
 20
10.4641850733
 30
0.0
 10
9.8600370696
 20
10.465345204
 30
0.0
  0
SPLINE
  5
343
100
AcDbEntity
  8
0
100
AcDbSpline
 62
7
  6
CONTINUOUS
 70
0
 71
3
 72
41
 73
37
 74
0
 42
0.0000001
 43
0.0000001
 44
0.0000000001
 40
0.0
 40
0.0
 40
0.0
 40
0.0
 40
0.0311444983
 40
0.062442467
 40
0.093887251
 40
0.1254695609
 40
0.157177086
 40
0.1889950997
 40
0.2209066479
 40
0.2528929497
 40
0.284933762
 40
0.3170077852
 40
0.3490930781
 40
0.3811674822
 40
0.4132090489
 40
0.445196464
 40
0.4771094635
 40
0.5089292351
 40
0.540638799
 40
0.5722233621
 40
0.6036706378
 40
0.6349711269
 40
0.6661183495
 40
0.6971090237
 40
0.7279431823
 40
0.7586242225
 40
0.7891588828
 40
0.8195571428
 40
0.8498320452
 40
0.86493089
 40
0.8800050502
 40
0.9100832578
 40
0.9400926753
 40
0.9550812784
 40
0.9700610371
 40
1.0
 40
1.0
 40
1.0
 40
1.0
 10
9.598478522
 20
6.8415764185
 30
0.0
 10
9.6017924695
 20
6.8413465955
 30
0.0
 10
9.6084223375
 20
6.8406432427
 30
0.0
 10
9.6182867544
 20
6.8388715117
 30
0.0
 10
9.6280455289
 20
6.8363898084
 30
0.0
 10
9.6376459225
 20
6.8332115334
 30
0.0
 10
9.6470369573
 20
6.829353687
 30
0.0
 10
9.6561685322
 20
6.8248369212
 30
0.0
 10
9.6649920034
 20
6.8196853671
 30
0.0
 10
9.6734603545
 20
6.8139265329
 30
0.0
 10
9.6815284662
 20
6.8075911464
 30
0.0
 10
9.6891533486
 20
6.800712997
 30
0.0
 10
9.6962943687
 20
6.7933287552
 30
0.0
 10
9.7029134647
 20
6.7854777795
 30
0.0
 10
9.7089753468
 20
6.7772019084
 30
0.0
 10
9.7144476833
 20
6.7685452399
 30
0.0
 10
9.7193012724
 20
6.7595538989
 30
0.0
 10
9.7235101961
 20
6.7502757946
 30
0.0
 10
9.7270519583
 20
6.7407603683
 30
0.0
 10
9.7299076051
 20
6.731058333
 30
0.0
 10
9.732061826
 20
6.7212214071
 30
0.0
 10
9.7335030379
 20
6.7113020425
 30
0.0
 10
9.7342234484
 20
6.7013531477
 30
0.0
 10
9.7342191025
 20
6.6914278123
 30
0.0
 10
9.733489903
 20
6.6815790157
 30
0.0
 10
9.7320396357
 20
6.6718593855
 30
0.0
 10
9.7298758831
 20
6.6623207753
 30
0.0
 10
9.7270102591
 20
6.6530145126
 30
0.0
 10
9.7240467091
 20
6.6454862898
 30
0.0
 10
9.7213423258
 20
6.6396319233
 30
0.0
 10
9.7184237537
 20
6.6339048568
 30
0.0
 10
9.7143714944
 20
6.6269776597
 30
0.0
 10
9.7097980341
 20
6.6203939802
 30
0.0
 10
9.7058458963
 20
6.615361571
 30
0.0
 10
9.7017052157
 20
6.6104934263
 30
0.0
 10
9.6983878194
 20
6.6070277055
 30
0.0
 10
9.6960910145
 20
6.6048091471
 30
0.0
  0
SPLINE
  5
344
100
AcDbEntity
  8
0
100
AcDbSpline
 62
7
  6
CONTINUOUS
 70
0
 71
3
 72
41
 73
37
 74
0
 42
0.0000001
 43
0.0000001
 44
0.0000000001
 40
0.0
 40
0.0
 40
0.0
 40
0.0
 40
0.0311444983
 40
0.062442467
 40
0.093887251
 40
0.1254695609
 40
0.157177086
 40
0.1889950997
 40
0.2209066479
 40
0.2528929497
 40
0.284933762
 40
0.3170077852
 40
0.3490930781
 40
0.3811674822
 40
0.4132090489
 40
0.445196464
 40
0.4771094635
 40
0.5089292351
 40
0.540638799
 40
0.5722233621
 40
0.6036706378
 40
0.6349711269
 40
0.6661183495
 40
0.6971090237
 40
0.7279431823
 40
0.7586242225
 40
0.7891588828
 40
0.8195571428
 40
0.8498320452
 40
0.86493089
 40
0.8800050502
 40
0.9100832578
 40
0.9400926753
 40
0.9550812784
 40
0.9700610371
 40
1.0
 40
1.0
 40
1.0
 40
1.0
 10
12.0132932308
 20
6.6741084497
 30
0.0
 10
12.0166071783
 20
6.6738786266
 30
0.0
 10
12.0232370463
 20
6.6731752739
 30
0.0
 10
12.0331014632
 20
6.6714035428
 30
0.0
 10
12.0428602377
 20
6.6689218395
 30
0.0
 10
12.0524606313
 20
6.6657435645
 30
0.0
 10
12.0618516661
 20
6.6618857181
 30
0.0
 10
12.070983241
 20
6.6573689523
 30
0.0
 10
12.0798067123
 20
6.6522173983
 30
0.0
 10
12.0882750633
 20
6.646458564
 30
0.0
 10
12.096343175
 20
6.6401231775
 30
0.0
 10
12.1039680574
 20
6.6332450282
 30
0.0
 10
12.1111090775
 20
6.6258607864
 30
0.0
 10
12.1177281736
 20
6.6180098107
 30
0.0
 10
12.1237900556
 20
6.6097339396
 30
0.0
 10
12.1292623922
 20
6.601077271
 30
0.0
 10
12.1341159812
 20
6.59208593
 30
0.0
 10
12.1383249049
 20
6.5828078258
 30
0.0
 10
12.1418666671
 20
6.5732923994
 30
0.0
 10
12.1447223139
 20
6.5635903641
 30
0.0
 10
12.1468765348
 20
6.5537534382
 30
0.0
 10
12.1483177467
 20
6.5438340736
 30
0.0
 10
12.1490381572
 20
6.5338851789
 30
0.0
 10
12.1490338113
 20
6.5239598434
 30
0.0
 10
12.1483046118
 20
6.5141110468
 30
0.0
 10
12.1468543446
 20
6.5043914167
 30
0.0
 10
12.1446905919
 20
6.4948528064
 30
0.0
 10
12.1418249679
 20
6.4855465438
 30
0.0
 10
12.1388614179
 20
6.4780183209
 30
0.0
 10
12.1361570346
 20
6.4721639544
 30
0.0
 10
12.1332384625
 20
6.4664368879
 30
0.0
 10
12.1291862032
 20
6.4595096909
 30
0.0
 10
12.1246127429
 20
6.4529260113
 30
0.0
 10
12.1206606051
 20
6.4478936022
 30
0.0
 10
12.1165199245
 20
6.4430254574
 30
0.0
 10
12.1132025283
 20
6.4395597367
 30
0.0
 10
12.1109057233
 20
6.4373411783
 30
0.0
  0
SPLINE
  5
345
100
AcDbEntity
  8
0
100
AcDbSpline
 62
7
  6
CONTINUOUS
 70
0
 71
3
 72
18
 73
14
 74
0
 42
0.0000001
 43
0.0000001
 44
0.0000000001
 40
0.0
 40
0.0
 40
0.0
 40
0.0
 40
0.1504686872
 40
0.2917143508
 40
0.4244422581
 40
0.4879097286
 40
0.549609416
 40
0.6682625881
 40
0.7817882869
 40
0.8371380068
 40
0.8918078217
 40
0.9460192903
 40
1.0
 40
1.0
 40
1.0
 40
1.0
 10
12.4488888253
 20
9.0495872941
 30
0.0
 10
12.450231702
 20
9.0508844135
 30
0.0
 10
12.4529156183
 20
9.0533181811
 30
0.0
 10
12.4570713874
 20
9.0565614584
 30
0.0
 10
12.4605816278
 20
9.0588552825
 30
0.0
 10
12.463380747
 20
9.0604085833
 30
0.0
 10
12.4660975142
 20
9.0617421534
 30
0.0
 10
12.4694943383
 20
9.0630896688
 30
0.0
 10
12.4729515816
 20
9.064009227
 30
0.0
 10
12.475689822
 20
9.0644622147
 30
0.0
 10
12.4777192384
 20
9.0646632449
 30
0.0
 10
12.4797404433
 20
9.0647281817
 30
0.0
 10
12.4810832831
 20
9.0646806827
 30
0.0
 10
12.4817514793
 20
9.0646343407
 30
0.0
  0
SPLINE
  5
346
100
AcDbEntity
  8
0
100
AcDbSpline
 62
7
  6
CONTINUOUS
 70
0
 71
3
 72
18
 73
14
 74
0
 42
0.0000001
 43
0.0000001
 44
0.0000000001
 40
0.0
 40
0.0
 40
0.0
 40
0.0
 40
0.1504683897
 40
0.2917144302
 40
0.4244424337
 40
0.4879098403
 40
0.5496094316
 40
0.6682625858
 40
0.7817882724
 40
0.8371379912
 40
0.8918078094
 40
0.9460192717
 40
1.0
 40
1.0
 40
1.0
 40
1.0
 10
12.4488888253
 20
7.6770066352
 30
0.0
 10
12.4501327543
 20
7.6782081785
 30
0.0
 10
12.452618918
 20
7.6804626204
 30
0.0
 10
12.456468483
 20
7.6834669319
 30
0.0
 10
12.4597200906
 20
7.6855917407
 30
0.0
 10
12.4623129653
 20
7.6870305921
 30
0.0
 10
12.4648295585
 20
7.6882658943
 30
0.0
 10
12.4679760983
 20
7.6895141209
 30
0.0
 10
12.4711786093
 20
7.6903659135
 30
0.0
 10
12.4737150924
 20
7.6907855184
 30
0.0
 10
12.4755949782
 20
7.6909717363
 30
0.0
 10
12.4774672583
 20
7.6910318761
 30
0.0
 10
12.4787111553
 20
7.6909878711
 30
0.0
 10
12.4793301179
 20
7.6909449426
 30
0.0
  0
SPLINE
  5
347
100
AcDbEntity
  8
0
100
AcDbSpline
 62
7
  6
CONTINUOUS
 70
0
 71
3
 72
15
 73
11
 74
0
 42
0.0000001
 43
0.0000001
 44
0.0000000001
 40
0.0
 40
0.0
 40
0.0
 40
0.0
 40
0.138076915
 40
0.2711914597
 40
0.3998699381
 40
0.5247120006
 40
0.6463911232
 40
0.7656394292
 40
0.8832373023
 40
1.0
 40
1.0
 40
1.0
 40
1.0
 10
12.4597346368
 20
10.3418472358
 30
0.0
 10
12.4605464777
 20
10.3423415388
 30
0.0
 10
12.4621701613
 20
10.3432656294
 30
0.0
 10
12.4646474788
 20
10.3444700668
 30
0.0
 10
12.4671184381
 20
10.3454651877
 30
0.0
 10
12.4695817071
 20
10.3462500814
 30
0.0
 10
12.4720360383
 20
10.3468241711
 30
0.0
 10
12.4744802179
 20
10.3471868228
 30
0.0
 10
12.4769125733
 20
10.3473376879
 30
0.0
 10
12.4785277732
 20
10.3472968224
 30
0.0
 10
12.4793296108
 20
10.3472412189
 30
0.0
  0
SPLINE
  5
348
100
AcDbEntity
  8
0
100
AcDbSpline
 62
7
  6
CONTINUOUS
 70
0
 71
3
 72
54
 73
50
 74
0
 42
0.0000001
 43
0.0000001
 44
0.0000000001
 40
0.0
 40
0.0
 40
0.0
 40
0.0
 40
0.0055575314
 40
0.0111779514
 40
0.0169218741
 40
0.0228457549
 40
0.0290005166
 40
0.0354309104
 40
0.0421753481
 40
0.0492661819
 40
0.0567302289
 40
0.0645893164
 40
0.0728609992
 40
0.0815590171
 40
0.0906939529
 40
0.1002735511
 40
0.1103032084
 40
0.120786225
 40
0.131724095
 40
0.1431167574
 40
0.1549627059
 40
0.1672592594
 40
0.1800025507
 40
0.1931877841
 40
0.2068091928
 40
0.2208602246
 40
0.2353335436
 40
0.2502211095
 40
0.265514256
 40
0.2812036668
 40
0.2972795185
 40
0.3137313951
 40
0.3477187121
 40
0.383073812
 40
0.4196976091
 40
0.4574851642
 40
0.4963263633
 40
0.5361065441
 40
0.5767070861
 40
0.6180059759
 40
0.6598783548
 40
0.7021970543
 40
0.7448331254
 40
0.7876563595
 40
0.8305358172
 40
0.8733403047
 40
0.9159390443
 40
0.9582017033
 40
1.0
 40
1.0
 40
1.0
 40
1.0
 10
11.1740370469
 20
10.4653455177
 30
0.0
 10
11.1740370497
 20
10.4637202275
 30
0.0
 10
11.1738551107
 20
10.4604484239
 30
0.0
 10
11.1730383923
 20
10.4555581879
 30
0.0
 10
11.1716793252
 20
10.4506788477
 30
0.0
 10
11.1697804555
 20
10.4458160885
 30
0.0
 10
11.1673449804
 20
10.4409738267
 30
0.0
 10
11.1643761374
 20
10.4361557894
 30
0.0
 10
11.160877312
 20
10.431365285
 30
0.0
 10
11.1568519567
 20
10.4266055185
 30
0.0
 10
11.1523036303
 20
10.4218797387
 30
0.0
 10
11.147236197
 20
10.4171911678
 30
0.0
 10
11.1416537222
 20
10.4125432301
 30
0.0
 10
11.1355607235
 20
10.407939284
 30
0.0
 10
11.1289620124
 20
10.4033828831
 30
0.0
 10
11.1218628764
 20
10.3988774975
 30
0.0
 10
11.1142689691
 20
10.3944267008
 30
0.0
 10
11.1061863844
 20
10.3900340219
 30
0.0
 10
11.0976216271
 20
10.3857029747
 30
0.0
 10
11.0885815996
 20
10.38143709
 30
0.0
 10
11.0790736307
 20
10.3772397848
 30
0.0
 10
11.0691054176
 20
10.3731145353
 30
0.0
 10
11.0586850749
 20
10.3690646543
 30
0.0
 10
11.047821073
 20
10.3650935086
 30
0.0
 10
11.0365222737
 20
10.361204313
 30
0.0
 10
11.0247978905
 20
10.357400283
 30
0.0
 10
11.0126574976
 20
10.3536845345
 30
0.0
 10
11.0001110157
 20
10.3500601097
 30
0.0
 10
10.9871686985
 20
10.3465300106
 30
0.0
 10
10.9738411381
 20
10.3430971075
 30
0.0
 10
10.9601392215
 20
10.3397642404
 30
0.0
 10
10.9411800915
 20
10.335410263
 30
0.0
 10
10.9166233903
 20
10.3302502684
 30
0.0
 10
10.8861575908
 20
10.3245636479
 30
0.0
 10
10.8544828304
 20
10.319336158
 30
0.0
 10
10.8217028493
 20
10.3145850681
 30
0.0
 10
10.7879248593
 20
10.3103261028
 30
0.0
 10
10.7532594432
 20
10.3065733418
 30
0.0
 10
10.7178201078
 20
10.303339189
 30
0.0
 10
10.6817229258
 20
10.3006343301
 30
0.0
 10
10.6450861434
 20
10.2984677
 30
0.0
 10
10.6080297899
 20
10.2968464522
 30
0.0
 10
10.5706752795
 20
10.2957759392
 30
0.0
 10
10.5331450091
 20
10.2952596935
 30
0.0
 10
10.4955619597
 20
10.2952994213
 30
0.0
 10
10.4580492696
 20
10.2958949859
 30
0.0
 10
10.4207298849
 20
10.2970444334
 30
0.0
 10
10.3837261324
 20
10.298743946
 30
0.0
 10
10.359187634
 20
10.3002497919
 30
0.0
 10
10.3469930859
 20
10.3010954866
 30
0.0
  0
SPLINE
  5
349
100
AcDbEntity
  8
0
100
AcDbSpline
 62
7
  6
CONTINUOUS
 70
0
 71
3
 72
21
 73
17
 74
0
 42
0.0000001
 43
0.0000001
 44
0.0000000001
 40
0.0
 40
0.0
 40
0.0
 40
0.0
 40
0.061653237
 40
0.123329498
 40
0.1850515502
 40
0.2468416698
 40
0.3087213548
 40
0.370711108
 40
0.4328302426
 40
0.495096636
 40
0.5575265765
 40
0.6201345494
 40
0.682933126
 40
0.7459332432
 40
0.8725261314
 40
1.0
 40
1.0
 40
1.0
 40
1.0
 10
9.5008660294
 20
6.8069185166
 30
0.0
 10
9.5024427362
 20
6.8084415089
 30
0.0
 10
9.5056793233
 20
6.8114038821
 30
0.0
 10
9.5107670282
 20
6.8155808985
 30
0.0
 10
9.5160756442
 20
6.8194818438
 30
0.0
 10
9.5215916321
 20
6.8230967015
 30
0.0
 10
9.5273011564
 20
6.8264163832
 30
0.0
 10
9.5331897854
 20
6.8294325697
 30
0.0
 10
9.5392426928
 20
6.8321376671
 30
0.0
 10
9.545444638
 20
6.8345248326
 30
0.0
 10
9.5517799873
 20
6.8365881178
 30
0.0
 10
9.5582327361
 20
6.8383223347
 30
0.0
 10
9.5647868327
 20
6.8397230999
 30
0.0
 10
9.5736511857
 20
6.8411436659
 30
0.0
 10
9.5849075073
 20
6.8420666019
 30
0.0
 10
9.5939569114
 20
6.8418899933
 30
0.0
 10
9.598478522
 20
6.8415764185
 30
0.0
  0
SPLINE
  5
34A
100
AcDbEntity
  8
0
100
AcDbSpline
 62
7
  6
CONTINUOUS
 70
0
 71
3
 72
21
 73
17
 74
0
 42
0.0000001
 43
0.0000001
 44
0.0000000001
 40
0.0
 40
0.0
 40
0.0
 40
0.0
 40
0.061653237
 40
0.123329498
 40
0.1850515502
 40
0.2468416698
 40
0.3087213548
 40
0.370711108
 40
0.4328302426
 40
0.495096636
 40
0.5575265765
 40
0.6201345494
 40
0.682933126
 40
0.7459332432
 40
0.8725261314
 40
1.0
 40
1.0
 40
1.0
 40
1.0
 10
11.9156807382
 20
6.6394505478
 30
0.0
 10
11.917257445
 20
6.64097354
 30
0.0
 10
11.9204940321
 20
6.6439359133
 30
0.0
 10
11.925581737
 20
6.6481129296
 30
0.0
 10
11.930890353
 20
6.6520138749
 30
0.0
 10
11.9364063409
 20
6.6556287327
 30
0.0
 10
11.9421158652
 20
6.6589484144
 30
0.0
 10
11.9480044942
 20
6.6619646008
 30
0.0
 10
11.9540574016
 20
6.6646696982
 30
0.0
 10
11.9602593468
 20
6.6670568637
 30
0.0
 10
11.9665946961
 20
6.669120149
 30
0.0
 10
11.9730474449
 20
6.6708543658
 30
0.0
 10
11.9796015415
 20
6.672255131
 30
0.0
 10
11.9884658945
 20
6.6736756971
 30
0.0
 10
11.9997222161
 20
6.674598633
 30
0.0
 10
12.0087716202
 20
6.6744220244
 30
0.0
 10
12.0132932308
 20
6.6741084497
 30
0.0
  0
SPLINE
  5
34B
100
AcDbEntity
  8
0
100
AcDbSpline
 62
7
  6
CONTINUOUS
 70
0
 71
3
 72
84
 73
80
 74
0
 42
0.0000001
 43
0.0000001
 44
0.0000000001
 40
0.0
 40
0.0
 40
0.0
 40
0.0
 40
0.0027164264
 40
0.0054532293
 40
0.008230295
 40
0.0110665896
 40
0.0139797932
 40
0.0169861044
 40
0.0201000661
 40
0.0233345812
 40
0.0267009392
 40
0.0302088856
 40
0.0338668056
 40
0.037681768
 40
0.0416597414
 40
0.0458056718
 40
0.050123593
 40
0.0546167913
 40
0.0592877975
 40
0.0641385717
 40
0.0691704988
 40
0.074384467
 40
0.0797809628
 40
0.0853600226
 40
0.0911213815
 40
0.0970644148
 40
0.1094911534
 40
0.122630387
 40
0.136468035
 40
0.1509868331
 40
0.1661667198
 40
0.1819851503
 40
0.1984173662
 40
0.2154366132
 40
0.2330143274
 40
0.2511202956
 40
0.2697227959
 40
0.2887887406
 40
0.3082838034
 40
0.3281725359
 40
0.3484184777
 40
0.3689842604
 40
0.3898317162
 40
0.4109219843
 40
0.4536719359
 40
0.4969138893
 40
0.5403221212
 40
0.5835693222
 40
0.6263297187
 40
0.6474271304
 40
0.6682829869
 40
0.6888584043
 40
0.7091151927
 40
0.7290159604
 40
0.748524216
 40
0.7676044742
 40
0.7862223676
 40
0.8043447661
 40
0.8219399096
 40
0.838977535
 40
0.8554290199
 40
0.8712675451
 40
0.8864682815
 40
0.9010086172
 40
0.9148684112
 40
0.9280303001
 40
0.9404800906
 40
0.946434749
 40
0.9522077946
 40
0.957798564
 40
0.9632067735
 40
0.9684324641
 40
0.9734760551
 40
0.9783384155
 40
0.983020862
 40
0.9875253935
 40
0.9918546029
 40
0.9960115831
 40
1.0
 40
1.0
 40
1.0
 40
1.0
 10
12.4160261713
 20
8.1169106581
 30
0.0
 10
12.4151396428
 20
8.1169721422
 30
0.0
 10
12.4133644778
 20
8.1171758341
 30
0.0
 10
12.4107243292
 20
8.1177208452
 30
0.0
 10
12.4081041311
 20
8.1185052677
 30
0.0
 10
12.4055057639
 20
8.1195283666
 30
0.0
 10
12.4029305425
 20
8.1207891729
 30
0.0
 10
12.4003798238
 20
8.1222867713
 30
0.0
 10
12.3978547506
 20
8.1240200372
 30
0.0
 10
12.3953564586
 20
8.1259878982
 30
0.0
 10
12.392886042
 20
8.1281892147
 30
0.0
 10
12.3904445242
 20
8.1306227467
 30
0.0
 10
12.3880330287
 20
8.133287275
 30
0.0
 10
12.3856525709
 20
8.1361814029
 30
0.0
 10
12.3833042618
 20
8.1393037143
 30
0.0
 10
12.3809891849
 20
8.1426526622
 30
0.0
 10
12.3787083963
 20
8.1462265829
 30
0.0
 10
12.3764630355
 20
8.1500237437
 30
0.0
 10
12.3742541299
 20
8.1540422472
 30
0.0
 10
12.3720827957
 20
8.1582801281
 30
0.0
 10
12.3699500862
 20
8.1627352832
 30
0.0
 10
12.3678570377
 20
8.1674054994
 30
0.0
 10
12.3658047291
 20
8.1722884693
 30
0.0
 10
12.3637941387
 20
8.1773817467
 30
0.0
 10
12.3618262916
 20
8.182682812
 30
0.0
 10
12.3592220102
 20
8.1901356207
 30
0.0
 10
12.3560902367
 20
8.1999586385
 30
0.0
 10
12.3525714162
 20
8.2123616344
 30
0.0
 10
12.3492452701
 20
8.2255246222
 30
0.0
 10
12.346118538
 20
8.2394212577
 30
0.0
 10
12.3431975763
 20
8.2540238552
 30
0.0
 10
12.3404883219
 20
8.2693031986
 30
0.0
 10
12.3379962878
 20
8.2852286904
 30
0.0
 10
12.3357265467
 20
8.3017684034
 30
0.0
 10
12.3336837203
 20
8.3188891557
 30
0.0
 10
12.3318719705
 20
8.3365565772
 30
0.0
 10
12.3302949822
 20
8.3547351812
 30
0.0
 10
12.3289559649
 20
8.3733884415
 30
0.0
 10
12.3278576461
 20
8.3924788709
 30
0.0
 10
12.3270022664
 20
8.4119680975
 30
0.0
 10
12.3263915742
 20
8.4318169435
 30
0.0
 10
12.3260268253
 20
8.4519854908
 30
0.0
 10
12.3259087474
 20
8.4724332154
 30
0.0
 10
12.3260814286
 20
8.5001381456
 30
0.0
 10
12.326919258
 20
8.5351626611
 30
0.0
 10
12.3288938003
 20
8.5774523202
 30
0.0
 10
12.3318264173
 20
8.6198495484
 30
0.0
 10
12.3356935414
 20
8.6620134435
 30
0.0
 10
12.3396863887
 20
8.6968272214
 30
0.0
 10
12.3433303113
 20
8.7243005894
 30
0.0
 10
12.346263087
 20
8.7445455671
 30
0.0
 10
12.3494018355
 20
8.764481285
 30
0.0
 10
12.3527402527
 20
8.7840676876
 30
0.0
 10
12.356271594
 20
8.8032653906
 30
0.0
 10
12.3599887344
 20
8.8220358062
 30
0.0
 10
12.3638841709
 20
8.8403412075
 30
0.0
 10
12.3679500403
 20
8.8581448088
 30
0.0
 10
12.372178134
 20
8.8754108434
 30
0.0
 10
12.3765599078
 20
8.892104641
 30
0.0
 10
12.3810865074
 20
8.9081926975
 30
0.0
 10
12.3857487851
 20
8.9236427433
 30
0.0
 10
12.3905373187
 20
8.9384238101
 30
0.0
 10
12.3954424355
 20
8.9525063083
 30
0.0
 10
12.4004542246
 20
8.9658620782
 30
0.0
 10
12.405562573
 20
8.9784645308
 30
0.0
 10
12.4107571796
 20
8.9902884505
 30
0.0
 10
12.4152128471
 20
8.999606903
 30
0.0
 10
12.4188194791
 20
9.0066466845
 30
0.0
 10
12.4214993005
 20
9.0116388728
 30
0.0
 10
12.424192863
 20
9.0164195174
 30
0.0
 10
12.4268988145
 20
9.020986255
 30
0.0
 10
12.4296158136
 20
9.0253368087
 30
0.0
 10
12.4323425243
 20
9.0294690019
 30
0.0
 10
12.4350775445
 20
9.0333807982
 30
0.0
 10
12.4378195852
 20
9.037070247
 30
0.0
 10
12.4405672978
 20
9.0405355734
 30
0.0
 10
12.443319414
 20
9.0437750774
 30
0.0
 10
12.4460744464
 20
9.046787
 30
0.0
 10
12.4479503563
 20
9.0486808026
 30
0.0
 10
12.4488888253
 20
9.0495872941
 30
0.0
  0
SPLINE
  5
34C
100
AcDbEntity
  8
0
100
AcDbSpline
 62
7
  6
CONTINUOUS
 70
0
 71
3
 72
59
 73
55
 74
0
 42
0.0000001
 43
0.0000001
 44
0.0000000001
 40
0.0
 40
0.0
 40
0.0
 40
0.0
 40
0.0075208079
 40
0.0156241398
 40
0.0243310606
 40
0.0336548722
 40
0.0436027282
 40
0.0541767519
 40
0.0653748386
 40
0.0771914416
 40
0.0896180444
 40
0.1026434986
 40
0.1162544536
 40
0.1304355591
 40
0.1451696243
 40
0.1604378928
 40
0.1762201332
 40
0.1924947318
 40
0.2092388927
 40
0.2264286809
 40
0.2440390934
 40
0.2620442168
 40
0.2991298639
 40
0.3374628535
 40
0.3768091312
 40
0.4169263555
 40
0.4575659562
 40
0.4984751951
 40
0.5393992035
 40
0.5800829926
 40
0.620273482
 40
0.659721512
 40
0.6981838999
 40
0.7354255455
 40
0.7535182257
 40
0.7712223393
 40
0.7885117232
 40
0.8053611821
 40
0.8217465396
 40
0.8376446832
 40
0.8530337507
 40
0.8678931903
 40
0.8822038429
 40
0.8959481837
 40
0.9091104254
 40
0.9216766811
 40
0.9336353194
 40
0.9449771786
 40
0.9556959294
 40
0.9657887016
 40
0.9752565037
 40
0.9841051608
 40
0.9923469048
 40
1.0
 40
1.0
 40
1.0
 40
1.0
 10
12.3894707389
 20
8.2704752756
 30
0.0
 10
12.3884156373
 20
8.2717725845
 30
0.0
 10
12.3863367494
 20
8.2745607693
 30
0.0
 10
12.3834112163
 20
8.2791154322
 30
0.0
 10
12.380569226
 20
8.2841873103
 30
0.0
 10
12.3778152547
 20
8.2897680755
 30
0.0
 10
12.3751534811
 20
8.2958490575
 30
0.0
 10
12.3725882038
 20
8.3024205128
 30
0.0
 10
12.3701235608
 20
8.309471836
 30
0.0
 10
12.3677636309
 20
8.3169915628
 30
0.0
 10
12.3655123483
 20
8.3249673995
 30
0.0
 10
12.3633734428
 20
8.3333862401
 30
0.0
 10
12.3613505065
 20
8.3422342199
 30
0.0
 10
12.3594469415
 20
8.3514967335
 30
0.0
 10
12.3576659174
 20
8.3611584594
 30
0.0
 10
12.3560104362
 20
8.3712034031
 30
0.0
 10
12.3544832856
 20
8.3816149196
 30
0.0
 10
12.3530870087
 20
8.3923757402
 30
0.0
 10
12.351823961
 20
8.4034680131
 30
0.0
 10
12.3506962754
 20
8.4148733229
 30
0.0
 10
12.3497058036
 20
8.4265727485
 30
0.0
 10
12.3485591793
 20
8.4426970349
 30
0.0
 10
12.3474901205
 20
8.4634439951
 30
0.0
 10
12.3467864902
 20
8.4889536701
 30
0.0
 10
12.3466549477
 20
8.5151467043
 30
0.0
 10
12.3470965491
 20
8.5418491285
 30
0.0
 10
12.3481085277
 20
8.5688837168
 30
0.0
 10
12.3496842372
 20
8.5960709585
 30
0.0
 10
12.3518132581
 20
8.6232303281
 30
0.0
 10
12.3544814304
 20
8.6501814901
 30
0.0
 10
12.3576709466
 20
8.6767454978
 30
0.0
 10
12.3613604893
 20
8.7027460577
 30
0.0
 10
12.3655254008
 20
8.7280104965
 30
0.0
 10
12.3694053191
 20
8.7485038238
 30
0.0
 10
12.3727341106
 20
8.7643989878
 30
0.0
 10
12.3753073523
 20
8.7759188041
 30
0.0
 10
12.377976933
 20
8.7871327307
 30
0.0
 10
12.3807384133
 20
8.7980221668
 30
0.0
 10
12.3835871708
 20
8.8085690375
 30
0.0
 10
12.386518474
 20
8.8187558412
 30
0.0
 10
12.3895274189
 20
8.8285656897
 30
0.0
 10
12.3926089752
 20
8.8379823307
 30
0.0
 10
12.3957580234
 20
8.8469901683
 30
0.0
 10
12.3989692962
 20
8.8555743124
 30
0.0
 10
12.402237432
 20
8.8637205952
 30
0.0
 10
12.4055570149
 20
8.871415588
 30
0.0
 10
12.4089225137
 20
8.8786466573
 30
0.0
 10
12.41232835
 20
8.8854019772
 30
0.0
 10
12.4157689453
 20
8.8916705437
 30
0.0
 10
12.4192386883
 20
8.897442234
 30
0.0
 10
12.4227319541
 20
8.9027077773
 30
0.0
 10
12.4262434384
 20
8.9074589912
 30
0.0
 10
12.429767476
 20
8.9116879644
 30
0.0
 10
12.4322101181
 20
8.9142472762
 30
0.0
 10
12.4334340104
 20
8.9154294654
 30
0.0
  0
SPLINE
  5
34D
100
AcDbEntity
  8
0
100
AcDbSpline
 62
7
  6
CONTINUOUS
 70
0
 71
3
 72
77
 73
73
 74
0
 42
0.0000001
 43
0.0000001
 44
0.0000000001
 40
0.0
 40
0.0
 40
0.0
 40
0.0
 40
0.0026745541
 40
0.0053678621
 40
0.0080982663
 40
0.0108832953
 40
0.0137393847
 40
0.0166816516
 40
0.0197237563
 40
0.0228779157
 40
0.0261548645
 40
0.0295639692
 40
0.0331133378
 40
0.0368098637
 40
0.0406594319
 40
0.0446669638
 40
0.0488365248
 40
0.0531714837
 40
0.0576744915
 40
0.0623476437
 40
0.0671925232
 40
0.0722101991
 40
0.07740138
 40
0.0827663586
 40
0.094016712
 40
0.1059580566
 40
0.1185824106
 40
0.1318782716
 40
0.1458310932
 40
0.1604236913
 40
0.1756365478
 40
0.1914480445
 40
0.2078346547
 40
0.2247711448
 40
0.2422307297
 40
0.2601851997
 40
0.2786050268
 40
0.2974594975
 40
0.3167168236
 40
0.3363442363
 40
0.3563080679
 40
0.3765738575
 40
0.3971064464
 40
0.4388277247
 40
0.4811805659
 40
0.5238672201
 40
0.566586934
 40
0.6090386638
 40
0.650923764
 40
0.6919487005
 40
0.712049322
 40
0.7318285568
 40
0.7512523814
 40
0.7702876116
 40
0.7889020146
 40
0.8070644
 40
0.8247447128
 40
0.8419141398
 40
0.8585452486
 40
0.8746121158
 40
0.8900904548
 40
0.9049577777
 40
0.9191936051
 40
0.9327797063
 40
0.9457003407
 40
0.9579426204
 40
0.9694969506
 40
0.9803574605
 40
0.9855274148
 40
0.9905240848
 40
0.9953480207
 40
1.0
 40
1.0
 40
1.0
 40
1.0
 10
12.418448152
 20
9.4693497475
 30
0.0
 10
12.4176542762
 20
9.4694047984
 30
0.0
 10
12.4160649142
 20
9.4695847098
 30
0.0
 10
12.413700227
 20
9.4700618392
 30
0.0
 10
12.4113526853
 20
9.4707462544
 30
0.0
 10
12.4090238199
 20
9.4716372597
 30
0.0
 10
12.4067147788
 20
9.4727341839
 30
0.0
 10
12.4044266882
 20
9.4740362305
 30
0.0
 10
12.4021605181
 20
9.475542487
 30
0.0
 10
12.3999172688
 20
9.4772521165
 30
0.0
 10
12.3976978288
 20
9.4791641337
 30
0.0
 10
12.3955030985
 20
9.4812775563
 30
0.0
 10
12.3933340156
 20
9.4835913754
 30
0.0
 10
12.3911914303
 20
9.4861044421
 30
0.0
 10
12.3890762886
 20
9.4888156112
 30
0.0
 10
12.3869894958
 20
9.4917236178
 30
0.0
 10
12.3849319361
 20
9.4948271048
 30
0.0
 10
12.3829045738
 20
9.4981246705
 30
0.0
 10
12.3809082769
 20
9.5016147714
 30
0.0
 10
12.3789439658
 20
9.5052958052
 30
0.0
 10
12.3770125601
 20
9.5091660785
 30
0.0
 10
12.3751149121
 20
9.51322378
 30
0.0
 10
12.3732519196
 20
9.5174670495
 30
0.0
 10
12.370776024
 20
9.5234648328
 30
0.0
 10
12.3677831431
 20
9.5314195691
 30
0.0
 10
12.3643979086
 20
9.5415263662
 30
0.0
 10
12.3611706323
 20
9.5523213625
 30
0.0
 10
12.3581073996
 20
9.5637844154
 30
0.0
 10
12.3552139949
 20
9.5758942698
 30
0.0
 10
12.3524959056
 20
9.5886283397
 30
0.0
 10
12.3499582972
 20
9.6019628479
 30
0.0
 10
12.3476059975
 20
9.6158728471
 30
0.0
 10
12.3454434694
 20
9.6303322778
 30
0.0
 10
12.3434748233
 20
9.6453140288
 30
0.0
 10
12.3417038042
 20
9.6607899974
 30
0.0
 10
12.3401337862
 20
9.6767311384
 30
0.0
 10
12.3387677477
 20
9.6931075174
 30
0.0
 10
12.3376082843
 20
9.7098883738
 30
0.0
 10
12.3366576037
 20
9.7270421844
 30
0.0
 10
12.3359175219
 20
9.7445367223
 30
0.0
 10
12.3353894515
 20
9.7623391038
 30
0.0
 10
12.3350743788
 20
9.7804158964
 30
0.0
 10
12.3349384704
 20
9.8049687528
 30
0.0
 10
12.3353101422
 20
9.8360939841
 30
0.0
 10
12.3366015482
 20
9.8737910081
 30
0.0
 10
12.3387313776
 20
9.9117475615
 30
0.0
 10
12.3416836353
 20
9.9496784799
 30
0.0
 10
12.3454361298
 20
9.987299038
 30
0.0
 10
12.3499605627
 20
10.0243266121
 30
0.0
 10
12.3543749862
 20
10.054659806
 30
0.0
 10
12.3582748336
 20
10.0784145987
 30
0.0
 10
12.3613499503
 20
10.0957901841
 30
0.0
 10
12.3645892333
 20
10.1128133405
 30
0.0
 10
12.3679866073
 20
10.1294521041
 30
0.0
 10
12.3715356523
 20
10.1456752134
 30
0.0
 10
12.3752296701
 20
10.1614522045
 30
0.0
 10
12.3790616885
 20
10.1767534533
 30
0.0
 10
12.3830244804
 20
10.1915502363
 30
0.0
 10
12.3871105623
 20
10.2058147943
 30
0.0
 10
12.3913122131
 20
10.2195203884
 30
0.0
 10
12.3956214977
 20
10.232641344
 30
0.0
 10
12.4000302847
 20
10.2451531031
 30
0.0
 10
12.4045302553
 20
10.2570322851
 30
0.0
 10
12.4091129192
 20
10.2682567477
 30
0.0
 10
12.4137696446
 20
10.2788056066
 30
0.0
 10
12.4184917105
 20
10.2886593747
 30
0.0
 10
12.4232702652
 20
10.2977996658
 30
0.0
 10
12.4273565332
 20
10.3049207825
 30
0.0
 10
12.4306535057
 20
10.3102385308
 30
0.0
 10
12.4330941726
 20
10.3139723437
 30
0.0
 10
12.4355421847
 20
10.3175155355
 30
0.0
 10
12.4372083886
 20
10.3197905392
 30
0.0
 10
12.4380430137
 20
10.3208947356
 30
0.0
  0
SPLINE
  5
34E
100
AcDbEntity
  8
0
100
AcDbSpline
 62
7
  6
CONTINUOUS
 70
0
 71
3
 72
57
 73
53
 74
0
 42
0.0000001
 43
0.0000001
 44
0.0000000001
 40
0.0
 40
0.0
 40
0.0
 40
0.0
 40
0.0075207525
 40
0.0156240325
 40
0.0243308614
 40
0.0336546301
 40
0.0436024271
 40
0.0541763765
 40
0.0653744283
 40
0.0771909745
 40
0.0896175297
 40
0.1026429528
 40
0.1162538654
 40
0.1304349454
 40
0.1451689843
 40
0.1604372353
 40
0.1762194622
 40
0.1924940453
 40
0.2092382131
 40
0.2264279957
 40
0.2620427487
 40
0.2991284251
 40
0.3374614636
 40
0.3768078207
 40
0.4169251328
 40
0.4575648304
 40
0.4984741812
 40
0.5393983111
 40
0.5800822305
 40
0.6202728557
 40
0.6597210261
 40
0.6981835546
 40
0.7354253343
 40
0.7712214718
 40
0.7885109206
 40
0.8053604621
 40
0.8217458644
 40
0.8376440784
 40
0.8530332192
 40
0.8678926933
 40
0.8822034212
 40
0.895947816
 40
0.9091100893
 40
0.9216764187
 40
0.9336350908
 40
0.9449769803
 40
0.9556957931
 40
0.9657885947
 40
0.9752564015
 40
0.9841051066
 40
0.9923469445
 40
1.0
 40
1.0
 40
1.0
 40
1.0
 10
12.3986574614
 20
9.6551495368
 30
0.0
 10
12.397822829
 20
9.6561757529
 30
0.0
 10
12.3961783153
 20
9.6583812915
 30
0.0
 10
12.3938640893
 20
9.661984191
 30
0.0
 10
12.3916159084
 20
9.6659962111
 30
0.0
 10
12.3894373959
 20
9.6704108074
 30
0.0
 10
12.3873317967
 20
9.6752210917
 30
0.0
 10
12.3853025206
 20
9.6804193622
 30
0.0
 10
12.3833528751
 20
9.6859972398
 30
0.0
 10
12.3814860422
 20
9.6919456441
 30
0.0
 10
12.3797051601
 20
9.6982548554
 30
0.0
 10
12.3780131797
 20
9.7049145071
 30
0.0
 10
12.3764129252
 20
9.7119136289
 30
0.0
 10
12.3749071082
 20
9.7192406689
 30
0.0
 10
12.373498221
 20
9.7268835072
 30
0.0
 10
12.3721886471
 20
9.7348294907
 30
0.0
 10
12.3709805882
 20
9.7430654526
 30
0.0
 10
12.3698760542
 20
9.7515777306
 30
0.0
 10
12.3688769065
 20
9.7603522157
 30
0.0
 10
12.3676733095
 20
9.7725256799
 30
0.0
 10
12.3664537852
 20
9.7882908818
 30
0.0
 10
12.3654485567
 20
9.8077958296
 30
0.0
 10
12.3648919609
 20
9.8279752313
 30
0.0
 10
12.3647878811
 20
9.8486950969
 30
0.0
 10
12.3651371916
 20
9.8698179532
 30
0.0
 10
12.3659376884
 20
9.8912035637
 30
0.0
 10
12.3671841324
 20
9.9127099379
 30
0.0
 10
12.368868275
 20
9.9341942698
 30
0.0
 10
12.3709789071
 20
9.9555139029
 30
0.0
 10
12.3735019486
 20
9.9765272918
 30
0.0
 10
12.3764205433
 20
9.9970949377
 30
0.0
 10
12.3797151487
 20
10.0170803961
 30
0.0
 10
12.3833637056
 20
10.0363509858
 30
0.0
 10
12.3867162439
 20
10.051882429
 30
0.0
 10
12.3895648844
 20
10.0638488151
 30
0.0
 10
12.3917493448
 20
10.0724628855
 30
0.0
 10
12.3940028511
 20
10.0808059583
 30
0.0
 10
12.3963216428
 20
10.0888642069
 30
0.0
 10
12.398701849
 20
10.0966242661
 30
0.0
 10
12.401139517
 20
10.1040732745
 30
0.0
 10
12.4036305481
 20
10.1111989062
 30
0.0
 10
12.4061708134
 20
10.1179893734
 30
0.0
 10
12.408756072
 20
10.1244334674
 30
0.0
 10
12.4113820011
 20
10.1305205785
 30
0.0
 10
12.414044275
 20
10.1362406952
 30
0.0
 10
12.4167384534
 20
10.1415844722
 30
0.0
 10
12.4194601139
 20
10.146543213
 30
0.0
 10
12.4222048533
 20
10.1511088847
 30
0.0
 10
12.4249681801
 20
10.1552741811
 30
0.0
 10
12.4277459326
 20
10.1590326255
 30
0.0
 10
12.4305336234
 20
10.1623779369
 30
0.0
 10
12.4324658623
 20
10.1644024786
 30
0.0
 10
12.4334340104
 20
10.1653376379
 30
0.0
  0
SPLINE
  5
34F
100
AcDbEntity
  8
0
100
AcDbSpline
 62
7
  6
CONTINUOUS
 70
0
 71
3
 72
82
 73
78
 74
0
 42
0.0000001
 43
0.0000001
 44
0.0000000001
 40
0.0
 40
0.0
 40
0.0
 40
0.0
 40
0.0027164291
 40
0.0054532364
 40
0.0082303053
 40
0.0110666058
 40
0.0139798164
 40
0.016986131
 40
0.0201001037
 40
0.0233346222
 40
0.0267009905
 40
0.0302089475
 40
0.0338668707
 40
0.0376818493
 40
0.0416598249
 40
0.0458057691
 40
0.0501237025
 40
0.0546169039
 40
0.0592879295
 40
0.0641387045
 40
0.069170648
 40
0.0743846285
 40
0.0797811279
 40
0.0853602093
 40
0.0970640744
 40
0.1094908292
 40
0.122630084
 40
0.1364677626
 40
0.1509865887
 40
0.1661664945
 40
0.1819849411
 40
0.1984171777
 40
0.2154364542
 40
0.233014197
 40
0.2511201854
 40
0.2697227022
 40
0.2887886669
 40
0.3082837565
 40
0.3281725155
 40
0.3484184781
 40
0.3689842782
 40
0.3898317536
 40
0.4109220451
 40
0.4536720397
 40
0.4969140311
 40
0.540322302
 40
0.5835695392
 40
0.6263299734
 40
0.6474273998
 40
0.6682832705
 40
0.6888587055
 40
0.7091155138
 40
0.7290162972
 40
0.7485245643
 40
0.7676048337
 40
0.786222742
 40
0.8043451595
 40
0.821940317
 40
0.8389779517
 40
0.8554294454
 40
0.8712679825
 40
0.8864687352
 40
0.9010090829
 40
0.9148688848
 40
0.9280307811
 40
0.9404805813
 40
0.9522077554
 40
0.9577985268
 40
0.9632067444
 40
0.9684324379
 40
0.9734760336
 40
0.9783383943
 40
0.9830208414
 40
0.9875253833
 40
0.9918546059
 40
0.9960115907
 40
1.0
 40
1.0
 40
1.0
 40
1.0
 10
12.4184475327
 20
6.8130535504
 30
0.0
 10
12.4176263276
 20
6.8131105055
 30
0.0
 10
12.4159819634
 20
6.8132991863
 30
0.0
 10
12.4135363568
 20
6.8138040615
 30
0.0
 10
12.411109224
 20
6.8145306804
 30
0.0
 10
12.4087023181
 20
6.8154784067
 30
0.0
 10
12.4063168552
 20
6.8166463248
 30
0.0
 10
12.4039540773
 20
6.8180335692
 30
0.0
 10
12.4016150747
 20
6.8196391426
 30
0.0
 10
12.399300859
 20
6.8214619984
 30
0.0
 10
12.3970124794
 20
6.8235011262
 30
0.0
 10
12.3947508687
 20
6.8257553554
 30
0.0
 10
12.3925170526
 20
6.8282235484
 30
0.0
 10
12.3903120137
 20
6.8309044417
 30
0.0
 10
12.3881367256
 20
6.8337966852
 30
0.0
 10
12.3859922425
 20
6.8368988803
 30
0.0
 10
12.3838795166
 20
6.8402094669
 30
0.0
 10
12.3817995936
 20
6.8437268379
 30
0.0
 10
12.3797534675
 20
6.8474492534
 30
0.0
 10
12.3777421126
 20
6.8513748685
 30
0.0
 10
12.3757665603
 20
6.8555017587
 30
0.0
 10
12.3738277431
 20
6.8598278582
 30
0.0
 10
12.3719266344
 20
6.8643510376
 30
0.0
 10
12.3694030259
 20
6.870744143
 30
0.0
 10
12.3663593884
 20
6.8792198476
 30
0.0
 10
12.3629279694
 20
6.8899822769
 30
0.0
 10
12.359668437
 20
6.9014714938
 30
0.0
 10
12.3565873822
 20
6.9136645545
 30
0.0
 10
12.3536910475
 20
6.9265372465
 30
0.0
 10
12.350985316
 20
6.9400638634
 30
0.0
 10
12.3484756915
 20
6.954217361
 30
0.0
 10
12.3461672827
 20
6.9689693979
 30
0.0
 10
12.3440647927
 20
6.9842904018
 30
0.0
 10
12.3421724974
 20
7.0001496304
 30
0.0
 10
12.3404942468
 20
7.0165152422
 30
0.0
 10
12.3390334574
 20
7.0333543671
 30
0.0
 10
12.3377931054
 20
7.0506331752
 30
0.0
 10
12.3367757214
 20
7.0683169429
 30
0.0
 10
12.3359833765
 20
7.0863701223
 30
0.0
 10
12.3354176851
 20
7.1047564195
 30
0.0
 10
12.3350798115
 20
7.1234388585
 30
0.0
 10
12.3349704338
 20
7.1423799044
 30
0.0
 10
12.3351303977
 20
7.1680434141
 30
0.0
 10
12.335906502
 20
7.2004871683
 30
0.0
 10
12.3377355436
 20
7.2396607372
 30
0.0
 10
12.3404520855
 20
7.2789339456
 30
0.0
 10
12.3440342637
 20
7.3179910145
 30
0.0
 10
12.3477328984
 20
7.3502395551
 30
0.0
 10
12.3511083268
 20
7.3756885584
 30
0.0
 10
12.3538250055
 20
7.3944417919
 30
0.0
 10
12.3567324766
 20
7.4129085557
 30
0.0
 10
12.3598249018
 20
7.4310517443
 30
0.0
 10
12.3630960397
 20
7.4488348721
 30
0.0
 10
12.3665392876
 20
7.4662221944
 30
0.0
 10
12.3701476933
 20
7.4831787669
 30
0.0
 10
12.3739139716
 20
7.4996705173
 30
0.0
 10
12.3778305175
 20
7.5156643134
 30
0.0
 10
12.3818894235
 20
7.5311280353
 30
0.0
 10
12.386082485
 20
7.5460306468
 30
0.0
 10
12.3904012267
 20
7.5603422587
 30
0.0
 10
12.3948369205
 20
7.574034189
 30
0.0
 10
12.3993806035
 20
7.5870790234
 30
0.0
 10
12.4040231026
 20
7.599450689
 30
0.0
 10
12.4087550435
 20
7.6111244983
 30
0.0
 10
12.4135668984
 20
7.6220772933
 30
0.0
 10
12.4184489852
 20
7.632287205
 30
0.0
 10
12.4226317892
 20
7.6402823474
 30
0.0
 10
12.4260125616
 20
7.6462828092
 30
0.0
 10
12.4285191385
 20
7.6505130529
 30
0.0
 10
12.4310359376
 20
7.6545430354
 30
0.0
 10
12.4335617301
 20
7.65837075
 30
0.0
 10
12.4360952195
 20
7.6619943063
 30
0.0
 10
12.4386352154
 20
7.6654118986
 30
0.0
 10
12.4411804654
 20
7.6686218881
 30
0.0
 10
12.443729799
 20
7.6716226927
 30
0.0
 10
12.4462818276
 20
7.6744126834
 30
0.0
 10
12.4480195094
 20
7.6761669405
 30
0.0
 10
12.4488888253
 20
7.6770066352
 30
0.0
  0
SPLINE
  5
350
100
AcDbEntity
  8
0
100
AcDbSpline
 62
7
  6
CONTINUOUS
 70
0
 71
3
 72
57
 73
53
 74
0
 42
0.0000001
 43
0.0000001
 44
0.0000000001
 40
0.0
 40
0.0
 40
0.0
 40
0.0
 40
0.0075207525
 40
0.0156240325
 40
0.0243308614
 40
0.0336546301
 40
0.0436024271
 40
0.0541763765
 40
0.0653744283
 40
0.0771909745
 40
0.0896175297
 40
0.1026429528
 40
0.1162538654
 40
0.1304349454
 40
0.1451689843
 40
0.1604372353
 40
0.1762194622
 40
0.1924940453
 40
0.2092382131
 40
0.2264279957
 40
0.2620427487
 40
0.2991284251
 40
0.3374614636
 40
0.3768078207
 40
0.4169251328
 40
0.4575648304
 40
0.4984741812
 40
0.5393983111
 40
0.5800822305
 40
0.6202728557
 40
0.6597210261
 40
0.6981835546
 40
0.7354253343
 40
0.7712214718
 40
0.7885109206
 40
0.8053604621
 40
0.8217458644
 40
0.8376440784
 40
0.8530332192
 40
0.8678926933
 40
0.8822034212
 40
0.895947816
 40
0.9091100893
 40
0.9216764187
 40
0.9336350908
 40
0.9449769803
 40
0.9556957931
 40
0.9657885947
 40
0.9752564015
 40
0.9841051066
 40
0.9923469445
 40
1.0
 40
1.0
 40
1.0
 40
1.0
 10
12.3986574614
 20
6.9988532995
 30
0.0
 10
12.397822829
 20
6.9998795157
 30
0.0
 10
12.3961783153
 20
7.0020850543
 30
0.0
 10
12.3938640893
 20
7.0056879537
 30
0.0
 10
12.3916159084
 20
7.0096999739
 30
0.0
 10
12.3894373959
 20
7.0141145701
 30
0.0
 10
12.3873317967
 20
7.0189248544
 30
0.0
 10
12.3853025206
 20
7.0241231249
 30
0.0
 10
12.3833528751
 20
7.0297010025
 30
0.0
 10
12.3814860422
 20
7.0356494069
 30
0.0
 10
12.3797051601
 20
7.0419586181
 30
0.0
 10
12.3780131797
 20
7.0486182698
 30
0.0
 10
12.3764129252
 20
7.0556173917
 30
0.0
 10
12.3749071082
 20
7.0629444316
 30
0.0
 10
12.373498221
 20
7.0705872699
 30
0.0
 10
12.3721886471
 20
7.0785332535
 30
0.0
 10
12.3709805882
 20
7.0867692153
 30
0.0
 10
12.3698760542
 20
7.0952814934
 30
0.0
 10
12.3688769065
 20
7.1040559784
 30
0.0
 10
12.3676733095
 20
7.1162294426
 30
0.0
 10
12.3664537852
 20
7.1319946445
 30
0.0
 10
12.3654485567
 20
7.1514995924
 30
0.0
 10
12.3648919609
 20
7.171678994
 30
0.0
 10
12.3647878811
 20
7.1923988597
 30
0.0
 10
12.3651371916
 20
7.213521716
 30
0.0
 10
12.3659376884
 20
7.2349073264
 30
0.0
 10
12.3671841324
 20
7.2564137006
 30
0.0
 10
12.368868275
 20
7.2778980325
 30
0.0
 10
12.3709789071
 20
7.2992176656
 30
0.0
 10
12.3735019486
 20
7.3202310545
 30
0.0
 10
12.3764205433
 20
7.3407987005
 30
0.0
 10
12.3797151487
 20
7.3607841588
 30
0.0
 10
12.3833637056
 20
7.3800547486
 30
0.0
 10
12.3867162439
 20
7.3955861918
 30
0.0
 10
12.3895648844
 20
7.4075525778
 30
0.0
 10
12.3917493448
 20
7.4161666482
 30
0.0
 10
12.3940028511
 20
7.4245097211
 30
0.0
 10
12.3963216428
 20
7.4325679697
 30
0.0
 10
12.398701849
 20
7.4403280288
 30
0.0
 10
12.401139517
 20
7.4477770372
 30
0.0
 10
12.4036305481
 20
7.4549026689
 30
0.0
 10
12.4061708134
 20
7.4616931361
 30
0.0
 10
12.408756072
 20
7.4681372301
 30
0.0
 10
12.4113820011
 20
7.4742243412
 30
0.0
 10
12.414044275
 20
7.479944458
 30
0.0
 10
12.4167384534
 20
7.485288235
 30
0.0
 10
12.4194601139
 20
7.4902469757
 30
0.0
 10
12.4222048533
 20
7.4948126474
 30
0.0
 10
12.4249681801
 20
7.4989779438
 30
0.0
 10
12.4277459326
 20
7.5027363882
 30
0.0
 10
12.4305336234
 20
7.5060816996
 30
0.0
 10
12.4324658623
 20
7.5081062413
 30
0.0
 10
12.4334340104
 20
7.5090414007
 30
0.0
  0
SPLINE
  5
351
100
AcDbEntity
  8
0
100
AcDbSpline
 62
7
  6
CONTINUOUS
 70
0
 71
3
 72
23
 73
19
 74
0
 42
0.0000001
 43
0.0000001
 44
0.0000000001
 40
0.0
 40
0.0
 40
0.0
 40
0.0
 40
0.0755954479
 40
0.1466391714
 40
0.2134657403
 40
0.2765145402
 40
0.3363265376
 40
0.3935471486
 40
0.4489234403
 40
0.5032885643
 40
0.5575265067
 40
0.6125277807
 40
0.6691438784
 40
0.7281492575
 40
0.7902198463
 40
0.8559237775
 40
0.9257267722
 40
1.0
 40
1.0
 40
1.0
 40
1.0
 10
12.4334340104
 20
9.6533969197
 30
0.0
 10
12.4326975189
 20
9.6526855234
 30
0.0
 10
12.4312254896
 20
9.6513492923
 30
0.0
 10
12.4289473868
 20
9.6495641421
 30
0.0
 10
12.4266719326
 20
9.6480648715
 30
0.0
 10
12.4244012631
 20
9.6468537241
 30
0.0
 10
12.4221372444
 20
9.645932935
 30
0.0
 10
12.4198822311
 20
9.6453046774
 30
0.0
 10
12.4176391512
 20
9.6449712725
 30
0.0
 10
12.4154117657
 20
9.6449341888
 30
0.0
 10
12.4132043502
 20
9.6451940932
 30
0.0
 10
12.4110211692
 20
9.6457500845
 30
0.0
 10
12.408865959
 20
9.6466004097
 30
0.0
 10
12.4067415367
 20
9.6477424787
 30
0.0
 10
12.4046501039
 20
9.649173774
 30
0.0
 10
12.4025932873
 20
9.650891726
 30
0.0
 10
12.4005728179
 20
9.6528938742
 30
0.0
 10
12.3992922533
 20
9.654369033
 30
0.0
 10
12.3986574614
 20
9.6551495368
 30
0.0
  0
SPLINE
  5
352
100
AcDbEntity
  8
0
100
AcDbSpline
 62
7
  6
CONTINUOUS
 70
0
 71
3
 72
16
 73
12
 74
0
 42
0.0000001
 43
0.0000001
 44
0.0000000001
 40
0.0
 40
0.0
 40
0.0
 40
0.0
 40
0.1504815401
 40
0.2917481174
 40
0.4244944817
 40
0.4879692635
 40
0.5496755268
 40
0.6683417309
 40
0.7818818905
 40
0.8918563508
 40
1.0
 40
1.0
 40
1.0
 40
1.0
 10
12.4044562339
 20
9.6843843118
 30
0.0
 10
12.4037918901
 20
9.6837426049
 30
0.0
 10
12.4024640591
 20
9.6825385569
 30
0.0
 10
12.400408072
 20
9.6809339668
 30
0.0
 10
12.3986714041
 20
9.6797991171
 30
0.0
 10
12.3972865767
 20
9.6790306359
 30
0.0
 10
12.3959425349
 20
9.6783708675
 30
0.0
 10
12.3942618805
 20
9.6777042446
 30
0.0
 10
12.3922270997
 20
9.6771628518
 30
0.0
 10
12.3902038056
 20
9.6768925446
 30
0.0
 10
12.3888601736
 20
9.676894049
 30
0.0
 10
12.3881979784
 20
9.6769399757
 30
0.0
  0
SPLINE
  5
353
100
AcDbEntity
  8
0
100
AcDbSpline
 62
7
  6
CONTINUOUS
 70
0
 71
3
 72
82
 73
78
 74
0
 42
0.0000001
 43
0.0000001
 44
0.0000000001
 40
0.0
 40
0.0
 40
0.0
 40
0.0
 40
0.0042066704
 40
0.0086074962
 40
0.0132069135
 40
0.0180085258
 40
0.0230152793
 40
0.0282294268
 40
0.0336523646
 40
0.0392848013
 40
0.0511777638
 40
0.0639051627
 40
0.0774564198
 40
0.0918155646
 40
0.1069620718
 40
0.1228714352
 40
0.1395157172
 40
0.1568639525
 40
0.1748824481
 40
0.1935350295
 40
0.2127833283
 40
0.2325869988
 40
0.2529038911
 40
0.2736902129
 40
0.2949007378
 40
0.3164889679
 40
0.3606060865
 40
0.4056507364
 40
0.4512203431
 40
0.4969063066
 40
0.542298703
 40
0.5869909704
 40
0.6089500453
 40
0.6305855494
 40
0.6518497144
 40
0.6726958629
 40
0.6930785804
 40
0.7129538992
 40
0.7322794383
 40
0.751014572
 40
0.7691206481
 40
0.7865612195
 40
0.8033022406
 40
0.8193123279
 40
0.8345631126
 40
0.8490296432
 40
0.8626908148
 40
0.8755299705
 40
0.8875357386
 40
0.8987031077
 40
0.9039734433
 40
0.9090359803
 40
0.9138925993
 40
0.9185460171
 40
0.9229997464
 40
0.927258381
 40
0.9313276641
 40
0.9352146052
 40
0.9389278058
 40
0.94247751
 40
0.9458758658
 40
0.9491371456
 40
0.9522777749
 40
0.9553164865
 40
0.9582741976
 40
0.9611737579
 40
0.9640395775
 40
0.9668969949
 40
0.9697716017
 40
0.9726884911
 40
0.9756716096
 40
0.9787431704
 40
0.9852252847
 40
0.9886742265
 40
0.9922790764
 40
0.9960512687
 40
1.0
 40
1.0
 40
1.0
 40
1.0
 10
12.4334340104
 20
9.6533969197
 30
0.0
 10
12.4340062654
 20
9.6539496756
 30
0.0
 10
12.4351500262
 20
9.655109088
 30
0.0
 10
12.4368265393
 20
9.6569616375
 30
0.0
 10
12.438500962
 20
9.6589650734
 30
0.0
 10
12.4401721782
 20
9.6611181099
 30
0.0
 10
12.4418392883
 20
9.6634194645
 30
0.0
 10
12.4435013107
 20
9.665867835
 30
0.0
 10
12.4451573306
 20
9.6684617865
 30
0.0
 10
12.4473967585
 20
9.6721802191
 30
0.0
 10
12.4501669269
 20
9.6771892432
 30
0.0
 10
12.4533940142
 20
9.6836493367
 30
0.0
 10
12.4565740028
 20
9.69064832
 30
0.0
 10
12.459699287
 20
9.6981696305
 30
0.0
 10
12.4627623798
 20
9.7061955835
 30
0.0
 10
12.4657559312
 20
9.7147071518
 30
0.0
 10
12.4686727415
 20
9.7236841202
 30
0.0
 10
12.4715057863
 20
9.7331051268
 30
0.0
 10
12.4742482388
 20
9.742947719
 30
0.0
 10
12.4768935068
 20
9.7531884054
 30
0.0
 10
12.4794352256
 20
9.7638027282
 30
0.0
 10
12.4818672765
 20
9.7747653288
 30
0.0
 10
12.4841838062
 20
9.7860500046
 30
0.0
 10
12.4863792476
 20
9.797629762
 30
0.0
 10
12.4884483501
 20
9.8094769217
 30
0.0
 10
12.4910506986
 20
9.8257087786
 30
0.0
 10
12.4939458255
 20
9.8464569471
 30
0.0
 10
12.4968221615
 20
9.8717789124
 30
0.0
 10
12.499097368
 20
9.8974598632
 30
0.0
 10
12.5007496868
 20
9.9232542844
 30
0.0
 10
12.5017632592
 20
9.9489155834
 30
0.0
 10
12.5020696304
 20
9.9701071314
 30
0.0
 10
12.5019823878
 20
9.9868053169
 30
0.0
 10
12.5017535395
 20
9.9990705386
 30
0.0
 10
12.501361531
 20
10.0111210303
 30
0.0
 10
12.500807296
 20
10.0229279809
 30
0.0
 10
12.5000921857
 20
10.0344631383
 30
0.0
 10
12.4992179461
 20
10.045698918
 30
0.0
 10
12.4981867024
 20
10.0566084557
 30
0.0
 10
12.4970009531
 20
10.0671656727
 30
0.0
 10
12.4956635736
 20
10.0773453477
 30
0.0
 10
12.4941778199
 20
10.0871231835
 30
0.0
 10
12.4925473004
 20
10.0964758618
 30
0.0
 10
12.4907759658
 20
10.1053811021
 30
0.0
 10
12.4888681099
 20
10.1138177311
 30
0.0
 10
12.4868283636
 20
10.1217657572
 30
0.0
 10
12.4846616568
 20
10.1292063932
 30
0.0
 10
12.4823731827
 20
10.1361222193
 30
0.0
 10
12.4799683976
 20
10.1424969185
 30
0.0
 10
12.4778328865
 20
10.1474373894
 30
0.0
 10
12.4760636789
 20
10.1510993233
 30
0.0
 10
12.4747369338
 20
10.1536479866
 30
0.0
 10
12.4733854451
 20
10.1560506479
 30
0.0
 10
12.4720100078
 20
10.1583059278
 30
0.0
 10
12.4706113619
 20
10.160412487
 30
0.0
 10
12.4691903035
 20
10.1623691051
 30
0.0
 10
12.4677476271
 20
10.1641746545
 30
0.0
 10
12.4662840504
 20
10.1658280328
 30
0.0
 10
12.4648003803
 20
10.1673282834
 30
0.0
 10
12.4632973468
 20
10.1686744622
 30
0.0
 10
12.4617756784
 20
10.1698656555
 30
0.0
 10
12.460236179
 20
10.1709010667
 30
0.0
 10
12.4586796012
 20
10.1717798127
 30
0.0
 10
12.4571068294
 20
10.1725011099
 30
0.0
 10
12.455518843
 20
10.1730642397
 30
0.0
 10
12.4539167201
 20
10.1734684548
 30
0.0
 10
12.4523017281
 20
10.1737133197
 30
0.0
 10
12.4506752022
 20
10.1737985067
 30
0.0
 10
12.4490385312
 20
10.1737239194
 30
0.0
 10
12.4473930875
 20
10.1734898466
 30
0.0
 10
12.4457400482
 20
10.1730965582
 30
0.0
 10
12.4434877094
 20
10.1723475768
 30
0.0
 10
12.4412589541
 20
10.1712813987
 30
0.0
 10
12.4390744429
 20
10.1699444761
 30
0.0
 10
12.4373989189
 20
10.1687649915
 30
0.0
 10
12.435721899
 20
10.1674306333
 30
0.0
 10
12.4346289075
 20
10.1664610909
 30
0.0
 10
12.4340821938
 20
10.165952298
 30
0.0
  0
SPLINE
  5
354
100
AcDbEntity
  8
0
100
AcDbSpline
 62
7
  6
CONTINUOUS
 70
0
 71
3
 72
63
 73
59
 74
0
 42
0.0000001
 43
0.0000001
 44
0.0000000001
 40
0.0
 40
0.0
 40
0.0
 40
0.0
 40
0.00814383
 40
0.0169767484
 40
0.0265207354
 40
0.036789459
 40
0.0477880958
 40
0.0595155357
 40
0.0719656535
 40
0.0851278824
 40
0.0989880196
 40
0.1135287455
 40
0.1287298773
 40
0.1445687927
 40
0.1610207079
 40
0.1780587756
 40
0.1956543633
 40
0.2137772383
 40
0.2323956117
 40
0.2514763479
 40
0.2908854812
 40
0.3317179125
 40
0.3736714937
 40
0.4164329886
 40
0.4596812912
 40
0.5030906273
 40
0.546333675
 40
0.5890847111
 40
0.6310227339
 40
0.6718346511
 40
0.7112185258
 40
0.7302849348
 40
0.7488878996
 40
0.7669943144
 40
0.7845724514
 40
0.8015921263
 40
0.8180247474
 40
0.8338435456
 40
0.8490238026
 40
0.863542955
 40
0.8773809225
 40
0.8905204779
 40
0.902947514
 40
0.9146516138
 40
0.9256267683
 40
0.9358720989
 40
0.9453930714
 40
0.9542031177
 40
0.962325578
 40
0.969796515
 40
0.9766682872
 40
0.9830134983
 40
0.986019868
 40
0.9889331402
 40
0.9917695051
 40
0.9945466359
 40
0.9972835059
 40
1.0
 40
1.0
 40
1.0
 40
1.0
 10
12.4044562339
 20
9.6843843118
 30
0.0
 10
12.4054042409
 20
9.6853000163
 30
0.0
 10
12.4072953351
 20
9.6872981029
 30
0.0
 10
12.4100127109
 20
9.6906244476
 30
0.0
 10
12.4127184053
 20
9.6943924295
 30
0.0
 10
12.4154071766
 20
9.6985945295
 30
0.0
 10
12.4180740832
 20
9.7032228928
 30
0.0
 10
12.42071389
 20
9.7082685408
 30
0.0
 10
12.4233213714
 20
9.7137216275
 30
0.0
 10
12.4258913391
 20
9.7195714075
 30
0.0
 10
12.4284186343
 20
9.725806296
 30
0.0
 10
12.4308981458
 20
9.7324139016
 30
0.0
 10
12.4333248873
 20
9.7393810389
 30
0.0
 10
12.4356939599
 20
9.7466937813
 30
0.0
 10
12.4380005571
 20
9.7543374959
 30
0.0
 10
12.4402400315
 20
9.7622968586
 30
0.0
 10
12.4424078635
 20
9.7705559034
 30
0.0
 10
12.444499649
 20
9.7790980547
 30
0.0
 10
12.4465111988
 20
9.7879061686
 30
0.0
 10
12.4491087462
 20
9.800112843
 30
0.0
 10
12.4521170744
 20
9.815905925
 30
0.0
 10
12.455310171
 20
9.8354252099
 30
0.0
 10
12.4580980491
 20
9.8555543067
 30
0.0
 10
12.4604581336
 20
9.8761315077
 30
0.0
 10
12.4623713337
 20
9.896991614
 30
0.0
 10
12.4638222048
 20
9.9179670685
 30
0.0
 10
12.4647990895
 20
9.9388893904
 30
0.0
 10
12.4652942228
 20
9.9595905127
 30
0.0
 10
12.4653037769
 20
9.9799042219
 30
0.0
 10
12.4648278444
 20
9.9996673037
 30
0.0
 10
12.4640218433
 20
10.0157144005
 30
0.0
 10
12.4631289658
 20
10.0281534867
 30
0.0
 10
12.4623487572
 20
10.0371471204
 30
0.0
 10
12.461452418
 20
10.0458878398
 30
0.0
 10
12.460441747
 20
10.0543581048
 30
0.0
 10
12.4593188238
 20
10.0625409086
 30
0.0
 10
12.4580859208
 20
10.0704198324
 30
0.0
 10
12.4567455417
 20
10.0779790793
 30
0.0
 10
12.4553004331
 20
10.0852035148
 30
0.0
 10
12.4537535228
 20
10.0920786902
 30
0.0
 10
12.4521079446
 20
10.0985908835
 30
0.0
 10
12.4503670572
 20
10.1047271428
 30
0.0
 10
12.4485343665
 20
10.1104753048
 30
0.0
 10
12.4466135376
 20
10.1158240388
 30
0.0
 10
12.4446084091
 20
10.1207629
 30
0.0
 10
12.4425228745
 20
10.1252823417
 30
0.0
 10
12.4403608552
 20
10.129373748
 30
0.0
 10
12.4381262321
 20
10.1330294924
 30
0.0
 10
12.4358227005
 20
10.1362428166
 30
0.0
 10
12.4334533386
 20
10.1390078315
 30
0.0
 10
12.4310214236
 20
10.1413187589
 30
0.0
 10
12.4289065877
 20
10.1428891825
 30
0.0
 10
12.4271934037
 20
10.1438949939
 30
0.0
 10
12.425919323
 20
10.1445187715
 30
0.0
 10
12.4246338225
 20
10.1450249325
 30
0.0
 10
12.4233375072
 20
10.1454129978
 30
0.0
 10
12.4220313272
 20
10.145682621
 30
0.0
 10
12.4211530878
 20
10.145783394
 30
0.0
 10
12.4207144894
 20
10.1458138131
 30
0.0
  0
SPLINE
  5
355
100
AcDbEntity
  8
0
100
AcDbSpline
 62
7
  6
CONTINUOUS
 70
0
 71
3
 72
51
 73
47
 74
0
 42
0.0000001
 43
0.0000001
 44
0.0000000001
 40
0.0
 40
0.0
 40
0.0
 40
0.0
 40
0.0481980747
 40
0.0958298526
 40
0.1428199449
 40
0.1890979835
 40
0.2345930892
 40
0.2792367333
 40
0.3229621329
 40
0.3657045403
 40
0.4074014622
 40
0.4479928299
 40
0.4874212467
 40
0.5256322393
 40
0.5625745011
 40
0.5982001867
 40
0.6324652508
 40
0.6653298673
 40
0.6967589097
 40
0.7267224968
 40
0.7551966901
 40
0.7688701393
 40
0.7821654912
 40
0.7950818118
 40
0.8076188304
 40
0.8197768884
 40
0.8315569804
 40
0.8429609602
 40
0.8539914242
 40
0.8646519776
 40
0.8749472487
 40
0.8848829696
 40
0.8944662496
 40
0.9037055338
 40
0.9126109204
 40
0.9211942686
 40
0.9294693404
 40
0.937452123
 40
0.9451608562
 40
0.9598349789
 40
0.9668568053
 40
0.9737036628
 40
0.9804068766
 40
0.9870000912
 40
0.9935188408
 40
1.0
 40
1.0
 40
1.0
 40
1.0
 10
10.6870810305
 20
10.629595235
 30
0.0
 10
10.6956878373
 20
10.6289983509
 30
0.0
 10
10.712793832
 20
10.6277155159
 30
0.0
 10
10.7382638912
 20
10.6255097352
 30
0.0
 10
10.7633640961
 20
10.6230364541
 30
0.0
 10
10.788052211
 20
10.6202998999
 30
0.0
 10
10.8122871525
 20
10.6173046186
 30
0.0
 10
10.8360283282
 20
10.6140556597
 30
0.0
 10
10.8592360764
 20
10.6105584829
 30
0.0
 10
10.8818716135
 20
10.6068189673
 30
0.0
 10
10.903897118
 20
10.6028434004
 30
0.0
 10
10.9252757975
 20
10.5986384626
 30
0.0
 10
10.9459719539
 20
10.5942112225
 30
0.0
 10
10.9659510503
 20
10.5895691309
 30
0.0
 10
10.9851797674
 20
10.5847199958
 30
0.0
 10
11.0036260575
 20
10.5796719717
 30
0.0
 10
11.021259211
 20
10.5744335401
 30
0.0
 10
11.0380498995
 20
10.5690135008
 30
0.0
 10
11.0539703167
 20
10.56342095
 30
0.0
 10
11.0689939463
 20
10.5576652627
 30
0.0
 10
11.0809013756
 20
10.5526758411
 30
0.0
 10
11.0899516178
 20
10.5486022184
 30
0.0
 10
11.0964079022
 20
10.5455535545
 30
0.0
 10
11.1026220037
 20
10.5424713817
 30
0.0
 10
11.1085913586
 20
10.5393569785
 30
0.0
 10
11.1143134935
 20
10.5362116506
 30
0.0
 10
11.1197860224
 20
10.5330366609
 30
0.0
 10
11.1250067041
 20
10.5298333692
 30
0.0
 10
11.1299733615
 20
10.526603046
 30
0.0
 10
11.134683954
 20
10.5233470318
 30
0.0
 10
11.1391365491
 20
10.5200666623
 30
0.0
 10
11.1433292836
 20
10.5167632176
 30
0.0
 10
11.1472604644
 20
10.5134380748
 30
0.0
 10
11.1509284368
 20
10.5100925038
 30
0.0
 10
11.1543316819
 20
10.506727842
 30
0.0
 10
11.1574688058
 20
10.5033453832
 30
0.0
 10
11.1603383684
 20
10.4999464804
 30
0.0
 10
11.1629393686
 20
10.496532126
 30
0.0
 10
11.1659966916
 20
10.4920359909
 30
0.0
 10
11.1685833608
 20
10.4874336271
 30
0.0
 10
11.170632708
 20
10.4827498911
 30
0.0
 10
11.1718736038
 20
10.4792795074
 30
0.0
 10
11.1728396353
 20
10.4758023057
 30
0.0
 10
11.1735302082
 20
10.4723196825
 30
0.0
 10
11.1739448132
 20
10.4688336777
 30
0.0
 10
11.1740370448
 20
10.4665056483
 30
0.0
 10
11.1740370469
 20
10.4653455177
 30
0.0
  0
SPLINE
  5
356
100
AcDbEntity
  8
0
100
AcDbSpline
 62
7
  6
CONTINUOUS
 70
0
 71
3
 72
78
 73
74
 74
0
 42
0.0000001
 43
0.0000001
 44
0.0000000001
 40
0.0
 40
0.0
 40
0.0
 40
0.0
 40
0.0039200379
 40
0.0080015516
 40
0.0122479837
 40
0.0166622287
 40
0.02124674
 40
0.0260034681
 40
0.030933738
 40
0.0360384073
 40
0.041317965
 40
0.0467724974
 40
0.0582048983
 40
0.0703310537
 40
0.0831417496
 40
0.0966243555
 40
0.1107632557
 40
0.1255402179
 40
0.1409347078
 40
0.1569241286
 40
0.1734840082
 40
0.1905881611
 40
0.2082088628
 40
0.2263169855
 40
0.2448821136
 40
0.2638726419
 40
0.2832559005
 40
0.3029982599
 40
0.323065224
 40
0.3434215125
 40
0.3640311626
 40
0.4058631755
 40
0.4482640754
 40
0.4909307312
 40
0.533557597
 40
0.5758394908
 40
0.617474365
 40
0.637956694
 40
0.6581668689
 40
0.6780692687
 40
0.6976290081
 40
0.7168120318
 40
0.735585199
 40
0.7539163799
 40
0.7717745712
 40
0.7891300149
 40
0.8059542996
 40
0.8222204846
 40
0.8379032501
 40
0.8529790792
 40
0.8674264233
 40
0.8812259152
 40
0.8943606374
 40
0.9068164771
 40
0.9185825208
 40
0.9296515687
 40
0.9349239697
 40
0.940021519
 40
0.944944684
 40
0.9496943779
 40
0.9542719666
 40
0.958679282
 40
0.962918785
 40
0.9669935308
 40
0.9709073068
 40
0.9746647435
 40
0.9782713374
 40
0.9817336616
 40
0.9882547469
 40
0.991335611
 40
0.9943109876
 40
0.9971941828
 40
1.0
 40
1.0
 40
1.0
 40
1.0
 10
12.4334340104
 20
6.8280636528
 30
0.0
 10
12.4342807817
 20
6.8288815711
 30
0.0
 10
12.4359734541
 20
6.8305884419
 30
0.0
 10
12.4384607399
 20
6.8332994992
 30
0.0
 10
12.440945549
 20
6.836210881
 30
0.0
 10
12.4434265691
 20
6.8393210855
 30
0.0
 10
12.4459027203
 20
6.8426286391
 30
0.0
 10
12.4483728431
 20
6.8461320418
 30
0.0
 10
12.4508358292
 20
6.8498296432
 30
0.0
 10
12.4532905066
 20
6.8537196968
 30
0.0
 10
12.4557357012
 20
6.8578003783
 30
0.0
 10
12.4590335717
 20
6.8635837877
 30
0.0
 10
12.4631158616
 20
6.871284381
 30
0.0
 10
12.4678848015
 20
6.8811131278
 30
0.0
 10
12.4725886536
 20
6.8916510998
 30
0.0
 10
12.4772184269
 20
6.9028783147
 30
0.0
 10
12.4817652743
 20
6.9147736182
 30
0.0
 10
12.4862204893
 20
6.9273144583
 30
0.0
 10
12.4905755273
 20
6.9404770334
 30
0.0
 10
12.4948220281
 20
6.9542363234
 30
0.0
 10
12.4989518377
 20
6.9685661413
 30
0.0
 10
12.5029570379
 20
6.9834391834
 30
0.0
 10
12.5068299435
 20
6.998827095
 30
0.0
 10
12.5105631231
 20
7.0147005315
 30
0.0
 10
12.5141494096
 20
7.0310292103
 30
0.0
 10
12.5175819324
 20
7.0477819649
 30
0.0
 10
12.5208541126
 20
7.0649268122
 30
0.0
 10
12.5239596795
 20
7.082431021
 30
0.0
 10
12.5268926698
 20
7.1002611624
 30
0.0
 10
12.5296474909
 20
7.1183832087
 30
0.0
 10
12.5330928599
 20
7.1430102419
 30
0.0
 10
12.5369111421
 20
7.1742678443
 30
0.0
 10
12.5406863234
 20
7.2121946927
 30
0.0
 10
12.543648025
 20
7.2504332081
 30
0.0
 10
12.5457736201
 20
7.2886915152
 30
0.0
 10
12.5470469324
 20
7.3266775799
 30
0.0
 10
12.5473918332
 20
7.3580324956
 30
0.0
 10
12.5472272968
 20
7.3827575055
 30
0.0
 10
12.546887465
 20
7.4009530368
 30
0.0
 10
12.5463312724
 20
7.4188660293
 30
0.0
 10
12.5455597812
 20
7.4364623006
 30
0.0
 10
12.544574497
 20
7.4537082441
 30
0.0
 10
12.5433773254
 20
7.4705709337
 30
0.0
 10
12.5419705767
 20
7.4870181754
 30
0.0
 10
12.5403569677
 20
7.5030185784
 30
0.0
 10
12.5385396236
 20
7.518541618
 30
0.0
 10
12.5365220569
 20
7.5335576907
 30
0.0
 10
12.5343081635
 20
7.5480381698
 30
0.0
 10
12.5319022144
 20
7.5619554693
 30
0.0
 10
12.5293088657
 20
7.5752831079
 30
0.0
 10
12.5265331276
 20
7.587995758
 30
0.0
 10
12.5235803553
 20
7.6000693018
 30
0.0
 10
12.5204562287
 20
7.6114808672
 30
0.0
 10
12.5171667542
 20
7.6222089869
 30
0.0
 10
12.5137182271
 20
7.632233339
 30
0.0
 10
12.5106699316
 20
7.6401079362
 30
0.0
 10
12.5081489771
 20
7.6460331145
 30
0.0
 10
12.506253337
 20
7.6502170853
 30
0.0
 10
12.5043229343
 20
7.6542115066
 30
0.0
 10
12.5023586627
 20
7.6580145072
 30
0.0
 10
12.5003614661
 20
7.6616243076
 30
0.0
 10
12.4983322214
 20
7.6650391919
 30
0.0
 10
12.4962719069
 20
7.6682575849
 30
0.0
 10
12.4941814384
 20
7.6712779659
 30
0.0
 10
12.4920617216
 20
7.6740989271
 30
0.0
 10
12.4899137929
 20
7.6767191124
 30
0.0
 10
12.4877383223
 20
7.6791374584
 30
0.0
 10
12.4848603062
 20
7.6820328471
 30
0.0
 10
12.4818743038
 20
7.6845946893
 30
0.0
 10
12.4787820455
 20
7.6867680839
 30
0.0
 10
12.4764837225
 20
7.688160216
 30
0.0
 10
12.4741639467
 20
7.6893441347
 30
0.0
 10
12.4725848043
 20
7.6900019799
 30
0.0
 10
12.471794309
 20
7.6902938595
 30
0.0
  0
SPLINE
  5
357
100
AcDbEntity
  8
0
100
AcDbSpline
 62
7
  6
CONTINUOUS
 70
0
 71
3
 72
15
 73
11
 74
0
 42
0.0000001
 43
0.0000001
 44
0.0000000001
 40
0.0
 40
0.0
 40
0.0
 40
0.0
 40
0.1453870045
 40
0.2840723358
 40
0.4163886154
 40
0.5427536322
 40
0.6636693082
 40
0.7797200424
 40
0.8915769359
 40
1.0
 40
1.0
 40
1.0
 40
1.0
 10
12.4334340104
 20
6.8280636528
 30
0.0
 10
12.4324985311
 20
6.8271600491
 30
0.0
 10
12.4306283426
 20
6.8254375196
 30
0.0
 10
12.4277561411
 20
6.823062662
 30
0.0
 10
12.4248864066
 20
6.8209608952
 30
0.0
 10
12.4220208974
 20
6.8191338272
 30
0.0
 10
12.4191611503
 20
6.8175828177
 30
0.0
 10
12.4163086259
 20
6.8163091704
 30
0.0
 10
12.4134653681
 20
6.8153142088
 30
0.0
 10
12.4115514764
 20
6.8148311245
 30
0.0
 10
12.4106007575
 20
6.8146389546
 30
0.0
  0
SPLINE
  5
358
100
AcDbEntity
  8
0
100
AcDbSpline
 62
7
  6
CONTINUOUS
 70
0
 71
3
 72
23
 73
19
 74
0
 42
0.0000001
 43
0.0000001
 44
0.0000000001
 40
0.0
 40
0.0
 40
0.0
 40
0.0
 40
0.0755954479
 40
0.1466391714
 40
0.2134657403
 40
0.2765145402
 40
0.3363265376
 40
0.3935471486
 40
0.4489234403
 40
0.5032885643
 40
0.5575265067
 40
0.6125277807
 40
0.6691438784
 40
0.7281492575
 40
0.7902198463
 40
0.8559237775
 40
0.9257267722
 40
1.0
 40
1.0
 40
1.0
 40
1.0
 10
12.4334340104
 20
6.9971006824
 30
0.0
 10
12.4326975189
 20
6.9963892862
 30
0.0
 10
12.4312254896
 20
6.995053055
 30
0.0
 10
12.4289473868
 20
6.9932679049
 30
0.0
 10
12.4266719326
 20
6.9917686343
 30
0.0
 10
12.4244012631
 20
6.9905574869
 30
0.0
 10
12.4221372444
 20
6.9896366977
 30
0.0
 10
12.4198822311
 20
6.9890084401
 30
0.0
 10
12.4176391512
 20
6.9886750353
 30
0.0
 10
12.4154117657
 20
6.9886379516
 30
0.0
 10
12.4132043502
 20
6.9888978559
 30
0.0
 10
12.4110211692
 20
6.9894538473
 30
0.0
 10
12.408865959
 20
6.9903041725
 30
0.0
 10
12.4067415367
 20
6.9914462415
 30
0.0
 10
12.4046501039
 20
6.9928775367
 30
0.0
 10
12.4025932873
 20
6.9945954887
 30
0.0
 10
12.4005728179
 20
6.9965976369
 30
0.0
 10
12.3992922533
 20
6.9980727958
 30
0.0
 10
12.3986574614
 20
6.9988532995
 30
0.0
  0
SPLINE
  5
359
100
AcDbEntity
  8
0
100
AcDbSpline
 62
7
  6
CONTINUOUS
 70
0
 71
3
 72
16
 73
12
 74
0
 42
0.0000001
 43
0.0000001
 44
0.0000000001
 40
0.0
 40
0.0
 40
0.0
 40
0.0
 40
0.1504815401
 40
0.2917481174
 40
0.4244944817
 40
0.4879692635
 40
0.5496755268
 40
0.6683417309
 40
0.7818818905
 40
0.8918563508
 40
1.0
 40
1.0
 40
1.0
 40
1.0
 10
12.4044562339
 20
7.0280880745
 30
0.0
 10
12.4037918901
 20
7.0274463677
 30
0.0
 10
12.4024640591
 20
7.0262423196
 30
0.0
 10
12.400408072
 20
7.0246377296
 30
0.0
 10
12.3986714041
 20
7.0235028798
 30
0.0
 10
12.3972865767
 20
7.0227343986
 30
0.0
 10
12.3959425349
 20
7.0220746303
 30
0.0
 10
12.3942618805
 20
7.0214080073
 30
0.0
 10
12.3922270997
 20
7.0208666145
 30
0.0
 10
12.3902038056
 20
7.0205963073
 30
0.0
 10
12.3888601736
 20
7.0205978117
 30
0.0
 10
12.3881979784
 20
7.0206437385
 30
0.0
  0
SPLINE
  5
35A
100
AcDbEntity
  8
0
100
AcDbSpline
 62
7
  6
CONTINUOUS
 70
0
 71
3
 72
82
 73
78
 74
0
 42
0.0000001
 43
0.0000001
 44
0.0000000001
 40
0.0
 40
0.0
 40
0.0
 40
0.0
 40
0.0042066704
 40
0.0086074962
 40
0.0132069135
 40
0.0180085258
 40
0.0230152793
 40
0.0282294268
 40
0.0336523646
 40
0.0392848013
 40
0.0511777638
 40
0.0639051627
 40
0.0774564198
 40
0.0918155646
 40
0.1069620718
 40
0.1228714352
 40
0.1395157172
 40
0.1568639525
 40
0.1748824481
 40
0.1935350295
 40
0.2127833283
 40
0.2325869988
 40
0.2529038911
 40
0.2736902129
 40
0.2949007378
 40
0.3164889679
 40
0.3606060865
 40
0.4056507364
 40
0.4512203431
 40
0.4969063066
 40
0.542298703
 40
0.5869909704
 40
0.6089500453
 40
0.6305855494
 40
0.6518497144
 40
0.6726958629
 40
0.6930785804
 40
0.7129538992
 40
0.7322794383
 40
0.751014572
 40
0.7691206481
 40
0.7865612195
 40
0.8033022406
 40
0.8193123279
 40
0.8345631126
 40
0.8490296432
 40
0.8626908148
 40
0.8755299705
 40
0.8875357386
 40
0.8987031077
 40
0.9039734433
 40
0.9090359803
 40
0.9138925993
 40
0.9185460171
 40
0.9229997464
 40
0.927258381
 40
0.9313276641
 40
0.9352146052
 40
0.9389278058
 40
0.94247751
 40
0.9458758658
 40
0.9491371456
 40
0.9522777749
 40
0.9553164865
 40
0.9582741976
 40
0.9611737579
 40
0.9640395775
 40
0.9668969949
 40
0.9697716017
 40
0.9726884911
 40
0.9756716096
 40
0.9787431704
 40
0.9852252847
 40
0.9886742265
 40
0.9922790764
 40
0.9960512687
 40
1.0
 40
1.0
 40
1.0
 40
1.0
 10
12.4334340104
 20
6.9971006824
 30
0.0
 10
12.4340062654
 20
6.9976534383
 30
0.0
 10
12.4351500262
 20
6.9988128508
 30
0.0
 10
12.4368265393
 20
7.0006654002
 30
0.0
 10
12.438500962
 20
7.0026688361
 30
0.0
 10
12.4401721782
 20
7.0048218726
 30
0.0
 10
12.4418392883
 20
7.0071232273
 30
0.0
 10
12.4435013107
 20
7.0095715978
 30
0.0
 10
12.4451573306
 20
7.0121655493
 30
0.0
 10
12.4473967585
 20
7.0158839819
 30
0.0
 10
12.4501669269
 20
7.0208930059
 30
0.0
 10
12.4533940142
 20
7.0273530995
 30
0.0
 10
12.4565740028
 20
7.0343520828
 30
0.0
 10
12.459699287
 20
7.0418733933
 30
0.0
 10
12.4627623798
 20
7.0498993463
 30
0.0
 10
12.4657559312
 20
7.0584109146
 30
0.0
 10
12.4686727415
 20
7.067387883
 30
0.0
 10
12.4715057863
 20
7.0768088895
 30
0.0
 10
12.4742482388
 20
7.0866514817
 30
0.0
 10
12.4768935068
 20
7.0968921681
 30
0.0
 10
12.4794352256
 20
7.107506491
 30
0.0
 10
12.4818672765
 20
7.1184690916
 30
0.0
 10
12.4841838062
 20
7.1297537674
 30
0.0
 10
12.4863792476
 20
7.1413335248
 30
0.0
 10
12.4884483501
 20
7.1531806845
 30
0.0
 10
12.4910506986
 20
7.1694125413
 30
0.0
 10
12.4939458255
 20
7.1901607098
 30
0.0
 10
12.4968221615
 20
7.2154826751
 30
0.0
 10
12.499097368
 20
7.2411636259
 30
0.0
 10
12.5007496868
 20
7.2669580471
 30
0.0
 10
12.5017632592
 20
7.2926193462
 30
0.0
 10
12.5020696304
 20
7.3138108941
 30
0.0
 10
12.5019823878
 20
7.3305090797
 30
0.0
 10
12.5017535395
 20
7.3427743013
 30
0.0
 10
12.501361531
 20
7.3548247931
 30
0.0
 10
12.500807296
 20
7.3666317436
 30
0.0
 10
12.5000921857
 20
7.3781669011
 30
0.0
 10
12.4992179461
 20
7.3894026808
 30
0.0
 10
12.4981867024
 20
7.4003122185
 30
0.0
 10
12.4970009531
 20
7.4108694355
 30
0.0
 10
12.4956635736
 20
7.4210491105
 30
0.0
 10
12.4941778199
 20
7.4308269462
 30
0.0
 10
12.4925473004
 20
7.4401796245
 30
0.0
 10
12.4907759658
 20
7.4490848648
 30
0.0
 10
12.4888681099
 20
7.4575214938
 30
0.0
 10
12.4868283636
 20
7.4654695199
 30
0.0
 10
12.4846616568
 20
7.4729101559
 30
0.0
 10
12.4823731827
 20
7.479825982
 30
0.0
 10
12.4799683976
 20
7.4862006813
 30
0.0
 10
12.4778328865
 20
7.4911411521
 30
0.0
 10
12.4760636789
 20
7.494803086
 30
0.0
 10
12.4747369338
 20
7.4973517494
 30
0.0
 10
12.4733854451
 20
7.4997544106
 30
0.0
 10
12.4720100078
 20
7.5020096906
 30
0.0
 10
12.4706113619
 20
7.5041162497
 30
0.0
 10
12.4691903035
 20
7.5060728678
 30
0.0
 10
12.4677476271
 20
7.5078784172
 30
0.0
 10
12.4662840504
 20
7.5095317955
 30
0.0
 10
12.4648003803
 20
7.5110320462
 30
0.0
 10
12.4632973468
 20
7.512378225
 30
0.0
 10
12.4617756784
 20
7.5135694182
 30
0.0
 10
12.460236179
 20
7.5146048295
 30
0.0
 10
12.4586796012
 20
7.5154835754
 30
0.0
 10
12.4571068294
 20
7.5162048726
 30
0.0
 10
12.455518843
 20
7.5167680025
 30
0.0
 10
12.4539167201
 20
7.5171722175
 30
0.0
 10
12.4523017281
 20
7.5174170824
 30
0.0
 10
12.4506752022
 20
7.5175022694
 30
0.0
 10
12.4490385312
 20
7.5174276822
 30
0.0
 10
12.4473930875
 20
7.5171936094
 30
0.0
 10
12.4457400482
 20
7.5168003209
 30
0.0
 10
12.4434877094
 20
7.5160513396
 30
0.0
 10
12.4412589541
 20
7.5149851614
 30
0.0
 10
12.4390744429
 20
7.5136482389
 30
0.0
 10
12.4373989189
 20
7.5124687542
 30
0.0
 10
12.435721899
 20
7.5111343961
 30
0.0
 10
12.4346289075
 20
7.5101648536
 30
0.0
 10
12.4340821938
 20
7.5096560607
 30
0.0
  0
SPLINE
  5
35B
100
AcDbEntity
  8
0
100
AcDbSpline
 62
7
  6
CONTINUOUS
 70
0
 71
3
 72
63
 73
59
 74
0
 42
0.0000001
 43
0.0000001
 44
0.0000000001
 40
0.0
 40
0.0
 40
0.0
 40
0.0
 40
0.00814383
 40
0.0169767484
 40
0.0265207354
 40
0.036789459
 40
0.0477880958
 40
0.0595155357
 40
0.0719656535
 40
0.0851278824
 40
0.0989880196
 40
0.1135287455
 40
0.1287298773
 40
0.1445687927
 40
0.1610207079
 40
0.1780587756
 40
0.1956543633
 40
0.2137772383
 40
0.2323956117
 40
0.2514763479
 40
0.2908854812
 40
0.3317179125
 40
0.3736714937
 40
0.4164329886
 40
0.4596812912
 40
0.5030906273
 40
0.546333675
 40
0.5890847111
 40
0.6310227339
 40
0.6718346511
 40
0.7112185258
 40
0.7302849348
 40
0.7488878996
 40
0.7669943144
 40
0.7845724514
 40
0.8015921263
 40
0.8180247474
 40
0.8338435456
 40
0.8490238026
 40
0.863542955
 40
0.8773809225
 40
0.8905204779
 40
0.902947514
 40
0.9146516138
 40
0.9256267683
 40
0.9358720989
 40
0.9453930714
 40
0.9542031177
 40
0.962325578
 40
0.969796515
 40
0.9766682872
 40
0.9830134983
 40
0.986019868
 40
0.9889331402
 40
0.9917695051
 40
0.9945466359
 40
0.9972835059
 40
1.0
 40
1.0
 40
1.0
 40
1.0
 10
12.4044562339
 20
7.0280880745
 30
0.0
 10
12.4054042409
 20
7.029003779
 30
0.0
 10
12.4072953351
 20
7.0310018657
 30
0.0
 10
12.4100127109
 20
7.0343282103
 30
0.0
 10
12.4127184053
 20
7.0380961922
 30
0.0
 10
12.4154071766
 20
7.0422982923
 30
0.0
 10
12.4180740832
 20
7.0469266555
 30
0.0
 10
12.42071389
 20
7.0519723036
 30
0.0
 10
12.4233213714
 20
7.0574253902
 30
0.0
 10
12.4258913391
 20
7.0632751703
 30
0.0
 10
12.4284186343
 20
7.0695100587
 30
0.0
 10
12.4308981458
 20
7.0761176643
 30
0.0
 10
12.4333248873
 20
7.0830848017
 30
0.0
 10
12.4356939599
 20
7.0903975441
 30
0.0
 10
12.4380005571
 20
7.0980412586
 30
0.0
 10
12.4402400315
 20
7.1060006214
 30
0.0
 10
12.4424078635
 20
7.1142596661
 30
0.0
 10
12.444499649
 20
7.1228018175
 30
0.0
 10
12.4465111988
 20
7.1316099313
 30
0.0
 10
12.4491087462
 20
7.1438166057
 30
0.0
 10
12.4521170744
 20
7.1596096877
 30
0.0
 10
12.455310171
 20
7.1791289727
 30
0.0
 10
12.4580980491
 20
7.1992580694
 30
0.0
 10
12.4604581336
 20
7.2198352704
 30
0.0
 10
12.4623713337
 20
7.2406953768
 30
0.0
 10
12.4638222048
 20
7.2616708313
 30
0.0
 10
12.4647990895
 20
7.2825931532
 30
0.0
 10
12.4652942228
 20
7.3032942755
 30
0.0
 10
12.4653037769
 20
7.3236079847
 30
0.0
 10
12.4648278444
 20
7.3433710664
 30
0.0
 10
12.4640218433
 20
7.3594181632
 30
0.0
 10
12.4631289658
 20
7.3718572495
 30
0.0
 10
12.4623487572
 20
7.3808508832
 30
0.0
 10
12.461452418
 20
7.3895916026
 30
0.0
 10
12.460441747
 20
7.3980618675
 30
0.0
 10
12.4593188238
 20
7.4062446713
 30
0.0
 10
12.4580859208
 20
7.4141235951
 30
0.0
 10
12.4567455417
 20
7.4216828421
 30
0.0
 10
12.4553004331
 20
7.4289072776
 30
0.0
 10
12.4537535228
 20
7.435782453
 30
0.0
 10
12.4521079446
 20
7.4422946463
 30
0.0
 10
12.4503670572
 20
7.4484309055
 30
0.0
 10
12.4485343665
 20
7.4541790676
 30
0.0
 10
12.4466135376
 20
7.4595278015
 30
0.0
 10
12.4446084091
 20
7.4644666628
 30
0.0
 10
12.4425228745
 20
7.4689861045
 30
0.0
 10
12.4403608552
 20
7.4730775107
 30
0.0
 10
12.4381262321
 20
7.4767332552
 30
0.0
 10
12.4358227005
 20
7.4799465794
 30
0.0
 10
12.4334533386
 20
7.4827115942
 30
0.0
 10
12.4310214236
 20
7.4850225217
 30
0.0
 10
12.4289065877
 20
7.4865929453
 30
0.0
 10
12.4271934037
 20
7.4875987566
 30
0.0
 10
12.425919323
 20
7.4882225342
 30
0.0
 10
12.4246338225
 20
7.4887286953
 30
0.0
 10
12.4233375072
 20
7.4891167605
 30
0.0
 10
12.4220313272
 20
7.4893863837
 30
0.0
 10
12.4211530878
 20
7.4894871568
 30
0.0
 10
12.4207144894
 20
7.4895175759
 30
0.0
  0
SPLINE
  5
35C
100
AcDbEntity
  8
0
100
AcDbSpline
 62
7
  6
CONTINUOUS
 70
0
 71
3
 72
41
 73
37
 74
0
 42
0.0000001
 43
0.0000001
 44
0.0000000001
 40
0.0
 40
0.0
 40
0.0
 40
0.0
 40
0.0311444983
 40
0.062442467
 40
0.093887251
 40
0.1254695609
 40
0.157177086
 40
0.1889950997
 40
0.2209066479
 40
0.2528929497
 40
0.284933762
 40
0.3170077852
 40
0.3490930781
 40
0.3811674822
 40
0.4132090489
 40
0.445196464
 40
0.4771094635
 40
0.5089292351
 40
0.540638799
 40
0.5722233621
 40
0.6036706378
 40
0.6349711269
 40
0.6661183495
 40
0.6971090237
 40
0.7279431823
 40
0.7586242225
 40
0.7891588828
 40
0.8195571428
 40
0.8498320452
 40
0.86493089
 40
0.8800050502
 40
0.9100832578
 40
0.9400926753
 40
0.9550812784
 40
0.9700610371
 40
1.0
 40
1.0
 40
1.0
 40
1.0
 10
12.0132932308
 20
6.4026832764
 30
0.0
 10
12.0099792832
 20
6.4029130994
 30
0.0
 10
12.0033494152
 20
6.4036164522
 30
0.0
 10
11.9934849983
 20
6.4053881833
 30
0.0
 10
11.9837262238
 20
6.4078698865
 30
0.0
 10
11.9741258303
 20
6.4110481616
 30
0.0
 10
11.9647347955
 20
6.414906008
 30
0.0
 10
11.9556032205
 20
6.4194227738
 30
0.0
 10
11.9467797493
 20
6.4245743278
 30
0.0
 10
11.9383113982
 20
6.430333162
 30
0.0
 10
11.9302432865
 20
6.4366685485
 30
0.0
 10
11.9226184042
 20
6.4435466979
 30
0.0
 10
11.915477384
 20
6.4509309397
 30
0.0
 10
11.908858288
 20
6.4587819154
 30
0.0
 10
11.902796406
 20
6.4670577865
 30
0.0
 10
11.8973240694
 20
6.4757144551
 30
0.0
 10
11.8924704803
 20
6.4847057961
 30
0.0
 10
11.8882615567
 20
6.4939839003
 30
0.0
 10
11.8847197944
 20
6.5034993267
 30
0.0
 10
11.8818641477
 20
6.513201362
 30
0.0
 10
11.8797099267
 20
6.5230382878
 30
0.0
 10
11.8782687148
 20
6.5329576525
 30
0.0
 10
11.8775483044
 20
6.5429065472
 30
0.0
 10
11.8775526503
 20
6.5528318827
 30
0.0
 10
11.8782818497
 20
6.5626806792
 30
0.0
 10
11.879732117
 20
6.5724003094
 30
0.0
 10
11.8818958696
 20
6.5819389197
 30
0.0
 10
11.8847614936
 20
6.5912451823
 30
0.0
 10
11.8877250436
 20
6.5987734052
 30
0.0
 10
11.8904294269
 20
6.6046277717
 30
0.0
 10
11.893347999
 20
6.6103548381
 30
0.0
 10
11.8974002583
 20
6.6172820352
 30
0.0
 10
11.9019737187
 20
6.6238657148
 30
0.0
 10
11.9059258565
 20
6.6288981239
 30
0.0
 10
11.9100665371
 20
6.6337662687
 30
0.0
 10
11.9133839333
 20
6.6372319894
 30
0.0
 10
11.9156807382
 20
6.6394505478
 30
0.0
  0
SPLINE
  5
35D
100
AcDbEntity
  8
0
100
AcDbSpline
 62
7
  6
CONTINUOUS
 70
0
 71
3
 72
21
 73
17
 74
0
 42
0.0000001
 43
0.0000001
 44
0.0000000001
 40
0.0
 40
0.0
 40
0.0
 40
0.0
 40
0.061653237
 40
0.123329498
 40
0.1850515502
 40
0.2468416698
 40
0.3087213548
 40
0.370711108
 40
0.4328302426
 40
0.495096636
 40
0.5575265765
 40
0.6201345494
 40
0.682933126
 40
0.7459332432
 40
0.8725261314
 40
1.0
 40
1.0
 40
1.0
 40
1.0
 10
9.6960910145
 20
6.6048091471
 30
0.0
 10
9.6945143077
 20
6.6032861549
 30
0.0
 10
9.6912777206
 20
6.6003237817
 30
0.0
 10
9.6861900158
 20
6.5961467653
 30
0.0
 10
9.6808813997
 20
6.59224582
 30
0.0
 10
9.6753654118
 20
6.5886309623
 30
0.0
 10
9.6696558875
 20
6.5853112806
 30
0.0
 10
9.6637672585
 20
6.5822950941
 30
0.0
 10
9.6577143512
 20
6.5795899967
 30
0.0
 10
9.6515124059
 20
6.5772028312
 30
0.0
 10
9.6451770566
 20
6.575139546
 30
0.0
 10
9.6387243078
 20
6.5734053291
 30
0.0
 10
9.6321702113
 20
6.5720045639
 30
0.0
 10
9.6233058583
 20
6.5705839979
 30
0.0
 10
9.6120495367
 20
6.5696610619
 30
0.0
 10
9.6030001326
 20
6.5698376705
 30
0.0
 10
9.598478522
 20
6.5701512453
 30
0.0
  0
SPLINE
  5
35E
100
AcDbEntity
  8
0
100
AcDbSpline
 62
7
  6
CONTINUOUS
 70
0
 71
3
 72
80
 73
76
 74
0
 42
0.0000001
 43
0.0000001
 44
0.0000000001
 40
0.0
 40
0.0
 40
0.0
 40
0.0
 40
0.0039254531
 40
0.0080129289
 40
0.0122658896
 40
0.0166872546
 40
0.0212794943
 40
0.0260445604
 40
0.0309837672
 40
0.0360979809
 40
0.0413876797
 40
0.0468529505
 40
0.0583085887
 40
0.0704602592
 40
0.0832986446
 40
0.0968109889
 40
0.1109815507
 40
0.1257919536
 40
0.1412214971
 40
0.1572474055
 40
0.1738450288
 40
0.1909880049
 40
0.2086484068
 40
0.2267968954
 40
0.2454028428
 40
0.2644344425
 40
0.2838588061
 40
0.3036420744
 40
0.3237495219
 40
0.3441456494
 40
0.364794272
 40
0.4067006963
 40
0.4491697983
 40
0.4918966805
 40
0.5345740895
 40
0.5768952193
 40
0.6185565348
 40
0.6390468544
 40
0.6592613185
 40
0.6791641742
 40
0.6987204095
 40
0.7178958454
 40
0.736657234
 40
0.7549723723
 40
0.7728102002
 40
0.7901409056
 40
0.8069360426
 40
0.8231686729
 40
0.83881352
 40
0.8538471186
 40
0.8682480031
 40
0.8819969351
 40
0.8950771978
 40
0.9074749237
 40
0.9191795103
 40
0.9247698584
 40
0.9301847547
 40
0.9354240385
 40
0.9404879471
 40
0.9453770617
 40
0.9500923774
 40
0.954635398
 40
0.9590080956
 40
0.9632130797
 40
0.9672536068
 40
0.971133662
 40
0.9748581225
 40
0.9784327667
 40
0.98186447
 40
0.9851612916
 40
0.9883325652
 40
0.9913890733
 40
0.9943430513
 40
0.9972082707
 40
1.0
 40
1.0
 40
1.0
 40
1.0
 10
12.4334340104
 20
8.1330294998
 30
0.0
 10
12.4343500762
 20
8.1339143514
 30
0.0
 10
12.4361812596
 20
8.1357610615
 30
0.0
 10
12.4388719591
 20
8.138694533
 30
0.0
 10
12.4415599597
 20
8.1418451525
 30
0.0
 10
12.4442438488
 20
8.1452112875
 30
0.0
 10
12.4469224513
 20
8.1487913448
 30
0.0
 10
12.4495945064
 20
8.1525836914
 30
0.0
 10
12.4522588144
 20
8.156586528
 30
0.0
 10
12.4549140867
 20
8.1607979621
 30
0.0
 10
12.457559065
 20
8.1652160027
 30
0.0
 10
12.461126397
 20
8.1714779687
 30
0.0
 10
12.4655420667
 20
8.1798162295
 30
0.0
 10
12.4707001028
 20
8.1904593163
 30
0.0
 10
12.4757874414
 20
8.2018709114
 30
0.0
 10
12.4807943234
 20
8.2140292842
 30
0.0
 10
12.4857111343
 20
8.2269114356
 30
0.0
 10
12.490528418
 20
8.2404928441
 30
0.0
 10
12.4952368997
 20
8.2547476219
 30
0.0
 10
12.4998275063
 20
8.269648555
 30
0.0
 10
12.5042913873
 20
8.2851671684
 30
0.0
 10
12.508619938
 20
8.3012737764
 30
0.0
 10
12.5128048237
 20
8.3179375433
 30
0.0
 10
12.5168379826
 20
8.3351265533
 30
0.0
 10
12.5207116461
 20
8.3528078769
 30
0.0
 10
12.5244183499
 20
8.3709476322
 30
0.0
 10
12.5279509609
 20
8.3895110452
 30
0.0
 10
12.5313026852
 20
8.4084625248
 30
0.0
 10
12.5344670669
 20
8.4277657247
 30
0.0
 10
12.5374380414
 20
8.4473836568
 30
0.0
 10
12.5411518769
 20
8.4740406222
 30
0.0
 10
12.5452641594
 20
8.5078704244
 30
0.0
 10
12.5493237931
 20
8.5489123898
 30
0.0
 10
12.552500778
 20
8.5902830462
 30
0.0
 10
12.5547708048
 20
8.6316652967
 30
0.0
 10
12.5561164633
 20
8.6727419576
 30
0.0
 10
12.5564611996
 20
8.7066401943
 30
0.0
 10
12.5562593455
 20
8.7333640429
 30
0.0
 10
12.5558734814
 20
8.7530252069
 30
0.0
 10
12.5552531605
 20
8.7723771481
 30
0.0
 10
12.5543995707
 20
8.7913827866
 30
0.0
 10
12.5533143775
 20
8.810005669
 30
0.0
 10
12.5519996823
 20
8.8282100912
 30
0.0
 10
12.5504580431
 20
8.8459611583
 30
0.0
 10
12.5486924548
 20
8.8632248555
 30
0.0
 10
12.5467063439
 20
8.8799681089
 30
0.0
 10
12.5445035599
 20
8.8961588511
 30
0.0
 10
12.5420883747
 20
8.9117660927
 30
0.0
 10
12.5394654809
 20
8.9267599875
 30
0.0
 10
12.5366399678
 20
8.9411118887
 30
0.0
 10
12.533617314
 20
8.9547944118
 30
0.0
 10
12.5304033683
 20
8.9677814773
 30
0.0
 10
12.5270043522
 20
8.9800484626
 30
0.0
 10
12.5234268191
 20
8.9915719806
 30
0.0
 10
12.5202558572
 20
9.0006716309
 30
0.0
 10
12.5176271569
 20
9.0075555563
 30
0.0
 10
12.5156455389
 20
9.0124399075
 30
0.0
 10
12.5136245195
 20
9.0171226415
 30
0.0
 10
12.5115650723
 20
9.021601555
 30
0.0
 10
12.5094681683
 20
9.025874523
 30
0.0
 10
12.5073347683
 20
9.0299395144
 30
0.0
 10
12.5051659181
 20
9.0337946315
 30
0.0
 10
12.5029625739
 20
9.0374380369
 30
0.0
 10
12.5007257777
 20
9.0408680304
 30
0.0
 10
12.4984565516
 20
9.0440830071
 30
0.0
 10
12.4961558707
 20
9.0470814276
 30
0.0
 10
12.4938248046
 20
9.0498619134
 30
0.0
 10
12.4914643148
 20
9.052423107
 30
0.0
 10
12.4890754197
 20
9.0547637742
 30
0.0
 10
12.4866591407
 20
9.0568827695
 30
0.0
 10
12.4842164244
 20
9.0587789321
 30
0.0
 10
12.4817483601
 20
9.0604512603
 30
0.0
 10
12.4792558976
 20
9.061898724
 30
0.0
 10
12.4767403956
 20
9.0631202701
 30
0.0
 10
12.4750294066
 20
9.0637910388
 30
0.0
 10
12.4741731035
 20
9.0640863363
 30
0.0
  0
SPLINE
  5
35F
100
AcDbEntity
  8
0
100
AcDbSpline
 62
7
  6
CONTINUOUS
 70
0
 71
3
 72
15
 73
11
 74
0
 42
0.0000001
 43
0.0000001
 44
0.0000000001
 40
0.0
 40
0.0
 40
0.0
 40
0.0
 40
0.1458032636
 40
0.2847284204
 40
0.4171285574
 40
0.5434493642
 40
0.6642256146
 40
0.7800815084
 40
0.8917348624
 40
1.0
 40
1.0
 40
1.0
 40
1.0
 10
12.4334340104
 20
8.1330294998
 30
0.0
 10
12.4324006113
 20
8.1320313128
 30
0.0
 10
12.4303347076
 20
8.1301306169
 30
0.0
 10
12.4271601258
 20
8.1275161046
 30
0.0
 10
12.423988363
 20
8.1252106971
 30
0.0
 10
12.4208214407
 20
8.1232162251
 30
0.0
 10
12.4176611028
 20
8.1215343005
 30
0.0
 10
12.4145090685
 20
8.1201664101
 30
0.0
 10
12.4113676962
 20
8.1191141764
 30
0.0
 10
12.4092542482
 20
8.1186176477
 30
0.0
 10
12.4082048906
 20
8.1184252006
 30
0.0
  0
SPLINE
  5
360
100
AcDbEntity
  8
0
100
AcDbSpline
 62
7
  6
CONTINUOUS
 70
0
 71
3
 72
21
 73
17
 74
0
 42
0.0000001
 43
0.0000001
 44
0.0000000001
 40
0.0
 40
0.0
 40
0.0
 40
0.0
 40
0.061653237
 40
0.123329498
 40
0.1850515502
 40
0.2468416698
 40
0.3087213548
 40
0.370711108
 40
0.4328302426
 40
0.495096636
 40
0.5575265765
 40
0.6201345494
 40
0.682933126
 40
0.7459332432
 40
0.8725261314
 40
1.0
 40
1.0
 40
1.0
 40
1.0
 10
12.1109057233
 20
6.4373411783
 30
0.0
 10
12.1093290165
 20
6.435818186
 30
0.0
 10
12.1060924295
 20
6.4328558128
 30
0.0
 10
12.1010047246
 20
6.4286787965
 30
0.0
 10
12.0956961085
 20
6.4247778511
 30
0.0
 10
12.0901801206
 20
6.4211629934
 30
0.0
 10
12.0844705964
 20
6.4178433117
 30
0.0
 10
12.0785819673
 20
6.4148271252
 30
0.0
 10
12.07252906
 20
6.4121220279
 30
0.0
 10
12.0663271147
 20
6.4097348624
 30
0.0
 10
12.0599917654
 20
6.4076715771
 30
0.0
 10
12.0535390166
 20
6.4059373602
 30
0.0
 10
12.0469849201
 20
6.4045365951
 30
0.0
 10
12.0381205671
 20
6.403116029
 30
0.0
 10
12.0268642455
 20
6.402193093
 30
0.0
 10
12.0178148414
 20
6.4023697016
 30
0.0
 10
12.0132932308
 20
6.4026832764
 30
0.0
  0
SPLINE
  5
361
100
AcDbEntity
  8
0
100
AcDbSpline
 62
7
  6
CONTINUOUS
 70
0
 71
3
 72
23
 73
19
 74
0
 42
0.0000001
 43
0.0000001
 44
0.0000000001
 40
0.0
 40
0.0
 40
0.0
 40
0.0
 40
0.0755961246
 40
0.1466389607
 40
0.2134646537
 40
0.2765132518
 40
0.3363252536
 40
0.3935454084
 40
0.448921428
 40
0.5032863451
 40
0.557524168
 40
0.6125254889
 40
0.6691415402
 40
0.7281473128
 40
0.7902179894
 40
0.8559226124
 40
0.9257258744
 40
1.0
 40
1.0
 40
1.0
 40
1.0
 10
12.4334340104
 20
8.2682591235
 30
0.0
 10
12.4325029521
 20
8.2673597902
 30
0.0
 10
12.430642066
 20
8.2656705639
 30
0.0
 10
12.4277621618
 20
8.263413858
 30
0.0
 10
12.4248856281
 20
8.2615185472
 30
0.0
 10
12.4220151206
 20
8.259987488
 30
0.0
 10
12.4191530336
 20
8.2588234408
 30
0.0
 10
12.416302311
 20
8.2580292813
 30
0.0
 10
12.4134666948
 20
8.2576077898
 30
0.0
 10
12.4106509124
 20
8.2575609934
 30
0.0
 10
12.4078603668
 20
8.2578895324
 30
0.0
 10
12.4051004845
 20
8.2585925025
 30
0.0
 10
12.4023759199
 20
8.2596674383
 30
0.0
 10
12.3996903367
 20
8.2611113107
 30
0.0
 10
12.3970463862
 20
8.2629207061
 30
0.0
 10
12.3944462778
 20
8.265092585
 30
0.0
 10
12.3918920337
 20
8.2676236538
 30
0.0
 10
12.3902732269
 20
8.2694885699
 30
0.0
 10
12.3894707389
 20
8.2704752756
 30
0.0
  0
SPLINE
  5
362
100
AcDbEntity
  8
0
100
AcDbSpline
 62
7
  6
CONTINUOUS
 70
0
 71
3
 72
17
 73
13
 74
0
 42
0.0000001
 43
0.0000001
 44
0.0000000001
 40
0.0
 40
0.0
 40
0.0
 40
0.0
 40
0.150474249
 40
0.2917308715
 40
0.4244678652
 40
0.4879387729
 40
0.5496414733
 40
0.6683010868
 40
0.781833969
 40
0.8918016508
 40
0.9460162318
 40
1.0
 40
1.0
 40
1.0
 40
1.0
 10
12.3996266045
 20
8.304411081
 30
0.0
 10
12.398778495
 20
8.3035918701
 30
0.0
 10
12.3970833935
 20
8.3020547776
 30
0.0
 10
12.394458725
 20
8.300006376
 30
0.0
 10
12.3922417189
 20
8.2985576449
 30
0.0
 10
12.3904738602
 20
8.2975766041
 30
0.0
 10
12.388758061
 20
8.2967343554
 30
0.0
 10
12.3866124701
 20
8.295883322
 30
0.0
 10
12.3840151868
 20
8.295192184
 30
0.0
 10
12.3818512791
 20
8.2949032953
 30
0.0
 10
12.3801415333
 20
8.2948484163
 30
0.0
 10
12.3792934006
 20
8.2948784121
 30
0.0
 10
12.3788713853
 20
8.294907682
 30
0.0
  0
SPLINE
  5
363
100
AcDbEntity
  8
0
100
AcDbSpline
 62
7
  6
CONTINUOUS
 70
0
 71
3
 72
84
 73
80
 74
0
 42
0.0000001
 43
0.0000001
 44
0.0000000001
 40
0.0
 40
0.0
 40
0.0
 40
0.0
 40
0.0027164264
 40
0.0054532293
 40
0.008230295
 40
0.0110665896
 40
0.0139797932
 40
0.0169861044
 40
0.0201000661
 40
0.0233345812
 40
0.0267009392
 40
0.0302088856
 40
0.0338668056
 40
0.037681768
 40
0.0416597414
 40
0.0458056718
 40
0.050123593
 40
0.0546167913
 40
0.0592877975
 40
0.0641385717
 40
0.0691704988
 40
0.074384467
 40
0.0797809628
 40
0.0853600226
 40
0.0911213815
 40
0.0970644148
 40
0.1094911534
 40
0.122630387
 40
0.136468035
 40
0.1509868331
 40
0.1661667198
 40
0.1819851503
 40
0.1984173662
 40
0.2154366132
 40
0.2330143274
 40
0.2511202956
 40
0.2697227959
 40
0.2887887406
 40
0.3082838034
 40
0.3281725359
 40
0.3484184777
 40
0.3689842604
 40
0.3898317162
 40
0.4109219843
 40
0.4536719359
 40
0.4969138893
 40
0.5403221212
 40
0.5835693222
 40
0.6263297187
 40
0.6474271304
 40
0.6682829869
 40
0.6888584043
 40
0.7091151927
 40
0.7290159604
 40
0.748524216
 40
0.7676044742
 40
0.7862223676
 40
0.8043447661
 40
0.8219399096
 40
0.838977535
 40
0.8554290199
 40
0.8712675451
 40
0.8864682815
 40
0.9010086172
 40
0.9148684112
 40
0.9280303001
 40
0.9404800906
 40
0.946434749
 40
0.9522077946
 40
0.957798564
 40
0.9632067735
 40
0.9684324641
 40
0.9734760551
 40
0.9783384155
 40
0.983020862
 40
0.9875253935
 40
0.9918546029
 40
0.9960115831
 40
1.0
 40
1.0
 40
1.0
 40
1.0
 10
12.4817514793
 20
9.0646343407
 30
0.0
 10
12.4826380078
 20
9.0645728566
 30
0.0
 10
12.4844131728
 20
9.0643691647
 30
0.0
 10
12.4870533214
 20
9.0638241536
 30
0.0
 10
12.4896735195
 20
9.0630397312
 30
0.0
 10
12.4922718867
 20
9.0620166322
 30
0.0
 10
12.4948471081
 20
9.0607558259
 30
0.0
 10
12.4973978268
 20
9.0592582275
 30
0.0
 10
12.4999229
 20
9.0575249616
 30
0.0
 10
12.5024211919
 20
9.0555571007
 30
0.0
 10
12.5048916086
 20
9.0533557842
 30
0.0
 10
12.5073331263
 20
9.0509222521
 30
0.0
 10
12.5097446218
 20
9.0482577238
 30
0.0
 10
12.5121250797
 20
9.0453635959
 30
0.0
 10
12.5144733887
 20
9.0422412845
 30
0.0
 10
12.5167884656
 20
9.0388923366
 30
0.0
 10
12.5190692543
 20
9.0353184159
 30
0.0
 10
12.5213146151
 20
9.0315212552
 30
0.0
 10
12.5235235207
 20
9.0275027516
 30
0.0
 10
12.5256948548
 20
9.0232648707
 30
0.0
 10
12.5278275644
 20
9.0188097156
 30
0.0
 10
12.5299206129
 20
9.0141394994
 30
0.0
 10
12.5319729215
 20
9.0092565295
 30
0.0
 10
12.5339835119
 20
9.0041632521
 30
0.0
 10
12.535951359
 20
8.9988621869
 30
0.0
 10
12.5385556404
 20
8.9914093781
 30
0.0
 10
12.5416874139
 20
8.9815863604
 30
0.0
 10
12.5452062343
 20
8.9691833644
 30
0.0
 10
12.5485323805
 20
8.9560203766
 30
0.0
 10
12.5516591126
 20
8.9421237411
 30
0.0
 10
12.5545800742
 20
8.9275211436
 30
0.0
 10
12.5572893286
 20
8.9122418003
 30
0.0
 10
12.5597813627
 20
8.8963163084
 30
0.0
 10
12.5620511039
 20
8.8797765954
 30
0.0
 10
12.5640939303
 20
8.8626558431
 30
0.0
 10
12.5659056801
 20
8.8449884217
 30
0.0
 10
12.5674826684
 20
8.8268098177
 30
0.0
 10
12.5688216857
 20
8.8081565574
 30
0.0
 10
12.5699200045
 20
8.7890661279
 30
0.0
 10
12.5707753842
 20
8.7695769013
 30
0.0
 10
12.5713860764
 20
8.7497280554
 30
0.0
 10
12.5717508253
 20
8.729559508
 30
0.0
 10
12.5718689031
 20
8.7091117834
 30
0.0
 10
12.5716962219
 20
8.6814068532
 30
0.0
 10
12.5708583926
 20
8.6463823377
 30
0.0
 10
12.5688838503
 20
8.6040926786
 30
0.0
 10
12.5659512333
 20
8.5616954504
 30
0.0
 10
12.5620841092
 20
8.5195315553
 30
0.0
 10
12.5580912619
 20
8.4847177774
 30
0.0
 10
12.5544473393
 20
8.4572444094
 30
0.0
 10
12.5515145636
 20
8.4369994317
 30
0.0
 10
12.5483758151
 20
8.4170637138
 30
0.0
 10
12.5450373978
 20
8.3974773112
 30
0.0
 10
12.5415060566
 20
8.3782796082
 30
0.0
 10
12.5377889161
 20
8.3595091926
 30
0.0
 10
12.5338934796
 20
8.3412037913
 30
0.0
 10
12.5298276103
 20
8.32340019
 30
0.0
 10
12.5255995166
 20
8.3061341554
 30
0.0
 10
12.5212177427
 20
8.2894403578
 30
0.0
 10
12.5166911432
 20
8.2733523013
 30
0.0
 10
12.5120288655
 20
8.2579022555
 30
0.0
 10
12.5072403318
 20
8.2431211887
 30
0.0
 10
12.502335215
 20
8.2290386905
 30
0.0
 10
12.4973234259
 20
8.2156829206
 30
0.0
 10
12.4922150776
 20
8.203080468
 30
0.0
 10
12.487020471
 20
8.1912565483
 30
0.0
 10
12.4825648035
 20
8.1819380958
 30
0.0
 10
12.4789581715
 20
8.1748983144
 30
0.0
 10
12.4762783501
 20
8.169906126
 30
0.0
 10
12.4735847875
 20
8.1651254814
 30
0.0
 10
12.4708788361
 20
8.1605587438
 30
0.0
 10
12.468161837
 20
8.1562081901
 30
0.0
 10
12.4654351263
 20
8.1520759969
 30
0.0
 10
12.4627001061
 20
8.1481642006
 30
0.0
 10
12.4599580654
 20
8.1444747519
 30
0.0
 10
12.4572103528
 20
8.1410094254
 30
0.0
 10
12.4544582366
 20
8.1377699214
 30
0.0
 10
12.4517032042
 20
8.1347579989
 30
0.0
 10
12.4498272942
 20
8.1328641962
 30
0.0
 10
12.4488888253
 20
8.1319577047
 30
0.0
  0
SPLINE
  5
364
100
AcDbEntity
  8
0
100
AcDbSpline
 62
7
  6
CONTINUOUS
 70
0
 71
3
 72
87
 73
83
 74
0
 42
0.0000001
 43
0.0000001
 44
0.0000000001
 40
0.0
 40
0.0
 40
0.0
 40
0.0
 40
0.0029232861
 40
0.0059341477
 40
0.0090500968
 40
0.0122867049
 40
0.0156576223
 40
0.0191746811
 40
0.02284796
 40
0.0266860349
 40
0.0306960434
 40
0.0348839118
 40
0.0392544855
 40
0.0438116134
 40
0.0485583617
 40
0.0534969926
 40
0.0586291593
 40
0.0639559207
 40
0.0694777988
 40
0.0751949045
 40
0.0811068676
 40
0.0872130026
 40
0.1000027298
 40
0.1135526721
 40
0.1278465776
 40
0.1428645525
 40
0.1585835306
 40
0.1749776412
 40
0.1920185085
 40
0.2096755017
 40
0.2279159436
 40
0.2467053097
 40
0.2660074032
 40
0.285784512
 40
0.305997554
 40
0.3266062131
 40
0.347569071
 40
0.3688437434
 40
0.3903870058
 40
0.4121549165
 40
0.4561852689
 40
0.5005743064
 40
0.5449569669
 40
0.588968248
 40
0.6107219237
 40
0.6322478663
 40
0.6535021785
 40
0.6744416874
 40
0.6950240712
 40
0.7152079901
 40
0.7349532115
 40
0.7542207421
 40
0.7729729667
 40
0.7911737958
 40
0.8087888323
 40
0.8257855433
 40
0.8421334463
 40
0.8578043278
 40
0.8727724967
 40
0.8870150928
 40
0.9005124701
 40
0.9132486566
 40
0.919327758
 40
0.9252125636
 40
0.9309024306
 40
0.9363970783
 40
0.9416966292
 40
0.946801723
 40
0.9517134601
 40
0.9564335915
 40
0.960964495
 40
0.9653093089
 40
0.9694720559
 40
0.973457682
 40
0.9772723019
 40
0.980923238
 40
0.9844192517
 40
0.9877706863
 40
0.9909895866
 40
0.9940898952
 40
0.9970874428
 40
1.0
 40
1.0
 40
1.0
 40
1.0
 10
12.4110776171
 20
9.4710355291
 30
0.0
 10
12.4119607181
 20
9.4712286898
 30
0.0
 10
12.4137369203
 20
9.471699934
 30
0.0
 10
12.4163763229
 20
9.4726387541
 30
0.0
 10
12.419023872
 20
9.473817784
 30
0.0
 10
12.4216779419
 20
9.4752359465
 30
0.0
 10
12.4243373231
 20
9.4768922162
 30
0.0
 10
12.427000681
 20
9.4787855506
 30
0.0
 10
12.4296667974
 20
9.4809147429
 30
0.0
 10
12.4323343232
 20
9.4832786319
 30
0.0
 10
12.4350019813
 20
9.485875863
 30
0.0
 10
12.4376684201
 20
9.4887050348
 30
0.0
 10
12.4403322564
 20
9.491764632
 30
0.0
 10
12.4429921534
 20
9.4950529791
 30
0.0
 10
12.4456466572
 20
9.4985683451
 30
0.0
 10
12.4482944099
 20
9.5023088067
 30
0.0
 10
12.450933966
 20
9.5062723654
 30
0.0
 10
12.4535639048
 20
9.5104568776
 30
0.0
 10
12.4561828323
 20
9.5148600674
 30
0.0
 10
12.4587892741
 20
9.5194795647
 30
0.0
 10
12.4613818858
 20
9.5243128436
 30
0.0
 10
12.4648723185
 20
9.531144691
 30
0.0
 10
12.4691814699
 20
9.5402081353
 30
0.0
 10
12.4741981755
 20
9.551730643
 30
0.0
 10
12.4791264036
 20
9.5640366175
 30
0.0
 10
12.4839553051
 20
9.5770992038
 30
0.0
 10
12.4886742467
 20
9.5908900299
 30
0.0
 10
12.4932728221
 20
9.6053790134
 30
0.0
 10
12.4977408872
 20
9.6205345178
 30
0.0
 10
12.5020685828
 20
9.636323405
 30
0.0
 10
12.5062463664
 20
9.6527111192
 30
0.0
 10
12.5102650272
 20
9.6696617696
 30
0.0
 10
12.5141157062
 20
9.6871382167
 30
0.0
 10
12.517789917
 20
9.7051021572
 30
0.0
 10
12.5212795629
 20
9.723514209
 30
0.0
 10
12.5245769559
 20
9.7423339959
 30
0.0
 10
12.5276748404
 20
9.7615202413
 30
0.0
 10
12.5305663909
 20
9.7810308494
 30
0.0
 10
12.5332452718
 20
9.8008230499
 30
0.0
 10
12.5365379702
 20
9.8276311163
 30
0.0
 10
12.5400768248
 20
9.8615240479
 30
0.0
 10
12.5433797129
 20
9.9024615911
 30
0.0
 10
12.5457255454
 20
9.9434592045
 30
0.0
 10
12.5468703773
 20
9.9775048771
 30
0.0
 10
12.5472864627
 20
10.0044955383
 30
0.0
 10
12.5473478654
 20
10.0244520626
 30
0.0
 10
12.5471597735
 20
10.0441560081
 30
0.0
 10
12.5467225942
 20
10.0635641796
 30
0.0
 10
12.5460373149
 20
10.0826339912
 30
0.0
 10
12.5451054686
 20
10.1013236174
 30
0.0
 10
12.5439291336
 20
10.119592071
 30
0.0
 10
12.5425109283
 20
10.1373992956
 30
0.0
 10
12.5408540067
 20
10.1547062538
 30
0.0
 10
12.5389620499
 20
10.1714750176
 30
0.0
 10
12.5368392652
 20
10.1876688571
 30
0.0
 10
12.5344903749
 20
10.2032523264
 30
0.0
 10
12.5319206014
 20
10.2181913425
 30
0.0
 10
12.5291356567
 20
10.2324532712
 30
0.0
 10
12.5261417263
 20
10.2460069862
 30
0.0
 10
12.5229454531
 20
10.2588230347
 30
0.0
 10
12.5195539117
 20
10.2708734454
 30
0.0
 10
12.5165259973
 20
10.2803982801
 30
0.0
 10
12.5140033623
 20
10.2876082459
 30
0.0
 10
12.5120966452
 20
10.2927240182
 30
0.0
 10
12.5101468473
 20
10.2976295777
 30
0.0
 10
12.508155011
 20
10.3023222698
 30
0.0
 10
12.5061221923
 20
10.3067995372
 30
0.0
 10
12.5040495396
 20
10.311058974
 30
0.0
 10
12.5019381102
 20
10.3150982613
 30
0.0
 10
12.4997890746
 20
10.3189152396
 30
0.0
 10
12.49760355
 20
10.3225078536
 30
0.0
 10
12.4953826613
 20
10.3258741668
 30
0.0
 10
12.4931275954
 20
10.3290124014
 30
0.0
 10
12.4908394278
 20
10.3319208344
 30
0.0
 10
12.4885193507
 20
10.3345979333
 30
0.0
 10
12.4861684443
 20
10.3370422043
 30
0.0
 10
12.4837878298
 20
10.3392522718
 30
0.0
 10
12.4813786335
 20
10.3412268676
 30
0.0
 10
12.4789419434
 20
10.3429646823
 30
0.0
 10
12.4764788927
 20
10.3444646194
 30
0.0
 10
12.473990927
 20
10.3457253646
 30
0.0
 10
12.4722952936
 20
10.3464142934
 30
0.0
 10
12.4714466937
 20
10.34671607
 30
0.0
  0
SPLINE
  5
365
100
AcDbEntity
  8
0
100
AcDbSpline
 62
7
  6
CONTINUOUS
 70
0
 71
3
 72
93
 73
89
 74
0
 42
0.0000001
 43
0.0000001
 44
0.0000000001
 40
0.0
 40
0.0
 40
0.0
 40
0.0
 40
0.0028643522
 40
0.0057543921
 40
0.0086950922
 40
0.0117100301
 40
0.0148209371
 40
0.0180473812
 40
0.0214066431
 40
0.024913764
 40
0.0285815941
 40
0.0324210577
 40
0.0364412443
 40
0.0406497062
 40
0.0450525819
 40
0.0496547916
 40
0.0544602208
 40
0.0594717742
 40
0.0646916072
 40
0.0701210912
 40
0.0757610199
 40
0.0816115906
 40
0.0876725038
 40
0.0939430317
 40
0.1004219906
 40
0.1071078897
 40
0.1210921937
 40
0.1358779855
 40
0.1514424705
 40
0.1677591431
 40
0.1847982271
 40
0.2025270413
 40
0.2209103033
 40
0.2399103879
 40
0.2594875562
 40
0.2796001604
 40
0.3002048331
 40
0.3212566627
 40
0.342709364
 40
0.3645154434
 40
0.386626356
 40
0.4089926605
 40
0.43156417
 40
0.4542901034
 40
0.499999171
 40
0.5457082472
 40
0.5684341928
 40
0.5910057213
 40
0.6133720499
 40
0.6354829899
 40
0.6572890995
 40
0.6787418344
 40
0.6997937024
 40
0.7203984209
 40
0.7405110787
 40
0.7600883052
 40
0.7790884485
 40
0.7974717689
 40
0.8152006432
 40
0.8322397912
 40
0.8485565346
 40
0.8641210989
 40
0.878906974
 40
0.8928913587
 40
0.899577282
 40
0.9060562932
 40
0.9123268547
 40
0.9183878094
 40
0.9242384273
 40
0.9298783848
 40
0.9353079241
 40
0.9405277815
 40
0.945539388
 40
0.9503448486
 40
0.9549470995
 40
0.959350018
 40
0.9635585074
 40
0.9675787421
 40
0.9714182261
 40
0.9750860994
 40
0.9785932429
 40
0.9819525349
 40
0.985179005
 40
0.9882899277
 40
0.9913048873
 40
0.9942455955
 40
0.9971356476
 40
1.0
 40
1.0
 40
1.0
 40
1.0
 10
12.4793296108
 20
10.3472412189
 30
0.0
 10
12.4802283804
 20
10.3471788936
 30
0.0
 10
12.4820290367
 20
10.3469645111
 30
0.0
 10
12.4847042158
 20
10.3463770808
 30
0.0
 10
12.4873566977
 20
10.3455238865
 30
0.0
 10
12.4899842389
 20
10.3444060937
 30
0.0
 10
12.4925852196
 20
10.343024868
 30
0.0
 10
12.4951581168
 20
10.3413815563
 30
0.0
 10
12.497701599
 20
10.3394775579
 30
0.0
 10
12.5002143333
 20
10.3373142399
 30
0.0
 10
12.5026951302
 20
10.3348931321
 30
0.0
 10
12.5051426666
 20
10.3322157079
 30
0.0
 10
12.5075557425
 20
10.3292836531
 30
0.0
 10
12.5099330339
 20
10.3260986806
 30
0.0
 10
12.5122732647
 20
10.3226626814
 30
0.0
 10
12.5145751456
 20
10.3189776756
 30
0.0
 10
12.5168373324
 20
10.3150458087
 30
0.0
 10
12.5190585817
 20
10.3108694159
 30
0.0
 10
12.5212375347
 20
10.3064509343
 30
0.0
 10
12.5233729716
 20
10.3017929975
 30
0.0
 10
12.5254635846
 20
10.2968983525
 30
0.0
 10
12.5275081508
 20
10.2917699158
 30
0.0
 10
12.5295054545
 20
10.2864107406
 30
0.0
 10
12.5314542657
 20
10.2808240226
 30
0.0
 10
12.533353481
 20
10.2750130988
 30
0.0
 10
12.5358555384
 20
10.2668481991
 30
0.0
 10
12.5388404217
 20
10.2561007409
 30
0.0
 10
12.5421555053
 20
10.2425539627
 30
0.0
 10
12.5452472849
 20
10.2282032984
 30
0.0
 10
12.5481082326
 20
10.2130831702
 30
0.0
 10
12.5507313611
 20
10.197229724
 30
0.0
 10
12.5531102656
 20
10.1806809826
 30
0.0
 10
12.555239135
 20
10.1634766654
 30
0.0
 10
12.5571127688
 20
10.1456581037
 30
0.0
 10
12.5587265894
 20
10.1272681291
 30
0.0
 10
12.5600766523
 20
10.1083509671
 30
0.0
 10
12.5611596549
 20
10.0889521272
 30
0.0
 10
12.5619729467
 20
10.069118291
 30
0.0
 10
12.5625145337
 20
10.0488971966
 30
0.0
 10
12.5627830807
 20
10.0283375218
 30
0.0
 10
12.5627779168
 20
10.0074887604
 30
0.0
 10
12.5624990266
 20
9.9864011189
 30
0.0
 10
12.5619470874
 20
9.9651253344
 30
0.0
 10
12.5608466716
 20
9.9365214895
 30
0.0
 10
12.5588005484
 20
9.900674122
 30
0.0
 10
12.5558788746
 20
9.8648874699
 30
0.0
 10
12.5530204136
 20
9.8364055323
 30
0.0
 10
12.550630259
 20
9.8152572098
 30
0.0
 10
12.5479956383
 20
9.794332915
 30
0.0
 10
12.5451228829
 20
9.7736829943
 30
0.0
 10
12.5420189396
 20
9.7533571717
 30
0.0
 10
12.5386913056
 20
9.7334043742
 30
0.0
 10
12.5351480235
 20
9.7138726277
 30
0.0
 10
12.5313976586
 20
9.6948089362
 30
0.0
 10
12.5274492801
 20
9.6762591687
 30
0.0
 10
12.5233124388
 20
9.6582679457
 30
0.0
 10
12.518997144
 20
9.6408785279
 30
0.0
 10
12.5145138432
 20
9.6241327056
 30
0.0
 10
12.5098733929
 20
9.6080706956
 30
0.0
 10
12.505087032
 20
9.592731032
 30
0.0
 10
12.5001663527
 20
9.5781504873
 30
0.0
 10
12.4951232676
 20
9.5643638954
 30
0.0
 10
12.4899699764
 20
9.551404316
 30
0.0
 10
12.4855301444
 20
9.5411716915
 30
0.0
 10
12.4819249694
 20
9.5334302811
 30
0.0
 10
12.4792418349
 20
9.5279370974
 30
0.0
 10
12.476540502
 20
9.5226728254
 30
0.0
 10
12.4738225585
 20
9.5176406092
 30
0.0
 10
12.4710896666
 20
9.5128434405
 30
0.0
 10
12.468343409
 20
9.5082841951
 30
0.0
 10
12.4655854764
 20
9.5039655582
 30
0.0
 10
12.4628174451
 20
9.4998901159
 30
0.0
 10
12.4600409886
 20
9.4960602574
 30
0.0
 10
12.457257703
 20
9.4924782538
 30
0.0
 10
12.4544691956
 20
9.4891462183
 30
0.0
 10
12.4516770842
 20
9.4860660915
 30
0.0
 10
12.4488828876
 20
9.4832397299
 30
0.0
 10
12.4460882077
 20
9.4806687615
 30
0.0
 10
12.4432944899
 20
9.4783547978
 30
0.0
 10
12.4405032638
 20
9.4762992298
 30
0.0
 10
12.4377159494
 20
9.4745034401
 30
0.0
 10
12.4349339989
 20
9.4729687048
 30
0.0
 10
12.4321588967
 20
9.4716962159
 30
0.0
 10
12.4293921437
 20
9.4706872209
 30
0.0
 10
12.4266354694
 20
9.4699427294
 30
0.0
 10
12.4238905938
 20
9.4694638434
 30
0.0
 10
12.4211599391
 20
9.4692512144
 30
0.0
 10
12.4193469217
 20
9.4692874228
 30
0.0
 10
12.418448152
 20
9.4693497475
 30
0.0
  0
SPLINE
  5
366
100
AcDbEntity
  8
0
100
AcDbSpline
 62
7
  6
CONTINUOUS
 70
0
 71
3
 72
18
 73
14
 74
0
 42
0.0000001
 43
0.0000001
 44
0.0000000001
 40
0.0
 40
0.0
 40
0.0
 40
0.0
 40
0.1504686872
 40
0.2917143508
 40
0.4244422581
 40
0.4879097286
 40
0.549609416
 40
0.6682625881
 40
0.7817882869
 40
0.8371380068
 40
0.8918078217
 40
0.9460192903
 40
1.0
 40
1.0
 40
1.0
 40
1.0
 10
12.4488888253
 20
8.1319577047
 30
0.0
 10
12.4475459485
 20
8.1306605853
 30
0.0
 10
12.4448620323
 20
8.1282268177
 30
0.0
 10
12.4407062631
 20
8.1249835404
 30
0.0
 10
12.4371960228
 20
8.1226897163
 30
0.0
 10
12.4343969036
 20
8.1211364155
 30
0.0
 10
12.4316801364
 20
8.1198028454
 30
0.0
 10
12.4282833123
 20
8.11845533
 30
0.0
 10
12.424826069
 20
8.1175357718
 30
0.0
 10
12.4220878286
 20
8.1170827841
 30
0.0
 10
12.4200584122
 20
8.1168817539
 30
0.0
 10
12.4180372073
 20
8.1168168172
 30
0.0
 10
12.4166943675
 20
8.1168643161
 30
0.0
 10
12.4160261713
 20
8.1169106581
 30
0.0
  0
SPLINE
  5
367
100
AcDbEntity
  8
0
100
AcDbSpline
 62
7
  6
CONTINUOUS
 70
0
 71
3
 72
87
 73
83
 74
0
 42
0.0000001
 43
0.0000001
 44
0.0000000001
 40
0.0
 40
0.0
 40
0.0
 40
0.0
 40
0.004206707
 40
0.0086075139
 40
0.0132068704
 40
0.0180084273
 40
0.0230151653
 40
0.0282293196
 40
0.0336522329
 40
0.0392846557
 40
0.0451267867
 40
0.0511783097
 40
0.0639056642
 40
0.0774568824
 40
0.0918159781
 40
0.1069624108
 40
0.1228717066
 40
0.1395159399
 40
0.1568641191
 40
0.1748825349
 40
0.1935350363
 40
0.2127832683
 40
0.2325868724
 40
0.2529036823
 40
0.2736899198
 40
0.2949003647
 40
0.3164885144
 40
0.3384067328
 40
0.3606064104
 40
0.4056508839
 40
0.4512203099
 40
0.4969060878
 40
0.5422983023
 40
0.5647574578
 40
0.5869912904
 40
0.6089502782
 40
0.630585695
 40
0.6518497615
 40
0.6726958117
 40
0.6930784447
 40
0.7129536808
 40
0.7322791283
 40
0.7510141679
 40
0.7691201622
 40
0.7865606525
 40
0.8033015885
 40
0.8193115965
 40
0.8345623078
 40
0.8490287589
 40
0.8626898482
 40
0.8755289387
 40
0.8816367834
 40
0.8875353903
 40
0.8932242981
 40
0.898703605
 40
0.9039739084
 40
0.9090363996
 40
0.9138930131
 40
0.9185463802
 40
0.9230000892
 40
0.9272587072
 40
0.9313279416
 40
0.9352148802
 40
0.938928046
 40
0.9424777232
 40
0.9458760721
 40
0.9491373163
 40
0.9522779362
 40
0.9553166297
 40
0.9582743197
 40
0.9611738704
 40
0.9640396759
 40
0.966897084
 40
0.9697716802
 40
0.9726885616
 40
0.9756716607
 40
0.9787432202
 40
0.9852253519
 40
0.9886742768
 40
0.9922790716
 40
0.9960512362
 40
1.0
 40
1.0
 40
1.0
 40
1.0
 10
12.4334340104
 20
8.2682591235
 30
0.0
 10
12.4341574367
 20
8.2689578996
 30
0.0
 10
12.4356033345
 20
8.2704235794
 30
0.0
 10
12.4377227054
 20
8.2727654825
 30
0.0
 10
12.4398394074
 20
8.2752981226
 30
0.0
 10
12.4419520705
 20
8.2780198706
 30
0.0
 10
12.4440595479
 20
8.2809291315
 30
0.0
 10
12.4461606014
 20
8.284024251
 30
0.0
 10
12.4482540608
 20
8.2873033969
 30
0.0
 10
12.4503386489
 20
8.2907646439
 30
0.0
 10
12.4524131471
 20
8.2944059439
 30
0.0
 10
12.4552112211
 20
8.2995856599
 30
0.0
 10
12.4586664924
 20
8.3065028704
 30
0.0
 10
12.462686463
 20
8.315350519
 30
0.0
 10
12.4666372956
 20
8.3248586399
 30
0.0
 10
12.4705095156
 20
8.3350046441
 30
0.0
 10
12.4742938208
 20
8.3457645593
 30
0.0
 10
12.4779811047
 20
8.3571128162
 30
0.0
 10
12.4815624975
 20
8.3690224043
 30
0.0
 10
12.4850293779
 20
8.3814649314
 30
0.0
 10
12.4883734008
 20
8.39441071
 30
0.0
 10
12.4915865149
 20
8.4078288282
 30
0.0
 10
12.4946609895
 20
8.4216872242
 30
0.0
 10
12.4975894353
 20
8.4359527661
 30
0.0
 10
12.5003648118
 20
8.450591339
 30
0.0
 10
12.5029804503
 20
8.465567933
 30
0.0
 10
12.5054300557
 20
8.4808467144
 30
0.0
 10
12.5077077712
 20
8.4963911516
 30
0.0
 10
12.5105216773
 20
8.517523352
 30
0.0
 10
12.513566192
 20
8.5443272118
 30
0.0
 10
12.5164424415
 20
8.5767917274
 30
0.0
 10
12.5185311558
 20
8.6093997047
 30
0.0
 10
12.5196027907
 20
8.6365276772
 30
0.0
 10
12.5200468692
 20
8.6580624448
 30
0.0
 10
12.5201717785
 20
8.6739985296
 30
0.0
 10
12.5200894943
 20
8.6897379305
 30
0.0
 10
12.5198002096
 20
8.7052430096
 30
0.0
 10
12.5193046385
 20
8.7204766551
 30
0.0
 10
12.5186039948
 20
8.7354024214
 30
0.0
 10
12.5176999879
 20
8.7499846043
 30
0.0
 10
12.5165948161
 20
8.764188328
 30
0.0
 10
12.515291162
 20
8.7779796281
 30
0.0
 10
12.5137921872
 20
8.7913255395
 30
0.0
 10
12.5121015362
 20
8.804194182
 30
0.0
 10
12.5102233158
 20
8.8165548391
 30
0.0
 10
12.508162086
 20
8.8283780297
 30
0.0
 10
12.5059228474
 20
8.8396355935
 30
0.0
 10
12.5035110266
 20
8.8503007521
 30
0.0
 10
12.5009324762
 20
8.8603482702
 30
0.0
 10
12.4981934126
 20
8.8697542596
 30
0.0
 10
12.4957435709
 20
8.8771580492
 30
0.0
 10
12.4937009176
 20
8.8827366769
 30
0.0
 10
12.4921584655
 20
8.8866767574
 30
0.0
 10
12.4905809062
 20
8.8904405051
 30
0.0
 10
12.4889691858
 20
8.8940257104
 30
0.0
 10
12.4873242543
 20
8.8974302576
 30
0.0
 10
12.4856470451
 20
8.9006521325
 30
0.0
 10
12.4839385834
 20
8.9036894665
 30
0.0
 10
12.4821997949
 20
8.9065404593
 30
0.0
 10
12.4804317007
 20
8.9092034629
 30
0.0
 10
12.4786352831
 20
8.9116769271
 30
0.0
 10
12.4768114857
 20
8.9139593802
 30
0.0
 10
12.4749613359
 20
8.9160495172
 30
0.0
 10
12.4730857338
 20
8.9179460387
 30
0.0
 10
12.4711856625
 20
8.9196477908
 30
0.0
 10
12.4692620681
 20
8.9211536625
 30
0.0
 10
12.4673158762
 20
8.9224625276
 30
0.0
 10
12.4653481444
 20
8.9235734128
 30
0.0
 10
12.4633599183
 20
8.9244852317
 30
0.0
 10
12.4613524522
 20
8.9251970682
 30
0.0
 10
12.459327138
 20
8.9257080964
 30
0.0
 10
12.4572855338
 20
8.9260175925
 30
0.0
 10
12.4552293604
 20
8.926125279
 30
0.0
 10
12.4531603567
 20
8.9260309943
 30
0.0
 10
12.4510802739
 20
8.9257350481
 30
0.0
 10
12.4489905744
 20
8.9252378965
 30
0.0
 10
12.4461432778
 20
8.9242910282
 30
0.0
 10
12.4433257856
 20
8.9229432089
 30
0.0
 10
12.4405642442
 20
8.9212531164
 30
0.0
 10
12.4384461375
 20
8.9197620794
 30
0.0
 10
12.4363261354
 20
8.9180752431
 30
0.0
 10
12.4349444287
 20
8.9168495813
 30
0.0
 10
12.4342532937
 20
8.9162063794
 30
0.0
  0
SPLINE
  5
368
100
AcDbEntity
  8
0
100
AcDbSpline
 62
7
  6
CONTINUOUS
 70
0
 71
3
 72
54
 73
50
 74
0
 42
0.0000001
 43
0.0000001
 44
0.0000000001
 40
0.0
 40
0.0
 40
0.0
 40
0.0
 40
0.0055575314
 40
0.0111779514
 40
0.0169218741
 40
0.0228457549
 40
0.0290005166
 40
0.0354309104
 40
0.0421753481
 40
0.0492661819
 40
0.0567302289
 40
0.0645893164
 40
0.0728609992
 40
0.0815590171
 40
0.0906939529
 40
0.1002735511
 40
0.1103032084
 40
0.120786225
 40
0.131724095
 40
0.1431167574
 40
0.1549627059
 40
0.1672592594
 40
0.1800025507
 40
0.1931877841
 40
0.2068091928
 40
0.2208602246
 40
0.2353335436
 40
0.2502211095
 40
0.265514256
 40
0.2812036668
 40
0.2972795185
 40
0.3137313951
 40
0.3477187121
 40
0.383073812
 40
0.4196976091
 40
0.4574851642
 40
0.4963263633
 40
0.5361065441
 40
0.5767070861
 40
0.6180059759
 40
0.6598783548
 40
0.7021970543
 40
0.7448331254
 40
0.7876563595
 40
0.8305358172
 40
0.8733403047
 40
0.9159390443
 40
0.9582017033
 40
1.0
 40
1.0
 40
1.0
 40
1.0
 10
9.8600370696
 20
10.465345204
 30
0.0
 10
9.8600370667
 20
10.4669704941
 30
0.0
 10
9.8602190057
 20
10.4702422978
 30
0.0
 10
9.8610357242
 20
10.4751325338
 30
0.0
 10
9.8623947913
 20
10.480011874
 30
0.0
 10
9.864293661
 20
10.4848746332
 30
0.0
 10
9.8667291361
 20
10.489716895
 30
0.0
 10
9.8696979791
 20
10.4945349322
 30
0.0
 10
9.8731968044
 20
10.4993254367
 30
0.0
 10
9.8772221598
 20
10.5040852031
 30
0.0
 10
9.8817704862
 20
10.5088109829
 30
0.0
 10
9.8868379195
 20
10.5134995539
 30
0.0
 10
9.8924203942
 20
10.5181474915
 30
0.0
 10
9.898513393
 20
10.5227514376
 30
0.0
 10
9.9051121041
 20
10.5273078385
 30
0.0
 10
9.9122112401
 20
10.5318132241
 30
0.0
 10
9.9198051474
 20
10.5362640208
 30
0.0
 10
9.9278877321
 20
10.5406566998
 30
0.0
 10
9.9364524894
 20
10.544987747
 30
0.0
 10
9.9454925168
 20
10.5492536316
 30
0.0
 10
9.9550004858
 20
10.5534509368
 30
0.0
 10
9.9649686989
 20
10.5575761863
 30
0.0
 10
9.9753890416
 20
10.5616260674
 30
0.0
 10
9.9862530434
 20
10.565597213
 30
0.0
 10
9.9975518428
 20
10.5694864086
 30
0.0
 10
10.009276226
 20
10.5732904387
 30
0.0
 10
10.0214166189
 20
10.5770061872
 30
0.0
 10
10.0339631008
 20
10.580630612
 30
0.0
 10
10.046905418
 20
10.5841607111
 30
0.0
 10
10.0602329784
 20
10.5875936141
 30
0.0
 10
10.073934895
 20
10.5909264812
 30
0.0
 10
10.0928940249
 20
10.5952804586
 30
0.0
 10
10.1174507262
 20
10.6004404533
 30
0.0
 10
10.1479165257
 20
10.6061270738
 30
0.0
 10
10.1795912861
 20
10.6113545637
 30
0.0
 10
10.2123712672
 20
10.6161056535
 30
0.0
 10
10.2461492571
 20
10.6203646188
 30
0.0
 10
10.2808146733
 20
10.6241173799
 30
0.0
 10
10.3162540087
 20
10.6273515326
 30
0.0
 10
10.3523511907
 20
10.6300563915
 30
0.0
 10
10.3889879731
 20
10.6322230217
 30
0.0
 10
10.4260443266
 20
10.6338442694
 30
0.0
 10
10.463398837
 20
10.6349147824
 30
0.0
 10
10.5009291074
 20
10.6354310281
 30
0.0
 10
10.5385121568
 20
10.6353913003
 30
0.0
 10
10.5760248469
 20
10.6347957357
 30
0.0
 10
10.6133442316
 20
10.6336462882
 30
0.0
 10
10.650347984
 20
10.6319467757
 30
0.0
 10
10.6748864825
 20
10.6304409298
 30
0.0
 10
10.6870810305
 20
10.629595235
 30
0.0
  0
SPLINE
  5
369
100
AcDbEntity
  8
0
100
AcDbSpline
 62
7
  6
CONTINUOUS
 70
0
 71
3
 72
23
 73
19
 74
0
 42
0.0000001
 43
0.0000001
 44
0.0000000001
 40
0.0
 40
0.0
 40
0.0
 40
0.0
 40
0.0546454453
 40
0.1111483869
 40
0.1693522985
 40
0.2290934408
 40
0.2902017326
 40
0.352501577
 40
0.4158126541
 40
0.4799506925
 40
0.5447282239
 40
0.6099553297
 40
0.6754403743
 40
0.7409907573
 40
0.8064135783
 40
0.8715165893
 40
0.936108291
 40
1.0
 40
1.0
 40
1.0
 40
1.0
 10
10.1263521896
 20
10.3287010621
 30
0.0
 10
10.1364213796
 20
10.330628608
 30
0.0
 10
10.1569457747
 20
10.3343236114
 30
0.0
 10
10.1883242369
 20
10.3393218728
 30
0.0
 10
10.220738475
 20
10.34385764
 30
0.0
 10
10.2540862534
 20
10.3479164626
 30
0.0
 10
10.2882626197
 20
10.3514854456
 30
0.0
 10
10.3231599098
 20
10.3545532463
 30
0.0
 10
10.358668187
 20
10.3571101201
 30
0.0
 10
10.3946755675
 20
10.3591479469
 30
0.0
 10
10.4310685842
 20
10.3606602566
 30
0.0
 10
10.4677325454
 20
10.361642248
 30
0.0
 10
10.5045519015
 20
10.3620908051
 30
0.0
 10
10.5414106047
 20
10.3620045017
 30
0.0
 10
10.5781924967
 20
10.3613836168
 30
0.0
 10
10.6147816363
 20
10.3602301109
 30
0.0
 10
10.6510626534
 20
10.358547665
 30
0.0
 10
10.6751230362
 20
10.3570674426
 30
0.0
 10
10.6870810305
 20
10.3562381528
 30
0.0
  0
SPLINE
  5
36A
100
AcDbEntity
  8
0
100
AcDbSpline
 62
7
  6
CONTINUOUS
 70
0
 71
3
 72
71
 73
67
 74
0
 42
0.0000001
 43
0.0000001
 44
0.0000000001
 40
0.0
 40
0.0
 40
0.0
 40
0.0
 40
0.0081437796
 40
0.0169764944
 40
0.0265203572
 40
0.036788946
 40
0.0477874262
 40
0.0595147139
 40
0.0719646374
 40
0.0851266892
 40
0.0989866515
 40
0.1135271529
 40
0.1287280704
 40
0.1445667873
 40
0.1610184588
 40
0.1780562784
 40
0.1956516403
 40
0.2137742567
 40
0.2323923599
 40
0.2514728407
 40
0.2709813306
 40
0.2908823304
 40
0.331714196
 40
0.3736671919
 40
0.4164280894
 40
0.4596757878
 40
0.5030845187
 40
0.5463269661
 40
0.5890774011
 40
0.6310148392
 40
0.6718261955
 40
0.6917151494
 40
0.7112104217
 40
0.7302765759
 40
0.7488792807
 40
0.7669854333
 40
0.7845633329
 40
0.8015827708
 40
0.8180151583
 40
0.8338337398
 40
0.8490137809
 40
0.8635327339
 40
0.8773705134
 40
0.8905098736
 40
0.9029367398
 40
0.9146406912
 40
0.9256156748
 40
0.9358608589
 40
0.9407116707
 40
0.9453827353
 40
0.9498759528
 40
0.9541939198
 40
0.9583398901
 40
0.962317885
 40
0.9661328882
 40
0.9697908358
 40
0.9732988084
 40
0.9766651979
 40
0.9798997406
 40
0.9830137253
 40
0.9860200664
 40
0.9889332967
 40
0.9917696143
 40
0.9945467127
 40
0.9972835433
 40
1.0
 40
1.0
 40
1.0
 40
1.0
 10
12.3996266045
 20
8.304411081
 30
0.0
 10
12.4008368356
 20
8.3055800745
 30
0.0
 10
12.4032510031
 20
8.3081308142
 30
0.0
 10
12.4067199812
 20
8.31237722
 30
0.0
 10
12.410174049
 20
8.3171874002
 30
0.0
 10
12.4136065396
 20
8.3225517764
 30
0.0
 10
12.4170110926
 20
8.3284603346
 30
0.0
 10
12.4203810516
 20
8.3349015879
 30
0.0
 10
12.4237097658
 20
8.3418629676
 30
0.0
 10
12.4269905706
 20
8.3493307754
 30
0.0
 10
12.4302168947
 20
8.3572902122
 30
0.0
 10
12.4333822409
 20
8.3657254475
 30
0.0
 10
12.4364802098
 20
8.374619665
 30
0.0
 10
12.4395045452
 20
8.3839550862
 30
0.0
 10
12.4424491454
 20
8.3937130166
 30
0.0
 10
12.4453080554
 20
8.4038739028
 30
0.0
 10
12.4480754872
 20
8.4144173676
 30
0.0
 10
12.4507458604
 20
8.4253222437
 30
0.0
 10
12.4533137842
 20
8.4365666325
 30
0.0
 10
12.455774057
 20
8.4481279454
 30
0.0
 10
12.4581217365
 20
8.4599829676
 30
0.0
 10
12.4611210633
 20
8.4762888175
 30
0.0
 10
12.4645464983
 20
8.4972293414
 30
0.0
 10
12.4681055242
 20
8.5229259413
 30
0.0
 10
12.4711183898
 20
8.5491947415
 30
0.0
 10
12.4735607785
 20
8.5758246544
 30
0.0
 10
12.4754129452
 20
8.6026018364
 30
0.0
 10
12.4766600409
 20
8.6293111735
 30
0.0
 10
12.4772921306
 20
8.65573817
 30
0.0
 10
12.4773042794
 20
8.6816704509
 30
0.0
 10
12.4767938339
 20
8.7028732099
 30
0.0
 10
12.4760673457
 20
8.7194272259
 30
0.0
 10
12.4753736493
 20
8.7314843528
 30
0.0
 10
12.4745279547
 20
8.7432653565
 30
0.0
 10
12.4735319593
 20
8.7547465795
 30
0.0
 10
12.4723876863
 20
8.7659049467
 30
0.0
 10
12.4710974748
 20
8.7767180505
 30
0.0
 10
12.4696639548
 20
8.787164184
 30
0.0
 10
12.4680900333
 20
8.7972223841
 30
0.0
 10
12.4663789147
 20
8.8068724864
 30
0.0
 10
12.4645340918
 20
8.81609517
 30
0.0
 10
12.4625593139
 20
8.824871991
 30
0.0
 10
12.4604585801
 20
8.8331854288
 30
0.0
 10
12.4582361632
 20
8.8410189514
 30
0.0
 10
12.4558965595
 20
8.8483570221
 30
0.0
 10
12.4534444445
 20
8.855185231
 30
0.0
 10
12.4508847078
 20
8.8614900403
 30
0.0
 10
12.4486267413
 20
8.8663833863
 30
0.0
 10
12.4467642107
 20
8.8700186592
 30
0.0
 10
12.4453691142
 20
8.8725566653
 30
0.0
 10
12.4439509723
 20
8.8749548523
 30
0.0
 10
12.4425104806
 20
8.877212061
 30
0.0
 10
12.4410483292
 20
8.8793271811
 30
0.0
 10
12.4395651709
 20
8.8812991481
 30
0.0
 10
12.4380617331
 20
8.8831270167
 30
0.0
 10
12.4365386764
 20
8.884809864
 30
0.0
 10
12.4349966606
 20
8.8863468183
 30
0.0
 10
12.4334363983
 20
8.8877371167
 30
0.0
 10
12.4318585283
 20
8.8889799671
 30
0.0
 10
12.4302637378
 20
8.8900746428
 30
0.0
 10
12.4286527595
 20
8.8910204893
 30
0.0
 10
12.4270263032
 20
8.8918167815
 30
0.0
 10
12.4253852195
 20
8.8924629171
 30
0.0
 10
12.4237303641
 20
8.8929583581
 30
0.0
 10
12.4220628941
 20
8.8933025463
 30
0.0
 10
12.4209417365
 20
8.8934311761
 30
0.0
 10
12.4203818237
 20
8.8934700101
 30
0.0
  0
SPLINE
  5
36B
100
AcDbEntity
  8
0
100
AcDbSpline
 62
7
  6
CONTINUOUS
 70
0
 71
3
 72
18
 73
14
 74
0
 42
0.0000001
 43
0.0000001
 44
0.0000000001
 40
0.0
 40
0.0
 40
0.0
 40
0.0
 40
0.1504683897
 40
0.2917144302
 40
0.4244424337
 40
0.4879098403
 40
0.5496094316
 40
0.6682625858
 40
0.7817882724
 40
0.8371379912
 40
0.8918078094
 40
0.9460192717
 40
1.0
 40
1.0
 40
1.0
 40
1.0
 10
12.4488888253
 20
6.8269918577
 30
0.0
 10
12.4476448963
 20
6.8257903145
 30
0.0
 10
12.4451587326
 20
6.8235358726
 30
0.0
 10
12.4413091676
 20
6.8205315611
 30
0.0
 10
12.43805756
 20
6.8184067523
 30
0.0
 10
12.4354646853
 20
6.8169679009
 30
0.0
 10
12.432948092
 20
6.8157325987
 30
0.0
 10
12.4298015522
 20
6.8144843721
 30
0.0
 10
12.4265990413
 20
6.8136325795
 30
0.0
 10
12.4240625582
 20
6.8132129746
 30
0.0
 10
12.4221826723
 20
6.8130267567
 30
0.0
 10
12.4203103923
 20
6.8129666169
 30
0.0
 10
12.4190664953
 20
6.8130106219
 30
0.0
 10
12.4184475327
 20
6.8130535504
 30
0.0
  0
SPLINE
  5
36C
100
AcDbEntity
  8
0
100
AcDbSpline
 62
7
  6
CONTINUOUS
 70
0
 71
3
 72
82
 73
78
 74
0
 42
0.0000001
 43
0.0000001
 44
0.0000000001
 40
0.0
 40
0.0
 40
0.0
 40
0.0
 40
0.0027164291
 40
0.0054532364
 40
0.0082303053
 40
0.0110666058
 40
0.0139798164
 40
0.016986131
 40
0.0201001037
 40
0.0233346222
 40
0.0267009905
 40
0.0302089475
 40
0.0338668707
 40
0.0376818493
 40
0.0416598249
 40
0.0458057691
 40
0.0501237025
 40
0.0546169039
 40
0.0592879295
 40
0.0641387045
 40
0.069170648
 40
0.0743846285
 40
0.0797811279
 40
0.0853602093
 40
0.0970640744
 40
0.1094908292
 40
0.122630084
 40
0.1364677626
 40
0.1509865887
 40
0.1661664945
 40
0.1819849411
 40
0.1984171777
 40
0.2154364542
 40
0.233014197
 40
0.2511201854
 40
0.2697227022
 40
0.2887886669
 40
0.3082837565
 40
0.3281725155
 40
0.3484184781
 40
0.3689842782
 40
0.3898317536
 40
0.4109220451
 40
0.4536720397
 40
0.4969140311
 40
0.540322302
 40
0.5835695392
 40
0.6263299734
 40
0.6474273998
 40
0.6682832705
 40
0.6888587055
 40
0.7091155138
 40
0.7290162972
 40
0.7485245643
 40
0.7676048337
 40
0.786222742
 40
0.8043451595
 40
0.821940317
 40
0.8389779517
 40
0.8554294454
 40
0.8712679825
 40
0.8864687352
 40
0.9010090829
 40
0.9148688848
 40
0.9280307811
 40
0.9404805813
 40
0.9522077554
 40
0.9577985268
 40
0.9632067444
 40
0.9684324379
 40
0.9734760336
 40
0.9783383943
 40
0.9830208414
 40
0.9875253833
 40
0.9918546059
 40
0.9960115907
 40
1.0
 40
1.0
 40
1.0
 40
1.0
 10
12.4793301179
 20
7.6909449426
 30
0.0
 10
12.4801513229
 20
7.6908879874
 30
0.0
 10
12.4817956871
 20
7.6906993067
 30
0.0
 10
12.4842412938
 20
7.6901944315
 30
0.0
 10
12.4866684266
 20
7.6894678126
 30
0.0
 10
12.4890753325
 20
7.6885200863
 30
0.0
 10
12.4914607954
 20
7.6873521682
 30
0.0
 10
12.4938235732
 20
7.6859649238
 30
0.0
 10
12.4961625759
 20
7.6843593504
 30
0.0
 10
12.4984767916
 20
7.6825364946
 30
0.0
 10
12.5007651712
 20
7.6804973668
 30
0.0
 10
12.5030267818
 20
7.6782431376
 30
0.0
 10
12.505260598
 20
7.6757749446
 30
0.0
 10
12.5074656369
 20
7.6730940513
 30
0.0
 10
12.509640925
 20
7.6702018078
 30
0.0
 10
12.511785408
 20
7.6670996127
 30
0.0
 10
12.5138981339
 20
7.6637890261
 30
0.0
 10
12.5159780569
 20
7.6602716551
 30
0.0
 10
12.5180241831
 20
7.6565492396
 30
0.0
 10
12.520035538
 20
7.6526236245
 30
0.0
 10
12.5220110902
 20
7.6484967342
 30
0.0
 10
12.5239499075
 20
7.6441706348
 30
0.0
 10
12.5258510161
 20
7.6396474554
 30
0.0
 10
12.5283746247
 20
7.63325435
 30
0.0
 10
12.5314182622
 20
7.6247786453
 30
0.0
 10
12.5348496812
 20
7.6140162161
 30
0.0
 10
12.5381092135
 20
7.6025269992
 30
0.0
 10
12.5411902684
 20
7.5903339385
 30
0.0
 10
12.5440866031
 20
7.5774612464
 30
0.0
 10
12.5467923345
 20
7.5639346296
 30
0.0
 10
12.5493019591
 20
7.5497811319
 30
0.0
 10
12.5516103679
 20
7.5350290951
 30
0.0
 10
12.5537128578
 20
7.5197080912
 30
0.0
 10
12.5556051531
 20
7.5038488626
 30
0.0
 10
12.5572834037
 20
7.4874832508
 30
0.0
 10
12.5587441932
 20
7.4706441259
 30
0.0
 10
12.5599845452
 20
7.4533653178
 30
0.0
 10
12.5610019292
 20
7.4356815501
 30
0.0
 10
12.5617942741
 20
7.4176283707
 30
0.0
 10
12.5623599654
 20
7.3992420735
 30
0.0
 10
12.5626978391
 20
7.3805596345
 30
0.0
 10
12.5628072167
 20
7.3616185886
 30
0.0
 10
12.5626472529
 20
7.3359550789
 30
0.0
 10
12.5618711486
 20
7.3035113247
 30
0.0
 10
12.560042107
 20
7.2643377558
 30
0.0
 10
12.5573255651
 20
7.2250645474
 30
0.0
 10
12.5537433868
 20
7.1860074785
 30
0.0
 10
12.5500447521
 20
7.1537589379
 30
0.0
 10
12.5466693238
 20
7.1283099346
 30
0.0
 10
12.5439526451
 20
7.109556701
 30
0.0
 10
12.541045174
 20
7.0910899373
 30
0.0
 10
12.5379527488
 20
7.0729467487
 30
0.0
 10
12.5346816109
 20
7.0551636208
 30
0.0
 10
12.531238363
 20
7.0377762986
 30
0.0
 10
12.5276299573
 20
7.0208197261
 30
0.0
 10
12.523863679
 20
7.0043279757
 30
0.0
 10
12.519947133
 20
6.9883341795
 30
0.0
 10
12.515888227
 20
6.9728704577
 30
0.0
 10
12.5116951656
 20
6.9579678462
 30
0.0
 10
12.5073764239
 20
6.9436562343
 30
0.0
 10
12.5029407301
 20
6.929964304
 30
0.0
 10
12.4983970471
 20
6.9169194696
 30
0.0
 10
12.4937545479
 20
6.9045478039
 30
0.0
 10
12.4890226071
 20
6.8928739946
 30
0.0
 10
12.4842107521
 20
6.8819211997
 30
0.0
 10
12.4793286653
 20
6.871711288
 30
0.0
 10
12.4751458613
 20
6.8637161456
 30
0.0
 10
12.471765089
 20
6.8577156837
 30
0.0
 10
12.469258512
 20
6.8534854401
 30
0.0
 10
12.466741713
 20
6.8494554576
 30
0.0
 10
12.4642159204
 20
6.845627743
 30
0.0
 10
12.461682431
 20
6.8420041866
 30
0.0
 10
12.4591424351
 20
6.8385865944
 30
0.0
 10
12.4565971852
 20
6.8353766049
 30
0.0
 10
12.4540478516
 20
6.8323758003
 30
0.0
 10
12.4514958229
 20
6.8295858096
 30
0.0
 10
12.4497581412
 20
6.8278315525
 30
0.0
 10
12.4488888253
 20
6.8269918577
 30
0.0
  0
SPLINE
  5
36D
100
AcDbEntity
  8
0
100
AcDbSpline
 62
7
  6
CONTINUOUS
 70
0
 71
3
 72
41
 73
37
 74
0
 42
0.0000001
 43
0.0000001
 44
0.0000000001
 40
0.0
 40
0.0
 40
0.0
 40
0.0
 40
0.0311444983
 40
0.062442467
 40
0.093887251
 40
0.1254695609
 40
0.157177086
 40
0.1889950997
 40
0.2209066479
 40
0.2528929497
 40
0.284933762
 40
0.3170077852
 40
0.3490930781
 40
0.3811674822
 40
0.4132090489
 40
0.445196464
 40
0.4771094635
 40
0.5089292351
 40
0.540638799
 40
0.5722233621
 40
0.6036706378
 40
0.6349711269
 40
0.6661183495
 40
0.6971090237
 40
0.7279431823
 40
0.7586242225
 40
0.7891588828
 40
0.8195571428
 40
0.8498320452
 40
0.86493089
 40
0.8800050502
 40
0.9100832578
 40
0.9400926753
 40
0.9550812784
 40
0.9700610371
 40
1.0
 40
1.0
 40
1.0
 40
1.0
 10
9.598478522
 20
6.5701512453
 30
0.0
 10
9.5951645744
 20
6.5703810683
 30
0.0
 10
9.5885347064
 20
6.5710844211
 30
0.0
 10
9.5786702895
 20
6.5728561521
 30
0.0
 10
9.568911515
 20
6.5753378554
 30
0.0
 10
9.5593111214
 20
6.5785161304
 30
0.0
 10
9.5499200867
 20
6.5823739768
 30
0.0
 10
9.5407885117
 20
6.5868907426
 30
0.0
 10
9.5319650405
 20
6.5920422966
 30
0.0
 10
9.5234966894
 20
6.5978011309
 30
0.0
 10
9.5154285777
 20
6.6041365174
 30
0.0
 10
9.5078036953
 20
6.6110146668
 30
0.0
 10
9.5006626752
 20
6.6183989085
 30
0.0
 10
9.4940435792
 20
6.6262498842
 30
0.0
 10
9.4879816972
 20
6.6345257554
 30
0.0
 10
9.4825093606
 20
6.6431824239
 30
0.0
 10
9.4776557715
 20
6.6521737649
 30
0.0
 10
9.4734468479
 20
6.6614518692
 30
0.0
 10
9.4699050856
 20
6.6709672955
 30
0.0
 10
9.4670494389
 20
6.6806693308
 30
0.0
 10
9.4648952179
 20
6.6905062567
 30
0.0
 10
9.463454006
 20
6.7004256213
 30
0.0
 10
9.4627335956
 20
6.7103745161
 30
0.0
 10
9.4627379414
 20
6.7202998515
 30
0.0
 10
9.4634671409
 20
6.7301486481
 30
0.0
 10
9.4649174082
 20
6.7398682783
 30
0.0
 10
9.4670811608
 20
6.7494068885
 30
0.0
 10
9.4699467848
 20
6.7587131512
 30
0.0
 10
9.4729103348
 20
6.766241374
 30
0.0
 10
9.4756147181
 20
6.7720957405
 30
0.0
 10
9.4785332902
 20
6.777822807
 30
0.0
 10
9.4825855495
 20
6.7847500041
 30
0.0
 10
9.4871590099
 20
6.7913336836
 30
0.0
 10
9.4911111477
 20
6.7963660928
 30
0.0
 10
9.4952518283
 20
6.8012342375
 30
0.0
 10
9.4985692245
 20
6.8046999582
 30
0.0
 10
9.5008660294
 20
6.8069185166
 30
0.0
  0
SPLINE
  5
36E
100
AcDbEntity
  8
0
100
AcDbSpline
 62
7
  6
CONTINUOUS
 70
0
 71
3
 72
15
 73
11
 74
0
 42
0.0000001
 43
0.0000001
 44
0.0000000001
 40
0.0
 40
0.0
 40
0.0
 40
0.0
 40
0.1150549931
 40
0.233427462
 40
0.3548900361
 40
0.4792059981
 40
0.606130749
 40
0.735411075
 40
0.8667899859
 40
1.0
 40
1.0
 40
1.0
 40
1.0
 10
10.9076895156
 20
10.3287072662
 30
0.0
 10
10.8993103801
 20
10.330311079
 30
0.0
 10
10.8822803239
 20
10.3334090187
 30
0.0
 10
10.8563128292
 20
10.3376774399
 30
0.0
 10
10.8296005548
 20
10.341626913
 30
0.0
 10
10.8022021887
 20
10.3452487048
 30
0.0
 10
10.7741778588
 20
10.3485347997
 30
0.0
 10
10.7455889513
 20
10.3514779734
 30
0.0
 10
10.7164983897
 20
10.3540716789
 30
0.0
 10
10.6969347891
 20
10.3555547924
 30
0.0
 10
10.6870810305
 20
10.3562381528
 30
0.0
  0
SPLINE
  5
36F
100
AcDbEntity
  8
0
100
AcDbSpline
 62
4
  6
CONTINUOUS
 70
0
 71
3
 72
365
 73
361
 74
0
 42
0.0000001
 43
0.0000001
 44
0.0000000001
 40
0.0
 40
0.0
 40
0.0
 40
0.0
 40
0.015625
 40
0.0234375
 40
0.03125
 40
0.0390625
 40
0.04296875
 40
0.046875
 40
0.05078125
 40
0.0546875
 40
0.056640625
 40
0.05859375
 40
0.060546875
 40
0.0615234375
 40
0.0620117188
 40
0.0625
 40
0.0629882812
 40
0.0634765625
 40
0.064453125
 40
0.06640625
 40
0.068359375
 40
0.0703125
 40
0.07421875
 40
0.078125
 40
0.08203125
 40
0.0859375
 40
0.09375
 40
0.1015625
 40
0.10546875
 40
0.109375
 40
0.11328125
 40
0.1171875
 40
0.119140625
 40
0.12109375
 40
0.123046875
 40
0.1240234375
 40
0.1245117188
 40
0.125
 40
0.1254882812
 40
0.1259765625
 40
0.126953125
 40
0.12890625
 40
0.130859375
 40
0.1328125
 40
0.13671875
 40
0.140625
 40
0.14453125
 40
0.1484375
 40
0.15625
 40
0.1640625
 40
0.16796875
 40
0.171875
 40
0.17578125
 40
0.1796875
 40
0.181640625
 40
0.18359375
 40
0.1845703125
 40
0.185546875
 40
0.1865234375
 40
0.1870117188
 40
0.1875
 40
0.1879882812
 40
0.1884765625
 40
0.189453125
 40
0.1904296875
 40
0.19140625
 40
0.193359375
 40
0.1953125
 40
0.19921875
 40
0.203125
 40
0.20703125
 40
0.2109375
 40
0.21875
 40
0.2265625
 40
0.23046875
 40
0.234375
 40
0.23828125
 40
0.2421875
 40
0.244140625
 40
0.24609375
 40
0.248046875
 40
0.2490234375
 40
0.2495117188
 40
0.25
 40
0.2504882812
 40
0.2509765625
 40
0.251953125
 40
0.25390625
 40
0.255859375
 40
0.2578125
 40
0.26171875
 40
0.265625
 40
0.26953125
 40
0.2734375
 40
0.28125
 40
0.2890625
 40
0.29296875
 40
0.296875
 40
0.30078125
 40
0.3046875
 40
0.306640625
 40
0.30859375
 40
0.310546875
 40
0.3115234375
 40
0.3120117188
 40
0.3125
 40
0.3129882812
 40
0.3134765625
 40
0.314453125
 40
0.31640625
 40
0.318359375
 40
0.3203125
 40
0.32421875
 40
0.328125
 40
0.33203125
 40
0.3359375
 40
0.34375
 40
0.3515625
 40
0.35546875
 40
0.359375
 40
0.36328125
 40
0.3671875
 40
0.369140625
 40
0.37109375
 40
0.373046875
 40
0.3740234375
 40
0.3745117188
 40
0.375
 40
0.3754882812
 40
0.3759765625
 40
0.376953125
 40
0.37890625
 40
0.380859375
 40
0.3828125
 40
0.38671875
 40
0.390625
 40
0.39453125
 40
0.3984375
 40
0.40625
 40
0.4140625
 40
0.41796875
 40
0.421875
 40
0.42578125
 40
0.4296875
 40
0.431640625
 40
0.43359375
 40
0.4345703125
 40
0.435546875
 40
0.4365234375
 40
0.4370117188
 40
0.4375
 40
0.4379882812
 40
0.4384765625
 40
0.439453125
 40
0.4404296875
 40
0.44140625
 40
0.443359375
 40
0.4453125
 40
0.44921875
 40
0.453125
 40
0.45703125
 40
0.4609375
 40
0.46875
 40
0.4765625
 40
0.48046875
 40
0.484375
 40
0.48828125
 40
0.4921875
 40
0.494140625
 40
0.49609375
 40
0.4970703125
 40
0.498046875
 40
0.4990234375
 40
0.4995117188
 40
0.5
 40
0.5004882812
 40
0.5009765625
 40
0.501953125
 40
0.5029296875
 40
0.50390625
 40
0.505859375
 40
0.5078125
 40
0.51171875
 40
0.515625
 40
0.51953125
 40
0.5234375
 40
0.53125
 40
0.5390625
 40
0.54296875
 40
0.546875
 40
0.55078125
 40
0.5546875
 40
0.556640625
 40
0.55859375
 40
0.5595703125
 40
0.560546875
 40
0.5615234375
 40
0.5620117188
 40
0.5625
 40
0.5629882812
 40
0.5634765625
 40
0.564453125
 40
0.5654296875
 40
0.56640625
 40
0.568359375
 40
0.5703125
 40
0.57421875
 40
0.578125
 40
0.58203125
 40
0.5859375
 40
0.59375
 40
0.6015625
 40
0.60546875
 40
0.609375
 40
0.61328125
 40
0.6171875
 40
0.619140625
 40
0.62109375
 40
0.6220703125
 40
0.623046875
 40
0.6240234375
 40
0.6245117188
 40
0.625
 40
0.6254882812
 40
0.6259765625
 40
0.626953125
 40
0.6279296875
 40
0.62890625
 40
0.630859375
 40
0.6328125
 40
0.63671875
 40
0.640625
 40
0.64453125
 40
0.6484375
 40
0.65625
 40
0.6640625
 40
0.66796875
 40
0.671875
 40
0.67578125
 40
0.6796875
 40
0.681640625
 40
0.68359375
 40
0.6845703125
 40
0.685546875
 40
0.6865234375
 40
0.6870117188
 40
0.6875
 40
0.6879882812
 40
0.6884765625
 40
0.689453125
 40
0.6904296875
 40
0.69140625
 40
0.693359375
 40
0.6953125
 40
0.69921875
 40
0.703125
 40
0.70703125
 40
0.7109375
 40
0.71875
 40
0.7265625
 40
0.73046875
 40
0.734375
 40
0.73828125
 40
0.7421875
 40
0.744140625
 40
0.74609375
 40
0.7470703125
 40
0.748046875
 40
0.7490234375
 40
0.7495117188
 40
0.7497558594
 40
0.75
 40
0.7502441406
 40
0.7504882812
 40
0.7509765625
 40
0.751953125
 40
0.7529296875
 40
0.75390625
 40
0.755859375
 40
0.7578125
 40
0.76171875
 40
0.765625
 40
0.76953125
 40
0.7734375
 40
0.78125
 40
0.7890625
 40
0.79296875
 40
0.796875
 40
0.80078125
 40
0.8046875
 40
0.806640625
 40
0.80859375
 40
0.8095703125
 40
0.810546875
 40
0.8115234375
 40
0.8120117188
 40
0.8125
 40
0.8129882812
 40
0.8134765625
 40
0.814453125
 40
0.8154296875
 40
0.81640625
 40
0.818359375
 40
0.8203125
 40
0.82421875
 40
0.828125
 40
0.83203125
 40
0.8359375
 40
0.84375
 40
0.8515625
 40
0.85546875
 40
0.859375
 40
0.86328125
 40
0.8671875
 40
0.869140625
 40
0.87109375
 40
0.8720703125
 40
0.873046875
 40
0.8740234375
 40
0.8745117188
 40
0.875
 40
0.8754882812
 40
0.8759765625
 40
0.876953125
 40
0.8779296875
 40
0.87890625
 40
0.880859375
 40
0.8828125
 40
0.88671875
 40
0.890625
 40
0.89453125
 40
0.8984375
 40
0.90625
 40
0.9140625
 40
0.91796875
 40
0.921875
 40
0.92578125
 40
0.9296875
 40
0.931640625
 40
0.93359375
 40
0.9345703125
 40
0.935546875
 40
0.9365234375
 40
0.9370117188
 40
0.9375
 40
0.9379882812
 40
0.9384765625
 40
0.939453125
 40
0.9404296875
 40
0.94140625
 40
0.943359375
 40
0.9453125
 40
0.94921875
 40
0.953125
 40
0.95703125
 40
0.9609375
 40
0.96875
 40
0.9765625
 40
0.984375
 40
1.0
 40
1.0
 40
1.0
 40
1.0
 10
10.1983184956
 20
8.5961165555
 30
0.0
 10
10.1985944343
 20
8.5932831793
 30
0.0
 10
10.1990083423
 20
8.5890331149
 30
0.0
 10
10.1995602194
 20
8.5833663625
 30
0.0
 10
10.1999741278
 20
8.5791162982
 30
0.0
 10
10.2003190496
 20
8.5755745777
 30
0.0
 10
10.2005949912
 20
8.5727412019
 30
0.0
 10
10.200801936
 20
8.5706161686
 30
0.0
 10
10.2010089245
 20
8.5684911409
 30
0.0
 10
10.2011812786
 20
8.5667202669
 30
0.0
 10
10.2013194673
 20
8.565303607
 30
0.0
 10
10.2014222743
 20
8.5642410047
 30
0.0
 10
10.2015106013
 20
8.5633558443
 30
0.0
 10
10.2015672208
 20
8.5627355619
 30
0.0
 10
10.2016077088
 20
8.5623821612
 30
0.0
 10
10.2016151614
 20
8.5621141628
 30
0.0
 10
10.2017102004
 20
8.5618574328
 30
0.0
 10
10.201806368
 20
8.5615111956
 30
0.0
 10
10.2019888956
 20
8.5609071118
 30
0.0
 10
10.2022422073
 20
8.5600431776
 30
0.0
 10
10.2025493669
 20
8.5590068663
 30
0.0
 10
10.2029578002
 20
8.5576249748
 30
0.0
 10
10.2034687237
 20
8.5558976595
 30
0.0
 10
10.2040816682
 20
8.5538248601
 30
0.0
 10
10.2046946565
 20
8.5517520663
 30
0.0
 10
10.2055119589
 20
8.5489883393
 30
0.0
 10
10.2065335927
 20
8.5455336813
 30
0.0
 10
10.2075552227
 20
8.5420790225
 30
0.0
 10
10.208372531
 20
8.5393152969
 30
0.0
 10
10.2089855014
 20
8.537242499
 30
0.0
 10
10.2095985131
 20
8.5351697152
 30
0.0
 10
10.2101092276
 20
8.5334423513
 30
0.0
 10
10.2105180871
 20
8.5320605588
 30
0.0
 10
10.2108239452
 20
8.5310239449
 30
0.0
 10
10.2110813288
 20
8.5301609576
 30
0.0
 10
10.2112565876
 20
8.5295551833
 30
0.0
 10
10.2113644016
 20
8.5292116547
 30
0.0
 10
10.2114236664
 20
8.5289466048
 30
0.0
 10
10.211565481
 20
8.5287098547
 30
0.0
 10
10.2117257728
 20
8.5283843165
 30
0.0
 10
10.2120196993
 20
8.5278192239
 30
0.0
 10
10.2124325804
 20
8.5270095443
 30
0.0
 10
10.2129310398
 20
8.5260389579
 30
0.0
 10
10.2135946037
 20
8.5247444833
 30
0.0
 10
10.2144244185
 20
8.5231265133
 30
0.0
 10
10.215420042
 20
8.5211848965
 30
0.0
 10
10.2164157067
 20
8.5192432939
 30
0.0
 10
10.2177432452
 20
8.5166544854
 30
0.0
 10
10.2194026733
 20
8.5134184764
 30
0.0
 10
10.2210621
 20
8.510182467
 30
0.0
 10
10.2223896406
 20
8.5075936592
 30
0.0
 10
10.223385299
 20
8.5056520546
 30
0.0
 10
10.2243809465
 20
8.5037104449
 30
0.0
 10
10.2252106864
 20
8.5020924528
 30
0.0
 10
10.2258744029
 20
8.5007980233
 30
0.0
 10
10.2262893975
 20
8.4999890864
 30
0.0
 10
10.2266209997
 20
8.4993417501
 30
0.0
 10
10.2268707787
 20
8.4988567594
 30
0.0
 10
10.2270755009
 20
8.4984509733
 30
0.0
 10
10.2272469645
 20
8.4981299939
 30
0.0
 10
10.227354561
 20
8.497879287
 30
0.0
 10
10.2275423195
 20
8.4976666449
 30
0.0
 10
10.2277646625
 20
8.4973698255
 30
0.0
 10
10.2280521985
 20
8.4970033633
 30
0.0
 10
10.2283931296
 20
8.4965616559
 30
0.0
 10
10.2288491406
 20
8.4959733948
 30
0.0
 10
10.2294186626
 20
8.4952378349
 30
0.0
 10
10.2303301726
 20
8.4940610695
 30
0.0
 10
10.2314694658
 20
8.4925900681
 30
0.0
 10
10.232836658
 20
8.4908248855
 30
0.0
 10
10.2342038395
 20
8.4890596978
 30
0.0
 10
10.2360267519
 20
8.4867061159
 30
0.0
 10
10.2383053913
 20
8.4837641384
 30
0.0
 10
10.24058403
 20
8.4808221596
 30
0.0
 10
10.2424069437
 20
8.4784685797
 30
0.0
 10
10.2437741212
 20
8.4767033861
 30
0.0
 10
10.2451413281
 20
8.4749382255
 30
0.0
 10
10.2462805759
 20
8.4734671557
 30
0.0
 10
10.2471921785
 20
8.4722905297
 30
0.0
 10
10.2478753221
 20
8.4714074324
 30
0.0
 10
10.2484463844
 20
8.4706735146
 30
0.0
 10
10.2488426429
 20
8.470155854
 30
0.0
 10
10.2490745179
 20
8.4698661659
 30
0.0
 10
10.2492330952
 20
8.4696316652
 30
0.0
 10
10.2494502677
 20
8.4694630438
 30
0.0
 10
10.2497193924
 20
8.4692152359
 30
0.0
 10
10.2501998834
 20
8.4687922785
 30
0.0
 10
10.2508813205
 20
8.4681824561
 30
0.0
 10
10.251701176
 20
8.4674530652
 30
0.0
 10
10.2527935723
 20
8.4664797071
 30
0.0
 10
10.2541593231
 20
8.4652632966
 30
0.0
 10
10.2557981145
 20
8.463803481
 30
0.0
 10
10.2574369353
 20
8.4623436982
 30
0.0
 10
10.2596220194
 20
8.4603973097
 30
0.0
 10
10.2623533783
 20
8.4579643284
 30
0.0
 10
10.2650847348
 20
8.4555313441
 30
0.0
 10
10.2672698227
 20
8.4535849604
 30
0.0
 10
10.268908632
 20
8.4521251633
 30
0.0
 10
10.2705474663
 20
8.4506654015
 30
0.0
 10
10.2719130841
 20
8.4494488232
 30
0.0
 10
10.2730057516
 20
8.4484758074
 30
0.0
 10
10.2738247789
 20
8.4477453713
 30
0.0
 10
10.274508807
 20
8.4471388189
 30
0.0
 10
10.2749846726
 20
8.4467100242
 30
0.0
 10
10.2752612084
 20
8.4464715691
 30
0.0
 10
10.2754556163
 20
8.4462742186
 30
0.0
 10
10.275699694
 20
8.4461476195
 30
0.0
 10
10.2760078055
 20
8.4459541418
 30
0.0
 10
10.2765550729
 20
8.4456270543
 30
0.0
 10
10.2773326633
 20
8.4451537748
 30
0.0
 10
10.2782675781
 20
8.4445884126
 30
0.0
 10
10.2795135002
 20
8.4438336975
 30
0.0
 10
10.2810711193
 20
8.442890612
 30
0.0
 10
10.2829401695
 20
8.4417587772
 30
0.0
 10
10.2848092445
 20
8.4406269778
 30
0.0
 10
10.2873013358
 20
8.4391178996
 30
0.0
 10
10.2904164531
 20
8.4372315564
 30
0.0
 10
10.2935315685
 20
8.43534521
 30
0.0
 10
10.2960236628
 20
8.433836137
 30
0.0
 10
10.2978927289
 20
8.4327043217
 30
0.0
 10
10.2997618122
 20
8.4315725465
 30
0.0
 10
10.3013193282
 20
8.4306292758
 30
0.0
 10
10.3025654607
 20
8.4298749384
 30
0.0
 10
10.3034997331
 20
8.4293084226
 30
0.0
 10
10.3042793333
 20
8.4288387523
 30
0.0
 10
10.3048230127
 20
8.4285052219
 30
0.0
 10
10.3051368732
 20
8.4283220672
 30
0.0
 10
10.3053632921
 20
8.4281637592
 30
0.0
 10
10.3056240235
 20
8.4280855021
 30
0.0
 10
10.3059596968
 20
8.4279532367
 30
0.0
 10
10.3065527014
 20
8.4277347818
 30
0.0
 10
10.3073969355
 20
8.4274159019
 30
0.0
 10
10.3084112643
 20
8.4270361573
 30
0.0
 10
10.3097632668
 20
8.4265288142
 30
0.0
 10
10.3114534195
 20
8.4258949844
 30
0.0
 10
10.3134815386
 20
8.4251342389
 30
0.0
 10
10.3155096748
 20
8.4243735335
 30
0.0
 10
10.3182138505
 20
8.4233592456
 30
0.0
 10
10.3215940722
 20
8.4220913904
 30
0.0
 10
10.3249742932
 20
8.420823534
 30
0.0
 10
10.3276784699
 20
8.4198092481
 30
0.0
 10
10.3297066032
 20
8.4190485367
 30
0.0
 10
10.3317347331
 20
8.4182878137
 30
0.0
 10
10.3334248522
 20
8.4176539139
 30
0.0
 10
10.3347769232
 20
8.4171467134
 30
0.0
 10
10.3356220229
 20
8.4168298968
 30
0.0
 10
10.3362979759
 20
8.4165760227
 30
0.0
 10
10.3368052878
 20
8.4163867693
 30
0.0
 10
10.3372269433
 20
8.4162253929
 30
0.0
 10
10.3375667448
 20
8.4161045122
 30
0.0
 10
10.3378148272
 20
8.4159913896
 30
0.0
 10
10.3380887459
 20
8.4159640052
 30
0.0
 10
10.3384449459
 20
8.4158975432
 30
0.0
 10
10.3388932923
 20
8.4158247412
 30
0.0
 10
10.3394299827
 20
8.4157329806
 30
0.0
 10
10.3401460327
 20
8.4156121693
 30
0.0
 10
10.3410409367
 20
8.4154606291
 30
0.0
 10
10.3424728717
 20
8.4152184589
 30
0.0
 10
10.3442627601
 20
8.4149156452
 30
0.0
 10
10.3464106392
 20
8.4145523121
 30
0.0
 10
10.3485585148
 20
8.4141889674
 30
0.0
 10
10.3514223502
 20
8.4137045118
 30
0.0
 10
10.3550021439
 20
8.4130989408
 30
0.0
 10
10.3585819378
 20
8.4124933708
 30
0.0
 10
10.361445773
 20
8.4120089136
 30
0.0
 10
10.3635936491
 20
8.4116455739
 30
0.0
 10
10.3657415263
 20
8.4112822219
 30
0.0
 10
10.3675314206
 20
8.4109794669
 30
0.0
 10
10.3689633436
 20
8.4107371769
 30
0.0
 10
10.3698582783
 20
8.4105859417
 30
0.0
 10
10.3705742654
 20
8.4104645045
 30
0.0
 10
10.3711111479
 20
8.4103746558
 30
0.0
 10
10.371558893
 20
8.4102958718
 30
0.0
 10
10.3719163197
 20
8.4102416143
 30
0.0
 10
10.3721864923
 20
8.4101769583
 30
0.0
 10
10.3724486392
 20
8.4102037687
 30
0.0
 10
10.3728009719
 20
8.4102075655
 30
0.0
 10
10.373240426
 20
8.4102232736
 30
0.0
 10
10.3737681825
 20
8.4102374312
 30
0.0
 10
10.3744717141
 20
8.4102579468
 30
0.0
 10
10.3753511779
 20
8.4102830302
 30
0.0
 10
10.3767582924
 20
8.4103234773
 30
0.0
 10
10.3785171949
 20
8.4103739285
 30
0.0
 10
10.3806278739
 20
8.410434516
 30
0.0
 10
10.382738554
 20
8.4104950913
 30
0.0
 10
10.3855527937
 20
8.4105758626
 30
0.0
 10
10.3890705936
 20
8.4106768251
 30
0.0
 10
10.3925883932
 20
8.4107777886
 30
0.0
 10
10.3954026332
 20
8.4108585582
 30
0.0
 10
10.3975133126
 20
8.4109191386
 30
0.0
 10
10.3996239943
 20
8.4109797069
 30
0.0
 10
10.4013828884
 20
8.4110302179
 30
0.0
 10
10.40279002
 20
8.4110705431
 30
0.0
 10
10.4036694401
 20
8.4110959366
 30
0.0
 10
10.4043730613
 20
8.4111158156
 30
0.0
 10
10.4049005442
 20
8.4111319182
 30
0.0
 10
10.4053408547
 20
8.4111415407
 30
0.0
 10
10.40569144
 20
8.4111577534
 30
0.0
 10
10.4059589234
 20
8.4111466465
 30
0.0
 10
10.4062090606
 20
8.4112243479
 30
0.0
 10
10.406548636
 20
8.4112969279
 30
0.0
 10
10.4069710264
 20
8.4113982963
 30
0.0
 10
10.4074787848
 20
8.4115153827
 30
0.0
 10
10.4081554851
 20
8.4116730892
 30
0.0
 10
10.4090014669
 20
8.4118696774
 30
0.0
 10
10.4103549783
 20
8.412184523
 30
0.0
 10
10.412046888
 20
8.4125779755
 30
0.0
 10
10.4140771709
 20
8.4130501634
 30
0.0
 10
10.4161074561
 20
8.4135223392
 30
0.0
 10
10.4188145022
 20
8.4141519112
 30
0.0
 10
10.4221983102
 20
8.4149388746
 30
0.0
 10
10.4255821179
 20
8.4157258391
 30
0.0
 10
10.4282891645
 20
8.4163554095
 30
0.0
 10
10.4303194482
 20
8.4168275903
 30
0.0
 10
10.4323497366
 20
8.4172997596
 30
0.0
 10
10.4340416292
 20
8.4176932697
 30
0.0
 10
10.4353951754
 20
8.4180079979
 30
0.0
 10
10.4362410688
 20
8.418204885
 30
0.0
 10
10.4369179505
 20
8.4183619778
 30
0.0
 10
10.4374251545
 20
8.4184809388
 30
0.0
 10
10.4378492794
 20
8.4185764423
 30
0.0
 10
10.4381853163
 20
8.4186609878
 30
0.0
 10
10.4384462599
 20
8.4187021472
 30
0.0
 10
10.4386731715
 20
8.4188282344
 30
0.0
 10
10.4389876081
 20
8.4189666842
 30
0.0
 10
10.4393765752
 20
8.4191499248
 30
0.0
 10
10.4398450816
 20
8.419365457
 30
0.0
 10
10.4404691469
 20
8.4196543548
 30
0.0
 10
10.4412494374
 20
8.4200149561
 30
0.0
 10
10.4424977855
 20
8.4205922094
 30
0.0
 10
10.4440582607
 20
8.4213136761
 30
0.0
 10
10.4459308137
 20
8.4221794789
 30
0.0
 10
10.4478033714
 20
8.4230452703
 30
0.0
 10
10.4503001133
 20
8.4241996628
 30
0.0
 10
10.4534210413
 20
8.425642652
 30
0.0
 10
10.4565419688
 20
8.4270856421
 30
0.0
 10
10.4590387114
 20
8.4282400331
 30
0.0
 10
10.4609112668
 20
8.4291058292
 30
0.0
 10
10.4627838282
 20
8.4299716142
 30
0.0
 10
10.4643442776
 20
8.4306931366
 30
0.0
 10
10.4655926782
 20
8.4312702762
 30
0.0
 10
10.4663728351
 20
8.4316311667
 30
0.0
 10
10.4669971747
 20
8.4319194709
 30
0.0
 10
10.4674648432
 20
8.4321368169
 30
0.0
 10
10.4678564318
 20
8.4323143824
 30
0.0
 10
10.4681655201
 20
8.4324644106
 30
0.0
 10
10.4684087651
 20
8.432555138
 30
0.0
 10
10.4686083862
 20
8.4327290527
 30
0.0
 10
10.468889786
 20
8.4329318806
 30
0.0
 10
10.4692363076
 20
8.4331953853
 30
0.0
 10
10.4696543713
 20
8.4335073235
 30
0.0
 10
10.4702110079
 20
8.4339247316
 30
0.0
 10
10.4709070713
 20
8.4344459814
 30
0.0
 10
10.4720206233
 20
8.4352802664
 30
0.0
 10
10.4734126145
 20
8.4363230246
 30
0.0
 10
10.4750829819
 20
8.4375743765
 30
0.0
 10
10.4767533553
 20
8.4388257172
 30
0.0
 10
10.4789805177
 20
8.4404941754
 30
0.0
 10
10.4817644714
 20
8.4425797467
 30
0.0
 10
10.484548425
 20
8.4446653185
 30
0.0
 10
10.4867755876
 20
8.446333776
 30
0.0
 10
10.4884459604
 20
8.4475851184
 30
0.0
 10
10.4901163299
 20
8.4488364639
 30
0.0
 10
10.4915083149
 20
8.4498792423
 30
0.0
 10
10.4926218795
 20
8.4507134862
 30
0.0
 10
10.4933179105
 20
8.4512348404
 30
0.0
 10
10.4938746137
 20
8.4516520342
 30
0.0
 10
10.4942924742
 20
8.4519646273
 30
0.0
 10
10.4946396315
 20
8.4522260829
 30
0.0
 10
10.4948847215
 20
8.4524072152
 30
0.0
 10
10.4950215252
 20
8.4525136653
 30
0.0
 10
10.4951332769
 20
8.4525852039
 30
0.0
 10
10.4952100571
 20
8.4526884655
 30
0.0
 10
10.4953246291
 20
8.4528150822
 30
0.0
 10
10.4955194468
 20
8.4530418171
 30
0.0
 10
10.495800729
 20
8.4533630286
 30
0.0
 10
10.4961369959
 20
8.4537496362
 30
0.0
 10
10.4965857959
 20
8.45426471
 30
0.0
 10
10.4971466439
 20
8.4549086902
 30
0.0
 10
10.4980440856
 20
8.4559389814
 30
0.0
 10
10.4991658587
 20
8.4572268719
 30
0.0
 10
10.5005119988
 20
8.4587723291
 30
0.0
 10
10.5018581356
 20
8.4603177894
 30
0.0
 10
10.5036529858
 20
8.4623784021
 30
0.0
 10
10.5058965482
 20
8.4649541682
 30
0.0
 10
10.5081401104
 20
8.4675299345
 30
0.0
 10
10.5099349611
 20
8.4695905468
 30
0.0
 10
10.5112810964
 20
8.471136008
 30
0.0
 10
10.5126272418
 20
8.4726814618
 30
0.0
 10
10.5137489985
 20
8.473969363
 30
0.0
 10
10.5146464736
 20
8.4749996324
 30
0.0
 10
10.5152072366
 20
8.4756436683
 30
0.0
 10
10.5156562111
 20
8.4761586278
 30
0.0
 10
10.5159919448
 20
8.4765455843
 30
0.0
 10
10.5162748953
 20
8.4768657042
 30
0.0
 10
10.5164941405
 20
8.4771270569
 30
0.0
 10
10.5166780167
 20
8.4773087075
 30
0.0
 10
10.5167876809
 20
8.4775451853
 30
0.0
 10
10.5169598231
 20
8.4778413373
 30
0.0
 10
10.5171661068
 20
8.4782180981
 30
0.0
 10
10.5174174541
 20
8.4786673985
 30
0.0
 10
10.5177512541
 20
8.4792674481
 30
0.0
 10
10.5181689595
 20
8.4800171737
 30
0.0
 10
10.5188370336
 20
8.4812169227
 30
0.0
 10
10.5196722135
 20
8.4827165445
 30
0.0
 10
10.520674392
 20
8.4845161182
 30
0.0
 10
10.5216765806
 20
8.4863156846
 30
0.0
 10
10.5230128284
 20
8.4887151089
 30
0.0
 10
10.5246831396
 20
8.4917143885
 30
0.0
 10
10.5263534498
 20
8.4947136686
 30
0.0
 10
10.5276896991
 20
8.4971130921
 30
0.0
 10
10.5286918832
 20
8.4989126611
 30
0.0
 10
10.5296940784
 20
8.5007122247
 30
0.0
 10
10.5305292064
 20
8.5022118779
 30
0.0
 10
10.5311973864
 20
8.5034115628
 30
0.0
 10
10.5316148222
 20
8.5041614516
 30
0.0
 10
10.5319491756
 20
8.5047611662
 30
0.0
 10
10.5321988326
 20
8.5052114902
 30
0.0
 10
10.5324104047
 20
8.5055850486
 30
0.0
 10
10.5325717574
 20
8.505887734
 30
0.0
 10
10.5327143721
 20
8.5061042589
 30
0.0
 10
10.5327745385
 20
8.5063608214
 30
0.0
 10
10.5328835606
 20
8.5066889191
 30
0.0
 10
10.533009957
 20
8.5071038397
 30
0.0
 10
10.5331658621
 20
8.5075996905
 30
0.0
 10
10.5333722584
 20
8.5082615423
 30
0.0
 10
10.5336307596
 20
8.5090886114
 30
0.0
 10
10.5340440788
 20
8.5104120593
 30
0.0
 10
10.5345608248
 20
8.512066322
 30
0.0
 10
10.5351808784
 20
8.5140514574
 30
0.0
 10
10.5358009431
 20
8.5160365875
 30
0.0
 10
10.5366276921
 20
8.5186834294
 30
0.0
 10
10.5376611299
 20
8.5219919812
 30
0.0
 10
10.5386945667
 20
8.5253005333
 30
0.0
 10
10.5395213174
 20
8.5279473746
 30
0.0
 10
10.5401413773
 20
8.5299325067
 30
0.0
 10
10.540761449
 20
8.5319176345
 30
0.0
 10
10.5412781386
 20
8.533571921
 30
0.0
 10
10.5416915727
 20
8.5348953202
 30
0.0
 10
10.5419497814
 20
8.5357225131
 30
0.0
 10
10.542156778
 20
8.5363841108
 30
0.0
 10
10.5423108492
 20
8.5368807379
 30
0.0
 10
10.5424429837
 20
8.5372932298
 30
0.0
 10
10.542540299
 20
8.5376262825
 30
0.0
 10
10.5426362171
 20
8.5378677129
 30
0.0
 10
10.5426446051
 20
8.5381410501
 30
0.0
 10
10.5426863646
 20
8.5384943542
 30
0.0
 10
10.5427280737
 20
8.5389398082
 30
0.0
 10
10.5427826147
 20
8.5394727164
 30
0.0
 10
10.5428537678
 20
8.5401838322
 30
0.0
 10
10.5429432461
 20
8.5410725313
 30
0.0
 10
10.5430861113
 20
8.5424945592
 30
0.0
 10
10.5432647958
 20
8.5442720566
 30
0.0
 10
10.543479173
 20
8.5464050695
 30
0.0
 10
10.5436935621
 20
8.5485380781
 30
0.0
 10
10.54397941
 20
8.5513820911
 30
0.0
 10
10.5443367213
 20
8.5549371069
 30
0.0
 10
10.5447654943
 20
8.559203126
 30
0.0
 10
10.5453371919
 20
8.5648911514
 30
0.0
 10
10.545765965
 20
8.5691571705
 30
0.0
 10
10.5460518137
 20
8.5720011832
 30
0.0
  0
SPLINE
  5
370
100
AcDbEntity
  8
0
100
AcDbSpline
 62
4
  6
CONTINUOUS
 70
0
 71
3
 72
365
 73
361
 74
0
 42
0.0000001
 43
0.0000001
 44
0.0000000001
 40
0.0
 40
0.0
 40
0.0
 40
0.0
 40
0.015625
 40
0.0234375
 40
0.03125
 40
0.0390625
 40
0.04296875
 40
0.046875
 40
0.05078125
 40
0.0546875
 40
0.056640625
 40
0.05859375
 40
0.060546875
 40
0.0615234375
 40
0.0620117188
 40
0.0625
 40
0.0629882812
 40
0.0634765625
 40
0.064453125
 40
0.06640625
 40
0.068359375
 40
0.0703125
 40
0.07421875
 40
0.078125
 40
0.08203125
 40
0.0859375
 40
0.09375
 40
0.1015625
 40
0.10546875
 40
0.109375
 40
0.11328125
 40
0.1171875
 40
0.119140625
 40
0.12109375
 40
0.123046875
 40
0.1240234375
 40
0.1245117188
 40
0.125
 40
0.1254882812
 40
0.1259765625
 40
0.126953125
 40
0.12890625
 40
0.130859375
 40
0.1328125
 40
0.13671875
 40
0.140625
 40
0.14453125
 40
0.1484375
 40
0.15625
 40
0.1640625
 40
0.16796875
 40
0.171875
 40
0.17578125
 40
0.1796875
 40
0.181640625
 40
0.18359375
 40
0.1845703125
 40
0.185546875
 40
0.1865234375
 40
0.1870117188
 40
0.1875
 40
0.1879882812
 40
0.1884765625
 40
0.189453125
 40
0.1904296875
 40
0.19140625
 40
0.193359375
 40
0.1953125
 40
0.19921875
 40
0.203125
 40
0.20703125
 40
0.2109375
 40
0.21875
 40
0.2265625
 40
0.23046875
 40
0.234375
 40
0.23828125
 40
0.2421875
 40
0.244140625
 40
0.24609375
 40
0.248046875
 40
0.2490234375
 40
0.2495117188
 40
0.25
 40
0.2504882812
 40
0.2509765625
 40
0.251953125
 40
0.25390625
 40
0.255859375
 40
0.2578125
 40
0.26171875
 40
0.265625
 40
0.26953125
 40
0.2734375
 40
0.28125
 40
0.2890625
 40
0.29296875
 40
0.296875
 40
0.30078125
 40
0.3046875
 40
0.306640625
 40
0.30859375
 40
0.310546875
 40
0.3115234375
 40
0.3120117188
 40
0.3125
 40
0.3129882812
 40
0.3134765625
 40
0.314453125
 40
0.31640625
 40
0.318359375
 40
0.3203125
 40
0.32421875
 40
0.328125
 40
0.33203125
 40
0.3359375
 40
0.34375
 40
0.3515625
 40
0.35546875
 40
0.359375
 40
0.36328125
 40
0.3671875
 40
0.369140625
 40
0.37109375
 40
0.373046875
 40
0.3740234375
 40
0.3745117188
 40
0.375
 40
0.3754882812
 40
0.3759765625
 40
0.376953125
 40
0.37890625
 40
0.380859375
 40
0.3828125
 40
0.38671875
 40
0.390625
 40
0.39453125
 40
0.3984375
 40
0.40625
 40
0.4140625
 40
0.41796875
 40
0.421875
 40
0.42578125
 40
0.4296875
 40
0.431640625
 40
0.43359375
 40
0.4345703125
 40
0.435546875
 40
0.4365234375
 40
0.4370117188
 40
0.4375
 40
0.4379882812
 40
0.4384765625
 40
0.439453125
 40
0.4404296875
 40
0.44140625
 40
0.443359375
 40
0.4453125
 40
0.44921875
 40
0.453125
 40
0.45703125
 40
0.4609375
 40
0.46875
 40
0.4765625
 40
0.48046875
 40
0.484375
 40
0.48828125
 40
0.4921875
 40
0.494140625
 40
0.49609375
 40
0.4970703125
 40
0.498046875
 40
0.4990234375
 40
0.4995117188
 40
0.5
 40
0.5004882812
 40
0.5009765625
 40
0.501953125
 40
0.5029296875
 40
0.50390625
 40
0.505859375
 40
0.5078125
 40
0.51171875
 40
0.515625
 40
0.51953125
 40
0.5234375
 40
0.53125
 40
0.5390625
 40
0.54296875
 40
0.546875
 40
0.55078125
 40
0.5546875
 40
0.556640625
 40
0.55859375
 40
0.5595703125
 40
0.560546875
 40
0.5615234375
 40
0.5620117188
 40
0.5625
 40
0.5629882812
 40
0.5634765625
 40
0.564453125
 40
0.5654296875
 40
0.56640625
 40
0.568359375
 40
0.5703125
 40
0.57421875
 40
0.578125
 40
0.58203125
 40
0.5859375
 40
0.59375
 40
0.6015625
 40
0.60546875
 40
0.609375
 40
0.61328125
 40
0.6171875
 40
0.619140625
 40
0.62109375
 40
0.6220703125
 40
0.623046875
 40
0.6240234375
 40
0.6245117188
 40
0.625
 40
0.6254882812
 40
0.6259765625
 40
0.626953125
 40
0.6279296875
 40
0.62890625
 40
0.630859375
 40
0.6328125
 40
0.63671875
 40
0.640625
 40
0.64453125
 40
0.6484375
 40
0.65625
 40
0.6640625
 40
0.66796875
 40
0.671875
 40
0.67578125
 40
0.6796875
 40
0.681640625
 40
0.68359375
 40
0.6845703125
 40
0.685546875
 40
0.6865234375
 40
0.6870117188
 40
0.6875
 40
0.6879882812
 40
0.6884765625
 40
0.689453125
 40
0.6904296875
 40
0.69140625
 40
0.693359375
 40
0.6953125
 40
0.69921875
 40
0.703125
 40
0.70703125
 40
0.7109375
 40
0.71875
 40
0.7265625
 40
0.73046875
 40
0.734375
 40
0.73828125
 40
0.7421875
 40
0.744140625
 40
0.74609375
 40
0.7470703125
 40
0.748046875
 40
0.7490234375
 40
0.7495117188
 40
0.7497558594
 40
0.75
 40
0.7502441406
 40
0.7504882812
 40
0.7509765625
 40
0.751953125
 40
0.7529296875
 40
0.75390625
 40
0.755859375
 40
0.7578125
 40
0.76171875
 40
0.765625
 40
0.76953125
 40
0.7734375
 40
0.78125
 40
0.7890625
 40
0.79296875
 40
0.796875
 40
0.80078125
 40
0.8046875
 40
0.806640625
 40
0.80859375
 40
0.8095703125
 40
0.810546875
 40
0.8115234375
 40
0.8120117188
 40
0.8125
 40
0.8129882812
 40
0.8134765625
 40
0.814453125
 40
0.8154296875
 40
0.81640625
 40
0.818359375
 40
0.8203125
 40
0.82421875
 40
0.828125
 40
0.83203125
 40
0.8359375
 40
0.84375
 40
0.8515625
 40
0.85546875
 40
0.859375
 40
0.86328125
 40
0.8671875
 40
0.869140625
 40
0.87109375
 40
0.8720703125
 40
0.873046875
 40
0.8740234375
 40
0.8745117188
 40
0.875
 40
0.8754882812
 40
0.8759765625
 40
0.876953125
 40
0.8779296875
 40
0.87890625
 40
0.880859375
 40
0.8828125
 40
0.88671875
 40
0.890625
 40
0.89453125
 40
0.8984375
 40
0.90625
 40
0.9140625
 40
0.91796875
 40
0.921875
 40
0.92578125
 40
0.9296875
 40
0.931640625
 40
0.93359375
 40
0.9345703125
 40
0.935546875
 40
0.9365234375
 40
0.9370117188
 40
0.9375
 40
0.9379882812
 40
0.9384765625
 40
0.939453125
 40
0.9404296875
 40
0.94140625
 40
0.943359375
 40
0.9453125
 40
0.94921875
 40
0.953125
 40
0.95703125
 40
0.9609375
 40
0.96875
 40
0.9765625
 40
0.984375
 40
1.0
 40
1.0
 40
1.0
 40
1.0
 10
10.5460518137
 20
8.572001168
 30
0.0
 10
10.5457758751
 20
8.5748345442
 30
0.0
 10
10.5453619671
 20
8.5790846085
 30
0.0
 10
10.54481009
 20
8.584751361
 30
0.0
 10
10.5443961816
 20
8.5890014252
 30
0.0
 10
10.5440512598
 20
8.5925431457
 30
0.0
 10
10.5437753181
 20
8.5953765215
 30
0.0
 10
10.5435683734
 20
8.5975015549
 30
0.0
 10
10.5433613848
 20
8.5996265826
 30
0.0
 10
10.5431890308
 20
8.6013974566
 30
0.0
 10
10.5430508421
 20
8.6028141164
 30
0.0
 10
10.5429480351
 20
8.6038767187
 30
0.0
 10
10.5428597081
 20
8.6047618791
 30
0.0
 10
10.5428030885
 20
8.6053821616
 30
0.0
 10
10.5427626006
 20
8.6057355622
 30
0.0
 10
10.5427551479
 20
8.6060035607
 30
0.0
 10
10.5426601089
 20
8.6062602906
 30
0.0
 10
10.5425639414
 20
8.6066065278
 30
0.0
 10
10.5423814138
 20
8.6072106116
 30
0.0
 10
10.542128102
 20
8.6080745458
 30
0.0
 10
10.5418209425
 20
8.6091108571
 30
0.0
 10
10.5414125091
 20
8.6104927487
 30
0.0
 10
10.5409015856
 20
8.612220064
 30
0.0
 10
10.5402886411
 20
8.6142928634
 30
0.0
 10
10.5396756528
 20
8.6163656571
 30
0.0
 10
10.5388583504
 20
8.6191293842
 30
0.0
 10
10.5378367167
 20
8.6225840421
 30
0.0
 10
10.5368150867
 20
8.6260387009
 30
0.0
 10
10.5359977783
 20
8.6288024265
 30
0.0
 10
10.5353848079
 20
8.6308752245
 30
0.0
 10
10.5347717962
 20
8.6329480083
 30
0.0
 10
10.5342610817
 20
8.6346753722
 30
0.0
 10
10.5338522222
 20
8.6360571646
 30
0.0
 10
10.5335463641
 20
8.6370937785
 30
0.0
 10
10.5332889805
 20
8.6379567658
 30
0.0
 10
10.5331137218
 20
8.6385625401
 30
0.0
 10
10.5330059078
 20
8.6389060687
 30
0.0
 10
10.532946643
 20
8.6391711186
 30
0.0
 10
10.5328048284
 20
8.6394078688
 30
0.0
 10
10.5326445365
 20
8.6397334069
 30
0.0
 10
10.53235061
 20
8.6402984995
 30
0.0
 10
10.531937729
 20
8.6411081792
 30
0.0
 10
10.5314392695
 20
8.6420787655
 30
0.0
 10
10.5307757056
 20
8.6433732401
 30
0.0
 10
10.5299458908
 20
8.6449912101
 30
0.0
 10
10.5289502674
 20
8.6469328269
 30
0.0
 10
10.5279546027
 20
8.6488744296
 30
0.0
 10
10.5266270641
 20
8.6514632381
 30
0.0
 10
10.5249676361
 20
8.654699247
 30
0.0
 10
10.5233082094
 20
8.6579352564
 30
0.0
 10
10.5219806687
 20
8.6605240643
 30
0.0
 10
10.5209850104
 20
8.6624656688
 30
0.0
 10
10.5199893629
 20
8.6644072785
 30
0.0
 10
10.5191596229
 20
8.6660252706
 30
0.0
 10
10.5184959064
 20
8.6673197001
 30
0.0
 10
10.5180809118
 20
8.668128637
 30
0.0
 10
10.5177493096
 20
8.6687759733
 30
0.0
 10
10.5174995307
 20
8.669260964
 30
0.0
 10
10.5172948084
 20
8.6696667502
 30
0.0
 10
10.5171233448
 20
8.6699877295
 30
0.0
 10
10.5170157484
 20
8.6702384364
 30
0.0
 10
10.5168279899
 20
8.6704510785
 30
0.0
 10
10.5166056468
 20
8.6707478979
 30
0.0
 10
10.5163181108
 20
8.6711143601
 30
0.0
 10
10.5159771798
 20
8.6715560675
 30
0.0
 10
10.5155211688
 20
8.6721443286
 30
0.0
 10
10.5149516468
 20
8.6728798885
 30
0.0
 10
10.5140401368
 20
8.6740566539
 30
0.0
 10
10.5129008436
 20
8.6755276554
 30
0.0
 10
10.5115336513
 20
8.6772928379
 30
0.0
 10
10.5101664698
 20
8.6790580256
 30
0.0
 10
10.5083435575
 20
8.6814116075
 30
0.0
 10
10.506064918
 20
8.6843535851
 30
0.0
 10
10.5037862793
 20
8.6872955638
 30
0.0
 10
10.5019633657
 20
8.6896491437
 30
0.0
 10
10.5005961881
 20
8.6914143373
 30
0.0
 10
10.4992289812
 20
8.6931794979
 30
0.0
 10
10.4980897334
 20
8.6946505677
 30
0.0
 10
10.4971781308
 20
8.6958271938
 30
0.0
 10
10.4964949872
 20
8.696710291
 30
0.0
 10
10.495923925
 20
8.6974442088
 30
0.0
 10
10.4955276664
 20
8.6979618695
 30
0.0
 10
10.4952957914
 20
8.6982515576
 30
0.0
 10
10.4951372142
 20
8.6984860582
 30
0.0
 10
10.4949200416
 20
8.6986546796
 30
0.0
 10
10.4946509169
 20
8.6989024876
 30
0.0
 10
10.494170426
 20
8.699325445
 30
0.0
 10
10.4934889889
 20
8.6999352673
 30
0.0
 10
10.4926691334
 20
8.7006646582
 30
0.0
 10
10.4915767371
 20
8.7016380163
 30
0.0
 10
10.4902109863
 20
8.7028544268
 30
0.0
 10
10.4885721948
 20
8.7043142425
 30
0.0
 10
10.486933374
 20
8.7057740252
 30
0.0
 10
10.48474829
 20
8.7077204137
 30
0.0
 10
10.4820169311
 20
8.710153395
 30
0.0
 10
10.4792855745
 20
8.7125863793
 30
0.0
 10
10.4771004867
 20
8.7145327631
 30
0.0
 10
10.4754616773
 20
8.7159925602
 30
0.0
 10
10.4738228431
 20
8.7174523219
 30
0.0
 10
10.4724572253
 20
8.7186689002
 30
0.0
 10
10.4713645578
 20
8.7196419161
 30
0.0
 10
10.4705455304
 20
8.7203723521
 30
0.0
 10
10.4698615023
 20
8.7209789046
 30
0.0
 10
10.4693856368
 20
8.7214076993
 30
0.0
 10
10.4691091009
 20
8.7216461544
 30
0.0
 10
10.4689146931
 20
8.7218435048
 30
0.0
 10
10.4686706154
 20
8.7219701039
 30
0.0
 10
10.4683625038
 20
8.7221635816
 30
0.0
 10
10.4678152364
 20
8.7224906692
 30
0.0
 10
10.4670376461
 20
8.7229639486
 30
0.0
 10
10.4661027312
 20
8.7235293108
 30
0.0
 10
10.4648568091
 20
8.724284026
 30
0.0
 10
10.46329919
 20
8.7252271114
 30
0.0
 10
10.4614301398
 20
8.7263589462
 30
0.0
 10
10.4595610649
 20
8.7274907456
 30
0.0
 10
10.4570689736
 20
8.7289998239
 30
0.0
 10
10.4539538563
 20
8.730886167
 30
0.0
 10
10.4508387408
 20
8.7327725135
 30
0.0
 10
10.4483466466
 20
8.7342815865
 30
0.0
 10
10.4464775804
 20
8.7354134017
 30
0.0
 10
10.4446084971
 20
8.736545177
 30
0.0
 10
10.4430509811
 20
8.7374884477
 30
0.0
 10
10.4418048487
 20
8.7382427851
 30
0.0
 10
10.4408705763
 20
8.7388093008
 30
0.0
 10
10.440090976
 20
8.7392789712
 30
0.0
 10
10.4395472966
 20
8.7396125016
 30
0.0
 10
10.4392334362
 20
8.7397956563
 30
0.0
 10
10.4390070173
 20
8.7399539643
 30
0.0
 10
10.4387462858
 20
8.7400322213
 30
0.0
 10
10.4384106126
 20
8.7401644868
 30
0.0
 10
10.4378176079
 20
8.7403829416
 30
0.0
 10
10.4369733738
 20
8.7407018215
 30
0.0
 10
10.435959045
 20
8.7410815661
 30
0.0
 10
10.4346070425
 20
8.7415889092
 30
0.0
 10
10.4329168899
 20
8.7422227391
 30
0.0
 10
10.4308887708
 20
8.7429834845
 30
0.0
 10
10.4288606345
 20
8.74374419
 30
0.0
 10
10.4261564588
 20
8.7447584779
 30
0.0
 10
10.4227762372
 20
8.746026333
 30
0.0
 10
10.4193960161
 20
8.7472941895
 30
0.0
 10
10.4166918395
 20
8.7483084753
 30
0.0
 10
10.4146637061
 20
8.7490691868
 30
0.0
 10
10.4126355762
 20
8.7498299098
 30
0.0
 10
10.4109454571
 20
8.7504638095
 30
0.0
 10
10.4095933861
 20
8.7509710101
 30
0.0
 10
10.4087482864
 20
8.7512878267
 30
0.0
 10
10.4080723334
 20
8.7515417008
 30
0.0
 10
10.4075650215
 20
8.7517309541
 30
0.0
 10
10.407143366
 20
8.7518923305
 30
0.0
 10
10.4068035645
 20
8.7520132112
 30
0.0
 10
10.4065554821
 20
8.7521263338
 30
0.0
 10
10.4062815634
 20
8.7521537182
 30
0.0
 10
10.4059253634
 20
8.7522201802
 30
0.0
 10
10.405477017
 20
8.7522929822
 30
0.0
 10
10.4049403267
 20
8.7523847429
 30
0.0
 10
10.4042242767
 20
8.7525055542
 30
0.0
 10
10.4033293726
 20
8.7526570943
 30
0.0
 10
10.4018974376
 20
8.7528992645
 30
0.0
 10
10.4001075492
 20
8.7532020782
 30
0.0
 10
10.3979596701
 20
8.7535654113
 30
0.0
 10
10.3958117945
 20
8.7539287561
 30
0.0
 10
10.3929479592
 20
8.7544132116
 30
0.0
 10
10.3893681654
 20
8.7550187826
 30
0.0
 10
10.3857883715
 20
8.7556243526
 30
0.0
 10
10.3829245363
 20
8.7561088098
 30
0.0
 10
10.3807766602
 20
8.7564721495
 30
0.0
 10
10.378628783
 20
8.7568355016
 30
0.0
 10
10.3768388887
 20
8.7571382565
 30
0.0
 10
10.3754069657
 20
8.7573805465
 30
0.0
 10
10.3745120311
 20
8.7575317818
 30
0.0
 10
10.3737960439
 20
8.7576532189
 30
0.0
 10
10.3732591615
 20
8.7577430676
 30
0.0
 10
10.3728114163
 20
8.7578218516
 30
0.0
 10
10.3724539896
 20
8.7578761092
 30
0.0
 10
10.3721838171
 20
8.7579407652
 30
0.0
 10
10.3719216701
 20
8.7579139547
 30
0.0
 10
10.3715693374
 20
8.7579101579
 30
0.0
 10
10.3711298834
 20
8.7578944498
 30
0.0
 10
10.3706021268
 20
8.7578802922
 30
0.0
 10
10.3698985952
 20
8.7578597766
 30
0.0
 10
10.3690191314
 20
8.7578346932
 30
0.0
 10
10.367612017
 20
8.7577942462
 30
0.0
 10
10.3658531144
 20
8.757743795
 30
0.0
 10
10.3637424354
 20
8.7576832074
 30
0.0
 10
10.3616317553
 20
8.7576226322
 30
0.0
 10
10.3588175156
 20
8.7575418609
 30
0.0
 10
10.3552997158
 20
8.7574408984
 30
0.0
 10
10.3517819161
 20
8.7573399348
 30
0.0
 10
10.3489676761
 20
8.7572591652
 30
0.0
 10
10.3468569968
 20
8.7571985849
 30
0.0
 10
10.3447463151
 20
8.7571380165
 30
0.0
 10
10.3429874209
 20
8.7570875055
 30
0.0
 10
10.3415802893
 20
8.7570471804
 30
0.0
 10
10.3407008692
 20
8.7570217868
 30
0.0
 10
10.339997248
 20
8.7570019078
 30
0.0
 10
10.3394697652
 20
8.7569858052
 30
0.0
 10
10.3390294546
 20
8.7569761828
 30
0.0
 10
10.3386788693
 20
8.7569599701
 30
0.0
 10
10.3384113859
 20
8.7569710769
 30
0.0
 10
10.3381612488
 20
8.7568933755
 30
0.0
 10
10.3378216733
 20
8.7568207955
 30
0.0
 10
10.3373992829
 20
8.7567194271
 30
0.0
 10
10.3368915246
 20
8.7566023407
 30
0.0
 10
10.3362148243
 20
8.7564446343
 30
0.0
 10
10.3353688424
 20
8.7562480461
 30
0.0
 10
10.334015331
 20
8.7559332004
 30
0.0
 10
10.3323234213
 20
8.7555397479
 30
0.0
 10
10.3302931385
 20
8.7550675601
 30
0.0
 10
10.3282628533
 20
8.7545953842
 30
0.0
 10
10.3255558071
 20
8.7539658122
 30
0.0
 10
10.3221719992
 20
8.7531788488
 30
0.0
 10
10.3187881915
 20
8.7523918843
 30
0.0
 10
10.3160811449
 20
8.751762314
 30
0.0
 10
10.3140508611
 20
8.7512901332
 30
0.0
 10
10.3120205728
 20
8.7508179639
 30
0.0
 10
10.3103286801
 20
8.7504244537
 30
0.0
 10
10.308975134
 20
8.7501097256
 30
0.0
 10
10.3081292406
 20
8.7499128385
 30
0.0
 10
10.3074523588
 20
8.7497557456
 30
0.0
 10
10.3069451548
 20
8.7496367847
 30
0.0
 10
10.30652103
 20
8.7495412811
 30
0.0
 10
10.306184993
 20
8.7494567356
 30
0.0
 10
10.3059240495
 20
8.7494155762
 30
0.0
 10
10.3056971379
 20
8.7492894891
 30
0.0
 10
10.3053827012
 20
8.7491510393
 30
0.0
 10
10.3049937341
 20
8.7489677986
 30
0.0
 10
10.3045252278
 20
8.7487522665
 30
0.0
 10
10.3039011624
 20
8.7484633686
 30
0.0
 10
10.3031208719
 20
8.7481027673
 30
0.0
 10
10.3018725238
 20
8.747525514
 30
0.0
 10
10.3003120486
 20
8.7468040474
 30
0.0
 10
10.2984394956
 20
8.7459382445
 30
0.0
 10
10.296566938
 20
8.7450724531
 30
0.0
 10
10.2940701961
 20
8.7439180606
 30
0.0
 10
10.2909492681
 20
8.7424750715
 30
0.0
 10
10.2878283406
 20
8.7410320813
 30
0.0
 10
10.2853315979
 20
8.7398776904
 30
0.0
 10
10.2834590425
 20
8.7390118942
 30
0.0
 10
10.2815864812
 20
8.7381461093
 30
0.0
 10
10.2800260318
 20
8.7374245869
 30
0.0
 10
10.2787776312
 20
8.7368474473
 30
0.0
 10
10.2779974743
 20
8.7364865567
 30
0.0
 10
10.2773731347
 20
8.7361982526
 30
0.0
 10
10.2769054662
 20
8.7359809066
 30
0.0
 10
10.2765138776
 20
8.7358033411
 30
0.0
 10
10.2762047893
 20
8.7356533128
 30
0.0
 10
10.2759615442
 20
8.7355625855
 30
0.0
 10
10.2757619232
 20
8.7353886707
 30
0.0
 10
10.2754805233
 20
8.7351858428
 30
0.0
 10
10.2751340018
 20
8.7349223382
 30
0.0
 10
10.2747159381
 20
8.7346103999
 30
0.0
 10
10.2741593014
 20
8.7341929918
 30
0.0
 10
10.273463238
 20
8.733671742
 30
0.0
 10
10.2723496861
 20
8.7328374571
 30
0.0
 10
10.2709576949
 20
8.7317946988
 30
0.0
 10
10.2692873274
 20
8.7305433469
 30
0.0
 10
10.267616954
 20
8.7292920062
 30
0.0
 10
10.2653897916
 20
8.7276235481
 30
0.0
 10
10.2626058379
 20
8.7255379767
 30
0.0
 10
10.2598218844
 20
8.723452405
 30
0.0
 10
10.2575947218
 20
8.7217839474
 30
0.0
 10
10.2559243489
 20
8.720532605
 30
0.0
 10
10.2542539795
 20
8.7192812596
 30
0.0
 10
10.2528619945
 20
8.7182384812
 30
0.0
 10
10.2517484298
 20
8.7174042373
 30
0.0
 10
10.2510523988
 20
8.716882883
 30
0.0
 10
10.2504956957
 20
8.7164656893
 30
0.0
 10
10.2500778351
 20
8.7161530962
 30
0.0
 10
10.2497306779
 20
8.7158916405
 30
0.0
 10
10.2494855879
 20
8.7157105083
 30
0.0
 10
10.2493487841
 20
8.7156040581
 30
0.0
 10
10.2492370325
 20
8.7155325195
 30
0.0
 10
10.2491602523
 20
8.715429258
 30
0.0
 10
10.2490456802
 20
8.7153026412
 30
0.0
 10
10.2488508626
 20
8.7150759064
 30
0.0
 10
10.2485695803
 20
8.7147546948
 30
0.0
 10
10.2482333135
 20
8.7143680873
 30
0.0
 10
10.2477845134
 20
8.7138530135
 30
0.0
 10
10.2472236654
 20
8.7132090333
 30
0.0
 10
10.2463262237
 20
8.712178742
 30
0.0
 10
10.2452044507
 20
8.7108908515
 30
0.0
 10
10.2438583105
 20
8.7093453943
 30
0.0
 10
10.2425121738
 20
8.707799934
 30
0.0
 10
10.2407173236
 20
8.7057393214
 30
0.0
 10
10.2384737611
 20
8.7031635553
 30
0.0
 10
10.2362301989
 20
8.700587789
 30
0.0
 10
10.2344353483
 20
8.6985271766
 30
0.0
 10
10.2330892129
 20
8.6969817154
 30
0.0
 10
10.2317430675
 20
8.6954362616
 30
0.0
 10
10.2306213109
 20
8.6941483604
 30
0.0
 10
10.2297238357
 20
8.693118091
 30
0.0
 10
10.2291630728
 20
8.6924740552
 30
0.0
 10
10.2287140982
 20
8.6919590956
 30
0.0
 10
10.2283783645
 20
8.6915721391
 30
0.0
 10
10.228095414
 20
8.6912520192
 30
0.0
 10
10.2278761689
 20
8.6909906665
 30
0.0
 10
10.2276922926
 20
8.6908090159
 30
0.0
 10
10.2275826284
 20
8.6905725381
 30
0.0
 10
10.2274104862
 20
8.6902763862
 30
0.0
 10
10.2272042026
 20
8.6898996254
 30
0.0
 10
10.2269528553
 20
8.6894503249
 30
0.0
 10
10.2266190552
 20
8.6888502753
 30
0.0
 10
10.2262013499
 20
8.6881005497
 30
0.0
 10
10.2255332758
 20
8.6869008007
 30
0.0
 10
10.2246980958
 20
8.685401179
 30
0.0
 10
10.2236959173
 20
8.6836016052
 30
0.0
 10
10.2226937288
 20
8.6818020389
 30
0.0
 10
10.2213574809
 20
8.6794026145
 30
0.0
 10
10.2196871698
 20
8.676403335
 30
0.0
 10
10.2180168596
 20
8.6734040549
 30
0.0
 10
10.2166806102
 20
8.6710046314
 30
0.0
 10
10.2156784262
 20
8.6692050623
 30
0.0
 10
10.214676231
 20
8.6674054987
 30
0.0
 10
10.2138411029
 20
8.6659058455
 30
0.0
 10
10.2131729229
 20
8.6647061606
 30
0.0
 10
10.2127554871
 20
8.6639562718
 30
0.0
 10
10.2124211338
 20
8.6633565572
 30
0.0
 10
10.2121714768
 20
8.6629062333
 30
0.0
 10
10.2119599047
 20
8.6625326749
 30
0.0
 10
10.211798552
 20
8.6622299894
 30
0.0
 10
10.2116559372
 20
8.6620134646
 30
0.0
 10
10.2115957709
 20
8.661756902
 30
0.0
 10
10.2114867488
 20
8.6614288043
 30
0.0
 10
10.2113603524
 20
8.6610138837
 30
0.0
 10
10.2112044472
 20
8.6605180329
 30
0.0
 10
10.2109980509
 20
8.6598561811
 30
0.0
 10
10.2107395497
 20
8.659029112
 30
0.0
 10
10.2103262306
 20
8.6577056642
 30
0.0
 10
10.2098094846
 20
8.6560514014
 30
0.0
 10
10.209189431
 20
8.654066266
 30
0.0
 10
10.2085693663
 20
8.652081136
 30
0.0
 10
10.2077426172
 20
8.649434294
 30
0.0
 10
10.2067091794
 20
8.6461257423
 30
0.0
 10
10.2056757426
 20
8.6428171901
 30
0.0
 10
10.204848992
 20
8.6401703488
 30
0.0
 10
10.2042289321
 20
8.6381852167
 30
0.0
 10
10.2036088604
 20
8.636200089
 30
0.0
 10
10.2030921707
 20
8.6345458024
 30
0.0
 10
10.2026787366
 20
8.6332224032
 30
0.0
 10
10.2024205279
 20
8.6323952103
 30
0.0
 10
10.2022135313
 20
8.6317336126
 30
0.0
 10
10.2020594601
 20
8.6312369855
 30
0.0
 10
10.2019273257
 20
8.6308244936
 30
0.0
 10
10.2018300103
 20
8.630491441
 30
0.0
 10
10.2017340923
 20
8.6302500105
 30
0.0
 10
10.2017257042
 20
8.6299766734
 30
0.0
 10
10.2016839447
 20
8.6296233693
 30
0.0
 10
10.2016422357
 20
8.6291779152
 30
0.0
 10
10.2015876946
 20
8.6286450071
 30
0.0
 10
10.2015165416
 20
8.6279338912
 30
0.0
 10
10.2014270632
 20
8.6270451921
 30
0.0
 10
10.201284198
 20
8.6256231642
 30
0.0
 10
10.2011055136
 20
8.6238456668
 30
0.0
 10
10.2008911363
 20
8.6217126539
 30
0.0
 10
10.2006767473
 20
8.6195796453
 30
0.0
 10
10.2003908993
 20
8.6167356323
 30
0.0
 10
10.200033588
 20
8.6131806165
 30
0.0
 10
10.199604815
 20
8.6089145974
 30
0.0
 10
10.1990331175
 20
8.603226572
 30
0.0
 10
10.1986043444
 20
8.598960553
 30
0.0
 10
10.1983184956
 20
8.5961165403
 30
0.0
  0
ENDSEC
  0
SECTION
  2
OBJECTS
  0
DICTIONARY
  5
C
100
AcDbDictionary
280
0
281
1
  3
ACAD_GROUP
350
D
  3
ACAD_MLINESTYLE
350
17
  3
ACAD_LAYOUT
350
1A
  3
ACAD_PLOTSETTINGS
350
19
  3
ACAD_PLOTSTYLENAME
350
E
  3
ACAD_IMAGE_DICT
350
       372
  3
ACAD_IMAGE_VARS
350
       373
  3
ACAD_TABLESTYLE
350
       374
  0
IMAGEDEF_REACTOR
  5
371
100
AcDbRasterImageDefReactor
 90
2
330
28A
  0
DICTIONARY
  5
D
102
{ACAD_REACTORS
330
C
102
}
100
AcDbDictionary
280
0
281
1
  0
ACDBDICTIONARYWDFLT
  5
E
102
{ACAD_REACTORS
330
C
102
}
100
AcDbDictionary
281
1
  3
Normal
350
F
100
AcDbDictionaryWithDefault
340
F
  0
DICTIONARY
  5
372
330
C
100
AcDbDictionary
281
1
  3
B6U_assy_2_img_1
350
       377
  0
RASTERVARIABLES
  5
373
330
C
100
AcDbRasterVariables
 90
0
 70
0
 71
1
 72
5
  0
DICTIONARY
  5
17
102
{ACAD_REACTORS
330
C
102
}
100
AcDbDictionary
280
0
281
1
  3
Standard
350
18
  0
DICTIONARY
  5
374
330
C
100
AcDbDictionary
281
1
  3
Standard
350
       378
  3
Standard1
350
       379
  0
DICTIONARY
  5
19
102
{ACAD_REACTORS
330
C
102
}
100
AcDbDictionary
281
1
  0
DICTIONARY
  5
1A
102
{ACAD_REACTORS
330
C
102
}
100
AcDbDictionary
281
1
  3
Model
350
375
  3
Layout1
350
376
  0
ACDBPLACEHOLDER
  5
F
102
{ACAD_REACTORS
330
E
102
}
  0
MLINESTYLE
  5
18
102
{ACAD_REACTORS
330
17
102
}
100
AcDbMlineStyle
  2
STANDARD
 70
0
  3

 62
256
 51
90.0
 52
90.0
 71
2
 49
0.5
 62
256
  6
BYLAYER
 49
-0.5
 62
256
  6
BYLAYER
  0
LAYOUT
  5
375
102
{ACAD_REACTORS
330
1A
102
}
100
AcDbPlotSettings
  1

  2
none_device
  4
ANSI_C_(22.00_x_17.00_Inches)
  6

 40
0.0
 41
0.0
 42
0.0
 43
0.0
 44
558.8
 45
431.8
 46
0.0
 47
0.0
 48
0.0
 49
0.0
140
0.0
141
0.0
142
1.0
143
1.0
 70
1024
 72
0
 73
0
 74
0
  7

 75
0
147
1.0
148
0.0
149
0.0
100
AcDbLayout
  1
Model
 70
0
 71
0
 10
0.0
 20
0.0
 11
22.0
 21
17.0
 12
0.0
 22
0.0
 32
0.0
 14
0.0
 24
0.0
 34
0.0
 15
0.0
 25
0.0
 35
0.0
146
0.0
 13
0.0
 23
0.0
 33
0.0
 16
1.0
 26
0.0
 36
0.0
 17
0.0
 27
1.0
 37
0.0
 76
0
330
204
345
0
346
0
  0
LAYOUT
  5
376
102
{ACAD_REACTORS
330
1A
102
}
100
AcDbPlotSettings
  1

  2
none_device
  4
ANSI_C_(22.00_x_17.00_Inches)
  6

 40
0.0
 41
0.0
 42
0.0
 43
0.0
 44
558.8
 45
431.8
 46
0.0
 47
0.0
 48
0.0
 49
0.0
140
0.0
141
0.0
142
1.0
143
1.0
 70
0
 72
0
 73
0
 74
0
  7

 75
0
147
1.0
148
0.0
149
0.0
100
AcDbLayout
  1
Layout1
 70
0
 71
1
 10
0.0
 20
0.0
 11
22.0
 21
17.0
 12
0.0
 22
0.0
 32
0.0
 14
0.0
 24
0.0
 34
0.0
 15
0.0
 25
0.0
 35
0.0
146
0.0
 13
0.0
 23
0.0
 33
0.0
 16
1.0
 26
0.0
 36
0.0
 17
0.0
 27
1.0
 37
0.0
 76
0
330
205
345
0
346
0
  0
IMAGEDEF
  5
377
102
{ACAD_REACTORS
330
372
330
371
102
}
100
AcDbRasterImageDef
 90
0
  1
B6U_assy_2_img_1.png
 10
369.0
 20
92.0
 11
0.0066666667
 21
0.0066666667
280
1
281
0
  0
TABLESTYLE
  5
378
102
{ACAD_REACTORS
330
374
330
28D
330
28E
102
}
330
374
100
AcDbTableStyle
  3
Standard
 70
0
 71
0
 40
0.06
 41
0.06
280
1
281
1
  7
Standard
140
0.18
170
1
 62
0
 63
7
283
0
  7
Standard
140
0.18
170
1
 62
0
 63
7
283
0
  7
Standard
140
0.18
170
1
 62
0
 63
7
283
0
  0
TABLESTYLE
  5
379
102
{ACAD_REACTORS
330
374
330
28C
102
}
330
374
100
AcDbTableStyle
  3
Standard1
 70
1
 71
0
 40
0.06
 41
0.06
280
1
281
1
  7
Standard
140
0.18
170
1
 62
0
 63
7
283
0
  7
Standard
140
0.18
170
1
 62
0
 63
7
283
0
  7
Standard
140
0.18
170
1
 62
0
 63
7
283
0
  0
ENDSEC
  0
EOF
