999
DXF file: B6K_assy_2.dxf
999
Pro/ENGINEER 2014200 by Parametric Technology Corporation
  0
SECTION
  2
HEADER
  9
$ACADVER
  1
AC1021
  9
$DWGCODEPAGE
  3
ANSI_1252
  9
$EXTMAX
 10
22.0
 20
17.0
 30
0.0
  9
$EXTMIN
 10
0.0
 20
0.0
 30
0.0
  9
$LIMMIN
 10
0.0
 20
0.0
  9
$LIMMAX
 10
22.0
 20
17.0
  9
$VIEWCTR
 10
11.0
 20
8.5
  9
$VIEWSIZE
 40
17.0
  9
$CLAYER
  8
0
  9
$LTSCALE
 40
1.21
  9
$CELTYPE
  6
BYLAYER
  9
$DIMSCALE
 40
1.0
  9
$DIMASZ
 40
0.1875
  9
$DIMEXO
 40
0.0625
  9
$DIMDLI
 40
0.836
  9
$DIMEXE
 40
0.125
  9
$DIMCEN
 40
0.198
  9
$DIMLFAC
 40
1.0
  9
$DIMBLK
  1
_FILLED
  9
$DIMTXT
 40
0.1
  9
$DIMTOL
 70
0
  9
$DIMLIM
 70
0
  9
$DIMTFAC
 40
1.0
  9
$DIMGAP
 40
0.09
  9
$DIMDSEP
 70
46
  9
$AUNITS
 70
0
  9
$PDMODE
 70
3
  9
$PDSIZE
 40
0.3125
  9
$HANDSEED
  5
3AB
  9
$TILEMODE
 70
1
  9
$MEASUREMENT
 70
0
  9
$INSUNITS
 70
1
  0
ENDSEC
  0
SECTION
  2
CLASSES
  0
CLASS
  1
ACDBDICTIONARYWDFLT
  2
AcDbDictionaryWithDefault
  3
AutoCAD 2000
 90
0
 91
1
280
0
281
0
  0
CLASS
  1
ACDBPLACEHOLDER
  2
AcDbPlaceHolder
  3
AutoCAD 2000
 90
0
 91
1
280
0
281
0
  0
CLASS
  1
LAYOUT
  2
AcDbLayout
  3
AutoCAD 2000
 90
0
 91
0
280
0
281
0
  0
CLASS
  1
RASTERVARIABLES
  2
AcDbRasterVariables
  3
ISM
 90
0
 91
1
280
0
281
0
  0
CLASS
  1
IMAGEDEF
  2
AcDbRasterImageDef
  3
ISM
 90
0
 91
1
280
0
281
0
  0
CLASS
  1
IMAGEDEF_REACTOR
  2
AcDbRasterImageDefReactor
  3
ISM
 90
0
 91
1
280
0
281
0
  0
CLASS
  1
IMAGE
  2
AcDbRasterImage
  3
ISM
 90
127
 91
1
280
0
281
1
  0
CLASS
  1
TABLESTYLE
  2
AcDbTableStyle
  3
ObjectDBX Classes
 90
2047
 91
1
280
0
281
0
  0
CLASS
  1
ACAD_TABLE
  2
AcDbTable
  3
ObjectDBX Classes
 90
1025
 91
3
280
0
281
1
  0
ENDSEC
  0
SECTION
  2
TABLES
  0
TABLE
  2
VPORT
  5
8
100
AcDbSymbolTable
 70
2
  0
VPORT
  5
1F4
100
AcDbSymbolTableRecord
100
AcDbViewportTableRecord
  2
*ACTIVE
 70
0
 10
0.0
 20
0.0
 11
1.0
 21
1.0
 12
11.0
 22
8.5
 13
0.0
 23
0.0
 14
1.0
 24
1.0
 15
0.0
 25
0.0
 16
0.0
 26
0.0
 36
1.0
 17
0.0
 27
0.0
 37
0.0
 40
17.0
 41
1.2941176471
 42
50.0
 43
0.0
 44
0.0
 50
0.0
 51
0.0
 71
0
 72
100
 73
1
 74
1
 75
0
 76
0
 77
0
 78
0
  0
ENDTAB
  0
TABLE
  2
LTYPE
  5
5
100
AcDbSymbolTable
 70
6
  0
LTYPE
  5
14
100
AcDbSymbolTableRecord
100
AcDbLinetypeTableRecord
  2
BYBLOCK
 70
0
  3

 72
65
 73
0
 40
0.0
  0
LTYPE
  5
15
100
AcDbSymbolTableRecord
100
AcDbLinetypeTableRecord
  2
BYLAYER
 70
0
  3

 72
65
 73
0
 40
0.0
  0
LTYPE
  5
16
100
AcDbSymbolTableRecord
100
AcDbLinetypeTableRecord
  2
CONTINUOUS
 70
64
  3
Solid line
 72
65
 73
0
 40
0.0
  0
LTYPE
  5
1F5
100
AcDbSymbolTableRecord
100
AcDbLinetypeTableRecord
  2
CENTER
 70
64
  3
____ _ ____ _ ____ _ ____ _ ____ _ ____ _ ____
 72
65
 73
4
 40
0.6
 49
0.375
 74
0
 49
-0.075
 74
0
 49
0.075
 74
0
 49
-0.075
 74
0
  0
LTYPE
  5
1F6
100
AcDbSymbolTableRecord
100
AcDbLinetypeTableRecord
  2
HIDDEN
 70
64
  3
- - - - - - - - - - - - - - - - - - - -
 72
65
 73
2
 40
0.2
 49
0.1
 74
0
 49
-0.1
 74
0
  0
LTYPE
  5
1F7
100
AcDbSymbolTableRecord
100
AcDbLinetypeTableRecord
  2
PHANTOM
 70
64
  3
_____ _ _ _____ _ _ _____ _ _ _____
 72
65
 73
6
 40
0.8
 49
0.45
 74
0
 49
-0.05
 74
0
 49
0.1
 74
0
 49
-0.05
 74
0
 49
0.1
 74
0
 49
-0.05
 74
0
  0
LTYPE
  5
1F8
100
AcDbSymbolTableRecord
100
AcDbLinetypeTableRecord
  2
DOT
 70
64
  3
. . . . . . . . . . . . . . . . . . . .
 72
65
 73
2
 40
0.2
 49
0.1
 74
0
 49
-0.1
 74
0
  0
LTYPE
  5
1F9
100
AcDbSymbolTableRecord
100
AcDbLinetypeTableRecord
  2
DASHED
 70
64
  3
- - - - - - - - - - - - - - - - - - - -
 72
65
 73
2
 40
0.2
 49
0.1
 74
0
 49
-0.1
 74
0
  0
ENDTAB
  0
TABLE
  2
LAYER
  5
2
100
AcDbSymbolTable
 70
36
  0
LAYER
  5
10
100
AcDbSymbolTableRecord
100
AcDbLayerTableRecord
  2
0
 70
0
 62
7
  6
CONTINUOUS
370
-3
390
F
  0
LAYER
  5
1FA
100
AcDbSymbolTableRecord
100
AcDbLayerTableRecord
  2
DEFAULT_1
 70
0
 62
7
  6
CENTER
370
-3
390
F
  0
LAYER
  5
1FB
100
AcDbSymbolTableRecord
100
AcDbLayerTableRecord
  2
DEFAULT_2
 70
0
 62
8
  6
HIDDEN
370
-3
390
F
  0
LAYER
  5
1FC
100
AcDbSymbolTableRecord
100
AcDbLayerTableRecord
  2
DEFAULT_3
 70
0
 62
7
  6
PHANTOM
370
-3
390
F
  0
LAYER
  5
1FD
100
AcDbSymbolTableRecord
100
AcDbLayerTableRecord
  2
01___PRT_ALL_DTM_PLN
 70
0
 62
7
  6
CONTINUOUS
370
-3
390
F
  0
LAYER
  5
1FE
100
AcDbSymbolTableRecord
100
AcDbLayerTableRecord
  2
01___PRT_DEF_DTM_PLN
 70
0
 62
7
  6
CONTINUOUS
370
-3
390
F
  0
LAYER
  5
1FF
100
AcDbSymbolTableRecord
100
AcDbLayerTableRecord
  2
02___PRT_ALL_AXES
 70
0
 62
7
  6
CONTINUOUS
370
-3
390
F
  0
LAYER
  5
200
100
AcDbSymbolTableRecord
100
AcDbLayerTableRecord
  2
03___PRT_ALL_CURVES
 70
0
 62
7
  6
CONTINUOUS
370
-3
390
F
  0
LAYER
  5
201
100
AcDbSymbolTableRecord
100
AcDbLayerTableRecord
  2
04___PRT_ALL_DTM_PNT
 70
0
 62
7
  6
CONTINUOUS
370
-3
390
F
  0
LAYER
  5
202
100
AcDbSymbolTableRecord
100
AcDbLayerTableRecord
  2
05___PRT_ALL_DTM_CSYS
 70
0
 62
7
  6
CONTINUOUS
370
-3
390
F
  0
LAYER
  5
203
100
AcDbSymbolTableRecord
100
AcDbLayerTableRecord
  2
05___PRT_DEF_DTM_CSYS
 70
0
 62
7
  6
CONTINUOUS
370
-3
390
F
  0
LAYER
  5
204
100
AcDbSymbolTableRecord
100
AcDbLayerTableRecord
  2
06___PRT_ALL_SURFS
 70
0
 62
7
  6
CONTINUOUS
370
-3
390
F
  0
LAYER
  5
205
100
AcDbSymbolTableRecord
100
AcDbLayerTableRecord
  2
DATUM_PLANES
 70
0
 62
7
  6
CONTINUOUS
370
-3
390
F
  0
LAYER
  5
206
100
AcDbSymbolTableRecord
100
AcDbLayerTableRecord
  2
PORT_AREAS
 70
0
 62
7
  6
CONTINUOUS
370
-3
390
F
  0
LAYER
  5
207
100
AcDbSymbolTableRecord
100
AcDbLayerTableRecord
  2
SUNNBOMCOSMETIC
 70
0
 62
7
  6
CONTINUOUS
370
-3
390
F
  0
LAYER
  5
208
100
AcDbSymbolTableRecord
100
AcDbLayerTableRecord
  2
SUNNBOMSTAMPING
 70
0
 62
7
  6
CONTINUOUS
370
-3
390
F
  0
LAYER
  5
209
100
AcDbSymbolTableRecord
100
AcDbLayerTableRecord
  2
THREADS
 70
0
 62
7
  6
CONTINUOUS
370
-3
390
F
  0
ENDTAB
  0
TABLE
  2
STYLE
  5
3
100
AcDbSymbolTable
 70
1
  0
STYLE
  5
11
100
AcDbSymbolTableRecord
100
AcDbTextStyleTableRecord
  2
STANDARD
 70
0
 40
0.0
 41
0.8
 50
0.0
 71
0
 42
0.2
  3
txt
  4

  0
STYLE
  5
20A
100
AcDbSymbolTableRecord
100
AcDbTextStyleTableRecord
  2
TEXTSTYLE_1
 70
0
 40
0.0
 41
0.8
 50
0.0
 71
0
 42
0.2
  3
gdt
  4

  0
ENDTAB
  0
TABLE
  2
VIEW
  5
6
100
AcDbSymbolTable
 70
0
  0
ENDTAB
  0
TABLE
  2
UCS
  5
7
100
AcDbSymbolTable
 70
0
  0
ENDTAB
  0
TABLE
  2
APPID
  5
9
100
AcDbSymbolTable
 70
1
  0
APPID
  5
20B
100
AcDbSymbolTableRecord
100
AcDbRegAppTableRecord
  2
ACAD
 70
0
  0
ENDTAB
  0
TABLE
  2
BLOCK_RECORD
  5
1
100
AcDbSymbolTable
 70
0
  0
BLOCK_RECORD
  5
20C
100
AcDbSymbolTableRecord
100
AcDbBlockTableRecord
  2
*Model_Space
  0
BLOCK_RECORD
  5
20D
100
AcDbSymbolTableRecord
100
AcDbBlockTableRecord
  2
*Paper_Space
  0
BLOCK_RECORD
  5
20E
100
AcDbSymbolTableRecord
100
AcDbBlockTableRecord
  2
SUN_FIRST_THIRD_ANGLE_BL0
  0
BLOCK_RECORD
  5
20F
100
AcDbSymbolTableRecord
100
AcDbBlockTableRecord
  2
*T1
  0
BLOCK_RECORD
  5
210
100
AcDbSymbolTableRecord
100
AcDbBlockTableRecord
  2
*T2
  0
BLOCK_RECORD
  5
211
100
AcDbSymbolTableRecord
100
AcDbBlockTableRecord
  2
*T3
  0
ENDTAB
  0
TABLE
  2
DIMSTYLE
  5
A
100
AcDbSymbolTable
 70
1
100
AcDbDimStyleTable
 71
0
  0
DIMSTYLE
105
212
100
AcDbSymbolTableRecord
100
AcDbDimStyleTableRecord
  2
STANDARD
 70
0
  3

  4

 40
1.0
 41
0.1875
 42
0.0625
 43
0.38
 44
0.125
 45
0.0
 46
0.0
 47
0.001
 48
0.001
140
0.1
141
0.09
142
0.0
143
25.4
144
1.0
145
0.0
146
1.0
147
0.09
 71
0.0
 72
0.0
 73
1
 74
1
 75
0
 76
0
 77
0
 78
4
170
0
171
2
172
0
173
0
174
0
175
0
176
0
177
0
178
0
270
2
271
3
272
3
273
2
274
2
275
0
280
0
281
0
282
0
283
1
284
4
285
0
286
0
287
3
288
0
340
11
278
46
  0
ENDTAB
  0
ENDSEC
  0
SECTION
  2
BLOCKS
  0
BLOCK
  5
20
100
AcDbEntity
  8
0
100
AcDbBlockBegin
  2
*Model_Space
 70
0
 10
0.0
 20
0.0
 30
0.0
  3
*Model_Space
  1

  0
ENDBLK
  5
21
100
AcDbEntity
  8
0
100
AcDbBlockEnd
  0
BLOCK
  5
1C
100
AcDbEntity
  8
0
100
AcDbBlockBegin
  2
*Paper_Space
 70
0
 10
0.0
 20
0.0
 30
0.0
  3
*Paper_Space
  1

  0
ENDBLK
  5
1D
100
AcDbEntity
  8
0
100
AcDbBlockEnd
  0
BLOCK
  5
213
100
AcDbEntity
  8
0
100
AcDbBlockBegin
 62
2
  6
CONTINUOUS
  2
SUN_FIRST_THIRD_ANGLE_BL0
 70
64
 10
20.4816717061
 20
1.2289683772
  3
SUN_FIRST_THIRD_ANGLE_BL0
  1

  0
TEXT
  5
214
100
AcDbEntity
  8
0
100
AcDbText
 62
2
  6
CONTINUOUS
 10
19.4750896608
 20
1.4136269581
  7
STANDARD
 40
0.08
  1
FIRST ANGLE
 41
0.8
 72
0
100
AcDbText
  0
TEXT
  5
215
100
AcDbEntity
  8
0
100
AcDbText
 62
2
  6
CONTINUOUS
 10
20.7842537513
 20
1.4047600029
  7
STANDARD
 40
0.08
  1
THIRD ANGLE
 41
0.8
 72
0
100
AcDbText
  0
LINE
  5
216
100
AcDbEntity
  8
0
100
AcDbLine
 62
7
  6
CONTINUOUS
 10
19.4767170086
 20
1.1727031207
 11
19.6334271527
 21
1.1717972817
  0
LINE
  5
217
100
AcDbEntity
  8
0
100
AcDbLine
 62
7
  6
CONTINUOUS
 10
19.6596964832
 20
1.1717972817
 11
19.6950230232
 21
1.171593082
  0
LINE
  5
218
100
AcDbEntity
  8
0
100
AcDbLine
 62
7
  6
CONTINUOUS
 10
19.7194818561
 20
1.1708914427
 11
19.8852396156
 21
1.1699333054
  0
LINE
  5
219
100
AcDbEntity
  8
0
100
AcDbLine
 62
7
  6
CONTINUOUS
 10
19.4758111696
 20
1.2723454088
 11
19.88525039
 21
1.3511534004
  0
LINE
  5
21A
100
AcDbEntity
  8
0
100
AcDbLine
 62
7
  6
CONTINUOUS
 10
19.88525039
 20
1.3511534004
 11
19.8831348489
 21
0.9851647912
  0
LINE
  5
21B
100
AcDbEntity
  8
0
100
AcDbLine
 62
7
  6
CONTINUOUS
 10
19.8831348489
 20
0.9851647912
 11
19.4767170086
 21
1.0658141206
  0
LINE
  5
21C
100
AcDbEntity
  8
0
100
AcDbLine
 62
7
  6
CONTINUOUS
 10
19.4767170086
 20
1.0658141206
 11
19.4779056764
 21
1.2714536432
  0
CIRCLE
  5
21D
100
AcDbEntity
  8
0
100
AcDbCircle
 62
7
  6
CONTINUOUS
 10
20.2068232291
 20
1.1717972817
 40
0.175742101
  0
CIRCLE
  5
21E
100
AcDbEntity
  8
0
100
AcDbCircle
 62
7
  6
CONTINUOUS
 10
20.2068232291
 20
1.1717972817
 40
0.1005522074
  0
LINE
  5
21F
100
AcDbEntity
  8
0
100
AcDbLine
 62
7
  6
CONTINUOUS
 10
20.2077290681
 20
1.3756110529
 11
20.2071171714
 21
1.2379342989
  0
LINE
  5
220
100
AcDbEntity
  8
0
100
AcDbLine
 62
7
  6
CONTINUOUS
 10
20.2077290681
 20
1.2016899681
 11
20.2074674401
 21
1.1428236749
  0
LINE
  5
221
100
AcDbEntity
  8
0
100
AcDbLine
 62
7
  6
CONTINUOUS
 10
20.208634907
 20
1.101141841
 11
20.2080230104
 21
0.963465087
  0
LINE
  5
222
100
AcDbEntity
  8
0
100
AcDbLine
 62
7
  6
CONTINUOUS
 10
20.0066328138
 20
1.1745147986
 11
20.1443095678
 21
1.1739029019
  0
LINE
  5
223
100
AcDbEntity
  8
0
100
AcDbLine
 62
7
  6
CONTINUOUS
 10
20.1832714155
 20
1.1727031207
 11
20.238153505
 21
1.172335442
  0
LINE
  5
224
100
AcDbEntity
  8
0
100
AcDbLine
 62
7
  6
CONTINUOUS
 10
20.2756669918
 20
1.1717972817
 11
20.407916871
 21
1.1712095044
  0
CIRCLE
  5
225
100
AcDbEntity
  8
0
100
AcDbCircle
 62
7
  6
CONTINUOUS
 10
20.7509457401
 20
1.1693297793
 40
0.1722024983
  0
CIRCLE
  5
226
100
AcDbEntity
  8
0
100
AcDbCircle
 62
7
  6
CONTINUOUS
 10
20.7509457401
 20
1.1693297793
 40
0.0985164967
  0
LINE
  5
227
100
AcDbEntity
  8
0
100
AcDbLine
 62
7
  6
CONTINUOUS
 10
20.7169767782
 20
1.170462078
 11
20.7825395137
 21
1.1682766535
  0
LINE
  5
228
100
AcDbEntity
  8
0
100
AcDbLine
 62
7
  6
CONTINUOUS
 10
20.8177513651
 20
1.1693297793
 11
20.947965719
 21
1.1693297793
  0
LINE
  5
229
100
AcDbEntity
  8
0
100
AcDbLine
 62
7
  6
CONTINUOUS
 10
20.6875370113
 20
1.170462078
 11
20.5573226574
 21
1.170462078
  0
LINE
  5
22A
100
AcDbEntity
  8
0
100
AcDbLine
 62
7
  6
CONTINUOUS
 10
20.7486811426
 20
1.1987695462
 11
20.7486811426
 21
1.1432869085
  0
LINE
  5
22B
100
AcDbEntity
  8
0
100
AcDbLine
 62
7
  6
CONTINUOUS
 10
20.7498134414
 20
1.1059210505
 11
20.7498134414
 21
0.9757066966
  0
LINE
  5
22C
100
AcDbEntity
  8
0
100
AcDbLine
 62
7
  6
CONTINUOUS
 10
20.7486811426
 20
1.2338708068
 11
20.7486811426
 21
1.3640851607
  0
LINE
  5
22D
100
AcDbEntity
  8
0
100
AcDbLine
 62
7
  6
CONTINUOUS
 10
21.0702539817
 20
1.2701043662
 11
21.4790138229
 21
1.3448360823
  0
LINE
  5
22E
100
AcDbEntity
  8
0
100
AcDbLine
 62
7
  6
CONTINUOUS
 10
21.4790138229
 20
1.3448360823
 11
21.4790138229
 21
0.9779712941
  0
LINE
  5
22F
100
AcDbEntity
  8
0
100
AcDbLine
 62
7
  6
CONTINUOUS
 10
21.4790138229
 20
0.9779712941
 11
21.069121683
 21
1.0617614
  0
LINE
  5
230
100
AcDbEntity
  8
0
100
AcDbLine
 62
7
  6
CONTINUOUS
 10
21.0702539817
 20
1.2701043662
 11
21.069121683
 21
1.0617614
  0
LINE
  5
231
100
AcDbEntity
  8
0
100
AcDbLine
 62
7
  6
CONTINUOUS
 10
21.4790138229
 20
1.1693297793
 11
21.3159628059
 21
1.1693297793
  0
LINE
  5
232
100
AcDbEntity
  8
0
100
AcDbLine
 62
7
  6
CONTINUOUS
 10
21.2876553377
 20
1.1693297793
 11
21.2502894796
 21
1.1693297793
  0
LINE
  5
233
100
AcDbEntity
  8
0
100
AcDbLine
 62
7
  6
CONTINUOUS
 10
21.2208497126
 20
1.1659328831
 11
21.0713862804
 21
1.1659328831
  0
LINE
  5
234
100
AcDbEntity
  8
0
100
AcDbLine
 62
7
  6
CONTINUOUS
 10
20.4796138713
 20
1.5284908897
 11
20.4766766948
 21
0.9294458646
  0
ENDBLK
  5
235
100
AcDbEntity
  8
0
  6
BYBLOCK
 62
0
100
AcDbBlockEnd
  0
BLOCK
  5
236
100
AcDbEntity
  8
0
100
AcDbBlockBegin
  2
*T1
 70
1
 10
0.0
 20
0.0
  3
*T1
  1

  0
LINE
  5
237
100
AcDbEntity
  8
0
100
AcDbLine
 62
2
  6
CONTINUOUS
 10
9.275
 20
0.0
 11
-0.0
 21
0.0
  0
LINE
  5
238
100
AcDbEntity
  8
0
100
AcDbLine
 62
2
  6
CONTINUOUS
 10
9.275
 20
0.0
 11
9.275
 21
1.25
  0
LINE
  5
239
100
AcDbEntity
  8
0
100
AcDbLine
 62
2
  6
CONTINUOUS
 10
9.275
 20
0.625
 11
-0.0
 21
0.625
  0
LINE
  5
23A
100
AcDbEntity
  8
0
100
AcDbLine
 62
2
  6
CONTINUOUS
 10
9.275
 20
1.25
 11
-0.0
 21
1.25
  0
LINE
  5
23B
100
AcDbEntity
  8
0
100
AcDbLine
 62
2
  6
CONTINUOUS
 10
6.8
 20
0.0
 11
6.8
 21
1.25
  0
LINE
  5
23C
100
AcDbEntity
  8
0
100
AcDbLine
 62
2
  6
CONTINUOUS
 10
6.4
 20
0.0
 11
6.4
 21
0.625
  0
LINE
  5
23D
100
AcDbEntity
  8
0
100
AcDbLine
 62
2
  6
CONTINUOUS
 10
5.9
 20
0.0
 11
5.9
 21
0.625
  0
LINE
  5
23E
100
AcDbEntity
  8
0
100
AcDbLine
 62
2
  6
CONTINUOUS
 10
5.2
 20
0.0
 11
5.2
 21
0.625
  0
LINE
  5
23F
100
AcDbEntity
  8
0
100
AcDbLine
 62
2
  6
CONTINUOUS
 10
4.1
 20
0.0
 11
4.1
 21
1.25
  0
LINE
  5
240
100
AcDbEntity
  8
0
100
AcDbLine
 62
2
  6
CONTINUOUS
 10
-0.0
 20
0.0
 11
-0.0
 21
1.25
  0
MTEXT
  5
241
100
AcDbEntity
  8
0
100
AcDbMText
 62
2
  6
CONTINUOUS
  7
STANDARD
 71
2
 72
1
 10
6.6
 20
0.325
 30
0.0
 11
1.0
 21
0.0
 31
0.0
 44
0.9
  1
2
 40
0.125
 41
0.2
  0
MTEXT
  5
242
100
AcDbEntity
  8
0
100
AcDbMText
 62
2
  6
CONTINUOUS
  7
STANDARD
 71
2
 72
1
 10
6.15
 20
0.325
 30
0.0
 11
1.0
 21
0.0
 31
0.0
 44
0.9
  1
C
 40
0.125
 41
0.2
  0
MTEXT
  5
243
100
AcDbEntity
  8
0
100
AcDbMText
 62
2
  6
CONTINUOUS
  7
STANDARD
 71
2
 72
1
 10
5.55
 20
0.325
 30
0.0
 11
1.0
 21
0.0
 31
0.0
 44
0.9
  1
1.000
 40
0.125
 41
1.0
  0
MTEXT
  5
244
100
AcDbEntity
  8
0
100
AcDbMText
 62
2
  6
CONTINUOUS
  7
STANDARD
 71
2
 72
1
 10
4.65
 20
0.325
 30
0.0
 11
1.0
 21
0.0
 31
0.0
 44
0.9
  1
Oct-03-22
 40
0.125
 41
1.8
  0
MTEXT
  5
245
100
AcDbEntity
  8
0
100
AcDbMText
 62
2
  6
CONTINUOUS
  7
STANDARD
 71
2
 72
1
 10
2.05
 20
0.4625
 30
0.0
 11
1.0
 21
0.0
 31
0.0
 44
0.9
  1
T-2A Line mount\P(See Technical Data for Body Features)
 40
0.125
 41
7.6
  0
MTEXT
  5
246
100
AcDbEntity
  8
0
100
AcDbMText
 62
2
  6
CONTINUOUS
  7
STANDARD
 71
1
 72
1
 10
6.45
 20
0.5625
 30
0.0
 11
1.0
 21
0.0
 31
0.0
 44
0.9
  1
SHEET
 40
0.06
 41
0.48
  0
MTEXT
  5
247
100
AcDbEntity
  8
0
100
AcDbMText
 62
2
  6
CONTINUOUS
  7
STANDARD
 71
1
 72
1
 10
5.95
 20
0.5625
 30
0.0
 11
1.0
 21
0.0
 31
0.0
 44
0.9
  1
DWG SIZE
 40
0.06
 41
0.768
  0
MTEXT
  5
248
100
AcDbEntity
  8
0
100
AcDbMText
 62
2
  6
CONTINUOUS
  7
STANDARD
 71
1
 72
1
 10
5.25
 20
0.5625
 30
0.0
 11
1.0
 21
0.0
 31
0.0
 44
0.9
  1
SCALE
 40
0.06
 41
0.48
  0
MTEXT
  5
249
100
AcDbEntity
  8
0
100
AcDbMText
 62
2
  6
CONTINUOUS
  7
STANDARD
 71
1
 72
1
 10
4.15
 20
0.5625
 30
0.0
 11
1.0
 21
0.0
 31
0.0
 44
0.9
  1
DATE
 40
0.06
 41
0.384
  0
MTEXT
  5
24A
100
AcDbEntity
  8
0
100
AcDbMText
 62
2
  6
CONTINUOUS
  7
STANDARD
 71
1
 72
1
 10
0.05
 20
0.5625
 30
0.0
 11
1.0
 21
0.0
 31
0.0
 44
0.9
  1
DESCRIPTION
 40
0.06
 41
1.056
  0
MTEXT
  5
24B
100
AcDbEntity
  8
0
100
AcDbMText
 62
2
  6
CONTINUOUS
  7
STANDARD
 71
2
 72
1
 10
5.45
 20
1.0375
 30
0.0
 11
1.0
 21
0.0
 31
0.0
 44
0.9
  1
ALL DIMENSIONS IN INCH\PVIEWS ARE THIRD ANGLE
 40
0.12
 41
4.224
  0
MTEXT
  5
24C
100
AcDbEntity
  8
0
100
AcDbMText
 62
2
  6
CONTINUOUS
  7
STANDARD
 71
2
 72
1
 10
2.05
 20
0.95
 30
0.0
 11
1.0
 21
0.0
 31
0.0
 44
0.9
  1
B6K
 40
0.125
 41
0.6
  0
MTEXT
  5
24D
100
AcDbEntity
  8
0
100
AcDbMText
 62
2
  6
CONTINUOUS
  7
STANDARD
 71
1
 72
1
 10
0.05
 20
1.1875
 30
0.0
 11
1.0
 21
0.0
 31
0.0
 44
0.9
  1
MODEL
 40
0.06
 41
0.48
  0
ENDBLK
  5
24E
100
AcDbEntity
  8
0
  6
BYBLOCK
 62
0
100
AcDbBlockEnd
  0
BLOCK
  5
24F
100
AcDbEntity
  8
0
100
AcDbBlockBegin
  2
*T2
 70
1
 10
0.0
 20
0.0
  3
*T2
  1

  0
LINE
  5
250
100
AcDbEntity
  8
0
100
AcDbLine
 62
2
  6
CONTINUOUS
 10
0.0
 20
0.0
 11
9.055
 21
0.0
  0
LINE
  5
251
100
AcDbEntity
  8
0
100
AcDbLine
 62
2
  6
CONTINUOUS
 10
0.0
 20
0.0
 11
0.0
 21
-2.594
  0
LINE
  5
252
100
AcDbEntity
  8
0
100
AcDbLine
 62
2
  6
CONTINUOUS
 10
0.0
 20
-0.344
 11
9.055
 21
-0.344
  0
LINE
  5
253
100
AcDbEntity
  8
0
100
AcDbLine
 62
2
  6
CONTINUOUS
 10
0.0
 20
-0.594
 11
9.055
 21
-0.594
  0
LINE
  5
254
100
AcDbEntity
  8
0
100
AcDbLine
 62
2
  6
CONTINUOUS
 10
0.0
 20
-0.844
 11
9.055
 21
-0.844
  0
LINE
  5
255
100
AcDbEntity
  8
0
100
AcDbLine
 62
2
  6
CONTINUOUS
 10
0.0
 20
-1.094
 11
9.055
 21
-1.094
  0
LINE
  5
256
100
AcDbEntity
  8
0
100
AcDbLine
 62
2
  6
CONTINUOUS
 10
0.0
 20
-1.344
 11
9.055
 21
-1.344
  0
LINE
  5
257
100
AcDbEntity
  8
0
100
AcDbLine
 62
2
  6
CONTINUOUS
 10
0.0
 20
-1.594
 11
9.055
 21
-1.594
  0
LINE
  5
258
100
AcDbEntity
  8
0
100
AcDbLine
 62
2
  6
CONTINUOUS
 10
0.0
 20
-1.844
 11
9.055
 21
-1.844
  0
LINE
  5
259
100
AcDbEntity
  8
0
100
AcDbLine
 62
2
  6
CONTINUOUS
 10
0.0
 20
-2.094
 11
9.055
 21
-2.094
  0
LINE
  5
25A
100
AcDbEntity
  8
0
100
AcDbLine
 62
2
  6
CONTINUOUS
 10
0.0
 20
-2.344
 11
9.055
 21
-2.344
  0
LINE
  5
25B
100
AcDbEntity
  8
0
100
AcDbLine
 62
2
  6
CONTINUOUS
 10
0.0
 20
-2.594
 11
9.055
 21
-2.594
  0
LINE
  5
25C
100
AcDbEntity
  8
0
100
AcDbLine
 62
2
  6
CONTINUOUS
 10
3.055
 20
0.0
 11
3.055
 21
-2.594
  0
LINE
  5
25D
100
AcDbEntity
  8
0
100
AcDbLine
 62
2
  6
CONTINUOUS
 10
9.055
 20
0.0
 11
9.055
 21
-2.594
  0
MTEXT
  5
25E
100
AcDbEntity
  8
0
100
AcDbMText
 62
2
  6
CONTINUOUS
  7
STANDARD
 71
2
 72
1
 10
1.5275
 20
-0.0995
 30
0.0
 11
1.0
 21
0.0
 31
0.0
 44
0.9
  1
Technical Data
 40
0.145
 41
3.248
  0
MTEXT
  5
25F
100
AcDbEntity
  8
0
100
AcDbMText
 62
2
  6
CONTINUOUS
  7
STANDARD
 71
2
 72
1
 10
4.555
 20
-0.0995
 30
0.0
 11
1.0
 21
0.0
 31
0.0
 44
0.9
  1
U.S. Units
 40
0.145
 41
2.32
  0
MTEXT
  5
260
100
AcDbEntity
  8
0
100
AcDbMText
 62
2
  6
CONTINUOUS
  7
STANDARD
 71
2
 72
1
 10
7.555
 20
-0.0995
 30
0.0
 11
1.0
 21
0.0
 31
0.0
 44
0.9
  1
Metric Units
 40
0.145
 41
2.784
  0
MTEXT
  5
261
100
AcDbEntity
  8
0
100
AcDbMText
 62
2
  6
CONTINUOUS
  7
STANDARD
 71
2
 72
1
 10
1.5275
 20
-0.4065
 30
0.0
 11
1.0
 21
0.0
 31
0.0
 44
0.9
  1
Cavity
 40
0.125
 41
1.2
  0
MTEXT
  5
262
100
AcDbEntity
  8
0
100
AcDbMText
 62
2
  6
CONTINUOUS
  7
STANDARD
 71
2
 72
1
 10
6.055
 20
-0.4065
 30
0.0
 11
1.0
 21
0.0
 31
0.0
 44
0.9
  1
T-2A
 40
0.125
 41
0.8
  0
MTEXT
  5
263
100
AcDbEntity
  8
0
100
AcDbMText
 62
2
  6
CONTINUOUS
  7
STANDARD
 71
2
 72
1
 10
1.5275
 20
-0.6565
 30
0.0
 11
1.0
 21
0.0
 31
0.0
 44
0.9
  1
Body Features
 40
0.125
 41
2.6
  0
MTEXT
  5
264
100
AcDbEntity
  8
0
100
AcDbMText
 62
2
  6
CONTINUOUS
  7
STANDARD
 71
2
 72
1
 10
6.055
 20
-0.6565
 30
0.0
 11
1.0
 21
0.0
 31
0.0
 44
0.9
  1
Ninety degree with reverse flow check - sequence
 40
0.125
 41
9.6
  0
MTEXT
  5
265
100
AcDbEntity
  8
0
100
AcDbMText
 62
2
  6
CONTINUOUS
  7
STANDARD
 71
2
 72
1
 10
1.5275
 20
-0.9065
 30
0.0
 11
1.0
 21
0.0
 31
0.0
 44
0.9
  1
Body Type
 40
0.125
 41
1.8
  0
MTEXT
  5
266
100
AcDbEntity
  8
0
100
AcDbMText
 62
2
  6
CONTINUOUS
  7
STANDARD
 71
2
 72
1
 10
6.055
 20
-0.9065
 30
0.0
 11
1.0
 21
0.0
 31
0.0
 44
0.9
  1
Line mount
 40
0.125
 41
2.0
  0
MTEXT
  5
267
100
AcDbEntity
  8
0
100
AcDbMText
 62
2
  6
CONTINUOUS
  7
STANDARD
 71
2
 72
1
 10
1.5275
 20
-1.1565
 30
0.0
 11
1.0
 21
0.0
 31
0.0
 44
0.9
  1
Interface
 40
0.125
 41
1.8
  0
MTEXT
  5
268
100
AcDbEntity
  8
0
100
AcDbMText
 62
2
  6
CONTINUOUS
  7
STANDARD
 71
2
 72
1
 10
6.055
 20
-1.1565
 30
0.0
 11
1.0
 21
0.0
 31
0.0
 44
0.9
  1
None
 40
0.125
 41
0.8
  0
MTEXT
  5
269
100
AcDbEntity
  8
0
100
AcDbMText
 62
2
  6
CONTINUOUS
  7
STANDARD
 71
2
 72
1
 10
1.5275
 20
-1.4065
 30
0.0
 11
1.0
 21
0.0
 31
0.0
 44
0.9
  1
Open Cavity Quantity
 40
0.125
 41
4.0
  0
MTEXT
  5
26A
100
AcDbEntity
  8
0
100
AcDbMText
 62
2
  6
CONTINUOUS
  7
STANDARD
 71
2
 72
1
 10
6.055
 20
-1.4065
 30
0.0
 11
1.0
 21
0.0
 31
0.0
 44
0.9
  1
1
 40
0.125
 41
0.2
  0
MTEXT
  5
26B
100
AcDbEntity
  8
0
100
AcDbMText
 62
2
  6
CONTINUOUS
  7
STANDARD
 71
2
 72
1
 10
1.5275
 20
-1.6565
 30
0.0
 11
1.0
 21
0.0
 31
0.0
 44
0.9
  1
Weight
 40
0.125
 41
1.2
  0
MTEXT
  5
26C
100
AcDbEntity
  8
0
100
AcDbMText
 62
2
  6
CONTINUOUS
  7
STANDARD
 71
2
 72
1
 10
4.555
 20
-1.6565
 30
0.0
 11
1.0
 21
0.0
 31
0.0
 44
0.9
  1
1.655 lb.
 40
0.125
 41
1.8
  0
MTEXT
  5
26D
100
AcDbEntity
  8
0
100
AcDbMText
 62
2
  6
CONTINUOUS
  7
STANDARD
 71
2
 72
1
 10
7.555
 20
-1.6565
 30
0.0
 11
1.0
 21
0.0
 31
0.0
 44
0.9
  1
0,750 kg.
 40
0.125
 41
1.8
  0
MTEXT
  5
26E
100
AcDbEntity
  8
0
100
AcDbMText
 62
2
  6
CONTINUOUS
  7
STANDARD
 71
2
 72
1
 10
1.5275
 20
-1.9065
 30
0.0
 11
1.0
 21
0.0
 31
0.0
 44
0.9
  1
Mounting Hole Diameter
 40
0.125
 41
4.4
  0
MTEXT
  5
26F
100
AcDbEntity
  8
0
100
AcDbMText
 62
2
  6
CONTINUOUS
  7
STANDARD
 71
2
 72
1
 10
4.555
 20
-1.9065
 30
0.0
 11
1.0
 21
0.0
 31
0.0
 44
0.9
  1
.28 in.
 40
0.125
 41
1.4
  0
MTEXT
  5
270
100
AcDbEntity
  8
0
100
AcDbMText
 62
2
  6
CONTINUOUS
  7
STANDARD
 71
2
 72
1
 10
7.555
 20
-1.9065
 30
0.0
 11
1.0
 21
0.0
 31
0.0
 44
0.9
  1
7,1 mm
 40
0.125
 41
1.2
  0
MTEXT
  5
271
100
AcDbEntity
  8
0
100
AcDbMText
 62
2
  6
CONTINUOUS
  7
STANDARD
 71
2
 72
1
 10
1.5275
 20
-2.1565
 30
0.0
 11
1.0
 21
0.0
 31
0.0
 44
0.9
  1
Mounting Hole Depth
 40
0.125
 41
3.8
  0
MTEXT
  5
272
100
AcDbEntity
  8
0
100
AcDbMText
 62
2
  6
CONTINUOUS
  7
STANDARD
 71
2
 72
1
 10
6.055
 20
-2.1565
 30
0.0
 11
1.0
 21
0.0
 31
0.0
 44
0.9
  1
Through
 40
0.125
 41
1.4
  0
MTEXT
  5
273
100
AcDbEntity
  8
0
100
AcDbMText
 62
2
  6
CONTINUOUS
  7
STANDARD
 71
2
 72
1
 10
1.5275
 20
-2.4065
 30
0.0
 11
1.0
 21
0.0
 31
0.0
 44
0.9
  1
Mounting Hole Quantity
 40
0.125
 41
4.4
  0
MTEXT
  5
274
100
AcDbEntity
  8
0
100
AcDbMText
 62
2
  6
CONTINUOUS
  7
STANDARD
 71
2
 72
1
 10
6.055
 20
-2.4065
 30
0.0
 11
1.0
 21
0.0
 31
0.0
 44
0.9
  1
2
 40
0.125
 41
0.2
  0
ENDBLK
  5
275
100
AcDbEntity
  8
0
  6
BYBLOCK
 62
0
100
AcDbBlockEnd
  0
BLOCK
  5
276
100
AcDbEntity
  8
0
100
AcDbBlockBegin
  2
*T3
 70
1
 10
0.0
 20
0.0
  3
*T3
  1

  0
LINE
  5
277
100
AcDbEntity
  8
0
100
AcDbLine
 62
2
  6
CONTINUOUS
 10
0.0
 20
0.0
 11
4.6
 21
0.0
  0
LINE
  5
278
100
AcDbEntity
  8
0
100
AcDbLine
 62
2
  6
CONTINUOUS
 10
0.0
 20
0.0
 11
0.0
 21
-1.43775
  0
LINE
  5
279
100
AcDbEntity
  8
0
100
AcDbLine
 62
2
  6
CONTINUOUS
 10
0.0
 20
-0.34375
 11
4.6
 21
-0.34375
  0
LINE
  5
27A
100
AcDbEntity
  8
0
100
AcDbLine
 62
2
  6
CONTINUOUS
 10
0.0
 20
-0.68775
 11
4.6
 21
-0.68775
  0
LINE
  5
27B
100
AcDbEntity
  8
0
100
AcDbLine
 62
2
  6
CONTINUOUS
 10
0.0
 20
-0.93775
 11
4.6
 21
-0.93775
  0
LINE
  5
27C
100
AcDbEntity
  8
0
100
AcDbLine
 62
2
  6
CONTINUOUS
 10
0.0
 20
-1.18775
 11
4.6
 21
-1.18775
  0
LINE
  5
27D
100
AcDbEntity
  8
0
100
AcDbLine
 62
2
  6
CONTINUOUS
 10
0.0
 20
-1.43775
 11
4.6
 21
-1.43775
  0
LINE
  5
27E
100
AcDbEntity
  8
0
100
AcDbLine
 62
2
  6
CONTINUOUS
 10
1.3
 20
-0.34375
 11
1.3
 21
-1.43775
  0
LINE
  5
27F
100
AcDbEntity
  8
0
100
AcDbLine
 62
2
  6
CONTINUOUS
 10
3.3
 20
-0.34375
 11
3.3
 21
-1.43775
  0
LINE
  5
280
100
AcDbEntity
  8
0
100
AcDbLine
 62
2
  6
CONTINUOUS
 10
4.6
 20
0.0
 11
4.6
 21
-1.43775
  0
MTEXT
  5
281
100
AcDbEntity
  8
0
100
AcDbMText
 62
2
  6
CONTINUOUS
  7
STANDARD
 71
2
 72
1
 10
2.3
 20
-0.099375
 30
0.0
 11
1.0
 21
0.0
 31
0.0
 44
0.9
  1
Port Headings
 40
0.145
 41
3.016
  0
MTEXT
  5
282
100
AcDbEntity
  8
0
100
AcDbMText
 62
2
  6
CONTINUOUS
  7
STANDARD
 71
2
 72
1
 10
0.65
 20
-0.44325
 30
0.0
 11
1.0
 21
0.0
 31
0.0
 44
0.9
  1
Product
 40
0.145
 41
1.624
  0
MTEXT
  5
283
100
AcDbEntity
  8
0
100
AcDbMText
 62
2
  6
CONTINUOUS
  7
STANDARD
 71
2
 72
1
 10
2.3
 20
-0.44325
 30
0.0
 11
1.0
 21
0.0
 31
0.0
 44
0.9
  1
Port
 40
0.145
 41
0.928
  0
MTEXT
  5
284
100
AcDbEntity
  8
0
100
AcDbMText
 62
2
  6
CONTINUOUS
  7
STANDARD
 71
2
 72
1
 10
3.95
 20
-0.44325
 30
0.0
 11
1.0
 21
0.0
 31
0.0
 44
0.9
  1
Size
 40
0.145
 41
0.928
  0
MTEXT
  5
285
100
AcDbEntity
  8
0
100
AcDbMText
 62
2
  6
CONTINUOUS
  7
STANDARD
 71
2
 72
1
 10
0.65
 20
-0.75025
 30
0.0
 11
1.0
 21
0.0
 31
0.0
 44
0.9
  1
B6K
 40
0.125
 41
0.6
  0
MTEXT
  5
286
100
AcDbEntity
  8
0
100
AcDbMText
 62
2
  6
CONTINUOUS
  7
STANDARD
 71
2
 72
1
 10
2.3
 20
-0.75025
 30
0.0
 11
1.0
 21
0.0
 31
0.0
 44
0.9
  1
Ports 1 &  2
 40
0.125
 41
2.4
  0
MTEXT
  5
287
100
AcDbEntity
  8
0
100
AcDbMText
 62
2
  6
CONTINUOUS
  7
STANDARD
 71
2
 72
1
 10
3.95
 20
-0.75025
 30
0.0
 11
1.0
 21
0.0
 31
0.0
 44
0.9
  1
SAE 10
 40
0.125
 41
1.2
  0
MTEXT
  5
288
100
AcDbEntity
  8
0
100
AcDbMText
 62
2
  6
CONTINUOUS
  7
STANDARD
 71
2
 72
1
 10
0.65
 20
-1.00025
 30
0.0
 11
1.0
 21
0.0
 31
0.0
 44
0.9
  1
B6K
 40
0.125
 41
0.6
  0
MTEXT
  5
289
100
AcDbEntity
  8
0
100
AcDbMText
 62
2
  6
CONTINUOUS
  7
STANDARD
 71
2
 72
1
 10
2.3
 20
-1.00025
 30
0.0
 11
1.0
 21
0.0
 31
0.0
 44
0.9
  1
Port 3
 40
0.125
 41
1.2
  0
MTEXT
  5
28A
100
AcDbEntity
  8
0
100
AcDbMText
 62
2
  6
CONTINUOUS
  7
STANDARD
 71
2
 72
1
 10
3.95
 20
-1.00025
 30
0.0
 11
1.0
 21
0.0
 31
0.0
 44
0.9
  1
SAE 6
 40
0.125
 41
1.0
  0
MTEXT
  5
28B
100
AcDbEntity
  8
0
100
AcDbMText
 62
2
  6
CONTINUOUS
  7
STANDARD
 71
2
 72
1
 10
0.65
 20
-1.25025
 30
0.0
 11
1.0
 21
0.0
 31
0.0
 44
0.9
  1
B6K
 40
0.125
 41
0.6
  0
MTEXT
  5
28C
100
AcDbEntity
  8
0
100
AcDbMText
 62
2
  6
CONTINUOUS
  7
STANDARD
 71
2
 72
1
 10
2.3
 20
-1.25025
 30
0.0
 11
1.0
 21
0.0
 31
0.0
 44
0.9
  1
Gage Port
 40
0.125
 41
1.8
  0
MTEXT
  5
28D
100
AcDbEntity
  8
0
100
AcDbMText
 62
2
  6
CONTINUOUS
  7
STANDARD
 71
2
 72
1
 10
3.95
 20
-1.25025
 30
0.0
 11
1.0
 21
0.0
 31
0.0
 44
0.9
  1
1/4" NPTF
 40
0.125
 41
1.8
  0
ENDBLK
  5
28E
100
AcDbEntity
  8
0
  6
BYBLOCK
 62
0
100
AcDbBlockEnd
  0
ENDSEC
  0
SECTION
  2
ENTITIES
  0
IMAGE
  5
28F
100
AcDbEntity
  8
0
100
AcDbRasterImage
 62
7
  6
CONTINUOUS
 10
19.2297077316
 20
0.3094318264
 30
0.0
 11
0.0066666667
 21
0.0
 31
0.0
 12
0.0
 22
0.0066666667
 32
0.0
 13
369.0
 23
92.0
340
       3A8
 70
9
280
0
281
50
282
50
283
0
360
       3A2
 71
1
 91
2
 14
-0.5
 24
-0.5
 14
368.5
 24
91.5
  0
INSERT
  5
290
100
AcDbEntity
  8
0
100
AcDbBlockReference
 62
2
  6
CONTINUOUS
  2
SUN_FIRST_THIRD_ANGLE_BL0
 10
20.4816717061
 20
1.2289683772
  0
ACAD_TABLE
  5
291
100
AcDbEntity
  8
0
 62
2
  6
CONTINUOUS
100
AcDbBlockReference
  2
*T1
 10
12.42375
 20
0.30125
 30
0.0
100
AcDbTable
342
       3AA
343
20F
 11
1.0
 21
0.0
 31
0.0
 90
6
 91
4
 92
6
 93
20
 94
0
 95
0
 96
0
 70
1
 41
0.0
141
0.525
141
0.1
141
0.525
141
0.1
142
4.1
142
1.1
142
0.7
142
0.5
142
0.4
142
2.475
171
1
172
0
173
0
174
0
175
1
176
1
 91
33
178
0
145
0.0
301
CELL_VALUE
 90
4
  1
T-2A Line mount\P(See Technical Data for Body Features)
304
ACVALUE_END
170
2
140
0.125
171
1
172
0
173
0
174
0
175
1
176
1
 91
33
178
0
145
0.0
301
CELL_VALUE
 90
4
  1
Oct-03-22
304
ACVALUE_END
170
5
140
0.125
171
1
172
0
173
0
174
0
175
1
176
1
 91
33
178
0
145
0.0
301
CELL_VALUE
 90
4
  1
1.000
304
ACVALUE_END
170
5
140
0.125
171
1
172
0
173
0
174
0
175
1
176
1
 91
33
178
0
145
0.0
301
CELL_VALUE
 90
4
  1
C
304
ACVALUE_END
170
5
140
0.125
171
1
172
0
173
0
174
0
175
1
176
1
 91
33
178
0
145
0.0
301
CELL_VALUE
 90
4
  1
2
304
ACVALUE_END
170
5
140
0.125
171
1
172
0
173
0
174
0
175
1
176
1
 91
33
178
0
145
0.0
301
CELL_VALUE
 90
4
  1
 
304
ACVALUE_END
170
1
140
0.125
171
1
172
0
173
0
174
0
175
1
176
1
 91
33
178
0
145
0.0
301
CELL_VALUE
 90
4
  1
DESCRIPTION
304
ACVALUE_END
170
1
140
0.06
171
1
172
0
173
0
174
0
175
1
176
1
 91
33
178
0
145
0.0
301
CELL_VALUE
 90
4
  1
DATE
304
ACVALUE_END
170
1
140
0.06
171
1
172
0
173
0
174
0
175
1
176
1
 91
33
178
0
145
0.0
301
CELL_VALUE
 90
4
  1
SCALE
304
ACVALUE_END
170
1
140
0.06
171
1
172
0
173
0
174
0
175
1
176
1
 91
33
178
0
145
0.0
301
CELL_VALUE
 90
4
  1
DWG SIZE
304
ACVALUE_END
170
1
140
0.06
171
1
172
0
173
0
174
0
175
1
176
1
 91
33
178
0
145
0.0
301
CELL_VALUE
 90
4
  1
SHEET
304
ACVALUE_END
170
1
140
0.06
171
1
172
0
173
0
174
0
175
1
176
1
 91
33
178
0
145
0.0
301
CELL_VALUE
 90
4
  1
 
304
ACVALUE_END
170
1
140
0.125
171
1
172
0
173
0
174
0
175
1
176
1
 91
33
178
0
145
0.0
301
CELL_VALUE
 90
4
  1
B6K
304
ACVALUE_END
170
5
140
0.125
171
1
172
0
173
0
174
0
175
4
176
1
 91
33
178
0
145
0.0
301
CELL_VALUE
 90
4
  1
ALL DIMENSIONS IN INCH\PVIEWS ARE THIRD ANGLE
304
ACVALUE_END
170
5
140
0.12
171
1
172
0
173
1
174
0
175
1
176
1
 91
1
178
0
145
0.0
170
1
171
1
172
0
173
1
174
0
175
1
176
1
 91
1
178
0
145
0.0
170
1
171
1
172
0
173
1
174
0
175
1
176
1
 91
1
178
0
145
0.0
170
5
171
1
172
0
173
0
174
0
175
1
176
1
 91
33
178
0
145
0.0
301
CELL_VALUE
 90
4
  1
 
304
ACVALUE_END
170
1
140
0.125
171
1
172
0
173
0
174
0
175
1
176
1
 91
33
178
0
145
0.0
301
CELL_VALUE
 90
4
  1
MODEL
304
ACVALUE_END
170
1
140
0.06
171
1
172
0
173
0
174
0
175
1
176
1
 91
33
178
0
145
0.0
301
CELL_VALUE
 90
4
  1
 
304
ACVALUE_END
170
1
140
0.125
171
1
172
0
173
0
174
0
175
1
176
1
 91
33
178
0
145
0.0
301
CELL_VALUE
 90
4
  1
 
304
ACVALUE_END
170
1
140
0.125
171
1
172
0
173
0
174
0
175
1
176
1
 91
33
178
0
145
0.0
301
CELL_VALUE
 90
4
  1
 
304
ACVALUE_END
170
1
140
0.125
171
1
172
0
173
0
174
0
175
1
176
1
 91
33
178
0
145
0.0
301
CELL_VALUE
 90
4
  1
 
304
ACVALUE_END
170
1
140
0.125
171
1
172
0
173
0
174
0
175
1
176
1
 91
33
178
0
145
0.0
301
CELL_VALUE
 90
4
  1
 
304
ACVALUE_END
170
1
140
0.125
  0
ACAD_TABLE
  5
292
100
AcDbEntity
  8
0
 62
2
  6
CONTINUOUS
100
AcDbBlockReference
  2
*T2
 10
12.4237499994
 20
16.47875
 30
0.0
100
AcDbTable
342
       3A9
343
210
 11
1.0
 21
0.0
 31
0.0
 90
22
 91
10
 92
3
 93
16
 94
0
 95
0
 96
0
 41
0.028
141
0.344
141
0.25
141
0.25
141
0.25
141
0.25
141
0.25
141
0.25
141
0.25
141
0.25
141
0.25
142
3.055
142
3.0
142
3.0
171
1
172
0
173
0
174
0
175
1
176
1
 91
33
178
0
145
0.0
301
CELL_VALUE
 90
4
  1
Technical Data
304
ACVALUE_END
170
5
140
0.145
171
1
172
0
173
0
174
0
175
1
176
1
 91
33
178
0
145
0.0
301
CELL_VALUE
 90
4
  1
U.S. Units
304
ACVALUE_END
170
5
140
0.145
171
1
172
0
173
0
174
0
175
1
176
1
 91
33
178
0
145
0.0
301
CELL_VALUE
 90
4
  1
Metric Units
304
ACVALUE_END
170
5
140
0.145
171
1
172
0
173
0
174
0
175
1
176
1
 91
33
178
0
145
0.0
301
CELL_VALUE
 90
4
  1
Cavity
304
ACVALUE_END
170
5
140
0.125
171
1
172
0
173
0
174
0
175
2
176
1
 91
33
178
0
145
0.0
301
CELL_VALUE
 90
4
  1
T-2A
304
ACVALUE_END
170
5
140
0.125
171
1
172
0
173
1
174
0
175
1
176
1
 91
1
178
0
145
0.0
170
1
171
1
172
0
173
0
174
0
175
1
176
1
 91
33
178
0
145
0.0
301
CELL_VALUE
 90
4
  1
Body Features
304
ACVALUE_END
170
5
140
0.125
171
1
172
0
173
0
174
0
175
2
176
1
 91
33
178
0
145
0.0
301
CELL_VALUE
 90
4
  1
Ninety degree with reverse flow check - sequence
304
ACVALUE_END
170
5
140
0.125
171
1
172
0
173
1
174
0
175
1
176
1
 91
1
178
0
145
0.0
170
1
171
1
172
0
173
0
174
0
175
1
176
1
 91
33
178
0
145
0.0
301
CELL_VALUE
 90
4
  1
Body Type
304
ACVALUE_END
170
5
140
0.125
171
1
172
0
173
0
174
0
175
2
176
1
 91
33
178
0
145
0.0
301
CELL_VALUE
 90
4
  1
Line mount
304
ACVALUE_END
170
5
140
0.125
171
1
172
0
173
1
174
0
175
1
176
1
 91
1
178
0
145
0.0
170
1
171
1
172
0
173
0
174
0
175
1
176
1
 91
33
178
0
145
0.0
301
CELL_VALUE
 90
4
  1
Interface
304
ACVALUE_END
170
5
140
0.125
171
1
172
0
173
0
174
0
175
2
176
1
 91
33
178
0
145
0.0
301
CELL_VALUE
 90
4
  1
None
304
ACVALUE_END
170
5
140
0.125
171
1
172
0
173
1
174
0
175
1
176
1
 91
1
178
0
145
0.0
170
1
171
1
172
0
173
0
174
0
175
1
176
1
 91
33
178
0
145
0.0
301
CELL_VALUE
 90
4
  1
Open Cavity Quantity
304
ACVALUE_END
170
5
140
0.125
171
1
172
0
173
0
174
0
175
2
176
1
 91
33
178
0
145
0.0
301
CELL_VALUE
 90
4
  1
1
304
ACVALUE_END
170
5
140
0.125
171
1
172
0
173
1
174
0
175
1
176
1
 91
1
178
0
145
0.0
170
1
171
1
172
0
173
0
174
0
175
1
176
1
 91
33
178
0
145
0.0
301
CELL_VALUE
 90
4
  1
Weight
304
ACVALUE_END
170
5
140
0.125
171
1
172
0
173
0
174
0
175
1
176
1
 91
33
178
0
145
0.0
301
CELL_VALUE
 90
4
  1
1.655 lb.
304
ACVALUE_END
170
5
140
0.125
171
1
172
0
173
0
174
0
175
1
176
1
 91
33
178
0
145
0.0
301
CELL_VALUE
 90
4
  1
0,750 kg.
304
ACVALUE_END
170
5
140
0.125
171
1
172
0
173
0
174
0
175
1
176
1
 91
33
178
0
145
0.0
301
CELL_VALUE
 90
4
  1
Mounting Hole Diameter
304
ACVALUE_END
170
5
140
0.125
171
1
172
0
173
0
174
0
175
1
176
1
 91
33
178
0
145
0.0
301
CELL_VALUE
 90
4
  1
.28 in.
304
ACVALUE_END
170
5
140
0.125
171
1
172
0
173
0
174
0
175
1
176
1
 91
33
178
0
145
0.0
301
CELL_VALUE
 90
4
  1
7,1 mm
304
ACVALUE_END
170
5
140
0.125
171
1
172
0
173
0
174
0
175
1
176
1
 91
33
178
0
145
0.0
301
CELL_VALUE
 90
4
  1
Mounting Hole Depth
304
ACVALUE_END
170
5
140
0.125
171
1
172
0
173
0
174
0
175
2
176
1
 91
33
178
0
145
0.0
301
CELL_VALUE
 90
4
  1
Through
304
ACVALUE_END
170
5
140
0.125
171
1
172
0
173
1
174
0
175
1
176
1
 91
1
178
0
145
0.0
170
1
171
1
172
0
173
0
174
0
175
1
176
1
 91
33
178
0
145
0.0
301
CELL_VALUE
 90
4
  1
Mounting Hole Quantity
304
ACVALUE_END
170
5
140
0.125
171
1
172
0
173
0
174
0
175
2
176
1
 91
33
178
0
145
0.0
301
CELL_VALUE
 90
4
  1
2
304
ACVALUE_END
170
5
140
0.125
171
1
172
0
173
1
174
0
175
1
176
1
 91
1
178
0
145
0.0
170
1
  0
ACAD_TABLE
  5
293
100
AcDbEntity
  8
0
 62
2
  6
CONTINUOUS
100
AcDbBlockReference
  2
*T3
 10
0.52125
 20
1.959
 30
0.0
100
AcDbTable
342
       3A9
343
211
 11
1.0
 21
0.0
 31
0.0
 90
22
 91
5
 92
3
 93
16
 94
0
 95
0
 96
0
 41
0.05
141
0.34375
141
0.344
141
0.25
141
0.25
141
0.25
142
1.3
142
2.0
142
1.3
171
1
172
0
173
0
174
0
175
3
176
1
 91
33
178
0
145
0.0
301
CELL_VALUE
 90
4
  1
Port Headings
304
ACVALUE_END
170
5
140
0.145
171
1
172
0
173
1
174
0
175
1
176
1
 91
1
178
0
145
0.0
170
1
171
1
172
0
173
1
174
0
175
1
176
1
 91
1
178
0
145
0.0
170
1
171
1
172
0
173
0
174
0
175
1
176
1
 91
33
178
0
145
0.0
301
CELL_VALUE
 90
4
  1
Product
304
ACVALUE_END
170
5
140
0.145
171
1
172
0
173
0
174
0
175
1
176
1
 91
33
178
0
145
0.0
301
CELL_VALUE
 90
4
  1
Port
304
ACVALUE_END
170
5
140
0.145
171
1
172
0
173
0
174
0
175
1
176
1
 91
33
178
0
145
0.0
301
CELL_VALUE
 90
4
  1
Size
304
ACVALUE_END
170
5
140
0.145
171
1
172
0
173
0
174
0
175
1
176
1
 91
33
178
0
145
0.0
301
CELL_VALUE
 90
4
  1
B6K
304
ACVALUE_END
170
5
140
0.125
171
1
172
0
173
0
174
0
175
1
176
1
 91
33
178
0
145
0.0
301
CELL_VALUE
 90
4
  1
Ports 1 &  2
304
ACVALUE_END
170
5
140
0.125
171
1
172
0
173
0
174
0
175
1
176
1
 91
33
178
0
145
0.0
301
CELL_VALUE
 90
4
  1
SAE 10
304
ACVALUE_END
170
5
140
0.125
171
1
172
0
173
0
174
0
175
1
176
1
 91
33
178
0
145
0.0
301
CELL_VALUE
 90
4
  1
B6K
304
ACVALUE_END
170
5
140
0.125
171
1
172
0
173
0
174
0
175
1
176
1
 91
33
178
0
145
0.0
301
CELL_VALUE
 90
4
  1
Port 3
304
ACVALUE_END
170
5
140
0.125
171
1
172
0
173
0
174
0
175
1
176
1
 91
33
178
0
145
0.0
301
CELL_VALUE
 90
4
  1
SAE 6
304
ACVALUE_END
170
5
140
0.125
171
1
172
0
173
0
174
0
175
1
176
1
 91
33
178
0
145
0.0
301
CELL_VALUE
 90
4
  1
B6K
304
ACVALUE_END
170
5
140
0.125
171
1
172
0
173
0
174
0
175
1
176
1
 91
33
178
0
145
0.0
301
CELL_VALUE
 90
4
  1
Gage Port
304
ACVALUE_END
170
5
140
0.125
171
1
172
0
173
0
174
0
175
1
176
1
 91
33
178
0
145
0.0
301
CELL_VALUE
 90
4
  1
1/4" NPTF
304
ACVALUE_END
170
5
140
0.125
  0
MTEXT
  5
294
100
AcDbEntity
  8
0
100
AcDbMText
 62
2
  6
CONTINUOUS
  7
STANDARD
 71
1
 72
1
 10
0.52125
 20
5.75995
 30
0.0
 11
1.0
 21
0.0
 31
0.0
 44
0.6
  3
Notes\P \P1. Important: Carefully consider\P   the maximum system pressure. The\P   pressure rating of the manifold is\P   dependent on the manifold material,\P   with the port type/size a secondary\P   consideration. Manifolds\P   constructed of alu
  1
minum are not\P   rated for pressures higher than\P   3000 psi (210 bar), regardless of\P   the port type/size specified.
 40
0.1
 41
3.04
  0
LINE
  5
295
100
AcDbEntity
  8
0
100
AcDbLine
 62
7
  6
CONTINUOUS
 10
0.30125
 20
0.30125
 11
0.30125
 21
16.69875
  0
LINE
  5
296
100
AcDbEntity
  8
0
100
AcDbLine
 62
7
  6
CONTINUOUS
 10
0.30125
 20
0.30125
 11
21.69875
 21
0.30125
  0
LINE
  5
297
100
AcDbEntity
  8
0
100
AcDbLine
 62
7
  6
CONTINUOUS
 10
0.30125
 20
16.69875
 11
21.69875
 21
16.69875
  0
LINE
  5
298
100
AcDbEntity
  8
0
100
AcDbLine
 62
7
  6
CONTINUOUS
 10
21.69875
 20
0.30125
 11
21.69875
 21
16.69875
  0
LINE
  5
299
100
AcDbEntity
  8
0
100
AcDbLine
 62
7
  6
CONTINUOUS
 10
9.7452252983
 20
10.9883808495
 11
9.3569970511
 21
10.6133811368
  0
LINE
  5
29A
100
AcDbEntity
  8
0
100
AcDbLine
 62
7
  6
CONTINUOUS
 10
10.9606797533
 20
6.1035536604
 11
10.9913538314
 21
6.0884012532
  0
LINE
  5
29B
100
AcDbEntity
  8
0
100
AcDbLine
 62
7
  6
CONTINUOUS
 10
9.3569970511
 20
6.7496776027
 11
12.2547747017
 21
6.5487160401
  0
LINE
  5
29C
100
AcDbEntity
  8
0
100
AcDbLine
 62
7
  6
CONTINUOUS
 10
9.3569970511
 20
6.7496776027
 11
9.3569970511
 21
10.6133811368
  0
LINE
  5
29D
100
AcDbEntity
  8
0
100
AcDbLine
 62
4
  6
CONTINUOUS
 10
9.5115451926
 20
7.8207966396
 11
9.5115451926
 21
7.7048855362
  0
LINE
  5
29E
100
AcDbEntity
  8
0
100
AcDbLine
 62
4
  6
CONTINUOUS
 10
12.1238917783
 20
7.3401927696
 11
12.1094028904
 21
7.3411975774
  0
LINE
  5
29F
100
AcDbEntity
  8
0
100
AcDbLine
 62
4
  6
CONTINUOUS
 10
12.1166473343
 20
7.3986507252
 11
12.1456251102
 21
7.3966411096
  0
LINE
  5
2A0
100
AcDbEntity
  8
0
100
AcDbLine
 62
4
  6
CONTINUOUS
 10
10.2635875112
 20
8.9015354023
 11
10.280146241
 21
8.9169457786
  0
LINE
  5
2A1
100
AcDbEntity
  8
0
100
AcDbLine
 62
4
  6
CONTINUOUS
 10
12.0804251145
 20
10.1057551622
 11
12.0949140025
 21
10.1144096107
  0
LINE
  5
2A2
100
AcDbEntity
  8
0
100
AcDbLine
 62
4
  6
CONTINUOUS
 10
12.1238917783
 20
10.0737629629
 11
12.1094028904
 21
10.0651085075
  0
LINE
  5
2A3
100
AcDbEntity
  8
0
100
AcDbLine
 62
4
  6
CONTINUOUS
 10
12.1094028904
 20
7.4571086808
 11
12.1238917783
 21
7.456103873
  0
LINE
  5
2A4
100
AcDbEntity
  8
0
100
AcDbLine
 62
4
  6
CONTINUOUS
 10
10.2635875112
 20
8.8849766742
 11
10.2635875112
 21
8.9015354023
  0
LINE
  5
2A5
100
AcDbEntity
  8
0
100
AcDbLine
 62
4
  6
CONTINUOUS
 10
10.3215430629
 20
8.8147225256
 11
10.3215430629
 21
8.8312812554
  0
LINE
  5
2A6
100
AcDbEntity
  8
0
100
AcDbLine
 62
4
  6
CONTINUOUS
 10
10.354660519
 20
8.9117781958
 11
10.354660519
 21
8.8124258222
  0
LINE
  5
2A7
100
AcDbEntity
  8
0
100
AcDbLine
 62
4
  6
CONTINUOUS
 10
10.3905377795
 20
8.2022323684
 11
10.3905377795
 21
8.3181434719
  0
LINE
  5
2A8
100
AcDbEntity
  8
0
100
AcDbLine
 62
4
  6
CONTINUOUS
 10
10.4126160707
 20
8.808406591
 11
10.4126160707
 21
8.9077589647
  0
LINE
  5
2A9
100
AcDbEntity
  8
0
100
AcDbLine
 62
4
  6
CONTINUOUS
 10
10.3049843348
 20
8.7993121475
 11
10.3215430629
 21
8.8147225256
  0
LINE
  5
2AA
100
AcDbEntity
  8
0
100
AcDbLine
 62
4
  6
CONTINUOUS
 10
10.3960573496
 20
8.7929962124
 11
10.4126160707
 21
8.808406591
  0
LINE
  5
2AB
100
AcDbEntity
  8
0
100
AcDbLine
 62
4
  6
CONTINUOUS
 10
12.1238917783
 20
10.0061481506
 11
12.1094028904
 21
9.9974936995
  0
LINE
  5
2AC
100
AcDbEntity
  8
0
100
AcDbLine
 62
4
  6
CONTINUOUS
 10
10.4457335269
 20
8.7895511579
 11
10.4457335269
 21
8.9054622613
  0
LINE
  5
2AD
100
AcDbEntity
  8
0
100
AcDbLine
 62
4
  6
CONTINUOUS
 10
10.4484933243
 20
8.2975655131
 11
10.4484933243
 21
8.2147718675
  0
LINE
  5
2AE
100
AcDbEntity
  8
0
100
AcDbLine
 62
4
  6
CONTINUOUS
 10
10.5036890786
 20
8.7855319267
 11
10.5036890786
 21
8.9014430301
  0
LINE
  5
2AF
100
AcDbEntity
  8
0
100
AcDbLine
 62
4
  6
CONTINUOUS
 10
10.6278795624
 20
8.1857726599
 11
10.6278795624
 21
8.3016837633
  0
LINE
  5
2B0
100
AcDbEntity
  8
0
100
AcDbLine
 62
4
  6
CONTINUOUS
 10
10.6278795426
 20
8.7769192888
 11
10.6278795426
 21
8.8928303922
  0
LINE
  5
2B1
100
AcDbEntity
  8
0
100
AcDbLine
 62
4
  6
CONTINUOUS
 10
10.495409724
 20
8.1949594744
 11
10.5285271801
 21
8.3085738744
  0
LINE
  5
2B2
100
AcDbEntity
  8
0
100
AcDbLine
 62
7
  6
CONTINUOUS
 10
12.475980047
 20
10.6580875436
 11
12.3599783456
 21
10.5460384976
  0
LINE
  5
2B3
100
AcDbEntity
  8
0
100
AcDbLine
 62
7
  6
CONTINUOUS
 10
12.2547747017
 20
10.4124195742
 11
12.3908879746
 21
10.5438949075
  0
LINE
  5
2B4
100
AcDbEntity
  8
0
100
AcDbLine
 62
7
  6
CONTINUOUS
 10
12.506889676
 20
10.6559439535
 11
12.6430029489
 21
10.7874192869
  0
LINE
  5
2B5
100
AcDbEntity
  8
0
100
AcDbLine
 62
4
  6
CONTINUOUS
 10
10.782427699
 20
8.8407156175
 11
10.7989864201
 21
8.8478466338
  0
LINE
  5
2B6
100
AcDbEntity
  8
0
100
AcDbLine
 62
4
  6
CONTINUOUS
 10
10.3243028603
 20
8.2565019634
 11
10.368459472
 21
8.2313613861
  0
LINE
  5
2B7
100
AcDbEntity
  8
0
100
AcDbLine
 62
4
  6
CONTINUOUS
 10
10.4319345963
 20
8.3152725929
 11
10.4484933243
 21
8.2975655131
  0
LINE
  5
2B8
100
AcDbEntity
  8
0
100
AcDbLine
 62
4
  6
CONTINUOUS
 10
10.5285271801
 20
8.3085738744
 11
10.5616446501
 21
8.1903660667
  0
LINE
  5
2B9
100
AcDbEntity
  8
0
100
AcDbLine
 62
4
  6
CONTINUOUS
 10
10.6775557338
 20
8.847988513
 11
10.6775557338
 21
8.7734742332
  0
LINE
  5
2BA
100
AcDbEntity
  8
0
100
AcDbLine
 62
4
  6
CONTINUOUS
 10
10.6858351038
 20
8.436757857
 11
10.6858351038
 21
8.5526689604
  0
LINE
  5
2BB
100
AcDbEntity
  8
0
100
AcDbLine
 62
4
  6
CONTINUOUS
 10
10.6941144747
 20
8.1811792531
 11
10.6941144747
 21
8.2970903565
  0
LINE
  5
2BC
100
AcDbEntity
  8
0
100
AcDbLine
 62
4
  6
CONTINUOUS
 10
10.7355112915
 20
8.532665177
 11
10.7355112915
 21
8.5078270815
  0
LINE
  5
2BD
100
AcDbEntity
  8
0
100
AcDbLine
 62
4
  6
CONTINUOUS
 10
10.7437906555
 20
8.4741354495
 11
10.7437906555
 21
8.4492973556
  0
LINE
  5
2BE
100
AcDbEntity
  8
0
100
AcDbLine
 62
4
  6
CONTINUOUS
 10
10.7769081116
 20
8.4883974742
 11
10.7769081116
 21
8.4470006522
  0
LINE
  5
2BF
100
AcDbEntity
  8
0
100
AcDbLine
 62
4
  6
CONTINUOUS
 10
10.782427699
 20
8.7744807026
 11
10.782427699
 21
8.8407156175
  0
LINE
  5
2C0
100
AcDbEntity
  8
0
100
AcDbLine
 62
4
  6
CONTINUOUS
 10
10.7272319249
 20
8.7424312958
 11
10.7603493672
 21
8.8505261225
  0
LINE
  5
2C1
100
AcDbEntity
  8
0
100
AcDbLine
 62
4
  6
CONTINUOUS
 10
10.7934668397
 20
8.5203665786
 11
10.7769081116
 21
8.4883974742
  0
LINE
  5
2C2
100
AcDbEntity
  8
0
100
AcDbLine
 62
4
  6
CONTINUOUS
 10
10.7355112915
 20
8.5078270815
 11
10.7189525634
 21
8.4924167051
  0
LINE
  5
2C3
100
AcDbEntity
  8
0
100
AcDbLine
 62
4
  6
CONTINUOUS
 10
10.9397356329
 20
8.788409455
 11
10.9562943541
 21
8.7955404679
  0
LINE
  5
2C4
100
AcDbEntity
  8
0
100
AcDbLine
 62
4
  6
CONTINUOUS
 10
11.0970435314
 20
8.1532360281
 11
11.0556467009
 21
8.1561069081
  0
LINE
  5
2C5
100
AcDbEntity
  8
0
100
AcDbLine
 62
4
  6
CONTINUOUS
 10
11.0059705374
 20
8.1595519617
 11
10.981132428
 21
8.1612744904
  0
LINE
  5
2C6
100
AcDbEntity
  8
0
100
AcDbLine
 62
4
  6
CONTINUOUS
 10
10.917657321
 20
8.1656765041
 11
10.8845398787
 21
8.1679732065
  0
LINE
  5
2C7
100
AcDbEntity
  8
0
100
AcDbLine
 62
4
  6
CONTINUOUS
 10
10.4319345963
 20
8.1993614894
 11
10.3905377795
 21
8.2022323684
  0
LINE
  5
2C8
100
AcDbEntity
  8
0
100
AcDbLine
 62
4
  6
CONTINUOUS
 10
10.6941144747
 20
8.1811792531
 11
10.7437906658
 21
8.1777341976
  0
LINE
  5
2C9
100
AcDbEntity
  8
0
100
AcDbLine
 62
4
  6
CONTINUOUS
 10
11.1605186937
 20
8.1488340107
 11
11.2101948572
 21
8.145388957
  0
LINE
  5
2CA
100
AcDbEntity
  8
0
100
AcDbLine
 62
4
  6
CONTINUOUS
 10
10.506448876
 20
8.2273113662
 11
10.5506054842
 21
8.224249095
  0
LINE
  5
2CB
100
AcDbEntity
  8
0
100
AcDbLine
 62
4
  6
CONTINUOUS
 10
11.1936361361
 20
8.2127722274
 11
11.1605186937
 21
8.2150689299
  0
LINE
  5
2CC
100
AcDbEntity
  8
0
100
AcDbLine
 62
4
  6
CONTINUOUS
 10
10.7272319447
 20
8.245117468
 11
10.6941144747
 21
8.2474141723
  0
LINE
  5
2CD
100
AcDbEntity
  8
0
100
AcDbLine
 62
4
  6
CONTINUOUS
 10
10.3905377795
 20
8.3181434719
 11
10.4319345963
 21
8.3152725929
  0
LINE
  5
2CE
100
AcDbEntity
  8
0
100
AcDbLine
 62
4
  6
CONTINUOUS
 10
10.5947620924
 20
8.3039804677
 11
10.6609970047
 21
8.2993870609
  0
LINE
  5
2CF
100
AcDbEntity
  8
0
100
AcDbLine
 62
4
  6
CONTINUOUS
 10
10.6941144747
 20
8.2970903565
 11
10.7437906658
 21
8.293645301
  0
LINE
  5
2D0
100
AcDbEntity
  8
0
100
AcDbLine
 62
4
  6
CONTINUOUS
 10
10.8845398787
 20
8.2838843099
 11
10.917657321
 21
8.2815876075
  0
LINE
  5
2D1
100
AcDbEntity
  8
0
100
AcDbLine
 62
4
  6
CONTINUOUS
 10
10.981132428
 20
8.2771855939
 11
11.0059705374
 21
8.2754630651
  0
LINE
  5
2D2
100
AcDbEntity
  8
0
100
AcDbLine
 62
4
  6
CONTINUOUS
 10
11.0556467009
 20
8.2720180115
 11
11.0970435314
 21
8.2691471316
  0
LINE
  5
2D3
100
AcDbEntity
  8
0
100
AcDbLine
 62
4
  6
CONTINUOUS
 10
11.1605186937
 20
8.2647451141
 11
11.2101948572
 21
8.2613000605
  0
LINE
  5
2D4
100
AcDbEntity
  8
0
100
AcDbLine
 62
4
  6
CONTINUOUS
 10
12.1094028904
 20
7.3411975774
 11
12.0949140025
 21
7.3518616441
  0
LINE
  5
2D5
100
AcDbEntity
  8
0
100
AcDbLine
 62
4
  6
CONTINUOUS
 10
12.1238917783
 20
7.456103873
 11
12.1383806662
 21
7.4454398089
  0
LINE
  5
2D6
100
AcDbEntity
  8
0
100
AcDbLine
 62
4
  6
CONTINUOUS
 10
10.3215430629
 20
8.8312812554
 11
10.2635875112
 21
8.8849766742
  0
LINE
  5
2D7
100
AcDbEntity
  8
0
100
AcDbLine
 62
4
  6
CONTINUOUS
 10
10.2635875112
 20
8.8104623918
 11
10.2718668761
 21
8.801608851
  0
LINE
  5
2D8
100
AcDbEntity
  8
0
100
AcDbLine
 62
4
  6
CONTINUOUS
 10
10.8845398787
 20
8.1679732065
 11
10.8679811575
 21
8.1856802875
  0
LINE
  5
2D9
100
AcDbEntity
  8
0
100
AcDbLine
 62
4
  6
CONTINUOUS
 10
10.354660519
 20
8.8124258222
 11
10.3712192471
 21
8.7947187407
  0
LINE
  5
2DA
100
AcDbEntity
  8
0
100
AcDbLine
 62
4
  6
CONTINUOUS
 10
10.981132428
 20
8.1612744904
 11
10.9645737068
 21
8.1789815715
  0
LINE
  5
2DB
100
AcDbEntity
  8
0
100
AcDbLine
 62
4
  6
CONTINUOUS
 10
10.3132636988
 20
8.9146490751
 11
10.3215430629
 21
8.9057955317
  0
LINE
  5
2DC
100
AcDbEntity
  8
0
100
AcDbLine
 62
4
  6
CONTINUOUS
 10
10.7272319274
 20
8.4918425292
 11
10.7437906555
 21
8.4741354495
  0
LINE
  5
2DD
100
AcDbEntity
  8
0
100
AcDbLine
 62
4
  6
CONTINUOUS
 10
10.7769081116
 20
8.4470006522
 11
10.7934668397
 21
8.4292935707
  0
LINE
  5
2DE
100
AcDbEntity
  8
0
100
AcDbLine
 62
4
  6
CONTINUOUS
 10
10.4457335269
 20
8.9054622613
 11
10.5036890786
 21
8.7855319267
  0
LINE
  5
2DF
100
AcDbEntity
  8
0
100
AcDbLine
 62
4
  6
CONTINUOUS
 10
10.7106732037
 20
8.8539711761
 11
10.7355113131
 21
8.7694550001
  0
LINE
  5
2E0
100
AcDbEntity
  8
0
100
AcDbLine
 62
4
  6
CONTINUOUS
 10
10.8321038625
 20
8.8786673875
 11
10.8321038625
 21
8.7627562841
  0
LINE
  5
2E1
100
AcDbEntity
  8
0
100
AcDbLine
 62
4
  6
CONTINUOUS
 10
10.8348636634
 20
8.4429814211
 11
10.8348636634
 21
8.476098879
  0
LINE
  5
2E2
100
AcDbEntity
  8
0
100
AcDbLine
 62
7
  6
CONTINUOUS
 10
10.8639357255
 20
6.5480758744
 11
10.8639357255
 21
6.163672433
  0
LINE
  5
2E3
100
AcDbEntity
  8
0
100
AcDbLine
 62
4
  6
CONTINUOUS
 10
10.8652213601
 20
8.7604595778
 11
10.8652213601
 21
8.8432532251
  0
LINE
  5
2E4
100
AcDbEntity
  8
0
100
AcDbLine
 62
4
  6
CONTINUOUS
 10
10.8679811195
 20
8.4241259879
 11
10.8679811195
 21
8.5400370913
  0
LINE
  5
2E5
100
AcDbEntity
  8
0
100
AcDbLine
 62
4
  6
CONTINUOUS
 10
10.8679811575
 20
8.1856802875
 11
10.8679811575
 21
8.2684739331
  0
LINE
  5
2E6
100
AcDbEntity
  8
0
100
AcDbLine
 62
7
  6
CONTINUOUS
 10
10.8783837737
 20
6.5341201553
 11
10.8783837737
 21
6.149716714
  0
LINE
  5
2E7
100
AcDbEntity
  8
0
100
AcDbLine
 62
4
  6
CONTINUOUS
 10
10.9038583577
 20
8.8322943727
 11
10.9038583577
 21
8.8157356446
  0
LINE
  5
2E8
100
AcDbEntity
  8
0
100
AcDbLine
 62
4
  6
CONTINUOUS
 10
10.9397356329
 20
8.7635713603
 11
10.9397356329
 21
8.788409455
  0
LINE
  5
2E9
100
AcDbEntity
  8
0
100
AcDbLine
 62
7
  6
CONTINUOUS
 10
10.9449629418
 20
6.6395517941
 11
10.9449629418
 21
6.637063832
  0
LINE
  5
2EA
100
AcDbEntity
  8
0
100
AcDbLine
 62
4
  6
CONTINUOUS
 10
10.9645737068
 20
8.1789815715
 11
10.9645737068
 21
8.261775217
  0
LINE
  5
2EB
100
AcDbEntity
  8
0
100
AcDbLine
 62
4
  6
CONTINUOUS
 10
10.9894117964
 20
8.7518469418
 11
10.9894117964
 21
8.818081861
  0
LINE
  5
2EC
100
AcDbEntity
  8
0
100
AcDbLine
 62
4
  6
CONTINUOUS
 10
11.0225292388
 20
8.8323438867
 11
11.0225292388
 21
8.7578296043
  0
LINE
  5
2ED
100
AcDbEntity
  8
0
100
AcDbLine
 62
4
  6
CONTINUOUS
 10
11.0225292586
 20
8.2577559859
 11
11.0225292586
 21
8.1749623403
  0
LINE
  5
2EE
100
AcDbEntity
  8
0
100
AcDbLine
 62
4
  6
CONTINUOUS
 10
12.1311362223
 20
10.0829198154
 11
12.1238917783
 21
10.0737629629
  0
LINE
  5
2EF
100
AcDbEntity
  8
0
100
AcDbLine
 62
4
  6
CONTINUOUS
 10
10.8679811195
 20
8.4627630235
 11
10.9259366712
 21
8.5360178602
  0
LINE
  5
2F0
100
AcDbEntity
  8
0
100
AcDbLine
 62
4
  6
CONTINUOUS
 10
12.1383806662
 20
10.0244618598
 11
12.1238917783
 21
10.0061481506
  0
LINE
  5
2F1
100
AcDbEntity
  8
0
100
AcDbLine
 62
4
  6
CONTINUOUS
 10
10.4484933243
 20
8.2147718675
 11
10.4319345963
 21
8.1993614894
  0
LINE
  5
2F2
100
AcDbEntity
  8
0
100
AcDbLine
 62
4
  6
CONTINUOUS
 10
10.8183049422
 20
8.5434821459
 11
10.7934668397
 21
8.5203665786
  0
LINE
  5
2F3
100
AcDbEntity
  8
0
100
AcDbLine
 62
4
  6
CONTINUOUS
 10
10.7437906555
 20
8.4492973556
 11
10.7272319274
 21
8.4338869775
  0
LINE
  5
2F4
100
AcDbEntity
  8
0
100
AcDbLine
 62
4
  6
CONTINUOUS
 10
11.223993781
 20
8.8100929057
 11
11.2322731139
 21
8.8177980995
  0
LINE
  5
2F5
100
AcDbEntity
  8
0
100
AcDbLine
 62
4
  6
CONTINUOUS
 10
10.8183049422
 20
8.4275710425
 11
10.8348636634
 21
8.4429814211
  0
LINE
  5
2F6
100
AcDbEntity
  8
0
100
AcDbLine
 62
4
  6
CONTINUOUS
 10
11.2985081091
 20
8.8049253195
 11
11.3067874421
 21
8.8126305133
  0
LINE
  5
2F7
100
AcDbEntity
  8
0
100
AcDbLine
 62
4
  6
CONTINUOUS
 10
10.368459472
 20
8.2755179995
 11
10.3243028603
 21
8.2565019634
  0
LINE
  5
2F8
100
AcDbEntity
  8
0
100
AcDbLine
 62
4
  6
CONTINUOUS
 10
10.7272319274
 20
8.4338869775
 11
10.6858351038
 21
8.436757857
  0
LINE
  5
2F9
100
AcDbEntity
  8
0
100
AcDbLine
 62
4
  6
CONTINUOUS
 10
10.7934668397
 20
8.4292935707
 11
10.8183049422
 21
8.4275710425
  0
LINE
  5
2FA
100
AcDbEntity
  8
0
100
AcDbLine
 62
4
  6
CONTINUOUS
 10
10.6858351038
 20
8.4947134087
 11
10.7272319274
 21
8.4918425292
  0
LINE
  5
2FB
100
AcDbEntity
  8
0
100
AcDbLine
 62
4
  6
CONTINUOUS
 10
10.8183049422
 20
8.4938059617
 11
10.7824276877
 21
8.4962940577
  0
LINE
  5
2FC
100
AcDbEntity
  8
0
100
AcDbLine
 62
4
  6
CONTINUOUS
 10
10.7106731976
 20
8.5509464328
 11
10.7189525634
 21
8.5476124653
  0
LINE
  5
2FD
100
AcDbEntity
  8
0
100
AcDbLine
 62
4
  6
CONTINUOUS
 10
11.2433122995
 20
8.2148467498
 11
11.2874689077
 21
8.1897061711
  0
LINE
  5
2FE
100
AcDbEntity
  8
0
100
AcDbLine
 62
4
  6
CONTINUOUS
 10
10.7189525634
 20
8.5476124653
 11
10.7355112915
 21
8.532665177
  0
LINE
  5
2FF
100
AcDbEntity
  8
0
100
AcDbLine
 62
4
  6
CONTINUOUS
 10
11.0059705374
 20
8.2754630651
 11
11.0225292586
 21
8.2577559859
  0
LINE
  5
300
100
AcDbEntity
  8
0
100
AcDbLine
 62
4
  6
CONTINUOUS
 10
10.8348636634
 20
8.476098879
 11
10.8183049422
 21
8.4938059617
  0
LINE
  5
301
100
AcDbEntity
  8
0
100
AcDbLine
 62
4
  6
CONTINUOUS
 10
11.0970435314
 20
8.2691471316
 11
11.1136022526
 21
8.2514400523
  0
LINE
  5
302
100
AcDbEntity
  8
0
100
AcDbLine
 62
4
  6
CONTINUOUS
 10
10.6692763732
 20
8.8568420561
 11
10.6775557338
 21
8.847988513
  0
LINE
  5
303
100
AcDbEntity
  8
0
100
AcDbLine
 62
4
  6
CONTINUOUS
 10
10.8928192151
 20
8.4886383793
 11
10.9259366712
 21
8.4201067567
  0
LINE
  5
304
100
AcDbEntity
  8
0
100
AcDbLine
 62
4
  6
CONTINUOUS
 10
11.0556467009
 20
8.1561069081
 11
11.0556467009
 21
8.2720180115
  0
LINE
  5
305
100
AcDbEntity
  8
0
100
AcDbLine
 62
4
  6
CONTINUOUS
 10
11.0722054575
 20
8.7461051819
 11
11.0722054575
 21
8.8288988292
  0
LINE
  5
306
100
AcDbEntity
  8
0
100
AcDbLine
 62
4
  6
CONTINUOUS
 10
11.1053228999
 20
8.7520878444
 11
11.1053228999
 21
8.8597195829
  0
LINE
  5
307
100
AcDbEntity
  8
0
100
AcDbLine
 62
4
  6
CONTINUOUS
 10
11.1136022526
 20
8.2514400523
 11
11.1136022526
 21
8.1686464067
  0
LINE
  5
308
100
AcDbEntity
  8
0
100
AcDbLine
 62
4
  6
CONTINUOUS
 10
11.1605186937
 20
8.1488340107
 11
11.1605186937
 21
8.2647451141
  0
LINE
  5
309
100
AcDbEntity
  8
0
100
AcDbLine
 62
4
  6
CONTINUOUS
 10
11.1798371728
 20
8.7386408971
 11
11.1798371728
 21
8.8214345444
  0
LINE
  5
30A
100
AcDbEntity
  8
0
100
AcDbLine
 62
4
  6
CONTINUOUS
 10
11.1798371728
 20
8.846272633
 11
11.1798371728
 21
8.8545520005
  0
LINE
  5
30B
100
AcDbEntity
  8
0
100
AcDbLine
 62
4
  6
CONTINUOUS
 10
11.223993781
 20
8.7438579908
 11
11.223993781
 21
8.8100929057
  0
LINE
  5
30C
100
AcDbEntity
  8
0
100
AcDbLine
 62
4
  6
CONTINUOUS
 10
11.1825969504
 20
8.8543606093
 11
11.1798371728
 21
8.846272633
  0
LINE
  5
30D
100
AcDbEntity
  8
0
100
AcDbLine
 62
4
  6
CONTINUOUS
 10
11.3399048844
 20
8.7275401636
 11
11.3481842173
 21
8.7352453548
  0
LINE
  5
30E
100
AcDbEntity
  8
0
100
AcDbLine
 62
4
  6
CONTINUOUS
 10
10.8679811575
 20
8.2684739331
 11
10.8845398787
 21
8.2838843099
  0
LINE
  5
30F
100
AcDbEntity
  8
0
100
AcDbLine
 62
4
  6
CONTINUOUS
 10
10.9645737068
 20
8.261775217
 11
10.981132428
 21
8.2771855939
  0
LINE
  5
310
100
AcDbEntity
  8
0
100
AcDbLine
 62
4
  6
CONTINUOUS
 10
10.6858351038
 20
8.5526689604
 11
10.7106731976
 21
8.5509464328
  0
LINE
  5
311
100
AcDbEntity
  8
0
100
AcDbLine
 62
4
  6
CONTINUOUS
 10
10.7106732037
 20
8.743579647
 11
10.7272319249
 21
8.7424312958
  0
LINE
  5
312
100
AcDbEntity
  8
0
100
AcDbLine
 62
4
  6
CONTINUOUS
 10
10.7989864201
 20
8.7650529865
 11
10.782427699
 21
8.7744807026
  0
LINE
  5
313
100
AcDbEntity
  8
0
100
AcDbLine
 62
4
  6
CONTINUOUS
 10
10.9562943541
 20
8.7541436442
 11
10.9397356329
 21
8.7635713603
  0
LINE
  5
314
100
AcDbEntity
  8
0
100
AcDbLine
 62
4
  6
CONTINUOUS
 10
11.0225292388
 20
8.7578296043
 11
11.030808627
 21
8.7489760618
  0
LINE
  5
315
100
AcDbEntity
  8
0
100
AcDbLine
 62
4
  6
CONTINUOUS
 10
12.0949140025
 20
7.3518616441
 11
12.0804251145
 21
7.3721849688
  0
LINE
  5
316
100
AcDbEntity
  8
0
100
AcDbLine
 62
4
  6
CONTINUOUS
 10
10.8983388024
 20
8.8409565227
 11
10.9038583577
 21
8.8322943727
  0
LINE
  5
317
100
AcDbEntity
  8
0
100
AcDbLine
 62
4
  6
CONTINUOUS
 10
10.9894117964
 20
8.818081861
 11
10.9811324635
 21
8.8352147628
  0
LINE
  5
318
100
AcDbEntity
  8
0
100
AcDbLine
 62
7
  6
CONTINUOUS
 10
11.2920704918
 20
6.4270502897
 11
11.2920704918
 21
6.0426468484
  0
LINE
  5
319
100
AcDbEntity
  8
0
100
AcDbLine
 62
4
  6
CONTINUOUS
 10
11.2985081091
 20
8.7800872274
 11
11.2985081091
 21
8.8049253195
  0
LINE
  5
31A
100
AcDbEntity
  8
0
100
AcDbLine
 62
7
  6
CONTINUOUS
 10
11.3459913004
 20
6.4233108689
 11
11.3459913004
 21
6.0389074276
  0
LINE
  5
31B
100
AcDbEntity
  8
0
100
AcDbLine
 62
4
  6
CONTINUOUS
 10
11.3481842173
 20
8.7352453548
 11
11.3481842173
 21
8.7600834495
  0
LINE
  5
31C
100
AcDbEntity
  8
0
100
AcDbLine
 62
4
  6
CONTINUOUS
 10
11.0225292586
 20
8.1749623403
 11
11.0059705374
 21
8.1595519617
  0
LINE
  5
31D
100
AcDbEntity
  8
0
100
AcDbLine
 62
4
  6
CONTINUOUS
 10
11.1136022526
 20
8.1686464067
 11
11.0970435314
 21
8.1532360281
  0
LINE
  5
31E
100
AcDbEntity
  8
0
100
AcDbLine
 62
4
  6
CONTINUOUS
 10
12.0804251145
 20
8.7824368123
 11
12.0949140025
 21
8.7910912608
  0
LINE
  5
31F
100
AcDbEntity
  8
0
100
AcDbLine
 62
4
  6
CONTINUOUS
 10
12.1238917783
 20
8.7407853498
 11
12.0949140025
 21
8.7234764493
  0
LINE
  5
320
100
AcDbEntity
  8
0
100
AcDbLine
 62
4
  6
CONTINUOUS
 10
11.2874689077
 20
8.1897061711
 11
11.2433122995
 21
8.1706901365
  0
LINE
  5
321
100
AcDbEntity
  8
0
100
AcDbLine
 62
4
  6
CONTINUOUS
 10
11.2653906668
 20
8.7327077421
 11
11.2322731139
 21
8.7350044522
  0
LINE
  5
322
100
AcDbEntity
  8
0
100
AcDbLine
 62
4
  6
CONTINUOUS
 10
11.1301610093
 20
8.7420859507
 11
11.1136022881
 21
8.7432343019
  0
LINE
  5
323
100
AcDbEntity
  8
0
100
AcDbLine
 62
4
  6
CONTINUOUS
 10
10.9894117964
 20
8.7518469418
 11
10.9562943541
 21
8.7541436442
  0
LINE
  5
324
100
AcDbEntity
  8
0
100
AcDbLine
 62
4
  6
CONTINUOUS
 10
10.8321038625
 20
8.7627562841
 11
10.7989864201
 21
8.7650529865
  0
LINE
  5
325
100
AcDbEntity
  8
0
100
AcDbLine
 62
4
  6
CONTINUOUS
 10
10.2718668761
 20
8.801608851
 11
10.3049843348
 21
8.7993121475
  0
LINE
  5
326
100
AcDbEntity
  8
0
100
AcDbLine
 62
4
  6
CONTINUOUS
 10
10.3712192471
 20
8.7947187407
 11
10.3960573496
 21
8.7929962124
  0
LINE
  5
327
100
AcDbEntity
  8
0
100
AcDbLine
 62
4
  6
CONTINUOUS
 10
11.030808627
 20
8.7489760618
 11
11.0722054575
 21
8.7461051819
  0
LINE
  5
328
100
AcDbEntity
  8
0
100
AcDbLine
 62
4
  6
CONTINUOUS
 10
11.3067874421
 20
8.729836866
 11
11.3399048844
 21
8.7275401636
  0
LINE
  5
329
100
AcDbEntity
  8
0
100
AcDbLine
 62
4
  6
CONTINUOUS
 10
12.0731806706
 20
8.6766873691
 11
12.1311362223
 21
8.6726681379
  0
LINE
  5
32A
100
AcDbEntity
  8
0
100
AcDbLine
 62
4
  6
CONTINUOUS
 10
10.9562943541
 20
8.7955404679
 11
10.9894117964
 21
8.7932437654
  0
LINE
  5
32B
100
AcDbEntity
  8
0
100
AcDbLine
 62
4
  6
CONTINUOUS
 10
10.9811324635
 20
8.8352147628
 11
10.9397356329
 21
8.8380856427
  0
LINE
  5
32C
100
AcDbEntity
  8
0
100
AcDbLine
 62
4
  6
CONTINUOUS
 10
10.6278795426
 20
8.859712936
 11
10.6692763732
 21
8.8568420561
  0
LINE
  5
32D
100
AcDbEntity
  8
0
100
AcDbLine
 62
4
  6
CONTINUOUS
 10
10.7989864201
 20
8.8478466338
 11
10.8321038625
 21
8.8455499314
  0
LINE
  5
32E
100
AcDbEntity
  8
0
100
AcDbLine
 62
4
  6
CONTINUOUS
 10
10.8652213601
 20
8.8432532251
 11
10.8983388024
 21
8.8409565227
  0
LINE
  5
32F
100
AcDbEntity
  8
0
100
AcDbLine
 62
4
  6
CONTINUOUS
 10
11.2322731139
 20
8.8177980995
 11
11.2653906668
 21
8.8155013894
  0
LINE
  5
330
100
AcDbEntity
  8
0
100
AcDbLine
 62
4
  6
CONTINUOUS
 10
11.3067874421
 20
8.8126305133
 11
11.3399048844
 21
8.8103338109
  0
LINE
  5
331
100
AcDbEntity
  8
0
100
AcDbLine
 62
4
  6
CONTINUOUS
 10
10.280146241
 20
8.9169457786
 11
10.3132636988
 21
8.9146490751
  0
LINE
  5
332
100
AcDbEntity
  8
0
100
AcDbLine
 62
4
  6
CONTINUOUS
 10
11.1798371728
 20
8.8545520005
 11
11.1825969504
 21
8.8543606093
  0
LINE
  5
333
100
AcDbEntity
  8
0
100
AcDbLine
 62
4
  6
CONTINUOUS
 10
12.0949140025
 20
8.7910912608
 11
12.1094028904
 21
8.790086453
  0
LINE
  5
334
100
AcDbEntity
  8
0
100
AcDbLine
 62
4
  6
CONTINUOUS
 10
11.3399048844
 20
8.7661771992
 11
11.3067874421
 21
8.7739934777
  0
LINE
  5
335
100
AcDbEntity
  8
0
100
AcDbLine
 62
4
  6
CONTINUOUS
 10
11.3067874421
 20
8.7739934777
 11
11.2985081091
 21
8.7800872274
  0
LINE
  5
336
100
AcDbEntity
  8
0
100
AcDbLine
 62
4
  6
CONTINUOUS
 10
11.3481842173
 20
8.7600834495
 11
11.3399048844
 21
8.7661771992
  0
LINE
  5
337
100
AcDbEntity
  8
0
100
AcDbLine
 62
4
  6
CONTINUOUS
 10
11.1136022881
 20
8.7432343019
 11
11.1053228999
 21
8.7520878444
  0
LINE
  5
338
100
AcDbEntity
  8
0
100
AcDbLine
 62
4
  6
CONTINUOUS
 10
11.2322731139
 20
8.7350044522
 11
11.223993781
 21
8.7438579908
  0
LINE
  5
339
100
AcDbEntity
  8
0
100
AcDbLine
 62
4
  6
CONTINUOUS
 10
11.2985081091
 20
8.7386904046
 11
11.3067874421
 21
8.729836866
  0
LINE
  5
33A
100
AcDbEntity
  8
0
100
AcDbLine
 62
4
  6
CONTINUOUS
 10
12.1383806662
 20
7.4454398089
 11
12.1456251102
 21
7.4352781418
  0
LINE
  5
33B
100
AcDbEntity
  8
0
100
AcDbLine
 62
4
  6
CONTINUOUS
 10
11.3399048844
 20
8.8103338109
 11
11.3481842173
 21
8.8014802697
  0
LINE
  5
33C
100
AcDbEntity
  8
0
100
AcDbLine
 62
4
  6
CONTINUOUS
 10
12.0731806706
 20
8.773279953
 11
12.0804251145
 21
8.7824368123
  0
LINE
  5
33D
100
AcDbEntity
  8
0
100
AcDbLine
 62
4
  6
CONTINUOUS
 10
12.0949140025
 20
8.7234764493
 11
12.0804251145
 21
8.705162741
  0
LINE
  5
33E
100
AcDbEntity
  8
0
100
AcDbLine
 62
4
  6
CONTINUOUS
 10
12.1311362223
 20
8.7499422092
 11
12.1238917783
 21
8.7407853498
  0
LINE
  5
33F
100
AcDbEntity
  8
0
100
AcDbLine
 62
4
  6
CONTINUOUS
 10
12.0804251145
 20
7.3721849688
 11
12.0731806706
 21
7.4016651486
  0
LINE
  5
340
100
AcDbEntity
  8
0
100
AcDbLine
 62
7
  6
CONTINUOUS
 10
11.911097708
 20
6.4625012007
 11
11.911097708
 21
6.0780977594
  0
LINE
  5
341
100
AcDbEntity
  8
0
100
AcDbLine
 62
7
  6
CONTINUOUS
 10
11.9505704684
 20
6.472717499
 11
11.9505704684
 21
6.0883140577
  0
LINE
  5
342
100
AcDbEntity
  8
0
100
AcDbLine
 62
4
  6
CONTINUOUS
 10
12.0804251145
 20
8.705162741
 11
12.0731806706
 21
8.6766873691
  0
LINE
  5
343
100
AcDbEntity
  8
0
100
AcDbLine
 62
4
  6
CONTINUOUS
 10
12.1094028904
 20
8.790086453
 11
12.1238917783
 21
8.7794223889
  0
LINE
  5
344
100
AcDbEntity
  8
0
100
AcDbLine
 62
7
  6
CONTINUOUS
 10
12.101990158
 20
6.5593116841
 11
12.101990158
 21
6.2345742551
  0
LINE
  5
345
100
AcDbEntity
  8
0
100
AcDbLine
 62
4
  6
CONTINUOUS
 10
12.1311362223
 20
10.0925790717
 11
12.1311362223
 21
10.0829198154
  0
LINE
  5
346
100
AcDbEntity
  8
0
100
AcDbLine
 62
4
  6
CONTINUOUS
 10
12.1311362223
 20
8.7692607218
 11
12.1311362223
 21
8.7499422092
  0
LINE
  5
347
100
AcDbEntity
  8
0
100
AcDbLine
 62
4
  6
CONTINUOUS
 10
12.1383806662
 20
10.0341211195
 11
12.1383806662
 21
10.0244618598
  0
LINE
  5
348
100
AcDbEntity
  8
0
100
AcDbLine
 62
4
  6
CONTINUOUS
 10
12.1456251102
 20
7.3966411096
 11
12.1456251102
 21
7.3580040757
  0
LINE
  5
349
100
AcDbEntity
  8
0
100
AcDbLine
 62
4
  6
CONTINUOUS
 10
12.1238917783
 20
8.7794223889
 11
12.1311362223
 21
8.7692607218
  0
LINE
  5
34A
100
AcDbEntity
  8
0
100
AcDbLine
 62
7
  6
CONTINUOUS
 10
12.2547747017
 20
6.5487160401
 11
12.2547747017
 21
10.4124195742
  0
LINE
  5
34B
100
AcDbEntity
  8
0
100
AcDbLine
 62
4
  6
CONTINUOUS
 10
12.0731806706
 20
7.4016651486
 11
12.0804251145
 21
7.4301405205
  0
LINE
  5
34C
100
AcDbEntity
  8
0
100
AcDbLine
 62
4
  6
CONTINUOUS
 10
12.0804251145
 20
7.4301405205
 11
12.0949140025
 21
7.4484542323
  0
LINE
  5
34D
100
AcDbEntity
  8
0
100
AcDbLine
 62
4
  6
CONTINUOUS
 10
12.1456251102
 20
7.3580040757
 11
12.1383806662
 21
7.3488472207
  0
LINE
  5
34E
100
AcDbEntity
  8
0
100
AcDbLine
 62
7
  6
CONTINUOUS
 10
12.4488888253
 20
7.7910069387
 11
12.4495736301
 21
7.7916562281
  0
LINE
  5
34F
100
AcDbEntity
  8
0
100
AcDbLine
 62
4
  6
CONTINUOUS
 10
12.0949140025
 20
7.4484542323
 11
12.1094028904
 21
7.4571086808
  0
LINE
  5
350
100
AcDbEntity
  8
0
100
AcDbLine
 62
4
  6
CONTINUOUS
 10
12.1383806662
 20
7.3488472207
 11
12.1238917783
 21
7.3401927696
  0
LINE
  5
351
100
AcDbEntity
  8
0
100
AcDbLine
 62
4
  6
CONTINUOUS
 10
12.1094028904
 20
9.9974936995
 11
12.0949140025
 21
9.9984985073
  0
LINE
  5
352
100
AcDbEntity
  8
0
100
AcDbLine
 62
7
  6
CONTINUOUS
 10
12.6430029489
 20
6.9237157528
 11
12.6430029489
 21
10.7874192869
  0
LINE
  5
353
100
AcDbEntity
  8
0
100
AcDbLine
 62
4
  6
CONTINUOUS
 10
12.0949140025
 20
10.0661133153
 11
12.1094028904
 21
10.0651085075
  0
LINE
  5
354
100
AcDbEntity
  8
0
100
AcDbLine
 62
4
  6
CONTINUOUS
 10
12.0949140025
 20
10.1144096107
 11
12.1094028904
 21
10.1134048029
  0
LINE
  5
355
100
AcDbEntity
  8
0
100
AcDbLine
 62
4
  6
CONTINUOUS
 10
12.0804251145
 20
10.009162574
 11
12.0731806706
 21
10.0193242368
  0
LINE
  5
356
100
AcDbEntity
  8
0
100
AcDbLine
 62
7
  6
CONTINUOUS
 10
9.3569970511
 20
10.6133811368
 11
12.2547747017
 21
10.4124195742
  0
LINE
  5
357
100
AcDbEntity
  8
0
100
AcDbLine
 62
4
  6
CONTINUOUS
 10
12.0949140025
 20
9.9984985073
 11
12.0804251145
 21
10.009162574
  0
LINE
  5
358
100
AcDbEntity
  8
0
100
AcDbLine
 62
4
  6
CONTINUOUS
 10
12.1094028904
 20
10.0651085075
 11
12.1238917783
 21
10.0544444434
  0
LINE
  5
359
100
AcDbEntity
  8
0
100
AcDbLine
 62
4
  6
CONTINUOUS
 10
12.1094028904
 20
10.1134048029
 11
12.1238917783
 21
10.1027407388
  0
LINE
  5
35A
100
AcDbEntity
  8
0
100
AcDbLine
 62
4
  6
CONTINUOUS
 10
12.1238917783
 20
10.0544444434
 11
12.1383806662
 21
10.0341211195
  0
LINE
  5
35B
100
AcDbEntity
  8
0
100
AcDbLine
 62
4
  6
CONTINUOUS
 10
12.1238917783
 20
10.1027407388
 11
12.1311362223
 21
10.0925790717
  0
LINE
  5
35C
100
AcDbEntity
  8
0
100
AcDbLine
 62
7
  6
CONTINUOUS
 10
12.3908879746
 20
10.5438949075
 11
12.3599783456
 21
10.5460384976
  0
LINE
  5
35D
100
AcDbEntity
  8
0
100
AcDbLine
 62
7
  6
CONTINUOUS
 10
12.2547747017
 20
6.5487160401
 11
12.6430029489
 21
6.9237157528
  0
LINE
  5
35E
100
AcDbEntity
  8
0
100
AcDbLine
 62
7
  6
CONTINUOUS
 10
12.506889676
 20
10.6559439535
 11
12.475980047
 21
10.6580875436
  0
LINE
  5
35F
100
AcDbEntity
  8
0
100
AcDbLine
 62
7
  6
CONTINUOUS
 10
12.6430029489
 20
10.7874192869
 11
9.7452252983
 21
10.9883808495
  0
LINE
  5
360
100
AcDbEntity
  8
0
100
AcDbLine
 62
7
  6
CONTINUOUS
 10
11.993789989
 20
6.097894546
 11
11.9745720521
 21
6.0884012532
  0
ARC
  5
361
100
AcDbEntity
  8
0
100
AcDbCircle
 62
7
  6
CONTINUOUS
 10
11.4754098701
 20
8.2993310748
 40
2.2641254892
100
AcDbArc
 50
266.0354973614
 51
266.723157899
  0
ARC
  5
362
100
AcDbEntity
  8
0
100
AcDbCircle
 62
7
  6
CONTINUOUS
 10
11.4746962744
 20
8.6724571688
 40
2.2528257918
100
AcDbArc
 50
266.0337727607
 51
266.7248824998
  0
ARC
  5
363
100
AcDbEntity
  8
0
100
AcDbCircle
 62
7
  6
CONTINUOUS
 10
11.4704807006
 20
8.2273175207
 40
2.1919434639
100
AcDbArc
 50
265.3313245689
 51
266.0338890315
  0
ARC
  5
364
100
AcDbEntity
  8
0
100
AcDbCircle
 62
7
  6
CONTINUOUS
 10
11.4704807006
 20
8.6117209619
 40
2.1919434638
100
AcDbArc
 50
265.3313245689
 51
266.0338890315
  0
ARC
  5
365
100
AcDbEntity
  8
0
100
AcDbCircle
 62
7
  6
CONTINUOUS
 10
11.6918982701
 20
7.3907868136
 40
0.9538147475
100
AcDbArc
 50
283.286087793
 51
285.7355389587
  0
ARC
  5
366
100
AcDbEntity
  8
0
100
AcDbCircle
 62
7
  6
CONTINUOUS
 10
11.6918982701
 20
7.0063833723
 40
0.9538147475
100
AcDbArc
 50
283.286087793
 51
285.7355389587
  0
ARC
  5
367
100
AcDbEntity
  8
0
100
AcDbCircle
 62
7
  6
CONTINUOUS
 10
11.292960393
 20
6.7743166515
 40
0.7485539414
100
AcDbArc
 50
243.6649403382
 51
246.2656701867
  0
SPLINE
  5
368
100
AcDbEntity
  8
0
100
AcDbSpline
 62
7
  6
CONTINUOUS
 70
0
 71
3
 72
23
 73
19
 74
0
 42
0.0000001
 43
0.0000001
 44
0.0000000001
 40
0.0
 40
0.0
 40
0.0
 40
0.0
 40
0.0771587943
 40
0.1531525983
 40
0.2277645257
 40
0.3008156151
 40
0.3721376111
 40
0.441561383
 40
0.5089207464
 40
0.5740613042
 40
0.63683572
 40
0.6971076841
 40
0.7547490656
 40
0.8096460692
 40
0.8616960538
 40
0.9108140941
 40
0.9569307292
 40
1.0
 40
1.0
 40
1.0
 40
1.0
 10
11.3393184903
 20
6.0163169224
 30
0.0
 10
11.3301534433
 20
6.0169525206
 30
0.0
 10
11.3119703791
 20
6.018343024
 30
0.0
 10
11.2849623021
 20
6.020806307
 30
0.0
 10
11.258480909
 20
6.0236270473
 30
0.0
 10
11.2325993064
 20
6.0267969039
 30
0.0
 10
11.2073852324
 20
6.0303078549
 30
0.0
 10
11.1829051555
 20
6.0341499564
 30
0.0
 10
11.1592245322
 20
6.0383135597
 30
0.0
 10
11.1364065683
 20
6.0427868066
 30
0.0
 10
11.114511851
 20
6.0475582888
 30
0.0
 10
11.0935984624
 20
6.0526145303
 30
0.0
 10
11.0737219224
 20
6.0579426148
 30
0.0
 10
11.0549348003
 20
6.0635275377
 30
0.0
 10
11.0372867986
 20
6.0693549862
 30
0.0
 10
11.0208240635
 20
6.0754087203
 30
0.0
 10
11.0055902911
 20
6.0816730851
 30
0.0
 10
10.9959476466
 20
6.0861319665
 30
0.0
 10
10.9913499131
 20
6.0884032033
 30
0.0
  0
SPLINE
  5
369
100
AcDbEntity
  8
0
100
AcDbSpline
 62
7
  6
CONTINUOUS
 70
0
 71
3
 72
9
 73
5
 74
0
 42
0.0000001
 43
0.0000001
 44
0.0000000001
 40
0.0
 40
0.0
 40
0.0
 40
0.0
 40
0.5197971894
 40
1.0
 40
1.0
 40
1.0
 40
1.0
 10
10.8783837737
 20
6.149716714
 30
0.0
 10
10.8756894377
 20
6.1519252854
 30
0.0
 10
10.8706559681
 20
6.1563625082
 30
0.0
 10
10.8660271484
 20
6.1612260979
 30
0.0
 10
10.8639357255
 20
6.163672433
 30
0.0
  0
SPLINE
  5
36A
100
AcDbEntity
  8
0
100
AcDbSpline
 62
7
  6
CONTINUOUS
 70
0
 71
3
 72
23
 73
19
 74
0
 42
0.0000001
 43
0.0000001
 44
0.0000000001
 40
0.0
 40
0.0
 40
0.0
 40
0.0
 40
0.0811307684
 40
0.1602256514
 40
0.2371394166
 40
0.3117306989
 40
0.3838655188
 40
0.453421346
 40
0.5202899008
 40
0.5843906942
 40
0.6456690168
 40
0.7041129182
 40
0.7597463028
 40
0.812646452
 40
0.862931511
 40
0.9107732172
 40
0.9563797285
 40
1.0
 40
1.0
 40
1.0
 40
1.0
 10
12.101990158
 20
6.2345742551
 30
0.0
 10
12.0998126287
 20
6.2303061194
 30
0.0
 10
12.0954535153
 20
6.2219066968
 30
0.0
 10
12.0888060296
 20
6.2095788498
 30
0.0
 10
12.0821293873
 20
6.1977077599
 30
0.0
 10
12.0754246772
 20
6.1863268997
 30
0.0
 10
12.068692797
 20
6.1754699396
 30
0.0
 10
12.061936137
 20
6.1651693863
 30
0.0
 10
12.0551562937
 20
6.155457
 30
0.0
 10
12.0483571322
 20
6.1463610906
 30
0.0
 10
12.041540895
 20
6.1379076856
 30
0.0
 10
12.0347126429
 20
6.1301168719
 30
0.0
 10
12.0278751094
 20
6.1230052988
 30
0.0
 10
12.0210340182
 20
6.1165816481
 30
0.0
 10
12.0141924756
 20
6.1108507168
 30
0.0
 10
12.0073560938
 20
6.1058084321
 30
0.0
 10
12.0005288115
 20
6.1014473825
 30
0.0
 10
11.9958916924
 20
6.0989322881
 30
0.0
 10
11.9935817591
 20
6.0977917207
 30
0.0
  0
SPLINE
  5
36B
100
AcDbEntity
  8
0
100
AcDbSpline
 62
7
  6
CONTINUOUS
 70
0
 71
3
 72
15
 73
11
 74
0
 42
0.0000001
 43
0.0000001
 44
0.0000000001
 40
0.0
 40
0.0
 40
0.0
 40
0.0
 40
0.1401561244
 40
0.2765170404
 40
0.4087947051
 40
0.5367100159
 40
0.6600018539
 40
0.7784345672
 40
0.8918125114
 40
1.0
 40
1.0
 40
1.0
 40
1.0
 10
10.8639357255
 20
6.5480758744
 30
0.0
 10
10.8662690707
 20
6.552649422
 30
0.0
 10
10.8709398929
 20
6.5616385828
 30
0.0
 10
10.8780714198
 20
6.5748078846
 30
0.0
 10
10.8852362255
 20
6.5874463754
 30
0.0
 10
10.892433044
 20
6.5995127395
 30
0.0
 10
10.8996604063
 20
6.6109657083
 30
0.0
 10
10.9069155547
 20
6.6217656868
 30
0.0
 10
10.9141957214
 20
6.6318745847
 30
0.0
 10
10.9191810578
 20
6.6382830241
 30
0.0
 10
10.9216815123
 20
6.6413579509
 30
0.0
  0
SPLINE
  5
36C
100
AcDbEntity
  8
0
100
AcDbSpline
 62
7
  6
CONTINUOUS
 70
0
 71
3
 72
9
 73
5
 74
0
 42
0.0000001
 43
0.0000001
 44
0.0000000001
 40
0.0
 40
0.0
 40
0.0
 40
0.0
 40
0.4956217049
 40
1.0
 40
1.0
 40
1.0
 40
1.0
 10
10.9608871377
 20
6.1034512727
 30
0.0
 10
10.9468730274
 20
6.1103761015
 30
0.0
 10
10.9190002855
 20
6.1251732639
 30
0.0
 10
10.8918874988
 20
6.1413078812
 30
0.0
 10
10.8783837737
 20
6.149716714
 30
0.0
  0
SPLINE
  5
36D
100
AcDbEntity
  8
0
100
AcDbSpline
 62
7
  6
CONTINUOUS
 70
0
 71
3
 72
29
 73
25
 74
0
 42
0.0000001
 43
0.0000001
 44
0.0000000001
 40
0.0
 40
0.0
 40
0.0
 40
0.0
 40
0.0193646742
 40
0.0398580369
 40
0.0614684275
 40
0.0841775651
 40
0.1079628328
 40
0.1327976805
 40
0.1586509133
 40
0.1854891319
 40
0.2132749098
 40
0.2419685558
 40
0.271528042
 40
0.3019083628
 40
0.3649423952
 40
0.4306770921
 40
0.4986914915
 40
0.5685439808
 40
0.6397765617
 40
0.7119190669
 40
0.7844942972
 40
0.8570174477
 40
0.929015682
 40
1.0
 40
1.0
 40
1.0
 40
1.0
 10
11.9745754488
 20
6.0884029456
 30
0.0
 10
11.9708443525
 20
6.0865598284
 30
0.0
 10
11.9630847927
 20
6.0829264406
 30
0.0
 10
11.9509252141
 20
6.0777589118
 30
0.0
 10
11.9379345904
 20
6.0727282813
 30
0.0
 10
11.9241360877
 20
6.0678431498
 30
0.0
 10
11.909553845
 20
6.0631122865
 30
0.0
 10
11.8942135745
 20
6.058544395
 30
0.0
 10
11.878142442
 20
6.054147143
 30
0.0
 10
11.8613688304
 20
6.0499289479
 30
0.0
 10
11.8439225163
 20
6.0458969411
 30
0.0
 10
11.8258344326
 20
6.0420584859
 30
0.0
 10
11.8071366512
 20
6.038420557
 30
0.0
 10
11.7811174125
 20
6.0337888281
 30
0.0
 10
11.7473110516
 20
6.028570222
 30
0.0
 10
11.7053502098
 20
6.0232731699
 30
0.0
 10
11.6618097525
 20
6.0189057578
 30
0.0
 10
11.6169989874
 20
6.0154994492
 30
0.0
 10
11.5712359857
 20
6.0130789433
 30
0.0
 10
11.5248456802
 20
6.011661698
 30
0.0
 10
11.4781582153
 20
6.0112580713
 30
0.0
 10
11.4315039497
 20
6.0118705683
 30
0.0
 10
11.3852162468
 20
6.0134953731
 30
0.0
 10
11.3545366187
 20
6.0152615416
 30
0.0
 10
11.3393184903
 20
6.0163169224
 30
0.0
  0
SPLINE
  5
36E
100
AcDbEntity
  8
0
100
AcDbSpline
 62
7
  6
CONTINUOUS
 70
0
 71
3
 72
9
 73
5
 74
0
 42
0.0000001
 43
0.0000001
 44
0.0000000001
 40
0.0
 40
0.0
 40
0.0
 40
0.0
 40
0.5197971894
 40
1.0
 40
1.0
 40
1.0
 40
1.0
 10
10.8783837737
 20
6.5341201553
 30
0.0
 10
10.8756894377
 20
6.5363287268
 30
0.0
 10
10.8706559681
 20
6.5407659495
 30
0.0
 10
10.8660271484
 20
6.5456295393
 30
0.0
 10
10.8639357255
 20
6.5480758744
 30
0.0
  0
SPLINE
  5
36F
100
AcDbEntity
  8
0
100
AcDbSpline
 62
7
  6
CONTINUOUS
 70
0
 71
3
 72
37
 73
33
 74
0
 42
0.0000001
 43
0.0000001
 44
0.0000000001
 40
0.0
 40
0.0
 40
0.0
 40
0.0
 40
0.0958277446
 40
0.1891043955
 40
0.2792420323
 40
0.3657121223
 40
0.4074106414
 40
0.4480037085
 40
0.4874335096
 40
0.5256460838
 40
0.5625900386
 40
0.5982169681
 40
0.6324836442
 40
0.6653495153
 40
0.6967797837
 40
0.7267448195
 40
0.7552199113
 40
0.7821888831
 40
0.8076419355
 40
0.8315793527
 40
0.8540130412
 40
0.8749670977
 40
0.8944840597
 40
0.9126258681
 40
0.9294802521
 40
0.9451669242
 40
0.9598415307
 40
0.9737025679
 40
0.9804061117
 40
0.9869995914
 40
0.9935185798
 40
1.0
 40
1.0
 40
1.0
 40
1.0
 10
11.3437184104
 20
6.502563935
 30
0.0
 10
11.3297063336
 20
6.5035356759
 30
0.0
 10
11.3020754347
 20
6.5057616116
 30
0.0
 10
11.2613633426
 20
6.5100100719
 30
0.0
 10
11.2221304001
 20
6.5151019964
 30
0.0
 10
11.1905168883
 20
6.520076431
 30
0.0
 10
11.1661735605
 20
6.5244703374
 30
0.0
 10
11.1486671394
 20
6.5279135704
 30
0.0
 10
11.1317196552
 20
6.5315389762
 30
0.0
 10
11.1153593145
 20
6.5353402672
 30
0.0
 10
11.0996134096
 20
6.5393109929
 30
0.0
 10
11.084508248
 20
6.5434448239
 30
0.0
 10
11.0700689135
 20
6.547734317
 30
0.0
 10
11.0563194631
 20
6.5521726805
 30
0.0
 10
11.0432826948
 20
6.5567523235
 30
0.0
 10
11.0309801199
 20
6.5614653561
 30
0.0
 10
11.0194321745
 20
6.5663044357
 30
0.0
 10
11.0086576522
 20
6.5712609458
 30
0.0
 10
10.9986742298
 20
6.5763271119
 30
0.0
 10
10.9894981169
 20
6.5814947379
 30
0.0
 10
10.981143795
 20
6.5867551769
 30
0.0
 10
10.9736248952
 20
6.5921010643
 30
0.0
 10
10.9669529118
 20
6.5975239627
 30
0.0
 10
10.9611385265
 20
6.6030168522
 30
0.0
 10
10.9561916984
 20
6.6085731387
 30
0.0
 10
10.9521210011
 20
6.6141864632
 30
0.0
 10
10.9489371618
 20
6.6198504827
 30
0.0
 10
10.9470099685
 20
6.6246622945
 30
0.0
 10
10.9459435423
 20
6.6285007206
 30
0.0
 10
10.9453779915
 20
6.6313526197
 30
0.0
 10
10.9450386317
 20
6.634207209
 30
0.0
 10
10.944963117
 20
6.6361135668
 30
0.0
 10
10.9449631099
 20
6.6370635661
 30
0.0
  0
SPLINE
  5
370
100
AcDbEntity
  8
0
100
AcDbSpline
 62
7
  6
CONTINUOUS
 70
0
 71
3
 72
28
 73
24
 74
0
 42
0.0000001
 43
0.0000001
 44
0.0000000001
 40
0.0
 40
0.0
 40
0.0
 40
0.0
 40
0.0704896704
 40
0.1419775873
 40
0.2139934931
 40
0.2860849373
 40
0.3577866651
 40
0.4286406128
 40
0.4981951423
 40
0.5660094464
 40
0.6316577212
 40
0.6947330343
 40
0.7548517832
 40
0.7836912796
 40
0.8116607125
 40
0.8387214409
 40
0.8648362812
 40
0.8899716779
 40
0.9140967308
 40
0.9371834886
 40
0.959208764
 40
0.9801523993
 40
1.0
 40
1.0
 40
1.0
 40
1.0
 10
11.3437184104
 20
6.502563935
 30
0.0
 10
11.3582118258
 20
6.5015588133
 30
0.0
 10
11.3874282206
 20
6.4998708859
 30
0.0
 10
11.4315084455
 20
6.4982978882
 30
0.0
 10
11.4759426252
 20
6.4976723198
 30
0.0
 10
11.5204240057
 20
6.4979979376
 30
0.0
 10
11.564648795
 20
6.4992728863
 30
0.0
 10
11.6083130457
 20
6.5014881648
 30
0.0
 10
11.6511174238
 20
6.5046283039
 30
0.0
 10
11.6927684144
 20
6.5086713929
 30
0.0
 10
11.7329806772
 20
6.5135891782
 30
0.0
 10
11.7714784739
 20
6.5193474295
 30
0.0
 10
11.8023253931
 20
6.5248866211
 30
0.0
 10
11.8259339438
 20
6.5297302414
 30
0.0
 10
11.8428054843
 20
6.533496655
 30
0.0
 10
11.8590593006
 20
6.5374400463
 30
0.0
 10
11.8746675565
 20
6.5415541202
 30
0.0
 10
11.8896035729
 20
6.545831496
 30
0.0
 10
11.9038418655
 20
6.5502647327
 30
0.0
 10
11.9173580537
 20
6.5548465608
 30
0.0
 10
11.9301293231
 20
6.5595685673
 30
0.0
 10
11.9421336785
 20
6.5644230456
 30
0.0
 10
11.9498200232
 20
6.5678344022
 30
0.0
 10
11.9535264648
 20
6.569565276
 30
0.0
  0
SPLINE
  5
371
100
AcDbEntity
  8
0
100
AcDbSpline
 62
7
  6
CONTINUOUS
 70
0
 71
3
 72
15
 73
11
 74
0
 42
0.0000001
 43
0.0000001
 44
0.0000000001
 40
0.0
 40
0.0
 40
0.0
 40
0.0
 40
0.1081874876
 40
0.2215654312
 40
0.3399981441
 40
0.463289982
 40
0.591205293
 40
0.7234829581
 40
0.8598438747
 40
1.0
 40
1.0
 40
1.0
 40
1.0
 10
12.0083162577
 20
6.5659995786
 30
0.0
 10
12.0058158031
 20
6.5629246517
 30
0.0
 10
12.0008304664
 20
6.5565162122
 30
0.0
 10
11.9935502994
 20
6.5464073141
 30
0.0
 10
11.9862951508
 20
6.5356073352
 30
0.0
 10
11.9790677882
 20
6.5241543661
 30
0.0
 10
11.9718709694
 20
6.5120880015
 30
0.0
 10
11.9647061633
 20
6.4994495103
 30
0.0
 10
11.9575746362
 20
6.486280208
 30
0.0
 10
11.9529038138
 20
6.4772910468
 30
0.0
 10
11.9505704684
 20
6.472717499
 30
0.0
  0
SPLINE
  5
372
100
AcDbEntity
  8
0
100
AcDbSpline
 62
7
  6
CONTINUOUS
 70
0
 71
3
 72
21
 73
17
 74
0
 42
0.0000001
 43
0.0000001
 44
0.0000000001
 40
0.0
 40
0.0
 40
0.0
 40
0.0
 40
0.1269266306
 40
0.1902356571
 40
0.2534226618
 40
0.3164750211
 40
0.379381614
 40
0.442133702
 40
0.5047247465
 40
0.5671521045
 40
0.6294167402
 40
0.6915228504
 40
0.7534784743
 40
0.8152934295
 40
0.8769787052
 40
1.0
 40
1.0
 40
1.0
 40
1.0
 10
11.911097708
 20
6.0780977594
 30
0.0
 10
11.888090125
 20
6.0703733443
 30
0.0
 10
11.8533297195
 20
6.059585546
 30
0.0
 10
11.8064857988
 20
6.0471659885
 30
0.0
 10
11.7711816123
 20
6.0389402948
 30
0.0
 10
11.7357034769
 20
6.0318825766
 30
0.0
 10
11.7000838678
 20
6.0260683308
 30
0.0
 10
11.6643639321
 20
6.0215593761
 30
0.0
 10
11.6285914101
 20
6.0183960861
 30
0.0
 10
11.5928177927
 20
6.0165940832
 30
0.0
 10
11.5570945854
 20
6.0161451839
 30
0.0
 10
11.5214698686
 20
6.0170159162
 30
0.0
 10
11.48598543
 20
6.0191503198
 30
0.0
 10
11.4506741255
 20
6.0224775297
 30
0.0
 10
11.4039029161
 20
6.0283876717
 30
0.0
 10
11.3690704787
 20
6.0343600741
 30
0.0
 10
11.3459913004
 20
6.0389074276
 30
0.0
  0
SPLINE
  5
373
100
AcDbEntity
  8
0
100
AcDbSpline
 62
7
  6
CONTINUOUS
 70
0
 71
3
 72
21
 73
17
 74
0
 42
0.0000001
 43
0.0000001
 44
0.0000000001
 40
0.0
 40
0.0
 40
0.0
 40
0.0
 40
0.1230212948
 40
0.1847065705
 40
0.2465215258
 40
0.3084771496
 40
0.3705832599
 40
0.4328478955
 40
0.4952752535
 40
0.5578662981
 40
0.6206183861
 40
0.683524979
 40
0.7465773382
 40
0.8097643429
 40
0.8730733694
 40
1.0
 40
1.0
 40
1.0
 40
1.0
 10
11.911097708
 20
6.4625012007
 30
0.0
 10
11.8880185297
 20
6.4670485543
 30
0.0
 10
11.8531860922
 20
6.4730209566
 30
0.0
 10
11.8064148828
 20
6.4789310986
 30
0.0
 10
11.7711035784
 20
6.4822583086
 30
0.0
 10
11.7356191398
 20
6.4843927121
 30
0.0
 10
11.699994423
 20
6.4852634444
 30
0.0
 10
11.6642712157
 20
6.4848145451
 30
0.0
 10
11.6284975982
 20
6.4830125423
 30
0.0
 10
11.5927250763
 20
6.4798492522
 30
0.0
 10
11.5570051406
 20
6.4753402976
 30
0.0
 10
11.5213855314
 20
6.4695260517
 30
0.0
 10
11.4859073961
 20
6.4624683336
 30
0.0
 10
11.4506032095
 20
6.4542426398
 30
0.0
 10
11.4037592889
 20
6.4418230824
 30
0.0
 10
11.3689988834
 20
6.4310352841
 30
0.0
 10
11.3459913004
 20
6.4233108689
 30
0.0
  0
SPLINE
  5
374
100
AcDbEntity
  8
0
100
AcDbSpline
 62
7
  6
CONTINUOUS
 70
0
 71
3
 72
15
 73
11
 74
0
 42
0.0000001
 43
0.0000001
 44
0.0000000001
 40
0.0
 40
0.0
 40
0.0
 40
0.0
 40
0.1200350229
 40
0.2408049341
 40
0.3626322888
 40
0.4858903489
 40
0.6109646446
 40
0.7381990118
 40
0.8678398
 40
1.0
 40
1.0
 40
1.0
 40
1.0
 10
11.2920704918
 20
6.0426468484
 30
0.0
 10
11.2798608402
 20
6.0413640139
 30
0.0
 10
11.2552964001
 20
6.0394046606
 30
0.0
 10
11.2181955322
 20
6.0385578096
 30
0.0
 10
11.1807799186
 20
6.0400644962
 30
0.0
 10
11.1431125009
 20
6.0441643257
 30
0.0
 10
11.1052860934
 20
6.0510328333
 30
0.0
 10
11.0674152922
 20
6.0607501286
 30
0.0
 10
11.0296211977
 20
6.0732835737
 30
0.0
 10
11.0047804133
 20
6.0833305692
 30
0.0
 10
10.9923992996
 20
6.0887543147
 30
0.0
  0
LINE
  5
375
100
AcDbEntity
  8
0
100
AcDbLine
 62
7
  6
CONTINUOUS
 10
10.9923992996
 20
6.0887543147
 11
10.9916701709
 21
6.0890742087
  0
SPLINE
  5
376
100
AcDbEntity
  8
0
100
AcDbSpline
 62
7
  6
CONTINUOUS
 70
0
 71
3
 72
23
 73
19
 74
0
 42
0.0000001
 43
0.0000001
 44
0.0000000001
 40
0.0
 40
0.0
 40
0.0
 40
0.0
 40
0.0679978465
 40
0.1353018504
 40
0.2018553923
 40
0.2676132131
 40
0.3325394779
 40
0.3966150916
 40
0.459841178
 40
0.5222411892
 40
0.583861798
 40
0.6447689915
 40
0.7050433319
 40
0.7647745441
 40
0.8240532081
 40
0.8829657177
 40
0.9415926184
 40
1.0
 40
1.0
 40
1.0
 40
1.0
 10
11.2920704918
 20
6.4270502897
 30
0.0
 10
11.2836766993
 20
6.4322771435
 30
0.0
 10
11.2668432909
 20
6.4424686058
 30
0.0
 10
11.2413097298
 20
6.4569570698
 30
0.0
 10
11.2156192785
 20
6.4704821213
 30
0.0
 10
11.1897821829
 20
6.4829509958
 30
0.0
 10
11.1638146451
 20
6.4942751159
 30
0.0
 10
11.1377400283
 20
6.5043747388
 30
0.0
 10
11.1115875419
 20
6.5131827958
 30
0.0
 10
11.0853920476
 20
6.5206523899
 30
0.0
 10
11.0591918335
 20
6.5267607821
 30
0.0
 10
11.0330254127
 20
6.5315091512
 30
0.0
 10
11.0069293498
 20
6.5349245413
 30
0.0
 10
10.9809356486
 20
6.5370575648
 30
0.0
 10
10.9550698602
 20
6.5379752411
 30
0.0
 10
10.9293503127
 20
6.5377576164
 30
0.0
 10
10.903789259
 20
6.5364924786
 30
0.0
 10
10.8868308065
 20
6.5350076618
 30
0.0
 10
10.8783837737
 20
6.5341201553
 30
0.0
  0
SPLINE
  5
377
100
AcDbEntity
  8
0
100
AcDbSpline
 62
7
  6
CONTINUOUS
 70
0
 71
3
 72
10
 73
6
 74
0
 42
0.0000001
 43
0.0000001
 44
0.0000000001
 40
0.0
 40
0.0
 40
0.0
 40
0.0
 40
0.5114800979
 40
0.7581744319
 40
1.0
 40
1.0
 40
1.0
 40
1.0
 10
11.9935817591
 20
6.0977917207
 30
0.0
 10
11.9903953157
 20
6.0962183621
 30
0.0
 10
11.9855414235
 20
6.0941345416
 30
0.0
 10
11.9789425038
 20
6.091952236
 30
0.0
 10
11.975662184
 20
6.091071377
 30
0.0
 10
11.9740276619
 20
6.0906823485
 30
0.0
  0
SPLINE
  5
378
100
AcDbEntity
  8
0
100
AcDbSpline
 62
7
  6
CONTINUOUS
 70
0
 71
3
 72
11
 73
7
 74
0
 42
0.0000001
 43
0.0000001
 44
0.0000000001
 40
0.0
 40
0.0
 40
0.0
 40
0.0
 40
0.2545574775
 40
0.5052872671
 40
0.7534080087
 40
1.0
 40
1.0
 40
1.0
 40
1.0
 10
11.9740276619
 20
6.0906823485
 30
0.0
 10
11.9720762329
 20
6.0902178937
 30
0.0
 10
11.9681698081
 20
6.0894283571
 30
0.0
 10
11.9622797852
 20
6.0886500859
 30
0.0
 10
11.9564141427
 20
6.0882665697
 30
0.0
 10
11.9525128653
 20
6.0882592236
 30
0.0
 10
11.9505704684
 20
6.0883140577
 30
0.0
  0
SPLINE
  5
379
100
AcDbEntity
  8
0
100
AcDbSpline
 62
7
  6
CONTINUOUS
 70
0
 71
3
 72
51
 73
47
 74
0
 42
0.0000001
 43
0.0000001
 44
0.0000000001
 40
0.0
 40
0.0
 40
0.0
 40
0.0
 40
0.0481980747
 40
0.0958298526
 40
0.1428199449
 40
0.1890979835
 40
0.2345930892
 40
0.2792367333
 40
0.3229621329
 40
0.3657045403
 40
0.4074014622
 40
0.4479928299
 40
0.4874212467
 40
0.5256322393
 40
0.5625745011
 40
0.5982001867
 40
0.6324652508
 40
0.6653298673
 40
0.6967589097
 40
0.7267224968
 40
0.7551966901
 40
0.7688701393
 40
0.7821654912
 40
0.7950818118
 40
0.8076188304
 40
0.8197768884
 40
0.8315569804
 40
0.8429609602
 40
0.8539914242
 40
0.8646519776
 40
0.8749472487
 40
0.8848829696
 40
0.8944662496
 40
0.9037055338
 40
0.9126109204
 40
0.9211942686
 40
0.9294693404
 40
0.937452123
 40
0.9451608562
 40
0.9598349789
 40
0.9668568053
 40
0.9737036628
 40
0.9804068766
 40
0.9870000912
 40
0.9935188408
 40
1.0
 40
1.0
 40
1.0
 40
1.0
 10
10.3469930859
 20
10.5696439314
 30
0.0
 10
10.3383862792
 20
10.5702408155
 30
0.0
 10
10.3212802845
 20
10.5715236506
 30
0.0
 10
10.2958102253
 20
10.5737294313
 30
0.0
 10
10.2707100204
 20
10.5762027123
 30
0.0
 10
10.2460219055
 20
10.5789392665
 30
0.0
 10
10.221786964
 20
10.5819345478
 30
0.0
 10
10.1980457883
 20
10.5851835067
 30
0.0
 10
10.1748380401
 20
10.5886806835
 30
0.0
 10
10.152202503
 20
10.5924201991
 30
0.0
 10
10.1301769985
 20
10.596395766
 30
0.0
 10
10.108798319
 20
10.6006007038
 30
0.0
 10
10.0881021626
 20
10.6050279439
 30
0.0
 10
10.0681230662
 20
10.6096700355
 30
0.0
 10
10.048894349
 20
10.6145191706
 30
0.0
 10
10.030448059
 20
10.6195671948
 30
0.0
 10
10.0128149055
 20
10.6248056263
 30
0.0
 10
9.9960242169
 20
10.6302256656
 30
0.0
 10
9.9801037998
 20
10.6358182165
 30
0.0
 10
9.9650801701
 20
10.6415739038
 30
0.0
 10
9.9531727409
 20
10.6465633253
 30
0.0
 10
9.9441224986
 20
10.6506369481
 30
0.0
 10
9.9376662143
 20
10.6536856119
 30
0.0
 10
9.9314521128
 20
10.6567677848
 30
0.0
 10
9.9254827579
 20
10.6598821879
 30
0.0
 10
9.919760623
 20
10.6630275158
 30
0.0
 10
9.9142880941
 20
10.6662025055
 30
0.0
 10
9.9090674124
 20
10.6694057972
 30
0.0
 10
9.904100755
 20
10.6726361204
 30
0.0
 10
9.8993901625
 20
10.6758921346
 30
0.0
 10
9.8949375674
 20
10.6791725042
 30
0.0
 10
9.8907448329
 20
10.6824759488
 30
0.0
 10
9.886813652
 20
10.6858010916
 30
0.0
 10
9.8831456796
 20
10.6891466626
 30
0.0
 10
9.8797424346
 20
10.6925113244
 30
0.0
 10
9.8766053107
 20
10.6958937832
 30
0.0
 10
9.8737357481
 20
10.6992926861
 30
0.0
 10
9.8711347479
 20
10.7027070404
 30
0.0
 10
9.8680774248
 20
10.7072031755
 30
0.0
 10
9.8654907557
 20
10.7118055393
 30
0.0
 10
9.8634414085
 20
10.7164892753
 30
0.0
 10
9.8622005127
 20
10.719959659
 30
0.0
 10
9.8612344812
 20
10.7234368607
 30
0.0
 10
9.8605439083
 20
10.726919484
 30
0.0
 10
9.8601293033
 20
10.7304054887
 30
0.0
 10
9.8600370717
 20
10.7327335181
 30
0.0
 10
9.8600370696
 20
10.7338936487
 30
0.0
  0
SPLINE
  5
37A
100
AcDbEntity
  8
0
100
AcDbSpline
 62
7
  6
CONTINUOUS
 70
0
 71
3
 72
41
 73
37
 74
0
 42
0.0000001
 43
0.0000001
 44
0.0000000001
 40
0.0
 40
0.0
 40
0.0
 40
0.0
 40
0.0311444983
 40
0.062442467
 40
0.093887251
 40
0.1254695609
 40
0.157177086
 40
0.1889950997
 40
0.2209066479
 40
0.2528929497
 40
0.284933762
 40
0.3170077852
 40
0.3490930781
 40
0.3811674822
 40
0.4132090489
 40
0.445196464
 40
0.4771094635
 40
0.5089292351
 40
0.540638799
 40
0.5722233621
 40
0.6036706378
 40
0.6349711269
 40
0.6661183495
 40
0.6971090237
 40
0.7279431823
 40
0.7586242225
 40
0.7891588828
 40
0.8195571428
 40
0.8498320452
 40
0.86493089
 40
0.8800050502
 40
0.9100832578
 40
0.9400926753
 40
0.9550812784
 40
0.9700610371
 40
1.0
 40
1.0
 40
1.0
 40
1.0
 10
9.598478522
 20
7.1101248633
 30
0.0
 10
9.6017924695
 20
7.1098950403
 30
0.0
 10
9.6084223375
 20
7.1091916875
 30
0.0
 10
9.6182867544
 20
7.1074199565
 30
0.0
 10
9.6280455289
 20
7.1049382532
 30
0.0
 10
9.6376459225
 20
7.1017599782
 30
0.0
 10
9.6470369573
 20
7.0979021318
 30
0.0
 10
9.6561685322
 20
7.093385366
 30
0.0
 10
9.6649920034
 20
7.0882338119
 30
0.0
 10
9.6734603545
 20
7.0824749777
 30
0.0
 10
9.6815284662
 20
7.0761395912
 30
0.0
 10
9.6891533486
 20
7.0692614418
 30
0.0
 10
9.6962943687
 20
7.0618772
 30
0.0
 10
9.7029134647
 20
7.0540262243
 30
0.0
 10
9.7089753468
 20
7.0457503532
 30
0.0
 10
9.7144476833
 20
7.0370936846
 30
0.0
 10
9.7193012724
 20
7.0281023436
 30
0.0
 10
9.7235101961
 20
7.0188242394
 30
0.0
 10
9.7270519583
 20
7.0093088131
 30
0.0
 10
9.7299076051
 20
6.9996067778
 30
0.0
 10
9.732061826
 20
6.9897698519
 30
0.0
 10
9.7335030379
 20
6.9798504873
 30
0.0
 10
9.7342234484
 20
6.9699015925
 30
0.0
 10
9.7342191025
 20
6.959976257
 30
0.0
 10
9.733489903
 20
6.9501274605
 30
0.0
 10
9.7320396357
 20
6.9404078303
 30
0.0
 10
9.7298758831
 20
6.93086922
 30
0.0
 10
9.7270102591
 20
6.9215629574
 30
0.0
 10
9.7240467091
 20
6.9140347346
 30
0.0
 10
9.7213423258
 20
6.9081803681
 30
0.0
 10
9.7184237537
 20
6.9024533016
 30
0.0
 10
9.7143714944
 20
6.8955261045
 30
0.0
 10
9.7097980341
 20
6.888942425
 30
0.0
 10
9.7058458963
 20
6.8839100158
 30
0.0
 10
9.7017052157
 20
6.879041871
 30
0.0
 10
9.6983878194
 20
6.8755761503
 30
0.0
 10
9.6960910145
 20
6.8733575919
 30
0.0
  0
SPLINE
  5
37B
100
AcDbEntity
  8
0
100
AcDbSpline
 62
7
  6
CONTINUOUS
 70
0
 71
3
 72
41
 73
37
 74
0
 42
0.0000001
 43
0.0000001
 44
0.0000000001
 40
0.0
 40
0.0
 40
0.0
 40
0.0
 40
0.0311444983
 40
0.062442467
 40
0.093887251
 40
0.1254695609
 40
0.157177086
 40
0.1889950997
 40
0.2209066479
 40
0.2528929497
 40
0.284933762
 40
0.3170077852
 40
0.3490930781
 40
0.3811674822
 40
0.4132090489
 40
0.445196464
 40
0.4771094635
 40
0.5089292351
 40
0.540638799
 40
0.5722233621
 40
0.6036706378
 40
0.6349711269
 40
0.6661183495
 40
0.6971090237
 40
0.7279431823
 40
0.7586242225
 40
0.7891588828
 40
0.8195571428
 40
0.8498320452
 40
0.86493089
 40
0.8800050502
 40
0.9100832578
 40
0.9400926753
 40
0.9550812784
 40
0.9700610371
 40
1.0
 40
1.0
 40
1.0
 40
1.0
 10
12.0132932308
 20
6.9426568945
 30
0.0
 10
12.0166071783
 20
6.9424270714
 30
0.0
 10
12.0232370463
 20
6.9417237186
 30
0.0
 10
12.0331014632
 20
6.9399519876
 30
0.0
 10
12.0428602377
 20
6.9374702843
 30
0.0
 10
12.0524606313
 20
6.9342920093
 30
0.0
 10
12.0618516661
 20
6.9304341629
 30
0.0
 10
12.070983241
 20
6.9259173971
 30
0.0
 10
12.0798067123
 20
6.9207658431
 30
0.0
 10
12.0882750633
 20
6.9150070088
 30
0.0
 10
12.096343175
 20
6.9086716223
 30
0.0
 10
12.1039680574
 20
6.9017934729
 30
0.0
 10
12.1111090775
 20
6.8944092312
 30
0.0
 10
12.1177281736
 20
6.8865582555
 30
0.0
 10
12.1237900556
 20
6.8782823844
 30
0.0
 10
12.1292623922
 20
6.8696257158
 30
0.0
 10
12.1341159812
 20
6.8606343748
 30
0.0
 10
12.1383249049
 20
6.8513562705
 30
0.0
 10
12.1418666671
 20
6.8418408442
 30
0.0
 10
12.1447223139
 20
6.8321388089
 30
0.0
 10
12.1468765348
 20
6.822301883
 30
0.0
 10
12.1483177467
 20
6.8123825184
 30
0.0
 10
12.1490381572
 20
6.8024336237
 30
0.0
 10
12.1490338113
 20
6.7925082882
 30
0.0
 10
12.1483046118
 20
6.7826594916
 30
0.0
 10
12.1468543446
 20
6.7729398614
 30
0.0
 10
12.1446905919
 20
6.7634012512
 30
0.0
 10
12.1418249679
 20
6.7540949885
 30
0.0
 10
12.1388614179
 20
6.7465667657
 30
0.0
 10
12.1361570346
 20
6.7407123992
 30
0.0
 10
12.1332384625
 20
6.7349853327
 30
0.0
 10
12.1291862032
 20
6.7280581357
 30
0.0
 10
12.1246127429
 20
6.7214744561
 30
0.0
 10
12.1206606051
 20
6.716442047
 30
0.0
 10
12.1165199245
 20
6.7115739022
 30
0.0
 10
12.1132025283
 20
6.7081081815
 30
0.0
 10
12.1109057233
 20
6.7058896231
 30
0.0
  0
SPLINE
  5
37C
100
AcDbEntity
  8
0
100
AcDbSpline
 62
7
  6
CONTINUOUS
 70
0
 71
3
 72
18
 73
14
 74
0
 42
0.0000001
 43
0.0000001
 44
0.0000000001
 40
0.0
 40
0.0
 40
0.0
 40
0.0
 40
0.1504678859
 40
0.2917100145
 40
0.4244359174
 40
0.549562529
 40
0.668213991
 40
0.7255497453
 40
0.7817912733
 40
0.8371402265
 40
0.8918093735
 40
0.9460201098
 40
1.0
 40
1.0
 40
1.0
 40
1.0
 10
12.4488888253
 20
9.5060083232
 30
0.0
 10
12.4507815694
 20
9.5078365737
 30
0.0
 10
12.4545643618
 20
9.5112668377
 30
0.0
 10
12.4604219906
 20
9.5158382432
 30
0.0
 10
12.4662727353
 20
9.5196615339
 30
0.0
 10
12.4721105421
 20
9.5227304447
 30
0.0
 10
12.477017161
 20
9.524676465
 30
0.0
 10
12.480912793
 20
9.525832683
 30
0.0
 10
12.4837930241
 20
9.5264991036
 30
0.0
 10
12.4866636996
 20
9.5269740741
 30
0.0
 10
12.489524014
 20
9.5272574408
 30
0.0
 10
12.4923728321
 20
9.5273490339
 30
0.0
 10
12.4942655039
 20
9.5272820828
 30
0.0
 10
12.4952072974
 20
9.5272167722
 30
0.0
  0
SPLINE
  5
37D
100
AcDbEntity
  8
0
100
AcDbSpline
 62
7
  6
CONTINUOUS
 70
0
 71
3
 72
54
 73
50
 74
0
 42
0.0000001
 43
0.0000001
 44
0.0000000001
 40
0.0
 40
0.0
 40
0.0
 40
0.0
 40
0.0055575314
 40
0.0111779514
 40
0.0169218741
 40
0.0228457549
 40
0.0290005166
 40
0.0354309104
 40
0.0421753481
 40
0.0492661819
 40
0.0567302289
 40
0.0645893164
 40
0.0728609992
 40
0.0815590171
 40
0.0906939529
 40
0.1002735511
 40
0.1103032084
 40
0.120786225
 40
0.131724095
 40
0.1431167574
 40
0.1549627059
 40
0.1672592594
 40
0.1800025507
 40
0.1931877841
 40
0.2068091928
 40
0.2208602246
 40
0.2353335436
 40
0.2502211095
 40
0.265514256
 40
0.2812036668
 40
0.2972795185
 40
0.3137313951
 40
0.3477187121
 40
0.383073812
 40
0.4196976091
 40
0.4574851642
 40
0.4963263633
 40
0.5361065441
 40
0.5767070861
 40
0.6180059759
 40
0.6598783548
 40
0.7021970543
 40
0.7448331254
 40
0.7876563595
 40
0.8305358172
 40
0.8733403047
 40
0.9159390443
 40
0.9582017033
 40
1.0
 40
1.0
 40
1.0
 40
1.0
 10
11.1740370469
 20
10.7338939625
 30
0.0
 10
11.1740370497
 20
10.7322686723
 30
0.0
 10
11.1738551107
 20
10.7289968686
 30
0.0
 10
11.1730383923
 20
10.7241066327
 30
0.0
 10
11.1716793252
 20
10.7192272924
 30
0.0
 10
11.1697804555
 20
10.7143645333
 30
0.0
 10
11.1673449804
 20
10.7095222715
 30
0.0
 10
11.1643761374
 20
10.7047042342
 30
0.0
 10
11.160877312
 20
10.6999137298
 30
0.0
 10
11.1568519567
 20
10.6951539633
 30
0.0
 10
11.1523036303
 20
10.6904281835
 30
0.0
 10
11.147236197
 20
10.6857396125
 30
0.0
 10
11.1416537222
 20
10.6810916749
 30
0.0
 10
11.1355607235
 20
10.6764877288
 30
0.0
 10
11.1289620124
 20
10.6719313279
 30
0.0
 10
11.1218628764
 20
10.6674259423
 30
0.0
 10
11.1142689691
 20
10.6629751456
 30
0.0
 10
11.1061863844
 20
10.6585824667
 30
0.0
 10
11.0976216271
 20
10.6542514194
 30
0.0
 10
11.0885815996
 20
10.6499855348
 30
0.0
 10
11.0790736307
 20
10.6457882296
 30
0.0
 10
11.0691054176
 20
10.6416629801
 30
0.0
 10
11.0586850749
 20
10.6376130991
 30
0.0
 10
11.047821073
 20
10.6336419534
 30
0.0
 10
11.0365222737
 20
10.6297527578
 30
0.0
 10
11.0247978905
 20
10.6259487278
 30
0.0
 10
11.0126574976
 20
10.6222329792
 30
0.0
 10
11.0001110157
 20
10.6186085545
 30
0.0
 10
10.9871686985
 20
10.6150784554
 30
0.0
 10
10.9738411381
 20
10.6116455523
 30
0.0
 10
10.9601392215
 20
10.6083126852
 30
0.0
 10
10.9411800915
 20
10.6039587078
 30
0.0
 10
10.9166233903
 20
10.5987987132
 30
0.0
 10
10.8861575908
 20
10.5931120927
 30
0.0
 10
10.8544828304
 20
10.5878846027
 30
0.0
 10
10.8217028493
 20
10.5831335129
 30
0.0
 10
10.7879248593
 20
10.5788745476
 30
0.0
 10
10.7532594432
 20
10.5751217866
 30
0.0
 10
10.7178201078
 20
10.5718876338
 30
0.0
 10
10.6817229258
 20
10.5691827749
 30
0.0
 10
10.6450861434
 20
10.5670161448
 30
0.0
 10
10.6080297899
 20
10.565394897
 30
0.0
 10
10.5706752795
 20
10.564324384
 30
0.0
 10
10.5331450091
 20
10.5638081383
 30
0.0
 10
10.4955619597
 20
10.5638478661
 30
0.0
 10
10.4580492696
 20
10.5644434307
 30
0.0
 10
10.4207298849
 20
10.5655928782
 30
0.0
 10
10.3837261324
 20
10.5672923908
 30
0.0
 10
10.359187634
 20
10.5687982366
 30
0.0
 10
10.3469930859
 20
10.5696439314
 30
0.0
  0
SPLINE
  5
37E
100
AcDbEntity
  8
0
100
AcDbSpline
 62
7
  6
CONTINUOUS
 70
0
 71
3
 72
21
 73
17
 74
0
 42
0.0000001
 43
0.0000001
 44
0.0000000001
 40
0.0
 40
0.0
 40
0.0
 40
0.0
 40
0.061653237
 40
0.123329498
 40
0.1850515502
 40
0.2468416698
 40
0.3087213548
 40
0.370711108
 40
0.4328302426
 40
0.495096636
 40
0.5575265765
 40
0.6201345494
 40
0.682933126
 40
0.7459332432
 40
0.8725261314
 40
1.0
 40
1.0
 40
1.0
 40
1.0
 10
9.5008660294
 20
7.0754669614
 30
0.0
 10
9.5024427362
 20
7.0769899537
 30
0.0
 10
9.5056793233
 20
7.0799523269
 30
0.0
 10
9.5107670282
 20
7.0841293433
 30
0.0
 10
9.5160756442
 20
7.0880302886
 30
0.0
 10
9.5215916321
 20
7.0916451463
 30
0.0
 10
9.5273011564
 20
7.094964828
 30
0.0
 10
9.5331897854
 20
7.0979810145
 30
0.0
 10
9.5392426928
 20
7.1006861118
 30
0.0
 10
9.545444638
 20
7.1030732773
 30
0.0
 10
9.5517799873
 20
7.1051365626
 30
0.0
 10
9.5582327361
 20
7.1068707795
 30
0.0
 10
9.5647868327
 20
7.1082715447
 30
0.0
 10
9.5736511857
 20
7.1096921107
 30
0.0
 10
9.5849075073
 20
7.1106150467
 30
0.0
 10
9.5939569114
 20
7.1104384381
 30
0.0
 10
9.598478522
 20
7.1101248633
 30
0.0
  0
SPLINE
  5
37F
100
AcDbEntity
  8
0
100
AcDbSpline
 62
7
  6
CONTINUOUS
 70
0
 71
3
 72
21
 73
17
 74
0
 42
0.0000001
 43
0.0000001
 44
0.0000000001
 40
0.0
 40
0.0
 40
0.0
 40
0.0
 40
0.061653237
 40
0.123329498
 40
0.1850515502
 40
0.2468416698
 40
0.3087213548
 40
0.370711108
 40
0.4328302426
 40
0.495096636
 40
0.5575265765
 40
0.6201345494
 40
0.682933126
 40
0.7459332432
 40
0.8725261314
 40
1.0
 40
1.0
 40
1.0
 40
1.0
 10
11.9156807382
 20
6.9079989926
 30
0.0
 10
11.917257445
 20
6.9095219848
 30
0.0
 10
11.9204940321
 20
6.9124843581
 30
0.0
 10
11.925581737
 20
6.9166613744
 30
0.0
 10
11.930890353
 20
6.9205623197
 30
0.0
 10
11.9364063409
 20
6.9241771774
 30
0.0
 10
11.9421158652
 20
6.9274968592
 30
0.0
 10
11.9480044942
 20
6.9305130456
 30
0.0
 10
11.9540574016
 20
6.933218143
 30
0.0
 10
11.9602593468
 20
6.9356053085
 30
0.0
 10
11.9665946961
 20
6.9376685938
 30
0.0
 10
11.9730474449
 20
6.9394028106
 30
0.0
 10
11.9796015415
 20
6.9408035758
 30
0.0
 10
11.9884658945
 20
6.9422241419
 30
0.0
 10
11.9997222161
 20
6.9431470778
 30
0.0
 10
12.0087716202
 20
6.9429704692
 30
0.0
 10
12.0132932308
 20
6.9426568945
 30
0.0
  0
SPLINE
  5
380
100
AcDbEntity
  8
0
100
AcDbSpline
 62
7
  6
CONTINUOUS
 70
0
 71
3
 72
93
 73
89
 74
0
 42
0.0000001
 43
0.0000001
 44
0.0000000001
 40
0.0
 40
0.0
 40
0.0
 40
0.0
 40
0.0027164122
 40
0.0054531986
 40
0.0082302464
 40
0.0110665143
 40
0.0139796987
 40
0.0169859749
 40
0.0200999116
 40
0.0233343924
 40
0.0267007144
 40
0.0302086301
 40
0.0338665055
 40
0.0376814345
 40
0.0416593638
 40
0.0458052537
 40
0.0501231341
 40
0.0546162866
 40
0.0592872492
 40
0.0641379798
 40
0.0691698571
 40
0.0743837847
 40
0.0797802281
 40
0.0853592419
 40
0.0911205549
 40
0.097063532
 40
0.1031872889
 40
0.1094906267
 40
0.1159721353
 40
0.1226301497
 40
0.136467702
 40
0.1509863985
 40
0.166166177
 40
0.1819844989
 40
0.1984166092
 40
0.2154357535
 40
0.2330133648
 40
0.2511192265
 40
0.2697216198
 40
0.2887874599
 40
0.3082824199
 40
0.3281710492
 40
0.3484168852
 40
0.3689825618
 40
0.3898299142
 40
0.4109200821
 40
0.4322136103
 40
0.45367055
 40
0.4752505584
 40
0.496912997
 40
0.5186170297
 40
0.5403217213
 40
0.5619861345
 40
0.5835694282
 40
0.6050309555
 40
0.6263303623
 40
0.6474276864
 40
0.6682834561
 40
0.6888587905
 40
0.7091155008
 40
0.729016193
 40
0.7485243728
 40
0.7676045542
 40
0.7862223725
 40
0.8043447018
 40
0.8219397795
 40
0.8389773394
 40
0.8554287585
 40
0.8712672205
 40
0.8864679016
 40
0.901008187
 40
0.914867929
 40
0.921537231
 40
0.9280301459
 40
0.9343449921
 40
0.9404803324
 40
0.9464349771
 40
0.9522079882
 40
0.9577987496
 40
0.9632069274
 40
0.9684325931
 40
0.9734761642
 40
0.9783385117
 40
0.9830209603
 40
0.9875254509
 40
0.9918545996
 40
0.9960115539
 40
1.0
 40
1.0
 40
1.0
 40
1.0
 10
12.4025703532
 20
8.1914251162
 30
0.0
 10
12.4013208136
 20
8.1915117682
 30
0.0
 10
12.3988187586
 20
8.1917988001
 30
0.0
 10
12.395097529
 20
8.1925669385
 30
0.0
 10
12.3914044299
 20
8.1936725346
 30
0.0
 10
12.3877420696
 20
8.1951144723
 30
0.0
 10
12.3841123825
 20
8.1968915523
 30
0.0
 10
12.3805171718
 20
8.1990022823
 30
0.0
 10
12.3769581607
 20
8.2014452624
 30
0.0
 10
12.3734368646
 20
8.2042188533
 30
0.0
 10
12.3699548624
 20
8.2073215051
 30
0.0
 10
12.3665136147
 20
8.2107514768
 30
0.0
 10
12.3631146426
 20
8.2145070004
 30
0.0
 10
12.3597594596
 20
8.2185861712
 30
0.0
 10
12.3564495563
 20
8.2229869393
 30
0.0
 10
12.3531865105
 20
8.2277071582
 30
0.0
 10
12.3499717908
 20
8.2327444701
 30
0.0
 10
12.3468069987
 20
8.23809643
 30
0.0
 10
12.3436935952
 20
8.2437603713
 30
0.0
 10
12.3406331503
 20
8.2497335207
 30
0.0
 10
12.3376271315
 20
8.2560129091
 30
0.0
 10
12.3346770372
 20
8.2625954294
 30
0.0
 10
12.3317843408
 20
8.2694778125
 30
0.0
 10
12.3289504548
 20
8.2766566271
 30
0.0
 10
12.3261768403
 20
8.2841283042
 30
0.0
 10
12.323464833
 20
8.2918891036
 30
0.0
 10
12.3208158486
 20
8.2999351574
 30
0.0
 10
12.3182311732
 20
8.3082624296
 30
0.0
 10
12.3157121239
 20
8.3168667678
 30
0.0
 10
12.3124000015
 20
8.3288572876
 30
0.0
 10
12.3084441337
 20
8.3445126208
 30
0.0
 10
12.3040370558
 20
8.3640994489
 30
0.0
 10
12.2999200149
 20
8.3846814134
 30
0.0
 10
12.2961013672
 20
8.4062172081
 30
0.0
 10
12.2925888894
 20
8.4286637488
 30
0.0
 10
12.2893897299
 20
8.4519760238
 30
0.0
 10
12.2865104022
 20
8.4761072635
 30
0.0
 10
12.2839567673
 20
8.5010090207
 30
0.0
 10
12.2817340231
 20
8.5266312799
 30
0.0
 10
12.2798466951
 20
8.5529225604
 30
0.0
 10
12.2782986279
 20
8.5798300247
 30
0.0
 10
12.2770929775
 20
8.6072995863
 30
0.0
 10
12.2762322062
 20
8.6352760209
 30
0.0
 10
12.2757180772
 20
8.6637030784
 30
0.0
 10
12.2755516523
 20
8.6925235971
 30
0.0
 10
12.2757332897
 20
8.7216796196
 30
0.0
 10
12.2762626422
 20
8.75111251
 30
0.0
 10
12.2771386594
 20
8.7807630732
 30
0.0
 10
12.2783595903
 20
8.8105716748
 30
0.0
 10
12.2799229872
 20
8.8404783616
 30
0.0
 10
12.2818257102
 20
8.8704229823
 30
0.0
 10
12.2840639343
 20
8.9003453094
 30
0.0
 10
12.2866331565
 20
8.9301851599
 30
0.0
 10
12.2895282054
 20
8.9598825171
 30
0.0
 10
12.292743251
 20
8.989377652
 30
0.0
 10
12.2962718151
 20
9.0186112444
 30
0.0
 10
12.3001067861
 20
9.0475245027
 30
0.0
 10
12.3042404329
 20
9.0760592826
 30
0.0
 10
12.3086644202
 20
9.1041582048
 30
0.0
 10
12.3133698254
 20
9.1317647708
 30
0.0
 10
12.3183471557
 20
9.1588234776
 30
0.0
 10
12.3235863677
 20
9.1852799306
 30
0.0
 10
12.3290768866
 20
9.2110809547
 30
0.0
 10
12.3348076273
 20
9.236174704
 30
0.0
 10
12.3407670156
 20
9.2605107693
 30
0.0
 10
12.3469430128
 20
9.2840402822
 30
0.0
 10
12.3533231402
 20
9.3067160149
 30
0.0
 10
12.3598945044
 20
9.3284924869
 30
0.0
 10
12.3666438244
 20
9.3493260418
 30
0.0
 10
12.373557462
 20
9.3691750156
 30
0.0
 10
12.3806214503
 20
9.3879995827
 30
0.0
 10
12.3866967875
 20
9.4029878752
 30
0.0
 10
12.3916296126
 20
9.4144301314
 30
0.0
 10
12.395310477
 20
9.422622474
 30
0.0
 10
12.3990182045
 20
9.4305316066
 30
0.0
 10
12.4027509512
 20
9.4381535782
 30
0.0
 10
12.4065068257
 20
9.4454845793
 30
0.0
 10
12.4102839763
 20
9.452520936
 30
0.0
 10
12.4140804659
 20
9.4592591522
 30
0.0
 10
12.4178944533
 20
9.4656958498
 30
0.0
 10
12.4217239851
 20
9.4718278511
 30
0.0
 10
12.4255672127
 20
9.4776520834
 30
0.0
 10
12.4294221805
 20
9.4831656657
 30
0.0
 10
12.4332870095
 20
9.4883658657
 30
0.0
 10
12.4371598398
 20
9.4932501368
 30
0.0
 10
12.441038845
 20
9.4978161246
 30
0.0
 10
12.4449219957
 20
9.5020613536
 30
0.0
 10
12.447566061
 20
9.5047306309
 30
0.0
 10
12.4488888253
 20
9.5060083232
 30
0.0
  0
SPLINE
  5
381
100
AcDbEntity
  8
0
100
AcDbSpline
 62
7
  6
CONTINUOUS
 70
0
 71
3
 72
79
 73
75
 74
0
 42
0.0000001
 43
0.0000001
 44
0.0000000001
 40
0.0
 40
0.0
 40
0.0
 40
0.0
 40
0.0027966379
 40
0.005668168
 40
0.0086296961
 40
0.0116948219
 40
0.0181798611
 40
0.021622456
 40
0.0252084811
 40
0.0289446934
 40
0.032836775
 40
0.0368895163
 40
0.0411068217
 40
0.0454918871
 40
0.0500472582
 40
0.054774859
 40
0.0596761513
 40
0.0647520862
 40
0.0700032173
 40
0.075429748
 40
0.0810314923
 40
0.0927580784
 40
0.105176616
 40
0.1182763859
 40
0.1320434317
 40
0.1464609719
 40
0.1615097204
 40
0.1771681766
 40
0.1934128536
 40
0.2102184651
 40
0.2275580744
 40
0.2454032433
 40
0.263724175
 40
0.2824898325
 40
0.3016680432
 40
0.321225595
 40
0.3411283494
 40
0.36134134
 40
0.3818288643
 40
0.4234808514
 40
0.4657880735
 40
0.5084475313
 40
0.5511529964
 40
0.5935978253
 40
0.6354777522
 40
0.6561124935
 40
0.6764944266
 40
0.6965874473
 40
0.7163561375
 40
0.7357658522
 40
0.7547828119
 40
0.7733742056
 40
0.7915083035
 40
0.8091545527
 40
0.8262836872
 40
0.8428678503
 40
0.8588807471
 40
0.8742977924
 40
0.8890962719
 40
0.9032555427
 40
0.9167572812
 40
0.929585794
 40
0.941728368
 40
0.9531757216
 40
0.9586371635
 40
0.9639232462
 40
0.9690340583
 40
0.9739700796
 40
0.9787321761
 40
0.9833216622
 40
0.9877404875
 40
0.991991119
 40
0.9960764711
 40
1.0
 40
1.0
 40
1.0
 40
1.0
 10
12.3772154281
 20
8.3917914674
 30
0.0
 10
12.3763646662
 20
8.3920922545
 30
0.0
 10
12.3746648818
 20
8.3927735112
 30
0.0
 10
12.3721665998
 20
8.3940087422
 30
0.0
 10
12.369691234
 20
8.3954683346
 30
0.0
 10
12.3663610202
 20
8.3977548572
 30
0.0
 10
12.3631440546
 20
8.4004615383
 30
0.0
 10
12.3600432827
 20
8.4035286862
 30
0.0
 10
12.3576993789
 20
8.4060941214
 30
0.0
 10
12.3553849631
 20
8.4088770746
 30
0.0
 10
12.3531007667
 20
8.4118764291
 30
0.0
 10
12.3508479176
 20
8.4150907415
 30
0.0
 10
12.3486273578
 20
8.4185184905
 30
0.0
 10
12.3464401181
 20
8.422158075
 30
0.0
 10
12.3442872208
 20
8.4260077947
 30
0.0
 10
12.3421696192
 20
8.43006582
 30
0.0
 10
12.3400883537
 20
8.4343302592
 30
0.0
 10
12.3380443681
 20
8.4387990852
 30
0.0
 10
12.3360386352
 20
8.443470184
 30
0.0
 10
12.3340721128
 20
8.4483413576
 30
0.0
 10
12.3314637283
 20
8.4552049911
 30
0.0
 10
12.3283175266
 20
8.4642753671
 30
0.0
 10
12.3247681997
 20
8.4757588521
 30
0.0
 10
12.3213964454
 20
8.4879799403
 30
0.0
 10
12.3182087543
 20
8.500915364
 30
0.0
 10
12.3152112904
 20
8.514540632
 30
0.0
 10
12.3124098451
 20
8.5288298109
 30
0.0
 10
12.309809842
 20
8.5437556735
 30
0.0
 10
12.307416318
 20
8.5592897432
 30
0.0
 10
12.3052339164
 20
8.5754023572
 30
0.0
 10
12.3032668648
 20
8.5920627208
 30
0.0
 10
12.3015189693
 20
8.6092389721
 30
0.0
 10
12.2999936168
 20
8.6268982522
 30
0.0
 10
12.2986937656
 20
8.6450067717
 30
0.0
 10
12.2976219419
 20
8.663529871
 30
0.0
 10
12.2967802186
 20
8.6824320898
 30
0.0
 10
12.2961702349
 20
8.7016772263
 30
0.0
 10
12.2957931573
 20
8.7212284592
 30
0.0
 10
12.2956009834
 20
8.7478003046
 30
0.0
 10
12.295953729
 20
8.7815027066
 30
0.0
 10
12.2973025957
 20
8.8223387211
 30
0.0
 10
12.2995694533
 20
8.8634745524
 30
0.0
 10
12.3027369412
 20
8.904595371
 30
0.0
 10
12.3067808552
 20
8.9453864598
 30
0.0
 10
12.3108749594
 20
8.9790077444
 30
0.0
 10
12.3145712431
 20
9.0054992081
 30
0.0
 10
12.3175276466
 20
9.0249945793
 30
0.0
 10
12.3206760606
 20
9.0441767339
 30
0.0
 10
12.3240104595
 20
9.0630089701
 30
0.0
 10
12.3275244303
 20
9.0814552238
 30
0.0
 10
12.3312112246
 20
9.0994801809
 30
0.0
 10
12.3350637588
 20
9.1170493383
 30
0.0
 10
12.33907462
 20
9.1341290788
 30
0.0
 10
12.343236094
 20
9.1506867309
 30
0.0
 10
12.3475401758
 20
9.166690629
 30
0.0
 10
12.3519785902
 20
9.1821101794
 30
0.0
 10
12.3565427945
 20
9.1969159292
 30
0.0
 10
12.3612240019
 20
9.2110796274
 30
0.0
 10
12.3660132055
 20
9.224574274
 30
0.0
 10
12.3709011978
 20
9.2373741849
 30
0.0
 10
12.3758785927
 20
9.2494550309
 30
0.0
 10
12.3809358464
 20
9.2607939936
 30
0.0
 10
12.3860632719
 20
9.2713695124
 30
0.0
 10
12.3904526283
 20
9.2796549605
 30
0.0
 10
12.393998652
 20
9.2858773892
 30
0.0
 10
12.3966278344
 20
9.2902676419
 30
0.0
 10
12.3992672344
 20
9.2944526667
 30
0.0
 10
12.4019156023
 20
9.2984304883
 30
0.0
 10
12.4045716598
 20
9.3021992286
 30
0.0
 10
12.4072342159
 20
9.3057571023
 30
0.0
 10
12.4099020192
 20
9.3091024888
 30
0.0
 10
12.4125739035
 20
9.312233807
 30
0.0
 10
12.4152484662
 20
9.3151494367
 30
0.0
 10
12.4170686393
 20
9.3169849837
 30
0.0
 10
12.4179791963
 20
9.3178645142
 30
0.0
  0
SPLINE
  5
382
100
AcDbEntity
  8
0
100
AcDbSpline
 62
7
  6
CONTINUOUS
 70
0
 71
3
 72
15
 73
11
 74
0
 42
0.0000001
 43
0.0000001
 44
0.0000000001
 40
0.0
 40
0.0
 40
0.0
 40
0.0
 40
0.10844093
 40
0.2203198905
 40
0.3363916014
 40
0.4573220686
 40
0.5836913784
 40
0.7159978661
 40
0.8546571412
 40
1.0
 40
1.0
 40
1.0
 40
1.0
 10
12.4424377054
 20
9.332268361
 30
0.0
 10
12.4414192043
 20
9.3320604632
 30
0.0
 10
12.4393689611
 20
9.3315391569
 30
0.0
 10
12.4363232937
 20
9.3304685336
 30
0.0
 10
12.4332677497
 20
9.3291001622
 30
0.0
 10
12.4302044956
 20
9.3274354788
 30
0.0
 10
12.4271351008
 20
9.3254758561
 30
0.0
 10
12.4240611952
 20
9.3232227534
 30
0.0
 10
12.4209846546
 20
9.3206778714
 30
0.0
 10
12.418981291
 20
9.3188324634
 30
0.0
 10
12.4179791963
 20
9.3178645142
 30
0.0
  0
SPLINE
  5
383
100
AcDbEntity
  8
0
100
AcDbSpline
 62
7
  6
CONTINUOUS
 70
0
 71
3
 72
62
 73
58
 74
0
 42
0.0000001
 43
0.0000001
 44
0.0000000001
 40
0.0
 40
0.0
 40
0.0
 40
0.0
 40
0.0025826504
 40
0.0051788399
 40
0.0078018834
 40
0.0104646472
 40
0.0131793882
 40
0.0159576058
 40
0.0217435326
 40
0.0278996543
 40
0.0344857923
 40
0.0415486627
 40
0.0491237852
 40
0.0572373555
 40
0.0659079344
 40
0.0751479182
 40
0.0849646309
 40
0.0953611798
 40
0.1063372118
 40
0.1178894267
 40
0.1300119524
 40
0.1426967463
 40
0.1559338489
 40
0.169711544
 40
0.1840165963
 40
0.1988343996
 40
0.214149043
 40
0.2299434673
 40
0.24619957
 40
0.2628982344
 40
0.280019438
 40
0.2975423412
 40
0.3154453047
 40
0.3337059668
 40
0.352301325
 40
0.3904004882
 40
0.4295480356
 40
0.4695412334
 40
0.5101715557
 40
0.5512261442
 40
0.5924892956
 40
0.6337439132
 40
0.6747729576
 40
0.7153608956
 40
0.755295156
 40
0.7943676148
 40
0.8323760558
 40
0.8509203914
 40
0.8691263715
 40
0.8869710987
 40
0.9044323189
 40
0.9214884992
 40
0.9381189746
 40
0.9543037905
 40
0.9700238941
 40
0.985262007
 40
1.0
 40
1.0
 40
1.0
 40
1.0
 10
12.4148504018
 20
9.6860228055
 30
0.0
 10
12.4140836148
 20
9.6860759807
 30
0.0
 10
12.4125494099
 20
9.6862404238
 30
0.0
 10
12.4102636188
 20
9.6866599012
 30
0.0
 10
12.4079916902
 20
9.687252237
 30
0.0
 10
12.4057347256
 20
9.6880170017
 30
0.0
 10
12.4034935006
 20
9.6889538577
 30
0.0
 10
12.4004871666
 20
9.6904517346
 30
0.0
 10
12.3967612868
 20
9.692778165
 30
0.0
 10
12.392433342
 20
9.6962107631
 30
0.0
 10
12.3881911006
 20
9.7003149232
 30
0.0
 10
12.3840389195
 20
9.7050837886
 30
0.0
 10
12.3799806448
 20
9.7105107543
 30
0.0
 10
12.376020738
 20
9.7165885542
 30
0.0
 10
12.3721638382
 20
9.7233091645
 30
0.0
 10
12.3684148159
 20
9.7306636874
 30
0.0
 10
12.3647785919
 20
9.7386422791
 30
0.0
 10
12.3612600395
 20
9.7472341345
 30
0.0
 10
12.3578639946
 20
9.7564275373
 30
0.0
 10
12.3545951841
 20
9.7662098636
 30
0.0
 10
12.3514581552
 20
9.7765675968
 30
0.0
 10
12.34845732
 20
9.7874863809
 30
0.0
 10
12.3455969246
 20
9.7989510403
 30
0.0
 10
12.3428809879
 20
9.8109455945
 30
0.0
 10
12.3403133491
 20
9.8234533031
 30
0.0
 10
12.3378976578
 20
9.8364566916
 30
0.0
 10
12.3356373171
 20
9.8499375679
 30
0.0
 10
12.333535522
 20
9.8638770607
 30
0.0
 10
12.3315952638
 20
9.87825565
 30
0.0
 10
12.3298192787
 20
9.8930531872
 30
0.0
 10
12.3282100733
 20
9.9082489294
 30
0.0
 10
12.3267699387
 20
9.923821575
 30
0.0
 10
12.3255009142
 20
9.9397492804
 30
0.0
 10
12.3244047653
 20
9.9560097245
 30
0.0
 10
12.3231659245
 20
9.9782833079
 30
0.0
 10
12.3220698272
 20
10.0067885588
 30
0.0
 10
12.3214723489
 20
10.0416779061
 30
0.0
 10
12.3215860801
 20
10.0773254465
 30
0.0
 10
12.3224105437
 20
10.1135312031
 30
0.0
 10
12.3239412434
 20
10.1500922107
 30
0.0
 10
12.3261696629
 20
10.1868034387
 30
0.0
 10
12.3290833463
 20
10.2234590184
 30
0.0
 10
12.3326659084
 20
10.2598533991
 30
0.0
 10
12.3368971919
 20
10.2957824957
 30
0.0
 10
12.3417533442
 20
10.3310449151
 30
0.0
 10
12.3472069601
 20
10.3654428654
 30
0.0
 10
12.3522643076
 20
10.3934517479
 30
0.0
 10
12.3565942455
 20
10.4152759149
 30
0.0
 10
12.3599444375
 20
10.431175348
 30
0.0
 10
12.3634191682
 20
10.4467178938
 30
0.0
 10
12.3670135776
 20
10.4618817683
 30
0.0
 10
12.3707226082
 20
10.4766457134
 30
0.0
 10
12.3745410293
 20
10.4909890283
 30
0.0
 10
12.3784634521
 20
10.5048915761
 30
0.0
 10
12.3824844016
 20
10.5183340447
 30
0.0
 10
12.3865981682
 20
10.5312973489
 30
0.0
 10
12.3894471908
 20
10.539752087
 30
0.0
 10
12.3908879746
 20
10.5438949075
 30
0.0
  0
SPLINE
  5
384
100
AcDbEntity
  8
0
100
AcDbSpline
 62
7
  6
CONTINUOUS
 70
0
 71
3
 72
69
 73
65
 74
0
 42
0.0000001
 43
0.0000001
 44
0.0000000001
 40
0.0
 40
0.0
 40
0.0
 40
0.0
 40
0.0027657435
 40
0.0055963593
 40
0.0115118445
 40
0.0146285477
 40
0.0178660613
 40
0.0212345807
 40
0.0247429269
 40
0.0283986962
 40
0.0322082751
 40
0.0361770546
 40
0.0403095448
 40
0.0446093755
 40
0.0490795092
 40
0.0537222847
 40
0.0585394115
 40
0.0687005751
 40
0.0795687292
 40
0.0911428529
 40
0.1034170933
 40
0.1163815278
 40
0.1300228353
 40
0.1443247274
 40
0.1592682471
 40
0.174832139
 40
0.1909930924
 40
0.2077258738
 40
0.2250035407
 40
0.2427976276
 40
0.2610782332
 40
0.2798141378
 40
0.2989729705
 40
0.318521294
 40
0.3384246732
 40
0.3791539441
 40
0.4208706365
 40
0.4632744316
 40
0.5060586025
 40
0.5489129178
 40
0.5915264978
 40
0.6335906771
 40
0.6748018892
 40
0.7148645813
 40
0.7343762033
 40
0.7534950235
 40
0.7721876988
 40
0.7904219407
 40
0.8081666767
 40
0.8253921531
 40
0.8420700159
 40
0.8581734867
 40
0.8736775481
 40
0.888559053
 40
0.9027969388
 40
0.9163725441
 40
0.9292698419
 40
0.9414757841
 40
0.9529808467
 40
0.9637796546
 40
0.9738716323
 40
0.9832621313
 40
0.9919644764
 40
1.0
 40
1.0
 40
1.0
 40
1.0
 10
12.3924043767
 20
9.8714857323
 30
0.0
 10
12.391843422
 20
9.8716504728
 30
0.0
 10
12.3907219984
 20
9.8720323528
 30
0.0
 10
12.3884875348
 20
9.8730012815
 30
0.0
 10
12.3863100938
 20
9.8742662245
 30
0.0
 10
12.3842071864
 20
9.8757862307
 30
0.0
 10
12.3826189778
 20
9.8770929459
 30
0.0
 10
12.3810485954
 20
9.8785454285
 30
0.0
 10
12.3794964388
 20
9.8801430473
 30
0.0
 10
12.3779632767
 20
9.8818850096
 30
0.0
 10
12.3764497135
 20
9.8837704466
 30
0.0
 10
12.3749564239
 20
9.8857984602
 30
0.0
 10
12.3734841077
 20
9.8879681082
 30
0.0
 10
12.3720333925
 20
9.8902783355
 30
0.0
 10
12.3706049676
 20
9.8927280571
 30
0.0
 10
12.3691994969
 20
9.8953161255
 30
0.0
 10
12.3673235422
 20
9.8990158108
 30
0.0
 10
12.3650482033
 20
9.903985798
 30
0.0
 10
12.362466261
 20
9.9103779825
 30
0.0
 10
12.3599911482
 20
9.9172885072
 30
0.0
 10
12.3576276184
 20
9.9247041786
 30
0.0
 10
12.3553802132
 20
9.9326109723
 30
0.0
 10
12.3532533087
 20
9.9409937935
 30
0.0
 10
12.3512510664
 20
9.9498365982
 30
0.0
 10
12.3493773817
 20
9.9591223985
 30
0.0
 10
12.3476359189
 20
9.9688333273
 30
0.0
 10
12.3460301014
 20
9.9789506775
 30
0.0
 10
12.3445630644
 20
9.9894549312
 30
0.0
 10
12.3432376717
 20
10.000325808
 30
0.0
 10
12.3420565285
 20
10.0115423131
 30
0.0
 10
12.3410219507
 20
10.023082772
 30
0.0
 10
12.34013595
 20
10.0349248745
 30
0.0
 10
12.339400271
 20
10.0470457191
 30
0.0
 10
12.3388163483
 20
10.0594218862
 30
0.0
 10
12.3382372959
 20
10.0763616766
 30
0.0
 10
12.3379074081
 20
10.0979969393
 30
0.0
 10
12.3381293036
 20
10.1243900198
 30
0.0
 10
12.3389646916
 20
10.1512053945
 30
0.0
 10
12.3404071945
 20
10.1782357086
 30
0.0
 10
12.3424457614
 20
10.205272085
 30
0.0
 10
12.3450645882
 20
10.2321055458
 30
0.0
 10
12.3482433366
 20
10.258528765
 30
0.0
 10
12.3519572896
 20
10.2843374523
 30
0.0
 10
12.3555044584
 20
10.3053474501
 30
0.0
 10
12.3585958147
 20
10.32169289
 30
0.0
 10
12.361008625
 20
10.3335680649
 30
0.0
 10
12.3635313445
 20
10.345144174
 30
0.0
 10
12.3661591104
 20
10.3563988497
 30
0.0
 10
12.3688868059
 20
10.3673103376
 30
0.0
 10
12.3717091228
 20
10.3778575622
 30
0.0
 10
12.3746205834
 20
10.3880201522
 30
0.0
 10
12.3776155336
 20
10.3977784943
 30
0.0
 10
12.380688137
 20
10.4071137796
 30
0.0
 10
12.383832423
 20
10.4160080283
 30
0.0
 10
12.3870422976
 20
10.424444131
 30
0.0
 10
12.3903115164
 20
10.432405908
 30
0.0
 10
12.3936337414
 20
10.4398781311
 30
0.0
 10
12.397002576
 20
10.446846553
 30
0.0
 10
12.4004115416
 20
10.4532979769
 30
0.0
 10
12.4038541632
 20
10.4592202904
 30
0.0
 10
12.4073239628
 20
10.4646024152
 30
0.0
 10
12.4108147666
 20
10.4694346705
 30
0.0
 10
12.414320076
 20
10.4737077751
 30
0.0
 10
12.4167574612
 20
10.4762785111
 30
0.0
 10
12.4179791963
 20
10.4774586166
 30
0.0
  0
SPLINE
  5
385
100
AcDbEntity
  8
0
100
AcDbSpline
 62
7
  6
CONTINUOUS
 70
0
 71
3
 72
15
 73
11
 74
0
 42
0.0000001
 43
0.0000001
 44
0.0000000001
 40
0.0
 40
0.0
 40
0.0
 40
0.0
 40
0.1080211785
 40
0.2193204717
 40
0.334817338
 40
0.4553248275
 40
0.5815481723
 40
0.7140890849
 40
0.8534427369
 40
1.0
 40
1.0
 40
1.0
 40
1.0
 10
12.4350952869
 20
10.4870758244
 30
0.0
 10
12.434384928
 20
10.4869705131
 30
0.0
 10
12.4329529104
 20
10.4866810244
 30
0.0
 10
12.4308219967
 20
10.486026998
 30
0.0
 10
12.4286832591
 20
10.4851490831
 30
0.0
 10
12.4265385088
 20
10.4840484002
 30
0.0
 10
12.4243889667
 20
10.4827261335
 30
0.0
 10
12.4222359386
 20
10.4811834478
 30
0.0
 10
12.4200808941
 20
10.4794217475
 30
0.0
 10
12.4186799732
 20
10.4781355152
 30
0.0
 10
12.4179791963
 20
10.4774586166
 30
0.0
  0
SPLINE
  5
386
100
AcDbEntity
  8
0
100
AcDbSpline
 62
7
  6
CONTINUOUS
 70
0
 71
3
 72
57
 73
53
 74
0
 42
0.0000001
 43
0.0000001
 44
0.0000000001
 40
0.0
 40
0.0
 40
0.0
 40
0.0
 40
0.0075207721
 40
0.0156240917
 40
0.0243309804
 40
0.0336547579
 40
0.0436026095
 40
0.0541766024
 40
0.0653746632
 40
0.0771912706
 40
0.0896178469
 40
0.1026432873
 40
0.1162542539
 40
0.1304353395
 40
0.1451694045
 40
0.1604376904
 40
0.1762199193
 40
0.1924945312
 40
0.2092387141
 40
0.2264285006
 40
0.2620432788
 40
0.2991289698
 40
0.3374620098
 40
0.3768083629
 40
0.4169256638
 40
0.4575653442
 40
0.498474673
 40
0.5393987759
 40
0.5800826662
 40
0.6202732545
 40
0.6597213815
 40
0.6981838787
 40
0.7354256269
 40
0.7712217119
 40
0.788511156
 40
0.8053606567
 40
0.8217460535
 40
0.8376442541
 40
0.8530333577
 40
0.8678928348
 40
0.8822035382
 40
0.8959479099
 40
0.9091101862
 40
0.9216764844
 40
0.933635149
 40
0.9449770381
 40
0.9556958223
 40
0.9657886191
 40
0.9752564383
 40
0.9841051208
 40
0.9923469063
 40
1.0
 40
1.0
 40
1.0
 40
1.0
 10
12.4121436018
 20
7.2519405098
 30
0.0
 10
12.4112617276
 20
7.2530248186
 30
0.0
 10
12.4095241298
 20
7.2553552119
 30
0.0
 10
12.4070789159
 20
7.2591620768
 30
0.0
 10
12.4047035066
 20
7.2634012271
 30
0.0
 10
12.4024016647
 20
7.2680657196
 30
0.0
 10
12.4001769036
 20
7.2731483132
 30
0.0
 10
12.3980327754
 20
7.2786408476
 30
0.0
 10
12.3959727617
 20
7.2845344692
 30
0.0
 10
12.3940002874
 20
7.2908195987
 30
0.0
 10
12.3921186008
 20
7.2974859501
 30
0.0
 10
12.390330848
 20
7.3045225771
 30
0.0
 10
12.3886400385
 20
7.3119178917
 30
0.0
 10
12.3870489807
 20
7.3196596802
 30
0.0
 10
12.3855603555
 20
7.3277351421
 30
0.0
 10
12.3841766712
 20
7.3361309079
 30
0.0
 10
12.3829002272
 20
7.344833063
 30
0.0
 10
12.3817331884
 20
7.3538271739
 30
0.0
 10
12.380677492
 20
7.3630983323
 30
0.0
 10
12.3794057706
 20
7.375960862
 30
0.0
 10
12.378117234
 20
7.3926184341
 30
0.0
 10
12.3770551192
 20
7.4132274324
 30
0.0
 10
12.3764670286
 20
7.4345490551
 30
0.0
 10
12.3763570689
 20
7.4564417287
 30
0.0
 10
12.3767261611
 20
7.4787601998
 30
0.0
 10
12.3775719767
 20
7.5013562943
 30
0.0
 10
12.3788889856
 20
7.5240799849
 30
0.0
 10
12.3806684622
 20
7.5467803834
 30
0.0
 10
12.3828985647
 20
7.5693067582
 30
0.0
 10
12.3855644252
 20
7.5915095506
 30
0.0
 10
12.3886482317
 20
7.6132413685
 30
0.0
 10
12.3921293216
 20
7.6343580475
 30
0.0
 10
12.3959843924
 20
7.6547193937
 30
0.0
 10
12.3995267111
 20
7.6711299456
 30
0.0
 10
12.4025365788
 20
7.6837736521
 30
0.0
 10
12.4048447017
 20
7.6928752927
 30
0.0
 10
12.4072257541
 20
7.7016906011
 30
0.0
 10
12.4096757939
 20
7.7102049625
 30
0.0
 10
12.4121907391
 20
7.7184042528
 30
0.0
 10
12.4147663728
 20
7.7262748919
 30
0.0
 10
12.4173984092
 20
7.7338038467
 30
0.0
 10
12.4200824653
 20
7.7409786656
 30
0.0
 10
12.4228140448
 20
7.7477875109
 30
0.0
 10
12.4255886199
 20
7.7542191604
 30
0.0
 10
12.4284015816
 20
7.7602630482
 30
0.0
 10
12.4312482529
 20
7.7659092958
 30
0.0
 10
12.4341239753
 20
7.7711487058
 30
0.0
 10
12.4370240661
 20
7.7759728103
 30
0.0
 10
12.4399438105
 20
7.7803738697
 30
0.0
 10
12.4428787878
 20
7.7843450427
 30
0.0
 10
12.4458242594
 20
7.7878797101
 30
0.0
 10
12.4478658718
 20
7.7900188414
 30
0.0
 10
12.4488888253
 20
7.7910069387
 30
0.0
  0
SPLINE
  5
387
100
AcDbEntity
  8
0
100
AcDbSpline
 62
7
  6
CONTINUOUS
 70
0
 71
3
 72
19
 73
15
 74
0
 42
0.0000001
 43
0.0000001
 44
0.0000000001
 40
0.0
 40
0.0
 40
0.0
 40
0.0
 40
0.152879049
 40
0.2945793953
 40
0.426231647
 40
0.549350323
 40
0.6083254354
 40
0.665912891
 40
0.7224099865
 40
0.7781333313
 40
0.8334138893
 40
0.8885914803
 40
0.9440078235
 40
1.0
 40
1.0
 40
1.0
 40
1.0
 10
12.4179791963
 20
9.8805164206
 30
0.0
 10
12.4169351369
 20
9.8795079366
 30
0.0
 10
12.4148489275
 20
9.8776391058
 30
0.0
 10
12.411596253
 20
9.8752203222
 30
0.0
 10
12.4083480209
 20
9.8733021305
 30
0.0
 10
12.4056081925
 20
9.8721086134
 30
0.0
 10
12.403435961
 20
9.8714242102
 30
0.0
 10
12.401835303
 20
9.8710458408
 30
0.0
 10
12.4002409
 20
9.8707954891
 30
0.0
 10
12.3986534753
 20
9.8706733213
 30
0.0
 10
12.3970738644
 20
9.8706795371
 30
0.0
 10
12.3955028785
 20
9.8708141564
 30
0.0
 10
12.3939414722
 20
9.8710770288
 30
0.0
 10
12.3929144794
 20
9.871335926
 30
0.0
 10
12.3924043767
 20
9.8714857323
 30
0.0
  0
SPLINE
  5
388
100
AcDbEntity
  8
0
100
AcDbSpline
 62
7
  6
CONTINUOUS
 70
0
 71
3
 72
41
 73
37
 74
0
 42
0.0000001
 43
0.0000001
 44
0.0000000001
 40
0.0
 40
0.0
 40
0.0
 40
0.0
 40
0.0311444983
 40
0.062442467
 40
0.093887251
 40
0.1254695609
 40
0.157177086
 40
0.1889950997
 40
0.2209066479
 40
0.2528929497
 40
0.284933762
 40
0.3170077852
 40
0.3490930781
 40
0.3811674822
 40
0.4132090489
 40
0.445196464
 40
0.4771094635
 40
0.5089292351
 40
0.540638799
 40
0.5722233621
 40
0.6036706378
 40
0.6349711269
 40
0.6661183495
 40
0.6971090237
 40
0.7279431823
 40
0.7586242225
 40
0.7891588828
 40
0.8195571428
 40
0.8498320452
 40
0.86493089
 40
0.8800050502
 40
0.9100832578
 40
0.9400926753
 40
0.9550812784
 40
0.9700610371
 40
1.0
 40
1.0
 40
1.0
 40
1.0
 10
9.598478522
 20
6.83869969
 30
0.0
 10
9.5951645744
 20
6.8389295131
 30
0.0
 10
9.5885347064
 20
6.8396328659
 30
0.0
 10
9.5786702895
 20
6.8414045969
 30
0.0
 10
9.568911515
 20
6.8438863002
 30
0.0
 10
9.5593111214
 20
6.8470645752
 30
0.0
 10
9.5499200867
 20
6.8509224216
 30
0.0
 10
9.5407885117
 20
6.8554391874
 30
0.0
 10
9.5319650405
 20
6.8605907414
 30
0.0
 10
9.5234966894
 20
6.8663495757
 30
0.0
 10
9.5154285777
 20
6.8726849622
 30
0.0
 10
9.5078036953
 20
6.8795631116
 30
0.0
 10
9.5006626752
 20
6.8869473533
 30
0.0
 10
9.4940435792
 20
6.894798329
 30
0.0
 10
9.4879816972
 20
6.9030742002
 30
0.0
 10
9.4825093606
 20
6.9117308687
 30
0.0
 10
9.4776557715
 20
6.9207222097
 30
0.0
 10
9.4734468479
 20
6.930000314
 30
0.0
 10
9.4699050856
 20
6.9395157403
 30
0.0
 10
9.4670494389
 20
6.9492177756
 30
0.0
 10
9.4648952179
 20
6.9590547015
 30
0.0
 10
9.463454006
 20
6.9689740661
 30
0.0
 10
9.4627335956
 20
6.9789229609
 30
0.0
 10
9.4627379414
 20
6.9888482963
 30
0.0
 10
9.4634671409
 20
6.9986970929
 30
0.0
 10
9.4649174082
 20
7.0084167231
 30
0.0
 10
9.4670811608
 20
7.0179553333
 30
0.0
 10
9.4699467848
 20
7.027261596
 30
0.0
 10
9.4729103348
 20
7.0347898188
 30
0.0
 10
9.4756147181
 20
7.0406441853
 30
0.0
 10
9.4785332902
 20
7.0463712518
 30
0.0
 10
9.4825855495
 20
7.0532984488
 30
0.0
 10
9.4871590099
 20
7.0598821284
 30
0.0
 10
9.4911111477
 20
7.0649145375
 30
0.0
 10
9.4952518283
 20
7.0697826823
 30
0.0
 10
9.4985692245
 20
7.073248403
 30
0.0
 10
9.5008660294
 20
7.0754669614
 30
0.0
  0
SPLINE
  5
389
100
AcDbEntity
  8
0
100
AcDbSpline
 62
7
  6
CONTINUOUS
 70
0
 71
3
 72
77
 73
73
 74
0
 42
0.0000001
 43
0.0000001
 44
0.0000000001
 40
0.0
 40
0.0
 40
0.0
 40
0.0
 40
0.004039223
 40
0.0082525334
 40
0.0126437408
 40
0.017215986
 40
0.0219718974
 40
0.0269135517
 40
0.0320423559
 40
0.0373591096
 40
0.0485569818
 40
0.060506372
 40
0.0732002631
 40
0.0866270962
 40
0.1007714344
 40
0.1156145015
 40
0.131134632
 40
0.1473075814
 40
0.1641067507
 40
0.1815034662
 40
0.1994671869
 40
0.2179656427
 40
0.2369649791
 40
0.2564299435
 40
0.2763240105
 40
0.296609474
 40
0.3381978533
 40
0.3808757424
 40
0.4243116835
 40
0.4681666137
 40
0.5120972782
 40
0.5557596699
 40
0.5988124584
 40
0.6409204146
 40
0.6615182853
 40
0.6817587903
 40
0.701603323
 40
0.7210143205
 40
0.739955375
 40
0.758391396
 40
0.7762887423
 40
0.7936153325
 40
0.8103408066
 40
0.8264367533
 40
0.8418768706
 40
0.8566371751
 40
0.8706963097
 40
0.8840359157
 40
0.8966410001
 40
0.9085004683
 40
0.9196078862
 40
0.929962404
 40
0.9348593731
 40
0.9395710396
 40
0.9440994645
 40
0.9484474599
 40
0.9526185408
 40
0.956617084
 40
0.9604484982
 40
0.9641192317
 40
0.9676370152
 40
0.9710109853
 40
0.97425176
 40
0.9773716694
 40
0.9803847729
 40
0.9833068852
 40
0.9861555754
 40
0.9889499275
 40
0.9917102747
 40
0.9944577831
 40
0.9972139344
 40
1.0
 40
1.0
 40
1.0
 40
1.0
 10
12.4179791963
 20
9.8805164206
 30
0.0
 10
12.4186016049
 20
9.8811176212
 30
0.0
 10
12.4198457224
 20
9.8823746915
 30
0.0
 10
12.4216721493
 20
9.8843759382
 30
0.0
 10
12.4234966023
 20
9.8865309098
 30
0.0
 10
12.4253180048
 20
9.8888383956
 30
0.0
 10
12.4271354942
 20
9.8912971856
 30
0.0
 10
12.4289481431
 20
9.8939060622
 30
0.0
 10
12.4307550705
 20
9.8966637
 30
0.0
 10
12.4331977709
 20
9.9006054305
 30
0.0
 10
12.436223334
 20
9.9059025175
 30
0.0
 10
12.4397562284
 20
9.9127220296
 30
0.0
 10
12.4432442146
 20
9.9200963835
 30
0.0
 10
12.4466800138
 20
9.9280103488
 30
0.0
 10
12.4500564724
 20
9.9364476872
 30
0.0
 10
12.4533665278
 20
9.9453909505
 30
0.0
 10
12.4566032368
 20
9.9548216186
 30
0.0
 10
12.4597597966
 20
9.964720116
 30
0.0
 10
12.4628295918
 20
9.9750658547
 30
0.0
 10
12.4658061798
 20
9.9858372947
 30
0.0
 10
12.4686833057
 20
9.9970119993
 30
0.0
 10
12.4714549268
 20
10.0085666728
 30
0.0
 10
12.4741152395
 20
10.0204772114
 30
0.0
 10
12.4766586563
 20
10.032718759
 30
0.0
 10
12.4790798602
 20
10.0452657888
 30
0.0
 10
12.4821638464
 20
10.0625103808
 30
0.0
 10
12.4856685746
 20
10.0846360898
 30
0.0
 10
12.4892801745
 20
10.1117578289
 30
0.0
 10
12.4923012858
 20
10.139440171
 30
0.0
 10
12.4947065362
 20
10.1674520964
 30
0.0
 10
12.4964758015
 20
10.1955599694
 30
0.0
 10
12.4975943474
 20
10.2235293372
 30
0.0
 10
12.4980529351
 20
10.2511267572
 30
0.0
 10
12.4978810651
 20
10.2737861256
 30
0.0
 10
12.4974034231
 20
10.291550333
 30
0.0
 10
12.4968821548
 20
10.3045408296
 30
0.0
 10
12.4961964227
 20
10.3172690551
 30
0.0
 10
12.4953476602
 20
10.3297084588
 30
0.0
 10
12.4943376597
 20
10.3418330672
 30
0.0
 10
12.4931685595
 20
10.3536175809
 30
0.0
 10
12.4918428407
 20
10.3650374199
 30
0.0
 10
12.4903633057
 20
10.3760687707
 30
0.0
 10
12.4887330723
 20
10.3866886415
 30
0.0
 10
12.4869555981
 20
10.3968749226
 30
0.0
 10
12.4850346464
 20
10.406606431
 30
0.0
 10
12.482974271
 20
10.4158629525
 30
0.0
 10
12.4807788146
 20
10.4246252996
 30
0.0
 10
12.4784529154
 20
10.4328753789
 30
0.0
 10
12.4760014598
 20
10.4405961988
 30
0.0
 10
12.4734295387
 20
10.447772023
 30
0.0
 10
12.4707424793
 20
10.4543880872
 30
0.0
 10
12.4683696806
 20
10.4595155351
 30
0.0
 10
12.4664113021
 20
10.463318267
 30
0.0
 10
12.4649446008
 20
10.4659686884
 30
0.0
 10
12.4634533201
 20
10.4684694102
 30
0.0
 10
12.4619382223
 20
10.470819181
 30
0.0
 10
12.4604000454
 20
10.4730167939
 30
0.0
 10
12.4588395113
 20
10.4750611083
 30
0.0
 10
12.4572574089
 20
10.4769511065
 30
0.0
 10
12.4556544387
 20
10.4786857821
 30
0.0
 10
12.454031338
 20
10.4802642156
 30
0.0
 10
12.452388866
 20
10.4816855764
 30
0.0
 10
12.4507277072
 20
10.4829489936
 30
0.0
 10
12.4490486366
 20
10.4840537114
 30
0.0
 10
12.4473524354
 20
10.4849989896
 30
0.0
 10
12.4456399064
 20
10.4857840398
 30
0.0
 10
12.4439120039
 20
10.4864082499
 30
0.0
 10
12.4421697298
 20
10.486870995
 30
0.0
 10
12.4404142259
 20
10.4871717608
 30
0.0
 10
12.4386466783
 20
10.4873103109
 30
0.0
 10
12.4368685181
 20
10.4872864948
 30
0.0
 10
12.4356857132
 20
10.4871633555
 30
0.0
 10
12.4350952869
 20
10.4870758244
 30
0.0
  0
SPLINE
  5
38A
100
AcDbEntity
  8
0
100
AcDbSpline
 62
7
  6
CONTINUOUS
 70
0
 71
3
 72
37
 73
33
 74
0
 42
0.0000001
 43
0.0000001
 44
0.0000000001
 40
0.0
 40
0.0
 40
0.0
 40
0.0
 40
0.024649914
 40
0.0505095333
 40
0.0775212359
 40
0.1056222602
 40
0.1347452589
 40
0.1648187791
 40
0.1957676879
 40
0.2275135587
 40
0.2599750572
 40
0.293068295
 40
0.3267071647
 40
0.360803666
 40
0.3952682236
 40
0.4300100055
 40
0.4999560077
 40
0.5699034967
 40
0.6046471247
 40
0.6391142555
 40
0.6732140563
 40
0.7068569435
 40
0.7399548978
 40
0.772421785
 40
0.8041736946
 40
0.8351292813
 40
0.8652101079
 40
0.8943410109
 40
0.922450494
 40
0.9494711596
 40
0.9753402104
 40
1.0
 40
1.0
 40
1.0
 40
1.0
 10
12.3478166399
 20
9.9680111209
 30
0.0
 10
12.3490302003
 20
9.9713690897
 30
0.0
 10
12.3514176265
 20
9.9782859958
 30
0.0
 10
12.3548102444
 20
9.9889912196
 30
0.0
 10
12.3580930474
 20
10.0002522784
 30
0.0
 10
12.3612566712
 20
10.0120374044
 30
0.0
 10
12.3642921385
 20
10.0243134754
 30
0.0
 10
12.3671908248
 20
10.0370459151
 30
0.0
 10
12.3699445001
 20
10.05019885
 30
0.0
 10
12.3725453537
 20
10.0637351988
 30
0.0
 10
12.3749860102
 20
10.0776167872
 30
0.0
 10
12.3772595503
 20
10.0918044588
 30
0.0
 10
12.3793595326
 20
10.1062581899
 30
0.0
 10
12.3812800001
 20
10.120937191
 30
0.0
 10
12.3830155386
 20
10.1358000661
 30
0.0
 10
12.3850809128
 20
10.1558506476
 30
0.0
 10
12.3871661142
 20
10.181063594
 30
0.0
 10
12.3885838798
 20
10.2063231307
 30
0.0
 10
12.3893081902
 20
10.2264676448
 30
0.0
 10
12.389642548
 20
10.2414288885
 30
0.0
 10
12.3897683749
 20
10.2562338826
 30
0.0
 10
12.389685313
 20
10.2708408769
 30
0.0
 10
12.389393624
 20
10.2852086433
 30
0.0
 10
12.3888941547
 20
10.2992966435
 30
0.0
 10
12.3881883491
 20
10.3130651333
 30
0.0
 10
12.3872782417
 20
10.3264752816
 30
0.0
 10
12.3861664492
 20
10.3394892786
 30
0.0
 10
12.3848561636
 20
10.3520704487
 30
0.0
 10
12.3833511471
 20
10.364183341
 30
0.0
 10
12.3816557105
 20
10.3757938957
 30
0.0
 10
12.3797747412
 20
10.3868693456
 30
0.0
 10
12.3783659478
 20
10.3940526325
 30
0.0
 10
12.377628021
 20
10.397547538
 30
0.0
  0
SPLINE
  5
38B
100
AcDbEntity
  8
0
100
AcDbSpline
 62
7
  6
CONTINUOUS
 70
0
 71
3
 72
15
 73
11
 74
0
 42
0.0000001
 43
0.0000001
 44
0.0000000001
 40
0.0
 40
0.0
 40
0.0
 40
0.0
 40
0.121738938
 40
0.2462719927
 40
0.3726813304
 40
0.5000312567
 40
0.6273772286
 40
0.7537747326
 40
0.8782882211
 40
1.0
 40
1.0
 40
1.0
 40
1.0
 10
12.3380829763
 20
10.0957115116
 30
0.0
 10
12.3392442717
 20
10.1028252462
 30
0.0
 10
12.3414109523
 20
10.1172463418
 30
0.0
 10
12.3441714176
 20
10.1391405321
 30
0.0
 10
12.3464651184
 20
10.1614225906
 30
0.0
 10
12.3482738143
 20
10.1839162614
 30
0.0
 10
12.3495831634
 20
10.2064438134
 30
0.0
 10
12.3503828604
 20
10.2288272433
 30
0.0
 10
12.3506666983
 20
10.2508894778
 30
0.0
 10
12.3505084739
 20
10.2654688067
 30
0.0
 10
12.3503387712
 20
10.2726731004
 30
0.0
  0
SPLINE
  5
38C
100
AcDbEntity
  8
0
100
AcDbSpline
 62
7
  6
CONTINUOUS
 70
0
 71
3
 72
53
 73
49
 74
0
 42
0.0000001
 43
0.0000001
 44
0.0000000001
 40
0.0
 40
0.0
 40
0.0
 40
0.0
 40
0.0083962701
 40
0.0173562222
 40
0.0268871945
 40
0.0369916992
 40
0.0476688204
 40
0.058914679
 40
0.0707228266
 40
0.0830846185
 40
0.0959893706
 40
0.1094248016
 40
0.1233769173
 40
0.1378304809
 40
0.1527688255
 40
0.1681742396
 40
0.2003089612
 40
0.2340734834
 40
0.2692920883
 40
0.3057775758
 40
0.3433331023
 40
0.3817539022
 40
0.4208289308
 40
0.4603424635
 40
0.5000756682
 40
0.5398081646
 40
0.5793195768
 40
0.6183910864
 40
0.6568069916
 40
0.694356282
 40
0.7308342398
 40
0.7660440818
 40
0.7997986774
 40
0.8319223882
 40
0.8473219229
 40
0.8622541459
 40
0.8767013558
 40
0.8906469418
 40
0.9040756114
 40
0.9169734896
 40
0.9293281964
 40
0.9411291959
 40
0.95236776
 40
0.9630375591
 40
0.9731346524
 40
0.9826582652
 40
0.9916110445
 40
1.0
 40
1.0
 40
1.0
 40
1.0
 10
12.3860210654
 20
7.3255008402
 30
0.0
 10
12.3867436219
 20
7.3263859222
 30
0.0
 10
12.388183098
 20
7.3282601385
 30
0.0
 10
12.390263856
 20
7.3312711995
 30
0.0
 10
12.3923327559
 20
7.3345682639
 30
0.0
 10
12.3943868015
 20
7.3381465004
 30
0.0
 10
12.3964230062
 20
7.3420008114
 30
0.0
 10
12.3984384056
 20
7.3461255938
 30
0.0
 10
12.4004300498
 20
7.350514852
 30
0.0
 10
12.4023949727
 20
7.3551621797
 30
0.0
 10
12.4043303051
 20
7.3600607587
 30
0.0
 10
12.4062331304
 20
7.3652034041
 30
0.0
 10
12.4081006794
 20
7.3705825429
 30
0.0
 10
12.4099301233
 20
7.3761902573
 30
0.0
 10
12.411718812
 20
7.3820182803
 30
0.0
 10
12.414079008
 20
7.3901865357
 30
0.0
 10
12.4168993275
 20
7.4008868305
 30
0.0
 10
12.4200352596
 20
7.4142864527
 30
0.0
 10
12.4229497919
 20
7.4283410759
 30
0.0
 10
12.425625534
 20
7.4429676963
 30
0.0
 10
12.4280465083
 20
7.4580800156
 30
0.0
 10
12.4301982859
 20
7.4735887677
 30
0.0
 10
12.4320680558
 20
7.4894023206
 30
0.0
 10
12.4336447022
 20
7.5054272131
 30
0.0
 10
12.4349188675
 20
7.5215687202
 30
0.0
 10
12.4358830067
 20
7.5377314194
 30
0.0
 10
12.4365314324
 20
7.5538197606
 30
0.0
 10
12.4368603491
 20
7.5697386383
 30
0.0
 10
12.436867877
 20
7.5853939591
 30
0.0
 10
12.4365540684
 20
7.6006932118
 30
0.0
 10
12.4359209057
 20
7.6155460091
 30
0.0
 10
12.4349723146
 20
7.6298646936
 30
0.0
 10
12.4337140739
 20
7.6435646785
 30
0.0
 10
12.4323961533
 20
7.654547979
 30
0.0
 10
12.4311847883
 20
7.6629604864
 30
0.0
 10
12.4302167839
 20
7.6689769459
 30
0.0
 10
12.429178016
 20
7.6747807195
 30
0.0
 10
12.4280699947
 20
7.6803632576
 30
0.0
 10
12.4268943838
 20
7.685716332
 30
0.0
 10
12.4256529461
 20
7.690832066
 30
0.0
 10
12.4243475032
 20
7.6957029414
 30
0.0
 10
12.4229800394
 20
7.7003218217
 30
0.0
 10
12.4215525263
 20
7.7046819478
 30
0.0
 10
12.4200671317
 20
7.7087769855
 30
0.0
 10
12.4185259734
 20
7.7126009794
 30
0.0
 10
12.4169313154
 20
7.7161484897
 30
0.0
 10
12.4152854614
 20
7.7194142939
 30
0.0
 10
12.4141180295
 20
7.7214667517
 30
0.0
 10
12.4135243589
 20
7.7224418104
 30
0.0
  0
SPLINE
  5
38D
100
AcDbEntity
  8
0
100
AcDbSpline
 62
7
  6
CONTINUOUS
 70
0
 71
3
 72
21
 73
17
 74
0
 42
0.0000001
 43
0.0000001
 44
0.0000000001
 40
0.0
 40
0.0
 40
0.0
 40
0.0
 40
0.061653237
 40
0.123329498
 40
0.1850515502
 40
0.2468416698
 40
0.3087213548
 40
0.370711108
 40
0.4328302426
 40
0.495096636
 40
0.5575265765
 40
0.6201345494
 40
0.682933126
 40
0.7459332432
 40
0.8725261314
 40
1.0
 40
1.0
 40
1.0
 40
1.0
 10
9.6960910145
 20
6.8733575919
 30
0.0
 10
9.6945143077
 20
6.8718345997
 30
0.0
 10
9.6912777206
 20
6.8688722264
 30
0.0
 10
9.6861900158
 20
6.8646952101
 30
0.0
 10
9.6808813997
 20
6.8607942648
 30
0.0
 10
9.6753654118
 20
6.8571794071
 30
0.0
 10
9.6696558875
 20
6.8538597254
 30
0.0
 10
9.6637672585
 20
6.8508435389
 30
0.0
 10
9.6577143512
 20
6.8481384415
 30
0.0
 10
9.6515124059
 20
6.845751276
 30
0.0
 10
9.6451770566
 20
6.8436879907
 30
0.0
 10
9.6387243078
 20
6.8419537739
 30
0.0
 10
9.6321702113
 20
6.8405530087
 30
0.0
 10
9.6233058583
 20
6.8391324427
 30
0.0
 10
9.6120495367
 20
6.8382095067
 30
0.0
 10
9.6030001326
 20
6.8383861153
 30
0.0
 10
9.598478522
 20
6.83869969
 30
0.0
  0
SPLINE
  5
38E
100
AcDbEntity
  8
0
100
AcDbSpline
 62
7
  6
CONTINUOUS
 70
0
 71
3
 72
41
 73
37
 74
0
 42
0.0000001
 43
0.0000001
 44
0.0000000001
 40
0.0
 40
0.0
 40
0.0
 40
0.0
 40
0.0311444983
 40
0.062442467
 40
0.093887251
 40
0.1254695609
 40
0.157177086
 40
0.1889950997
 40
0.2209066479
 40
0.2528929497
 40
0.284933762
 40
0.3170077852
 40
0.3490930781
 40
0.3811674822
 40
0.4132090489
 40
0.445196464
 40
0.4771094635
 40
0.5089292351
 40
0.540638799
 40
0.5722233621
 40
0.6036706378
 40
0.6349711269
 40
0.6661183495
 40
0.6971090237
 40
0.7279431823
 40
0.7586242225
 40
0.7891588828
 40
0.8195571428
 40
0.8498320452
 40
0.86493089
 40
0.8800050502
 40
0.9100832578
 40
0.9400926753
 40
0.9550812784
 40
0.9700610371
 40
1.0
 40
1.0
 40
1.0
 40
1.0
 10
12.0132932308
 20
6.6712317212
 30
0.0
 10
12.0099792832
 20
6.6714615442
 30
0.0
 10
12.0033494152
 20
6.672164897
 30
0.0
 10
11.9934849983
 20
6.673936628
 30
0.0
 10
11.9837262238
 20
6.6764183313
 30
0.0
 10
11.9741258303
 20
6.6795966064
 30
0.0
 10
11.9647347955
 20
6.6834544528
 30
0.0
 10
11.9556032205
 20
6.6879712186
 30
0.0
 10
11.9467797493
 20
6.6931227726
 30
0.0
 10
11.9383113982
 20
6.6988816068
 30
0.0
 10
11.9302432865
 20
6.7052169933
 30
0.0
 10
11.9226184042
 20
6.7120951427
 30
0.0
 10
11.915477384
 20
6.7194793845
 30
0.0
 10
11.908858288
 20
6.7273303602
 30
0.0
 10
11.902796406
 20
6.7356062313
 30
0.0
 10
11.8973240694
 20
6.7442628999
 30
0.0
 10
11.8924704803
 20
6.7532542409
 30
0.0
 10
11.8882615567
 20
6.7625323451
 30
0.0
 10
11.8847197944
 20
6.7720477715
 30
0.0
 10
11.8818641477
 20
6.7817498067
 30
0.0
 10
11.8797099267
 20
6.7915867326
 30
0.0
 10
11.8782687148
 20
6.8015060972
 30
0.0
 10
11.8775483044
 20
6.811454992
 30
0.0
 10
11.8775526503
 20
6.8213803275
 30
0.0
 10
11.8782818497
 20
6.831229124
 30
0.0
 10
11.879732117
 20
6.8409487542
 30
0.0
 10
11.8818958696
 20
6.8504873645
 30
0.0
 10
11.8847614936
 20
6.8597936271
 30
0.0
 10
11.8877250436
 20
6.8673218499
 30
0.0
 10
11.8904294269
 20
6.8731762164
 30
0.0
 10
11.893347999
 20
6.8789032829
 30
0.0
 10
11.8974002583
 20
6.88583048
 30
0.0
 10
11.9019737187
 20
6.8924141595
 30
0.0
 10
11.9059258565
 20
6.8974465687
 30
0.0
 10
11.9100665371
 20
6.9023147135
 30
0.0
 10
11.9133839333
 20
6.9057804342
 30
0.0
 10
11.9156807382
 20
6.9079989926
 30
0.0
  0
SPLINE
  5
38F
100
AcDbEntity
  8
0
100
AcDbSpline
 62
7
  6
CONTINUOUS
 70
0
 71
3
 72
21
 73
17
 74
0
 42
0.0000001
 43
0.0000001
 44
0.0000000001
 40
0.0
 40
0.0
 40
0.0
 40
0.0
 40
0.061653237
 40
0.123329498
 40
0.1850515502
 40
0.2468416698
 40
0.3087213548
 40
0.370711108
 40
0.4328302426
 40
0.495096636
 40
0.5575265765
 40
0.6201345494
 40
0.682933126
 40
0.7459332432
 40
0.8725261314
 40
1.0
 40
1.0
 40
1.0
 40
1.0
 10
12.1109057233
 20
6.7058896231
 30
0.0
 10
12.1093290165
 20
6.7043666308
 30
0.0
 10
12.1060924295
 20
6.7014042576
 30
0.0
 10
12.1010047246
 20
6.6972272412
 30
0.0
 10
12.0956961085
 20
6.6933262959
 30
0.0
 10
12.0901801206
 20
6.6897114382
 30
0.0
 10
12.0844705964
 20
6.6863917565
 30
0.0
 10
12.0785819673
 20
6.68337557
 30
0.0
 10
12.07252906
 20
6.6806704727
 30
0.0
 10
12.0663271147
 20
6.6782833072
 30
0.0
 10
12.0599917654
 20
6.6762200219
 30
0.0
 10
12.0535390166
 20
6.674485805
 30
0.0
 10
12.0469849201
 20
6.6730850398
 30
0.0
 10
12.0381205671
 20
6.6716644738
 30
0.0
 10
12.0268642455
 20
6.6707415378
 30
0.0
 10
12.0178148414
 20
6.6709181464
 30
0.0
 10
12.0132932308
 20
6.6712317212
 30
0.0
  0
SPLINE
  5
390
100
AcDbEntity
  8
0
100
AcDbSpline
 62
7
  6
CONTINUOUS
 70
0
 71
3
 72
87
 73
83
 74
0
 42
0.0000001
 43
0.0000001
 44
0.0000000001
 40
0.0
 40
0.0
 40
0.0
 40
0.0
 40
0.0039006119
 40
0.0079606249
 40
0.0121834394
 40
0.0165719633
 40
0.0211286504
 40
0.025855388
 40
0.0307534665
 40
0.0358237771
 40
0.0410667905
 40
0.0464826586
 40
0.052071196
 40
0.0578319083
 40
0.0637640651
 40
0.069866647
 40
0.0825776743
 40
0.0959531965
 40
0.1099780778
 40
0.1246346271
 40
0.139902885
 40
0.1557608592
 40
0.1721847186
 40
0.1891489612
 40
0.2066265666
 40
0.2245891281
 40
0.2430069722
 40
0.261849269
 40
0.281084135
 40
0.3006787291
 40
0.320599351
 40
0.3408115334
 40
0.3612801317
 40
0.3819694105
 40
0.4028431303
 40
0.4238646316
 40
0.4449969214
 40
0.487444111
 40
0.5298859238
 40
0.5510115027
 40
0.5720236288
 40
0.5928853317
 40
0.6135599804
 40
0.6340113683
 40
0.6542037978
 40
0.6741021676
 40
0.6936720634
 40
0.7128798459
 40
0.7316927425
 40
0.7500789406
 40
0.7680076872
 40
0.7854493924
 40
0.8023757447
 40
0.8187598321
 40
0.8345762716
 40
0.8498013578
 40
0.8644132338
 40
0.8783920903
 40
0.8917204074
 40
0.9043832492
 40
0.9104614567
 40
0.9163690585
 40
0.9221051162
 40
0.9276688941
 40
0.933059969
 40
0.9382781896
 40
0.943323736
 40
0.9481971684
 40
0.9528994122
 40
0.9574318864
 40
0.9617964676
 40
0.9659956257
 40
0.9700324514
 40
0.9739107383
 40
0.977635111
 40
0.9812110582
 40
0.9846451203
 40
0.9879449318
 40
0.9911193811
 40
0.9941787001
 40
0.9971345293
 40
1.0
 40
1.0
 40
1.0
 40
1.0
 10
12.4179791963
 20
8.2147771552
 30
0.0
 10
12.4192578157
 20
8.2160122068
 30
0.0
 10
12.4218137457
 20
8.2185887239
 30
0.0
 10
12.4255700996
 20
8.222679481
 30
0.0
 10
12.4293227228
 20
8.227070526
 30
0.0
 10
12.4330697413
 20
8.2317596256
 30
0.0
 10
12.4368095191
 20
8.2367446425
 30
0.0
 10
12.4405403483
 20
8.242023315
 30
0.0
 10
12.4442605652
 20
8.2475931809
 30
0.0
 10
12.4479683742
 20
8.2534516731
 30
0.0
 10
12.4516620982
 20
8.2595960376
 30
0.0
 10
12.4553399907
 20
8.266023427
 30
0.0
 10
12.4590003398
 20
8.2727308436
 30
0.0
 10
12.4626414468
 20
8.2797151461
 30
0.0
 10
12.4662615877
 20
8.2869730893
 30
0.0
 10
12.4711243832
 20
8.2971492142
 30
0.0
 10
12.4771279255
 20
8.310537447
 30
0.0
 10
12.4841275284
 20
8.3274274039
 30
0.0
 10
12.4910037204
 20
8.3453211019
 30
0.0
 10
12.4977435177
 20
8.364184986
 30
0.0
 10
12.5043341903
 20
8.3839838352
 30
0.0
 10
12.5107632793
 20
8.4046805601
 30
0.0
 10
12.5170186301
 20
8.4262363598
 30
0.0
 10
12.5230884199
 20
8.4486107796
 30
0.0
 10
12.5289611764
 20
8.471761803
 30
0.0
 10
12.5346258015
 20
8.4956459346
 30
0.0
 10
12.5400715921
 20
8.5202182865
 30
0.0
 10
12.5452882607
 20
8.5454326643
 30
0.0
 10
12.5502659535
 20
8.5712416543
 30
0.0
 10
12.5549952744
 20
8.5975967138
 30
0.0
 10
12.5594672973
 20
8.6244482654
 30
0.0
 10
12.5636735834
 20
8.6517457937
 30
0.0
 10
12.5676061959
 20
8.6794379398
 30
0.0
 10
12.5712577179
 20
8.7074726023
 30
0.0
 10
12.5746212542
 20
8.7357970198
 30
0.0
 10
12.5776904901
 20
8.7643579284
 30
0.0
 10
12.5813878698
 20
8.802737722
 30
0.0
 10
12.5852334418
 20
8.8509076263
 30
0.0
 10
12.5880362425
 20
8.8991463772
 30
0.0
 10
12.5896413757
 20
8.9376606417
 30
0.0
 10
12.5905207625
 20
8.9663597142
 30
0.0
 10
12.5910759267
 20
8.9948613208
 30
0.0
 10
12.5913058148
 20
9.0231118671
 30
0.0
 10
12.5912100147
 20
9.0510581819
 30
0.0
 10
12.5907887227
 20
9.0786476813
 30
0.0
 10
12.5900427519
 20
9.1058284526
 30
0.0
 10
12.5889735336
 20
9.1325493583
 30
0.0
 10
12.5875831114
 20
9.1587601321
 30
0.0
 10
12.5858741372
 20
9.1844114737
 30
0.0
 10
12.5838498663
 20
9.2094551418
 30
0.0
 10
12.5815141521
 20
9.2338440465
 30
0.0
 10
12.5788714384
 20
9.2575323411
 30
0.0
 10
12.5759267551
 20
9.2804755132
 30
0.0
 10
12.5726857088
 20
9.3026304736
 30
0.0
 10
12.5691544684
 20
9.3239556383
 30
0.0
 10
12.5653397541
 20
9.3444110173
 30
0.0
 10
12.5612488221
 20
9.3639582754
 30
0.0
 10
12.556889451
 20
9.3825608952
 30
0.0
 10
12.5522699101
 20
9.4001839838
 30
0.0
 10
12.5481566414
 20
9.4142114704
 30
0.0
 10
12.5447331732
 20
9.4249111851
 30
0.0
 10
12.5421410485
 20
9.4325611041
 30
0.0
 10
12.5394906153
 20
9.4399423995
 30
0.0
 10
12.5367830412
 20
9.4470516211
 30
0.0
 10
12.5340196398
 20
9.4538854538
 30
0.0
 10
12.5312016854
 20
9.4604407084
 30
0.0
 10
12.5283304791
 20
9.466714327
 30
0.0
 10
12.5254073929
 20
9.472703406
 30
0.0
 10
12.5224337197
 20
9.4784051456
 30
0.0
 10
12.5194108882
 20
9.4838169288
 30
0.0
 10
12.5163402241
 20
9.488936234
 30
0.0
 10
12.5132231433
 20
9.4937607098
 30
0.0
 10
12.5100610406
 20
9.4982881359
 30
0.0
 10
12.5068552747
 20
9.5025164009
 30
0.0
 10
12.5036072952
 20
9.5064435851
 30
0.0
 10
12.5003184165
 20
9.5100678057
 30
0.0
 10
12.496990081
 20
9.5133873901
 30
0.0
 10
12.4936236122
 20
9.5164006926
 30
0.0
 10
12.4902204186
 20
9.5191061782
 30
0.0
 10
12.4867818274
 20
9.5215024572
 30
0.0
 10
12.4833095213
 20
9.5235879435
 30
0.0
 10
12.4809396823
 20
9.5247871581
 30
0.0
 10
12.4797523963
 20
9.5253310521
 30
0.0
  0
SPLINE
  5
391
100
AcDbEntity
  8
0
100
AcDbSpline
 62
7
  6
CONTINUOUS
 70
0
 71
3
 72
15
 73
11
 74
0
 42
0.0000001
 43
0.0000001
 44
0.0000000001
 40
0.0
 40
0.0
 40
0.0
 40
0.0
 40
0.1432870676
 40
0.2807130914
 40
0.4125250903
 40
0.539027613
 40
0.6605819863
 40
0.7776035341
 40
0.8905650931
 40
1.0
 40
1.0
 40
1.0
 40
1.0
 10
12.4179791963
 20
8.2147771552
 30
0.0
 10
12.4167162823
 20
8.2135572739
 30
0.0
 10
12.4141913034
 20
8.2112191671
 30
0.0
 10
12.4103241143
 20
8.2079604982
 30
0.0
 10
12.4064597082
 20
8.2050269027
 30
0.0
 10
12.4026000011
 20
8.2024200948
 30
0.0
 10
12.3987466821
 20
8.2001414815
 30
0.0
 10
12.3949013187
 20
8.1981924025
 30
0.0
 10
12.3910660224
 20
8.1965741984
 30
0.0
 10
12.3884798652
 20
8.1957044135
 30
0.0
 10
12.3871926323
 20
8.1953283742
 30
0.0
  0
SPLINE
  5
392
100
AcDbEntity
  8
0
100
AcDbSpline
 62
7
  6
CONTINUOUS
 70
0
 71
3
 72
23
 73
19
 74
0
 42
0.0000001
 43
0.0000001
 44
0.0000000001
 40
0.0
 40
0.0
 40
0.0
 40
0.0
 40
0.0781368527
 40
0.1532317188
 40
0.225404452
 40
0.2947998426
 40
0.3615916891
 40
0.4259789642
 40
0.4881874855
 40
0.5484707583
 40
0.6071107438
 40
0.6644176967
 40
0.7207260077
 40
0.7763899872
 40
0.8317774567
 40
0.887262179
 40
0.9432158246
 40
1.0
 40
1.0
 40
1.0
 40
1.0
 10
12.4179791963
 20
8.4050645543
 30
0.0
 10
12.4171304609
 20
8.4042447388
 30
0.0
 10
12.4154334931
 20
8.402670203
 30
0.0
 10
12.4128370972
 20
8.4004669796
 30
0.0
 10
12.410242422
 20
8.3984712642
 30
0.0
 10
12.4076506389
 20
8.3966841818
 30
0.0
 10
12.4050628291
 20
8.3951065484
 30
0.0
 10
12.4024799738
 20
8.3937392141
 30
0.0
 10
12.3999031404
 20
8.3925829209
 30
0.0
 10
12.3973334348
 20
8.3916383961
 30
0.0
 10
12.3947719966
 20
8.3909064085
 30
0.0
 10
12.3922200904
 20
8.3903874879
 30
0.0
 10
12.3896790251
 20
8.390082175
 30
0.0
 10
12.3871502153
 20
8.3899908367
 30
0.0
 10
12.3846351509
 20
8.3901135615
 30
0.0
 10
12.3821352847
 20
8.3904504061
 30
0.0
 10
12.379652283
 20
8.3910009778
 30
0.0
 10
12.3780239379
 20
8.3915056185
 30
0.0
 10
12.3772154281
 20
8.3917914674
 30
0.0
  0
SPLINE
  5
393
100
AcDbEntity
  8
0
100
AcDbSpline
 62
7
  6
CONTINUOUS
 70
0
 71
3
 72
23
 73
19
 74
0
 42
0.0000001
 43
0.0000001
 44
0.0000000001
 40
0.0
 40
0.0
 40
0.0
 40
0.0
 40
0.075595957
 40
0.1466391305
 40
0.2134651345
 40
0.2765138419
 40
0.3363259052
 40
0.3935462661
 40
0.4489224105
 40
0.5032874244
 40
0.5575253055
 40
0.6125266122
 40
0.6691426489
 40
0.72814827
 40
0.7902188159
 40
0.8559231893
 40
0.9257261654
 40
1.0
 40
1.0
 40
1.0
 40
1.0
 10
12.4488888253
 20
7.2500884439
 30
0.0
 10
12.4481106347
 20
7.2493367695
 30
0.0
 10
12.4465552753
 20
7.247924889
 30
0.0
 10
12.4441482069
 20
7.2460386919
 30
0.0
 10
12.4417439495
 20
7.2444545558
 30
0.0
 10
12.4393447353
 20
7.2431748611
 30
0.0
 10
12.4369525549
 20
7.242201934
 30
0.0
 10
12.4345698789
 20
7.2415381413
 30
0.0
 10
12.4321998231
 20
7.2411858522
 30
0.0
 10
12.4298463467
 20
7.2411467113
 30
0.0
 10
12.4275139654
 20
7.2414213092
 30
0.0
 10
12.4252072065
 20
7.24200883
 30
0.0
 10
12.4229299755
 20
7.2429072724
 30
0.0
 10
12.4206853145
 20
7.2441140524
 30
0.0
 10
12.4184754607
 20
7.2456263582
 30
0.0
 10
12.4163022429
 20
7.247441621
 30
0.0
 10
12.4141673622
 20
7.2495571036
 30
0.0
 10
12.4128143331
 20
7.2511158118
 30
0.0
 10
12.4121436018
 20
7.2519405098
 30
0.0
  0
SPLINE
  5
394
100
AcDbEntity
  8
0
100
AcDbSpline
 62
7
  6
CONTINUOUS
 70
0
 71
3
 72
93
 73
89
 74
0
 42
0.0000001
 43
0.0000001
 44
0.0000000001
 40
0.0
 40
0.0
 40
0.0
 40
0.0
 40
0.0027164122
 40
0.0054531986
 40
0.0082302464
 40
0.0110665143
 40
0.0139796987
 40
0.0169859749
 40
0.0200999116
 40
0.0233343924
 40
0.0267007144
 40
0.0302086301
 40
0.0338665055
 40
0.0376814345
 40
0.0416593638
 40
0.0458052537
 40
0.0501231341
 40
0.0546162866
 40
0.0592872492
 40
0.0641379798
 40
0.0691698571
 40
0.0743837847
 40
0.0797802281
 40
0.0853592419
 40
0.0911205549
 40
0.097063532
 40
0.1031872889
 40
0.1094906267
 40
0.1159721353
 40
0.1226301497
 40
0.136467702
 40
0.1509863985
 40
0.166166177
 40
0.1819844989
 40
0.1984166092
 40
0.2154357535
 40
0.2330133648
 40
0.2511192265
 40
0.2697216198
 40
0.2887874599
 40
0.3082824199
 40
0.3281710492
 40
0.3484168852
 40
0.3689825618
 40
0.3898299142
 40
0.4109200821
 40
0.4322136103
 40
0.45367055
 40
0.4752505584
 40
0.496912997
 40
0.5186170297
 40
0.5403217213
 40
0.5619861345
 40
0.5835694282
 40
0.6050309555
 40
0.6263303623
 40
0.6474276864
 40
0.6682834561
 40
0.6888587905
 40
0.7091155008
 40
0.729016193
 40
0.7485243728
 40
0.7676045542
 40
0.7862223725
 40
0.8043447018
 40
0.8219397795
 40
0.8389773394
 40
0.8554287585
 40
0.8712672205
 40
0.8864679016
 40
0.901008187
 40
0.914867929
 40
0.921537231
 40
0.9280301459
 40
0.9343449921
 40
0.9404803324
 40
0.9464349771
 40
0.9522079882
 40
0.9577987496
 40
0.9632069274
 40
0.9684325931
 40
0.9734761642
 40
0.9783385117
 40
0.9830209603
 40
0.9875254509
 40
0.9918545996
 40
0.9960115539
 40
1.0
 40
1.0
 40
1.0
 40
1.0
 10
12.4952072974
 20
9.5272167722
 30
0.0
 10
12.496456837
 20
9.5271301202
 30
0.0
 10
12.498958892
 20
9.5268430882
 30
0.0
 10
12.5026801215
 20
9.5260749499
 30
0.0
 10
12.5063732207
 20
9.5249693538
 30
0.0
 10
12.510035581
 20
9.5235274161
 30
0.0
 10
12.5136652681
 20
9.5217503361
 30
0.0
 10
12.5172604787
 20
9.5196396061
 30
0.0
 10
12.5208194899
 20
9.517196626
 30
0.0
 10
12.5243407859
 20
9.514423035
 30
0.0
 10
12.5278227881
 20
9.5113203833
 30
0.0
 10
12.5312640359
 20
9.5078904116
 30
0.0
 10
12.5346630079
 20
9.5041348879
 30
0.0
 10
12.538018191
 20
9.5000557172
 30
0.0
 10
12.5413280942
 20
9.4956549491
 30
0.0
 10
12.54459114
 20
9.4909347302
 30
0.0
 10
12.5478058598
 20
9.4858974183
 30
0.0
 10
12.5509706518
 20
9.4805454584
 30
0.0
 10
12.5540840553
 20
9.4748815171
 30
0.0
 10
12.5571445003
 20
9.4689083677
 30
0.0
 10
12.5601505191
 20
9.4626289793
 30
0.0
 10
12.5631006134
 20
9.456046459
 30
0.0
 10
12.5659933098
 20
9.4491640759
 30
0.0
 10
12.5688271957
 20
9.4419852613
 30
0.0
 10
12.5716008103
 20
9.4345135842
 30
0.0
 10
12.5743128175
 20
9.4267527848
 30
0.0
 10
12.576961802
 20
9.418706731
 30
0.0
 10
12.5795464774
 20
9.4103794587
 30
0.0
 10
12.5820655267
 20
9.4017751206
 30
0.0
 10
12.5853776491
 20
9.3897846008
 30
0.0
 10
12.5893335168
 20
9.3741292676
 30
0.0
 10
12.5937405948
 20
9.3545424395
 30
0.0
 10
12.5978576356
 20
9.333960475
 30
0.0
 10
12.6016762833
 20
9.3124246803
 30
0.0
 10
12.6051887612
 20
9.2899781395
 30
0.0
 10
12.6083879207
 20
9.2666658646
 30
0.0
 10
12.6112672483
 20
9.2425346249
 30
0.0
 10
12.6138208832
 20
9.2176328677
 30
0.0
 10
12.6160436275
 20
9.1920106085
 30
0.0
 10
12.6179309555
 20
9.165719328
 30
0.0
 10
12.6194790227
 20
9.1388118637
 30
0.0
 10
12.620684673
 20
9.1113423021
 30
0.0
 10
12.6215454444
 20
9.0833658674
 30
0.0
 10
12.6220595734
 20
9.05493881
 30
0.0
 10
12.6222259983
 20
9.0261182913
 30
0.0
 10
12.6220443609
 20
8.9969622688
 30
0.0
 10
12.6215150084
 20
8.9675293784
 30
0.0
 10
12.6206389912
 20
8.9378788151
 30
0.0
 10
12.6194180602
 20
8.9080702136
 30
0.0
 10
12.6178546634
 20
8.8781635268
 30
0.0
 10
12.6159519404
 20
8.8482189061
 30
0.0
 10
12.6137137163
 20
8.818296579
 30
0.0
 10
12.6111444941
 20
8.7884567285
 30
0.0
 10
12.6082494452
 20
8.7587593713
 30
0.0
 10
12.6050343996
 20
8.7292642364
 30
0.0
 10
12.6015058355
 20
8.700030644
 30
0.0
 10
12.5976708645
 20
8.6711173857
 30
0.0
 10
12.5935372177
 20
8.6425826057
 30
0.0
 10
12.5891132304
 20
8.6144836836
 30
0.0
 10
12.5844078252
 20
8.5868771176
 30
0.0
 10
12.5794304948
 20
8.5598184108
 30
0.0
 10
12.5741912829
 20
8.5333619578
 30
0.0
 10
12.5687007639
 20
8.5075609337
 30
0.0
 10
12.5629700232
 20
8.4824671844
 30
0.0
 10
12.557010635
 20
8.4581311191
 30
0.0
 10
12.5508346378
 20
8.4346016062
 30
0.0
 10
12.5444545104
 20
8.4119258735
 30
0.0
 10
12.5378831462
 20
8.3901494015
 30
0.0
 10
12.5311338261
 20
8.3693158466
 30
0.0
 10
12.5242201886
 20
8.3494668728
 30
0.0
 10
12.5171562003
 20
8.3306423057
 30
0.0
 10
12.5110808631
 20
8.3156540132
 30
0.0
 10
12.5061480379
 20
8.304211757
 30
0.0
 10
12.5024671736
 20
8.2960194144
 30
0.0
 10
12.498759446
 20
8.2881102818
 30
0.0
 10
12.4950266993
 20
8.2804883102
 30
0.0
 10
12.4912708248
 20
8.2731573091
 30
0.0
 10
12.4874936743
 20
8.2661209524
 30
0.0
 10
12.4836971847
 20
8.2593827362
 30
0.0
 10
12.4798831972
 20
8.2529460386
 30
0.0
 10
12.4760536655
 20
8.2468140373
 30
0.0
 10
12.4722104378
 20
8.240989805
 30
0.0
 10
12.4683554701
 20
8.2354762227
 30
0.0
 10
12.464490641
 20
8.2302760227
 30
0.0
 10
12.4606178108
 20
8.2253917516
 30
0.0
 10
12.4567388056
 20
8.2208257638
 30
0.0
 10
12.4528556549
 20
8.2165805347
 30
0.0
 10
12.4502115896
 20
8.2139112575
 30
0.0
 10
12.4488888253
 20
8.2126335652
 30
0.0
  0
SPLINE
  5
395
100
AcDbEntity
  8
0
100
AcDbSpline
 62
7
  6
CONTINUOUS
 70
0
 71
3
 72
81
 73
77
 74
0
 42
0.0000001
 43
0.0000001
 44
0.0000000001
 40
0.0
 40
0.0
 40
0.0
 40
0.0
 40
0.0061615731
 40
0.0094231707
 40
0.0128177068
 40
0.0163535836
 40
0.0200380214
 40
0.0238771006
 40
0.0278759238
 40
0.0320387373
 40
0.0363689631
 40
0.0408693854
 40
0.0455421376
 40
0.0503888193
 40
0.0554105696
 40
0.0606080444
 40
0.0659815645
 40
0.0715310593
 40
0.0772561488
 40
0.0892297584
 40
0.1018945305
 40
0.1152384306
 40
0.1292463135
 40
0.1439003144
 40
0.1591801614
 40
0.1750634182
 40
0.1915257039
 40
0.2085408833
 40
0.2260812244
 40
0.2441175365
 40
0.2626192884
 40
0.2815547321
 40
0.3008910197
 40
0.3205943058
 40
0.340629846
 40
0.360962087
 40
0.3815547679
 40
0.4023710152
 40
0.4445235228
 40
0.4871164647
 40
0.5298419245
 40
0.5723907691
 40
0.6144554898
 40
0.6352117036
 40
0.6557337623
 40
0.6759849591
 40
0.6959292308
 40
0.7155312478
 40
0.7347565072
 40
0.7535714313
 40
0.7719434787
 40
0.7898412457
 40
0.8072345732
 40
0.8240946657
 40
0.8403942237
 40
0.8561076015
 40
0.8712109643
 40
0.8856824714
 40
0.8995024996
 40
0.9126539167
 40
0.9251224293
 40
0.9368969918
 40
0.9425218855
 40
0.9479709205
 40
0.9532439012
 40
0.9583409808
 40
0.963262644
 40
0.9680098502
 40
0.9725839751
 40
0.9769869188
 40
0.9812211636
 40
0.9852898215
 40
0.9891968637
 40
0.9929470619
 40
0.9965459635
 40
1.0
 40
1.0
 40
1.0
 40
1.0
 10
12.3997540091
 20
9.6910404348
 30
0.0
 10
12.4016654661
 20
9.6918551375
 30
0.0
 10
12.4045005087
 20
9.6933171514
 30
0.0
 10
12.4081492581
 20
9.6956367433
 30
0.0
 10
12.4109424588
 20
9.6976428781
 30
0.0
 10
12.4137380716
 20
9.6998807735
 30
0.0
 10
12.4165352551
 20
9.7023495783
 30
0.0
 10
12.4193326884
 20
9.705047994
 30
0.0
 10
12.4221291609
 20
9.7079747436
 30
0.0
 10
12.4249233639
 20
9.7111284526
 30
0.0
 10
12.42771407
 20
9.7145075901
 30
0.0
 10
12.4304999388
 20
9.7181105874
 30
0.0
 10
12.4332796954
 20
9.7219357169
 30
0.0
 10
12.4360520354
 20
9.7259811627
 30
0.0
 10
12.4388156142
 20
9.7302450166
 30
0.0
 10
12.4415691657
 20
9.7347252248
 30
0.0
 10
12.4443113264
 20
9.7394196683
 30
0.0
 10
12.4470408324
 20
9.7443260963
 30
0.0
 10
12.4507165618
 20
9.7512513626
 30
0.0
 10
12.4552614659
 20
9.7604293451
 30
0.0
 10
12.4605657505
 20
9.7720901692
 30
0.0
 10
12.4657886928
 20
9.7845349766
 30
0.0
 10
12.4709201923
 20
9.7977398833
 30
0.0
 10
12.4759503246
 20
9.8116796893
 30
0.0
 10
12.4808693392
 20
9.8263276672
 30
0.0
 10
12.4856677036
 20
9.8416556959
 30
0.0
 10
12.4903361174
 20
9.8576343042
 30
0.0
 10
12.4948655292
 20
9.8742327461
 30
0.0
 10
12.4992471576
 20
9.8914190641
 30
0.0
 10
12.5034725058
 20
9.9091601516
 30
0.0
 10
12.5075333877
 20
9.9274218148
 30
0.0
 10
12.511421939
 20
9.9461688439
 30
0.0
 10
12.5151306284
 20
9.9653650872
 30
0.0
 10
12.5186522732
 20
9.9849735221
 30
0.0
 10
12.5219800535
 20
10.0049563272
 30
0.0
 10
12.525107524
 20
10.025274942
 30
0.0
 10
12.5280286609
 20
10.0458901904
 30
0.0
 10
12.5316557699
 20
10.0738353281
 30
0.0
 10
12.5356290218
 20
10.1092142909
 30
0.0
 10
12.539476231
 20
10.152031568
 30
0.0
 10
12.5423924752
 20
10.1950564048
 30
0.0
 10
12.544355236
 20
10.2379568325
 30
0.0
 10
12.5451876285
 20
10.2734837586
 30
0.0
 10
12.5453589521
 20
10.3015891207
 30
0.0
 10
12.5452413628
 20
10.3223385811
 30
0.0
 10
12.5448785844
 20
10.3428113478
 30
0.0
 10
12.5442713161
 20
10.362967952
 30
0.0
 10
12.5434207567
 20
10.3827694975
 30
0.0
 10
12.5423285691
 20
10.4021777849
 30
0.0
 10
12.5409968851
 20
10.4211553761
 30
0.0
 10
12.5394283095
 20
10.4396656739
 30
0.0
 10
12.5376259083
 20
10.4576729922
 30
0.0
 10
12.5355932008
 20
10.4751426238
 30
0.0
 10
12.5333341544
 20
10.4920409077
 30
0.0
 10
12.5308531744
 20
10.5083353006
 30
0.0
 10
12.5281551079
 20
10.5239944492
 30
0.0
 10
12.5252452239
 20
10.538988252
 30
0.0
 10
12.5221292004
 20
10.5532879262
 30
0.0
 10
12.518813111
 20
10.5668660473
 30
0.0
 10
12.515303405
 20
10.579696702
 30
0.0
 10
12.5116068976
 20
10.5917552742
 30
0.0
 10
12.5083287287
 20
10.6012817018
 30
0.0
 10
12.5056100735
 20
10.6084917062
 30
0.0
 10
12.5035599623
 20
10.613609352
 30
0.0
 10
12.5014686052
 20
10.6185173987
 30
0.0
 10
12.4993370086
 20
10.62321352
 30
0.0
 10
12.4971661449
 20
10.6276954593
 30
0.0
 10
12.4949570879
 20
10.6319611038
 30
0.0
 10
12.4927108456
 20
10.636008417
 30
0.0
 10
12.4904284736
 20
10.6398354732
 30
0.0
 10
12.4881110745
 20
10.6434404732
 30
0.0
 10
12.4857596467
 20
10.6468216986
 30
0.0
 10
12.4833752751
 20
10.6499775981
 30
0.0
 10
12.480958938
 20
10.6529066816
 30
0.0
 10
12.4785118927
 20
10.6556073718
 30
0.0
 10
12.4768272447
 20
10.657288177
 30
0.0
 10
12.475980047
 20
10.6580875436
 30
0.0
  0
SPLINE
  5
396
100
AcDbEntity
  8
0
100
AcDbSpline
 62
7
  6
CONTINUOUS
 70
0
 71
3
 72
54
 73
50
 74
0
 42
0.0000001
 43
0.0000001
 44
0.0000000001
 40
0.0
 40
0.0
 40
0.0
 40
0.0
 40
0.0055575314
 40
0.0111779514
 40
0.0169218741
 40
0.0228457549
 40
0.0290005166
 40
0.0354309104
 40
0.0421753481
 40
0.0492661819
 40
0.0567302289
 40
0.0645893164
 40
0.0728609992
 40
0.0815590171
 40
0.0906939529
 40
0.1002735511
 40
0.1103032084
 40
0.120786225
 40
0.131724095
 40
0.1431167574
 40
0.1549627059
 40
0.1672592594
 40
0.1800025507
 40
0.1931877841
 40
0.2068091928
 40
0.2208602246
 40
0.2353335436
 40
0.2502211095
 40
0.265514256
 40
0.2812036668
 40
0.2972795185
 40
0.3137313951
 40
0.3477187121
 40
0.383073812
 40
0.4196976091
 40
0.4574851642
 40
0.4963263633
 40
0.5361065441
 40
0.5767070861
 40
0.6180059759
 40
0.6598783548
 40
0.7021970543
 40
0.7448331254
 40
0.7876563595
 40
0.8305358172
 40
0.8733403047
 40
0.9159390443
 40
0.9582017033
 40
1.0
 40
1.0
 40
1.0
 40
1.0
 10
9.8600370696
 20
10.7338936487
 30
0.0
 10
9.8600370667
 20
10.7355189389
 30
0.0
 10
9.8602190057
 20
10.7387907426
 30
0.0
 10
9.8610357242
 20
10.7436809785
 30
0.0
 10
9.8623947913
 20
10.7485603188
 30
0.0
 10
9.864293661
 20
10.753423078
 30
0.0
 10
9.8667291361
 20
10.7582653397
 30
0.0
 10
9.8696979791
 20
10.763083377
 30
0.0
 10
9.8731968044
 20
10.7678738814
 30
0.0
 10
9.8772221598
 20
10.7726336479
 30
0.0
 10
9.8817704862
 20
10.7773594277
 30
0.0
 10
9.8868379195
 20
10.7820479987
 30
0.0
 10
9.8924203942
 20
10.7866959363
 30
0.0
 10
9.898513393
 20
10.7912998824
 30
0.0
 10
9.9051121041
 20
10.7958562833
 30
0.0
 10
9.9122112401
 20
10.8003616689
 30
0.0
 10
9.9198051474
 20
10.8048124656
 30
0.0
 10
9.9278877321
 20
10.8092051446
 30
0.0
 10
9.9364524894
 20
10.8135361918
 30
0.0
 10
9.9454925168
 20
10.8178020764
 30
0.0
 10
9.9550004858
 20
10.8219993816
 30
0.0
 10
9.9649686989
 20
10.8261246311
 30
0.0
 10
9.9753890416
 20
10.8301745121
 30
0.0
 10
9.9862530434
 20
10.8341456578
 30
0.0
 10
9.9975518428
 20
10.8380348534
 30
0.0
 10
10.009276226
 20
10.8418388834
 30
0.0
 10
10.0214166189
 20
10.845554632
 30
0.0
 10
10.0339631008
 20
10.8491790567
 30
0.0
 10
10.046905418
 20
10.8527091558
 30
0.0
 10
10.0602329784
 20
10.8561420589
 30
0.0
 10
10.073934895
 20
10.859474926
 30
0.0
 10
10.0928940249
 20
10.8638289034
 30
0.0
 10
10.1174507262
 20
10.868988898
 30
0.0
 10
10.1479165257
 20
10.8746755185
 30
0.0
 10
10.1795912861
 20
10.8799030085
 30
0.0
 10
10.2123712672
 20
10.8846540983
 30
0.0
 10
10.2461492571
 20
10.8889130636
 30
0.0
 10
10.2808146733
 20
10.8926658247
 30
0.0
 10
10.3162540087
 20
10.8958999774
 30
0.0
 10
10.3523511907
 20
10.8986048363
 30
0.0
 10
10.3889879731
 20
10.9007714664
 30
0.0
 10
10.4260443266
 20
10.9023927142
 30
0.0
 10
10.463398837
 20
10.9034632272
 30
0.0
 10
10.5009291074
 20
10.9039794729
 30
0.0
 10
10.5385121568
 20
10.9039397451
 30
0.0
 10
10.5760248469
 20
10.9033441805
 30
0.0
 10
10.6133442316
 20
10.902194733
 30
0.0
 10
10.650347984
 20
10.9004952204
 30
0.0
 10
10.6748864825
 20
10.8989893746
 30
0.0
 10
10.6870810305
 20
10.8981436798
 30
0.0
  0
SPLINE
  5
397
100
AcDbEntity
  8
0
100
AcDbSpline
 62
7
  6
CONTINUOUS
 70
0
 71
3
 72
23
 73
19
 74
0
 42
0.0000001
 43
0.0000001
 44
0.0000000001
 40
0.0
 40
0.0
 40
0.0
 40
0.0
 40
0.0546454453
 40
0.1111483869
 40
0.1693522985
 40
0.2290934408
 40
0.2902017326
 40
0.352501577
 40
0.4158126541
 40
0.4799506925
 40
0.5447282239
 40
0.6099553297
 40
0.6754403743
 40
0.7409907573
 40
0.8064135783
 40
0.8715165893
 40
0.936108291
 40
1.0
 40
1.0
 40
1.0
 40
1.0
 10
10.1263521896
 20
10.5972495069
 30
0.0
 10
10.1364213796
 20
10.5991770528
 30
0.0
 10
10.1569457747
 20
10.6028720562
 30
0.0
 10
10.1883242369
 20
10.6078703176
 30
0.0
 10
10.220738475
 20
10.6124060848
 30
0.0
 10
10.2540862534
 20
10.6164649073
 30
0.0
 10
10.2882626197
 20
10.6200338904
 30
0.0
 10
10.3231599098
 20
10.6231016911
 30
0.0
 10
10.358668187
 20
10.6256585649
 30
0.0
 10
10.3946755675
 20
10.6276963916
 30
0.0
 10
10.4310685842
 20
10.6292087014
 30
0.0
 10
10.4677325454
 20
10.6301906928
 30
0.0
 10
10.5045519015
 20
10.6306392499
 30
0.0
 10
10.5414106047
 20
10.6305529465
 30
0.0
 10
10.5781924967
 20
10.6299320616
 30
0.0
 10
10.6147816363
 20
10.6287785557
 30
0.0
 10
10.6510626534
 20
10.6270961098
 30
0.0
 10
10.6751230362
 20
10.6256158874
 30
0.0
 10
10.6870810305
 20
10.6247865976
 30
0.0
  0
SPLINE
  5
398
100
AcDbEntity
  8
0
100
AcDbSpline
 62
7
  6
CONTINUOUS
 70
0
 71
3
 72
51
 73
47
 74
0
 42
0.0000001
 43
0.0000001
 44
0.0000000001
 40
0.0
 40
0.0
 40
0.0
 40
0.0
 40
0.0481980747
 40
0.0958298526
 40
0.1428199449
 40
0.1890979835
 40
0.2345930892
 40
0.2792367333
 40
0.3229621329
 40
0.3657045403
 40
0.4074014622
 40
0.4479928299
 40
0.4874212467
 40
0.5256322393
 40
0.5625745011
 40
0.5982001867
 40
0.6324652508
 40
0.6653298673
 40
0.6967589097
 40
0.7267224968
 40
0.7551966901
 40
0.7688701393
 40
0.7821654912
 40
0.7950818118
 40
0.8076188304
 40
0.8197768884
 40
0.8315569804
 40
0.8429609602
 40
0.8539914242
 40
0.8646519776
 40
0.8749472487
 40
0.8848829696
 40
0.8944662496
 40
0.9037055338
 40
0.9126109204
 40
0.9211942686
 40
0.9294693404
 40
0.937452123
 40
0.9451608562
 40
0.9598349789
 40
0.9668568053
 40
0.9737036628
 40
0.9804068766
 40
0.9870000912
 40
0.9935188408
 40
1.0
 40
1.0
 40
1.0
 40
1.0
 10
10.6870810305
 20
10.8981436798
 30
0.0
 10
10.6956878373
 20
10.8975467957
 30
0.0
 10
10.712793832
 20
10.8962639606
 30
0.0
 10
10.7382638912
 20
10.8940581799
 30
0.0
 10
10.7633640961
 20
10.8915848989
 30
0.0
 10
10.788052211
 20
10.8888483447
 30
0.0
 10
10.8122871525
 20
10.8858530634
 30
0.0
 10
10.8360283282
 20
10.8826041045
 30
0.0
 10
10.8592360764
 20
10.8791069277
 30
0.0
 10
10.8818716135
 20
10.8753674121
 30
0.0
 10
10.903897118
 20
10.8713918452
 30
0.0
 10
10.9252757975
 20
10.8671869074
 30
0.0
 10
10.9459719539
 20
10.8627596673
 30
0.0
 10
10.9659510503
 20
10.8581175757
 30
0.0
 10
10.9851797674
 20
10.8532684406
 30
0.0
 10
11.0036260575
 20
10.8482204164
 30
0.0
 10
11.021259211
 20
10.8429819849
 30
0.0
 10
11.0380498995
 20
10.8375619456
 30
0.0
 10
11.0539703167
 20
10.8319693947
 30
0.0
 10
11.0689939463
 20
10.8262137074
 30
0.0
 10
11.0809013756
 20
10.8212242859
 30
0.0
 10
11.0899516178
 20
10.8171506631
 30
0.0
 10
11.0964079022
 20
10.8141019993
 30
0.0
 10
11.1026220037
 20
10.8110198264
 30
0.0
 10
11.1085913586
 20
10.8079054233
 30
0.0
 10
11.1143134935
 20
10.8047600954
 30
0.0
 10
11.1197860224
 20
10.8015851057
 30
0.0
 10
11.1250067041
 20
10.798381814
 30
0.0
 10
11.1299733615
 20
10.7951514908
 30
0.0
 10
11.134683954
 20
10.7918954766
 30
0.0
 10
11.1391365491
 20
10.788615107
 30
0.0
 10
11.1433292836
 20
10.7853116624
 30
0.0
 10
11.1472604644
 20
10.7819865196
 30
0.0
 10
11.1509284368
 20
10.7786409486
 30
0.0
 10
11.1543316819
 20
10.7752762868
 30
0.0
 10
11.1574688058
 20
10.771893828
 30
0.0
 10
11.1603383684
 20
10.7684949251
 30
0.0
 10
11.1629393686
 20
10.7650805708
 30
0.0
 10
11.1659966916
 20
10.7605844357
 30
0.0
 10
11.1685833608
 20
10.7559820719
 30
0.0
 10
11.170632708
 20
10.7512983359
 30
0.0
 10
11.1718736038
 20
10.7478279522
 30
0.0
 10
11.1728396353
 20
10.7443507505
 30
0.0
 10
11.1735302082
 20
10.7408681273
 30
0.0
 10
11.1739448132
 20
10.7373821225
 30
0.0
 10
11.1740370448
 20
10.7350540931
 30
0.0
 10
11.1740370469
 20
10.7338939625
 30
0.0
  0
SPLINE
  5
399
100
AcDbEntity
  8
0
100
AcDbSpline
 62
7
  6
CONTINUOUS
 70
0
 71
3
 72
85
 73
81
 74
0
 42
0.0000001
 43
0.0000001
 44
0.0000000001
 40
0.0
 40
0.0
 40
0.0
 40
0.0
 40
0.0040523243
 40
0.0082800677
 40
0.0126871048
 40
0.0172766874
 40
0.0220515212
 40
0.0270136657
 40
0.0321644496
 40
0.0375047249
 40
0.0430348574
 40
0.0487548144
 40
0.054664209
 40
0.0607622539
 40
0.073519334
 40
0.0870147526
 40
0.1012327467
 40
0.1161541856
 40
0.1317569883
 40
0.1480164546
 40
0.1649055313
 40
0.1823950537
 40
0.2004539481
 40
0.2190494063
 40
0.2381470435
 40
0.2577110372
 40
0.2777042638
 40
0.2980884342
 40
0.318824216
 40
0.3398713518
 40
0.3611887728
 40
0.3827347104
 40
0.4263415096
 40
0.4703487206
 40
0.5144084858
 40
0.5581724224
 40
0.5798356861
 40
0.6012958978
 40
0.6225109263
 40
0.6434392703
 40
0.6640401693
 40
0.6842737169
 40
0.7041009772
 40
0.7234841094
 40
0.742386497
 40
0.7607728733
 40
0.7786094587
 40
0.7958641099
 40
0.8125064856
 40
0.8285082407
 40
0.843843233
 40
0.8584877643
 40
0.8724208768
 40
0.8856247162
 40
0.8980849977
 40
0.9040332524
 40
0.9097922075
 40
0.9153613987
 40
0.9207406784
 40
0.9259303725
 40
0.9309312112
 40
0.9357444596
 40
0.9403719648
 40
0.9448161804
 40
0.9490803491
 40
0.9531684867
 40
0.9570855871
 40
0.9608377024
 40
0.9644320671
 40
0.9678773102
 40
0.9711835117
 40
0.9774235374
 40
0.9803901426
 40
0.9832753266
 40
0.9860978125
 40
0.9888777483
 40
0.9916362933
 40
0.9943951484
 40
0.9971760023
 40
1.0
 40
1.0
 40
1.0
 40
1.0
 10
12.4179791963
 20
8.4050645543
 30
0.0
 10
12.4189357174
 20
8.4059884828
 30
0.0
 10
12.4208476555
 20
8.4079207511
 30
0.0
 10
12.4236541498
 20
8.4109976725
 30
0.0
 10
12.4264575234
 20
8.4143119309
 30
0.0
 10
12.4292561937
 20
8.4178616408
 30
0.0
 10
12.4320488061
 20
8.4216449796
 30
0.0
 10
12.4348339217
 20
8.4256600378
 30
0.0
 10
12.4376101636
 20
8.4299047163
 30
0.0
 10
12.4403760313
 20
8.4343768231
 30
0.0
 10
12.4431301047
 20
8.43907401
 30
0.0
 10
12.4458709453
 20
8.4439938247
 30
0.0
 10
12.4485971149
 20
8.4491337132
 30
0.0
 10
12.4522658315
 20
8.4563861455
 30
0.0
 10
12.4567956466
 20
8.4659905351
 30
0.0
 10
12.4620718742
 20
8.4781811503
 30
0.0
 10
12.4672560549
 20
8.4911789884
 30
0.0
 10
12.4723372209
 20
8.5049567729
 30
0.0
 10
12.4773046148
 20
8.5194857298
 30
0.0
 10
12.4821477052
 20
8.5347353863
 30
0.0
 10
12.4868562283
 20
8.5506737217
 30
0.0
 10
12.4914202025
 20
8.5672672259
 30
0.0
 10
12.4958299533
 20
8.5844809865
 30
0.0
 10
12.5000761342
 20
8.6022787662
 30
0.0
 10
12.5041497457
 20
8.620623081
 30
0.0
 10
12.5080421583
 20
8.639475279
 30
0.0
 10
12.5117451325
 20
8.658795625
 30
0.0
 10
12.5152508289
 20
8.6785433891
 30
0.0
 10
12.5185518297
 20
8.6986769383
 30
0.0
 10
12.5216411417
 20
8.7191538116
 30
0.0
 10
12.5245122547
 20
8.7399308581
 30
0.0
 10
12.5280552904
 20
8.7680868761
 30
0.0
 10
12.5318913126
 20
8.8037082704
 30
0.0
 10
12.5355234326
 20
8.8467713546
 30
0.0
 10
12.5381716476
 20
8.8899577819
 30
0.0
 10
12.5395448353
 20
8.925866157
 30
0.0
 10
12.5401293932
 20
8.9543751491
 30
0.0
 10
12.5403090339
 20
8.9754893206
 30
0.0
 10
12.5402310868
 20
8.9963629174
 30
0.0
 10
12.5398957139
 20
9.0169519517
 30
0.0
 10
12.5393036499
 20
9.0372129941
 30
0.0
 10
12.5384561666
 20
9.0571033215
 30
0.0
 10
12.5373550782
 20
9.0765809931
 30
0.0
 10
12.5360027397
 20
9.095604947
 30
0.0
 10
12.5344020455
 20
9.1141350882
 30
0.0
 10
12.5325564173
 20
9.1321323744
 30
0.0
 10
12.5304697977
 20
9.1495588975
 30
0.0
 10
12.5281466432
 20
9.1663779666
 30
0.0
 10
12.5255919125
 20
9.1825541927
 30
0.0
 10
12.5228110646
 20
9.1980535712
 30
0.0
 10
12.5198100406
 20
9.2128435673
 30
0.0
 10
12.5165952454
 20
9.2268931666
 30
0.0
 10
12.5131735326
 20
9.2401730368
 30
0.0
 10
12.5095521701
 20
9.2526553165
 30
0.0
 10
12.5063264254
 20
9.2625181482
 30
0.0
 10
12.5036431989
 20
9.2699821686
 30
0.0
 10
12.501616835
 20
9.2752778585
 30
0.0
 10
12.4995464541
 20
9.2803554271
 30
0.0
 10
12.4974330613
 20
9.2852122169
 30
0.0
 10
12.4952778162
 20
9.2898457094
 30
0.0
 10
12.4930818026
 20
9.2942534862
 30
0.0
 10
12.4908461571
 20
9.2984332594
 30
0.0
 10
12.4885720524
 20
9.3023828785
 30
0.0
 10
12.4862605876
 20
9.3061002783
 30
0.0
 10
12.4839129825
 20
9.3095835713
 30
0.0
 10
12.4815303427
 20
9.312830938
 30
0.0
 10
12.4791138548
 20
9.3158407039
 30
0.0
 10
12.4766646478
 20
9.318611334
 30
0.0
 10
12.4741839259
 20
9.3211412544
 30
0.0
 10
12.4716724958
 20
9.3234293869
 30
0.0
 10
12.4683498924
 20
9.3261036378
 30
0.0
 10
12.4649007474
 20
9.3283631527
 30
0.0
 10
12.4613463934
 20
9.330135788
 30
0.0
 10
12.458700514
 20
9.3311953384
 30
0.0
 10
12.4560318737
 20
9.3320057773
 30
0.0
 10
12.4533420526
 20
9.3325664536
 30
0.0
 10
12.4506329376
 20
9.3328767112
 30
0.0
 10
12.447906411
 20
9.3329362329
 30
0.0
 10
12.4451647007
 20
9.3327451687
 30
0.0
 10
12.4433457516
 20
9.3324537125
 30
0.0
 10
12.4424377054
 20
9.332268361
 30
0.0
  0
SPLINE
  5
39A
100
AcDbEntity
  8
0
100
AcDbSpline
 62
7
  6
CONTINUOUS
 70
0
 71
3
 72
57
 73
53
 74
0
 42
0.0000001
 43
0.0000001
 44
0.0000000001
 40
0.0
 40
0.0
 40
0.0
 40
0.0
 40
0.0090721983
 40
0.0186756165
 40
0.0288108348
 40
0.0394757859
 40
0.0506660379
 40
0.0623751122
 40
0.0745948148
 40
0.0873153378
 40
0.100525462
 40
0.1142127394
 40
0.1283635115
 40
0.1429630836
 40
0.1579958085
 40
0.1734450922
 40
0.1892935477
 40
0.205523014
 40
0.2221145873
 40
0.2390487413
 40
0.273863016
 40
0.309798695
 40
0.3466803678
 40
0.3843263551
 40
0.4225499965
 40
0.4611609022
 40
0.4999662112
 40
0.5387718301
 40
0.5773836602
 40
0.6156088379
 40
0.6532569691
 40
0.6901413675
 40
0.7260803343
 40
0.7608984556
 40
0.7778347253
 40
0.7944285553
 40
0.8106603763
 40
0.8265113215
 40
0.8419632124
 40
0.8569986287
 40
0.8716010227
 40
0.8857547026
 40
0.8994449632
 40
0.9126581853
 40
0.9253818563
 40
0.9376047747
 40
0.9493171484
 40
0.9605107114
 40
0.9711790267
 40
0.9813176477
 40
0.9909244295
 40
1.0
 40
1.0
 40
1.0
 40
1.0
 10
12.3306046205
 20
8.4577771822
 30
0.0
 10
12.332033953
 20
8.4598606142
 30
0.0
 10
12.3348789251
 20
8.4642168558
 30
0.0
 10
12.3389995259
 20
8.4711037348
 30
0.0
 10
12.3430891966
 20
8.4785197978
 30
0.0
 10
12.3471424256
 20
8.4864551991
 30
0.0
 10
12.3511538847
 20
8.494899595
 30
0.0
 10
12.3551182604
 20
8.5038418449
 30
0.0
 10
12.3590302453
 20
8.5132701572
 30
0.0
 10
12.3628846274
 20
8.5231720493
 30
0.0
 10
12.3666762682
 20
8.5335343907
 30
0.0
 10
12.3704000679
 20
8.544343432
 30
0.0
 10
12.3740510654
 20
8.5555848021
 30
0.0
 10
12.3776243735
 20
8.5672435491
 30
0.0
 10
12.3811151889
 20
8.5793041606
 30
0.0
 10
12.3845188638
 20
8.5917505713
 30
0.0
 10
12.3878308324
 20
8.6045662035
 30
0.0
 10
12.3910466475
 20
8.6177339781
 30
0.0
 10
12.3941620509
 20
8.6312363547
 30
0.0
 10
12.3982137044
 20
8.6498330965
 30
0.0
 10
12.4029873129
 20
8.67378425
 30
0.0
 10
12.4082013786
 20
8.7033047544
 30
0.0
 10
12.4129245616
 20
8.7337060415
 30
0.0
 10
12.4171315218
 20
8.764826011
 30
0.0
 10
12.4207996748
 20
8.7964988589
 30
0.0
 10
12.4239093744
 20
8.8285557464
 30
0.0
 10
12.4264439886
 20
8.8608257772
 30
0.0
 10
12.428389981
 20
8.8931369044
 30
0.0
 10
12.4297369881
 20
8.9253168599
 30
0.0
 10
12.4304778976
 20
8.9571940845
 30
0.0
 10
12.4306088579
 20
8.9885986367
 30
0.0
 10
12.4301293217
 20
9.0193631703
 30
0.0
 10
12.4290419974
 20
9.0493236274
 30
0.0
 10
12.4276218372
 20
9.0737071062
 30
0.0
 10
12.42617727
 20
9.0926874923
 30
0.0
 10
12.4249564586
 20
9.1064926165
 30
0.0
 10
12.4235899714
 20
9.1199803176
 30
0.0
 10
12.4220796487
 20
9.133132634
 30
0.0
 10
12.4204275215
 20
9.1459320322
 30
0.0
 10
12.4186357951
 20
9.1583614589
 30
0.0
 10
12.416706905
 20
9.1704043609
 30
0.0
 10
12.4146434282
 20
9.1820447049
 30
0.0
 10
12.4124481358
 20
9.1932670035
 30
0.0
 10
12.4101240023
 20
9.2040563398
 30
0.0
 10
12.407674124
 20
9.2143983813
 30
0.0
 10
12.4051018013
 20
9.2242794128
 30
0.0
 10
12.4024104992
 20
9.2336863533
 30
0.0
 10
12.399603784
 20
9.2426067742
 30
0.0
 10
12.3966854321
 20
9.2510289163
 30
0.0
 10
12.3936592896
 20
9.2589417942
 30
0.0
 10
12.3905293966
 20
9.2663348662
 30
0.0
 10
12.3883134597
 20
9.2710444134
 30
0.0
 10
12.3871856116
 20
9.2733063562
 30
0.0
  0
SPLINE
  5
39B
100
AcDbEntity
  8
0
100
AcDbSpline
 62
7
  6
CONTINUOUS
 70
0
 71
3
 72
83
 73
79
 74
0
 42
0.0000001
 43
0.0000001
 44
0.0000000001
 40
0.0
 40
0.0
 40
0.0
 40
0.0
 40
0.003948762
 40
0.0077209436
 40
0.0113257625
 40
0.0147746989
 40
0.0212568377
 40
0.024328405
 40
0.0273115158
 40
0.0302284054
 40
0.0331030109
 40
0.0359604277
 40
0.0388262432
 40
0.0417258028
 40
0.0446835064
 40
0.0477222087
 40
0.0508628416
 40
0.0541241025
 40
0.0575224574
 40
0.0610721563
 40
0.0647853328
 40
0.0686722859
 40
0.0727415451
 40
0.0770001672
 40
0.0814539045
 40
0.086107287
 40
0.0909639144
 40
0.0960264383
 40
0.1012967456
 40
0.106776085
 40
0.1124650147
 40
0.1244707803
 40
0.1373099109
 40
0.1509710406
 40
0.165437547
 40
0.1806883277
 40
0.1966983938
 40
0.2134393785
 40
0.2308799232
 40
0.2489859891
 40
0.267721104
 40
0.2870466141
 40
0.3069219087
 40
0.3273046098
 40
0.3481507395
 40
0.3694148817
 40
0.3910503657
 40
0.4130094222
 40
0.4577016512
 40
0.5030940125
 40
0.5487799421
 40
0.5943495143
 40
0.6393941392
 40
0.6835112202
 40
0.7050994416
 40
0.7263099618
 40
0.7470962654
 40
0.7674131344
 40
0.7872167986
 40
0.806465099
 40
0.8251176659
 40
0.8431361353
 40
0.8604843641
 40
0.8771286503
 40
0.8930380054
 40
0.9081844876
 40
0.9225436247
 40
0.9360948837
 40
0.9488222803
 40
0.9607152195
 40
0.9663476577
 40
0.9717705899
 40
0.9769847538
 40
0.9819915051
 40
0.9867930884
 40
0.9913924736
 40
0.9957932958
 40
1.0
 40
1.0
 40
1.0
 40
1.0
 10
12.4495736303
 20
7.7916563281
 30
0.0
 10
12.4501512938
 20
7.7921939269
 30
0.0
 10
12.4513061531
 20
7.7932183571
 30
0.0
 10
12.4530780962
 20
7.7946282489
 30
0.0
 10
12.4548484565
 20
7.7958744908
 30
0.0
 10
12.4571566127
 20
7.7972871003
 30
0.0
 10
12.4595115299
 20
7.7984136317
 30
0.0
 10
12.461891359
 20
7.7992050354
 30
0.0
 10
12.4636379718
 20
7.7996205703
 30
0.0
 10
12.46537655
 20
7.7998679154
 30
0.0
 10
12.4671058653
 20
7.7999467273
 30
0.0
 10
12.4688244579
 20
7.7998567129
 30
0.0
 10
12.470530871
 20
7.799598021
 30
0.0
 10
12.4722236744
 20
7.7991709033
 30
0.0
 10
12.4739015507
 20
7.7985759183
 30
0.0
 10
12.4755633556
 20
7.7978138091
 30
0.0
 10
12.4772080261
 20
7.7968853024
 30
0.0
 10
12.478834687
 20
7.7957913156
 30
0.0
 10
12.4804424782
 20
7.7945326871
 30
0.0
 10
12.4820305855
 20
7.7931103128
 30
0.0
 10
12.4835982588
 20
7.7915251647
 30
0.0
 10
12.4851446538
 20
7.7897781823
 30
0.0
 10
12.4866690105
 20
7.7878704512
 30
0.0
 10
12.4881705088
 20
7.7858030857
 30
0.0
 10
12.4896483054
 20
7.7835772819
 30
0.0
 10
12.4911016252
 20
7.7811943631
 30
0.0
 10
12.4925295977
 20
7.7786556956
 30
0.0
 10
12.4939314308
 20
7.7759627782
 30
0.0
 10
12.4953063112
 20
7.7731171916
 30
0.0
 10
12.4966534227
 20
7.7701205932
 30
0.0
 10
12.4984437328
 20
7.7658491006
 30
0.0
 10
12.5005980947
 20
7.7601378173
 30
0.0
 10
12.503016109
 20
7.7528306784
 30
0.0
 10
12.5053054701
 20
7.7449688455
 30
0.0
 10
12.5074606773
 20
7.7365709489
 30
0.0
 10
12.5094765196
 20
7.7276567701
 30
0.0
 10
12.5113481213
 20
7.7182474633
 30
0.0
 10
12.5130709424
 20
7.7083653954
 30
0.0
 10
12.5146408003
 20
7.6980341015
 30
0.0
 10
12.5160538774
 20
7.6872782175
 30
0.0
 10
12.5173067462
 20
7.6761234219
 30
0.0
 10
12.518396368
 20
7.6645963657
 30
0.0
 10
12.5193200969
 20
7.6527245999
 30
0.0
 10
12.520075685
 20
7.6405365077
 30
0.0
 10
12.5206612928
 20
7.6280612374
 30
0.0
 10
12.5210754945
 20
7.6153286411
 30
0.0
 10
12.5213172987
 20
7.6023691599
 30
0.0
 10
12.5214094806
 20
7.5847257905
 30
0.0
 10
12.5210857734
 20
7.5623347151
 30
0.0
 10
12.5200148265
 20
7.5352208821
 30
0.0
 10
12.5182689906
 20
7.5079663899
 30
0.0
 10
12.51586499
 20
7.4808317906
 30
0.0
 10
12.5128258576
 20
7.4540764951
 30
0.0
 10
12.5097668432
 20
7.432153894
 30
0.0
 10
12.5070171979
 20
7.4150032433
 30
0.0
 10
12.5048309809
 20
7.4024854814
 30
0.0
 10
12.5025112658
 20
7.3902502624
 30
0.0
 10
12.5000636063
 20
7.3783268289
 30
0.0
 10
12.4974938951
 20
7.3667436958
 30
0.0
 10
12.4948083102
 20
7.3555285523
 30
0.0
 10
12.492013308
 20
7.3447082005
 30
0.0
 10
12.4891156153
 20
7.3343084802
 30
0.0
 10
12.4861222112
 20
7.3243542029
 30
0.0
 10
12.4830403019
 20
7.314869094
 30
0.0
 10
12.4798773045
 20
7.305875734
 30
0.0
 10
12.4766408211
 20
7.2973954831
 30
0.0
 10
12.4733386349
 20
7.2894484344
 30
0.0
 10
12.4699786488
 20
7.2820532736
 30
0.0
 10
12.4665688975
 20
7.2752275096
 30
0.0
 10
12.4636419178
 20
7.2699349594
 30
0.0
 10
12.4612757402
 20
7.2660060438
 30
0.0
 10
12.4595259723
 20
7.2632652647
 30
0.0
 10
12.4577698729
 20
7.2606783014
 30
0.0
 10
12.4560083979
 20
7.2582466811
 30
0.0
 10
12.4542425889
 20
7.2559717834
 30
0.0
 10
12.4524733996
 20
7.2538549485
 30
0.0
 10
12.4507019863
 20
7.2518975371
 30
0.0
 10
12.4494934776
 20
7.2506724932
 30
0.0
 10
12.4488888253
 20
7.2500884439
 30
0.0
  0
SPLINE
  5
39C
100
AcDbEntity
  8
0
100
AcDbSpline
 62
7
  6
CONTINUOUS
 70
0
 71
3
 72
45
 73
41
 74
0
 42
0.0000001
 43
0.0000001
 44
0.0000000001
 40
0.0
 40
0.0
 40
0.0
 40
0.0
 40
0.0112163228
 40
0.0228183241
 40
0.0347994319
 40
0.0471523729
 40
0.0598692451
 40
0.0729415407
 40
0.1001151039
 40
0.1285953636
 40
0.1582967065
 40
0.189127163
 40
0.2209891535
 40
0.2537801611
 40
0.2873933511
 40
0.3217181563
 40
0.3566408383
 40
0.3920450324
 40
0.4278122823
 40
0.463822567
 40
0.4999548245
 40
0.5360874717
 40
0.5720989238
 40
0.6078681138
 40
0.6432750124
 40
0.6782011517
 40
0.7125301517
 40
0.7461482555
 40
0.7789448739
 40
0.8108131464
 40
0.8416505264
 40
0.8713594008
 40
0.8998477616
 40
0.9270299524
 40
0.9401067349
 40
0.952828224
 40
0.965185869
 40
0.9771717969
 40
0.9887786877
 40
1.0
 40
1.0
 40
1.0
 40
1.0
 10
12.3107973453
 20
8.5382056388
 30
0.0
 10
12.3117963586
 20
8.5404945596
 30
0.0
 10
12.3137811081
 20
8.5451720213
 30
0.0
 10
12.3166735131
 20
8.5523608302
 30
0.0
 10
12.3195294722
 20
8.5598357637
 30
0.0
 10
12.3223464053
 20
8.567590095
 30
0.0
 10
12.3251217983
 20
8.5756169079
 30
0.0
 10
12.3288112608
 20
8.5868180065
 30
0.0
 10
12.3332911704
 20
8.6014522628
 30
0.0
 10
12.338395984
 20
8.6197609261
 30
0.0
 10
12.3432782653
 20
8.6389713599
 30
0.0
 10
12.3479203781
 20
8.659014735
 30
0.0
 10
12.3523055403
 20
8.679819347
 30
0.0
 10
12.3564179149
 20
8.7013106664
 30
0.0
 10
12.3602426577
 20
8.7234116804
 30
0.0
 10
12.3637659714
 20
8.7460431594
 30
0.0
 10
12.3669751537
 20
8.7691239522
 30
0.0
 10
12.3698586417
 20
8.7925712811
 30
0.0
 10
12.3724060529
 20
8.8163010425
 30
0.0
 10
12.3746082215
 20
8.8402281119
 30
0.0
 10
12.3764572312
 20
8.8642666516
 30
0.0
 10
12.3779464431
 20
8.8883304212
 30
0.0
 10
12.3790705198
 20
8.9123330891
 30
0.0
 10
12.3798254446
 20
8.9361885441
 30
0.0
 10
12.3802085367
 20
8.959811207
 30
0.0
 10
12.3802184611
 20
8.9831163398
 30
0.0
 10
12.3798552349
 20
9.0060203526
 30
0.0
 10
12.3791202285
 20
9.0284411076
 30
0.0
 10
12.3780161618
 20
9.0502982169
 30
0.0
 10
12.3765470979
 20
9.0715133418
 30
0.0
 10
12.3747184256
 20
9.0920104642
 30
0.0
 10
12.3725368609
 20
9.1117162321
 30
0.0
 10
12.3700103595
 20
9.130560021
 30
0.0
 10
12.3675952101
 20
9.1456776485
 30
0.0
 10
12.3654886391
 20
9.1572850698
 30
0.0
 10
12.3638488362
 20
9.1656214841
 30
0.0
 10
12.3621302402
 20
9.1736938537
 30
0.0
 10
12.3603344246
 20
9.1814949782
 30
0.0
 10
12.3584629742
 20
9.1890178354
 30
0.0
 10
12.3571435405
 20
9.1939269418
 30
0.0
 10
12.356470367
 20
9.1963330952
 30
0.0
  0
SPLINE
  5
39D
100
AcDbEntity
  8
0
100
AcDbSpline
 62
7
  6
CONTINUOUS
 70
0
 71
3
 72
15
 73
11
 74
0
 42
0.0000001
 43
0.0000001
 44
0.0000000001
 40
0.0
 40
0.0
 40
0.0
 40
0.0
 40
0.1150549931
 40
0.233427462
 40
0.3548900361
 40
0.4792059981
 40
0.606130749
 40
0.735411075
 40
0.8667899859
 40
1.0
 40
1.0
 40
1.0
 40
1.0
 10
10.9076895156
 20
10.597255711
 30
0.0
 10
10.8993103801
 20
10.5988595238
 30
0.0
 10
10.8822803239
 20
10.6019574635
 30
0.0
 10
10.8563128292
 20
10.6062258847
 30
0.0
 10
10.8296005548
 20
10.6101753578
 30
0.0
 10
10.8022021887
 20
10.6137971496
 30
0.0
 10
10.7741778588
 20
10.6170832444
 30
0.0
 10
10.7455889513
 20
10.6200264181
 30
0.0
 10
10.7164983897
 20
10.6226201237
 30
0.0
 10
10.6969347891
 20
10.6241032372
 30
0.0
 10
10.6870810305
 20
10.6247865976
 30
0.0
  0
SPLINE
  5
39E
100
AcDbEntity
  8
0
100
AcDbSpline
 62
7
  6
CONTINUOUS
 70
0
 71
3
 72
88
 73
84
 74
0
 42
0.0000001
 43
0.0000001
 44
0.0000000001
 40
0.0
 40
0.0
 40
0.0
 40
0.0
 40
0.0035562881
 40
0.0072686526
 40
0.0111442466
 40
0.0151892054
 40
0.0194087511
 40
0.0238071456
 40
0.0283876872
 40
0.0331529798
 40
0.038104938
 40
0.0432449306
 40
0.0485738031
 40
0.0540919058
 40
0.0597992229
 40
0.0656953048
 40
0.0717794137
 40
0.0780504702
 40
0.0911473178
 40
0.1049724794
 40
0.1195084797
 40
0.1347347117
 40
0.1506278052
 40
0.1671619209
 40
0.1843090068
 40
0.2020390144
 40
0.2203200831
 40
0.2391187062
 40
0.2583998793
 40
0.2781272356
 40
0.298263182
 40
0.3187690265
 40
0.3396050973
 40
0.3607308597
 40
0.3821050289
 40
0.4036856813
 40
0.447295487
 40
0.491217138
 40
0.5351035831
 40
0.5569255204
 40
0.5786088701
 40
0.6001109256
 40
0.6213894386
 40
0.6424027295
 40
0.6631098024
 40
0.6834704587
 40
0.7034454106
 40
0.7229963982
 40
0.7420863109
 40
0.760679315
 40
0.7787409937
 40
0.7962384894
 40
0.8131406566
 40
0.8294182343
 40
0.8450440409
 40
0.8599932014
 40
0.8742434228
 40
0.8877753197
 40
0.9005728138
 40
0.9066924291
 40
0.9126241987
 40
0.9183673075
 40
0.9239212781
 40
0.9292859694
 40
0.9344617011
 40
0.9394491884
 40
0.9442497035
 40
0.9488650619
 40
0.9532977202
 40
0.9575508916
 40
0.9616285657
 40
0.965535723
 40
0.969278359
 40
0.9728636929
 40
0.9763002876
 40
0.9795981756
 40
0.9827690562
 40
0.9858263285
 40
0.9887852213
 40
0.9916627246
 40
0.9944774833
 40
0.9972495518
 40
1.0
 40
1.0
 40
1.0
 40
1.0
 10
12.506889676
 20
10.6559439535
 30
0.0
 10
12.5077759422
 20
10.6551077241
 30
0.0
 10
12.5095377849
 20
10.6533453855
 30
0.0
 10
12.512093139
 20
10.6505060717
 30
0.0
 10
12.5146147889
 20
10.647417457
 30
0.0
 10
12.5171013422
 20
10.6440813572
 30
0.0
 10
12.5195516742
 20
10.6404994678
 30
0.0
 10
12.5219645668
 20
10.6366735974
 30
0.0
 10
12.5243388766
 20
10.6326057333
 30
0.0
 10
12.5266733292
 20
10.6282979551
 30
0.0
 10
12.528966775
 20
10.6237525152
 30
0.0
 10
12.5312180176
 20
10.6189717603
 30
0.0
 10
12.5334258828
 20
10.6139581707
 30
0.0
 10
12.5355892557
 20
10.6087143652
 30
0.0
 10
12.5377069551
 20
10.6032430663
 30
0.0
 10
12.5397779178
 20
10.5975471477
 30
0.0
 10
12.5418010383
 20
10.591629572
 30
0.0
 10
12.5444720217
 20
10.5833275553
 30
0.0
 10
12.5476735021
 20
10.5724121112
 30
0.0
 10
12.5512547519
 20
10.5586641269
 30
0.0
 10
12.5546213541
 20
10.5441122758
 30
0.0
 10
12.5577661499
 20
10.528787112
 30
0.0
 10
12.5606824263
 20
10.5127206863
 30
0.0
 10
12.5633639633
 20
10.49594672
 30
0.0
 10
12.5658050384
 20
10.4785004466
 30
0.0
 10
12.5680004409
 20
10.4604185478
 30
0.0
 10
12.5699454839
 20
10.4417390635
 30
0.0
 10
12.5716360138
 20
10.4225013095
 30
0.0
 10
12.573068418
 20
10.4027457929
 30
0.0
 10
12.5742396384
 20
10.3825141251
 30
0.0
 10
12.5751471724
 20
10.3618489298
 30
0.0
 10
12.5757890763
 20
10.3407937514
 30
0.0
 10
12.5761639721
 20
10.3193929563
 30
0.0
 10
12.57627104
 20
10.2976916566
 30
0.0
 10
12.5761100567
 20
10.2757355537
 30
0.0
 10
12.5755363486
 20
10.2460806131
 30
0.0
 10
12.5741500366
 20
10.2087171655
 30
0.0
 10
12.5714445074
 20
10.1637666603
 30
0.0
 10
12.5683299135
 20
10.1263294648
 30
0.0
 10
12.5653289988
 20
10.0965363602
 30
0.0
 10
12.5628373588
 20
10.0744019497
 30
0.0
 10
12.5601059689
 20
10.0524834851
 30
0.0
 10
12.5571405726
 20
10.0308271305
 30
0.0
 10
12.5539474413
 20
10.0094785415
 30
0.0
 10
12.550533324
 20
9.9884827079
 30
0.0
 10
12.5469054419
 20
9.9678838736
 30
0.0
 10
12.5430714685
 20
9.9477254397
 30
0.0
 10
12.5390395147
 20
9.9280498738
 30
0.0
 10
12.5348181124
 20
9.9088986195
 30
0.0
 10
12.530416195
 20
9.8903120058
 30
0.0
 10
12.5258430839
 20
9.8723291569
 30
0.0
 10
12.5211084666
 20
9.8549879066
 30
0.0
 10
12.5162223732
 20
9.8383247168
 30
0.0
 10
12.5111951557
 20
9.8223745986
 30
0.0
 10
12.5060374644
 20
9.8071710259
 30
0.0
 10
12.5007602218
 20
9.7927458767
 30
0.0
 10
12.4953745931
 20
9.7791292712
 30
0.0
 10
12.4898919736
 20
9.7663497669
 30
0.0
 10
12.4851843533
 20
9.7562748831
 30
0.0
 10
12.4813710465
 20
9.7486620603
 30
0.0
 10
12.4785367194
 20
9.7432634758
 30
0.0
 10
12.4756868237
 20
9.738093307
 30
0.0
 10
12.4728228475
 20
9.7331542416
 30
0.0
 10
12.4699462531
 20
9.7284488756
 30
0.0
 10
12.4670585897
 20
9.7239796362
 30
0.0
 10
12.4641613059
 20
9.7197488699
 30
0.0
 10
12.4612559316
 20
9.7157587551
 30
0.0
 10
12.4583439474
 20
9.7120113606
 30
0.0
 10
12.4554268145
 20
9.7085086387
 30
0.0
 10
12.4525060447
 20
9.7052523682
 30
0.0
 10
12.4495830322
 20
9.7022442779
 30
0.0
 10
12.4466592636
 20
9.699485889
 30
0.0
 10
12.4437361084
 20
9.6969786844
 30
0.0
 10
12.440814963
 20
9.6947240051
 30
0.0
 10
12.4378972063
 20
9.6927230834
 30
0.0
 10
12.4349841492
 20
9.6909771556
 30
0.0
 10
12.4320771951
 20
9.6894872629
 30
0.0
 10
12.4291776856
 20
9.6882545473
 30
0.0
 10
12.4262871002
 20
9.6872799593
 30
0.0
 10
12.4234070131
 20
9.6865644447
 30
0.0
 10
12.420539043
 20
9.6861088473
 30
0.0
 10
12.4176853742
 20
9.685913683
 30
0.0
 10
12.4157905385
 20
9.6859576089
 30
0.0
 10
12.4148504018
 20
9.6860228055
 30
0.0
  0
SPLINE
  5
39F
100
AcDbEntity
  8
0
100
AcDbSpline
 62
7
  6
CONTINUOUS
 70
0
 71
3
 72
18
 73
14
 74
0
 42
0.0000001
 43
0.0000001
 44
0.0000000001
 40
0.0
 40
0.0
 40
0.0
 40
0.0
 40
0.1504678859
 40
0.2917100145
 40
0.4244359174
 40
0.549562529
 40
0.668213991
 40
0.7255497453
 40
0.7817912733
 40
0.8371402265
 40
0.8918093735
 40
0.9460201098
 40
1.0
 40
1.0
 40
1.0
 40
1.0
 10
12.4488888253
 20
8.2126335652
 30
0.0
 10
12.4469960812
 20
8.2108053147
 30
0.0
 10
12.4432132888
 20
8.2073750507
 30
0.0
 10
12.43735566
 20
8.2028036452
 30
0.0
 10
12.4315049153
 20
8.1989803545
 30
0.0
 10
12.4256671085
 20
8.1959114437
 30
0.0
 10
12.4207604896
 20
8.1939654234
 30
0.0
 10
12.4168648575
 20
8.1928092054
 30
0.0
 10
12.4139846265
 20
8.1921427848
 30
0.0
 10
12.411113951
 20
8.1916678143
 30
0.0
 10
12.4082536366
 20
8.1913844476
 30
0.0
 10
12.4054048185
 20
8.1912928545
 30
0.0
 10
12.4035121467
 20
8.1913598056
 30
0.0
 10
12.4025703532
 20
8.1914251162
 30
0.0
  0
SPLINE
  5
3A0
100
AcDbEntity
  8
0
100
AcDbSpline
 62
4
  6
CONTINUOUS
 70
0
 71
3
 72
403
 73
399
 74
0
 42
0.0000001
 43
0.0000001
 44
0.0000000001
 40
0.0
 40
0.0
 40
0.0
 40
0.0
 40
0.015625
 40
0.0234375
 40
0.03125
 40
0.0390625
 40
0.04296875
 40
0.046875
 40
0.05078125
 40
0.0546875
 40
0.056640625
 40
0.05859375
 40
0.0595703125
 40
0.060546875
 40
0.0615234375
 40
0.0620117188
 40
0.0622558594
 40
0.0625
 40
0.0627441406
 40
0.0629882812
 40
0.0634765625
 40
0.064453125
 40
0.0654296875
 40
0.06640625
 40
0.068359375
 40
0.0703125
 40
0.07421875
 40
0.078125
 40
0.08203125
 40
0.0859375
 40
0.09375
 40
0.1015625
 40
0.10546875
 40
0.109375
 40
0.11328125
 40
0.1171875
 40
0.119140625
 40
0.12109375
 40
0.1220703125
 40
0.123046875
 40
0.1240234375
 40
0.1245117188
 40
0.1247558594
 40
0.125
 40
0.1252441406
 40
0.1254882812
 40
0.1259765625
 40
0.126953125
 40
0.1279296875
 40
0.12890625
 40
0.130859375
 40
0.1328125
 40
0.13671875
 40
0.140625
 40
0.14453125
 40
0.1484375
 40
0.15625
 40
0.1640625
 40
0.16796875
 40
0.171875
 40
0.17578125
 40
0.1796875
 40
0.181640625
 40
0.18359375
 40
0.1845703125
 40
0.185546875
 40
0.1865234375
 40
0.1870117188
 40
0.1872558594
 40
0.1875
 40
0.1877441406
 40
0.1879882812
 40
0.1884765625
 40
0.189453125
 40
0.1904296875
 40
0.19140625
 40
0.193359375
 40
0.1953125
 40
0.19921875
 40
0.203125
 40
0.20703125
 40
0.2109375
 40
0.21875
 40
0.2265625
 40
0.23046875
 40
0.234375
 40
0.23828125
 40
0.2421875
 40
0.244140625
 40
0.24609375
 40
0.2470703125
 40
0.248046875
 40
0.2490234375
 40
0.2495117188
 40
0.2497558594
 40
0.25
 40
0.2502441406
 40
0.2504882812
 40
0.2509765625
 40
0.251953125
 40
0.2529296875
 40
0.25390625
 40
0.255859375
 40
0.2578125
 40
0.26171875
 40
0.265625
 40
0.26953125
 40
0.2734375
 40
0.28125
 40
0.2890625
 40
0.29296875
 40
0.296875
 40
0.30078125
 40
0.3046875
 40
0.306640625
 40
0.30859375
 40
0.3095703125
 40
0.310546875
 40
0.3115234375
 40
0.3120117188
 40
0.3122558594
 40
0.3125
 40
0.3127441406
 40
0.3129882812
 40
0.3134765625
 40
0.314453125
 40
0.3154296875
 40
0.31640625
 40
0.318359375
 40
0.3203125
 40
0.32421875
 40
0.328125
 40
0.33203125
 40
0.3359375
 40
0.34375
 40
0.3515625
 40
0.35546875
 40
0.359375
 40
0.36328125
 40
0.3671875
 40
0.369140625
 40
0.37109375
 40
0.3720703125
 40
0.373046875
 40
0.3740234375
 40
0.3745117188
 40
0.3747558594
 40
0.375
 40
0.3752441406
 40
0.3754882812
 40
0.3759765625
 40
0.376953125
 40
0.3779296875
 40
0.37890625
 40
0.380859375
 40
0.3828125
 40
0.38671875
 40
0.390625
 40
0.39453125
 40
0.3984375
 40
0.40625
 40
0.4140625
 40
0.41796875
 40
0.421875
 40
0.42578125
 40
0.4296875
 40
0.431640625
 40
0.43359375
 40
0.4345703125
 40
0.435546875
 40
0.4365234375
 40
0.4370117188
 40
0.4372558594
 40
0.4375
 40
0.4377441406
 40
0.4379882812
 40
0.4384765625
 40
0.439453125
 40
0.4404296875
 40
0.44140625
 40
0.443359375
 40
0.4453125
 40
0.44921875
 40
0.453125
 40
0.45703125
 40
0.4609375
 40
0.46875
 40
0.4765625
 40
0.48046875
 40
0.484375
 40
0.48828125
 40
0.4921875
 40
0.494140625
 40
0.49609375
 40
0.4970703125
 40
0.498046875
 40
0.4990234375
 40
0.4995117188
 40
0.4997558594
 40
0.5
 40
0.5002441406
 40
0.5004882812
 40
0.5009765625
 40
0.501953125
 40
0.5029296875
 40
0.50390625
 40
0.505859375
 40
0.5078125
 40
0.51171875
 40
0.515625
 40
0.51953125
 40
0.5234375
 40
0.53125
 40
0.5390625
 40
0.54296875
 40
0.546875
 40
0.55078125
 40
0.5546875
 40
0.556640625
 40
0.55859375
 40
0.5595703125
 40
0.560546875
 40
0.5615234375
 40
0.5620117188
 40
0.5622558594
 40
0.5625
 40
0.5627441406
 40
0.5629882812
 40
0.5634765625
 40
0.564453125
 40
0.5654296875
 40
0.56640625
 40
0.568359375
 40
0.5703125
 40
0.57421875
 40
0.578125
 40
0.58203125
 40
0.5859375
 40
0.59375
 40
0.6015625
 40
0.60546875
 40
0.609375
 40
0.61328125
 40
0.6171875
 40
0.619140625
 40
0.62109375
 40
0.6220703125
 40
0.623046875
 40
0.6240234375
 40
0.6245117188
 40
0.6247558594
 40
0.625
 40
0.6252441406
 40
0.6254882812
 40
0.6259765625
 40
0.626953125
 40
0.6279296875
 40
0.62890625
 40
0.630859375
 40
0.6328125
 40
0.63671875
 40
0.640625
 40
0.64453125
 40
0.6484375
 40
0.65625
 40
0.6640625
 40
0.66796875
 40
0.671875
 40
0.67578125
 40
0.6796875
 40
0.681640625
 40
0.68359375
 40
0.6845703125
 40
0.685546875
 40
0.6865234375
 40
0.6870117188
 40
0.6872558594
 40
0.6875
 40
0.6877441406
 40
0.6879882812
 40
0.6884765625
 40
0.689453125
 40
0.6904296875
 40
0.69140625
 40
0.693359375
 40
0.6953125
 40
0.69921875
 40
0.703125
 40
0.70703125
 40
0.7109375
 40
0.71875
 40
0.7265625
 40
0.73046875
 40
0.734375
 40
0.73828125
 40
0.7421875
 40
0.744140625
 40
0.74609375
 40
0.7470703125
 40
0.748046875
 40
0.7490234375
 40
0.7495117188
 40
0.7497558594
 40
0.75
 40
0.7502441406
 40
0.7504882812
 40
0.7509765625
 40
0.751953125
 40
0.7529296875
 40
0.75390625
 40
0.755859375
 40
0.7578125
 40
0.76171875
 40
0.765625
 40
0.76953125
 40
0.7734375
 40
0.78125
 40
0.7890625
 40
0.79296875
 40
0.796875
 40
0.80078125
 40
0.8046875
 40
0.806640625
 40
0.80859375
 40
0.8095703125
 40
0.810546875
 40
0.8115234375
 40
0.8120117188
 40
0.8122558594
 40
0.8125
 40
0.8127441406
 40
0.8129882812
 40
0.8134765625
 40
0.814453125
 40
0.8154296875
 40
0.81640625
 40
0.818359375
 40
0.8203125
 40
0.82421875
 40
0.828125
 40
0.83203125
 40
0.8359375
 40
0.84375
 40
0.8515625
 40
0.85546875
 40
0.859375
 40
0.86328125
 40
0.8671875
 40
0.869140625
 40
0.87109375
 40
0.8720703125
 40
0.873046875
 40
0.8740234375
 40
0.8745117188
 40
0.8747558594
 40
0.875
 40
0.8752441406
 40
0.8754882812
 40
0.8759765625
 40
0.876953125
 40
0.8779296875
 40
0.87890625
 40
0.880859375
 40
0.8828125
 40
0.88671875
 40
0.890625
 40
0.89453125
 40
0.8984375
 40
0.90625
 40
0.9140625
 40
0.91796875
 40
0.921875
 40
0.92578125
 40
0.9296875
 40
0.931640625
 40
0.93359375
 40
0.9345703125
 40
0.935546875
 40
0.9365234375
 40
0.9370117188
 40
0.9372558594
 40
0.9375
 40
0.9377441406
 40
0.9379882812
 40
0.9384765625
 40
0.939453125
 40
0.9404296875
 40
0.94140625
 40
0.943359375
 40
0.9453125
 40
0.94921875
 40
0.953125
 40
0.95703125
 40
0.9609375
 40
0.96875
 40
0.9765625
 40
0.984375
 40
1.0
 40
1.0
 40
1.0
 40
1.0
 10
10.186920584
 20
8.8654554481
 30
0.0
 10
10.1872277957
 20
8.862300956
 30
0.0
 10
10.1876886132
 20
8.8575692178
 30
0.0
 10
10.1883030365
 20
8.8512602336
 30
0.0
 10
10.1887638541
 20
8.8465284954
 30
0.0
 10
10.1891478685
 20
8.8425853802
 30
0.0
 10
10.1894550805
 20
8.8394308882
 30
0.0
 10
10.1896854882
 20
8.8370650189
 30
0.0
 10
10.1899159007
 20
8.8346991503
 30
0.0
 10
10.1901078965
 20
8.8327275913
 30
0.0
 10
10.1902615257
 20
8.8311503482
 30
0.0
 10
10.1903574699
 20
8.8301645618
 30
0.0
 10
10.1904343949
 20
8.8293759545
 30
0.0
 10
10.1904916241
 20
8.8287844392
 30
0.0
 10
10.1905407928
 20
8.8282916999
 30
0.0
 10
10.190572311
 20
8.8279464094
 30
0.0
 10
10.1905948493
 20
8.827749683
 30
0.0
 10
10.1905989979
 20
8.8276004972
 30
0.0
 10
10.190651903
 20
8.8274575842
 30
0.0
 10
10.1907054363
 20
8.8272648455
 30
0.0
 10
10.1908070433
 20
8.8269285722
 30
0.0
 10
10.1909480535
 20
8.8264476488
 30
0.0
 10
10.191119039
 20
8.8258707689
 30
0.0
 10
10.1913464002
 20
8.825101516
 30
0.0
 10
10.1916308139
 20
8.8241399771
 30
0.0
 10
10.1920857572
 20
8.8226014996
 30
0.0
 10
10.192654477
 20
8.820678408
 30
0.0
 10
10.1933369234
 20
8.8183706959
 30
0.0
 10
10.1940193744
 20
8.8160629843
 30
0.0
 10
10.1949293075
 20
8.8129860354
 30
0.0
 10
10.1960667244
 20
8.8091398493
 30
0.0
 10
10.197204141
 20
8.8052936631
 30
0.0
 10
10.1981140747
 20
8.8022167143
 30
0.0
 10
10.1987965238
 20
8.7999090024
 30
0.0
 10
10.1994789773
 20
8.7976012919
 30
0.0
 10
10.2000476749
 20
8.7956781951
 30
0.0
 10
10.2005026636
 20
8.7941397282
 30
0.0
 10
10.2007869618
 20
8.7931781625
 30
0.0
 10
10.2010145602
 20
8.7924089647
 30
0.0
 10
10.2011848212
 20
8.7918319163
 30
0.0
 10
10.201328098
 20
8.79135152
 30
0.0
 10
10.2014256587
 20
8.7910143057
 30
0.0
 10
10.2014856752
 20
8.7908230748
 30
0.0
 10
10.2015186659
 20
8.7906755303
 30
0.0
 10
10.2015976094
 20
8.7905437394
 30
0.0
 10
10.2016868385
 20
8.7903625232
 30
0.0
 10
10.2018504576
 20
8.790047955
 30
0.0
 10
10.2020802947
 20
8.7895972333
 30
0.0
 10
10.2023577705
 20
8.7890569403
 30
0.0
 10
10.2027271544
 20
8.7883363494
 30
0.0
 10
10.2031890842
 20
8.7874356794
 30
0.0
 10
10.2039280602
 20
8.785994569
 30
0.0
 10
10.2048518186
 20
8.7841931942
 30
0.0
 10
10.2059603121
 20
8.7820315387
 30
0.0
 10
10.2070688101
 20
8.7798698848
 30
0.0
 10
10.2085468058
 20
8.7769876791
 30
0.0
 10
10.2103943011
 20
8.7733849221
 30
0.0
 10
10.2122417959
 20
8.7697821649
 30
0.0
 10
10.2137197923
 20
8.7668999594
 30
0.0
 10
10.2148282884
 20
8.7647383048
 30
0.0
 10
10.2159367888
 20
8.7625766521
 30
0.0
 10
10.2168605258
 20
8.7607752686
 30
0.0
 10
10.2175995452
 20
8.7593341759
 30
0.0
 10
10.2180613646
 20
8.7584334608
 30
0.0
 10
10.2184309753
 20
8.7577129625
 30
0.0
 10
10.2187077583
 20
8.7571723869
 30
0.0
 10
10.2189397629
 20
8.7567225492
 30
0.0
 10
10.2190995127
 20
8.7564064029
 30
0.0
 10
10.2191949414
 20
8.7562277152
 30
0.0
 10
10.2192548416
 20
8.7560881574
 30
0.0
 10
10.2193593557
 20
8.7559697843
 30
0.0
 10
10.2194831459
 20
8.755804564
 30
0.0
 10
10.2197070295
 20
8.7555188714
 30
0.0
 10
10.2200230724
 20
8.7551089392
 30
0.0
 10
10.2204039465
 20
8.754617791
 30
0.0
 10
10.2209112118
 20
8.7539626576
 30
0.0
 10
10.2215454876
 20
8.753143833
 30
0.0
 10
10.2225602203
 20
8.7518336621
 30
0.0
 10
10.2238286735
 20
8.7501959662
 30
0.0
 10
10.2253508013
 20
8.7482307235
 30
0.0
 10
10.2268729334
 20
8.7462654829
 30
0.0
 10
10.2289024413
 20
8.7436451613
 30
0.0
 10
10.2314393268
 20
8.7403697597
 30
0.0
 10
10.233976212
 20
8.7370943577
 30
0.0
 10
10.2360057205
 20
8.7344740366
 30
0.0
 10
10.237527851
 20
8.7325087947
 30
0.0
 10
10.2390499846
 20
8.7305435565
 30
0.0
 10
10.2403184196
 20
8.7289058469
 30
0.0
 10
10.2413331894
 20
8.7275957038
 30
0.0
 10
10.2419673709
 20
8.7267768086
 30
0.0
 10
10.2424748297
 20
8.7261218201
 30
0.0
 10
10.242855113
 20
8.7256302293
 30
0.0
 10
10.2431730043
 20
8.7252216818
 30
0.0
 10
10.2433935882
 20
8.7249335173
 30
0.0
 10
10.2435226653
 20
8.7247722576
 30
0.0
 10
10.2436109399
 20
8.7246417189
 30
0.0
 10
10.2437318326
 20
8.724547853
 30
0.0
 10
10.2438816454
 20
8.7244099066
 30
0.0
 10
10.2441491187
 20
8.7241744603
 30
0.0
 10
10.244528452
 20
8.7238349925
 30
0.0
 10
10.2449848382
 20
8.7234289649
 30
0.0
 10
10.2455929388
 20
8.722887129
 30
0.0
 10
10.2463532065
 20
8.7222099935
 30
0.0
 10
10.2475695554
 20
8.7211264876
 30
0.0
 10
10.2490900188
 20
8.7197721359
 30
0.0
 10
10.2509145632
 20
8.7181469007
 30
0.0
 10
10.2527391108
 20
8.7165216689
 30
0.0
 10
10.2551718397
 20
8.7143546921
 30
0.0
 10
10.2582127513
 20
8.7116459715
 30
0.0
 10
10.2612536627
 20
8.7089372506
 30
0.0
 10
10.263686392
 20
8.7067702742
 30
0.0
 10
10.2655109383
 20
8.705145041
 30
0.0
 10
10.2673354873
 20
8.7035198115
 30
0.0
 10
10.2688559365
 20
8.7021654419
 30
0.0
 10
10.2700723144
 20
8.7010819724
 30
0.0
 10
10.2708325085
 20
8.7004047442
 30
0.0
 10
10.27144076
 20
8.6998630987
 30
0.0
 10
10.2718966852
 20
8.6994564893
 30
0.0
 10
10.2722774609
 20
8.6991188418
 30
0.0
 10
10.2725423594
 20
8.698880146
 30
0.0
 10
10.2726962976
 20
8.698747406
 30
0.0
 10
10.272804518
 20
8.6986375476
 30
0.0
 10
10.2729403879
 20
8.6985670741
 30
0.0
 10
10.2731119033
 20
8.6984593716
 30
0.0
 10
10.2734165489
 20
8.6982772928
 30
0.0
 10
10.2738494075
 20
8.6980138339
 30
0.0
 10
10.2743698434
 20
8.6976991156
 30
0.0
 10
10.2750634067
 20
8.6972789909
 30
0.0
 10
10.2759304811
 20
8.6967540064
 30
0.0
 10
10.2773177329
 20
8.6959139353
 30
0.0
 10
10.2790518208
 20
8.6948638793
 30
0.0
 10
10.2811327163
 20
8.6936037981
 30
0.0
 10
10.2832136145
 20
8.6923437207
 30
0.0
 10
10.2859881445
 20
8.690663616
 30
0.0
 10
10.2894563073
 20
8.6885634858
 30
0.0
 10
10.29292447
 20
8.6864633552
 30
0.0
 10
10.2956990002
 20
8.6847832511
 30
0.0
 10
10.2977798975
 20
8.683523172
 30
0.0
 10
10.2998607966
 20
8.6822630971
 30
0.0
 10
10.3015948734
 20
8.6812130214
 30
0.0
 10
10.3029821477
 20
8.6803729906
 30
0.0
 10
10.303849165
 20
8.6798479036
 30
0.0
 10
10.3045428454
 20
8.6794279891
 30
0.0
 10
10.3050629237
 20
8.6791126287
 30
0.0
 10
10.3054969012
 20
8.6788511788
 30
0.0
 10
10.3057995494
 20
8.6786655136
 30
0.0
 10
10.305974265
 20
8.6785635575
 30
0.0
 10
10.3061003049
 20
8.6784754327
 30
0.0
 10
10.3062454453
 20
8.6784318696
 30
0.0
 10
10.3064323035
 20
8.6783582418
 30
0.0
 10
10.3067624094
 20
8.6782366353
 30
0.0
 10
10.3072323663
 20
8.6780591255
 30
0.0
 10
10.3077970094
 20
8.6778477343
 30
0.0
 10
10.3085496241
 20
8.6775653134
 30
0.0
 10
10.3094904756
 20
8.6772124811
 30
0.0
 10
10.3109957915
 20
8.676647841
 30
0.0
 10
10.3128774523
 20
8.6759420781
 30
0.0
 10
10.3151354385
 20
8.6750951466
 30
0.0
 10
10.3173934266
 20
8.6742482195
 30
0.0
 10
10.3204040766
 20
8.6731189817
 30
0.0
 10
10.3241673894
 20
8.6717074351
 30
0.0
 10
10.3279307021
 20
8.6702958882
 30
0.0
 10
10.3309413524
 20
8.669166651
 30
0.0
 10
10.3331993397
 20
8.668319722
 30
0.0
 10
10.3354573284
 20
8.6674727975
 30
0.0
 10
10.3373389814
 20
8.6667670129
 30
0.0
 10
10.3388443134
 20
8.6662024171
 30
0.0
 10
10.339785124
 20
8.6658494722
 30
0.0
 10
10.3405378226
 20
8.6655672823
 30
0.0
 10
10.3411022095
 20
8.6653551853
 30
0.0
 10
10.3415729677
 20
8.6651798839
 30
0.0
 10
10.3419016432
 20
8.6650543349
 30
0.0
 10
10.3420907932
 20
8.664987024
 30
0.0
 10
10.342228894
 20
8.6649240576
 30
0.0
 10
10.3423813738
 20
8.6649088084
 30
0.0
 10
10.3425796647
 20
8.6648718319
 30
0.0
 10
10.3429290106
 20
8.6648148779
 30
0.0
 10
10.3434268544
 20
8.6647294607
 30
0.0
 10
10.34402479
 20
8.6646286954
 30
0.0
 10
10.3448218548
 20
8.6644937356
 30
0.0
 10
10.3458182482
 20
8.6643252434
 30
0.0
 10
10.3474124429
 20
8.6640555398
 30
0.0
 10
10.3494051981
 20
8.6637184501
 30
0.0
 10
10.3517964993
 20
8.6633139254
 30
0.0
 10
10.3541878019
 20
8.6629094053
 30
0.0
 10
10.3573762048
 20
8.6623700436
 30
0.0
 10
10.3613617086
 20
8.661695842
 30
0.0
 10
10.3653472124
 20
8.66102164
 30
0.0
 10
10.3685356154
 20
8.6604822789
 30
0.0
 10
10.3709269178
 20
8.6600777568
 30
0.0
 10
10.3733182197
 20
8.6596732396
 30
0.0
 10
10.3753109726
 20
8.6593361267
 30
0.0
 10
10.376905172
 20
8.6590664704
 30
0.0
 10
10.3779015534
 20
8.6588978578
 30
0.0
 10
10.378698643
 20
8.6587631449
 30
0.0
 10
10.3792965027
 20
8.6586616253
 30
0.0
 10
10.3797945838
 20
8.6585785683
 30
0.0
 10
10.3801435062
 20
8.6585174008
 30
0.0
 10
10.3803424756
 20
8.6584871754
 30
0.0
 10
10.3804928712
 20
8.6584511891
 30
0.0
 10
10.3806388002
 20
8.658466108
 30
0.0
 10
10.3808349301
 20
8.6584682437
 30
0.0
 10
10.3811774316
 20
8.658480254
 30
0.0
 10
10.3816670989
 20
8.6584930864
 30
0.0
 10
10.3822545373
 20
8.6585103366
 30
0.0
 10
10.3830378452
 20
8.6585326903
 30
0.0
 10
10.3840169607
 20
8.6585608537
 30
0.0
 10
10.3855835563
 20
8.6586057915
 30
0.0
 10
10.3875417971
 20
8.6586620063
 30
0.0
 10
10.3898916876
 20
8.6587294457
 30
0.0
 10
10.3922415777
 20
8.6587968901
 30
0.0
 10
10.3953747646
 20
8.6588868141
 30
0.0
 10
10.3992912483
 20
8.6589992199
 30
0.0
 10
10.403207732
 20
8.6591116252
 30
0.0
 10
10.4063409188
 20
8.6592015499
 30
0.0
 10
10.4086908092
 20
8.6592689922
 30
0.0
 10
10.4110406987
 20
8.6593364393
 30
0.0
 10
10.4129989427
 20
8.6593926304
 30
0.0
 10
10.4145655316
 20
8.6594376163
 30
0.0
 10
10.4155446643
 20
8.6594656574
 30
0.0
 10
10.4163279368
 20
8.6594882622
 30
0.0
 10
10.4169154832
 20
8.659504745
 30
0.0
 10
10.4174048126
 20
8.6595199786
 30
0.0
 10
10.4177479174
 20
8.6595277024
 30
0.0
 10
10.4179430807
 20
8.6595367061
 30
0.0
 10
10.4180919788
 20
8.6595305286
 30
0.0
 10
10.4182312228
 20
8.659573777
 30
0.0
 10
10.418420249
 20
8.6596142013
 30
0.0
 10
10.4187494758
 20
8.6596929764
 30
0.0
 10
10.4192206201
 20
8.6598013126
 30
0.0
 10
10.4197856422
 20
8.6599331137
 30
0.0
 10
10.4205391275
 20
8.6601082206
 30
0.0
 10
10.4214809423
 20
8.6603273191
 30
0.0
 10
10.4229878693
 20
8.6606777567
 30
0.0
 10
10.42487152
 20
8.6611158449
 30
0.0
 10
10.4271319044
 20
8.6616415331
 30
0.0
 10
10.4293922878
 20
8.662167226
 30
0.0
 10
10.4324061326
 20
8.6628681482
 30
0.0
 10
10.4361734386
 20
8.6637443016
 30
0.0
 10
10.4399407447
 20
8.6646204546
 30
0.0
 10
10.4429545893
 20
8.6653213775
 30
0.0
 10
10.4452149733
 20
8.6658470684
 30
0.0
 10
10.4474753555
 20
8.6663727639
 30
0.0
 10
10.4493590129
 20
8.6668108294
 30
0.0
 10
10.4508659263
 20
8.6671613133
 30
0.0
 10
10.4518077759
 20
8.6673802939
 30
0.0
 10
10.4525611896
 20
8.6675556429
 30
0.0
 10
10.4531264304
 20
8.6676867044
 30
0.0
 10
10.4535968904
 20
8.6677973547
 30
0.0
 10
10.4539273389
 20
8.6678719987
 30
0.0
 10
10.4541144076
 20
8.6679190419
 30
0.0
 10
10.4542596641
 20
8.6679419591
 30
0.0
 10
10.4543859803
 20
8.6680121425
 30
0.0
 10
10.4545610085
 20
8.6680892334
 30
0.0
 10
10.4548642297
 20
8.668231824
 30
0.0
 10
10.4552990121
 20
8.6684315088
 30
0.0
 10
10.4558200621
 20
8.6686728497
 30
0.0
 10
10.4565150361
 20
8.668994037
 30
0.0
 10
10.4573836712
 20
8.6693957268
 30
0.0
 10
10.4587735334
 20
8.6700383155
 30
0.0
 10
10.4605108454
 20
8.6708415908
 30
0.0
 10
10.4625956265
 20
8.6718055043
 30
0.0
 10
10.4646804059
 20
8.6727694223
 30
0.0
 10
10.4674601123
 20
8.6740546448
 30
0.0
 10
10.470934745
 20
8.6756611734
 30
0.0
 10
10.474409378
 20
8.6772677017
 30
0.0
 10
10.4771890841
 20
8.6785529248
 30
0.0
 10
10.4792738643
 20
8.6795168409
 30
0.0
 10
10.4813586421
 20
8.6804807615
 30
0.0
 10
10.4830959643
 20
8.6812840148
 30
0.0
 10
10.4844858058
 20
8.6819266484
 30
0.0
 10
10.4853544936
 20
8.682328224
 30
0.0
 10
10.4860493594
 20
8.6826496456
 30
0.0
 10
10.48657074
 20
8.6828902707
 30
0.0
 10
10.4870044881
 20
8.6830921948
 30
0.0
 10
10.4873095557
 20
8.6832307881
 30
0.0
 10
10.4874816254
 20
8.6833142837
 30
0.0
 10
10.4876170292
 20
8.6833647936
 30
0.0
 10
10.4877281542
 20
8.6834616012
 30
0.0
 10
10.4878847895
 20
8.6835745287
 30
0.0
 10
10.4881549557
 20
8.6837796762
 30
0.0
 10
10.4885429703
 20
8.6840688102
 30
0.0
 10
10.4890077048
 20
8.6844174548
 30
0.0
 10
10.4896276593
 20
8.6848817262
 30
0.0
 10
10.4904024967
 20
8.6854622668
 30
0.0
 10
10.4916422956
 20
8.6863910192
 30
0.0
 10
10.493192024
 20
8.6875519983
 30
0.0
 10
10.4950517067
 20
8.6889451567
 30
0.0
 10
10.4969113872
 20
8.6903383195
 30
0.0
 10
10.4993909619
 20
8.6921958684
 30
0.0
 10
10.5024904299
 20
8.694517805
 30
0.0
 10
10.5055898983
 20
8.6968397413
 30
0.0
 10
10.5080694726
 20
8.6986972907
 30
0.0
 10
10.5099291543
 20
8.7000904519
 30
0.0
 10
10.5117888322
 20
8.7014836164
 30
0.0
 10
10.5133385755
 20
8.7026445764
 30
0.0
 10
10.5145783441
 20
8.7035733679
 30
0.0
 10
10.5153532586
 20
8.7041538089
 30
0.0
 10
10.5159730548
 20
8.7046182847
 30
0.0
 10
10.5164382728
 20
8.704966305
 30
0.0
 10
10.5168247745
 20
8.7052573923
 30
0.0
 10
10.5170976414
 20
8.7054590528
 30
0.0
 10
10.5172499496
 20
8.7055775673
 30
0.0
 10
10.5173743664
 20
8.7056572136
 30
0.0
 10
10.5174598484
 20
8.7057721781
 30
0.0
 10
10.5175874053
 20
8.7059131448
 30
0.0
 10
10.5178043022
 20
8.7061655762
 30
0.0
 10
10.5181174631
 20
8.7065231918
 30
0.0
 10
10.5184918402
 20
8.7069536148
 30
0.0
 10
10.5189915043
 20
8.7075270636
 30
0.0
 10
10.519615915
 20
8.7082440283
 30
0.0
 10
10.5206150668
 20
8.7093910858
 30
0.0
 10
10.5218639741
 20
8.7108249372
 30
0.0
 10
10.5233626767
 20
8.7125455462
 30
0.0
 10
10.5248613756
 20
8.7142661586
 30
0.0
 10
10.5268596421
 20
8.7165603073
 30
0.0
 10
10.5293574748
 20
8.7194279936
 30
0.0
 10
10.5318553078
 20
8.7222956797
 30
0.0
 10
10.5338535738
 20
8.7245898288
 30
0.0
 10
10.5353522743
 20
8.7263104399
 30
0.0
 10
10.5368509709
 20
8.7280310539
 30
0.0
 10
10.538099897
 20
8.7294648898
 30
0.0
 10
10.5390990104
 20
8.7306119789
 30
0.0
 10
10.539723519
 20
8.7313288632
 30
0.0
 10
10.5402229821
 20
8.7319024768
 30
0.0
 10
10.540597973
 20
8.7323323963
 30
0.0
 10
10.5409092136
 20
8.7326915874
 30
0.0
 10
10.5411295386
 20
8.7329412063
 30
0.0
 10
10.5412516029
 20
8.7330866794
 30
0.0
 10
10.5413539562
 20
8.7331878015
 30
0.0
 10
10.5414150071
 20
8.7333194375
 30
0.0
 10
10.541510815
 20
8.7334843086
 30
0.0
 10
10.5416717666
 20
8.7337777921
 30
0.0
 10
10.5419052066
 20
8.7341944616
 30
0.0
 10
10.5421838325
 20
8.7346955748
 30
0.0
 10
10.5425558585
 20
8.735363338
 30
0.0
 10
10.5430207112
 20
8.7361981748
 30
0.0
 10
10.543764576
 20
8.7375338394
 30
0.0
 10
10.5446943726
 20
8.7392034456
 30
0.0
 10
10.5458101432
 20
8.7412069622
 30
0.0
 10
10.5469259099
 20
8.7432104817
 30
0.0
 10
10.5484136002
 20
8.74588184
 30
0.0
 10
10.5502732126
 20
8.7492210383
 30
0.0
 10
10.5521328253
 20
8.7525602363
 30
0.0
 10
10.553620515
 20
8.755231595
 30
0.0
 10
10.5547362834
 20
8.7572351134
 30
0.0
 10
10.5558520475
 20
8.759238634
 30
0.0
 10
10.5567818645
 20
8.7609082278
 30
0.0
 10
10.5575256875
 20
8.7622439178
 30
0.0
 10
10.5579906467
 20
8.7630786901
 30
0.0
 10
10.5583624543
 20
8.7637465856
 30
0.0
 10
10.5586417471
 20
8.7642472948
 30
0.0
 10
10.5588731005
 20
8.7646652279
 30
0.0
 10
10.5590377771
 20
8.7649564557
 30
0.0
 10
10.5591276166
 20
8.765124941
 30
0.0
 10
10.5592070005
 20
8.7652454755
 30
0.0
 10
10.5592404981
 20
8.7653882929
 30
0.0
 10
10.5593011672
 20
8.7655709437
 30
0.0
 10
10.5593998808
 20
8.7658942038
 30
0.0
 10
10.559544799
 20
8.7663541106
 30
0.0
 10
10.559717032
 20
8.7669068092
 30
0.0
 10
10.5599472589
 20
8.7676434577
 30
0.0
 10
10.560234843
 20
8.7685643651
 30
0.0
 10
10.560695089
 20
8.7700377629
 30
0.0
 10
10.5612703583
 20
8.7718795287
 30
0.0
 10
10.5619606979
 20
8.7740896396
 30
0.0
 10
10.5626510331
 20
8.7762997528
 30
0.0
 10
10.5635714815
 20
8.7792465695
 30
0.0
 10
10.5647220415
 20
8.7829300907
 30
0.0
 10
10.5658726018
 20
8.7866136117
 30
0.0
 10
10.5667930496
 20
8.7895604287
 30
0.0
 10
10.5674833867
 20
8.791770541
 30
0.0
 10
10.5681737191
 20
8.793980655
 30
0.0
 10
10.5687490107
 20
8.7958224114
 30
0.0
 10
10.5692092114
 20
8.7972958284
 30
0.0
 10
10.5694969109
 20
8.798216687
 30
0.0
 10
10.5697269009
 20
8.7989534357
 30
0.0
 10
10.5698998576
 20
8.799505828
 30
0.0
 10
10.5700425117
 20
8.7999666931
 30
0.0
 10
10.570145267
 20
8.8002882426
 30
0.0
 10
10.5701994603
 20
8.8004736342
 30
0.0
 10
10.5702528494
 20
8.8006080324
 30
0.0
 10
10.5702575241
 20
8.8007601881
 30
0.0
 10
10.5702807491
 20
8.8009568684
 30
0.0
 10
10.5703134758
 20
8.8013039449
 30
0.0
 10
10.5703643675
 20
8.8017982596
 30
0.0
 10
10.5704236658
 20
8.8023920831
 30
0.0
 10
10.570503349
 20
8.8031836221
 30
0.0
 10
10.5706027411
 20
8.8041731232
 30
0.0
 10
10.5707618869
 20
8.8057562817
 30
0.0
 10
10.5709607785
 20
8.8077352447
 30
0.0
 10
10.5711994659
 20
8.8101099939
 30
0.0
 10
10.5714381486
 20
8.8124847448
 30
0.0
 10
10.5717563939
 20
8.8156510788
 30
0.0
 10
10.5721541999
 20
8.8196089964
 30
0.0
 10
10.5726315673
 20
8.8243584975
 30
0.0
 10
10.5732680572
 20
8.8306911657
 30
0.0
 10
10.5737454246
 20
8.8354406668
 30
0.0
 10
10.5740636695
 20
8.8386070009
 30
0.0
  0
SPLINE
  5
3A1
100
AcDbEntity
  8
0
100
AcDbSpline
 62
4
  6
CONTINUOUS
 70
0
 71
3
 72
403
 73
399
 74
0
 42
0.0000001
 43
0.0000001
 44
0.0000000001
 40
0.0
 40
0.0
 40
0.0
 40
0.0
 40
0.015625
 40
0.0234375
 40
0.03125
 40
0.0390625
 40
0.04296875
 40
0.046875
 40
0.05078125
 40
0.0546875
 40
0.056640625
 40
0.05859375
 40
0.0595703125
 40
0.060546875
 40
0.0615234375
 40
0.0620117188
 40
0.0622558594
 40
0.0625
 40
0.0627441406
 40
0.0629882812
 40
0.0634765625
 40
0.064453125
 40
0.0654296875
 40
0.06640625
 40
0.068359375
 40
0.0703125
 40
0.07421875
 40
0.078125
 40
0.08203125
 40
0.0859375
 40
0.09375
 40
0.1015625
 40
0.10546875
 40
0.109375
 40
0.11328125
 40
0.1171875
 40
0.119140625
 40
0.12109375
 40
0.1220703125
 40
0.123046875
 40
0.1240234375
 40
0.1245117188
 40
0.1247558594
 40
0.125
 40
0.1252441406
 40
0.1254882812
 40
0.1259765625
 40
0.126953125
 40
0.1279296875
 40
0.12890625
 40
0.130859375
 40
0.1328125
 40
0.13671875
 40
0.140625
 40
0.14453125
 40
0.1484375
 40
0.15625
 40
0.1640625
 40
0.16796875
 40
0.171875
 40
0.17578125
 40
0.1796875
 40
0.181640625
 40
0.18359375
 40
0.1845703125
 40
0.185546875
 40
0.1865234375
 40
0.1870117188
 40
0.1872558594
 40
0.1875
 40
0.1877441406
 40
0.1879882812
 40
0.1884765625
 40
0.189453125
 40
0.1904296875
 40
0.19140625
 40
0.193359375
 40
0.1953125
 40
0.19921875
 40
0.203125
 40
0.20703125
 40
0.2109375
 40
0.21875
 40
0.2265625
 40
0.23046875
 40
0.234375
 40
0.23828125
 40
0.2421875
 40
0.244140625
 40
0.24609375
 40
0.2470703125
 40
0.248046875
 40
0.2490234375
 40
0.2495117188
 40
0.2497558594
 40
0.25
 40
0.2502441406
 40
0.2504882812
 40
0.2509765625
 40
0.251953125
 40
0.2529296875
 40
0.25390625
 40
0.255859375
 40
0.2578125
 40
0.26171875
 40
0.265625
 40
0.26953125
 40
0.2734375
 40
0.28125
 40
0.2890625
 40
0.29296875
 40
0.296875
 40
0.30078125
 40
0.3046875
 40
0.306640625
 40
0.30859375
 40
0.3095703125
 40
0.310546875
 40
0.3115234375
 40
0.3120117188
 40
0.3122558594
 40
0.3125
 40
0.3127441406
 40
0.3129882812
 40
0.3134765625
 40
0.314453125
 40
0.3154296875
 40
0.31640625
 40
0.318359375
 40
0.3203125
 40
0.32421875
 40
0.328125
 40
0.33203125
 40
0.3359375
 40
0.34375
 40
0.3515625
 40
0.35546875
 40
0.359375
 40
0.36328125
 40
0.3671875
 40
0.369140625
 40
0.37109375
 40
0.3720703125
 40
0.373046875
 40
0.3740234375
 40
0.3745117188
 40
0.3747558594
 40
0.375
 40
0.3752441406
 40
0.3754882812
 40
0.3759765625
 40
0.376953125
 40
0.3779296875
 40
0.37890625
 40
0.380859375
 40
0.3828125
 40
0.38671875
 40
0.390625
 40
0.39453125
 40
0.3984375
 40
0.40625
 40
0.4140625
 40
0.41796875
 40
0.421875
 40
0.42578125
 40
0.4296875
 40
0.431640625
 40
0.43359375
 40
0.4345703125
 40
0.435546875
 40
0.4365234375
 40
0.4370117188
 40
0.4372558594
 40
0.4375
 40
0.4377441406
 40
0.4379882812
 40
0.4384765625
 40
0.439453125
 40
0.4404296875
 40
0.44140625
 40
0.443359375
 40
0.4453125
 40
0.44921875
 40
0.453125
 40
0.45703125
 40
0.4609375
 40
0.46875
 40
0.4765625
 40
0.48046875
 40
0.484375
 40
0.48828125
 40
0.4921875
 40
0.494140625
 40
0.49609375
 40
0.4970703125
 40
0.498046875
 40
0.4990234375
 40
0.4995117188
 40
0.4997558594
 40
0.5
 40
0.5002441406
 40
0.5004882812
 40
0.5009765625
 40
0.501953125
 40
0.5029296875
 40
0.50390625
 40
0.505859375
 40
0.5078125
 40
0.51171875
 40
0.515625
 40
0.51953125
 40
0.5234375
 40
0.53125
 40
0.5390625
 40
0.54296875
 40
0.546875
 40
0.55078125
 40
0.5546875
 40
0.556640625
 40
0.55859375
 40
0.5595703125
 40
0.560546875
 40
0.5615234375
 40
0.5620117188
 40
0.5622558594
 40
0.5625
 40
0.5627441406
 40
0.5629882812
 40
0.5634765625
 40
0.564453125
 40
0.5654296875
 40
0.56640625
 40
0.568359375
 40
0.5703125
 40
0.57421875
 40
0.578125
 40
0.58203125
 40
0.5859375
 40
0.59375
 40
0.6015625
 40
0.60546875
 40
0.609375
 40
0.61328125
 40
0.6171875
 40
0.619140625
 40
0.62109375
 40
0.6220703125
 40
0.623046875
 40
0.6240234375
 40
0.6245117188
 40
0.6247558594
 40
0.625
 40
0.6252441406
 40
0.6254882812
 40
0.6259765625
 40
0.626953125
 40
0.6279296875
 40
0.62890625
 40
0.630859375
 40
0.6328125
 40
0.63671875
 40
0.640625
 40
0.64453125
 40
0.6484375
 40
0.65625
 40
0.6640625
 40
0.66796875
 40
0.671875
 40
0.67578125
 40
0.6796875
 40
0.681640625
 40
0.68359375
 40
0.6845703125
 40
0.685546875
 40
0.6865234375
 40
0.6870117188
 40
0.6872558594
 40
0.6875
 40
0.6877441406
 40
0.6879882812
 40
0.6884765625
 40
0.689453125
 40
0.6904296875
 40
0.69140625
 40
0.693359375
 40
0.6953125
 40
0.69921875
 40
0.703125
 40
0.70703125
 40
0.7109375
 40
0.71875
 40
0.7265625
 40
0.73046875
 40
0.734375
 40
0.73828125
 40
0.7421875
 40
0.744140625
 40
0.74609375
 40
0.7470703125
 40
0.748046875
 40
0.7490234375
 40
0.7495117188
 40
0.7497558594
 40
0.75
 40
0.7502441406
 40
0.7504882812
 40
0.7509765625
 40
0.751953125
 40
0.7529296875
 40
0.75390625
 40
0.755859375
 40
0.7578125
 40
0.76171875
 40
0.765625
 40
0.76953125
 40
0.7734375
 40
0.78125
 40
0.7890625
 40
0.79296875
 40
0.796875
 40
0.80078125
 40
0.8046875
 40
0.806640625
 40
0.80859375
 40
0.8095703125
 40
0.810546875
 40
0.8115234375
 40
0.8120117188
 40
0.8122558594
 40
0.8125
 40
0.8127441406
 40
0.8129882812
 40
0.8134765625
 40
0.814453125
 40
0.8154296875
 40
0.81640625
 40
0.818359375
 40
0.8203125
 40
0.82421875
 40
0.828125
 40
0.83203125
 40
0.8359375
 40
0.84375
 40
0.8515625
 40
0.85546875
 40
0.859375
 40
0.86328125
 40
0.8671875
 40
0.869140625
 40
0.87109375
 40
0.8720703125
 40
0.873046875
 40
0.8740234375
 40
0.8745117188
 40
0.8747558594
 40
0.875
 40
0.8752441406
 40
0.8754882812
 40
0.8759765625
 40
0.876953125
 40
0.8779296875
 40
0.87890625
 40
0.880859375
 40
0.8828125
 40
0.88671875
 40
0.890625
 40
0.89453125
 40
0.8984375
 40
0.90625
 40
0.9140625
 40
0.91796875
 40
0.921875
 40
0.92578125
 40
0.9296875
 40
0.931640625
 40
0.93359375
 40
0.9345703125
 40
0.935546875
 40
0.9365234375
 40
0.9370117188
 40
0.9372558594
 40
0.9375
 40
0.9377441406
 40
0.9379882812
 40
0.9384765625
 40
0.939453125
 40
0.9404296875
 40
0.94140625
 40
0.943359375
 40
0.9453125
 40
0.94921875
 40
0.953125
 40
0.95703125
 40
0.9609375
 40
0.96875
 40
0.9765625
 40
0.984375
 40
1.0
 40
1.0
 40
1.0
 40
1.0
 10
10.5740636695
 20
8.8386069839
 30
0.0
 10
10.5737564578
 20
8.8417614761
 30
0.0
 10
10.5732956403
 20
8.8464932142
 30
0.0
 10
10.572681217
 20
8.8528021985
 30
0.0
 10
10.5722203995
 20
8.8575339367
 30
0.0
 10
10.5718363851
 20
8.8614770518
 30
0.0
 10
10.5715291731
 20
8.8646315439
 30
0.0
 10
10.5712987653
 20
8.8669974131
 30
0.0
 10
10.5710683529
 20
8.8693632817
 30
0.0
 10
10.5708763571
 20
8.8713348408
 30
0.0
 10
10.5707227279
 20
8.8729120838
 30
0.0
 10
10.5706267837
 20
8.8738978703
 30
0.0
 10
10.5705498587
 20
8.8746864776
 30
0.0
 10
10.5704926295
 20
8.8752779929
 30
0.0
 10
10.5704434608
 20
8.8757707321
 30
0.0
 10
10.5704119425
 20
8.8761160227
 30
0.0
 10
10.5703894042
 20
8.8763127491
 30
0.0
 10
10.5703852556
 20
8.8764619348
 30
0.0
 10
10.5703323506
 20
8.8766048479
 30
0.0
 10
10.5702788173
 20
8.8767975866
 30
0.0
 10
10.5701772103
 20
8.8771338599
 30
0.0
 10
10.5700362001
 20
8.8776147832
 30
0.0
 10
10.5698652146
 20
8.8781916632
 30
0.0
 10
10.5696378533
 20
8.8789609161
 30
0.0
 10
10.5693534397
 20
8.879922455
 30
0.0
 10
10.5688984963
 20
8.8814609324
 30
0.0
 10
10.5683297765
 20
8.883384024
 30
0.0
 10
10.5676473301
 20
8.8856917362
 30
0.0
 10
10.5669648791
 20
8.8879994477
 30
0.0
 10
10.5660549461
 20
8.8910763967
 30
0.0
 10
10.5649175291
 20
8.8949225827
 30
0.0
 10
10.5637801126
 20
8.8987687689
 30
0.0
 10
10.5628701789
 20
8.9018457177
 30
0.0
 10
10.5621877297
 20
8.9041534297
 30
0.0
 10
10.5615052762
 20
8.9064611402
 30
0.0
 10
10.5609365787
 20
8.908384237
 30
0.0
 10
10.5604815899
 20
8.9099227038
 30
0.0
 10
10.5601972918
 20
8.9108842696
 30
0.0
 10
10.5599696934
 20
8.9116534674
 30
0.0
 10
10.5597994324
 20
8.9122305158
 30
0.0
 10
10.5596561555
 20
8.912710912
 30
0.0
 10
10.5595585948
 20
8.9130481264
 30
0.0
 10
10.5594985784
 20
8.9132393573
 30
0.0
 10
10.5594655876
 20
8.9133869017
 30
0.0
 10
10.5593866442
 20
8.9135186927
 30
0.0
 10
10.559297415
 20
8.9136999089
 30
0.0
 10
10.559133796
 20
8.9140144771
 30
0.0
 10
10.5589039588
 20
8.9144651988
 30
0.0
 10
10.5586264831
 20
8.9150054918
 30
0.0
 10
10.5582570991
 20
8.9157260827
 30
0.0
 10
10.5577951693
 20
8.9166267527
 30
0.0
 10
10.5570561933
 20
8.9180678631
 30
0.0
 10
10.556132435
 20
8.9198692379
 30
0.0
 10
10.5550239414
 20
8.9220308933
 30
0.0
 10
10.5539154435
 20
8.9241925473
 30
0.0
 10
10.5524374477
 20
8.927074753
 30
0.0
 10
10.5505899525
 20
8.93067751
 30
0.0
 10
10.5487424576
 20
8.9342802671
 30
0.0
 10
10.5472644613
 20
8.9371624726
 30
0.0
 10
10.5461559652
 20
8.9393241273
 30
0.0
 10
10.5450474648
 20
8.9414857799
 30
0.0
 10
10.5441237277
 20
8.9432871635
 30
0.0
 10
10.5433847083
 20
8.9447282561
 30
0.0
 10
10.542922889
 20
8.9456289712
 30
0.0
 10
10.5425532782
 20
8.9463494696
 30
0.0
 10
10.5422764953
 20
8.9468900452
 30
0.0
 10
10.5420444906
 20
8.9473398828
 30
0.0
 10
10.5418847409
 20
8.9476560292
 30
0.0
 10
10.5417893122
 20
8.9478347168
 30
0.0
 10
10.541729412
 20
8.9479742747
 30
0.0
 10
10.5416248979
 20
8.9480926478
 30
0.0
 10
10.5415011076
 20
8.9482578681
 30
0.0
 10
10.5412772241
 20
8.9485435606
 30
0.0
 10
10.5409611811
 20
8.9489534929
 30
0.0
 10
10.5405803071
 20
8.9494446411
 30
0.0
 10
10.5400730417
 20
8.9500997745
 30
0.0
 10
10.539438766
 20
8.9509185991
 30
0.0
 10
10.5384240332
 20
8.9522287699
 30
0.0
 10
10.5371555801
 20
8.9538664659
 30
0.0
 10
10.5356334523
 20
8.9558317085
 30
0.0
 10
10.5341113202
 20
8.9577969492
 30
0.0
 10
10.5320818122
 20
8.9604172707
 30
0.0
 10
10.5295449267
 20
8.9636926724
 30
0.0
 10
10.5270080416
 20
8.9669680743
 30
0.0
 10
10.5249785331
 20
8.9695883955
 30
0.0
 10
10.5234564026
 20
8.9715536373
 30
0.0
 10
10.5219342689
 20
8.9735188756
 30
0.0
 10
10.5206658339
 20
8.9751565851
 30
0.0
 10
10.5196510642
 20
8.9764667283
 30
0.0
 10
10.5190168826
 20
8.9772856234
 30
0.0
 10
10.5185094239
 20
8.977940612
 30
0.0
 10
10.5181291406
 20
8.9784322028
 30
0.0
 10
10.5178112493
 20
8.9788407503
 30
0.0
 10
10.5175906654
 20
8.9791289148
 30
0.0
 10
10.5174615883
 20
8.9792901745
 30
0.0
 10
10.5173733136
 20
8.9794207131
 30
0.0
 10
10.5172524209
 20
8.979514579
 30
0.0
 10
10.5171026082
 20
8.9796525255
 30
0.0
 10
10.5168351349
 20
8.9798879718
 30
0.0
 10
10.5164558016
 20
8.9802274395
 30
0.0
 10
10.5159994153
 20
8.9806334671
 30
0.0
 10
10.5153913147
 20
8.9811753031
 30
0.0
 10
10.5146310471
 20
8.9818524385
 30
0.0
 10
10.5134146981
 20
8.9829359444
 30
0.0
 10
10.5118942347
 20
8.9842902962
 30
0.0
 10
10.5100696903
 20
8.9859155314
 30
0.0
 10
10.5082451428
 20
8.9875407631
 30
0.0
 10
10.5058124138
 20
8.98970774
 30
0.0
 10
10.5027715022
 20
8.9924164606
 30
0.0
 10
10.4997305909
 20
8.9951251815
 30
0.0
 10
10.4972978615
 20
8.9972921578
 30
0.0
 10
10.4954733152
 20
8.9989173911
 30
0.0
 10
10.4936487663
 20
9.0005426206
 30
0.0
 10
10.492128317
 20
9.0018969902
 30
0.0
 10
10.4909119392
 20
9.0029804596
 30
0.0
 10
10.4901517451
 20
9.0036576879
 30
0.0
 10
10.4895434935
 20
9.0041993334
 30
0.0
 10
10.4890875683
 20
9.0046059428
 30
0.0
 10
10.4887067927
 20
9.0049435903
 30
0.0
 10
10.4884418942
 20
9.005182286
 30
0.0
 10
10.4882879559
 20
9.005315026
 30
0.0
 10
10.4881797355
 20
9.0054248844
 30
0.0
 10
10.4880438656
 20
9.0054953579
 30
0.0
 10
10.4878723502
 20
9.0056030605
 30
0.0
 10
10.4875677047
 20
9.0057851393
 30
0.0
 10
10.4871348461
 20
9.0060485981
 30
0.0
 10
10.4866144102
 20
9.0063633164
 30
0.0
 10
10.4859208468
 20
9.0067834411
 30
0.0
 10
10.4850537724
 20
9.0073084257
 30
0.0
 10
10.4836665206
 20
9.0081484968
 30
0.0
 10
10.4819324328
 20
9.0091985527
 30
0.0
 10
10.4798515372
 20
9.0104586339
 30
0.0
 10
10.477770639
 20
9.0117187114
 30
0.0
 10
10.474996109
 20
9.013398816
 30
0.0
 10
10.4715279462
 20
9.0154989463
 30
0.0
 10
10.4680597836
 20
9.0175990769
 30
0.0
 10
10.4652852533
 20
9.0192791809
 30
0.0
 10
10.4632043561
 20
9.0205392601
 30
0.0
 10
10.461123457
 20
9.021799335
 30
0.0
 10
10.4593893801
 20
9.0228494107
 30
0.0
 10
10.4580021059
 20
9.0236894415
 30
0.0
 10
10.4571350885
 20
9.0242145285
 30
0.0
 10
10.4564414081
 20
9.024634443
 30
0.0
 10
10.4559213298
 20
9.0249498034
 30
0.0
 10
10.4554873524
 20
9.0252112532
 30
0.0
 10
10.4551847042
 20
9.0253969185
 30
0.0
 10
10.4550099885
 20
9.0254988746
 30
0.0
 10
10.4548839487
 20
9.0255869994
 30
0.0
 10
10.4547388082
 20
9.0256305625
 30
0.0
 10
10.4545519501
 20
9.0257041902
 30
0.0
 10
10.4542218442
 20
9.0258257967
 30
0.0
 10
10.4537518872
 20
9.0260033066
 30
0.0
 10
10.4531872442
 20
9.0262146977
 30
0.0
 10
10.4524346295
 20
9.0264971186
 30
0.0
 10
10.451493778
 20
9.026849951
 30
0.0
 10
10.4499884621
 20
9.0274145911
 30
0.0
 10
10.4481068012
 20
9.028120354
 30
0.0
 10
10.445848815
 20
9.0289672854
 30
0.0
 10
10.443590827
 20
9.0298142126
 30
0.0
 10
10.4405801769
 20
9.0309434503
 30
0.0
 10
10.4368168641
 20
9.0323549969
 30
0.0
 10
10.4330535515
 20
9.0337665439
 30
0.0
 10
10.4300429012
 20
9.034895781
 30
0.0
 10
10.4277849139
 20
9.0357427101
 30
0.0
 10
10.4255269251
 20
9.0365896345
 30
0.0
 10
10.4236452722
 20
9.0372954191
 30
0.0
 10
10.4221399402
 20
9.037860015
 30
0.0
 10
10.4211991295
 20
9.0382129599
 30
0.0
 10
10.420446431
 20
9.0384951498
 30
0.0
 10
10.4198820441
 20
9.0387072468
 30
0.0
 10
10.4194112858
 20
9.0388825481
 30
0.0
 10
10.4190826103
 20
9.0390080971
 30
0.0
 10
10.4188934604
 20
9.039075408
 30
0.0
 10
10.4187553596
 20
9.0391383745
 30
0.0
 10
10.4186028797
 20
9.0391536236
 30
0.0
 10
10.4184045889
 20
9.0391906001
 30
0.0
 10
10.418055243
 20
9.0392475541
 30
0.0
 10
10.4175573991
 20
9.0393329714
 30
0.0
 10
10.4169594636
 20
9.0394337366
 30
0.0
 10
10.4161623988
 20
9.0395686965
 30
0.0
 10
10.4151660053
 20
9.0397371887
 30
0.0
 10
10.4135718107
 20
9.0400068923
 30
0.0
 10
10.4115790554
 20
9.040343982
 30
0.0
 10
10.4091877542
 20
9.0407485066
 30
0.0
 10
10.4067964517
 20
9.0411530268
 30
0.0
 10
10.4036080487
 20
9.0416923885
 30
0.0
 10
10.3996225449
 20
9.0423665901
 30
0.0
 10
10.3956370411
 20
9.0430407921
 30
0.0
 10
10.3924486381
 20
9.0435801532
 30
0.0
 10
10.3900573358
 20
9.0439846753
 30
0.0
 10
10.3876660339
 20
9.0443891925
 30
0.0
 10
10.3856732809
 20
9.0447263054
 30
0.0
 10
10.3840790815
 20
9.0449959617
 30
0.0
 10
10.3830827001
 20
9.0451645742
 30
0.0
 10
10.3822856106
 20
9.0452992871
 30
0.0
 10
10.3816877508
 20
9.0454008068
 30
0.0
 10
10.3811896698
 20
9.0454838637
 30
0.0
 10
10.3808407474
 20
9.0455450312
 30
0.0
 10
10.3806417779
 20
9.0455752567
 30
0.0
 10
10.3804913823
 20
9.045611243
 30
0.0
 10
10.3803454534
 20
9.045596324
 30
0.0
 10
10.3801493235
 20
9.0455941884
 30
0.0
 10
10.379806822
 20
9.0455821781
 30
0.0
 10
10.3793171546
 20
9.0455693457
 30
0.0
 10
10.3787297162
 20
9.0455520955
 30
0.0
 10
10.3779464083
 20
9.0455297418
 30
0.0
 10
10.3769672929
 20
9.0455015783
 30
0.0
 10
10.3754006973
 20
9.0454566405
 30
0.0
 10
10.3734424565
 20
9.0454004258
 30
0.0
 10
10.371092566
 20
9.0453329863
 30
0.0
 10
10.3687426759
 20
9.045265542
 30
0.0
 10
10.3656094889
 20
9.0451756179
 30
0.0
 10
10.3616930053
 20
9.0450632122
 30
0.0
 10
10.3577765216
 20
9.0449508069
 30
0.0
 10
10.3546433347
 20
9.0448608822
 30
0.0
 10
10.3522934444
 20
9.0447934398
 30
0.0
 10
10.3499435549
 20
9.0447259928
 30
0.0
 10
10.3479853108
 20
9.0446698017
 30
0.0
 10
10.346418722
 20
9.0446248158
 30
0.0
 10
10.3454395893
 20
9.0445967747
 30
0.0
 10
10.3446563167
 20
9.0445741698
 30
0.0
 10
10.3440687703
 20
9.0445576871
 30
0.0
 10
10.3435794409
 20
9.0445424535
 30
0.0
 10
10.3432363362
 20
9.0445347296
 30
0.0
 10
10.3430411728
 20
9.044525726
 30
0.0
 10
10.3428922748
 20
9.0445319035
 30
0.0
 10
10.3427530307
 20
9.044488655
 30
0.0
 10
10.3425640046
 20
9.0444482308
 30
0.0
 10
10.3422347777
 20
9.0443694557
 30
0.0
 10
10.3417636334
 20
9.0442611194
 30
0.0
 10
10.3411986114
 20
9.0441293184
 30
0.0
 10
10.340445126
 20
9.0439542115
 30
0.0
 10
10.3395033113
 20
9.0437351129
 30
0.0
 10
10.3379963843
 20
9.0433846753
 30
0.0
 10
10.3361127335
 20
9.0429465871
 30
0.0
 10
10.3338523492
 20
9.042420899
 30
0.0
 10
10.3315919658
 20
9.0418952061
 30
0.0
 10
10.3285781209
 20
9.0411942838
 30
0.0
 10
10.324810815
 20
9.0403181305
 30
0.0
 10
10.3210435089
 20
9.0394419775
 30
0.0
 10
10.3180296642
 20
9.0387410546
 30
0.0
 10
10.3157692802
 20
9.0382153636
 30
0.0
 10
10.3135088981
 20
9.0376896682
 30
0.0
 10
10.3116252406
 20
9.0372516027
 30
0.0
 10
10.3101183273
 20
9.0369011188
 30
0.0
 10
10.3091764777
 20
9.0366821381
 30
0.0
 10
10.3084230639
 20
9.0365067891
 30
0.0
 10
10.3078578231
 20
9.0363757277
 30
0.0
 10
10.3073873632
 20
9.0362650774
 30
0.0
 10
10.3070569147
 20
9.0361904333
 30
0.0
 10
10.3068698459
 20
9.0361433901
 30
0.0
 10
10.3067245894
 20
9.036120473
 30
0.0
 10
10.3065982732
 20
9.0360502896
 30
0.0
 10
10.3064232451
 20
9.0359731987
 30
0.0
 10
10.3061200239
 20
9.0358306081
 30
0.0
 10
10.3056852415
 20
9.0356309232
 30
0.0
 10
10.3051641914
 20
9.0353895824
 30
0.0
 10
10.3044692174
 20
9.0350683951
 30
0.0
 10
10.3036005823
 20
9.0346667053
 30
0.0
 10
10.3022107201
 20
9.0340241166
 30
0.0
 10
10.3004734082
 20
9.0332208412
 30
0.0
 10
10.298388627
 20
9.0322569277
 30
0.0
 10
10.2963038477
 20
9.0312930097
 30
0.0
 10
10.2935241413
 20
9.0300077873
 30
0.0
 10
10.2900495085
 20
9.0284012586
 30
0.0
 10
10.2865748756
 20
9.0267947304
 30
0.0
 10
10.2837951695
 20
9.0255095073
 30
0.0
 10
10.2817103893
 20
9.0245455912
 30
0.0
 10
10.2796256114
 20
9.0235816706
 30
0.0
 10
10.2778882893
 20
9.0227784173
 30
0.0
 10
10.2764984478
 20
9.0221357837
 30
0.0
 10
10.27562976
 20
9.0217342081
 30
0.0
 10
10.2749348942
 20
9.0214127864
 30
0.0
 10
10.2744135135
 20
9.0211721613
 30
0.0
 10
10.2739797655
 20
9.0209702372
 30
0.0
 10
10.2736746978
 20
9.020831644
 30
0.0
 10
10.2735026282
 20
9.0207481483
 30
0.0
 10
10.2733672244
 20
9.0206976384
 30
0.0
 10
10.2732560994
 20
9.0206008309
 30
0.0
 10
10.273099464
 20
9.0204879033
 30
0.0
 10
10.2728292978
 20
9.0202827559
 30
0.0
 10
10.2724412832
 20
9.0199936218
 30
0.0
 10
10.2719765487
 20
9.0196449772
 30
0.0
 10
10.2713565943
 20
9.0191807059
 30
0.0
 10
10.2705817569
 20
9.0186001653
 30
0.0
 10
10.269341958
 20
9.0176714129
 30
0.0
 10
10.2677922296
 20
9.0165104338
 30
0.0
 10
10.2659325468
 20
9.0151172754
 30
0.0
 10
10.2640728664
 20
9.0137241126
 30
0.0
 10
10.2615932917
 20
9.0118665637
 30
0.0
 10
10.2584938236
 20
9.0095446271
 30
0.0
 10
10.2553943553
 20
9.0072226907
 30
0.0
 10
10.252914781
 20
9.0053651413
 30
0.0
 10
10.2510550993
 20
9.0039719802
 30
0.0
 10
10.2491954213
 20
9.0025788156
 30
0.0
 10
10.2476456781
 20
9.0014178557
 30
0.0
 10
10.2464059095
 20
9.0004890642
 30
0.0
 10
10.2456309949
 20
8.9999086231
 30
0.0
 10
10.2450111988
 20
8.9994441474
 30
0.0
 10
10.2445459807
 20
8.9990961271
 30
0.0
 10
10.244159479
 20
8.9988050398
 30
0.0
 10
10.2438866121
 20
8.9986033793
 30
0.0
 10
10.2437343039
 20
8.9984848648
 30
0.0
 10
10.2436098871
 20
8.9984052184
 30
0.0
 10
10.2435244051
 20
8.9982902539
 30
0.0
 10
10.2433968483
 20
8.9981492873
 30
0.0
 10
10.2431799513
 20
8.9978968558
 30
0.0
 10
10.2428667904
 20
8.9975392403
 30
0.0
 10
10.2424924133
 20
8.9971088172
 30
0.0
 10
10.2419927493
 20
8.9965353684
 30
0.0
 10
10.2413683385
 20
8.9958184038
 30
0.0
 10
10.2403691868
 20
8.9946713463
 30
0.0
 10
10.2391202795
 20
8.9932374949
 30
0.0
 10
10.2376215768
 20
8.9915168859
 30
0.0
 10
10.2361228779
 20
8.9897962734
 30
0.0
 10
10.2341246114
 20
8.9875021247
 30
0.0
 10
10.2316267787
 20
8.9846344384
 30
0.0
 10
10.2291289457
 20
8.9817667524
 30
0.0
 10
10.2271306797
 20
8.9794726033
 30
0.0
 10
10.2256319792
 20
8.9777519922
 30
0.0
 10
10.2241332826
 20
8.9760313782
 30
0.0
 10
10.2228843565
 20
8.9745975423
 30
0.0
 10
10.2218852432
 20
8.9734504532
 30
0.0
 10
10.2212607346
 20
8.9727335689
 30
0.0
 10
10.2207612714
 20
8.9721599552
 30
0.0
 10
10.2203862806
 20
8.9717300357
 30
0.0
 10
10.2200750399
 20
8.9713708447
 30
0.0
 10
10.219854715
 20
8.9711212258
 30
0.0
 10
10.2197326506
 20
8.9709757527
 30
0.0
 10
10.2196302973
 20
8.9708746306
 30
0.0
 10
10.2195692464
 20
8.9707429945
 30
0.0
 10
10.2194734385
 20
8.9705781234
 30
0.0
 10
10.219312487
 20
8.9702846399
 30
0.0
 10
10.219079047
 20
8.9698679704
 30
0.0
 10
10.218800421
 20
8.9693668573
 30
0.0
 10
10.2184283951
 20
8.9686990941
 30
0.0
 10
10.2179635423
 20
8.9678642573
 30
0.0
 10
10.2172196775
 20
8.9665285927
 30
0.0
 10
10.216289881
 20
8.9648589864
 30
0.0
 10
10.2151741103
 20
8.9628554699
 30
0.0
 10
10.2140583437
 20
8.9608519503
 30
0.0
 10
10.2125706534
 20
8.958180592
 30
0.0
 10
10.210711041
 20
8.9548413938
 30
0.0
 10
10.2088514283
 20
8.9515021957
 30
0.0
 10
10.2073637386
 20
8.9488308371
 30
0.0
 10
10.2062479701
 20
8.9468273186
 30
0.0
 10
10.2051322061
 20
8.9448237981
 30
0.0
 10
10.204202389
 20
8.9431542042
 30
0.0
 10
10.203458566
 20
8.9418185143
 30
0.0
 10
10.2029936069
 20
8.9409837419
 30
0.0
 10
10.2026217993
 20
8.9403158465
 30
0.0
 10
10.2023425064
 20
8.9398151372
 30
0.0
 10
10.202111153
 20
8.9393972042
 30
0.0
 10
10.2019464765
 20
8.9391059763
 30
0.0
 10
10.201856637
 20
8.9389374911
 30
0.0
 10
10.2017772531
 20
8.9388169565
 30
0.0
 10
10.2017437555
 20
8.9386741391
 30
0.0
 10
10.2016830864
 20
8.9384914884
 30
0.0
 10
10.2015843728
 20
8.9381682283
 30
0.0
 10
10.2014394546
 20
8.9377083215
 30
0.0
 10
10.2012672216
 20
8.9371556228
 30
0.0
 10
10.2010369947
 20
8.9364189744
 30
0.0
 10
10.2007494106
 20
8.935498067
 30
0.0
 10
10.2002891645
 20
8.9340246692
 30
0.0
 10
10.1997138952
 20
8.9321829034
 30
0.0
 10
10.1990235557
 20
8.9299727924
 30
0.0
 10
10.1983332205
 20
8.9277626793
 30
0.0
 10
10.197412772
 20
8.9248158626
 30
0.0
 10
10.1962622121
 20
8.9211323414
 30
0.0
 10
10.1951116517
 20
8.9174488203
 30
0.0
 10
10.1941912039
 20
8.9145020033
 30
0.0
 10
10.1935008668
 20
8.912291891
 30
0.0
 10
10.1928105344
 20
8.910081777
 30
0.0
 10
10.1922352429
 20
8.9082400206
 30
0.0
 10
10.1917750422
 20
8.9067666037
 30
0.0
 10
10.1914873427
 20
8.9058457451
 30
0.0
 10
10.1912573526
 20
8.9051089964
 30
0.0
 10
10.191084396
 20
8.9045566041
 30
0.0
 10
10.1909417418
 20
8.9040957389
 30
0.0
 10
10.1908389866
 20
8.9037741895
 30
0.0
 10
10.1907847932
 20
8.9035887979
 30
0.0
 10
10.1907314041
 20
8.9034543997
 30
0.0
 10
10.1907267295
 20
8.9033022439
 30
0.0
 10
10.1907035045
 20
8.9031055636
 30
0.0
 10
10.1906707777
 20
8.9027584872
 30
0.0
 10
10.1906198861
 20
8.9022641725
 30
0.0
 10
10.1905605878
 20
8.901670349
 30
0.0
 10
10.1904809046
 20
8.9008788099
 30
0.0
 10
10.1903815125
 20
8.8998893089
 30
0.0
 10
10.1902223667
 20
8.8983061503
 30
0.0
 10
10.190023475
 20
8.8963271874
 30
0.0
 10
10.1897847876
 20
8.8939524382
 30
0.0
 10
10.1895461049
 20
8.8915776872
 30
0.0
 10
10.1892278597
 20
8.8884113533
 30
0.0
 10
10.1888300537
 20
8.8844534356
 30
0.0
 10
10.1883526862
 20
8.8797039345
 30
0.0
 10
10.1877161964
 20
8.8733712664
 30
0.0
 10
10.187238829
 20
8.8686217653
 30
0.0
 10
10.186920584
 20
8.8654554312
 30
0.0
  0
ENDSEC
  0
SECTION
  2
OBJECTS
  0
DICTIONARY
  5
C
100
AcDbDictionary
280
0
281
1
  3
ACAD_GROUP
350
D
  3
ACAD_MLINESTYLE
350
17
  3
ACAD_LAYOUT
350
1A
  3
ACAD_PLOTSETTINGS
350
19
  3
ACAD_PLOTSTYLENAME
350
E
  3
ACAD_IMAGE_DICT
350
       3A3
  3
ACAD_IMAGE_VARS
350
       3A4
  3
ACAD_TABLESTYLE
350
       3A5
  0
IMAGEDEF_REACTOR
  5
3A2
100
AcDbRasterImageDefReactor
 90
2
330
28F
  0
DICTIONARY
  5
D
102
{ACAD_REACTORS
330
C
102
}
100
AcDbDictionary
280
0
281
1
  0
ACDBDICTIONARYWDFLT
  5
E
102
{ACAD_REACTORS
330
C
102
}
100
AcDbDictionary
281
1
  3
Normal
350
F
100
AcDbDictionaryWithDefault
340
F
  0
DICTIONARY
  5
3A3
330
C
100
AcDbDictionary
281
1
  3
B6K_assy_2_img_1
350
       3A8
  0
RASTERVARIABLES
  5
3A4
330
C
100
AcDbRasterVariables
 90
0
 70
0
 71
1
 72
5
  0
DICTIONARY
  5
17
102
{ACAD_REACTORS
330
C
102
}
100
AcDbDictionary
280
0
281
1
  3
Standard
350
18
  0
DICTIONARY
  5
3A5
330
C
100
AcDbDictionary
281
1
  3
Standard
350
       3A9
  3
Standard1
350
       3AA
  0
DICTIONARY
  5
19
102
{ACAD_REACTORS
330
C
102
}
100
AcDbDictionary
281
1
  0
DICTIONARY
  5
1A
102
{ACAD_REACTORS
330
C
102
}
100
AcDbDictionary
281
1
  3
Model
350
3A6
  3
Layout1
350
3A7
  0
ACDBPLACEHOLDER
  5
F
102
{ACAD_REACTORS
330
E
102
}
  0
MLINESTYLE
  5
18
102
{ACAD_REACTORS
330
17
102
}
100
AcDbMlineStyle
  2
STANDARD
 70
0
  3

 62
256
 51
90.0
 52
90.0
 71
2
 49
0.5
 62
256
  6
BYLAYER
 49
-0.5
 62
256
  6
BYLAYER
  0
LAYOUT
  5
3A6
102
{ACAD_REACTORS
330
1A
102
}
100
AcDbPlotSettings
  1

  2
none_device
  4
ANSI_C_(22.00_x_17.00_Inches)
  6

 40
0.0
 41
0.0
 42
0.0
 43
0.0
 44
558.8
 45
431.8
 46
0.0
 47
0.0
 48
0.0
 49
0.0
140
0.0
141
0.0
142
1.0
143
1.0
 70
1024
 72
0
 73
0
 74
0
  7

 75
0
147
1.0
148
0.0
149
0.0
100
AcDbLayout
  1
Model
 70
0
 71
0
 10
0.0
 20
0.0
 11
22.0
 21
17.0
 12
0.0
 22
0.0
 32
0.0
 14
0.0
 24
0.0
 34
0.0
 15
0.0
 25
0.0
 35
0.0
146
0.0
 13
0.0
 23
0.0
 33
0.0
 16
1.0
 26
0.0
 36
0.0
 17
0.0
 27
1.0
 37
0.0
 76
0
330
20C
345
0
346
0
  0
LAYOUT
  5
3A7
102
{ACAD_REACTORS
330
1A
102
}
100
AcDbPlotSettings
  1

  2
none_device
  4
ANSI_C_(22.00_x_17.00_Inches)
  6

 40
0.0
 41
0.0
 42
0.0
 43
0.0
 44
558.8
 45
431.8
 46
0.0
 47
0.0
 48
0.0
 49
0.0
140
0.0
141
0.0
142
1.0
143
1.0
 70
0
 72
0
 73
0
 74
0
  7

 75
0
147
1.0
148
0.0
149
0.0
100
AcDbLayout
  1
Layout1
 70
0
 71
1
 10
0.0
 20
0.0
 11
22.0
 21
17.0
 12
0.0
 22
0.0
 32
0.0
 14
0.0
 24
0.0
 34
0.0
 15
0.0
 25
0.0
 35
0.0
146
0.0
 13
0.0
 23
0.0
 33
0.0
 16
1.0
 26
0.0
 36
0.0
 17
0.0
 27
1.0
 37
0.0
 76
0
330
20D
345
0
346
0
  0
IMAGEDEF
  5
3A8
102
{ACAD_REACTORS
330
3A3
330
3A2
102
}
100
AcDbRasterImageDef
 90
0
  1
B6K_assy_2_img_1.png
 10
369.0
 20
92.0
 11
0.0066666667
 21
0.0066666667
280
1
281
0
  0
TABLESTYLE
  5
3A9
102
{ACAD_REACTORS
330
3A5
330
292
330
293
102
}
330
3A5
100
AcDbTableStyle
  3
Standard
 70
0
 71
0
 40
0.06
 41
0.06
280
1
281
1
  7
Standard
140
0.18
170
1
 62
0
 63
7
283
0
  7
Standard
140
0.18
170
1
 62
0
 63
7
283
0
  7
Standard
140
0.18
170
1
 62
0
 63
7
283
0
  0
TABLESTYLE
  5
3AA
102
{ACAD_REACTORS
330
3A5
330
291
102
}
330
3A5
100
AcDbTableStyle
  3
Standard1
 70
1
 71
0
 40
0.06
 41
0.06
280
1
281
1
  7
Standard
140
0.18
170
1
 62
0
 63
7
283
0
  7
Standard
140
0.18
170
1
 62
0
 63
7
283
0
  7
Standard
140
0.18
170
1
 62
0
 63
7
283
0
  0
ENDSEC
  0
EOF
