999
DXF file: B6J_assy_2.dxf
999
Pro/ENGINEER 2014200 by Parametric Technology Corporation
  0
SECTION
  2
HEADER
  9
$ACADVER
  1
AC1021
  9
$DWGCODEPAGE
  3
ANSI_1252
  9
$EXTMAX
 10
22.0
 20
17.0
 30
0.0
  9
$EXTMIN
 10
0.0
 20
0.0
 30
0.0
  9
$LIMMIN
 10
0.0
 20
0.0
  9
$LIMMAX
 10
22.0
 20
17.0
  9
$VIEWCTR
 10
11.0
 20
8.5
  9
$VIEWSIZE
 40
17.0
  9
$CLAYER
  8
0
  9
$LTSCALE
 40
1.21
  9
$CELTYPE
  6
BYLAYER
  9
$DIMSCALE
 40
1.0
  9
$DIMASZ
 40
0.1875
  9
$DIMEXO
 40
0.0625
  9
$DIMDLI
 40
0.836
  9
$DIMEXE
 40
0.125
  9
$DIMCEN
 40
0.198
  9
$DIMLFAC
 40
1.0
  9
$DIMBLK
  1
_FILLED
  9
$DIMTXT
 40
0.1
  9
$DIMTOL
 70
0
  9
$DIMLIM
 70
0
  9
$DIMTFAC
 40
1.0
  9
$DIMGAP
 40
0.09
  9
$DIMDSEP
 70
46
  9
$AUNITS
 70
0
  9
$PDMODE
 70
3
  9
$PDSIZE
 40
0.3125
  9
$HANDSEED
  5
394
  9
$TILEMODE
 70
1
  9
$MEASUREMENT
 70
0
  9
$INSUNITS
 70
1
  0
ENDSEC
  0
SECTION
  2
CLASSES
  0
CLASS
  1
ACDBDICTIONARYWDFLT
  2
AcDbDictionaryWithDefault
  3
AutoCAD 2000
 90
0
 91
1
280
0
281
0
  0
CLASS
  1
ACDBPLACEHOLDER
  2
AcDbPlaceHolder
  3
AutoCAD 2000
 90
0
 91
1
280
0
281
0
  0
CLASS
  1
LAYOUT
  2
AcDbLayout
  3
AutoCAD 2000
 90
0
 91
0
280
0
281
0
  0
CLASS
  1
RASTERVARIABLES
  2
AcDbRasterVariables
  3
ISM
 90
0
 91
1
280
0
281
0
  0
CLASS
  1
IMAGEDEF
  2
AcDbRasterImageDef
  3
ISM
 90
0
 91
1
280
0
281
0
  0
CLASS
  1
IMAGEDEF_REACTOR
  2
AcDbRasterImageDefReactor
  3
ISM
 90
0
 91
1
280
0
281
0
  0
CLASS
  1
IMAGE
  2
AcDbRasterImage
  3
ISM
 90
127
 91
1
280
0
281
1
  0
CLASS
  1
TABLESTYLE
  2
AcDbTableStyle
  3
ObjectDBX Classes
 90
2047
 91
1
280
0
281
0
  0
CLASS
  1
ACAD_TABLE
  2
AcDbTable
  3
ObjectDBX Classes
 90
1025
 91
3
280
0
281
1
  0
ENDSEC
  0
SECTION
  2
TABLES
  0
TABLE
  2
VPORT
  5
8
100
AcDbSymbolTable
 70
2
  0
VPORT
  5
1F4
100
AcDbSymbolTableRecord
100
AcDbViewportTableRecord
  2
*ACTIVE
 70
0
 10
0.0
 20
0.0
 11
1.0
 21
1.0
 12
11.0
 22
8.5
 13
0.0
 23
0.0
 14
1.0
 24
1.0
 15
0.0
 25
0.0
 16
0.0
 26
0.0
 36
1.0
 17
0.0
 27
0.0
 37
0.0
 40
17.0
 41
1.2941176471
 42
50.0
 43
0.0
 44
0.0
 50
0.0
 51
0.0
 71
0
 72
100
 73
1
 74
1
 75
0
 76
0
 77
0
 78
0
  0
ENDTAB
  0
TABLE
  2
LTYPE
  5
5
100
AcDbSymbolTable
 70
6
  0
LTYPE
  5
14
100
AcDbSymbolTableRecord
100
AcDbLinetypeTableRecord
  2
BYBLOCK
 70
0
  3

 72
65
 73
0
 40
0.0
  0
LTYPE
  5
15
100
AcDbSymbolTableRecord
100
AcDbLinetypeTableRecord
  2
BYLAYER
 70
0
  3

 72
65
 73
0
 40
0.0
  0
LTYPE
  5
16
100
AcDbSymbolTableRecord
100
AcDbLinetypeTableRecord
  2
CONTINUOUS
 70
64
  3
Solid line
 72
65
 73
0
 40
0.0
  0
LTYPE
  5
1F5
100
AcDbSymbolTableRecord
100
AcDbLinetypeTableRecord
  2
CENTER
 70
64
  3
____ _ ____ _ ____ _ ____ _ ____ _ ____ _ ____
 72
65
 73
4
 40
0.6
 49
0.375
 74
0
 49
-0.075
 74
0
 49
0.075
 74
0
 49
-0.075
 74
0
  0
LTYPE
  5
1F6
100
AcDbSymbolTableRecord
100
AcDbLinetypeTableRecord
  2
HIDDEN
 70
64
  3
- - - - - - - - - - - - - - - - - - - -
 72
65
 73
2
 40
0.2
 49
0.1
 74
0
 49
-0.1
 74
0
  0
LTYPE
  5
1F7
100
AcDbSymbolTableRecord
100
AcDbLinetypeTableRecord
  2
PHANTOM
 70
64
  3
_____ _ _ _____ _ _ _____ _ _ _____
 72
65
 73
6
 40
0.8
 49
0.45
 74
0
 49
-0.05
 74
0
 49
0.1
 74
0
 49
-0.05
 74
0
 49
0.1
 74
0
 49
-0.05
 74
0
  0
LTYPE
  5
1F8
100
AcDbSymbolTableRecord
100
AcDbLinetypeTableRecord
  2
DOT
 70
64
  3
. . . . . . . . . . . . . . . . . . . .
 72
65
 73
2
 40
0.2
 49
0.1
 74
0
 49
-0.1
 74
0
  0
LTYPE
  5
1F9
100
AcDbSymbolTableRecord
100
AcDbLinetypeTableRecord
  2
DASHED
 70
64
  3
- - - - - - - - - - - - - - - - - - - -
 72
65
 73
2
 40
0.2
 49
0.1
 74
0
 49
-0.1
 74
0
  0
ENDTAB
  0
TABLE
  2
LAYER
  5
2
100
AcDbSymbolTable
 70
36
  0
LAYER
  5
10
100
AcDbSymbolTableRecord
100
AcDbLayerTableRecord
  2
0
 70
0
 62
7
  6
CONTINUOUS
370
-3
390
F
  0
LAYER
  5
1FA
100
AcDbSymbolTableRecord
100
AcDbLayerTableRecord
  2
DEFAULT_1
 70
0
 62
7
  6
CENTER
370
-3
390
F
  0
LAYER
  5
1FB
100
AcDbSymbolTableRecord
100
AcDbLayerTableRecord
  2
DEFAULT_2
 70
0
 62
8
  6
HIDDEN
370
-3
390
F
  0
LAYER
  5
1FC
100
AcDbSymbolTableRecord
100
AcDbLayerTableRecord
  2
DEFAULT_3
 70
0
 62
7
  6
PHANTOM
370
-3
390
F
  0
LAYER
  5
1FD
100
AcDbSymbolTableRecord
100
AcDbLayerTableRecord
  2
01___PRT_ALL_DTM_PLN
 70
0
 62
7
  6
CONTINUOUS
370
-3
390
F
  0
LAYER
  5
1FE
100
AcDbSymbolTableRecord
100
AcDbLayerTableRecord
  2
01___PRT_DEF_DTM_PLN
 70
0
 62
7
  6
CONTINUOUS
370
-3
390
F
  0
LAYER
  5
1FF
100
AcDbSymbolTableRecord
100
AcDbLayerTableRecord
  2
02___PRT_ALL_AXES
 70
0
 62
7
  6
CONTINUOUS
370
-3
390
F
  0
LAYER
  5
200
100
AcDbSymbolTableRecord
100
AcDbLayerTableRecord
  2
03___PRT_ALL_CURVES
 70
0
 62
7
  6
CONTINUOUS
370
-3
390
F
  0
LAYER
  5
201
100
AcDbSymbolTableRecord
100
AcDbLayerTableRecord
  2
04___PRT_ALL_DTM_PNT
 70
0
 62
7
  6
CONTINUOUS
370
-3
390
F
  0
LAYER
  5
202
100
AcDbSymbolTableRecord
100
AcDbLayerTableRecord
  2
05___PRT_ALL_DTM_CSYS
 70
0
 62
7
  6
CONTINUOUS
370
-3
390
F
  0
LAYER
  5
203
100
AcDbSymbolTableRecord
100
AcDbLayerTableRecord
  2
05___PRT_DEF_DTM_CSYS
 70
0
 62
7
  6
CONTINUOUS
370
-3
390
F
  0
LAYER
  5
204
100
AcDbSymbolTableRecord
100
AcDbLayerTableRecord
  2
06___PRT_ALL_SURFS
 70
0
 62
7
  6
CONTINUOUS
370
-3
390
F
  0
LAYER
  5
205
100
AcDbSymbolTableRecord
100
AcDbLayerTableRecord
  2
DATUM_PLANES
 70
0
 62
7
  6
CONTINUOUS
370
-3
390
F
  0
LAYER
  5
206
100
AcDbSymbolTableRecord
100
AcDbLayerTableRecord
  2
PORT_AREAS
 70
0
 62
7
  6
CONTINUOUS
370
-3
390
F
  0
LAYER
  5
207
100
AcDbSymbolTableRecord
100
AcDbLayerTableRecord
  2
SUNNBOMCOSMETIC
 70
0
 62
7
  6
CONTINUOUS
370
-3
390
F
  0
LAYER
  5
208
100
AcDbSymbolTableRecord
100
AcDbLayerTableRecord
  2
SUNNBOMSTAMPING
 70
0
 62
7
  6
CONTINUOUS
370
-3
390
F
  0
LAYER
  5
209
100
AcDbSymbolTableRecord
100
AcDbLayerTableRecord
  2
THREADS
 70
0
 62
7
  6
CONTINUOUS
370
-3
390
F
  0
ENDTAB
  0
TABLE
  2
STYLE
  5
3
100
AcDbSymbolTable
 70
1
  0
STYLE
  5
11
100
AcDbSymbolTableRecord
100
AcDbTextStyleTableRecord
  2
STANDARD
 70
0
 40
0.0
 41
0.8
 50
0.0
 71
0
 42
0.2
  3
txt
  4

  0
STYLE
  5
20A
100
AcDbSymbolTableRecord
100
AcDbTextStyleTableRecord
  2
TEXTSTYLE_1
 70
0
 40
0.0
 41
0.8
 50
0.0
 71
0
 42
0.2
  3
gdt
  4

  0
ENDTAB
  0
TABLE
  2
VIEW
  5
6
100
AcDbSymbolTable
 70
0
  0
ENDTAB
  0
TABLE
  2
UCS
  5
7
100
AcDbSymbolTable
 70
0
  0
ENDTAB
  0
TABLE
  2
APPID
  5
9
100
AcDbSymbolTable
 70
1
  0
APPID
  5
20B
100
AcDbSymbolTableRecord
100
AcDbRegAppTableRecord
  2
ACAD
 70
0
  0
ENDTAB
  0
TABLE
  2
BLOCK_RECORD
  5
1
100
AcDbSymbolTable
 70
0
  0
BLOCK_RECORD
  5
20C
100
AcDbSymbolTableRecord
100
AcDbBlockTableRecord
  2
*Model_Space
  0
BLOCK_RECORD
  5
20D
100
AcDbSymbolTableRecord
100
AcDbBlockTableRecord
  2
*Paper_Space
  0
BLOCK_RECORD
  5
20E
100
AcDbSymbolTableRecord
100
AcDbBlockTableRecord
  2
SUN_FIRST_THIRD_ANGLE_BL0
  0
BLOCK_RECORD
  5
20F
100
AcDbSymbolTableRecord
100
AcDbBlockTableRecord
  2
*T1
  0
BLOCK_RECORD
  5
210
100
AcDbSymbolTableRecord
100
AcDbBlockTableRecord
  2
*T2
  0
BLOCK_RECORD
  5
211
100
AcDbSymbolTableRecord
100
AcDbBlockTableRecord
  2
*T3
  0
ENDTAB
  0
TABLE
  2
DIMSTYLE
  5
A
100
AcDbSymbolTable
 70
1
100
AcDbDimStyleTable
 71
0
  0
DIMSTYLE
105
212
100
AcDbSymbolTableRecord
100
AcDbDimStyleTableRecord
  2
STANDARD
 70
0
  3

  4

 40
1.0
 41
0.1875
 42
0.0625
 43
0.38
 44
0.125
 45
0.0
 46
0.0
 47
0.001
 48
0.001
140
0.1
141
0.09
142
0.0
143
25.4
144
1.0
145
0.0
146
1.0
147
0.09
 71
0.0
 72
0.0
 73
1
 74
1
 75
0
 76
0
 77
0
 78
4
170
0
171
2
172
0
173
0
174
0
175
0
176
0
177
0
178
0
270
2
271
3
272
3
273
2
274
2
275
0
280
0
281
0
282
0
283
1
284
4
285
0
286
0
287
3
288
0
340
11
278
46
  0
ENDTAB
  0
ENDSEC
  0
SECTION
  2
BLOCKS
  0
BLOCK
  5
20
100
AcDbEntity
  8
0
100
AcDbBlockBegin
  2
*Model_Space
 70
0
 10
0.0
 20
0.0
 30
0.0
  3
*Model_Space
  1

  0
ENDBLK
  5
21
100
AcDbEntity
  8
0
100
AcDbBlockEnd
  0
BLOCK
  5
1C
100
AcDbEntity
  8
0
100
AcDbBlockBegin
  2
*Paper_Space
 70
0
 10
0.0
 20
0.0
 30
0.0
  3
*Paper_Space
  1

  0
ENDBLK
  5
1D
100
AcDbEntity
  8
0
100
AcDbBlockEnd
  0
BLOCK
  5
213
100
AcDbEntity
  8
0
100
AcDbBlockBegin
 62
2
  6
CONTINUOUS
  2
SUN_FIRST_THIRD_ANGLE_BL0
 70
64
 10
20.4816717061
 20
1.2289683772
  3
SUN_FIRST_THIRD_ANGLE_BL0
  1

  0
TEXT
  5
214
100
AcDbEntity
  8
0
100
AcDbText
 62
2
  6
CONTINUOUS
 10
19.4750896608
 20
1.4136269581
  7
STANDARD
 40
0.08
  1
FIRST ANGLE
 41
0.8
 72
0
100
AcDbText
  0
TEXT
  5
215
100
AcDbEntity
  8
0
100
AcDbText
 62
2
  6
CONTINUOUS
 10
20.7842537513
 20
1.4047600029
  7
STANDARD
 40
0.08
  1
THIRD ANGLE
 41
0.8
 72
0
100
AcDbText
  0
LINE
  5
216
100
AcDbEntity
  8
0
100
AcDbLine
 62
7
  6
CONTINUOUS
 10
19.4767170086
 20
1.1727031207
 11
19.6334271527
 21
1.1717972817
  0
LINE
  5
217
100
AcDbEntity
  8
0
100
AcDbLine
 62
7
  6
CONTINUOUS
 10
19.6596964832
 20
1.1717972817
 11
19.6950230232
 21
1.171593082
  0
LINE
  5
218
100
AcDbEntity
  8
0
100
AcDbLine
 62
7
  6
CONTINUOUS
 10
19.7194818561
 20
1.1708914427
 11
19.8852396156
 21
1.1699333054
  0
LINE
  5
219
100
AcDbEntity
  8
0
100
AcDbLine
 62
7
  6
CONTINUOUS
 10
19.4758111696
 20
1.2723454088
 11
19.88525039
 21
1.3511534004
  0
LINE
  5
21A
100
AcDbEntity
  8
0
100
AcDbLine
 62
7
  6
CONTINUOUS
 10
19.88525039
 20
1.3511534004
 11
19.8831348489
 21
0.9851647912
  0
LINE
  5
21B
100
AcDbEntity
  8
0
100
AcDbLine
 62
7
  6
CONTINUOUS
 10
19.8831348489
 20
0.9851647912
 11
19.4767170086
 21
1.0658141206
  0
LINE
  5
21C
100
AcDbEntity
  8
0
100
AcDbLine
 62
7
  6
CONTINUOUS
 10
19.4767170086
 20
1.0658141206
 11
19.4779056764
 21
1.2714536432
  0
CIRCLE
  5
21D
100
AcDbEntity
  8
0
100
AcDbCircle
 62
7
  6
CONTINUOUS
 10
20.2068232291
 20
1.1717972817
 40
0.175742101
  0
CIRCLE
  5
21E
100
AcDbEntity
  8
0
100
AcDbCircle
 62
7
  6
CONTINUOUS
 10
20.2068232291
 20
1.1717972817
 40
0.1005522074
  0
LINE
  5
21F
100
AcDbEntity
  8
0
100
AcDbLine
 62
7
  6
CONTINUOUS
 10
20.2077290681
 20
1.3756110529
 11
20.2071171714
 21
1.2379342989
  0
LINE
  5
220
100
AcDbEntity
  8
0
100
AcDbLine
 62
7
  6
CONTINUOUS
 10
20.2077290681
 20
1.2016899681
 11
20.2074674401
 21
1.1428236749
  0
LINE
  5
221
100
AcDbEntity
  8
0
100
AcDbLine
 62
7
  6
CONTINUOUS
 10
20.208634907
 20
1.101141841
 11
20.2080230104
 21
0.963465087
  0
LINE
  5
222
100
AcDbEntity
  8
0
100
AcDbLine
 62
7
  6
CONTINUOUS
 10
20.0066328138
 20
1.1745147986
 11
20.1443095678
 21
1.1739029019
  0
LINE
  5
223
100
AcDbEntity
  8
0
100
AcDbLine
 62
7
  6
CONTINUOUS
 10
20.1832714155
 20
1.1727031207
 11
20.238153505
 21
1.172335442
  0
LINE
  5
224
100
AcDbEntity
  8
0
100
AcDbLine
 62
7
  6
CONTINUOUS
 10
20.2756669918
 20
1.1717972817
 11
20.407916871
 21
1.1712095044
  0
CIRCLE
  5
225
100
AcDbEntity
  8
0
100
AcDbCircle
 62
7
  6
CONTINUOUS
 10
20.7509457401
 20
1.1693297793
 40
0.1722024983
  0
CIRCLE
  5
226
100
AcDbEntity
  8
0
100
AcDbCircle
 62
7
  6
CONTINUOUS
 10
20.7509457401
 20
1.1693297793
 40
0.0985164967
  0
LINE
  5
227
100
AcDbEntity
  8
0
100
AcDbLine
 62
7
  6
CONTINUOUS
 10
20.7169767782
 20
1.170462078
 11
20.7825395137
 21
1.1682766535
  0
LINE
  5
228
100
AcDbEntity
  8
0
100
AcDbLine
 62
7
  6
CONTINUOUS
 10
20.8177513651
 20
1.1693297793
 11
20.947965719
 21
1.1693297793
  0
LINE
  5
229
100
AcDbEntity
  8
0
100
AcDbLine
 62
7
  6
CONTINUOUS
 10
20.6875370113
 20
1.170462078
 11
20.5573226574
 21
1.170462078
  0
LINE
  5
22A
100
AcDbEntity
  8
0
100
AcDbLine
 62
7
  6
CONTINUOUS
 10
20.7486811426
 20
1.1987695462
 11
20.7486811426
 21
1.1432869085
  0
LINE
  5
22B
100
AcDbEntity
  8
0
100
AcDbLine
 62
7
  6
CONTINUOUS
 10
20.7498134414
 20
1.1059210505
 11
20.7498134414
 21
0.9757066966
  0
LINE
  5
22C
100
AcDbEntity
  8
0
100
AcDbLine
 62
7
  6
CONTINUOUS
 10
20.7486811426
 20
1.2338708068
 11
20.7486811426
 21
1.3640851607
  0
LINE
  5
22D
100
AcDbEntity
  8
0
100
AcDbLine
 62
7
  6
CONTINUOUS
 10
21.0702539817
 20
1.2701043662
 11
21.4790138229
 21
1.3448360823
  0
LINE
  5
22E
100
AcDbEntity
  8
0
100
AcDbLine
 62
7
  6
CONTINUOUS
 10
21.4790138229
 20
1.3448360823
 11
21.4790138229
 21
0.9779712941
  0
LINE
  5
22F
100
AcDbEntity
  8
0
100
AcDbLine
 62
7
  6
CONTINUOUS
 10
21.4790138229
 20
0.9779712941
 11
21.069121683
 21
1.0617614
  0
LINE
  5
230
100
AcDbEntity
  8
0
100
AcDbLine
 62
7
  6
CONTINUOUS
 10
21.0702539817
 20
1.2701043662
 11
21.069121683
 21
1.0617614
  0
LINE
  5
231
100
AcDbEntity
  8
0
100
AcDbLine
 62
7
  6
CONTINUOUS
 10
21.4790138229
 20
1.1693297793
 11
21.3159628059
 21
1.1693297793
  0
LINE
  5
232
100
AcDbEntity
  8
0
100
AcDbLine
 62
7
  6
CONTINUOUS
 10
21.2876553377
 20
1.1693297793
 11
21.2502894796
 21
1.1693297793
  0
LINE
  5
233
100
AcDbEntity
  8
0
100
AcDbLine
 62
7
  6
CONTINUOUS
 10
21.2208497126
 20
1.1659328831
 11
21.0713862804
 21
1.1659328831
  0
LINE
  5
234
100
AcDbEntity
  8
0
100
AcDbLine
 62
7
  6
CONTINUOUS
 10
20.4796138713
 20
1.5284908897
 11
20.4766766948
 21
0.9294458646
  0
ENDBLK
  5
235
100
AcDbEntity
  8
0
  6
BYBLOCK
 62
0
100
AcDbBlockEnd
  0
BLOCK
  5
236
100
AcDbEntity
  8
0
100
AcDbBlockBegin
  2
*T1
 70
1
 10
0.0
 20
0.0
  3
*T1
  1

  0
LINE
  5
237
100
AcDbEntity
  8
0
100
AcDbLine
 62
2
  6
CONTINUOUS
 10
9.275
 20
0.0
 11
-0.0
 21
0.0
  0
LINE
  5
238
100
AcDbEntity
  8
0
100
AcDbLine
 62
2
  6
CONTINUOUS
 10
9.275
 20
0.0
 11
9.275
 21
1.25
  0
LINE
  5
239
100
AcDbEntity
  8
0
100
AcDbLine
 62
2
  6
CONTINUOUS
 10
9.275
 20
0.625
 11
-0.0
 21
0.625
  0
LINE
  5
23A
100
AcDbEntity
  8
0
100
AcDbLine
 62
2
  6
CONTINUOUS
 10
9.275
 20
1.25
 11
-0.0
 21
1.25
  0
LINE
  5
23B
100
AcDbEntity
  8
0
100
AcDbLine
 62
2
  6
CONTINUOUS
 10
6.8
 20
0.0
 11
6.8
 21
1.25
  0
LINE
  5
23C
100
AcDbEntity
  8
0
100
AcDbLine
 62
2
  6
CONTINUOUS
 10
6.4
 20
0.0
 11
6.4
 21
0.625
  0
LINE
  5
23D
100
AcDbEntity
  8
0
100
AcDbLine
 62
2
  6
CONTINUOUS
 10
5.9
 20
0.0
 11
5.9
 21
0.625
  0
LINE
  5
23E
100
AcDbEntity
  8
0
100
AcDbLine
 62
2
  6
CONTINUOUS
 10
5.2
 20
0.0
 11
5.2
 21
0.625
  0
LINE
  5
23F
100
AcDbEntity
  8
0
100
AcDbLine
 62
2
  6
CONTINUOUS
 10
4.1
 20
0.0
 11
4.1
 21
1.25
  0
LINE
  5
240
100
AcDbEntity
  8
0
100
AcDbLine
 62
2
  6
CONTINUOUS
 10
-0.0
 20
0.0
 11
-0.0
 21
1.25
  0
MTEXT
  5
241
100
AcDbEntity
  8
0
100
AcDbMText
 62
2
  6
CONTINUOUS
  7
STANDARD
 71
2
 72
1
 10
6.6
 20
0.325
 30
0.0
 11
1.0
 21
0.0
 31
0.0
 44
0.9
  1
2
 40
0.125
 41
0.2
  0
MTEXT
  5
242
100
AcDbEntity
  8
0
100
AcDbMText
 62
2
  6
CONTINUOUS
  7
STANDARD
 71
2
 72
1
 10
6.15
 20
0.325
 30
0.0
 11
1.0
 21
0.0
 31
0.0
 44
0.9
  1
C
 40
0.125
 41
0.2
  0
MTEXT
  5
243
100
AcDbEntity
  8
0
100
AcDbMText
 62
2
  6
CONTINUOUS
  7
STANDARD
 71
2
 72
1
 10
5.55
 20
0.325
 30
0.0
 11
1.0
 21
0.0
 31
0.0
 44
0.9
  1
1.000
 40
0.125
 41
1.0
  0
MTEXT
  5
244
100
AcDbEntity
  8
0
100
AcDbMText
 62
2
  6
CONTINUOUS
  7
STANDARD
 71
2
 72
1
 10
4.65
 20
0.325
 30
0.0
 11
1.0
 21
0.0
 31
0.0
 44
0.9
  1
Jan-08-24
 40
0.125
 41
1.8
  0
MTEXT
  5
245
100
AcDbEntity
  8
0
100
AcDbMText
 62
2
  6
CONTINUOUS
  7
STANDARD
 71
2
 72
1
 10
2.05
 20
0.4625
 30
0.0
 11
1.0
 21
0.0
 31
0.0
 44
0.9
  1
T-2A Line mount\P(See Technical Data for Body Features)
 40
0.125
 41
7.6
  0
MTEXT
  5
246
100
AcDbEntity
  8
0
100
AcDbMText
 62
2
  6
CONTINUOUS
  7
STANDARD
 71
1
 72
1
 10
6.45
 20
0.5625
 30
0.0
 11
1.0
 21
0.0
 31
0.0
 44
0.9
  1
SHEET
 40
0.06
 41
0.48
  0
MTEXT
  5
247
100
AcDbEntity
  8
0
100
AcDbMText
 62
2
  6
CONTINUOUS
  7
STANDARD
 71
1
 72
1
 10
5.95
 20
0.5625
 30
0.0
 11
1.0
 21
0.0
 31
0.0
 44
0.9
  1
DWG SIZE
 40
0.06
 41
0.768
  0
MTEXT
  5
248
100
AcDbEntity
  8
0
100
AcDbMText
 62
2
  6
CONTINUOUS
  7
STANDARD
 71
1
 72
1
 10
5.25
 20
0.5625
 30
0.0
 11
1.0
 21
0.0
 31
0.0
 44
0.9
  1
SCALE
 40
0.06
 41
0.48
  0
MTEXT
  5
249
100
AcDbEntity
  8
0
100
AcDbMText
 62
2
  6
CONTINUOUS
  7
STANDARD
 71
1
 72
1
 10
4.15
 20
0.5625
 30
0.0
 11
1.0
 21
0.0
 31
0.0
 44
0.9
  1
DATE
 40
0.06
 41
0.384
  0
MTEXT
  5
24A
100
AcDbEntity
  8
0
100
AcDbMText
 62
2
  6
CONTINUOUS
  7
STANDARD
 71
1
 72
1
 10
0.05
 20
0.5625
 30
0.0
 11
1.0
 21
0.0
 31
0.0
 44
0.9
  1
DESCRIPTION
 40
0.06
 41
1.056
  0
MTEXT
  5
24B
100
AcDbEntity
  8
0
100
AcDbMText
 62
2
  6
CONTINUOUS
  7
STANDARD
 71
2
 72
1
 10
5.45
 20
1.0375
 30
0.0
 11
1.0
 21
0.0
 31
0.0
 44
0.9
  1
ALL DIMENSIONS IN INCH\PVIEWS ARE THIRD ANGLE
 40
0.12
 41
4.224
  0
MTEXT
  5
24C
100
AcDbEntity
  8
0
100
AcDbMText
 62
2
  6
CONTINUOUS
  7
STANDARD
 71
2
 72
1
 10
2.05
 20
0.95
 30
0.0
 11
1.0
 21
0.0
 31
0.0
 44
0.9
  1
B6J
 40
0.125
 41
0.6
  0
MTEXT
  5
24D
100
AcDbEntity
  8
0
100
AcDbMText
 62
2
  6
CONTINUOUS
  7
STANDARD
 71
1
 72
1
 10
0.05
 20
1.1875
 30
0.0
 11
1.0
 21
0.0
 31
0.0
 44
0.9
  1
MODEL
 40
0.06
 41
0.48
  0
ENDBLK
  5
24E
100
AcDbEntity
  8
0
  6
BYBLOCK
 62
0
100
AcDbBlockEnd
  0
BLOCK
  5
24F
100
AcDbEntity
  8
0
100
AcDbBlockBegin
  2
*T2
 70
1
 10
0.0
 20
0.0
  3
*T2
  1

  0
LINE
  5
250
100
AcDbEntity
  8
0
100
AcDbLine
 62
2
  6
CONTINUOUS
 10
0.0
 20
0.0
 11
9.055
 21
0.0
  0
LINE
  5
251
100
AcDbEntity
  8
0
100
AcDbLine
 62
2
  6
CONTINUOUS
 10
0.0
 20
0.0
 11
0.0
 21
-2.844
  0
LINE
  5
252
100
AcDbEntity
  8
0
100
AcDbLine
 62
2
  6
CONTINUOUS
 10
0.0
 20
-0.344
 11
9.055
 21
-0.344
  0
LINE
  5
253
100
AcDbEntity
  8
0
100
AcDbLine
 62
2
  6
CONTINUOUS
 10
0.0
 20
-0.594
 11
9.055
 21
-0.594
  0
LINE
  5
254
100
AcDbEntity
  8
0
100
AcDbLine
 62
2
  6
CONTINUOUS
 10
0.0
 20
-0.844
 11
9.055
 21
-0.844
  0
LINE
  5
255
100
AcDbEntity
  8
0
100
AcDbLine
 62
2
  6
CONTINUOUS
 10
0.0
 20
-1.094
 11
9.055
 21
-1.094
  0
LINE
  5
256
100
AcDbEntity
  8
0
100
AcDbLine
 62
2
  6
CONTINUOUS
 10
0.0
 20
-1.344
 11
9.055
 21
-1.344
  0
LINE
  5
257
100
AcDbEntity
  8
0
100
AcDbLine
 62
2
  6
CONTINUOUS
 10
0.0
 20
-1.594
 11
9.055
 21
-1.594
  0
LINE
  5
258
100
AcDbEntity
  8
0
100
AcDbLine
 62
2
  6
CONTINUOUS
 10
0.0
 20
-1.844
 11
9.055
 21
-1.844
  0
LINE
  5
259
100
AcDbEntity
  8
0
100
AcDbLine
 62
2
  6
CONTINUOUS
 10
0.0
 20
-2.094
 11
9.055
 21
-2.094
  0
LINE
  5
25A
100
AcDbEntity
  8
0
100
AcDbLine
 62
2
  6
CONTINUOUS
 10
0.0
 20
-2.344
 11
9.055
 21
-2.344
  0
LINE
  5
25B
100
AcDbEntity
  8
0
100
AcDbLine
 62
2
  6
CONTINUOUS
 10
0.0
 20
-2.594
 11
9.055
 21
-2.594
  0
LINE
  5
25C
100
AcDbEntity
  8
0
100
AcDbLine
 62
2
  6
CONTINUOUS
 10
0.0
 20
-2.844
 11
9.055
 21
-2.844
  0
LINE
  5
25D
100
AcDbEntity
  8
0
100
AcDbLine
 62
2
  6
CONTINUOUS
 10
3.055
 20
0.0
 11
3.055
 21
-2.844
  0
LINE
  5
25E
100
AcDbEntity
  8
0
100
AcDbLine
 62
2
  6
CONTINUOUS
 10
9.055
 20
0.0
 11
9.055
 21
-2.844
  0
MTEXT
  5
25F
100
AcDbEntity
  8
0
100
AcDbMText
 62
2
  6
CONTINUOUS
  7
STANDARD
 71
2
 72
1
 10
1.5275
 20
-0.0995
 30
0.0
 11
1.0
 21
0.0
 31
0.0
 44
0.9
  1
Technical Data
 40
0.145
 41
3.248
  0
MTEXT
  5
260
100
AcDbEntity
  8
0
100
AcDbMText
 62
2
  6
CONTINUOUS
  7
STANDARD
 71
2
 72
1
 10
4.555
 20
-0.0995
 30
0.0
 11
1.0
 21
0.0
 31
0.0
 44
0.9
  1
U.S. Units
 40
0.145
 41
2.32
  0
MTEXT
  5
261
100
AcDbEntity
  8
0
100
AcDbMText
 62
2
  6
CONTINUOUS
  7
STANDARD
 71
2
 72
1
 10
7.555
 20
-0.0995
 30
0.0
 11
1.0
 21
0.0
 31
0.0
 44
0.9
  1
Metric Units
 40
0.145
 41
2.784
  0
MTEXT
  5
262
100
AcDbEntity
  8
0
100
AcDbMText
 62
2
  6
CONTINUOUS
  7
STANDARD
 71
2
 72
1
 10
1.5275
 20
-0.4065
 30
0.0
 11
1.0
 21
0.0
 31
0.0
 44
0.9
  1
Cavity
 40
0.125
 41
1.2
  0
MTEXT
  5
263
100
AcDbEntity
  8
0
100
AcDbMText
 62
2
  6
CONTINUOUS
  7
STANDARD
 71
2
 72
1
 10
6.055
 20
-0.4065
 30
0.0
 11
1.0
 21
0.0
 31
0.0
 44
0.9
  1
T-2A
 40
0.125
 41
0.8
  0
MTEXT
  5
264
100
AcDbEntity
  8
0
100
AcDbMText
 62
2
  6
CONTINUOUS
  7
STANDARD
 71
2
 72
1
 10
1.5275
 20
-0.6565
 30
0.0
 11
1.0
 21
0.0
 31
0.0
 44
0.9
  1
Body Features
 40
0.125
 41
2.6
  0
MTEXT
  5
265
100
AcDbEntity
  8
0
100
AcDbMText
 62
2
  6
CONTINUOUS
  7
STANDARD
 71
2
 72
1
 10
6.055
 20
-0.6565
 30
0.0
 11
1.0
 21
0.0
 31
0.0
 44
0.9
  1
Ninety degree with reverse flow check - sequence
 40
0.125
 41
9.6
  0
MTEXT
  5
266
100
AcDbEntity
  8
0
100
AcDbMText
 62
2
  6
CONTINUOUS
  7
STANDARD
 71
2
 72
1
 10
1.5275
 20
-0.9065
 30
0.0
 11
1.0
 21
0.0
 31
0.0
 44
0.9
  1
Body Type
 40
0.125
 41
1.8
  0
MTEXT
  5
267
100
AcDbEntity
  8
0
100
AcDbMText
 62
2
  6
CONTINUOUS
  7
STANDARD
 71
2
 72
1
 10
6.055
 20
-0.9065
 30
0.0
 11
1.0
 21
0.0
 31
0.0
 44
0.9
  1
Line mount
 40
0.125
 41
2.0
  0
MTEXT
  5
268
100
AcDbEntity
  8
0
100
AcDbMText
 62
2
  6
CONTINUOUS
  7
STANDARD
 71
2
 72
1
 10
1.5275
 20
-1.1565
 30
0.0
 11
1.0
 21
0.0
 31
0.0
 44
0.9
  1
Interface
 40
0.125
 41
1.8
  0
MTEXT
  5
269
100
AcDbEntity
  8
0
100
AcDbMText
 62
2
  6
CONTINUOUS
  7
STANDARD
 71
2
 72
1
 10
6.055
 20
-1.1565
 30
0.0
 11
1.0
 21
0.0
 31
0.0
 44
0.9
  1
None
 40
0.125
 41
0.8
  0
MTEXT
  5
26A
100
AcDbEntity
  8
0
100
AcDbMText
 62
2
  6
CONTINUOUS
  7
STANDARD
 71
2
 72
1
 10
1.5275
 20
-1.4065
 30
0.0
 11
1.0
 21
0.0
 31
0.0
 44
0.9
  1
Open Cavity Quantity
 40
0.125
 41
4.0
  0
MTEXT
  5
26B
100
AcDbEntity
  8
0
100
AcDbMText
 62
2
  6
CONTINUOUS
  7
STANDARD
 71
2
 72
1
 10
6.055
 20
-1.4065
 30
0.0
 11
1.0
 21
0.0
 31
0.0
 44
0.9
  1
1
 40
0.125
 41
0.2
  0
MTEXT
  5
26C
100
AcDbEntity
  8
0
100
AcDbMText
 62
2
  6
CONTINUOUS
  7
STANDARD
 71
2
 72
1
 10
1.5275
 20
-1.6565
 30
0.0
 11
1.0
 21
0.0
 31
0.0
 44
0.9
  1
Weight
 40
0.125
 41
1.2
  0
MTEXT
  5
26D
100
AcDbEntity
  8
0
100
AcDbMText
 62
2
  6
CONTINUOUS
  7
STANDARD
 71
2
 72
1
 10
4.555
 20
-1.6565
 30
0.0
 11
1.0
 21
0.0
 31
0.0
 44
0.9
  1
1.678 lb.
 40
0.125
 41
1.8
  0
MTEXT
  5
26E
100
AcDbEntity
  8
0
100
AcDbMText
 62
2
  6
CONTINUOUS
  7
STANDARD
 71
2
 72
1
 10
7.555
 20
-1.6565
 30
0.0
 11
1.0
 21
0.0
 31
0.0
 44
0.9
  1
0,761 kg.
 40
0.125
 41
1.8
  0
MTEXT
  5
26F
100
AcDbEntity
  8
0
100
AcDbMText
 62
2
  6
CONTINUOUS
  7
STANDARD
 71
2
 72
1
 10
1.5275
 20
-1.9065
 30
0.0
 11
1.0
 21
0.0
 31
0.0
 44
0.9
  1
Mounting Hole Diameter
 40
0.125
 41
4.4
  0
MTEXT
  5
270
100
AcDbEntity
  8
0
100
AcDbMText
 62
2
  6
CONTINUOUS
  7
STANDARD
 71
2
 72
1
 10
4.555
 20
-1.9065
 30
0.0
 11
1.0
 21
0.0
 31
0.0
 44
0.9
  1
.28 in.
 40
0.125
 41
1.4
  0
MTEXT
  5
271
100
AcDbEntity
  8
0
100
AcDbMText
 62
2
  6
CONTINUOUS
  7
STANDARD
 71
2
 72
1
 10
7.555
 20
-1.9065
 30
0.0
 11
1.0
 21
0.0
 31
0.0
 44
0.9
  1
7,1 mm
 40
0.125
 41
1.2
  0
MTEXT
  5
272
100
AcDbEntity
  8
0
100
AcDbMText
 62
2
  6
CONTINUOUS
  7
STANDARD
 71
2
 72
1
 10
1.5275
 20
-2.1565
 30
0.0
 11
1.0
 21
0.0
 31
0.0
 44
0.9
  1
Mounting Hole Depth
 40
0.125
 41
3.8
  0
MTEXT
  5
273
100
AcDbEntity
  8
0
100
AcDbMText
 62
2
  6
CONTINUOUS
  7
STANDARD
 71
2
 72
1
 10
6.055
 20
-2.1565
 30
0.0
 11
1.0
 21
0.0
 31
0.0
 44
0.9
  1
Through
 40
0.125
 41
1.4
  0
MTEXT
  5
274
100
AcDbEntity
  8
0
100
AcDbMText
 62
2
  6
CONTINUOUS
  7
STANDARD
 71
2
 72
1
 10
1.5275
 20
-2.4065
 30
0.0
 11
1.0
 21
0.0
 31
0.0
 44
0.9
  1
Mounting Hole Quantity
 40
0.125
 41
4.4
  0
MTEXT
  5
275
100
AcDbEntity
  8
0
100
AcDbMText
 62
2
  6
CONTINUOUS
  7
STANDARD
 71
2
 72
1
 10
6.055
 20
-2.4065
 30
0.0
 11
1.0
 21
0.0
 31
0.0
 44
0.9
  1
2
 40
0.125
 41
0.2
  0
MTEXT
  5
276
100
AcDbEntity
  8
0
100
AcDbMText
 62
2
  6
CONTINUOUS
  7
STANDARD
 71
2
 72
1
 10
1.5275
 20
-2.6565
 30
0.0
 11
1.0
 21
0.0
 31
0.0
 44
0.9
  1
Includes integral cartridge(s)
 40
0.125
 41
6.0
  0
MTEXT
  5
277
100
AcDbEntity
  8
0
100
AcDbMText
 62
2
  6
CONTINUOUS
  7
STANDARD
 71
2
 72
1
 10
6.055
 20
-2.6565
 30
0.0
 11
1.0
 21
0.0
 31
0.0
 44
0.9
  1
Yes (see Included Components)
 40
0.125
 41
5.8
  0
ENDBLK
  5
278
100
AcDbEntity
  8
0
  6
BYBLOCK
 62
0
100
AcDbBlockEnd
  0
BLOCK
  5
279
100
AcDbEntity
  8
0
100
AcDbBlockBegin
  2
*T3
 70
1
 10
0.0
 20
0.0
  3
*T3
  1

  0
LINE
  5
27A
100
AcDbEntity
  8
0
100
AcDbLine
 62
2
  6
CONTINUOUS
 10
0.0
 20
0.0
 11
4.6
 21
0.0
  0
LINE
  5
27B
100
AcDbEntity
  8
0
100
AcDbLine
 62
2
  6
CONTINUOUS
 10
0.0
 20
0.0
 11
0.0
 21
-1.43775
  0
LINE
  5
27C
100
AcDbEntity
  8
0
100
AcDbLine
 62
2
  6
CONTINUOUS
 10
0.0
 20
-0.34375
 11
4.6
 21
-0.34375
  0
LINE
  5
27D
100
AcDbEntity
  8
0
100
AcDbLine
 62
2
  6
CONTINUOUS
 10
0.0
 20
-0.68775
 11
4.6
 21
-0.68775
  0
LINE
  5
27E
100
AcDbEntity
  8
0
100
AcDbLine
 62
2
  6
CONTINUOUS
 10
0.0
 20
-0.93775
 11
4.6
 21
-0.93775
  0
LINE
  5
27F
100
AcDbEntity
  8
0
100
AcDbLine
 62
2
  6
CONTINUOUS
 10
0.0
 20
-1.18775
 11
4.6
 21
-1.18775
  0
LINE
  5
280
100
AcDbEntity
  8
0
100
AcDbLine
 62
2
  6
CONTINUOUS
 10
0.0
 20
-1.43775
 11
4.6
 21
-1.43775
  0
LINE
  5
281
100
AcDbEntity
  8
0
100
AcDbLine
 62
2
  6
CONTINUOUS
 10
1.3
 20
-0.34375
 11
1.3
 21
-1.43775
  0
LINE
  5
282
100
AcDbEntity
  8
0
100
AcDbLine
 62
2
  6
CONTINUOUS
 10
3.3
 20
-0.34375
 11
3.3
 21
-1.43775
  0
LINE
  5
283
100
AcDbEntity
  8
0
100
AcDbLine
 62
2
  6
CONTINUOUS
 10
4.6
 20
0.0
 11
4.6
 21
-1.43775
  0
MTEXT
  5
284
100
AcDbEntity
  8
0
100
AcDbMText
 62
2
  6
CONTINUOUS
  7
STANDARD
 71
2
 72
1
 10
2.3
 20
-0.099375
 30
0.0
 11
1.0
 21
0.0
 31
0.0
 44
0.9
  1
Port Headings
 40
0.145
 41
3.016
  0
MTEXT
  5
285
100
AcDbEntity
  8
0
100
AcDbMText
 62
2
  6
CONTINUOUS
  7
STANDARD
 71
2
 72
1
 10
0.65
 20
-0.44325
 30
0.0
 11
1.0
 21
0.0
 31
0.0
 44
0.9
  1
Product
 40
0.145
 41
1.624
  0
MTEXT
  5
286
100
AcDbEntity
  8
0
100
AcDbMText
 62
2
  6
CONTINUOUS
  7
STANDARD
 71
2
 72
1
 10
2.3
 20
-0.44325
 30
0.0
 11
1.0
 21
0.0
 31
0.0
 44
0.9
  1
Port
 40
0.145
 41
0.928
  0
MTEXT
  5
287
100
AcDbEntity
  8
0
100
AcDbMText
 62
2
  6
CONTINUOUS
  7
STANDARD
 71
2
 72
1
 10
3.95
 20
-0.44325
 30
0.0
 11
1.0
 21
0.0
 31
0.0
 44
0.9
  1
Size
 40
0.145
 41
0.928
  0
MTEXT
  5
288
100
AcDbEntity
  8
0
100
AcDbMText
 62
2
  6
CONTINUOUS
  7
STANDARD
 71
2
 72
1
 10
0.65
 20
-0.75025
 30
0.0
 11
1.0
 21
0.0
 31
0.0
 44
0.9
  1
B6J
 40
0.125
 41
0.6
  0
MTEXT
  5
289
100
AcDbEntity
  8
0
100
AcDbMText
 62
2
  6
CONTINUOUS
  7
STANDARD
 71
2
 72
1
 10
2.3
 20
-0.75025
 30
0.0
 11
1.0
 21
0.0
 31
0.0
 44
0.9
  1
Ports 1 &  2
 40
0.125
 41
2.4
  0
MTEXT
  5
28A
100
AcDbEntity
  8
0
100
AcDbMText
 62
2
  6
CONTINUOUS
  7
STANDARD
 71
2
 72
1
 10
3.95
 20
-0.75025
 30
0.0
 11
1.0
 21
0.0
 31
0.0
 44
0.9
  1
SAE 8
 40
0.125
 41
1.0
  0
MTEXT
  5
28B
100
AcDbEntity
  8
0
100
AcDbMText
 62
2
  6
CONTINUOUS
  7
STANDARD
 71
2
 72
1
 10
0.65
 20
-1.00025
 30
0.0
 11
1.0
 21
0.0
 31
0.0
 44
0.9
  1
B6J
 40
0.125
 41
0.6
  0
MTEXT
  5
28C
100
AcDbEntity
  8
0
100
AcDbMText
 62
2
  6
CONTINUOUS
  7
STANDARD
 71
2
 72
1
 10
2.3
 20
-1.00025
 30
0.0
 11
1.0
 21
0.0
 31
0.0
 44
0.9
  1
Port 3
 40
0.125
 41
1.2
  0
MTEXT
  5
28D
100
AcDbEntity
  8
0
100
AcDbMText
 62
2
  6
CONTINUOUS
  7
STANDARD
 71
2
 72
1
 10
3.95
 20
-1.00025
 30
0.0
 11
1.0
 21
0.0
 31
0.0
 44
0.9
  1
SAE 6
 40
0.125
 41
1.0
  0
MTEXT
  5
28E
100
AcDbEntity
  8
0
100
AcDbMText
 62
2
  6
CONTINUOUS
  7
STANDARD
 71
2
 72
1
 10
0.65
 20
-1.25025
 30
0.0
 11
1.0
 21
0.0
 31
0.0
 44
0.9
  1
B6J
 40
0.125
 41
0.6
  0
MTEXT
  5
28F
100
AcDbEntity
  8
0
100
AcDbMText
 62
2
  6
CONTINUOUS
  7
STANDARD
 71
2
 72
1
 10
2.3
 20
-1.25025
 30
0.0
 11
1.0
 21
0.0
 31
0.0
 44
0.9
  1
Gage Port
 40
0.125
 41
1.8
  0
MTEXT
  5
290
100
AcDbEntity
  8
0
100
AcDbMText
 62
2
  6
CONTINUOUS
  7
STANDARD
 71
2
 72
1
 10
3.95
 20
-1.25025
 30
0.0
 11
1.0
 21
0.0
 31
0.0
 44
0.9
  1
1/4" NPTF
 40
0.125
 41
1.8
  0
ENDBLK
  5
291
100
AcDbEntity
  8
0
  6
BYBLOCK
 62
0
100
AcDbBlockEnd
  0
ENDSEC
  0
SECTION
  2
ENTITIES
  0
IMAGE
  5
292
100
AcDbEntity
  8
0
100
AcDbRasterImage
 62
7
  6
CONTINUOUS
 10
19.2297077316
 20
0.3094318264
 30
0.0
 11
0.0066666667
 21
0.0
 31
0.0
 12
0.0
 22
0.0066666667
 32
0.0
 13
369.0
 23
92.0
340
       391
 70
9
280
0
281
50
282
50
283
0
360
       38B
 71
1
 91
2
 14
-0.5
 24
-0.5
 14
368.5
 24
91.5
  0
INSERT
  5
293
100
AcDbEntity
  8
0
100
AcDbBlockReference
 62
2
  6
CONTINUOUS
  2
SUN_FIRST_THIRD_ANGLE_BL0
 10
20.4816717061
 20
1.2289683772
  0
ACAD_TABLE
  5
294
100
AcDbEntity
  8
0
 62
2
  6
CONTINUOUS
100
AcDbBlockReference
  2
*T1
 10
12.42375
 20
0.30125
 30
0.0
100
AcDbTable
342
       393
343
20F
 11
1.0
 21
0.0
 31
0.0
 90
6
 91
4
 92
6
 93
20
 94
0
 95
0
 96
0
 70
1
 41
0.0
141
0.525
141
0.1
141
0.525
141
0.1
142
4.1
142
1.1
142
0.7
142
0.5
142
0.4
142
2.475
171
1
172
0
173
0
174
0
175
1
176
1
 91
33
178
0
145
0.0
301
CELL_VALUE
 90
4
  1
T-2A Line mount\P(See Technical Data for Body Features)
304
ACVALUE_END
170
2
140
0.125
171
1
172
0
173
0
174
0
175
1
176
1
 91
33
178
0
145
0.0
301
CELL_VALUE
 90
4
  1
Jan-08-24
304
ACVALUE_END
170
5
140
0.125
171
1
172
0
173
0
174
0
175
1
176
1
 91
33
178
0
145
0.0
301
CELL_VALUE
 90
4
  1
1.000
304
ACVALUE_END
170
5
140
0.125
171
1
172
0
173
0
174
0
175
1
176
1
 91
33
178
0
145
0.0
301
CELL_VALUE
 90
4
  1
C
304
ACVALUE_END
170
5
140
0.125
171
1
172
0
173
0
174
0
175
1
176
1
 91
33
178
0
145
0.0
301
CELL_VALUE
 90
4
  1
2
304
ACVALUE_END
170
5
140
0.125
171
1
172
0
173
0
174
0
175
1
176
1
 91
33
178
0
145
0.0
301
CELL_VALUE
 90
4
  1
 
304
ACVALUE_END
170
1
140
0.125
171
1
172
0
173
0
174
0
175
1
176
1
 91
33
178
0
145
0.0
301
CELL_VALUE
 90
4
  1
DESCRIPTION
304
ACVALUE_END
170
1
140
0.06
171
1
172
0
173
0
174
0
175
1
176
1
 91
33
178
0
145
0.0
301
CELL_VALUE
 90
4
  1
DATE
304
ACVALUE_END
170
1
140
0.06
171
1
172
0
173
0
174
0
175
1
176
1
 91
33
178
0
145
0.0
301
CELL_VALUE
 90
4
  1
SCALE
304
ACVALUE_END
170
1
140
0.06
171
1
172
0
173
0
174
0
175
1
176
1
 91
33
178
0
145
0.0
301
CELL_VALUE
 90
4
  1
DWG SIZE
304
ACVALUE_END
170
1
140
0.06
171
1
172
0
173
0
174
0
175
1
176
1
 91
33
178
0
145
0.0
301
CELL_VALUE
 90
4
  1
SHEET
304
ACVALUE_END
170
1
140
0.06
171
1
172
0
173
0
174
0
175
1
176
1
 91
33
178
0
145
0.0
301
CELL_VALUE
 90
4
  1
 
304
ACVALUE_END
170
1
140
0.125
171
1
172
0
173
0
174
0
175
1
176
1
 91
33
178
0
145
0.0
301
CELL_VALUE
 90
4
  1
B6J
304
ACVALUE_END
170
5
140
0.125
171
1
172
0
173
0
174
0
175
4
176
1
 91
33
178
0
145
0.0
301
CELL_VALUE
 90
4
  1
ALL DIMENSIONS IN INCH\PVIEWS ARE THIRD ANGLE
304
ACVALUE_END
170
5
140
0.12
171
1
172
0
173
1
174
0
175
1
176
1
 91
1
178
0
145
0.0
170
1
171
1
172
0
173
1
174
0
175
1
176
1
 91
1
178
0
145
0.0
170
1
171
1
172
0
173
1
174
0
175
1
176
1
 91
1
178
0
145
0.0
170
5
171
1
172
0
173
0
174
0
175
1
176
1
 91
33
178
0
145
0.0
301
CELL_VALUE
 90
4
  1
 
304
ACVALUE_END
170
1
140
0.125
171
1
172
0
173
0
174
0
175
1
176
1
 91
33
178
0
145
0.0
301
CELL_VALUE
 90
4
  1
MODEL
304
ACVALUE_END
170
1
140
0.06
171
1
172
0
173
0
174
0
175
1
176
1
 91
33
178
0
145
0.0
301
CELL_VALUE
 90
4
  1
 
304
ACVALUE_END
170
1
140
0.125
171
1
172
0
173
0
174
0
175
1
176
1
 91
33
178
0
145
0.0
301
CELL_VALUE
 90
4
  1
 
304
ACVALUE_END
170
1
140
0.125
171
1
172
0
173
0
174
0
175
1
176
1
 91
33
178
0
145
0.0
301
CELL_VALUE
 90
4
  1
 
304
ACVALUE_END
170
1
140
0.125
171
1
172
0
173
0
174
0
175
1
176
1
 91
33
178
0
145
0.0
301
CELL_VALUE
 90
4
  1
 
304
ACVALUE_END
170
1
140
0.125
171
1
172
0
173
0
174
0
175
1
176
1
 91
33
178
0
145
0.0
301
CELL_VALUE
 90
4
  1
 
304
ACVALUE_END
170
1
140
0.125
  0
ACAD_TABLE
  5
295
100
AcDbEntity
  8
0
 62
2
  6
CONTINUOUS
100
AcDbBlockReference
  2
*T2
 10
12.4237499994
 20
16.47875
 30
0.0
100
AcDbTable
342
       392
343
210
 11
1.0
 21
0.0
 31
0.0
 90
22
 91
11
 92
3
 93
16
 94
0
 95
0
 96
0
 41
0.028
141
0.344
141
0.25
141
0.25
141
0.25
141
0.25
141
0.25
141
0.25
141
0.25
141
0.25
141
0.25
141
0.25
142
3.055
142
3.0
142
3.0
171
1
172
0
173
0
174
0
175
1
176
1
 91
33
178
0
145
0.0
301
CELL_VALUE
 90
4
  1
Technical Data
304
ACVALUE_END
170
5
140
0.145
171
1
172
0
173
0
174
0
175
1
176
1
 91
33
178
0
145
0.0
301
CELL_VALUE
 90
4
  1
U.S. Units
304
ACVALUE_END
170
5
140
0.145
171
1
172
0
173
0
174
0
175
1
176
1
 91
33
178
0
145
0.0
301
CELL_VALUE
 90
4
  1
Metric Units
304
ACVALUE_END
170
5
140
0.145
171
1
172
0
173
0
174
0
175
1
176
1
 91
33
178
0
145
0.0
301
CELL_VALUE
 90
4
  1
Cavity
304
ACVALUE_END
170
5
140
0.125
171
1
172
0
173
0
174
0
175
2
176
1
 91
33
178
0
145
0.0
301
CELL_VALUE
 90
4
  1
T-2A
304
ACVALUE_END
170
5
140
0.125
171
1
172
0
173
1
174
0
175
1
176
1
 91
1
178
0
145
0.0
170
1
171
1
172
0
173
0
174
0
175
1
176
1
 91
33
178
0
145
0.0
301
CELL_VALUE
 90
4
  1
Body Features
304
ACVALUE_END
170
5
140
0.125
171
1
172
0
173
0
174
0
175
2
176
1
 91
33
178
0
145
0.0
301
CELL_VALUE
 90
4
  1
Ninety degree with reverse flow check - sequence
304
ACVALUE_END
170
5
140
0.125
171
1
172
0
173
1
174
0
175
1
176
1
 91
1
178
0
145
0.0
170
1
171
1
172
0
173
0
174
0
175
1
176
1
 91
33
178
0
145
0.0
301
CELL_VALUE
 90
4
  1
Body Type
304
ACVALUE_END
170
5
140
0.125
171
1
172
0
173
0
174
0
175
2
176
1
 91
33
178
0
145
0.0
301
CELL_VALUE
 90
4
  1
Line mount
304
ACVALUE_END
170
5
140
0.125
171
1
172
0
173
1
174
0
175
1
176
1
 91
1
178
0
145
0.0
170
1
171
1
172
0
173
0
174
0
175
1
176
1
 91
33
178
0
145
0.0
301
CELL_VALUE
 90
4
  1
Interface
304
ACVALUE_END
170
5
140
0.125
171
1
172
0
173
0
174
0
175
2
176
1
 91
33
178
0
145
0.0
301
CELL_VALUE
 90
4
  1
None
304
ACVALUE_END
170
5
140
0.125
171
1
172
0
173
1
174
0
175
1
176
1
 91
1
178
0
145
0.0
170
1
171
1
172
0
173
0
174
0
175
1
176
1
 91
33
178
0
145
0.0
301
CELL_VALUE
 90
4
  1
Open Cavity Quantity
304
ACVALUE_END
170
5
140
0.125
171
1
172
0
173
0
174
0
175
2
176
1
 91
33
178
0
145
0.0
301
CELL_VALUE
 90
4
  1
1
304
ACVALUE_END
170
5
140
0.125
171
1
172
0
173
1
174
0
175
1
176
1
 91
1
178
0
145
0.0
170
1
171
1
172
0
173
0
174
0
175
1
176
1
 91
33
178
0
145
0.0
301
CELL_VALUE
 90
4
  1
Weight
304
ACVALUE_END
170
5
140
0.125
171
1
172
0
173
0
174
0
175
1
176
1
 91
33
178
0
145
0.0
301
CELL_VALUE
 90
4
  1
1.678 lb.
304
ACVALUE_END
170
5
140
0.125
171
1
172
0
173
0
174
0
175
1
176
1
 91
33
178
0
145
0.0
301
CELL_VALUE
 90
4
  1
0,761 kg.
304
ACVALUE_END
170
5
140
0.125
171
1
172
0
173
0
174
0
175
1
176
1
 91
33
178
0
145
0.0
301
CELL_VALUE
 90
4
  1
Mounting Hole Diameter
304
ACVALUE_END
170
5
140
0.125
171
1
172
0
173
0
174
0
175
1
176
1
 91
33
178
0
145
0.0
301
CELL_VALUE
 90
4
  1
.28 in.
304
ACVALUE_END
170
5
140
0.125
171
1
172
0
173
0
174
0
175
1
176
1
 91
33
178
0
145
0.0
301
CELL_VALUE
 90
4
  1
7,1 mm
304
ACVALUE_END
170
5
140
0.125
171
1
172
0
173
0
174
0
175
1
176
1
 91
33
178
0
145
0.0
301
CELL_VALUE
 90
4
  1
Mounting Hole Depth
304
ACVALUE_END
170
5
140
0.125
171
1
172
0
173
0
174
0
175
2
176
1
 91
33
178
0
145
0.0
301
CELL_VALUE
 90
4
  1
Through
304
ACVALUE_END
170
5
140
0.125
171
1
172
0
173
1
174
0
175
1
176
1
 91
1
178
0
145
0.0
170
1
171
1
172
0
173
0
174
0
175
1
176
1
 91
33
178
0
145
0.0
301
CELL_VALUE
 90
4
  1
Mounting Hole Quantity
304
ACVALUE_END
170
5
140
0.125
171
1
172
0
173
0
174
0
175
2
176
1
 91
33
178
0
145
0.0
301
CELL_VALUE
 90
4
  1
2
304
ACVALUE_END
170
5
140
0.125
171
1
172
0
173
1
174
0
175
1
176
1
 91
1
178
0
145
0.0
170
1
171
1
172
0
173
0
174
0
175
1
176
1
 91
33
178
0
145
0.0
301
CELL_VALUE
 90
4
  1
Includes integral cartridge(s)
304
ACVALUE_END
170
5
140
0.125
171
1
172
0
173
0
174
0
175
2
176
1
 91
33
178
0
145
0.0
301
CELL_VALUE
 90
4
  1
Yes (see Included Components)
304
ACVALUE_END
170
5
140
0.125
171
1
172
0
173
1
174
0
175
1
176
1
 91
1
178
0
145
0.0
170
1
  0
ACAD_TABLE
  5
296
100
AcDbEntity
  8
0
 62
2
  6
CONTINUOUS
100
AcDbBlockReference
  2
*T3
 10
0.52125
 20
1.959
 30
0.0
100
AcDbTable
342
       392
343
211
 11
1.0
 21
0.0
 31
0.0
 90
22
 91
5
 92
3
 93
16
 94
0
 95
0
 96
0
 41
0.05
141
0.34375
141
0.344
141
0.25
141
0.25
141
0.25
142
1.3
142
2.0
142
1.3
171
1
172
0
173
0
174
0
175
3
176
1
 91
33
178
0
145
0.0
301
CELL_VALUE
 90
4
  1
Port Headings
304
ACVALUE_END
170
5
140
0.145
171
1
172
0
173
1
174
0
175
1
176
1
 91
1
178
0
145
0.0
170
1
171
1
172
0
173
1
174
0
175
1
176
1
 91
1
178
0
145
0.0
170
1
171
1
172
0
173
0
174
0
175
1
176
1
 91
33
178
0
145
0.0
301
CELL_VALUE
 90
4
  1
Product
304
ACVALUE_END
170
5
140
0.145
171
1
172
0
173
0
174
0
175
1
176
1
 91
33
178
0
145
0.0
301
CELL_VALUE
 90
4
  1
Port
304
ACVALUE_END
170
5
140
0.145
171
1
172
0
173
0
174
0
175
1
176
1
 91
33
178
0
145
0.0
301
CELL_VALUE
 90
4
  1
Size
304
ACVALUE_END
170
5
140
0.145
171
1
172
0
173
0
174
0
175
1
176
1
 91
33
178
0
145
0.0
301
CELL_VALUE
 90
4
  1
B6J
304
ACVALUE_END
170
5
140
0.125
171
1
172
0
173
0
174
0
175
1
176
1
 91
33
178
0
145
0.0
301
CELL_VALUE
 90
4
  1
Ports 1 &  2
304
ACVALUE_END
170
5
140
0.125
171
1
172
0
173
0
174
0
175
1
176
1
 91
33
178
0
145
0.0
301
CELL_VALUE
 90
4
  1
SAE 8
304
ACVALUE_END
170
5
140
0.125
171
1
172
0
173
0
174
0
175
1
176
1
 91
33
178
0
145
0.0
301
CELL_VALUE
 90
4
  1
B6J
304
ACVALUE_END
170
5
140
0.125
171
1
172
0
173
0
174
0
175
1
176
1
 91
33
178
0
145
0.0
301
CELL_VALUE
 90
4
  1
Port 3
304
ACVALUE_END
170
5
140
0.125
171
1
172
0
173
0
174
0
175
1
176
1
 91
33
178
0
145
0.0
301
CELL_VALUE
 90
4
  1
SAE 6
304
ACVALUE_END
170
5
140
0.125
171
1
172
0
173
0
174
0
175
1
176
1
 91
33
178
0
145
0.0
301
CELL_VALUE
 90
4
  1
B6J
304
ACVALUE_END
170
5
140
0.125
171
1
172
0
173
0
174
0
175
1
176
1
 91
33
178
0
145
0.0
301
CELL_VALUE
 90
4
  1
Gage Port
304
ACVALUE_END
170
5
140
0.125
171
1
172
0
173
0
174
0
175
1
176
1
 91
33
178
0
145
0.0
301
CELL_VALUE
 90
4
  1
1/4" NPTF
304
ACVALUE_END
170
5
140
0.125
  0
MTEXT
  5
297
100
AcDbEntity
  8
0
100
AcDbMText
 62
2
  6
CONTINUOUS
  7
STANDARD
 71
1
 72
1
 10
0.52125
 20
5.75995
 30
0.0
 11
1.0
 21
0.0
 31
0.0
 44
0.6
  3
Notes\P \P1. Important: Carefully consider\P   the maximum system pressure. The\P   pressure rating of the manifold is\P   dependent on the manifold material,\P   with the port type/size a secondary\P   consideration. Manifolds\P   constructed of alu
  3
minum are not\P   rated for pressures higher than\P   3000 psi (210 bar), regardless of\P   the port type/size specified.\P2. This drawing is for reference\P   only. It is generated by an\P   automated process and does not fall\P   under Sun's docume
  1
nt control\P   process.
 40
0.1
 41
3.04
  0
LINE
  5
298
100
AcDbEntity
  8
0
100
AcDbLine
 62
7
  6
CONTINUOUS
 10
0.30125
 20
0.30125
 11
0.30125
 21
16.69875
  0
LINE
  5
299
100
AcDbEntity
  8
0
100
AcDbLine
 62
7
  6
CONTINUOUS
 10
0.30125
 20
0.30125
 11
21.69875
 21
0.30125
  0
LINE
  5
29A
100
AcDbEntity
  8
0
100
AcDbLine
 62
7
  6
CONTINUOUS
 10
0.30125
 20
16.69875
 11
21.69875
 21
16.69875
  0
LINE
  5
29B
100
AcDbEntity
  8
0
100
AcDbLine
 62
7
  6
CONTINUOUS
 10
21.69875
 20
0.30125
 11
21.69875
 21
16.69875
  0
LINE
  5
29C
100
AcDbEntity
  8
0
100
AcDbLine
 62
7
  6
CONTINUOUS
 10
9.7452252983
 20
10.9883808495
 11
9.3569970511
 21
10.6133811368
  0
LINE
  5
29D
100
AcDbEntity
  8
0
100
AcDbLine
 62
7
  6
CONTINUOUS
 10
10.9606797533
 20
6.1035536604
 11
10.9913538314
 21
6.0884012532
  0
LINE
  5
29E
100
AcDbEntity
  8
0
100
AcDbLine
 62
7
  6
CONTINUOUS
 10
9.3569970511
 20
6.7496776027
 11
12.2547747017
 21
6.5487160401
  0
LINE
  5
29F
100
AcDbEntity
  8
0
100
AcDbLine
 62
7
  6
CONTINUOUS
 10
9.3569970511
 20
6.7496776027
 11
9.3569970511
 21
10.6133811368
  0
LINE
  5
2A0
100
AcDbEntity
  8
0
100
AcDbLine
 62
4
  6
CONTINUOUS
 10
9.5115451926
 20
7.8207966396
 11
9.5115451926
 21
7.7048855362
  0
LINE
  5
2A1
100
AcDbEntity
  8
0
100
AcDbLine
 62
4
  6
CONTINUOUS
 10
12.1238917783
 20
7.3401927696
 11
12.1094028904
 21
7.3411975774
  0
LINE
  5
2A2
100
AcDbEntity
  8
0
100
AcDbLine
 62
4
  6
CONTINUOUS
 10
12.1166473343
 20
7.3986507252
 11
12.1456251102
 21
7.3966411096
  0
LINE
  5
2A3
100
AcDbEntity
  8
0
100
AcDbLine
 62
4
  6
CONTINUOUS
 10
12.0804251145
 20
10.1057551622
 11
12.0949140025
 21
10.1144096107
  0
LINE
  5
2A4
100
AcDbEntity
  8
0
100
AcDbLine
 62
4
  6
CONTINUOUS
 10
12.1238917783
 20
10.0737629629
 11
12.1094028904
 21
10.0651085075
  0
LINE
  5
2A5
100
AcDbEntity
  8
0
100
AcDbLine
 62
4
  6
CONTINUOUS
 10
12.1094028904
 20
7.4571086808
 11
12.1238917783
 21
7.456103873
  0
LINE
  5
2A6
100
AcDbEntity
  8
0
100
AcDbLine
 62
4
  6
CONTINUOUS
 10
10.2562740486
 20
8.918601322
 11
10.2562740486
 21
8.860645769
  0
LINE
  5
2A7
100
AcDbEntity
  8
0
100
AcDbLine
 62
4
  6
CONTINUOUS
 10
10.3142296017
 20
8.8566265378
 11
10.3142296017
 21
8.7986709847
  0
LINE
  5
2A8
100
AcDbEntity
  8
0
100
AcDbLine
 62
4
  6
CONTINUOUS
 10
10.3432073782
 20
8.7966613691
 11
10.3432073782
 21
8.9125724751
  0
LINE
  5
2A9
100
AcDbEntity
  8
0
100
AcDbLine
 62
4
  6
CONTINUOUS
 10
10.3905377522
 20
8.2022323558
 11
10.3905377522
 21
8.3181434618
  0
LINE
  5
2AA
100
AcDbEntity
  8
0
100
AcDbLine
 62
4
  6
CONTINUOUS
 10
10.4011629312
 20
8.9085532439
 11
10.4011629312
 21
8.7926421379
  0
LINE
  5
2AB
100
AcDbEntity
  8
0
100
AcDbLine
 62
4
  6
CONTINUOUS
 10
10.4301407077
 20
8.9065436283
 11
10.4301407077
 21
8.7906325222
  0
LINE
  5
2AC
100
AcDbEntity
  8
0
100
AcDbLine
 62
4
  6
CONTINUOUS
 10
12.1238917783
 20
10.0061481506
 11
12.1094028904
 21
9.9974936995
  0
LINE
  5
2AD
100
AcDbEntity
  8
0
100
AcDbLine
 62
4
  6
CONTINUOUS
 10
10.4484932983
 20
8.2975655026
 11
10.4484932983
 21
8.2147718552
  0
LINE
  5
2AE
100
AcDbEntity
  8
0
100
AcDbLine
 62
4
  6
CONTINUOUS
 10
10.4880962607
 20
8.902524397
 11
10.4880962607
 21
8.786613291
  0
LINE
  5
2AF
100
AcDbEntity
  8
0
100
AcDbLine
 62
4
  6
CONTINUOUS
 10
10.6040073667
 20
8.7785748285
 11
10.6040073667
 21
8.8944859345
  0
LINE
  5
2B0
100
AcDbEntity
  8
0
100
AcDbLine
 62
4
  6
CONTINUOUS
 10
10.6278795404
 20
8.1857726469
 11
10.6278795404
 21
8.3016837529
  0
LINE
  5
2B1
100
AcDbEntity
  8
0
100
AcDbLine
 62
4
  6
CONTINUOUS
 10
10.495409699
 20
8.1949594616
 11
10.5285271559
 21
8.3085738642
  0
LINE
  5
2B2
100
AcDbEntity
  8
0
100
AcDbLine
 62
7
  6
CONTINUOUS
 10
12.475980047
 20
10.6580875436
 11
12.3599783456
 21
10.5460384976
  0
LINE
  5
2B3
100
AcDbEntity
  8
0
100
AcDbLine
 62
7
  6
CONTINUOUS
 10
12.2547747017
 20
10.4124195742
 11
12.3908879746
 21
10.5438949075
  0
LINE
  5
2B4
100
AcDbEntity
  8
0
100
AcDbLine
 62
7
  6
CONTINUOUS
 10
12.506889676
 20
10.6559439535
 11
12.6430029489
 21
10.7874192869
  0
LINE
  5
2B5
100
AcDbEntity
  8
0
100
AcDbLine
 62
4
  6
CONTINUOUS
 10
10.3243028315
 20
8.256501952
 11
10.3684594442
 21
8.2313613741
  0
LINE
  5
2B6
100
AcDbEntity
  8
0
100
AcDbLine
 62
4
  6
CONTINUOUS
 10
10.4319345699
 20
8.3152725828
 11
10.4484932983
 21
8.2975655026
  0
LINE
  5
2B7
100
AcDbEntity
  8
0
100
AcDbLine
 62
4
  6
CONTINUOUS
 10
10.5285271559
 20
8.3085738642
 11
10.5616446266
 21
8.1903660538
  0
LINE
  5
2B8
100
AcDbEntity
  8
0
100
AcDbLine
 62
4
  6
CONTINUOUS
 10
10.6619629197
 20
8.7745555972
 11
10.6619629197
 21
8.8325111502
  0
LINE
  5
2B9
100
AcDbEntity
  8
0
100
AcDbLine
 62
4
  6
CONTINUOUS
 10
10.6941144542
 20
8.18117924
 11
10.6941144542
 21
8.297090346
  0
LINE
  5
2BA
100
AcDbEntity
  8
0
100
AcDbLine
 62
4
  6
CONTINUOUS
 10
10.6941144493
 20
8.4361836736
 11
10.6941144493
 21
8.5520947796
  0
LINE
  5
2BB
100
AcDbEntity
  8
0
100
AcDbLine
 62
4
  6
CONTINUOUS
 10
10.709293288
 20
8.771273225
 11
10.709293288
 21
8.8292287781
  0
LINE
  5
2BC
100
AcDbEntity
  8
0
100
AcDbLine
 62
4
  6
CONTINUOUS
 10
10.7437906381
 20
8.5320909958
 11
10.7437906381
 21
8.5072528997
  0
LINE
  5
2BD
100
AcDbEntity
  8
0
100
AcDbLine
 62
4
  6
CONTINUOUS
 10
10.7520700023
 20
8.4735612669
 11
10.7520700023
 21
8.4487231725
  0
LINE
  5
2BE
100
AcDbEntity
  8
0
100
AcDbLine
 62
4
  6
CONTINUOUS
 10
10.767248841
 20
8.8252095468
 11
10.767248841
 21
8.7092984408
  0
LINE
  5
2BF
100
AcDbEntity
  8
0
100
AcDbLine
 62
4
  6
CONTINUOUS
 10
10.7851874592
 20
8.4878232919
 11
10.7851874592
 21
8.4464264691
  0
LINE
  5
2C0
100
AcDbEntity
  8
0
100
AcDbLine
 62
4
  6
CONTINUOUS
 10
10.8058858764
 20
8.7645745063
 11
10.8058858764
 21
8.8225300593
  0
LINE
  5
2C1
100
AcDbEntity
  8
0
100
AcDbLine
 62
4
  6
CONTINUOUS
 10
10.8017461876
 20
8.5197923971
 11
10.7851874592
 21
8.4878232919
  0
LINE
  5
2C2
100
AcDbEntity
  8
0
100
AcDbLine
 62
4
  6
CONTINUOUS
 10
10.7437906381
 20
8.5072528997
 11
10.7272319096
 21
8.491842523
  0
LINE
  5
2C3
100
AcDbEntity
  8
0
100
AcDbLine
 62
4
  6
CONTINUOUS
 10
11.0970435199
 20
8.1532360144
 11
11.0556466884
 21
8.1561068944
  0
LINE
  5
2C4
100
AcDbEntity
  8
0
100
AcDbLine
 62
4
  6
CONTINUOUS
 10
11.0059705238
 20
8.1595519481
 11
10.9811324139
 21
8.1612744769
  0
LINE
  5
2C5
100
AcDbEntity
  8
0
100
AcDbLine
 62
4
  6
CONTINUOUS
 10
10.9176573055
 20
8.1656764906
 11
10.8845398624
 21
8.1679731931
  0
LINE
  5
2C6
100
AcDbEntity
  8
0
100
AcDbLine
 62
4
  6
CONTINUOUS
 10
10.4319345699
 20
8.1993614768
 11
10.3905377522
 21
8.2022323558
  0
LINE
  5
2C7
100
AcDbEntity
  8
0
100
AcDbLine
 62
4
  6
CONTINUOUS
 10
10.6941144542
 20
8.18117924
 11
10.7437906464
 21
8.1777341844
  0
LINE
  5
2C8
100
AcDbEntity
  8
0
100
AcDbLine
 62
4
  6
CONTINUOUS
 10
11.1605186836
 20
8.1488339969
 11
11.2101948482
 21
8.1453889431
  0
LINE
  5
2C9
100
AcDbEntity
  8
0
100
AcDbLine
 62
4
  6
CONTINUOUS
 10
10.5064488513
 20
8.2273113541
 11
10.5506054605
 21
8.2242490829
  0
LINE
  5
2CA
100
AcDbEntity
  8
0
100
AcDbLine
 62
4
  6
CONTINUOUS
 10
11.1936361267
 20
8.2127722151
 11
11.1605186836
 21
8.2150689175
  0
LINE
  5
2CB
100
AcDbEntity
  8
0
100
AcDbLine
 62
4
  6
CONTINUOUS
 10
10.7272319249
 20
8.2451174563
 11
10.6941144542
 21
8.2474141607
  0
LINE
  5
2CC
100
AcDbEntity
  8
0
100
AcDbLine
 62
4
  6
CONTINUOUS
 10
10.3905377522
 20
8.3181434618
 11
10.4319345699
 21
8.3152725828
  0
LINE
  5
2CD
100
AcDbEntity
  8
0
100
AcDbLine
 62
4
  6
CONTINUOUS
 10
10.5947620697
 20
8.3039804573
 11
10.6609969835
 21
8.2993870504
  0
LINE
  5
2CE
100
AcDbEntity
  8
0
100
AcDbLine
 62
4
  6
CONTINUOUS
 10
10.6941144542
 20
8.297090346
 11
10.7437906464
 21
8.2936452904
  0
LINE
  5
2CF
100
AcDbEntity
  8
0
100
AcDbLine
 62
4
  6
CONTINUOUS
 10
10.8845398624
 20
8.2838842991
 11
10.9176573055
 21
8.2815875967
  0
LINE
  5
2D0
100
AcDbEntity
  8
0
100
AcDbLine
 62
4
  6
CONTINUOUS
 10
10.9811324139
 20
8.2771855829
 11
11.0059705238
 21
8.2754630542
  0
LINE
  5
2D1
100
AcDbEntity
  8
0
100
AcDbLine
 62
4
  6
CONTINUOUS
 10
11.0556466884
 20
8.2720180004
 11
11.0970435199
 21
8.2691471204
  0
LINE
  5
2D2
100
AcDbEntity
  8
0
100
AcDbLine
 62
4
  6
CONTINUOUS
 10
11.1605186836
 20
8.2647451029
 11
11.2101948482
 21
8.2613000492
  0
LINE
  5
2D3
100
AcDbEntity
  8
0
100
AcDbLine
 62
4
  6
CONTINUOUS
 10
12.1094028904
 20
7.3411975774
 11
12.0949140025
 21
7.3518616441
  0
LINE
  5
2D4
100
AcDbEntity
  8
0
100
AcDbLine
 62
4
  6
CONTINUOUS
 10
12.1238917783
 20
7.456103873
 11
12.1383806662
 21
7.4454398089
  0
LINE
  5
2D5
100
AcDbEntity
  8
0
100
AcDbLine
 62
4
  6
CONTINUOUS
 10
10.8845398624
 20
8.1679731931
 11
10.8679811409
 21
8.1856802745
  0
LINE
  5
2D6
100
AcDbEntity
  8
0
100
AcDbLine
 62
4
  6
CONTINUOUS
 10
10.9811324139
 20
8.1612744769
 11
10.9645736924
 21
8.1789815583
  0
LINE
  5
2D7
100
AcDbEntity
  8
0
100
AcDbLine
 62
4
  6
CONTINUOUS
 10
10.7355112739
 20
8.4912683471
 11
10.7520700023
 21
8.4735612669
  0
LINE
  5
2D8
100
AcDbEntity
  8
0
100
AcDbLine
 62
4
  6
CONTINUOUS
 10
10.7851874592
 20
8.4464264691
 11
10.8017461876
 21
8.4287193872
  0
LINE
  5
2D9
100
AcDbEntity
  8
0
100
AcDbLine
 62
4
  6
CONTINUOUS
 10
10.8431430122
 20
8.4424072378
 11
10.8431430122
 21
8.4755246965
  0
LINE
  5
2DA
100
AcDbEntity
  8
0
100
AcDbLine
 62
4
  6
CONTINUOUS
 10
10.8638414294
 20
8.8764663811
 11
10.8638414294
 21
8.760555275
  0
LINE
  5
2DB
100
AcDbEntity
  8
0
100
AcDbLine
 62
7
  6
CONTINUOUS
 10
10.8639357255
 20
6.5480758744
 11
10.8639357255
 21
6.163672433
  0
LINE
  5
2DC
100
AcDbEntity
  8
0
100
AcDbLine
 62
4
  6
CONTINUOUS
 10
10.8679811409
 20
8.1856802745
 11
10.8679811409
 21
8.2684739219
  0
LINE
  5
2DD
100
AcDbEntity
  8
0
100
AcDbLine
 62
7
  6
CONTINUOUS
 10
10.8783837737
 20
6.5341201553
 11
10.8783837737
 21
6.149716714
  0
LINE
  5
2DE
100
AcDbEntity
  8
0
100
AcDbLine
 62
4
  6
CONTINUOUS
 10
10.9024784647
 20
8.8158313405
 11
10.9024784647
 21
8.7578757875
  0
LINE
  5
2DF
100
AcDbEntity
  8
0
100
AcDbLine
 62
4
  6
CONTINUOUS
 10
10.9176573006
 20
8.4372396544
 11
10.9176573006
 21
8.5365920302
  0
LINE
  5
2E0
100
AcDbEntity
  8
0
100
AcDbLine
 62
7
  6
CONTINUOUS
 10
10.9449629418
 20
6.6395517941
 11
10.9449629418
 21
6.637063832
  0
LINE
  5
2E1
100
AcDbEntity
  8
0
100
AcDbLine
 62
4
  6
CONTINUOUS
 10
10.9645736924
 20
8.1789815583
 11
10.9645736924
 21
8.2617752057
  0
LINE
  5
2E2
100
AcDbEntity
  8
0
100
AcDbLine
 62
4
  6
CONTINUOUS
 10
10.9990710531
 20
8.7511770688
 11
10.9990710531
 21
8.7898141041
  0
LINE
  5
2E3
100
AcDbEntity
  8
0
100
AcDbLine
 62
4
  6
CONTINUOUS
 10
11.0225292454
 20
8.2577559745
 11
11.0225292454
 21
8.1749623271
  0
LINE
  5
2E4
100
AcDbEntity
  8
0
100
AcDbLine
 62
4
  6
CONTINUOUS
 10
12.1311362223
 20
10.0829198154
 11
12.1238917783
 21
10.0737629629
  0
LINE
  5
2E5
100
AcDbEntity
  8
0
100
AcDbLine
 62
4
  6
CONTINUOUS
 10
12.1383806662
 20
10.0244618598
 11
12.1238917783
 21
10.0061481506
  0
LINE
  5
2E6
100
AcDbEntity
  8
0
100
AcDbLine
 62
4
  6
CONTINUOUS
 10
10.4484932983
 20
8.2147718552
 11
10.4319345699
 21
8.1993614768
  0
LINE
  5
2E7
100
AcDbEntity
  8
0
100
AcDbLine
 62
4
  6
CONTINUOUS
 10
10.8265842907
 20
8.5429079649
 11
10.8017461876
 21
8.5197923971
  0
LINE
  5
2E8
100
AcDbEntity
  8
0
100
AcDbLine
 62
4
  6
CONTINUOUS
 10
10.7520700023
 20
8.4487231725
 11
10.7355112739
 21
8.4333127941
  0
LINE
  5
2E9
100
AcDbEntity
  8
0
100
AcDbLine
 62
4
  6
CONTINUOUS
 10
10.8265842907
 20
8.4269968589
 11
10.8431430122
 21
8.4424072378
  0
LINE
  5
2EA
100
AcDbEntity
  8
0
100
AcDbLine
 62
4
  6
CONTINUOUS
 10
10.9010985652
 20
8.4218292764
 11
10.9176573006
 21
8.4372396544
  0
LINE
  5
2EB
100
AcDbEntity
  8
0
100
AcDbLine
 62
4
  6
CONTINUOUS
 10
10.3684594442
 20
8.2755179885
 11
10.3243028315
 21
8.256501952
  0
LINE
  5
2EC
100
AcDbEntity
  8
0
100
AcDbLine
 62
4
  6
CONTINUOUS
 10
10.7355112739
 20
8.4333127941
 11
10.6941144493
 21
8.4361836736
  0
LINE
  5
2ED
100
AcDbEntity
  8
0
100
AcDbLine
 62
4
  6
CONTINUOUS
 10
10.8017461876
 20
8.4287193872
 11
10.8265842907
 21
8.4269968589
  0
LINE
  5
2EE
100
AcDbEntity
  8
0
100
AcDbLine
 62
4
  6
CONTINUOUS
 10
10.8762604691
 20
8.4235518042
 11
10.9010985652
 21
8.4218292764
  0
LINE
  5
2EF
100
AcDbEntity
  8
0
100
AcDbLine
 62
4
  6
CONTINUOUS
 10
10.6941144493
 20
8.4941392266
 11
10.7355112739
 21
8.4912683471
  0
LINE
  5
2F0
100
AcDbEntity
  8
0
100
AcDbLine
 62
4
  6
CONTINUOUS
 10
10.8265842907
 20
8.4932317796
 11
10.7907070353
 21
8.4957198757
  0
LINE
  5
2F1
100
AcDbEntity
  8
0
100
AcDbLine
 62
4
  6
CONTINUOUS
 10
10.7189525437
 20
8.5503722519
 11
10.7272319096
 21
8.5470382844
  0
LINE
  5
2F2
100
AcDbEntity
  8
0
100
AcDbLine
 62
4
  6
CONTINUOUS
 10
11.2433122913
 20
8.2148467375
 11
11.2874689005
 21
8.1897061582
  0
LINE
  5
2F3
100
AcDbEntity
  8
0
100
AcDbLine
 62
4
  6
CONTINUOUS
 10
10.7272319096
 20
8.5470382844
 11
10.7437906381
 21
8.5320909958
  0
LINE
  5
2F4
100
AcDbEntity
  8
0
100
AcDbLine
 62
4
  6
CONTINUOUS
 10
11.0059705238
 20
8.2754630542
 11
11.0225292454
 21
8.2577559745
  0
LINE
  5
2F5
100
AcDbEntity
  8
0
100
AcDbLine
 62
4
  6
CONTINUOUS
 10
10.8431430122
 20
8.4755246965
 11
10.8265842907
 21
8.4932317796
  0
LINE
  5
2F6
100
AcDbEntity
  8
0
100
AcDbLine
 62
4
  6
CONTINUOUS
 10
11.0970435199
 20
8.2691471204
 11
11.1136022415
 21
8.2514400407
  0
LINE
  5
2F7
100
AcDbEntity
  8
0
100
AcDbLine
 62
4
  6
CONTINUOUS
 10
11.0556466884
 20
8.1561068944
 11
11.0556466884
 21
8.2720180004
  0
LINE
  5
2F8
100
AcDbEntity
  8
0
100
AcDbLine
 62
4
  6
CONTINUOUS
 10
11.0570266061
 20
8.8051133905
 11
11.0570266061
 21
8.7471578375
  0
LINE
  5
2F9
100
AcDbEntity
  8
0
100
AcDbLine
 62
4
  6
CONTINUOUS
 10
11.0956636414
 20
8.802433903
 11
11.0956636414
 21
8.74447835
  0
LINE
  5
2FA
100
AcDbEntity
  8
0
100
AcDbLine
 62
4
  6
CONTINUOUS
 10
11.1136022415
 20
8.2514400407
 11
11.1136022415
 21
8.1686463933
  0
LINE
  5
2FB
100
AcDbEntity
  8
0
100
AcDbLine
 62
4
  6
CONTINUOUS
 10
11.1536191944
 20
8.7404591188
 11
11.1536191944
 21
8.7984146718
  0
LINE
  5
2FC
100
AcDbEntity
  8
0
100
AcDbLine
 62
4
  6
CONTINUOUS
 10
11.1605186836
 20
8.1488339969
 11
11.1605186836
 21
8.2647451029
  0
LINE
  5
2FD
100
AcDbEntity
  8
0
100
AcDbLine
 62
4
  6
CONTINUOUS
 10
11.1922562298
 20
8.7377796313
 11
11.1922562298
 21
8.8536907373
  0
LINE
  5
2FE
100
AcDbEntity
  8
0
100
AcDbLine
 62
4
  6
CONTINUOUS
 10
10.8679811409
 20
8.2684739219
 11
10.8845398624
 21
8.2838842991
  0
LINE
  5
2FF
100
AcDbEntity
  8
0
100
AcDbLine
 62
4
  6
CONTINUOUS
 10
10.9645736924
 20
8.2617752057
 11
10.9811324139
 21
8.2771855829
  0
LINE
  5
300
100
AcDbEntity
  8
0
100
AcDbLine
 62
4
  6
CONTINUOUS
 10
10.6941144493
 20
8.5520947796
 11
10.7189525437
 21
8.5503722519
  0
LINE
  5
301
100
AcDbEntity
  8
0
100
AcDbLine
 62
4
  6
CONTINUOUS
 10
10.767248841
 20
8.7092984408
 11
10.7286118057
 21
8.7119779283
  0
LINE
  5
302
100
AcDbEntity
  8
0
100
AcDbLine
 62
4
  6
CONTINUOUS
 10
12.0949140025
 20
7.3518616441
 11
12.0804251145
 21
7.3721849688
  0
LINE
  5
303
100
AcDbEntity
  8
0
100
AcDbLine
 62
4
  6
CONTINUOUS
 10
11.2308932651
 20
8.7351001438
 11
11.2308932651
 21
8.7930556968
  0
LINE
  5
304
100
AcDbEntity
  8
0
100
AcDbLine
 62
4
  6
CONTINUOUS
 10
11.2695303005
 20
8.7903762093
 11
11.2695303005
 21
8.7324206563
  0
LINE
  5
305
100
AcDbEntity
  8
0
100
AcDbLine
 62
7
  6
CONTINUOUS
 10
11.2920704918
 20
6.4270502897
 11
11.2920704918
 21
6.0426468484
  0
LINE
  5
306
100
AcDbEntity
  8
0
100
AcDbLine
 62
7
  6
CONTINUOUS
 10
11.3459913004
 20
6.4233108689
 11
11.3459913004
 21
6.0389074276
  0
LINE
  5
307
100
AcDbEntity
  8
0
100
AcDbLine
 62
4
  6
CONTINUOUS
 10
11.3661228888
 20
8.7836774905
 11
11.3661228888
 21
8.754699714
  0
LINE
  5
308
100
AcDbEntity
  8
0
100
AcDbLine
 62
4
  6
CONTINUOUS
 10
11.4240784418
 20
8.7506804828
 11
11.4240784418
 21
8.7217027063
  0
LINE
  5
309
100
AcDbEntity
  8
0
100
AcDbLine
 62
4
  6
CONTINUOUS
 10
11.0225292454
 20
8.1749623271
 11
11.0059705238
 21
8.1595519481
  0
LINE
  5
30A
100
AcDbEntity
  8
0
100
AcDbLine
 62
4
  6
CONTINUOUS
 10
11.1136022415
 20
8.1686463933
 11
11.0970435199
 21
8.1532360144
  0
LINE
  5
30B
100
AcDbEntity
  8
0
100
AcDbLine
 62
4
  6
CONTINUOUS
 10
12.0804251145
 20
8.7824368123
 11
12.0949140025
 21
8.7910912608
  0
LINE
  5
30C
100
AcDbEntity
  8
0
100
AcDbLine
 62
4
  6
CONTINUOUS
 10
12.1238917783
 20
8.7407853498
 11
12.0949140025
 21
8.7234764493
  0
LINE
  5
30D
100
AcDbEntity
  8
0
100
AcDbLine
 62
4
  6
CONTINUOUS
 10
11.2874689005
 20
8.1897061582
 11
11.2433122913
 21
8.1706901231
  0
LINE
  5
30E
100
AcDbEntity
  8
0
100
AcDbLine
 62
4
  6
CONTINUOUS
 10
11.4240784418
 20
8.7217027063
 11
11.3661228888
 21
8.7257219375
  0
LINE
  5
30F
100
AcDbEntity
  8
0
100
AcDbLine
 62
4
  6
CONTINUOUS
 10
11.0570266061
 20
8.7471578375
 11
10.9990710531
 21
8.7511770688
  0
LINE
  5
310
100
AcDbEntity
  8
0
100
AcDbLine
 62
4
  6
CONTINUOUS
 10
10.8638414294
 20
8.760555275
 11
10.8058858764
 21
8.7645745063
  0
LINE
  5
311
100
AcDbEntity
  8
0
100
AcDbLine
 62
4
  6
CONTINUOUS
 10
10.767248841
 20
8.7672539938
 11
10.709293288
 21
8.771273225
  0
LINE
  5
312
100
AcDbEntity
  8
0
100
AcDbLine
 62
4
  6
CONTINUOUS
 10
10.4011629312
 20
8.7926421379
 11
10.3432073782
 21
8.7966613691
  0
LINE
  5
313
100
AcDbEntity
  8
0
100
AcDbLine
 62
4
  6
CONTINUOUS
 10
10.3142296017
 20
8.7986709847
 11
10.2562740486
 21
8.802690216
  0
LINE
  5
314
100
AcDbEntity
  8
0
100
AcDbLine
 62
4
  6
CONTINUOUS
 10
11.0956636414
 20
8.74447835
 11
11.1536191944
 21
8.7404591188
  0
LINE
  5
315
100
AcDbEntity
  8
0
100
AcDbLine
 62
4
  6
CONTINUOUS
 10
11.2695303005
 20
8.7324206563
 11
11.3274858535
 21
8.728401425
  0
LINE
  5
316
100
AcDbEntity
  8
0
100
AcDbLine
 62
4
  6
CONTINUOUS
 10
12.0731806706
 20
8.6766873691
 11
12.1311362223
 21
8.6726681379
  0
LINE
  5
317
100
AcDbEntity
  8
0
100
AcDbLine
 62
4
  6
CONTINUOUS
 10
11.3661228888
 20
8.754699714
 11
11.4240784418
 21
8.7506804828
  0
LINE
  5
318
100
AcDbEntity
  8
0
100
AcDbLine
 62
4
  6
CONTINUOUS
 10
10.9990710531
 20
8.7898141041
 11
11.0570266061
 21
8.7857948729
  0
LINE
  5
319
100
AcDbEntity
  8
0
100
AcDbLine
 62
4
  6
CONTINUOUS
 10
11.0570266061
 20
8.8051133905
 11
11.0183895707
 21
8.807792878
  0
LINE
  5
31A
100
AcDbEntity
  8
0
100
AcDbLine
 62
4
  6
CONTINUOUS
 10
10.6619629197
 20
8.8325111502
 11
10.6040073667
 21
8.8365303815
  0
LINE
  5
31B
100
AcDbEntity
  8
0
100
AcDbLine
 62
4
  6
CONTINUOUS
 10
10.2562740486
 20
8.860645769
 11
10.3142296017
 21
8.8566265378
  0
LINE
  5
31C
100
AcDbEntity
  8
0
100
AcDbLine
 62
4
  6
CONTINUOUS
 10
10.8058858764
 20
8.8225300593
 11
10.8638414294
 21
8.818510828
  0
LINE
  5
31D
100
AcDbEntity
  8
0
100
AcDbLine
 62
4
  6
CONTINUOUS
 10
10.9024784647
 20
8.8158313405
 11
10.9604340177
 21
8.8118121093
  0
LINE
  5
31E
100
AcDbEntity
  8
0
100
AcDbLine
 62
4
  6
CONTINUOUS
 10
11.2695303005
 20
8.7903762093
 11
11.3274858535
 21
8.786356978
  0
LINE
  5
31F
100
AcDbEntity
  8
0
100
AcDbLine
 62
4
  6
CONTINUOUS
 10
11.3661228888
 20
8.7836774905
 11
11.4240784418
 21
8.7796582593
  0
LINE
  5
320
100
AcDbEntity
  8
0
100
AcDbLine
 62
4
  6
CONTINUOUS
 10
11.223648821
 20
8.8225358772
 11
11.2381377092
 21
8.8215310694
  0
LINE
  5
321
100
AcDbEntity
  8
0
100
AcDbLine
 62
4
  6
CONTINUOUS
 10
10.3142296017
 20
8.9145820908
 11
10.2562740486
 21
8.918601322
  0
LINE
  5
322
100
AcDbEntity
  8
0
100
AcDbLine
 62
4
  6
CONTINUOUS
 10
10.4301407077
 20
8.9065436283
 11
10.4880962607
 21
8.902524397
  0
LINE
  5
323
100
AcDbEntity
  8
0
100
AcDbLine
 62
4
  6
CONTINUOUS
 10
12.0949140025
 20
8.7910912608
 11
12.1094028904
 21
8.790086453
  0
LINE
  5
324
100
AcDbEntity
  8
0
100
AcDbLine
 62
4
  6
CONTINUOUS
 10
12.1383806662
 20
7.4454398089
 11
12.1456251102
 21
7.4352781418
  0
LINE
  5
325
100
AcDbEntity
  8
0
100
AcDbLine
 62
4
  6
CONTINUOUS
 10
12.0731806706
 20
8.773279953
 11
12.0804251145
 21
8.7824368123
  0
LINE
  5
326
100
AcDbEntity
  8
0
100
AcDbLine
 62
4
  6
CONTINUOUS
 10
12.0949140025
 20
8.7234764493
 11
12.0804251145
 21
8.705162741
  0
LINE
  5
327
100
AcDbEntity
  8
0
100
AcDbLine
 62
4
  6
CONTINUOUS
 10
12.1311362223
 20
8.7499422092
 11
12.1238917783
 21
8.7407853498
  0
LINE
  5
328
100
AcDbEntity
  8
0
100
AcDbLine
 62
4
  6
CONTINUOUS
 10
12.0804251145
 20
7.3721849688
 11
12.0731806706
 21
7.4016651486
  0
LINE
  5
329
100
AcDbEntity
  8
0
100
AcDbLine
 62
7
  6
CONTINUOUS
 10
11.911097708
 20
6.4625012007
 11
11.911097708
 21
6.0780977594
  0
LINE
  5
32A
100
AcDbEntity
  8
0
100
AcDbLine
 62
7
  6
CONTINUOUS
 10
11.9505704684
 20
6.472717499
 11
11.9505704684
 21
6.0883140577
  0
LINE
  5
32B
100
AcDbEntity
  8
0
100
AcDbLine
 62
4
  6
CONTINUOUS
 10
12.0804251145
 20
8.705162741
 11
12.0731806706
 21
8.6766873691
  0
LINE
  5
32C
100
AcDbEntity
  8
0
100
AcDbLine
 62
4
  6
CONTINUOUS
 10
12.1094028904
 20
8.790086453
 11
12.1238917783
 21
8.7794223889
  0
LINE
  5
32D
100
AcDbEntity
  8
0
100
AcDbLine
 62
7
  6
CONTINUOUS
 10
12.101990158
 20
6.5593116841
 11
12.101990158
 21
6.2345742551
  0
LINE
  5
32E
100
AcDbEntity
  8
0
100
AcDbLine
 62
4
  6
CONTINUOUS
 10
12.1311362223
 20
10.0925790717
 11
12.1311362223
 21
10.0829198154
  0
LINE
  5
32F
100
AcDbEntity
  8
0
100
AcDbLine
 62
4
  6
CONTINUOUS
 10
12.1311362223
 20
8.7692607218
 11
12.1311362223
 21
8.7499422092
  0
LINE
  5
330
100
AcDbEntity
  8
0
100
AcDbLine
 62
4
  6
CONTINUOUS
 10
12.1383806662
 20
10.0341211195
 11
12.1383806662
 21
10.0244618598
  0
LINE
  5
331
100
AcDbEntity
  8
0
100
AcDbLine
 62
4
  6
CONTINUOUS
 10
12.1456251102
 20
7.3966411096
 11
12.1456251102
 21
7.3580040757
  0
LINE
  5
332
100
AcDbEntity
  8
0
100
AcDbLine
 62
4
  6
CONTINUOUS
 10
12.1238917783
 20
8.7794223889
 11
12.1311362223
 21
8.7692607218
  0
LINE
  5
333
100
AcDbEntity
  8
0
100
AcDbLine
 62
7
  6
CONTINUOUS
 10
12.2547747017
 20
6.5487160401
 11
12.2547747017
 21
10.4124195742
  0
LINE
  5
334
100
AcDbEntity
  8
0
100
AcDbLine
 62
4
  6
CONTINUOUS
 10
12.0731806706
 20
7.4016651486
 11
12.0804251145
 21
7.4301405205
  0
LINE
  5
335
100
AcDbEntity
  8
0
100
AcDbLine
 62
4
  6
CONTINUOUS
 10
12.0804251145
 20
7.4301405205
 11
12.0949140025
 21
7.4484542323
  0
LINE
  5
336
100
AcDbEntity
  8
0
100
AcDbLine
 62
4
  6
CONTINUOUS
 10
12.1456251102
 20
7.3580040757
 11
12.1383806662
 21
7.3488472207
  0
LINE
  5
337
100
AcDbEntity
  8
0
100
AcDbLine
 62
7
  6
CONTINUOUS
 10
12.4488888253
 20
7.7910069387
 11
12.4495736301
 21
7.7916562281
  0
LINE
  5
338
100
AcDbEntity
  8
0
100
AcDbLine
 62
4
  6
CONTINUOUS
 10
12.0949140025
 20
7.4484542323
 11
12.1094028904
 21
7.4571086808
  0
LINE
  5
339
100
AcDbEntity
  8
0
100
AcDbLine
 62
4
  6
CONTINUOUS
 10
12.1383806662
 20
7.3488472207
 11
12.1238917783
 21
7.3401927696
  0
LINE
  5
33A
100
AcDbEntity
  8
0
100
AcDbLine
 62
4
  6
CONTINUOUS
 10
12.1094028904
 20
9.9974936995
 11
12.0949140025
 21
9.9984985073
  0
LINE
  5
33B
100
AcDbEntity
  8
0
100
AcDbLine
 62
7
  6
CONTINUOUS
 10
12.6430029489
 20
6.9237157528
 11
12.6430029489
 21
10.7874192869
  0
LINE
  5
33C
100
AcDbEntity
  8
0
100
AcDbLine
 62
4
  6
CONTINUOUS
 10
12.0949140025
 20
10.0661133153
 11
12.1094028904
 21
10.0651085075
  0
LINE
  5
33D
100
AcDbEntity
  8
0
100
AcDbLine
 62
4
  6
CONTINUOUS
 10
12.0949140025
 20
10.1144096107
 11
12.1094028904
 21
10.1134048029
  0
LINE
  5
33E
100
AcDbEntity
  8
0
100
AcDbLine
 62
4
  6
CONTINUOUS
 10
12.0804251145
 20
10.009162574
 11
12.0731806706
 21
10.0193242368
  0
LINE
  5
33F
100
AcDbEntity
  8
0
100
AcDbLine
 62
7
  6
CONTINUOUS
 10
9.3569970511
 20
10.6133811368
 11
12.2547747017
 21
10.4124195742
  0
LINE
  5
340
100
AcDbEntity
  8
0
100
AcDbLine
 62
4
  6
CONTINUOUS
 10
12.0949140025
 20
9.9984985073
 11
12.0804251145
 21
10.009162574
  0
LINE
  5
341
100
AcDbEntity
  8
0
100
AcDbLine
 62
4
  6
CONTINUOUS
 10
12.1094028904
 20
10.0651085075
 11
12.1238917783
 21
10.0544444434
  0
LINE
  5
342
100
AcDbEntity
  8
0
100
AcDbLine
 62
4
  6
CONTINUOUS
 10
12.1094028904
 20
10.1134048029
 11
12.1238917783
 21
10.1027407388
  0
LINE
  5
343
100
AcDbEntity
  8
0
100
AcDbLine
 62
4
  6
CONTINUOUS
 10
12.1238917783
 20
10.0544444434
 11
12.1383806662
 21
10.0341211195
  0
LINE
  5
344
100
AcDbEntity
  8
0
100
AcDbLine
 62
4
  6
CONTINUOUS
 10
12.1238917783
 20
10.1027407388
 11
12.1311362223
 21
10.0925790717
  0
LINE
  5
345
100
AcDbEntity
  8
0
100
AcDbLine
 62
7
  6
CONTINUOUS
 10
12.3908879746
 20
10.5438949075
 11
12.3599783456
 21
10.5460384976
  0
LINE
  5
346
100
AcDbEntity
  8
0
100
AcDbLine
 62
7
  6
CONTINUOUS
 10
12.2547747017
 20
6.5487160401
 11
12.6430029489
 21
6.9237157528
  0
LINE
  5
347
100
AcDbEntity
  8
0
100
AcDbLine
 62
7
  6
CONTINUOUS
 10
12.506889676
 20
10.6559439535
 11
12.475980047
 21
10.6580875436
  0
LINE
  5
348
100
AcDbEntity
  8
0
100
AcDbLine
 62
7
  6
CONTINUOUS
 10
12.6430029489
 20
10.7874192869
 11
9.7452252983
 21
10.9883808495
  0
LINE
  5
349
100
AcDbEntity
  8
0
100
AcDbLine
 62
7
  6
CONTINUOUS
 10
11.993789989
 20
6.097894546
 11
11.9745720521
 21
6.0884012532
  0
ARC
  5
34A
100
AcDbEntity
  8
0
100
AcDbCircle
 62
7
  6
CONTINUOUS
 10
11.4754098701
 20
8.2993310748
 40
2.2641254892
100
AcDbArc
 50
266.0354973614
 51
266.723157899
  0
ARC
  5
34B
100
AcDbEntity
  8
0
100
AcDbCircle
 62
7
  6
CONTINUOUS
 10
11.4746962744
 20
8.6724571688
 40
2.2528257918
100
AcDbArc
 50
266.0337727607
 51
266.7248824998
  0
ARC
  5
34C
100
AcDbEntity
  8
0
100
AcDbCircle
 62
7
  6
CONTINUOUS
 10
11.4704807006
 20
8.2273175207
 40
2.1919434639
100
AcDbArc
 50
265.3313245689
 51
266.0338890315
  0
ARC
  5
34D
100
AcDbEntity
  8
0
100
AcDbCircle
 62
7
  6
CONTINUOUS
 10
11.4704807006
 20
8.6117209619
 40
2.1919434638
100
AcDbArc
 50
265.3313245689
 51
266.0338890315
  0
ARC
  5
34E
100
AcDbEntity
  8
0
100
AcDbCircle
 62
7
  6
CONTINUOUS
 10
11.6918982701
 20
7.3907868136
 40
0.9538147475
100
AcDbArc
 50
283.286087793
 51
285.7355389587
  0
ARC
  5
34F
100
AcDbEntity
  8
0
100
AcDbCircle
 62
7
  6
CONTINUOUS
 10
11.6918982701
 20
7.0063833723
 40
0.9538147475
100
AcDbArc
 50
283.286087793
 51
285.7355389587
  0
ARC
  5
350
100
AcDbEntity
  8
0
100
AcDbCircle
 62
7
  6
CONTINUOUS
 10
11.292960393
 20
6.7743166515
 40
0.7485539414
100
AcDbArc
 50
243.6649403382
 51
246.2656701867
  0
SPLINE
  5
351
100
AcDbEntity
  8
0
100
AcDbSpline
 62
7
  6
CONTINUOUS
 70
0
 71
3
 72
23
 73
19
 74
0
 42
0.0000001
 43
0.0000001
 44
0.0000000001
 40
0.0
 40
0.0
 40
0.0
 40
0.0
 40
0.0771587943
 40
0.1531525983
 40
0.2277645257
 40
0.3008156151
 40
0.3721376111
 40
0.441561383
 40
0.5089207464
 40
0.5740613042
 40
0.63683572
 40
0.6971076841
 40
0.7547490656
 40
0.8096460692
 40
0.8616960538
 40
0.9108140941
 40
0.9569307292
 40
1.0
 40
1.0
 40
1.0
 40
1.0
 10
11.3393184903
 20
6.0163169224
 30
0.0
 10
11.3301534433
 20
6.0169525206
 30
0.0
 10
11.3119703791
 20
6.018343024
 30
0.0
 10
11.2849623021
 20
6.020806307
 30
0.0
 10
11.258480909
 20
6.0236270473
 30
0.0
 10
11.2325993064
 20
6.0267969039
 30
0.0
 10
11.2073852324
 20
6.0303078549
 30
0.0
 10
11.1829051555
 20
6.0341499564
 30
0.0
 10
11.1592245322
 20
6.0383135597
 30
0.0
 10
11.1364065683
 20
6.0427868066
 30
0.0
 10
11.114511851
 20
6.0475582888
 30
0.0
 10
11.0935984624
 20
6.0526145303
 30
0.0
 10
11.0737219224
 20
6.0579426148
 30
0.0
 10
11.0549348003
 20
6.0635275377
 30
0.0
 10
11.0372867986
 20
6.0693549862
 30
0.0
 10
11.0208240635
 20
6.0754087203
 30
0.0
 10
11.0055902911
 20
6.0816730851
 30
0.0
 10
10.9959476466
 20
6.0861319665
 30
0.0
 10
10.9913499131
 20
6.0884032033
 30
0.0
  0
SPLINE
  5
352
100
AcDbEntity
  8
0
100
AcDbSpline
 62
7
  6
CONTINUOUS
 70
0
 71
3
 72
9
 73
5
 74
0
 42
0.0000001
 43
0.0000001
 44
0.0000000001
 40
0.0
 40
0.0
 40
0.0
 40
0.0
 40
0.5197971894
 40
1.0
 40
1.0
 40
1.0
 40
1.0
 10
10.8783837737
 20
6.149716714
 30
0.0
 10
10.8756894377
 20
6.1519252854
 30
0.0
 10
10.8706559681
 20
6.1563625082
 30
0.0
 10
10.8660271484
 20
6.1612260979
 30
0.0
 10
10.8639357255
 20
6.163672433
 30
0.0
  0
SPLINE
  5
353
100
AcDbEntity
  8
0
100
AcDbSpline
 62
7
  6
CONTINUOUS
 70
0
 71
3
 72
23
 73
19
 74
0
 42
0.0000001
 43
0.0000001
 44
0.0000000001
 40
0.0
 40
0.0
 40
0.0
 40
0.0
 40
0.0811307684
 40
0.1602256514
 40
0.2371394166
 40
0.3117306989
 40
0.3838655188
 40
0.453421346
 40
0.5202899008
 40
0.5843906942
 40
0.6456690168
 40
0.7041129182
 40
0.7597463028
 40
0.812646452
 40
0.862931511
 40
0.9107732172
 40
0.9563797285
 40
1.0
 40
1.0
 40
1.0
 40
1.0
 10
12.101990158
 20
6.2345742551
 30
0.0
 10
12.0998126287
 20
6.2303061194
 30
0.0
 10
12.0954535153
 20
6.2219066968
 30
0.0
 10
12.0888060296
 20
6.2095788498
 30
0.0
 10
12.0821293873
 20
6.1977077599
 30
0.0
 10
12.0754246772
 20
6.1863268997
 30
0.0
 10
12.068692797
 20
6.1754699396
 30
0.0
 10
12.061936137
 20
6.1651693863
 30
0.0
 10
12.0551562937
 20
6.155457
 30
0.0
 10
12.0483571322
 20
6.1463610906
 30
0.0
 10
12.041540895
 20
6.1379076856
 30
0.0
 10
12.0347126429
 20
6.1301168719
 30
0.0
 10
12.0278751094
 20
6.1230052988
 30
0.0
 10
12.0210340182
 20
6.1165816481
 30
0.0
 10
12.0141924756
 20
6.1108507168
 30
0.0
 10
12.0073560938
 20
6.1058084321
 30
0.0
 10
12.0005288115
 20
6.1014473825
 30
0.0
 10
11.9958916924
 20
6.0989322881
 30
0.0
 10
11.9935817591
 20
6.0977917207
 30
0.0
  0
SPLINE
  5
354
100
AcDbEntity
  8
0
100
AcDbSpline
 62
7
  6
CONTINUOUS
 70
0
 71
3
 72
15
 73
11
 74
0
 42
0.0000001
 43
0.0000001
 44
0.0000000001
 40
0.0
 40
0.0
 40
0.0
 40
0.0
 40
0.1401561244
 40
0.2765170404
 40
0.4087947051
 40
0.5367100159
 40
0.6600018539
 40
0.7784345672
 40
0.8918125114
 40
1.0
 40
1.0
 40
1.0
 40
1.0
 10
10.8639357255
 20
6.5480758744
 30
0.0
 10
10.8662690707
 20
6.552649422
 30
0.0
 10
10.8709398929
 20
6.5616385828
 30
0.0
 10
10.8780714198
 20
6.5748078846
 30
0.0
 10
10.8852362255
 20
6.5874463754
 30
0.0
 10
10.892433044
 20
6.5995127395
 30
0.0
 10
10.8996604063
 20
6.6109657083
 30
0.0
 10
10.9069155547
 20
6.6217656868
 30
0.0
 10
10.9141957214
 20
6.6318745847
 30
0.0
 10
10.9191810578
 20
6.6382830241
 30
0.0
 10
10.9216815123
 20
6.6413579509
 30
0.0
  0
SPLINE
  5
355
100
AcDbEntity
  8
0
100
AcDbSpline
 62
7
  6
CONTINUOUS
 70
0
 71
3
 72
9
 73
5
 74
0
 42
0.0000001
 43
0.0000001
 44
0.0000000001
 40
0.0
 40
0.0
 40
0.0
 40
0.0
 40
0.4956217049
 40
1.0
 40
1.0
 40
1.0
 40
1.0
 10
10.9608871377
 20
6.1034512727
 30
0.0
 10
10.9468730274
 20
6.1103761015
 30
0.0
 10
10.9190002855
 20
6.1251732639
 30
0.0
 10
10.8918874988
 20
6.1413078812
 30
0.0
 10
10.8783837737
 20
6.149716714
 30
0.0
  0
SPLINE
  5
356
100
AcDbEntity
  8
0
100
AcDbSpline
 62
7
  6
CONTINUOUS
 70
0
 71
3
 72
29
 73
25
 74
0
 42
0.0000001
 43
0.0000001
 44
0.0000000001
 40
0.0
 40
0.0
 40
0.0
 40
0.0
 40
0.0193646742
 40
0.0398580369
 40
0.0614684275
 40
0.0841775651
 40
0.1079628328
 40
0.1327976805
 40
0.1586509133
 40
0.1854891319
 40
0.2132749098
 40
0.2419685558
 40
0.271528042
 40
0.3019083628
 40
0.3649423952
 40
0.4306770921
 40
0.4986914915
 40
0.5685439808
 40
0.6397765617
 40
0.7119190669
 40
0.7844942972
 40
0.8570174477
 40
0.929015682
 40
1.0
 40
1.0
 40
1.0
 40
1.0
 10
11.9745754488
 20
6.0884029456
 30
0.0
 10
11.9708443525
 20
6.0865598284
 30
0.0
 10
11.9630847927
 20
6.0829264406
 30
0.0
 10
11.9509252141
 20
6.0777589118
 30
0.0
 10
11.9379345904
 20
6.0727282813
 30
0.0
 10
11.9241360877
 20
6.0678431498
 30
0.0
 10
11.909553845
 20
6.0631122865
 30
0.0
 10
11.8942135745
 20
6.058544395
 30
0.0
 10
11.878142442
 20
6.054147143
 30
0.0
 10
11.8613688304
 20
6.0499289479
 30
0.0
 10
11.8439225163
 20
6.0458969411
 30
0.0
 10
11.8258344326
 20
6.0420584859
 30
0.0
 10
11.8071366512
 20
6.038420557
 30
0.0
 10
11.7811174125
 20
6.0337888281
 30
0.0
 10
11.7473110516
 20
6.028570222
 30
0.0
 10
11.7053502098
 20
6.0232731699
 30
0.0
 10
11.6618097525
 20
6.0189057578
 30
0.0
 10
11.6169989874
 20
6.0154994492
 30
0.0
 10
11.5712359857
 20
6.0130789433
 30
0.0
 10
11.5248456802
 20
6.011661698
 30
0.0
 10
11.4781582153
 20
6.0112580713
 30
0.0
 10
11.4315039497
 20
6.0118705683
 30
0.0
 10
11.3852162468
 20
6.0134953731
 30
0.0
 10
11.3545366187
 20
6.0152615416
 30
0.0
 10
11.3393184903
 20
6.0163169224
 30
0.0
  0
SPLINE
  5
357
100
AcDbEntity
  8
0
100
AcDbSpline
 62
7
  6
CONTINUOUS
 70
0
 71
3
 72
9
 73
5
 74
0
 42
0.0000001
 43
0.0000001
 44
0.0000000001
 40
0.0
 40
0.0
 40
0.0
 40
0.0
 40
0.5197971894
 40
1.0
 40
1.0
 40
1.0
 40
1.0
 10
10.8783837737
 20
6.5341201553
 30
0.0
 10
10.8756894377
 20
6.5363287268
 30
0.0
 10
10.8706559681
 20
6.5407659495
 30
0.0
 10
10.8660271484
 20
6.5456295393
 30
0.0
 10
10.8639357255
 20
6.5480758744
 30
0.0
  0
SPLINE
  5
358
100
AcDbEntity
  8
0
100
AcDbSpline
 62
7
  6
CONTINUOUS
 70
0
 71
3
 72
37
 73
33
 74
0
 42
0.0000001
 43
0.0000001
 44
0.0000000001
 40
0.0
 40
0.0
 40
0.0
 40
0.0
 40
0.0958277446
 40
0.1891043955
 40
0.2792420323
 40
0.3657121223
 40
0.4074106414
 40
0.4480037085
 40
0.4874335096
 40
0.5256460838
 40
0.5625900386
 40
0.5982169681
 40
0.6324836442
 40
0.6653495153
 40
0.6967797837
 40
0.7267448195
 40
0.7552199113
 40
0.7821888831
 40
0.8076419355
 40
0.8315793527
 40
0.8540130412
 40
0.8749670977
 40
0.8944840597
 40
0.9126258681
 40
0.9294802521
 40
0.9451669242
 40
0.9598415307
 40
0.9737025679
 40
0.9804061117
 40
0.9869995914
 40
0.9935185798
 40
1.0
 40
1.0
 40
1.0
 40
1.0
 10
11.3437184104
 20
6.502563935
 30
0.0
 10
11.3297063336
 20
6.5035356759
 30
0.0
 10
11.3020754347
 20
6.5057616116
 30
0.0
 10
11.2613633426
 20
6.5100100719
 30
0.0
 10
11.2221304001
 20
6.5151019964
 30
0.0
 10
11.1905168883
 20
6.520076431
 30
0.0
 10
11.1661735605
 20
6.5244703374
 30
0.0
 10
11.1486671394
 20
6.5279135704
 30
0.0
 10
11.1317196552
 20
6.5315389762
 30
0.0
 10
11.1153593145
 20
6.5353402672
 30
0.0
 10
11.0996134096
 20
6.5393109929
 30
0.0
 10
11.084508248
 20
6.5434448239
 30
0.0
 10
11.0700689135
 20
6.547734317
 30
0.0
 10
11.0563194631
 20
6.5521726805
 30
0.0
 10
11.0432826948
 20
6.5567523235
 30
0.0
 10
11.0309801199
 20
6.5614653561
 30
0.0
 10
11.0194321745
 20
6.5663044357
 30
0.0
 10
11.0086576522
 20
6.5712609458
 30
0.0
 10
10.9986742298
 20
6.5763271119
 30
0.0
 10
10.9894981169
 20
6.5814947379
 30
0.0
 10
10.981143795
 20
6.5867551769
 30
0.0
 10
10.9736248952
 20
6.5921010643
 30
0.0
 10
10.9669529118
 20
6.5975239627
 30
0.0
 10
10.9611385265
 20
6.6030168522
 30
0.0
 10
10.9561916984
 20
6.6085731387
 30
0.0
 10
10.9521210011
 20
6.6141864632
 30
0.0
 10
10.9489371618
 20
6.6198504827
 30
0.0
 10
10.9470099685
 20
6.6246622945
 30
0.0
 10
10.9459435423
 20
6.6285007206
 30
0.0
 10
10.9453779915
 20
6.6313526197
 30
0.0
 10
10.9450386317
 20
6.634207209
 30
0.0
 10
10.944963117
 20
6.6361135668
 30
0.0
 10
10.9449631099
 20
6.6370635661
 30
0.0
  0
SPLINE
  5
359
100
AcDbEntity
  8
0
100
AcDbSpline
 62
7
  6
CONTINUOUS
 70
0
 71
3
 72
28
 73
24
 74
0
 42
0.0000001
 43
0.0000001
 44
0.0000000001
 40
0.0
 40
0.0
 40
0.0
 40
0.0
 40
0.0704896704
 40
0.1419775873
 40
0.2139934931
 40
0.2860849373
 40
0.3577866651
 40
0.4286406128
 40
0.4981951423
 40
0.5660094464
 40
0.6316577212
 40
0.6947330343
 40
0.7548517832
 40
0.7836912796
 40
0.8116607125
 40
0.8387214409
 40
0.8648362812
 40
0.8899716779
 40
0.9140967308
 40
0.9371834886
 40
0.959208764
 40
0.9801523993
 40
1.0
 40
1.0
 40
1.0
 40
1.0
 10
11.3437184104
 20
6.502563935
 30
0.0
 10
11.3582118258
 20
6.5015588133
 30
0.0
 10
11.3874282206
 20
6.4998708859
 30
0.0
 10
11.4315084455
 20
6.4982978882
 30
0.0
 10
11.4759426252
 20
6.4976723198
 30
0.0
 10
11.5204240057
 20
6.4979979376
 30
0.0
 10
11.564648795
 20
6.4992728863
 30
0.0
 10
11.6083130457
 20
6.5014881648
 30
0.0
 10
11.6511174238
 20
6.5046283039
 30
0.0
 10
11.6927684144
 20
6.5086713929
 30
0.0
 10
11.7329806772
 20
6.5135891782
 30
0.0
 10
11.7714784739
 20
6.5193474295
 30
0.0
 10
11.8023253931
 20
6.5248866211
 30
0.0
 10
11.8259339438
 20
6.5297302414
 30
0.0
 10
11.8428054843
 20
6.533496655
 30
0.0
 10
11.8590593006
 20
6.5374400463
 30
0.0
 10
11.8746675565
 20
6.5415541202
 30
0.0
 10
11.8896035729
 20
6.545831496
 30
0.0
 10
11.9038418655
 20
6.5502647327
 30
0.0
 10
11.9173580537
 20
6.5548465608
 30
0.0
 10
11.9301293231
 20
6.5595685673
 30
0.0
 10
11.9421336785
 20
6.5644230456
 30
0.0
 10
11.9498200232
 20
6.5678344022
 30
0.0
 10
11.9535264648
 20
6.569565276
 30
0.0
  0
SPLINE
  5
35A
100
AcDbEntity
  8
0
100
AcDbSpline
 62
7
  6
CONTINUOUS
 70
0
 71
3
 72
15
 73
11
 74
0
 42
0.0000001
 43
0.0000001
 44
0.0000000001
 40
0.0
 40
0.0
 40
0.0
 40
0.0
 40
0.1081874876
 40
0.2215654312
 40
0.3399981441
 40
0.463289982
 40
0.591205293
 40
0.7234829581
 40
0.8598438747
 40
1.0
 40
1.0
 40
1.0
 40
1.0
 10
12.0083162577
 20
6.5659995786
 30
0.0
 10
12.0058158031
 20
6.5629246517
 30
0.0
 10
12.0008304664
 20
6.5565162122
 30
0.0
 10
11.9935502994
 20
6.5464073141
 30
0.0
 10
11.9862951508
 20
6.5356073352
 30
0.0
 10
11.9790677882
 20
6.5241543661
 30
0.0
 10
11.9718709694
 20
6.5120880015
 30
0.0
 10
11.9647061633
 20
6.4994495103
 30
0.0
 10
11.9575746362
 20
6.486280208
 30
0.0
 10
11.9529038138
 20
6.4772910468
 30
0.0
 10
11.9505704684
 20
6.472717499
 30
0.0
  0
SPLINE
  5
35B
100
AcDbEntity
  8
0
100
AcDbSpline
 62
7
  6
CONTINUOUS
 70
0
 71
3
 72
21
 73
17
 74
0
 42
0.0000001
 43
0.0000001
 44
0.0000000001
 40
0.0
 40
0.0
 40
0.0
 40
0.0
 40
0.1269266306
 40
0.1902356571
 40
0.2534226618
 40
0.3164750211
 40
0.379381614
 40
0.442133702
 40
0.5047247465
 40
0.5671521045
 40
0.6294167402
 40
0.6915228504
 40
0.7534784743
 40
0.8152934295
 40
0.8769787052
 40
1.0
 40
1.0
 40
1.0
 40
1.0
 10
11.911097708
 20
6.0780977594
 30
0.0
 10
11.888090125
 20
6.0703733443
 30
0.0
 10
11.8533297195
 20
6.059585546
 30
0.0
 10
11.8064857988
 20
6.0471659885
 30
0.0
 10
11.7711816123
 20
6.0389402948
 30
0.0
 10
11.7357034769
 20
6.0318825766
 30
0.0
 10
11.7000838678
 20
6.0260683308
 30
0.0
 10
11.6643639321
 20
6.0215593761
 30
0.0
 10
11.6285914101
 20
6.0183960861
 30
0.0
 10
11.5928177927
 20
6.0165940832
 30
0.0
 10
11.5570945854
 20
6.0161451839
 30
0.0
 10
11.5214698686
 20
6.0170159162
 30
0.0
 10
11.48598543
 20
6.0191503198
 30
0.0
 10
11.4506741255
 20
6.0224775297
 30
0.0
 10
11.4039029161
 20
6.0283876717
 30
0.0
 10
11.3690704787
 20
6.0343600741
 30
0.0
 10
11.3459913004
 20
6.0389074276
 30
0.0
  0
SPLINE
  5
35C
100
AcDbEntity
  8
0
100
AcDbSpline
 62
7
  6
CONTINUOUS
 70
0
 71
3
 72
21
 73
17
 74
0
 42
0.0000001
 43
0.0000001
 44
0.0000000001
 40
0.0
 40
0.0
 40
0.0
 40
0.0
 40
0.1230212948
 40
0.1847065705
 40
0.2465215258
 40
0.3084771496
 40
0.3705832599
 40
0.4328478955
 40
0.4952752535
 40
0.5578662981
 40
0.6206183861
 40
0.683524979
 40
0.7465773382
 40
0.8097643429
 40
0.8730733694
 40
1.0
 40
1.0
 40
1.0
 40
1.0
 10
11.911097708
 20
6.4625012007
 30
0.0
 10
11.8880185297
 20
6.4670485543
 30
0.0
 10
11.8531860922
 20
6.4730209566
 30
0.0
 10
11.8064148828
 20
6.4789310986
 30
0.0
 10
11.7711035784
 20
6.4822583086
 30
0.0
 10
11.7356191398
 20
6.4843927121
 30
0.0
 10
11.699994423
 20
6.4852634444
 30
0.0
 10
11.6642712157
 20
6.4848145451
 30
0.0
 10
11.6284975982
 20
6.4830125423
 30
0.0
 10
11.5927250763
 20
6.4798492522
 30
0.0
 10
11.5570051406
 20
6.4753402976
 30
0.0
 10
11.5213855314
 20
6.4695260517
 30
0.0
 10
11.4859073961
 20
6.4624683336
 30
0.0
 10
11.4506032095
 20
6.4542426398
 30
0.0
 10
11.4037592889
 20
6.4418230824
 30
0.0
 10
11.3689988834
 20
6.4310352841
 30
0.0
 10
11.3459913004
 20
6.4233108689
 30
0.0
  0
SPLINE
  5
35D
100
AcDbEntity
  8
0
100
AcDbSpline
 62
7
  6
CONTINUOUS
 70
0
 71
3
 72
15
 73
11
 74
0
 42
0.0000001
 43
0.0000001
 44
0.0000000001
 40
0.0
 40
0.0
 40
0.0
 40
0.0
 40
0.1200350229
 40
0.2408049341
 40
0.3626322888
 40
0.4858903489
 40
0.6109646446
 40
0.7381990118
 40
0.8678398
 40
1.0
 40
1.0
 40
1.0
 40
1.0
 10
11.2920704918
 20
6.0426468484
 30
0.0
 10
11.2798608402
 20
6.0413640139
 30
0.0
 10
11.2552964001
 20
6.0394046606
 30
0.0
 10
11.2181955322
 20
6.0385578096
 30
0.0
 10
11.1807799186
 20
6.0400644962
 30
0.0
 10
11.1431125009
 20
6.0441643257
 30
0.0
 10
11.1052860934
 20
6.0510328333
 30
0.0
 10
11.0674152922
 20
6.0607501286
 30
0.0
 10
11.0296211977
 20
6.0732835737
 30
0.0
 10
11.0047804133
 20
6.0833305692
 30
0.0
 10
10.9923992996
 20
6.0887543147
 30
0.0
  0
LINE
  5
35E
100
AcDbEntity
  8
0
100
AcDbLine
 62
7
  6
CONTINUOUS
 10
10.9923992996
 20
6.0887543147
 11
10.9916701709
 21
6.0890742087
  0
SPLINE
  5
35F
100
AcDbEntity
  8
0
100
AcDbSpline
 62
7
  6
CONTINUOUS
 70
0
 71
3
 72
23
 73
19
 74
0
 42
0.0000001
 43
0.0000001
 44
0.0000000001
 40
0.0
 40
0.0
 40
0.0
 40
0.0
 40
0.0679978465
 40
0.1353018504
 40
0.2018553923
 40
0.2676132131
 40
0.3325394779
 40
0.3966150916
 40
0.459841178
 40
0.5222411892
 40
0.583861798
 40
0.6447689915
 40
0.7050433319
 40
0.7647745441
 40
0.8240532081
 40
0.8829657177
 40
0.9415926184
 40
1.0
 40
1.0
 40
1.0
 40
1.0
 10
11.2920704918
 20
6.4270502897
 30
0.0
 10
11.2836766993
 20
6.4322771435
 30
0.0
 10
11.2668432909
 20
6.4424686058
 30
0.0
 10
11.2413097298
 20
6.4569570698
 30
0.0
 10
11.2156192785
 20
6.4704821213
 30
0.0
 10
11.1897821829
 20
6.4829509958
 30
0.0
 10
11.1638146451
 20
6.4942751159
 30
0.0
 10
11.1377400283
 20
6.5043747388
 30
0.0
 10
11.1115875419
 20
6.5131827958
 30
0.0
 10
11.0853920476
 20
6.5206523899
 30
0.0
 10
11.0591918335
 20
6.5267607821
 30
0.0
 10
11.0330254127
 20
6.5315091512
 30
0.0
 10
11.0069293498
 20
6.5349245413
 30
0.0
 10
10.9809356486
 20
6.5370575648
 30
0.0
 10
10.9550698602
 20
6.5379752411
 30
0.0
 10
10.9293503127
 20
6.5377576164
 30
0.0
 10
10.903789259
 20
6.5364924786
 30
0.0
 10
10.8868308065
 20
6.5350076618
 30
0.0
 10
10.8783837737
 20
6.5341201553
 30
0.0
  0
SPLINE
  5
360
100
AcDbEntity
  8
0
100
AcDbSpline
 62
7
  6
CONTINUOUS
 70
0
 71
3
 72
10
 73
6
 74
0
 42
0.0000001
 43
0.0000001
 44
0.0000000001
 40
0.0
 40
0.0
 40
0.0
 40
0.0
 40
0.5114800979
 40
0.7581744319
 40
1.0
 40
1.0
 40
1.0
 40
1.0
 10
11.9935817591
 20
6.0977917207
 30
0.0
 10
11.9903953157
 20
6.0962183621
 30
0.0
 10
11.9855414235
 20
6.0941345416
 30
0.0
 10
11.9789425038
 20
6.091952236
 30
0.0
 10
11.975662184
 20
6.091071377
 30
0.0
 10
11.9740276619
 20
6.0906823485
 30
0.0
  0
SPLINE
  5
361
100
AcDbEntity
  8
0
100
AcDbSpline
 62
7
  6
CONTINUOUS
 70
0
 71
3
 72
11
 73
7
 74
0
 42
0.0000001
 43
0.0000001
 44
0.0000000001
 40
0.0
 40
0.0
 40
0.0
 40
0.0
 40
0.2545574775
 40
0.5052872671
 40
0.7534080087
 40
1.0
 40
1.0
 40
1.0
 40
1.0
 10
11.9740276619
 20
6.0906823485
 30
0.0
 10
11.9720762329
 20
6.0902178937
 30
0.0
 10
11.9681698081
 20
6.0894283571
 30
0.0
 10
11.9622797852
 20
6.0886500859
 30
0.0
 10
11.9564141427
 20
6.0882665697
 30
0.0
 10
11.9525128653
 20
6.0882592236
 30
0.0
 10
11.9505704684
 20
6.0883140577
 30
0.0
  0
SPLINE
  5
362
100
AcDbEntity
  8
0
100
AcDbSpline
 62
7
  6
CONTINUOUS
 70
0
 71
3
 72
51
 73
47
 74
0
 42
0.0000001
 43
0.0000001
 44
0.0000000001
 40
0.0
 40
0.0
 40
0.0
 40
0.0
 40
0.0481980747
 40
0.0958298526
 40
0.1428199449
 40
0.1890979835
 40
0.2345930892
 40
0.2792367333
 40
0.3229621329
 40
0.3657045403
 40
0.4074014622
 40
0.4479928299
 40
0.4874212467
 40
0.5256322393
 40
0.5625745011
 40
0.5982001867
 40
0.6324652508
 40
0.6653298673
 40
0.6967589097
 40
0.7267224968
 40
0.7551966901
 40
0.7688701393
 40
0.7821654912
 40
0.7950818118
 40
0.8076188304
 40
0.8197768884
 40
0.8315569804
 40
0.8429609602
 40
0.8539914242
 40
0.8646519776
 40
0.8749472487
 40
0.8848829696
 40
0.8944662496
 40
0.9037055338
 40
0.9126109204
 40
0.9211942686
 40
0.9294693404
 40
0.937452123
 40
0.9451608562
 40
0.9598349789
 40
0.9668568053
 40
0.9737036628
 40
0.9804068766
 40
0.9870000912
 40
0.9935188408
 40
1.0
 40
1.0
 40
1.0
 40
1.0
 10
10.3469930859
 20
10.5696439314
 30
0.0
 10
10.3383862792
 20
10.5702408155
 30
0.0
 10
10.3212802845
 20
10.5715236506
 30
0.0
 10
10.2958102253
 20
10.5737294313
 30
0.0
 10
10.2707100204
 20
10.5762027123
 30
0.0
 10
10.2460219055
 20
10.5789392665
 30
0.0
 10
10.221786964
 20
10.5819345478
 30
0.0
 10
10.1980457883
 20
10.5851835067
 30
0.0
 10
10.1748380401
 20
10.5886806835
 30
0.0
 10
10.152202503
 20
10.5924201991
 30
0.0
 10
10.1301769985
 20
10.596395766
 30
0.0
 10
10.108798319
 20
10.6006007038
 30
0.0
 10
10.0881021626
 20
10.6050279439
 30
0.0
 10
10.0681230662
 20
10.6096700355
 30
0.0
 10
10.048894349
 20
10.6145191706
 30
0.0
 10
10.030448059
 20
10.6195671948
 30
0.0
 10
10.0128149055
 20
10.6248056263
 30
0.0
 10
9.9960242169
 20
10.6302256656
 30
0.0
 10
9.9801037998
 20
10.6358182165
 30
0.0
 10
9.9650801701
 20
10.6415739038
 30
0.0
 10
9.9531727409
 20
10.6465633253
 30
0.0
 10
9.9441224986
 20
10.6506369481
 30
0.0
 10
9.9376662143
 20
10.6536856119
 30
0.0
 10
9.9314521128
 20
10.6567677848
 30
0.0
 10
9.9254827579
 20
10.6598821879
 30
0.0
 10
9.919760623
 20
10.6630275158
 30
0.0
 10
9.9142880941
 20
10.6662025055
 30
0.0
 10
9.9090674124
 20
10.6694057972
 30
0.0
 10
9.904100755
 20
10.6726361204
 30
0.0
 10
9.8993901625
 20
10.6758921346
 30
0.0
 10
9.8949375674
 20
10.6791725042
 30
0.0
 10
9.8907448329
 20
10.6824759488
 30
0.0
 10
9.886813652
 20
10.6858010916
 30
0.0
 10
9.8831456796
 20
10.6891466626
 30
0.0
 10
9.8797424346
 20
10.6925113244
 30
0.0
 10
9.8766053107
 20
10.6958937832
 30
0.0
 10
9.8737357481
 20
10.6992926861
 30
0.0
 10
9.8711347479
 20
10.7027070404
 30
0.0
 10
9.8680774248
 20
10.7072031755
 30
0.0
 10
9.8654907557
 20
10.7118055393
 30
0.0
 10
9.8634414085
 20
10.7164892753
 30
0.0
 10
9.8622005127
 20
10.719959659
 30
0.0
 10
9.8612344812
 20
10.7234368607
 30
0.0
 10
9.8605439083
 20
10.726919484
 30
0.0
 10
9.8601293033
 20
10.7304054887
 30
0.0
 10
9.8600370717
 20
10.7327335181
 30
0.0
 10
9.8600370696
 20
10.7338936487
 30
0.0
  0
SPLINE
  5
363
100
AcDbEntity
  8
0
100
AcDbSpline
 62
7
  6
CONTINUOUS
 70
0
 71
3
 72
41
 73
37
 74
0
 42
0.0000001
 43
0.0000001
 44
0.0000000001
 40
0.0
 40
0.0
 40
0.0
 40
0.0
 40
0.0311444983
 40
0.062442467
 40
0.093887251
 40
0.1254695609
 40
0.157177086
 40
0.1889950997
 40
0.2209066479
 40
0.2528929497
 40
0.284933762
 40
0.3170077852
 40
0.3490930781
 40
0.3811674822
 40
0.4132090489
 40
0.445196464
 40
0.4771094635
 40
0.5089292351
 40
0.540638799
 40
0.5722233621
 40
0.6036706378
 40
0.6349711269
 40
0.6661183495
 40
0.6971090237
 40
0.7279431823
 40
0.7586242225
 40
0.7891588828
 40
0.8195571428
 40
0.8498320452
 40
0.86493089
 40
0.8800050502
 40
0.9100832578
 40
0.9400926753
 40
0.9550812784
 40
0.9700610371
 40
1.0
 40
1.0
 40
1.0
 40
1.0
 10
9.598478522
 20
7.1101248633
 30
0.0
 10
9.6017924695
 20
7.1098950403
 30
0.0
 10
9.6084223375
 20
7.1091916875
 30
0.0
 10
9.6182867544
 20
7.1074199565
 30
0.0
 10
9.6280455289
 20
7.1049382532
 30
0.0
 10
9.6376459225
 20
7.1017599782
 30
0.0
 10
9.6470369573
 20
7.0979021318
 30
0.0
 10
9.6561685322
 20
7.093385366
 30
0.0
 10
9.6649920034
 20
7.0882338119
 30
0.0
 10
9.6734603545
 20
7.0824749777
 30
0.0
 10
9.6815284662
 20
7.0761395912
 30
0.0
 10
9.6891533486
 20
7.0692614418
 30
0.0
 10
9.6962943687
 20
7.0618772
 30
0.0
 10
9.7029134647
 20
7.0540262243
 30
0.0
 10
9.7089753468
 20
7.0457503532
 30
0.0
 10
9.7144476833
 20
7.0370936846
 30
0.0
 10
9.7193012724
 20
7.0281023436
 30
0.0
 10
9.7235101961
 20
7.0188242394
 30
0.0
 10
9.7270519583
 20
7.0093088131
 30
0.0
 10
9.7299076051
 20
6.9996067778
 30
0.0
 10
9.732061826
 20
6.9897698519
 30
0.0
 10
9.7335030379
 20
6.9798504873
 30
0.0
 10
9.7342234484
 20
6.9699015925
 30
0.0
 10
9.7342191025
 20
6.959976257
 30
0.0
 10
9.733489903
 20
6.9501274605
 30
0.0
 10
9.7320396357
 20
6.9404078303
 30
0.0
 10
9.7298758831
 20
6.93086922
 30
0.0
 10
9.7270102591
 20
6.9215629574
 30
0.0
 10
9.7240467091
 20
6.9140347346
 30
0.0
 10
9.7213423258
 20
6.9081803681
 30
0.0
 10
9.7184237537
 20
6.9024533016
 30
0.0
 10
9.7143714944
 20
6.8955261045
 30
0.0
 10
9.7097980341
 20
6.888942425
 30
0.0
 10
9.7058458963
 20
6.8839100158
 30
0.0
 10
9.7017052157
 20
6.879041871
 30
0.0
 10
9.6983878194
 20
6.8755761503
 30
0.0
 10
9.6960910145
 20
6.8733575919
 30
0.0
  0
SPLINE
  5
364
100
AcDbEntity
  8
0
100
AcDbSpline
 62
7
  6
CONTINUOUS
 70
0
 71
3
 72
41
 73
37
 74
0
 42
0.0000001
 43
0.0000001
 44
0.0000000001
 40
0.0
 40
0.0
 40
0.0
 40
0.0
 40
0.0311444983
 40
0.062442467
 40
0.093887251
 40
0.1254695609
 40
0.157177086
 40
0.1889950997
 40
0.2209066479
 40
0.2528929497
 40
0.284933762
 40
0.3170077852
 40
0.3490930781
 40
0.3811674822
 40
0.4132090489
 40
0.445196464
 40
0.4771094635
 40
0.5089292351
 40
0.540638799
 40
0.5722233621
 40
0.6036706378
 40
0.6349711269
 40
0.6661183495
 40
0.6971090237
 40
0.7279431823
 40
0.7586242225
 40
0.7891588828
 40
0.8195571428
 40
0.8498320452
 40
0.86493089
 40
0.8800050502
 40
0.9100832578
 40
0.9400926753
 40
0.9550812784
 40
0.9700610371
 40
1.0
 40
1.0
 40
1.0
 40
1.0
 10
12.0132932308
 20
6.9426568945
 30
0.0
 10
12.0166071783
 20
6.9424270714
 30
0.0
 10
12.0232370463
 20
6.9417237186
 30
0.0
 10
12.0331014632
 20
6.9399519876
 30
0.0
 10
12.0428602377
 20
6.9374702843
 30
0.0
 10
12.0524606313
 20
6.9342920093
 30
0.0
 10
12.0618516661
 20
6.9304341629
 30
0.0
 10
12.070983241
 20
6.9259173971
 30
0.0
 10
12.0798067123
 20
6.9207658431
 30
0.0
 10
12.0882750633
 20
6.9150070088
 30
0.0
 10
12.096343175
 20
6.9086716223
 30
0.0
 10
12.1039680574
 20
6.9017934729
 30
0.0
 10
12.1111090775
 20
6.8944092312
 30
0.0
 10
12.1177281736
 20
6.8865582555
 30
0.0
 10
12.1237900556
 20
6.8782823844
 30
0.0
 10
12.1292623922
 20
6.8696257158
 30
0.0
 10
12.1341159812
 20
6.8606343748
 30
0.0
 10
12.1383249049
 20
6.8513562705
 30
0.0
 10
12.1418666671
 20
6.8418408442
 30
0.0
 10
12.1447223139
 20
6.8321388089
 30
0.0
 10
12.1468765348
 20
6.822301883
 30
0.0
 10
12.1483177467
 20
6.8123825184
 30
0.0
 10
12.1490381572
 20
6.8024336237
 30
0.0
 10
12.1490338113
 20
6.7925082882
 30
0.0
 10
12.1483046118
 20
6.7826594916
 30
0.0
 10
12.1468543446
 20
6.7729398614
 30
0.0
 10
12.1446905919
 20
6.7634012512
 30
0.0
 10
12.1418249679
 20
6.7540949885
 30
0.0
 10
12.1388614179
 20
6.7465667657
 30
0.0
 10
12.1361570346
 20
6.7407123992
 30
0.0
 10
12.1332384625
 20
6.7349853327
 30
0.0
 10
12.1291862032
 20
6.7280581357
 30
0.0
 10
12.1246127429
 20
6.7214744561
 30
0.0
 10
12.1206606051
 20
6.716442047
 30
0.0
 10
12.1165199245
 20
6.7115739022
 30
0.0
 10
12.1132025283
 20
6.7081081815
 30
0.0
 10
12.1109057233
 20
6.7058896231
 30
0.0
  0
SPLINE
  5
365
100
AcDbEntity
  8
0
100
AcDbSpline
 62
7
  6
CONTINUOUS
 70
0
 71
3
 72
20
 73
16
 74
0
 42
0.0000001
 43
0.0000001
 44
0.0000000001
 40
0.0
 40
0.0
 40
0.0
 40
0.0
 40
0.1504572429
 40
0.2222009552
 40
0.2917179917
 40
0.4244350495
 40
0.4878976342
 40
0.5495926289
 40
0.6682362658
 40
0.7255681682
 40
0.781805938
 40
0.8371511931
 40
0.8918166409
 40
0.9460237365
 40
1.0
 40
1.0
 40
1.0
 40
1.0
 10
12.4488888253
 20
9.4292172155
 30
0.0
 10
12.4505568052
 20
9.4308283605
 30
0.0
 10
12.453096564
 20
9.4331314709
 30
0.0
 10
12.456592847
 20
9.4359602088
 30
0.0
 10
12.4599786907
 20
9.438485166
 30
0.0
 10
12.4634123149
 20
9.4407289184
 30
0.0
 10
12.4668890748
 20
9.4426582472
 30
0.0
 10
12.4702633215
 20
9.4443146691
 30
0.0
 10
12.473677067
 20
9.4456686184
 30
0.0
 10
12.477110015
 20
9.4466874972
 30
0.0
 10
12.4796482433
 20
9.4472747947
 30
0.0
 10
12.4821780271
 20
9.4476933775
 30
0.0
 10
12.4846986891
 20
9.4479430878
 30
0.0
 10
12.4872092162
 20
9.4480238098
 30
0.0
 10
12.4888771392
 20
9.4479648254
 30
0.0
 10
12.4897070974
 20
9.4479072714
 30
0.0
  0
SPLINE
  5
366
100
AcDbEntity
  8
0
100
AcDbSpline
 62
7
  6
CONTINUOUS
 70
0
 71
3
 72
54
 73
50
 74
0
 42
0.0000001
 43
0.0000001
 44
0.0000000001
 40
0.0
 40
0.0
 40
0.0
 40
0.0
 40
0.0055575314
 40
0.0111779514
 40
0.0169218741
 40
0.0228457549
 40
0.0290005166
 40
0.0354309104
 40
0.0421753481
 40
0.0492661819
 40
0.0567302289
 40
0.0645893164
 40
0.0728609992
 40
0.0815590171
 40
0.0906939529
 40
0.1002735511
 40
0.1103032084
 40
0.120786225
 40
0.131724095
 40
0.1431167574
 40
0.1549627059
 40
0.1672592594
 40
0.1800025507
 40
0.1931877841
 40
0.2068091928
 40
0.2208602246
 40
0.2353335436
 40
0.2502211095
 40
0.265514256
 40
0.2812036668
 40
0.2972795185
 40
0.3137313951
 40
0.3477187121
 40
0.383073812
 40
0.4196976091
 40
0.4574851642
 40
0.4963263633
 40
0.5361065441
 40
0.5767070861
 40
0.6180059759
 40
0.6598783548
 40
0.7021970543
 40
0.7448331254
 40
0.7876563595
 40
0.8305358172
 40
0.8733403047
 40
0.9159390443
 40
0.9582017033
 40
1.0
 40
1.0
 40
1.0
 40
1.0
 10
11.1740370469
 20
10.7338939625
 30
0.0
 10
11.1740370497
 20
10.7322686723
 30
0.0
 10
11.1738551107
 20
10.7289968686
 30
0.0
 10
11.1730383923
 20
10.7241066327
 30
0.0
 10
11.1716793252
 20
10.7192272924
 30
0.0
 10
11.1697804555
 20
10.7143645333
 30
0.0
 10
11.1673449804
 20
10.7095222715
 30
0.0
 10
11.1643761374
 20
10.7047042342
 30
0.0
 10
11.160877312
 20
10.6999137298
 30
0.0
 10
11.1568519567
 20
10.6951539633
 30
0.0
 10
11.1523036303
 20
10.6904281835
 30
0.0
 10
11.147236197
 20
10.6857396125
 30
0.0
 10
11.1416537222
 20
10.6810916749
 30
0.0
 10
11.1355607235
 20
10.6764877288
 30
0.0
 10
11.1289620124
 20
10.6719313279
 30
0.0
 10
11.1218628764
 20
10.6674259423
 30
0.0
 10
11.1142689691
 20
10.6629751456
 30
0.0
 10
11.1061863844
 20
10.6585824667
 30
0.0
 10
11.0976216271
 20
10.6542514194
 30
0.0
 10
11.0885815996
 20
10.6499855348
 30
0.0
 10
11.0790736307
 20
10.6457882296
 30
0.0
 10
11.0691054176
 20
10.6416629801
 30
0.0
 10
11.0586850749
 20
10.6376130991
 30
0.0
 10
11.047821073
 20
10.6336419534
 30
0.0
 10
11.0365222737
 20
10.6297527578
 30
0.0
 10
11.0247978905
 20
10.6259487278
 30
0.0
 10
11.0126574976
 20
10.6222329792
 30
0.0
 10
11.0001110157
 20
10.6186085545
 30
0.0
 10
10.9871686985
 20
10.6150784554
 30
0.0
 10
10.9738411381
 20
10.6116455523
 30
0.0
 10
10.9601392215
 20
10.6083126852
 30
0.0
 10
10.9411800915
 20
10.6039587078
 30
0.0
 10
10.9166233903
 20
10.5987987132
 30
0.0
 10
10.8861575908
 20
10.5931120927
 30
0.0
 10
10.8544828304
 20
10.5878846027
 30
0.0
 10
10.8217028493
 20
10.5831335129
 30
0.0
 10
10.7879248593
 20
10.5788745476
 30
0.0
 10
10.7532594432
 20
10.5751217866
 30
0.0
 10
10.7178201078
 20
10.5718876338
 30
0.0
 10
10.6817229258
 20
10.5691827749
 30
0.0
 10
10.6450861434
 20
10.5670161448
 30
0.0
 10
10.6080297899
 20
10.565394897
 30
0.0
 10
10.5706752795
 20
10.564324384
 30
0.0
 10
10.5331450091
 20
10.5638081383
 30
0.0
 10
10.4955619597
 20
10.5638478661
 30
0.0
 10
10.4580492696
 20
10.5644434307
 30
0.0
 10
10.4207298849
 20
10.5655928782
 30
0.0
 10
10.3837261324
 20
10.5672923908
 30
0.0
 10
10.359187634
 20
10.5687982366
 30
0.0
 10
10.3469930859
 20
10.5696439314
 30
0.0
  0
SPLINE
  5
367
100
AcDbEntity
  8
0
100
AcDbSpline
 62
7
  6
CONTINUOUS
 70
0
 71
3
 72
21
 73
17
 74
0
 42
0.0000001
 43
0.0000001
 44
0.0000000001
 40
0.0
 40
0.0
 40
0.0
 40
0.0
 40
0.061653237
 40
0.123329498
 40
0.1850515502
 40
0.2468416698
 40
0.3087213548
 40
0.370711108
 40
0.4328302426
 40
0.495096636
 40
0.5575265765
 40
0.6201345494
 40
0.682933126
 40
0.7459332432
 40
0.8725261314
 40
1.0
 40
1.0
 40
1.0
 40
1.0
 10
9.5008660294
 20
7.0754669614
 30
0.0
 10
9.5024427362
 20
7.0769899537
 30
0.0
 10
9.5056793233
 20
7.0799523269
 30
0.0
 10
9.5107670282
 20
7.0841293433
 30
0.0
 10
9.5160756442
 20
7.0880302886
 30
0.0
 10
9.5215916321
 20
7.0916451463
 30
0.0
 10
9.5273011564
 20
7.094964828
 30
0.0
 10
9.5331897854
 20
7.0979810145
 30
0.0
 10
9.5392426928
 20
7.1006861118
 30
0.0
 10
9.545444638
 20
7.1030732773
 30
0.0
 10
9.5517799873
 20
7.1051365626
 30
0.0
 10
9.5582327361
 20
7.1068707795
 30
0.0
 10
9.5647868327
 20
7.1082715447
 30
0.0
 10
9.5736511857
 20
7.1096921107
 30
0.0
 10
9.5849075073
 20
7.1106150467
 30
0.0
 10
9.5939569114
 20
7.1104384381
 30
0.0
 10
9.598478522
 20
7.1101248633
 30
0.0
  0
SPLINE
  5
368
100
AcDbEntity
  8
0
100
AcDbSpline
 62
7
  6
CONTINUOUS
 70
0
 71
3
 72
21
 73
17
 74
0
 42
0.0000001
 43
0.0000001
 44
0.0000000001
 40
0.0
 40
0.0
 40
0.0
 40
0.0
 40
0.061653237
 40
0.123329498
 40
0.1850515502
 40
0.2468416698
 40
0.3087213548
 40
0.370711108
 40
0.4328302426
 40
0.495096636
 40
0.5575265765
 40
0.6201345494
 40
0.682933126
 40
0.7459332432
 40
0.8725261314
 40
1.0
 40
1.0
 40
1.0
 40
1.0
 10
11.9156807382
 20
6.9079989926
 30
0.0
 10
11.917257445
 20
6.9095219848
 30
0.0
 10
11.9204940321
 20
6.9124843581
 30
0.0
 10
11.925581737
 20
6.9166613744
 30
0.0
 10
11.930890353
 20
6.9205623197
 30
0.0
 10
11.9364063409
 20
6.9241771774
 30
0.0
 10
11.9421158652
 20
6.9274968592
 30
0.0
 10
11.9480044942
 20
6.9305130456
 30
0.0
 10
11.9540574016
 20
6.933218143
 30
0.0
 10
11.9602593468
 20
6.9356053085
 30
0.0
 10
11.9665946961
 20
6.9376685938
 30
0.0
 10
11.9730474449
 20
6.9394028106
 30
0.0
 10
11.9796015415
 20
6.9408035758
 30
0.0
 10
11.9884658945
 20
6.9422241419
 30
0.0
 10
11.9997222161
 20
6.9431470778
 30
0.0
 10
12.0087716202
 20
6.9429704692
 30
0.0
 10
12.0132932308
 20
6.9426568945
 30
0.0
  0
SPLINE
  5
369
100
AcDbEntity
  8
0
100
AcDbSpline
 62
7
  6
CONTINUOUS
 70
0
 71
3
 72
90
 73
86
 74
0
 42
0.0000001
 43
0.0000001
 44
0.0000000001
 40
0.0
 40
0.0
 40
0.0
 40
0.0
 40
0.0027164161
 40
0.0054532042
 40
0.0082302557
 40
0.0110665249
 40
0.0139797103
 40
0.0169859906
 40
0.0200999233
 40
0.0233344115
 40
0.0267007267
 40
0.03020865
 40
0.0338665219
 40
0.037681453
 40
0.0416593866
 40
0.0458052705
 40
0.0501231624
 40
0.0546163044
 40
0.05928728
 40
0.0641380041
 40
0.0691698883
 40
0.074383819
 40
0.0797802599
 40
0.0853592863
 40
0.0911205905
 40
0.0970635843
 40
0.1094902289
 40
0.1226293717
 40
0.1364669317
 40
0.1509856416
 40
0.1661654371
 40
0.1819837774
 40
0.1984159058
 40
0.215435067
 40
0.2330126943
 40
0.2511185732
 40
0.2697209872
 40
0.2887868504
 40
0.3082818346
 40
0.3281704884
 40
0.3484163492
 40
0.3689820511
 40
0.3898294297
 40
0.410919625
 40
0.4322131812
 40
0.4536701493
 40
0.4752501863
 40
0.4969126541
 40
0.5186167167
 40
0.5403214385
 40
0.5619858817
 40
0.583569205
 40
0.605030762
 40
0.6263301992
 40
0.6474275545
 40
0.6682833559
 40
0.6888587212
 40
0.70911546
 40
0.7290161786
 40
0.7485243844
 40
0.7676045932
 40
0.7862224409
 40
0.8043448006
 40
0.8219399072
 40
0.8389774919
 40
0.8554289325
 40
0.8712674145
 40
0.8864681158
 40
0.9010084229
 40
0.9148681885
 40
0.9280300453
 40
0.9343448951
 40
0.9404802507
 40
0.9464348979
 40
0.9522079219
 40
0.9577986875
 40
0.9632068744
 40
0.9684325511
 40
0.9734761281
 40
0.9783384812
 40
0.9830209275
 40
0.9875254311
 40
0.9918546016
 40
0.9960115654
 40
1.0
 40
1.0
 40
1.0
 40
1.0
 10
12.4080705532
 20
8.270734617
 30
0.0
 10
12.4069693901
 20
8.2708109779
 30
0.0
 10
12.4047644448
 20
8.2710639384
 30
0.0
 10
12.4014850865
 20
8.2717408277
 30
0.0
 10
12.3982305298
 20
8.2727151517
 30
0.0
 10
12.3950030539
 20
8.2739858495
 30
0.0
 10
12.3918043698
 20
8.2755518975
 30
0.0
 10
12.3886360837
 20
8.2774119965
 30
0.0
 10
12.3854996677
 20
8.2795648521
 30
0.0
 10
12.3823965317
 20
8.2820091113
 30
0.0
 10
12.3793279734
 20
8.284743304
 30
0.0
 10
12.3762953785
 20
8.2877659958
 30
0.0
 10
12.3733000023
 20
8.2910755494
 30
0.0
 10
12.3703432336
 20
8.2946703349
 30
0.0
 10
12.3674263726
 20
8.29854853
 30
0.0
 10
12.3645507772
 20
8.3027082286
 30
0.0
 10
12.3617178158
 20
8.3071473897
 30
0.0
 10
12.3589287955
 20
8.3118638094
 30
0.0
 10
12.3561851209
 20
8.3168551898
 30
0.0
 10
12.3534880658
 20
8.3221190416
 30
0.0
 10
12.3508390078
 20
8.327652781
 30
0.0
 10
12.3482392215
 20
8.3334536517
 30
0.0
 10
12.3456900055
 20
8.3395187769
 30
0.0
 10
12.3431926526
 20
8.3458451383
 30
0.0
 10
12.3407483476
 20
8.3524295854
 30
0.0
 10
12.337513556
 20
8.3616867237
 30
0.0
 10
12.333623532
 20
8.3738878994
 30
0.0
 10
12.3292527665
 20
8.3892936793
 30
0.0
 10
12.3251213206
 20
8.4056434555
 30
0.0
 10
12.321237569
 20
8.422904504
 30
0.0
 10
12.3176094028
 20
8.4410424344
 30
0.0
 10
12.3142442005
 20
8.4600209591
 30
0.0
 10
12.3111488103
 20
8.4798020746
 30
0.0
 10
12.3083295326
 20
8.5003461227
 30
0.0
 10
12.3057921066
 20
8.5216118854
 30
0.0
 10
12.3035416985
 20
8.5435566714
 30
0.0
 10
12.3015828914
 20
8.5661364054
 30
0.0
 10
12.2999196724
 20
8.5893057201
 30
0.0
 10
12.2985554288
 20
8.6130180505
 30
0.0
 10
12.2974929414
 20
8.6372257319
 30
0.0
 10
12.2967343797
 20
8.6618800975
 30
0.0
 10
12.296281298
 20
8.6869315768
 30
0.0
 10
12.2961346323
 20
8.7123297965
 30
0.0
 10
12.2962946991
 20
8.7380236812
 30
0.0
 10
12.2967611917
 20
8.7639615577
 30
0.0
 10
12.2975331839
 20
8.7900912597
 30
0.0
 10
12.2986091326
 20
8.816360234
 30
0.0
 10
12.2999868807
 20
8.8427156469
 30
0.0
 10
12.3016636618
 20
8.8691044899
 30
0.0
 10
12.3036361055
 20
8.8954736869
 30
0.0
 10
12.305900245
 20
8.9217702007
 30
0.0
 10
12.3084515209
 20
8.9479411416
 30
0.0
 10
12.3112847941
 20
8.9739338736
 30
0.0
 10
12.314394356
 20
8.999696121
 30
0.0
 10
12.3177739399
 20
9.0251760738
 30
0.0
 10
12.3214167333
 20
9.0503224912
 30
0.0
 10
12.3253153916
 20
9.0750848061
 30
0.0
 10
12.3294620531
 20
9.0994132278
 30
0.0
 10
12.3338483507
 20
9.1232588444
 30
0.0
 10
12.3384654323
 20
9.1465737221
 30
0.0
 10
12.3433039781
 20
9.1693110021
 30
0.0
 10
12.348354219
 20
9.1914249958
 30
0.0
 10
12.3536059564
 20
9.2128712785
 30
0.0
 10
12.3590485819
 20
9.2336067815
 30
0.0
 10
12.3646711004
 20
9.2535898843
 30
0.0
 10
12.3704621479
 20
9.2727805028
 30
0.0
 10
12.37641002
 20
9.2911401816
 30
0.0
 10
12.3825026966
 20
9.3086321551
 30
0.0
 10
12.3887278721
 20
9.3252215072
 30
0.0
 10
12.3950729789
 20
9.3408749889
 30
0.0
 10
12.4005223984
 20
9.3532792671
 30
0.0
 10
12.404940092
 20
9.3627029811
 30
0.0
 10
12.4082295959
 20
9.3694198887
 30
0.0
 10
12.4115394872
 20
9.3758803646
 30
0.0
 10
12.4148681103
 20
9.382081192
 30
0.0
 10
12.4182137906
 20
9.3880192761
 30
0.0
 10
12.421574884
 20
9.393691649
 30
0.0
 10
12.4249496766
 20
9.3990955079
 30
0.0
 10
12.4283365452
 20
9.4042281381
 30
0.0
 10
12.4317337449
 20
9.4090870106
 30
0.0
 10
12.4351396474
 20
9.4136697084
 30
0.0
 10
12.4385525984
 20
9.4179740029
 30
0.0
 10
12.4419710014
 20
9.4219978069
 30
0.0
 10
12.4453930474
 20
9.4257389366
 30
0.0
 10
12.4477231377
 20
9.4280912477
 30
0.0
 10
12.4488888253
 20
9.4292172155
 30
0.0
  0
SPLINE
  5
36A
100
AcDbEntity
  8
0
100
AcDbSpline
 62
7
  6
CONTINUOUS
 70
0
 71
3
 72
75
 73
71
 74
0
 42
0.0000001
 43
0.0000001
 44
0.0000000001
 40
0.0
 40
0.0
 40
0.0
 40
0.0
 40
0.0027966526
 40
0.0056682141
 40
0.0116913458
 40
0.0148721871
 40
0.0181793083
 40
0.0216219489
 40
0.0252080121
 40
0.0289442506
 40
0.0328363895
 40
0.0368891587
 40
0.0411065058
 40
0.0454916249
 40
0.0500470212
 40
0.0547746789
 40
0.0596760118
 40
0.0700024623
 40
0.0810302333
 40
0.0927569025
 40
0.1051755348
 40
0.1182753947
 40
0.132042522
 40
0.1464601462
 40
0.1615089809
 40
0.1771675181
 40
0.1934122748
 40
0.2102179701
 40
0.2275576565
 40
0.2454028962
 40
0.2637239017
 40
0.2824896388
 40
0.3016679187
 40
0.3212255327
 40
0.3411283532
 40
0.3613414143
 40
0.3818290009
 40
0.4234811022
 40
0.4657884379
 40
0.5084479979
 40
0.5511535579
 40
0.5935984764
 40
0.6354784842
 40
0.6764945097
 40
0.6965875656
 40
0.7163562927
 40
0.7357660408
 40
0.7547830254
 40
0.7733744497
 40
0.7915085839
 40
0.8091548621
 40
0.8262840124
 40
0.8428682006
 40
0.8588811339
 40
0.874298205
 40
0.8890966957
 40
0.9032559856
 40
0.9167577584
 40
0.9295862948
 40
0.9417288802
 40
0.9531762476
 40
0.9639231775
 40
0.9690339956
 40
0.9739700272
 40
0.978732113
 40
0.983321608
 40
0.9877404687
 40
0.9919911389
 40
0.9960765001
 40
1.0
 40
1.0
 40
1.0
 40
1.0
 10
12.3830383713
 20
8.4588877872
 30
0.0
 10
12.3823091481
 20
8.4591456114
 30
0.0
 10
12.3808521334
 20
8.4597295932
 30
0.0
 10
12.3779514118
 20
8.4611638368
 30
0.0
 10
12.3751313857
 20
8.4629766935
 30
0.0
 10
12.3724092799
 20
8.4651147814
 30
0.0
 10
12.370352492
 20
8.4669374183
 30
0.0
 10
12.3683193654
 20
8.4689486032
 30
0.0
 10
12.3663104194
 20
8.4711474678
 30
0.0
 10
12.3643265922
 20
8.4735329066
 30
0.0
 10
12.3623687554
 20
8.4761038239
 30
0.0
 10
12.3604377265
 20
8.4788589684
 30
0.0
 10
12.3585344017
 20
8.4817970704
 30
0.0
 10
12.3566596478
 20
8.4849167511
 30
0.0
 10
12.3548142955
 20
8.4882165267
 30
0.0
 10
12.3529992205
 20
8.4916948748
 30
0.0
 10
12.3505784077
 20
8.4966552366
 30
0.0
 10
12.3476436499
 20
8.5033004086
 30
0.0
 10
12.3443146996
 20
8.5118249298
 30
0.0
 10
12.3411260604
 20
8.5210174411
 30
0.0
 10
12.3380838067
 20
8.5308605452
 30
0.0
 10
12.3351937493
 20
8.5413357791
 30
0.0
 10
12.3324614577
 20
8.5524233214
 30
0.0
 10
12.3298922202
 20
8.5641021478
 30
0.0
 10
12.3274910008
 20
8.5763500405
 30
0.0
 10
12.3252624429
 20
8.5891436571
 30
0.0
 10
12.3232108662
 20
8.6024585912
 30
0.0
 10
12.3213402562
 20
8.6162694177
 30
0.0
 10
12.319654228
 20
8.6305497387
 30
0.0
 10
12.3181560449
 20
8.6452722442
 30
0.0
 10
12.3168486138
 20
8.6604087734
 30
0.0
 10
12.3157344769
 20
8.6759303635
 30
0.0
 10
12.3148157847
 20
8.6918073023
 30
0.0
 10
12.3140943168
 20
8.7080091953
 30
0.0
 10
12.3135714856
 20
8.7245050171
 30
0.0
 10
12.3132482955
 20
8.7412632061
 30
0.0
 10
12.3130835919
 20
8.7640390523
 30
0.0
 10
12.3133859537
 20
8.7929267925
 30
0.0
 10
12.3145421585
 20
8.8279290407
 30
0.0
 10
12.316485182
 20
8.8631882797
 30
0.0
 10
12.3192002012
 20
8.8984346028
 30
0.0
 10
12.3226663942
 20
8.9333984424
 30
0.0
 10
12.3268571504
 20
8.9678121704
 30
0.0
 10
12.3309537187
 20
8.9960023205
 30
0.0
 10
12.3345765934
 20
9.0180755399
 30
0.0
 10
12.3374346631
 20
9.034217434
 30
0.0
 10
12.340446633
 20
9.0500284678
 30
0.0
 10
12.3436067477
 20
9.0654783927
 30
0.0
 10
12.3469089172
 20
9.0805376347
 30
0.0
 10
12.3503467922
 20
9.0951773803
 30
0.0
 10
12.3539137661
 20
9.1093696182
 30
0.0
 10
12.3576029825
 20
9.1230872064
 30
0.0
 10
12.361407334
 20
9.1363039308
 30
0.0
 10
12.3653194988
 20
9.1489945474
 30
0.0
 10
12.3693319566
 20
9.1611348301
 30
0.0
 10
12.3734369892
 20
9.172701636
 30
0.0
 10
12.377626693
 20
9.183672956
 30
0.0
 10
12.3818930196
 20
9.1940279583
 30
0.0
 10
12.3862277967
 20
9.2037470107
 30
0.0
 10
12.3906227495
 20
9.2128118387
 30
0.0
 10
12.3950694811
 20
9.2212052671
 30
0.0
 10
12.3988723952
 20
9.227732548
 30
0.0
 10
12.4019403931
 20
9.2325972558
 30
0.0
 10
12.4042104216
 20
9.2360068126
 30
0.0
 10
12.4064870349
 20
9.2392371473
 30
0.0
 10
12.4087692236
 20
9.2422867486
 30
0.0
 10
12.4110559159
 20
9.2451542306
 30
0.0
 10
12.4133461158
 20
9.2478382183
 30
0.0
 10
12.4156385908
 20
9.2503373249
 30
0.0
 10
12.4171987277
 20
9.2519106423
 30
0.0
 10
12.4179791963
 20
9.2526645171
 30
0.0
  0
SPLINE
  5
36B
100
AcDbEntity
  8
0
100
AcDbSpline
 62
7
  6
CONTINUOUS
 70
0
 71
3
 72
15
 73
11
 74
0
 42
0.0000001
 43
0.0000001
 44
0.0000000001
 40
0.0
 40
0.0
 40
0.0
 40
0.0
 40
0.1084411279
 40
0.2203204234
 40
0.3363917976
 40
0.4573220227
 40
0.5836916406
 40
0.7159994405
 40
0.8546588732
 40
1.0
 40
1.0
 40
1.0
 40
1.0
 10
12.4389433261
 20
9.2650106074
 30
0.0
 10
12.4380703357
 20
9.264832406
 30
0.0
 10
12.4363130063
 20
9.264385559
 30
0.0
 10
12.4337024801
 20
9.2634678551
 30
0.0
 10
12.4310834758
 20
9.2622949856
 30
0.0
 10
12.4284578781
 20
9.2608681082
 30
0.0
 10
12.4258269932
 20
9.2591884461
 30
0.0
 10
12.4231922501
 20
9.2572572151
 30
0.0
 10
12.4205552525
 20
9.2550759151
 30
0.0
 10
12.4188381134
 20
9.2534941674
 30
0.0
 10
12.4179791963
 20
9.2526645171
 30
0.0
  0
SPLINE
  5
36C
100
AcDbEntity
  8
0
100
AcDbSpline
 62
7
  6
CONTINUOUS
 70
0
 71
3
 72
62
 73
58
 74
0
 42
0.0000001
 43
0.0000001
 44
0.0000000001
 40
0.0
 40
0.0
 40
0.0
 40
0.0
 40
0.0025826504
 40
0.0051788399
 40
0.0078018834
 40
0.0104646472
 40
0.0131793882
 40
0.0159576058
 40
0.0217435326
 40
0.0278996543
 40
0.0344857923
 40
0.0415486627
 40
0.0491237852
 40
0.0572373555
 40
0.0659079344
 40
0.0751479182
 40
0.0849646309
 40
0.0953611798
 40
0.1063372118
 40
0.1178894267
 40
0.1300119524
 40
0.1426967463
 40
0.1559338489
 40
0.169711544
 40
0.1840165963
 40
0.1988343996
 40
0.214149043
 40
0.2299434673
 40
0.24619957
 40
0.2628982344
 40
0.280019438
 40
0.2975423412
 40
0.3154453047
 40
0.3337059668
 40
0.352301325
 40
0.3904004882
 40
0.4295480356
 40
0.4695412334
 40
0.5101715557
 40
0.5512261442
 40
0.5924892956
 40
0.6337439132
 40
0.6747729576
 40
0.7153608956
 40
0.755295156
 40
0.7943676148
 40
0.8323760558
 40
0.8509203914
 40
0.8691263715
 40
0.8869710987
 40
0.9044323189
 40
0.9214884992
 40
0.9381189746
 40
0.9543037905
 40
0.9700238941
 40
0.985262007
 40
1.0
 40
1.0
 40
1.0
 40
1.0
 10
12.4148504018
 20
9.6860228055
 30
0.0
 10
12.4140836148
 20
9.6860759807
 30
0.0
 10
12.4125494099
 20
9.6862404238
 30
0.0
 10
12.4102636188
 20
9.6866599012
 30
0.0
 10
12.4079916902
 20
9.687252237
 30
0.0
 10
12.4057347256
 20
9.6880170017
 30
0.0
 10
12.4034935006
 20
9.6889538577
 30
0.0
 10
12.4004871666
 20
9.6904517346
 30
0.0
 10
12.3967612868
 20
9.692778165
 30
0.0
 10
12.392433342
 20
9.6962107631
 30
0.0
 10
12.3881911006
 20
9.7003149232
 30
0.0
 10
12.3840389195
 20
9.7050837886
 30
0.0
 10
12.3799806448
 20
9.7105107543
 30
0.0
 10
12.376020738
 20
9.7165885542
 30
0.0
 10
12.3721638382
 20
9.7233091645
 30
0.0
 10
12.3684148159
 20
9.7306636874
 30
0.0
 10
12.3647785919
 20
9.7386422791
 30
0.0
 10
12.3612600395
 20
9.7472341345
 30
0.0
 10
12.3578639946
 20
9.7564275373
 30
0.0
 10
12.3545951841
 20
9.7662098636
 30
0.0
 10
12.3514581552
 20
9.7765675968
 30
0.0
 10
12.34845732
 20
9.7874863809
 30
0.0
 10
12.3455969246
 20
9.7989510403
 30
0.0
 10
12.3428809879
 20
9.8109455945
 30
0.0
 10
12.3403133491
 20
9.8234533031
 30
0.0
 10
12.3378976578
 20
9.8364566916
 30
0.0
 10
12.3356373171
 20
9.8499375679
 30
0.0
 10
12.333535522
 20
9.8638770607
 30
0.0
 10
12.3315952638
 20
9.87825565
 30
0.0
 10
12.3298192787
 20
9.8930531872
 30
0.0
 10
12.3282100733
 20
9.9082489294
 30
0.0
 10
12.3267699387
 20
9.923821575
 30
0.0
 10
12.3255009142
 20
9.9397492804
 30
0.0
 10
12.3244047653
 20
9.9560097245
 30
0.0
 10
12.3231659245
 20
9.9782833079
 30
0.0
 10
12.3220698272
 20
10.0067885588
 30
0.0
 10
12.3214723489
 20
10.0416779061
 30
0.0
 10
12.3215860801
 20
10.0773254465
 30
0.0
 10
12.3224105437
 20
10.1135312031
 30
0.0
 10
12.3239412434
 20
10.1500922107
 30
0.0
 10
12.3261696629
 20
10.1868034387
 30
0.0
 10
12.3290833463
 20
10.2234590184
 30
0.0
 10
12.3326659084
 20
10.2598533991
 30
0.0
 10
12.3368971919
 20
10.2957824957
 30
0.0
 10
12.3417533442
 20
10.3310449151
 30
0.0
 10
12.3472069601
 20
10.3654428654
 30
0.0
 10
12.3522643076
 20
10.3934517479
 30
0.0
 10
12.3565942455
 20
10.4152759149
 30
0.0
 10
12.3599444375
 20
10.431175348
 30
0.0
 10
12.3634191682
 20
10.4467178938
 30
0.0
 10
12.3670135776
 20
10.4618817683
 30
0.0
 10
12.3707226082
 20
10.4766457134
 30
0.0
 10
12.3745410293
 20
10.4909890283
 30
0.0
 10
12.3784634521
 20
10.5048915761
 30
0.0
 10
12.3824844016
 20
10.5183340447
 30
0.0
 10
12.3865981682
 20
10.5312973489
 30
0.0
 10
12.3894471908
 20
10.539752087
 30
0.0
 10
12.3908879746
 20
10.5438949075
 30
0.0
  0
SPLINE
  5
36D
100
AcDbEntity
  8
0
100
AcDbSpline
 62
7
  6
CONTINUOUS
 70
0
 71
3
 72
69
 73
65
 74
0
 42
0.0000001
 43
0.0000001
 44
0.0000000001
 40
0.0
 40
0.0
 40
0.0
 40
0.0
 40
0.0027657435
 40
0.0055963593
 40
0.0115118445
 40
0.0146285477
 40
0.0178660613
 40
0.0212345807
 40
0.0247429269
 40
0.0283986962
 40
0.0322082751
 40
0.0361770546
 40
0.0403095448
 40
0.0446093755
 40
0.0490795092
 40
0.0537222847
 40
0.0585394115
 40
0.0687005751
 40
0.0795687292
 40
0.0911428529
 40
0.1034170933
 40
0.1163815278
 40
0.1300228353
 40
0.1443247274
 40
0.1592682471
 40
0.174832139
 40
0.1909930924
 40
0.2077258738
 40
0.2250035407
 40
0.2427976276
 40
0.2610782332
 40
0.2798141378
 40
0.2989729705
 40
0.318521294
 40
0.3384246732
 40
0.3791539441
 40
0.4208706365
 40
0.4632744316
 40
0.5060586025
 40
0.5489129178
 40
0.5915264978
 40
0.6335906771
 40
0.6748018892
 40
0.7148645813
 40
0.7343762033
 40
0.7534950235
 40
0.7721876988
 40
0.7904219407
 40
0.8081666767
 40
0.8253921531
 40
0.8420700159
 40
0.8581734867
 40
0.8736775481
 40
0.888559053
 40
0.9027969388
 40
0.9163725441
 40
0.9292698419
 40
0.9414757841
 40
0.9529808467
 40
0.9637796546
 40
0.9738716323
 40
0.9832621313
 40
0.9919644764
 40
1.0
 40
1.0
 40
1.0
 40
1.0
 10
12.3924043767
 20
9.8714857323
 30
0.0
 10
12.391843422
 20
9.8716504728
 30
0.0
 10
12.3907219984
 20
9.8720323528
 30
0.0
 10
12.3884875348
 20
9.8730012815
 30
0.0
 10
12.3863100938
 20
9.8742662245
 30
0.0
 10
12.3842071864
 20
9.8757862307
 30
0.0
 10
12.3826189778
 20
9.8770929459
 30
0.0
 10
12.3810485954
 20
9.8785454285
 30
0.0
 10
12.3794964388
 20
9.8801430473
 30
0.0
 10
12.3779632767
 20
9.8818850096
 30
0.0
 10
12.3764497135
 20
9.8837704466
 30
0.0
 10
12.3749564239
 20
9.8857984602
 30
0.0
 10
12.3734841077
 20
9.8879681082
 30
0.0
 10
12.3720333925
 20
9.8902783355
 30
0.0
 10
12.3706049676
 20
9.8927280571
 30
0.0
 10
12.3691994969
 20
9.8953161255
 30
0.0
 10
12.3673235422
 20
9.8990158108
 30
0.0
 10
12.3650482033
 20
9.903985798
 30
0.0
 10
12.362466261
 20
9.9103779825
 30
0.0
 10
12.3599911482
 20
9.9172885072
 30
0.0
 10
12.3576276184
 20
9.9247041786
 30
0.0
 10
12.3553802132
 20
9.9326109723
 30
0.0
 10
12.3532533087
 20
9.9409937935
 30
0.0
 10
12.3512510664
 20
9.9498365982
 30
0.0
 10
12.3493773817
 20
9.9591223985
 30
0.0
 10
12.3476359189
 20
9.9688333273
 30
0.0
 10
12.3460301014
 20
9.9789506775
 30
0.0
 10
12.3445630644
 20
9.9894549312
 30
0.0
 10
12.3432376717
 20
10.000325808
 30
0.0
 10
12.3420565285
 20
10.0115423131
 30
0.0
 10
12.3410219507
 20
10.023082772
 30
0.0
 10
12.34013595
 20
10.0349248745
 30
0.0
 10
12.339400271
 20
10.0470457191
 30
0.0
 10
12.3388163483
 20
10.0594218862
 30
0.0
 10
12.3382372959
 20
10.0763616766
 30
0.0
 10
12.3379074081
 20
10.0979969393
 30
0.0
 10
12.3381293036
 20
10.1243900198
 30
0.0
 10
12.3389646916
 20
10.1512053945
 30
0.0
 10
12.3404071945
 20
10.1782357086
 30
0.0
 10
12.3424457614
 20
10.205272085
 30
0.0
 10
12.3450645882
 20
10.2321055458
 30
0.0
 10
12.3482433366
 20
10.258528765
 30
0.0
 10
12.3519572896
 20
10.2843374523
 30
0.0
 10
12.3555044584
 20
10.3053474501
 30
0.0
 10
12.3585958147
 20
10.32169289
 30
0.0
 10
12.361008625
 20
10.3335680649
 30
0.0
 10
12.3635313445
 20
10.345144174
 30
0.0
 10
12.3661591104
 20
10.3563988497
 30
0.0
 10
12.3688868059
 20
10.3673103376
 30
0.0
 10
12.3717091228
 20
10.3778575622
 30
0.0
 10
12.3746205834
 20
10.3880201522
 30
0.0
 10
12.3776155336
 20
10.3977784943
 30
0.0
 10
12.380688137
 20
10.4071137796
 30
0.0
 10
12.383832423
 20
10.4160080283
 30
0.0
 10
12.3870422976
 20
10.424444131
 30
0.0
 10
12.3903115164
 20
10.432405908
 30
0.0
 10
12.3936337414
 20
10.4398781311
 30
0.0
 10
12.397002576
 20
10.446846553
 30
0.0
 10
12.4004115416
 20
10.4532979769
 30
0.0
 10
12.4038541632
 20
10.4592202904
 30
0.0
 10
12.4073239628
 20
10.4646024152
 30
0.0
 10
12.4108147666
 20
10.4694346705
 30
0.0
 10
12.414320076
 20
10.4737077751
 30
0.0
 10
12.4167574612
 20
10.4762785111
 30
0.0
 10
12.4179791963
 20
10.4774586166
 30
0.0
  0
SPLINE
  5
36E
100
AcDbEntity
  8
0
100
AcDbSpline
 62
7
  6
CONTINUOUS
 70
0
 71
3
 72
15
 73
11
 74
0
 42
0.0000001
 43
0.0000001
 44
0.0000000001
 40
0.0
 40
0.0
 40
0.0
 40
0.0
 40
0.1080211785
 40
0.2193204717
 40
0.334817338
 40
0.4553248275
 40
0.5815481723
 40
0.7140890849
 40
0.8534427369
 40
1.0
 40
1.0
 40
1.0
 40
1.0
 10
12.4350952869
 20
10.4870758244
 30
0.0
 10
12.434384928
 20
10.4869705131
 30
0.0
 10
12.4329529104
 20
10.4866810244
 30
0.0
 10
12.4308219967
 20
10.486026998
 30
0.0
 10
12.4286832591
 20
10.4851490831
 30
0.0
 10
12.4265385088
 20
10.4840484002
 30
0.0
 10
12.4243889667
 20
10.4827261335
 30
0.0
 10
12.4222359386
 20
10.4811834478
 30
0.0
 10
12.4200808941
 20
10.4794217475
 30
0.0
 10
12.4186799732
 20
10.4781355152
 30
0.0
 10
12.4179791963
 20
10.4774586166
 30
0.0
  0
SPLINE
  5
36F
100
AcDbEntity
  8
0
100
AcDbSpline
 62
7
  6
CONTINUOUS
 70
0
 71
3
 72
57
 73
53
 74
0
 42
0.0000001
 43
0.0000001
 44
0.0000000001
 40
0.0
 40
0.0
 40
0.0
 40
0.0
 40
0.0075207721
 40
0.0156240917
 40
0.0243309804
 40
0.0336547579
 40
0.0436026095
 40
0.0541766024
 40
0.0653746632
 40
0.0771912706
 40
0.0896178469
 40
0.1026432873
 40
0.1162542539
 40
0.1304353395
 40
0.1451694045
 40
0.1604376904
 40
0.1762199193
 40
0.1924945312
 40
0.2092387141
 40
0.2264285006
 40
0.2620432788
 40
0.2991289698
 40
0.3374620098
 40
0.3768083629
 40
0.4169256638
 40
0.4575653442
 40
0.498474673
 40
0.5393987759
 40
0.5800826662
 40
0.6202732545
 40
0.6597213815
 40
0.6981838787
 40
0.7354256269
 40
0.7712217119
 40
0.788511156
 40
0.8053606567
 40
0.8217460535
 40
0.8376442541
 40
0.8530333577
 40
0.8678928348
 40
0.8822035382
 40
0.8959479099
 40
0.9091101862
 40
0.9216764844
 40
0.933635149
 40
0.9449770381
 40
0.9556958223
 40
0.9657886191
 40
0.9752564383
 40
0.9841051208
 40
0.9923469063
 40
1.0
 40
1.0
 40
1.0
 40
1.0
 10
12.4121436018
 20
7.2519405098
 30
0.0
 10
12.4112617276
 20
7.2530248186
 30
0.0
 10
12.4095241298
 20
7.2553552119
 30
0.0
 10
12.4070789159
 20
7.2591620768
 30
0.0
 10
12.4047035066
 20
7.2634012271
 30
0.0
 10
12.4024016647
 20
7.2680657196
 30
0.0
 10
12.4001769036
 20
7.2731483132
 30
0.0
 10
12.3980327754
 20
7.2786408476
 30
0.0
 10
12.3959727617
 20
7.2845344692
 30
0.0
 10
12.3940002874
 20
7.2908195987
 30
0.0
 10
12.3921186008
 20
7.2974859501
 30
0.0
 10
12.390330848
 20
7.3045225771
 30
0.0
 10
12.3886400385
 20
7.3119178917
 30
0.0
 10
12.3870489807
 20
7.3196596802
 30
0.0
 10
12.3855603555
 20
7.3277351421
 30
0.0
 10
12.3841766712
 20
7.3361309079
 30
0.0
 10
12.3829002272
 20
7.344833063
 30
0.0
 10
12.3817331884
 20
7.3538271739
 30
0.0
 10
12.380677492
 20
7.3630983323
 30
0.0
 10
12.3794057706
 20
7.375960862
 30
0.0
 10
12.378117234
 20
7.3926184341
 30
0.0
 10
12.3770551192
 20
7.4132274324
 30
0.0
 10
12.3764670286
 20
7.4345490551
 30
0.0
 10
12.3763570689
 20
7.4564417287
 30
0.0
 10
12.3767261611
 20
7.4787601998
 30
0.0
 10
12.3775719767
 20
7.5013562943
 30
0.0
 10
12.3788889856
 20
7.5240799849
 30
0.0
 10
12.3806684622
 20
7.5467803834
 30
0.0
 10
12.3828985647
 20
7.5693067582
 30
0.0
 10
12.3855644252
 20
7.5915095506
 30
0.0
 10
12.3886482317
 20
7.6132413685
 30
0.0
 10
12.3921293216
 20
7.6343580475
 30
0.0
 10
12.3959843924
 20
7.6547193937
 30
0.0
 10
12.3995267111
 20
7.6711299456
 30
0.0
 10
12.4025365788
 20
7.6837736521
 30
0.0
 10
12.4048447017
 20
7.6928752927
 30
0.0
 10
12.4072257541
 20
7.7016906011
 30
0.0
 10
12.4096757939
 20
7.7102049625
 30
0.0
 10
12.4121907391
 20
7.7184042528
 30
0.0
 10
12.4147663728
 20
7.7262748919
 30
0.0
 10
12.4173984092
 20
7.7338038467
 30
0.0
 10
12.4200824653
 20
7.7409786656
 30
0.0
 10
12.4228140448
 20
7.7477875109
 30
0.0
 10
12.4255886199
 20
7.7542191604
 30
0.0
 10
12.4284015816
 20
7.7602630482
 30
0.0
 10
12.4312482529
 20
7.7659092958
 30
0.0
 10
12.4341239753
 20
7.7711487058
 30
0.0
 10
12.4370240661
 20
7.7759728103
 30
0.0
 10
12.4399438105
 20
7.7803738697
 30
0.0
 10
12.4428787878
 20
7.7843450427
 30
0.0
 10
12.4458242594
 20
7.7878797101
 30
0.0
 10
12.4478658718
 20
7.7900188414
 30
0.0
 10
12.4488888253
 20
7.7910069387
 30
0.0
  0
SPLINE
  5
370
100
AcDbEntity
  8
0
100
AcDbSpline
 62
7
  6
CONTINUOUS
 70
0
 71
3
 72
88
 73
84
 74
0
 42
0.0000001
 43
0.0000001
 44
0.0000000001
 40
0.0
 40
0.0
 40
0.0
 40
0.0
 40
0.0035562881
 40
0.0072686526
 40
0.0111442466
 40
0.0151892054
 40
0.0194087511
 40
0.0238071456
 40
0.0283876872
 40
0.0331529798
 40
0.038104938
 40
0.0432449306
 40
0.0485738031
 40
0.0540919058
 40
0.0597992229
 40
0.0656953048
 40
0.0717794137
 40
0.0780504702
 40
0.0911473178
 40
0.1049724794
 40
0.1195084797
 40
0.1347347117
 40
0.1506278052
 40
0.1671619209
 40
0.1843090068
 40
0.2020390144
 40
0.2203200831
 40
0.2391187062
 40
0.2583998793
 40
0.2781272356
 40
0.298263182
 40
0.3187690265
 40
0.3396050973
 40
0.3607308597
 40
0.3821050289
 40
0.4036856813
 40
0.447295487
 40
0.491217138
 40
0.5351035831
 40
0.5569255204
 40
0.5786088701
 40
0.6001109256
 40
0.6213894386
 40
0.6424027295
 40
0.6631098024
 40
0.6834704587
 40
0.7034454106
 40
0.7229963982
 40
0.7420863109
 40
0.760679315
 40
0.7787409937
 40
0.7962384894
 40
0.8131406566
 40
0.8294182343
 40
0.8450440409
 40
0.8599932014
 40
0.8742434228
 40
0.8877753197
 40
0.9005728138
 40
0.9066924291
 40
0.9126241987
 40
0.9183673075
 40
0.9239212781
 40
0.9292859694
 40
0.9344617011
 40
0.9394491884
 40
0.9442497035
 40
0.9488650619
 40
0.9532977202
 40
0.9575508916
 40
0.9616285657
 40
0.965535723
 40
0.969278359
 40
0.9728636929
 40
0.9763002876
 40
0.9795981756
 40
0.9827690562
 40
0.9858263285
 40
0.9887852213
 40
0.9916627246
 40
0.9944774833
 40
0.9972495518
 40
1.0
 40
1.0
 40
1.0
 40
1.0
 10
12.506889676
 20
10.6559439535
 30
0.0
 10
12.5077759422
 20
10.6551077241
 30
0.0
 10
12.5095377849
 20
10.6533453855
 30
0.0
 10
12.512093139
 20
10.6505060717
 30
0.0
 10
12.5146147889
 20
10.647417457
 30
0.0
 10
12.5171013422
 20
10.6440813572
 30
0.0
 10
12.5195516742
 20
10.6404994678
 30
0.0
 10
12.5219645668
 20
10.6366735974
 30
0.0
 10
12.5243388766
 20
10.6326057333
 30
0.0
 10
12.5266733292
 20
10.6282979551
 30
0.0
 10
12.528966775
 20
10.6237525152
 30
0.0
 10
12.5312180176
 20
10.6189717603
 30
0.0
 10
12.5334258828
 20
10.6139581707
 30
0.0
 10
12.5355892557
 20
10.6087143652
 30
0.0
 10
12.5377069551
 20
10.6032430663
 30
0.0
 10
12.5397779178
 20
10.5975471477
 30
0.0
 10
12.5418010383
 20
10.591629572
 30
0.0
 10
12.5444720217
 20
10.5833275553
 30
0.0
 10
12.5476735021
 20
10.5724121112
 30
0.0
 10
12.5512547519
 20
10.5586641269
 30
0.0
 10
12.5546213541
 20
10.5441122758
 30
0.0
 10
12.5577661499
 20
10.528787112
 30
0.0
 10
12.5606824263
 20
10.5127206863
 30
0.0
 10
12.5633639633
 20
10.49594672
 30
0.0
 10
12.5658050384
 20
10.4785004466
 30
0.0
 10
12.5680004409
 20
10.4604185478
 30
0.0
 10
12.5699454839
 20
10.4417390635
 30
0.0
 10
12.5716360138
 20
10.4225013095
 30
0.0
 10
12.573068418
 20
10.4027457929
 30
0.0
 10
12.5742396384
 20
10.3825141251
 30
0.0
 10
12.5751471724
 20
10.3618489298
 30
0.0
 10
12.5757890763
 20
10.3407937514
 30
0.0
 10
12.5761639721
 20
10.3193929563
 30
0.0
 10
12.57627104
 20
10.2976916566
 30
0.0
 10
12.5761100567
 20
10.2757355537
 30
0.0
 10
12.5755363486
 20
10.2460806131
 30
0.0
 10
12.5741500366
 20
10.2087171655
 30
0.0
 10
12.5714445074
 20
10.1637666603
 30
0.0
 10
12.5683299135
 20
10.1263294648
 30
0.0
 10
12.5653289988
 20
10.0965363602
 30
0.0
 10
12.5628373588
 20
10.0744019497
 30
0.0
 10
12.5601059689
 20
10.0524834851
 30
0.0
 10
12.5571405726
 20
10.0308271305
 30
0.0
 10
12.5539474413
 20
10.0094785415
 30
0.0
 10
12.550533324
 20
9.9884827079
 30
0.0
 10
12.5469054419
 20
9.9678838736
 30
0.0
 10
12.5430714685
 20
9.9477254397
 30
0.0
 10
12.5390395147
 20
9.9280498738
 30
0.0
 10
12.5348181124
 20
9.9088986195
 30
0.0
 10
12.530416195
 20
9.8903120058
 30
0.0
 10
12.5258430839
 20
9.8723291569
 30
0.0
 10
12.5211084666
 20
9.8549879066
 30
0.0
 10
12.5162223732
 20
9.8383247168
 30
0.0
 10
12.5111951557
 20
9.8223745986
 30
0.0
 10
12.5060374644
 20
9.8071710259
 30
0.0
 10
12.5007602218
 20
9.7927458767
 30
0.0
 10
12.4953745931
 20
9.7791292712
 30
0.0
 10
12.4898919736
 20
9.7663497669
 30
0.0
 10
12.4851843533
 20
9.7562748831
 30
0.0
 10
12.4813710465
 20
9.7486620603
 30
0.0
 10
12.4785367194
 20
9.7432634758
 30
0.0
 10
12.4756868237
 20
9.738093307
 30
0.0
 10
12.4728228475
 20
9.7331542416
 30
0.0
 10
12.4699462531
 20
9.7284488756
 30
0.0
 10
12.4670585897
 20
9.7239796362
 30
0.0
 10
12.4641613059
 20
9.7197488699
 30
0.0
 10
12.4612559316
 20
9.7157587551
 30
0.0
 10
12.4583439474
 20
9.7120113606
 30
0.0
 10
12.4554268145
 20
9.7085086387
 30
0.0
 10
12.4525060447
 20
9.7052523682
 30
0.0
 10
12.4495830322
 20
9.7022442779
 30
0.0
 10
12.4466592636
 20
9.699485889
 30
0.0
 10
12.4437361084
 20
9.6969786844
 30
0.0
 10
12.440814963
 20
9.6947240051
 30
0.0
 10
12.4378972063
 20
9.6927230834
 30
0.0
 10
12.4349841492
 20
9.6909771556
 30
0.0
 10
12.4320771951
 20
9.6894872629
 30
0.0
 10
12.4291776856
 20
9.6882545473
 30
0.0
 10
12.4262871002
 20
9.6872799593
 30
0.0
 10
12.4234070131
 20
9.6865644447
 30
0.0
 10
12.420539043
 20
9.6861088473
 30
0.0
 10
12.4176853742
 20
9.685913683
 30
0.0
 10
12.4157905385
 20
9.6859576089
 30
0.0
 10
12.4148504018
 20
9.6860228055
 30
0.0
  0
SPLINE
  5
371
100
AcDbEntity
  8
0
100
AcDbSpline
 62
7
  6
CONTINUOUS
 70
0
 71
3
 72
19
 73
15
 74
0
 42
0.0000001
 43
0.0000001
 44
0.0000000001
 40
0.0
 40
0.0
 40
0.0
 40
0.0
 40
0.152879049
 40
0.2945793953
 40
0.426231647
 40
0.549350323
 40
0.6083254354
 40
0.665912891
 40
0.7224099865
 40
0.7781333313
 40
0.8334138893
 40
0.8885914803
 40
0.9440078235
 40
1.0
 40
1.0
 40
1.0
 40
1.0
 10
12.4179791963
 20
9.8805164206
 30
0.0
 10
12.4169351369
 20
9.8795079366
 30
0.0
 10
12.4148489275
 20
9.8776391058
 30
0.0
 10
12.411596253
 20
9.8752203222
 30
0.0
 10
12.4083480209
 20
9.8733021305
 30
0.0
 10
12.4056081925
 20
9.8721086134
 30
0.0
 10
12.403435961
 20
9.8714242102
 30
0.0
 10
12.401835303
 20
9.8710458408
 30
0.0
 10
12.4002409
 20
9.8707954891
 30
0.0
 10
12.3986534753
 20
9.8706733213
 30
0.0
 10
12.3970738644
 20
9.8706795371
 30
0.0
 10
12.3955028785
 20
9.8708141564
 30
0.0
 10
12.3939414722
 20
9.8710770288
 30
0.0
 10
12.3929144794
 20
9.871335926
 30
0.0
 10
12.3924043767
 20
9.8714857323
 30
0.0
  0
SPLINE
  5
372
100
AcDbEntity
  8
0
100
AcDbSpline
 62
7
  6
CONTINUOUS
 70
0
 71
3
 72
41
 73
37
 74
0
 42
0.0000001
 43
0.0000001
 44
0.0000000001
 40
0.0
 40
0.0
 40
0.0
 40
0.0
 40
0.0311444983
 40
0.062442467
 40
0.093887251
 40
0.1254695609
 40
0.157177086
 40
0.1889950997
 40
0.2209066479
 40
0.2528929497
 40
0.284933762
 40
0.3170077852
 40
0.3490930781
 40
0.3811674822
 40
0.4132090489
 40
0.445196464
 40
0.4771094635
 40
0.5089292351
 40
0.540638799
 40
0.5722233621
 40
0.6036706378
 40
0.6349711269
 40
0.6661183495
 40
0.6971090237
 40
0.7279431823
 40
0.7586242225
 40
0.7891588828
 40
0.8195571428
 40
0.8498320452
 40
0.86493089
 40
0.8800050502
 40
0.9100832578
 40
0.9400926753
 40
0.9550812784
 40
0.9700610371
 40
1.0
 40
1.0
 40
1.0
 40
1.0
 10
9.598478522
 20
6.83869969
 30
0.0
 10
9.5951645744
 20
6.8389295131
 30
0.0
 10
9.5885347064
 20
6.8396328659
 30
0.0
 10
9.5786702895
 20
6.8414045969
 30
0.0
 10
9.568911515
 20
6.8438863002
 30
0.0
 10
9.5593111214
 20
6.8470645752
 30
0.0
 10
9.5499200867
 20
6.8509224216
 30
0.0
 10
9.5407885117
 20
6.8554391874
 30
0.0
 10
9.5319650405
 20
6.8605907414
 30
0.0
 10
9.5234966894
 20
6.8663495757
 30
0.0
 10
9.5154285777
 20
6.8726849622
 30
0.0
 10
9.5078036953
 20
6.8795631116
 30
0.0
 10
9.5006626752
 20
6.8869473533
 30
0.0
 10
9.4940435792
 20
6.894798329
 30
0.0
 10
9.4879816972
 20
6.9030742002
 30
0.0
 10
9.4825093606
 20
6.9117308687
 30
0.0
 10
9.4776557715
 20
6.9207222097
 30
0.0
 10
9.4734468479
 20
6.930000314
 30
0.0
 10
9.4699050856
 20
6.9395157403
 30
0.0
 10
9.4670494389
 20
6.9492177756
 30
0.0
 10
9.4648952179
 20
6.9590547015
 30
0.0
 10
9.463454006
 20
6.9689740661
 30
0.0
 10
9.4627335956
 20
6.9789229609
 30
0.0
 10
9.4627379414
 20
6.9888482963
 30
0.0
 10
9.4634671409
 20
6.9986970929
 30
0.0
 10
9.4649174082
 20
7.0084167231
 30
0.0
 10
9.4670811608
 20
7.0179553333
 30
0.0
 10
9.4699467848
 20
7.027261596
 30
0.0
 10
9.4729103348
 20
7.0347898188
 30
0.0
 10
9.4756147181
 20
7.0406441853
 30
0.0
 10
9.4785332902
 20
7.0463712518
 30
0.0
 10
9.4825855495
 20
7.0532984488
 30
0.0
 10
9.4871590099
 20
7.0598821284
 30
0.0
 10
9.4911111477
 20
7.0649145375
 30
0.0
 10
9.4952518283
 20
7.0697826823
 30
0.0
 10
9.4985692245
 20
7.073248403
 30
0.0
 10
9.5008660294
 20
7.0754669614
 30
0.0
  0
SPLINE
  5
373
100
AcDbEntity
  8
0
100
AcDbSpline
 62
7
  6
CONTINUOUS
 70
0
 71
3
 72
77
 73
73
 74
0
 42
0.0000001
 43
0.0000001
 44
0.0000000001
 40
0.0
 40
0.0
 40
0.0
 40
0.0
 40
0.004039223
 40
0.0082525334
 40
0.0126437408
 40
0.017215986
 40
0.0219718974
 40
0.0269135517
 40
0.0320423559
 40
0.0373591096
 40
0.0485569818
 40
0.060506372
 40
0.0732002631
 40
0.0866270962
 40
0.1007714344
 40
0.1156145015
 40
0.131134632
 40
0.1473075814
 40
0.1641067507
 40
0.1815034662
 40
0.1994671869
 40
0.2179656427
 40
0.2369649791
 40
0.2564299435
 40
0.2763240105
 40
0.296609474
 40
0.3381978533
 40
0.3808757424
 40
0.4243116835
 40
0.4681666137
 40
0.5120972782
 40
0.5557596699
 40
0.5988124584
 40
0.6409204146
 40
0.6615182853
 40
0.6817587903
 40
0.701603323
 40
0.7210143205
 40
0.739955375
 40
0.758391396
 40
0.7762887423
 40
0.7936153325
 40
0.8103408066
 40
0.8264367533
 40
0.8418768706
 40
0.8566371751
 40
0.8706963097
 40
0.8840359157
 40
0.8966410001
 40
0.9085004683
 40
0.9196078862
 40
0.929962404
 40
0.9348593731
 40
0.9395710396
 40
0.9440994645
 40
0.9484474599
 40
0.9526185408
 40
0.956617084
 40
0.9604484982
 40
0.9641192317
 40
0.9676370152
 40
0.9710109853
 40
0.97425176
 40
0.9773716694
 40
0.9803847729
 40
0.9833068852
 40
0.9861555754
 40
0.9889499275
 40
0.9917102747
 40
0.9944577831
 40
0.9972139344
 40
1.0
 40
1.0
 40
1.0
 40
1.0
 10
12.4179791963
 20
9.8805164206
 30
0.0
 10
12.4186016049
 20
9.8811176212
 30
0.0
 10
12.4198457224
 20
9.8823746915
 30
0.0
 10
12.4216721493
 20
9.8843759382
 30
0.0
 10
12.4234966023
 20
9.8865309098
 30
0.0
 10
12.4253180048
 20
9.8888383956
 30
0.0
 10
12.4271354942
 20
9.8912971856
 30
0.0
 10
12.4289481431
 20
9.8939060622
 30
0.0
 10
12.4307550705
 20
9.8966637
 30
0.0
 10
12.4331977709
 20
9.9006054305
 30
0.0
 10
12.436223334
 20
9.9059025175
 30
0.0
 10
12.4397562284
 20
9.9127220296
 30
0.0
 10
12.4432442146
 20
9.9200963835
 30
0.0
 10
12.4466800138
 20
9.9280103488
 30
0.0
 10
12.4500564724
 20
9.9364476872
 30
0.0
 10
12.4533665278
 20
9.9453909505
 30
0.0
 10
12.4566032368
 20
9.9548216186
 30
0.0
 10
12.4597597966
 20
9.964720116
 30
0.0
 10
12.4628295918
 20
9.9750658547
 30
0.0
 10
12.4658061798
 20
9.9858372947
 30
0.0
 10
12.4686833057
 20
9.9970119993
 30
0.0
 10
12.4714549268
 20
10.0085666728
 30
0.0
 10
12.4741152395
 20
10.0204772114
 30
0.0
 10
12.4766586563
 20
10.032718759
 30
0.0
 10
12.4790798602
 20
10.0452657888
 30
0.0
 10
12.4821638464
 20
10.0625103808
 30
0.0
 10
12.4856685746
 20
10.0846360898
 30
0.0
 10
12.4892801745
 20
10.1117578289
 30
0.0
 10
12.4923012858
 20
10.139440171
 30
0.0
 10
12.4947065362
 20
10.1674520964
 30
0.0
 10
12.4964758015
 20
10.1955599694
 30
0.0
 10
12.4975943474
 20
10.2235293372
 30
0.0
 10
12.4980529351
 20
10.2511267572
 30
0.0
 10
12.4978810651
 20
10.2737861256
 30
0.0
 10
12.4974034231
 20
10.291550333
 30
0.0
 10
12.4968821548
 20
10.3045408296
 30
0.0
 10
12.4961964227
 20
10.3172690551
 30
0.0
 10
12.4953476602
 20
10.3297084588
 30
0.0
 10
12.4943376597
 20
10.3418330672
 30
0.0
 10
12.4931685595
 20
10.3536175809
 30
0.0
 10
12.4918428407
 20
10.3650374199
 30
0.0
 10
12.4903633057
 20
10.3760687707
 30
0.0
 10
12.4887330723
 20
10.3866886415
 30
0.0
 10
12.4869555981
 20
10.3968749226
 30
0.0
 10
12.4850346464
 20
10.406606431
 30
0.0
 10
12.482974271
 20
10.4158629525
 30
0.0
 10
12.4807788146
 20
10.4246252996
 30
0.0
 10
12.4784529154
 20
10.4328753789
 30
0.0
 10
12.4760014598
 20
10.4405961988
 30
0.0
 10
12.4734295387
 20
10.447772023
 30
0.0
 10
12.4707424793
 20
10.4543880872
 30
0.0
 10
12.4683696806
 20
10.4595155351
 30
0.0
 10
12.4664113021
 20
10.463318267
 30
0.0
 10
12.4649446008
 20
10.4659686884
 30
0.0
 10
12.4634533201
 20
10.4684694102
 30
0.0
 10
12.4619382223
 20
10.470819181
 30
0.0
 10
12.4604000454
 20
10.4730167939
 30
0.0
 10
12.4588395113
 20
10.4750611083
 30
0.0
 10
12.4572574089
 20
10.4769511065
 30
0.0
 10
12.4556544387
 20
10.4786857821
 30
0.0
 10
12.454031338
 20
10.4802642156
 30
0.0
 10
12.452388866
 20
10.4816855764
 30
0.0
 10
12.4507277072
 20
10.4829489936
 30
0.0
 10
12.4490486366
 20
10.4840537114
 30
0.0
 10
12.4473524354
 20
10.4849989896
 30
0.0
 10
12.4456399064
 20
10.4857840398
 30
0.0
 10
12.4439120039
 20
10.4864082499
 30
0.0
 10
12.4421697298
 20
10.486870995
 30
0.0
 10
12.4404142259
 20
10.4871717608
 30
0.0
 10
12.4386466783
 20
10.4873103109
 30
0.0
 10
12.4368685181
 20
10.4872864948
 30
0.0
 10
12.4356857132
 20
10.4871633555
 30
0.0
 10
12.4350952869
 20
10.4870758244
 30
0.0
  0
SPLINE
  5
374
100
AcDbEntity
  8
0
100
AcDbSpline
 62
7
  6
CONTINUOUS
 70
0
 71
3
 72
37
 73
33
 74
0
 42
0.0000001
 43
0.0000001
 44
0.0000000001
 40
0.0
 40
0.0
 40
0.0
 40
0.0
 40
0.024649914
 40
0.0505095333
 40
0.0775212359
 40
0.1056222602
 40
0.1347452589
 40
0.1648187791
 40
0.1957676879
 40
0.2275135587
 40
0.2599750572
 40
0.293068295
 40
0.3267071647
 40
0.360803666
 40
0.3952682236
 40
0.4300100055
 40
0.4999560077
 40
0.5699034967
 40
0.6046471247
 40
0.6391142555
 40
0.6732140563
 40
0.7068569435
 40
0.7399548978
 40
0.772421785
 40
0.8041736946
 40
0.8351292813
 40
0.8652101079
 40
0.8943410109
 40
0.922450494
 40
0.9494711596
 40
0.9753402104
 40
1.0
 40
1.0
 40
1.0
 40
1.0
 10
12.3478166399
 20
9.9680111209
 30
0.0
 10
12.3490302003
 20
9.9713690897
 30
0.0
 10
12.3514176265
 20
9.9782859958
 30
0.0
 10
12.3548102444
 20
9.9889912196
 30
0.0
 10
12.3580930474
 20
10.0002522784
 30
0.0
 10
12.3612566712
 20
10.0120374044
 30
0.0
 10
12.3642921385
 20
10.0243134754
 30
0.0
 10
12.3671908248
 20
10.0370459151
 30
0.0
 10
12.3699445001
 20
10.05019885
 30
0.0
 10
12.3725453537
 20
10.0637351988
 30
0.0
 10
12.3749860102
 20
10.0776167872
 30
0.0
 10
12.3772595503
 20
10.0918044588
 30
0.0
 10
12.3793595326
 20
10.1062581899
 30
0.0
 10
12.3812800001
 20
10.120937191
 30
0.0
 10
12.3830155386
 20
10.1358000661
 30
0.0
 10
12.3850809128
 20
10.1558506476
 30
0.0
 10
12.3871661142
 20
10.181063594
 30
0.0
 10
12.3885838798
 20
10.2063231307
 30
0.0
 10
12.3893081902
 20
10.2264676448
 30
0.0
 10
12.389642548
 20
10.2414288885
 30
0.0
 10
12.3897683749
 20
10.2562338826
 30
0.0
 10
12.389685313
 20
10.2708408769
 30
0.0
 10
12.389393624
 20
10.2852086433
 30
0.0
 10
12.3888941547
 20
10.2992966435
 30
0.0
 10
12.3881883491
 20
10.3130651333
 30
0.0
 10
12.3872782417
 20
10.3264752816
 30
0.0
 10
12.3861664492
 20
10.3394892786
 30
0.0
 10
12.3848561636
 20
10.3520704487
 30
0.0
 10
12.3833511471
 20
10.364183341
 30
0.0
 10
12.3816557105
 20
10.3757938957
 30
0.0
 10
12.3797747412
 20
10.3868693456
 30
0.0
 10
12.3783659478
 20
10.3940526325
 30
0.0
 10
12.377628021
 20
10.397547538
 30
0.0
  0
SPLINE
  5
375
100
AcDbEntity
  8
0
100
AcDbSpline
 62
7
  6
CONTINUOUS
 70
0
 71
3
 72
15
 73
11
 74
0
 42
0.0000001
 43
0.0000001
 44
0.0000000001
 40
0.0
 40
0.0
 40
0.0
 40
0.0
 40
0.121738938
 40
0.2462719927
 40
0.3726813304
 40
0.5000312567
 40
0.6273772286
 40
0.7537747326
 40
0.8782882211
 40
1.0
 40
1.0
 40
1.0
 40
1.0
 10
12.3380829763
 20
10.0957115116
 30
0.0
 10
12.3392442717
 20
10.1028252462
 30
0.0
 10
12.3414109523
 20
10.1172463418
 30
0.0
 10
12.3441714176
 20
10.1391405321
 30
0.0
 10
12.3464651184
 20
10.1614225906
 30
0.0
 10
12.3482738143
 20
10.1839162614
 30
0.0
 10
12.3495831634
 20
10.2064438134
 30
0.0
 10
12.3503828604
 20
10.2288272433
 30
0.0
 10
12.3506666983
 20
10.2508894778
 30
0.0
 10
12.3505084739
 20
10.2654688067
 30
0.0
 10
12.3503387712
 20
10.2726731004
 30
0.0
  0
SPLINE
  5
376
100
AcDbEntity
  8
0
100
AcDbSpline
 62
7
  6
CONTINUOUS
 70
0
 71
3
 72
53
 73
49
 74
0
 42
0.0000001
 43
0.0000001
 44
0.0000000001
 40
0.0
 40
0.0
 40
0.0
 40
0.0
 40
0.0083962701
 40
0.0173562222
 40
0.0268871945
 40
0.0369916992
 40
0.0476688204
 40
0.058914679
 40
0.0707228266
 40
0.0830846185
 40
0.0959893706
 40
0.1094248016
 40
0.1233769173
 40
0.1378304809
 40
0.1527688255
 40
0.1681742396
 40
0.2003089612
 40
0.2340734834
 40
0.2692920883
 40
0.3057775758
 40
0.3433331023
 40
0.3817539022
 40
0.4208289308
 40
0.4603424635
 40
0.5000756682
 40
0.5398081646
 40
0.5793195768
 40
0.6183910864
 40
0.6568069916
 40
0.694356282
 40
0.7308342398
 40
0.7660440818
 40
0.7997986774
 40
0.8319223882
 40
0.8473219229
 40
0.8622541459
 40
0.8767013558
 40
0.8906469418
 40
0.9040756114
 40
0.9169734896
 40
0.9293281964
 40
0.9411291959
 40
0.95236776
 40
0.9630375591
 40
0.9731346524
 40
0.9826582652
 40
0.9916110445
 40
1.0
 40
1.0
 40
1.0
 40
1.0
 10
12.3860210654
 20
7.3255008402
 30
0.0
 10
12.3867436219
 20
7.3263859222
 30
0.0
 10
12.388183098
 20
7.3282601385
 30
0.0
 10
12.390263856
 20
7.3312711995
 30
0.0
 10
12.3923327559
 20
7.3345682639
 30
0.0
 10
12.3943868015
 20
7.3381465004
 30
0.0
 10
12.3964230062
 20
7.3420008114
 30
0.0
 10
12.3984384056
 20
7.3461255938
 30
0.0
 10
12.4004300498
 20
7.350514852
 30
0.0
 10
12.4023949727
 20
7.3551621797
 30
0.0
 10
12.4043303051
 20
7.3600607587
 30
0.0
 10
12.4062331304
 20
7.3652034041
 30
0.0
 10
12.4081006794
 20
7.3705825429
 30
0.0
 10
12.4099301233
 20
7.3761902573
 30
0.0
 10
12.411718812
 20
7.3820182803
 30
0.0
 10
12.414079008
 20
7.3901865357
 30
0.0
 10
12.4168993275
 20
7.4008868305
 30
0.0
 10
12.4200352596
 20
7.4142864527
 30
0.0
 10
12.4229497919
 20
7.4283410759
 30
0.0
 10
12.425625534
 20
7.4429676963
 30
0.0
 10
12.4280465083
 20
7.4580800156
 30
0.0
 10
12.4301982859
 20
7.4735887677
 30
0.0
 10
12.4320680558
 20
7.4894023206
 30
0.0
 10
12.4336447022
 20
7.5054272131
 30
0.0
 10
12.4349188675
 20
7.5215687202
 30
0.0
 10
12.4358830067
 20
7.5377314194
 30
0.0
 10
12.4365314324
 20
7.5538197606
 30
0.0
 10
12.4368603491
 20
7.5697386383
 30
0.0
 10
12.436867877
 20
7.5853939591
 30
0.0
 10
12.4365540684
 20
7.6006932118
 30
0.0
 10
12.4359209057
 20
7.6155460091
 30
0.0
 10
12.4349723146
 20
7.6298646936
 30
0.0
 10
12.4337140739
 20
7.6435646785
 30
0.0
 10
12.4323961533
 20
7.654547979
 30
0.0
 10
12.4311847883
 20
7.6629604864
 30
0.0
 10
12.4302167839
 20
7.6689769459
 30
0.0
 10
12.429178016
 20
7.6747807195
 30
0.0
 10
12.4280699947
 20
7.6803632576
 30
0.0
 10
12.4268943838
 20
7.685716332
 30
0.0
 10
12.4256529461
 20
7.690832066
 30
0.0
 10
12.4243475032
 20
7.6957029414
 30
0.0
 10
12.4229800394
 20
7.7003218217
 30
0.0
 10
12.4215525263
 20
7.7046819478
 30
0.0
 10
12.4200671317
 20
7.7087769855
 30
0.0
 10
12.4185259734
 20
7.7126009794
 30
0.0
 10
12.4169313154
 20
7.7161484897
 30
0.0
 10
12.4152854614
 20
7.7194142939
 30
0.0
 10
12.4141180295
 20
7.7214667517
 30
0.0
 10
12.4135243589
 20
7.7224418104
 30
0.0
  0
SPLINE
  5
377
100
AcDbEntity
  8
0
100
AcDbSpline
 62
7
  6
CONTINUOUS
 70
0
 71
3
 72
21
 73
17
 74
0
 42
0.0000001
 43
0.0000001
 44
0.0000000001
 40
0.0
 40
0.0
 40
0.0
 40
0.0
 40
0.061653237
 40
0.123329498
 40
0.1850515502
 40
0.2468416698
 40
0.3087213548
 40
0.370711108
 40
0.4328302426
 40
0.495096636
 40
0.5575265765
 40
0.6201345494
 40
0.682933126
 40
0.7459332432
 40
0.8725261314
 40
1.0
 40
1.0
 40
1.0
 40
1.0
 10
9.6960910145
 20
6.8733575919
 30
0.0
 10
9.6945143077
 20
6.8718345997
 30
0.0
 10
9.6912777206
 20
6.8688722264
 30
0.0
 10
9.6861900158
 20
6.8646952101
 30
0.0
 10
9.6808813997
 20
6.8607942648
 30
0.0
 10
9.6753654118
 20
6.8571794071
 30
0.0
 10
9.6696558875
 20
6.8538597254
 30
0.0
 10
9.6637672585
 20
6.8508435389
 30
0.0
 10
9.6577143512
 20
6.8481384415
 30
0.0
 10
9.6515124059
 20
6.845751276
 30
0.0
 10
9.6451770566
 20
6.8436879907
 30
0.0
 10
9.6387243078
 20
6.8419537739
 30
0.0
 10
9.6321702113
 20
6.8405530087
 30
0.0
 10
9.6233058583
 20
6.8391324427
 30
0.0
 10
9.6120495367
 20
6.8382095067
 30
0.0
 10
9.6030001326
 20
6.8383861153
 30
0.0
 10
9.598478522
 20
6.83869969
 30
0.0
  0
SPLINE
  5
378
100
AcDbEntity
  8
0
100
AcDbSpline
 62
7
  6
CONTINUOUS
 70
0
 71
3
 72
41
 73
37
 74
0
 42
0.0000001
 43
0.0000001
 44
0.0000000001
 40
0.0
 40
0.0
 40
0.0
 40
0.0
 40
0.0311444983
 40
0.062442467
 40
0.093887251
 40
0.1254695609
 40
0.157177086
 40
0.1889950997
 40
0.2209066479
 40
0.2528929497
 40
0.284933762
 40
0.3170077852
 40
0.3490930781
 40
0.3811674822
 40
0.4132090489
 40
0.445196464
 40
0.4771094635
 40
0.5089292351
 40
0.540638799
 40
0.5722233621
 40
0.6036706378
 40
0.6349711269
 40
0.6661183495
 40
0.6971090237
 40
0.7279431823
 40
0.7586242225
 40
0.7891588828
 40
0.8195571428
 40
0.8498320452
 40
0.86493089
 40
0.8800050502
 40
0.9100832578
 40
0.9400926753
 40
0.9550812784
 40
0.9700610371
 40
1.0
 40
1.0
 40
1.0
 40
1.0
 10
12.0132932308
 20
6.6712317212
 30
0.0
 10
12.0099792832
 20
6.6714615442
 30
0.0
 10
12.0033494152
 20
6.672164897
 30
0.0
 10
11.9934849983
 20
6.673936628
 30
0.0
 10
11.9837262238
 20
6.6764183313
 30
0.0
 10
11.9741258303
 20
6.6795966064
 30
0.0
 10
11.9647347955
 20
6.6834544528
 30
0.0
 10
11.9556032205
 20
6.6879712186
 30
0.0
 10
11.9467797493
 20
6.6931227726
 30
0.0
 10
11.9383113982
 20
6.6988816068
 30
0.0
 10
11.9302432865
 20
6.7052169933
 30
0.0
 10
11.9226184042
 20
6.7120951427
 30
0.0
 10
11.915477384
 20
6.7194793845
 30
0.0
 10
11.908858288
 20
6.7273303602
 30
0.0
 10
11.902796406
 20
6.7356062313
 30
0.0
 10
11.8973240694
 20
6.7442628999
 30
0.0
 10
11.8924704803
 20
6.7532542409
 30
0.0
 10
11.8882615567
 20
6.7625323451
 30
0.0
 10
11.8847197944
 20
6.7720477715
 30
0.0
 10
11.8818641477
 20
6.7817498067
 30
0.0
 10
11.8797099267
 20
6.7915867326
 30
0.0
 10
11.8782687148
 20
6.8015060972
 30
0.0
 10
11.8775483044
 20
6.811454992
 30
0.0
 10
11.8775526503
 20
6.8213803275
 30
0.0
 10
11.8782818497
 20
6.831229124
 30
0.0
 10
11.879732117
 20
6.8409487542
 30
0.0
 10
11.8818958696
 20
6.8504873645
 30
0.0
 10
11.8847614936
 20
6.8597936271
 30
0.0
 10
11.8877250436
 20
6.8673218499
 30
0.0
 10
11.8904294269
 20
6.8731762164
 30
0.0
 10
11.893347999
 20
6.8789032829
 30
0.0
 10
11.8974002583
 20
6.88583048
 30
0.0
 10
11.9019737187
 20
6.8924141595
 30
0.0
 10
11.9059258565
 20
6.8974465687
 30
0.0
 10
11.9100665371
 20
6.9023147135
 30
0.0
 10
11.9133839333
 20
6.9057804342
 30
0.0
 10
11.9156807382
 20
6.9079989926
 30
0.0
  0
SPLINE
  5
379
100
AcDbEntity
  8
0
100
AcDbSpline
 62
7
  6
CONTINUOUS
 70
0
 71
3
 72
83
 73
79
 74
0
 42
0.0000001
 43
0.0000001
 44
0.0000000001
 40
0.0
 40
0.0
 40
0.0
 40
0.0
 40
0.0038897122
 40
0.0079377235
 40
0.0121473933
 40
0.0165215815
 40
0.0210627116
 40
0.0257726815
 40
0.0306527801
 40
0.0357038935
 40
0.0409265069
 40
0.046320763
 40
0.051886514
 40
0.0576232689
 40
0.0696062552
 40
0.0822615696
 40
0.0955772263
 40
0.1095383586
 40
0.1241275741
 40
0.1393252299
 40
0.1551096646
 40
0.1714574025
 40
0.1883433208
 40
0.2057407948
 40
0.2236218237
 40
0.2419571444
 40
0.2607163488
 40
0.2798679867
 40
0.2993796625
 40
0.319218126
 40
0.3393493586
 40
0.3597386654
 40
0.3803507639
 40
0.4011498678
 40
0.4431632878
 40
0.4854863448
 40
0.5278230479
 40
0.5698772803
 40
0.5907068747
 40
0.6113561017
 40
0.6317890888
 40
0.6519704515
 40
0.6718653827
 40
0.6914397371
 40
0.7106601162
 40
0.7294939567
 40
0.7479096228
 40
0.7658765085
 40
0.7833651392
 40
0.8003472743
 40
0.8167960223
 40
0.8326859674
 40
0.8479933176
 40
0.8626960732
 40
0.8767742075
 40
0.8902098897
 40
0.9029877578
 40
0.91509526
 40
0.9208948123
 40
0.9265235858
 40
0.9319810276
 40
0.9372668309
 40
0.9423810469
 40
0.9473240186
 40
0.9520964948
 40
0.95669964
 40
0.961135059
 40
0.9654049249
 40
0.9695119501
 40
0.9734595429
 40
0.9772518452
 40
0.9808938202
 40
0.9843914075
 40
0.9877515539
 40
0.990982402
 40
0.9940933484
 40
0.9970951466
 40
1.0
 40
1.0
 40
1.0
 40
1.0
 10
12.4179791963
 20
8.291568263
 30
0.0
 10
12.4191010946
 20
8.2926519336
 30
0.0
 10
12.4213437589
 20
8.2949122471
 30
0.0
 10
12.424640016
 20
8.298500202
 30
0.0
 10
12.4279330419
 20
8.3023505646
 30
0.0
 10
12.4312211799
 20
8.3064613923
 30
0.0
 10
12.4345030191
 20
8.3108308106
 30
0.0
 10
12.4377770616
 20
8.3154568687
 30
0.0
 10
12.4410418739
 20
8.3203374251
 30
0.0
 10
12.4442959013
 20
8.3254702462
 30
0.0
 10
12.4475376559
 20
8.3308529499
 30
0.0
 10
12.4507656498
 20
8.3364830439
 30
0.0
 10
12.453978379
 20
8.3423579477
 30
0.0
 10
12.4583026334
 20
8.3506345268
 30
0.0
 10
12.4636493224
 20
8.3615818585
 30
0.0
 10
12.4698912604
 20
8.37546527
 30
0.0
 10
12.4760372802
 20
8.3902541285
 30
0.0
 10
12.4820758895
 20
8.4059209807
 30
0.0
 10
12.4879957922
 20
8.4224369001
 30
0.0
 10
12.4937858985
 20
8.4397712532
 30
0.0
 10
12.4994353624
 20
8.4578918531
 30
0.0
 10
12.5049335951
 20
8.4767650097
 30
0.0
 10
12.5102702912
 20
8.496355609
 30
0.0
 10
12.5154354477
 20
8.5166271796
 30
0.0
 10
12.5204193833
 20
8.5375419613
 30
0.0
 10
12.5252127653
 20
8.5590609768
 30
0.0
 10
12.5298066172
 20
8.5811441108
 30
0.0
 10
12.5341923373
 20
8.6037501896
 30
0.0
 10
12.5383617147
 20
8.6268370592
 30
0.0
 10
12.5423069418
 20
8.6503616614
 30
0.0
 10
12.5460206406
 20
8.6742801163
 30
0.0
 10
12.5494958591
 20
8.6985477939
 30
0.0
 10
12.5527261242
 20
8.7231194531
 30
0.0
 10
12.5567115604
 20
8.7563357662
 30
0.0
 10
12.5610344101
 20
8.7982775307
 30
0.0
 10
12.5651449426
 20
8.8489118243
 30
0.0
 10
12.5681647894
 20
8.8996392481
 30
0.0
 10
12.5697589049
 20
8.9418071292
 30
0.0
 10
12.5704664645
 20
8.9752976879
 30
0.0
 10
12.5707112804
 20
9.0001241899
 30
0.0
 10
12.5706715492
 20
9.0246919084
 30
0.0
 10
12.5703473354
 20
9.0489550426
 30
0.0
 10
12.5697392711
 20
9.0728683173
 30
0.0
 10
12.5688485132
 20
9.096387127
 30
0.0
 10
12.5676767499
 20
9.1194676027
 30
0.0
 10
12.5662261959
 20
9.1420666963
 30
0.0
 10
12.5644995874
 20
9.1641422632
 30
0.0
 10
12.5625001843
 20
9.1856531456
 30
0.0
 10
12.5602317634
 20
9.2065592512
 30
0.0
 10
12.5576986059
 20
9.226821628
 30
0.0
 10
12.5549054911
 20
9.2464025368
 30
0.0
 10
12.5518576866
 20
9.2652655264
 30
0.0
 10
12.5485609402
 20
9.2833755102
 30
0.0
 10
12.5450214752
 20
9.3006988462
 30
0.0
 10
12.5412459653
 20
9.3172033825
 30
0.0
 10
12.5372415224
 20
9.3328586053
 30
0.0
 10
12.5330156674
 20
9.3476354272
 30
0.0
 10
12.5292643923
 20
9.3593572151
 30
0.0
 10
12.526149885
 20
9.3682670648
 30
0.0
 10
12.5237971271
 20
9.3746169637
 30
0.0
 10
12.5213950927
 20
9.3807275694
 30
0.0
 10
12.5189448244
 20
9.3865960505
 30
0.0
 10
12.5164475157
 20
9.3922197073
 30
0.0
 10
12.5139042756
 20
9.3975959343
 30
0.0
 10
12.5113162876
 20
9.4027222587
 30
0.0
 10
12.5086847522
 20
9.4075963324
 30
0.0
 10
12.5060108173
 20
9.4122158985
 30
0.0
 10
12.5032957461
 20
9.4165788684
 30
0.0
 10
12.5005406962
 20
9.4206832222
 30
0.0
 10
12.4977469077
 20
9.4245270951
 30
0.0
 10
12.4949156013
 20
9.4281087346
 30
0.0
 10
12.4920479431
 20
9.4314264587
 30
0.0
 10
12.4891451988
 20
9.4344787676
 30
0.0
 10
12.4862084997
 20
9.437264164
 30
0.0
 10
12.4832390988
 20
9.4397813018
 30
0.0
 10
12.4802381238
 20
9.4420289183
 30
0.0
 10
12.4772070141
 20
9.4440056157
 30
0.0
 10
12.4751356805
 20
9.4451594987
 30
0.0
 10
12.4740974686
 20
9.4456877403
 30
0.0
  0
SPLINE
  5
37A
100
AcDbEntity
  8
0
100
AcDbSpline
 62
7
  6
CONTINUOUS
 70
0
 71
3
 72
15
 73
11
 74
0
 42
0.0000001
 43
0.0000001
 44
0.0000000001
 40
0.0
 40
0.0
 40
0.0
 40
0.0
 40
0.1419957443
 40
0.2786184937
 40
0.4100721067
 40
0.5366026121
 40
0.6585035146
 40
0.7761096801
 40
0.8898002082
 40
1.0
 40
1.0
 40
1.0
 40
1.0
 10
12.4179791963
 20
8.291568263
 30
0.0
 10
12.4169492674
 20
8.2905734281
 30
0.0
 10
12.4148899961
 20
8.2886605622
 30
0.0
 10
12.4117410827
 20
8.2859779969
 30
0.0
 10
12.4085941653
 20
8.2835398322
 30
0.0
 10
12.4054505906
 20
8.2813473379
 30
0.0
 10
12.4023116096
 20
8.2794014598
 30
0.0
 10
12.3991782915
 20
8.2777031514
 30
0.0
 10
12.3960520917
 20
8.2762533226
 30
0.0
 10
12.3939431003
 20
8.275441302
 30
0.0
 10
12.3928923583
 20
8.2750794712
 30
0.0
  0
SPLINE
  5
37B
100
AcDbEntity
  8
0
100
AcDbSpline
 62
7
  6
CONTINUOUS
 70
0
 71
3
 72
21
 73
17
 74
0
 42
0.0000001
 43
0.0000001
 44
0.0000000001
 40
0.0
 40
0.0
 40
0.0
 40
0.0
 40
0.061653237
 40
0.123329498
 40
0.1850515502
 40
0.2468416698
 40
0.3087213548
 40
0.370711108
 40
0.4328302426
 40
0.495096636
 40
0.5575265765
 40
0.6201345494
 40
0.682933126
 40
0.7459332432
 40
0.8725261314
 40
1.0
 40
1.0
 40
1.0
 40
1.0
 10
12.1109057233
 20
6.7058896231
 30
0.0
 10
12.1093290165
 20
6.7043666308
 30
0.0
 10
12.1060924295
 20
6.7014042576
 30
0.0
 10
12.1010047246
 20
6.6972272412
 30
0.0
 10
12.0956961085
 20
6.6933262959
 30
0.0
 10
12.0901801206
 20
6.6897114382
 30
0.0
 10
12.0844705964
 20
6.6863917565
 30
0.0
 10
12.0785819673
 20
6.68337557
 30
0.0
 10
12.07252906
 20
6.6806704727
 30
0.0
 10
12.0663271147
 20
6.6782833072
 30
0.0
 10
12.0599917654
 20
6.6762200219
 30
0.0
 10
12.0535390166
 20
6.674485805
 30
0.0
 10
12.0469849201
 20
6.6730850398
 30
0.0
 10
12.0381205671
 20
6.6716644738
 30
0.0
 10
12.0268642455
 20
6.6707415378
 30
0.0
 10
12.0178148414
 20
6.6709181464
 30
0.0
 10
12.0132932308
 20
6.6712317212
 30
0.0
  0
SPLINE
  5
37C
100
AcDbEntity
  8
0
100
AcDbSpline
 62
7
  6
CONTINUOUS
 70
0
 71
3
 72
22
 73
18
 74
0
 42
0.0000001
 43
0.0000001
 44
0.0000000001
 40
0.0
 40
0.0
 40
0.0
 40
0.0
 40
0.0781418398
 40
0.1532422123
 40
0.225421001
 40
0.2948219366
 40
0.3616186678
 40
0.4260103985
 40
0.5484368379
 40
0.6070812033
 40
0.6643922795
 40
0.720704732
 40
0.7763727871
 40
0.8317643897
 40
0.8872533099
 40
0.9432113249
 40
1.0
 40
1.0
 40
1.0
 40
1.0
 10
12.4179791963
 20
8.4702645514
 30
0.0
 10
12.4172517072
 20
8.4695618508
 30
0.0
 10
12.4157971507
 20
8.4682122408
 30
0.0
 10
12.4135716423
 20
8.4663237478
 30
0.0
 10
12.4113475852
 20
8.4646130954
 30
0.0
 10
12.4091260648
 20
8.4630813072
 30
0.0
 10
12.4069077272
 20
8.4617289813
 30
0.0
 10
12.4040053904
 20
8.4601923708
 30
0.0
 10
12.4010563533
 20
8.4589773846
 30
0.0
 10
12.3980871088
 20
8.4581289537
 30
0.0
 10
12.3958996503
 20
8.4576841657
 30
0.0
 10
12.3937215894
 20
8.4574224812
 30
0.0
 10
12.391554004
 20
8.457344218
 30
0.0
 10
12.3893982119
 20
8.4574494692
 30
0.0
 10
12.3872554375
 20
8.4577381927
 30
0.0
 10
12.3851271272
 20
8.4582101757
 30
0.0
 10
12.3837313898
 20
8.4586427636
 30
0.0
 10
12.3830383713
 20
8.4588877872
 30
0.0
  0
SPLINE
  5
37D
100
AcDbEntity
  8
0
100
AcDbSpline
 62
7
  6
CONTINUOUS
 70
0
 71
3
 72
23
 73
19
 74
0
 42
0.0000001
 43
0.0000001
 44
0.0000000001
 40
0.0
 40
0.0
 40
0.0
 40
0.0
 40
0.075595957
 40
0.1466391305
 40
0.2134651345
 40
0.2765138419
 40
0.3363259052
 40
0.3935462661
 40
0.4489224105
 40
0.5032874244
 40
0.5575253055
 40
0.6125266122
 40
0.6691426489
 40
0.72814827
 40
0.7902188159
 40
0.8559231893
 40
0.9257261654
 40
1.0
 40
1.0
 40
1.0
 40
1.0
 10
12.4488888253
 20
7.2500884439
 30
0.0
 10
12.4481106347
 20
7.2493367695
 30
0.0
 10
12.4465552753
 20
7.247924889
 30
0.0
 10
12.4441482069
 20
7.2460386919
 30
0.0
 10
12.4417439495
 20
7.2444545558
 30
0.0
 10
12.4393447353
 20
7.2431748611
 30
0.0
 10
12.4369525549
 20
7.242201934
 30
0.0
 10
12.4345698789
 20
7.2415381413
 30
0.0
 10
12.4321998231
 20
7.2411858522
 30
0.0
 10
12.4298463467
 20
7.2411467113
 30
0.0
 10
12.4275139654
 20
7.2414213092
 30
0.0
 10
12.4252072065
 20
7.24200883
 30
0.0
 10
12.4229299755
 20
7.2429072724
 30
0.0
 10
12.4206853145
 20
7.2441140524
 30
0.0
 10
12.4184754607
 20
7.2456263582
 30
0.0
 10
12.4163022429
 20
7.247441621
 30
0.0
 10
12.4141673622
 20
7.2495571036
 30
0.0
 10
12.4128143331
 20
7.2511158118
 30
0.0
 10
12.4121436018
 20
7.2519405098
 30
0.0
  0
SPLINE
  5
37E
100
AcDbEntity
  8
0
100
AcDbSpline
 62
7
  6
CONTINUOUS
 70
0
 71
3
 72
90
 73
86
 74
0
 42
0.0000001
 43
0.0000001
 44
0.0000000001
 40
0.0
 40
0.0
 40
0.0
 40
0.0
 40
0.0027164161
 40
0.0054532042
 40
0.0082302557
 40
0.0110665249
 40
0.0139797103
 40
0.0169859906
 40
0.0200999233
 40
0.0233344115
 40
0.0267007267
 40
0.03020865
 40
0.0338665219
 40
0.037681453
 40
0.0416593866
 40
0.0458052705
 40
0.0501231624
 40
0.0546163044
 40
0.05928728
 40
0.0641380041
 40
0.0691698883
 40
0.074383819
 40
0.0797802599
 40
0.0853592863
 40
0.0911205905
 40
0.0970635843
 40
0.1094902289
 40
0.1226293717
 40
0.1364669317
 40
0.1509856416
 40
0.1661654371
 40
0.1819837774
 40
0.1984159058
 40
0.215435067
 40
0.2330126943
 40
0.2511185732
 40
0.2697209872
 40
0.2887868504
 40
0.3082818346
 40
0.3281704884
 40
0.3484163492
 40
0.3689820511
 40
0.3898294297
 40
0.410919625
 40
0.4322131812
 40
0.4536701493
 40
0.4752501863
 40
0.4969126541
 40
0.5186167167
 40
0.5403214385
 40
0.5619858817
 40
0.583569205
 40
0.605030762
 40
0.6263301992
 40
0.6474275545
 40
0.6682833559
 40
0.6888587212
 40
0.70911546
 40
0.7290161786
 40
0.7485243844
 40
0.7676045932
 40
0.7862224409
 40
0.8043448006
 40
0.8219399072
 40
0.8389774919
 40
0.8554289325
 40
0.8712674145
 40
0.8864681158
 40
0.9010084229
 40
0.9148681885
 40
0.9280300453
 40
0.9343448951
 40
0.9404802507
 40
0.9464348979
 40
0.9522079219
 40
0.9577986875
 40
0.9632068744
 40
0.9684325511
 40
0.9734761281
 40
0.9783384812
 40
0.9830209275
 40
0.9875254311
 40
0.9918546016
 40
0.9960115654
 40
1.0
 40
1.0
 40
1.0
 40
1.0
 10
12.4897070974
 20
9.4479072714
 30
0.0
 10
12.4908082604
 20
9.4478309105
 30
0.0
 10
12.4930132058
 20
9.44757795
 30
0.0
 10
12.496292564
 20
9.4469010607
 30
0.0
 10
12.4995471208
 20
9.4459267367
 30
0.0
 10
12.5027745967
 20
9.4446560389
 30
0.0
 10
12.5059732807
 20
9.4430899909
 30
0.0
 10
12.5091415668
 20
9.4412298919
 30
0.0
 10
12.5122779828
 20
9.4390770363
 30
0.0
 10
12.5153811188
 20
9.4366327771
 30
0.0
 10
12.5184496771
 20
9.4338985844
 30
0.0
 10
12.521482272
 20
9.4308758926
 30
0.0
 10
12.5244776483
 20
9.427566339
 30
0.0
 10
12.5274344169
 20
9.4239715535
 30
0.0
 10
12.5303512779
 20
9.4200933584
 30
0.0
 10
12.5332268734
 20
9.4159336598
 30
0.0
 10
12.5360598348
 20
9.4114944987
 30
0.0
 10
12.5388488551
 20
9.406778079
 30
0.0
 10
12.5415925296
 20
9.4017866986
 30
0.0
 10
12.5442895847
 20
9.3965228468
 30
0.0
 10
12.5469386428
 20
9.3909891074
 30
0.0
 10
12.5495384291
 20
9.3851882367
 30
0.0
 10
12.5520876451
 20
9.3791231115
 30
0.0
 10
12.554584998
 20
9.3727967501
 30
0.0
 10
12.557029303
 20
9.366212303
 30
0.0
 10
12.5602640946
 20
9.3569551647
 30
0.0
 10
12.5641541185
 20
9.344753989
 30
0.0
 10
12.5685248841
 20
9.3293482091
 30
0.0
 10
12.57265633
 20
9.3129984329
 30
0.0
 10
12.5765400816
 20
9.2957373844
 30
0.0
 10
12.5801682478
 20
9.277599454
 30
0.0
 10
12.58353345
 20
9.2586209293
 30
0.0
 10
12.5866288403
 20
9.2388398138
 30
0.0
 10
12.589448118
 20
9.2182957657
 30
0.0
 10
12.591985544
 20
9.197030003
 30
0.0
 10
12.5942359521
 20
9.175085217
 30
0.0
 10
12.5961947592
 20
9.1525054829
 30
0.0
 10
12.5978579781
 20
9.1293361683
 30
0.0
 10
12.5992222218
 20
9.1056238379
 30
0.0
 10
12.6002847092
 20
9.0814161565
 30
0.0
 10
12.6010432709
 20
9.0567617909
 30
0.0
 10
12.6014963526
 20
9.0317103116
 30
0.0
 10
12.6016430183
 20
9.0063120919
 30
0.0
 10
12.6014829515
 20
8.9806182072
 30
0.0
 10
12.6010164589
 20
8.9546803307
 30
0.0
 10
12.6002444667
 20
8.9285506287
 30
0.0
 10
12.599168518
 20
8.9022816544
 30
0.0
 10
12.5977907699
 20
8.8759262415
 30
0.0
 10
12.5961139888
 20
8.8495373985
 30
0.0
 10
12.594141545
 20
8.8231682015
 30
0.0
 10
12.5918774056
 20
8.7968716877
 30
0.0
 10
12.5893261296
 20
8.7707007468
 30
0.0
 10
12.5864928564
 20
8.7447080148
 30
0.0
 10
12.5833832945
 20
8.7189457674
 30
0.0
 10
12.5800037107
 20
8.6934658146
 30
0.0
 10
12.5763609173
 20
8.6683193972
 30
0.0
 10
12.5724622589
 20
8.6435570823
 30
0.0
 10
12.5683155975
 20
8.6192286606
 30
0.0
 10
12.5639292999
 20
8.595383044
 30
0.0
 10
12.5593122183
 20
8.5720681663
 30
0.0
 10
12.5544736725
 20
8.5493308863
 30
0.0
 10
12.5494234315
 20
8.5272168926
 30
0.0
 10
12.5441716942
 20
8.5057706099
 30
0.0
 10
12.5387290686
 20
8.4850351069
 30
0.0
 10
12.5331065502
 20
8.4650520041
 30
0.0
 10
12.5273155027
 20
8.4458613856
 30
0.0
 10
12.5213676305
 20
8.4275017068
 30
0.0
 10
12.515274954
 20
8.4100097333
 30
0.0
 10
12.5090497784
 20
8.3934203812
 30
0.0
 10
12.5027046717
 20
8.3777668995
 30
0.0
 10
12.4972552522
 20
8.3653626213
 30
0.0
 10
12.4928375586
 20
8.3559389073
 30
0.0
 10
12.4895480547
 20
8.3492219997
 30
0.0
 10
12.4862381634
 20
8.3427615238
 30
0.0
 10
12.4829095403
 20
8.3365606964
 30
0.0
 10
12.4795638599
 20
8.3306226123
 30
0.0
 10
12.4762027665
 20
8.3249502394
 30
0.0
 10
12.472827974
 20
8.3195463805
 30
0.0
 10
12.4694411054
 20
8.3144137503
 30
0.0
 10
12.4660439057
 20
8.3095548778
 30
0.0
 10
12.4626380031
 20
8.30497218
 30
0.0
 10
12.4592250522
 20
8.3006678854
 30
0.0
 10
12.4558066491
 20
8.2966440815
 30
0.0
 10
12.4523846032
 20
8.2929029518
 30
0.0
 10
12.4500545128
 20
8.2905506407
 30
0.0
 10
12.4488888253
 20
8.2894246729
 30
0.0
  0
SPLINE
  5
37F
100
AcDbEntity
  8
0
100
AcDbSpline
 62
7
  6
CONTINUOUS
 70
0
 71
3
 72
81
 73
77
 74
0
 42
0.0000001
 43
0.0000001
 44
0.0000000001
 40
0.0
 40
0.0
 40
0.0
 40
0.0
 40
0.0061615731
 40
0.0094231707
 40
0.0128177068
 40
0.0163535836
 40
0.0200380214
 40
0.0238771006
 40
0.0278759238
 40
0.0320387373
 40
0.0363689631
 40
0.0408693854
 40
0.0455421376
 40
0.0503888193
 40
0.0554105696
 40
0.0606080444
 40
0.0659815645
 40
0.0715310593
 40
0.0772561488
 40
0.0892297584
 40
0.1018945305
 40
0.1152384306
 40
0.1292463135
 40
0.1439003144
 40
0.1591801614
 40
0.1750634182
 40
0.1915257039
 40
0.2085408833
 40
0.2260812244
 40
0.2441175365
 40
0.2626192884
 40
0.2815547321
 40
0.3008910197
 40
0.3205943058
 40
0.340629846
 40
0.360962087
 40
0.3815547679
 40
0.4023710152
 40
0.4445235228
 40
0.4871164647
 40
0.5298419245
 40
0.5723907691
 40
0.6144554898
 40
0.6352117036
 40
0.6557337623
 40
0.6759849591
 40
0.6959292308
 40
0.7155312478
 40
0.7347565072
 40
0.7535714313
 40
0.7719434787
 40
0.7898412457
 40
0.8072345732
 40
0.8240946657
 40
0.8403942237
 40
0.8561076015
 40
0.8712109643
 40
0.8856824714
 40
0.8995024996
 40
0.9126539167
 40
0.9251224293
 40
0.9368969918
 40
0.9425218855
 40
0.9479709205
 40
0.9532439012
 40
0.9583409808
 40
0.963262644
 40
0.9680098502
 40
0.9725839751
 40
0.9769869188
 40
0.9812211636
 40
0.9852898215
 40
0.9891968637
 40
0.9929470619
 40
0.9965459635
 40
1.0
 40
1.0
 40
1.0
 40
1.0
 10
12.3997540091
 20
9.6910404348
 30
0.0
 10
12.4016654661
 20
9.6918551375
 30
0.0
 10
12.4045005087
 20
9.6933171514
 30
0.0
 10
12.4081492581
 20
9.6956367433
 30
0.0
 10
12.4109424588
 20
9.6976428781
 30
0.0
 10
12.4137380716
 20
9.6998807735
 30
0.0
 10
12.4165352551
 20
9.7023495783
 30
0.0
 10
12.4193326884
 20
9.705047994
 30
0.0
 10
12.4221291609
 20
9.7079747436
 30
0.0
 10
12.4249233639
 20
9.7111284526
 30
0.0
 10
12.42771407
 20
9.7145075901
 30
0.0
 10
12.4304999388
 20
9.7181105874
 30
0.0
 10
12.4332796954
 20
9.7219357169
 30
0.0
 10
12.4360520354
 20
9.7259811627
 30
0.0
 10
12.4388156142
 20
9.7302450166
 30
0.0
 10
12.4415691657
 20
9.7347252248
 30
0.0
 10
12.4443113264
 20
9.7394196683
 30
0.0
 10
12.4470408324
 20
9.7443260963
 30
0.0
 10
12.4507165618
 20
9.7512513626
 30
0.0
 10
12.4552614659
 20
9.7604293451
 30
0.0
 10
12.4605657505
 20
9.7720901692
 30
0.0
 10
12.4657886928
 20
9.7845349766
 30
0.0
 10
12.4709201923
 20
9.7977398833
 30
0.0
 10
12.4759503246
 20
9.8116796893
 30
0.0
 10
12.4808693392
 20
9.8263276672
 30
0.0
 10
12.4856677036
 20
9.8416556959
 30
0.0
 10
12.4903361174
 20
9.8576343042
 30
0.0
 10
12.4948655292
 20
9.8742327461
 30
0.0
 10
12.4992471576
 20
9.8914190641
 30
0.0
 10
12.5034725058
 20
9.9091601516
 30
0.0
 10
12.5075333877
 20
9.9274218148
 30
0.0
 10
12.511421939
 20
9.9461688439
 30
0.0
 10
12.5151306284
 20
9.9653650872
 30
0.0
 10
12.5186522732
 20
9.9849735221
 30
0.0
 10
12.5219800535
 20
10.0049563272
 30
0.0
 10
12.525107524
 20
10.025274942
 30
0.0
 10
12.5280286609
 20
10.0458901904
 30
0.0
 10
12.5316557699
 20
10.0738353281
 30
0.0
 10
12.5356290218
 20
10.1092142909
 30
0.0
 10
12.539476231
 20
10.152031568
 30
0.0
 10
12.5423924752
 20
10.1950564048
 30
0.0
 10
12.544355236
 20
10.2379568325
 30
0.0
 10
12.5451876285
 20
10.2734837586
 30
0.0
 10
12.5453589521
 20
10.3015891207
 30
0.0
 10
12.5452413628
 20
10.3223385811
 30
0.0
 10
12.5448785844
 20
10.3428113478
 30
0.0
 10
12.5442713161
 20
10.362967952
 30
0.0
 10
12.5434207567
 20
10.3827694975
 30
0.0
 10
12.5423285691
 20
10.4021777849
 30
0.0
 10
12.5409968851
 20
10.4211553761
 30
0.0
 10
12.5394283095
 20
10.4396656739
 30
0.0
 10
12.5376259083
 20
10.4576729922
 30
0.0
 10
12.5355932008
 20
10.4751426238
 30
0.0
 10
12.5333341544
 20
10.4920409077
 30
0.0
 10
12.5308531744
 20
10.5083353006
 30
0.0
 10
12.5281551079
 20
10.5239944492
 30
0.0
 10
12.5252452239
 20
10.538988252
 30
0.0
 10
12.5221292004
 20
10.5532879262
 30
0.0
 10
12.518813111
 20
10.5668660473
 30
0.0
 10
12.515303405
 20
10.579696702
 30
0.0
 10
12.5116068976
 20
10.5917552742
 30
0.0
 10
12.5083287287
 20
10.6012817018
 30
0.0
 10
12.5056100735
 20
10.6084917062
 30
0.0
 10
12.5035599623
 20
10.613609352
 30
0.0
 10
12.5014686052
 20
10.6185173987
 30
0.0
 10
12.4993370086
 20
10.62321352
 30
0.0
 10
12.4971661449
 20
10.6276954593
 30
0.0
 10
12.4949570879
 20
10.6319611038
 30
0.0
 10
12.4927108456
 20
10.636008417
 30
0.0
 10
12.4904284736
 20
10.6398354732
 30
0.0
 10
12.4881110745
 20
10.6434404732
 30
0.0
 10
12.4857596467
 20
10.6468216986
 30
0.0
 10
12.4833752751
 20
10.6499775981
 30
0.0
 10
12.480958938
 20
10.6529066816
 30
0.0
 10
12.4785118927
 20
10.6556073718
 30
0.0
 10
12.4768272447
 20
10.657288177
 30
0.0
 10
12.475980047
 20
10.6580875436
 30
0.0
  0
SPLINE
  5
380
100
AcDbEntity
  8
0
100
AcDbSpline
 62
7
  6
CONTINUOUS
 70
0
 71
3
 72
54
 73
50
 74
0
 42
0.0000001
 43
0.0000001
 44
0.0000000001
 40
0.0
 40
0.0
 40
0.0
 40
0.0
 40
0.0055575314
 40
0.0111779514
 40
0.0169218741
 40
0.0228457549
 40
0.0290005166
 40
0.0354309104
 40
0.0421753481
 40
0.0492661819
 40
0.0567302289
 40
0.0645893164
 40
0.0728609992
 40
0.0815590171
 40
0.0906939529
 40
0.1002735511
 40
0.1103032084
 40
0.120786225
 40
0.131724095
 40
0.1431167574
 40
0.1549627059
 40
0.1672592594
 40
0.1800025507
 40
0.1931877841
 40
0.2068091928
 40
0.2208602246
 40
0.2353335436
 40
0.2502211095
 40
0.265514256
 40
0.2812036668
 40
0.2972795185
 40
0.3137313951
 40
0.3477187121
 40
0.383073812
 40
0.4196976091
 40
0.4574851642
 40
0.4963263633
 40
0.5361065441
 40
0.5767070861
 40
0.6180059759
 40
0.6598783548
 40
0.7021970543
 40
0.7448331254
 40
0.7876563595
 40
0.8305358172
 40
0.8733403047
 40
0.9159390443
 40
0.9582017033
 40
1.0
 40
1.0
 40
1.0
 40
1.0
 10
9.8600370696
 20
10.7338936487
 30
0.0
 10
9.8600370667
 20
10.7355189389
 30
0.0
 10
9.8602190057
 20
10.7387907426
 30
0.0
 10
9.8610357242
 20
10.7436809785
 30
0.0
 10
9.8623947913
 20
10.7485603188
 30
0.0
 10
9.864293661
 20
10.753423078
 30
0.0
 10
9.8667291361
 20
10.7582653397
 30
0.0
 10
9.8696979791
 20
10.763083377
 30
0.0
 10
9.8731968044
 20
10.7678738814
 30
0.0
 10
9.8772221598
 20
10.7726336479
 30
0.0
 10
9.8817704862
 20
10.7773594277
 30
0.0
 10
9.8868379195
 20
10.7820479987
 30
0.0
 10
9.8924203942
 20
10.7866959363
 30
0.0
 10
9.898513393
 20
10.7912998824
 30
0.0
 10
9.9051121041
 20
10.7958562833
 30
0.0
 10
9.9122112401
 20
10.8003616689
 30
0.0
 10
9.9198051474
 20
10.8048124656
 30
0.0
 10
9.9278877321
 20
10.8092051446
 30
0.0
 10
9.9364524894
 20
10.8135361918
 30
0.0
 10
9.9454925168
 20
10.8178020764
 30
0.0
 10
9.9550004858
 20
10.8219993816
 30
0.0
 10
9.9649686989
 20
10.8261246311
 30
0.0
 10
9.9753890416
 20
10.8301745121
 30
0.0
 10
9.9862530434
 20
10.8341456578
 30
0.0
 10
9.9975518428
 20
10.8380348534
 30
0.0
 10
10.009276226
 20
10.8418388834
 30
0.0
 10
10.0214166189
 20
10.845554632
 30
0.0
 10
10.0339631008
 20
10.8491790567
 30
0.0
 10
10.046905418
 20
10.8527091558
 30
0.0
 10
10.0602329784
 20
10.8561420589
 30
0.0
 10
10.073934895
 20
10.859474926
 30
0.0
 10
10.0928940249
 20
10.8638289034
 30
0.0
 10
10.1174507262
 20
10.868988898
 30
0.0
 10
10.1479165257
 20
10.8746755185
 30
0.0
 10
10.1795912861
 20
10.8799030085
 30
0.0
 10
10.2123712672
 20
10.8846540983
 30
0.0
 10
10.2461492571
 20
10.8889130636
 30
0.0
 10
10.2808146733
 20
10.8926658247
 30
0.0
 10
10.3162540087
 20
10.8958999774
 30
0.0
 10
10.3523511907
 20
10.8986048363
 30
0.0
 10
10.3889879731
 20
10.9007714664
 30
0.0
 10
10.4260443266
 20
10.9023927142
 30
0.0
 10
10.463398837
 20
10.9034632272
 30
0.0
 10
10.5009291074
 20
10.9039794729
 30
0.0
 10
10.5385121568
 20
10.9039397451
 30
0.0
 10
10.5760248469
 20
10.9033441805
 30
0.0
 10
10.6133442316
 20
10.902194733
 30
0.0
 10
10.650347984
 20
10.9004952204
 30
0.0
 10
10.6748864825
 20
10.8989893746
 30
0.0
 10
10.6870810305
 20
10.8981436798
 30
0.0
  0
SPLINE
  5
381
100
AcDbEntity
  8
0
100
AcDbSpline
 62
7
  6
CONTINUOUS
 70
0
 71
3
 72
23
 73
19
 74
0
 42
0.0000001
 43
0.0000001
 44
0.0000000001
 40
0.0
 40
0.0
 40
0.0
 40
0.0
 40
0.0546454453
 40
0.1111483869
 40
0.1693522985
 40
0.2290934408
 40
0.2902017326
 40
0.352501577
 40
0.4158126541
 40
0.4799506925
 40
0.5447282239
 40
0.6099553297
 40
0.6754403743
 40
0.7409907573
 40
0.8064135783
 40
0.8715165893
 40
0.936108291
 40
1.0
 40
1.0
 40
1.0
 40
1.0
 10
10.1263521896
 20
10.5972495069
 30
0.0
 10
10.1364213796
 20
10.5991770528
 30
0.0
 10
10.1569457747
 20
10.6028720562
 30
0.0
 10
10.1883242369
 20
10.6078703176
 30
0.0
 10
10.220738475
 20
10.6124060848
 30
0.0
 10
10.2540862534
 20
10.6164649073
 30
0.0
 10
10.2882626197
 20
10.6200338904
 30
0.0
 10
10.3231599098
 20
10.6231016911
 30
0.0
 10
10.358668187
 20
10.6256585649
 30
0.0
 10
10.3946755675
 20
10.6276963916
 30
0.0
 10
10.4310685842
 20
10.6292087014
 30
0.0
 10
10.4677325454
 20
10.6301906928
 30
0.0
 10
10.5045519015
 20
10.6306392499
 30
0.0
 10
10.5414106047
 20
10.6305529465
 30
0.0
 10
10.5781924967
 20
10.6299320616
 30
0.0
 10
10.6147816363
 20
10.6287785557
 30
0.0
 10
10.6510626534
 20
10.6270961098
 30
0.0
 10
10.6751230362
 20
10.6256158874
 30
0.0
 10
10.6870810305
 20
10.6247865976
 30
0.0
  0
SPLINE
  5
382
100
AcDbEntity
  8
0
100
AcDbSpline
 62
7
  6
CONTINUOUS
 70
0
 71
3
 72
82
 73
78
 74
0
 42
0.0000001
 43
0.0000001
 44
0.0000000001
 40
0.0
 40
0.0
 40
0.0
 40
0.0
 40
0.0040522968
 40
0.0082800541
 40
0.0126871353
 40
0.017276754
 40
0.0220515921
 40
0.0270137359
 40
0.0321645367
 40
0.0375048222
 40
0.043034983
 40
0.0487549531
 40
0.0607618702
 40
0.0735189856
 40
0.0870144352
 40
0.1012324696
 40
0.1161539643
 40
0.1317568215
 40
0.1480163314
 40
0.1649054502
 40
0.1823950274
 40
0.2004539845
 40
0.2190495022
 40
0.2381471925
 40
0.2577112404
 40
0.2777045289
 40
0.298088762
 40
0.3188246044
 40
0.3398717998
 40
0.3611892822
 40
0.3827352811
 40
0.4263421996
 40
0.4703495288
 40
0.5144094061
 40
0.5581734494
 40
0.6012962435
 40
0.6225113219
 40
0.6434397112
 40
0.6640406465
 40
0.6842742275
 40
0.7041015244
 40
0.7234846946
 40
0.7423871102
 40
0.7607735075
 40
0.7786101129
 40
0.7958647849
 40
0.8125071768
 40
0.828508941
 40
0.8438439412
 40
0.8584884801
 40
0.8724215933
 40
0.8856254223
 40
0.8980856965
 40
0.9097922968
 40
0.9153614734
 40
0.9207407628
 40
0.9259304341
 40
0.9309312749
 40
0.9357445151
 40
0.9403720006
 40
0.9448162253
 40
0.9490803682
 40
0.9531685052
 40
0.9570855983
 40
0.9608376933
 40
0.9644320647
 40
0.9678772864
 40
0.9711834864
 40
0.977423495
 40
0.9803901048
 40
0.9832752816
 40
0.9860977702
 40
0.9888777101
 40
0.9916362606
 40
0.994395123
 40
0.9971759884
 40
1.0
 40
1.0
 40
1.0
 40
1.0
 10
12.4179791963
 20
8.4702645514
 30
0.0
 10
12.4187990647
 20
8.4710564835
 30
0.0
 10
12.4204378617
 20
8.47271271
 30
0.0
 10
12.4228434284
 20
8.4753500749
 30
0.0
 10
12.4252463407
 20
8.4781908774
 30
0.0
 10
12.4276452078
 20
8.4812335029
 30
0.0
 10
12.4300388807
 20
8.4844763669
 30
0.0
 10
12.4324261202
 20
8.487917846
 30
0.0
 10
12.4348057485
 20
8.4915561481
 30
0.0
 10
12.4371765056
 20
8.4953893813
 30
0.0
 10
12.4395371477
 20
8.4994155563
 30
0.0
 10
12.4427211713
 20
8.5051310085
 30
0.0
 10
12.44665861
 20
8.5127512206
 30
0.0
 10
12.451250465
 20
8.5224868068
 30
0.0
 10
12.4557729602
 20
8.5329360311
 30
0.0
 10
12.4602165474
 20
8.5440770175
 30
0.0
 10
12.464571832
 20
8.5558865812
 30
0.0
 10
12.4688295984
 20
8.5683399937
 30
0.0
 10
12.4729808241
 20
8.5814111456
 30
0.0
 10
12.4770167081
 20
8.5950725914
 30
0.0
 10
12.4809286873
 20
8.6092956171
 30
0.0
 10
12.484708472
 20
8.624050296
 30
0.0
 10
12.4883480553
 20
8.639305561
 30
0.0
 10
12.4918397256
 20
8.6550292806
 30
0.0
 10
12.4951760831
 20
8.6711883287
 30
0.0
 10
12.498350059
 20
8.6877486498
 30
0.0
 10
12.5013549398
 20
8.7046753304
 30
0.0
 10
12.5041843681
 20
8.7219326826
 30
0.0
 10
12.5068323499
 20
8.7394843114
 30
0.0
 10
12.5092933018
 20
8.757293232
 30
0.0
 10
12.5123301844
 20
8.7814269913
 30
0.0
 10
12.5156182057
 20
8.8119596583
 30
0.0
 10
12.5187314243
 20
8.8488708833
 30
0.0
 10
12.5210013604
 20
8.8858879739
 30
0.0
 10
12.5224089077
 20
8.9226987865
 30
0.0
 10
12.52285604
 20
8.9531071124
 30
0.0
 10
12.5227665375
 20
8.9770923399
 30
0.0
 10
12.5224790544
 20
8.9947401099
 30
0.0
 10
12.5219715618
 20
9.0121067177
 30
0.0
 10
12.5212451348
 20
9.0291555733
 30
0.0
 10
12.5203013371
 20
9.0458507236
 30
0.0
 10
12.5191421846
 20
9.0621569726
 30
0.0
 10
12.5177701496
 20
9.0780399491
 30
0.0
 10
12.5161881698
 20
9.093466188
 30
0.0
 10
12.5143996273
 20
9.1084032
 30
0.0
 10
12.5124083428
 20
9.1228195367
 30
0.0
 10
12.5102185633
 20
9.1366848622
 30
0.0
 10
12.5078349666
 20
9.1499700302
 30
0.0
 10
12.5052626489
 20
9.1626471506
 30
0.0
 10
12.5025071006
 20
9.1746896571
 30
0.0
 10
12.4995741927
 20
9.1860723446
 30
0.0
 10
12.4964701543
 20
9.1967715375
 30
0.0
 10
12.4932015643
 20
9.2067648523
 30
0.0
 10
12.4903000993
 20
9.2146128314
 30
0.0
 10
12.4878937989
 20
9.220514318
 30
0.0
 10
12.486082321
 20
9.2246772761
 30
0.0
 10
12.484234944
 20
9.228648816
 30
0.0
 10
12.4823526529
 20
9.2324268975
 30
0.0
 10
12.4804363825
 20
9.2360095436
 30
0.0
 10
12.4784871249
 20
9.2393949034
 30
0.0
 10
12.4765058934
 20
9.2425812421
 30
0.0
 10
12.4744936274
 20
9.2455668872
 30
0.0
 10
12.4724513734
 20
9.2483503313
 30
0.0
 10
12.4703800978
 20
9.2509301149
 30
0.0
 10
12.4682807494
 20
9.2533049001
 30
0.0
 10
12.4661544426
 20
9.2554734094
 30
0.0
 10
12.4640017548
 20
9.2574346154
 30
0.0
 10
12.4611538246
 20
9.2597268232
 30
0.0
 10
12.4581973824
 20
9.2616634812
 30
0.0
 10
12.455150811
 20
9.2631828946
 30
0.0
 10
12.4528828943
 20
9.2640910224
 30
0.0
 10
12.4505954904
 20
9.2647856721
 30
0.0
 10
12.4482899252
 20
9.2652662387
 30
0.0
 10
12.4459678196
 20
9.2655321136
 30
0.0
 10
12.443630794
 20
9.2655831423
 30
0.0
 10
12.4412807538
 20
9.2654193182
 30
0.0
 10
12.439721653
 20
9.2651694855
 30
0.0
 10
12.4389433261
 20
9.2650106074
 30
0.0
  0
SPLINE
  5
383
100
AcDbEntity
  8
0
100
AcDbSpline
 62
7
  6
CONTINUOUS
 70
0
 71
3
 72
51
 73
47
 74
0
 42
0.0000001
 43
0.0000001
 44
0.0000000001
 40
0.0
 40
0.0
 40
0.0
 40
0.0
 40
0.0481980747
 40
0.0958298526
 40
0.1428199449
 40
0.1890979835
 40
0.2345930892
 40
0.2792367333
 40
0.3229621329
 40
0.3657045403
 40
0.4074014622
 40
0.4479928299
 40
0.4874212467
 40
0.5256322393
 40
0.5625745011
 40
0.5982001867
 40
0.6324652508
 40
0.6653298673
 40
0.6967589097
 40
0.7267224968
 40
0.7551966901
 40
0.7688701393
 40
0.7821654912
 40
0.7950818118
 40
0.8076188304
 40
0.8197768884
 40
0.8315569804
 40
0.8429609602
 40
0.8539914242
 40
0.8646519776
 40
0.8749472487
 40
0.8848829696
 40
0.8944662496
 40
0.9037055338
 40
0.9126109204
 40
0.9211942686
 40
0.9294693404
 40
0.937452123
 40
0.9451608562
 40
0.9598349789
 40
0.9668568053
 40
0.9737036628
 40
0.9804068766
 40
0.9870000912
 40
0.9935188408
 40
1.0
 40
1.0
 40
1.0
 40
1.0
 10
10.6870810305
 20
10.8981436798
 30
0.0
 10
10.6956878373
 20
10.8975467957
 30
0.0
 10
10.712793832
 20
10.8962639606
 30
0.0
 10
10.7382638912
 20
10.8940581799
 30
0.0
 10
10.7633640961
 20
10.8915848989
 30
0.0
 10
10.788052211
 20
10.8888483447
 30
0.0
 10
10.8122871525
 20
10.8858530634
 30
0.0
 10
10.8360283282
 20
10.8826041045
 30
0.0
 10
10.8592360764
 20
10.8791069277
 30
0.0
 10
10.8818716135
 20
10.8753674121
 30
0.0
 10
10.903897118
 20
10.8713918452
 30
0.0
 10
10.9252757975
 20
10.8671869074
 30
0.0
 10
10.9459719539
 20
10.8627596673
 30
0.0
 10
10.9659510503
 20
10.8581175757
 30
0.0
 10
10.9851797674
 20
10.8532684406
 30
0.0
 10
11.0036260575
 20
10.8482204164
 30
0.0
 10
11.021259211
 20
10.8429819849
 30
0.0
 10
11.0380498995
 20
10.8375619456
 30
0.0
 10
11.0539703167
 20
10.8319693947
 30
0.0
 10
11.0689939463
 20
10.8262137074
 30
0.0
 10
11.0809013756
 20
10.8212242859
 30
0.0
 10
11.0899516178
 20
10.8171506631
 30
0.0
 10
11.0964079022
 20
10.8141019993
 30
0.0
 10
11.1026220037
 20
10.8110198264
 30
0.0
 10
11.1085913586
 20
10.8079054233
 30
0.0
 10
11.1143134935
 20
10.8047600954
 30
0.0
 10
11.1197860224
 20
10.8015851057
 30
0.0
 10
11.1250067041
 20
10.798381814
 30
0.0
 10
11.1299733615
 20
10.7951514908
 30
0.0
 10
11.134683954
 20
10.7918954766
 30
0.0
 10
11.1391365491
 20
10.788615107
 30
0.0
 10
11.1433292836
 20
10.7853116624
 30
0.0
 10
11.1472604644
 20
10.7819865196
 30
0.0
 10
11.1509284368
 20
10.7786409486
 30
0.0
 10
11.1543316819
 20
10.7752762868
 30
0.0
 10
11.1574688058
 20
10.771893828
 30
0.0
 10
11.1603383684
 20
10.7684949251
 30
0.0
 10
11.1629393686
 20
10.7650805708
 30
0.0
 10
11.1659966916
 20
10.7605844357
 30
0.0
 10
11.1685833608
 20
10.7559820719
 30
0.0
 10
11.170632708
 20
10.7512983359
 30
0.0
 10
11.1718736038
 20
10.7478279522
 30
0.0
 10
11.1728396353
 20
10.7443507505
 30
0.0
 10
11.1735302082
 20
10.7408681273
 30
0.0
 10
11.1739448132
 20
10.7373821225
 30
0.0
 10
11.1740370448
 20
10.7350540931
 30
0.0
 10
11.1740370469
 20
10.7338939625
 30
0.0
  0
SPLINE
  5
384
100
AcDbEntity
  8
0
100
AcDbSpline
 62
7
  6
CONTINUOUS
 70
0
 71
3
 72
49
 73
45
 74
0
 42
0.0000001
 43
0.0000001
 44
0.0000000001
 40
0.0
 40
0.0
 40
0.0
 40
0.0
 40
0.0103081795
 40
0.0210694622
 40
0.0322787793
 40
0.0439297867
 40
0.0560150397
 40
0.0685261031
 40
0.0814535826
 40
0.0947873094
 40
0.1085162585
 40
0.122628781
 40
0.151953738
 40
0.182656841
 40
0.2146233633
 40
0.2477310536
 40
0.2818511264
 40
0.3168491725
 40
0.3525860197
 40
0.3889185603
 40
0.4257005575
 40
0.462783437
 40
0.50001707
 40
0.5372505523
 40
0.5743329803
 40
0.6111142278
 40
0.647445724
 40
0.6831812374
 40
0.7181776673
 40
0.7522958504
 40
0.7854013885
 40
0.8173655079
 40
0.8480659716
 40
0.8773880687
 40
0.8914990836
 40
0.9052264784
 40
0.9185586025
 40
0.9314844419
 40
0.9439938198
 40
0.9560773588
 40
0.9677266134
 40
0.9789341571
 40
0.9896936354
 40
1.0
 40
1.0
 40
1.0
 40
1.0
 10
12.3355814311
 20
8.5402388399
 30
0.0
 10
12.3366375412
 20
8.5422568426
 30
0.0
 10
12.3387372026
 20
8.5464126336
 30
0.0
 10
12.3417894941
 20
8.5528594275
 30
0.0
 10
12.3448094995
 20
8.5596474788
 30
0.0
 10
12.3477939354
 20
8.566769439
 30
0.0
 10
12.350739587
 20
8.5742176815
 30
0.0
 10
12.3536432457
 20
8.5819841957
 30
0.0
 10
12.3565017985
 20
8.5900606195
 30
0.0
 10
12.3593121019
 20
8.598438256
 30
0.0
 10
12.3620711806
 20
8.6071080775
 30
0.0
 10
12.3657243111
 20
8.6191999315
 30
0.0
 10
12.3701302705
 20
8.634980326
 30
0.0
 10
12.3751020852
 20
8.6546915996
 30
0.0
 10
12.379802167
 20
8.6753274456
 30
0.0
 10
12.3842100525
 20
8.6967987923
 30
0.0
 10
12.3883065397
 20
8.7190130733
 30
0.0
 10
12.3920738047
 20
8.7418744093
 30
0.0
 10
12.3954954676
 20
8.7652841027
 30
0.0
 10
12.3985566638
 20
8.7891410552
 30
0.0
 10
12.4012441052
 20
8.8133422173
 30
0.0
 10
12.4035461371
 20
8.8377830387
 30
0.0
 10
12.4054527875
 20
8.8623579243
 30
0.0
 10
12.40695581
 20
8.886960695
 30
0.0
 10
12.4080487189
 20
8.91148505
 30
0.0
 10
12.4087268184
 20
8.9358250297
 30
0.0
 10
12.4089872235
 20
8.9598754777
 30
0.0
 10
12.4088288739
 20
8.9835324998
 30
0.0
 10
12.4082525404
 20
9.0066939174
 30
0.0
 10
12.4072608263
 20
9.0292597216
 30
0.0
 10
12.4058581534
 20
9.0511324966
 30
0.0
 10
12.4040507663
 20
9.0722179179
 30
0.0
 10
12.4018466403
 20
9.0924249492
 30
0.0
 10
12.3996604818
 20
9.1086608148
 30
0.0
 10
12.3977109293
 20
9.1211397766
 30
0.0
 10
12.3961746495
 20
9.1301063486
 30
0.0
 10
12.3945473067
 20
9.1387905656
 30
0.0
 10
12.3928306102
 20
9.1471830769
 30
0.0
 10
12.3910264622
 20
9.1552748359
 30
0.0
 10
12.3891368055
 20
9.1630571328
 30
0.0
 10
12.3871636972
 20
9.1705215913
 30
0.0
 10
12.3851092851
 20
9.1776602165
 30
0.0
 10
12.3829757914
 20
9.184465277
 30
0.0
 10
12.3814696721
 20
9.188870199
 30
0.0
 10
12.3807021238
 20
9.1910142014
 30
0.0
  0
SPLINE
  5
385
100
AcDbEntity
  8
0
100
AcDbSpline
 62
7
  6
CONTINUOUS
 70
0
 71
3
 72
37
 73
33
 74
0
 42
0.0000001
 43
0.0000001
 44
0.0000000001
 40
0.0
 40
0.0
 40
0.0
 40
0.0
 40
0.0248574806
 40
0.0508896549
 40
0.078039672
 40
0.1062459038
 40
0.1354424399
 40
0.1655595347
 40
0.1965240131
 40
0.2282596356
 40
0.2606874413
 40
0.2937260734
 40
0.327292093
 40
0.3613002834
 40
0.395663959
 40
0.4302952635
 40
0.500003745
 40
0.5697121028
 40
0.6043432499
 40
0.638706704
 40
0.6727146112
 40
0.7062802898
 40
0.7393185266
 40
0.7717458782
 40
0.8034809855
 40
0.83444489
 40
0.8645613571
 40
0.8937572179
 40
0.9219627345
 40
0.949111997
 40
0.9751433682
 40
1.0
 40
1.0
 40
1.0
 40
1.0
 10
12.322101364
 20
8.6111796668
 30
0.0
 10
12.3235302053
 20
8.6152199602
 30
0.0
 10
12.3263409488
 20
8.6235323018
 30
0.0
 10
12.3303370809
 20
8.6363806248
 30
0.0
 10
12.3342025175
 20
8.649870463
 30
0.0
 10
12.337926566
 20
8.6639648981
 30
0.0
 10
12.3414989785
 20
8.6786254905
 30
0.0
 10
12.3449099153
 20
8.6938121736
 30
0.0
 10
12.348149988
 20
8.7094834351
 30
0.0
 10
12.3512102808
 20
8.725596418
 30
0.0
 10
12.354082376
 20
8.7421070458
 30
0.0
 10
12.3567583756
 20
8.7589701429
 30
0.0
 10
12.3592309251
 20
8.7761395627
 30
0.0
 10
12.3614932261
 20
8.7935683023
 30
0.0
 10
12.3635390954
 20
8.8112086841
 30
0.0
 10
12.3659759269
 20
8.8349976961
 30
0.0
 10
12.3684417788
 20
8.8649063081
 30
0.0
 10
12.3701277412
 20
8.8948689748
 30
0.0
 10
12.3709977628
 20
8.9187665512
 30
0.0
 10
12.3714063239
 20
8.9365203587
 30
0.0
 10
12.3715713108
 20
8.9540943913
 30
0.0
 10
12.3714922677
 20
8.9714405763
 30
0.0
 10
12.3711694413
 20
8.9885114225
 30
0.0
 10
12.3706037422
 20
9.0052602094
 30
0.0
 10
12.3697967567
 20
9.0216411025
 30
0.0
 10
12.3687507396
 20
9.037609286
 30
0.0
 10
12.3674686067
 20
9.0531210847
 30
0.0
 10
12.3659539276
 20
9.0681340906
 30
0.0
 10
12.3642109194
 20
9.0826072651
 30
0.0
 10
12.3622444245
 20
9.0965011213
 30
0.0
 10
12.3600599375
 20
9.1097776167
 30
0.0
 10
12.3584233978
 20
9.11839806
 30
0.0
 10
12.3575658959
 20
9.1225967497
 30
0.0
  0
SPLINE
  5
386
100
AcDbEntity
  8
0
100
AcDbSpline
 62
7
  6
CONTINUOUS
 70
0
 71
3
 72
83
 73
79
 74
0
 42
0.0000001
 43
0.0000001
 44
0.0000000001
 40
0.0
 40
0.0
 40
0.0
 40
0.0
 40
0.003948762
 40
0.0077209436
 40
0.0113257625
 40
0.0147746989
 40
0.0212568377
 40
0.024328405
 40
0.0273115158
 40
0.0302284054
 40
0.0331030109
 40
0.0359604277
 40
0.0388262432
 40
0.0417258028
 40
0.0446835064
 40
0.0477222087
 40
0.0508628416
 40
0.0541241025
 40
0.0575224574
 40
0.0610721563
 40
0.0647853328
 40
0.0686722859
 40
0.0727415451
 40
0.0770001672
 40
0.0814539045
 40
0.086107287
 40
0.0909639144
 40
0.0960264383
 40
0.1012967456
 40
0.106776085
 40
0.1124650147
 40
0.1244707803
 40
0.1373099109
 40
0.1509710406
 40
0.165437547
 40
0.1806883277
 40
0.1966983938
 40
0.2134393785
 40
0.2308799232
 40
0.2489859891
 40
0.267721104
 40
0.2870466141
 40
0.3069219087
 40
0.3273046098
 40
0.3481507395
 40
0.3694148817
 40
0.3910503657
 40
0.4130094222
 40
0.4577016512
 40
0.5030940125
 40
0.5487799421
 40
0.5943495143
 40
0.6393941392
 40
0.6835112202
 40
0.7050994416
 40
0.7263099618
 40
0.7470962654
 40
0.7674131344
 40
0.7872167986
 40
0.806465099
 40
0.8251176659
 40
0.8431361353
 40
0.8604843641
 40
0.8771286503
 40
0.8930380054
 40
0.9081844876
 40
0.9225436247
 40
0.9360948837
 40
0.9488222803
 40
0.9607152195
 40
0.9663476577
 40
0.9717705899
 40
0.9769847538
 40
0.9819915051
 40
0.9867930884
 40
0.9913924736
 40
0.9957932958
 40
1.0
 40
1.0
 40
1.0
 40
1.0
 10
12.4495736303
 20
7.7916563281
 30
0.0
 10
12.4501512938
 20
7.7921939269
 30
0.0
 10
12.4513061531
 20
7.7932183571
 30
0.0
 10
12.4530780962
 20
7.7946282489
 30
0.0
 10
12.4548484565
 20
7.7958744908
 30
0.0
 10
12.4571566127
 20
7.7972871003
 30
0.0
 10
12.4595115299
 20
7.7984136317
 30
0.0
 10
12.461891359
 20
7.7992050354
 30
0.0
 10
12.4636379718
 20
7.7996205703
 30
0.0
 10
12.46537655
 20
7.7998679154
 30
0.0
 10
12.4671058653
 20
7.7999467273
 30
0.0
 10
12.4688244579
 20
7.7998567129
 30
0.0
 10
12.470530871
 20
7.799598021
 30
0.0
 10
12.4722236744
 20
7.7991709033
 30
0.0
 10
12.4739015507
 20
7.7985759183
 30
0.0
 10
12.4755633556
 20
7.7978138091
 30
0.0
 10
12.4772080261
 20
7.7968853024
 30
0.0
 10
12.478834687
 20
7.7957913156
 30
0.0
 10
12.4804424782
 20
7.7945326871
 30
0.0
 10
12.4820305855
 20
7.7931103128
 30
0.0
 10
12.4835982588
 20
7.7915251647
 30
0.0
 10
12.4851446538
 20
7.7897781823
 30
0.0
 10
12.4866690105
 20
7.7878704512
 30
0.0
 10
12.4881705088
 20
7.7858030857
 30
0.0
 10
12.4896483054
 20
7.7835772819
 30
0.0
 10
12.4911016252
 20
7.7811943631
 30
0.0
 10
12.4925295977
 20
7.7786556956
 30
0.0
 10
12.4939314308
 20
7.7759627782
 30
0.0
 10
12.4953063112
 20
7.7731171916
 30
0.0
 10
12.4966534227
 20
7.7701205932
 30
0.0
 10
12.4984437328
 20
7.7658491006
 30
0.0
 10
12.5005980947
 20
7.7601378173
 30
0.0
 10
12.503016109
 20
7.7528306784
 30
0.0
 10
12.5053054701
 20
7.7449688455
 30
0.0
 10
12.5074606773
 20
7.7365709489
 30
0.0
 10
12.5094765196
 20
7.7276567701
 30
0.0
 10
12.5113481213
 20
7.7182474633
 30
0.0
 10
12.5130709424
 20
7.7083653954
 30
0.0
 10
12.5146408003
 20
7.6980341015
 30
0.0
 10
12.5160538774
 20
7.6872782175
 30
0.0
 10
12.5173067462
 20
7.6761234219
 30
0.0
 10
12.518396368
 20
7.6645963657
 30
0.0
 10
12.5193200969
 20
7.6527245999
 30
0.0
 10
12.520075685
 20
7.6405365077
 30
0.0
 10
12.5206612928
 20
7.6280612374
 30
0.0
 10
12.5210754945
 20
7.6153286411
 30
0.0
 10
12.5213172987
 20
7.6023691599
 30
0.0
 10
12.5214094806
 20
7.5847257905
 30
0.0
 10
12.5210857734
 20
7.5623347151
 30
0.0
 10
12.5200148265
 20
7.5352208821
 30
0.0
 10
12.5182689906
 20
7.5079663899
 30
0.0
 10
12.51586499
 20
7.4808317906
 30
0.0
 10
12.5128258576
 20
7.4540764951
 30
0.0
 10
12.5097668432
 20
7.432153894
 30
0.0
 10
12.5070171979
 20
7.4150032433
 30
0.0
 10
12.5048309809
 20
7.4024854814
 30
0.0
 10
12.5025112658
 20
7.3902502624
 30
0.0
 10
12.5000636063
 20
7.3783268289
 30
0.0
 10
12.4974938951
 20
7.3667436958
 30
0.0
 10
12.4948083102
 20
7.3555285523
 30
0.0
 10
12.492013308
 20
7.3447082005
 30
0.0
 10
12.4891156153
 20
7.3343084802
 30
0.0
 10
12.4861222112
 20
7.3243542029
 30
0.0
 10
12.4830403019
 20
7.314869094
 30
0.0
 10
12.4798773045
 20
7.305875734
 30
0.0
 10
12.4766408211
 20
7.2973954831
 30
0.0
 10
12.4733386349
 20
7.2894484344
 30
0.0
 10
12.4699786488
 20
7.2820532736
 30
0.0
 10
12.4665688975
 20
7.2752275096
 30
0.0
 10
12.4636419178
 20
7.2699349594
 30
0.0
 10
12.4612757402
 20
7.2660060438
 30
0.0
 10
12.4595259723
 20
7.2632652647
 30
0.0
 10
12.4577698729
 20
7.2606783014
 30
0.0
 10
12.4560083979
 20
7.2582466811
 30
0.0
 10
12.4542425889
 20
7.2559717834
 30
0.0
 10
12.4524733996
 20
7.2538549485
 30
0.0
 10
12.4507019863
 20
7.2518975371
 30
0.0
 10
12.4494934776
 20
7.2506724932
 30
0.0
 10
12.4488888253
 20
7.2500884439
 30
0.0
  0
SPLINE
  5
387
100
AcDbEntity
  8
0
100
AcDbSpline
 62
7
  6
CONTINUOUS
 70
0
 71
3
 72
15
 73
11
 74
0
 42
0.0000001
 43
0.0000001
 44
0.0000000001
 40
0.0
 40
0.0
 40
0.0
 40
0.0
 40
0.1150549931
 40
0.233427462
 40
0.3548900361
 40
0.4792059981
 40
0.606130749
 40
0.735411075
 40
0.8667899859
 40
1.0
 40
1.0
 40
1.0
 40
1.0
 10
10.9076895156
 20
10.597255711
 30
0.0
 10
10.8993103801
 20
10.5988595238
 30
0.0
 10
10.8822803239
 20
10.6019574635
 30
0.0
 10
10.8563128292
 20
10.6062258847
 30
0.0
 10
10.8296005548
 20
10.6101753578
 30
0.0
 10
10.8022021887
 20
10.6137971496
 30
0.0
 10
10.7741778588
 20
10.6170832444
 30
0.0
 10
10.7455889513
 20
10.6200264181
 30
0.0
 10
10.7164983897
 20
10.6226201237
 30
0.0
 10
10.6969347891
 20
10.6241032372
 30
0.0
 10
10.6870810305
 20
10.6247865976
 30
0.0
  0
SPLINE
  5
388
100
AcDbEntity
  8
0
100
AcDbSpline
 62
7
  6
CONTINUOUS
 70
0
 71
3
 72
20
 73
16
 74
0
 42
0.0000001
 43
0.0000001
 44
0.0000000001
 40
0.0
 40
0.0
 40
0.0
 40
0.0
 40
0.1504572429
 40
0.2222009552
 40
0.2917179917
 40
0.4244350495
 40
0.4878976342
 40
0.5495926289
 40
0.6682362658
 40
0.7255681682
 40
0.781805938
 40
0.8371511931
 40
0.8918166409
 40
0.9460237365
 40
1.0
 40
1.0
 40
1.0
 40
1.0
 10
12.4488888253
 20
8.2894246729
 30
0.0
 10
12.4472208453
 20
8.2878135279
 30
0.0
 10
12.4446810866
 20
8.2855104175
 30
0.0
 10
12.4411848035
 20
8.2826816796
 30
0.0
 10
12.4377989599
 20
8.2801567224
 30
0.0
 10
12.4343653356
 20
8.27791297
 30
0.0
 10
12.4308885758
 20
8.2759836412
 30
0.0
 10
12.4275143291
 20
8.2743272193
 30
0.0
 10
12.4241005836
 20
8.27297327
 30
0.0
 10
12.4206676355
 20
8.2719543912
 30
0.0
 10
12.4181294073
 20
8.2713670937
 30
0.0
 10
12.4155996235
 20
8.2709485109
 30
0.0
 10
12.4130789615
 20
8.2706988006
 30
0.0
 10
12.4105684344
 20
8.2706180786
 30
0.0
 10
12.4089005113
 20
8.270677063
 30
0.0
 10
12.4080705532
 20
8.270734617
 30
0.0
  0
SPLINE
  5
389
100
AcDbEntity
  8
0
100
AcDbSpline
 62
4
  6
CONTINUOUS
 70
0
 71
3
 72
365
 73
361
 74
0
 42
0.0000001
 43
0.0000001
 44
0.0000000001
 40
0.0
 40
0.0
 40
0.0
 40
0.0
 40
0.015625
 40
0.0234375
 40
0.03125
 40
0.0390625
 40
0.04296875
 40
0.046875
 40
0.05078125
 40
0.0546875
 40
0.056640625
 40
0.05859375
 40
0.060546875
 40
0.0615234375
 40
0.0620117188
 40
0.0625
 40
0.0629882812
 40
0.0634765625
 40
0.064453125
 40
0.06640625
 40
0.068359375
 40
0.0703125
 40
0.07421875
 40
0.078125
 40
0.08203125
 40
0.0859375
 40
0.09375
 40
0.1015625
 40
0.10546875
 40
0.109375
 40
0.11328125
 40
0.1171875
 40
0.119140625
 40
0.12109375
 40
0.123046875
 40
0.1240234375
 40
0.1245117188
 40
0.125
 40
0.1254882812
 40
0.1259765625
 40
0.126953125
 40
0.12890625
 40
0.130859375
 40
0.1328125
 40
0.13671875
 40
0.140625
 40
0.14453125
 40
0.1484375
 40
0.15625
 40
0.1640625
 40
0.16796875
 40
0.171875
 40
0.17578125
 40
0.1796875
 40
0.181640625
 40
0.18359375
 40
0.1845703125
 40
0.185546875
 40
0.1865234375
 40
0.1870117188
 40
0.1875
 40
0.1879882812
 40
0.1884765625
 40
0.189453125
 40
0.1904296875
 40
0.19140625
 40
0.193359375
 40
0.1953125
 40
0.19921875
 40
0.203125
 40
0.20703125
 40
0.2109375
 40
0.21875
 40
0.2265625
 40
0.23046875
 40
0.234375
 40
0.23828125
 40
0.2421875
 40
0.244140625
 40
0.24609375
 40
0.248046875
 40
0.2490234375
 40
0.2495117188
 40
0.25
 40
0.2504882812
 40
0.2509765625
 40
0.251953125
 40
0.25390625
 40
0.255859375
 40
0.2578125
 40
0.26171875
 40
0.265625
 40
0.26953125
 40
0.2734375
 40
0.28125
 40
0.2890625
 40
0.29296875
 40
0.296875
 40
0.30078125
 40
0.3046875
 40
0.306640625
 40
0.30859375
 40
0.310546875
 40
0.3115234375
 40
0.3120117188
 40
0.3125
 40
0.3129882812
 40
0.3134765625
 40
0.314453125
 40
0.31640625
 40
0.318359375
 40
0.3203125
 40
0.32421875
 40
0.328125
 40
0.33203125
 40
0.3359375
 40
0.34375
 40
0.3515625
 40
0.35546875
 40
0.359375
 40
0.36328125
 40
0.3671875
 40
0.369140625
 40
0.37109375
 40
0.373046875
 40
0.3740234375
 40
0.3745117188
 40
0.375
 40
0.3754882812
 40
0.3759765625
 40
0.376953125
 40
0.37890625
 40
0.380859375
 40
0.3828125
 40
0.38671875
 40
0.390625
 40
0.39453125
 40
0.3984375
 40
0.40625
 40
0.4140625
 40
0.41796875
 40
0.421875
 40
0.42578125
 40
0.4296875
 40
0.431640625
 40
0.43359375
 40
0.4345703125
 40
0.435546875
 40
0.4365234375
 40
0.4370117188
 40
0.4375
 40
0.4379882812
 40
0.4384765625
 40
0.439453125
 40
0.4404296875
 40
0.44140625
 40
0.443359375
 40
0.4453125
 40
0.44921875
 40
0.453125
 40
0.45703125
 40
0.4609375
 40
0.46875
 40
0.4765625
 40
0.48046875
 40
0.484375
 40
0.48828125
 40
0.4921875
 40
0.494140625
 40
0.49609375
 40
0.4970703125
 40
0.498046875
 40
0.4990234375
 40
0.4995117188
 40
0.5
 40
0.5004882812
 40
0.5009765625
 40
0.501953125
 40
0.5029296875
 40
0.50390625
 40
0.505859375
 40
0.5078125
 40
0.51171875
 40
0.515625
 40
0.51953125
 40
0.5234375
 40
0.53125
 40
0.5390625
 40
0.54296875
 40
0.546875
 40
0.55078125
 40
0.5546875
 40
0.556640625
 40
0.55859375
 40
0.5595703125
 40
0.560546875
 40
0.5615234375
 40
0.5620117188
 40
0.5625
 40
0.5629882812
 40
0.5634765625
 40
0.564453125
 40
0.5654296875
 40
0.56640625
 40
0.568359375
 40
0.5703125
 40
0.57421875
 40
0.578125
 40
0.58203125
 40
0.5859375
 40
0.59375
 40
0.6015625
 40
0.60546875
 40
0.609375
 40
0.61328125
 40
0.6171875
 40
0.619140625
 40
0.62109375
 40
0.6220703125
 40
0.623046875
 40
0.6240234375
 40
0.6245117188
 40
0.625
 40
0.6254882812
 40
0.6259765625
 40
0.626953125
 40
0.6279296875
 40
0.62890625
 40
0.630859375
 40
0.6328125
 40
0.63671875
 40
0.640625
 40
0.64453125
 40
0.6484375
 40
0.65625
 40
0.6640625
 40
0.66796875
 40
0.671875
 40
0.67578125
 40
0.6796875
 40
0.681640625
 40
0.68359375
 40
0.6845703125
 40
0.685546875
 40
0.6865234375
 40
0.6870117188
 40
0.6875
 40
0.6879882812
 40
0.6884765625
 40
0.689453125
 40
0.6904296875
 40
0.69140625
 40
0.693359375
 40
0.6953125
 40
0.69921875
 40
0.703125
 40
0.70703125
 40
0.7109375
 40
0.71875
 40
0.7265625
 40
0.73046875
 40
0.734375
 40
0.73828125
 40
0.7421875
 40
0.744140625
 40
0.74609375
 40
0.7470703125
 40
0.748046875
 40
0.7490234375
 40
0.7495117188
 40
0.7497558594
 40
0.75
 40
0.7502441406
 40
0.7504882812
 40
0.7509765625
 40
0.751953125
 40
0.7529296875
 40
0.75390625
 40
0.755859375
 40
0.7578125
 40
0.76171875
 40
0.765625
 40
0.76953125
 40
0.7734375
 40
0.78125
 40
0.7890625
 40
0.79296875
 40
0.796875
 40
0.80078125
 40
0.8046875
 40
0.806640625
 40
0.80859375
 40
0.8095703125
 40
0.810546875
 40
0.8115234375
 40
0.8120117188
 40
0.8125
 40
0.8129882812
 40
0.8134765625
 40
0.814453125
 40
0.8154296875
 40
0.81640625
 40
0.818359375
 40
0.8203125
 40
0.82421875
 40
0.828125
 40
0.83203125
 40
0.8359375
 40
0.84375
 40
0.8515625
 40
0.85546875
 40
0.859375
 40
0.86328125
 40
0.8671875
 40
0.869140625
 40
0.87109375
 40
0.8720703125
 40
0.873046875
 40
0.8740234375
 40
0.8745117188
 40
0.875
 40
0.8754882812
 40
0.8759765625
 40
0.876953125
 40
0.8779296875
 40
0.87890625
 40
0.880859375
 40
0.8828125
 40
0.88671875
 40
0.890625
 40
0.89453125
 40
0.8984375
 40
0.90625
 40
0.9140625
 40
0.91796875
 40
0.921875
 40
0.92578125
 40
0.9296875
 40
0.931640625
 40
0.93359375
 40
0.9345703125
 40
0.935546875
 40
0.9365234375
 40
0.9370117188
 40
0.9375
 40
0.9379882812
 40
0.9384765625
 40
0.939453125
 40
0.9404296875
 40
0.94140625
 40
0.943359375
 40
0.9453125
 40
0.94921875
 40
0.953125
 40
0.95703125
 40
0.9609375
 40
0.96875
 40
0.9765625
 40
0.984375
 40
1.0
 40
1.0
 40
1.0
 40
1.0
 10
10.1983184956
 20
8.8646650003
 30
0.0
 10
10.1985944343
 20
8.861831624
 30
0.0
 10
10.1990083423
 20
8.8575815597
 30
0.0
 10
10.1995602194
 20
8.8519148073
 30
0.0
 10
10.1999741278
 20
8.847664743
 30
0.0
 10
10.2003190496
 20
8.8441230225
 30
0.0
 10
10.2005949912
 20
8.8412896467
 30
0.0
 10
10.200801936
 20
8.8391646134
 30
0.0
 10
10.2010089245
 20
8.8370395856
 30
0.0
 10
10.2011812786
 20
8.8352687117
 30
0.0
 10
10.2013194673
 20
8.8338520518
 30
0.0
 10
10.2014222743
 20
8.8327894495
 30
0.0
 10
10.2015106013
 20
8.8319042891
 30
0.0
 10
10.2015672208
 20
8.8312840066
 30
0.0
 10
10.2016077088
 20
8.830930606
 30
0.0
 10
10.2016151614
 20
8.8306626076
 30
0.0
 10
10.2017102004
 20
8.8304058776
 30
0.0
 10
10.201806368
 20
8.8300596404
 30
0.0
 10
10.2019888956
 20
8.8294555566
 30
0.0
 10
10.2022422073
 20
8.8285916224
 30
0.0
 10
10.2025493669
 20
8.8275553111
 30
0.0
 10
10.2029578002
 20
8.8261734196
 30
0.0
 10
10.2034687237
 20
8.8244461043
 30
0.0
 10
10.2040816682
 20
8.8223733049
 30
0.0
 10
10.2046946565
 20
8.8203005111
 30
0.0
 10
10.2055119589
 20
8.8175367841
 30
0.0
 10
10.2065335927
 20
8.8140821261
 30
0.0
 10
10.2075552227
 20
8.8106274673
 30
0.0
 10
10.208372531
 20
8.8078637417
 30
0.0
 10
10.2089855014
 20
8.8057909437
 30
0.0
 10
10.2095985131
 20
8.8037181599
 30
0.0
 10
10.2101092276
 20
8.8019907961
 30
0.0
 10
10.2105180871
 20
8.8006090036
 30
0.0
 10
10.2108239452
 20
8.7995723897
 30
0.0
 10
10.2110813288
 20
8.7987094024
 30
0.0
 10
10.2112565876
 20
8.7981036281
 30
0.0
 10
10.2113644016
 20
8.7977600995
 30
0.0
 10
10.2114236664
 20
8.7974950496
 30
0.0
 10
10.211565481
 20
8.7972582995
 30
0.0
 10
10.2117257728
 20
8.7969327613
 30
0.0
 10
10.2120196993
 20
8.7963676687
 30
0.0
 10
10.2124325804
 20
8.7955579891
 30
0.0
 10
10.2129310398
 20
8.7945874027
 30
0.0
 10
10.2135946037
 20
8.7932929281
 30
0.0
 10
10.2144244185
 20
8.7916749581
 30
0.0
 10
10.215420042
 20
8.7897333413
 30
0.0
 10
10.2164157067
 20
8.7877917386
 30
0.0
 10
10.2177432452
 20
8.7852029302
 30
0.0
 10
10.2194026733
 20
8.7819669212
 30
0.0
 10
10.2210621
 20
8.7787309118
 30
0.0
 10
10.2223896406
 20
8.7761421039
 30
0.0
 10
10.223385299
 20
8.7742004994
 30
0.0
 10
10.2243809465
 20
8.7722588897
 30
0.0
 10
10.2252106864
 20
8.7706408976
 30
0.0
 10
10.2258744029
 20
8.7693464681
 30
0.0
 10
10.2262893975
 20
8.7685375312
 30
0.0
 10
10.2266209997
 20
8.7678901949
 30
0.0
 10
10.2268707787
 20
8.7674052042
 30
0.0
 10
10.2270755009
 20
8.7669994181
 30
0.0
 10
10.2272469645
 20
8.7666784387
 30
0.0
 10
10.227354561
 20
8.7664277318
 30
0.0
 10
10.2275423195
 20
8.7662150897
 30
0.0
 10
10.2277646625
 20
8.7659182703
 30
0.0
 10
10.2280521985
 20
8.7655518081
 30
0.0
 10
10.2283931296
 20
8.7651101007
 30
0.0
 10
10.2288491406
 20
8.7645218396
 30
0.0
 10
10.2294186626
 20
8.7637862797
 30
0.0
 10
10.2303301726
 20
8.7626095143
 30
0.0
 10
10.2314694658
 20
8.7611385129
 30
0.0
 10
10.232836658
 20
8.7593733303
 30
0.0
 10
10.2342038395
 20
8.7576081426
 30
0.0
 10
10.2360267519
 20
8.7552545607
 30
0.0
 10
10.2383053913
 20
8.7523125832
 30
0.0
 10
10.24058403
 20
8.7493706044
 30
0.0
 10
10.2424069437
 20
8.7470170245
 30
0.0
 10
10.2437741212
 20
8.7452518309
 30
0.0
 10
10.2451413281
 20
8.7434866703
 30
0.0
 10
10.2462805759
 20
8.7420156005
 30
0.0
 10
10.2471921785
 20
8.7408389745
 30
0.0
 10
10.2478753221
 20
8.7399558772
 30
0.0
 10
10.2484463844
 20
8.7392219594
 30
0.0
 10
10.2488426429
 20
8.7387042987
 30
0.0
 10
10.2490745179
 20
8.7384146107
 30
0.0
 10
10.2492330952
 20
8.73818011
 30
0.0
 10
10.2494502677
 20
8.7380114886
 30
0.0
 10
10.2497193924
 20
8.7377636807
 30
0.0
 10
10.2501998834
 20
8.7373407233
 30
0.0
 10
10.2508813205
 20
8.7367309009
 30
0.0
 10
10.251701176
 20
8.73600151
 30
0.0
 10
10.2527935723
 20
8.7350281519
 30
0.0
 10
10.2541593231
 20
8.7338117414
 30
0.0
 10
10.2557981145
 20
8.7323519258
 30
0.0
 10
10.2574369353
 20
8.730892143
 30
0.0
 10
10.2596220194
 20
8.7289457545
 30
0.0
 10
10.2623533783
 20
8.7265127732
 30
0.0
 10
10.2650847348
 20
8.7240797889
 30
0.0
 10
10.2672698227
 20
8.7221334052
 30
0.0
 10
10.268908632
 20
8.720673608
 30
0.0
 10
10.2705474663
 20
8.7192138463
 30
0.0
 10
10.2719130841
 20
8.717997268
 30
0.0
 10
10.2730057516
 20
8.7170242521
 30
0.0
 10
10.2738247789
 20
8.7162938161
 30
0.0
 10
10.274508807
 20
8.7156872637
 30
0.0
 10
10.2749846726
 20
8.7152584689
 30
0.0
 10
10.2752612084
 20
8.7150200139
 30
0.0
 10
10.2754556163
 20
8.7148226634
 30
0.0
 10
10.275699694
 20
8.7146960643
 30
0.0
 10
10.2760078055
 20
8.7145025866
 30
0.0
 10
10.2765550729
 20
8.714175499
 30
0.0
 10
10.2773326633
 20
8.7137022196
 30
0.0
 10
10.2782675781
 20
8.7131368574
 30
0.0
 10
10.2795135002
 20
8.7123821423
 30
0.0
 10
10.2810711193
 20
8.7114390568
 30
0.0
 10
10.2829401695
 20
8.710307222
 30
0.0
 10
10.2848092445
 20
8.7091754226
 30
0.0
 10
10.2873013358
 20
8.7076663443
 30
0.0
 10
10.2904164531
 20
8.7057800012
 30
0.0
 10
10.2935315685
 20
8.7038936547
 30
0.0
 10
10.2960236628
 20
8.7023845818
 30
0.0
 10
10.2978927289
 20
8.7012527665
 30
0.0
 10
10.2997618122
 20
8.7001209912
 30
0.0
 10
10.3013193282
 20
8.6991777206
 30
0.0
 10
10.3025654607
 20
8.6984233832
 30
0.0
 10
10.3034997331
 20
8.6978568674
 30
0.0
 10
10.3042793333
 20
8.697387197
 30
0.0
 10
10.3048230127
 20
8.6970536667
 30
0.0
 10
10.3051368732
 20
8.696870512
 30
0.0
 10
10.3053632921
 20
8.696712204
 30
0.0
 10
10.3056240235
 20
8.6966339469
 30
0.0
 10
10.3059596968
 20
8.6965016815
 30
0.0
 10
10.3065527014
 20
8.6962832266
 30
0.0
 10
10.3073969355
 20
8.6959643467
 30
0.0
 10
10.3084112643
 20
8.6955846021
 30
0.0
 10
10.3097632668
 20
8.695077259
 30
0.0
 10
10.3114534195
 20
8.6944434291
 30
0.0
 10
10.3134815386
 20
8.6936826837
 30
0.0
 10
10.3155096748
 20
8.6929219783
 30
0.0
 10
10.3182138505
 20
8.6919076904
 30
0.0
 10
10.3215940722
 20
8.6906398352
 30
0.0
 10
10.3249742932
 20
8.6893719788
 30
0.0
 10
10.3276784699
 20
8.6883576929
 30
0.0
 10
10.3297066032
 20
8.6875969815
 30
0.0
 10
10.3317347331
 20
8.6868362585
 30
0.0
 10
10.3334248522
 20
8.6862023587
 30
0.0
 10
10.3347769232
 20
8.6856951581
 30
0.0
 10
10.3356220229
 20
8.6853783415
 30
0.0
 10
10.3362979759
 20
8.6851244675
 30
0.0
 10
10.3368052878
 20
8.6849352141
 30
0.0
 10
10.3372269433
 20
8.6847738377
 30
0.0
 10
10.3375667448
 20
8.684652957
 30
0.0
 10
10.3378148272
 20
8.6845398344
 30
0.0
 10
10.3380887459
 20
8.68451245
 30
0.0
 10
10.3384449459
 20
8.684445988
 30
0.0
 10
10.3388932923
 20
8.684373186
 30
0.0
 10
10.3394299827
 20
8.6842814254
 30
0.0
 10
10.3401460327
 20
8.6841606141
 30
0.0
 10
10.3410409367
 20
8.6840090739
 30
0.0
 10
10.3424728717
 20
8.6837669037
 30
0.0
 10
10.3442627601
 20
8.68346409
 30
0.0
 10
10.3464106392
 20
8.6831007569
 30
0.0
 10
10.3485585148
 20
8.6827374121
 30
0.0
 10
10.3514223502
 20
8.6822529566
 30
0.0
 10
10.3550021439
 20
8.6816473856
 30
0.0
 10
10.3585819378
 20
8.6810418156
 30
0.0
 10
10.361445773
 20
8.6805573584
 30
0.0
 10
10.3635936491
 20
8.6801940187
 30
0.0
 10
10.3657415263
 20
8.6798306667
 30
0.0
 10
10.3675314206
 20
8.6795279117
 30
0.0
 10
10.3689633436
 20
8.6792856217
 30
0.0
 10
10.3698582783
 20
8.6791343864
 30
0.0
 10
10.3705742654
 20
8.6790129493
 30
0.0
 10
10.3711111479
 20
8.6789231006
 30
0.0
 10
10.371558893
 20
8.6788443166
 30
0.0
 10
10.3719163197
 20
8.6787900591
 30
0.0
 10
10.3721864923
 20
8.6787254031
 30
0.0
 10
10.3724486392
 20
8.6787522135
 30
0.0
 10
10.3728009719
 20
8.6787560103
 30
0.0
 10
10.373240426
 20
8.6787717184
 30
0.0
 10
10.3737681825
 20
8.678785876
 30
0.0
 10
10.3744717141
 20
8.6788063916
 30
0.0
 10
10.3753511779
 20
8.678831475
 30
0.0
 10
10.3767582924
 20
8.6788719221
 30
0.0
 10
10.3785171949
 20
8.6789223733
 30
0.0
 10
10.3806278739
 20
8.6789829608
 30
0.0
 10
10.382738554
 20
8.679043536
 30
0.0
 10
10.3855527937
 20
8.6791243073
 30
0.0
 10
10.3890705936
 20
8.6792252699
 30
0.0
 10
10.3925883932
 20
8.6793262334
 30
0.0
 10
10.3954026332
 20
8.679407003
 30
0.0
 10
10.3975133126
 20
8.6794675834
 30
0.0
 10
10.3996239943
 20
8.6795281517
 30
0.0
 10
10.4013828884
 20
8.6795786627
 30
0.0
 10
10.40279002
 20
8.6796189879
 30
0.0
 10
10.4036694401
 20
8.6796443814
 30
0.0
 10
10.4043730613
 20
8.6796642604
 30
0.0
 10
10.4049005442
 20
8.679680363
 30
0.0
 10
10.4053408547
 20
8.6796899855
 30
0.0
 10
10.40569144
 20
8.6797061982
 30
0.0
 10
10.4059589234
 20
8.6796950913
 30
0.0
 10
10.4062090606
 20
8.6797727927
 30
0.0
 10
10.406548636
 20
8.6798453727
 30
0.0
 10
10.4069710264
 20
8.6799467411
 30
0.0
 10
10.4074787848
 20
8.6800638275
 30
0.0
 10
10.4081554851
 20
8.680221534
 30
0.0
 10
10.4090014669
 20
8.6804181222
 30
0.0
 10
10.4103549783
 20
8.6807329678
 30
0.0
 10
10.412046888
 20
8.6811264203
 30
0.0
 10
10.4140771709
 20
8.6815986081
 30
0.0
 10
10.4161074561
 20
8.682070784
 30
0.0
 10
10.4188145022
 20
8.682700356
 30
0.0
 10
10.4221983102
 20
8.6834873194
 30
0.0
 10
10.4255821179
 20
8.6842742839
 30
0.0
 10
10.4282891645
 20
8.6849038543
 30
0.0
 10
10.4303194482
 20
8.685376035
 30
0.0
 10
10.4323497366
 20
8.6858482044
 30
0.0
 10
10.4340416292
 20
8.6862417145
 30
0.0
 10
10.4353951754
 20
8.6865564427
 30
0.0
 10
10.4362410688
 20
8.6867533298
 30
0.0
 10
10.4369179505
 20
8.6869104226
 30
0.0
 10
10.4374251545
 20
8.6870293835
 30
0.0
 10
10.4378492794
 20
8.6871248871
 30
0.0
 10
10.4381853163
 20
8.6872094326
 30
0.0
 10
10.4384462599
 20
8.687250592
 30
0.0
 10
10.4386731715
 20
8.6873766791
 30
0.0
 10
10.4389876081
 20
8.687515129
 30
0.0
 10
10.4393765752
 20
8.6876983696
 30
0.0
 10
10.4398450816
 20
8.6879139018
 30
0.0
 10
10.4404691469
 20
8.6882027996
 30
0.0
 10
10.4412494374
 20
8.6885634009
 30
0.0
 10
10.4424977855
 20
8.6891406542
 30
0.0
 10
10.4440582607
 20
8.6898621209
 30
0.0
 10
10.4459308137
 20
8.6907279237
 30
0.0
 10
10.4478033714
 20
8.6915937151
 30
0.0
 10
10.4503001133
 20
8.6927481076
 30
0.0
 10
10.4534210413
 20
8.6941910968
 30
0.0
 10
10.4565419688
 20
8.6956340869
 30
0.0
 10
10.4590387114
 20
8.6967884779
 30
0.0
 10
10.4609112668
 20
8.697654274
 30
0.0
 10
10.4627838282
 20
8.6985200589
 30
0.0
 10
10.4643442776
 20
8.6992415813
 30
0.0
 10
10.4655926782
 20
8.699818721
 30
0.0
 10
10.4663728351
 20
8.7001796115
 30
0.0
 10
10.4669971747
 20
8.7004679157
 30
0.0
 10
10.4674648432
 20
8.7006852617
 30
0.0
 10
10.4678564318
 20
8.7008628272
 30
0.0
 10
10.4681655201
 20
8.7010128554
 30
0.0
 10
10.4684087651
 20
8.7011035827
 30
0.0
 10
10.4686083862
 20
8.7012774975
 30
0.0
 10
10.468889786
 20
8.7014803254
 30
0.0
 10
10.4692363076
 20
8.7017438301
 30
0.0
 10
10.4696543713
 20
8.7020557683
 30
0.0
 10
10.4702110079
 20
8.7024731764
 30
0.0
 10
10.4709070713
 20
8.7029944262
 30
0.0
 10
10.4720206233
 20
8.7038287111
 30
0.0
 10
10.4734126145
 20
8.7048714694
 30
0.0
 10
10.4750829819
 20
8.7061228213
 30
0.0
 10
10.4767533553
 20
8.707374162
 30
0.0
 10
10.4789805177
 20
8.7090426201
 30
0.0
 10
10.4817644714
 20
8.7111281915
 30
0.0
 10
10.484548425
 20
8.7132137632
 30
0.0
 10
10.4867755876
 20
8.7148822208
 30
0.0
 10
10.4884459604
 20
8.7161335632
 30
0.0
 10
10.4901163299
 20
8.7173849086
 30
0.0
 10
10.4915083149
 20
8.7184276871
 30
0.0
 10
10.4926218795
 20
8.7192619309
 30
0.0
 10
10.4933179105
 20
8.7197832852
 30
0.0
 10
10.4938746137
 20
8.720200479
 30
0.0
 10
10.4942924742
 20
8.7205130721
 30
0.0
 10
10.4946396315
 20
8.7207745277
 30
0.0
 10
10.4948847215
 20
8.7209556599
 30
0.0
 10
10.4950215252
 20
8.7210621101
 30
0.0
 10
10.4951332769
 20
8.7211336487
 30
0.0
 10
10.4952100571
 20
8.7212369102
 30
0.0
 10
10.4953246291
 20
8.721363527
 30
0.0
 10
10.4955194468
 20
8.7215902618
 30
0.0
 10
10.495800729
 20
8.7219114734
 30
0.0
 10
10.4961369959
 20
8.722298081
 30
0.0
 10
10.4965857959
 20
8.7228131548
 30
0.0
 10
10.4971466439
 20
8.723457135
 30
0.0
 10
10.4980440856
 20
8.7244874262
 30
0.0
 10
10.4991658587
 20
8.7257753167
 30
0.0
 10
10.5005119988
 20
8.7273207739
 30
0.0
 10
10.5018581356
 20
8.7288662342
 30
0.0
 10
10.5036529858
 20
8.7309268469
 30
0.0
 10
10.5058965482
 20
8.733502613
 30
0.0
 10
10.5081401104
 20
8.7360783793
 30
0.0
 10
10.5099349611
 20
8.7381389916
 30
0.0
 10
10.5112810964
 20
8.7396844528
 30
0.0
 10
10.5126272418
 20
8.7412299066
 30
0.0
 10
10.5137489985
 20
8.7425178078
 30
0.0
 10
10.5146464736
 20
8.7435480772
 30
0.0
 10
10.5152072366
 20
8.744192113
 30
0.0
 10
10.5156562111
 20
8.7447070726
 30
0.0
 10
10.5159919448
 20
8.7450940291
 30
0.0
 10
10.5162748953
 20
8.745414149
 30
0.0
 10
10.5164941405
 20
8.7456755017
 30
0.0
 10
10.5166780167
 20
8.7458571523
 30
0.0
 10
10.5167876809
 20
8.7460936301
 30
0.0
 10
10.5169598231
 20
8.7463897821
 30
0.0
 10
10.5171661068
 20
8.7467665429
 30
0.0
 10
10.5174174541
 20
8.7472158433
 30
0.0
 10
10.5177512541
 20
8.7478158929
 30
0.0
 10
10.5181689595
 20
8.7485656185
 30
0.0
 10
10.5188370336
 20
8.7497653675
 30
0.0
 10
10.5196722135
 20
8.7512649893
 30
0.0
 10
10.520674392
 20
8.753064563
 30
0.0
 10
10.5216765806
 20
8.7548641293
 30
0.0
 10
10.5230128284
 20
8.7572635537
 30
0.0
 10
10.5246831396
 20
8.7602628333
 30
0.0
 10
10.5263534498
 20
8.7632621134
 30
0.0
 10
10.5276896991
 20
8.7656615368
 30
0.0
 10
10.5286918832
 20
8.7674611059
 30
0.0
 10
10.5296940784
 20
8.7692606695
 30
0.0
 10
10.5305292064
 20
8.7707603227
 30
0.0
 10
10.5311973864
 20
8.7719600076
 30
0.0
 10
10.5316148222
 20
8.7727098964
 30
0.0
 10
10.5319491756
 20
8.773309611
 30
0.0
 10
10.5321988326
 20
8.773759935
 30
0.0
 10
10.5324104047
 20
8.7741334934
 30
0.0
 10
10.5325717574
 20
8.7744361788
 30
0.0
 10
10.5327143721
 20
8.7746527036
 30
0.0
 10
10.5327745385
 20
8.7749092662
 30
0.0
 10
10.5328835606
 20
8.7752373639
 30
0.0
 10
10.533009957
 20
8.7756522845
 30
0.0
 10
10.5331658621
 20
8.7761481353
 30
0.0
 10
10.5333722584
 20
8.7768099871
 30
0.0
 10
10.5336307596
 20
8.7776370562
 30
0.0
 10
10.5340440788
 20
8.7789605041
 30
0.0
 10
10.5345608248
 20
8.7806147668
 30
0.0
 10
10.5351808784
 20
8.7825999022
 30
0.0
 10
10.5358009431
 20
8.7845850323
 30
0.0
 10
10.5366276921
 20
8.7872318742
 30
0.0
 10
10.5376611299
 20
8.790540426
 30
0.0
 10
10.5386945667
 20
8.7938489781
 30
0.0
 10
10.5395213174
 20
8.7964958194
 30
0.0
 10
10.5401413773
 20
8.7984809515
 30
0.0
 10
10.540761449
 20
8.8004660793
 30
0.0
 10
10.5412781386
 20
8.8021203658
 30
0.0
 10
10.5416915727
 20
8.803443765
 30
0.0
 10
10.5419497814
 20
8.8042709579
 30
0.0
 10
10.542156778
 20
8.8049325556
 30
0.0
 10
10.5423108492
 20
8.8054291827
 30
0.0
 10
10.5424429837
 20
8.8058416746
 30
0.0
 10
10.542540299
 20
8.8061747273
 30
0.0
 10
10.5426362171
 20
8.8064161577
 30
0.0
 10
10.5426446051
 20
8.8066894948
 30
0.0
 10
10.5426863646
 20
8.807042799
 30
0.0
 10
10.5427280737
 20
8.807488253
 30
0.0
 10
10.5427826147
 20
8.8080211612
 30
0.0
 10
10.5428537678
 20
8.808732277
 30
0.0
 10
10.5429432461
 20
8.8096209761
 30
0.0
 10
10.5430861113
 20
8.811043004
 30
0.0
 10
10.5432647958
 20
8.8128205014
 30
0.0
 10
10.543479173
 20
8.8149535143
 30
0.0
 10
10.5436935621
 20
8.8170865229
 30
0.0
 10
10.54397941
 20
8.8199305359
 30
0.0
 10
10.5443367213
 20
8.8234855517
 30
0.0
 10
10.5447654943
 20
8.8277515708
 30
0.0
 10
10.5453371919
 20
8.8334395962
 30
0.0
 10
10.545765965
 20
8.8377056152
 30
0.0
 10
10.5460518137
 20
8.8405496279
 30
0.0
  0
SPLINE
  5
38A
100
AcDbEntity
  8
0
100
AcDbSpline
 62
4
  6
CONTINUOUS
 70
0
 71
3
 72
365
 73
361
 74
0
 42
0.0000001
 43
0.0000001
 44
0.0000000001
 40
0.0
 40
0.0
 40
0.0
 40
0.0
 40
0.015625
 40
0.0234375
 40
0.03125
 40
0.0390625
 40
0.04296875
 40
0.046875
 40
0.05078125
 40
0.0546875
 40
0.056640625
 40
0.05859375
 40
0.060546875
 40
0.0615234375
 40
0.0620117188
 40
0.0625
 40
0.0629882812
 40
0.0634765625
 40
0.064453125
 40
0.06640625
 40
0.068359375
 40
0.0703125
 40
0.07421875
 40
0.078125
 40
0.08203125
 40
0.0859375
 40
0.09375
 40
0.1015625
 40
0.10546875
 40
0.109375
 40
0.11328125
 40
0.1171875
 40
0.119140625
 40
0.12109375
 40
0.123046875
 40
0.1240234375
 40
0.1245117188
 40
0.125
 40
0.1254882812
 40
0.1259765625
 40
0.126953125
 40
0.12890625
 40
0.130859375
 40
0.1328125
 40
0.13671875
 40
0.140625
 40
0.14453125
 40
0.1484375
 40
0.15625
 40
0.1640625
 40
0.16796875
 40
0.171875
 40
0.17578125
 40
0.1796875
 40
0.181640625
 40
0.18359375
 40
0.1845703125
 40
0.185546875
 40
0.1865234375
 40
0.1870117188
 40
0.1875
 40
0.1879882812
 40
0.1884765625
 40
0.189453125
 40
0.1904296875
 40
0.19140625
 40
0.193359375
 40
0.1953125
 40
0.19921875
 40
0.203125
 40
0.20703125
 40
0.2109375
 40
0.21875
 40
0.2265625
 40
0.23046875
 40
0.234375
 40
0.23828125
 40
0.2421875
 40
0.244140625
 40
0.24609375
 40
0.248046875
 40
0.2490234375
 40
0.2495117188
 40
0.25
 40
0.2504882812
 40
0.2509765625
 40
0.251953125
 40
0.25390625
 40
0.255859375
 40
0.2578125
 40
0.26171875
 40
0.265625
 40
0.26953125
 40
0.2734375
 40
0.28125
 40
0.2890625
 40
0.29296875
 40
0.296875
 40
0.30078125
 40
0.3046875
 40
0.306640625
 40
0.30859375
 40
0.310546875
 40
0.3115234375
 40
0.3120117188
 40
0.3125
 40
0.3129882812
 40
0.3134765625
 40
0.314453125
 40
0.31640625
 40
0.318359375
 40
0.3203125
 40
0.32421875
 40
0.328125
 40
0.33203125
 40
0.3359375
 40
0.34375
 40
0.3515625
 40
0.35546875
 40
0.359375
 40
0.36328125
 40
0.3671875
 40
0.369140625
 40
0.37109375
 40
0.373046875
 40
0.3740234375
 40
0.3745117188
 40
0.375
 40
0.3754882812
 40
0.3759765625
 40
0.376953125
 40
0.37890625
 40
0.380859375
 40
0.3828125
 40
0.38671875
 40
0.390625
 40
0.39453125
 40
0.3984375
 40
0.40625
 40
0.4140625
 40
0.41796875
 40
0.421875
 40
0.42578125
 40
0.4296875
 40
0.431640625
 40
0.43359375
 40
0.4345703125
 40
0.435546875
 40
0.4365234375
 40
0.4370117188
 40
0.4375
 40
0.4379882812
 40
0.4384765625
 40
0.439453125
 40
0.4404296875
 40
0.44140625
 40
0.443359375
 40
0.4453125
 40
0.44921875
 40
0.453125
 40
0.45703125
 40
0.4609375
 40
0.46875
 40
0.4765625
 40
0.48046875
 40
0.484375
 40
0.48828125
 40
0.4921875
 40
0.494140625
 40
0.49609375
 40
0.4970703125
 40
0.498046875
 40
0.4990234375
 40
0.4995117188
 40
0.5
 40
0.5004882812
 40
0.5009765625
 40
0.501953125
 40
0.5029296875
 40
0.50390625
 40
0.505859375
 40
0.5078125
 40
0.51171875
 40
0.515625
 40
0.51953125
 40
0.5234375
 40
0.53125
 40
0.5390625
 40
0.54296875
 40
0.546875
 40
0.55078125
 40
0.5546875
 40
0.556640625
 40
0.55859375
 40
0.5595703125
 40
0.560546875
 40
0.5615234375
 40
0.5620117188
 40
0.5625
 40
0.5629882812
 40
0.5634765625
 40
0.564453125
 40
0.5654296875
 40
0.56640625
 40
0.568359375
 40
0.5703125
 40
0.57421875
 40
0.578125
 40
0.58203125
 40
0.5859375
 40
0.59375
 40
0.6015625
 40
0.60546875
 40
0.609375
 40
0.61328125
 40
0.6171875
 40
0.619140625
 40
0.62109375
 40
0.6220703125
 40
0.623046875
 40
0.6240234375
 40
0.6245117188
 40
0.625
 40
0.6254882812
 40
0.6259765625
 40
0.626953125
 40
0.6279296875
 40
0.62890625
 40
0.630859375
 40
0.6328125
 40
0.63671875
 40
0.640625
 40
0.64453125
 40
0.6484375
 40
0.65625
 40
0.6640625
 40
0.66796875
 40
0.671875
 40
0.67578125
 40
0.6796875
 40
0.681640625
 40
0.68359375
 40
0.6845703125
 40
0.685546875
 40
0.6865234375
 40
0.6870117188
 40
0.6875
 40
0.6879882812
 40
0.6884765625
 40
0.689453125
 40
0.6904296875
 40
0.69140625
 40
0.693359375
 40
0.6953125
 40
0.69921875
 40
0.703125
 40
0.70703125
 40
0.7109375
 40
0.71875
 40
0.7265625
 40
0.73046875
 40
0.734375
 40
0.73828125
 40
0.7421875
 40
0.744140625
 40
0.74609375
 40
0.7470703125
 40
0.748046875
 40
0.7490234375
 40
0.7495117188
 40
0.7497558594
 40
0.75
 40
0.7502441406
 40
0.7504882812
 40
0.7509765625
 40
0.751953125
 40
0.7529296875
 40
0.75390625
 40
0.755859375
 40
0.7578125
 40
0.76171875
 40
0.765625
 40
0.76953125
 40
0.7734375
 40
0.78125
 40
0.7890625
 40
0.79296875
 40
0.796875
 40
0.80078125
 40
0.8046875
 40
0.806640625
 40
0.80859375
 40
0.8095703125
 40
0.810546875
 40
0.8115234375
 40
0.8120117188
 40
0.8125
 40
0.8129882812
 40
0.8134765625
 40
0.814453125
 40
0.8154296875
 40
0.81640625
 40
0.818359375
 40
0.8203125
 40
0.82421875
 40
0.828125
 40
0.83203125
 40
0.8359375
 40
0.84375
 40
0.8515625
 40
0.85546875
 40
0.859375
 40
0.86328125
 40
0.8671875
 40
0.869140625
 40
0.87109375
 40
0.8720703125
 40
0.873046875
 40
0.8740234375
 40
0.8745117188
 40
0.875
 40
0.8754882812
 40
0.8759765625
 40
0.876953125
 40
0.8779296875
 40
0.87890625
 40
0.880859375
 40
0.8828125
 40
0.88671875
 40
0.890625
 40
0.89453125
 40
0.8984375
 40
0.90625
 40
0.9140625
 40
0.91796875
 40
0.921875
 40
0.92578125
 40
0.9296875
 40
0.931640625
 40
0.93359375
 40
0.9345703125
 40
0.935546875
 40
0.9365234375
 40
0.9370117188
 40
0.9375
 40
0.9379882812
 40
0.9384765625
 40
0.939453125
 40
0.9404296875
 40
0.94140625
 40
0.943359375
 40
0.9453125
 40
0.94921875
 40
0.953125
 40
0.95703125
 40
0.9609375
 40
0.96875
 40
0.9765625
 40
0.984375
 40
1.0
 40
1.0
 40
1.0
 40
1.0
 10
10.5460518137
 20
8.8405496127
 30
0.0
 10
10.5457758751
 20
8.843382989
 30
0.0
 10
10.5453619671
 20
8.8476330533
 30
0.0
 10
10.54481009
 20
8.8532998057
 30
0.0
 10
10.5443961816
 20
8.85754987
 30
0.0
 10
10.5440512598
 20
8.8610915905
 30
0.0
 10
10.5437753181
 20
8.8639249663
 30
0.0
 10
10.5435683734
 20
8.8660499997
 30
0.0
 10
10.5433613848
 20
8.8681750274
 30
0.0
 10
10.5431890308
 20
8.8699459013
 30
0.0
 10
10.5430508421
 20
8.8713625612
 30
0.0
 10
10.5429480351
 20
8.8724251635
 30
0.0
 10
10.5428597081
 20
8.8733103239
 30
0.0
 10
10.5428030885
 20
8.8739306064
 30
0.0
 10
10.5427626006
 20
8.874284007
 30
0.0
 10
10.5427551479
 20
8.8745520054
 30
0.0
 10
10.5426601089
 20
8.8748087354
 30
0.0
 10
10.5425639414
 20
8.8751549726
 30
0.0
 10
10.5423814138
 20
8.8757590564
 30
0.0
 10
10.542128102
 20
8.8766229906
 30
0.0
 10
10.5418209425
 20
8.8776593019
 30
0.0
 10
10.5414125091
 20
8.8790411934
 30
0.0
 10
10.5409015856
 20
8.8807685087
 30
0.0
 10
10.5402886411
 20
8.8828413082
 30
0.0
 10
10.5396756528
 20
8.8849141019
 30
0.0
 10
10.5388583504
 20
8.887677829
 30
0.0
 10
10.5378367167
 20
8.8911324869
 30
0.0
 10
10.5368150867
 20
8.8945871457
 30
0.0
 10
10.5359977783
 20
8.8973508713
 30
0.0
 10
10.5353848079
 20
8.8994236693
 30
0.0
 10
10.5347717962
 20
8.9014964531
 30
0.0
 10
10.5342610817
 20
8.903223817
 30
0.0
 10
10.5338522222
 20
8.9046056094
 30
0.0
 10
10.5335463641
 20
8.9056422233
 30
0.0
 10
10.5332889805
 20
8.9065052106
 30
0.0
 10
10.5331137218
 20
8.9071109849
 30
0.0
 10
10.5330059078
 20
8.9074545135
 30
0.0
 10
10.532946643
 20
8.9077195634
 30
0.0
 10
10.5328048284
 20
8.9079563136
 30
0.0
 10
10.5326445365
 20
8.9082818517
 30
0.0
 10
10.53235061
 20
8.9088469443
 30
0.0
 10
10.531937729
 20
8.9096566239
 30
0.0
 10
10.5314392695
 20
8.9106272103
 30
0.0
 10
10.5307757056
 20
8.9119216849
 30
0.0
 10
10.5299458908
 20
8.9135396549
 30
0.0
 10
10.5289502674
 20
8.9154812717
 30
0.0
 10
10.5279546027
 20
8.9174228744
 30
0.0
 10
10.5266270641
 20
8.9200116829
 30
0.0
 10
10.5249676361
 20
8.9232476918
 30
0.0
 10
10.5233082094
 20
8.9264837012
 30
0.0
 10
10.5219806687
 20
8.9290725091
 30
0.0
 10
10.5209850104
 20
8.9310141136
 30
0.0
 10
10.5199893629
 20
8.9329557233
 30
0.0
 10
10.5191596229
 20
8.9345737154
 30
0.0
 10
10.5184959064
 20
8.9358681449
 30
0.0
 10
10.5180809118
 20
8.9366770818
 30
0.0
 10
10.5177493096
 20
8.9373244181
 30
0.0
 10
10.5174995307
 20
8.9378094088
 30
0.0
 10
10.5172948084
 20
8.9382151949
 30
0.0
 10
10.5171233448
 20
8.9385361743
 30
0.0
 10
10.5170157484
 20
8.9387868812
 30
0.0
 10
10.5168279899
 20
8.9389995233
 30
0.0
 10
10.5166056468
 20
8.9392963427
 30
0.0
 10
10.5163181108
 20
8.9396628049
 30
0.0
 10
10.5159771798
 20
8.9401045123
 30
0.0
 10
10.5155211688
 20
8.9406927734
 30
0.0
 10
10.5149516468
 20
8.9414283333
 30
0.0
 10
10.5140401368
 20
8.9426050987
 30
0.0
 10
10.5129008436
 20
8.9440761001
 30
0.0
 10
10.5115336513
 20
8.9458412827
 30
0.0
 10
10.5101664698
 20
8.9476064704
 30
0.0
 10
10.5083435575
 20
8.9499600523
 30
0.0
 10
10.506064918
 20
8.9529020298
 30
0.0
 10
10.5037862793
 20
8.9558440086
 30
0.0
 10
10.5019633657
 20
8.9581975885
 30
0.0
 10
10.5005961881
 20
8.9599627821
 30
0.0
 10
10.4992289812
 20
8.9617279427
 30
0.0
 10
10.4980897334
 20
8.9631990125
 30
0.0
 10
10.4971781308
 20
8.9643756385
 30
0.0
 10
10.4964949872
 20
8.9652587358
 30
0.0
 10
10.495923925
 20
8.9659926536
 30
0.0
 10
10.4955276664
 20
8.9665103143
 30
0.0
 10
10.4952957914
 20
8.9668000024
 30
0.0
 10
10.4951372142
 20
8.967034503
 30
0.0
 10
10.4949200416
 20
8.9672031244
 30
0.0
 10
10.4946509169
 20
8.9674509323
 30
0.0
 10
10.494170426
 20
8.9678738897
 30
0.0
 10
10.4934889889
 20
8.9684837121
 30
0.0
 10
10.4926691334
 20
8.969213103
 30
0.0
 10
10.4915767371
 20
8.9701864611
 30
0.0
 10
10.4902109863
 20
8.9714028716
 30
0.0
 10
10.4885721948
 20
8.9728626873
 30
0.0
 10
10.486933374
 20
8.97432247
 30
0.0
 10
10.48474829
 20
8.9762688585
 30
0.0
 10
10.4820169311
 20
8.9787018398
 30
0.0
 10
10.4792855745
 20
8.9811348241
 30
0.0
 10
10.4771004867
 20
8.9830812078
 30
0.0
 10
10.4754616773
 20
8.984541005
 30
0.0
 10
10.4738228431
 20
8.9860007667
 30
0.0
 10
10.4724572253
 20
8.987217345
 30
0.0
 10
10.4713645578
 20
8.9881903609
 30
0.0
 10
10.4705455304
 20
8.9889207969
 30
0.0
 10
10.4698615023
 20
8.9895273493
 30
0.0
 10
10.4693856368
 20
8.9899561441
 30
0.0
 10
10.4691091009
 20
8.9901945992
 30
0.0
 10
10.4689146931
 20
8.9903919496
 30
0.0
 10
10.4686706154
 20
8.9905185487
 30
0.0
 10
10.4683625038
 20
8.9907120264
 30
0.0
 10
10.4678152364
 20
8.991039114
 30
0.0
 10
10.4670376461
 20
8.9915123934
 30
0.0
 10
10.4661027312
 20
8.9920777556
 30
0.0
 10
10.4648568091
 20
8.9928324707
 30
0.0
 10
10.46329919
 20
8.9937755562
 30
0.0
 10
10.4614301398
 20
8.994907391
 30
0.0
 10
10.4595610649
 20
8.9960391904
 30
0.0
 10
10.4570689736
 20
8.9975482687
 30
0.0
 10
10.4539538563
 20
8.9994346118
 30
0.0
 10
10.4508387408
 20
9.0013209583
 30
0.0
 10
10.4483466466
 20
9.0028300312
 30
0.0
 10
10.4464775804
 20
9.0039618465
 30
0.0
 10
10.4446084971
 20
9.0050936218
 30
0.0
 10
10.4430509811
 20
9.0060368925
 30
0.0
 10
10.4418048487
 20
9.0067912298
 30
0.0
 10
10.4408705763
 20
9.0073577456
 30
0.0
 10
10.440090976
 20
9.007827416
 30
0.0
 10
10.4395472966
 20
9.0081609464
 30
0.0
 10
10.4392334362
 20
9.008344101
 30
0.0
 10
10.4390070173
 20
9.008502409
 30
0.0
 10
10.4387462858
 20
9.0085806661
 30
0.0
 10
10.4384106126
 20
9.0087129316
 30
0.0
 10
10.4378176079
 20
9.0089313864
 30
0.0
 10
10.4369733738
 20
9.0092502663
 30
0.0
 10
10.435959045
 20
9.0096300109
 30
0.0
 10
10.4346070425
 20
9.010137354
 30
0.0
 10
10.4329168899
 20
9.0107711839
 30
0.0
 10
10.4308887708
 20
9.0115319293
 30
0.0
 10
10.4288606345
 20
9.0122926348
 30
0.0
 10
10.4261564588
 20
9.0133069226
 30
0.0
 10
10.4227762372
 20
9.0145747778
 30
0.0
 10
10.4193960161
 20
9.0158426342
 30
0.0
 10
10.4166918395
 20
9.0168569201
 30
0.0
 10
10.4146637061
 20
9.0176176316
 30
0.0
 10
10.4126355762
 20
9.0183783545
 30
0.0
 10
10.4109454571
 20
9.0190122543
 30
0.0
 10
10.4095933861
 20
9.0195194549
 30
0.0
 10
10.4087482864
 20
9.0198362715
 30
0.0
 10
10.4080723334
 20
9.0200901455
 30
0.0
 10
10.4075650215
 20
9.0202793989
 30
0.0
 10
10.407143366
 20
9.0204407753
 30
0.0
 10
10.4068035645
 20
9.020561656
 30
0.0
 10
10.4065554821
 20
9.0206747786
 30
0.0
 10
10.4062815634
 20
9.020702163
 30
0.0
 10
10.4059253634
 20
9.020768625
 30
0.0
 10
10.405477017
 20
9.020841427
 30
0.0
 10
10.4049403267
 20
9.0209331876
 30
0.0
 10
10.4042242767
 20
9.021053999
 30
0.0
 10
10.4033293726
 20
9.0212055391
 30
0.0
 10
10.4018974376
 20
9.0214477093
 30
0.0
 10
10.4001075492
 20
9.021750523
 30
0.0
 10
10.3979596701
 20
9.0221138561
 30
0.0
 10
10.3958117945
 20
9.0224772009
 30
0.0
 10
10.3929479592
 20
9.0229616564
 30
0.0
 10
10.3893681654
 20
9.0235672274
 30
0.0
 10
10.3857883715
 20
9.0241727974
 30
0.0
 10
10.3829245363
 20
9.0246572546
 30
0.0
 10
10.3807766602
 20
9.0250205943
 30
0.0
 10
10.378628783
 20
9.0253839464
 30
0.0
 10
10.3768388887
 20
9.0256867013
 30
0.0
 10
10.3754069657
 20
9.0259289913
 30
0.0
 10
10.3745120311
 20
9.0260802266
 30
0.0
 10
10.3737960439
 20
9.0262016637
 30
0.0
 10
10.3732591615
 20
9.0262915124
 30
0.0
 10
10.3728114163
 20
9.0263702964
 30
0.0
 10
10.3724539896
 20
9.026424554
 30
0.0
 10
10.3721838171
 20
9.0264892099
 30
0.0
 10
10.3719216701
 20
9.0264623995
 30
0.0
 10
10.3715693374
 20
9.0264586027
 30
0.0
 10
10.3711298834
 20
9.0264428946
 30
0.0
 10
10.3706021268
 20
9.026428737
 30
0.0
 10
10.3698985952
 20
9.0264082214
 30
0.0
 10
10.3690191314
 20
9.026383138
 30
0.0
 10
10.367612017
 20
9.026342691
 30
0.0
 10
10.3658531144
 20
9.0262922398
 30
0.0
 10
10.3637424354
 20
9.0262316522
 30
0.0
 10
10.3616317553
 20
9.026171077
 30
0.0
 10
10.3588175156
 20
9.0260903057
 30
0.0
 10
10.3552997158
 20
9.0259893432
 30
0.0
 10
10.3517819161
 20
9.0258883796
 30
0.0
 10
10.3489676761
 20
9.02580761
 30
0.0
 10
10.3468569968
 20
9.0257470297
 30
0.0
 10
10.3447463151
 20
9.0256864613
 30
0.0
 10
10.3429874209
 20
9.0256359503
 30
0.0
 10
10.3415802893
 20
9.0255956252
 30
0.0
 10
10.3407008692
 20
9.0255702316
 30
0.0
 10
10.339997248
 20
9.0255503526
 30
0.0
 10
10.3394697652
 20
9.02553425
 30
0.0
 10
10.3390294546
 20
9.0255246275
 30
0.0
 10
10.3386788693
 20
9.0255084148
 30
0.0
 10
10.3384113859
 20
9.0255195217
 30
0.0
 10
10.3381612488
 20
9.0254418203
 30
0.0
 10
10.3378216733
 20
9.0253692403
 30
0.0
 10
10.3373992829
 20
9.0252678719
 30
0.0
 10
10.3368915246
 20
9.0251507855
 30
0.0
 10
10.3362148243
 20
9.0249930791
 30
0.0
 10
10.3353688424
 20
9.0247964909
 30
0.0
 10
10.334015331
 20
9.0244816452
 30
0.0
 10
10.3323234213
 20
9.0240881927
 30
0.0
 10
10.3302931385
 20
9.0236160049
 30
0.0
 10
10.3282628533
 20
9.023143829
 30
0.0
 10
10.3255558071
 20
9.022514257
 30
0.0
 10
10.3221719992
 20
9.0217272936
 30
0.0
 10
10.3187881915
 20
9.0209403291
 30
0.0
 10
10.3160811449
 20
9.0203107588
 30
0.0
 10
10.3140508611
 20
9.019838578
 30
0.0
 10
10.3120205728
 20
9.0193664086
 30
0.0
 10
10.3103286801
 20
9.0189728985
 30
0.0
 10
10.308975134
 20
9.0186581703
 30
0.0
 10
10.3081292406
 20
9.0184612832
 30
0.0
 10
10.3074523588
 20
9.0183041904
 30
0.0
 10
10.3069451548
 20
9.0181852295
 30
0.0
 10
10.30652103
 20
9.0180897259
 30
0.0
 10
10.306184993
 20
9.0180051804
 30
0.0
 10
10.3059240495
 20
9.017964021
 30
0.0
 10
10.3056971379
 20
9.0178379339
 30
0.0
 10
10.3053827012
 20
9.017699484
 30
0.0
 10
10.3049937341
 20
9.0175162434
 30
0.0
 10
10.3045252278
 20
9.0173007113
 30
0.0
 10
10.3039011624
 20
9.0170118134
 30
0.0
 10
10.3031208719
 20
9.0166512121
 30
0.0
 10
10.3018725238
 20
9.0160739588
 30
0.0
 10
10.3003120486
 20
9.0153524921
 30
0.0
 10
10.2984394956
 20
9.0144866893
 30
0.0
 10
10.296566938
 20
9.0136208979
 30
0.0
 10
10.2940701961
 20
9.0124665054
 30
0.0
 10
10.2909492681
 20
9.0110235162
 30
0.0
 10
10.2878283406
 20
9.0095805261
 30
0.0
 10
10.2853315979
 20
9.0084261352
 30
0.0
 10
10.2834590425
 20
9.007560339
 30
0.0
 10
10.2815864812
 20
9.0066945541
 30
0.0
 10
10.2800260318
 20
9.0059730317
 30
0.0
 10
10.2787776312
 20
9.005395892
 30
0.0
 10
10.2779974743
 20
9.0050350015
 30
0.0
 10
10.2773731347
 20
9.0047466974
 30
0.0
 10
10.2769054662
 20
9.0045293514
 30
0.0
 10
10.2765138776
 20
9.0043517859
 30
0.0
 10
10.2762047893
 20
9.0042017576
 30
0.0
 10
10.2759615442
 20
9.0041110303
 30
0.0
 10
10.2757619232
 20
9.0039371155
 30
0.0
 10
10.2754805233
 20
9.0037342876
 30
0.0
 10
10.2751340018
 20
9.0034707829
 30
0.0
 10
10.2747159381
 20
9.0031588447
 30
0.0
 10
10.2741593014
 20
9.0027414366
 30
0.0
 10
10.273463238
 20
9.0022201868
 30
0.0
 10
10.2723496861
 20
9.0013859019
 30
0.0
 10
10.2709576949
 20
9.0003431436
 30
0.0
 10
10.2692873274
 20
8.9990917917
 30
0.0
 10
10.267616954
 20
8.997840451
 30
0.0
 10
10.2653897916
 20
8.9961719929
 30
0.0
 10
10.2626058379
 20
8.9940864215
 30
0.0
 10
10.2598218844
 20
8.9920008498
 30
0.0
 10
10.2575947218
 20
8.9903323922
 30
0.0
 10
10.2559243489
 20
8.9890810498
 30
0.0
 10
10.2542539795
 20
8.9878297044
 30
0.0
 10
10.2528619945
 20
8.986786926
 30
0.0
 10
10.2517484298
 20
8.9859526821
 30
0.0
 10
10.2510523988
 20
8.9854313278
 30
0.0
 10
10.2504956957
 20
8.9850141341
 30
0.0
 10
10.2500778351
 20
8.984701541
 30
0.0
 10
10.2497306779
 20
8.9844400853
 30
0.0
 10
10.2494855879
 20
8.9842589531
 30
0.0
 10
10.2493487841
 20
8.9841525029
 30
0.0
 10
10.2492370325
 20
8.9840809643
 30
0.0
 10
10.2491602523
 20
8.9839777028
 30
0.0
 10
10.2490456802
 20
8.983851086
 30
0.0
 10
10.2488508626
 20
8.9836243512
 30
0.0
 10
10.2485695803
 20
8.9833031396
 30
0.0
 10
10.2482333135
 20
8.982916532
 30
0.0
 10
10.2477845134
 20
8.9824014583
 30
0.0
 10
10.2472236654
 20
8.981757478
 30
0.0
 10
10.2463262237
 20
8.9807271868
 30
0.0
 10
10.2452044507
 20
8.9794392963
 30
0.0
 10
10.2438583105
 20
8.9778938391
 30
0.0
 10
10.2425121738
 20
8.9763483788
 30
0.0
 10
10.2407173236
 20
8.9742877661
 30
0.0
 10
10.2384737611
 20
8.971712
 30
0.0
 10
10.2362301989
 20
8.9691362337
 30
0.0
 10
10.2344353483
 20
8.9670756214
 30
0.0
 10
10.2330892129
 20
8.9655301602
 30
0.0
 10
10.2317430675
 20
8.9639847064
 30
0.0
 10
10.2306213109
 20
8.9626968052
 30
0.0
 10
10.2297238357
 20
8.9616665358
 30
0.0
 10
10.2291630728
 20
8.9610225
 30
0.0
 10
10.2287140982
 20
8.9605075404
 30
0.0
 10
10.2283783645
 20
8.9601205839
 30
0.0
 10
10.228095414
 20
8.959800464
 30
0.0
 10
10.2278761689
 20
8.9595391113
 30
0.0
 10
10.2276922926
 20
8.9593574607
 30
0.0
 10
10.2275826284
 20
8.9591209829
 30
0.0
 10
10.2274104862
 20
8.958824831
 30
0.0
 10
10.2272042026
 20
8.9584480701
 30
0.0
 10
10.2269528553
 20
8.9579987697
 30
0.0
 10
10.2266190552
 20
8.9573987201
 30
0.0
 10
10.2262013499
 20
8.9566489945
 30
0.0
 10
10.2255332758
 20
8.9554492455
 30
0.0
 10
10.2246980958
 20
8.9539496238
 30
0.0
 10
10.2236959173
 20
8.95215005
 30
0.0
 10
10.2226937288
 20
8.9503504837
 30
0.0
 10
10.2213574809
 20
8.9479510593
 30
0.0
 10
10.2196871698
 20
8.9449517797
 30
0.0
 10
10.2180168596
 20
8.9419524996
 30
0.0
 10
10.2166806102
 20
8.9395530762
 30
0.0
 10
10.2156784262
 20
8.9377535071
 30
0.0
 10
10.214676231
 20
8.9359539435
 30
0.0
 10
10.2138411029
 20
8.9344542903
 30
0.0
 10
10.2131729229
 20
8.9332546054
 30
0.0
 10
10.2127554871
 20
8.9325047166
 30
0.0
 10
10.2124211338
 20
8.931905002
 30
0.0
 10
10.2121714768
 20
8.931454678
 30
0.0
 10
10.2119599047
 20
8.9310811196
 30
0.0
 10
10.211798552
 20
8.9307784342
 30
0.0
 10
10.2116559372
 20
8.9305619094
 30
0.0
 10
10.2115957709
 20
8.9303053468
 30
0.0
 10
10.2114867488
 20
8.9299772491
 30
0.0
 10
10.2113603524
 20
8.9295623285
 30
0.0
 10
10.2112044472
 20
8.9290664777
 30
0.0
 10
10.2109980509
 20
8.9284046259
 30
0.0
 10
10.2107395497
 20
8.9275775568
 30
0.0
 10
10.2103262306
 20
8.9262541089
 30
0.0
 10
10.2098094846
 20
8.9245998462
 30
0.0
 10
10.209189431
 20
8.9226147108
 30
0.0
 10
10.2085693663
 20
8.9206295807
 30
0.0
 10
10.2077426172
 20
8.9179827388
 30
0.0
 10
10.2067091794
 20
8.9146741871
 30
0.0
 10
10.2056757426
 20
8.9113656349
 30
0.0
 10
10.204848992
 20
8.9087187936
 30
0.0
 10
10.2042289321
 20
8.9067336615
 30
0.0
 10
10.2036088604
 20
8.9047485338
 30
0.0
 10
10.2030921707
 20
8.9030942472
 30
0.0
 10
10.2026787366
 20
8.901770848
 30
0.0
 10
10.2024205279
 20
8.9009436551
 30
0.0
 10
10.2022135313
 20
8.9002820574
 30
0.0
 10
10.2020594601
 20
8.8997854303
 30
0.0
 10
10.2019273257
 20
8.8993729384
 30
0.0
 10
10.2018300103
 20
8.8990398858
 30
0.0
 10
10.2017340923
 20
8.8987984553
 30
0.0
 10
10.2017257042
 20
8.8985251182
 30
0.0
 10
10.2016839447
 20
8.8981718141
 30
0.0
 10
10.2016422357
 20
8.89772636
 30
0.0
 10
10.2015876946
 20
8.8971934518
 30
0.0
 10
10.2015165416
 20
8.896482336
 30
0.0
 10
10.2014270632
 20
8.8955936369
 30
0.0
 10
10.201284198
 20
8.894171609
 30
0.0
 10
10.2011055136
 20
8.8923941116
 30
0.0
 10
10.2008911363
 20
8.8902610987
 30
0.0
 10
10.2006767473
 20
8.8881280901
 30
0.0
 10
10.2003908993
 20
8.8852840771
 30
0.0
 10
10.200033588
 20
8.8817290613
 30
0.0
 10
10.199604815
 20
8.8774630422
 30
0.0
 10
10.1990331175
 20
8.8717750168
 30
0.0
 10
10.1986043444
 20
8.8675089978
 30
0.0
 10
10.1983184956
 20
8.8646649851
 30
0.0
  0
ENDSEC
  0
SECTION
  2
OBJECTS
  0
DICTIONARY
  5
C
100
AcDbDictionary
280
0
281
1
  3
ACAD_GROUP
350
D
  3
ACAD_MLINESTYLE
350
17
  3
ACAD_LAYOUT
350
1A
  3
ACAD_PLOTSETTINGS
350
19
  3
ACAD_PLOTSTYLENAME
350
E
  3
ACAD_IMAGE_DICT
350
       38C
  3
ACAD_IMAGE_VARS
350
       38D
  3
ACAD_TABLESTYLE
350
       38E
  0
IMAGEDEF_REACTOR
  5
38B
100
AcDbRasterImageDefReactor
 90
2
330
292
  0
DICTIONARY
  5
D
102
{ACAD_REACTORS
330
C
102
}
100
AcDbDictionary
280
0
281
1
  0
ACDBDICTIONARYWDFLT
  5
E
102
{ACAD_REACTORS
330
C
102
}
100
AcDbDictionary
281
1
  3
Normal
350
F
100
AcDbDictionaryWithDefault
340
F
  0
DICTIONARY
  5
38C
330
C
100
AcDbDictionary
281
1
  3
B6J_assy_2_img_1
350
       391
  0
RASTERVARIABLES
  5
38D
330
C
100
AcDbRasterVariables
 90
0
 70
0
 71
1
 72
5
  0
DICTIONARY
  5
17
102
{ACAD_REACTORS
330
C
102
}
100
AcDbDictionary
280
0
281
1
  3
Standard
350
18
  0
DICTIONARY
  5
38E
330
C
100
AcDbDictionary
281
1
  3
Standard
350
       392
  3
Standard1
350
       393
  0
DICTIONARY
  5
19
102
{ACAD_REACTORS
330
C
102
}
100
AcDbDictionary
281
1
  0
DICTIONARY
  5
1A
102
{ACAD_REACTORS
330
C
102
}
100
AcDbDictionary
281
1
  3
Model
350
38F
  3
Layout1
350
390
  0
ACDBPLACEHOLDER
  5
F
102
{ACAD_REACTORS
330
E
102
}
  0
MLINESTYLE
  5
18
102
{ACAD_REACTORS
330
17
102
}
100
AcDbMlineStyle
  2
STANDARD
 70
0
  3

 62
256
 51
90.0
 52
90.0
 71
2
 49
0.5
 62
256
  6
BYLAYER
 49
-0.5
 62
256
  6
BYLAYER
  0
LAYOUT
  5
38F
102
{ACAD_REACTORS
330
1A
102
}
100
AcDbPlotSettings
  1

  2
none_device
  4
ANSI_C_(22.00_x_17.00_Inches)
  6

 40
0.0
 41
0.0
 42
0.0
 43
0.0
 44
558.8
 45
431.8
 46
0.0
 47
0.0
 48
0.0
 49
0.0
140
0.0
141
0.0
142
1.0
143
1.0
 70
1024
 72
0
 73
0
 74
0
  7

 75
0
147
1.0
148
0.0
149
0.0
100
AcDbLayout
  1
Model
 70
0
 71
0
 10
0.0
 20
0.0
 11
22.0
 21
17.0
 12
0.0
 22
0.0
 32
0.0
 14
0.0
 24
0.0
 34
0.0
 15
0.0
 25
0.0
 35
0.0
146
0.0
 13
0.0
 23
0.0
 33
0.0
 16
1.0
 26
0.0
 36
0.0
 17
0.0
 27
1.0
 37
0.0
 76
0
330
20C
345
0
346
0
  0
LAYOUT
  5
390
102
{ACAD_REACTORS
330
1A
102
}
100
AcDbPlotSettings
  1

  2
none_device
  4
ANSI_C_(22.00_x_17.00_Inches)
  6

 40
0.0
 41
0.0
 42
0.0
 43
0.0
 44
558.8
 45
431.8
 46
0.0
 47
0.0
 48
0.0
 49
0.0
140
0.0
141
0.0
142
1.0
143
1.0
 70
0
 72
0
 73
0
 74
0
  7

 75
0
147
1.0
148
0.0
149
0.0
100
AcDbLayout
  1
Layout1
 70
0
 71
1
 10
0.0
 20
0.0
 11
22.0
 21
17.0
 12
0.0
 22
0.0
 32
0.0
 14
0.0
 24
0.0
 34
0.0
 15
0.0
 25
0.0
 35
0.0
146
0.0
 13
0.0
 23
0.0
 33
0.0
 16
1.0
 26
0.0
 36
0.0
 17
0.0
 27
1.0
 37
0.0
 76
0
330
20D
345
0
346
0
  0
IMAGEDEF
  5
391
102
{ACAD_REACTORS
330
38C
330
38B
102
}
100
AcDbRasterImageDef
 90
0
  1
B6J_assy_2_img_1.png
 10
369.0
 20
92.0
 11
0.0066666667
 21
0.0066666667
280
1
281
0
  0
TABLESTYLE
  5
392
102
{ACAD_REACTORS
330
38E
330
295
330
296
102
}
330
38E
100
AcDbTableStyle
  3
Standard
 70
0
 71
0
 40
0.06
 41
0.06
280
1
281
1
  7
Standard
140
0.18
170
1
 62
0
 63
7
283
0
  7
Standard
140
0.18
170
1
 62
0
 63
7
283
0
  7
Standard
140
0.18
170
1
 62
0
 63
7
283
0
  0
TABLESTYLE
  5
393
102
{ACAD_REACTORS
330
38E
330
294
102
}
330
38E
100
AcDbTableStyle
  3
Standard1
 70
1
 71
0
 40
0.06
 41
0.06
280
1
281
1
  7
Standard
140
0.18
170
1
 62
0
 63
7
283
0
  7
Standard
140
0.18
170
1
 62
0
 63
7
283
0
  7
Standard
140
0.18
170
1
 62
0
 63
7
283
0
  0
ENDSEC
  0
EOF
